0
SECTION
2
HEADER
9
$ACADVER
1
AC1014
9
$HANDSEED
5
       3A6
9
$EXTMAX
10
297.0000000000
20
210.0000000000
9
$EXTMIN
10
0.0000000000
20
0.0000000000
9
$LIMMIN
10
0.0000000000
20
0.0000000000
9
$LIMMAX
10
297.0000000000
20
210.0000000000
9
$VIEWCTR
10
148.5000000000
20
105.0000000000
9
$VIEWSIZE
40
210.0000000000
9
$CLAYER
8
0
9
$LTSCALE
40
16.3350000000
9
$CELTYPE
6
BYLAYER
9
$DIMSCALE
40
1
9
$DIMASZ
40
3.0000000000
9
$DIMEXO
40
1.8562500000
9
$DIMDLI
40
11.2860000000
9
$DIMEXE
40
5.3460000000
9
$DIMCEN
40
2.6730000000
9
$DIMLFAC
40
1.0000000000
9
$DIMTXT
40
3.0000000000
9
$DIMTOL
70
1
9
$DIMLIM
70
0
9
$DIMTFAC
40
1.0000000000
9
$DIMTP
40
0.0100000000
9
$DIMTM
40
0.0100000000
9
$MEASUREMENT
70
1
0
ENDSEC
0
SECTION
2
CLASSES
0
ENDSEC
0
SECTION
2
TABLES
0
TABLE
2
VPORT
5
8
100
AcDbSymbolTable
70
2
0
VPORT
5
1F4
100
AcDbSymbolTableRecord
100
AcDbViewportTableRecord
2
*ACTIVE
70
0
10
0.0
20
0.0
11
1.0
21
1.0
12
148.5000000000
22
105.0000000000
13
0.0
23
0.0
14
1.0
24
1.0
15
0.0
25
0.0
16
0.0
26
0.0
36
1.0
17
0.0
27
0.0
37
0.0
40
210.0000000000
41
1.4142857143
42
50.0
43
0.0
44
0.0
50
0.0
51
0.0
71
0
72
100
73
1
74
1
75
0
76
0
77
0
78
0
0
ENDTAB
0
TABLE
2
LTYPE
5
5
100
AcDbSymbolTable
70
6
0
LTYPE
5
14
100
AcDbSymbolTableRecord
100
AcDbLinetypeTableRecord
2
BYBLOCK
70
0
3

72
65
73
0
40
0.0
0
LTYPE
5
15
100
AcDbSymbolTableRecord
100
AcDbLinetypeTableRecord
2
BYLAYER
70
0
3

72
65
73
0
40
0.0
0
LTYPE
5
16
100
AcDbSymbolTableRecord
100
AcDbLinetypeTableRecord
2
CONTINUOUS
70
64
3
Solid line
72
65
73
0
40
0
0
LTYPE
5
1F5
100
AcDbSymbolTableRecord
100
AcDbLinetypeTableRecord
2
CENTER
70
64
3
____ _ ____ _ ____ _ ____ _ ____ _ ____ _ ____
72
65
73
4
40
0.6
49
0.375
74
0
49
-0.075
74
0
49
0.075
74
0
49
-0.075
74
0
0
LTYPE
5
1F6
100
AcDbSymbolTableRecord
100
AcDbLinetypeTableRecord
2
HIDDEN
70
64
3
- - - - - - - - - - - - - - - - - - - -
72
65
73
2
40
0.2
49
0.1
74
0
49
-0.1
74
0
0
LTYPE
5
1F7
100
AcDbSymbolTableRecord
100
AcDbLinetypeTableRecord
2
PHANTOM
70
64
3
_____ _ _ _____ _ _ _____ _ _ _____
72
65
73
6
40
0.8
49
0.45
74
0
49
-0.05
74
0
49
0.1
74
0
49
-0.05
74
0
49
0.1
74
0
49
-0.05
74
0
0
LTYPE
5
1F8
100
AcDbSymbolTableRecord
100
AcDbLinetypeTableRecord
2
DOT
70
64
3
. . . . . . . . . . . . . . . . . . . .
72
65
73
2
40
0.2
49
0.1
74
0
49
-0.1
74
0
0
LTYPE
5
1F9
100
AcDbSymbolTableRecord
100
AcDbLinetypeTableRecord
2
DASHED
70
64
3
- - - - - - - - - - - - - - - - - - - -
72
65
73
2
40
0.2
49
0.1
74
0
49
-0.1
74
0
0
ENDTAB
0
TABLE
2
LAYER
5
2
100
AcDbSymbolTable
70
36
0
LAYER
5
10
100
AcDbSymbolTableRecord
100
AcDbLayerTableRecord
2
0
70
0
62
7
6
CONTINUOUS
0
LAYER
5
1FA
100
AcDbSymbolTableRecord
100
AcDbLayerTableRecord
2
DEFAULT_1
70
0
62
7
6
CENTER
0
LAYER
5
1FB
100
AcDbSymbolTableRecord
100
AcDbLayerTableRecord
2
DEFAULT_2
70
0
62
8
6
HIDDEN
0
LAYER
5
1FC
100
AcDbSymbolTableRecord
100
AcDbLayerTableRecord
2
DEFAULT_3
70
0
62
7
6
PHANTOM
0
LAYER
5
1FD
100
AcDbSymbolTableRecord
100
AcDbLayerTableRecord
2
ASSI
70
0
62
7
6
CONTINUOUS
0
LAYER
5
1FE
100
AcDbSymbolTableRecord
100
AcDbLayerTableRecord
2
COORDINATE
70
0
62
7
6
CONTINUOUS
0
LAYER
5
1FF
100
AcDbSymbolTableRecord
100
AcDbLayerTableRecord
2
COORD_ORIGINE
70
0
62
7
6
CONTINUOUS
0
LAYER
5
200
100
AcDbSymbolTableRecord
100
AcDbLayerTableRecord
2
CURVE
70
0
62
7
6
CONTINUOUS
0
LAYER
5
201
100
AcDbSymbolTableRecord
100
AcDbLayerTableRecord
2
DRAFT
70
0
62
7
6
CONTINUOUS
0
LAYER
5
202
100
AcDbSymbolTableRecord
100
AcDbLayerTableRecord
2
IGES
70
0
62
7
6
CONTINUOUS
0
LAYER
5
203
100
AcDbSymbolTableRecord
100
AcDbLayerTableRecord
2
NOTE
70
0
62
7
6
CONTINUOUS
0
LAYER
5
204
100
AcDbSymbolTableRecord
100
AcDbLayerTableRecord
2
PIANI
70
0
62
7
6
CONTINUOUS
0
LAYER
5
205
100
AcDbSymbolTableRecord
100
AcDbLayerTableRecord
2
PIANI_ORIGINE
70
0
62
7
6
CONTINUOUS
0
LAYER
5
206
100
AcDbSymbolTableRecord
100
AcDbLayerTableRecord
2
PUNTI
70
0
62
7
6
CONTINUOUS
0
LAYER
5
207
100
AcDbSymbolTableRecord
100
AcDbLayerTableRecord
2
RACCORDO
70
0
62
7
6
CONTINUOUS
0
LAYER
5
208
100
AcDbSymbolTableRecord
100
AcDbLayerTableRecord
2
SMUSSO
70
0
62
7
6
CONTINUOUS
0
LAYER
5
209
100
AcDbSymbolTableRecord
100
AcDbLayerTableRecord
2
SNAPLINE
70
0
62
7
6
CONTINUOUS
0
LAYER
5
20A
100
AcDbSymbolTableRecord
100
AcDbLayerTableRecord
2
SUPERFICI
70
0
62
7
6
CONTINUOUS
0
LAYER
5
20B
100
AcDbSymbolTableRecord
100
AcDbLayerTableRecord
2
TRASH
70
0
62
7
6
CONTINUOUS
0
ENDTAB
0
TABLE
2
STYLE
5
3
100
AcDbSymbolTable
70
1
0
STYLE
5
11
100
AcDbSymbolTableRecord
100
AcDbTextStyleTableRecord
2
STANDARD
70
0
40
0.0
41
0.8000000000
50
0.0
71
0
42
0.2
3
txt
4

0
ENDTAB
0
TABLE
2
VIEW
5
6
100
AcDbSymbolTable
70
0
0
ENDTAB
0
TABLE
2
UCS
5
7
100
AcDbSymbolTable
70
0
0
ENDTAB
0
TABLE
2
APPID
5
9
100
AcDbSymbolTable
70
1
0
APPID
5
20C
100
AcDbSymbolTableRecord
100
AcDbRegAppTableRecord
2
ACAD
70
0
0
ENDTAB
0
TABLE
2
DIMSTYLE
5
A
100
AcDbSymbolTable
70
1
0
DIMSTYLE
105
20D
100
AcDbSymbolTableRecord
100
AcDbDimStyleTableRecord
2
STANDARD
70
0
3

4

5

6

7

40
1.0
41
3.0000000000
42
0.0625
43
0.38
44
0.18
45
0.0
46
0.0
47
0.0100000000
48
0.0100000000
140
3.0000000000
141
0.09
142
0.0
143
25.4
144
1.0000000000
145
0.0
146
1.0000000000
147
0.09
71
1
72
0
73
0
74
0
75
0
76
0
77
1
78
8
170
0
171
2
172
0
173
0
174
0
175
0
176
0
177
0
178
0
270
2
271
2
272
2
273
2
274
2
340
11
275
0
280
0
281
0
282
0
283
1
284
8
285
0
286
0
287
3
288
0
0
ENDTAB
0
TABLE
2
BLOCK_RECORD
5
1
100
AcDbSymbolTable
70
0
0
BLOCK_RECORD
5
1B
100
AcDbSymbolTableRecord
100
AcDbBlockTableRecord
2
*MODEL_SPACE
0
BLOCK_RECORD
5
1C
100
AcDbSymbolTableRecord
100
AcDbBlockTableRecord
2
*PAPER_SPACE
0
ENDTAB
0
ENDSEC
0
SECTION
2
BLOCKS
0
BLOCK
5
1E
100
AcDbEntity
8
0
100
AcDbBlockBegin
2
*MODEL_SPACE
70
0
10
0.0
20
0.0
30
0.0
3
*MODEL_SPACE
1

0
ENDBLK
5
1F
100
AcDbEntity
8
0
100
AcDbBlockEnd
0
BLOCK
5
20
100
AcDbEntity
8
0
100
AcDbBlockBegin
2
*PAPER_SPACE
70
0
10
0.0
20
0.0
30
0.0
3
*PAPER_SPACE
1

0
ENDBLK
5
21
100
AcDbEntity
8
0
100
AcDbBlockEnd
0
ENDSEC
0
SECTION
2
ENTITIES
0
LINE
5
20E
100
AcDbEntity
8
0
100
AcDbLine
62
7
6
CONTINUOUS
10
-366.5203255795
20
-350.1597576574
11
-356.6208306429
21
-355.1095051257
0
LINE
5
20F
100
AcDbEntity
8
0
100
AcDbLine
62
7
6
CONTINUOUS
10
-367.9345391419
20
-349.1348136310
11
-358.0350442053
21
-354.0845610993
0
LINE
5
210
100
AcDbEntity
8
0
100
AcDbLine
62
7
6
CONTINUOUS
10
-330.7616881676
20
-312.8711979385
11
-335.3985097725
21
-309.4860277855
0
LINE
5
211
100
AcDbEntity
8
0
100
AcDbLine
62
7
6
CONTINUOUS
10
-332.9357233216
20
-308.1984615543
11
-328.2987942365
21
-311.5835779672
0
LINE
5
212
100
AcDbEntity
8
0
100
AcDbLine
62
7
6
CONTINUOUS
10
-368.5203255795
20
-348.4277068498
11
-368.5203255795
21
-111.1367462129
0
LINE
5
213
100
AcDbEntity
8
0
100
AcDbLine
62
9
6
CONTINUOUS
10
-367.9345391419
20
-349.1348136310
11
-367.9345391419
21
-111.8438529940
0
LINE
5
214
100
AcDbEntity
8
0
100
AcDbLine
62
7
6
CONTINUOUS
10
-367.1061120172
20
-108.6975886241
11
-367.1061120172
21
-109.9966267298
0
LINE
5
215
100
AcDbEntity
8
0
100
AcDbLine
62
9
6
CONTINUOUS
10
-366.8738789701
20
-111.3135229081
11
-366.8738789701
21
-110.9599695176
0
LINE
5
216
100
AcDbEntity
8
0
100
AcDbLine
62
9
6
CONTINUOUS
10
-366.5203255795
20
-109.4046954053
11
-366.5203255795
21
-110.7037335110
0
LINE
5
217
100
AcDbEntity
8
0
100
AcDbLine
62
9
6
CONTINUOUS
10
-366.5203255795
20
-349.8419204122
11
-366.5203255795
21
-350.1597576574
0
LINE
5
218
100
AcDbEntity
8
0
100
AcDbLine
62
7
6
CONTINUOUS
10
-358.3885975959
20
-115.5561635953
11
-358.3885975959
21
-114.7695975028
0
LINE
5
219
100
AcDbEntity
8
0
100
AcDbLine
62
9
6
CONTINUOUS
10
-358.0350442053
20
-354.0845610993
11
-358.0350442053
21
-116.7936004623
0
LINE
5
21A
100
AcDbEntity
8
0
100
AcDbLine
62
9
6
CONTINUOUS
10
-355.2066170805
20
-354.0845610993
11
-355.2066170805
21
-116.7936004623
0
LINE
5
21B
100
AcDbEntity
8
0
100
AcDbLine
62
7
6
CONTINUOUS
10
-318.7906178494
20
-230.9196581913
11
-315.2197286044
21
-237.0785311029
0
LINE
5
21C
100
AcDbEntity
8
0
100
AcDbLine
62
7
6
CONTINUOUS
10
-310.1097520629
20
-233.2884992711
11
-312.4597520629
21
-229.2353488233
0
LINE
5
21D
100
AcDbEntity
8
0
100
AcDbLine
62
7
6
CONTINUOUS
10
-308.8252950125
20
-232.3575956113
11
-311.0455385006
21
-228.5282420422
0
LINE
5
21E
100
AcDbEntity
8
0
100
AcDbLine
62
7
6
CONTINUOUS
10
-310.1097520629
20
-227.5321983756
11
-307.7597520629
21
-231.5853488233
0
LINE
5
21F
100
AcDbEntity
8
0
100
AcDbLine
62
7
6
CONTINUOUS
10
-319.1483103024
20
-218.0012668467
11
-319.6630618360
21
-216.8900041338
0
LINE
5
220
100
AcDbEntity
8
0
100
AcDbLine
62
7
6
CONTINUOUS
10
-317.7480064414
20
-218.5819553639
11
-317.8215669243
21
-217.3922025716
0
LINE
5
221
100
AcDbEntity
8
0
100
AcDbLine
62
7
6
CONTINUOUS
10
-338.9047645079
20
-311.2391551532
11
-338.9047645079
21
-322.6216595889
0
LINE
5
222
100
AcDbEntity
8
0
100
AcDbLine
62
7
6
CONTINUOUS
10
-338.9046563642
20
-258.9692165583
11
-338.9046563642
21
-265.4772724176
0
LINE
5
223
100
AcDbEntity
8
0
100
AcDbLine
62
7
6
CONTINUOUS
10
-338.9046563642
20
-270.0725748468
11
-338.9046563642
21
-272.9442103218
0
LINE
5
224
100
AcDbEntity
8
0
100
AcDbLine
62
7
6
CONTINUOUS
10
-338.9046563206
20
-277.6273301198
11
-338.9046563206
21
-281.3876990256
0
LINE
5
225
100
AcDbEntity
8
0
100
AcDbLine
62
7
6
CONTINUOUS
10
-338.9046563206
20
-286.9192041974
11
-338.9046563206
21
-290.6795713712
0
LINE
5
226
100
AcDbEntity
8
0
100
AcDbLine
62
7
6
CONTINUOUS
10
-338.8936742452
20
-291.9905662529
11
-338.8936742452
21
-294.6819497734
0
LINE
5
227
100
AcDbEntity
8
0
100
AcDbLine
62
7
6
CONTINUOUS
10
-338.8880760808
20
-294.9312654086
11
-338.8880760808
21
-297.7127095089
0
LINE
5
228
100
AcDbEntity
8
0
100
AcDbLine
62
7
6
CONTINUOUS
10
-338.8880760808
20
-303.4648155998
11
-338.8880760808
21
-306.2462588340
0
LINE
5
229
100
AcDbEntity
8
0
100
AcDbLine
62
7
6
CONTINUOUS
10
-338.8717857548
20
-112.8821407766
11
-338.8717857548
21
-123.6447373000
0
LINE
5
22A
100
AcDbEntity
8
0
100
AcDbLine
62
7
6
CONTINUOUS
10
-338.8717857548
20
-127.0283141411
11
-338.8717857548
21
-137.2671627490
0
LINE
5
22B
100
AcDbEntity
8
0
100
AcDbLine
62
7
6
CONTINUOUS
10
-338.8717857548
20
-169.6422753929
11
-338.8717857548
21
-182.1077645146
0
LINE
5
22C
100
AcDbEntity
8
0
100
AcDbLine
62
7
6
CONTINUOUS
10
-338.8717857548
20
-184.1161467081
11
-338.8717857548
21
-194.8787440975
0
LINE
5
22D
100
AcDbEntity
8
0
100
AcDbLine
62
7
6
CONTINUOUS
10
-338.8717857548
20
-199.3320242590
11
-338.8717857548
21
-201.2968791496
0
LINE
5
22E
100
AcDbEntity
8
0
100
AcDbLine
62
7
6
CONTINUOUS
10
-338.8717857548
20
-209.5489991248
11
-338.8717857548
21
-211.7538977433
0
LINE
5
22F
100
AcDbEntity
8
0
100
AcDbLine
62
7
6
CONTINUOUS
10
-338.2486054774
20
-145.3883087843
11
-338.2486054774
21
-147.2523087796
0
LINE
5
230
100
AcDbEntity
8
0
100
AcDbLine
62
7
6
CONTINUOUS
10
-337.6834496755
20
-192.2106366074
11
-337.6834496755
21
-183.5219691426
0
LINE
5
231
100
AcDbEntity
8
0
100
AcDbLine
62
7
6
CONTINUOUS
10
-337.6834496755
20
-181.5135921451
11
-337.6834496755
21
-176.3178199073
0
LINE
5
232
100
AcDbEntity
8
0
100
AcDbLine
62
7
6
CONTINUOUS
10
-337.6834496755
20
-174.2438622703
11
-337.6834496755
21
-169.0480908996
0
LINE
5
233
100
AcDbEntity
8
0
100
AcDbLine
62
7
6
CONTINUOUS
10
-337.6834496755
20
-134.5989063026
11
-337.6834496755
21
-126.4341461014
0
LINE
5
234
100
AcDbEntity
8
0
100
AcDbLine
62
7
6
CONTINUOUS
10
-337.6834496755
20
-120.9765414753
11
-337.6834496755
21
-112.2879909225
0
LINE
5
235
100
AcDbEntity
8
0
100
AcDbLine
62
7
6
CONTINUOUS
10
-337.1958323380
20
-261.9450583461
11
-337.1958323380
21
-258.7627619666
0
LINE
5
236
100
AcDbEntity
8
0
100
AcDbLine
62
7
6
CONTINUOUS
10
-335.6177430882
20
-156.3086185305
11
-335.6177430882
21
-154.0968152350
0
LINE
5
237
100
AcDbEntity
8
0
100
AcDbLine
62
7
6
CONTINUOUS
10
-334.3115169442
20
-111.1913115438
11
-334.3115169442
21
-119.2905785738
0
LINE
5
238
100
AcDbEntity
8
0
100
AcDbLine
62
7
6
CONTINUOUS
10
-334.3115169442
20
-125.7525042004
11
-334.3115169442
21
-132.9129399369
0
LINE
5
239
100
AcDbEntity
8
0
100
AcDbLine
62
7
6
CONTINUOUS
10
-334.3115169442
20
-182.4254066759
11
-334.3115169442
21
-190.5246459932
0
LINE
5
23A
100
AcDbEntity
8
0
100
AcDbLine
62
7
6
CONTINUOUS
10
-333.8498877132
20
-257.2923257957
11
-333.8498877132
21
-260.2720860337
0
LINE
5
23B
100
AcDbEntity
8
0
100
AcDbLine
62
7
6
CONTINUOUS
10
-333.1232112705
20
-189.9304931562
11
-333.1232112705
21
-181.8312538391
0
LINE
5
23C
100
AcDbEntity
8
0
100
AcDbLine
62
7
6
CONTINUOUS
10
-333.1232112705
20
-132.3187871001
11
-333.1232112705
21
-125.1583513635
0
LINE
5
23D
100
AcDbEntity
8
0
100
AcDbLine
62
7
6
CONTINUOUS
10
-333.1232112705
20
-118.6964257369
11
-333.1232112705
21
-110.5971587070
0
LINE
5
23E
100
AcDbEntity
8
0
100
AcDbLine
62
7
6
CONTINUOUS
10
-332.1796069708
20
-266.4806146773
11
-332.1796069708
21
-269.8111210979
0
LINE
5
23F
100
AcDbEntity
8
0
100
AcDbLine
62
7
6
CONTINUOUS
10
-332.1575360960
20
-259.4369864204
11
-332.1575360960
21
-257.6613668361
0
LINE
5
240
100
AcDbEntity
8
0
100
AcDbLine
62
7
6
CONTINUOUS
10
-331.8445868308
20
-162.0204878457
11
-331.8445868308
21
-164.2322919542
0
LINE
5
241
100
AcDbEntity
8
0
100
AcDbLine
62
7
6
CONTINUOUS
10
-330.3934810513
20
-269.5391162283
11
-330.3934810513
21
-264.9664936274
0
LINE
5
242
100
AcDbEntity
8
0
100
AcDbLine
62
7
6
CONTINUOUS
10
-329.4541635834
20
-108.1077724339
11
-329.4541635834
21
-116.8619018934
0
LINE
5
243
100
AcDbEntity
8
0
100
AcDbLine
62
7
6
CONTINUOUS
10
-329.4541635834
20
-179.3418355230
11
-329.4541635834
21
-188.0959693127
0
LINE
5
244
100
AcDbEntity
8
0
100
AcDbLine
62
7
6
CONTINUOUS
10
-329.1063087664
20
-147.0586303754
11
-329.1063087664
21
-145.2134102193
0
LINE
5
245
100
AcDbEntity
8
0
100
AcDbLine
62
7
6
CONTINUOUS
10
-329.1063087664
20
-138.3739617809
11
-329.1063087664
21
-136.5063787631
0
LINE
5
246
100
AcDbEntity
8
0
100
AcDbLine
62
7
6
CONTINUOUS
10
-328.2987942365
20
-317.2625014474
11
-328.2987942365
21
-305.8799970117
0
LINE
5
247
100
AcDbEntity
8
0
100
AcDbLine
62
7
6
CONTINUOUS
10
-328.2934103255
20
-296.6281546098
11
-328.2934103255
21
-293.9547047435
0
LINE
5
248
100
AcDbEntity
8
0
100
AcDbLine
62
7
6
CONTINUOUS
10
-328.2914724647
20
-260.1706804678
11
-328.2914724647
21
-257.5039546047
0
LINE
5
249
100
AcDbEntity
8
0
100
AcDbLine
62
7
6
CONTINUOUS
10
-328.2878121611
20
-285.3711492914
11
-328.2878121611
21
-282.9136852947
0
LINE
5
24A
100
AcDbEntity
8
0
100
AcDbLine
62
7
6
CONTINUOUS
10
-328.2878121611
20
-274.7762412669
11
-328.2878121611
21
-272.3189080400
0
LINE
5
24B
100
AcDbEntity
8
0
100
AcDbLine
62
7
6
CONTINUOUS
10
-328.2878119294
20
-272.1184825487
11
-328.2878119294
21
-269.2560772364
0
LINE
5
24C
100
AcDbEntity
8
0
100
AcDbLine
62
7
6
CONTINUOUS
10
-328.2878119294
20
-263.1438634974
11
-328.2878119294
21
-260.2814581851
0
LINE
5
24D
100
AcDbEntity
8
0
100
AcDbLine
62
7
6
CONTINUOUS
10
-328.2878119294
20
-252.7965873933
11
-328.2878119294
21
-249.8395069836
0
LINE
5
24E
100
AcDbEntity
8
0
100
AcDbLine
62
7
6
CONTINUOUS
10
-328.2841514693
20
-280.1911989038
11
-328.2841514693
21
-277.4951994679
0
LINE
5
24F
100
AcDbEntity
8
0
100
AcDbLine
62
7
6
CONTINUOUS
10
-328.2658275046
20
-171.6090088219
11
-328.2658487173
21
-169.5350617913
0
LINE
5
250
100
AcDbEntity
8
0
100
AcDbLine
62
7
6
CONTINUOUS
10
-328.2658275041
20
-189.5757649722
11
-328.2658487173
21
-178.7476780900
0
LINE
5
251
100
AcDbEntity
8
0
100
AcDbLine
62
7
6
CONTINUOUS
10
-328.2658275041
20
-131.9641836237
11
-328.2658487173
21
-129.8901058235
0
LINE
5
252
100
AcDbEntity
8
0
100
AcDbLine
62
7
6
CONTINUOUS
10
-328.2658487173
20
-289.3680370094
11
-328.2658487173
21
-286.6766534890
0
LINE
5
253
100
AcDbEntity
8
0
100
AcDbLine
62
7
6
CONTINUOUS
10
-328.2658487173
20
-118.3417687813
11
-328.2658487173
21
-107.5136150008
0
LINE
5
254
100
AcDbEntity
8
0
100
AcDbLine
62
7
6
CONTINUOUS
10
-328.2658275041
20
-206.4509394026
11
-328.2658275041
21
-204.4860637274
0
LINE
5
255
100
AcDbEntity
8
0
100
AcDbLine
62
7
6
CONTINUOUS
10
-328.2658275041
20
-196.2994788201
11
-328.2658275041
21
-194.0290451337
0
LINE
5
256
100
AcDbEntity
8
0
100
AcDbLine
62
7
6
CONTINUOUS
10
-324.4828274380
20
-218.3661229435
11
-324.4828274380
21
-220.5955223545
0
LINE
5
257
100
AcDbEntity
8
0
100
AcDbLine
62
7
6
CONTINUOUS
10
-324.4474720989
20
-221.6826430785
11
-324.4474720989
21
-226.2725777186
0
LINE
5
258
100
AcDbEntity
8
0
100
AcDbLine
62
7
6
CONTINUOUS
10
-324.4121167599
20
-221.6649654090
11
-324.4121167599
21
-218.3307676044
0
LINE
5
259
100
AcDbEntity
8
0
100
AcDbLine
62
7
6
CONTINUOUS
10
-322.9979031975
20
-219.8530602343
11
-322.9979031975
21
-217.6236608232
0
LINE
5
25A
100
AcDbEntity
8
0
100
AcDbLine
62
7
6
CONTINUOUS
10
-318.7906178494
20
-221.2201736689
11
-318.7906178494
21
-223.0388270168
0
LINE
5
25B
100
AcDbEntity
8
0
100
AcDbLine
62
7
6
CONTINUOUS
10
-318.7906178494
20
-229.1010048433
11
-318.7906178494
21
-230.9196581913
0
LINE
5
25C
100
AcDbEntity
8
0
100
AcDbLine
62
7
6
CONTINUOUS
10
-330.4981924993
20
-231.8073957002
11
-332.2659594523
21
-230.9235122237
0
LINE
5
25D
100
AcDbEntity
8
0
100
AcDbLine
62
7
6
CONTINUOUS
10
-315.2197286044
20
-237.0785311029
11
-309.9164277455
21
-239.7301815323
0
LINE
5
25E
100
AcDbEntity
8
0
100
AcDbLine
62
7
6
CONTINUOUS
10
-324.4474720989
20
-226.2725777186
11
-318.7906178494
21
-229.1010048433
0
LINE
5
25F
100
AcDbEntity
8
0
100
AcDbLine
62
7
6
CONTINUOUS
10
-306.6990918911
20
-235.1467678225
11
-305.4970103631
21
-235.7478085865
0
LINE
5
260
100
AcDbEntity
8
0
100
AcDbLine
62
7
6
CONTINUOUS
10
-306.6990918911
20
-226.4865137846
11
-309.9164277455
21
-221.2838404317
0
LINE
5
261
100
AcDbEntity
8
0
100
AcDbLine
62
7
6
CONTINUOUS
10
-305.2848783288
20
-225.7794070035
11
-308.5022141832
21
-220.5767336505
0
LINE
5
262
100
AcDbEntity
8
0
100
AcDbLine
62
7
6
CONTINUOUS
10
-310.6588898658
20
-331.8106974919
11
-310.6588898658
21
-239.3589504722
0
LINE
5
263
100
AcDbEntity
8
0
100
AcDbLine
62
7
6
CONTINUOUS
10
-310.6588898658
20
-229.1951122920
11
-310.6588898658
21
-228.2480204271
0
LINE
5
264
100
AcDbEntity
8
0
100
AcDbLine
62
7
6
CONTINUOUS
10
-310.6588898658
20
-219.4983958092
11
-310.6588898658
21
-94.5197368550
0
LINE
5
265
100
AcDbEntity
8
0
100
AcDbLine
62
7
6
CONTINUOUS
10
-306.6990918911
20
-237.7448440338
11
-306.6990918911
21
-235.1467678225
0
LINE
5
266
100
AcDbEntity
8
0
100
AcDbLine
62
7
6
CONTINUOUS
10
-306.6990918911
20
-229.0845899960
11
-306.6990918911
21
-226.4865137846
0
LINE
5
267
100
AcDbEntity
8
0
100
AcDbLine
62
7
6
CONTINUOUS
10
-305.4970103631
20
-235.7478085865
11
-305.4970103631
21
-229.6856307600
0
LINE
5
268
100
AcDbEntity
8
0
100
AcDbLine
62
7
6
CONTINUOUS
10
-305.2848783288
20
-237.0377372526
11
-305.2848783288
21
-235.6417425693
0
LINE
5
269
100
AcDbEntity
8
0
100
AcDbLine
62
7
6
CONTINUOUS
10
-305.2848783288
20
-228.3774832148
11
-305.2848783288
21
-225.7794070035
0
LINE
5
26A
100
AcDbEntity
8
0
100
AcDbLine
62
7
6
CONTINUOUS
10
-304.0827968008
20
-235.0407018053
11
-304.0827968008
21
-228.9785239788
0
LINE
5
26B
100
AcDbEntity
8
0
100
AcDbLine
62
7
6
CONTINUOUS
10
-338.8880760808
20
-297.7127095089
11
-331.2644729088
21
-296.7768942844
0
LINE
5
26C
100
AcDbEntity
8
0
100
AcDbLine
62
7
6
CONTINUOUS
10
-328.2934103255
20
-293.9547047435
11
-338.8880760808
21
-294.9312654086
0
LINE
5
26D
100
AcDbEntity
8
0
100
AcDbLine
62
7
6
CONTINUOUS
10
-321.6190449742
20
-223.0968566409
11
-324.4474720989
21
-221.6826430785
0
LINE
5
26E
100
AcDbEntity
8
0
100
AcDbLine
62
7
6
CONTINUOUS
10
-320.2605737526
20
-222.3618786893
11
-323.0332585366
21
-220.9755362973
0
LINE
5
26F
100
AcDbEntity
8
0
100
AcDbLine
62
7
6
CONTINUOUS
10
-305.4970103631
20
-229.6856307600
11
-306.6990918911
21
-229.0845899960
0
LINE
5
270
100
AcDbEntity
8
0
100
AcDbLine
62
7
6
CONTINUOUS
10
-318.7906178494
20
-223.0388270168
11
-320.2048314118
21
-222.3317202357
0
LINE
5
271
100
AcDbEntity
8
0
100
AcDbLine
62
7
6
CONTINUOUS
10
-304.0827968008
20
-228.9785239788
11
-305.2848783288
21
-228.3774832148
0
LINE
5
272
100
AcDbEntity
8
0
100
AcDbLine
62
7
6
CONTINUOUS
10
-309.9164277455
20
-221.2838404317
11
-315.2197286044
21
-218.6321900023
0
LINE
5
273
100
AcDbEntity
8
0
100
AcDbLine
62
7
6
CONTINUOUS
10
-308.5022141832
20
-220.5767336505
11
-313.8055150421
21
-217.9250832211
0
LINE
5
274
100
AcDbEntity
8
0
100
AcDbLine
62
7
6
CONTINUOUS
10
-320.6594933983
20
-212.1299974982
11
-322.4272603513
21
-211.2461140217
0
LINE
5
275
100
AcDbEntity
8
0
100
AcDbLine
62
7
6
CONTINUOUS
10
-335.0848929158
20
-162.4871161735
11
-335.3153143727
21
-162.9092279622
0
LINE
5
276
100
AcDbEntity
8
0
100
AcDbLine
62
7
6
CONTINUOUS
10
-338.9046563206
20
-281.3876990256
11
-331.3306856807
21
-280.3663346557
0
LINE
5
277
100
AcDbEntity
8
0
100
AcDbLine
62
7
6
CONTINUOUS
10
-328.2841514693
20
-277.4951994679
11
-335.6155576132
21
-278.4469720481
0
LINE
5
278
100
AcDbEntity
8
0
100
AcDbLine
62
7
6
CONTINUOUS
10
-338.9046563642
20
-272.9442103218
11
-328.2878119294
21
-272.1184825487
0
LINE
5
279
100
AcDbEntity
8
0
100
AcDbLine
62
7
6
CONTINUOUS
10
-336.8228463752
20
-208.7645731629
11
-328.2658275041
21
-196.2994788201
0
LINE
5
27A
100
AcDbEntity
8
0
100
AcDbLine
62
7
6
CONTINUOUS
10
-330.2254724519
20
-196.9737224982
11
-338.8717857548
21
-209.5489991248
0
LINE
5
27B
100
AcDbEntity
8
0
100
AcDbLine
62
7
6
CONTINUOUS
10
-336.2015002455
20
-145.2967773597
11
-329.1063087664
21
-138.3739617809
0
LINE
5
27C
100
AcDbEntity
8
0
100
AcDbLine
62
7
6
CONTINUOUS
10
-329.1063087664
20
-136.5063787631
11
-338.2486054774
21
-145.3883087843
0
LINE
5
27D
100
AcDbEntity
8
0
100
AcDbLine
62
7
6
CONTINUOUS
10
6.8320548870
20
78.6857083903
11
48.5513549770
21
99.5453584353
0
LINE
5
27E
100
AcDbEntity
8
0
100
AcDbLine
62
7
6
CONTINUOUS
10
-324.8010254895
20
-87.1308317979
11
-366.5203255795
21
-107.9904818429
0
LINE
5
27F
100
AcDbEntity
8
0
100
AcDbLine
62
7
6
CONTINUOUS
10
-367.0985923613
20
-110.0116660414
11
-367.9345391419
21
-110.4296394317
0
LINE
5
280
100
AcDbEntity
8
0
100
AcDbLine
62
7
6
CONTINUOUS
10
-366.8738789701
20
-110.9599695176
11
-366.4885418550
21
-110.7673009600
0
LINE
5
281
100
AcDbEntity
8
0
100
AcDbLine
62
7
6
CONTINUOUS
10
-328.2878119294
20
-269.2560772364
11
-330.3934810513
21
-269.5391162283
0
LINE
5
282
100
AcDbEntity
8
0
100
AcDbLine
62
7
6
CONTINUOUS
10
-332.1796069708
20
-269.8111210979
11
-336.6992914857
21
-270.4058420045
0
LINE
5
283
100
AcDbEntity
8
0
100
AcDbLine
62
9
6
CONTINUOUS
10
16.7315498236
20
72.3217473597
11
53.5023289324
21
90.7071369141
0
LINE
5
284
100
AcDbEntity
8
0
100
AcDbLine
62
9
6
CONTINUOUS
10
-312.0731034282
20
-92.0805792662
11
-356.6208306429
21
-114.3544428736
0
LINE
5
285
100
AcDbEntity
8
DEFAULT_3
100
AcDbLine
62
8
6
PHANTOM
10
17.0851032142
20
69.9361639890
11
-310.7261301826
21
-93.9694527094
0
LINE
5
286
100
AcDbEntity
8
0
100
AcDbLine
62
9
6
CONTINUOUS
10
-355.2066170805
20
-116.7936004623
11
-310.6588898658
21
-94.5197368550
0
LINE
5
287
100
AcDbEntity
8
0
100
AcDbLine
62
9
6
CONTINUOUS
10
18.1457633860
20
69.8825897709
11
62.6934906007
21
92.1564533783
0
LINE
5
288
100
AcDbEntity
8
DEFAULT_3
100
AcDbLine
62
8
6
PHANTOM
10
17.0851032142
20
68.5219504266
11
-310.6588898658
21
-95.3500461134
0
LINE
5
289
100
AcDbEntity
8
DEFAULT_3
100
AcDbLine
62
8
6
PHANTOM
10
17.0851032142
20
66.9488182417
11
-310.6588898658
21
-96.9231782983
0
LINE
5
28A
100
AcDbEntity
8
0
100
AcDbLine
62
7
6
CONTINUOUS
10
-328.2658487173
20
-107.5136150008
11
-329.4541635834
21
-108.1077724339
0
LINE
5
28B
100
AcDbEntity
8
0
100
AcDbLine
62
7
6
CONTINUOUS
10
-337.6834496755
20
-112.2879909225
11
-338.8717857548
21
-112.8821407766
0
LINE
5
28C
100
AcDbEntity
8
0
100
AcDbLine
62
7
6
CONTINUOUS
10
-333.1232112705
20
-110.5971587070
11
-334.3115169442
21
-111.1913115438
0
LINE
5
28D
100
AcDbEntity
8
0
100
AcDbLine
62
7
6
CONTINUOUS
10
-329.4541635834
20
-116.8619018934
11
-333.1232112705
21
-118.6964257369
0
LINE
5
28E
100
AcDbEntity
8
0
100
AcDbLine
62
7
6
CONTINUOUS
10
-334.3115169442
20
-119.2905785738
11
-337.6834496755
21
-120.9765414753
0
LINE
5
28F
100
AcDbEntity
8
0
100
AcDbLine
62
7
6
CONTINUOUS
10
-338.8717857548
20
-123.6447373000
11
-328.2658487173
21
-118.3417687813
0
LINE
5
290
100
AcDbEntity
8
0
100
AcDbLine
62
7
6
CONTINUOUS
10
-337.6834496755
20
-126.4341461014
11
-338.8717857548
21
-127.0283141411
0
LINE
5
291
100
AcDbEntity
8
0
100
AcDbLine
62
7
6
CONTINUOUS
10
-367.9345391419
20
-111.8438529940
11
-358.0350442053
21
-116.7936004623
0
LINE
5
292
100
AcDbEntity
8
0
100
AcDbLine
62
7
6
CONTINUOUS
10
-356.9743840335
20
-116.2632703765
11
-366.8738789701
21
-111.3135229081
0
LINE
5
293
100
AcDbEntity
8
0
100
AcDbLine
62
7
6
CONTINUOUS
10
-355.2066170805
20
-116.7936004623
11
-356.2672772523
21
-116.2632703765
0
LINE
5
294
100
AcDbEntity
8
0
100
AcDbLine
62
7
6
CONTINUOUS
10
-356.6208306429
20
-115.6534809793
11
-366.5203255795
21
-110.7037335110
0
LINE
5
295
100
AcDbEntity
8
0
100
AcDbLine
62
7
6
CONTINUOUS
10
-366.5203255795
20
-109.4046954053
11
-356.6208306429
21
-114.3544428736
0
LINE
5
296
100
AcDbEntity
8
0
100
AcDbLine
62
7
6
CONTINUOUS
10
-328.2878119294
20
-249.8395069836
11
-332.2788720762
21
-255.0215529395
0
LINE
5
297
100
AcDbEntity
8
0
100
AcDbLine
62
7
6
CONTINUOUS
10
53.1737184295
20
105.1286817652
11
52.5205211647
21
104.6668015499
0
LINE
5
298
100
AcDbEntity
8
0
100
AcDbLine
62
7
6
CONTINUOUS
10
-333.1232112705
20
-125.1583513635
11
-334.3115169442
21
-125.7525042004
0
LINE
5
299
100
AcDbEntity
8
0
100
AcDbLine
62
7
6
CONTINUOUS
10
-328.2658487173
20
-129.8901058235
11
-333.1232112705
21
-132.3187871001
0
LINE
5
29A
100
AcDbEntity
8
0
100
AcDbLine
62
7
6
CONTINUOUS
10
-334.3115169442
20
-132.9129399369
11
-337.6834496755
21
-134.5989063026
0
LINE
5
29B
100
AcDbEntity
8
0
100
AcDbLine
62
7
6
CONTINUOUS
10
-338.8717857548
20
-137.2671627490
11
-328.2658275041
21
-131.9641836237
0
LINE
5
29C
100
AcDbEntity
8
0
100
AcDbLine
62
7
6
CONTINUOUS
10
-324.8944671630
20
-229.4935805679
11
-326.0923282534
21
-229.7485369687
0
LINE
5
29D
100
AcDbEntity
8
0
100
AcDbLine
62
7
6
CONTINUOUS
10
-335.3985097725
20
-320.8685322212
11
-330.7616881676
21
-312.8711979385
0
LINE
5
29E
100
AcDbEntity
8
0
100
AcDbLine
62
7
6
CONTINUOUS
10
-328.2987942365
20
-311.5835779672
11
-332.9357233216
21
-319.5809659900
0
LINE
5
29F
100
AcDbEntity
8
0
100
AcDbLine
62
7
6
CONTINUOUS
10
-332.1575360960
20
-257.6613668361
11
-328.2878119294
21
-252.7965873933
0
LINE
5
2A0
100
AcDbEntity
8
0
100
AcDbLine
62
7
6
CONTINUOUS
10
-337.6834496755
20
-169.0480908996
11
-338.8717857548
21
-169.6422753929
0
LINE
5
2A1
100
AcDbEntity
8
0
100
AcDbLine
62
7
6
CONTINUOUS
10
-321.9725983648
20
-87.1308317979
11
-312.0731034282
21
-92.0805792662
0
LINE
5
2A2
100
AcDbEntity
8
0
100
AcDbLine
62
7
6
CONTINUOUS
10
-328.2878119294
20
-260.2814581851
11
-338.9046563642
21
-270.0725748468
0
LINE
5
2A3
100
AcDbEntity
8
0
100
AcDbLine
62
7
6
CONTINUOUS
10
-315.2197286044
20
-218.6321900023
11
-318.7906178494
21
-221.2201736689
0
LINE
5
2A4
100
AcDbEntity
8
0
100
AcDbLine
62
7
6
CONTINUOUS
10
-328.2658487173
20
-169.5350617913
11
-337.6834496755
21
-174.2438622703
0
LINE
5
2A5
100
AcDbEntity
8
0
100
AcDbLine
62
7
6
CONTINUOUS
10
-337.6834496755
20
-176.3178199073
11
-328.2658275046
21
-171.6090088219
0
LINE
5
2A6
100
AcDbEntity
8
0
100
AcDbLine
62
7
6
CONTINUOUS
10
-338.8717857548
20
-182.1077645146
11
-337.6834496755
21
-181.5135921451
0
LINE
5
2A7
100
AcDbEntity
8
0
100
AcDbLine
62
7
6
CONTINUOUS
10
-328.2658487173
20
-178.7476780900
11
-329.4541635834
21
-179.3418355230
0
LINE
5
2A8
100
AcDbEntity
8
0
100
AcDbLine
62
7
6
CONTINUOUS
10
-337.6834496755
20
-183.5219691426
11
-338.8717857548
21
-184.1161467081
0
LINE
5
2A9
100
AcDbEntity
8
0
100
AcDbLine
62
7
6
CONTINUOUS
10
-333.1232112705
20
-181.8312538391
11
-334.3115169442
21
-182.4254066759
0
LINE
5
2AA
100
AcDbEntity
8
0
100
AcDbLine
62
7
6
CONTINUOUS
10
-334.3115169442
20
-190.5246459932
11
-337.6834496755
21
-192.2106366074
0
LINE
5
2AB
100
AcDbEntity
8
0
100
AcDbLine
62
7
6
CONTINUOUS
10
-329.4541635834
20
-188.0959693127
11
-333.1232112705
21
-189.9304931562
0
LINE
5
2AC
100
AcDbEntity
8
0
100
AcDbLine
62
7
6
CONTINUOUS
10
-338.8717857548
20
-194.8787440975
11
-328.2658275041
21
-189.5757649722
0
LINE
5
2AD
100
AcDbEntity
8
0
100
AcDbLine
62
7
6
CONTINUOUS
10
-338.2486054774
20
-147.2523087796
11
-329.1063087664
21
-147.0586303754
0
LINE
5
2AE
100
AcDbEntity
8
0
100
AcDbLine
62
7
6
CONTINUOUS
10
-329.1063087664
20
-145.2134102193
11
-336.2015002455
21
-145.2967773597
0
LINE
5
2AF
100
AcDbEntity
8
0
100
AcDbLine
62
7
6
CONTINUOUS
10
-335.6155576132
20
-286.5708324675
11
-328.2841514693
21
-280.1911989038
0
LINE
5
2B0
100
AcDbEntity
8
0
100
AcDbLine
62
7
6
CONTINUOUS
10
-336.6992914857
20
-270.4058420045
11
-332.1796069708
21
-266.4806146773
0
LINE
5
2B1
100
AcDbEntity
8
0
100
AcDbLine
62
7
6
CONTINUOUS
10
-330.3934810513
20
-264.9664936274
11
-328.2878119294
21
-263.1438634974
0
LINE
5
2B2
100
AcDbEntity
8
0
100
AcDbLine
62
7
6
CONTINUOUS
10
-331.3306856807
20
-280.3663346557
11
-338.9046563206
21
-286.9192041974
0
LINE
5
2B3
100
AcDbEntity
8
0
100
AcDbLine
62
7
6
CONTINUOUS
10
-312.4597520629
20
-229.2353488233
11
-310.1097520629
21
-227.5321983756
0
LINE
5
2B4
100
AcDbEntity
8
0
100
AcDbLine
62
7
6
CONTINUOUS
10
-311.0455385006
20
-228.5282420422
11
-309.9799955509
21
-227.7559952542
0
LINE
5
2B5
100
AcDbEntity
8
0
100
AcDbLine
62
7
6
CONTINUOUS
10
-307.7597520629
20
-231.5853488233
11
-310.1097520629
21
-233.2884992711
0
LINE
5
2B6
100
AcDbEntity
8
0
100
AcDbLine
62
7
6
CONTINUOUS
10
-323.5897340326
20
-230.2654105464
11
-324.5856725562
21
-230.9204138354
0
LINE
5
2B7
100
AcDbEntity
8
0
100
AcDbLine
62
7
6
CONTINUOUS
10
-328.2658275041
20
-194.0290451337
11
-338.8717857548
21
-199.3320242590
0
LINE
5
2B8
100
AcDbEntity
8
0
100
AcDbLine
62
7
6
CONTINUOUS
10
-338.8717857548
20
-201.2968791496
11
-330.2254724519
21
-196.9737224982
0
LINE
5
2B9
100
AcDbEntity
8
0
100
AcDbLine
62
7
6
CONTINUOUS
10
-328.2658275041
20
-204.4860637274
11
-336.8228463752
21
-208.7645731629
0
LINE
5
2BA
100
AcDbEntity
8
0
100
AcDbLine
62
7
6
CONTINUOUS
10
-338.8717857548
20
-211.7538977433
11
-328.2658275041
21
-206.4509394026
0
LINE
5
2BB
100
AcDbEntity
8
0
100
AcDbLine
62
7
6
CONTINUOUS
10
-338.8880760808
20
-306.2462588340
11
-328.2934103255
21
-296.6281546098
0
LINE
5
2BC
100
AcDbEntity
8
0
100
AcDbLine
62
7
6
CONTINUOUS
10
-331.2644729088
20
-296.7768942844
11
-338.8880760808
21
-303.4648155998
0
LINE
5
2BD
100
AcDbEntity
8
0
100
AcDbLine
62
7
6
CONTINUOUS
10
-309.9164277455
20
-239.7301815323
11
-306.6990918911
21
-237.7448440338
0
LINE
5
2BE
100
AcDbEntity
8
0
100
AcDbLine
62
7
6
CONTINUOUS
10
-308.5022141832
20
-239.0230747512
11
-305.2848783288
21
-237.0377372526
0
LINE
5
2BF
100
AcDbEntity
8
0
100
AcDbLine
62
7
6
CONTINUOUS
10
-320.2048314118
20
-222.3317202357
11
-321.6190449742
21
-223.0968566409
0
LINE
5
2C0
100
AcDbEntity
8
0
100
AcDbLine
62
7
6
CONTINUOUS
10
-322.9979031975
20
-217.6236608232
11
-324.4828274380
21
-218.3661229435
0
LINE
5
2C1
100
AcDbEntity
8
0
100
AcDbLine
62
7
6
CONTINUOUS
10
-323.0332585366
20
-220.9755362973
11
-324.4474720989
21
-221.6826430785
0
LINE
5
2C2
100
AcDbEntity
8
0
100
AcDbLine
62
7
6
CONTINUOUS
10
-313.8055150421
20
-217.9250832211
11
-315.2197286044
21
-218.6321900023
0
LINE
5
2C3
100
AcDbEntity
8
0
100
AcDbLine
62
7
6
CONTINUOUS
10
-325.0107542292
20
-224.1440760070
11
-324.4474720989
21
-223.8624349419
0
LINE
5
2C4
100
AcDbEntity
8
0
100
AcDbLine
62
7
6
CONTINUOUS
10
-318.7906178494
20
-221.6246134545
11
-320.2048314118
21
-222.3317202357
0
LINE
5
2C5
100
AcDbEntity
8
0
100
AcDbLine
62
7
6
CONTINUOUS
10
-308.5022141832
20
-220.5767336505
11
-309.9164277455
21
-221.2838404317
0
LINE
5
2C6
100
AcDbEntity
8
0
100
AcDbLine
62
7
6
CONTINUOUS
10
-311.0455385006
20
-228.5282420422
11
-312.4597520629
21
-229.2353488233
0
LINE
5
2C7
100
AcDbEntity
8
0
100
AcDbLine
62
7
6
CONTINUOUS
10
-305.2848783288
20
-225.7794070035
11
-306.6990918911
21
-226.4865137846
0
LINE
5
2C8
100
AcDbEntity
8
0
100
AcDbLine
62
7
6
CONTINUOUS
10
-305.2848783288
20
-228.3774832148
11
-306.6990918911
21
-229.0845899960
0
LINE
5
2C9
100
AcDbEntity
8
0
100
AcDbLine
62
7
6
CONTINUOUS
10
-304.0827968008
20
-228.9785239788
11
-305.4970103631
21
-229.6856307600
0
LINE
5
2CA
100
AcDbEntity
8
0
100
AcDbLine
62
7
6
CONTINUOUS
10
-304.0827968008
20
-235.0407018053
11
-305.4970103631
21
-235.7478085865
0
LINE
5
2CB
100
AcDbEntity
8
0
100
AcDbLine
62
7
6
CONTINUOUS
10
-305.2848783288
20
-237.0377372526
11
-306.6990918911
21
-237.7448440338
0
LINE
5
2CC
100
AcDbEntity
8
0
100
AcDbLine
62
7
6
CONTINUOUS
10
-308.5022141832
20
-239.0230747512
11
-309.9164277455
21
-239.7301815323
0
LINE
5
2CD
100
AcDbEntity
8
0
100
AcDbLine
62
7
6
CONTINUOUS
10
-333.8498877132
20
-260.2720860337
11
-337.1958323380
21
-261.9450583461
0
LINE
5
2CE
100
AcDbEntity
8
0
100
AcDbLine
62
7
6
CONTINUOUS
10
-328.2914724647
20
-257.5039546047
11
-332.1575360960
21
-259.4369864204
0
LINE
5
2CF
100
AcDbEntity
8
0
100
AcDbLine
62
7
6
CONTINUOUS
10
-338.9046563642
20
-265.4772724176
11
-328.2914724647
21
-260.1706804678
0
LINE
5
2D0
100
AcDbEntity
8
0
100
AcDbLine
62
7
6
CONTINUOUS
10
6.8320548870
20
-163.4835674241
11
16.7315498236
21
-168.4333148924
0
LINE
5
2D1
100
AcDbEntity
8
0
100
AcDbLine
62
7
6
CONTINUOUS
10
16.7315498236
20
-167.1342767867
11
6.8320548870
21
-162.1845293184
0
LINE
5
2D2
100
AcDbEntity
8
0
100
AcDbLine
62
7
6
CONTINUOUS
10
-335.6155576132
20
-278.4469720481
11
-328.2878121611
21
-274.7762412669
0
LINE
5
2D3
100
AcDbEntity
8
0
100
AcDbLine
62
7
6
CONTINUOUS
10
-328.2878121611
20
-272.3189080400
11
-338.9046563206
21
-277.6273301198
0
LINE
5
2D4
100
AcDbEntity
8
0
100
AcDbLine
62
7
6
CONTINUOUS
10
-338.9046563206
20
-290.6795713712
11
-328.2878121611
21
-285.3711492914
0
LINE
5
2D5
100
AcDbEntity
8
0
100
AcDbLine
62
7
6
CONTINUOUS
10
-328.2878121611
20
-282.9136852947
11
-335.6155576132
21
-286.5708324675
0
LINE
5
2D6
100
AcDbEntity
8
0
100
AcDbLine
62
7
6
CONTINUOUS
10
-328.2658487173
20
-286.6766534890
11
-338.8936742452
21
-291.9905662529
0
LINE
5
2D7
100
AcDbEntity
8
0
100
AcDbLine
62
7
6
CONTINUOUS
10
-338.8936742452
20
-294.6819497734
11
-328.2658487173
21
-289.3680370094
0
LINE
5
2D8
100
AcDbEntity
8
0
100
AcDbLine
62
7
6
CONTINUOUS
10
-328.2987942365
20
-305.8799970117
11
-332.9357233216
21
-308.1984615543
0
LINE
5
2D9
100
AcDbEntity
8
0
100
AcDbLine
62
7
6
CONTINUOUS
10
-335.3985097725
20
-309.4860277855
11
-338.9047645079
21
-311.2391551532
0
LINE
5
2DA
100
AcDbEntity
8
0
100
AcDbLine
62
7
6
CONTINUOUS
10
17.0851032142
20
-125.7129058156
11
15.9724687905
21
-125.1565886038
0
LINE
5
2DB
100
AcDbEntity
8
0
100
AcDbLine
62
7
6
CONTINUOUS
10
15.9809784534
20
-124.4324624968
11
15.7434624277
21
-124.3137044840
0
LINE
5
2DC
100
AcDbEntity
8
0
100
AcDbLine
62
7
6
CONTINUOUS
10
-332.9357233216
20
-319.5809659900
11
-328.2987942365
21
-317.2625014474
0
LINE
5
2DD
100
AcDbEntity
8
0
100
AcDbLine
62
7
6
CONTINUOUS
10
-338.9047645079
20
-322.6216595889
11
-335.3985097725
21
-320.8685322212
0
LINE
5
2DE
100
AcDbEntity
8
0
100
AcDbLine
62
7
6
CONTINUOUS
10
6.8320548870
20
-160.7703157561
11
17.0851032142
21
-155.6437915925
0
LINE
5
2DF
100
AcDbEntity
8
0
100
AcDbLine
62
7
6
CONTINUOUS
10
53.1737184295
20
-157.0460754738
11
52.7792972556
21
-156.7671775871
0
LINE
5
2E0
100
AcDbEntity
8
DEFAULT_3
100
AcDbLine
62
8
6
PHANTOM
10
-310.6588898658
20
-327.2859357050
11
17.0851032142
21
-163.4139391650
0
LINE
5
2E1
100
AcDbEntity
8
DEFAULT_3
100
AcDbLine
62
8
6
PHANTOM
10
-310.6588898658
20
-327.4448543276
11
17.0851032142
21
-163.5728577876
0
LINE
5
2E2
100
AcDbEntity
8
0
100
AcDbLine
62
9
6
CONTINUOUS
10
16.7315498236
20
-167.1342767867
11
17.0763245930
21
-166.9618894020
0
LINE
5
2E3
100
AcDbEntity
8
0
100
AcDbLine
62
9
6
CONTINUOUS
10
62.6934906007
20
-145.1345072587
11
18.1457633860
21
-167.4083708660
0
LINE
5
2E4
100
AcDbEntity
8
0
100
AcDbLine
62
9
6
CONTINUOUS
10
-310.6588898658
20
-331.8106974919
11
-355.2066170805
21
-354.0845610993
0
LINE
5
2E5
100
AcDbEntity
8
0
100
AcDbLine
62
7
6
CONTINUOUS
10
62.1737042293
20
-146.2162548595
11
17.6259770146
21
-168.4901184668
0
LINE
5
2E6
100
AcDbEntity
8
0
100
AcDbLine
62
7
6
CONTINUOUS
10
-311.1786762372
20
-332.8924450927
11
-355.7264034519
21
-355.1663087001
0
LINE
5
2E7
100
AcDbEntity
8
0
100
AcDbLine
62
7
6
CONTINUOUS
10
55.9498068046
20
-157.0460754738
11
56.6030040694
21
-156.5841952585
0
LINE
5
2E8
100
AcDbEntity
8
0
100
AcDbLine
62
7
6
CONTINUOUS
10
6.2462684493
20
77.9786016092
11
6.2462684493
21
76.6795635035
0
LINE
5
2E9
100
AcDbEntity
8
0
100
AcDbLine
62
7
6
CONTINUOUS
10
6.2462684493
20
-161.4774225372
11
6.2462684493
21
-162.7764606429
0
LINE
5
2EA
100
AcDbEntity
8
0
100
AcDbLine
62
9
6
CONTINUOUS
10
6.8320548870
20
77.2714948280
11
6.8320548870
21
75.9724567223
0
LINE
5
2EB
100
AcDbEntity
8
0
100
AcDbLine
62
9
6
CONTINUOUS
10
6.8320548870
20
-162.1845293184
11
6.8320548870
21
-163.4835674241
0
LINE
5
2EC
100
AcDbEntity
8
0
100
AcDbLine
62
7
6
CONTINUOUS
10
15.9724687905
20
-125.1565886038
11
15.9724687905
21
-124.4494818226
0
LINE
5
2ED
100
AcDbEntity
8
0
100
AcDbLine
62
7
6
CONTINUOUS
10
15.9724687905
20
42.8523397304
11
15.9724687905
21
43.5594465116
0
LINE
5
2EE
100
AcDbEntity
8
0
100
AcDbLine
62
7
6
CONTINUOUS
10
17.0851032142
20
70.4129198568
11
17.0851032142
21
-166.8780407801
0
LINE
5
2EF
100
AcDbEntity
8
0
100
AcDbLine
62
7
6
CONTINUOUS
10
18.1457633860
20
69.8825897709
11
18.1457633860
21
-167.4083708660
0
LINE
5
2F0
100
AcDbEntity
8
0
100
AcDbLine
62
7
6
CONTINUOUS
10
47.0617626171
20
94.4188342717
11
47.0617626171
21
96.8437054023
0
LINE
5
2F1
100
AcDbEntity
8
0
100
AcDbLine
62
7
6
CONTINUOUS
10
52.0617626171
20
-155.8625074220
11
52.0617626171
21
-152.2958795343
0
LINE
5
2F2
100
AcDbEntity
8
0
100
AcDbLine
62
7
6
CONTINUOUS
10
52.0617626171
20
103.9451137134
11
52.0617626171
21
96.4878752006
0
LINE
5
2F3
100
AcDbEntity
8
0
100
AcDbLine
62
7
6
CONTINUOUS
10
57.0617626171
20
-155.8625074220
11
57.0617626171
21
-152.2965852376
0
LINE
5
2F4
100
AcDbEntity
8
0
100
AcDbLine
62
7
6
CONTINUOUS
10
57.0617626171
20
103.9451137134
11
57.0617626171
21
96.4881525850
0
LINE
5
2F5
100
AcDbEntity
8
0
100
AcDbLine
62
7
6
CONTINUOUS
10
62.0617626171
20
94.4188342717
11
62.0617626171
21
96.8437054023
0
LINE
5
2F6
100
AcDbEntity
8
0
100
AcDbLine
62
7
6
CONTINUOUS
10
62.0617626171
20
-146.3362279803
11
62.0617626171
21
-148.7610991109
0
LINE
5
2F7
100
AcDbEntity
8
0
100
AcDbLine
62
9
6
CONTINUOUS
10
62.6934906007
20
92.1564533783
11
62.6934906007
21
-145.1345072587
0
LINE
5
2F8
100
AcDbEntity
8
0
100
AcDbLine
62
7
6
CONTINUOUS
10
63.2792770383
20
92.8635601595
11
63.2792770383
21
-144.4274004775
0
LINE
5
2F9
100
AcDbEntity
8
0
100
AcDbLine
62
7
6
CONTINUOUS
10
17.0851032142
20
42.2960225186
11
15.9724687905
21
42.8523397304
0
LINE
5
2FA
100
AcDbEntity
8
0
100
AcDbLine
62
7
6
CONTINUOUS
10
15.9809784534
20
43.5764658374
11
15.7434624277
21
43.6952238502
0
LINE
5
2FB
100
AcDbEntity
8
0
100
AcDbLine
62
7
6
CONTINUOUS
10
16.7315498236
20
71.0227092540
11
6.8320548870
21
75.9724567223
0
LINE
5
2FC
100
AcDbEntity
8
0
100
AcDbLine
62
7
6
CONTINUOUS
10
6.8320548870
20
77.2714948280
11
16.7315498236
21
72.3217473597
0
LINE
5
2FD
100
AcDbEntity
8
0
100
AcDbLine
62
7
6
CONTINUOUS
10
62.0944985200
20
93.8701629810
11
62.6934906007
21
93.5706669407
0
LINE
5
2FE
100
AcDbEntity
8
0
100
AcDbLine
62
7
6
CONTINUOUS
10
55.9498068046
20
105.1286817652
11
56.6030040694
21
104.6668015499
0
SPLINE
5
2FF
100
AcDbEntity
8
0
100
AcDbSpline
62
7
6
CONTINUOUS
70
0
71
3
72
13
73
9
74
7
42
0.0000001000
43
0.0000001000
44
0.0000000001
12
0.0000000000
22
3.8350899536
32
0.0000000000
13
2.0268558855
23
3.2571953911
33
0.0000000000
40
0.0000000000
40
0.0000000000
40
0.0000000000
40
0.0000000000
40
0.1581392036
40
0.3239317453
40
0.4956759678
40
0.6713802388
40
0.8488723156
40
1.0000000000
40
1.0000000000
40
1.0000000000
40
1.0000000000
10
15.9724687905
20
-124.4494818226
30
0.0000000000
10
15.9724687905
20
-124.2473224655
30
0.0000000000
10
15.9971814412
20
-123.8329531758
30
0.0000000000
10
16.1006637558
20
-123.2068166798
30
0.0000000000
10
16.2694138215
20
-122.5717810929
30
0.0000000000
10
16.5000307167
20
-121.9406521880
30
0.0000000000
10
16.7738216851
20
-121.3560639212
30
0.0000000000
10
16.9822922241
20
-120.9908505784
30
0.0000000000
10
17.0843969029
20
-120.8267664460
30
0.0000000000
11
15.9724687905
21
-124.4494818226
31
0.0000000000
11
16.0068252526
21
-123.8439776655
31
0.0000000000
11
16.1091952402
21
-123.2164433648
31
0.0000000000
11
16.2774947957
21
-122.5796537094
31
0.0000000000
11
16.5082978255
21
-121.9465719001
31
0.0000000000
11
16.7969058454
21
-121.3300856570
31
0.0000000000
11
17.0843969029
21
-120.8267664460
31
0.0000000000
0
SPLINE
5
300
100
AcDbEntity
8
0
100
AcDbSpline
62
7
6
CONTINUOUS
70
0
71
3
72
15
73
11
74
9
42
0.0000001000
43
0.0000001000
44
0.0000000001
12
-1.6222826825
22
1.9889722638
32
0.0000000000
13
0.0000000000
23
2.5665175100
33
0.0000000000
40
0.0000000000
40
0.0000000000
40
0.0000000000
40
0.0000000000
40
0.1036544851
40
0.2726674161
40
0.4240567277
40
0.5598297850
40
0.6821468928
40
0.7937948610
40
0.8982910305
40
1.0000000000
40
1.0000000000
40
1.0000000000
40
1.0000000000
10
17.0849384849
20
-127.4180085165
30
0.0000000000
10
17.0288861928
20
-127.3492865512
30
0.0000000000
10
16.8833143973
20
-127.1669829865
30
0.0000000000
10
16.6661698612
20
-126.8761939557
30
0.0000000000
10
16.4495887534
20
-126.5512701047
30
0.0000000000
10
16.2750611761
20
-126.2471571687
30
0.0000000000
10
16.1406824927
20
-125.9603270434
30
0.0000000000
10
16.0447108855
20
-125.6865052493
30
0.0000000000
10
15.9860821068
20
-125.4202457192
30
0.0000000000
10
15.9724687905
20
-125.2436012208
30
0.0000000000
10
15.9724687905
20
-125.1565886038
30
0.0000000000
11
17.0849384849
21
-127.4180085165
31
0.0000000000
11
16.9190676189
21
-127.2100058736
31
0.0000000000
11
16.6604698959
21
-126.8617420917
31
0.0000000000
11
16.4460499874
21
-126.5377204666
31
0.0000000000
11
16.2738097871
21
-126.2348006368
31
0.0000000000
11
16.1419136422
21
-125.9499237804
31
0.0000000000
11
16.0483981956
21
-125.6790663677
31
0.0000000000
11
15.9918395970
21
-125.4169067392
31
0.0000000000
11
15.9724687905
21
-125.1565886038
31
0.0000000000
0
SPLINE
5
301
100
AcDbEntity
8
0
100
AcDbSpline
62
7
6
CONTINUOUS
70
0
71
3
72
8
73
4
74
2
42
0.0000001000
43
0.0000001000
44
0.0000000001
12
0.0000000000
22
0.6882998543
32
0.0000000000
13
0.0403264304
23
0.6872535657
33
0.0000000000
40
0.0000000000
40
0.0000000000
40
0.0000000000
40
0.0000000000
40
1.0000000000
40
1.0000000000
40
1.0000000000
40
1.0000000000
10
15.9724687905
20
-125.1565886038
30
0.0000000000
10
15.9724687905
20
-124.9271553190
30
0.0000000000
10
15.9784002907
20
-124.6976459813
30
0.0000000000
10
15.9918424341
20
-124.4685614594
30
0.0000000000
11
15.9724687905
21
-125.1565886038
31
0.0000000000
11
15.9918424341
21
-124.4685614594
31
0.0000000000
0
SPLINE
5
302
100
AcDbEntity
8
0
100
AcDbSpline
62
7
6
CONTINUOUS
70
0
71
3
72
8
73
4
74
2
42
0.0000001000
43
0.0000001000
44
0.0000000001
12
0.0010370535
22
0.0176737366
32
0.0000000000
13
0.0010669463
23
0.0176720128
33
0.0000000000
40
0.0000000000
40
0.0000000000
40
0.0000000000
40
0.0000000000
40
1.0000000000
40
1.0000000000
40
1.0000000000
40
1.0000000000
10
15.9918424341
20
-124.4685614594
30
0.0000000000
10
15.9921881186
20
-124.4626702139
30
0.0000000000
10
15.9925387702
20
-124.4567792493
30
0.0000000000
10
15.9928944190
20
-124.4508885783
30
0.0000000000
11
15.9918424341
21
-124.4685614594
31
0.0000000000
11
15.9928944190
21
-124.4508885783
31
0.0000000000
0
SPLINE
5
303
100
AcDbEntity
8
0
100
AcDbSpline
62
7
6
CONTINUOUS
70
0
71
3
72
14
73
10
74
8
42
0.0000001000
43
0.0000001000
44
0.0000000001
12
0.2227241590
22
3.6890181300
32
0.0000000000
13
2.0301873525
23
3.0884928604
33
0.0000000000
40
0.0000000000
40
0.0000000000
40
0.0000000000
40
0.0000000000
40
0.1644880653
40
0.3227456111
40
0.4741193142
40
0.6216994345
40
0.7680094445
40
0.9155948140
40
1.0000000000
40
1.0000000000
40
1.0000000000
40
1.0000000000
10
15.9928944190
20
-124.4508885783
30
0.0000000000
10
16.0051062410
20
-124.2486220933
30
0.0000000000
10
16.0406276709
20
-123.8524299833
30
0.0000000000
10
16.1330300732
20
-123.2752871822
30
0.0000000000
10
16.2652131200
20
-122.7272552228
30
0.0000000000
10
16.4382857310
20
-122.2061522666
30
0.0000000000
10
16.6542760900
20
-121.7063837346
30
0.0000000000
10
16.8758457797
20
-121.2958546539
30
0.0000000000
10
17.0275725993
20
-121.0535612957
30
0.0000000000
10
17.0846920464
20
-120.9666663575
30
0.0000000000
11
15.9928944190
21
-124.4508885783
31
0.0000000000
11
16.0484250641
21
-123.8456428299
31
0.0000000000
11
16.1419924952
21
-123.2684164166
31
0.0000000000
11
16.2739431498
21
-122.7248784459
31
0.0000000000
11
16.4462310578
21
-122.2075029125
31
0.0000000000
11
16.6606773755
21
-121.7112398237
31
0.0000000000
11
16.9192651547
21
-121.2311210053
31
0.0000000000
11
17.0846920464
21
-120.9666663575
31
0.0000000000
0
SPLINE
5
304
100
AcDbEntity
8
0
100
AcDbSpline
62
7
6
CONTINUOUS
70
0
71
3
72
26
73
22
74
20
42
0.0000001000
43
0.0000001000
44
0.0000000001
12
12.4603809719
22
-3.7790197219
32
0.0000000000
13
-0.0043092175
23
13.0471745113
33
0.0000000000
40
0.0000000000
40
0.0000000000
40
0.0000000000
40
0.0000000000
40
0.0572384065
40
0.1207173582
40
0.1860086427
40
0.2524747474
40
0.3194494158
40
0.3862542265
40
0.4522148031
40
0.5166771450
40
0.5790245958
40
0.6386961056
40
0.6952067191
40
0.7481716478
40
0.7973358411
40
0.8426114224
40
0.8841248265
40
0.9222715671
40
0.9577648014
40
0.9916422954
40
1.0000000000
40
1.0000000000
40
1.0000000000
40
1.0000000000
10
50.6722144414
20
-151.9673981584
30
0.0000000000
10
50.9099518918
20
-152.0394998474
30
0.0000000000
10
51.4166052982
20
-152.1741492025
30
0.0000000000
10
52.2090216874
20
-152.3306666930
30
0.0000000000
10
53.0493338558
20
-152.4426491373
30
0.0000000000
10
53.9099342360
20
-152.5053553273
30
0.0000000000
10
54.7792822193
20
-152.5179391738
30
0.0000000000
10
55.6457109170
20
-152.4802303194
30
0.0000000000
10
56.4975954168
20
-152.3927384530
30
0.0000000000
10
57.3235166735
20
-152.2566442969
30
0.0000000000
10
58.1124245072
20
-152.0737790554
30
0.0000000000
10
58.8537964946
20
-151.8465901282
30
0.0000000000
10
59.5377903315
20
-151.5780901480
30
0.0000000000
10
60.1553839762
20
-151.2717838795
30
0.0000000000
10
60.6984904783
20
-150.9315653670
30
0.0000000000
10
61.1600171060
20
-150.5615809326
30
0.0000000000
10
61.5338080121
20
-150.1660809532
30
0.0000000000
10
61.8143961368
20
-149.7493783718
30
0.0000000000
10
61.9966379478
20
-149.3162048247
30
0.0000000000
10
62.0564725608
20
-148.9812112464
30
0.0000000000
10
62.0617420185
20
-148.7975396386
30
0.0000000000
10
62.0617300134
20
-148.7611914953
30
0.0000000000
11
50.6722144414
21
-151.9673981584
31
0.0000000000
11
51.3921256540
21
-152.1597533123
31
0.0000000000
11
52.2026769459
21
-152.3207590243
31
0.0000000000
11
53.0451308246
21
-152.4336264426
31
0.0000000000
11
53.9080945465
21
-152.4968292288
31
0.0000000000
11
54.7798980076
21
-152.5095126737
31
0.0000000000
11
55.6487515619
21
-152.4715052556
31
0.0000000000
11
56.5029054553
21
-152.3833209595
31
0.0000000000
11
57.3308087219
21
-152.2461523268
31
0.0000000000
11
58.1212653902
21
-152.0618543279
31
0.0000000000
11
58.8635858897
21
-151.8329192770
31
0.0000000000
11
59.5477316092
21
-151.5624431281
31
0.0000000000
11
60.1644506514
21
-151.2540836070
31
0.0000000000
11
60.7054029492
21
-150.9120107472
31
0.0000000000
11
61.1632730509
21
-150.5408504975
31
0.0000000000
11
61.5318690488
21
-150.1456221634
31
0.0000000000
11
61.8062063142
21
-149.7316705301
31
0.0000000000
11
61.9825749064
21
-149.3045935833
31
0.0000000000
11
62.0585897427
21
-148.8701668062
31
0.0000000000
11
62.0617300134
21
-148.7611914953
31
0.0000000000
0
SPLINE
5
305
100
AcDbEntity
8
0
100
AcDbSpline
62
7
6
CONTINUOUS
70
0
71
3
72
8
73
4
74
2
42
0.0000001000
43
0.0000001000
44
0.0000000001
12
-0.0000208623
22
0.0631656288
32
0.0000000000
13
-0.0021373624
23
0.0631340569
33
0.0000000000
40
0.0000000000
40
0.0000000000
40
0.0000000000
40
0.0000000000
40
1.0000000000
40
1.0000000000
40
1.0000000000
40
1.0000000000
10
62.0617300134
20
-146.3363203647
30
0.0000000000
10
62.0617230593
20
-146.3152651551
30
0.0000000000
10
62.0613621857
20
-146.2942091668
30
0.0000000000
10
62.0606497315
20
-146.2731644811
30
0.0000000000
11
62.0617300134
21
-146.3363203647
31
0.0000000000
11
62.0606497315
21
-146.2731644811
31
0.0000000000
0
SPLINE
5
306
100
AcDbEntity
8
0
100
AcDbSpline
62
7
6
CONTINUOUS
70
0
71
3
72
22
73
18
74
16
42
0.0000001000
43
0.0000001000
44
0.0000000001
12
9.2047452187
22
-0.0773173501
32
0.0000000000
13
-0.0030465654
23
9.2241967627
33
0.0000000000
40
0.0000000000
40
0.0000000000
40
0.0000000000
40
0.0000000000
40
0.0373945327
40
0.1318866653
40
0.2251846700
40
0.3163634953
40
0.4045509106
40
0.4889533384
40
0.5688848332
40
0.6438011305
40
0.7133414739
40
0.7773815661
40
0.8361002428
40
0.8900569388
40
0.9402603802
40
0.9881784363
40
1.0000000000
40
1.0000000000
40
1.0000000000
40
1.0000000000
10
54.4356874640
20
-150.0857013101
30
0.0000000000
10
54.5504231793
20
-150.0866650589
30
0.0000000000
10
54.9551236440
20
-150.0854150434
30
0.0000000000
10
55.6457109170
20
-150.0553591888
30
0.0000000000
10
56.4975954168
20
-149.9678673224
30
0.0000000000
10
57.3235166735
20
-149.8317731663
30
0.0000000000
10
58.1124245072
20
-149.6489079248
30
0.0000000000
10
58.8537964946
20
-149.4217189976
30
0.0000000000
10
59.5377903315
20
-149.1532190174
30
0.0000000000
10
60.1553839762
20
-148.8469127489
30
0.0000000000
10
60.6984904783
20
-148.5066942364
30
0.0000000000
10
61.1600171060
20
-148.1367098020
30
0.0000000000
10
61.5338080121
20
-147.7412098226
30
0.0000000000
10
61.8143961368
20
-147.3245072412
30
0.0000000000
10
61.9966379478
20
-146.8913336941
30
0.0000000000
10
62.0564725608
20
-146.5563401158
30
0.0000000000
10
62.0617420185
20
-146.3726685080
30
0.0000000000
10
62.0617300134
20
-146.3363203647
30
0.0000000000
11
54.4356874640
21
-150.0857013101
31
0.0000000000
11
54.7798980076
21
-150.0846415431
31
0.0000000000
11
55.6487515619
21
-150.0466341250
31
0.0000000000
11
56.5029054553
21
-149.9584498289
31
0.0000000000
11
57.3308087219
21
-149.8212811962
31
0.0000000000
11
58.1212653902
21
-149.6369831973
31
0.0000000000
11
58.8635858897
21
-149.4080481464
31
0.0000000000
11
59.5477316092
21
-149.1375719975
31
0.0000000000
11
60.1644506514
21
-148.8292124764
31
0.0000000000
11
60.7054029492
21
-148.4871396167
31
0.0000000000
11
61.1632730509
21
-148.1159793669
31
0.0000000000
11
61.5318690488
21
-147.7207510328
31
0.0000000000
11
61.8062063142
21
-147.3067993995
31
0.0000000000
11
61.9825749064
21
-146.8797224527
31
0.0000000000
11
62.0585897427
21
-146.4452956756
31
0.0000000000
11
62.0617300134
21
-146.3363203647
31
0.0000000000
0
SPLINE
5
307
100
AcDbEntity
8
0
100
AcDbSpline
62
7
6
CONTINUOUS
70
0
71
3
72
13
73
9
74
7
42
0.0000001000
43
0.0000001000
44
0.0000000001
12
0.0000000000
22
3.8350899536
32
0.0000000000
13
2.0268558855
23
3.2571953911
33
0.0000000000
40
0.0000000000
40
0.0000000000
40
0.0000000000
40
0.0000000000
40
0.1581392036
40
0.3239317453
40
0.4956759678
40
0.6713802388
40
0.8488723156
40
1.0000000000
40
1.0000000000
40
1.0000000000
40
1.0000000000
10
15.9724687905
20
43.5594465116
30
0.0000000000
10
15.9724687905
20
43.7616058686
30
0.0000000000
10
15.9971814412
20
44.1759751583
30
0.0000000000
10
16.1006637558
20
44.8021116544
30
0.0000000000
10
16.2694138215
20
45.4371472413
30
0.0000000000
10
16.5000307167
20
46.0682761462
30
0.0000000000
10
16.7738216851
20
46.6528644130
30
0.0000000000
10
16.9822922241
20
47.0180777558
30
0.0000000000
10
17.0843969029
20
47.1821618882
30
0.0000000000
11
15.9724687905
21
43.5594465116
31
0.0000000000
11
16.0068252526
21
44.1649506687
31
0.0000000000
11
16.1091952402
21
44.7924849693
31
0.0000000000
11
16.2774947957
21
45.4292746248
31
0.0000000000
11
16.5082978255
21
46.0623564341
31
0.0000000000
11
16.7969058454
21
46.6788426772
31
0.0000000000
11
17.0843969029
21
47.1821618882
31
0.0000000000
0
SPLINE
5
308
100
AcDbEntity
8
0
100
AcDbSpline
62
7
6
CONTINUOUS
70
0
71
3
72
15
73
11
74
9
42
0.0000001000
43
0.0000001000
44
0.0000000001
12
-1.6222826825
22
1.9889722638
32
0.0000000000
13
-0.0000000000
23
2.5665175100
33
0.0000000000
40
0.0000000000
40
0.0000000000
40
0.0000000000
40
0.0000000000
40
0.1036544851
40
0.2726674161
40
0.4240567277
40
0.5598297850
40
0.6821468928
40
0.7937948610
40
0.8982910305
40
1.0000000000
40
1.0000000000
40
1.0000000000
40
1.0000000000
10
17.0849384849
20
40.5909198177
30
0.0000000000
10
17.0288861928
20
40.6596417830
30
0.0000000000
10
16.8833143973
20
40.8419453476
30
0.0000000000
10
16.6661698612
20
41.1327343785
30
0.0000000000
10
16.4495887534
20
41.4576582295
30
0.0000000000
10
16.2750611761
20
41.7617711655
30
0.0000000000
10
16.1406824927
20
42.0486012908
30
0.0000000000
10
16.0447108855
20
42.3224230849
30
0.0000000000
10
15.9860821068
20
42.5886826149
30
0.0000000000
10
15.9724687905
20
42.7653271133
30
0.0000000000
10
15.9724687905
20
42.8523397304
30
0.0000000000
11
17.0849384849
21
40.5909198177
31
0.0000000000
11
16.9190676189
21
40.7989224606
31
0.0000000000
11
16.6604698959
21
41.1471862425
31
0.0000000000
11
16.4460499874
21
41.4712078676
31
0.0000000000
11
16.2738097871
21
41.7741276974
31
0.0000000000
11
16.1419136422
21
42.0590045538
31
0.0000000000
11
16.0483981956
21
42.3298619665
31
0.0000000000
11
15.9918395970
21
42.5920215950
31
0.0000000000
11
15.9724687905
21
42.8523397304
31
0.0000000000
0
SPLINE
5
309
100
AcDbEntity
8
0
100
AcDbSpline
62
7
6
CONTINUOUS
70
0
71
3
72
8
73
4
74
2
42
0.0000001000
43
0.0000001000
44
0.0000000001
12
0.0000000000
22
0.6882998543
32
0.0000000000
13
0.0403264304
23
0.6872535657
33
0.0000000000
40
0.0000000000
40
0.0000000000
40
0.0000000000
40
0.0000000000
40
1.0000000000
40
1.0000000000
40
1.0000000000
40
1.0000000000
10
15.9724687905
20
42.8523397304
30
0.0000000000
10
15.9724687905
20
43.0817730152
30
0.0000000000
10
15.9784002907
20
43.3112823529
30
0.0000000000
10
15.9918424341
20
43.5403668748
30
0.0000000000
11
15.9724687905
21
42.8523397304
31
0.0000000000
11
15.9918424341
21
43.5403668748
31
0.0000000000
0
SPLINE
5
30A
100
AcDbEntity
8
0
100
AcDbSpline
62
7
6
CONTINUOUS
70
0
71
3
72
8
73
4
74
2
42
0.0000001000
43
0.0000001000
44
0.0000000001
12
0.0010370535
22
0.0176737366
32
0.0000000000
13
0.0010669463
23
0.0176720128
33
0.0000000000
40
0.0000000000
40
0.0000000000
40
0.0000000000
40
0.0000000000
40
1.0000000000
40
1.0000000000
40
1.0000000000
40
1.0000000000
10
15.9918424341
20
43.5403668748
30
0.0000000000
10
15.9921881186
20
43.5462581203
30
0.0000000000
10
15.9925387702
20
43.5521490849
30
0.0000000000
10
15.9928944190
20
43.5580397558
30
0.0000000000
11
15.9918424341
21
43.5403668748
31
0.0000000000
11
15.9928944190
21
43.5580397558
31
0.0000000000
0
SPLINE
5
30B
100
AcDbEntity
8
0
100
AcDbSpline
62
7
6
CONTINUOUS
70
0
71
3
72
14
73
10
74
8
42
0.0000001000
43
0.0000001000
44
0.0000000001
12
0.2227241590
22
3.6890181300
32
0.0000000000
13
2.0301873525
23
3.0884928604
33
0.0000000000
40
0.0000000000
40
0.0000000000
40
0.0000000000
40
0.0000000000
40
0.1644880653
40
0.3227456111
40
0.4741193142
40
0.6216994345
40
0.7680094445
40
0.9155948140
40
1.0000000000
40
1.0000000000
40
1.0000000000
40
1.0000000000
10
15.9928944190
20
43.5580397558
30
0.0000000000
10
16.0051062410
20
43.7603062409
30
0.0000000000
10
16.0406276709
20
44.1564983509
30
0.0000000000
10
16.1330300732
20
44.7336411520
30
0.0000000000
10
16.2652131200
20
45.2816731114
30
0.0000000000
10
16.4382857310
20
45.8027760676
30
0.0000000000
10
16.6542760900
20
46.3025445996
30
0.0000000000
10
16.8758457797
20
46.7130736803
30
0.0000000000
10
17.0275725993
20
46.9553670385
30
0.0000000000
10
17.0846920464
20
47.0422619767
30
0.0000000000
11
15.9928944190
21
43.5580397558
31
0.0000000000
11
16.0484250641
21
44.1632855042
31
0.0000000000
11
16.1419924952
21
44.7405119176
31
0.0000000000
11
16.2739431498
21
45.2840498883
31
0.0000000000
11
16.4462310578
21
45.8014254217
31
0.0000000000
11
16.6606773755
21
46.2976885105
31
0.0000000000
11
16.9192651547
21
46.7778073289
31
0.0000000000
11
17.0846920464
21
47.0422619767
31
0.0000000000
0
SPLINE
5
30C
100
AcDbEntity
8
0
100
AcDbSpline
62
7
6
CONTINUOUS
70
0
71
3
72
11
73
7
74
5
42
0.0000001000
43
0.0000001000
44
0.0000000001
12
-2.6372161335
22
1.3186080667
32
0.0000000000
13
-2.9039928971
23
0.5133255146
33
0.0000000000
40
0.0000000000
40
0.0000000000
40
0.0000000000
40
0.0000000000
40
0.2418597775
40
0.4985878578
40
0.7682496076
40
1.0000000000
40
1.0000000000
40
1.0000000000
40
1.0000000000
10
59.8650634760
20
99.4953558318
30
0.0000000000
10
59.6524513069
20
99.6016619163
30
0.0000000000
10
59.2035102115
20
99.7999204271
30
0.0000000000
10
58.4896969024
20
100.0481501618
30
0.0000000000
10
57.7693693759
20
100.2411727267
30
0.0000000000
10
57.2862259673
20
100.3395640804
30
0.0000000000
10
57.0618921362
20
100.3792185435
30
0.0000000000
11
59.8650634760
21
99.4953558318
31
0.0000000000
11
59.2135288016
21
99.7852641458
31
0.0000000000
11
58.4990869696
21
100.0353929240
31
0.0000000000
11
57.7313995801
21
100.2423596037
31
0.0000000000
11
57.0618921362
21
100.3792185435
31
0.0000000000
0
SPLINE
5
30D
100
AcDbEntity
8
0
100
AcDbSpline
62
7
6
CONTINUOUS
70
0
71
3
72
13
73
9
74
7
42
0.0000001000
43
0.0000001000
44
0.0000000001
12
-3.4531838214
22
-0.6104991802
32
0.0000000000
13
-2.9978654080
23
-1.8216362156
33
0.0000000000
40
0.0000000000
40
0.0000000000
40
0.0000000000
40
0.0000000000
40
0.0780601427
40
0.3095540376
40
0.5311122573
40
0.7409341801
40
0.9375910998
40
1.0000000000
40
1.0000000000
40
1.0000000000
40
1.0000000000
10
52.0617537887
20
100.3792414653
30
0.0000000000
10
51.9719017813
20
100.3633562476
30
0.0000000000
10
51.6162415594
20
100.2966542347
30
0.0000000000
10
51.0111007269
20
100.1563853468
30
0.0000000000
10
50.2697287395
20
99.9291964196
30
0.0000000000
10
49.5857349026
20
99.6606964394
30
0.0000000000
10
49.0941043320
20
99.4168637399
30
0.0000000000
10
48.8324163971
20
99.2641616095
30
0.0000000000
10
48.7700519028
20
99.2262661720
30
0.0000000000
11
52.0617537887
21
100.3792414653
31
0.0000000000
11
51.7927165122
21
100.3287586182
31
0.0000000000
11
51.0022598440
21
100.1444606193
31
0.0000000000
11
50.2599393444
21
99.9155255684
31
0.0000000000
11
49.5757936250
21
99.6450494195
31
0.0000000000
11
48.9590745828
21
99.3366898984
31
0.0000000000
11
48.7700519028
21
99.2262661720
31
0.0000000000
0
SPLINE
5
30E
100
AcDbEntity
8
0
100
AcDbSpline
62
7
6
CONTINUOUS
70
0
71
3
72
8
73
4
74
2
42
0.0000001000
43
0.0000001000
44
0.0000000001
12
-0.0122179873
22
-0.0074241919
32
0.0000000000
13
-0.0122006054
23
-0.0074526375
33
0.0000000000
40
0.0000000000
40
0.0000000000
40
0.0000000000
40
0.0000000000
40
1.0000000000
40
1.0000000000
40
1.0000000000
40
1.0000000000
10
48.7700519028
20
99.2262661720
30
0.0000000000
10
48.7659792404
20
99.2237914413
30
0.0000000000
10
48.7619094611
20
99.2213119789
30
0.0000000000
10
48.7578425927
20
99.2188277664
30
0.0000000000
11
48.7700519028
21
99.2262661720
31
0.0000000000
11
48.7578425927
21
99.2188277664
31
0.0000000000
0
SPLINE
5
30F
100
AcDbEntity
8
0
100
AcDbSpline
62
7
6
CONTINUOUS
70
0
71
3
72
14
73
10
74
8
42
0.0000001000
43
0.0000001000
44
0.0000000001
12
-2.6000778220
22
-1.5882357306
32
0.0000000000
13
0.0010080222
23
-3.0520253532
33
0.0000000000
40
0.0000000000
40
0.0000000000
40
0.0000000000
40
0.0000000000
40
0.1336262507
40
0.3271758914
40
0.5046425128
40
0.6677169055
40
0.8194477623
40
0.9642714535
40
1.0000000000
40
1.0000000000
40
1.0000000000
40
1.0000000000
10
48.7578425927
20
99.2188277664
30
0.0000000000
10
48.6420297090
20
99.1480844378
30
0.0000000000
10
48.3642483147
20
98.9654419954
30
0.0000000000
10
47.9635081281
20
98.6441872240
30
0.0000000000
10
47.5897172221
20
98.2486872446
30
0.0000000000
10
47.3091290974
20
97.8319846632
30
0.0000000000
10
47.1268872863
20
97.3988111161
30
0.0000000000
10
47.0670526734
20
97.0638175378
30
0.0000000000
10
47.0617832157
20
96.8801459300
30
0.0000000000
10
47.0617952207
20
96.8437977867
30
0.0000000000
11
48.7578425927
21
99.2188277664
31
0.0000000000
11
48.4181222849
21
98.9946170387
31
0.0000000000
11
47.9602521832
21
98.6234567889
31
0.0000000000
11
47.5916561854
21
98.2282284548
31
0.0000000000
11
47.3173189199
21
97.8142768215
31
0.0000000000
11
47.1409503277
21
97.3871998747
31
0.0000000000
11
47.0649354914
21
96.9527730976
31
0.0000000000
11
47.0617952207
21
96.8437977867
31
0.0000000000
0
SPLINE
5
310
100
AcDbEntity
8
0
100
AcDbSpline
62
7
6
CONTINUOUS
70
0
71
3
72
9
73
5
74
3
42
0.0000001000
43
0.0000001000
44
0.0000000001
12
0.0001459817
22
-0.4419939486
32
0.0000000000
13
-0.1010880197
23
-0.4302856841
33
0.0000000000
40
0.0000000000
40
0.0000000000
40
0.0000000000
40
0.0000000000
40
0.2467102324
40
1.0000000000
40
1.0000000000
40
1.0000000000
40
1.0000000000
10
62.0617300134
20
94.4187418873
30
0.0000000000
10
62.0617420185
20
94.3823937441
30
0.0000000000
10
62.0575154176
20
94.2350718347
30
0.0000000000
10
62.0357620282
20
94.0888092594
30
0.0000000000
10
62.0103791713
20
93.9807659918
30
0.0000000000
11
62.0617300134
21
94.4187418873
31
0.0000000000
11
62.0585897427
21
94.3097665765
31
0.0000000000
11
62.0103791713
21
93.9807659918
31
0.0000000000
0
SPLINE
5
311
100
AcDbEntity
8
0
100
AcDbSpline
62
7
6
CONTINUOUS
70
0
71
3
72
27
73
23
74
21
42
0.0000001000
43
0.0000001000
44
0.0000000001
12
-3.2313362157
22
-13.7543273432
32
0.0000000000
13
-12.6090183705
23
6.3045091853
33
0.0000000000
40
0.0000000000
40
0.0000000000
40
0.0000000000
40
0.0000000000
40
0.0077188218
40
0.0404953738
40
0.0757223304
40
0.1140582632
40
0.1558684131
40
0.2012695373
40
0.2501804853
40
0.3023657284
40
0.3574699301
40
0.4150452540
40
0.4745735935
40
0.5354854915
40
0.5971770052
40
0.6590253756
40
0.7204041082
40
0.7806979422
40
0.8393181610
40
0.8957187702
40
0.9494142614
40
1.0000000000
40
1.0000000000
40
1.0000000000
40
1.0000000000
10
62.0103791713
20
93.9807659918
30
0.0000000000
10
62.0020651351
20
93.9453769245
30
0.0000000000
10
61.9533834862
20
93.7609163193
30
0.0000000000
10
61.8143961368
20
93.4305550108
30
0.0000000000
10
61.5338080121
20
93.0138524295
30
0.0000000000
10
61.1600171060
20
92.6183524501
30
0.0000000000
10
60.6984904783
20
92.2483680157
30
0.0000000000
10
60.1553839762
20
91.9081495032
30
0.0000000000
10
59.5377903315
20
91.6018432347
30
0.0000000000
10
58.8537964946
20
91.3333432545
30
0.0000000000
10
58.1124245072
20
91.1061543272
30
0.0000000000
10
57.3235166735
20
90.9232890857
30
0.0000000000
10
56.4975954168
20
90.7871949297
30
0.0000000000
10
55.6457109170
20
90.6997030633
30
0.0000000000
10
54.7792822193
20
90.6619942089
30
0.0000000000
10
53.9099342360
20
90.6745780554
30
0.0000000000
10
53.0493338558
20
90.7372842453
30
0.0000000000
10
52.2090216874
20
90.8492666897
30
0.0000000000
10
51.4002594304
20
91.0090128037
30
0.0000000000
10
50.6338283317
20
91.2143895123
30
0.0000000000
10
49.9200150226
20
91.4626192470
30
0.0000000000
10
49.4710739272
20
91.6608777578
30
0.0000000000
10
49.2584617582
20
91.7671838423
30
0.0000000000
11
62.0103791713
21
93.9807659918
31
0.0000000000
11
61.9825749064
21
93.8753397993
31
0.0000000000
11
61.8062063142
21
93.4482628526
31
0.0000000000
11
61.5318690488
21
93.0343112193
31
0.0000000000
11
61.1632730509
21
92.6390828852
31
0.0000000000
11
60.7054029492
21
92.2679226354
31
0.0000000000
11
60.1644506514
21
91.9258497757
31
0.0000000000
11
59.5477316092
21
91.6174902546
31
0.0000000000
11
58.8635858897
21
91.3470141057
31
0.0000000000
11
58.1212653902
21
91.1180790548
31
0.0000000000
11
57.3308087219
21
90.9337810559
31
0.0000000000
11
56.5029054553
21
90.7966124232
31
0.0000000000
11
55.6487515619
21
90.7084281271
31
0.0000000000
11
54.7798980076
21
90.6704207089
31
0.0000000000
11
53.9080945465
21
90.6831041539
31
0.0000000000
11
53.0451308246
21
90.7463069401
31
0.0000000000
11
52.2026769459
21
90.8591743583
31
0.0000000000
11
51.3921256540
21
91.0201800704
31
0.0000000000
11
50.6244382646
21
91.2271467501
31
0.0000000000
11
49.9099964325
21
91.4772755283
31
0.0000000000
11
49.2584617582
21
91.7671838423
31
0.0000000000
0
SPLINE
5
312
100
AcDbEntity
8
0
100
AcDbSpline
62
7
6
CONTINUOUS
70
0
71
3
72
14
73
10
74
8
42
0.0000001000
43
0.0000001000
44
0.0000000001
12
3.2353829529
22
-1.6176914764
32
0.0000000000
13
0.0011973611
23
-3.6252937129
33
0.0000000000
40
0.0000000000
40
0.0000000000
40
0.0000000000
40
0.0000000000
40
0.1838584119
40
0.3537951558
40
0.5098562077
40
0.6529556164
40
0.7850718775
40
0.9093691237
40
1.0000000000
40
1.0000000000
40
1.0000000000
40
1.0000000000
10
59.8650634760
20
99.4953558318
30
0.0000000000
10
60.0633475998
20
99.3962137698
30
0.0000000000
10
60.4367473666
20
99.1882497378
30
0.0000000000
10
60.9398484442
20
98.8326390419
30
0.0000000000
10
61.3582347967
20
98.4493590128
30
0.0000000000
10
61.6860775627
20
98.0427092046
30
0.0000000000
10
61.9181239674
20
97.6171208339
30
0.0000000000
10
62.0388990235
20
97.2129100238
30
0.0000000000
10
62.0616938408
20
96.9531342000
30
0.0000000000
10
62.0617300134
20
96.8436130179
30
0.0000000000
11
59.8650634760
21
99.4953558318
31
0.0000000000
11
60.4448801040
21
99.1695884946
31
0.0000000000
11
60.9451376603
21
98.8123675786
31
0.0000000000
11
61.3590710198
21
98.4285238839
31
0.0000000000
11
61.6810824439
21
98.0232482379
31
0.0000000000
11
61.9068172803
21
97.6020212986
31
0.0000000000
11
62.0332228527
21
97.1705394376
31
0.0000000000
11
62.0617300134
21
96.8436130179
31
0.0000000000
0
SPLINE
5
313
100
AcDbEntity
8
0
100
AcDbSpline
62
7
6
CONTINUOUS
70
0
71
3
72
10
73
6
74
4
42
0.0000001000
43
0.0000001000
44
0.0000000001
12
0.0004259631
22
-0.3738637456
32
0.0000000000
13
-0.1847506574
23
-0.3243511399
33
0.0000000000
40
0.0000000000
40
0.0000000000
40
0.0000000000
40
0.0000000000
40
0.1436547420
40
0.7335149866
40
1.0000000000
40
1.0000000000
40
1.0000000000
40
1.0000000000
10
57.1617054469
20
96.8436133870
30
0.0000000000
10
57.1617258441
20
96.8257109537
30
0.0000000000
10
57.1580724509
20
96.7343244279
30
0.0000000000
10
57.1263176463
20
96.6121203870
30
0.0000000000
10
57.0788436291
20
96.5165825717
30
0.0000000000
10
57.0624325353
20
96.4877709991
30
0.0000000000
11
57.1617054469
21
96.8436133870
31
0.0000000000
11
57.1595415889
21
96.7899829358
31
0.0000000000
11
57.1064264149
21
96.5769254575
31
0.0000000000
11
57.0624325353
21
96.4877709991
31
0.0000000000
0
SPLINE
5
314
100
AcDbEntity
8
0
100
AcDbSpline
62
7
6
CONTINUOUS
70
0
71
3
72
20
73
16
74
14
42
0.0000001000
43
0.0000001000
44
0.0000000001
12
-2.3154817332
22
-4.0650958996
32
0.0000000000
13
-4.1729292040
23
2.0864646020
33
0.0000000000
40
0.0000000000
40
0.0000000000
40
0.0000000000
40
0.0000000000
40
0.0300710563
40
0.0878934335
40
0.1531862407
40
0.2259506093
40
0.3054877454
40
0.3906104767
40
0.4797965581
40
0.5713074118
40
0.6632889045
40
0.7538641480
40
0.8412248667
40
0.9237272256
40
1.0000000000
40
1.0000000000
40
1.0000000000
40
1.0000000000
10
57.0624325353
20
96.4877709991
30
0.0000000000
10
57.0392228748
20
96.4470237565
30
0.0000000000
10
56.9618100022
20
96.3332963293
30
0.0000000000
10
56.7918585875
20
96.1639795925
30
0.0000000000
10
56.5396042931
20
95.9908823689
30
0.0000000000
10
56.2351103481
20
95.8410969277
30
0.0000000000
10
55.8861532268
20
95.7182082609
30
0.0000000000
10
55.5018345944
20
95.6253791852
30
0.0000000000
10
55.0923340346
20
95.5650804247
30
0.0000000000
10
54.6685947692
20
95.5389416970
30
0.0000000000
10
54.2419846193
20
95.5476749805
30
0.0000000000
10
53.8239667521
20
95.5910391691
30
0.0000000000
10
53.4257128170
20
95.6678689939
30
0.0000000000
10
53.0579191948
20
95.7760602500
30
0.0000000000
10
52.8293786153
20
95.8714197721
30
0.0000000000
10
52.7232849860
20
95.9244665868
30
0.0000000000
11
57.0624325353
21
96.4877709991
31
0.0000000000
11
56.9838994460
21
96.3711450406
31
0.0000000000
11
56.7953028984
21
96.1782548385
31
0.0000000000
11
56.5457811944
21
96.0035163931
31
0.0000000000
11
56.2421406355
21
95.8516961137
31
0.0000000000
11
55.8926637447
21
95.7269352617
31
0.0000000000
11
55.5068833405
21
95.6326369879
31
0.0000000000
11
55.0953225068
21
95.5713735034
31
0.0000000000
11
54.6692075501
21
95.5448159164
31
0.0000000000
11
54.2401617758
21
95.5536886487
31
0.0000000000
11
53.8198884340
21
95.5977496751
31
0.0000000000
11
53.4198514861
21
95.6757971259
31
0.0000000000
11
53.0509628970
21
95.7857020699
31
0.0000000000
11
52.7232849860
21
95.9244665868
31
0.0000000000
0
SPLINE
5
315
100
AcDbEntity
8
0
100
AcDbSpline
62
7
6
CONTINUOUS
70
0
71
3
72
9
73
5
74
3
42
0.0000001000
43
0.0000001000
44
0.0000000001
12
0.0004263260
22
-0.3741822730
32
0.0000000000
13
0.1849420702
23
-0.3249819440
33
0.0000000000
40
0.0000000000
40
0.0000000000
40
0.0000000000
40
0.0000000000
40
0.4342228399
40
1.0000000000
40
1.0000000000
40
1.0000000000
40
1.0000000000
10
51.9618197872
20
96.8437974177
30
0.0000000000
10
51.9618814940
20
96.7896379213
30
0.0000000000
10
51.9775341604
20
96.6648071866
30
0.0000000000
10
52.0263565041
20
96.5488641596
30
0.0000000000
10
52.0612351705
20
96.4875750391
30
0.0000000000
11
51.9618197872
21
96.8437974177
31
0.0000000000
11
51.9817291097
21
96.6829049817
31
0.0000000000
11
52.0612351705
21
96.4875750391
31
0.0000000000
0
SPLINE
5
316
100
AcDbEntity
8
0
100
AcDbSpline
62
7
6
CONTINUOUS
70
0
71
3
72
11
73
7
74
5
42
0.0000001000
43
0.0000001000
44
0.0000000001
12
0.4368333141
22
-0.7676076053
32
0.0000000000
13
0.7871102044
23
-0.3935551022
33
0.0000000000
40
0.0000000000
40
0.0000000000
40
0.0000000000
40
0.0000000000
40
0.0194009351
40
0.3077120283
40
0.6337773079
40
1.0000000000
40
1.0000000000
40
1.0000000000
40
1.0000000000
10
52.0612351705
20
96.4875750391
30
0.0000000000
10
52.0640601621
20
96.4826109374
30
0.0000000000
10
52.1096214377
20
96.4043252307
30
0.0000000000
10
52.2271994332
20
96.2581330855
30
0.0000000000
10
52.4507997154
20
96.0747604699
30
0.0000000000
10
52.6271991133
20
95.9725095231
30
0.0000000000
10
52.7232849860
20
95.9244665868
30
0.0000000000
11
52.0612351705
21
96.4875750391
31
0.0000000000
11
52.0698511627
21
96.4727683108
31
0.0000000000
11
52.2259460641
21
96.2727498368
31
0.0000000000
11
52.4457559522
21
96.0883055423
31
0.0000000000
11
52.7232849860
21
95.9244665868
31
0.0000000000
0
SPLINE
5
317
100
AcDbEntity
8
0
100
AcDbSpline
62
7
6
CONTINUOUS
70
0
71
3
72
14
73
10
74
8
42
0.0000001000
43
0.0000001000
44
0.0000000001
12
0.0011973611
22
-3.6252937129
32
0.0000000000
13
3.2353829529
23
-1.6176914764
33
0.0000000000
40
0.0000000000
40
0.0000000000
40
0.0000000000
40
0.0000000000
40
0.0906308763
40
0.2149281225
40
0.3470443836
40
0.4901437923
40
0.6462048442
40
0.8161415881
40
1.0000000000
40
1.0000000000
40
1.0000000000
40
1.0000000000
10
47.0617952207
20
94.4189266561
30
0.0000000000
10
47.0618313933
20
94.3094054741
30
0.0000000000
10
47.0846262107
20
94.0496296503
30
0.0000000000
10
47.2054012667
20
93.6454188402
30
0.0000000000
10
47.4374476714
20
93.2198304695
30
0.0000000000
10
47.7652904374
20
92.8131806613
30
0.0000000000
10
48.1836767899
20
92.4299006322
30
0.0000000000
10
48.6867778676
20
92.0742899363
30
0.0000000000
10
49.0601776343
20
91.8663259042
30
0.0000000000
10
49.2584617582
20
91.7671838423
30
0.0000000000
11
47.0617952207
21
94.4189266561
31
0.0000000000
11
47.0903023814
21
94.0920002364
31
0.0000000000
11
47.2167079538
21
93.6605183755
31
0.0000000000
11
47.4424427903
21
93.2392914362
31
0.0000000000
11
47.7644542143
21
92.8340157902
31
0.0000000000
11
48.1783875738
21
92.4501720955
31
0.0000000000
11
48.6786451302
21
92.0929511795
31
0.0000000000
11
49.2584617582
21
91.7671838423
31
0.0000000000
0
SPLINE
5
318
100
AcDbEntity
8
0
100
AcDbSpline
62
7
6
CONTINUOUS
70
0
71
3
72
10
73
6
74
4
42
0.0000001000
43
0.0000001000
44
0.0000000001
12
-0.1847506574
22
-0.3243511399
32
0.0000000000
13
0.0004259631
23
-0.3738637456
33
0.0000000000
40
0.0000000000
40
0.0000000000
40
0.0000000000
40
0.0000000000
40
0.2664850134
40
0.8563452580
40
1.0000000000
40
1.0000000000
40
1.0000000000
40
1.0000000000
10
52.0610926988
20
97.1996398056
30
0.0000000000
10
52.0446816050
20
97.1708282330
30
0.0000000000
10
51.9972075878
20
97.0752904177
30
0.0000000000
10
51.9654527832
20
96.9530863768
30
0.0000000000
10
51.9617993900
20
96.8616998510
30
0.0000000000
10
51.9618197872
20
96.8437974177
30
0.0000000000
11
52.0610926988
21
97.1996398056
31
0.0000000000
11
52.0170988192
21
97.1104853472
31
0.0000000000
11
51.9639836453
21
96.8974278689
31
0.0000000000
11
51.9618197872
21
96.8437974177
31
0.0000000000
0
SPLINE
5
319
100
AcDbEntity
8
0
100
AcDbSpline
62
7
6
CONTINUOUS
70
0
71
3
72
9
73
5
74
3
42
0.0000001000
43
0.0000001000
44
0.0000000001
12
0.1849420702
22
-0.3249819440
32
0.0000000000
13
0.0004263260
23
-0.3741822730
33
0.0000000000
40
0.0000000000
40
0.0000000000
40
0.0000000000
40
0.0000000000
40
0.5657771601
40
1.0000000000
40
1.0000000000
40
1.0000000000
40
1.0000000000
10
57.0622900636
20
97.1998357655
30
0.0000000000
10
57.0971687300
20
97.1385466451
30
0.0000000000
10
57.1459910737
20
97.0226036180
30
0.0000000000
10
57.1616437401
20
96.8977728834
30
0.0000000000
10
57.1617054469
20
96.8436133870
30
0.0000000000
11
57.0622900636
21
97.1998357655
31
0.0000000000
11
57.1417961244
21
97.0045058230
31
0.0000000000
11
57.1617054469
21
96.8436133870
31
0.0000000000
0
SPLINE
5
31A
100
AcDbEntity
8
0
100
AcDbSpline
62
7
6
CONTINUOUS
70
0
71
3
72
28
73
24
74
22
42
0.0000001000
43
0.0000001000
44
0.0000000001
12
0.0048123684
22
-14.5705826474
32
0.0000000000
13
-13.0034745994
23
6.5017372997
33
0.0000000000
40
0.0000000000
40
0.0000000000
40
0.0000000000
40
0.0000000000
40
0.0074838757
40
0.0378193529
40
0.0696016387
40
0.1037599969
40
0.1409330215
40
0.1814748739
40
0.2254987696
40
0.2729260197
40
0.3235282401
40
0.3769608736
40
0.4327896685
40
0.4905122349
40
0.5495763900
40
0.6093965115
40
0.6693687314
40
0.7288855598
40
0.7873503998
40
0.8441923930
40
0.8988821078
40
0.9509487636
40
1.0000000000
40
1.0000000000
40
1.0000000000
40
1.0000000000
10
62.0617300134
20
96.8436130179
30
0.0000000000
10
62.0617420185
20
96.8072648747
30
0.0000000000
10
62.0564725608
20
96.6235932668
30
0.0000000000
10
61.9966379478
20
96.2885996886
30
0.0000000000
10
61.8143961368
20
95.8554261414
30
0.0000000000
10
61.5338080121
20
95.4387235601
30
0.0000000000
10
61.1600171060
20
95.0432235807
30
0.0000000000
10
60.6984904783
20
94.6732391463
30
0.0000000000
10
60.1553839762
20
94.3330206338
30
0.0000000000
10
59.5377903315
20
94.0267143653
30
0.0000000000
10
58.8537964946
20
93.7582143851
30
0.0000000000
10
58.1124245072
20
93.5310254578
30
0.0000000000
10
57.3235166735
20
93.3481602163
30
0.0000000000
10
56.4975954168
20
93.2120660603
30
0.0000000000
10
55.6457109170
20
93.1245741939
30
0.0000000000
10
54.7792822193
20
93.0868653395
30
0.0000000000
10
53.9099342360
20
93.0994491860
30
0.0000000000
10
53.0493338558
20
93.1621553759
30
0.0000000000
10
52.2090216874
20
93.2741378203
30
0.0000000000
10
51.4002594304
20
93.4338839343
30
0.0000000000
10
50.6338283317
20
93.6392606429
30
0.0000000000
10
49.9200150226
20
93.8874903776
30
0.0000000000
10
49.4710739272
20
94.0857488883
30
0.0000000000
10
49.2584617582
20
94.1920549729
30
0.0000000000
11
62.0617300134
21
96.8436130179
31
0.0000000000
11
62.0585897427
21
96.7346377070
31
0.0000000000
11
61.9825749064
21
96.3002109299
31
0.0000000000
11
61.8062063142
21
95.8731339832
31
0.0000000000
11
61.5318690488
21
95.4591823499
31
0.0000000000
11
61.1632730509
21
95.0639540158
31
0.0000000000
11
60.7054029492
21
94.6927937660
31
0.0000000000
11
60.1644506514
21
94.3507209063
31
0.0000000000
11
59.5477316092
21
94.0423613852
31
0.0000000000
11
58.8635858897
21
93.7718852363
31
0.0000000000
11
58.1212653902
21
93.5429501854
31
0.0000000000
11
57.3308087219
21
93.3586521865
31
0.0000000000
11
56.5029054553
21
93.2214835538
31
0.0000000000
11
55.6487515619
21
93.1332992577
31
0.0000000000
11
54.7798980076
21
93.0952918395
31
0.0000000000
11
53.9080945465
21
93.1079752845
31
0.0000000000
11
53.0451308246
21
93.1711780707
31
0.0000000000
11
52.2026769459
21
93.2840454889
31
0.0000000000
11
51.3921256540
21
93.4450512009
31
0.0000000000
11
50.6244382646
21
93.6520178807
31
0.0000000000
11
49.9099964325
21
93.9021466589
31
0.0000000000
11
49.2584617582
21
94.1920549729
31
0.0000000000
0
SPLINE
5
31B
100
AcDbEntity
8
0
100
AcDbSpline
62
7
6
CONTINUOUS
70
0
71
3
72
14
73
10
74
8
42
0.0000001000
43
0.0000001000
44
0.0000000001
12
0.0011973611
22
-3.6252937129
32
0.0000000000
13
3.2353829529
23
-1.6176914764
33
0.0000000000
40
0.0000000000
40
0.0000000000
40
0.0000000000
40
0.0000000000
40
0.0906308763
40
0.2149281225
40
0.3470443836
40
0.4901437923
40
0.6462048442
40
0.8161415881
40
1.0000000000
40
1.0000000000
40
1.0000000000
40
1.0000000000
10
47.0617952207
20
96.8437977867
30
0.0000000000
10
47.0618313933
20
96.7342766047
30
0.0000000000
10
47.0846262107
20
96.4745007809
30
0.0000000000
10
47.2054012667
20
96.0702899708
30
0.0000000000
10
47.4374476714
20
95.6447016001
30
0.0000000000
10
47.7652904374
20
95.2380517919
30
0.0000000000
10
48.1836767899
20
94.8547717628
30
0.0000000000
10
48.6867778676
20
94.4991610669
30
0.0000000000
10
49.0601776343
20
94.2911970348
30
0.0000000000
10
49.2584617582
20
94.1920549729
30
0.0000000000
11
47.0617952207
21
96.8437977867
31
0.0000000000
11
47.0903023814
21
96.5168713670
31
0.0000000000
11
47.2167079538
21
96.0853895061
31
0.0000000000
11
47.4424427903
21
95.6641625668
31
0.0000000000
11
47.7644542143
21
95.2588869208
31
0.0000000000
11
48.1783875738
21
94.8750432261
31
0.0000000000
11
48.6786451302
21
94.5178223101
31
0.0000000000
11
49.2584617582
21
94.1920549729
31
0.0000000000
0
SPLINE
5
31C
100
AcDbEntity
8
0
100
AcDbSpline
62
7
6
CONTINUOUS
70
0
71
3
72
10
73
6
74
4
42
0.0000001000
43
0.0000001000
44
0.0000000001
12
0.7219252891
22
0.5113118816
32
0.0000000000
13
-0.0000258973
23
0.8866455414
33
0.0000000000
40
0.0000000000
40
0.0000000000
40
0.0000000000
40
0.0000000000
40
0.1774504663
40
0.6209785461
40
1.0000000000
40
1.0000000000
40
1.0000000000
40
1.0000000000
10
56.6030400114
20
-156.5842460053
30
0.0000000000
10
56.6457420045
20
-156.5540018280
30
0.0000000000
10
56.7905097379
20
-156.4414272833
30
0.0000000000
10
56.9910326482
20
-156.2176250370
30
0.0000000000
10
57.0617658889
20
-155.9745266494
30
0.0000000000
10
57.0617626171
20
-155.8625074220
30
0.0000000000
11
56.6030400114
21
-156.5842460053
31
0.0000000000
11
56.7268261265
21
-156.4875074220
31
0.0000000000
11
56.9765771828
21
-156.1860312283
31
0.0000000000
11
57.0617626171
21
-155.8625074220
31
0.0000000000
0
SPLINE
5
31D
100
AcDbEntity
8
0
100
AcDbSpline
62
7
6
CONTINUOUS
70
0
71
3
72
8
73
4
74
2
42
0.0000001000
43
0.0000001000
44
0.0000000001
12
0.1778807629
22
-0.1263196766
32
0.0000000000
13
0.1945155095
23
-0.0972577547
33
0.0000000000
40
0.0000000000
40
0.0000000000
40
0.0000000000
40
0.0000000000
40
1.0000000000
40
1.0000000000
40
1.0000000000
40
1.0000000000
10
53.1724762291
20
-157.0452833521
30
0.0000000000
10
53.2317698168
20
-157.0873899109
30
0.0000000000
10
53.2948425859
20
-157.1239492574
30
0.0000000000
10
53.3596810890
20
-157.1563685090
30
0.0000000000
11
53.1724762291
21
-157.0452833521
31
0.0000000000
11
53.3596810890
21
-157.1563685090
31
0.0000000000
0
SPLINE
5
31E
100
AcDbEntity
8
0
100
AcDbSpline
62
7
6
CONTINUOUS
70
0
71
3
72
14
73
10
74
8
42
0.0000001000
43
0.0000001000
44
0.0000000001
12
2.4046852019
22
-1.2023426009
32
0.0000000000
13
2.2102390594
23
1.5524642044
33
0.0000000000
40
0.0000000000
40
0.0000000000
40
0.0000000000
40
0.0000000000
40
0.1538404250
40
0.3253766633
40
0.5050093789
40
0.6819100992
40
0.8456531640
40
0.9879371005
40
1.0000000000
40
1.0000000000
40
1.0000000000
40
1.0000000000
10
53.3596810890
20
-157.1563685090
30
0.0000000000
10
53.4829936869
20
-157.2180248079
30
0.0000000000
10
53.7595363423
20
-157.3173527931
30
0.0000000000
10
54.2064071774
20
-157.3979504982
30
0.0000000000
10
54.6809867465
20
-157.4144431391
30
0.0000000000
10
55.1462471148
20
-157.3653511418
30
0.0000000000
10
55.5667444161
20
-157.2547321569
30
0.0000000000
10
55.8259421188
20
-157.1309366398
30
0.0000000000
10
55.9406855056
20
-157.0525771935
30
0.0000000000
10
55.9495728028
20
-157.0463347869
30
0.0000000000
11
53.3596810890
21
-157.1563685090
31
0.0000000000
11
53.7470393396
21
-157.3013548861
31
0.0000000000
11
54.2004016248
21
-157.3859025811
31
0.0000000000
11
54.6830392285
21
-157.4031620424
31
0.0000000000
11
55.1558517224
21
-157.3517350112
31
0.0000000000
11
55.5805346501
21
-157.2357877998
31
0.0000000000
11
55.9226827266
21
-157.0647137615
31
0.0000000000
11
55.9495728028
21
-157.0463347869
31
0.0000000000
0
SPLINE
5
31F
100
AcDbEntity
8
0
100
AcDbSpline
62
7
6
CONTINUOUS
70
0
71
3
72
10
73
6
74
4
42
0.0000001000
43
0.0000001000
44
0.0000000001
12
0.0000258944
22
-0.8865472936
32
0.0000000000
13
0.7223512071
23
-0.5115113000
33
0.0000000000
40
0.0000000000
40
0.0000000000
40
0.0000000000
40
0.0000000000
40
0.3790634573
40
0.8226406892
40
1.0000000000
40
1.0000000000
40
1.0000000000
40
1.0000000000
10
52.0617626171
20
-155.8625074220
30
0.0000000000
10
52.0617658889
20
-155.9745266494
30
0.0000000000
10
52.1325133309
20
-156.2176348462
30
0.0000000000
10
52.3329188928
20
-156.4413724626
30
0.0000000000
10
52.4777934966
20
-156.5539865043
30
0.0000000000
10
52.5204987340
20
-156.5842269349
30
0.0000000000
11
52.0617626171
21
-155.8625074220
31
0.0000000000
11
52.1469480513
21
-156.1860312283
31
0.0000000000
11
52.3966991076
21
-156.4875074220
31
0.0000000000
11
52.5204987340
21
-156.5842269349
31
0.0000000000
0
SPLINE
5
320
100
AcDbEntity
8
0
100
AcDbSpline
62
7
6
CONTINUOUS
70
0
71
3
72
8
73
4
74
2
42
0.0000001000
43
0.0000001000
44
0.0000000001
12
0.3236956160
22
-0.1618478080
32
0.0000000000
13
0.3423217389
23
-0.1197196267
33
0.0000000000
40
0.0000000000
40
0.0000000000
40
0.0000000000
40
0.0000000000
40
1.0000000000
40
1.0000000000
40
1.0000000000
40
1.0000000000
10
52.7939956641
20
-156.7463908984
30
0.0000000000
10
52.9018942028
20
-156.8003401678
30
0.0000000000
10
53.0136902036
20
-156.8466097779
30
0.0000000000
10
53.1277974499
20
-156.8865163201
30
0.0000000000
11
52.7939956641
21
-156.7463908984
31
0.0000000000
11
53.1277974499
21
-156.8865163201
31
0.0000000000
0
SPLINE
5
321
100
AcDbEntity
8
0
100
AcDbSpline
62
7
6
CONTINUOUS
70
0
71
3
72
14
73
10
74
8
42
0.0000001000
43
0.0000001000
44
0.0000000001
12
3.3987792199
22
-1.1886495458
32
0.0000000000
13
2.9388290600
23
2.0814594515
33
0.0000000000
40
0.0000000000
40
0.0000000000
40
0.0000000000
40
0.0000000000
40
0.0536190753
40
0.2249842792
40
0.4054500444
40
0.5859158097
40
0.7572810136
40
0.9116191167
40
1.0000000000
40
1.0000000000
40
1.0000000000
40
1.0000000000
10
53.1277974499
20
-156.8865163201
30
0.0000000000
10
53.1885439162
20
-156.9077610833
30
0.0000000000
10
53.4461830394
20
-156.9893367226
30
0.0000000000
10
53.9236710286
20
-157.0854309459
30
0.0000000000
10
54.5617766450
20
-157.1263909255
30
0.0000000000
10
55.1997995086
20
-157.0854501237
30
0.0000000000
10
55.7961298177
20
-156.9653964308
30
0.0000000000
10
56.2636397395
20
-156.7922368434
30
0.0000000000
10
56.5164612420
20
-156.6455664136
30
0.0000000000
10
56.6030400114
20
-156.5842460053
30
0.0000000000
11
53.1277974499
21
-156.8865163201
31
0.0000000000
11
53.3117626171
21
-156.9450391767
31
0.0000000000
11
53.9147150043
21
-157.0699147048
31
0.0000000000
11
54.5617626171
21
-157.1125074220
31
0.0000000000
11
55.2088102298
21
-157.0699147048
31
0.0000000000
11
55.8117626171
21
-156.9450391767
31
0.0000000000
11
56.3295295700
21
-156.7463908984
31
0.0000000000
11
56.6030400114
21
-156.5842460053
31
0.0000000000
0
SPLINE
5
322
100
AcDbEntity
8
0
100
AcDbSpline
62
7
6
CONTINUOUS
70
0
71
3
72
8
73
4
74
2
42
0.0000001000
43
0.0000001000
44
0.0000000001
12
0.2599983988
22
-0.1841100529
32
0.0000000000
13
0.2841301800
23
-0.1420650900
33
0.0000000000
40
0.0000000000
40
0.0000000000
40
0.0000000000
40
0.0000000000
40
1.0000000000
40
1.0000000000
40
1.0000000000
40
1.0000000000
10
52.5204987340
20
-156.5842269349
30
0.0000000000
10
52.6071648670
20
-156.6455969525
30
0.0000000000
10
52.6992856041
20
-156.6990358684
30
0.0000000000
10
52.7939956641
20
-156.7463908984
30
0.0000000000
11
52.5204987340
21
-156.5842269349
31
0.0000000000
11
52.7939956641
21
-156.7463908984
31
0.0000000000
0
SPLINE
5
323
100
AcDbEntity
8
0
100
AcDbSpline
62
7
6
CONTINUOUS
70
0
71
3
72
14
73
10
74
8
42
0.0000001000
43
0.0000001000
44
0.0000000001
12
2.2102390594
22
1.5524642044
32
0.0000000000
13
2.4046852019
23
-1.2023426009
33
0.0000000000
40
0.0000000000
40
0.0000000000
40
0.0000000000
40
0.0000000000
40
0.0120628995
40
0.1543468360
40
0.3180899008
40
0.4949906211
40
0.6746233367
40
0.8461595750
40
1.0000000000
40
1.0000000000
40
1.0000000000
40
1.0000000000
10
53.1739524313
20
105.1289410783
30
0.0000000000
10
53.1828397285
20
105.1351834849
30
0.0000000000
10
53.2975831153
20
105.2135429312
30
0.0000000000
10
53.5567808180
20
105.3373384483
30
0.0000000000
10
53.9772781194
20
105.4479574332
30
0.0000000000
10
54.4425384876
20
105.4970494305
30
0.0000000000
10
54.9171180567
20
105.4805567896
30
0.0000000000
10
55.3639888918
20
105.3999590845
30
0.0000000000
10
55.6405315472
20
105.3006310993
30
0.0000000000
10
55.7638441451
20
105.2389748004
30
0.0000000000
11
53.1739524313
21
105.1289410783
31
0.0000000000
11
53.2008425075
21
105.1473200529
31
0.0000000000
11
53.5429905840
21
105.3183940912
31
0.0000000000
11
53.9676735117
21
105.4343413026
31
0.0000000000
11
54.4404860056
21
105.4857683338
31
0.0000000000
11
54.9231236093
21
105.4685088725
31
0.0000000000
11
55.3764858945
21
105.3839611775
31
0.0000000000
11
55.7638441451
21
105.2389748004
31
0.0000000000
0
SPLINE
5
324
100
AcDbEntity
8
0
100
AcDbSpline
62
7
6
CONTINUOUS
70
0
71
3
72
10
73
6
74
4
42
0.0000001000
43
0.0000001000
44
0.0000000001
12
0.7223512071
22
-0.5115113000
32
0.0000000000
13
0.0000258944
23
-0.8865472936
33
0.0000000000
40
0.0000000000
40
0.0000000000
40
0.0000000000
40
0.0000000000
40
0.1773593108
40
0.6209365427
40
1.0000000000
40
1.0000000000
40
1.0000000000
40
1.0000000000
10
56.6030265001
20
104.6668332263
30
0.0000000000
10
56.6457317375
20
104.6365927957
30
0.0000000000
10
56.7906063414
20
104.5239787540
30
0.0000000000
10
56.9910119032
20
104.3002411376
30
0.0000000000
10
57.0617593452
20
104.0571329408
30
0.0000000000
10
57.0617626171
20
103.9451137134
30
0.0000000000
11
56.6030265001
21
104.6668332263
31
0.0000000000
11
56.7268261265
21
104.5701137134
31
0.0000000000
11
56.9765771828
21
104.2686375197
31
0.0000000000
11
57.0617626171
21
103.9451137134
31
0.0000000000
0
SPLINE
5
325
100
AcDbEntity
8
0
100
AcDbSpline
62
7
6
CONTINUOUS
70
0
71
3
72
8
73
4
74
2
42
0.0000001000
43
0.0000001000
44
0.0000000001
12
0.1945155095
22
-0.0972577547
32
0.0000000000
13
0.1778807629
23
-0.1263196766
33
0.0000000000
40
0.0000000000
40
0.0000000000
40
0.0000000000
40
0.0000000000
40
1.0000000000
40
1.0000000000
40
1.0000000000
40
1.0000000000
10
55.7638441451
20
105.2389748004
30
0.0000000000
10
55.8286826482
20
105.2065555488
30
0.0000000000
10
55.8917554174
20
105.1699962023
30
0.0000000000
10
55.9510490050
20
105.1278896435
30
0.0000000000
11
55.7638441451
21
105.2389748004
31
0.0000000000
11
55.9510490050
21
105.1278896435
31
0.0000000000
0
SPLINE
5
326
100
AcDbEntity
8
0
100
AcDbSpline
62
7
6
CONTINUOUS
70
0
71
3
72
10
73
6
74
4
42
0.0000001000
43
0.0000001000
44
0.0000000001
12
-0.0000258973
22
0.8866455414
32
0.0000000000
13
0.7219252891
23
0.5113118816
33
0.0000000000
40
0.0000000000
40
0.0000000000
40
0.0000000000
40
0.0000000000
40
0.3790214539
40
0.8225495337
40
1.0000000000
40
1.0000000000
40
1.0000000000
40
1.0000000000
10
52.0617626171
20
103.9451137134
30
0.0000000000
10
52.0617593452
20
104.0571329408
30
0.0000000000
10
52.1324925859
20
104.3002313284
30
0.0000000000
10
52.3330154963
20
104.5240335747
30
0.0000000000
10
52.4777832296
20
104.6366081194
30
0.0000000000
10
52.5204852227
20
104.6668522967
30
0.0000000000
11
52.0617626171
21
103.9451137134
31
0.0000000000
11
52.1469480513
21
104.2686375197
31
0.0000000000
11
52.3966991076
21
104.5701137134
31
0.0000000000
11
52.5204852227
21
104.6668522967
31
0.0000000000
0
SPLINE
5
327
100
AcDbEntity
8
0
100
AcDbSpline
62
7
6
CONTINUOUS
70
0
71
3
72
18
73
14
74
12
42
0.0000001000
43
0.0000001000
44
0.0000000001
12
3.1786133224
22
-2.2572503088
32
0.0000000000
13
-3.4758654038
23
1.7379327019
33
0.0000000000
40
0.0000000000
40
0.0000000000
40
0.0000000000
40
0.0000000000
40
0.0337690076
40
0.1065413247
40
0.1692707721
40
0.2356121766
40
0.3165219449
40
0.4149573090
40
0.5282386013
40
0.6506226683
40
0.7748967936
40
0.8935695861
40
1.0000000000
40
1.0000000000
40
1.0000000000
40
1.0000000000
10
55.9510490050
20
105.1278896435
30
0.0000000000
10
55.9868285442
20
105.1024812758
30
0.0000000000
10
56.0953714846
20
105.0159450210
30
0.0000000000
10
56.2390629967
20
104.8416240748
30
0.0000000000
10
56.2829662728
20
104.5683402380
30
0.0000000000
10
56.1581768071
20
104.3120374256
30
0.0000000000
10
55.9114112768
20
104.1031460999
30
0.0000000000
10
55.5667444161
20
103.9385296245
30
0.0000000000
10
55.1462471148
20
103.8279106396
30
0.0000000000
10
54.6809867465
20
103.7788186423
30
0.0000000000
10
54.2064071774
20
103.7953112832
30
0.0000000000
10
53.7595363423
20
103.8759089883
30
0.0000000000
10
53.4829936869
20
103.9752369735
30
0.0000000000
10
53.3596810890
20
104.0368932724
30
0.0000000000
11
55.9510490050
21
105.1278896435
31
0.0000000000
11
56.0538168993
21
105.0452956751
31
0.0000000000
11
56.2229122892
21
104.8186145325
31
0.0000000000
11
56.2574312119
21
104.5772957307
31
0.0000000000
11
56.1545771496
21
104.3408894837
31
0.0000000000
11
55.9226827266
21
104.1285480199
31
0.0000000000
11
55.5805346501
21
103.9574739816
31
0.0000000000
11
55.1558517224
21
103.8415267701
31
0.0000000000
11
54.6830392285
21
103.7900997390
31
0.0000000000
11
54.2004016248
21
103.8073592003
31
0.0000000000
11
53.7470393396
21
103.8919068953
31
0.0000000000
11
53.3596810890
21
104.0368932724
31
0.0000000000
0
SPLINE
5
328
100
AcDbEntity
8
0
100
AcDbSpline
62
7
6
CONTINUOUS
70
0
71
3
72
12
73
8
74
6
42
0.0000001000
43
0.0000001000
44
0.0000000001
12
-1.2656957114
22
0.6328478557
32
0.0000000000
13
1.1633498208
23
0.8171328555
33
0.0000000000
40
0.0000000000
40
0.0000000000
40
0.0000000000
40
0.0000000000
40
0.2464194451
40
0.4462674629
40
0.6185356582
40
0.8007230441
40
1.0000000000
40
1.0000000000
40
1.0000000000
40
1.0000000000
10
53.3596810890
20
104.0368932724
30
0.0000000000
10
53.2557170774
20
104.0888752782
30
0.0000000000
10
53.0756588701
20
104.2022916897
30
0.0000000000
10
52.8844622374
20
104.4342439979
30
0.0000000000
10
52.8405589614
20
104.7075278348
30
0.0000000000
10
52.9603888379
20
104.9536442373
30
0.0000000000
10
53.0966761610
20
105.0746624957
30
0.0000000000
10
53.1739524313
20
105.1289410783
30
0.0000000000
11
53.3596810890
21
104.0368932724
31
0.0000000000
11
53.0697083348
21
104.2305723977
31
0.0000000000
11
52.9006129449
21
104.4572535403
31
0.0000000000
11
52.8660940222
21
104.6985723421
31
0.0000000000
11
52.9689480846
21
104.9349785891
31
0.0000000000
11
53.1739524313
21
105.1289410783
31
0.0000000000
0
SPLINE
5
329
100
AcDbEntity
8
0
100
AcDbSpline
62
7
6
CONTINUOUS
70
0
71
3
72
10
73
6
74
4
42
0.0000001000
43
0.0000001000
44
0.0000000001
12
-1.0735264972
22
0.5367632486
32
0.0000000000
13
-0.0000352147
23
1.2056453647
33
0.0000000000
40
0.0000000000
40
0.0000000000
40
0.0000000000
40
0.0000000000
40
0.3950875622
40
0.7212632404
40
1.0000000000
40
1.0000000000
40
1.0000000000
40
1.0000000000
10
52.7939956641
20
103.0612302369
30
0.0000000000
10
52.6526166752
20
103.1319197313
30
0.0000000000
10
52.4050515682
20
103.2857180092
30
0.0000000000
10
52.1325133309
20
103.5899862892
30
0.0000000000
10
52.0617658889
20
103.8330944860
30
0.0000000000
10
52.0617626171
20
103.9451137134
30
0.0000000000
11
52.7939956641
21
103.0612302369
31
0.0000000000
11
52.3966991076
21
103.3201137134
31
0.0000000000
11
52.1469480513
21
103.6215899070
31
0.0000000000
11
52.0617626171
21
103.9451137134
31
0.0000000000
0
SPLINE
5
32A
100
AcDbEntity
8
0
100
AcDbSpline
62
7
6
CONTINUOUS
70
0
71
3
72
16
73
12
74
10
42
0.0000001000
43
0.0000001000
44
0.0000000001
12
0.0001419387
22
-4.8595541861
32
0.0000000000
13
-4.3270271144
23
2.1635135572
33
0.0000000000
40
0.0000000000
40
0.0000000000
40
0.0000000000
40
0.0000000000
40
0.0691540148
40
0.1500775274
40
0.2480979363
40
0.3627307187
40
0.4900101768
40
0.6240489681
40
0.7580877595
40
0.8853672176
40
1.0000000000
40
1.0000000000
40
1.0000000000
40
1.0000000000
10
57.0617626171
20
103.9451137134
30
0.0000000000
10
57.0617658889
20
103.8330944860
30
0.0000000000
10
56.9910326482
20
103.5899960983
30
0.0000000000
10
56.7183650420
20
103.2856736513
30
0.0000000000
10
56.3128547132
20
103.0336128774
30
0.0000000000
10
55.7961298177
20
102.8422247045
30
0.0000000000
10
55.1997995086
20
102.7221710117
30
0.0000000000
10
54.5617766450
20
102.6812302098
30
0.0000000000
10
53.9236710286
20
102.7221901894
30
0.0000000000
10
53.3275688556
20
102.8421554590
30
0.0000000000
10
52.9593353833
20
102.9785603773
30
0.0000000000
10
52.7939956641
20
103.0612302369
30
0.0000000000
11
57.0617626171
21
103.9451137134
31
0.0000000000
11
56.9765771828
21
103.6215899070
31
0.0000000000
11
56.7268261265
21
103.3201137134
31
0.0000000000
11
56.3295295700
21
103.0612302369
31
0.0000000000
11
55.8117626171
21
102.8625819586
31
0.0000000000
11
55.2088102298
21
102.7377064305
31
0.0000000000
11
54.5617626171
21
102.6951137134
31
0.0000000000
11
53.9147150043
21
102.7377064305
31
0.0000000000
11
53.3117626171
21
102.8625819586
31
0.0000000000
11
52.7939956641
21
103.0612302369
31
0.0000000000
0
SPLINE
5
32B
100
AcDbEntity
8
0
100
AcDbSpline
62
7
6
CONTINUOUS
70
0
71
3
72
8
73
4
74
2
42
0.0000001000
43
0.0000001000
44
0.0000000001
12
0.0000000000
22
0.3534303628
32
0.0000000000
13
0.0134596449
23
0.3533300318
33
0.0000000000
40
0.0000000000
40
0.0000000000
40
0.0000000000
40
0.0000000000
40
1.0000000000
40
1.0000000000
40
1.0000000000
40
1.0000000000
10
-330.4578797390
20
-225.5395858442
30
0.0000000000
10
-330.4578797390
20
-225.4217757233
30
0.0000000000
10
-330.4555796169
20
-225.3039401825
30
0.0000000000
10
-330.4510930686
20
-225.1861635053
30
0.0000000000
11
-330.4578797390
21
-225.5395858442
31
0.0000000000
11
-330.4510930686
21
-225.1861635053
31
0.0000000000
0
SPLINE
5
32C
100
AcDbEntity
8
0
100
AcDbSpline
62
7
6
CONTINUOUS
70
0
71
3
72
8
73
4
74
2
42
0.0000001000
43
0.0000001000
44
0.0000000001
12
0.0007172671
22
0.0188290270
32
0.0000000000
13
0.0007544702
23
0.0188279858
33
0.0000000000
40
0.0000000000
40
0.0000000000
40
0.0000000000
40
0.0000000000
40
1.0000000000
40
1.0000000000
40
1.0000000000
40
1.0000000000
10
-330.4510930686
20
-225.1861635053
30
0.0000000000
10
-330.4508539795
20
-225.1798871629
30
0.0000000000
10
-330.4506086814
20
-225.1736109877
30
0.0000000000
10
-330.4503571913
20
-225.1673349925
30
0.0000000000
11
-330.4510930686
21
-225.1861635053
31
0.0000000000
11
-330.4503571913
21
-225.1673349925
31
0.0000000000
0
SPLINE
5
32D
100
AcDbEntity
8
0
100
AcDbSpline
62
7
6
CONTINUOUS
70
0
71
3
72
23
73
19
74
17
42
0.0000001000
43
0.0000001000
44
0.0000000001
12
0.6443543557
22
16.0800187179
32
0.0000000000
13
14.4193234282
23
-7.2129855948
33
0.0000000000
40
0.0000000000
40
0.0000000000
40
0.0000000000
40
0.0000000000
40
0.0472739746
40
0.1212219207
40
0.1978588502
40
0.2761998981
40
0.3551754306
40
0.4336852695
40
0.5106516032
40
0.5850728575
40
0.6560809517
40
0.7230047937
40
0.7854430240
40
0.8433472963
40
0.8971097228
40
0.9476281311
40
0.9962912219
40
1.0000000000
40
1.0000000000
40
1.0000000000
40
1.0000000000
10
-330.4503571913
20
-225.1673349925
30
0.0000000000
10
-330.4402034609
20
-224.9139461939
30
0.0000000000
10
-330.3882851264
20
-224.2649479871
30
0.0000000000
10
-330.2073727104
20
-223.2178076633
30
0.0000000000
10
-329.8784196885
20
-222.0332172677
30
0.0000000000
10
-329.4298488107
20
-220.8598361533
30
0.0000000000
10
-328.8715302307
20
-219.7233592487
30
0.0000000000
10
-328.2157403611
20
-218.6487918863
30
0.0000000000
10
-327.4768730869
20
-217.6597454965
30
0.0000000000
10
-326.6710801693
20
-216.7779245256
30
0.0000000000
10
-325.8158440245
20
-216.0226430962
30
0.0000000000
10
-324.9294919891
20
-215.4104613336
30
0.0000000000
10
-324.0306871139
20
-214.9549951046
30
0.0000000000
10
-323.1380182018
20
-214.6669889130
30
0.0000000000
10
-322.2699957982
20
-214.5546359360
30
0.0000000000
10
-321.4458592527
20
-214.6236398816
30
0.0000000000
10
-320.9170526305
20
-214.7992278097
30
0.0000000000
10
-320.6641424135
20
-214.9227630089
30
0.0000000000
10
-320.6463163901
20
-214.9316801299
30
0.0000000000
11
-330.4503571913
21
-225.1673349925
31
0.0000000000
11
-330.3907484516
21
-224.4088878962
31
0.0000000000
11
-330.1908541915
21
-223.2363165845
31
0.0000000000
11
-329.8626622660
21
-222.0480652146
31
0.0000000000
11
-329.4135039406
21
-220.8706773587
31
0.0000000000
11
-328.8534126700
21
-219.7304539158
31
0.0000000000
11
-328.1948999675
21
-218.6528655934
31
0.0000000000
11
-327.4526759190
21
-217.6619839342
31
0.0000000000
11
-326.6433205830
21
-216.7799435968
31
0.0000000000
11
-325.7849136205
21
-216.0264479051
31
0.0000000000
11
-324.8966304244
21
-215.4183287074
31
0.0000000000
11
-323.9983137735
21
-214.9691703820
31
0.0000000000
11
-323.1100305774
21
-214.6890063835
31
0.0000000000
11
-322.2516236148
21
-214.5840951128
31
0.0000000000
11
-321.4422682789
21
-214.6567801141
31
0.0000000000
11
-320.7000442303
21
-214.9054377248
31
0.0000000000
11
-320.6463163901
21
-214.9316801299
31
0.0000000000
0
SPLINE
5
32E
100
AcDbEntity
8
0
100
AcDbSpline
62
7
6
CONTINUOUS
70
0
71
3
72
13
73
9
74
7
42
0.0000001000
43
0.0000001000
44
0.0000000001
12
0.0000000000
22
-5.3621237719
32
0.0000000000
13
4.8067091774
23
-2.4044626107
33
0.0000000000
40
0.0000000000
40
0.0000000000
40
0.0000000000
40
0.0000000000
40
0.1987427427
40
0.3839314396
40
0.5556078083
40
0.7151725504
40
0.8655577878
40
1.0000000000
40
1.0000000000
40
1.0000000000
40
1.0000000000
10
-330.4578797390
20
-225.5395858442
30
0.0000000000
10
-330.4578797390
20
-225.8948135726
30
0.0000000000
10
-330.4174965836
20
-226.5820892156
30
0.0000000000
10
-330.2223002039
20
-227.5594019365
30
0.0000000000
10
-329.8973919334
20
-228.4283536647
30
0.0000000000
10
-329.4476366557
20
-229.1692216031
30
0.0000000000
10
-328.8943726433
20
-229.7488172810
30
0.0000000000
10
-328.4640360128
20
-230.0293301609
30
0.0000000000
10
-328.2486278078
20
-230.1370839185
30
0.0000000000
11
-330.4578797390
21
-225.5395858442
31
0.0000000000
11
-330.3907484516
21
-226.6031525048
31
0.0000000000
11
-330.1908541915
21
-227.5758295564
31
0.0000000000
11
-329.8626622660
21
-228.4358890008
31
0.0000000000
11
-329.4135039406
21
-229.1641185313
31
0.0000000000
11
-328.8534126700
21
-229.7442507036
31
0.0000000000
11
-328.2486278078
21
-230.1370839185
31
0.0000000000
0
SPLINE
5
32F
100
AcDbEntity
8
0
100
AcDbSpline
62
7
6
CONTINUOUS
70
0
71
3
72
23
73
19
74
17
42
0.0000001000
43
0.0000001000
44
0.0000000001
12
-2.7381353183
22
-3.8440367233
32
0.0000000000
13
1.4085563897
23
-4.5044391713
33
0.0000000000
40
0.0000000000
40
0.0000000000
40
0.0000000000
40
0.0000000000
40
0.0771456939
40
0.1493823823
40
0.2171223952
40
0.2802329081
40
0.3381606561
40
0.3904930749
40
0.4380923279
40
0.4847332509
40
0.5326035783
40
0.5811943921
40
0.6308354999
40
0.6854337001
40
0.7488804789
40
0.8221071777
40
0.9056350886
40
1.0000000000
40
1.0000000000
40
1.0000000000
40
1.0000000000
10
-324.4828274380
20
-220.5955223545
30
0.0000000000
10
-324.5532392210
20
-220.6943726479
30
0.0000000000
10
-324.6765907349
20
-220.8953243330
30
0.0000000000
10
-324.8205215544
20
-221.2057226862
30
0.0000000000
10
-324.9267083149
20
-221.5074941074
30
0.0000000000
10
-325.0027281029
20
-221.7948483653
30
0.0000000000
10
-325.0548649148
20
-222.0627317077
30
0.0000000000
10
-325.0887844599
20
-222.3088505932
30
0.0000000000
10
-325.1096442292
20
-222.5385595208
30
0.0000000000
10
-325.1207264061
20
-222.7619073181
30
0.0000000000
10
-325.1231745204
20
-222.9870735779
30
0.0000000000
10
-325.1170997323
20
-223.2168893490
30
0.0000000000
10
-325.1021001827
20
-223.4569000673
30
0.0000000000
10
-325.0760971953
20
-223.7194760179
30
0.0000000000
10
-325.0347634058
20
-224.0176125084
30
0.0000000000
10
-324.9725051009
20
-224.3585077408
30
0.0000000000
10
-324.8834606690
20
-224.7435469319
30
0.0000000000
10
-324.8067335536
20
-225.0128391647
30
0.0000000000
10
-324.7624274539
20
-225.1545261658
30
0.0000000000
11
-324.4828274380
21
-220.5955223545
31
0.0000000000
11
-324.6741566339
21
-220.9052899061
31
0.0000000000
11
-324.8182819503
21
-221.2142506515
31
0.0000000000
11
-324.9249147708
21
-221.5156446941
31
0.0000000000
11
-325.0014597326
21
-221.8034932955
31
0.0000000000
11
-325.0539347540
21
-222.0718019836
31
0.0000000000
11
-325.0878130782
21
-222.3164520857
31
0.0000000000
11
-325.1082339166
21
-222.5401683151
31
0.0000000000
11
-325.1192293593
21
-222.7600169581
31
0.0000000000
11
-325.1217680158
21
-222.9859283431
31
0.0000000000
11
-325.1157837971
21
-223.2151762604
31
0.0000000000
11
-325.1012409976
21
-223.4490073699
31
0.0000000000
11
-325.0759281509
21
-223.7054391348
31
0.0000000000
11
-325.0349142622
21
-224.0020562651
31
0.0000000000
11
-324.9729595875
21
-224.3420535478
31
0.0000000000
11
-324.8842943783
21
-224.7261658229
31
0.0000000000
11
-324.7624274539
21
-225.1545261658
31
0.0000000000
0
SPLINE
5
330
100
AcDbEntity
8
0
100
AcDbSpline
62
7
6
CONTINUOUS
70
0
71
3
72
12
73
8
74
6
42
0.0000001000
43
0.0000001000
44
0.0000000001
12
3.6166639089
22
0.7700887706
32
0.0000000000
13
2.5898593224
23
2.6337765214
33
0.0000000000
40
0.0000000000
40
0.0000000000
40
0.0000000000
40
0.0000000000
40
0.1014858646
40
0.3325040242
40
0.5819366938
40
0.8487493125
40
1.0000000000
40
1.0000000000
40
1.0000000000
40
1.0000000000
10
-324.8943760970
20
-229.4935749696
30
0.0000000000
10
-324.7720293425
20
-229.4675239281
30
0.0000000000
10
-324.3750500964
20
-229.3636684953
30
0.0000000000
10
-323.7097490680
20
-229.0899776267
30
0.0000000000
10
-322.9197747128
20
-228.6132650602
30
0.0000000000
10
-322.2767894005
20
-228.0987007101
30
0.0000000000
10
-321.9049188546
20
-227.7424750666
30
0.0000000000
10
-321.7743461870
20
-227.6096882301
30
0.0000000000
11
-324.8943760970
21
-229.4935749696
31
0.0000000000
11
-324.5312687957
21
-229.3992339907
31
0.0000000000
11
-323.7403653177
21
-229.0800170518
31
0.0000000000
11
-322.9494618398
21
-228.6083305127
31
0.0000000000
11
-322.1780330303
21
-227.9957888614
31
0.0000000000
11
-321.7743461870
21
-227.6096882301
31
0.0000000000
0
SPLINE
5
331
100
AcDbEntity
8
0
100
AcDbSpline
62
7
6
CONTINUOUS
70
0
71
3
72
8
73
4
74
2
42
0.0000001000
43
0.0000001000
44
0.0000000001
12
0.0815087450
22
0.8124708248
32
0.0000000000
13
0.0000000000
23
0.8158270821
33
0.0000000000
40
0.0000000000
40
0.0000000000
40
0.0000000000
40
0.0000000000
40
1.0000000000
40
1.0000000000
40
1.0000000000
40
1.0000000000
10
-318.7262853691
20
-221.1749016970
30
0.0000000000
10
-318.6991157875
20
-220.9040780887
30
0.0000000000
10
-318.6845518323
20
-220.6319710327
30
0.0000000000
10
-318.6845518323
20
-220.3600286720
30
0.0000000000
11
-318.7262853691
21
-221.1749016970
31
0.0000000000
11
-318.6845518323
21
-220.3600286720
31
0.0000000000
0
SPLINE
5
332
100
AcDbEntity
8
0
100
AcDbSpline
62
7
6
CONTINUOUS
70
0
71
3
72
11
73
7
74
5
42
0.0000001000
43
0.0000001000
44
0.0000000001
12
2.8626522607
22
1.8830272411
32
0.0000000000
13
2.1802063759
23
2.6419075593
33
0.0000000000
40
0.0000000000
40
0.0000000000
40
0.0000000000
40
0.0000000000
40
0.0343867813
40
0.3790034239
40
0.7419867714
40
1.0000000000
40
1.0000000000
40
1.0000000000
40
1.0000000000
10
-323.5894903866
20
-230.2652544846
30
0.0000000000
10
-323.5566779208
20
-230.2436707359
30
0.0000000000
10
-323.1965578058
20
-230.0034678869
30
0.0000000000
10
-322.5246486366
20
-229.4849695929
30
0.0000000000
10
-321.7287601295
20
-228.7197988430
30
0.0000000000
10
-321.2598681680
20
-228.1874566292
30
0.0000000000
10
-321.0723608060
20
-227.9602409295
30
0.0000000000
11
-323.5894903866
21
-230.2652544846
31
0.0000000000
11
-323.4914701205
21
-230.1998809168
31
0.0000000000
11
-322.5549295854
21
-229.4820910215
31
0.0000000000
11
-321.6569157583
21
-228.6228658065
31
0.0000000000
11
-321.0723608060
21
-227.9602409295
31
0.0000000000
0
SPLINE
5
333
100
AcDbEntity
8
0
100
AcDbSpline
62
7
6
CONTINUOUS
70
0
71
3
72
9
73
5
74
3
42
0.0000001000
43
0.0000001000
44
0.0000000001
12
0.1627677366
22
1.3315262022
32
0.0000000000
13
0.0000000000
23
1.3407163552
33
0.0000000000
40
0.0000000000
40
0.0000000000
40
0.0000000000
40
0.0000000000
40
0.0997468937
40
1.0000000000
40
1.0000000000
40
1.0000000000
40
1.0000000000
10
-317.8138251171
20
-220.5135802523
30
0.0000000000
10
-317.8084132584
20
-220.4693083848
30
0.0000000000
10
-317.7566279329
20
-220.0251462521
30
0.0000000000
10
-317.7299576777
20
-219.5779528347
30
0.0000000000
10
-317.7299576777
20
-219.1756248135
30
0.0000000000
11
-317.8138251171
21
-220.5135802523
31
0.0000000000
11
-317.7983322886
21
-220.3806706392
31
0.0000000000
11
-317.7299576777
21
-219.1756248135
31
0.0000000000
0
SPLINE
5
334
100
AcDbEntity
8
0
100
AcDbSpline
62
7
6
CONTINUOUS
70
0
71
3
72
14
73
10
74
8
42
0.0000001000
43
0.0000001000
44
0.0000000001
12
5.6050508211
22
-2.8023852227
32
0.0000000000
13
5.2275796806
23
3.4379157780
33
0.0000000000
40
0.0000000000
40
0.0000000000
40
0.0000000000
40
0.0000000000
40
0.0754156359
40
0.2247512389
40
0.3805440020
40
0.5460150298
40
0.7232108240
40
0.9130172437
40
1.0000000000
40
1.0000000000
40
1.0000000000
40
1.0000000000
10
-330.4981510845
20
-231.8073128664
30
0.0000000000
10
-330.3572482605
20
-231.8777607542
30
0.0000000000
10
-329.9253846936
20
-232.0638148380
30
0.0000000000
10
-329.1481458453
20
-232.2512865826
30
0.0000000000
10
-328.1610573072
20
-232.2775112716
30
0.0000000000
10
-327.1302937783
20
-232.1096089134
30
0.0000000000
10
-326.0746406239
20
-231.7531578660
30
0.0000000000
10
-325.2276722195
20
-231.3249138988
30
0.0000000000
10
-324.7372304323
20
-231.0201117072
30
0.0000000000
10
-324.5856606692
20
-230.9204319104
30
0.0000000000
11
-330.4981510845
21
-231.8073128664
31
0.0000000000
11
-330.0643631786
21
-231.9941402103
31
0.0000000000
11
-329.1573091365
21
-232.2161723956
31
0.0000000000
11
-328.1835950399
21
-232.2473134958
31
0.0000000000
11
-327.1613593404
21
-232.0869834111
31
0.0000000000
11
-326.1096443546
21
-231.7381687876
31
0.0000000000
11
-325.0480415430
21
-231.2073673818
31
0.0000000000
11
-324.5856606692
21
-230.9204319104
31
0.0000000000
0
SPLINE
5
335
100
AcDbEntity
8
0
100
AcDbSpline
62
7
6
CONTINUOUS
70
0
71
3
72
9
73
5
74
3
42
0.0000001000
43
0.0000001000
44
0.0000000001
12
0.5913254304
22
-1.2761630967
32
0.0000000000
13
0.2098966766
23
-1.3904680351
33
0.0000000000
40
0.0000000000
40
0.0000000000
40
0.0000000000
40
0.0000000000
40
0.4333298338
40
1.0000000000
40
1.0000000000
40
1.0000000000
40
1.0000000000
10
-319.1484137425
20
-218.0010015832
30
0.0000000000
10
-319.0630007590
20
-218.1853347640
30
0.0000000000
10
-318.8978275096
20
-218.6254437024
30
0.0000000000
10
-318.7973551424
20
-219.0843802406
30
0.0000000000
10
-318.7577077475
20
-219.3470258248
30
0.0000000000
11
-319.1484137425
21
-218.0010015832
31
0.0000000000
11
-318.9320009572
21
-218.5702947781
31
0.0000000000
11
-318.7577077475
21
-219.3470258248
31
0.0000000000
0
SPLINE
5
336
100
AcDbEntity
8
0
100
AcDbSpline
62
7
6
CONTINUOUS
70
0
71
3
72
8
73
4
74
2
42
0.0000001000
43
0.0000001000
44
0.0000000001
12
0.0113823453
22
-0.0754027532
32
0.0000000000
13
0.0104416357
23
-0.0755354007
33
0.0000000000
40
0.0000000000
40
0.0000000000
40
0.0000000000
40
0.0000000000
40
1.0000000000
40
1.0000000000
40
1.0000000000
40
1.0000000000
10
-318.7577077475
20
-219.3470258248
30
0.0000000000
10
-318.7539136324
20
-219.3721600759
30
0.0000000000
10
-318.7502778311
20
-219.3973179536
30
0.0000000000
10
-318.7467972859
20
-219.4224964205
30
0.0000000000
11
-318.7577077475
21
-219.3470258248
31
0.0000000000
11
-318.7467972859
21
-219.4224964205
31
0.0000000000
0
SPLINE
5
337
100
AcDbEntity
8
0
100
AcDbSpline
62
7
6
CONTINUOUS
70
0
71
3
72
8
73
4
74
2
42
0.0000001000
43
0.0000001000
44
0.0000000001
12
0.1288074326
22
-0.9318004654
32
0.0000000000
13
0.0000000000
23
-0.9395963065
33
0.0000000000
40
0.0000000000
40
0.0000000000
40
0.0000000000
40
0.0000000000
40
1.0000000000
40
1.0000000000
40
1.0000000000
40
1.0000000000
10
-318.7467972859
20
-219.4224964205
30
0.0000000000
10
-318.7038614750
20
-219.7330965756
30
0.0000000000
10
-318.6845518323
20
-220.0468299032
30
0.0000000000
10
-318.6845518323
20
-220.3600286720
30
0.0000000000
11
-318.7467972859
21
-219.4224964205
31
0.0000000000
11
-318.6845518323
21
-220.3600286720
31
0.0000000000
0
SPLINE
5
338
100
AcDbEntity
8
0
100
AcDbSpline
62
7
6
CONTINUOUS
70
0
71
3
72
8
73
4
74
2
42
0.0000001000
43
0.0000001000
44
0.0000000001
12
0.0368499223
22
-0.5944623568
32
0.0000000000
13
0.0000000000
23
-0.5951582595
33
0.0000000000
40
0.0000000000
40
0.0000000000
40
0.0000000000
40
0.0000000000
40
1.0000000000
40
1.0000000000
40
1.0000000000
40
1.0000000000
10
-317.7480769949
20
-218.5805564677
30
0.0000000000
10
-317.7357936874
20
-218.7787105866
30
0.0000000000
10
-317.7299576777
20
-218.9772387270
30
0.0000000000
10
-317.7299576777
20
-219.1756248135
30
0.0000000000
11
-317.7480769949
21
-218.5805564677
31
0.0000000000
11
-317.7299576777
21
-219.1756248135
31
0.0000000000
0
SPLINE
5
339
100
AcDbEntity
8
0
100
AcDbSpline
62
7
6
CONTINUOUS
70
0
71
3
72
14
73
10
74
8
42
0.0000001000
43
0.0000001000
44
0.0000000001
12
5.6049648883
22
-2.8023422585
32
0.0000000000
13
0.3862203809
23
-6.2455528223
33
0.0000000000
40
0.0000000000
40
0.0000000000
40
0.0000000000
40
0.0000000000
40
0.0716092638
40
0.2208322789
40
0.3764153021
40
0.5416078958
40
0.7184876283
40
0.9079688028
40
1.0000000000
40
1.0000000000
40
1.0000000000
40
1.0000000000
10
-320.6595348132
20
-212.1300803321
30
0.0000000000
10
-320.5257456767
20
-212.1969715541
30
0.0000000000
10
-320.1243081783
20
-212.4255443667
30
0.0000000000
10
-319.5118244378
20
-212.9258715879
30
0.0000000000
10
-318.8953720073
20
-213.6956622351
30
0.0000000000
10
-318.4078044657
20
-214.6173230203
30
0.0000000000
10
-318.0559957534
20
-215.6725487144
30
0.0000000000
10
-317.8855574913
20
-216.6154679120
30
0.0000000000
10
-317.8333998883
20
-217.2006064006
30
0.0000000000
10
-317.8215517802
20
-217.3922016351
30
0.0000000000
11
-320.6595348132
21
-212.1300803321
31
0.0000000000
11
-320.2698254318
21
-212.3520402190
31
0.0000000000
11
-319.5452250959
21
-212.9399675629
31
0.0000000000
11
-318.9330196446
21
-213.6960830457
31
0.0000000000
11
-318.4446133070
21
-214.6063016666
31
0.0000000000
11
-318.0891041692
21
-215.6536677749
31
0.0000000000
11
-317.8731146937
21
-216.8186709217
31
0.0000000000
11
-317.8215517802
21
-217.3922016351
31
0.0000000000
0
SPLINE
5
33A
100
AcDbEntity
8
0
100
AcDbSpline
62
7
6
CONTINUOUS
70
0
71
3
72
8
73
4
74
2
42
0.0000001000
43
0.0000001000
44
0.0000000001
12
0.0004130068
22
-0.0098973603
32
0.0000000000
13
0.0004253494
23
-0.0098969440
33
0.0000000000
40
0.0000000000
40
0.0000000000
40
0.0000000000
40
0.0000000000
40
1.0000000000
40
1.0000000000
40
1.0000000000
40
1.0000000000
10
-330.4508049241
20
-225.5292094890
30
0.0000000000
10
-330.4506672551
20
-225.5325086091
30
0.0000000000
10
-330.4505275311
20
-225.5358076615
30
0.0000000000
10
-330.4503857480
20
-225.5391066428
30
0.0000000000
11
-330.4508049241
21
-225.5292094890
31
0.0000000000
11
-330.4503857480
21
-225.5391066428
31
0.0000000000
0
SPLINE
5
33B
100
AcDbEntity
8
0
100
AcDbSpline
62
7
6
CONTINUOUS
70
0
71
3
72
16
73
12
74
10
42
0.0000001000
43
0.0000001000
44
0.0000000001
12
0.3021564840
22
-7.0305168284
32
0.0000000000
13
6.8887017775
23
1.4659574256
33
0.0000000000
40
0.0000000000
40
0.0000000000
40
0.0000000000
40
0.0000000000
40
0.0924266602
40
0.2253295925
40
0.3485352372
40
0.4630488250
40
0.5709746291
40
0.6754432307
40
0.7802083745
40
0.8889677693
40
1.0000000000
40
1.0000000000
40
1.0000000000
40
1.0000000000
10
-330.4503857480
20
-225.5391066428
30
0.0000000000
10
-330.4410766431
20
-225.7557090395
30
0.0000000000
10
-330.3967413846
20
-226.2830231928
30
0.0000000000
10
-330.2361578236
20
-227.0870358346
30
0.0000000000
10
-329.9303618043
20
-227.9048727552
30
0.0000000000
10
-329.5070627194
20
-228.6021602267
30
0.0000000000
10
-328.9733070308
20
-229.1613191151
30
0.0000000000
10
-328.3405597190
20
-229.5657674638
30
0.0000000000
10
-327.6260728742
20
-229.8030096983
30
0.0000000000
10
-326.8615129168
20
-229.8670253690
30
0.0000000000
10
-326.3471767218
20
-229.8027680170
30
0.0000000000
10
-326.0922207469
20
-229.7485118426
30
0.0000000000
11
-330.4503857480
21
-225.5391066428
31
0.0000000000
11
-330.3946973509
21
-226.1870363695
31
0.0000000000
11
-330.2065615766
21
-227.1024971239
31
0.0000000000
11
-329.8976750586
21
-227.9119648363
31
0.0000000000
11
-329.4749378111
21
-228.5973573356
31
0.0000000000
11
-328.9477930858
21
-229.1433640860
31
0.0000000000
11
-328.3280164247
21
-229.5377881988
31
0.0000000000
11
-327.6294526143
21
-229.7718188912
31
0.0000000000
11
-326.8677064157
21
-229.8402283043
31
0.0000000000
11
-326.0922207469
21
-229.7485118426
31
0.0000000000
0
SPLINE
5
33C
100
AcDbEntity
8
0
100
AcDbSpline
62
7
6
CONTINUOUS
70
0
71
3
72
24
73
20
74
18
42
0.0000001000
43
0.0000001000
44
0.0000000001
12
0.0000000000
22
21.3011599912
32
0.0000000000
13
19.0931084590
23
-9.5460766922
33
0.0000000000
40
0.0000000000
40
0.0000000000
40
0.0000000000
40
0.0000000000
40
0.0626891385
40
0.1283090919
40
0.1962499924
40
0.2657978231
40
0.3361710916
40
0.4065549582
40
0.4761341601
40
0.5441259222
40
0.6098140370
40
0.6725854543
40
0.7319709327
40
0.7876912797
40
0.8397096001
40
0.8882859501
40
0.9340211093
40
0.9778606782
40
1.0000000000
40
1.0000000000
40
1.0000000000
40
1.0000000000
10
-333.3570175419
20
-225.8577838957
30
0.0000000000
10
-333.3570175419
20
-225.4126667725
30
0.0000000000
10
-333.3050529895
20
-224.5010745108
30
0.0000000000
10
-333.0867321453
20
-223.1228181604
30
0.0000000000
10
-332.7301686530
20
-221.7234105379
30
0.0000000000
10
-332.2419486067
20
-220.3287045009
30
0.0000000000
10
-331.6310556829
20
-218.9642280162
30
0.0000000000
10
-330.9087239717
20
-217.6550771837
30
0.0000000000
10
-330.0882254619
20
-216.4253127629
30
0.0000000000
10
-329.1846050241
20
-215.2975254252
30
0.0000000000
10
-328.2143658255
20
-214.2924014731
30
0.0000000000
10
-327.1951091715
20
-213.4283561394
30
0.0000000000
10
-326.1451369853
20
-212.7212498960
30
0.0000000000
10
-325.0830452737
20
-212.1842353324
30
0.0000000000
10
-324.0273921193
20
-211.8277842851
30
0.0000000000
10
-322.9966285905
20
-211.6598819268
30
0.0000000000
10
-322.0095400523
20
-211.6861066158
30
0.0000000000
10
-321.2323012041
20
-211.8735783604
30
0.0000000000
10
-320.8004376371
20
-212.0596324442
30
0.0000000000
10
-320.6595348132
20
-212.1300803321
30
0.0000000000
11
-333.3570175419
21
-225.8577838957
31
0.0000000000
11
-333.2845712040
21
-224.5243991769
31
0.0000000000
11
-333.0685817285
21
-223.1434065545
31
0.0000000000
11
-332.7130725907
21
-221.7405313084
31
0.0000000000
11
-332.2246662531
21
-220.3419063499
31
0.0000000000
11
-331.6124608017
21
-218.9735854158
31
0.0000000000
11
-330.8878604658
21
-217.6610577360
31
0.0000000000
11
-330.0643631786
21
-216.4287732179
31
0.0000000000
11
-329.1573091365
21
-215.2996869904
31
0.0000000000
11
-328.1835950399
21
-214.2948317937
31
0.0000000000
11
-327.1613593404
21
-213.4329261789
31
0.0000000000
11
-326.1096443546
21
-212.7300258166
31
0.0000000000
11
-325.0480415430
21
-212.1992244108
31
0.0000000000
11
-323.9963265573
21
-211.8504097873
31
0.0000000000
11
-322.9740908577
21
-211.6900797026
31
0.0000000000
11
-322.0003767612
21
-211.7212208028
31
0.0000000000
11
-321.0933227190
21
-211.9432529881
31
0.0000000000
11
-320.6595348132
21
-212.1300803321
31
0.0000000000
0
SPLINE
5
33D
100
AcDbEntity
8
0
100
AcDbSpline
62
7
6
CONTINUOUS
70
0
71
3
72
28
73
24
74
22
42
0.0000001000
43
0.0000001000
44
0.0000000001
12
0.0000000000
22
22.5317686710
32
0.0000000000
13
4.8437492835
23
-22.0219960840
33
0.0000000000
40
0.0000000000
40
0.0000000000
40
0.0000000000
40
0.0000000000
40
0.0535681012
40
0.1097286954
40
0.1679053629
40
0.2274234581
40
0.2875471548
40
0.3475139836
40
0.4065683209
40
0.4639951447
40
0.5191554092
40
0.5715246027
40
0.6207362594
40
0.6666318348
40
0.7093159414
40
0.7492085554
40
0.7870706955
40
0.8239635998
40
0.8611109382
40
0.8996924175
40
0.9406571000
40
0.9846262997
40
1.0000000000
40
1.0000000000
40
1.0000000000
40
1.0000000000
10
-331.1649865202
20
-225.8931392348
30
0.0000000000
10
-331.1649865202
20
-225.4908112137
30
0.0000000000
10
-331.1158045679
20
-224.6661529896
30
0.0000000000
10
-330.9098589444
20
-223.4200456558
30
0.0000000000
10
-330.5740205197
20
-222.1562277709
30
0.0000000000
10
-330.1150576478
20
-220.9001847804
30
0.0000000000
10
-329.5421872775
20
-219.6770133263
30
0.0000000000
10
-328.8669067744
20
-218.5112715002
30
0.0000000000
10
-328.1027522085
20
-217.4263410923
30
0.0000000000
10
-327.2649972377
20
-216.4439646257
30
0.0000000000
10
-326.3702955612
20
-215.5837944554
30
0.0000000000
10
-325.4362722883
20
-214.8630281735
30
0.0000000000
10
-324.4810802152
20
-214.2961598495
30
0.0000000000
10
-323.5229780868
20
-213.8949130977
30
0.0000000000
10
-322.5800904640
20
-213.6684010294
30
0.0000000000
10
-321.6706508128
20
-213.6233697086
30
0.0000000000
10
-320.8138873125
20
-213.7638496584
30
0.0000000000
10
-320.0305394581
20
-214.0892599882
30
0.0000000000
10
-319.3408833874
20
-214.5920354312
30
0.0000000000
10
-318.7610840648
20
-215.2581827165
30
0.0000000000
10
-318.3019372622
20
-216.0705653996
30
0.0000000000
10
-318.0503984945
20
-216.7842494758
30
0.0000000000
10
-317.9441625170
20
-217.2175669131
30
0.0000000000
10
-317.9193404005
20
-217.3304201023
30
0.0000000000
11
-331.1649865202
21
-225.8931392348
31
0.0000000000
11
-331.0966119092
21
-224.6880934092
31
0.0000000000
11
-330.8928799863
21
-223.4392042305
31
0.0000000000
11
-330.5579381458
21
-222.1718954810
31
0.0000000000
11
-330.0986048377
21
-220.9119659123
31
0.0000000000
11
-329.5242307635
21
-219.6850640568
31
0.0000000000
11
-328.8465085231
21
-218.5161660985
31
0.0000000000
11
-328.0792345869
21
-217.4290674288
31
0.0000000000
11
-327.2380284396
21
-216.4458982418
31
0.0000000000
11
-326.3400146125
21
-215.5866730268
31
0.0000000000
11
-325.4034740774
21
-214.8688831315
31
0.0000000000
11
-324.4474720989
21
-214.3071406882
31
0.0000000000
11
-323.4914701205
21
-213.9128811531
31
0.0000000000
11
-322.5549295854
21
-213.6941305133
31
0.0000000000
11
-321.6569157583
21
-213.6553419011
31
0.0000000000
11
-320.8157096109
21
-213.7973049408
31
0.0000000000
11
-320.0484356747
21
-214.1171296743
31
0.0000000000
11
-319.3707134343
21
-214.6083053923
31
0.0000000000
11
-318.7963393602
21
-215.2608331735
31
0.0000000000
11
-318.3370060521
21
-216.0614294342
31
0.0000000000
11
-318.0020642116
21
-216.9937963431
31
0.0000000000
11
-317.9193404005
21
-217.3304201023
31
0.0000000000
0
SPLINE
5
33E
100
AcDbEntity
8
0
100
AcDbSpline
62
7
6
CONTINUOUS
70
0
71
3
72
8
73
4
74
2
42
0.0000001000
43
0.0000001000
44
0.0000000001
12
0.0170437112
22
-0.0774888460
32
0.0000000000
13
0.0162007508
23
-0.0776706790
33
0.0000000000
40
0.0000000000
40
0.0000000000
40
0.0000000000
40
0.0000000000
40
1.0000000000
40
1.0000000000
40
1.0000000000
40
1.0000000000
10
-317.9193404005
20
-217.3304201023
30
0.0000000000
10
-317.9136591634
20
-217.3562497177
30
0.0000000000
10
-317.9081193643
20
-217.3821105323
30
0.0000000000
10
-317.9027191141
20
-217.4080007586
30
0.0000000000
11
-317.9193404005
21
-217.3304201023
31
0.0000000000
11
-317.9027191141
21
-217.4080007586
31
0.0000000000
0
SPLINE
5
33F
100
AcDbEntity
8
0
100
AcDbSpline
62
7
6
CONTINUOUS
70
0
71
3
72
9
73
5
74
3
42
0.0000001000
43
0.0000001000
44
0.0000000001
12
0.2416786224
22
-1.1586711608
32
0.0000000000
13
0.0732293203
23
-1.1813342236
33
0.0000000000
40
0.0000000000
40
0.0000000000
40
0.0000000000
40
0.0000000000
40
0.5404077947
40
1.0000000000
40
1.0000000000
40
1.0000000000
40
1.0000000000
10
-317.9027191141
20
-217.4080007586
30
0.0000000000
10
-317.8591841103
20
-217.6167190675
30
0.0000000000
10
-317.7954069632
20
-218.0064798974
30
0.0000000000
10
-317.7592955365
20
-218.3995791340
30
0.0000000000
10
-317.7480769949
20
-218.5805564677
30
0.0000000000
11
-317.9027191141
21
-217.4080007586
31
0.0000000000
11
-317.7983322886
21
-218.0389535988
31
0.0000000000
11
-317.7480769949
21
-218.5805564677
31
0.0000000000
0
SPLINE
5
340
100
AcDbEntity
8
0
100
AcDbSpline
62
7
6
CONTINUOUS
70
0
71
3
72
8
73
4
74
2
42
0.0000001000
43
0.0000001000
44
0.0000000001
12
0.2123008957
22
-0.1246822634
32
0.0000000000
13
0.2022543637
23
-0.1404245382
33
0.0000000000
40
0.0000000000
40
0.0000000000
40
0.0000000000
40
0.0000000000
40
1.0000000000
40
1.0000000000
40
1.0000000000
40
1.0000000000
10
-320.8115707173
20
-214.8571687316
30
0.0000000000
10
-320.7408037521
20
-214.8987294861
30
0.0000000000
10
-320.6716204901
20
-214.9430006275
30
0.0000000000
10
-320.6042023689
20
-214.9898088069
30
0.0000000000
11
-320.8115707173
21
-214.8571687316
31
0.0000000000
11
-320.6042023689
21
-214.9898088069
31
0.0000000000
0
SPLINE
5
341
100
AcDbEntity
8
0
100
AcDbSpline
62
7
6
CONTINUOUS
70
0
71
3
72
13
73
9
74
7
42
0.0000001000
43
0.0000001000
44
0.0000000001
12
3.8516506686
22
-2.6741883654
32
0.0000000000
13
0.1191447595
23
-4.6779200416
33
0.0000000000
40
0.0000000000
40
0.0000000000
40
0.0000000000
40
0.0000000000
40
0.0559082864
40
0.2283191433
40
0.4112539472
40
0.6080742625
40
0.8203859394
40
1.0000000000
40
1.0000000000
40
1.0000000000
40
1.0000000000
10
-320.6042023689
20
-214.9898088069
30
0.0000000000
10
-320.5324226393
20
-215.0396452366
30
0.0000000000
10
-320.2474588335
20
-215.2549127770
30
0.0000000000
10
-319.8008609328
20
-215.7227657499
30
0.0000000000
10
-319.3511056551
20
-216.4636336884
30
0.0000000000
10
-319.0261973845
20
-217.3325854165
30
0.0000000000
10
-318.8457826425
20
-218.2358891701
30
0.0000000000
10
-318.8006038290
20
-218.8466820126
30
0.0000000000
10
-318.7934704710
20
-219.1267554173
30
0.0000000000
11
-320.6042023689
21
-214.9898088069
31
0.0000000000
11
-320.3950849185
21
-215.1477366494
31
0.0000000000
11
-319.8349936478
21
-215.7278688217
31
0.0000000000
11
-319.3858353224
21
-216.4560983522
31
0.0000000000
11
-319.0576433970
21
-217.3161577966
31
0.0000000000
11
-318.8577491368
21
-218.2888348482
31
0.0000000000
11
-318.7934704710
21
-219.1267554173
31
0.0000000000
0
SPLINE
5
342
100
AcDbEntity
8
0
100
AcDbSpline
62
7
6
CONTINUOUS
70
0
71
3
72
13
73
9
74
7
42
0.0000001000
43
0.0000001000
44
0.0000000001
12
4.8067091774
22
-2.4044626107
32
0.0000000000
13
0.0000000000
23
-5.3621237719
33
0.0000000000
40
0.0000000000
40
0.0000000000
40
0.0000000000
40
0.0000000000
40
0.1344422122
40
0.2848274496
40
0.4443921917
40
0.6160685604
40
0.8012572573
40
1.0000000000
40
1.0000000000
40
1.0000000000
40
1.0000000000
10
-320.6463163901
20
-214.9316801299
30
0.0000000000
10
-320.4309081850
20
-215.0394338874
30
0.0000000000
10
-320.0005715545
20
-215.3199467673
30
0.0000000000
10
-319.4473075422
20
-215.8995424452
30
0.0000000000
10
-318.9975522645
20
-216.6404103837
30
0.0000000000
10
-318.6726439939
20
-217.5093621118
30
0.0000000000
10
-318.4774476142
20
-218.4866748327
30
0.0000000000
10
-318.4370644588
20
-219.1739504757
30
0.0000000000
10
-318.4370644588
20
-219.5291782041
30
0.0000000000
11
-320.6463163901
21
-214.9316801299
31
0.0000000000
11
-320.0415315279
21
-215.3245133447
31
0.0000000000
11
-319.4814402572
21
-215.9046455170
31
0.0000000000
11
-319.0322819318
21
-216.6328750475
31
0.0000000000
11
-318.7040900064
21
-217.4929344919
31
0.0000000000
11
-318.5041957462
21
-218.4656115435
31
0.0000000000
11
-318.4370644588
21
-219.5291782041
31
0.0000000000
0
SPLINE
5
343
100
AcDbEntity
8
0
100
AcDbSpline
62
7
6
CONTINUOUS
70
0
71
3
72
18
73
14
74
12
42
0.0000001000
43
0.0000001000
44
0.0000000001
12
0.0000000000
22
-10.0499444532
32
0.0000000000
13
9.2017758367
23
4.0651372609
33
0.0000000000
40
0.0000000000
40
0.0000000000
40
0.0000000000
40
0.0000000000
40
0.1133066799
40
0.2192603806
40
0.3178384215
40
0.4096803967
40
0.4961792796
40
0.5794628477
40
0.6621759801
40
0.7470621192
40
0.8365005389
40
0.9321974276
40
1.0000000000
40
1.0000000000
40
1.0000000000
40
1.0000000000
10
-331.1649865202
20
-225.8931392348
30
0.0000000000
10
-331.1649865202
20
-226.2727145147
30
0.0000000000
10
-331.1236442728
20
-227.0082390385
30
0.0000000000
10
-330.9245036511
20
-228.0576520709
30
0.0000000000
10
-330.5930069357
20
-228.9981986487
30
0.0000000000
10
-330.1338601331
20
-229.8105813319
30
0.0000000000
10
-329.5540608105
20
-230.4767286171
30
0.0000000000
10
-328.8644047398
20
-230.9795040602
30
0.0000000000
10
-328.0810568854
20
-231.3049143899
30
0.0000000000
10
-327.2242933850
20
-231.4453943397
30
0.0000000000
10
-326.3148537339
20
-231.4003630189
30
0.0000000000
10
-325.4868492238
20
-231.2014495858
30
0.0000000000
10
-324.9747976900
20
-231.0038944236
30
0.0000000000
10
-324.7668296660
20
-230.9120188358
30
0.0000000000
11
-331.1649865202
21
-225.8931392348
31
0.0000000000
11
-331.0966119092
21
-227.0298104495
31
0.0000000000
11
-330.8928799863
21
-228.0749677052
31
0.0000000000
11
-330.5579381458
21
-229.0073346141
31
0.0000000000
11
-330.0986048377
21
-229.8079308748
31
0.0000000000
11
-329.5242307635
21
-230.4604586561
31
0.0000000000
11
-328.8465085231
21
-230.9516343740
31
0.0000000000
11
-328.0792345869
21
-231.2714591075
31
0.0000000000
11
-327.2380284396
21
-231.4134221472
31
0.0000000000
11
-326.3400146125
21
-231.3746335350
31
0.0000000000
11
-325.4034740774
21
-231.1558828952
31
0.0000000000
11
-324.7668296660
21
-230.9120188358
31
0.0000000000
0
SPLINE
5
344
100
AcDbEntity
8
0
100
AcDbSpline
62
7
6
CONTINUOUS
70
0
71
3
72
9
73
5
74
3
42
0.0000001000
43
0.0000001000
44
0.0000000001
12
1.2303725036
22
0.5435508534
32
0.0000000000
13
1.1234721267
23
0.7390099902
33
0.0000000000
40
0.0000000000
40
0.0000000000
40
0.0000000000
40
0.0000000000
40
0.2624656053
40
1.0000000000
40
1.0000000000
40
1.0000000000
40
1.0000000000
10
-324.7668296660
20
-230.9120188358
30
0.0000000000
10
-324.6591861780
20
-230.8644643679
30
0.0000000000
10
-324.2535304491
20
-230.6731242496
30
0.0000000000
10
-323.8656901649
20
-230.4469362465
30
0.0000000000
10
-323.5894903866
20
-230.2652544846
30
0.0000000000
11
-324.7668296660
21
-230.9120188358
31
0.0000000000
11
-324.4474720989
21
-230.7616233601
31
0.0000000000
11
-323.5894903866
21
-230.2652544846
31
0.0000000000
0
SPLINE
5
345
100
AcDbEntity
8
0
100
AcDbSpline
62
7
6
CONTINUOUS
70
0
71
3
72
9
73
5
74
3
42
0.0000001000
43
0.0000001000
44
0.0000000001
12
0.3037795857
22
0.2291843229
32
0.0000000000
13
0.3247456120
23
0.1984428140
33
0.0000000000
40
0.0000000000
40
0.0000000000
40
0.0000000000
40
0.0000000000
40
0.4956255797
40
1.0000000000
40
1.0000000000
40
1.0000000000
40
1.0000000000
10
-324.7624274539
20
-225.1545261658
30
0.0000000000
10
-324.7122404762
20
-225.1166629615
30
0.0000000000
10
-324.6089099650
20
-225.0429812735
30
0.0000000000
10
-324.5021298429
20
-224.9744293823
30
0.0000000000
10
-324.4475320496
20
-224.9410662225
30
0.0000000000
11
-324.7624274539
21
-225.1545261658
31
0.0000000000
11
-324.6089666085
21
-225.0448860103
31
0.0000000000
11
-324.4475320496
21
-224.9410662225
31
0.0000000000
0
SPLINE
5
346
100
AcDbEntity
8
0
100
AcDbSpline
62
7
6
CONTINUOUS
70
0
71
3
72
17
73
13
74
11
42
0.0000001000
43
0.0000001000
44
0.0000000001
12
5.8623396320
22
4.2124240215
32
0.0000000000
13
3.0369054219
23
-6.5538791576
33
0.0000000000
40
0.0000000000
40
0.0000000000
40
0.0000000000
40
0.0000000000
40
0.0945212920
40
0.2255575623
40
0.3470786215
40
0.4599073776
40
0.5659280602
40
0.6680550727
40
0.7698930103
40
0.8751010932
40
0.9867310704
40
1.0000000000
40
1.0000000000
40
1.0000000000
40
1.0000000000
10
-325.7944383849
20
-216.0337549299
30
0.0000000000
10
-325.6097330796
20
-215.9010336763
30
0.0000000000
10
-325.1558313565
20
-215.6026418817
30
0.0000000000
10
-324.4087572684
20
-215.2240646987
30
0.0000000000
10
-323.5685982922
20
-214.9530000478
30
0.0000000000
10
-322.7516360300
20
-214.8472560695
30
0.0000000000
10
-321.9759781049
20
-214.9122009594
30
0.0000000000
10
-321.2614912600
20
-215.1494431939
30
0.0000000000
10
-320.6287439483
20
-215.5538915426
30
0.0000000000
10
-320.0949882596
20
-216.1130504310
30
0.0000000000
10
-319.8059049611
20
-216.5892483948
30
0.0000000000
10
-319.6765878824
20
-216.8607950782
30
0.0000000000
10
-319.6631557210
20
-216.8897827320
30
0.0000000000
11
-325.7944383849
21
-216.0337549299
31
0.0000000000
11
-325.2237627370
21
-215.6601433837
31
0.0000000000
11
-324.3782882421
21
-215.2374061363
31
0.0000000000
11
-323.5422569987
21
-214.9737223730
31
0.0000000000
11
-322.7343445633
21
-214.8749823534
31
0.0000000000
11
-321.9725983648
21
-214.9433917665
31
0.0000000000
11
-321.2740345544
21
-215.1774224589
31
0.0000000000
11
-320.6542578933
21
-215.5718465718
31
0.0000000000
11
-320.1271131679
21
-216.1178533221
31
0.0000000000
11
-319.7043759205
21
-216.8032458214
31
0.0000000000
11
-319.6631557210
21
-216.8897827320
31
0.0000000000
0
SPLINE
5
347
100
AcDbEntity
8
0
100
AcDbSpline
62
7
6
CONTINUOUS
70
0
71
3
72
20
73
16
74
14
42
0.0000001000
43
0.0000001000
44
0.0000000001
12
-6.6502428143
22
-0.6912327740
32
0.0000000000
13
4.9251246166
23
4.5218004985
33
0.0000000000
40
0.0000000000
40
0.0000000000
40
0.0000000000
40
0.0000000000
40
0.0605784697
40
0.1180586992
40
0.1757672670
40
0.2369623545
40
0.3039483185
40
0.3777636601
40
0.4583188143
40
0.5446693091
40
0.6352741831
40
0.7282130790
40
0.8213742251
40
0.9126279961
40
1.0000000000
40
1.0000000000
40
1.0000000000
40
1.0000000000
10
-324.4474720989
20
-225.9195244660
30
0.0000000000
10
-324.5817592766
20
-225.9334824073
30
0.0000000000
10
-324.8488798422
20
-225.9282252189
30
0.0000000000
10
-325.2263457139
20
-225.8016382781
30
0.0000000000
10
-325.5455633059
20
-225.5611651324
30
0.0000000000
10
-325.7915258680
20
-225.2212917471
30
0.0000000000
10
-325.9579224956
20
-224.7988460714
30
0.0000000000
10
-326.0418895741
20
-224.3098408176
30
0.0000000000
10
-326.0421211098
20
-223.7711788870
30
0.0000000000
10
-325.9592566311
20
-223.2014966810
30
0.0000000000
10
-325.7964517488
20
-222.6208413329
30
0.0000000000
10
-325.5595970824
20
-222.0499150026
30
0.0000000000
10
-325.2571702642
20
-221.5091585830
30
0.0000000000
10
-324.9001399268
20
-221.0181076860
30
0.0000000000
10
-324.6262667737
20
-220.7272152781
30
0.0000000000
10
-324.4828274380
20
-220.5955223545
30
0.0000000000
11
-324.4474720989
21
-225.9195244660
31
0.0000000000
11
-324.8523129143
21
-225.9070847678
31
0.0000000000
11
-325.2161678087
21
-225.7833550290
31
0.0000000000
11
-325.5256239653
21
-225.5528943755
31
0.0000000000
11
-325.7692733772
21
-225.2241962115
31
0.0000000000
11
-325.9381334075
21
-224.8093753151
31
0.0000000000
11
-326.0259779844
21
-224.3237214523
31
0.0000000000
11
-326.0295672257
21
-223.7851360112
31
0.0000000000
11
-325.9487671141
21
-223.2134725479
31
0.0000000000
11
-325.7865543884
21
-222.6298038065
31
0.0000000000
11
-325.5489070623
21
-222.0556464298
31
0.0000000000
11
-325.2445842708
21
-221.5121673074
31
0.0000000000
11
-324.8848040950
21
-221.0194039296
31
0.0000000000
11
-324.4828274380
21
-220.5955223545
31
0.0000000000
0
SPLINE
5
348
100
AcDbEntity
8
0
100
AcDbSpline
62
7
6
CONTINUOUS
70
0
71
3
72
16
73
12
74
10
42
0.0000001000
43
0.0000001000
44
0.0000000001
12
0.0000000000
22
-6.5994417060
32
0.0000000000
13
6.4649702725
23
1.3765727573
33
0.0000000000
40
0.0000000000
40
0.0000000000
40
0.0000000000
40
0.0000000000
40
0.1423751203
40
0.2745217613
40
0.3965484801
40
0.5097112710
40
0.6165414700
40
0.7206928574
40
0.8263602658
40
0.9374270193
40
1.0000000000
40
1.0000000000
40
1.0000000000
40
1.0000000000
10
-328.7961788032
20
-225.4158421575
30
0.0000000000
10
-328.7961788032
20
-225.7290409263
30
0.0000000000
10
-328.7589467564
20
-226.3339684271
30
0.0000000000
10
-328.5782833668
20
-227.1909638386
30
0.0000000000
10
-328.2775665805
20
-227.9460197438
30
0.0000000000
10
-327.8615398551
20
-228.5800190447
30
0.0000000000
10
-327.3378847911
20
-229.0745880896
30
0.0000000000
10
-326.7198478413
20
-229.4126823927
30
0.0000000000
10
-326.0270745030
20
-229.5829839302
30
0.0000000000
10
-325.4073963845
20
-229.5829263421
30
0.0000000000
10
-325.0292202504
20
-229.5222870565
30
0.0000000000
10
-324.8943760970
20
-229.4935749696
30
0.0000000000
11
-328.7961788032
21
-225.4158421575
31
0.0000000000
11
-328.7339333496
21
-226.3533744090
31
0.0000000000
11
-328.5487296783
21
-227.2055760514
31
0.0000000000
11
-328.2451281184
21
-227.9514630519
31
0.0000000000
11
-327.8306043479
21
-228.5726691971
31
0.0000000000
11
-327.3153653177
21
-229.0538983300
31
0.0000000000
11
-326.7120979229
21
-229.3833009922
31
0.0000000000
11
-326.0356566086
21
-229.5527661971
31
0.0000000000
11
-325.3026976051
21
-229.5581211488
31
0.0000000000
11
-324.8943760970
21
-229.4935749696
31
0.0000000000
0
SPLINE
5
349
100
AcDbEntity
8
0
100
AcDbSpline
62
7
6
CONTINUOUS
70
0
71
3
72
12
73
8
74
6
42
0.0000001000
43
0.0000001000
44
0.0000000001
12
0.2743156880
22
1.4752127108
32
0.0000000000
13
0.8704151595
23
1.2219658449
33
0.0000000000
40
0.0000000000
40
0.0000000000
40
0.0000000000
40
0.0000000000
40
0.1184172553
40
0.3169538991
40
0.5300598996
40
0.7573087454
40
1.0000000000
40
1.0000000000
40
1.0000000000
40
1.0000000000
10
-323.5524934124
20
-221.2350776086
30
0.0000000000
10
-323.5416655088
20
-221.1768473953
30
0.0000000000
10
-323.5096458117
20
-221.0215531549
30
0.0000000000
10
-323.4417952340
20
-220.7650673396
30
0.0000000000
10
-323.3356072075
20
-220.4632837859
30
0.0000000000
10
-323.1916725079
20
-220.1528724910
30
0.0000000000
10
-323.0683172465
20
-219.9519137089
30
0.0000000000
10
-322.9979031975
20
-219.8530602343
30
0.0000000000
11
-323.5524934124
21
-221.2350776086
31
0.0000000000
11
-323.5165459806
21
-221.0610772123
31
0.0000000000
11
-323.4400022418
21
-220.7732208302
31
0.0000000000
11
-323.3333666583
21
-220.4718106306
31
0.0000000000
11
-323.1892379234
21
-220.1628381424
31
0.0000000000
11
-322.9979031975
21
-219.8530602343
31
0.0000000000
0
SPLINE
5
34A
100
AcDbEntity
8
0
100
AcDbSpline
62
7
6
CONTINUOUS
70
0
71
3
72
14
73
10
74
8
42
0.0000001000
43
0.0000001000
44
0.0000000001
12
2.7992191271
22
0.2292312730
32
0.0000000000
13
-0.0255094818
23
-2.8112385081
33
0.0000000000
40
0.0000000000
40
0.0000000000
40
0.0000000000
40
0.0000000000
40
0.1432974779
40
0.2798384121
40
0.4176200293
40
0.5642699140
40
0.7250265977
40
0.9021131543
40
1.0000000000
40
1.0000000000
40
1.0000000000
40
1.0000000000
10
-322.9979031975
20
-219.8530602343
30
0.0000000000
10
-322.8641961838
20
-219.8421108132
30
0.0000000000
10
-322.5983176744
20
-219.8537311865
30
0.0000000000
10
-322.2250733950
20
-219.9901998649
30
0.0000000000
10
-321.9116047271
20
-220.2396250267
30
0.0000000000
10
-321.6721729225
20
-220.5870071749
30
0.0000000000
10
-321.5126028709
20
-221.0155915995
30
0.0000000000
10
-321.4494093304
20
-221.4208880586
30
0.0000000000
10
-321.4415546007
20
-221.6786288552
30
0.0000000000
10
-321.4423869482
20
-221.7703566120
30
0.0000000000
11
-322.9979031975
21
-219.8530602343
31
0.0000000000
11
-322.5960347663
21
-219.8749431514
31
0.0000000000
11
-322.2363161100
21
-220.0078532527
31
0.0000000000
11
-321.9320112867
21
-220.2469053405
31
0.0000000000
11
-321.6943442271
21
-220.5832963957
31
0.0000000000
11
-321.5320808400
21
-221.0046304854
31
0.0000000000
11
-321.4512052982
21
-221.4953743418
31
0.0000000000
11
-321.4423869482
21
-221.7703566120
31
0.0000000000
0
SPLINE
5
34B
100
AcDbEntity
8
0
100
AcDbSpline
62
7
6
CONTINUOUS
70
0
71
3
72
25
73
21
74
19
42
0.0000001000
43
0.0000001000
44
0.0000000001
12
0.0000000000
22
15.9322687331
32
0.0000000000
13
6.7075120115
23
-14.4757503394
33
0.0000000000
40
0.0000000000
40
0.0000000000
40
0.0000000000
40
0.0000000000
40
0.0628732497
40
0.1290162133
40
0.1975890015
40
0.2676105023
40
0.3380206399
40
0.4077387550
40
0.4757210114
40
0.5410195571
40
0.6028464696
40
0.6606460291
40
0.7141785030
40
0.7636141142
40
0.8096200269
40
0.8533894306
40
0.8965308702
40
0.9407819234
40
0.9876560538
40
1.0000000000
40
1.0000000000
40
1.0000000000
40
1.0000000000
10
-328.7961788032
20
-225.4158421575
30
0.0000000000
10
-328.7961788032
20
-225.0819376541
30
0.0000000000
10
-328.7511232275
20
-224.3962544867
30
0.0000000000
10
-328.5639036463
20
-223.3618130756
30
0.0000000000
10
-328.2597324543
20
-222.3159551782
30
0.0000000000
10
-327.8459968496
20
-221.2841207638
30
0.0000000000
10
-327.3327144638
20
-220.2911807150
30
0.0000000000
10
-326.7323019930
20
-219.3611788459
30
0.0000000000
10
-326.0592457511
20
-218.5165941417
30
0.0000000000
10
-325.3296913137
20
-217.7778046227
30
0.0000000000
10
-324.5609559227
20
-217.1626057693
30
0.0000000000
10
-323.7709815675
20
-216.6858932028
30
0.0000000000
10
-322.9778049415
20
-216.3595969994
30
0.0000000000
10
-322.1992938574
20
-216.1929561932
30
0.0000000000
10
-321.4536561325
20
-216.1928868993
30
0.0000000000
10
-320.7608827942
20
-216.3631884368
30
0.0000000000
10
-320.1428458444
20
-216.7012827399
30
0.0000000000
10
-319.6191907804
20
-217.1958517848
30
0.0000000000
10
-319.3153463219
20
-217.6588921678
30
0.0000000000
10
-319.1760127983
20
-217.9414389554
30
0.0000000000
10
-319.1484137425
20
-218.0010015832
30
0.0000000000
11
-328.7961788032
21
-225.4158421575
31
0.0000000000
11
-328.7339333496
21
-224.4160644523
31
0.0000000000
11
-328.5487296783
21
-223.3786591386
31
0.0000000000
11
-328.2451281184
21
-222.3291705782
31
0.0000000000
11
-327.8306043479
21
-221.2934406626
31
0.0000000000
11
-327.3153653177
21
-220.2969724995
31
0.0000000000
11
-326.7120979229
21
-219.3643024424
31
0.0000000000
11
-326.0356566086
21
-218.5183959233
31
0.0000000000
11
-325.3026976051
21
-217.7800819681
31
0.0000000000
11
-324.5312687957
21
-217.1675403168
31
0.0000000000
11
-323.7403653177
21
-216.6958537777
31
0.0000000000
11
-322.9494618398
21
-216.3766368388
31
0.0000000000
11
-322.1780330303
21
-216.2177496807
31
0.0000000000
11
-321.4450740269
21
-216.2231046324
31
0.0000000000
11
-320.7686327126
21
-216.3925698373
31
0.0000000000
11
-320.1653653177
21
-216.7219724995
31
0.0000000000
11
-319.6501262876
21
-217.2032016324
31
0.0000000000
11
-319.2356025171
21
-217.8244077776
31
0.0000000000
11
-319.1484137425
21
-218.0010015832
31
0.0000000000
0
SPLINE
5
34C
100
AcDbEntity
8
0
100
AcDbSpline
62
7
6
CONTINUOUS
70
0
71
3
72
14
73
10
74
8
42
0.0000001000
43
0.0000001000
44
0.0000000001
12
0.0000000000
22
-6.9406916493
32
0.0000000000
13
6.2212282568
23
-3.1104585294
33
0.0000000000
40
0.0000000000
40
0.0000000000
40
0.0000000000
40
0.0000000000
40
0.1819729080
40
0.3526844277
40
0.5120427810
40
0.6608717018
40
0.8010429584
40
0.9354842175
40
1.0000000000
40
1.0000000000
40
1.0000000000
40
1.0000000000
10
-333.3570175419
20
-225.8577838957
30
0.0000000000
10
-333.3570175419
20
-226.2787898435
30
0.0000000000
10
-333.3130095866
20
-227.0957574692
30
0.0000000000
10
-333.1016901442
20
-228.2648444840
30
0.0000000000
10
-332.7498814319
20
-229.3200701782
30
0.0000000000
10
-332.2623138904
20
-230.2417309634
30
0.0000000000
10
-331.6458614598
20
-231.0115216105
30
0.0000000000
10
-331.0333777194
20
-231.5118488317
30
0.0000000000
10
-330.6319402209
20
-231.7404216443
30
0.0000000000
10
-330.4981510845
20
-231.8073128664
30
0.0000000000
11
-333.3570175419
21
-225.8577838957
31
0.0000000000
11
-333.2845712040
21
-227.1187222767
31
0.0000000000
11
-333.0685817285
21
-228.2837254235
31
0.0000000000
11
-332.7130725907
21
-229.3310915318
31
0.0000000000
11
-332.2246662531
21
-230.2413101528
31
0.0000000000
11
-331.6124608017
21
-230.9974256356
31
0.0000000000
11
-330.8878604658
21
-231.5853529794
31
0.0000000000
11
-330.4981510845
21
-231.8073128664
31
0.0000000000
0
SPLINE
5
34D
100
AcDbEntity
8
0
100
AcDbSpline
62
7
6
CONTINUOUS
70
0
71
3
72
8
73
4
74
2
42
0.0000001000
43
0.0000001000
44
0.0000000001
12
0.1268081301
22
-0.0545729923
32
0.0000000000
13
0.1290501397
23
-0.0490725712
33
0.0000000000
40
0.0000000000
40
0.0000000000
40
0.0000000000
40
0.0000000000
40
1.0000000000
40
1.0000000000
40
1.0000000000
40
1.0000000000
10
-328.4376860396
20
-230.0367586210
30
0.0000000000
10
-328.3954166629
20
-230.0549496185
30
0.0000000000
10
-328.3527515800
20
-230.0722251896
30
0.0000000000
10
-328.3097348667
20
-230.0885827133
30
0.0000000000
11
-328.4376860396
21
-230.0367586210
31
0.0000000000
11
-328.3097348667
21
-230.0885827133
31
0.0000000000
0
SPLINE
5
34E
100
AcDbEntity
8
0
100
AcDbSpline
62
7
6
CONTINUOUS
70
0
71
3
72
12
73
8
74
6
42
0.0000001000
43
0.0000001000
44
0.0000000001
12
3.4130153210
22
-1.2978322829
32
0.0000000000
13
3.2568476126
23
1.6386594159
33
0.0000000000
40
0.0000000000
40
0.0000000000
40
0.0000000000
40
0.0000000000
40
0.1437666728
40
0.3668492835
40
0.6042570499
40
0.8599546595
40
1.0000000000
40
1.0000000000
40
1.0000000000
40
1.0000000000
10
-328.3097348667
20
-230.0885827133
30
0.0000000000
10
-328.1461755811
20
-230.1507777231
30
0.0000000000
10
-327.7158499589
20
-230.2756141561
30
0.0000000000
10
-326.9785017903
20
-230.3373514170
30
0.0000000000
10
-326.1104793867
20
-230.2249984400
30
0.0000000000
10
-325.3753388238
20
-229.9878163998
30
0.0000000000
10
-324.9377106703
20
-229.7876480772
30
0.0000000000
10
-324.7856752260
20
-229.7111525386
30
0.0000000000
11
-328.3097348667
21
-230.0885827133
31
0.0000000000
11
-327.8062293096
21
-230.2352072389
31
0.0000000000
11
-326.9968739736
21
-230.3078922403
31
0.0000000000
11
-326.1384670111
21
-230.2029809695
31
0.0000000000
11
-325.2501838150
21
-229.9228169710
31
0.0000000000
11
-324.7856752260
21
-229.7111525386
31
0.0000000000
0
SPLINE
5
34F
100
AcDbEntity
8
0
100
AcDbSpline
62
7
6
CONTINUOUS
70
0
71
3
72
9
73
5
74
3
42
0.0000001000
43
0.0000001000
44
0.0000000001
12
1.0622695674
22
0.5344732809
32
0.0000000000
13
0.9679515515
23
0.6903797686
33
0.0000000000
40
0.0000000000
40
0.0000000000
40
0.0000000000
40
0.0000000000
40
0.4159662902
40
1.0000000000
40
1.0000000000
40
1.0000000000
40
1.0000000000
10
-324.7856752260
20
-229.7111525386
30
0.0000000000
10
-324.6383857823
20
-229.6370449160
30
0.0000000000
10
-324.2906862287
20
-229.4461164022
30
0.0000000000
10
-323.9588452030
20
-229.2289110983
30
0.0000000000
10
-323.7704064245
20
-229.0945094125
30
0.0000000000
11
-324.7856752260
21
-229.7111525386
31
0.0000000000
11
-324.3518671641
21
-229.4736586456
31
0.0000000000
11
-323.7704064245
21
-229.0945094125
31
0.0000000000
0
SPLINE
5
350
100
AcDbEntity
8
0
100
AcDbSpline
62
7
6
CONTINUOUS
70
0
71
3
72
16
73
12
74
10
42
0.0000001000
43
0.0000001000
44
0.0000000001
12
6.7517219836
22
-3.3774173698
32
0.0000000000
13
4.9679540297
23
5.6656942231
33
0.0000000000
40
0.0000000000
40
0.0000000000
40
0.0000000000
40
0.0000000000
40
0.0079206565
40
0.1118480467
40
0.2197377480
40
0.3345555410
40
0.4582188720
40
0.5915651559
40
0.7344911420
40
0.8861396666
40
1.0000000000
40
1.0000000000
40
1.0000000000
40
1.0000000000
10
-328.2486278078
20
-230.1370839185
30
0.0000000000
10
-328.2308017843
20
-230.1460010394
30
0.0000000000
10
-327.9778915674
20
-230.2695362387
30
0.0000000000
10
-327.4490849451
20
-230.4451241667
30
0.0000000000
10
-326.6249483997
20
-230.5141281123
30
0.0000000000
10
-325.7569259961
20
-230.4017751353
30
0.0000000000
10
-324.8642570839
20
-230.1137689437
30
0.0000000000
10
-323.9654522087
20
-229.6583027147
30
0.0000000000
10
-323.0791001734
20
-229.0461209521
30
0.0000000000
10
-322.3088714510
20
-228.3659118029
30
0.0000000000
10
-321.8511293252
20
-227.8803305702
30
0.0000000000
10
-321.6625783578
20
-227.6652979591
30
0.0000000000
11
-328.2486278078
21
-230.1370839185
31
0.0000000000
11
-328.1948999675
21
-230.1633263235
31
0.0000000000
11
-327.4526759190
21
-230.4119839342
31
0.0000000000
11
-326.6433205830
21
-230.4846689356
31
0.0000000000
11
-325.7849136205
21
-230.3797576648
31
0.0000000000
11
-324.8966304244
21
-230.0995936663
31
0.0000000000
11
-323.9983137735
21
-229.6504353409
31
0.0000000000
11
-323.1100305774
21
-229.0423161433
31
0.0000000000
11
-322.2516236148
21
-228.2888204515
31
0.0000000000
11
-321.6625783578
21
-227.6652979591
31
0.0000000000
0
SPLINE
5
351
100
AcDbEntity
8
0
100
AcDbSpline
62
7
6
CONTINUOUS
70
0
71
3
72
9
73
5
74
3
42
0.0000001000
43
0.0000001000
44
0.0000000001
12
0.2306712199
22
1.5101023957
32
0.0000000000
13
0.0000000000
23
1.5269229258
33
0.0000000000
40
0.0000000000
40
0.0000000000
40
0.0000000000
40
0.0000000000
40
0.2581884652
40
1.0000000000
40
1.0000000000
40
1.0000000000
40
1.0000000000
10
-318.5567415845
20
-221.0507902132
30
0.0000000000
10
-318.5368893684
20
-220.9208265399
30
0.0000000000
10
-318.4689116397
20
-220.4160674846
30
0.0000000000
10
-318.4370644588
20
-219.9067412172
30
0.0000000000
10
-318.4370644588
20
-219.5291782041
30
0.0000000000
11
-318.5567415845
21
-221.0507902132
31
0.0000000000
11
-318.5041957462
21
-220.6598761522
31
0.0000000000
11
-318.4370644588
21
-219.5291782041
31
0.0000000000
0
SPLINE
5
352
100
AcDbEntity
8
0
100
AcDbSpline
62
7
6
CONTINUOUS
70
0
71
3
72
10
73
6
74
4
42
0.0000001000
43
0.0000001000
44
0.0000000001
12
0.8588211978
22
-0.4294105989
32
0.0000000000
13
0.0000000000
23
-0.9645276564
33
0.0000000000
40
0.0000000000
40
0.0000000000
40
0.0000000000
40
0.0000000000
40
0.3950875622
40
0.7212632404
40
1.0000000000
40
1.0000000000
40
1.0000000000
40
1.0000000000
10
62.6934906007
20
93.5706669407
30
0.0000000000
10
62.8065937918
20
93.5141153451
30
0.0000000000
10
63.0046464112
20
93.3910769381
30
0.0000000000
10
63.2226750389
20
93.1476615226
30
0.0000000000
10
63.2792770383
20
92.9531765973
30
0.0000000000
10
63.2792770383
20
92.8635601595
30
0.0000000000
11
62.6934906007
21
93.5706669407
31
0.0000000000
11
63.0113278459
21
93.3635601595
31
0.0000000000
11
63.2111286909
21
93.1223792046
31
0.0000000000
11
63.2792770383
21
92.8635601595
31
0.0000000000
0
SPLINE
5
353
100
AcDbEntity
8
0
100
AcDbSpline
62
7
6
CONTINUOUS
70
0
71
3
72
10
73
6
74
4
42
0.0000001000
43
0.0000001000
44
0.0000000001
12
-1.7053097158
22
0.8559510310
32
0.0000000000
13
0.0000000000
23
1.8802544318
33
0.0000000000
40
0.0000000000
40
0.0000000000
40
0.0000000000
40
0.0000000000
40
0.1829870748
40
0.5561806693
40
1.0000000000
40
1.0000000000
40
1.0000000000
40
1.0000000000
10
15.7446776562
20
-124.3118408940
30
0.0000000000
10
15.6406611107
20
-124.2596315689
30
0.0000000000
10
15.3470961999
20
-124.0550714643
30
0.0000000000
10
15.0283291828
20
-123.4866024378
30
0.0000000000
10
14.9637828706
20
-122.9692475039
30
0.0000000000
10
14.9637828706
20
-122.6910830827
30
0.0000000000
11
15.7446776562
21
-124.3118408940
31
0.0000000000
11
15.4600775529
21
-124.1129469393
31
0.0000000000
11
15.0917141410
21
-123.5157118457
31
0.0000000000
11
14.9637828706
21
-122.6910830827
31
0.0000000000
0
SPLINE
5
354
100
AcDbEntity
8
0
100
AcDbSpline
62
7
6
CONTINUOUS
70
0
71
3
72
10
73
6
74
4
42
0.0000001000
43
0.0000001000
44
0.0000000001
12
-1.7053097158
22
0.8559510310
32
0.0000000000
13
0.0000000000
23
1.8802544318
33
0.0000000000
40
0.0000000000
40
0.0000000000
40
0.0000000000
40
0.0000000000
40
0.1829870748
40
0.5561806693
40
1.0000000000
40
1.0000000000
40
1.0000000000
40
1.0000000000
10
15.7446776562
20
43.6970874402
30
0.0000000000
10
15.6406611107
20
43.7492967653
30
0.0000000000
10
15.3470961999
20
43.9538568698
30
0.0000000000
10
15.0283291828
20
44.5223258964
30
0.0000000000
10
14.9637828706
20
45.0396808303
30
0.0000000000
10
14.9637828706
20
45.3178452514
30
0.0000000000
11
15.7446776562
21
43.6970874402
31
0.0000000000
11
15.4600775529
21
43.8959813949
31
0.0000000000
11
15.0917141410
21
44.4932164885
31
0.0000000000
11
14.9637828706
21
45.3178452514
31
0.0000000000
0
SPLINE
5
355
100
AcDbEntity
8
0
100
AcDbSpline
62
7
6
CONTINUOUS
70
0
71
3
72
9
73
5
74
3
42
0.0000001000
43
0.0000001000
44
0.0000000001
12
0.0000000000
22
-0.3100831148
32
0.0000000000
13
-0.2799904430
23
-0.1475251504
33
0.0000000000
40
0.0000000000
40
0.0000000000
40
0.0000000000
40
0.0000000000
40
0.6403297784
40
1.0000000000
40
1.0000000000
40
1.0000000000
40
1.0000000000
10
17.0851032142
20
-166.8780407801
30
0.0000000000
10
17.0851032142
20
-166.9442259309
30
0.0000000000
10
17.0691240216
20
-167.0539577933
30
0.0000000000
10
16.9875306612
20
-167.1298096765
30
0.0000000000
10
16.9539625864
20
-167.1474964777
30
0.0000000000
11
17.0851032142
21
-166.8780407801
31
0.0000000000
11
17.0377360414
21
-167.0708635447
31
0.0000000000
11
16.9539625864
21
-167.1474964777
31
0.0000000000
0
SPLINE
5
356
100
AcDbEntity
8
0
100
AcDbSpline
62
7
6
CONTINUOUS
70
0
71
3
72
10
73
6
74
4
42
0.0000001000
43
0.0000001000
44
0.0000000001
12
0.0000000000
22
0.7323450078
32
0.0000000000
13
-0.6550292881
23
0.3275146441
33
0.0000000000
40
0.0000000000
40
0.0000000000
40
0.0000000000
40
0.0000000000
40
0.3342904765
40
0.6865843886
40
1.0000000000
40
1.0000000000
40
1.0000000000
40
1.0000000000
10
17.0851032142
20
70.4129198568
30
0.0000000000
10
17.0851032142
20
70.4945251773
30
0.0000000000
10
17.0478749519
20
70.6624953337
30
0.0000000000
10
16.9253621955
20
70.8765380577
30
0.0000000000
10
16.7999819585
20
70.9884931865
30
0.0000000000
10
16.7315498236
20
71.0227092540
30
0.0000000000
11
17.0851032142
21
70.4129198568
31
0.0000000000
11
17.0377360414
21
70.6531097941
31
0.0000000000
11
16.9083265189
21
70.8763082044
31
0.0000000000
11
16.7315498236
21
71.0227092540
31
0.0000000000
0
SPLINE
5
357
100
AcDbEntity
8
0
100
AcDbSpline
62
7
6
CONTINUOUS
70
0
71
3
72
9
73
5
74
3
42
0.0000001000
43
0.0000001000
44
0.0000000001
12
0.8217753476
22
-0.4108876738
32
0.0000000000
13
0.8353564497
23
0.4076262625
33
0.0000000000
40
0.0000000000
40
0.0000000000
40
0.0000000000
40
0.0000000000
40
0.6080938427
40
1.0000000000
40
1.0000000000
40
1.0000000000
40
1.0000000000
10
16.7315498236
20
-168.4333148924
30
0.0000000000
10
16.8981219999
20
-168.5166009806
30
0.0000000000
10
17.2037409379
20
-168.6135415994
30
0.0000000000
10
17.5172941878
20
-168.5416497793
30
0.0000000000
10
17.6264212999
20
-168.4883993652
30
0.0000000000
11
16.7315498236
21
-168.4333148924
31
0.0000000000
11
17.2727459237
21
-168.5720684253
31
0.0000000000
11
17.6264212999
21
-168.4883993652
31
0.0000000000
0
SPLINE
5
358
100
AcDbEntity
8
0
100
AcDbSpline
62
7
6
CONTINUOUS
70
0
71
3
72
13
73
9
74
7
42
0.0000001000
43
0.0000001000
44
0.0000000001
12
1.2462677778
22
-1.5441425234
32
0.0000000000
13
-0.0000000000
23
-1.9827577722
33
0.0000000000
40
0.0000000000
40
0.0000000000
40
0.0000000000
40
0.0000000000
40
0.0451253480
40
0.2404380252
40
0.4381766489
40
0.6336091950
40
0.8221961150
40
1.0000000000
40
1.0000000000
40
1.0000000000
40
1.0000000000
10
62.0097982779
20
93.9813799653
30
0.0000000000
10
62.0285443670
20
93.9581533090
30
0.0000000000
10
62.1265330426
20
93.8328661234
30
0.0000000000
10
62.2868268785
20
93.5908163819
30
0.0000000000
10
62.4617088133
20
93.2423833772
30
0.0000000000
10
62.5922308242
20
92.8796826705
30
0.0000000000
10
62.6735037126
20
92.5163678106
30
0.0000000000
10
62.6934906007
20
92.2739673899
30
0.0000000000
10
62.6934906007
20
92.1564533783
30
0.0000000000
11
62.0097982779
21
93.9813799653
31
0.0000000000
11
62.0649719967
21
93.9108602937
31
0.0000000000
11
62.2792770383
21
93.5883050309
31
0.0000000000
11
62.4551526408
21
93.2378982290
31
0.0000000000
11
62.5858400032
21
92.8731058251
31
0.0000000000
11
62.6663168837
21
92.5079465866
31
0.0000000000
11
62.6934906007
21
92.1564533783
31
0.0000000000
0
SPLINE
5
359
100
AcDbEntity
8
0
100
AcDbSpline
62
7
6
CONTINUOUS
70
0
71
3
72
10
73
6
74
4
42
0.0000001000
43
0.0000001000
44
0.0000000001
12
-0.8566904928
22
-0.4283452464
32
0.0000000000
13
0.0001253665
23
-0.9749586701
33
0.0000000000
40
0.0000000000
40
0.0000000000
40
0.0000000000
40
0.0000000000
40
0.4646403637
40
0.8372385689
40
1.0000000000
40
1.0000000000
40
1.0000000000
40
1.0000000000
10
6.8320548870
20
78.6857083903
30
0.0000000000
10
6.6993705596
20
78.6193662266
30
0.0000000000
10
6.4712955809
20
78.4741449147
30
0.0000000000
10
6.2728744843
20
78.2054370760
30
0.0000000000
10
6.2481345879
20
78.0314545715
30
0.0000000000
10
6.2481413895
20
77.9785593487
30
0.0000000000
11
6.8320548870
21
78.6857083903
31
0.0000000000
11
6.4653017428
21
78.4336174304
31
0.0000000000
11
6.2707093629
21
78.1344591529
31
0.0000000000
11
6.2481413895
21
77.9785593487
31
0.0000000000
0
SPLINE
5
35A
100
AcDbEntity
8
0
100
AcDbSpline
62
7
6
CONTINUOUS
70
0
71
3
72
10
73
6
74
4
42
0.0000001000
43
0.0000001000
44
0.0000000001
12
-1.5341441562
22
0.0303142904
32
0.0000000000
13
-1.3710081170
23
-0.6855040585
33
0.0000000000
40
0.0000000000
40
0.0000000000
40
0.0000000000
40
0.0000000000
40
0.2545372229
40
0.6499982129
40
1.0000000000
40
1.0000000000
40
1.0000000000
40
1.0000000000
10
50.0440959804
20
99.8375035321
30
0.0000000000
10
49.9139303827
20
99.8400755705
30
0.0000000000
10
49.5812019961
20
99.8303093833
30
0.0000000000
10
49.0744656152
20
99.7511209479
30
0.0000000000
10
48.7113067407
20
99.6253343172
30
0.0000000000
10
48.5513549770
20
99.5453584353
30
0.0000000000
11
50.0440959804
21
99.8375035321
31
0.0000000000
11
49.6538534518
21
99.8260311974
31
0.0000000000
11
49.0555368968
21
99.7287350074
31
0.0000000000
11
48.5513549770
21
99.5453584353
31
0.0000000000
0
SPLINE
5
35B
100
AcDbEntity
8
0
100
AcDbSpline
62
7
6
CONTINUOUS
70
0
71
3
72
10
73
6
74
4
42
0.0000001000
43
0.0000001000
44
0.0000000001
12
-0.8566232708
22
0.4283116354
32
0.0000000000
13
-0.0001253567
23
0.9748821679
33
0.0000000000
40
0.0000000000
40
0.0000000000
40
0.0000000000
40
0.0000000000
40
0.4650782039
40
0.8368015441
40
1.0000000000
40
1.0000000000
40
1.0000000000
40
1.0000000000
10
6.8320548870
20
75.9724567223
30
0.0000000000
10
6.6992559496
20
76.0388561910
30
0.0000000000
10
6.4713064395
20
76.1840348270
30
0.0000000000
10
6.2729751185
20
76.4526575762
30
0.0000000000
10
6.2481482089
20
76.6264881548
30
0.0000000000
10
6.2481413895
20
76.6795212430
30
0.0000000000
11
6.8320548870
21
75.9724567223
31
0.0000000000
11
6.4650229006
21
76.2248206379
31
0.0000000000
11
6.2708610612
21
76.5232260072
31
0.0000000000
11
6.2481413895
21
76.6795212430
31
0.0000000000
0
SPLINE
5
35C
100
AcDbEntity
8
0
100
AcDbSpline
62
7
6
CONTINUOUS
70
0
71
3
72
10
73
6
74
4
42
0.0000001000
43
0.0000001000
44
0.0000000001
12
1.1371558812
22
0.5548943829
32
0.0000000000
13
0.0000000000
23
1.2507090344
33
0.0000000000
40
0.0000000000
40
0.0000000000
40
0.0000000000
40
0.0000000000
40
0.0970802368
40
0.5055259762
40
1.0000000000
40
1.0000000000
40
1.0000000000
40
1.0000000000
10
62.1741485146
20
-146.2145357579
30
0.0000000000
10
62.2109469687
20
-146.1965793318
30
0.0000000000
10
62.3944222397
20
-146.0882271902
30
0.0000000000
10
62.6426592677
20
-145.7227093316
30
0.0000000000
10
62.6934906007
20
-145.3406549683
30
0.0000000000
10
62.6934906007
20
-145.1345072587
30
0.0000000000
11
62.1741485146
21
-146.2145357579
31
0.0000000000
11
62.2792770383
21
-146.1521453489
31
0.0000000000
11
62.5858400032
21
-145.7435091080
31
0.0000000000
11
62.6934906007
21
-145.1345072587
31
0.0000000000
0
SPLINE
5
35D
100
AcDbEntity
8
0
100
AcDbSpline
62
7
6
CONTINUOUS
70
0
71
3
72
10
73
6
74
4
42
0.0000001000
43
0.0000001000
44
0.0000000001
12
-0.8566233982
22
0.4283116991
32
0.0000000000
13
-0.0001257120
23
0.9748823030
33
0.0000000000
40
0.0000000000
40
0.0000000000
40
0.0000000000
40
0.0000000000
40
0.4651064583
40
0.8368010951
40
1.0000000000
40
1.0000000000
40
1.0000000000
40
1.0000000000
10
6.8320548870
20
-163.4835674241
30
0.0000000000
10
6.6992478620
20
-163.4171639116
30
0.0000000000
10
6.4712979399
20
-163.2719832469
30
0.0000000000
10
6.2729739677
20
-163.0033576887
30
0.0000000000
10
6.2481481576
20
-162.8295362614
30
0.0000000000
10
6.2481413190
20
-162.7765030199
30
0.0000000000
11
6.8320548870
21
-163.4835674241
31
0.0000000000
11
6.4650032273
21
-163.2311842427
31
0.0000000000
11
6.2708612365
21
-162.9327986928
31
0.0000000000
11
6.2481413190
21
-162.7765030199
31
0.0000000000
0
SPLINE
5
35E
100
AcDbEntity
8
0
100
AcDbSpline
62
7
6
CONTINUOUS
70
0
71
3
72
10
73
6
74
4
42
0.0000001000
43
0.0000001000
44
0.0000000001
12
0.0000000000
22
-0.9645276564
32
0.0000000000
13
-0.8588211978
23
-0.4294105989
33
0.0000000000
40
0.0000000000
40
0.0000000000
40
0.0000000000
40
0.0000000000
40
0.2787367596
40
0.6049124378
40
1.0000000000
40
1.0000000000
40
1.0000000000
40
1.0000000000
10
63.2792770383
20
-144.4274004775
30
0.0000000000
10
63.2792770383
20
-144.5170169153
30
0.0000000000
10
63.2226750389
20
-144.7115018406
30
0.0000000000
10
63.0046464112
20
-144.9549172561
30
0.0000000000
10
62.8065937918
20
-145.0779556631
30
0.0000000000
10
62.6934906007
20
-145.1345072587
30
0.0000000000
11
63.2792770383
21
-144.4274004775
31
0.0000000000
11
63.2111286909
21
-144.6862195226
31
0.0000000000
11
63.0113278459
21
-144.9274004775
31
0.0000000000
11
62.6934906007
21
-145.1345072587
31
0.0000000000
0
SPLINE
5
35F
100
AcDbEntity
8
0
100
AcDbSpline
62
7
6
CONTINUOUS
70
0
71
3
72
10
73
6
74
4
42
0.0000001000
43
0.0000001000
44
0.0000000001
12
-0.8566908086
22
-0.4283454043
32
0.0000000000
13
0.0001257219
23
-0.9749590195
33
0.0000000000
40
0.0000000000
40
0.0000000000
40
0.0000000000
40
0.0000000000
40
0.4646674641
40
0.8372394307
40
1.0000000000
40
1.0000000000
40
1.0000000000
40
1.0000000000
10
6.8320548870
20
-160.7703157561
30
0.0000000000
10
6.6993627718
20
-160.8366618137
30
0.0000000000
10
6.4712870075
20
-160.9818852915
30
0.0000000000
10
6.2728730386
20
-161.2505961991
30
0.0000000000
10
6.2481344981
20
-161.4245699526
30
0.0000000000
10
6.2481413190
20
-161.4774649143
30
0.0000000000
11
6.8320548870
21
-160.7703157561
31
0.0000000000
11
6.4652827925
21
-161.0224252597
31
0.0000000000
11
6.2707090888
21
-161.3215658619
31
0.0000000000
11
6.2481413190
21
-161.4774649143
31
0.0000000000
0
SPLINE
5
360
100
AcDbEntity
8
0
100
AcDbSpline
62
7
6
CONTINUOUS
70
0
71
3
72
12
73
8
74
6
42
0.0000001000
43
0.0000001000
44
0.0000000001
12
0.0000000000
22
4.4051696224
32
0.0000000000
13
3.9535233684
23
1.9828499108
33
0.0000000000
40
0.0000000000
40
0.0000000000
40
0.0000000000
40
0.0000000000
40
0.2181782934
40
0.4527834993
40
0.6867041581
40
0.9030133251
40
1.0000000000
40
1.0000000000
40
1.0000000000
40
1.0000000000
10
14.9637828706
20
45.3178452514
30
0.0000000000
10
14.9637828706
20
45.6382160483
30
0.0000000000
10
15.0621617656
20
46.3042385322
30
0.0000000000
10
15.4277114180
20
47.2511833997
30
0.0000000000
10
15.9788257529
20
48.1015555867
30
0.0000000000
10
16.5607731189
20
48.6673611087
30
0.0000000000
10
16.9549377898
20
48.9119875359
30
0.0000000000
10
17.0827508183
20
48.9760908757
30
0.0000000000
11
14.9637828706
21
45.3178452514
31
0.0000000000
11
15.0917141410
21
46.2704052848
31
0.0000000000
11
15.4600775529
21
47.2360037903
31
0.0000000000
11
16.0244430424
21
48.0981753373
31
0.0000000000
11
16.7167398023
21
48.7529293131
31
0.0000000000
11
17.0827508183
21
48.9760908757
31
0.0000000000
0
SPLINE
5
361
100
AcDbEntity
8
0
100
AcDbSpline
62
7
6
CONTINUOUS
70
0
71
3
72
12
73
8
74
6
42
0.0000001000
43
0.0000001000
44
0.0000000001
12
0.0000000000
22
4.4051696224
32
0.0000000000
13
3.9535233684
23
1.9828499108
33
0.0000000000
40
0.0000000000
40
0.0000000000
40
0.0000000000
40
0.0000000000
40
0.2181782934
40
0.4527834993
40
0.6867041581
40
0.9030133251
40
1.0000000000
40
1.0000000000
40
1.0000000000
40
1.0000000000
10
14.9637828706
20
-122.6910830827
30
0.0000000000
10
14.9637828706
20
-122.3707122859
30
0.0000000000
10
15.0621617656
20
-121.7046898020
30
0.0000000000
10
15.4277114180
20
-120.7577449345
30
0.0000000000
10
15.9788257529
20
-119.9073727475
30
0.0000000000
10
16.5607731189
20
-119.3415672255
30
0.0000000000
10
16.9549377898
20
-119.0969407983
30
0.0000000000
10
17.0827508183
20
-119.0328374584
30
0.0000000000
11
14.9637828706
21
-122.6910830827
31
0.0000000000
11
15.0917141410
21
-121.7385230494
31
0.0000000000
11
15.4600775529
21
-120.7729245439
31
0.0000000000
11
16.0244430424
21
-119.9107529969
31
0.0000000000
11
16.7167398023
21
-119.2559990211
31
0.0000000000
11
17.0827508183
21
-119.0328374584
31
0.0000000000
0
SPLINE
5
362
100
AcDbEntity
8
0
100
AcDbSpline
62
7
6
CONTINUOUS
70
0
71
3
72
15
73
11
74
9
42
0.0000001000
43
0.0000001000
44
0.0000000001
12
2.6326381227
22
-1.3163190613
32
0.0000000000
13
0.0000000000
23
-2.9433789012
33
0.0000000000
40
0.0000000000
40
0.0000000000
40
0.0000000000
40
0.0000000000
40
0.1103207721
40
0.2298809776
40
0.3567647248
40
0.4883338301
40
0.6215371336
40
0.7531869865
40
0.8802253985
40
1.0000000000
40
1.0000000000
40
1.0000000000
40
1.0000000000
10
16.7315498236
20
72.3217473597
30
0.0000000000
10
16.8283613804
20
72.2733415813
30
0.0000000000
10
17.0202492437
20
72.1521953690
30
0.0000000000
10
17.2837668005
20
71.9200595530
30
0.0000000000
10
17.5264086894
20
71.6381241725
30
0.0000000000
10
17.7390996638
20
71.3169527746
30
0.0000000000
10
17.9139815986
20
70.9685197698
30
0.0000000000
10
18.0445036094
20
70.6058190632
30
0.0000000000
10
18.1257764979
20
70.2425042033
30
0.0000000000
10
18.1457633860
20
70.0001037825
30
0.0000000000
10
18.1457633860
20
69.8825897709
30
0.0000000000
11
16.7315498236
21
72.3217473597
31
0.0000000000
11
17.0074492029
21
72.1505167994
31
0.0000000000
11
17.2727459237
21
71.9193047924
31
0.0000000000
11
17.5172447820
21
71.6369966864
31
0.0000000000
11
17.7315498236
21
71.3144414235
31
0.0000000000
11
17.9074254260
21
70.9640346216
31
0.0000000000
11
18.0381127885
21
70.5992422177
31
0.0000000000
11
18.1185896689
21
70.2340829792
31
0.0000000000
11
18.1457633860
21
69.8825897709
31
0.0000000000
0
SPLINE
5
363
100
AcDbEntity
8
0
100
AcDbSpline
62
7
6
CONTINUOUS
70
0
71
3
72
10
73
6
74
4
42
0.0000001000
43
0.0000001000
44
0.0000000001
12
0.0001257120
22
-0.9748823030
32
0.0000000000
13
0.8566233982
23
-0.4283116991
33
0.0000000000
40
0.0000000000
40
0.0000000000
40
0.0000000000
40
0.0000000000
40
0.1631989049
40
0.5348935417
40
1.0000000000
40
1.0000000000
40
1.0000000000
40
1.0000000000
10
6.2481413190
20
-161.4774649143
30
0.0000000000
10
6.2481481576
20
-161.5304981557
30
0.0000000000
10
6.2729739677
20
-161.7043195830
30
0.0000000000
10
6.4712979399
20
-161.9729451413
30
0.0000000000
10
6.6992478620
20
-162.1181258060
30
0.0000000000
10
6.8320548870
20
-162.1845293184
30
0.0000000000
11
6.2481413190
21
-161.4774649143
31
0.0000000000
11
6.2708612365
21
-161.6337605871
31
0.0000000000
11
6.4650032273
21
-161.9321461370
31
0.0000000000
11
6.8320548870
21
-162.1845293184
31
0.0000000000
0
SPLINE
5
364
100
AcDbEntity
8
0
100
AcDbSpline
62
7
6
CONTINUOUS
70
0
71
3
72
9
73
5
74
3
42
0.0000001000
43
0.0000001000
44
0.0000000001
12
-0.2055681679
22
-0.1083125359
32
0.0000000000
13
-0.2036271904
23
0.1018135952
33
0.0000000000
40
0.0000000000
40
0.0000000000
40
0.0000000000
40
0.0000000000
40
0.2121331219
40
1.0000000000
40
1.0000000000
40
1.0000000000
40
1.0000000000
10
16.9539625864
20
-167.1474964777
30
0.0000000000
10
16.9394266473
20
-167.1551553698
30
0.0000000000
10
16.8671724667
20
-167.1827782258
30
0.0000000000
10
16.7850268632
20
-167.1610153065
30
0.0000000000
10
16.7315498236
20
-167.1342767867
30
0.0000000000
11
16.9539625864
21
-167.1474964777
31
0.0000000000
11
16.9083265189
21
-167.1646524325
31
0.0000000000
11
16.7315498236
21
-167.1342767867
31
0.0000000000
0
SPLINE
5
365
100
AcDbEntity
8
0
100
AcDbSpline
62
7
6
CONTINUOUS
70
0
71
3
72
10
73
6
74
4
42
0.0000001000
43
0.0000001000
44
0.0000000001
12
1.1371558812
22
0.5548943829
32
0.0000000000
13
-0.0000000000
23
1.2507090344
33
0.0000000000
40
0.0000000000
40
0.0000000000
40
0.0000000000
40
0.0000000000
40
0.0970802368
40
0.5055259762
40
1.0000000000
40
1.0000000000
40
1.0000000000
40
1.0000000000
10
17.6264212999
20
-168.4883993652
30
0.0000000000
10
17.6632197539
20
-168.4704429392
30
0.0000000000
10
17.8466950250
20
-168.3620907976
30
0.0000000000
10
18.0949320529
20
-167.9965729390
30
0.0000000000
10
18.1457633860
20
-167.6145185756
30
0.0000000000
10
18.1457633860
20
-167.4083708660
30
0.0000000000
11
17.6264212999
21
-168.4883993652
31
0.0000000000
11
17.7315498236
21
-168.4260089562
31
0.0000000000
11
18.0381127885
21
-168.0173727154
31
0.0000000000
11
18.1457633860
21
-167.4083708660
31
0.0000000000
0
SPLINE
5
366
100
AcDbEntity
8
0
100
AcDbSpline
62
7
6
CONTINUOUS
70
0
71
3
72
10
73
6
74
4
42
0.0000001000
43
0.0000001000
44
0.0000000001
12
0.0001253567
22
-0.9748821679
32
0.0000000000
13
0.8566232708
23
-0.4283116354
33
0.0000000000
40
0.0000000000
40
0.0000000000
40
0.0000000000
40
0.0000000000
40
0.1631984559
40
0.5349217961
40
1.0000000000
40
1.0000000000
40
1.0000000000
40
1.0000000000
10
6.2481413895
20
77.9785593487
30
0.0000000000
10
6.2481482089
20
77.9255262605
30
0.0000000000
10
6.2729751185
20
77.7516956819
30
0.0000000000
10
6.4713064395
20
77.4830729327
30
0.0000000000
10
6.6992559496
20
77.3378942967
30
0.0000000000
10
6.8320548870
20
77.2714948280
30
0.0000000000
11
6.2481413895
21
77.9785593487
31
0.0000000000
11
6.2708610612
21
77.8222641128
31
0.0000000000
11
6.4650229006
21
77.5238587436
31
0.0000000000
11
6.8320548870
21
77.2714948280
31
0.0000000000
0
SPLINE
5
367
100
AcDbEntity
8
0
100
AcDbSpline
62
7
6
CONTINUOUS
70
0
71
3
72
10
73
6
74
4
42
0.0000001000
43
0.0000001000
44
0.0000000001
12
0.0000000000
22
-0.9645276564
32
0.0000000000
13
-0.8588211978
23
-0.4294105989
33
0.0000000000
40
0.0000000000
40
0.0000000000
40
0.0000000000
40
0.0000000000
40
0.2787367596
40
0.6049124378
40
1.0000000000
40
1.0000000000
40
1.0000000000
40
1.0000000000
10
63.2792770383
20
92.8635601595
30
0.0000000000
10
63.2792770383
20
92.7739437216
30
0.0000000000
10
63.2226750389
20
92.5794587963
30
0.0000000000
10
63.0046464112
20
92.3360433808
30
0.0000000000
10
62.8065937918
20
92.2130049738
30
0.0000000000
10
62.6934906007
20
92.1564533783
30
0.0000000000
11
63.2792770383
21
92.8635601595
31
0.0000000000
11
63.2111286909
21
92.6047411144
31
0.0000000000
11
63.0113278459
21
92.3635601595
31
0.0000000000
11
62.6934906007
21
92.1564533783
31
0.0000000000
0
SPLINE
5
368
100
AcDbEntity
8
0
100
AcDbSpline
62
7
6
CONTINUOUS
70
0
71
3
72
8
73
4
74
2
42
0.0000001000
43
0.0000001000
44
0.0000000001
12
-0.1022620701
22
0.0590202903
32
0.0000000000
13
-0.1053444741
23
0.0526722370
33
0.0000000000
40
0.0000000000
40
0.0000000000
40
0.0000000000
40
0.0000000000
40
1.0000000000
40
1.0000000000
40
1.0000000000
40
1.0000000000
10
-319.0402281189
20
-93.4353468558
30
0.0000000000
10
-319.0743154755
20
-93.4156734257
30
0.0000000000
10
-319.1090564153
20
-93.3971747842
30
0.0000000000
10
-319.1441712400
20
-93.3796173719
30
0.0000000000
11
-319.0402281189
21
-93.4353468558
31
0.0000000000
11
-319.1441712400
21
-93.3796173719
31
0.0000000000
0
SPLINE
5
369
100
AcDbEntity
8
0
100
AcDbSpline
62
7
6
CONTINUOUS
70
0
71
3
72
13
73
9
74
7
42
0.0000001000
43
0.0000001000
44
0.0000000001
12
2.6028004938
22
-1.3014002469
32
0.0000000000
13
2.6028004938
23
1.3014002469
33
0.0000000000
40
0.0000000000
40
0.0000000000
40
0.0000000000
40
0.0000000000
40
0.1524570658
40
0.3217337100
40
0.5000000000
40
0.6782662900
40
0.8475429342
40
1.0000000000
40
1.0000000000
40
1.0000000000
40
1.0000000000
10
-358.0350442053
20
-354.0845610993
30
0.0000000000
10
-357.9027724299
20
-354.1506969870
30
0.0000000000
10
-357.6081863669
20
-354.2598212100
30
0.0000000000
10
-357.1313010508
20
-354.3557919823
30
0.0000000000
10
-356.6208306429
20
-354.3885656481
30
0.0000000000
10
-356.1103602351
20
-354.3557919823
30
0.0000000000
10
-355.6334749189
20
-354.2598212100
30
0.0000000000
10
-355.3388888559
20
-354.1506969870
30
0.0000000000
10
-355.2066170805
20
-354.0845610993
30
0.0000000000
11
-358.0350442053
21
-354.0845610993
31
0.0000000000
11
-357.6208306429
21
-354.2434797219
31
0.0000000000
11
-357.1384687331
21
-354.3433801444
31
0.0000000000
11
-356.6208306429
21
-354.3774543181
31
0.0000000000
11
-356.1031925527
21
-354.3433801444
31
0.0000000000
11
-355.6208306429
21
-354.2434797219
31
0.0000000000
11
-355.2066170805
21
-354.0845610993
31
0.0000000000
0
SPLINE
5
36A
100
AcDbEntity
8
0
100
AcDbSpline
62
7
6
CONTINUOUS
70
0
71
3
72
10
73
6
74
4
42
0.0000001000
43
0.0000001000
44
0.0000000001
12
-0.8588211978
22
-0.4294105989
32
0.0000000000
13
0.0000000000
23
-0.9645276564
33
0.0000000000
40
0.0000000000
40
0.0000000000
40
0.0000000000
40
0.0000000000
40
0.3950875622
40
0.7212632404
40
1.0000000000
40
1.0000000000
40
1.0000000000
40
1.0000000000
10
-367.9345391419
20
-110.4296394317
30
0.0000000000
10
-368.0476423330
20
-110.4861910272
30
0.0000000000
10
-368.2456949524
20
-110.6092294342
30
0.0000000000
10
-368.4637235801
20
-110.8526448497
30
0.0000000000
10
-368.5203255795
20
-111.0471297750
30
0.0000000000
10
-368.5203255795
20
-111.1367462129
30
0.0000000000
11
-367.9345391419
21
-110.4296394317
31
0.0000000000
11
-368.2523763871
21
-110.6367462129
31
0.0000000000
11
-368.4521772321
21
-110.8779271677
31
0.0000000000
11
-368.5203255795
21
-111.1367462129
31
0.0000000000
0
SPLINE
5
36B
100
AcDbEntity
8
0
100
AcDbSpline
62
7
6
CONTINUOUS
70
0
71
3
72
9
73
5
74
3
42
0.0000001000
43
0.0000001000
44
0.0000000001
12
-0.2131744153
22
0.1065872076
32
0.0000000000
13
0.0000000000
23
0.2367008792
33
0.0000000000
40
0.0000000000
40
0.0000000000
40
0.0000000000
40
0.0000000000
40
0.5679903392
40
1.0000000000
40
1.0000000000
40
1.0000000000
40
1.0000000000
10
-366.8738789701
20
-111.3135229081
30
0.0000000000
10
-366.9142393063
20
-111.2933427401
30
0.0000000000
10
-366.9831153271
20
-111.2497321948
30
0.0000000000
10
-367.0203255795
20
-111.1708319017
30
0.0000000000
10
-367.0203255795
20
-111.1367462129
30
0.0000000000
11
-366.8738789701
21
-111.3135229081
31
0.0000000000
11
-366.9822653458
21
-111.2324170709
31
0.0000000000
11
-367.0203255795
21
-111.1367462129
31
0.0000000000
0
SPLINE
5
36C
100
AcDbEntity
8
0
100
AcDbSpline
62
7
6
CONTINUOUS
70
0
71
3
72
11
73
7
74
5
42
0.0000001000
43
0.0000001000
44
0.0000000001
12
-0.6499098581
22
-0.3249549290
32
0.0000000000
13
-0.6499098581
23
0.3249549290
33
0.0000000000
40
0.0000000000
40
0.0000000000
40
0.0000000000
40
0.0000000000
40
0.2353701082
40
0.5000000000
40
0.7646298918
40
1.0000000000
40
1.0000000000
40
1.0000000000
40
1.0000000000
10
-356.2672772523
20
-116.2632703765
30
0.0000000000
10
-356.3182670369
20
-116.2887652687
30
0.0000000000
10
-356.4354522328
20
-116.3251335203
30
0.0000000000
10
-356.6208306429
20
-116.3425061574
30
0.0000000000
10
-356.8062090530
20
-116.3251335203
30
0.0000000000
10
-356.9233942490
20
-116.2887652687
30
0.0000000000
10
-356.9743840335
20
-116.2632703765
30
0.0000000000
11
-356.2672772523
21
-116.2632703765
31
0.0000000000
11
-356.4294889267
21
-116.3174635643
31
0.0000000000
11
-356.6208306429
21
-116.3364936812
31
0.0000000000
11
-356.8121723591
21
-116.3174635643
31
0.0000000000
11
-356.9743840335
21
-116.2632703765
31
0.0000000000
0
SPLINE
5
36D
100
AcDbEntity
8
0
100
AcDbSpline
62
7
6
CONTINUOUS
70
0
71
3
72
10
73
6
74
4
42
0.0000001000
43
0.0000001000
44
0.0000000001
12
-0.0165310875
22
-0.9670021846
32
0.0000000000
13
0.8554619673
23
-0.4277309836
33
0.0000000000
40
0.0000000000
40
0.0000000000
40
0.0000000000
40
0.0000000000
40
0.0902207805
40
0.4881530208
40
1.0000000000
40
1.0000000000
40
1.0000000000
40
1.0000000000
10
-322.5567816936
20
-92.7883763696
30
0.0000000000
10
-322.5572788428
20
-92.8174576002
30
0.0000000000
10
-322.5468541970
20
-92.9741400186
30
0.0000000000
10
-322.3664994222
20
-93.2631982068
30
0.0000000000
10
-322.1185535727
20
-93.4218152246
30
0.0000000000
10
-321.9725983648
20
-93.4947928286
30
0.0000000000
11
-322.5567816936
21
-92.7883763696
31
0.0000000000
11
-322.5507741986
21
-92.8748417901
31
0.0000000000
11
-322.3710003765
21
-93.2103043091
31
0.0000000000
11
-321.9725983648
21
-93.4947928286
31
0.0000000000
0
SPLINE
5
36E
100
AcDbEntity
8
0
100
AcDbSpline
62
7
6
CONTINUOUS
70
0
71
3
72
12
73
8
74
6
42
0.0000001000
43
0.0000001000
44
0.0000000001
12
1.1323170694
22
0.5662428658
32
0.0000000000
13
0.0000000000
23
1.2603180291
33
0.0000000000
40
0.0000000000
40
0.0000000000
40
0.0000000000
40
0.0000000000
40
0.0977006842
40
0.2942993550
40
0.5070334244
40
0.7417668452
40
1.0000000000
40
1.0000000000
40
1.0000000000
40
1.0000000000
10
-311.1787241701
20
-332.8923713325
30
0.0000000000
10
-311.1418481193
20
-332.8739305607
30
0.0000000000
10
-311.0352741724
20
-332.8093637114
30
0.0000000000
10
-310.8831716683
20
-332.6555176748
30
0.0000000000
10
-310.7528218696
20
-332.4150118099
30
0.0000000000
10
-310.6746545135
20
-332.1268774828
30
0.0000000000
10
-310.6588898658
20
-331.9191827921
30
0.0000000000
10
-310.6588898658
20
-331.8106974919
30
0.0000000000
11
-311.1787241701
21
-332.8923713325
31
0.0000000000
11
-311.0731034282
21
-332.8283355821
31
0.0000000000
11
-310.8972278257
21
-332.6538043827
31
0.0000000000
11
-310.7665404633
21
-332.4196993412
31
0.0000000000
11
-310.6860635828
21
-332.1350169832
31
0.0000000000
11
-310.6588898658
21
-331.8106974919
31
0.0000000000
0
SPLINE
5
36F
100
AcDbEntity
8
0
100
AcDbSpline
62
7
6
CONTINUOUS
70
0
71
3
72
11
73
7
74
5
42
0.0000001000
43
0.0000001000
44
0.0000000001
12
2.6264298138
22
-1.3132149069
32
0.0000000000
13
0.0000000000
23
-2.9364378009
33
0.0000000000
40
0.0000000000
40
0.0000000000
40
0.0000000000
40
0.0000000000
40
0.2296755894
40
0.4882147766
40
0.7532068921
40
1.0000000000
40
1.0000000000
40
1.0000000000
40
1.0000000000
10
-312.0731034282
20
-92.0805792662
30
0.0000000000
10
-311.8720278230
20
-92.1811170688
30
0.0000000000
10
-311.4878032307
20
-92.4817093570
30
0.0000000000
10
-311.0441292693
20
-93.0784890719
30
0.0000000000
10
-310.7422520755
20
-93.7763696275
30
0.0000000000
10
-310.6588898658
20
-94.2781726512
30
0.0000000000
10
-310.6588898658
20
-94.5197368550
30
0.0000000000
11
-312.0731034282
21
-92.0805792662
31
0.0000000000
11
-311.5319073280
21
-92.4830218335
31
0.0000000000
11
-311.0731034282
21
-93.0878852024
31
0.0000000000
11
-310.7665404633
21
-93.8030844081
31
0.0000000000
11
-310.6588898658
21
-94.5197368550
31
0.0000000000
0
SPLINE
5
370
100
AcDbEntity
8
0
100
AcDbSpline
62
7
6
CONTINUOUS
70
0
71
3
72
10
73
6
74
4
42
0.0000001000
43
0.0000001000
44
0.0000000001
12
0.0000000000
22
-0.9645276564
32
0.0000000000
13
0.8588211978
23
-0.4294105989
33
0.0000000000
40
0.0000000000
40
0.0000000000
40
0.0000000000
40
0.0000000000
40
0.2787367596
40
0.6049124378
40
1.0000000000
40
1.0000000000
40
1.0000000000
40
1.0000000000
10
-368.5203255795
20
-348.4277068498
30
0.0000000000
10
-368.5203255795
20
-348.5173232876
30
0.0000000000
10
-368.4637235801
20
-348.7118082129
30
0.0000000000
10
-368.2456949524
20
-348.9552236284
30
0.0000000000
10
-368.0476423330
20
-349.0782620354
30
0.0000000000
10
-367.9345391419
20
-349.1348136310
30
0.0000000000
11
-368.5203255795
21
-348.4277068498
31
0.0000000000
11
-368.4521772321
21
-348.6865258949
31
0.0000000000
11
-368.2523763871
21
-348.9277068498
31
0.0000000000
11
-367.9345391419
21
-349.1348136310
31
0.0000000000
0
SPLINE
5
371
100
AcDbEntity
8
0
100
AcDbSpline
62
7
6
CONTINUOUS
70
0
71
3
72
11
73
7
74
5
42
0.0000001000
43
0.0000001000
44
0.0000000001
12
0.8290696914
22
-0.4145348457
32
0.0000000000
13
0.8327870257
23
0.4164555360
33
0.0000000000
40
0.0000000000
40
0.0000000000
40
0.0000000000
40
0.0000000000
40
0.3183488335
40
0.6069120174
40
0.8738205244
40
1.0000000000
40
1.0000000000
40
1.0000000000
40
1.0000000000
10
-356.6208306429
20
-355.1095051257
30
0.0000000000
10
-356.5328528532
20
-355.1534940205
30
0.0000000000
10
-356.3567642802
20
-355.2224859343
30
0.0000000000
10
-356.0865368449
20
-355.2606052277
30
0.0000000000
10
-355.8748023939
20
-355.2299037641
30
0.0000000000
10
-355.7614782615
20
-355.1837509869
30
0.0000000000
10
-355.7264513848
20
-355.1662349399
30
0.0000000000
11
-356.6208306429
21
-355.1095051257
31
0.0000000000
11
-356.3449312636
21
-355.2141739447
31
0.0000000000
11
-356.0796345428
21
-355.2482586585
31
0.0000000000
11
-355.8351356845
21
-355.2104494107
31
0.0000000000
11
-355.7264513848
21
-355.1662349399
31
0.0000000000
0
SPLINE
5
372
100
AcDbEntity
8
0
100
AcDbSpline
62
7
6
CONTINUOUS
70
0
71
3
72
10
73
6
74
4
42
0.0000001000
43
0.0000001000
44
0.0000000001
12
-0.7650549867
22
0.3825274933
32
0.0000000000
13
-0.1628420572
23
0.8509228171
33
0.0000000000
40
0.0000000000
40
0.0000000000
40
0.0000000000
40
0.0000000000
40
0.5207427167
40
0.9369570660
40
1.0000000000
40
1.0000000000
40
1.0000000000
40
1.0000000000
10
-366.5203255795
20
-350.1597576574
30
0.0000000000
10
-366.6531245169
20
-350.0933581887
30
0.0000000000
10
-366.8810740270
20
-349.9481795526
30
0.0000000000
10
-367.0582048281
20
-349.7082710879
30
0.0000000000
10
-367.0910647054
20
-349.5739965183
30
0.0000000000
10
-367.0944867191
20
-349.5561149613
30
0.0000000000
11
-366.5203255795
21
-350.1597576574
31
0.0000000000
11
-366.8873575659
21
-349.9073937417
31
0.0000000000
11
-367.0815194053
21
-349.6089883725
31
0.0000000000
11
-367.0944867191
21
-349.5561149613
31
0.0000000000
0
SPLINE
5
373
100
AcDbEntity
8
0
100
AcDbSpline
62
7
6
CONTINUOUS
70
0
71
3
72
11
73
7
74
5
42
0.0000001000
43
0.0000001000
44
0.0000000001
12
-1.9628454371
22
0.9814227186
32
0.0000000000
13
-2.1575652991
23
-0.4267015791
33
0.0000000000
40
0.0000000000
40
0.0000000000
40
0.0000000000
40
0.0000000000
40
0.2747013918
40
0.5831593229
40
0.8987676598
40
1.0000000000
40
1.0000000000
40
1.0000000000
40
1.0000000000
10
-319.1441712400
20
-93.3796173719
30
0.0000000000
10
-319.3239033645
20
-93.2897513096
30
0.0000000000
10
-319.7334115922
20
-93.1546717712
30
0.0000000000
10
-320.3884496747
20
-93.0709903943
30
0.0000000000
10
-320.9210326225
20
-93.0932451527
30
0.0000000000
10
-321.2228865766
20
-93.1426244812
30
0.0000000000
10
-321.2956917047
20
-93.1570231477
30
0.0000000000
11
-319.1441712400
21
-93.3796173719
31
0.0000000000
11
-319.7131482789
21
-93.1804163660
31
0.0000000000
11
-320.3840733169
21
-93.0905294550
31
0.0000000000
11
-321.0760228926
21
-93.1207983268
31
0.0000000000
11
-321.2956917047
21
-93.1570231477
31
0.0000000000
0
SPLINE
5
374
100
AcDbEntity
8
0
100
AcDbSpline
62
7
6
CONTINUOUS
70
0
71
3
72
9
73
5
74
3
42
0.0000001000
43
0.0000001000
44
0.0000000001
12
-0.8167086624
22
-0.1615204305
32
0.0000000000
13
-0.7205046868
23
-0.4207002903
33
0.0000000000
40
0.0000000000
40
0.0000000000
40
0.0000000000
40
0.0000000000
40
0.5107036126
40
1.0000000000
40
1.0000000000
40
1.0000000000
40
1.0000000000
10
-321.2956917047
20
-93.1570231477
30
0.0000000000
10
-321.4347237262
20
-93.1845195035
30
0.0000000000
10
-321.7033755325
20
-93.2555442316
30
0.0000000000
10
-321.9582669978
20
-93.3668553954
30
0.0000000000
10
-322.0757804446
20
-93.4354711061
30
0.0000000000
11
-321.2956917047
21
-93.1570231477
31
0.0000000000
11
-321.7055376751
21
-93.2675721088
31
0.0000000000
11
-322.0757804446
21
-93.4354711061
31
0.0000000000
0
SPLINE
5
375
100
AcDbEntity
8
0
100
AcDbSpline
62
7
6
CONTINUOUS
70
0
71
3
72
10
73
6
74
4
42
0.0000001000
43
0.0000001000
44
0.0000000001
12
0.0000000000
22
0.7323450078
32
0.0000000000
13
-0.6550292881
23
0.3275146441
33
0.0000000000
40
0.0000000000
40
0.0000000000
40
0.0000000000
40
0.0000000000
40
0.3342904765
40
0.6865843886
40
1.0000000000
40
1.0000000000
40
1.0000000000
40
1.0000000000
10
-356.2672772523
20
-116.2632703765
30
0.0000000000
10
-356.2672772523
20
-116.1816650559
30
0.0000000000
10
-356.3045055146
20
-116.0136948995
30
0.0000000000
10
-356.4270182710
20
-115.7996521756
30
0.0000000000
10
-356.5523985080
20
-115.6876970467
30
0.0000000000
10
-356.6208306429
20
-115.6534809793
30
0.0000000000
11
-356.2672772523
21
-116.2632703765
31
0.0000000000
11
-356.3146444251
21
-116.0230804391
31
0.0000000000
11
-356.4440539476
21
-115.7998820288
31
0.0000000000
11
-356.6208306429
21
-115.6534809793
31
0.0000000000
0
SPLINE
5
376
100
AcDbEntity
8
0
100
AcDbSpline
62
7
6
CONTINUOUS
70
0
71
3
72
12
73
8
74
6
42
0.0000001000
43
0.0000001000
44
0.0000000001
12
-2.6016836521
22
1.3008418261
32
0.0000000000
13
-2.6016836521
23
-1.3008418261
33
0.0000000000
40
0.0000000000
40
0.0000000000
40
0.0000000000
40
0.0000000000
40
0.1846466545
40
0.3925057164
40
0.6071632156
40
0.8155466128
40
1.0000000000
40
1.0000000000
40
1.0000000000
40
1.0000000000
10
-321.9725983648
20
-87.1308317979
30
0.0000000000
10
-322.1327290923
20
-87.0507664342
30
0.0000000000
10
-322.4956067681
20
-86.9251312930
30
0.0000000000
10
-323.0794333844
20
-86.8338511829
30
0.0000000000
10
-323.6937322824
20
-86.8337802308
30
0.0000000000
10
-324.2779014385
20
-86.9250663610
30
0.0000000000
10
-324.6410623689
20
-87.0508502376
30
0.0000000000
10
-324.8010254895
20
-87.1308317979
30
0.0000000000
11
-321.9725983648
21
-87.1308317979
31
0.0000000000
11
-322.4773647276
21
-86.9473059681
31
0.0000000000
11
-323.0741358274
21
-86.8502349727
31
0.0000000000
11
-323.6985252778
21
-86.8501588988
31
0.0000000000
11
-324.2968064822
21
-86.9474457507
31
0.0000000000
11
-324.8010254895
21
-87.1308317979
31
0.0000000000
0
SPLINE
5
377
100
AcDbEntity
8
0
100
AcDbSpline
62
7
6
CONTINUOUS
70
0
71
3
72
10
73
6
74
4
42
0.0000001000
43
0.0000001000
44
0.0000000001
12
-0.8566908086
22
-0.4283454043
32
0.0000000000
13
0.0001257219
23
-0.9749590195
33
0.0000000000
40
0.0000000000
40
0.0000000000
40
0.0000000000
40
0.0000000000
40
0.4646674641
40
0.8372394307
40
1.0000000000
40
1.0000000000
40
1.0000000000
40
1.0000000000
10
-366.5203255795
20
-107.9904818429
30
0.0000000000
10
-366.6530176947
20
-108.0568279005
30
0.0000000000
10
-366.8810934590
20
-108.2020513784
30
0.0000000000
10
-367.0795074279
20
-108.4707622859
30
0.0000000000
10
-367.1042459684
20
-108.6447360394
30
0.0000000000
10
-367.1042391475
20
-108.6976310011
30
0.0000000000
11
-366.5203255795
21
-107.9904818429
31
0.0000000000
11
-366.8870976740
21
-108.2425913466
31
0.0000000000
11
-367.0816713777
21
-108.5417319488
31
0.0000000000
11
-367.1042391475
21
-108.6976310011
31
0.0000000000
0
SPLINE
5
378
100
AcDbEntity
8
0
100
AcDbSpline
62
7
6
CONTINUOUS
70
0
71
3
72
14
73
10
74
8
42
0.0000001000
43
0.0000001000
44
0.0000000001
12
3.4553798076
22
-1.7276899038
32
0.0000000000
13
0.0667723265
23
3.9059127703
33
0.0000000000
40
0.0000000000
40
0.0000000000
40
0.0000000000
40
0.0000000000
40
0.1560454721
40
0.3312665119
40
0.5105493747
40
0.6778701013
40
0.8200111229
40
0.9314198950
40
1.0000000000
40
1.0000000000
40
1.0000000000
40
1.0000000000
10
-321.9725983648
20
-93.4947928286
30
0.0000000000
10
-321.7928662403
20
-93.5846588908
30
0.0000000000
10
-321.3833580126
20
-93.7197384293
30
0.0000000000
10
-320.7283199301
20
-93.8034198062
30
0.0000000000
10
-320.0537846422
20
-93.7752333613
30
0.0000000000
10
-319.4347901440
20
-93.6382868020
30
0.0000000000
10
-318.9405193423
20
-93.4068765302
30
0.0000000000
10
-318.6254891269
20
-93.1136703897
30
0.0000000000
10
-318.5615143290
20
-92.8762850279
30
0.0000000000
10
-318.5599879112
20
-92.7869957252
30
0.0000000000
11
-321.9725983648
21
-93.4947928286
31
0.0000000000
11
-321.4036213259
21
-93.6939938344
31
0.0000000000
11
-320.7326962879
21
-93.7838807455
31
0.0000000000
11
-320.0407467122
21
-93.7536118737
31
0.0000000000
11
-319.4112319297
21
-93.6068380917
31
0.0000000000
11
-318.9200807138
21
-93.3612624837
31
0.0000000000
11
-318.6265331498
21
-93.0465050925
31
0.0000000000
11
-318.5599879112
21
-92.7869957252
31
0.0000000000
0
SPLINE
5
379
100
AcDbEntity
8
0
100
AcDbSpline
62
7
6
CONTINUOUS
70
0
71
3
72
9
73
5
74
3
42
0.0000001000
43
0.0000001000
44
0.0000000001
12
-0.5109487517
22
0.2554743759
32
0.0000000000
13
-0.3559061960
23
0.4578182059
33
0.0000000000
40
0.0000000000
40
0.0000000000
40
0.0000000000
40
0.0000000000
40
0.7797671949
40
1.0000000000
40
1.0000000000
40
1.0000000000
40
1.0000000000
10
-366.5203255795
20
-110.7037335110
30
0.0000000000
10
-366.6531326045
20
-110.6373299985
30
0.0000000000
10
-366.8156143657
20
-110.5338458214
30
0.0000000000
10
-366.9465992551
20
-110.3899158476
30
0.0000000000
10
-366.9727266617
20
-110.3563069850
30
0.0000000000
11
-366.5203255795
21
-110.7037335110
31
0.0000000000
11
-366.8873772392
21
-110.4513503296
31
0.0000000000
11
-366.9727266617
21
-110.3563069850
31
0.0000000000
0
SPLINE
5
37A
100
AcDbEntity
8
0
100
AcDbSpline
62
7
6
CONTINUOUS
70
0
71
3
72
9
73
5
74
3
42
0.0000001000
43
0.0000001000
44
0.0000000001
12
-0.2296767556
22
0.2954435786
32
0.0000000000
13
-0.0122622305
23
0.3749930767
33
0.0000000000
40
0.0000000000
40
0.0000000000
40
0.0000000000
40
0.0000000000
40
0.6243728742
40
1.0000000000
40
1.0000000000
40
1.0000000000
40
1.0000000000
10
-366.9727266617
20
-110.3563069850
30
0.0000000000
10
-367.0205279737
20
-110.2948179996
30
0.0000000000
10
-367.0825063372
20
-110.1860932849
30
0.0000000000
10
-367.1024061581
20
-110.0617630101
30
0.0000000000
10
-367.1039415002
20
-110.0148104863
30
0.0000000000
11
-366.9727266617
21
-110.3563069850
31
0.0000000000
11
-367.0815192300
21
-110.1529647796
31
0.0000000000
11
-367.1039415002
21
-110.0148104863
31
0.0000000000
0
SPLINE
5
37B
100
AcDbEntity
8
0
100
AcDbSpline
62
7
6
CONTINUOUS
70
0
71
3
72
8
73
4
74
2
42
0.0000001000
43
0.0000001000
44
0.0000000001
12
-0.0005929496
22
0.0181330781
32
0.0000000000
13
-0.0000023399
23
0.0181455182
33
0.0000000000
40
0.0000000000
40
0.0000000000
40
0.0000000000
40
0.0000000000
40
1.0000000000
40
1.0000000000
40
1.0000000000
40
1.0000000000
10
-367.1039415002
20
-110.0148104863
30
0.0000000000
10
-367.1041391500
20
-110.0087661269
30
0.0000000000
10
-367.1042383676
20
-110.0027176129
30
0.0000000000
10
-367.1042391475
20
-109.9966691068
30
0.0000000000
11
-367.1039415002
21
-110.0148104863
31
0.0000000000
11
-367.1042391475
21
-109.9966691068
31
0.0000000000
0
SPLINE
5
37C
100
AcDbEntity
8
0
100
AcDbSpline
62
7
6
CONTINUOUS
70
0
71
3
72
13
73
9
74
7
42
0.0000001000
43
0.0000001000
44
0.0000000001
12
2.6028004938
22
-1.3014002469
32
0.0000000000
13
2.6028004938
23
1.3014002469
33
0.0000000000
40
0.0000000000
40
0.0000000000
40
0.0000000000
40
0.0000000000
40
0.1524570658
40
0.3217337100
40
0.5000000000
40
0.6782662900
40
0.8475429342
40
1.0000000000
40
1.0000000000
40
1.0000000000
40
1.0000000000
10
-358.0350442053
20
-116.7936004623
30
0.0000000000
10
-357.9027724299
20
-116.8597363500
30
0.0000000000
10
-357.6081863669
20
-116.9688605730
30
0.0000000000
10
-357.1313010508
20
-117.0648313454
30
0.0000000000
10
-356.6208306429
20
-117.0976050112
30
0.0000000000
10
-356.1103602351
20
-117.0648313454
30
0.0000000000
10
-355.6334749189
20
-116.9688605730
30
0.0000000000
10
-355.3388888559
20
-116.8597363500
30
0.0000000000
10
-355.2066170805
20
-116.7936004623
30
0.0000000000
11
-358.0350442053
21
-116.7936004623
31
0.0000000000
11
-357.6208306429
21
-116.9525190849
31
0.0000000000
11
-357.1384687331
21
-117.0524195074
31
0.0000000000
11
-356.6208306429
21
-117.0864936812
31
0.0000000000
11
-356.1031925527
21
-117.0524195074
31
0.0000000000
11
-355.6208306429
21
-116.9525190849
31
0.0000000000
11
-355.2066170805
21
-116.7936004623
31
0.0000000000
0
SPLINE
5
37D
100
AcDbEntity
8
0
100
AcDbSpline
62
7
6
CONTINUOUS
70
0
71
3
72
12
73
8
74
6
42
0.0000001000
43
0.0000001000
44
0.0000000001
12
1.1323170694
22
0.5662428658
32
0.0000000000
13
-0.0000000000
23
1.2603180291
33
0.0000000000
40
0.0000000000
40
0.0000000000
40
0.0000000000
40
0.0000000000
40
0.0977006842
40
0.2942993550
40
0.5070334244
40
0.7417668452
40
1.0000000000
40
1.0000000000
40
1.0000000000
40
1.0000000000
10
-355.7264513848
20
-355.1662349399
30
0.0000000000
10
-355.6895753340
20
-355.1477941681
30
0.0000000000
10
-355.5830013871
20
-355.0832273188
30
0.0000000000
10
-355.4308988830
20
-354.9293812822
30
0.0000000000
10
-355.3005490843
20
-354.6888754173
30
0.0000000000
10
-355.2223817282
20
-354.4007410902
30
0.0000000000
10
-355.2066170805
20
-354.1930463995
30
0.0000000000
10
-355.2066170805
20
-354.0845610993
30
0.0000000000
11
-355.7264513848
21
-355.1662349399
31
0.0000000000
11
-355.6208306429
21
-355.1021991895
31
0.0000000000
11
-355.4449550405
21
-354.9276679901
31
0.0000000000
11
-355.3142676780
21
-354.6935629486
31
0.0000000000
11
-355.2337907976
21
-354.4088805906
31
0.0000000000
11
-355.2066170805
21
-354.0845610993
31
0.0000000000
0
SPLINE
5
37E
100
AcDbEntity
8
0
100
AcDbSpline
62
7
6
CONTINUOUS
70
0
71
3
72
10
73
6
74
4
42
0.0000001000
43
0.0000001000
44
0.0000000001
12
0.0165310875
22
0.9670021846
32
0.0000000000
13
-0.8554619673
23
0.4277309836
33
0.0000000000
40
0.0000000000
40
0.0000000000
40
0.0000000000
40
0.0000000000
40
0.0902207805
40
0.4881530208
40
1.0000000000
40
1.0000000000
40
1.0000000000
40
1.0000000000
10
-318.5599879112
20
-92.7869957252
30
0.0000000000
10
-318.5594907620
20
-92.7579144946
30
0.0000000000
10
-318.5699154078
20
-92.6012320762
30
0.0000000000
10
-318.7502701826
20
-92.3121738880
30
0.0000000000
10
-318.9982160321
20
-92.1535568702
30
0.0000000000
10
-319.1441712400
20
-92.0805792662
30
0.0000000000
11
-318.5599879112
21
-92.7869957252
31
0.0000000000
11
-318.5659954062
21
-92.7005303047
31
0.0000000000
11
-318.7457692283
21
-92.3650677857
31
0.0000000000
11
-319.1441712400
21
-92.0805792662
31
0.0000000000
0
SPLINE
5
37F
100
AcDbEntity
8
0
100
AcDbSpline
62
7
6
CONTINUOUS
70
0
71
3
72
10
73
6
74
4
42
0.0000001000
43
0.0000001000
44
0.0000000001
12
0.0001257120
22
-0.9748823030
32
0.0000000000
13
0.8566233982
23
-0.4283116991
33
0.0000000000
40
0.0000000000
40
0.0000000000
40
0.0000000000
40
0.0000000000
40
0.1631989049
40
0.5348935417
40
1.0000000000
40
1.0000000000
40
1.0000000000
40
1.0000000000
10
-367.1042391475
20
-108.6976310011
30
0.0000000000
10
-367.1042323089
20
-108.7506642425
30
0.0000000000
10
-367.0794064988
20
-108.9244856699
30
0.0000000000
10
-366.8810825266
20
-109.1931112281
30
0.0000000000
10
-366.6531326045
20
-109.3382918928
30
0.0000000000
10
-366.5203255795
20
-109.4046954053
30
0.0000000000
11
-367.1042391475
21
-108.6976310011
31
0.0000000000
11
-367.0815192300
21
-108.8539266739
31
0.0000000000
11
-366.8873772392
21
-109.1523122239
31
0.0000000000
11
-366.5203255795
21
-109.4046954053
31
0.0000000000
0
SPLINE
5
380
100
AcDbEntity
8
0
100
AcDbSpline
62
7
6
CONTINUOUS
70
0
71
3
72
11
73
7
74
5
42
0.0000001000
43
0.0000001000
44
0.0000000001
12
2.6264298138
22
-1.3132149069
32
0.0000000000
13
0.0000000000
23
-2.9364378009
33
0.0000000000
40
0.0000000000
40
0.0000000000
40
0.0000000000
40
0.0000000000
40
0.2296755894
40
0.4882147766
40
0.7532068921
40
1.0000000000
40
1.0000000000
40
1.0000000000
40
1.0000000000
10
-356.6208306429
20
-114.3544428736
30
0.0000000000
10
-356.4197550377
20
-114.4549806762
30
0.0000000000
10
-356.0355304454
20
-114.7555729644
30
0.0000000000
10
-355.5918564840
20
-115.3523526792
30
0.0000000000
10
-355.2899792903
20
-116.0502332349
30
0.0000000000
10
-355.2066170805
20
-116.5520362586
30
0.0000000000
10
-355.2066170805
20
-116.7936004623
30
0.0000000000
11
-356.6208306429
21
-114.3544428736
31
0.0000000000
11
-356.0796345428
21
-114.7568854408
31
0.0000000000
11
-355.6208306429
21
-115.3617488098
31
0.0000000000
11
-355.3142676780
21
-116.0769480155
31
0.0000000000
11
-355.2066170805
21
-116.7936004623
31
0.0000000000
0
SPLINE
5
381
100
AcDbEntity
8
0
100
AcDbSpline
62
7
6
CONTINUOUS
70
0
71
3
72
9
73
5
74
3
42
0.0000001000
43
0.0000001000
44
0.0000000001
12
0.0000000000
22
0.2367008792
32
0.0000000000
13
0.2131744153
23
0.1065872076
33
0.0000000000
40
0.0000000000
40
0.0000000000
40
0.0000000000
40
0.0000000000
40
0.4320096608
40
1.0000000000
40
1.0000000000
40
1.0000000000
40
1.0000000000
10
-367.0203255795
20
-111.1367462129
30
0.0000000000
10
-367.0203255795
20
-111.1026605240
30
0.0000000000
10
-366.9831153271
20
-111.0237602309
30
0.0000000000
10
-366.9142393063
20
-110.9801496856
30
0.0000000000
10
-366.8738789701
20
-110.9599695176
30
0.0000000000
11
-367.0203255795
21
-111.1367462129
31
0.0000000000
11
-366.9822653458
21
-111.0410753548
31
0.0000000000
11
-366.8738789701
21
-110.9599695176
31
0.0000000000
0
SPLINE
5
382
100
AcDbEntity
8
0
100
AcDbSpline
62
7
6
CONTINUOUS
70
0
71
3
72
14
73
10
74
8
42
0.0000001000
43
0.0000001000
44
0.0000000001
12
-3.4553798076
22
1.7276899038
32
0.0000000000
13
-0.0667723265
23
-3.9059127703
33
0.0000000000
40
0.0000000000
40
0.0000000000
40
0.0000000000
40
0.0000000000
40
0.1560454721
40
0.3312665119
40
0.5105493747
40
0.6778701013
40
0.8200111229
40
0.9314198950
40
1.0000000000
40
1.0000000000
40
1.0000000000
40
1.0000000000
10
-319.1441712400
20
-92.0805792662
30
0.0000000000
10
-319.3239033645
20
-91.9907132040
30
0.0000000000
10
-319.7334115922
20
-91.8556336655
30
0.0000000000
10
-320.3884496747
20
-91.7719522886
30
0.0000000000
10
-321.0629849626
20
-91.8001387335
30
0.0000000000
10
-321.6819794608
20
-91.9370852928
30
0.0000000000
10
-322.1762502625
20
-92.1684955646
30
0.0000000000
10
-322.4912804779
20
-92.4617017051
30
0.0000000000
10
-322.5552552758
20
-92.6990870669
30
0.0000000000
10
-322.5567816936
20
-92.7883763696
30
0.0000000000
11
-319.1441712400
21
-92.0805792662
31
0.0000000000
11
-319.7131482789
21
-91.8813782604
31
0.0000000000
11
-320.3840733169
21
-91.7914913493
31
0.0000000000
11
-321.0760228926
21
-91.8217602211
31
0.0000000000
11
-321.7055376751
21
-91.9685340031
31
0.0000000000
11
-322.1966888910
21
-92.2141096110
31
0.0000000000
11
-322.4902364550
21
-92.5288670023
31
0.0000000000
11
-322.5567816936
21
-92.7883763696
31
0.0000000000
0
SPLINE
5
383
100
AcDbEntity
8
0
100
AcDbSpline
62
7
6
CONTINUOUS
70
0
71
3
72
10
73
6
74
4
42
0.0000001000
43
0.0000001000
44
0.0000000001
12
0.0000000000
22
-0.9645276564
32
0.0000000000
13
0.8588211978
23
-0.4294105989
33
0.0000000000
40
0.0000000000
40
0.0000000000
40
0.0000000000
40
0.0000000000
40
0.2787367596
40
0.6049124378
40
1.0000000000
40
1.0000000000
40
1.0000000000
40
1.0000000000
10
-368.5203255795
20
-111.1367462129
30
0.0000000000
10
-368.5203255795
20
-111.2263626507
30
0.0000000000
10
-368.4637235801
20
-111.4208475760
30
0.0000000000
10
-368.2456949524
20
-111.6642629915
30
0.0000000000
10
-368.0476423330
20
-111.7873013985
30
0.0000000000
10
-367.9345391419
20
-111.8438529940
30
0.0000000000
11
-368.5203255795
21
-111.1367462129
31
0.0000000000
11
-368.4521772321
21
-111.3955652580
31
0.0000000000
11
-368.2523763871
21
-111.6367462129
31
0.0000000000
11
-367.9345391419
21
-111.8438529940
31
0.0000000000
0
SPLINE
5
384
100
AcDbEntity
8
0
100
AcDbSpline
62
7
6
CONTINUOUS
70
0
71
3
72
15
73
11
74
9
42
0.0000001000
43
0.0000001000
44
0.0000000001
12
-6.4345706621
22
6.8414256404
32
0.0000000000
13
-0.8374088247
23
-9.3545470687
33
0.0000000000
40
0.0000000000
40
0.0000000000
40
0.0000000000
40
0.0000000000
40
0.0911681124
40
0.1886680942
40
0.2978230799
40
0.4227887469
40
0.5621940001
40
0.7123368459
40
0.8649851652
40
1.0000000000
40
1.0000000000
40
1.0000000000
40
1.0000000000
10
-332.8630504511
20
-253.9096025210
30
0.0000000000
10
-333.0585930049
20
-253.7016959004
30
0.0000000000
10
-333.5755762344
20
-253.3644096316
30
0.0000000000
10
-334.5344853910
20
-253.2697647442
30
0.0000000000
10
-335.5428403987
20
-253.5927019148
30
0.0000000000
10
-336.5234698594
20
-254.2508163232
30
0.0000000000
10
-337.4122729926
20
-255.2092777118
30
0.0000000000
10
-338.1555913479
20
-256.3858121945
30
0.0000000000
10
-338.6755316520
20
-257.6608111497
30
0.0000000000
10
-338.8669688262
20
-258.5482156826
30
0.0000000000
10
-338.9046563642
20
-258.9692165583
30
0.0000000000
11
-332.8630504511
21
-253.9096025210
31
0.0000000000
11
-333.5793522101
21
-253.4404860437
31
0.0000000000
11
-334.4887235532
21
-253.3328830983
31
0.0000000000
11
-335.4736268218
21
-253.6174121398
31
0.0000000000
11
-336.4571410314
21
-254.2578848980
31
0.0000000000
11
-337.3581578841
21
-255.2078338792
31
0.0000000000
11
-338.1146486285
21
-256.3978766223
31
0.0000000000
11
-338.6541806149
21
-257.7261474976
31
0.0000000000
11
-338.9046563642
21
-258.9692165583
31
0.0000000000
0
SPLINE
5
385
100
AcDbEntity
8
0
100
AcDbSpline
62
7
6
CONTINUOUS
70
0
71
3
72
10
73
6
74
4
42
0.0000001000
43
0.0000001000
44
0.0000000001
12
-0.4005985415
22
1.1970768668
32
0.0000000000
13
-0.8063585524
23
0.9712147557
33
0.0000000000
40
0.0000000000
40
0.0000000000
40
0.0000000000
40
0.0000000000
40
0.3660687816
40
0.6988940954
40
1.0000000000
40
1.0000000000
40
1.0000000000
40
1.0000000000
10
-332.2788720762
20
-255.0215529395
30
0.0000000000
10
-332.3277542829
20
-254.8754821162
30
0.0000000000
10
-332.4338219447
20
-254.6005343528
30
0.0000000000
10
-332.6283198023
20
-254.2263869531
30
0.0000000000
10
-332.7821173439
20
-254.0070820202
30
0.0000000000
10
-332.8630504511
20
-253.9096025210
30
0.0000000000
11
-332.2788720762
21
-255.0215529395
31
0.0000000000
11
-332.4470607622
21
-254.5911485181
31
0.0000000000
11
-332.6428961000
21
-254.2194473968
31
0.0000000000
11
-332.8630504511
21
-253.9096025210
31
0.0000000000
0
SPLINE
5
386
100
AcDbEntity
8
0
100
AcDbSpline
62
7
6
CONTINUOUS
70
0
71
3
72
16
73
12
74
10
42
0.0000001000
43
0.0000001000
44
0.0000000001
12
0.3253848921
22
5.8351916083
32
0.0000000000
13
0.1065716245
23
-5.8432849427
33
0.0000000000
40
0.0000000000
40
0.0000000000
40
0.0000000000
40
0.0000000000
40
0.1144199019
40
0.2577117485
40
0.3960083663
40
0.5079783815
40
0.6142490485
40
0.7048500001
40
0.7871962527
40
0.8823423214
40
1.0000000000
40
1.0000000000
40
1.0000000000
40
1.0000000000
10
-337.1958323380
20
-258.7627619666
30
0.0000000000
10
-337.1834221689
20
-258.5402079495
30
0.0000000000
10
-337.0759018326
20
-258.0436437970
30
0.0000000000
10
-336.7655597483
20
-257.3341012087
30
0.0000000000
10
-336.3375769663
20
-256.6896340434
30
0.0000000000
10
-335.8091550558
20
-256.2261063685
30
0.0000000000
10
-335.2665663679
20
-255.9552247730
30
0.0000000000
10
-334.7054060684
20
-255.8746846192
30
0.0000000000
10
-334.2121946169
20
-256.1287996273
30
0.0000000000
10
-333.9102410813
20
-256.6444559239
30
0.0000000000
10
-333.8540673698
20
-257.0631566818
30
0.0000000000
10
-333.8498877132
20
-257.2923257957
30
0.0000000000
11
-337.1958323380
21
-258.7627619666
31
0.0000000000
11
-337.0693309511
21
-258.1061371693
31
0.0000000000
11
-336.7394934146
21
-257.3363947024
31
0.0000000000
11
-336.2787894398
21
-256.6723124351
31
0.0000000000
11
-335.7849241312
21
-256.2429964437
31
0.0000000000
11
-335.2245291173
21
-255.9752481069
31
0.0000000000
11
-334.6968874713
21
-255.9309820859
31
0.0000000000
11
-334.2669416896
21
-256.1472012503
31
0.0000000000
11
-333.9655633054
21
-256.6145037482
31
0.0000000000
11
-333.8498877132
21
-257.2923257957
31
0.0000000000
0
SPLINE
5
387
100
AcDbEntity
8
0
100
AcDbSpline
62
7
6
CONTINUOUS
70
0
71
3
72
10
73
6
74
4
42
0.0000001000
43
0.0000001000
44
0.0000000001
12
-1.1009377582
22
-2.7340395456
32
0.0000000000
13
-2.5199087199
23
-1.5287564318
33
0.0000000000
40
0.0000000000
40
0.0000000000
40
0.0000000000
40
0.0000000000
40
0.3081143167
40
0.6258666774
40
1.0000000000
40
1.0000000000
40
1.0000000000
40
1.0000000000
10
-329.9467493358
20
-159.8271819875
30
0.0000000000
10
-330.0598208975
20
-160.1079808963
30
0.0000000000
10
-330.3463460422
20
-160.6578830066
30
0.0000000000
10
-330.9817087161
20
-161.4167161427
30
0.0000000000
10
-331.5303262235
20
-161.8298349380
30
0.0000000000
10
-331.8445868308
20
-162.0204878457
30
0.0000000000
11
-329.9467493358
21
-159.8271819875
31
0.0000000000
11
-330.3688664247
21
-160.6312441807
31
0.0000000000
11
-330.9688802105
21
-161.3503294613
31
0.0000000000
11
-331.8445868308
21
-162.0204878457
31
0.0000000000
0
SPLINE
5
388
100
AcDbEntity
8
0
100
AcDbSpline
62
7
6
CONTINUOUS
70
0
71
3
72
10
73
6
74
4
42
0.0000001000
43
0.0000001000
44
0.0000000001
12
0.0000000000
22
-3.2965801868
32
0.0000000000
13
-1.2313757471
23
-3.0579657777
33
0.0000000000
40
0.0000000000
40
0.0000000000
40
0.0000000000
40
0.0000000000
40
0.3931156853
40
0.7212818418
40
1.0000000000
40
1.0000000000
40
1.0000000000
40
1.0000000000
10
-329.3963554525
20
-156.5950022859
30
0.0000000000
10
-329.3963554525
20
-157.0269814123
30
0.0000000000
10
-329.4362842546
20
-157.8207823445
30
0.0000000000
10
-329.6283976984
20
-158.9055947138
30
0.0000000000
10
-329.8323470757
20
-159.5430784577
30
0.0000000000
10
-329.9467493358
20
-159.8271819875
30
0.0000000000
11
-329.3963554525
21
-156.5950022859
31
0.0000000000
11
-329.4691805738
21
-157.8888918456
31
0.0000000000
11
-329.6634409248
21
-158.9531336026
31
0.0000000000
11
-329.9467493358
21
-159.8271819875
31
0.0000000000
0
SPLINE
5
389
100
AcDbEntity
8
0
100
AcDbSpline
62
7
6
CONTINUOUS
70
0
71
3
72
10
73
6
74
4
42
0.0000001000
43
0.0000001000
44
0.0000000001
12
1.3137700777
22
-2.1735509049
32
0.0000000000
13
0.0000000000
23
-2.5397471042
33
0.0000000000
40
0.0000000000
40
0.0000000000
40
0.0000000000
40
0.0000000000
40
0.2412673314
40
0.5643290238
40
1.0000000000
40
1.0000000000
40
1.0000000000
40
1.0000000000
10
-329.8732785181
20
-154.1259441562
30
0.0000000000
10
-329.7676219179
20
-154.3007464317
30
0.0000000000
10
-329.5834045704
20
-154.7474920468
30
0.0000000000
10
-329.4247575322
20
-155.5824896667
30
0.0000000000
10
-329.3963554525
20
-156.2261709192
30
0.0000000000
10
-329.3963554525
20
-156.5950022859
30
0.0000000000
11
-329.8732785181
21
-154.1259441562
31
0.0000000000
11
-329.6274124559
21
-154.6872125890
31
0.0000000000
11
-329.4592964001
21
-155.4902997781
31
0.0000000000
11
-329.3963554525
21
-156.5950022859
31
0.0000000000
0
SPLINE
5
38A
100
AcDbEntity
8
0
100
AcDbSpline
62
7
6
CONTINUOUS
70
0
71
3
72
10
73
6
74
4
42
0.0000001000
43
0.0000001000
44
0.0000000001
12
1.3755540327
22
0.6877770163
32
0.0000000000
13
0.7955391433
23
-1.3161700470
33
0.0000000000
40
0.0000000000
40
0.0000000000
40
0.0000000000
40
0.0000000000
40
0.3484760085
40
0.6359570114
40
1.0000000000
40
1.0000000000
40
1.0000000000
40
1.0000000000
10
-331.2037260868
20
-153.7629610326
30
0.0000000000
10
-331.0439435606
20
-153.6830697695
30
0.0000000000
10
-330.7241734577
20
-153.5679670153
30
0.0000000000
10
-330.1955225625
20
-153.6921532512
30
0.0000000000
10
-329.9698153339
20
-153.9662299971
30
0.0000000000
10
-329.8732785181
20
-154.1259441562
30
0.0000000000
11
-331.2037260868
21
-153.7629610326
31
0.0000000000
11
-330.6885711902
21
-153.6152008922
31
0.0000000000
11
-330.2591117523
21
-153.7202540772
31
0.0000000000
11
-329.8732785181
21
-154.1259441562
31
0.0000000000
0
SPLINE
5
38B
100
AcDbEntity
8
0
100
AcDbSpline
62
7
6
CONTINUOUS
70
0
71
3
72
10
73
6
74
4
42
0.0000001000
43
0.0000001000
44
0.0000000001
12
0.5561537255
22
0.8952795404
32
0.0000000000
13
0.9426907963
23
0.4713453982
33
0.0000000000
40
0.0000000000
40
0.0000000000
40
0.0000000000
40
0.0000000000
40
0.3660963603
40
0.6894343387
40
1.0000000000
40
1.0000000000
40
1.0000000000
40
1.0000000000
10
-331.9503562503
20
-154.4899330190
30
0.0000000000
10
-331.8824876321
20
-154.3806801585
30
0.0000000000
10
-331.7405052972
20
-154.1829901685
30
0.0000000000
10
-331.4893576328
20
-153.9349042586
30
0.0000000000
10
-331.3013152170
20
-153.8117555977
30
0.0000000000
10
-331.2037260868
20
-153.7629610326
30
0.0000000000
11
-331.9503562503
21
-154.4899330190
31
0.0000000000
11
-331.7229112826
21
-154.1782443630
31
0.0000000000
11
-331.4786466852
21
-153.9406112390
31
0.0000000000
11
-331.2037260868
21
-153.7629610326
31
0.0000000000
0
SPLINE
5
38C
100
AcDbEntity
8
0
100
AcDbSpline
62
7
6
CONTINUOUS
70
0
71
3
72
10
73
6
74
4
42
0.0000001000
43
0.0000001000
44
0.0000000001
12
0.2545237988
22
0.7053729606
32
0.0000000000
13
0.3957013285
23
0.6369880975
33
0.0000000000
40
0.0000000000
40
0.0000000000
40
0.0000000000
40
0.0000000000
40
0.3209336150
40
0.6506259768
40
1.0000000000
40
1.0000000000
40
1.0000000000
40
1.0000000000
10
-332.2788189869
20
-155.1626912174
30
0.0000000000
10
-332.2515905726
20
-155.0872319193
30
0.0000000000
10
-332.1908478322
20
-154.9361913010
30
0.0000000000
10
-332.0813031152
20
-154.7113055033
30
0.0000000000
10
-331.9964388387
20
-154.5641153837
30
0.0000000000
10
-331.9503562503
20
-154.4899330190
30
0.0000000000
11
-332.2788189869
21
-155.1626912174
31
0.0000000000
11
-332.1891034781
21
-154.9393740497
31
0.0000000000
11
-332.0809897189
21
-154.7170333287
31
0.0000000000
11
-331.9503562503
21
-154.4899330190
31
0.0000000000
0
SPLINE
5
38D
100
AcDbEntity
8
0
100
AcDbSpline
62
7
6
CONTINUOUS
70
0
71
3
72
10
73
6
74
4
42
0.0000001000
43
0.0000001000
44
0.0000000001
12
0.4929121062
22
3.8277910445
32
0.0000000000
13
1.3099386043
23
3.6302902746
33
0.0000000000
40
0.0000000000
40
0.0000000000
40
0.0000000000
40
0.0000000000
40
0.4776648677
40
0.7978554961
40
1.0000000000
40
1.0000000000
40
1.0000000000
40
1.0000000000
10
-332.9865786213
20
-158.9518745640
30
0.0000000000
10
-332.9080963560
20
-158.3424074630
30
0.0000000000
10
-332.7666014573
20
-157.3253240607
30
0.0000000000
10
-332.5345696060
20
-156.0601019232
30
0.0000000000
10
-332.3670846167
20
-155.4073056262
30
0.0000000000
10
-332.2788189869
20
-155.1626912174
30
0.0000000000
11
-332.9865786213
21
-158.9518745640
31
0.0000000000
11
-332.7230351954
21
-157.1273112242
31
0.0000000000
11
-332.4897861630
21
-155.9137811750
31
0.0000000000
11
-332.2788189869
21
-155.1626912174
31
0.0000000000
0
SPLINE
5
38E
100
AcDbEntity
8
0
100
AcDbSpline
62
7
6
CONTINUOUS
70
0
71
3
72
10
73
6
74
4
42
0.0000001000
43
0.0000001000
44
0.0000000001
12
1.6372920220
22
4.1952526320
32
0.0000000000
13
0.5751661221
23
4.4665483031
33
0.0000000000
40
0.0000000000
40
0.0000000000
40
0.0000000000
40
0.0000000000
40
0.2153058992
40
0.5369783077
40
1.0000000000
40
1.0000000000
40
1.0000000000
40
1.0000000000
10
-333.8805155763
20
-163.3578958758
30
0.0000000000
10
-333.7630093659
20
-163.0568083290
30
0.0000000000
10
-333.5386477815
20
-162.2800268217
30
0.0000000000
10
-333.2434492460
20
-160.8077972506
30
0.0000000000
10
-333.0753500851
20
-159.6412441486
30
0.0000000000
10
-332.9865786213
20
-158.9518745640
30
0.0000000000
11
-333.8805155763
21
-163.3578958758
31
0.0000000000
11
-333.5936760553
21
-162.4316799873
31
0.0000000000
11
-333.2958531910
21
-161.0139963872
31
0.0000000000
11
-332.9865786213
21
-158.9518745640
31
0.0000000000
0
SPLINE
5
38F
100
AcDbEntity
8
0
100
AcDbSpline
62
7
6
CONTINUOUS
70
0
71
3
72
10
73
6
74
4
42
0.0000001000
43
0.0000001000
44
0.0000000001
12
0.5071597489
22
0.8219243084
32
0.0000000000
13
0.3511318922
23
0.8997093830
33
0.0000000000
40
0.0000000000
40
0.0000000000
40
0.0000000000
40
0.0000000000
40
0.3484971286
40
0.6787406906
40
1.0000000000
40
1.0000000000
40
1.0000000000
40
1.0000000000
10
-334.3133837035
20
-164.2199343103
30
0.0000000000
10
-334.2544691315
20
-164.1244548898
30
0.0000000000
10
-334.1448524297
20
-163.9352550084
30
0.0000000000
10
-334.0004632223
20
-163.6473149907
30
0.0000000000
10
-333.9181170394
20
-163.4542425474
30
0.0000000000
10
-333.8805155763
20
-163.3578958758
30
0.0000000000
11
-334.3133837035
21
-164.2199343103
31
0.0000000000
11
-334.1449662119
21
-163.9285226302
31
0.0000000000
11
-334.0021783365
21
-163.6433203549
31
0.0000000000
11
-333.8805155763
21
-163.3578958758
31
0.0000000000
0
SPLINE
5
390
100
AcDbEntity
8
0
100
AcDbSpline
62
7
6
CONTINUOUS
70
0
71
3
72
10
73
6
74
4
42
0.0000001000
43
0.0000001000
44
0.0000000001
12
1.9202501910
22
0.9601250955
32
0.0000000000
13
1.1273796256
23
1.8270785903
33
0.0000000000
40
0.0000000000
40
0.0000000000
40
0.0000000000
40
0.0000000000
40
0.3462838301
40
0.6696406415
40
1.0000000000
40
1.0000000000
40
1.0000000000
40
1.0000000000
10
-335.8625661233
20
-165.6698106047
30
0.0000000000
10
-335.6409155930
20
-165.5589853395
30
0.0000000000
10
-335.2327518040
20
-165.3000746740
30
0.0000000000
10
-334.7139365664
20
-164.8017075633
30
0.0000000000
10
-334.4375305068
20
-164.4211318140
30
0.0000000000
10
-334.3133837035
20
-164.2199343103
30
0.0000000000
11
-335.8625661233
21
-165.6698106047
31
0.0000000000
11
-335.2350208533
21
-165.2712033960
31
0.0000000000
11
-334.7329232612
21
-164.7917929797
31
0.0000000000
11
-334.3133837035
21
-164.2199343103
31
0.0000000000
0
SPLINE
5
391
100
AcDbEntity
8
0
100
AcDbSpline
62
7
6
CONTINUOUS
70
0
71
3
72
11
73
7
74
5
42
0.0000001000
43
0.0000001000
44
0.0000000001
12
1.6739898480
22
-1.9532908852
32
0.0000000000
13
2.3008845766
23
1.1504422883
33
0.0000000000
40
0.0000000000
40
0.0000000000
40
0.0000000000
40
0.0000000000
40
0.2528491110
40
0.4714537948
40
0.7049868643
40
1.0000000000
40
1.0000000000
40
1.0000000000
40
1.0000000000
10
-338.2099879169
20
-165.3725130689
30
0.0000000000
10
-338.0688989686
20
-165.5371423568
30
0.0000000000
10
-337.7572261373
20
-165.8117354725
30
0.0000000000
10
-337.1665827094
20
-166.0020430246
30
0.0000000000
10
-336.5154555322
20
-165.9510713579
30
0.0000000000
10
-336.0888298479
20
-165.7829424670
30
0.0000000000
10
-335.8625661233
20
-165.6698106047
30
0.0000000000
11
-338.2099879169
21
-165.3725130689
31
0.0000000000
11
-337.7106231217
21
-165.7893041979
31
0.0000000000
11
-337.1755308675
21
-165.9622712250
31
0.0000000000
11
-336.5756701788
21
-165.9294823748
31
0.0000000000
11
-335.8625661233
21
-165.6698106047
31
0.0000000000
0
SPLINE
5
392
100
AcDbEntity
8
0
100
AcDbSpline
62
7
6
CONTINUOUS
70
0
71
3
72
10
73
6
74
4
42
0.0000001000
43
0.0000001000
44
0.0000000001
12
0.0000000000
22
-3.8202070318
32
0.0000000000
13
2.4859356365
23
-2.9007078063
33
0.0000000000
40
0.0000000000
40
0.0000000000
40
0.0000000000
40
0.0000000000
40
0.4515083790
40
0.7685392484
40
1.0000000000
40
1.0000000000
40
1.0000000000
40
1.0000000000
10
-339.1028718921
20
-161.7234131643
30
0.0000000000
10
-339.1028718921
20
-162.2983649925
30
0.0000000000
10
-339.0504150768
20
-163.2803549022
30
0.0000000000
10
-338.7487749408
20
-164.5266378889
30
0.0000000000
10
-338.4017867605
20
-165.1487130659
30
0.0000000000
10
-338.2099879169
20
-165.3725130689
30
0.0000000000
11
-339.1028718921
21
-161.7234131643
31
0.0000000000
11
-338.9793294840
21
-163.4438386105
31
0.0000000000
11
-338.6623125464
21
-164.6127357534
31
0.0000000000
11
-338.2099879169
21
-165.3725130689
31
0.0000000000
0
SPLINE
5
393
100
AcDbEntity
8
0
100
AcDbSpline
62
7
6
CONTINUOUS
70
0
71
3
72
10
73
6
74
4
42
0.0000001000
43
0.0000001000
44
0.0000000001
12
-0.7471642838
22
-3.0766029254
32
0.0000000000
13
0.0000000000
23
-3.1660290630
33
0.0000000000
40
0.0000000000
40
0.0000000000
40
0.0000000000
40
0.0000000000
40
0.2982413279
40
0.6302174768
40
1.0000000000
40
1.0000000000
40
1.0000000000
40
1.0000000000
10
-338.7469454512
20
-158.5841002754
30
0.0000000000
10
-338.8212238739
20
-158.8899569893
30
0.0000000000
10
-338.9512072288
20
-159.5430756672
30
0.0000000000
10
-339.0747881281
20
-160.5921561218
30
0.0000000000
10
-339.1028718921
20
-161.3331657592
30
0.0000000000
10
-339.1028718921
20
-161.7234131643
30
0.0000000000
11
-338.7469454512
21
-158.5841002754
31
0.0000000000
11
-338.9325813593
21
-159.5099133404
31
0.0000000000
11
-339.0569929663
21
-160.5535702437
31
0.0000000000
11
-339.1028718921
21
-161.7234131643
31
0.0000000000
0
SPLINE
5
394
100
AcDbEntity
8
0
100
AcDbSpline
62
7
6
CONTINUOUS
70
0
71
3
72
10
73
6
74
4
42
0.0000001000
43
0.0000001000
44
0.0000000001
12
-1.5303570924
22
-2.3528197248
32
0.0000000000
13
-0.6623726619
23
-2.7274559473
33
0.0000000000
40
0.0000000000
40
0.0000000000
40
0.0000000000
40
0.0000000000
40
0.3070493042
40
0.6337408990
40
1.0000000000
40
1.0000000000
40
1.0000000000
40
1.0000000000
10
-337.6627362056
20
-156.0082661082
30
0.0000000000
10
-337.8193678990
20
-156.2490766613
30
0.0000000000
10
-338.1134449501
20
-156.7657344217
30
0.0000000000
10
-338.4805779639
20
-157.6282302854
30
0.0000000000
10
-338.6660787793
20
-158.2511150876
30
0.0000000000
10
-338.7469454512
20
-158.5841002754
30
0.0000000000
11
-337.6627362056
21
-156.0082661082
31
0.0000000000
11
-338.0899147329
21
-156.7567495047
31
0.0000000000
11
-338.4507364143
21
-157.5997084879
31
0.0000000000
11
-338.7469454512
21
-158.5841002754
31
0.0000000000
0
SPLINE
5
395
100
AcDbEntity
8
0
100
AcDbSpline
62
7
6
CONTINUOUS
70
0
71
3
72
10
73
6
74
4
42
0.0000001000
43
0.0000001000
44
0.0000000001
12
-2.4232104327
22
-1.4451365679
32
0.0000000000
13
-1.5383606892
23
-2.3651247094
33
0.0000000000
40
0.0000000000
40
0.0000000000
40
0.0000000000
40
0.0000000000
40
0.3818401315
40
0.7080149518
40
1.0000000000
40
1.0000000000
40
1.0000000000
40
1.0000000000
10
-335.6177430882
20
-154.0968152350
30
0.0000000000
10
-335.9261694183
20
-154.2807522807
30
0.0000000000
10
-336.4761101695
20
-154.6617464521
30
0.0000000000
10
-337.1584193958
20
-155.3141024140
30
0.0000000000
10
-337.5130100989
20
-155.7780724242
30
0.0000000000
10
-337.6627362056
20
-156.0082661082
30
0.0000000000
11
-335.6177430882
21
-154.0968152350
31
0.0000000000
11
-336.4999020557
21
-154.7152263418
31
0.0000000000
11
-337.1630416626
21
-155.3533090741
31
0.0000000000
11
-337.6627362056
21
-156.0082661082
31
0.0000000000
0
SPLINE
5
396
100
AcDbEntity
8
0
100
AcDbSpline
62
7
6
CONTINUOUS
70
0
71
3
72
10
73
6
74
4
42
0.0000001000
43
0.0000001000
44
0.0000000001
12
0.9750380703
22
2.3874599260
32
0.0000000000
13
2.1625564623
23
1.4049959730
33
0.0000000000
40
0.0000000000
40
0.0000000000
40
0.0000000000
40
0.0000000000
40
0.3017401433
40
0.6208972856
40
1.0000000000
40
1.0000000000
40
1.0000000000
40
1.0000000000
10
-337.2644083123
20
-158.2456976322
30
0.0000000000
10
-337.1663389366
20
-158.0055667989
30
0.0000000000
10
-336.9165651537
20
-157.5292240294
30
0.0000000000
10
-336.3663798786
20
-156.8613520728
30
0.0000000000
10
-335.8910200965
20
-156.4861644596
30
0.0000000000
10
-335.6177430882
20
-156.3086185305
30
0.0000000000
11
-337.2644083123
21
-158.2456976322
31
0.0000000000
11
-336.9018829303
21
-157.5571490692
31
0.0000000000
11
-336.3803103799
21
-156.9204330836
31
0.0000000000
11
-335.6177430882
21
-156.3086185305
31
0.0000000000
0
SPLINE
5
397
100
AcDbEntity
8
0
100
AcDbSpline
62
7
6
CONTINUOUS
70
0
71
3
72
10
73
6
74
4
42
0.0000001000
43
0.0000001000
44
0.0000000001
12
0.0000000000
22
2.9106431289
32
0.0000000000
13
1.1004695375
23
2.6945890634
33
0.0000000000
40
0.0000000000
40
0.0000000000
40
0.0000000000
40
0.0000000000
40
0.3996018253
40
0.7273951593
40
1.0000000000
40
1.0000000000
40
1.0000000000
40
1.0000000000
10
-337.7491444100
20
-161.0994637356
30
0.0000000000
10
-337.7491444100
20
-160.7117642999
30
0.0000000000
10
-337.7134603592
20
-160.0049350127
30
0.0000000000
10
-337.5434968454
20
-159.0471861464
30
0.0000000000
10
-337.3644060866
20
-158.4905503064
30
0.0000000000
10
-337.2644083123
20
-158.2456976322
30
0.0000000000
11
-337.7491444100
21
-161.0994637356
31
0.0000000000
11
-337.6833956609
21
-159.9382252700
31
0.0000000000
11
-337.5111518480
21
-158.9998124177
31
0.0000000000
11
-337.2644083123
21
-158.2456976322
31
0.0000000000
0
SPLINE
5
398
100
AcDbEntity
8
0
100
AcDbSpline
62
7
6
CONTINUOUS
70
0
71
3
72
10
73
6
74
4
42
0.0000001000
43
0.0000001000
44
0.0000000001
12
-1.2613712413
22
1.8556255675
32
0.0000000000
13
0.0000000000
23
2.2437476808
33
0.0000000000
40
0.0000000000
40
0.0000000000
40
0.0000000000
40
0.0000000000
40
0.2399287781
40
0.5625202900
40
1.0000000000
40
1.0000000000
40
1.0000000000
40
1.0000000000
10
-337.2859820898
20
-163.2676507524
30
0.0000000000
10
-337.3868618433
20
-163.1192447607
30
0.0000000000
10
-337.5650752822
20
-162.7318259552
30
0.0000000000
10
-337.7207035261
20
-161.9965981761
30
0.0000000000
10
-337.7491444100
20
-161.4266617638
30
0.0000000000
10
-337.7491444100
20
-161.0994637356
30
0.0000000000
11
-337.2859820898
21
-163.2676507524
31
0.0000000000
11
-337.5223918234
21
-162.7839979790
31
0.0000000000
11
-337.6866389985
21
-162.0790657062
31
0.0000000000
11
-337.7491444100
21
-161.0994637356
31
0.0000000000
0
SPLINE
5
399
100
AcDbEntity
8
0
100
AcDbSpline
62
7
6
CONTINUOUS
70
0
71
3
72
10
73
6
74
4
42
0.0000001000
43
0.0000001000
44
0.0000000001
12
-1.2722945402
22
-0.6361472701
32
0.0000000000
13
-0.7996714261
23
1.1764107942
33
0.0000000000
40
0.0000000000
40
0.0000000000
40
0.0000000000
40
0.0000000000
40
0.3636926959
40
0.6531626478
40
1.0000000000
40
1.0000000000
40
1.0000000000
40
1.0000000000
10
-336.0281817430
20
-163.5408143060
30
0.0000000000
10
-336.1824231535
20
-163.6179350113
30
0.0000000000
10
-336.4834623007
20
-163.7295440809
30
0.0000000000
10
-336.9749419260
20
-163.6372722569
30
0.0000000000
10
-337.1935301164
20
-163.4036584874
30
0.0000000000
10
-337.2859820898
20
-163.2676507524
30
0.0000000000
11
-336.0281817430
21
-163.5408143060
31
0.0000000000
11
-336.5238649533
21
-163.6889368833
31
0.0000000000
11
-336.9272635938
21
-163.6063693418
31
0.0000000000
11
-337.2859820898
21
-163.2676507524
31
0.0000000000
0
SPLINE
5
39A
100
AcDbEntity
8
0
100
AcDbSpline
62
7
6
CONTINUOUS
70
0
71
3
72
10
73
6
74
4
42
0.0000001000
43
0.0000001000
44
0.0000000001
12
-0.5296884680
22
-0.8037912377
32
0.0000000000
13
-0.8609995247
23
-0.4304997624
33
0.0000000000
40
0.0000000000
40
0.0000000000
40
0.0000000000
40
0.0000000000
40
0.3205762816
40
0.6461805824
40
1.0000000000
40
1.0000000000
40
1.0000000000
40
1.0000000000
10
-335.3153143727
20
-162.9092279622
30
0.0000000000
10
-335.3719162259
20
-162.9951200976
30
0.0000000000
10
-335.4997359360
20
-163.1598152286
30
0.0000000000
10
-335.7392331489
20
-163.3758212573
30
0.0000000000
10
-335.9266356262
20
-163.4900412476
30
0.0000000000
10
-336.0281817430
20
-163.5408143060
30
0.0000000000
11
-335.3153143727
21
-162.9092279622
31
0.0000000000
11
-335.5053716388
21
-163.1523519922
31
0.0000000000
11
-335.7381444410
21
-163.3622533385
31
0.0000000000
11
-336.0281817430
21
-163.5408143060
31
0.0000000000
0
SPLINE
5
39B
100
AcDbEntity
8
0
100
AcDbSpline
62
7
6
CONTINUOUS
70
0
71
3
72
10
73
6
74
4
42
0.0000001000
43
0.0000001000
44
0.0000000001
12
-0.4976877852
22
-4.0001302494
32
0.0000000000
13
-1.5331583958
23
-3.7280236691
33
0.0000000000
40
0.0000000000
40
0.0000000000
40
0.0000000000
40
0.0000000000
40
0.4939439990
40
0.8113052204
40
1.0000000000
40
1.0000000000
40
1.0000000000
40
1.0000000000
10
-334.3297585329
20
-158.5343361884
30
0.0000000000
10
-334.4117018312
20
-159.1929496324
30
0.0000000000
10
-334.5593407080
20
-160.2738642033
30
0.0000000000
10
-334.8087166862
20
-161.5935879401
30
0.0000000000
10
-334.9884599206
20
-162.2526299720
30
0.0000000000
10
-335.0848929158
20
-162.4871161735
30
0.0000000000
11
-334.3297585329
21
-158.5343361884
31
0.0000000000
11
-334.6117433476
21
-160.5053414951
31
0.0000000000
11
-334.8618616148
21
-161.7599264114
31
0.0000000000
11
-335.0848929158
21
-162.4871161735
31
0.0000000000
0
SPLINE
5
39C
100
AcDbEntity
8
0
100
AcDbSpline
62
7
6
CONTINUOUS
70
0
71
3
72
10
73
6
74
4
42
0.0000001000
43
0.0000001000
44
0.0000000001
12
-1.5755848224
22
-4.1590725883
32
0.0000000000
13
-0.5491161459
23
-4.4134820478
33
0.0000000000
40
0.0000000000
40
0.0000000000
40
0.0000000000
40
0.0000000000
40
0.2221100791
40
0.5445411491
40
1.0000000000
40
1.0000000000
40
1.0000000000
40
1.0000000000
10
-333.4574403475
20
-154.1808707945
30
0.0000000000
10
-333.5740914374
20
-154.4887947751
30
0.0000000000
10
-333.7969914024
20
-155.2669676194
30
0.0000000000
10
-334.0856053628
20
-156.7216811844
30
0.0000000000
10
-334.2463919300
20
-157.8642830344
30
0.0000000000
10
-334.3297585329
20
-158.5343361884
30
0.0000000000
11
-333.4574403475
21
-154.1808707945
31
0.0000000000
11
-333.7449896718
21
-155.1259301985
31
0.0000000000
11
-334.0362636601
21
-156.5300528409
31
0.0000000000
11
-334.3297585329
21
-158.5343361884
31
0.0000000000
0
SPLINE
5
39D
100
AcDbEntity
8
0
100
AcDbSpline
62
7
6
CONTINUOUS
70
0
71
3
72
10
73
6
74
4
42
0.0000001000
43
0.0000001000
44
0.0000000001
12
-0.6675755193
22
-1.0609801971
32
0.0000000000
13
-0.4440780575
23
-1.1722332240
33
0.0000000000
40
0.0000000000
40
0.0000000000
40
0.0000000000
40
0.0000000000
40
0.3278237778
40
0.6571213434
40
1.0000000000
40
1.0000000000
40
1.0000000000
40
1.0000000000
10
-332.9013308131
20
-153.0595336364
30
0.0000000000
10
-332.9742798560
20
-153.1754718152
30
0.0000000000
10
-333.1127992982
20
-153.4128303745
30
0.0000000000
10
-333.2987538764
20
-153.7873283020
30
0.0000000000
10
-333.4066853850
20
-154.0468928768
30
0.0000000000
10
-333.4574403475
20
-154.1808707945
30
0.0000000000
11
-332.9013308131
21
-153.0595336364
31
0.0000000000
11
-333.1084257336
21
-153.4144712525
31
0.0000000000
11
-333.2921333580
21
-153.7841228429
31
0.0000000000
11
-333.4574403475
21
-154.1808707945
31
0.0000000000
0
SPLINE
5
39E
100
AcDbEntity
8
0
100
AcDbSpline
62
7
6
CONTINUOUS
70
0
71
3
72
10
73
6
74
4
42
0.0000001000
43
0.0000001000
44
0.0000000001
12
-1.9070129030
22
-0.9535064515
32
0.0000000000
13
-1.1354669632
23
-1.8046017680
33
0.0000000000
40
0.0000000000
40
0.0000000000
40
0.0000000000
40
0.0000000000
40
0.3476763884
40
0.6719089329
40
1.0000000000
40
1.0000000000
40
1.0000000000
40
1.0000000000
10
-331.3549404445
20
-151.6267639868
30
0.0000000000
10
-331.5759482308
20
-151.7372678800
30
0.0000000000
10
-331.9826986502
20
-151.9950165781
30
0.0000000000
10
-332.5001072114
20
-152.4874228103
30
0.0000000000
10
-332.7771519572
20
-152.8621757299
30
0.0000000000
10
-332.9013308131
20
-153.0595336364
30
0.0000000000
11
-331.3549404445
21
-151.6267639868
31
0.0000000000
11
-331.9810669857
21
-152.0235832433
31
0.0000000000
11
-332.4831708314
21
-152.4987511354
31
0.0000000000
11
-332.9013308131
21
-153.0595336364
31
0.0000000000
0
SPLINE
5
39F
100
AcDbEntity
8
0
100
AcDbSpline
62
7
6
CONTINUOUS
70
0
71
3
72
11
73
7
74
5
42
0.0000001000
43
0.0000001000
44
0.0000000001
12
-1.6995142622
22
2.0131786632
32
0.0000000000
13
-2.3564782295
23
-1.1782391147
33
0.0000000000
40
0.0000000000
40
0.0000000000
40
0.0000000000
40
0.0000000000
40
0.2629992620
40
0.4852274885
40
0.7157647297
40
1.0000000000
40
1.0000000000
40
1.0000000000
40
1.0000000000
10
-328.9622677955
20
-151.9834819911
30
0.0000000000
10
-329.1112581278
20
-151.8069938235
30
0.0000000000
10
-329.4355482496
20
-151.5134685612
30
0.0000000000
10
-330.0463398052
20
-151.3048752399
30
0.0000000000
10
-330.7052368736
20
-151.3488496151
30
0.0000000000
10
-331.1316757024
20
-151.5151316158
30
0.0000000000
10
-331.3549404445
20
-151.6267639868
30
0.0000000000
11
-328.9622677955
21
-151.9834819911
31
0.0000000000
11
-329.4891703030
21
-151.5334936810
31
0.0000000000
11
-330.0436869592
21
-151.3455922709
31
0.0000000000
11
-330.6504543346
21
-151.3728354477
31
0.0000000000
11
-331.3549404445
21
-151.6267639868
31
0.0000000000
0
SPLINE
5
3A0
100
AcDbEntity
8
0
100
AcDbSpline
62
7
6
CONTINUOUS
70
0
71
3
72
10
73
6
74
4
42
0.0000001000
43
0.0000001000
44
0.0000000001
12
0.0000000000
22
4.0546733059
32
0.0000000000
13
-2.6155452809
23
3.0982734710
33
0.0000000000
40
0.0000000000
40
0.0000000000
40
0.0000000000
40
0.0000000000
40
0.4539060144
40
0.7708454781
40
1.0000000000
40
1.0000000000
40
1.0000000000
40
1.0000000000
10
-328.0426276346
20
-155.8652245292
30
0.0000000000
10
-328.0426276346
20
-155.2517443291
30
0.0000000000
10
-328.0946301475
20
-154.2066449019
30
0.0000000000
10
-328.4022248610
20
-152.8812223455
30
0.0000000000
10
-328.7624797860
20
-152.2201431164
30
0.0000000000
10
-328.9622677955
20
-151.9834819911
30
0.0000000000
11
-328.0426276346
21
-155.8652245292
31
0.0000000000
11
-328.1680526181
21
-154.0290627236
31
0.0000000000
11
-328.4939935389
21
-152.7859985662
31
0.0000000000
11
-328.9622677955
21
-151.9834819911
31
0.0000000000
0
SPLINE
5
3A1
100
AcDbEntity
8
0
100
AcDbSpline
62
7
6
CONTINUOUS
70
0
71
3
72
13
73
9
74
7
42
0.0000001000
43
0.0000001000
44
0.0000000001
12
8.4627267095
22
4.6553728437
32
0.0000000000
13
0.0000000000
23
9.6586872645
33
0.0000000000
40
0.0000000000
40
0.0000000000
40
0.0000000000
40
0.0000000000
40
0.1462204346
40
0.2773734514
40
0.4099956617
40
0.5626987341
40
0.7537529923
40
1.0000000000
40
1.0000000000
40
1.0000000000
40
1.0000000000
10
-331.8445868308
20
-164.2322919542
30
0.0000000000
10
-331.4321123050
20
-164.0053884074
30
0.0000000000
10
-330.6917218539
20
-163.4906900711
30
0.0000000000
10
-329.7883007948
20
-162.5167089238
30
0.0000000000
10
-329.0788866925
20
-161.3700024373
30
0.0000000000
10
-328.5146677392
20
-159.9356991159
30
0.0000000000
10
-328.1220843745
20
-158.0691685756
30
0.0000000000
10
-328.0426276346
20
-156.6580321416
30
0.0000000000
10
-328.0426276346
20
-155.8652245292
30
0.0000000000
11
-331.8445868308
21
-164.2322919542
31
0.0000000000
11
-330.6874073127
21
-163.4226502746
31
0.0000000000
11
-329.8241519530
21
-162.4955654811
31
0.0000000000
11
-329.1450834699
21
-161.4094184230
31
0.0000000000
11
-328.5952959440
21
-160.0408071623
31
0.0000000000
11
-328.1991831564
21
-158.2384892768
31
0.0000000000
11
-328.0426276346
21
-155.8652245292
31
0.0000000000
0
ENDSEC
0
SECTION
2
OBJECTS
0
DICTIONARY
5
3A2
100
AcDbDictionary
3
ACAD_GROUP
350
3A3
3
ACAD_MLINESTYLE
350
3A4
0
DICTIONARY
5
3A3
102
{ACAD_REACTORS
330
3A2
102
}
100
AcDbDictionary
0
DICTIONARY
5
3A4
102
{ACAD_REACTORS
330
3A2
102
}
100
AcDbDictionary
3
STANDARD
350
3A5
0
MLINESTYLE
5
3A5
102
{ACAD_REACTORS
330
3A4
102
}
100
AcDbMlineStyle
2
STANDARD
70
0
3

62
256
51
90.0
52
90.0
71
2
49
0.5
62
256
6
BYLAYER
49
-0.5
62
256
6
BYLAYER
0
ENDSEC
0
EOF
