0
SECTION
2
HEADER
9
$ACADVER
1
AC1014
9
$HANDSEED
5
       3AF
9
$EXTMAX
10
297.0000000000
20
210.0000000000
9
$EXTMIN
10
0.0000000000
20
0.0000000000
9
$LIMMIN
10
0.0000000000
20
0.0000000000
9
$LIMMAX
10
297.0000000000
20
210.0000000000
9
$VIEWCTR
10
148.5000000000
20
105.0000000000
9
$VIEWSIZE
40
210.0000000000
9
$CLAYER
8
0
9
$LTSCALE
40
16.3350000000
9
$CELTYPE
6
BYLAYER
9
$DIMSCALE
40
1
9
$DIMASZ
40
3.0000000000
9
$DIMEXO
40
1.8562500000
9
$DIMDLI
40
11.2860000000
9
$DIMEXE
40
5.3460000000
9
$DIMCEN
40
2.6730000000
9
$DIMLFAC
40
1.0000000000
9
$DIMTXT
40
3.0000000000
9
$DIMTOL
70
1
9
$DIMLIM
70
0
9
$DIMTFAC
40
1.0000000000
9
$DIMTP
40
0.0100000000
9
$DIMTM
40
0.0100000000
9
$MEASUREMENT
70
1
0
ENDSEC
0
SECTION
2
CLASSES
0
ENDSEC
0
SECTION
2
TABLES
0
TABLE
2
VPORT
5
8
100
AcDbSymbolTable
70
2
0
VPORT
5
1F4
100
AcDbSymbolTableRecord
100
AcDbViewportTableRecord
2
*ACTIVE
70
0
10
0.0
20
0.0
11
1.0
21
1.0
12
148.5000000000
22
105.0000000000
13
0.0
23
0.0
14
1.0
24
1.0
15
0.0
25
0.0
16
0.0
26
0.0
36
1.0
17
0.0
27
0.0
37
0.0
40
210.0000000000
41
1.4142857143
42
50.0
43
0.0
44
0.0
50
0.0
51
0.0
71
0
72
100
73
1
74
1
75
0
76
0
77
0
78
0
0
ENDTAB
0
TABLE
2
LTYPE
5
5
100
AcDbSymbolTable
70
6
0
LTYPE
5
14
100
AcDbSymbolTableRecord
100
AcDbLinetypeTableRecord
2
BYBLOCK
70
0
3

72
65
73
0
40
0.0
0
LTYPE
5
15
100
AcDbSymbolTableRecord
100
AcDbLinetypeTableRecord
2
BYLAYER
70
0
3

72
65
73
0
40
0.0
0
LTYPE
5
16
100
AcDbSymbolTableRecord
100
AcDbLinetypeTableRecord
2
CONTINUOUS
70
64
3
Solid line
72
65
73
0
40
0
0
LTYPE
5
1F5
100
AcDbSymbolTableRecord
100
AcDbLinetypeTableRecord
2
CENTER
70
64
3
____ _ ____ _ ____ _ ____ _ ____ _ ____ _ ____
72
65
73
4
40
0.6
49
0.375
74
0
49
-0.075
74
0
49
0.075
74
0
49
-0.075
74
0
0
LTYPE
5
1F6
100
AcDbSymbolTableRecord
100
AcDbLinetypeTableRecord
2
HIDDEN
70
64
3
- - - - - - - - - - - - - - - - - - - -
72
65
73
2
40
0.2
49
0.1
74
0
49
-0.1
74
0
0
LTYPE
5
1F7
100
AcDbSymbolTableRecord
100
AcDbLinetypeTableRecord
2
PHANTOM
70
64
3
_____ _ _ _____ _ _ _____ _ _ _____
72
65
73
6
40
0.8
49
0.45
74
0
49
-0.05
74
0
49
0.1
74
0
49
-0.05
74
0
49
0.1
74
0
49
-0.05
74
0
0
LTYPE
5
1F8
100
AcDbSymbolTableRecord
100
AcDbLinetypeTableRecord
2
DOT
70
64
3
. . . . . . . . . . . . . . . . . . . .
72
65
73
2
40
0.2
49
0.1
74
0
49
-0.1
74
0
0
LTYPE
5
1F9
100
AcDbSymbolTableRecord
100
AcDbLinetypeTableRecord
2
DASHED
70
64
3
- - - - - - - - - - - - - - - - - - - -
72
65
73
2
40
0.2
49
0.1
74
0
49
-0.1
74
0
0
ENDTAB
0
TABLE
2
LAYER
5
2
100
AcDbSymbolTable
70
36
0
LAYER
5
10
100
AcDbSymbolTableRecord
100
AcDbLayerTableRecord
2
0
70
0
62
7
6
CONTINUOUS
0
LAYER
5
1FA
100
AcDbSymbolTableRecord
100
AcDbLayerTableRecord
2
DEFAULT_1
70
0
62
7
6
CENTER
0
LAYER
5
1FB
100
AcDbSymbolTableRecord
100
AcDbLayerTableRecord
2
DEFAULT_2
70
0
62
8
6
HIDDEN
0
LAYER
5
1FC
100
AcDbSymbolTableRecord
100
AcDbLayerTableRecord
2
DEFAULT_3
70
0
62
7
6
PHANTOM
0
LAYER
5
1FD
100
AcDbSymbolTableRecord
100
AcDbLayerTableRecord
2
ASSI
70
0
62
7
6
CONTINUOUS
0
LAYER
5
1FE
100
AcDbSymbolTableRecord
100
AcDbLayerTableRecord
2
COORDINATE
70
0
62
7
6
CONTINUOUS
0
LAYER
5
1FF
100
AcDbSymbolTableRecord
100
AcDbLayerTableRecord
2
COORD_ORIGINE
70
0
62
7
6
CONTINUOUS
0
LAYER
5
200
100
AcDbSymbolTableRecord
100
AcDbLayerTableRecord
2
CURVE
70
0
62
7
6
CONTINUOUS
0
LAYER
5
201
100
AcDbSymbolTableRecord
100
AcDbLayerTableRecord
2
DRAFT
70
0
62
7
6
CONTINUOUS
0
LAYER
5
202
100
AcDbSymbolTableRecord
100
AcDbLayerTableRecord
2
IGES
70
0
62
7
6
CONTINUOUS
0
LAYER
5
203
100
AcDbSymbolTableRecord
100
AcDbLayerTableRecord
2
NOTE
70
0
62
7
6
CONTINUOUS
0
LAYER
5
204
100
AcDbSymbolTableRecord
100
AcDbLayerTableRecord
2
PIANI
70
0
62
7
6
CONTINUOUS
0
LAYER
5
205
100
AcDbSymbolTableRecord
100
AcDbLayerTableRecord
2
PIANI_ORIGINE
70
0
62
7
6
CONTINUOUS
0
LAYER
5
206
100
AcDbSymbolTableRecord
100
AcDbLayerTableRecord
2
PUNTI
70
0
62
7
6
CONTINUOUS
0
LAYER
5
207
100
AcDbSymbolTableRecord
100
AcDbLayerTableRecord
2
RACCORDO
70
0
62
7
6
CONTINUOUS
0
LAYER
5
208
100
AcDbSymbolTableRecord
100
AcDbLayerTableRecord
2
SMUSSO
70
0
62
7
6
CONTINUOUS
0
LAYER
5
209
100
AcDbSymbolTableRecord
100
AcDbLayerTableRecord
2
SNAPLINE
70
0
62
7
6
CONTINUOUS
0
LAYER
5
20A
100
AcDbSymbolTableRecord
100
AcDbLayerTableRecord
2
SUPERFICI
70
0
62
7
6
CONTINUOUS
0
LAYER
5
20B
100
AcDbSymbolTableRecord
100
AcDbLayerTableRecord
2
TRASH
70
0
62
7
6
CONTINUOUS
0
ENDTAB
0
TABLE
2
STYLE
5
3
100
AcDbSymbolTable
70
1
0
STYLE
5
11
100
AcDbSymbolTableRecord
100
AcDbTextStyleTableRecord
2
STANDARD
70
0
40
0.0
41
0.8000000000
50
0.0
71
0
42
0.2
3
txt
4

0
ENDTAB
0
TABLE
2
VIEW
5
6
100
AcDbSymbolTable
70
0
0
ENDTAB
0
TABLE
2
UCS
5
7
100
AcDbSymbolTable
70
0
0
ENDTAB
0
TABLE
2
APPID
5
9
100
AcDbSymbolTable
70
1
0
APPID
5
20C
100
AcDbSymbolTableRecord
100
AcDbRegAppTableRecord
2
ACAD
70
0
0
ENDTAB
0
TABLE
2
DIMSTYLE
5
A
100
AcDbSymbolTable
70
1
0
DIMSTYLE
105
20D
100
AcDbSymbolTableRecord
100
AcDbDimStyleTableRecord
2
STANDARD
70
0
3

4

5

6

7

40
1.0
41
3.0000000000
42
0.0625
43
0.38
44
0.18
45
0.0
46
0.0
47
0.0100000000
48
0.0100000000
140
3.0000000000
141
0.09
142
0.0
143
25.4
144
1.0000000000
145
0.0
146
1.0000000000
147
0.09
71
1
72
0
73
0
74
0
75
0
76
0
77
1
78
8
170
0
171
2
172
0
173
0
174
0
175
0
176
0
177
0
178
0
270
2
271
2
272
2
273
2
274
2
340
11
275
0
280
0
281
0
282
0
283
1
284
8
285
0
286
0
287
3
288
0
0
ENDTAB
0
TABLE
2
BLOCK_RECORD
5
1
100
AcDbSymbolTable
70
0
0
BLOCK_RECORD
5
1B
100
AcDbSymbolTableRecord
100
AcDbBlockTableRecord
2
*MODEL_SPACE
0
BLOCK_RECORD
5
1C
100
AcDbSymbolTableRecord
100
AcDbBlockTableRecord
2
*PAPER_SPACE
0
ENDTAB
0
ENDSEC
0
SECTION
2
BLOCKS
0
BLOCK
5
1E
100
AcDbEntity
8
0
100
AcDbBlockBegin
2
*MODEL_SPACE
70
0
10
0.0
20
0.0
30
0.0
3
*MODEL_SPACE
1

0
ENDBLK
5
1F
100
AcDbEntity
8
0
100
AcDbBlockEnd
0
BLOCK
5
20
100
AcDbEntity
8
0
100
AcDbBlockBegin
2
*PAPER_SPACE
70
0
10
0.0
20
0.0
30
0.0
3
*PAPER_SPACE
1

0
ENDBLK
5
21
100
AcDbEntity
8
0
100
AcDbBlockEnd
0
ENDSEC
0
SECTION
2
ENTITIES
0
LINE
5
20E
100
AcDbEntity
8
0
100
AcDbLine
62
7
6
CONTINUOUS
10
-397.0904671851
20
-414.6733302658
11
-387.1909722485
21
-419.6230777341
0
LINE
5
20F
100
AcDbEntity
8
0
100
AcDbLine
62
7
6
CONTINUOUS
10
-398.5046807475
20
-413.6483862394
11
-388.6051858109
21
-418.5981337077
0
LINE
5
210
100
AcDbEntity
8
0
100
AcDbLine
62
7
6
CONTINUOUS
10
-360.3960093036
20
-360.7344672337
11
-366.5784376388
21
-356.2209062166
0
LINE
5
211
100
AcDbEntity
8
0
100
AcDbLine
62
7
6
CONTINUOUS
10
-363.2947228424
20
-354.5041514774
11
-357.1121502574
21
-359.0176403696
0
LINE
5
212
100
AcDbEntity
8
0
100
AcDbLine
62
7
6
CONTINUOUS
10
-399.0904671851
20
-412.9412794582
11
-399.0904671851
21
-60.4689401179
0
LINE
5
213
100
AcDbEntity
8
0
100
AcDbLine
62
9
6
CONTINUOUS
10
-398.5046807475
20
-413.6483862394
11
-398.5046807475
21
-61.1760468991
0
LINE
5
214
100
AcDbEntity
8
0
100
AcDbLine
62
7
6
CONTINUOUS
10
-397.6762536228
20
-58.0297825292
11
-397.6762536228
21
-59.3288206349
0
LINE
5
215
100
AcDbEntity
8
0
100
AcDbLine
62
9
6
CONTINUOUS
10
-397.4440205757
20
-60.6457168132
11
-397.4440205757
21
-60.2921634226
0
LINE
5
216
100
AcDbEntity
8
0
100
AcDbLine
62
9
6
CONTINUOUS
10
-397.0904671851
20
-58.7368893104
11
-397.0904671851
21
-60.0359274161
0
LINE
5
217
100
AcDbEntity
8
0
100
AcDbLine
62
9
6
CONTINUOUS
10
-397.0904671851
20
-414.3554930206
11
-397.0904671851
21
-414.6733302658
0
LINE
5
218
100
AcDbEntity
8
0
100
AcDbLine
62
7
6
CONTINUOUS
10
-388.9587392015
20
-64.8883575004
11
-388.9587392015
21
-64.1017914079
0
LINE
5
219
100
AcDbEntity
8
0
100
AcDbLine
62
9
6
CONTINUOUS
10
-388.6051858109
20
-418.5981337077
11
-388.6051858109
21
-66.1257943674
0
LINE
5
21A
100
AcDbEntity
8
0
100
AcDbLine
62
9
6
CONTINUOUS
10
-385.7767586861
20
-418.5981337077
11
-385.7767586861
21
-66.1257943674
0
LINE
5
21B
100
AcDbEntity
8
0
100
AcDbLine
62
7
6
CONTINUOUS
10
-349.3607594550
20
-237.8425414480
11
-345.7898702101
21
-244.0014143596
0
LINE
5
21C
100
AcDbEntity
8
0
100
AcDbLine
62
7
6
CONTINUOUS
10
-340.6798936685
20
-240.2113825279
11
-343.0298936685
21
-236.1582320801
0
LINE
5
21D
100
AcDbEntity
8
0
100
AcDbLine
62
7
6
CONTINUOUS
10
-339.3954366182
20
-239.2804788681
11
-341.6156801062
21
-235.4511252989
0
LINE
5
21E
100
AcDbEntity
8
0
100
AcDbLine
62
7
6
CONTINUOUS
10
-349.7184519080
20
-224.9241501034
11
-350.2332034416
21
-223.8128873906
0
LINE
5
21F
100
AcDbEntity
8
0
100
AcDbLine
62
7
6
CONTINUOUS
10
-348.3181480470
20
-225.5048386207
11
-348.3917085299
21
-224.3150858283
0
LINE
5
220
100
AcDbEntity
8
0
100
AcDbLine
62
7
6
CONTINUOUS
10
-371.2534444241
20
-358.5584096092
11
-371.2534444241
21
-373.7350821902
0
LINE
5
221
100
AcDbEntity
8
0
100
AcDbLine
62
7
6
CONTINUOUS
10
-371.2533002325
20
-288.8651581493
11
-371.2533002325
21
-297.5425659617
0
LINE
5
222
100
AcDbEntity
8
0
100
AcDbLine
62
7
6
CONTINUOUS
10
-371.2533002325
20
-303.6696358674
11
-371.2533002325
21
-307.4984831674
0
LINE
5
223
100
AcDbEntity
8
0
100
AcDbLine
62
7
6
CONTINUOUS
10
-371.2533001743
20
-313.7426434754
11
-371.2533001743
21
-318.7564681057
0
LINE
5
224
100
AcDbEntity
8
0
100
AcDbLine
62
7
6
CONTINUOUS
10
-371.2533001743
20
-326.1318089122
11
-371.2533001743
21
-331.1456318105
0
LINE
5
225
100
AcDbEntity
8
0
100
AcDbLine
62
7
6
CONTINUOUS
10
-371.2386574071
20
-332.8936244089
11
-371.2386574071
21
-336.4821357694
0
LINE
5
226
100
AcDbEntity
8
0
100
AcDbLine
62
7
6
CONTINUOUS
10
-371.2311931879
20
-336.8145566165
11
-371.2311931879
21
-340.5231493274
0
LINE
5
227
100
AcDbEntity
8
0
100
AcDbLine
62
7
6
CONTINUOUS
10
-371.2311931879
20
-348.1926235380
11
-371.2311931879
21
-351.9012145169
0
LINE
5
228
100
AcDbEntity
8
0
100
AcDbLine
62
7
6
CONTINUOUS
10
-371.2094729889
20
-75.6071810781
11
-371.2094729889
21
-89.9573112195
0
LINE
5
229
100
AcDbEntity
8
0
100
AcDbLine
62
7
6
CONTINUOUS
10
-371.2094729889
20
-94.4687458528
11
-371.2094729889
21
-108.1205451515
0
LINE
5
22A
100
AcDbEntity
8
0
100
AcDbLine
62
7
6
CONTINUOUS
10
-371.2094729889
20
-151.2873614327
11
-371.2094729889
21
-167.9080135949
0
LINE
5
22B
100
AcDbEntity
8
0
100
AcDbLine
62
7
6
CONTINUOUS
10
-371.2094729889
20
-170.5858568082
11
-371.2094729889
21
-184.9359860835
0
LINE
5
22C
100
AcDbEntity
8
0
100
AcDbLine
62
7
6
CONTINUOUS
10
-371.2094729889
20
-190.8736935428
11
-371.2094729889
21
-193.4935000635
0
LINE
5
22D
100
AcDbEntity
8
0
100
AcDbLine
62
7
6
CONTINUOUS
10
-371.2094729889
20
-204.4962367712
11
-371.2094729889
21
-207.4361903671
0
LINE
5
22E
100
AcDbEntity
8
0
100
AcDbLine
62
7
6
CONTINUOUS
10
-370.3785659525
20
-118.9486780853
11
-370.3785659525
21
-121.4340722632
0
LINE
5
22F
100
AcDbEntity
8
0
100
AcDbLine
62
7
6
CONTINUOUS
10
-369.6250248832
20
-181.3784770984
11
-369.6250248832
21
-169.7936197656
0
LINE
5
230
100
AcDbEntity
8
0
100
AcDbLine
62
7
6
CONTINUOUS
10
-369.6250248832
20
-167.1157834802
11
-369.6250248832
21
-160.1880877405
0
LINE
5
231
100
AcDbEntity
8
0
100
AcDbLine
62
7
6
CONTINUOUS
10
-369.6250248832
20
-157.4228106025
11
-369.6250248832
21
-150.4951148643
0
LINE
5
232
100
AcDbEntity
8
0
100
AcDbLine
62
7
6
CONTINUOUS
10
-369.6250248832
20
-104.5628698895
11
-369.6250248832
21
-93.6765218000
0
LINE
5
233
100
AcDbEntity
8
0
100
AcDbLine
62
7
6
CONTINUOUS
10
-369.6250248832
20
-86.3997156318
11
-369.6250248832
21
-74.8149821387
0
LINE
5
234
100
AcDbEntity
8
0
100
AcDbLine
62
7
6
CONTINUOUS
10
-368.9748681976
20
-292.8329471998
11
-368.9748681976
21
-288.5898853604
0
LINE
5
235
100
AcDbEntity
8
0
100
AcDbLine
62
7
6
CONTINUOUS
10
-366.8707491978
20
-133.4745111613
11
-366.8707491978
21
-130.5254401006
0
LINE
5
236
100
AcDbEntity
8
0
100
AcDbLine
62
7
6
CONTINUOUS
10
-365.1291148105
20
-73.3527433737
11
-365.1291148105
21
-84.1517657916
0
LINE
5
237
100
AcDbEntity
8
0
100
AcDbLine
62
7
6
CONTINUOUS
10
-365.1291148105
20
-92.7676663384
11
-365.1291148105
21
-102.3149148532
0
LINE
5
238
100
AcDbEntity
8
0
100
AcDbLine
62
7
6
CONTINUOUS
10
-365.1291148105
20
-168.3315368832
11
-365.1291148105
21
-179.1305220620
0
LINE
5
239
100
AcDbEntity
8
0
100
AcDbLine
62
7
6
CONTINUOUS
10
-364.5136086978
20
-286.6293037992
11
-364.5136086978
21
-290.6023174499
0
LINE
5
23A
100
AcDbEntity
8
0
100
AcDbLine
62
7
6
CONTINUOUS
10
-363.5447070099
20
-178.3383181617
11
-363.5447070099
21
-167.5393329828
0
LINE
5
23B
100
AcDbEntity
8
0
100
AcDbLine
62
7
6
CONTINUOUS
10
-363.5447070099
20
-101.5227109528
11
-363.5447070099
21
-91.9754624381
0
LINE
5
23C
100
AcDbEntity
8
0
100
AcDbLine
62
7
6
CONTINUOUS
10
-363.5447070099
20
-83.3595618913
11
-363.5447070099
21
-72.5605394734
0
LINE
5
23D
100
AcDbEntity
8
0
100
AcDbLine
62
7
6
CONTINUOUS
10
-362.2865677080
20
-298.8803556414
11
-362.2865677080
21
-303.3210308689
0
LINE
5
23E
100
AcDbEntity
8
0
100
AcDbLine
62
7
6
CONTINUOUS
10
-362.2571398749
20
-289.4888512988
11
-362.2571398749
21
-287.1213585198
0
LINE
5
23F
100
AcDbEntity
8
0
100
AcDbLine
62
7
6
CONTINUOUS
10
-361.8398741880
20
-141.0903369149
11
-361.8398741880
21
-144.0394090596
0
LINE
5
240
100
AcDbEntity
8
0
100
AcDbLine
62
7
6
CONTINUOUS
10
-359.9050664820
20
-302.9583577094
11
-359.9050664820
21
-296.8615275749
0
LINE
5
241
100
AcDbEntity
8
0
100
AcDbLine
62
7
6
CONTINUOUS
10
-358.6526438985
20
-69.2413568569
11
-358.6526438985
21
-80.9135303357
0
LINE
5
242
100
AcDbEntity
8
0
100
AcDbLine
62
7
6
CONTINUOUS
10
-358.6526438985
20
-164.2201079311
11
-358.6526438985
21
-175.8922866061
0
LINE
5
243
100
AcDbEntity
8
0
100
AcDbLine
62
7
6
CONTINUOUS
10
-358.1888370044
20
-121.1758342282
11
-358.1888370044
21
-118.7155409125
0
LINE
5
244
100
AcDbEntity
8
0
100
AcDbLine
62
7
6
CONTINUOUS
10
-358.1888370044
20
-109.5962768409
11
-358.1888370044
21
-107.1061661483
0
LINE
5
245
100
AcDbEntity
8
0
100
AcDbLine
62
7
6
CONTINUOUS
10
-357.1121502574
20
-366.5895377658
11
-357.1121502574
21
-351.4128651849
0
LINE
5
246
100
AcDbEntity
8
0
100
AcDbLine
62
7
6
CONTINUOUS
10
-357.1049717094
20
-339.0770758930
11
-357.1049717094
21
-335.5124754939
0
LINE
5
247
100
AcDbEntity
8
0
100
AcDbLine
62
7
6
CONTINUOUS
10
-357.1023883665
20
-290.4671100287
11
-357.1023883665
21
-286.9114755446
0
LINE
5
248
100
AcDbEntity
8
0
100
AcDbLine
62
7
6
CONTINUOUS
10
-357.0975074902
20
-324.0677354685
11
-357.0975074902
21
-320.7911162289
0
LINE
5
249
100
AcDbEntity
8
0
100
AcDbLine
62
7
6
CONTINUOUS
10
-357.0975074902
20
-309.9411914358
11
-357.0975074902
21
-306.6647471333
0
LINE
5
24A
100
AcDbEntity
8
0
100
AcDbLine
62
7
6
CONTINUOUS
10
-357.0975076527
20
-306.3975128032
11
-357.0975076527
21
-302.5809723868
0
LINE
5
24B
100
AcDbEntity
8
0
100
AcDbLine
62
7
6
CONTINUOUS
10
-357.0975076527
20
-294.4313540681
11
-357.0975076527
21
-290.6148136517
0
LINE
5
24C
100
AcDbEntity
8
0
100
AcDbLine
62
7
6
CONTINUOUS
10
-357.0975076527
20
-280.6349859294
11
-357.0975076527
21
-276.6922120498
0
LINE
5
24D
100
AcDbEntity
8
0
100
AcDbLine
62
7
6
CONTINUOUS
10
-357.0926270392
20
-317.1611346100
11
-357.0926270392
21
-313.5664692729
0
LINE
5
24E
100
AcDbEntity
8
0
100
AcDbLine
62
7
6
CONTINUOUS
10
-357.0682233700
20
-329.3969187509
11
-357.0682233700
21
-325.8084073903
0
LINE
5
24F
100
AcDbEntity
8
0
100
AcDbLine
62
7
6
CONTINUOUS
10
-357.0682233700
20
-200.3655655577
11
-357.0682233700
21
-197.7457590369
0
LINE
5
250
100
AcDbEntity
8
0
100
AcDbLine
62
7
6
CONTINUOUS
10
-357.0682233700
20
-186.8303315463
11
-357.0682233700
21
-183.8030687333
0
LINE
5
251
100
AcDbEntity
8
0
100
AcDbLine
62
7
6
CONTINUOUS
10
-357.0682233700
20
-177.8653612740
11
-357.0682233700
21
-163.4278976668
0
LINE
5
252
100
AcDbEntity
8
0
100
AcDbLine
62
7
6
CONTINUOUS
10
-357.0682233700
20
-153.9096869839
11
-357.0682233700
21
-151.1444098459
0
LINE
5
253
100
AcDbEntity
8
0
100
AcDbLine
62
7
6
CONTINUOUS
10
-357.0682233700
20
-101.0499203420
11
-357.0682233700
21
-98.2844691329
0
LINE
5
254
100
AcDbEntity
8
0
100
AcDbLine
62
7
6
CONTINUOUS
10
-357.0682233700
20
-82.8866864100
11
-357.0682233700
21
-68.4491465926
0
LINE
5
255
100
AcDbEntity
8
0
100
AcDbLine
62
7
6
CONTINUOUS
10
-355.0529690436
20
-225.2890062002
11
-355.0529690436
21
-227.5184056113
0
LINE
5
256
100
AcDbEntity
8
0
100
AcDbLine
62
7
6
CONTINUOUS
10
-355.0176137045
20
-228.6055263353
11
-355.0176137045
21
-233.1954609753
0
LINE
5
257
100
AcDbEntity
8
0
100
AcDbLine
62
7
6
CONTINUOUS
10
-354.9822583655
20
-228.5878486658
11
-354.9822583655
21
-225.2536508612
0
LINE
5
258
100
AcDbEntity
8
0
100
AcDbLine
62
7
6
CONTINUOUS
10
-353.5680448031
20
-226.7759434910
11
-353.5680448031
21
-224.5465440800
0
LINE
5
259
100
AcDbEntity
8
0
100
AcDbLine
62
7
6
CONTINUOUS
10
-349.3607594550
20
-228.1430569257
11
-349.3607594550
21
-229.9617102736
0
LINE
5
25A
100
AcDbEntity
8
0
100
AcDbLine
62
7
6
CONTINUOUS
10
-349.3607594550
20
-236.0238881001
11
-349.3607594550
21
-237.8425414480
0
LINE
5
25B
100
AcDbEntity
8
0
100
AcDbLine
62
7
6
CONTINUOUS
10
-371.2311931879
20
-340.5231493274
11
-361.0663889586
21
-339.2753951174
0
LINE
5
25C
100
AcDbEntity
8
0
100
AcDbLine
62
7
6
CONTINUOUS
10
-357.1049717094
20
-335.5124754939
11
-371.2311931879
21
-336.8145566165
0
LINE
5
25D
100
AcDbEntity
8
0
100
AcDbLine
62
7
6
CONTINUOUS
10
-361.0683341049
20
-238.7302789570
11
-362.8361010579
21
-237.8463954805
0
LINE
5
25E
100
AcDbEntity
8
0
100
AcDbLine
62
7
6
CONTINUOUS
10
-345.7898702101
20
-244.0014143596
11
-340.4865693512
21
-246.6530647891
0
LINE
5
25F
100
AcDbEntity
8
0
100
AcDbLine
62
7
6
CONTINUOUS
10
-355.0176137045
20
-233.1954609753
11
-349.3607594550
21
-236.0238881001
0
LINE
5
260
100
AcDbEntity
8
0
100
AcDbLine
62
7
6
CONTINUOUS
10
-337.2692334968
20
-242.0696510792
11
-336.0671519687
21
-242.6706918432
0
LINE
5
261
100
AcDbEntity
8
0
100
AcDbLine
62
7
6
CONTINUOUS
10
-337.2692334968
20
-233.4093970414
11
-340.4865693512
21
-228.2067236885
0
LINE
5
262
100
AcDbEntity
8
0
100
AcDbLine
62
7
6
CONTINUOUS
10
-335.8550199344
20
-232.7022902602
11
-339.0723557888
21
-227.4996169073
0
LINE
5
263
100
AcDbEntity
8
0
100
AcDbLine
62
7
6
CONTINUOUS
10
-340.6798936685
20
-234.4550816323
11
-338.3298936685
21
-238.5082320801
0
LINE
5
264
100
AcDbEntity
8
0
100
AcDbLine
62
7
6
CONTINUOUS
10
-341.2290314714
20
-396.3242701003
11
-341.2290314714
21
-246.2818337290
0
LINE
5
265
100
AcDbEntity
8
0
100
AcDbLine
62
7
6
CONTINUOUS
10
-341.2290314714
20
-236.1179955488
11
-341.2290314714
21
-235.1709036838
0
LINE
5
266
100
AcDbEntity
8
0
100
AcDbLine
62
7
6
CONTINUOUS
10
-341.2290314714
20
-226.4212790660
11
-341.2290314714
21
-43.8519307601
0
LINE
5
267
100
AcDbEntity
8
0
100
AcDbLine
62
7
6
CONTINUOUS
10
-337.2692334968
20
-244.6677272906
11
-337.2692334968
21
-242.0696510792
0
LINE
5
268
100
AcDbEntity
8
0
100
AcDbLine
62
7
6
CONTINUOUS
10
-337.2692334968
20
-236.0074732527
11
-337.2692334968
21
-233.4093970414
0
LINE
5
269
100
AcDbEntity
8
0
100
AcDbLine
62
7
6
CONTINUOUS
10
-336.0671519687
20
-242.6706918432
11
-336.0671519687
21
-236.6085140168
0
LINE
5
26A
100
AcDbEntity
8
0
100
AcDbLine
62
7
6
CONTINUOUS
10
-335.8550199344
20
-243.9606205094
11
-335.8550199344
21
-242.5646258261
0
LINE
5
26B
100
AcDbEntity
8
0
100
AcDbLine
62
7
6
CONTINUOUS
10
-335.8550199344
20
-235.3003664716
11
-335.8550199344
21
-232.7022902602
0
LINE
5
26C
100
AcDbEntity
8
0
100
AcDbLine
62
7
6
CONTINUOUS
10
-334.6529384064
20
-241.9635850621
11
-334.6529384064
21
-235.9014072356
0
LINE
5
26D
100
AcDbEntity
8
0
100
AcDbLine
62
7
6
CONTINUOUS
10
-366.1602823012
20
-141.7125080186
11
-366.4675109105
21
-142.2753237369
0
LINE
5
26E
100
AcDbEntity
8
0
100
AcDbLine
62
7
6
CONTINUOUS
10
-23.7380867186
20
129.3535144852
11
17.9812133714
21
150.2131645303
0
LINE
5
26F
100
AcDbEntity
8
0
100
AcDbLine
62
7
6
CONTINUOUS
10
-355.3711670951
20
-36.4630257030
11
-397.0904671851
21
-57.3226757480
0
LINE
5
270
100
AcDbEntity
8
0
100
AcDbLine
62
7
6
CONTINUOUS
10
-397.6687339670
20
-59.3438599465
11
-398.5046807475
21
-59.7618333368
0
LINE
5
271
100
AcDbEntity
8
0
100
AcDbLine
62
7
6
CONTINUOUS
10
-397.4440205757
20
-60.2921634226
11
-397.0586834606
21
-60.0994948651
0
LINE
5
272
100
AcDbEntity
8
0
100
AcDbLine
62
9
6
CONTINUOUS
10
-13.8385917820
20
122.9895534546
11
22.9321873268
21
141.3749430090
0
LINE
5
273
100
AcDbEntity
8
0
100
AcDbLine
62
9
6
CONTINUOUS
10
-342.6432450338
20
-41.4127731713
11
-387.1909722485
21
-63.6866367787
0
LINE
5
274
100
AcDbEntity
8
DEFAULT_3
100
AcDbLine
62
8
6
PHANTOM
10
-13.4850383914
20
120.6039700839
11
-341.2993002848
21
-43.3031608628
0
LINE
5
275
100
AcDbEntity
8
0
100
AcDbLine
62
9
6
CONTINUOUS
10
-385.7767586861
20
-66.1257943674
11
-341.2290314714
21
-43.8519307601
0
LINE
5
276
100
AcDbEntity
8
0
100
AcDbLine
62
9
6
CONTINUOUS
10
-12.4243782197
20
120.5503958658
11
32.1233489951
21
142.8242594732
0
LINE
5
277
100
AcDbEntity
8
DEFAULT_3
100
AcDbLine
62
8
6
PHANTOM
10
-13.4850383914
20
119.1897565215
11
-341.2290314714
21
-44.6822400184
0
LINE
5
278
100
AcDbEntity
8
DEFAULT_3
100
AcDbLine
62
8
6
PHANTOM
10
-13.4850383914
20
117.6166243366
11
-341.2290314714
21
-46.2553722034
0
LINE
5
279
100
AcDbEntity
8
0
100
AcDbLine
62
7
6
CONTINUOUS
10
-371.2533001743
20
-318.7564681057
11
-361.1546726544
21
-317.3946489459
0
LINE
5
27A
100
AcDbEntity
8
0
100
AcDbLine
62
7
6
CONTINUOUS
10
-357.0975076527
20
-302.5809723868
11
-359.9050664820
21
-302.9583577094
0
LINE
5
27B
100
AcDbEntity
8
0
100
AcDbLine
62
7
6
CONTINUOUS
10
-362.2865677080
20
-303.3210308689
11
-368.3128137277
21
-304.1139920776
0
LINE
5
27C
100
AcDbEntity
8
0
100
AcDbLine
62
7
6
CONTINUOUS
10
-357.0926270392
20
-313.5664692729
11
-366.8678352311
21
-314.8354988024
0
LINE
5
27D
100
AcDbEntity
8
0
100
AcDbLine
62
7
6
CONTINUOUS
10
-371.2533002325
20
-307.4984831674
11
-357.0975076527
21
-306.3975128032
0
LINE
5
27E
100
AcDbEntity
8
0
100
AcDbLine
62
7
6
CONTINUOUS
10
-352.1891865798
20
-230.0197398977
11
-355.0176137045
21
-228.6055263353
0
LINE
5
27F
100
AcDbEntity
8
0
100
AcDbLine
62
7
6
CONTINUOUS
10
-350.8307153582
20
-229.2847619461
11
-353.6034001422
21
-227.8984195541
0
LINE
5
280
100
AcDbEntity
8
0
100
AcDbLine
62
7
6
CONTINUOUS
10
-336.0671519687
20
-236.6085140168
11
-337.2692334968
21
-236.0074732527
0
LINE
5
281
100
AcDbEntity
8
0
100
AcDbLine
62
7
6
CONTINUOUS
10
-349.3607594550
20
-229.9617102736
11
-350.7749730174
21
-229.2546034924
0
LINE
5
282
100
AcDbEntity
8
0
100
AcDbLine
62
7
6
CONTINUOUS
10
-334.6529384064
20
-235.9014072356
11
-335.8550199344
21
-235.3003664716
0
LINE
5
283
100
AcDbEntity
8
0
100
AcDbLine
62
7
6
CONTINUOUS
10
-340.4865693512
20
-228.2067236885
11
-345.7898702101
21
-225.5550732590
0
LINE
5
284
100
AcDbEntity
8
0
100
AcDbLine
62
7
6
CONTINUOUS
10
-339.0723557888
20
-227.4996169073
11
-344.3756566477
21
-224.8479664779
0
LINE
5
285
100
AcDbEntity
8
0
100
AcDbLine
62
7
6
CONTINUOUS
10
-351.2296350039
20
-219.0528807550
11
-352.9974019569
21
-218.1689972785
0
LINE
5
286
100
AcDbEntity
8
0
100
AcDbLine
62
7
6
CONTINUOUS
10
-367.6490914640
20
-118.8266966275
11
-358.1888370044
21
-109.5962768409
0
LINE
5
287
100
AcDbEntity
8
0
100
AcDbLine
62
7
6
CONTINUOUS
10
-358.1888370044
20
-107.1061661483
11
-370.3785659525
21
-118.9486780853
0
LINE
5
288
100
AcDbEntity
8
0
100
AcDbLine
62
7
6
CONTINUOUS
10
-357.0682233700
20
-68.4491465926
11
-358.6526438985
21
-69.2413568569
0
LINE
5
289
100
AcDbEntity
8
0
100
AcDbLine
62
7
6
CONTINUOUS
10
-369.6250248832
20
-74.8149821387
11
-371.2094729889
21
-75.6071810781
0
LINE
5
28A
100
AcDbEntity
8
0
100
AcDbLine
62
7
6
CONTINUOUS
10
-363.5447070099
20
-72.5605394734
11
-365.1291148105
21
-73.3527433737
0
LINE
5
28B
100
AcDbEntity
8
0
100
AcDbLine
62
7
6
CONTINUOUS
10
-358.6526438985
20
-80.9135303357
11
-363.5447070099
21
-83.3595618913
0
LINE
5
28C
100
AcDbEntity
8
0
100
AcDbLine
62
7
6
CONTINUOUS
10
-365.1291148105
20
-84.1517657916
11
-369.6250248832
21
-86.3997156318
0
LINE
5
28D
100
AcDbEntity
8
0
100
AcDbLine
62
7
6
CONTINUOUS
10
-371.2094729889
20
-89.9573112195
11
-357.0682233700
21
-82.8866864100
0
LINE
5
28E
100
AcDbEntity
8
0
100
AcDbLine
62
7
6
CONTINUOUS
10
-369.6250248832
20
-93.6765218000
11
-371.2094729889
21
-94.4687458528
0
LINE
5
28F
100
AcDbEntity
8
0
100
AcDbLine
62
7
6
CONTINUOUS
10
-368.4167667774
20
-203.4200307406
11
-357.0682233700
21
-186.8303315463
0
LINE
5
290
100
AcDbEntity
8
0
100
AcDbLine
62
7
6
CONTINUOUS
10
-359.7419517945
20
-187.7597394663
11
-371.2094729889
21
-204.4962367712
0
LINE
5
291
100
AcDbEntity
8
0
100
AcDbLine
62
7
6
CONTINUOUS
10
22.6035768239
20
155.7964878601
11
21.9503795591
21
155.3346076448
0
LINE
5
292
100
AcDbEntity
8
0
100
AcDbLine
62
7
6
CONTINUOUS
10
-363.5447070099
20
-91.9754624381
11
-365.1291148105
21
-92.7676663384
0
LINE
5
293
100
AcDbEntity
8
0
100
AcDbLine
62
7
6
CONTINUOUS
10
-357.0682233700
20
-98.2844691329
11
-363.5447070099
21
-101.5227109528
0
LINE
5
294
100
AcDbEntity
8
0
100
AcDbLine
62
7
6
CONTINUOUS
10
-365.1291148105
20
-102.3149148532
11
-369.6250248832
21
-104.5628698895
0
LINE
5
295
100
AcDbEntity
8
0
100
AcDbLine
62
7
6
CONTINUOUS
10
-371.2094729889
20
-108.1205451515
11
-357.0682233700
21
-101.0499203420
0
LINE
5
296
100
AcDbEntity
8
0
100
AcDbLine
62
7
6
CONTINUOUS
10
-357.0975076527
20
-276.6922120498
11
-362.4189211818
21
-283.6016066577
0
LINE
5
297
100
AcDbEntity
8
0
100
AcDbLine
62
7
6
CONTINUOUS
10
-369.6250248832
20
-150.4951148643
11
-371.2094729889
21
-151.2873614327
0
LINE
5
298
100
AcDbEntity
8
0
100
AcDbLine
62
7
6
CONTINUOUS
10
-357.0682233700
20
-151.1444098459
11
-369.6250248832
21
-157.4228106025
0
LINE
5
299
100
AcDbEntity
8
0
100
AcDbLine
62
7
6
CONTINUOUS
10
-369.6250248832
20
-160.1880877405
11
-357.0682233700
21
-153.9096869839
0
LINE
5
29A
100
AcDbEntity
8
0
100
AcDbLine
62
7
6
CONTINUOUS
10
-371.2094729889
20
-167.9080135949
11
-369.6250248832
21
-167.1157834802
0
LINE
5
29B
100
AcDbEntity
8
0
100
AcDbLine
62
7
6
CONTINUOUS
10
-357.0682233700
20
-163.4278976668
11
-358.6526438985
21
-164.2201079311
0
LINE
5
29C
100
AcDbEntity
8
0
100
AcDbLine
62
7
6
CONTINUOUS
10
-369.6250248832
20
-169.7936197656
11
-371.2094729889
21
-170.5858568082
0
LINE
5
29D
100
AcDbEntity
8
0
100
AcDbLine
62
7
6
CONTINUOUS
10
-363.5447070099
20
-167.5393329828
11
-365.1291148105
21
-168.3315368832
0
LINE
5
29E
100
AcDbEntity
8
0
100
AcDbLine
62
7
6
CONTINUOUS
10
-355.4646087686
20
-236.4164638246
11
-356.6624698590
21
-236.6714202255
0
LINE
5
29F
100
AcDbEntity
8
0
100
AcDbLine
62
7
6
CONTINUOUS
10
-366.5784376388
20
-371.3975787975
11
-360.3960093036
21
-360.7344672337
0
LINE
5
2A0
100
AcDbEntity
8
0
100
AcDbLine
62
7
6
CONTINUOUS
10
-357.1121502574
20
-359.0176403696
11
-363.2947228424
21
-369.6808240583
0
LINE
5
2A1
100
AcDbEntity
8
0
100
AcDbLine
62
7
6
CONTINUOUS
10
-362.2571398749
20
-287.1213585198
11
-357.0975076527
21
-280.6349859294
0
LINE
5
2A2
100
AcDbEntity
8
0
100
AcDbLine
62
7
6
CONTINUOUS
10
-358.6526438985
20
-175.8922866061
11
-363.5447070099
21
-178.3383181617
0
LINE
5
2A3
100
AcDbEntity
8
0
100
AcDbLine
62
7
6
CONTINUOUS
10
-365.1291148105
20
-179.1305220620
11
-369.6250248832
21
-181.3784770984
0
LINE
5
2A4
100
AcDbEntity
8
0
100
AcDbLine
62
7
6
CONTINUOUS
10
-371.2094729889
20
-184.9359860835
11
-357.0682233700
21
-177.8653612740
0
LINE
5
2A5
100
AcDbEntity
8
0
100
AcDbLine
62
7
6
CONTINUOUS
10
-357.0682233700
20
-183.8030687333
11
-371.2094729889
21
-190.8736935428
0
LINE
5
2A6
100
AcDbEntity
8
0
100
AcDbLine
62
7
6
CONTINUOUS
10
-371.2094729889
20
-193.4935000635
11
-359.7419517945
21
-187.7597394663
0
LINE
5
2A7
100
AcDbEntity
8
0
100
AcDbLine
62
7
6
CONTINUOUS
10
-398.5046807475
20
-61.1760468991
11
-388.6051858109
21
-66.1257943674
0
LINE
5
2A8
100
AcDbEntity
8
0
100
AcDbLine
62
7
6
CONTINUOUS
10
-387.5445256391
20
-65.5954642815
11
-397.4440205757
21
-60.6457168132
0
LINE
5
2A9
100
AcDbEntity
8
0
100
AcDbLine
62
7
6
CONTINUOUS
10
-385.7767586861
20
-66.1257943674
11
-386.8374188579
21
-65.5954642815
0
LINE
5
2AA
100
AcDbEntity
8
0
100
AcDbLine
62
7
6
CONTINUOUS
10
-387.1909722485
20
-64.9856748844
11
-397.0904671851
21
-60.0359274161
0
LINE
5
2AB
100
AcDbEntity
8
0
100
AcDbLine
62
7
6
CONTINUOUS
10
-397.0904671851
20
-58.7368893104
11
-387.1909722485
21
-63.6866367787
0
LINE
5
2AC
100
AcDbEntity
8
0
100
AcDbLine
62
7
6
CONTINUOUS
10
-357.0975076527
20
-290.6148136517
11
-371.2533002325
21
-303.6696358674
0
LINE
5
2AD
100
AcDbEntity
8
0
100
AcDbLine
62
7
6
CONTINUOUS
10
-345.7898702101
20
-225.5550732590
11
-349.3607594550
21
-228.1430569257
0
LINE
5
2AE
100
AcDbEntity
8
0
100
AcDbLine
62
7
6
CONTINUOUS
10
-343.0298936685
20
-236.1582320801
11
-340.6798936685
21
-234.4550816323
0
LINE
5
2AF
100
AcDbEntity
8
0
100
AcDbLine
62
7
6
CONTINUOUS
10
-341.6156801062
20
-235.4511252989
11
-340.5501371565
21
-234.6788785109
0
LINE
5
2B0
100
AcDbEntity
8
0
100
AcDbLine
62
7
6
CONTINUOUS
10
-338.3298936685
20
-238.5082320801
11
-340.6798936685
21
-240.2113825279
0
LINE
5
2B1
100
AcDbEntity
8
0
100
AcDbLine
62
7
6
CONTINUOUS
10
-354.1598756382
20
-237.1882938031
11
-355.1558141618
21
-237.8432970922
0
LINE
5
2B2
100
AcDbEntity
8
0
100
AcDbLine
62
7
6
CONTINUOUS
10
-357.0682233700
20
-197.7457590369
11
-368.4167667774
21
-203.4200307406
0
LINE
5
2B3
100
AcDbEntity
8
0
100
AcDbLine
62
7
6
CONTINUOUS
10
-371.2094729889
20
-207.4361903671
11
-357.0682233700
21
-200.3655655577
0
LINE
5
2B4
100
AcDbEntity
8
0
100
AcDbLine
62
7
6
CONTINUOUS
10
-23.7380867186
20
-227.9971400325
11
-13.8385917820
21
-232.9468875008
0
LINE
5
2B5
100
AcDbEntity
8
0
100
AcDbLine
62
7
6
CONTINUOUS
10
-13.8385917820
20
-231.6478493952
11
-23.7380867186
21
-226.6981019269
0
LINE
5
2B6
100
AcDbEntity
8
0
100
AcDbLine
62
7
6
CONTINUOUS
10
-366.8678352311
20
-325.6673132723
11
-357.0926270392
21
-317.1611346100
0
LINE
5
2B7
100
AcDbEntity
8
0
100
AcDbLine
62
7
6
CONTINUOUS
10
-368.3128137277
20
-304.1139920776
11
-362.2865677080
21
-298.8803556414
0
LINE
5
2B8
100
AcDbEntity
8
0
100
AcDbLine
62
7
6
CONTINUOUS
10
-359.9050664820
20
-296.8615275749
11
-357.0975076527
21
-294.4313540681
0
LINE
5
2B9
100
AcDbEntity
8
0
100
AcDbLine
62
7
6
CONTINUOUS
10
-361.1546726544
20
-317.3946489459
11
-371.2533001743
21
-326.1318089122
0
LINE
5
2BA
100
AcDbEntity
8
0
100
AcDbLine
62
7
6
CONTINUOUS
10
-340.4865693512
20
-246.6530647891
11
-337.2692334968
21
-244.6677272906
0
LINE
5
2BB
100
AcDbEntity
8
0
100
AcDbLine
62
7
6
CONTINUOUS
10
-339.0723557888
20
-245.9459580079
11
-335.8550199344
21
-243.9606205094
0
LINE
5
2BC
100
AcDbEntity
8
0
100
AcDbLine
62
7
6
CONTINUOUS
10
-350.7749730174
20
-229.2546034924
11
-352.1891865798
21
-230.0197398977
0
LINE
5
2BD
100
AcDbEntity
8
0
100
AcDbLine
62
7
6
CONTINUOUS
10
-353.5680448031
20
-224.5465440800
11
-355.0529690436
21
-225.2890062002
0
LINE
5
2BE
100
AcDbEntity
8
0
100
AcDbLine
62
7
6
CONTINUOUS
10
-353.6034001422
20
-227.8984195541
11
-355.0176137045
21
-228.6055263353
0
LINE
5
2BF
100
AcDbEntity
8
0
100
AcDbLine
62
7
6
CONTINUOUS
10
-344.3756566477
20
-224.8479664779
11
-345.7898702101
21
-225.5550732590
0
LINE
5
2C0
100
AcDbEntity
8
0
100
AcDbLine
62
7
6
CONTINUOUS
10
-355.5808958348
20
-231.0669592637
11
-355.0176137045
21
-230.7853181986
0
LINE
5
2C1
100
AcDbEntity
8
0
100
AcDbLine
62
7
6
CONTINUOUS
10
-349.3607594550
20
-228.5474967112
11
-350.7749730174
21
-229.2546034924
0
LINE
5
2C2
100
AcDbEntity
8
0
100
AcDbLine
62
7
6
CONTINUOUS
10
-339.0723557888
20
-227.4996169073
11
-340.4865693512
21
-228.2067236885
0
LINE
5
2C3
100
AcDbEntity
8
0
100
AcDbLine
62
7
6
CONTINUOUS
10
-341.6156801062
20
-235.4511252989
11
-343.0298936685
21
-236.1582320801
0
LINE
5
2C4
100
AcDbEntity
8
0
100
AcDbLine
62
7
6
CONTINUOUS
10
-335.8550199344
20
-232.7022902602
11
-337.2692334968
21
-233.4093970414
0
LINE
5
2C5
100
AcDbEntity
8
0
100
AcDbLine
62
7
6
CONTINUOUS
10
-335.8550199344
20
-235.3003664716
11
-337.2692334968
21
-236.0074732527
0
LINE
5
2C6
100
AcDbEntity
8
0
100
AcDbLine
62
7
6
CONTINUOUS
10
-334.6529384064
20
-235.9014072356
11
-336.0671519687
21
-236.6085140168
0
LINE
5
2C7
100
AcDbEntity
8
0
100
AcDbLine
62
7
6
CONTINUOUS
10
-370.3785659525
20
-121.4340722632
11
-358.1888370044
21
-121.1758342282
0
LINE
5
2C8
100
AcDbEntity
8
0
100
AcDbLine
62
7
6
CONTINUOUS
10
-358.1888370044
20
-118.7155409125
11
-367.6490914640
21
-118.8266966275
0
LINE
5
2C9
100
AcDbEntity
8
0
100
AcDbLine
62
7
6
CONTINUOUS
10
-352.5427399704
20
-36.4630257030
11
-342.6432450338
21
-41.4127731713
0
LINE
5
2CA
100
AcDbEntity
8
0
100
AcDbLine
62
7
6
CONTINUOUS
10
-13.4850383914
20
-190.2264784240
11
-14.5976728151
21
-189.6701612122
0
LINE
5
2CB
100
AcDbEntity
8
0
100
AcDbLine
62
7
6
CONTINUOUS
10
-14.5891631522
20
-188.9460351052
11
-14.8266791779
21
-188.8272770924
0
LINE
5
2CC
100
AcDbEntity
8
0
100
AcDbLine
62
7
6
CONTINUOUS
10
-371.2311931879
20
-351.9012145169
11
-357.1049717094
21
-339.0770758930
0
LINE
5
2CD
100
AcDbEntity
8
0
100
AcDbLine
62
7
6
CONTINUOUS
10
-361.0663889586
20
-339.2753951174
11
-371.2311931879
21
-348.1926235380
0
LINE
5
2CE
100
AcDbEntity
8
0
100
AcDbLine
62
7
6
CONTINUOUS
10
-334.6529384064
20
-241.9635850621
11
-336.0671519687
21
-242.6706918432
0
LINE
5
2CF
100
AcDbEntity
8
0
100
AcDbLine
62
7
6
CONTINUOUS
10
-335.8550199344
20
-243.9606205094
11
-337.2692334968
21
-244.6677272906
0
LINE
5
2D0
100
AcDbEntity
8
0
100
AcDbLine
62
7
6
CONTINUOUS
10
-339.0723557888
20
-245.9459580079
11
-340.4865693512
21
-246.6530647891
0
LINE
5
2D1
100
AcDbEntity
8
0
100
AcDbLine
62
7
6
CONTINUOUS
10
22.6035768239
20
-221.5596480822
11
22.2091556500
21
-221.2807501955
0
LINE
5
2D2
100
AcDbEntity
8
0
100
AcDbLine
62
7
6
CONTINUOUS
10
-364.5136086978
20
-290.6023174499
11
-368.9748681976
21
-292.8329471998
0
LINE
5
2D3
100
AcDbEntity
8
0
100
AcDbLine
62
7
6
CONTINUOUS
10
-357.1023883665
20
-286.9114755446
11
-362.2571398749
21
-289.4888512988
0
LINE
5
2D4
100
AcDbEntity
8
0
100
AcDbLine
62
7
6
CONTINUOUS
10
-371.2533002325
20
-297.5425659617
11
-357.1023883665
21
-290.4671100287
0
LINE
5
2D5
100
AcDbEntity
8
0
100
AcDbLine
62
7
6
CONTINUOUS
10
-366.8678352311
20
-314.8354988024
11
-357.0975074902
21
-309.9411914358
0
LINE
5
2D6
100
AcDbEntity
8
0
100
AcDbLine
62
7
6
CONTINUOUS
10
-357.0975074902
20
-306.6647471333
11
-371.2533001743
21
-313.7426434754
0
LINE
5
2D7
100
AcDbEntity
8
0
100
AcDbLine
62
7
6
CONTINUOUS
10
-371.2533001743
20
-331.1456318105
11
-357.0975074902
21
-324.0677354685
0
LINE
5
2D8
100
AcDbEntity
8
0
100
AcDbLine
62
7
6
CONTINUOUS
10
-357.0682233700
20
-325.8084073903
11
-371.2386574071
21
-332.8936244089
0
LINE
5
2D9
100
AcDbEntity
8
0
100
AcDbLine
62
7
6
CONTINUOUS
10
-371.2386574071
20
-336.4821357694
11
-357.0682233700
21
-329.3969187509
0
LINE
5
2DA
100
AcDbEntity
8
0
100
AcDbLine
62
7
6
CONTINUOUS
10
-357.0975074902
20
-320.7911162289
11
-366.8678352311
21
-325.6673132723
0
LINE
5
2DB
100
AcDbEntity
8
0
100
AcDbLine
62
7
6
CONTINUOUS
10
-357.1121502574
20
-351.4128651849
11
-363.2947228424
21
-354.5041514774
0
LINE
5
2DC
100
AcDbEntity
8
0
100
AcDbLine
62
7
6
CONTINUOUS
10
-366.5784376388
20
-356.2209062166
11
-371.2534444241
21
-358.5584096092
0
LINE
5
2DD
100
AcDbEntity
8
0
100
AcDbLine
62
7
6
CONTINUOUS
10
-363.2947228424
20
-369.6808240583
11
-357.1121502574
21
-366.5895377658
0
LINE
5
2DE
100
AcDbEntity
8
0
100
AcDbLine
62
7
6
CONTINUOUS
10
-371.2534444241
20
-373.7350821902
11
-366.5784376388
21
-371.3975787975
0
LINE
5
2DF
100
AcDbEntity
8
0
100
AcDbLine
62
7
6
CONTINUOUS
10
-24.3238731563
20
128.6464077041
11
-24.3238731563
21
127.3473695984
0
LINE
5
2E0
100
AcDbEntity
8
0
100
AcDbLine
62
7
6
CONTINUOUS
10
-24.3238731563
20
-225.9909951457
11
-24.3238731563
21
-227.2900332513
0
LINE
5
2E1
100
AcDbEntity
8
0
100
AcDbLine
62
9
6
CONTINUOUS
10
-23.7380867186
20
127.9393009229
11
-23.7380867186
21
126.6402628172
0
LINE
5
2E2
100
AcDbEntity
8
0
100
AcDbLine
62
9
6
CONTINUOUS
10
-23.7380867186
20
-226.6981019269
11
-23.7380867186
21
-227.9971400325
0
LINE
5
2E3
100
AcDbEntity
8
0
100
AcDbLine
62
7
6
CONTINUOUS
10
-14.5976728151
20
-189.6701612122
11
-14.5976728151
21
-188.9630544310
0
LINE
5
2E4
100
AcDbEntity
8
0
100
AcDbLine
62
7
6
CONTINUOUS
10
-14.5976728151
20
93.5201458253
11
-14.5976728151
21
94.2272526065
0
LINE
5
2E5
100
AcDbEntity
8
0
100
AcDbLine
62
7
6
CONTINUOUS
10
-13.4850383914
20
121.0807259517
11
-13.4850383914
21
-231.3916133886
0
LINE
5
2E6
100
AcDbEntity
8
0
100
AcDbLine
62
7
6
CONTINUOUS
10
-12.4243782197
20
120.5503958658
11
-12.4243782197
21
-231.9219434745
0
LINE
5
2E7
100
AcDbEntity
8
0
100
AcDbLine
62
7
6
CONTINUOUS
10
-23.7380867186
20
-225.2838883645
11
-13.4850383914
21
-220.1573642009
0
LINE
5
2E8
100
AcDbEntity
8
DEFAULT_3
100
AcDbLine
62
8
6
PHANTOM
10
-341.2290314714
20
-391.7995083134
11
-13.4850383914
21
-227.9275117734
0
LINE
5
2E9
100
AcDbEntity
8
DEFAULT_3
100
AcDbLine
62
8
6
PHANTOM
10
-341.2290314714
20
-391.9584269360
11
-13.4850383914
21
-228.0864303960
0
LINE
5
2EA
100
AcDbEntity
8
0
100
AcDbLine
62
9
6
CONTINUOUS
10
-13.8385917820
20
-231.6478493952
11
-13.4938170126
21
-231.4754620104
0
LINE
5
2EB
100
AcDbEntity
8
0
100
AcDbLine
62
9
6
CONTINUOUS
10
32.1233489951
20
-209.6480798671
11
-12.4243782197
21
-231.9219434745
0
LINE
5
2EC
100
AcDbEntity
8
0
100
AcDbLine
62
9
6
CONTINUOUS
10
-341.2290314714
20
-396.3242701003
11
-385.7767586861
21
-418.5981337077
0
LINE
5
2ED
100
AcDbEntity
8
0
100
AcDbLine
62
7
6
CONTINUOUS
10
31.6035626237
20
-210.7298274679
11
-12.9441645910
21
-233.0036910753
0
LINE
5
2EE
100
AcDbEntity
8
0
100
AcDbLine
62
7
6
CONTINUOUS
10
-341.7488178428
20
-397.4060177011
11
-386.2965450575
21
-419.6798813085
0
LINE
5
2EF
100
AcDbEntity
8
0
100
AcDbLine
62
7
6
CONTINUOUS
10
25.3796651990
20
-221.5596480822
11
26.0328624638
21
-221.0977678669
0
LINE
5
2F0
100
AcDbEntity
8
0
100
AcDbLine
62
7
6
CONTINUOUS
10
16.4916210115
20
145.0866403666
11
16.4916210115
21
147.5115114972
0
LINE
5
2F1
100
AcDbEntity
8
0
100
AcDbLine
62
7
6
CONTINUOUS
10
21.4916210115
20
-220.3760800304
11
21.4916210115
21
-216.8094521428
0
LINE
5
2F2
100
AcDbEntity
8
0
100
AcDbLine
62
7
6
CONTINUOUS
10
21.4916210115
20
154.6129198083
11
21.4916210115
21
147.1556812955
0
LINE
5
2F3
100
AcDbEntity
8
0
100
AcDbLine
62
7
6
CONTINUOUS
10
26.4916210115
20
-220.3760800304
11
26.4916210115
21
-216.8101578460
0
LINE
5
2F4
100
AcDbEntity
8
0
100
AcDbLine
62
7
6
CONTINUOUS
10
26.4916210115
20
154.6129198083
11
26.4916210115
21
147.1559586799
0
LINE
5
2F5
100
AcDbEntity
8
0
100
AcDbLine
62
7
6
CONTINUOUS
10
31.4916210115
20
145.0866403666
11
31.4916210115
21
147.5115114972
0
LINE
5
2F6
100
AcDbEntity
8
0
100
AcDbLine
62
7
6
CONTINUOUS
10
31.4916210115
20
-210.8498005888
11
31.4916210115
21
-213.2746717194
0
LINE
5
2F7
100
AcDbEntity
8
0
100
AcDbLine
62
9
6
CONTINUOUS
10
32.1233489951
20
142.8242594732
11
32.1233489951
21
-209.6480798671
0
LINE
5
2F8
100
AcDbEntity
8
0
100
AcDbLine
62
7
6
CONTINUOUS
10
32.7091354327
20
143.5313662544
11
32.7091354327
21
-208.9409730859
0
LINE
5
2F9
100
AcDbEntity
8
0
100
AcDbLine
62
7
6
CONTINUOUS
10
-13.4850383914
20
92.9638286135
11
-14.5976728151
21
93.5201458253
0
LINE
5
2FA
100
AcDbEntity
8
0
100
AcDbLine
62
7
6
CONTINUOUS
10
-14.5891631522
20
94.2442719323
11
-14.8266791779
21
94.3630299451
0
LINE
5
2FB
100
AcDbEntity
8
0
100
AcDbLine
62
7
6
CONTINUOUS
10
-13.8385917820
20
121.6905153489
11
-23.7380867186
21
126.6402628172
0
LINE
5
2FC
100
AcDbEntity
8
0
100
AcDbLine
62
7
6
CONTINUOUS
10
-23.7380867186
20
127.9393009229
11
-13.8385917820
21
122.9895534546
0
LINE
5
2FD
100
AcDbEntity
8
0
100
AcDbLine
62
7
6
CONTINUOUS
10
31.5243569144
20
144.5379690759
11
32.1233489951
21
144.2384730356
0
LINE
5
2FE
100
AcDbEntity
8
0
100
AcDbLine
62
7
6
CONTINUOUS
10
25.3796651990
20
155.7964878601
11
26.0328624638
21
155.3346076448
0
SPLINE
5
2FF
100
AcDbEntity
8
0
100
AcDbSpline
62
7
6
CONTINUOUS
70
0
71
3
72
13
73
9
74
7
42
0.0000001000
43
0.0000001000
44
0.0000000001
12
0.0000000000
22
3.8350899536
32
0.0000000000
13
2.0268558855
23
3.2571953911
33
0.0000000000
40
0.0000000000
40
0.0000000000
40
0.0000000000
40
0.0000000000
40
0.1581392036
40
0.3239317453
40
0.4956759678
40
0.6713802388
40
0.8488723156
40
1.0000000000
40
1.0000000000
40
1.0000000000
40
1.0000000000
10
-14.5976728151
20
-188.9630544310
30
0.0000000000
10
-14.5976728151
20
-188.7608950740
30
0.0000000000
10
-14.5729601644
20
-188.3465257843
30
0.0000000000
10
-14.4694778498
20
-187.7203892882
30
0.0000000000
10
-14.3007277841
20
-187.0853537013
30
0.0000000000
10
-14.0701108889
20
-186.4542247965
30
0.0000000000
10
-13.7963199206
20
-185.8696365296
30
0.0000000000
10
-13.5878493816
20
-185.5044231868
30
0.0000000000
10
-13.4857447027
20
-185.3403390544
30
0.0000000000
11
-14.5976728151
21
-188.9630544310
31
0.0000000000
11
-14.5633163530
21
-188.3575502739
31
0.0000000000
11
-14.4609463654
21
-187.7300159733
31
0.0000000000
11
-14.2926468099
21
-187.0932263178
31
0.0000000000
11
-14.0618437801
21
-186.4601445085
31
0.0000000000
11
-13.7732357602
21
-185.8436582654
31
0.0000000000
11
-13.4857447027
21
-185.3403390544
31
0.0000000000
0
SPLINE
5
300
100
AcDbEntity
8
0
100
AcDbSpline
62
7
6
CONTINUOUS
70
0
71
3
72
15
73
11
74
9
42
0.0000001000
43
0.0000001000
44
0.0000000001
12
-1.6222826825
22
1.9889722638
32
0.0000000000
13
0.0000000000
23
2.5665175100
33
0.0000000000
40
0.0000000000
40
0.0000000000
40
0.0000000000
40
0.0000000000
40
0.1036544851
40
0.2726674161
40
0.4240567277
40
0.5598297850
40
0.6821468928
40
0.7937948610
40
0.8982910305
40
1.0000000000
40
1.0000000000
40
1.0000000000
40
1.0000000000
10
-13.4852031207
20
-191.9315811249
30
0.0000000000
10
-13.5412554128
20
-191.8628591596
30
0.0000000000
10
-13.6868272083
20
-191.6805555950
30
0.0000000000
10
-13.9039717444
20
-191.3897665641
30
0.0000000000
10
-14.1205528522
20
-191.0648427131
30
0.0000000000
10
-14.2950804295
20
-190.7607297771
30
0.0000000000
10
-14.4294591129
20
-190.4738996518
30
0.0000000000
10
-14.5254307201
20
-190.2000778577
30
0.0000000000
10
-14.5840594988
20
-189.9338183277
30
0.0000000000
10
-14.5976728151
20
-189.7571738293
30
0.0000000000
10
-14.5976728151
20
-189.6701612122
30
0.0000000000
11
-13.4852031207
21
-191.9315811249
31
0.0000000000
11
-13.6510739867
21
-191.7235784820
31
0.0000000000
11
-13.9096717097
21
-191.3753147001
31
0.0000000000
11
-14.1240916182
21
-191.0512930750
31
0.0000000000
11
-14.2963318185
21
-190.7483732452
31
0.0000000000
11
-14.4282279634
21
-190.4634963888
31
0.0000000000
11
-14.5217434100
21
-190.1926389761
31
0.0000000000
11
-14.5783020086
21
-189.9304793476
31
0.0000000000
11
-14.5976728151
21
-189.6701612122
31
0.0000000000
0
SPLINE
5
301
100
AcDbEntity
8
0
100
AcDbSpline
62
7
6
CONTINUOUS
70
0
71
3
72
8
73
4
74
2
42
0.0000001000
43
0.0000001000
44
0.0000000001
12
0.0000000000
22
0.6882998543
32
0.0000000000
13
0.0403264304
23
0.6872535657
33
0.0000000000
40
0.0000000000
40
0.0000000000
40
0.0000000000
40
0.0000000000
40
1.0000000000
40
1.0000000000
40
1.0000000000
40
1.0000000000
10
-14.5976728151
20
-189.6701612122
30
0.0000000000
10
-14.5976728151
20
-189.4407279274
30
0.0000000000
10
-14.5917413149
20
-189.2112185897
30
0.0000000000
10
-14.5782991715
20
-188.9821340678
30
0.0000000000
11
-14.5976728151
21
-189.6701612122
31
0.0000000000
11
-14.5782991715
21
-188.9821340678
31
0.0000000000
0
SPLINE
5
302
100
AcDbEntity
8
0
100
AcDbSpline
62
7
6
CONTINUOUS
70
0
71
3
72
8
73
4
74
2
42
0.0000001000
43
0.0000001000
44
0.0000000001
12
0.0010370535
22
0.0176737366
32
0.0000000000
13
0.0010669463
23
0.0176720128
33
0.0000000000
40
0.0000000000
40
0.0000000000
40
0.0000000000
40
0.0000000000
40
1.0000000000
40
1.0000000000
40
1.0000000000
40
1.0000000000
10
-14.5782991715
20
-188.9821340678
30
0.0000000000
10
-14.5779534870
20
-188.9762428223
30
0.0000000000
10
-14.5776028354
20
-188.9703518577
30
0.0000000000
10
-14.5772471866
20
-188.9644611868
30
0.0000000000
11
-14.5782991715
21
-188.9821340678
31
0.0000000000
11
-14.5772471866
21
-188.9644611868
31
0.0000000000
0
SPLINE
5
303
100
AcDbEntity
8
0
100
AcDbSpline
62
7
6
CONTINUOUS
70
0
71
3
72
14
73
10
74
8
42
0.0000001000
43
0.0000001000
44
0.0000000001
12
0.2227241590
22
3.6890181300
32
0.0000000000
13
2.0301873525
23
3.0884928604
33
0.0000000000
40
0.0000000000
40
0.0000000000
40
0.0000000000
40
0.0000000000
40
0.1644880653
40
0.3227456111
40
0.4741193142
40
0.6216994345
40
0.7680094445
40
0.9155948140
40
1.0000000000
40
1.0000000000
40
1.0000000000
40
1.0000000000
10
-14.5772471866
20
-188.9644611868
30
0.0000000000
10
-14.5650353646
20
-188.7621947017
30
0.0000000000
10
-14.5295139348
20
-188.3660025917
30
0.0000000000
10
-14.4371115324
20
-187.7888597906
30
0.0000000000
10
-14.3049284856
20
-187.2408278312
30
0.0000000000
10
-14.1318558746
20
-186.7197248750
30
0.0000000000
10
-13.9158655157
20
-186.2199563430
30
0.0000000000
10
-13.6942958259
20
-185.8094272623
30
0.0000000000
10
-13.5425690063
20
-185.5671339041
30
0.0000000000
10
-13.4854495592
20
-185.4802389659
30
0.0000000000
11
-14.5772471866
21
-188.9644611868
31
0.0000000000
11
-14.5217165415
21
-188.3592154384
31
0.0000000000
11
-14.4281491104
21
-187.7819890250
31
0.0000000000
11
-14.2961984559
21
-187.2384510543
31
0.0000000000
11
-14.1239105478
21
-186.7210755209
31
0.0000000000
11
-13.9094642301
21
-186.2248124321
31
0.0000000000
11
-13.6508764509
21
-185.7446936137
31
0.0000000000
11
-13.4854495592
21
-185.4802389659
31
0.0000000000
0
SPLINE
5
304
100
AcDbEntity
8
0
100
AcDbSpline
62
7
6
CONTINUOUS
70
0
71
3
72
26
73
22
74
20
42
0.0000001000
43
0.0000001000
44
0.0000000001
12
12.4603809719
22
-3.7790197219
32
0.0000000000
13
-0.0043092175
23
13.0471745113
33
0.0000000000
40
0.0000000000
40
0.0000000000
40
0.0000000000
40
0.0000000000
40
0.0572384065
40
0.1207173582
40
0.1860086427
40
0.2524747474
40
0.3194494158
40
0.3862542265
40
0.4522148031
40
0.5166771450
40
0.5790245958
40
0.6386961056
40
0.6952067191
40
0.7481716478
40
0.7973358411
40
0.8426114224
40
0.8841248265
40
0.9222715671
40
0.9577648014
40
0.9916422954
40
1.0000000000
40
1.0000000000
40
1.0000000000
40
1.0000000000
10
20.1020728358
20
-216.4809707668
30
0.0000000000
10
20.3398102862
20
-216.5530724558
30
0.0000000000
10
20.8464636926
20
-216.6877218109
30
0.0000000000
10
21.6388800818
20
-216.8442393014
30
0.0000000000
10
22.4791922502
20
-216.9562217458
30
0.0000000000
10
23.3397926304
20
-217.0189279357
30
0.0000000000
10
24.2091406137
20
-217.0315117822
30
0.0000000000
10
25.0755693114
20
-216.9938029278
30
0.0000000000
10
25.9274538111
20
-216.9063110614
30
0.0000000000
10
26.7533750679
20
-216.7702169054
30
0.0000000000
10
27.5422829016
20
-216.5873516638
30
0.0000000000
10
28.2836548890
20
-216.3601627366
30
0.0000000000
10
28.9676487259
20
-216.0916627564
30
0.0000000000
10
29.5852423706
20
-215.7853564879
30
0.0000000000
10
30.1283488727
20
-215.4451379754
30
0.0000000000
10
30.5898755004
20
-215.0751535410
30
0.0000000000
10
30.9636664065
20
-214.6796535616
30
0.0000000000
10
31.2442545311
20
-214.2629509803
30
0.0000000000
10
31.4264963422
20
-213.8297774331
30
0.0000000000
10
31.4863309552
20
-213.4947838548
30
0.0000000000
10
31.4916004129
20
-213.3111122470
30
0.0000000000
10
31.4915884078
20
-213.2747641038
30
0.0000000000
11
20.1020728358
21
-216.4809707668
31
0.0000000000
11
20.8219840484
21
-216.6733259207
31
0.0000000000
11
21.6325353403
21
-216.8343316328
31
0.0000000000
11
22.4749892190
21
-216.9471990510
31
0.0000000000
11
23.3379529408
21
-217.0104018372
31
0.0000000000
11
24.2097564020
21
-217.0230852822
31
0.0000000000
11
25.0786099563
21
-216.9850778640
31
0.0000000000
11
25.9327638497
21
-216.8968935679
31
0.0000000000
11
26.7606671163
21
-216.7597249352
31
0.0000000000
11
27.5511237846
21
-216.5754269363
31
0.0000000000
11
28.2934442841
21
-216.3464918854
31
0.0000000000
11
28.9775900036
21
-216.0760157365
31
0.0000000000
11
29.5943090458
21
-215.7676562154
31
0.0000000000
11
30.1352613436
21
-215.4255833557
31
0.0000000000
11
30.5931314453
21
-215.0544231059
31
0.0000000000
11
30.9617274432
21
-214.6591947718
31
0.0000000000
11
31.2360647086
21
-214.2452431385
31
0.0000000000
11
31.4124333008
21
-213.8181661918
31
0.0000000000
11
31.4884481371
21
-213.3837394146
31
0.0000000000
11
31.4915884078
21
-213.2747641038
31
0.0000000000
0
SPLINE
5
305
100
AcDbEntity
8
0
100
AcDbSpline
62
7
6
CONTINUOUS
70
0
71
3
72
8
73
4
74
2
42
0.0000001000
43
0.0000001000
44
0.0000000001
12
-0.0000208623
22
0.0631656288
32
0.0000000000
13
-0.0021373624
23
0.0631340569
33
0.0000000000
40
0.0000000000
40
0.0000000000
40
0.0000000000
40
0.0000000000
40
1.0000000000
40
1.0000000000
40
1.0000000000
40
1.0000000000
10
31.4915884078
20
-210.8498929732
30
0.0000000000
10
31.4915814537
20
-210.8288377635
30
0.0000000000
10
31.4912205801
20
-210.8077817752
30
0.0000000000
10
31.4905081259
20
-210.7867370896
30
0.0000000000
11
31.4915884078
21
-210.8498929732
31
0.0000000000
11
31.4905081259
21
-210.7867370896
31
0.0000000000
0
SPLINE
5
306
100
AcDbEntity
8
0
100
AcDbSpline
62
7
6
CONTINUOUS
70
0
71
3
72
22
73
18
74
16
42
0.0000001000
43
0.0000001000
44
0.0000000001
12
9.2047452187
22
-0.0773173501
32
0.0000000000
13
-0.0030465654
23
9.2241967627
33
0.0000000000
40
0.0000000000
40
0.0000000000
40
0.0000000000
40
0.0000000000
40
0.0373945327
40
0.1318866653
40
0.2251846700
40
0.3163634953
40
0.4045509106
40
0.4889533384
40
0.5688848332
40
0.6438011305
40
0.7133414739
40
0.7773815661
40
0.8361002428
40
0.8900569388
40
0.9402603802
40
0.9881784363
40
1.0000000000
40
1.0000000000
40
1.0000000000
40
1.0000000000
10
23.8655458584
20
-214.5992739186
30
0.0000000000
10
23.9802815737
20
-214.6002376673
30
0.0000000000
10
24.3849820384
20
-214.5989876518
30
0.0000000000
10
25.0755693114
20
-214.5689317972
30
0.0000000000
10
25.9274538111
20
-214.4814399308
30
0.0000000000
10
26.7533750679
20
-214.3453457748
30
0.0000000000
10
27.5422829016
20
-214.1624805333
30
0.0000000000
10
28.2836548890
20
-213.9352916060
30
0.0000000000
10
28.9676487259
20
-213.6667916258
30
0.0000000000
10
29.5852423706
20
-213.3604853573
30
0.0000000000
10
30.1283488727
20
-213.0202668448
30
0.0000000000
10
30.5898755004
20
-212.6502824104
30
0.0000000000
10
30.9636664065
20
-212.2547824310
30
0.0000000000
10
31.2442545311
20
-211.8380798497
30
0.0000000000
10
31.4264963422
20
-211.4049063025
30
0.0000000000
10
31.4863309552
20
-211.0699127243
30
0.0000000000
10
31.4916004129
20
-210.8862411164
30
0.0000000000
10
31.4915884078
20
-210.8498929732
30
0.0000000000
11
23.8655458584
21
-214.5992739186
31
0.0000000000
11
24.2097564020
21
-214.5982141516
31
0.0000000000
11
25.0786099563
21
-214.5602067334
31
0.0000000000
11
25.9327638497
21
-214.4720224373
31
0.0000000000
11
26.7606671163
21
-214.3348538046
31
0.0000000000
11
27.5511237846
21
-214.1505558057
31
0.0000000000
11
28.2934442841
21
-213.9216207548
31
0.0000000000
11
28.9775900036
21
-213.6511446059
31
0.0000000000
11
29.5943090458
21
-213.3427850848
31
0.0000000000
11
30.1352613436
21
-213.0007122251
31
0.0000000000
11
30.5931314453
21
-212.6295519753
31
0.0000000000
11
30.9617274432
21
-212.2343236412
31
0.0000000000
11
31.2360647086
21
-211.8203720079
31
0.0000000000
11
31.4124333008
21
-211.3932950612
31
0.0000000000
11
31.4884481371
21
-210.9588682840
31
0.0000000000
11
31.4915884078
21
-210.8498929732
31
0.0000000000
0
SPLINE
5
307
100
AcDbEntity
8
0
100
AcDbSpline
62
7
6
CONTINUOUS
70
0
71
3
72
13
73
9
74
7
42
0.0000001000
43
0.0000001000
44
0.0000000001
12
0.0000000000
22
3.8350899536
32
0.0000000000
13
2.0268558855
23
3.2571953911
33
0.0000000000
40
0.0000000000
40
0.0000000000
40
0.0000000000
40
0.0000000000
40
0.1581392036
40
0.3239317453
40
0.4956759678
40
0.6713802388
40
0.8488723156
40
1.0000000000
40
1.0000000000
40
1.0000000000
40
1.0000000000
10
-14.5976728151
20
94.2272526065
30
0.0000000000
10
-14.5976728151
20
94.4294119635
30
0.0000000000
10
-14.5729601644
20
94.8437812533
30
0.0000000000
10
-14.4694778498
20
95.4699177493
30
0.0000000000
10
-14.3007277841
20
96.1049533362
30
0.0000000000
10
-14.0701108889
20
96.7360822411
30
0.0000000000
10
-13.7963199206
20
97.3206705079
30
0.0000000000
10
-13.5878493816
20
97.6858838507
30
0.0000000000
10
-13.4857447027
20
97.8499679831
30
0.0000000000
11
-14.5976728151
21
94.2272526065
31
0.0000000000
11
-14.5633163530
21
94.8327567636
31
0.0000000000
11
-14.4609463654
21
95.4602910643
31
0.0000000000
11
-14.2926468099
21
96.0970807197
31
0.0000000000
11
-14.0618437801
21
96.7301625290
31
0.0000000000
11
-13.7732357602
21
97.3466487721
31
0.0000000000
11
-13.4857447027
21
97.8499679831
31
0.0000000000
0
SPLINE
5
308
100
AcDbEntity
8
0
100
AcDbSpline
62
7
6
CONTINUOUS
70
0
71
3
72
15
73
11
74
9
42
0.0000001000
43
0.0000001000
44
0.0000000001
12
-1.6222826825
22
1.9889722638
32
0.0000000000
13
0.0000000000
23
2.5665175100
33
0.0000000000
40
0.0000000000
40
0.0000000000
40
0.0000000000
40
0.0000000000
40
0.1036544851
40
0.2726674161
40
0.4240567277
40
0.5598297850
40
0.6821468928
40
0.7937948610
40
0.8982910305
40
1.0000000000
40
1.0000000000
40
1.0000000000
40
1.0000000000
10
-13.4852031207
20
91.2587259126
30
0.0000000000
10
-13.5412554128
20
91.3274478779
30
0.0000000000
10
-13.6868272083
20
91.5097514426
30
0.0000000000
10
-13.9039717444
20
91.8005404734
30
0.0000000000
10
-14.1205528522
20
92.1254643244
30
0.0000000000
10
-14.2950804295
20
92.4295772604
30
0.0000000000
10
-14.4294591129
20
92.7164073857
30
0.0000000000
10
-14.5254307201
20
92.9902291798
30
0.0000000000
10
-14.5840594988
20
93.2564887098
30
0.0000000000
10
-14.5976728151
20
93.4331332082
30
0.0000000000
10
-14.5976728151
20
93.5201458253
30
0.0000000000
11
-13.4852031207
21
91.2587259126
31
0.0000000000
11
-13.6510739867
21
91.4667285555
31
0.0000000000
11
-13.9096717097
21
91.8149923374
31
0.0000000000
11
-14.1240916182
21
92.1390139625
31
0.0000000000
11
-14.2963318185
21
92.4419337923
31
0.0000000000
11
-14.4282279634
21
92.7268106487
31
0.0000000000
11
-14.5217434100
21
92.9976680614
31
0.0000000000
11
-14.5783020086
21
93.2598276899
31
0.0000000000
11
-14.5976728151
21
93.5201458253
31
0.0000000000
0
SPLINE
5
309
100
AcDbEntity
8
0
100
AcDbSpline
62
7
6
CONTINUOUS
70
0
71
3
72
8
73
4
74
2
42
0.0000001000
43
0.0000001000
44
0.0000000001
12
0.0000000000
22
0.6882998543
32
0.0000000000
13
0.0403264304
23
0.6872535657
33
0.0000000000
40
0.0000000000
40
0.0000000000
40
0.0000000000
40
0.0000000000
40
1.0000000000
40
1.0000000000
40
1.0000000000
40
1.0000000000
10
-14.5976728151
20
93.5201458253
30
0.0000000000
10
-14.5976728151
20
93.7495791101
30
0.0000000000
10
-14.5917413149
20
93.9790884478
30
0.0000000000
10
-14.5782991715
20
94.2081729697
30
0.0000000000
11
-14.5976728151
21
93.5201458253
31
0.0000000000
11
-14.5782991715
21
94.2081729697
31
0.0000000000
0
SPLINE
5
30A
100
AcDbEntity
8
0
100
AcDbSpline
62
7
6
CONTINUOUS
70
0
71
3
72
8
73
4
74
2
42
0.0000001000
43
0.0000001000
44
0.0000000001
12
0.0010370535
22
0.0176737366
32
0.0000000000
13
0.0010669463
23
0.0176720128
33
0.0000000000
40
0.0000000000
40
0.0000000000
40
0.0000000000
40
0.0000000000
40
1.0000000000
40
1.0000000000
40
1.0000000000
40
1.0000000000
10
-14.5782991715
20
94.2081729697
30
0.0000000000
10
-14.5779534870
20
94.2140642152
30
0.0000000000
10
-14.5776028354
20
94.2199551798
30
0.0000000000
10
-14.5772471866
20
94.2258458507
30
0.0000000000
11
-14.5782991715
21
94.2081729697
31
0.0000000000
11
-14.5772471866
21
94.2258458507
31
0.0000000000
0
SPLINE
5
30B
100
AcDbEntity
8
0
100
AcDbSpline
62
7
6
CONTINUOUS
70
0
71
3
72
14
73
10
74
8
42
0.0000001000
43
0.0000001000
44
0.0000000001
12
0.2227241590
22
3.6890181300
32
0.0000000000
13
2.0301873525
23
3.0884928604
33
0.0000000000
40
0.0000000000
40
0.0000000000
40
0.0000000000
40
0.0000000000
40
0.1644880653
40
0.3227456111
40
0.4741193142
40
0.6216994345
40
0.7680094445
40
0.9155948140
40
1.0000000000
40
1.0000000000
40
1.0000000000
40
1.0000000000
10
-14.5772471866
20
94.2258458507
30
0.0000000000
10
-14.5650353646
20
94.4281123358
30
0.0000000000
10
-14.5295139348
20
94.8243044458
30
0.0000000000
10
-14.4371115324
20
95.4014472469
30
0.0000000000
10
-14.3049284856
20
95.9494792063
30
0.0000000000
10
-14.1318558746
20
96.4705821625
30
0.0000000000
10
-13.9158655157
20
96.9703506945
30
0.0000000000
10
-13.6942958259
20
97.3808797752
30
0.0000000000
10
-13.5425690063
20
97.6231731334
30
0.0000000000
10
-13.4854495592
20
97.7100680716
30
0.0000000000
11
-14.5772471866
21
94.2258458507
31
0.0000000000
11
-14.5217165415
21
94.8310915991
31
0.0000000000
11
-14.4281491104
21
95.4083180125
31
0.0000000000
11
-14.2961984559
21
95.9518559832
31
0.0000000000
11
-14.1239105478
21
96.4692315166
31
0.0000000000
11
-13.9094642301
21
96.9654946054
31
0.0000000000
11
-13.6508764509
21
97.4456134238
31
0.0000000000
11
-13.4854495592
21
97.7100680716
31
0.0000000000
0
SPLINE
5
30C
100
AcDbEntity
8
0
100
AcDbSpline
62
7
6
CONTINUOUS
70
0
71
3
72
11
73
7
74
5
42
0.0000001000
43
0.0000001000
44
0.0000000001
12
-2.6372161335
22
1.3186080667
32
0.0000000000
13
-2.9039928971
23
0.5133255146
33
0.0000000000
40
0.0000000000
40
0.0000000000
40
0.0000000000
40
0.0000000000
40
0.2418597775
40
0.4985878578
40
0.7682496076
40
1.0000000000
40
1.0000000000
40
1.0000000000
40
1.0000000000
10
29.2949218704
20
150.1631619267
30
0.0000000000
10
29.0823097013
20
150.2694680112
30
0.0000000000
10
28.6333686059
20
150.4677265220
30
0.0000000000
10
27.9195552968
20
150.7159562567
30
0.0000000000
10
27.1992277703
20
150.9089788216
30
0.0000000000
10
26.7160843617
20
151.0073701753
30
0.0000000000
10
26.4917505306
20
151.0470246384
30
0.0000000000
11
29.2949218704
21
150.1631619267
31
0.0000000000
11
28.6433871960
21
150.4530702407
31
0.0000000000
11
27.9289453640
21
150.7031990189
31
0.0000000000
11
27.1612579745
21
150.9101656986
31
0.0000000000
11
26.4917505306
21
151.0470246384
31
0.0000000000
0
SPLINE
5
30D
100
AcDbEntity
8
0
100
AcDbSpline
62
7
6
CONTINUOUS
70
0
71
3
72
12
73
8
74
6
42
0.0000001000
43
0.0000001000
44
0.0000000001
12
-3.2376744171
22
-0.5723985978
32
0.0000000000
13
-2.8672503197
23
-1.6109113909
33
0.0000000000
40
0.0000000000
40
0.0000000000
40
0.0000000000
40
0.0000000000
40
0.0832560620
40
0.3301588908
40
0.5664646960
40
0.7902530007
40
1.0000000000
40
1.0000000000
40
1.0000000000
40
1.0000000000
10
21.4916121830
20
151.0470475602
30
0.0000000000
10
21.4017601757
20
151.0311623425
30
0.0000000000
10
21.0460999538
20
150.9644603296
30
0.0000000000
10
20.4409591213
20
150.8241914417
30
0.0000000000
10
19.6995871339
20
150.5970025145
30
0.0000000000
10
19.0155932970
20
150.3285025343
30
0.0000000000
10
18.5893986941
20
150.1171239368
30
0.0000000000
10
18.3889329771
20
150.0044959933
30
0.0000000000
11
21.4916121830
21
151.0470475602
31
0.0000000000
11
21.2225749066
21
150.9965647131
31
0.0000000000
11
20.4321182383
21
150.8122667142
31
0.0000000000
11
19.6897977388
21
150.5833316633
31
0.0000000000
11
19.0056520193
21
150.3128555144
31
0.0000000000
11
18.3889329771
21
150.0044959933
31
0.0000000000
0
SPLINE
5
30E
100
AcDbEntity
8
0
100
AcDbSpline
62
7
6
CONTINUOUS
70
0
71
3
72
8
73
4
74
2
42
0.0000001000
43
0.0000001000
44
0.0000000001
12
-0.3771356506
22
-0.2118866676
32
0.0000000000
13
-0.3613238873
23
-0.2378629917
33
0.0000000000
40
0.0000000000
40
0.0000000000
40
0.0000000000
40
0.0000000000
40
1.0000000000
40
1.0000000000
40
1.0000000000
40
1.0000000000
10
18.3889329771
20
150.0044959933
30
0.0000000000
10
18.2632210936
20
149.9338671041
30
0.0000000000
10
18.1397624759
20
149.8591634412
30
0.0000000000
10
18.0193211801
20
149.7798757773
30
0.0000000000
11
18.3889329771
21
150.0044959933
31
0.0000000000
11
18.0193211801
21
149.7798757773
31
0.0000000000
0
SPLINE
5
30F
100
AcDbEntity
8
0
100
AcDbSpline
62
7
6
CONTINUOUS
70
0
71
3
72
14
73
10
74
8
42
0.0000001000
43
0.0000001000
44
0.0000000001
12
-2.3782100448
22
-1.5655985558
32
0.0000000000
13
0.0009420557
23
-2.8522961795
33
0.0000000000
40
0.0000000000
40
0.0000000000
40
0.0000000000
40
0.0000000000
40
0.0729592995
40
0.2800620594
40
0.4699556026
40
0.6444491157
40
0.8068047732
40
0.9617695979
40
1.0000000000
40
1.0000000000
40
1.0000000000
40
1.0000000000
10
18.0193211801
20
149.7798757773
30
0.0000000000
10
17.9614836671
20
149.7418007860
30
0.0000000000
10
17.7421391366
20
149.5915881042
30
0.0000000000
10
17.3933665225
20
149.3119933189
30
0.0000000000
10
17.0195756165
20
148.9164933395
30
0.0000000000
10
16.7389874918
20
148.4997907581
30
0.0000000000
10
16.5567456807
20
148.0666172110
30
0.0000000000
10
16.4969110678
20
147.7316236327
30
0.0000000000
10
16.4916416101
20
147.5479520249
30
0.0000000000
10
16.4916536151
20
147.5116038816
30
0.0000000000
11
18.0193211801
21
149.7798757773
31
0.0000000000
11
17.8479806793
21
149.6624231336
31
0.0000000000
11
17.3901105776
21
149.2912628838
31
0.0000000000
11
17.0215145798
21
148.8960345497
31
0.0000000000
11
16.7471773143
21
148.4820829164
31
0.0000000000
11
16.5708087221
21
148.0550059696
31
0.0000000000
11
16.4947938858
21
147.6205791925
31
0.0000000000
11
16.4916536151
21
147.5116038816
31
0.0000000000
0
SPLINE
5
310
100
AcDbEntity
8
0
100
AcDbSpline
62
7
6
CONTINUOUS
70
0
71
3
72
9
73
5
74
3
42
0.0000001000
43
0.0000001000
44
0.0000000001
12
0.0001459817
22
-0.4419939486
32
0.0000000000
13
-0.1010880197
23
-0.4302856841
33
0.0000000000
40
0.0000000000
40
0.0000000000
40
0.0000000000
40
0.0000000000
40
0.2467102324
40
1.0000000000
40
1.0000000000
40
1.0000000000
40
1.0000000000
10
31.4915884078
20
145.0865479822
30
0.0000000000
10
31.4916004129
20
145.0501998390
30
0.0000000000
10
31.4873738120
20
144.9028779296
30
0.0000000000
10
31.4656204226
20
144.7566153544
30
0.0000000000
10
31.4402375657
20
144.6485720867
30
0.0000000000
11
31.4915884078
21
145.0865479822
31
0.0000000000
11
31.4884481371
21
144.9775726714
31
0.0000000000
11
31.4402375657
21
144.6485720867
31
0.0000000000
0
SPLINE
5
311
100
AcDbEntity
8
0
100
AcDbSpline
62
7
6
CONTINUOUS
70
0
71
3
72
27
73
23
74
21
42
0.0000001000
43
0.0000001000
44
0.0000000001
12
-3.2313362157
22
-13.7543273432
32
0.0000000000
13
-12.6090183705
23
6.3045091853
33
0.0000000000
40
0.0000000000
40
0.0000000000
40
0.0000000000
40
0.0000000000
40
0.0077188218
40
0.0404953738
40
0.0757223304
40
0.1140582632
40
0.1558684131
40
0.2012695373
40
0.2501804853
40
0.3023657284
40
0.3574699301
40
0.4150452540
40
0.4745735935
40
0.5354854915
40
0.5971770052
40
0.6590253756
40
0.7204041082
40
0.7806979422
40
0.8393181610
40
0.8957187702
40
0.9494142614
40
1.0000000000
40
1.0000000000
40
1.0000000000
40
1.0000000000
10
31.4402375657
20
144.6485720867
30
0.0000000000
10
31.4319235295
20
144.6131830194
30
0.0000000000
10
31.3832418806
20
144.4287224142
30
0.0000000000
10
31.2442545311
20
144.0983611057
30
0.0000000000
10
30.9636664065
20
143.6816585244
30
0.0000000000
10
30.5898755004
20
143.2861585450
30
0.0000000000
10
30.1283488727
20
142.9161741106
30
0.0000000000
10
29.5852423706
20
142.5759555981
30
0.0000000000
10
28.9676487259
20
142.2696493296
30
0.0000000000
10
28.2836548890
20
142.0011493494
30
0.0000000000
10
27.5422829016
20
141.7739604222
30
0.0000000000
10
26.7533750679
20
141.5910951806
30
0.0000000000
10
25.9274538111
20
141.4550010246
30
0.0000000000
10
25.0755693114
20
141.3675091582
30
0.0000000000
10
24.2091406137
20
141.3298003038
30
0.0000000000
10
23.3397926304
20
141.3423841503
30
0.0000000000
10
22.4791922502
20
141.4050903402
30
0.0000000000
10
21.6388800818
20
141.5170727846
30
0.0000000000
10
20.8301178248
20
141.6768188987
30
0.0000000000
10
20.0636867261
20
141.8821956072
30
0.0000000000
10
19.3498734170
20
142.1304253419
30
0.0000000000
10
18.9009323216
20
142.3286838527
30
0.0000000000
10
18.6883201526
20
142.4349899372
30
0.0000000000
11
31.4402375657
21
144.6485720867
31
0.0000000000
11
31.4124333008
21
144.5431458942
31
0.0000000000
11
31.2360647086
21
144.1160689475
31
0.0000000000
11
30.9617274432
21
143.7021173142
31
0.0000000000
11
30.5931314453
21
143.3068889801
31
0.0000000000
11
30.1352613436
21
142.9357287303
31
0.0000000000
11
29.5943090458
21
142.5936558706
31
0.0000000000
11
28.9775900036
21
142.2852963495
31
0.0000000000
11
28.2934442841
21
142.0148202006
31
0.0000000000
11
27.5511237846
21
141.7858851497
31
0.0000000000
11
26.7606671163
21
141.6015871508
31
0.0000000000
11
25.9327638497
21
141.4644185181
31
0.0000000000
11
25.0786099563
21
141.3762342220
31
0.0000000000
11
24.2097564020
21
141.3382268038
31
0.0000000000
11
23.3379529408
21
141.3509102488
31
0.0000000000
11
22.4749892190
21
141.4141130350
31
0.0000000000
11
21.6325353403
21
141.5269804533
31
0.0000000000
11
20.8219840484
21
141.6879861653
31
0.0000000000
11
20.0542966589
21
141.8949528450
31
0.0000000000
11
19.3398548269
21
142.1450816232
31
0.0000000000
11
18.6883201526
21
142.4349899372
31
0.0000000000
0
SPLINE
5
312
100
AcDbEntity
8
0
100
AcDbSpline
62
7
6
CONTINUOUS
70
0
71
3
72
14
73
10
74
8
42
0.0000001000
43
0.0000001000
44
0.0000000001
12
3.2353829529
22
-1.6176914764
32
0.0000000000
13
0.0011973611
23
-3.6252937129
33
0.0000000000
40
0.0000000000
40
0.0000000000
40
0.0000000000
40
0.0000000000
40
0.1838584119
40
0.3537951558
40
0.5098562077
40
0.6529556164
40
0.7850718775
40
0.9093691237
40
1.0000000000
40
1.0000000000
40
1.0000000000
40
1.0000000000
10
29.2949218704
20
150.1631619267
30
0.0000000000
10
29.4932059942
20
150.0640198648
30
0.0000000000
10
29.8666057609
20
149.8560558327
30
0.0000000000
10
30.3697068386
20
149.5004451368
30
0.0000000000
10
30.7880931911
20
149.1171651077
30
0.0000000000
10
31.1159359571
20
148.7105152995
30
0.0000000000
10
31.3479823618
20
148.2849269288
30
0.0000000000
10
31.4687574178
20
147.8807161187
30
0.0000000000
10
31.4915522352
20
147.6209402949
30
0.0000000000
10
31.4915884078
20
147.5114191128
30
0.0000000000
11
29.2949218704
21
150.1631619267
31
0.0000000000
11
29.8747384984
21
149.8373945895
31
0.0000000000
11
30.3749960547
21
149.4801736735
31
0.0000000000
11
30.7889294142
21
149.0963299788
31
0.0000000000
11
31.1109408383
21
148.6910543328
31
0.0000000000
11
31.3366756747
21
148.2698273935
31
0.0000000000
11
31.4630812471
21
147.8383455325
31
0.0000000000
11
31.4915884078
21
147.5114191128
31
0.0000000000
0
SPLINE
5
313
100
AcDbEntity
8
0
100
AcDbSpline
62
7
6
CONTINUOUS
70
0
71
3
72
10
73
6
74
4
42
0.0000001000
43
0.0000001000
44
0.0000000001
12
0.0004259631
22
-0.3738637456
32
0.0000000000
13
-0.1847506574
23
-0.3243511399
33
0.0000000000
40
0.0000000000
40
0.0000000000
40
0.0000000000
40
0.0000000000
40
0.1436547420
40
0.7335149866
40
1.0000000000
40
1.0000000000
40
1.0000000000
40
1.0000000000
10
26.5915638413
20
147.5114194819
30
0.0000000000
10
26.5915842385
20
147.4935170486
30
0.0000000000
10
26.5879308453
20
147.4021305228
30
0.0000000000
10
26.5561760407
20
147.2799264819
30
0.0000000000
10
26.5087020235
20
147.1843886666
30
0.0000000000
10
26.4922909297
20
147.1555770940
30
0.0000000000
11
26.5915638413
21
147.5114194819
31
0.0000000000
11
26.5893999833
21
147.4577890307
31
0.0000000000
11
26.5362848093
21
147.2447315524
31
0.0000000000
11
26.4922909297
21
147.1555770940
31
0.0000000000
0
SPLINE
5
314
100
AcDbEntity
8
0
100
AcDbSpline
62
7
6
CONTINUOUS
70
0
71
3
72
20
73
16
74
14
42
0.0000001000
43
0.0000001000
44
0.0000000001
12
-2.3154817332
22
-4.0650958996
32
0.0000000000
13
-4.1729292040
23
2.0864646020
33
0.0000000000
40
0.0000000000
40
0.0000000000
40
0.0000000000
40
0.0000000000
40
0.0300710563
40
0.0878934335
40
0.1531862407
40
0.2259506093
40
0.3054877454
40
0.3906104767
40
0.4797965581
40
0.5713074118
40
0.6632889045
40
0.7538641480
40
0.8412248667
40
0.9237272256
40
1.0000000000
40
1.0000000000
40
1.0000000000
40
1.0000000000
10
26.4922909297
20
147.1555770940
30
0.0000000000
10
26.4690812692
20
147.1148298514
30
0.0000000000
10
26.3916683966
20
147.0011024242
30
0.0000000000
10
26.2217169819
20
146.8317856875
30
0.0000000000
10
25.9694626875
20
146.6586884638
30
0.0000000000
10
25.6649687425
20
146.5089030226
30
0.0000000000
10
25.3160116212
20
146.3860143558
30
0.0000000000
10
24.9316929887
20
146.2931852801
30
0.0000000000
10
24.5221924290
20
146.2328865196
30
0.0000000000
10
24.0984531636
20
146.2067477919
30
0.0000000000
10
23.6718430137
20
146.2154810754
30
0.0000000000
10
23.2538251465
20
146.2588452640
30
0.0000000000
10
22.8555712114
20
146.3356750888
30
0.0000000000
10
22.4877775892
20
146.4438663449
30
0.0000000000
10
22.2592370097
20
146.5392258670
30
0.0000000000
10
22.1531433804
20
146.5922726817
30
0.0000000000
11
26.4922909297
21
147.1555770940
31
0.0000000000
11
26.4137578404
21
147.0389511355
31
0.0000000000
11
26.2251612928
21
146.8460609334
31
0.0000000000
11
25.9756395888
21
146.6713224880
31
0.0000000000
11
25.6719990299
21
146.5195022086
31
0.0000000000
11
25.3225221391
21
146.3947413566
31
0.0000000000
11
24.9367417349
21
146.3004430828
31
0.0000000000
11
24.5251809012
21
146.2391795983
31
0.0000000000
11
24.0990659445
21
146.2126220113
31
0.0000000000
11
23.6700201702
21
146.2214947436
31
0.0000000000
11
23.2497468284
21
146.2655557700
31
0.0000000000
11
22.8497098805
21
146.3436032208
31
0.0000000000
11
22.4808212914
21
146.4535081648
31
0.0000000000
11
22.1531433804
21
146.5922726817
31
0.0000000000
0
SPLINE
5
315
100
AcDbEntity
8
0
100
AcDbSpline
62
7
6
CONTINUOUS
70
0
71
3
72
9
73
5
74
3
42
0.0000001000
43
0.0000001000
44
0.0000000001
12
0.0004263260
22
-0.3741822730
32
0.0000000000
13
0.1849420702
23
-0.3249819440
33
0.0000000000
40
0.0000000000
40
0.0000000000
40
0.0000000000
40
0.0000000000
40
0.4342228399
40
1.0000000000
40
1.0000000000
40
1.0000000000
40
1.0000000000
10
21.3916781816
20
147.5116035126
30
0.0000000000
10
21.3917398884
20
147.4574440162
30
0.0000000000
10
21.4073925548
20
147.3326132815
30
0.0000000000
10
21.4562148985
20
147.2166702545
30
0.0000000000
10
21.4910935649
20
147.1553811341
30
0.0000000000
11
21.3916781816
21
147.5116035126
31
0.0000000000
11
21.4115875041
21
147.3507110766
31
0.0000000000
11
21.4910935649
21
147.1553811341
31
0.0000000000
0
SPLINE
5
316
100
AcDbEntity
8
0
100
AcDbSpline
62
7
6
CONTINUOUS
70
0
71
3
72
11
73
7
74
5
42
0.0000001000
43
0.0000001000
44
0.0000000001
12
0.4368333141
22
-0.7676076053
32
0.0000000000
13
0.7871102044
23
-0.3935551022
33
0.0000000000
40
0.0000000000
40
0.0000000000
40
0.0000000000
40
0.0000000000
40
0.0194009351
40
0.3077120283
40
0.6337773079
40
1.0000000000
40
1.0000000000
40
1.0000000000
40
1.0000000000
10
21.4910935649
20
147.1553811341
30
0.0000000000
10
21.4939185565
20
147.1504170323
30
0.0000000000
10
21.5394798321
20
147.0721313256
30
0.0000000000
10
21.6570578276
20
146.9259391804
30
0.0000000000
10
21.8806581098
20
146.7425665648
30
0.0000000000
10
22.0570575077
20
146.6403156180
30
0.0000000000
10
22.1531433804
20
146.5922726817
30
0.0000000000
11
21.4910935649
21
147.1553811341
31
0.0000000000
11
21.4997095571
21
147.1405744057
31
0.0000000000
11
21.6558044585
21
146.9405559317
31
0.0000000000
11
21.8756143466
21
146.7561116372
31
0.0000000000
11
22.1531433804
21
146.5922726817
31
0.0000000000
0
SPLINE
5
317
100
AcDbEntity
8
0
100
AcDbSpline
62
7
6
CONTINUOUS
70
0
71
3
72
14
73
10
74
8
42
0.0000001000
43
0.0000001000
44
0.0000000001
12
0.0011973611
22
-3.6252937129
32
0.0000000000
13
3.2353829529
23
-1.6176914764
33
0.0000000000
40
0.0000000000
40
0.0000000000
40
0.0000000000
40
0.0000000000
40
0.0906308763
40
0.2149281225
40
0.3470443836
40
0.4901437923
40
0.6462048442
40
0.8161415881
40
1.0000000000
40
1.0000000000
40
1.0000000000
40
1.0000000000
10
16.4916536151
20
145.0867327510
30
0.0000000000
10
16.4916897877
20
144.9772115690
30
0.0000000000
10
16.5144846051
20
144.7174357452
30
0.0000000000
10
16.6352596611
20
144.3132249351
30
0.0000000000
10
16.8673060658
20
143.8876365644
30
0.0000000000
10
17.1951488318
20
143.4809867562
30
0.0000000000
10
17.6135351843
20
143.0977067271
30
0.0000000000
10
18.1166362620
20
142.7420960312
30
0.0000000000
10
18.4900360287
20
142.5341319991
30
0.0000000000
10
18.6883201526
20
142.4349899372
30
0.0000000000
11
16.4916536151
21
145.0867327510
31
0.0000000000
11
16.5201607758
21
144.7598063313
31
0.0000000000
11
16.6465663482
21
144.3283244704
31
0.0000000000
11
16.8723011847
21
143.9070975311
31
0.0000000000
11
17.1943126087
21
143.5018218851
31
0.0000000000
11
17.6082459682
21
143.1179781904
31
0.0000000000
11
18.1085035246
21
142.7607572744
31
0.0000000000
11
18.6883201526
21
142.4349899372
31
0.0000000000
0
SPLINE
5
318
100
AcDbEntity
8
0
100
AcDbSpline
62
7
6
CONTINUOUS
70
0
71
3
72
10
73
6
74
4
42
0.0000001000
43
0.0000001000
44
0.0000000001
12
-0.1847506574
22
-0.3243511399
32
0.0000000000
13
0.0004259631
23
-0.3738637456
33
0.0000000000
40
0.0000000000
40
0.0000000000
40
0.0000000000
40
0.0000000000
40
0.2664850134
40
0.8563452580
40
1.0000000000
40
1.0000000000
40
1.0000000000
40
1.0000000000
10
21.4909510932
20
147.8674459005
30
0.0000000000
10
21.4745399994
20
147.8386343279
30
0.0000000000
10
21.4270659822
20
147.7430965126
30
0.0000000000
10
21.3953111776
20
147.6208924717
30
0.0000000000
10
21.3916577844
20
147.5295059459
30
0.0000000000
10
21.3916781816
20
147.5116035126
30
0.0000000000
11
21.4909510932
21
147.8674459005
31
0.0000000000
11
21.4469572136
21
147.7782914421
31
0.0000000000
11
21.3938420396
21
147.5652339638
31
0.0000000000
11
21.3916781816
21
147.5116035126
31
0.0000000000
0
SPLINE
5
319
100
AcDbEntity
8
0
100
AcDbSpline
62
7
6
CONTINUOUS
70
0
71
3
72
9
73
5
74
3
42
0.0000001000
43
0.0000001000
44
0.0000000001
12
0.1849420702
22
-0.3249819440
32
0.0000000000
13
0.0004263260
23
-0.3741822730
33
0.0000000000
40
0.0000000000
40
0.0000000000
40
0.0000000000
40
0.0000000000
40
0.5657771601
40
1.0000000000
40
1.0000000000
40
1.0000000000
40
1.0000000000
10
26.4921484580
20
147.8676418604
30
0.0000000000
10
26.5270271244
20
147.8063527400
30
0.0000000000
10
26.5758494681
20
147.6904097129
30
0.0000000000
10
26.5915021345
20
147.5655789783
30
0.0000000000
10
26.5915638413
20
147.5114194819
30
0.0000000000
11
26.4921484580
21
147.8676418604
31
0.0000000000
11
26.5716545188
21
147.6723119179
31
0.0000000000
11
26.5915638413
21
147.5114194819
31
0.0000000000
0
SPLINE
5
31A
100
AcDbEntity
8
0
100
AcDbSpline
62
7
6
CONTINUOUS
70
0
71
3
72
28
73
24
74
22
42
0.0000001000
43
0.0000001000
44
0.0000000001
12
0.0048123684
22
-14.5705826474
32
0.0000000000
13
-13.0034745994
23
6.5017372997
33
0.0000000000
40
0.0000000000
40
0.0000000000
40
0.0000000000
40
0.0000000000
40
0.0074838757
40
0.0378193529
40
0.0696016387
40
0.1037599969
40
0.1409330215
40
0.1814748739
40
0.2254987696
40
0.2729260197
40
0.3235282401
40
0.3769608736
40
0.4327896685
40
0.4905122349
40
0.5495763900
40
0.6093965115
40
0.6693687314
40
0.7288855598
40
0.7873503998
40
0.8441923930
40
0.8988821078
40
0.9509487636
40
1.0000000000
40
1.0000000000
40
1.0000000000
40
1.0000000000
10
31.4915884078
20
147.5114191128
30
0.0000000000
10
31.4916004129
20
147.4750709696
30
0.0000000000
10
31.4863309552
20
147.2913993618
30
0.0000000000
10
31.4264963422
20
146.9564057835
30
0.0000000000
10
31.2442545311
20
146.5232322363
30
0.0000000000
10
30.9636664065
20
146.1065296550
30
0.0000000000
10
30.5898755004
20
145.7110296756
30
0.0000000000
10
30.1283488727
20
145.3410452412
30
0.0000000000
10
29.5852423706
20
145.0008267287
30
0.0000000000
10
28.9676487259
20
144.6945204602
30
0.0000000000
10
28.2836548890
20
144.4260204800
30
0.0000000000
10
27.5422829016
20
144.1988315527
30
0.0000000000
10
26.7533750679
20
144.0159663112
30
0.0000000000
10
25.9274538111
20
143.8798721552
30
0.0000000000
10
25.0755693114
20
143.7923802888
30
0.0000000000
10
24.2091406137
20
143.7546714344
30
0.0000000000
10
23.3397926304
20
143.7672552809
30
0.0000000000
10
22.4791922502
20
143.8299614708
30
0.0000000000
10
21.6388800818
20
143.9419439152
30
0.0000000000
10
20.8301178248
20
144.1016900292
30
0.0000000000
10
20.0636867261
20
144.3070667378
30
0.0000000000
10
19.3498734170
20
144.5552964725
30
0.0000000000
10
18.9009323216
20
144.7535549833
30
0.0000000000
10
18.6883201526
20
144.8598610678
30
0.0000000000
11
31.4915884078
21
147.5114191128
31
0.0000000000
11
31.4884481371
21
147.4024438020
31
0.0000000000
11
31.4124333008
21
146.9680170248
31
0.0000000000
11
31.2360647086
21
146.5409400781
31
0.0000000000
11
30.9617274432
21
146.1269884448
31
0.0000000000
11
30.5931314453
21
145.7317601107
31
0.0000000000
11
30.1352613436
21
145.3605998609
31
0.0000000000
11
29.5943090458
21
145.0185270012
31
0.0000000000
11
28.9775900036
21
144.7101674801
31
0.0000000000
11
28.2934442841
21
144.4396913312
31
0.0000000000
11
27.5511237846
21
144.2107562803
31
0.0000000000
11
26.7606671163
21
144.0264582814
31
0.0000000000
11
25.9327638497
21
143.8892896487
31
0.0000000000
11
25.0786099563
21
143.8011053526
31
0.0000000000
11
24.2097564020
21
143.7630979344
31
0.0000000000
11
23.3379529408
21
143.7757813794
31
0.0000000000
11
22.4749892190
21
143.8389841656
31
0.0000000000
11
21.6325353403
21
143.9518515838
31
0.0000000000
11
20.8219840484
21
144.1128572959
31
0.0000000000
11
20.0542966589
21
144.3198239756
31
0.0000000000
11
19.3398548269
21
144.5699527538
31
0.0000000000
11
18.6883201526
21
144.8598610678
31
0.0000000000
0
SPLINE
5
31B
100
AcDbEntity
8
0
100
AcDbSpline
62
7
6
CONTINUOUS
70
0
71
3
72
14
73
10
74
8
42
0.0000001000
43
0.0000001000
44
0.0000000001
12
0.0011973611
22
-3.6252937129
32
0.0000000000
13
3.2353829529
23
-1.6176914764
33
0.0000000000
40
0.0000000000
40
0.0000000000
40
0.0000000000
40
0.0000000000
40
0.0906308763
40
0.2149281225
40
0.3470443836
40
0.4901437923
40
0.6462048442
40
0.8161415881
40
1.0000000000
40
1.0000000000
40
1.0000000000
40
1.0000000000
10
16.4916536151
20
147.5116038816
30
0.0000000000
10
16.4916897877
20
147.4020826996
30
0.0000000000
10
16.5144846051
20
147.1423068758
30
0.0000000000
10
16.6352596611
20
146.7380960657
30
0.0000000000
10
16.8673060658
20
146.3125076950
30
0.0000000000
10
17.1951488318
20
145.9058578868
30
0.0000000000
10
17.6135351843
20
145.5225778577
30
0.0000000000
10
18.1166362620
20
145.1669671618
30
0.0000000000
10
18.4900360287
20
144.9590031297
30
0.0000000000
10
18.6883201526
20
144.8598610678
30
0.0000000000
11
16.4916536151
21
147.5116038816
31
0.0000000000
11
16.5201607758
21
147.1846774619
31
0.0000000000
11
16.6465663482
21
146.7531956010
31
0.0000000000
11
16.8723011847
21
146.3319686617
31
0.0000000000
11
17.1943126087
21
145.9266930157
31
0.0000000000
11
17.6082459682
21
145.5428493210
31
0.0000000000
11
18.1085035246
21
145.1856284050
31
0.0000000000
11
18.6883201526
21
144.8598610678
31
0.0000000000
0
SPLINE
5
31C
100
AcDbEntity
8
0
100
AcDbSpline
62
7
6
CONTINUOUS
70
0
71
3
72
10
73
6
74
4
42
0.0000001000
43
0.0000001000
44
0.0000000001
12
0.7219252891
22
0.5113118816
32
0.0000000000
13
-0.0000258973
23
0.8866455414
33
0.0000000000
40
0.0000000000
40
0.0000000000
40
0.0000000000
40
0.0000000000
40
0.1774504663
40
0.6209785461
40
1.0000000000
40
1.0000000000
40
1.0000000000
40
1.0000000000
10
26.0328984058
20
-221.0978186137
30
0.0000000000
10
26.0756003989
20
-221.0675744364
30
0.0000000000
10
26.2203681323
20
-220.9549998917
30
0.0000000000
10
26.4208910426
20
-220.7311976454
30
0.0000000000
10
26.4916242833
20
-220.4880992578
30
0.0000000000
10
26.4916210115
20
-220.3760800304
30
0.0000000000
11
26.0328984058
21
-221.0978186137
31
0.0000000000
11
26.1566845209
21
-221.0010800304
31
0.0000000000
11
26.4064355772
21
-220.6996038368
31
0.0000000000
11
26.4916210115
21
-220.3760800304
31
0.0000000000
0
SPLINE
5
31D
100
AcDbEntity
8
0
100
AcDbSpline
62
7
6
CONTINUOUS
70
0
71
3
72
8
73
4
74
2
42
0.0000001000
43
0.0000001000
44
0.0000000001
12
0.1778807629
22
-0.1263196766
32
0.0000000000
13
0.1945155095
23
-0.0972577547
33
0.0000000000
40
0.0000000000
40
0.0000000000
40
0.0000000000
40
0.0000000000
40
1.0000000000
40
1.0000000000
40
1.0000000000
40
1.0000000000
10
22.6023346235
20
-221.5588559605
30
0.0000000000
10
22.6616282112
20
-221.6009625194
30
0.0000000000
10
22.7247009803
20
-221.6375218658
30
0.0000000000
10
22.7895394834
20
-221.6699411174
30
0.0000000000
11
22.6023346235
21
-221.5588559605
31
0.0000000000
11
22.7895394834
21
-221.6699411174
31
0.0000000000
0
SPLINE
5
31E
100
AcDbEntity
8
0
100
AcDbSpline
62
7
6
CONTINUOUS
70
0
71
3
72
14
73
10
74
8
42
0.0000001000
43
0.0000001000
44
0.0000000001
12
2.4046852019
22
-1.2023426009
32
0.0000000000
13
2.2102390594
23
1.5524642044
33
0.0000000000
40
0.0000000000
40
0.0000000000
40
0.0000000000
40
0.0000000000
40
0.1538404250
40
0.3253766633
40
0.5050093789
40
0.6819100992
40
0.8456531640
40
0.9879371005
40
1.0000000000
40
1.0000000000
40
1.0000000000
40
1.0000000000
10
22.7895394834
20
-221.6699411174
30
0.0000000000
10
22.9128520813
20
-221.7315974163
30
0.0000000000
10
23.1893947367
20
-221.8309254016
30
0.0000000000
10
23.6362655718
20
-221.9115231066
30
0.0000000000
10
24.1108451409
20
-221.9280157475
30
0.0000000000
10
24.5761055092
20
-221.8789237502
30
0.0000000000
10
24.9966028105
20
-221.7683047653
30
0.0000000000
10
25.2558005132
20
-221.6445092482
30
0.0000000000
10
25.3705439000
20
-221.5661498019
30
0.0000000000
10
25.3794311972
20
-221.5599073954
30
0.0000000000
11
22.7895394834
21
-221.6699411174
31
0.0000000000
11
23.1768977340
21
-221.8149274945
31
0.0000000000
11
23.6302600192
21
-221.8994751895
31
0.0000000000
11
24.1128976229
21
-221.9167346508
31
0.0000000000
11
24.5857101168
21
-221.8653076197
31
0.0000000000
11
25.0103930445
21
-221.7493604082
31
0.0000000000
11
25.3525411210
21
-221.5782863699
31
0.0000000000
11
25.3794311972
21
-221.5599073954
31
0.0000000000
0
SPLINE
5
31F
100
AcDbEntity
8
0
100
AcDbSpline
62
7
6
CONTINUOUS
70
0
71
3
72
10
73
6
74
4
42
0.0000001000
43
0.0000001000
44
0.0000000001
12
0.0000258944
22
-0.8865472936
32
0.0000000000
13
0.7223512071
23
-0.5115113000
33
0.0000000000
40
0.0000000000
40
0.0000000000
40
0.0000000000
40
0.0000000000
40
0.3790634573
40
0.8226406892
40
1.0000000000
40
1.0000000000
40
1.0000000000
40
1.0000000000
10
21.4916210115
20
-220.3760800304
30
0.0000000000
10
21.4916242833
20
-220.4880992578
30
0.0000000000
10
21.5623717253
20
-220.7312074546
30
0.0000000000
10
21.7627772872
20
-220.9549450710
30
0.0000000000
10
21.9076518910
20
-221.0675591128
30
0.0000000000
10
21.9503571284
20
-221.0977995433
30
0.0000000000
11
21.4916210115
21
-220.3760800304
31
0.0000000000
11
21.5768064457
21
-220.6996038368
31
0.0000000000
11
21.8265575020
21
-221.0010800304
31
0.0000000000
11
21.9503571284
21
-221.0977995433
31
0.0000000000
0
SPLINE
5
320
100
AcDbEntity
8
0
100
AcDbSpline
62
7
6
CONTINUOUS
70
0
71
3
72
8
73
4
74
2
42
0.0000001000
43
0.0000001000
44
0.0000000001
12
0.3236956160
22
-0.1618478080
32
0.0000000000
13
0.3423217389
23
-0.1197196267
33
0.0000000000
40
0.0000000000
40
0.0000000000
40
0.0000000000
40
0.0000000000
40
1.0000000000
40
1.0000000000
40
1.0000000000
40
1.0000000000
10
22.2238540585
20
-221.2599635069
30
0.0000000000
10
22.3317525972
20
-221.3139127762
30
0.0000000000
10
22.4435485980
20
-221.3601823863
30
0.0000000000
10
22.5576558443
20
-221.4000889285
30
0.0000000000
11
22.2238540585
21
-221.2599635069
31
0.0000000000
11
22.5576558443
21
-221.4000889285
31
0.0000000000
0
SPLINE
5
321
100
AcDbEntity
8
0
100
AcDbSpline
62
7
6
CONTINUOUS
70
0
71
3
72
14
73
10
74
8
42
0.0000001000
43
0.0000001000
44
0.0000000001
12
3.3987792199
22
-1.1886495458
32
0.0000000000
13
2.9388290600
23
2.0814594515
33
0.0000000000
40
0.0000000000
40
0.0000000000
40
0.0000000000
40
0.0000000000
40
0.0536190753
40
0.2249842792
40
0.4054500444
40
0.5859158097
40
0.7572810136
40
0.9116191167
40
1.0000000000
40
1.0000000000
40
1.0000000000
40
1.0000000000
10
22.5576558443
20
-221.4000889285
30
0.0000000000
10
22.6184023106
20
-221.4213336917
30
0.0000000000
10
22.8760414338
20
-221.5029093310
30
0.0000000000
10
23.3535294230
20
-221.5990035543
30
0.0000000000
10
23.9916350394
20
-221.6399635339
30
0.0000000000
10
24.6296579030
20
-221.5990227321
30
0.0000000000
10
25.2259882121
20
-221.4789690392
30
0.0000000000
10
25.6934981339
20
-221.3058094518
30
0.0000000000
10
25.9463196364
20
-221.1591390220
30
0.0000000000
10
26.0328984058
20
-221.0978186137
30
0.0000000000
11
22.5576558443
21
-221.4000889285
31
0.0000000000
11
22.7416210115
21
-221.4586117851
31
0.0000000000
11
23.3445733987
21
-221.5834873132
31
0.0000000000
11
23.9916210115
21
-221.6260800304
31
0.0000000000
11
24.6386686242
21
-221.5834873132
31
0.0000000000
11
25.2416210115
21
-221.4586117851
31
0.0000000000
11
25.7593879644
21
-221.2599635069
31
0.0000000000
11
26.0328984058
21
-221.0978186137
31
0.0000000000
0
SPLINE
5
322
100
AcDbEntity
8
0
100
AcDbSpline
62
7
6
CONTINUOUS
70
0
71
3
72
8
73
4
74
2
42
0.0000001000
43
0.0000001000
44
0.0000000001
12
0.2599983988
22
-0.1841100529
32
0.0000000000
13
0.2841301800
23
-0.1420650900
33
0.0000000000
40
0.0000000000
40
0.0000000000
40
0.0000000000
40
0.0000000000
40
1.0000000000
40
1.0000000000
40
1.0000000000
40
1.0000000000
10
21.9503571284
20
-221.0977995433
30
0.0000000000
10
22.0370232614
20
-221.1591695609
30
0.0000000000
10
22.1291439985
20
-221.2126084769
30
0.0000000000
10
22.2238540585
20
-221.2599635069
30
0.0000000000
11
21.9503571284
21
-221.0977995433
31
0.0000000000
11
22.2238540585
21
-221.2599635069
31
0.0000000000
0
SPLINE
5
323
100
AcDbEntity
8
0
100
AcDbSpline
62
7
6
CONTINUOUS
70
0
71
3
72
14
73
10
74
8
42
0.0000001000
43
0.0000001000
44
0.0000000001
12
2.2102390594
22
1.5524642044
32
0.0000000000
13
2.4046852019
23
-1.2023426009
33
0.0000000000
40
0.0000000000
40
0.0000000000
40
0.0000000000
40
0.0000000000
40
0.0120628995
40
0.1543468360
40
0.3180899008
40
0.4949906211
40
0.6746233367
40
0.8461595750
40
1.0000000000
40
1.0000000000
40
1.0000000000
40
1.0000000000
10
22.6038108257
20
155.7967471733
30
0.0000000000
10
22.6126981229
20
155.8029895798
30
0.0000000000
10
22.7274415097
20
155.8813490261
30
0.0000000000
10
22.9866392124
20
156.0051445432
30
0.0000000000
10
23.4071365137
20
156.1157635281
30
0.0000000000
10
23.8723968820
20
156.1648555254
30
0.0000000000
10
24.3469764511
20
156.1483628845
30
0.0000000000
10
24.7938472862
20
156.0677651795
30
0.0000000000
10
25.0703899416
20
155.9684371942
30
0.0000000000
10
25.1937025395
20
155.9067808953
30
0.0000000000
11
22.6038108257
21
155.7967471733
31
0.0000000000
11
22.6307009019
21
155.8151261478
31
0.0000000000
11
22.9728489784
21
155.9862001861
31
0.0000000000
11
23.3975319061
21
156.1021473976
31
0.0000000000
11
23.8703444000
21
156.1535744287
31
0.0000000000
11
24.3529820037
21
156.1363149674
31
0.0000000000
11
24.8063442889
21
156.0517672724
31
0.0000000000
11
25.1937025395
21
155.9067808953
31
0.0000000000
0
SPLINE
5
324
100
AcDbEntity
8
0
100
AcDbSpline
62
7
6
CONTINUOUS
70
0
71
3
72
10
73
6
74
4
42
0.0000001000
43
0.0000001000
44
0.0000000001
12
0.7223512071
22
-0.5115113000
32
0.0000000000
13
0.0000258944
23
-0.8865472936
33
0.0000000000
40
0.0000000000
40
0.0000000000
40
0.0000000000
40
0.0000000000
40
0.1773593108
40
0.6209365427
40
1.0000000000
40
1.0000000000
40
1.0000000000
40
1.0000000000
10
26.0328848945
20
155.3346393212
30
0.0000000000
10
26.0755901319
20
155.3043988907
30
0.0000000000
10
26.2204647358
20
155.1917848489
30
0.0000000000
10
26.4208702976
20
154.9680472325
30
0.0000000000
10
26.4916177396
20
154.7249390357
30
0.0000000000
10
26.4916210115
20
154.6129198083
30
0.0000000000
11
26.0328848945
21
155.3346393212
31
0.0000000000
11
26.1566845209
21
155.2379198083
31
0.0000000000
11
26.4064355772
21
154.9364436147
31
0.0000000000
11
26.4916210115
21
154.6129198083
31
0.0000000000
0
SPLINE
5
325
100
AcDbEntity
8
0
100
AcDbSpline
62
7
6
CONTINUOUS
70
0
71
3
72
8
73
4
74
2
42
0.0000001000
43
0.0000001000
44
0.0000000001
12
0.1945155095
22
-0.0972577547
32
0.0000000000
13
0.1778807629
23
-0.1263196766
33
0.0000000000
40
0.0000000000
40
0.0000000000
40
0.0000000000
40
0.0000000000
40
1.0000000000
40
1.0000000000
40
1.0000000000
40
1.0000000000
10
25.1937025395
20
155.9067808953
30
0.0000000000
10
25.2585410426
20
155.8743616437
30
0.0000000000
10
25.3216138118
20
155.8378022972
30
0.0000000000
10
25.3809073994
20
155.7956957384
30
0.0000000000
11
25.1937025395
21
155.9067808953
31
0.0000000000
11
25.3809073994
21
155.7956957384
31
0.0000000000
0
SPLINE
5
326
100
AcDbEntity
8
0
100
AcDbSpline
62
7
6
CONTINUOUS
70
0
71
3
72
10
73
6
74
4
42
0.0000001000
43
0.0000001000
44
0.0000000001
12
-0.0000258973
22
0.8866455414
32
0.0000000000
13
0.7219252891
23
0.5113118816
33
0.0000000000
40
0.0000000000
40
0.0000000000
40
0.0000000000
40
0.0000000000
40
0.3790214539
40
0.8225495337
40
1.0000000000
40
1.0000000000
40
1.0000000000
40
1.0000000000
10
21.4916210115
20
154.6129198083
30
0.0000000000
10
21.4916177396
20
154.7249390357
30
0.0000000000
10
21.5623509803
20
154.9680374233
30
0.0000000000
10
21.7628738907
20
155.1918396696
30
0.0000000000
10
21.9076416240
20
155.3044142143
30
0.0000000000
10
21.9503436171
20
155.3346583916
30
0.0000000000
11
21.4916210115
21
154.6129198083
31
0.0000000000
11
21.5768064457
21
154.9364436147
31
0.0000000000
11
21.8265575020
21
155.2379198083
31
0.0000000000
11
21.9503436171
21
155.3346583916
31
0.0000000000
0
SPLINE
5
327
100
AcDbEntity
8
0
100
AcDbSpline
62
7
6
CONTINUOUS
70
0
71
3
72
18
73
14
74
12
42
0.0000001000
43
0.0000001000
44
0.0000000001
12
3.1786133224
22
-2.2572503088
32
0.0000000000
13
-3.4758654038
23
1.7379327019
33
0.0000000000
40
0.0000000000
40
0.0000000000
40
0.0000000000
40
0.0000000000
40
0.0337690076
40
0.1065413247
40
0.1692707721
40
0.2356121766
40
0.3165219449
40
0.4149573090
40
0.5282386013
40
0.6506226683
40
0.7748967936
40
0.8935695861
40
1.0000000000
40
1.0000000000
40
1.0000000000
40
1.0000000000
10
25.3809073994
20
155.7956957384
30
0.0000000000
10
25.4166869386
20
155.7702873707
30
0.0000000000
10
25.5252298790
20
155.6837511159
30
0.0000000000
10
25.6689213911
20
155.5094301698
30
0.0000000000
10
25.7128246672
20
155.2361463329
30
0.0000000000
10
25.5880352015
20
154.9798435205
30
0.0000000000
10
25.3412696712
20
154.7709521948
30
0.0000000000
10
24.9966028105
20
154.6063357194
30
0.0000000000
10
24.5761055092
20
154.4957167345
30
0.0000000000
10
24.1108451409
20
154.4466247372
30
0.0000000000
10
23.6362655718
20
154.4631173781
30
0.0000000000
10
23.1893947367
20
154.5437150832
30
0.0000000000
10
22.9128520813
20
154.6430430684
30
0.0000000000
10
22.7895394834
20
154.7046993673
30
0.0000000000
11
25.3809073994
21
155.7956957384
31
0.0000000000
11
25.4836752937
21
155.7131017700
31
0.0000000000
11
25.6527706836
21
155.4864206274
31
0.0000000000
11
25.6872896063
21
155.2451018256
31
0.0000000000
11
25.5844355440
21
155.0086955786
31
0.0000000000
11
25.3525411210
21
154.7963541148
31
0.0000000000
11
25.0103930445
21
154.6252800765
31
0.0000000000
11
24.5857101168
21
154.5093328651
31
0.0000000000
11
24.1128976229
21
154.4579058339
31
0.0000000000
11
23.6302600192
21
154.4751652952
31
0.0000000000
11
23.1768977340
21
154.5597129902
31
0.0000000000
11
22.7895394834
21
154.7046993673
31
0.0000000000
0
SPLINE
5
328
100
AcDbEntity
8
0
100
AcDbSpline
62
7
6
CONTINUOUS
70
0
71
3
72
12
73
8
74
6
42
0.0000001000
43
0.0000001000
44
0.0000000001
12
-1.2656957114
22
0.6328478557
32
0.0000000000
13
1.1633498208
23
0.8171328555
33
0.0000000000
40
0.0000000000
40
0.0000000000
40
0.0000000000
40
0.0000000000
40
0.2464194451
40
0.4462674629
40
0.6185356582
40
0.8007230441
40
1.0000000000
40
1.0000000000
40
1.0000000000
40
1.0000000000
10
22.7895394834
20
154.7046993673
30
0.0000000000
10
22.6855754718
20
154.7566813731
30
0.0000000000
10
22.5055172645
20
154.8700977846
30
0.0000000000
10
22.3143206318
20
155.1020500929
30
0.0000000000
10
22.2704173558
20
155.3753339297
30
0.0000000000
10
22.3902472323
20
155.6214503322
30
0.0000000000
10
22.5265345554
20
155.7424685906
30
0.0000000000
10
22.6038108257
20
155.7967471733
30
0.0000000000
11
22.7895394834
21
154.7046993673
31
0.0000000000
11
22.4995667292
21
154.8983784926
31
0.0000000000
11
22.3304713393
21
155.1250596352
31
0.0000000000
11
22.2959524166
21
155.3663784370
31
0.0000000000
11
22.3988064790
21
155.6027846840
31
0.0000000000
11
22.6038108257
21
155.7967471733
31
0.0000000000
0
SPLINE
5
329
100
AcDbEntity
8
0
100
AcDbSpline
62
7
6
CONTINUOUS
70
0
71
3
72
10
73
6
74
4
42
0.0000001000
43
0.0000001000
44
0.0000000001
12
-1.0735264972
22
0.5367632486
32
0.0000000000
13
-0.0000352147
23
1.2056453647
33
0.0000000000
40
0.0000000000
40
0.0000000000
40
0.0000000000
40
0.0000000000
40
0.3950875622
40
0.7212632404
40
1.0000000000
40
1.0000000000
40
1.0000000000
40
1.0000000000
10
22.2238540585
20
153.7290363318
30
0.0000000000
10
22.0824750696
20
153.7997258263
30
0.0000000000
10
21.8349099626
20
153.9535241041
30
0.0000000000
10
21.5623717253
20
154.2577923841
30
0.0000000000
10
21.4916242833
20
154.5009005809
30
0.0000000000
10
21.4916210115
20
154.6129198083
30
0.0000000000
11
22.2238540585
21
153.7290363318
31
0.0000000000
11
21.8265575020
21
153.9879198083
31
0.0000000000
11
21.5768064457
21
154.2893960019
31
0.0000000000
11
21.4916210115
21
154.6129198083
31
0.0000000000
0
SPLINE
5
32A
100
AcDbEntity
8
0
100
AcDbSpline
62
7
6
CONTINUOUS
70
0
71
3
72
16
73
12
74
10
42
0.0000001000
43
0.0000001000
44
0.0000000001
12
0.0001419387
22
-4.8595541861
32
0.0000000000
13
-4.3270271144
23
2.1635135572
33
0.0000000000
40
0.0000000000
40
0.0000000000
40
0.0000000000
40
0.0000000000
40
0.0691540148
40
0.1500775274
40
0.2480979363
40
0.3627307187
40
0.4900101768
40
0.6240489681
40
0.7580877595
40
0.8853672176
40
1.0000000000
40
1.0000000000
40
1.0000000000
40
1.0000000000
10
26.4916210115
20
154.6129198083
30
0.0000000000
10
26.4916242833
20
154.5009005809
30
0.0000000000
10
26.4208910426
20
154.2578021932
30
0.0000000000
10
26.1482234364
20
153.9534797462
30
0.0000000000
10
25.7427131076
20
153.7014189723
30
0.0000000000
10
25.2259882121
20
153.5100307994
30
0.0000000000
10
24.6296579030
20
153.3899771066
30
0.0000000000
10
23.9916350394
20
153.3490363047
30
0.0000000000
10
23.3535294230
20
153.3899962843
30
0.0000000000
10
22.7574272500
20
153.5099615539
30
0.0000000000
10
22.3891937777
20
153.6463664722
30
0.0000000000
10
22.2238540585
20
153.7290363318
30
0.0000000000
11
26.4916210115
21
154.6129198083
31
0.0000000000
11
26.4064355772
21
154.2893960019
31
0.0000000000
11
26.1566845209
21
153.9879198083
31
0.0000000000
11
25.7593879644
21
153.7290363318
31
0.0000000000
11
25.2416210115
21
153.5303880535
31
0.0000000000
11
24.6386686242
21
153.4055125254
31
0.0000000000
11
23.9916210115
21
153.3629198083
31
0.0000000000
11
23.3445733987
21
153.4055125254
31
0.0000000000
11
22.7416210115
21
153.5303880535
31
0.0000000000
11
22.2238540585
21
153.7290363318
31
0.0000000000
0
SPLINE
5
32B
100
AcDbEntity
8
0
100
AcDbSpline
62
7
6
CONTINUOUS
70
0
71
3
72
8
73
4
74
2
42
0.0000001000
43
0.0000001000
44
0.0000000001
12
0.0000000000
22
0.3534303628
32
0.0000000000
13
0.0134596449
23
0.3533300318
33
0.0000000000
40
0.0000000000
40
0.0000000000
40
0.0000000000
40
0.0000000000
40
1.0000000000
40
1.0000000000
40
1.0000000000
40
1.0000000000
10
-361.0280213446
20
-232.4624691010
30
0.0000000000
10
-361.0280213446
20
-232.3446589800
30
0.0000000000
10
-361.0257212225
20
-232.2268234393
30
0.0000000000
10
-361.0212346742
20
-232.1090467620
30
0.0000000000
11
-361.0280213446
21
-232.4624691010
31
0.0000000000
11
-361.0212346742
21
-232.1090467620
31
0.0000000000
0
SPLINE
5
32C
100
AcDbEntity
8
0
100
AcDbSpline
62
7
6
CONTINUOUS
70
0
71
3
72
8
73
4
74
2
42
0.0000001000
43
0.0000001000
44
0.0000000001
12
0.0007172671
22
0.0188290270
32
0.0000000000
13
0.0007544702
23
0.0188279858
33
0.0000000000
40
0.0000000000
40
0.0000000000
40
0.0000000000
40
0.0000000000
40
1.0000000000
40
1.0000000000
40
1.0000000000
40
1.0000000000
10
-361.0212346742
20
-232.1090467620
30
0.0000000000
10
-361.0209955852
20
-232.1027704197
30
0.0000000000
10
-361.0207502870
20
-232.0964942445
30
0.0000000000
10
-361.0204987969
20
-232.0902182492
30
0.0000000000
11
-361.0212346742
21
-232.1090467620
31
0.0000000000
11
-361.0204987969
21
-232.0902182492
31
0.0000000000
0
SPLINE
5
32D
100
AcDbEntity
8
0
100
AcDbSpline
62
7
6
CONTINUOUS
70
0
71
3
72
23
73
19
74
17
42
0.0000001000
43
0.0000001000
44
0.0000000001
12
0.6443543557
22
16.0800187179
32
0.0000000000
13
14.4193234282
23
-7.2129855948
33
0.0000000000
40
0.0000000000
40
0.0000000000
40
0.0000000000
40
0.0000000000
40
0.0472739746
40
0.1212219207
40
0.1978588502
40
0.2761998981
40
0.3551754306
40
0.4336852695
40
0.5106516032
40
0.5850728575
40
0.6560809517
40
0.7230047937
40
0.7854430240
40
0.8433472963
40
0.8971097228
40
0.9476281311
40
0.9962912219
40
1.0000000000
40
1.0000000000
40
1.0000000000
40
1.0000000000
10
-361.0204987969
20
-232.0902182492
30
0.0000000000
10
-361.0103450665
20
-231.8368294507
30
0.0000000000
10
-360.9584267320
20
-231.1878312439
30
0.0000000000
10
-360.7775143160
20
-230.1406909200
30
0.0000000000
10
-360.4485612941
20
-228.9561005244
30
0.0000000000
10
-359.9999904163
20
-227.7827194100
30
0.0000000000
10
-359.4416718363
20
-226.6462425055
30
0.0000000000
10
-358.7858819667
20
-225.5716751431
30
0.0000000000
10
-358.0470146925
20
-224.5826287532
30
0.0000000000
10
-357.2412217749
20
-223.7008077823
30
0.0000000000
10
-356.3859856301
20
-222.9455263530
30
0.0000000000
10
-355.4996335947
20
-222.3333445904
30
0.0000000000
10
-354.6008287195
20
-221.8778783613
30
0.0000000000
10
-353.7081598074
20
-221.5898721697
30
0.0000000000
10
-352.8401374038
20
-221.4775191928
30
0.0000000000
10
-352.0160008584
20
-221.5465231384
30
0.0000000000
10
-351.4871942361
20
-221.7221110664
30
0.0000000000
10
-351.2342840192
20
-221.8456462657
30
0.0000000000
10
-351.2164579957
20
-221.8545633866
30
0.0000000000
11
-361.0204987969
21
-232.0902182492
31
0.0000000000
11
-360.9608900572
21
-231.3317711529
31
0.0000000000
11
-360.7609957971
21
-230.1591998412
31
0.0000000000
11
-360.4328038717
21
-228.9709484714
31
0.0000000000
11
-359.9836455462
21
-227.7935606154
31
0.0000000000
11
-359.4235542756
21
-226.6533371725
31
0.0000000000
11
-358.7650415731
21
-225.5757488502
31
0.0000000000
11
-358.0228175246
21
-224.5848671909
31
0.0000000000
11
-357.2134621886
21
-223.7028268536
31
0.0000000000
11
-356.3550552261
21
-222.9493311618
31
0.0000000000
11
-355.4667720300
21
-222.3412119642
31
0.0000000000
11
-354.5684553791
21
-221.8920536388
31
0.0000000000
11
-353.6801721830
21
-221.6118896403
31
0.0000000000
11
-352.8217652204
21
-221.5069783695
31
0.0000000000
11
-352.0124098845
21
-221.5796633709
31
0.0000000000
11
-351.2701858359
21
-221.8283209816
31
0.0000000000
11
-351.2164579957
21
-221.8545633866
31
0.0000000000
0
SPLINE
5
32E
100
AcDbEntity
8
0
100
AcDbSpline
62
7
6
CONTINUOUS
70
0
71
3
72
13
73
9
74
7
42
0.0000001000
43
0.0000001000
44
0.0000000001
12
0.0000000000
22
-5.3621237719
32
0.0000000000
13
4.8067091774
23
-2.4044626107
33
0.0000000000
40
0.0000000000
40
0.0000000000
40
0.0000000000
40
0.0000000000
40
0.1987427427
40
0.3839314396
40
0.5556078083
40
0.7151725504
40
0.8655577878
40
1.0000000000
40
1.0000000000
40
1.0000000000
40
1.0000000000
10
-361.0280213446
20
-232.4624691010
30
0.0000000000
10
-361.0280213446
20
-232.8176968294
30
0.0000000000
10
-360.9876381892
20
-233.5049724724
30
0.0000000000
10
-360.7924418095
20
-234.4822851932
30
0.0000000000
10
-360.4675335390
20
-235.3512369214
30
0.0000000000
10
-360.0177782613
20
-236.0921048599
30
0.0000000000
10
-359.4645142489
20
-236.6717005377
30
0.0000000000
10
-359.0341776184
20
-236.9522134177
30
0.0000000000
10
-358.8187694134
20
-237.0599671752
30
0.0000000000
11
-361.0280213446
21
-232.4624691010
31
0.0000000000
11
-360.9608900572
21
-233.5260357616
31
0.0000000000
11
-360.7609957971
21
-234.4987128132
31
0.0000000000
11
-360.4328038717
21
-235.3587722576
31
0.0000000000
11
-359.9836455462
21
-236.0870017881
31
0.0000000000
11
-359.4235542756
21
-236.6671339603
31
0.0000000000
11
-358.8187694134
21
-237.0599671752
31
0.0000000000
0
SPLINE
5
32F
100
AcDbEntity
8
0
100
AcDbSpline
62
7
6
CONTINUOUS
70
0
71
3
72
23
73
19
74
17
42
0.0000001000
43
0.0000001000
44
0.0000000001
12
-2.7381353183
22
-3.8440367233
32
0.0000000000
13
1.4085563897
23
-4.5044391713
33
0.0000000000
40
0.0000000000
40
0.0000000000
40
0.0000000000
40
0.0000000000
40
0.0771456939
40
0.1493823823
40
0.2171223952
40
0.2802329081
40
0.3381606561
40
0.3904930749
40
0.4380923279
40
0.4847332509
40
0.5326035783
40
0.5811943921
40
0.6308354999
40
0.6854337001
40
0.7488804789
40
0.8221071777
40
0.9056350886
40
1.0000000000
40
1.0000000000
40
1.0000000000
40
1.0000000000
10
-355.0529690436
20
-227.5184056113
30
0.0000000000
10
-355.1233808266
20
-227.6172559047
30
0.0000000000
10
-355.2467323405
20
-227.8182075897
30
0.0000000000
10
-355.3906631600
20
-228.1286059429
30
0.0000000000
10
-355.4968499205
20
-228.4303773642
30
0.0000000000
10
-355.5728697085
20
-228.7177316220
30
0.0000000000
10
-355.6250065204
20
-228.9856149644
30
0.0000000000
10
-355.6589260655
20
-229.2317338500
30
0.0000000000
10
-355.6797858348
20
-229.4614427776
30
0.0000000000
10
-355.6908680117
20
-229.6847905748
30
0.0000000000
10
-355.6933161260
20
-229.9099568346
30
0.0000000000
10
-355.6872413380
20
-230.1397726058
30
0.0000000000
10
-355.6722417884
20
-230.3797833240
30
0.0000000000
10
-355.6462388009
20
-230.6423592747
30
0.0000000000
10
-355.6049050114
20
-230.9404957652
30
0.0000000000
10
-355.5426467065
20
-231.2813909975
30
0.0000000000
10
-355.4536022746
20
-231.6664301886
30
0.0000000000
10
-355.3768751592
20
-231.9357224215
30
0.0000000000
10
-355.3325690596
20
-232.0774094225
30
0.0000000000
11
-355.0529690436
21
-227.5184056113
31
0.0000000000
11
-355.2442982395
21
-227.8281731628
31
0.0000000000
11
-355.3884235559
21
-228.1371339083
31
0.0000000000
11
-355.4950563764
21
-228.4385279509
31
0.0000000000
11
-355.5716013382
21
-228.7263765523
31
0.0000000000
11
-355.6240763596
21
-228.9946852403
31
0.0000000000
11
-355.6579546838
21
-229.2393353425
31
0.0000000000
11
-355.6783755222
21
-229.4630515719
31
0.0000000000
11
-355.6893709649
21
-229.6829002149
31
0.0000000000
11
-355.6919096214
21
-229.9088115999
31
0.0000000000
11
-355.6859254027
21
-230.1380595172
31
0.0000000000
11
-355.6713826032
21
-230.3718906267
31
0.0000000000
11
-355.6460697565
21
-230.6283223916
31
0.0000000000
11
-355.6050558678
21
-230.9249395218
31
0.0000000000
11
-355.5431011931
21
-231.2649368046
31
0.0000000000
11
-355.4544359839
21
-231.6490490797
31
0.0000000000
11
-355.3325690596
21
-232.0774094225
31
0.0000000000
0
SPLINE
5
330
100
AcDbEntity
8
0
100
AcDbSpline
62
7
6
CONTINUOUS
70
0
71
3
72
12
73
8
74
6
42
0.0000001000
43
0.0000001000
44
0.0000000001
12
3.6166639089
22
0.7700887706
32
0.0000000000
13
2.5898593224
23
2.6337765214
33
0.0000000000
40
0.0000000000
40
0.0000000000
40
0.0000000000
40
0.0000000000
40
0.1014858646
40
0.3325040242
40
0.5819366938
40
0.8487493125
40
1.0000000000
40
1.0000000000
40
1.0000000000
40
1.0000000000
10
-355.4645177026
20
-236.4164582264
30
0.0000000000
10
-355.3421709481
20
-236.3904071848
30
0.0000000000
10
-354.9451917021
20
-236.2865517520
30
0.0000000000
10
-354.2798906736
20
-236.0128608834
30
0.0000000000
10
-353.4899163184
20
-235.5361483170
30
0.0000000000
10
-352.8469310061
20
-235.0215839669
30
0.0000000000
10
-352.4750604602
20
-234.6653583233
30
0.0000000000
10
-352.3444877926
20
-234.5325714868
30
0.0000000000
11
-355.4645177026
21
-236.4164582264
31
0.0000000000
11
-355.1014104013
21
-236.3221172474
31
0.0000000000
11
-354.3105069233
21
-236.0029003086
31
0.0000000000
11
-353.5196034454
21
-235.5312137695
31
0.0000000000
11
-352.7481746359
21
-234.9186721182
31
0.0000000000
11
-352.3444877926
21
-234.5325714868
31
0.0000000000
0
SPLINE
5
331
100
AcDbEntity
8
0
100
AcDbSpline
62
7
6
CONTINUOUS
70
0
71
3
72
8
73
4
74
2
42
0.0000001000
43
0.0000001000
44
0.0000000001
12
0.0815087450
22
0.8124708248
32
0.0000000000
13
0.0000000000
23
0.8158270821
33
0.0000000000
40
0.0000000000
40
0.0000000000
40
0.0000000000
40
0.0000000000
40
1.0000000000
40
1.0000000000
40
1.0000000000
40
1.0000000000
10
-349.2964269747
20
-228.0977849537
30
0.0000000000
10
-349.2692573931
20
-227.8269613454
30
0.0000000000
10
-349.2546934379
20
-227.5548542895
30
0.0000000000
10
-349.2546934379
20
-227.2829119288
30
0.0000000000
11
-349.2964269747
21
-228.0977849537
31
0.0000000000
11
-349.2546934379
21
-227.2829119288
31
0.0000000000
0
SPLINE
5
332
100
AcDbEntity
8
0
100
AcDbSpline
62
7
6
CONTINUOUS
70
0
71
3
72
11
73
7
74
5
42
0.0000001000
43
0.0000001000
44
0.0000000001
12
2.8626522607
22
1.8830272411
32
0.0000000000
13
2.1802063759
23
2.6419075593
33
0.0000000000
40
0.0000000000
40
0.0000000000
40
0.0000000000
40
0.0000000000
40
0.0343867813
40
0.3790034239
40
0.7419867714
40
1.0000000000
40
1.0000000000
40
1.0000000000
40
1.0000000000
10
-354.1596319922
20
-237.1881377414
30
0.0000000000
10
-354.1268195264
20
-237.1665539927
30
0.0000000000
10
-353.7666994114
20
-236.9263511437
30
0.0000000000
10
-353.0947902423
20
-236.4078528496
30
0.0000000000
10
-352.2989017351
20
-235.6426820997
30
0.0000000000
10
-351.8300097736
20
-235.1103398860
30
0.0000000000
10
-351.6425024116
20
-234.8831241863
30
0.0000000000
11
-354.1596319922
21
-237.1881377414
31
0.0000000000
11
-354.0616117261
21
-237.1227641735
31
0.0000000000
11
-353.1250711910
21
-236.4049742782
31
0.0000000000
11
-352.2270573639
21
-235.5457490633
31
0.0000000000
11
-351.6425024116
21
-234.8831241863
31
0.0000000000
0
SPLINE
5
333
100
AcDbEntity
8
0
100
AcDbSpline
62
7
6
CONTINUOUS
70
0
71
3
72
9
73
5
74
3
42
0.0000001000
43
0.0000001000
44
0.0000000001
12
0.1627677366
22
1.3315262022
32
0.0000000000
13
0.0000000000
23
1.3407163552
33
0.0000000000
40
0.0000000000
40
0.0000000000
40
0.0000000000
40
0.0000000000
40
0.0997468937
40
1.0000000000
40
1.0000000000
40
1.0000000000
40
1.0000000000
10
-348.3839667227
20
-227.4364635091
30
0.0000000000
10
-348.3785548640
20
-227.3921916416
30
0.0000000000
10
-348.3267695385
20
-226.9480295089
30
0.0000000000
10
-348.3000992833
20
-226.5008360914
30
0.0000000000
10
-348.3000992833
20
-226.0985080703
30
0.0000000000
11
-348.3839667227
21
-227.4364635091
31
0.0000000000
11
-348.3684738942
21
-227.3035538959
31
0.0000000000
11
-348.3000992833
21
-226.0985080703
31
0.0000000000
0
SPLINE
5
334
100
AcDbEntity
8
0
100
AcDbSpline
62
7
6
CONTINUOUS
70
0
71
3
72
14
73
10
74
8
42
0.0000001000
43
0.0000001000
44
0.0000000001
12
5.6050508211
22
-2.8023852227
32
0.0000000000
13
5.2275796806
23
3.4379157780
33
0.0000000000
40
0.0000000000
40
0.0000000000
40
0.0000000000
40
0.0000000000
40
0.0754156359
40
0.2247512389
40
0.3805440020
40
0.5460150298
40
0.7232108240
40
0.9130172437
40
1.0000000000
40
1.0000000000
40
1.0000000000
40
1.0000000000
10
-361.0682926901
20
-238.7301961231
30
0.0000000000
10
-360.9273898661
20
-238.8006440110
30
0.0000000000
10
-360.4955262992
20
-238.9866980948
30
0.0000000000
10
-359.7182874510
20
-239.1741698394
30
0.0000000000
10
-358.7311989128
20
-239.2003945283
30
0.0000000000
10
-357.7004353839
20
-239.0324921701
30
0.0000000000
10
-356.6447822295
20
-238.6760411228
30
0.0000000000
10
-355.7978138251
20
-238.2477971556
30
0.0000000000
10
-355.3073720379
20
-237.9429949639
30
0.0000000000
10
-355.1558022748
20
-237.8433151672
30
0.0000000000
11
-361.0682926901
21
-238.7301961231
31
0.0000000000
11
-360.6345047842
21
-238.9170234671
31
0.0000000000
11
-359.7274507421
21
-239.1390556524
31
0.0000000000
11
-358.7537366456
21
-239.1701967526
31
0.0000000000
11
-357.7315009460
21
-239.0098666678
31
0.0000000000
11
-356.6797859602
21
-238.6610520444
31
0.0000000000
11
-355.6181831486
21
-238.1302506386
31
0.0000000000
11
-355.1558022748
21
-237.8433151672
31
0.0000000000
0
SPLINE
5
335
100
AcDbEntity
8
0
100
AcDbSpline
62
7
6
CONTINUOUS
70
0
71
3
72
9
73
5
74
3
42
0.0000001000
43
0.0000001000
44
0.0000000001
12
0.5913254304
22
-1.2761630967
32
0.0000000000
13
0.2098966766
23
-1.3904680351
33
0.0000000000
40
0.0000000000
40
0.0000000000
40
0.0000000000
40
0.0000000000
40
0.4333298338
40
1.0000000000
40
1.0000000000
40
1.0000000000
40
1.0000000000
10
-349.7185553481
20
-224.9238848399
30
0.0000000000
10
-349.6331423646
20
-225.1082180208
30
0.0000000000
10
-349.4679691152
20
-225.5483269592
30
0.0000000000
10
-349.3674967480
20
-226.0072634974
30
0.0000000000
10
-349.3278493531
20
-226.2699090816
30
0.0000000000
11
-349.7185553481
21
-224.9238848399
31
0.0000000000
11
-349.5021425628
21
-225.4931780348
31
0.0000000000
11
-349.3278493531
21
-226.2699090816
31
0.0000000000
0
SPLINE
5
336
100
AcDbEntity
8
0
100
AcDbSpline
62
7
6
CONTINUOUS
70
0
71
3
72
8
73
4
74
2
42
0.0000001000
43
0.0000001000
44
0.0000000001
12
0.0113823453
22
-0.0754027532
32
0.0000000000
13
0.0104416357
23
-0.0755354007
33
0.0000000000
40
0.0000000000
40
0.0000000000
40
0.0000000000
40
0.0000000000
40
1.0000000000
40
1.0000000000
40
1.0000000000
40
1.0000000000
10
-349.3278493531
20
-226.2699090816
30
0.0000000000
10
-349.3240552380
20
-226.2950433326
30
0.0000000000
10
-349.3204194368
20
-226.3202012103
30
0.0000000000
10
-349.3169388915
20
-226.3453796772
30
0.0000000000
11
-349.3278493531
21
-226.2699090816
31
0.0000000000
11
-349.3169388915
21
-226.3453796772
31
0.0000000000
0
SPLINE
5
337
100
AcDbEntity
8
0
100
AcDbSpline
62
7
6
CONTINUOUS
70
0
71
3
72
8
73
4
74
2
42
0.0000001000
43
0.0000001000
44
0.0000000001
12
0.1288074326
22
-0.9318004654
32
0.0000000000
13
0.0000000000
23
-0.9395963065
33
0.0000000000
40
0.0000000000
40
0.0000000000
40
0.0000000000
40
0.0000000000
40
1.0000000000
40
1.0000000000
40
1.0000000000
40
1.0000000000
10
-349.3169388915
20
-226.3453796772
30
0.0000000000
10
-349.2740030806
20
-226.6559798323
30
0.0000000000
10
-349.2546934379
20
-226.9697131599
30
0.0000000000
10
-349.2546934379
20
-227.2829119288
30
0.0000000000
11
-349.3169388915
21
-226.3453796772
31
0.0000000000
11
-349.2546934379
21
-227.2829119288
31
0.0000000000
0
SPLINE
5
338
100
AcDbEntity
8
0
100
AcDbSpline
62
7
6
CONTINUOUS
70
0
71
3
72
8
73
4
74
2
42
0.0000001000
43
0.0000001000
44
0.0000000001
12
0.0368499223
22
-0.5944623568
32
0.0000000000
13
0.0000000000
23
-0.5951582595
33
0.0000000000
40
0.0000000000
40
0.0000000000
40
0.0000000000
40
0.0000000000
40
1.0000000000
40
1.0000000000
40
1.0000000000
40
1.0000000000
10
-348.3182186005
20
-225.5034397245
30
0.0000000000
10
-348.3059352930
20
-225.7015938434
30
0.0000000000
10
-348.3000992833
20
-225.9001219838
30
0.0000000000
10
-348.3000992833
20
-226.0985080703
30
0.0000000000
11
-348.3182186005
21
-225.5034397245
31
0.0000000000
11
-348.3000992833
21
-226.0985080703
31
0.0000000000
0
SPLINE
5
339
100
AcDbEntity
8
0
100
AcDbSpline
62
7
6
CONTINUOUS
70
0
71
3
72
14
73
10
74
8
42
0.0000001000
43
0.0000001000
44
0.0000000001
12
5.6049648883
22
-2.8023422585
32
0.0000000000
13
0.3862203809
23
-6.2455528223
33
0.0000000000
40
0.0000000000
40
0.0000000000
40
0.0000000000
40
0.0000000000
40
0.0716092638
40
0.2208322789
40
0.3764153021
40
0.5416078958
40
0.7184876283
40
0.9079688028
40
1.0000000000
40
1.0000000000
40
1.0000000000
40
1.0000000000
10
-351.2296764188
20
-219.0529635888
30
0.0000000000
10
-351.0958872823
20
-219.1198548108
30
0.0000000000
10
-350.6944497839
20
-219.3484276235
30
0.0000000000
10
-350.0819660434
20
-219.8487548447
30
0.0000000000
10
-349.4655136129
20
-220.6185454918
30
0.0000000000
10
-348.9779460714
20
-221.5402062770
30
0.0000000000
10
-348.6261373590
20
-222.5954319712
30
0.0000000000
10
-348.4556990969
20
-223.5383511687
30
0.0000000000
10
-348.4035414939
20
-224.1234896574
30
0.0000000000
10
-348.3916933858
20
-224.3150848918
30
0.0000000000
11
-351.2296764188
21
-219.0529635888
31
0.0000000000
11
-350.8399670374
21
-219.2749234758
31
0.0000000000
11
-350.1153667015
21
-219.8628508196
31
0.0000000000
11
-349.5031612502
21
-220.6189663024
31
0.0000000000
11
-349.0147549126
21
-221.5291849233
31
0.0000000000
11
-348.6592457748
21
-222.5765510316
31
0.0000000000
11
-348.4432562993
21
-223.7415541785
31
0.0000000000
11
-348.3916933858
21
-224.3150848918
31
0.0000000000
0
SPLINE
5
33A
100
AcDbEntity
8
0
100
AcDbSpline
62
7
6
CONTINUOUS
70
0
71
3
72
8
73
4
74
2
42
0.0000001000
43
0.0000001000
44
0.0000000001
12
0.0004130068
22
-0.0098973603
32
0.0000000000
13
0.0004253494
23
-0.0098969440
33
0.0000000000
40
0.0000000000
40
0.0000000000
40
0.0000000000
40
0.0000000000
40
1.0000000000
40
1.0000000000
40
1.0000000000
40
1.0000000000
10
-361.0209465297
20
-232.4520927457
30
0.0000000000
10
-361.0208088607
20
-232.4553918658
30
0.0000000000
10
-361.0206691367
20
-232.4586909183
30
0.0000000000
10
-361.0205273536
20
-232.4619898996
30
0.0000000000
11
-361.0209465297
21
-232.4520927457
31
0.0000000000
11
-361.0205273536
21
-232.4619898996
31
0.0000000000
0
SPLINE
5
33B
100
AcDbEntity
8
0
100
AcDbSpline
62
7
6
CONTINUOUS
70
0
71
3
72
16
73
12
74
10
42
0.0000001000
43
0.0000001000
44
0.0000000001
12
0.3021564840
22
-7.0305168284
32
0.0000000000
13
6.8887017775
23
1.4659574256
33
0.0000000000
40
0.0000000000
40
0.0000000000
40
0.0000000000
40
0.0000000000
40
0.0924266602
40
0.2253295925
40
0.3485352372
40
0.4630488250
40
0.5709746291
40
0.6754432307
40
0.7802083745
40
0.8889677693
40
1.0000000000
40
1.0000000000
40
1.0000000000
40
1.0000000000
10
-361.0205273536
20
-232.4619898996
30
0.0000000000
10
-361.0112182487
20
-232.6785922963
30
0.0000000000
10
-360.9668829902
20
-233.2059064496
30
0.0000000000
10
-360.8062994292
20
-234.0099190913
30
0.0000000000
10
-360.5005034099
20
-234.8277560120
30
0.0000000000
10
-360.0772043250
20
-235.5250434834
30
0.0000000000
10
-359.5434486364
20
-236.0842023719
30
0.0000000000
10
-358.9107013246
20
-236.4886507205
30
0.0000000000
10
-358.1962144798
20
-236.7258929551
30
0.0000000000
10
-357.4316545224
20
-236.7899086257
30
0.0000000000
10
-356.9173183274
20
-236.7256512737
30
0.0000000000
10
-356.6623623525
20
-236.6713950994
30
0.0000000000
11
-361.0205273536
21
-232.4619898996
31
0.0000000000
11
-360.9648389565
21
-233.1099196263
31
0.0000000000
11
-360.7767031822
21
-234.0253803807
31
0.0000000000
11
-360.4678166642
21
-234.8348480931
31
0.0000000000
11
-360.0450794167
21
-235.5202405924
31
0.0000000000
11
-359.5179346914
21
-236.0662473427
31
0.0000000000
11
-358.8981580303
21
-236.4606714556
31
0.0000000000
11
-358.1995942199
21
-236.6947021480
31
0.0000000000
11
-357.4378480213
21
-236.7631115611
31
0.0000000000
11
-356.6623623525
21
-236.6713950994
31
0.0000000000
0
SPLINE
5
33C
100
AcDbEntity
8
0
100
AcDbSpline
62
7
6
CONTINUOUS
70
0
71
3
72
24
73
20
74
18
42
0.0000001000
43
0.0000001000
44
0.0000000001
12
0.0000000000
22
21.3011599912
32
0.0000000000
13
19.0931084590
23
-9.5460766922
33
0.0000000000
40
0.0000000000
40
0.0000000000
40
0.0000000000
40
0.0000000000
40
0.0626891385
40
0.1283090919
40
0.1962499924
40
0.2657978231
40
0.3361710916
40
0.4065549582
40
0.4761341601
40
0.5441259222
40
0.6098140370
40
0.6725854543
40
0.7319709327
40
0.7876912797
40
0.8397096001
40
0.8882859501
40
0.9340211093
40
0.9778606782
40
1.0000000000
40
1.0000000000
40
1.0000000000
40
1.0000000000
10
-363.9271591475
20
-232.7806671525
30
0.0000000000
10
-363.9271591475
20
-232.3355500293
30
0.0000000000
10
-363.8751945951
20
-231.4239577676
30
0.0000000000
10
-363.6568737509
20
-230.0457014172
30
0.0000000000
10
-363.3003102586
20
-228.6462937947
30
0.0000000000
10
-362.8120902123
20
-227.2515877577
30
0.0000000000
10
-362.2011972885
20
-225.8871112730
30
0.0000000000
10
-361.4788655773
20
-224.5779604405
30
0.0000000000
10
-360.6583670675
20
-223.3481960196
30
0.0000000000
10
-359.7547466297
20
-222.2204086820
30
0.0000000000
10
-358.7845074311
20
-221.2152847299
30
0.0000000000
10
-357.7652507771
20
-220.3512393962
30
0.0000000000
10
-356.7152785909
20
-219.6441331527
30
0.0000000000
10
-355.6531868793
20
-219.1071185892
30
0.0000000000
10
-354.5975337249
20
-218.7506675418
30
0.0000000000
10
-353.5667701961
20
-218.5827651836
30
0.0000000000
10
-352.5796816579
20
-218.6089898725
30
0.0000000000
10
-351.8024428097
20
-218.7964616172
30
0.0000000000
10
-351.3705792427
20
-218.9825157009
30
0.0000000000
10
-351.2296764188
20
-219.0529635888
30
0.0000000000
11
-363.9271591475
21
-232.7806671525
31
0.0000000000
11
-363.8547128096
21
-231.4472824336
31
0.0000000000
11
-363.6387233341
21
-230.0662898113
31
0.0000000000
11
-363.2832141963
21
-228.6634145652
31
0.0000000000
11
-362.7948078587
21
-227.2647896067
31
0.0000000000
11
-362.1826024073
21
-225.8964686725
31
0.0000000000
11
-361.4580020714
21
-224.5839409928
31
0.0000000000
11
-360.6345047842
21
-223.3516564746
31
0.0000000000
11
-359.7274507421
21
-222.2225702472
31
0.0000000000
11
-358.7537366456
21
-221.2177150505
31
0.0000000000
11
-357.7315009460
21
-220.3558094356
31
0.0000000000
11
-356.6797859602
21
-219.6529090734
31
0.0000000000
11
-355.6181831486
21
-219.1221076676
31
0.0000000000
11
-354.5664681629
21
-218.7732930441
31
0.0000000000
11
-353.5442324633
21
-218.6129629594
31
0.0000000000
11
-352.5705183668
21
-218.6441040596
31
0.0000000000
11
-351.6634643246
21
-218.8661362449
31
0.0000000000
11
-351.2296764188
21
-219.0529635888
31
0.0000000000
0
SPLINE
5
33D
100
AcDbEntity
8
0
100
AcDbSpline
62
7
6
CONTINUOUS
70
0
71
3
72
28
73
24
74
22
42
0.0000001000
43
0.0000001000
44
0.0000000001
12
0.0000000000
22
22.5317686710
32
0.0000000000
13
4.8437492835
23
-22.0219960840
33
0.0000000000
40
0.0000000000
40
0.0000000000
40
0.0000000000
40
0.0000000000
40
0.0535681012
40
0.1097286954
40
0.1679053629
40
0.2274234581
40
0.2875471548
40
0.3475139836
40
0.4065683209
40
0.4639951447
40
0.5191554092
40
0.5715246027
40
0.6207362594
40
0.6666318348
40
0.7093159414
40
0.7492085554
40
0.7870706955
40
0.8239635998
40
0.8611109382
40
0.8996924175
40
0.9406571000
40
0.9846262997
40
1.0000000000
40
1.0000000000
40
1.0000000000
40
1.0000000000
10
-361.7351281258
20
-232.8160224915
30
0.0000000000
10
-361.7351281258
20
-232.4136944704
30
0.0000000000
10
-361.6859461735
20
-231.5890362464
30
0.0000000000
10
-361.4800005500
20
-230.3429289125
30
0.0000000000
10
-361.1441621253
20
-229.0791110276
30
0.0000000000
10
-360.6851992534
20
-227.8230680372
30
0.0000000000
10
-360.1123288831
20
-226.5998965830
30
0.0000000000
10
-359.4370483800
20
-225.4341547569
30
0.0000000000
10
-358.6728938141
20
-224.3492243490
30
0.0000000000
10
-357.8351388433
20
-223.3668478825
30
0.0000000000
10
-356.9404371668
20
-222.5066777122
30
0.0000000000
10
-356.0064138939
20
-221.7859114303
30
0.0000000000
10
-355.0512218208
20
-221.2190431063
30
0.0000000000
10
-354.0931196924
20
-220.8177963544
30
0.0000000000
10
-353.1502320696
20
-220.5912842862
30
0.0000000000
10
-352.2407924184
20
-220.5462529654
30
0.0000000000
10
-351.3840289181
20
-220.6867329152
30
0.0000000000
10
-350.6006810637
20
-221.0121432449
30
0.0000000000
10
-349.9110249930
20
-221.5149186880
30
0.0000000000
10
-349.3312256704
20
-222.1810659732
30
0.0000000000
10
-348.8720788678
20
-222.9934486564
30
0.0000000000
10
-348.6205401001
20
-223.7071327326
30
0.0000000000
10
-348.5143041227
20
-224.1404501699
30
0.0000000000
10
-348.4894820061
20
-224.2533033591
30
0.0000000000
11
-361.7351281258
21
-232.8160224915
31
0.0000000000
11
-361.6667535149
21
-231.6109766659
31
0.0000000000
11
-361.4630215919
21
-230.3620874873
31
0.0000000000
11
-361.1280797514
21
-229.0947787378
31
0.0000000000
11
-360.6687464433
21
-227.8348491690
31
0.0000000000
11
-360.0943723691
21
-226.6079473136
31
0.0000000000
11
-359.4166501287
21
-225.4390493553
31
0.0000000000
11
-358.6493761925
21
-224.3519506856
31
0.0000000000
11
-357.8081700452
21
-223.3687814986
31
0.0000000000
11
-356.9101562181
21
-222.5095562836
31
0.0000000000
11
-355.9736156830
21
-221.7917663883
31
0.0000000000
11
-355.0176137045
21
-221.2300239450
31
0.0000000000
11
-354.0616117261
21
-220.8357644098
31
0.0000000000
11
-353.1250711910
21
-220.6170137701
31
0.0000000000
11
-352.2270573639
21
-220.5782251579
31
0.0000000000
11
-351.3858512165
21
-220.7201881976
31
0.0000000000
11
-350.6185772803
21
-221.0400129311
31
0.0000000000
11
-349.9408550399
21
-221.5311886490
31
0.0000000000
11
-349.3664809658
21
-222.1837164303
31
0.0000000000
11
-348.9071476577
21
-222.9843126909
31
0.0000000000
11
-348.5722058172
21
-223.9166795999
31
0.0000000000
11
-348.4894820061
21
-224.2533033591
31
0.0000000000
0
SPLINE
5
33E
100
AcDbEntity
8
0
100
AcDbSpline
62
7
6
CONTINUOUS
70
0
71
3
72
8
73
4
74
2
42
0.0000001000
43
0.0000001000
44
0.0000000001
12
0.0170437112
22
-0.0774888460
32
0.0000000000
13
0.0162007508
23
-0.0776706790
33
0.0000000000
40
0.0000000000
40
0.0000000000
40
0.0000000000
40
0.0000000000
40
1.0000000000
40
1.0000000000
40
1.0000000000
40
1.0000000000
10
-348.4894820061
20
-224.2533033591
30
0.0000000000
10
-348.4838007690
20
-224.2791329744
30
0.0000000000
10
-348.4782609699
20
-224.3049937890
30
0.0000000000
10
-348.4728607197
20
-224.3308840154
30
0.0000000000
11
-348.4894820061
21
-224.2533033591
31
0.0000000000
11
-348.4728607197
21
-224.3308840154
31
0.0000000000
0
SPLINE
5
33F
100
AcDbEntity
8
0
100
AcDbSpline
62
7
6
CONTINUOUS
70
0
71
3
72
9
73
5
74
3
42
0.0000001000
43
0.0000001000
44
0.0000000001
12
0.2416786224
22
-1.1586711608
32
0.0000000000
13
0.0732293203
23
-1.1813342236
33
0.0000000000
40
0.0000000000
40
0.0000000000
40
0.0000000000
40
0.0000000000
40
0.5404077947
40
1.0000000000
40
1.0000000000
40
1.0000000000
40
1.0000000000
10
-348.4728607197
20
-224.3308840154
30
0.0000000000
10
-348.4293257159
20
-224.5396023243
30
0.0000000000
10
-348.3655485688
20
-224.9293631541
30
0.0000000000
10
-348.3294371421
20
-225.3224623908
30
0.0000000000
10
-348.3182186005
20
-225.5034397245
30
0.0000000000
11
-348.4728607197
21
-224.3308840154
31
0.0000000000
11
-348.3684738942
21
-224.9618368556
31
0.0000000000
11
-348.3182186005
21
-225.5034397245
31
0.0000000000
0
SPLINE
5
340
100
AcDbEntity
8
0
100
AcDbSpline
62
7
6
CONTINUOUS
70
0
71
3
72
8
73
4
74
2
42
0.0000001000
43
0.0000001000
44
0.0000000001
12
0.2123008957
22
-0.1246822634
32
0.0000000000
13
0.2022543637
23
-0.1404245382
33
0.0000000000
40
0.0000000000
40
0.0000000000
40
0.0000000000
40
0.0000000000
40
1.0000000000
40
1.0000000000
40
1.0000000000
40
1.0000000000
10
-351.3817123229
20
-221.7800519884
30
0.0000000000
10
-351.3109453577
20
-221.8216127429
30
0.0000000000
10
-351.2417620957
20
-221.8658838842
30
0.0000000000
10
-351.1743439745
20
-221.9126920636
30
0.0000000000
11
-351.3817123229
21
-221.7800519884
31
0.0000000000
11
-351.1743439745
21
-221.9126920636
31
0.0000000000
0
SPLINE
5
341
100
AcDbEntity
8
0
100
AcDbSpline
62
7
6
CONTINUOUS
70
0
71
3
72
13
73
9
74
7
42
0.0000001000
43
0.0000001000
44
0.0000000001
12
3.8516506686
22
-2.6741883654
32
0.0000000000
13
0.1191447595
23
-4.6779200416
33
0.0000000000
40
0.0000000000
40
0.0000000000
40
0.0000000000
40
0.0000000000
40
0.0559082864
40
0.2283191433
40
0.4112539472
40
0.6080742625
40
0.8203859394
40
1.0000000000
40
1.0000000000
40
1.0000000000
40
1.0000000000
10
-351.1743439745
20
-221.9126920636
30
0.0000000000
10
-351.1025642449
20
-221.9625284933
30
0.0000000000
10
-350.8176004391
20
-222.1777960337
30
0.0000000000
10
-350.3710025384
20
-222.6456490067
30
0.0000000000
10
-349.9212472607
20
-223.3865169451
30
0.0000000000
10
-349.5963389901
20
-224.2554686733
30
0.0000000000
10
-349.4159242481
20
-225.1587724268
30
0.0000000000
10
-349.3707454346
20
-225.7695652694
30
0.0000000000
10
-349.3636120766
20
-226.0496386741
30
0.0000000000
11
-351.1743439745
21
-221.9126920636
31
0.0000000000
11
-350.9652265241
21
-222.0706199062
31
0.0000000000
11
-350.4051352534
21
-222.6507520784
31
0.0000000000
11
-349.9559769280
21
-223.3789816090
31
0.0000000000
11
-349.6277850026
21
-224.2390410534
31
0.0000000000
11
-349.4278907424
21
-225.2117181049
31
0.0000000000
11
-349.3636120766
21
-226.0496386741
31
0.0000000000
0
SPLINE
5
342
100
AcDbEntity
8
0
100
AcDbSpline
62
7
6
CONTINUOUS
70
0
71
3
72
13
73
9
74
7
42
0.0000001000
43
0.0000001000
44
0.0000000001
12
4.8067091774
22
-2.4044626107
32
0.0000000000
13
-0.0000000000
23
-5.3621237719
33
0.0000000000
40
0.0000000000
40
0.0000000000
40
0.0000000000
40
0.0000000000
40
0.1344422122
40
0.2848274496
40
0.4443921917
40
0.6160685604
40
0.8012572573
40
1.0000000000
40
1.0000000000
40
1.0000000000
40
1.0000000000
10
-351.2164579957
20
-221.8545633866
30
0.0000000000
10
-351.0010497906
20
-221.9623171441
30
0.0000000000
10
-350.5707131602
20
-222.2428300241
30
0.0000000000
10
-350.0174491478
20
-222.8224257020
30
0.0000000000
10
-349.5676938701
20
-223.5632936404
30
0.0000000000
10
-349.2427855995
20
-224.4322453686
30
0.0000000000
10
-349.0475892198
20
-225.4095580894
30
0.0000000000
10
-349.0072060644
20
-226.0968337324
30
0.0000000000
10
-349.0072060644
20
-226.4520614609
30
0.0000000000
11
-351.2164579957
21
-221.8545633866
31
0.0000000000
11
-350.6116731335
21
-222.2473966015
31
0.0000000000
11
-350.0515818629
21
-222.8275287737
31
0.0000000000
11
-349.6024235374
21
-223.5557583043
31
0.0000000000
11
-349.2742316120
21
-224.4158177487
31
0.0000000000
11
-349.0743373518
21
-225.3884948002
31
0.0000000000
11
-349.0072060644
21
-226.4520614609
31
0.0000000000
0
SPLINE
5
343
100
AcDbEntity
8
0
100
AcDbSpline
62
7
6
CONTINUOUS
70
0
71
3
72
18
73
14
74
12
42
0.0000001000
43
0.0000001000
44
0.0000000001
12
0.0000000000
22
-10.0499444532
32
0.0000000000
13
9.2017758367
23
4.0651372609
33
0.0000000000
40
0.0000000000
40
0.0000000000
40
0.0000000000
40
0.0000000000
40
0.1133066799
40
0.2192603806
40
0.3178384215
40
0.4096803967
40
0.4961792796
40
0.5794628477
40
0.6621759801
40
0.7470621192
40
0.8365005389
40
0.9321974276
40
1.0000000000
40
1.0000000000
40
1.0000000000
40
1.0000000000
10
-361.7351281258
20
-232.8160224915
30
0.0000000000
10
-361.7351281258
20
-233.1955977714
30
0.0000000000
10
-361.6937858784
20
-233.9311222953
30
0.0000000000
10
-361.4946452567
20
-234.9805353277
30
0.0000000000
10
-361.1631485413
20
-235.9210819055
30
0.0000000000
10
-360.7040017387
20
-236.7334645886
30
0.0000000000
10
-360.1242024161
20
-237.3996118739
30
0.0000000000
10
-359.4345463454
20
-237.9023873169
30
0.0000000000
10
-358.6511984910
20
-238.2277976467
30
0.0000000000
10
-357.7944349907
20
-238.3682775965
30
0.0000000000
10
-356.8849953395
20
-238.3232462757
30
0.0000000000
10
-356.0569908294
20
-238.1243328425
30
0.0000000000
10
-355.5449392956
20
-237.9267776803
30
0.0000000000
10
-355.3369712716
20
-237.8349020926
30
0.0000000000
11
-361.7351281258
21
-232.8160224915
31
0.0000000000
11
-361.6667535149
21
-233.9526937062
31
0.0000000000
11
-361.4630215919
21
-234.9978509619
31
0.0000000000
11
-361.1280797514
21
-235.9302178709
31
0.0000000000
11
-360.6687464433
21
-236.7308141316
31
0.0000000000
11
-360.0943723691
21
-237.3833419128
31
0.0000000000
11
-359.4166501287
21
-237.8745176308
31
0.0000000000
11
-358.6493761925
21
-238.1943423642
31
0.0000000000
11
-357.8081700452
21
-238.3363054039
31
0.0000000000
11
-356.9101562181
21
-238.2975167918
31
0.0000000000
11
-355.9736156830
21
-238.0787661520
31
0.0000000000
11
-355.3369712716
21
-237.8349020926
31
0.0000000000
0
SPLINE
5
344
100
AcDbEntity
8
0
100
AcDbSpline
62
7
6
CONTINUOUS
70
0
71
3
72
9
73
5
74
3
42
0.0000001000
43
0.0000001000
44
0.0000000001
12
1.2303725036
22
0.5435508534
32
0.0000000000
13
1.1234721267
23
0.7390099902
33
0.0000000000
40
0.0000000000
40
0.0000000000
40
0.0000000000
40
0.0000000000
40
0.2624656053
40
1.0000000000
40
1.0000000000
40
1.0000000000
40
1.0000000000
10
-355.3369712716
20
-237.8349020926
30
0.0000000000
10
-355.2293277836
20
-237.7873476246
30
0.0000000000
10
-354.8236720547
20
-237.5960075064
30
0.0000000000
10
-354.4358317705
20
-237.3698195033
30
0.0000000000
10
-354.1596319922
20
-237.1881377414
30
0.0000000000
11
-355.3369712716
21
-237.8349020926
31
0.0000000000
11
-355.0176137045
21
-237.6845066169
31
0.0000000000
11
-354.1596319922
21
-237.1881377414
31
0.0000000000
0
SPLINE
5
345
100
AcDbEntity
8
0
100
AcDbSpline
62
7
6
CONTINUOUS
70
0
71
3
72
9
73
5
74
3
42
0.0000001000
43
0.0000001000
44
0.0000000001
12
0.3037795857
22
0.2291843229
32
0.0000000000
13
0.3247456120
23
0.1984428140
33
0.0000000000
40
0.0000000000
40
0.0000000000
40
0.0000000000
40
0.0000000000
40
0.4956255797
40
1.0000000000
40
1.0000000000
40
1.0000000000
40
1.0000000000
10
-355.3325690596
20
-232.0774094225
30
0.0000000000
10
-355.2823820818
20
-232.0395462183
30
0.0000000000
10
-355.1790515706
20
-231.9658645303
30
0.0000000000
10
-355.0722714485
20
-231.8973126390
30
0.0000000000
10
-355.0176736552
20
-231.8639494793
30
0.0000000000
11
-355.3325690596
21
-232.0774094225
31
0.0000000000
11
-355.1791082141
21
-231.9677692671
31
0.0000000000
11
-355.0176736552
21
-231.8639494793
31
0.0000000000
0
SPLINE
5
346
100
AcDbEntity
8
0
100
AcDbSpline
62
7
6
CONTINUOUS
70
0
71
3
72
17
73
13
74
11
42
0.0000001000
43
0.0000001000
44
0.0000000001
12
5.8623396320
22
4.2124240216
32
0.0000000000
13
3.0369054219
23
-6.5538791576
33
0.0000000000
40
0.0000000000
40
0.0000000000
40
0.0000000000
40
0.0000000000
40
0.0945212920
40
0.2255575623
40
0.3470786215
40
0.4599073776
40
0.5659280602
40
0.6680550727
40
0.7698930103
40
0.8751010932
40
0.9867310704
40
1.0000000000
40
1.0000000000
40
1.0000000000
40
1.0000000000
10
-356.3645799905
20
-222.9566381867
30
0.0000000000
10
-356.1798746852
20
-222.8239169330
30
0.0000000000
10
-355.7259729622
20
-222.5255251385
30
0.0000000000
10
-354.9788988740
20
-222.1469479554
30
0.0000000000
10
-354.1387398978
20
-221.8758833045
30
0.0000000000
10
-353.3217776356
20
-221.7701393262
30
0.0000000000
10
-352.5461197105
20
-221.8350842162
30
0.0000000000
10
-351.8316328656
20
-222.0723264507
30
0.0000000000
10
-351.1988855539
20
-222.4767747993
30
0.0000000000
10
-350.6651298652
20
-223.0359336878
30
0.0000000000
10
-350.3760465667
20
-223.5121316515
30
0.0000000000
10
-350.2467294880
20
-223.7836783350
30
0.0000000000
10
-350.2332973266
20
-223.8126659888
30
0.0000000000
11
-356.3645799905
21
-222.9566381867
31
0.0000000000
11
-355.7939043426
21
-222.5830266405
31
0.0000000000
11
-354.9484298477
21
-222.1602893930
31
0.0000000000
11
-354.1123986043
21
-221.8966056297
31
0.0000000000
11
-353.3044861689
21
-221.7978656102
31
0.0000000000
11
-352.5427399704
21
-221.8662750232
31
0.0000000000
11
-351.8441761600
21
-222.1003057157
31
0.0000000000
11
-351.2243994989
21
-222.4947298285
31
0.0000000000
11
-350.6972547735
21
-223.0407365789
31
0.0000000000
11
-350.2745175261
21
-223.7261290782
31
0.0000000000
11
-350.2332973266
21
-223.8126659888
31
0.0000000000
0
SPLINE
5
347
100
AcDbEntity
8
0
100
AcDbSpline
62
7
6
CONTINUOUS
70
0
71
3
72
20
73
16
74
14
42
0.0000001000
43
0.0000001000
44
0.0000000001
12
-6.6502428143
22
-0.6912327740
32
0.0000000000
13
4.9251246166
23
4.5218004985
33
0.0000000000
40
0.0000000000
40
0.0000000000
40
0.0000000000
40
0.0000000000
40
0.0605784697
40
0.1180586992
40
0.1757672670
40
0.2369623545
40
0.3039483185
40
0.3777636601
40
0.4583188143
40
0.5446693091
40
0.6352741831
40
0.7282130790
40
0.8213742251
40
0.9126279961
40
1.0000000000
40
1.0000000000
40
1.0000000000
40
1.0000000000
10
-355.0176137045
20
-232.8424077228
30
0.0000000000
10
-355.1519008822
20
-232.8563656640
30
0.0000000000
10
-355.4190214478
20
-232.8511084756
30
0.0000000000
10
-355.7964873195
20
-232.7245215348
30
0.0000000000
10
-356.1157049115
20
-232.4840483892
30
0.0000000000
10
-356.3616674736
20
-232.1441750038
30
0.0000000000
10
-356.5280641012
20
-231.7217293281
30
0.0000000000
10
-356.6120311797
20
-231.2327240744
30
0.0000000000
10
-356.6122627154
20
-230.6940621438
30
0.0000000000
10
-356.5293982368
20
-230.1243799378
30
0.0000000000
10
-356.3665933544
20
-229.5437245896
30
0.0000000000
10
-356.1297386880
20
-228.9727982594
30
0.0000000000
10
-355.8273118698
20
-228.4320418397
30
0.0000000000
10
-355.4702815324
20
-227.9409909427
30
0.0000000000
10
-355.1964083793
20
-227.6500985349
30
0.0000000000
10
-355.0529690436
20
-227.5184056113
30
0.0000000000
11
-355.0176137045
21
-232.8424077228
31
0.0000000000
11
-355.4224545199
21
-232.8299680246
31
0.0000000000
11
-355.7863094143
21
-232.7062382857
31
0.0000000000
11
-356.0957655709
21
-232.4757776323
31
0.0000000000
11
-356.3394149828
21
-232.1470794682
31
0.0000000000
11
-356.5082750131
21
-231.7322585719
31
0.0000000000
11
-356.5961195900
21
-231.2466047091
31
0.0000000000
11
-356.5997088313
21
-230.7080192680
31
0.0000000000
11
-356.5189087197
21
-230.1363558046
31
0.0000000000
11
-356.3566959940
21
-229.5526870633
31
0.0000000000
11
-356.1190486679
21
-228.9785296866
31
0.0000000000
11
-355.8147258764
21
-228.4350505642
31
0.0000000000
11
-355.4549457006
21
-227.9422871864
31
0.0000000000
11
-355.0529690436
21
-227.5184056113
31
0.0000000000
0
SPLINE
5
348
100
AcDbEntity
8
0
100
AcDbSpline
62
7
6
CONTINUOUS
70
0
71
3
72
16
73
12
74
10
42
0.0000001000
43
0.0000001000
44
0.0000000001
12
0.0000000000
22
-6.5994417060
32
0.0000000000
13
6.4649702725
23
1.3765727573
33
0.0000000000
40
0.0000000000
40
0.0000000000
40
0.0000000000
40
0.0000000000
40
0.1423751203
40
0.2745217613
40
0.3965484801
40
0.5097112710
40
0.6165414700
40
0.7206928574
40
0.8263602658
40
0.9374270193
40
1.0000000000
40
1.0000000000
40
1.0000000000
40
1.0000000000
10
-359.3663204088
20
-232.3387254142
30
0.0000000000
10
-359.3663204088
20
-232.6519241831
30
0.0000000000
10
-359.3290883620
20
-233.2568516838
30
0.0000000000
10
-359.1484249724
20
-234.1138470954
30
0.0000000000
10
-358.8477081861
20
-234.8689030006
30
0.0000000000
10
-358.4316814607
20
-235.5029023015
30
0.0000000000
10
-357.9080263967
20
-235.9974713464
30
0.0000000000
10
-357.2899894469
20
-236.3355656495
30
0.0000000000
10
-356.5972161086
20
-236.5058671870
30
0.0000000000
10
-355.9775379901
20
-236.5058095988
30
0.0000000000
10
-355.5993618560
20
-236.4451703132
30
0.0000000000
10
-355.4645177026
20
-236.4164582264
30
0.0000000000
11
-359.3663204088
21
-232.3387254142
31
0.0000000000
11
-359.3040749552
21
-233.2762576658
31
0.0000000000
11
-359.1188712839
21
-234.1284593082
31
0.0000000000
11
-358.8152697240
21
-234.8743463087
31
0.0000000000
11
-358.4007459535
21
-235.4955524538
31
0.0000000000
11
-357.8855069233
21
-235.9767815867
31
0.0000000000
11
-357.2822395285
21
-236.3061842490
31
0.0000000000
11
-356.6057982142
21
-236.4756494539
31
0.0000000000
11
-355.8728392108
21
-236.4810044056
31
0.0000000000
11
-355.4645177026
21
-236.4164582264
31
0.0000000000
0
SPLINE
5
349
100
AcDbEntity
8
0
100
AcDbSpline
62
7
6
CONTINUOUS
70
0
71
3
72
12
73
8
74
6
42
0.0000001000
43
0.0000001000
44
0.0000000001
12
0.2743156880
22
1.4752127108
32
0.0000000000
13
0.8704151595
23
1.2219658449
33
0.0000000000
40
0.0000000000
40
0.0000000000
40
0.0000000000
40
0.0000000000
40
0.1184172553
40
0.3169538991
40
0.5300598996
40
0.7573087454
40
1.0000000000
40
1.0000000000
40
1.0000000000
40
1.0000000000
10
-354.1226350180
20
-228.1579608654
30
0.0000000000
10
-354.1118071144
20
-228.0997306520
30
0.0000000000
10
-354.0797874173
20
-227.9444364116
30
0.0000000000
10
-354.0119368396
20
-227.6879505963
30
0.0000000000
10
-353.9057488131
20
-227.3861670427
30
0.0000000000
10
-353.7618141135
20
-227.0757557478
30
0.0000000000
10
-353.6384588521
20
-226.8747969657
30
0.0000000000
10
-353.5680448031
20
-226.7759434910
30
0.0000000000
11
-354.1226350180
21
-228.1579608654
31
0.0000000000
11
-354.0866875862
21
-227.9839604690
31
0.0000000000
11
-354.0101438474
21
-227.6961040870
31
0.0000000000
11
-353.9035082639
21
-227.3946938874
31
0.0000000000
11
-353.7593795290
21
-227.0857213992
31
0.0000000000
11
-353.5680448031
21
-226.7759434910
31
0.0000000000
0
SPLINE
5
34A
100
AcDbEntity
8
0
100
AcDbSpline
62
7
6
CONTINUOUS
70
0
71
3
72
14
73
10
74
8
42
0.0000001000
43
0.0000001000
44
0.0000000001
12
2.7992191271
22
0.2292312730
32
0.0000000000
13
-0.0255094818
23
-2.8112385081
33
0.0000000000
40
0.0000000000
40
0.0000000000
40
0.0000000000
40
0.0000000000
40
0.1432974779
40
0.2798384121
40
0.4176200293
40
0.5642699140
40
0.7250265977
40
0.9021131543
40
1.0000000000
40
1.0000000000
40
1.0000000000
40
1.0000000000
10
-353.5680448031
20
-226.7759434910
30
0.0000000000
10
-353.4343377894
20
-226.7649940699
30
0.0000000000
10
-353.1684592800
20
-226.7766144433
30
0.0000000000
10
-352.7952150007
20
-226.9130831217
30
0.0000000000
10
-352.4817463327
20
-227.1625082835
30
0.0000000000
10
-352.2423145281
20
-227.5098904316
30
0.0000000000
10
-352.0827444765
20
-227.9384748562
30
0.0000000000
10
-352.0195509360
20
-228.3437713153
30
0.0000000000
10
-352.0116962063
20
-228.6015121120
30
0.0000000000
10
-352.0125285538
20
-228.6932398687
30
0.0000000000
11
-353.5680448031
21
-226.7759434910
31
0.0000000000
11
-353.1661763720
21
-226.7978264081
31
0.0000000000
11
-352.8064577156
21
-226.9307365094
31
0.0000000000
11
-352.5021528923
21
-227.1697885973
31
0.0000000000
11
-352.2644858327
21
-227.5061796524
31
0.0000000000
11
-352.1022224456
21
-227.9275137422
31
0.0000000000
11
-352.0213469038
21
-228.4182575986
31
0.0000000000
11
-352.0125285538
21
-228.6932398687
31
0.0000000000
0
SPLINE
5
34B
100
AcDbEntity
8
0
100
AcDbSpline
62
7
6
CONTINUOUS
70
0
71
3
72
25
73
21
74
19
42
0.0000001000
43
0.0000001000
44
0.0000000001
12
0.0000000000
22
15.9322687331
32
0.0000000000
13
6.7075120115
23
-14.4757503394
33
0.0000000000
40
0.0000000000
40
0.0000000000
40
0.0000000000
40
0.0000000000
40
0.0628732497
40
0.1290162133
40
0.1975890015
40
0.2676105023
40
0.3380206399
40
0.4077387550
40
0.4757210114
40
0.5410195571
40
0.6028464696
40
0.6606460291
40
0.7141785030
40
0.7636141142
40
0.8096200269
40
0.8533894306
40
0.8965308702
40
0.9407819234
40
0.9876560538
40
1.0000000000
40
1.0000000000
40
1.0000000000
40
1.0000000000
10
-359.3663204088
20
-232.3387254142
30
0.0000000000
10
-359.3663204088
20
-232.0048209109
30
0.0000000000
10
-359.3212648331
20
-231.3191377435
30
0.0000000000
10
-359.1340452519
20
-230.2846963324
30
0.0000000000
10
-358.8298740599
20
-229.2388384350
30
0.0000000000
10
-358.4161384552
20
-228.2070040205
30
0.0000000000
10
-357.9028560694
20
-227.2140639717
30
0.0000000000
10
-357.3024435986
20
-226.2840621027
30
0.0000000000
10
-356.6293873567
20
-225.4394773984
30
0.0000000000
10
-355.8998329193
20
-224.7006878795
30
0.0000000000
10
-355.1310975283
20
-224.0854890261
30
0.0000000000
10
-354.3411231731
20
-223.6087764596
30
0.0000000000
10
-353.5479465471
20
-223.2824802562
30
0.0000000000
10
-352.7694354630
20
-223.1158394499
30
0.0000000000
10
-352.0237977381
20
-223.1157701560
30
0.0000000000
10
-351.3310243998
20
-223.2860716936
30
0.0000000000
10
-350.7129874500
20
-223.6241659966
30
0.0000000000
10
-350.1893323860
20
-224.1187350415
30
0.0000000000
10
-349.8854879275
20
-224.5817754246
30
0.0000000000
10
-349.7461544039
20
-224.8643222121
30
0.0000000000
10
-349.7185553481
20
-224.9238848399
30
0.0000000000
11
-359.3663204088
21
-232.3387254142
31
0.0000000000
11
-359.3040749552
21
-231.3389477090
31
0.0000000000
11
-359.1188712839
21
-230.3015423954
31
0.0000000000
11
-358.8152697240
21
-229.2520538350
31
0.0000000000
11
-358.4007459535
21
-228.2163239193
31
0.0000000000
11
-357.8855069233
21
-227.2198557563
31
0.0000000000
11
-357.2822395285
21
-226.2871856991
31
0.0000000000
11
-356.6057982142
21
-225.4412791800
31
0.0000000000
11
-355.8728392108
21
-224.7029652249
31
0.0000000000
11
-355.1014104013
21
-224.0904235735
31
0.0000000000
11
-354.3105069233
21
-223.6187370344
31
0.0000000000
11
-353.5196034454
21
-223.2995200956
31
0.0000000000
11
-352.7481746359
21
-223.1406329374
31
0.0000000000
11
-352.0152156325
21
-223.1459878891
31
0.0000000000
11
-351.3387743182
21
-223.3154530940
31
0.0000000000
11
-350.7355069233
21
-223.6448557563
31
0.0000000000
11
-350.2202678932
21
-224.1260848892
31
0.0000000000
11
-349.8057441227
21
-224.7472910343
31
0.0000000000
11
-349.7185553481
21
-224.9238848399
31
0.0000000000
0
SPLINE
5
34C
100
AcDbEntity
8
0
100
AcDbSpline
62
7
6
CONTINUOUS
70
0
71
3
72
12
73
8
74
6
42
0.0000001000
43
0.0000001000
44
0.0000000001
12
0.0000000000
22
-5.1078469566
32
0.0000000000
13
3.2421660468
23
-3.9578427603
33
0.0000000000
40
0.0000000000
40
0.0000000000
40
0.0000000000
40
0.0000000000
40
0.2472701030
40
0.4792379026
40
0.6957786880
40
0.8980117730
40
1.0000000000
40
1.0000000000
40
1.0000000000
40
1.0000000000
10
-363.9271591475
20
-232.7806671525
30
0.0000000000
10
-363.9271591475
20
-233.2016731003
30
0.0000000000
10
-363.8831511922
20
-234.0186407259
30
0.0000000000
10
-363.6718317498
20
-235.1877277407
30
0.0000000000
10
-363.3200230375
20
-236.2429534349
30
0.0000000000
10
-362.9032651367
20
-237.0307610336
30
0.0000000000
10
-362.5959119637
20
-237.4497603251
30
0.0000000000
10
-362.4856910415
20
-237.5843114471
30
0.0000000000
11
-363.9271591475
21
-232.7806671525
31
0.0000000000
11
-363.8547128096
21
-234.0416055335
31
0.0000000000
11
-363.6387233341
21
-235.2066086803
31
0.0000000000
11
-363.2832141963
21
-236.2539747886
31
0.0000000000
11
-362.7948078587
21
-237.1641934095
31
0.0000000000
11
-362.4856910415
21
-237.5843114471
31
0.0000000000
0
SPLINE
5
34D
100
AcDbEntity
8
0
100
AcDbSpline
62
7
6
CONTINUOUS
70
0
71
3
72
10
73
6
74
4
42
0.0000001000
43
0.0000001000
44
0.0000000001
12
1.1633838841
22
-1.4201895944
32
0.0000000000
13
1.6428543103
23
-0.8213860658
33
0.0000000000
40
0.0000000000
40
0.0000000000
40
0.0000000000
40
0.0000000000
40
0.2465812936
40
0.7556889818
40
1.0000000000
40
1.0000000000
40
1.0000000000
40
1.0000000000
10
-362.4856910415
20
-237.5843114471
30
0.0000000000
10
-362.3900681405
20
-237.7010421762
30
0.0000000000
10
-362.0804480156
20
-238.0451374090
30
0.0000000000
10
-361.6035193250
20
-238.4347320885
30
0.0000000000
10
-361.2020818265
20
-238.6633049011
30
0.0000000000
10
-361.0682926901
20
-238.7301961231
30
0.0000000000
11
-362.4856910415
21
-237.5843114471
31
0.0000000000
11
-362.1826024073
21
-237.9203088923
31
0.0000000000
11
-361.4580020714
21
-238.5082362362
31
0.0000000000
11
-361.0682926901
21
-238.7301961231
31
0.0000000000
0
SPLINE
5
34E
100
AcDbEntity
8
0
100
AcDbSpline
62
7
6
CONTINUOUS
70
0
71
3
72
8
73
4
74
2
42
0.0000001000
43
0.0000001000
44
0.0000000001
12
0.1268081301
22
-0.0545729923
32
0.0000000000
13
0.1290501397
23
-0.0490725712
33
0.0000000000
40
0.0000000000
40
0.0000000000
40
0.0000000000
40
0.0000000000
40
1.0000000000
40
1.0000000000
40
1.0000000000
40
1.0000000000
10
-359.0078276452
20
-236.9596418778
30
0.0000000000
10
-358.9655582685
20
-236.9778328752
30
0.0000000000
10
-358.9228931856
20
-236.9951084464
30
0.0000000000
10
-358.8798764723
20
-237.0114659701
30
0.0000000000
11
-359.0078276452
21
-236.9596418778
31
0.0000000000
11
-358.8798764723
21
-237.0114659701
31
0.0000000000
0
SPLINE
5
34F
100
AcDbEntity
8
0
100
AcDbSpline
62
7
6
CONTINUOUS
70
0
71
3
72
12
73
8
74
6
42
0.0000001000
43
0.0000001000
44
0.0000000001
12
3.4130153210
22
-1.2978322829
32
0.0000000000
13
3.2568476126
23
1.6386594159
33
0.0000000000
40
0.0000000000
40
0.0000000000
40
0.0000000000
40
0.0000000000
40
0.1437666728
40
0.3668492835
40
0.6042570499
40
0.8599546595
40
1.0000000000
40
1.0000000000
40
1.0000000000
40
1.0000000000
10
-358.8798764723
20
-237.0114659701
30
0.0000000000
10
-358.7163171867
20
-237.0736609798
30
0.0000000000
10
-358.2859915645
20
-237.1984974129
30
0.0000000000
10
-357.5486433959
20
-237.2602346737
30
0.0000000000
10
-356.6806209923
20
-237.1478816968
30
0.0000000000
10
-355.9454804294
20
-236.9106996566
30
0.0000000000
10
-355.5078522759
20
-236.7105313340
30
0.0000000000
10
-355.3558168316
20
-236.6340357954
30
0.0000000000
11
-358.8798764723
21
-237.0114659701
31
0.0000000000
11
-358.3763709152
21
-237.1580904956
31
0.0000000000
11
-357.5670155792
21
-237.2307754970
31
0.0000000000
11
-356.7086086167
21
-237.1258642262
31
0.0000000000
11
-355.8203254206
21
-236.8457002278
31
0.0000000000
11
-355.3558168316
21
-236.6340357954
31
0.0000000000
0
SPLINE
5
350
100
AcDbEntity
8
0
100
AcDbSpline
62
7
6
CONTINUOUS
70
0
71
3
72
9
73
5
74
3
42
0.0000001000
43
0.0000001000
44
0.0000000001
12
1.0622695674
22
0.5344732809
32
0.0000000000
13
0.9679515515
23
0.6903797686
33
0.0000000000
40
0.0000000000
40
0.0000000000
40
0.0000000000
40
0.0000000000
40
0.4159662902
40
1.0000000000
40
1.0000000000
40
1.0000000000
40
1.0000000000
10
-355.3558168316
20
-236.6340357954
30
0.0000000000
10
-355.2085273879
20
-236.5599281727
30
0.0000000000
10
-354.8608278343
20
-236.3689996590
30
0.0000000000
10
-354.5289868086
20
-236.1517943550
30
0.0000000000
10
-354.3405480301
20
-236.0173926692
30
0.0000000000
11
-355.3558168316
21
-236.6340357954
31
0.0000000000
11
-354.9220087697
21
-236.3965419023
31
0.0000000000
11
-354.3405480301
21
-236.0173926692
31
0.0000000000
0
SPLINE
5
351
100
AcDbEntity
8
0
100
AcDbSpline
62
7
6
CONTINUOUS
70
0
71
3
72
16
73
12
74
10
42
0.0000001000
43
0.0000001000
44
0.0000000001
12
6.7517219836
22
-3.3774173698
32
0.0000000000
13
4.9679540297
23
5.6656942231
33
0.0000000000
40
0.0000000000
40
0.0000000000
40
0.0000000000
40
0.0000000000
40
0.0079206565
40
0.1118480467
40
0.2197377480
40
0.3345555410
40
0.4582188720
40
0.5915651559
40
0.7344911420
40
0.8861396666
40
1.0000000000
40
1.0000000000
40
1.0000000000
40
1.0000000000
10
-358.8187694134
20
-237.0599671752
30
0.0000000000
10
-358.8009433899
20
-237.0688842961
30
0.0000000000
10
-358.5480331730
20
-237.1924194954
30
0.0000000000
10
-358.0192265507
20
-237.3680074234
30
0.0000000000
10
-357.1950900053
20
-237.4370113690
30
0.0000000000
10
-356.3270676017
20
-237.3246583921
30
0.0000000000
10
-355.4343986895
20
-237.0366522005
30
0.0000000000
10
-354.5355938143
20
-236.5811859714
30
0.0000000000
10
-353.6492417790
20
-235.9690042088
30
0.0000000000
10
-352.8790130566
20
-235.2887950597
30
0.0000000000
10
-352.4212709309
20
-234.8032138270
30
0.0000000000
10
-352.2327199634
20
-234.5881812159
30
0.0000000000
11
-358.8187694134
21
-237.0599671752
31
0.0000000000
11
-358.7650415731
21
-237.0862095802
31
0.0000000000
11
-358.0228175246
21
-237.3348671909
31
0.0000000000
11
-357.2134621886
21
-237.4075521923
31
0.0000000000
11
-356.3550552261
21
-237.3026409215
31
0.0000000000
11
-355.4667720300
21
-237.0224769231
31
0.0000000000
11
-354.5684553791
21
-236.5733185976
31
0.0000000000
11
-353.6801721830
21
-235.9651994000
31
0.0000000000
11
-352.8217652204
21
-235.2117037082
31
0.0000000000
11
-352.2327199634
21
-234.5881812159
31
0.0000000000
0
SPLINE
5
352
100
AcDbEntity
8
0
100
AcDbSpline
62
7
6
CONTINUOUS
70
0
71
3
72
9
73
5
74
3
42
0.0000001000
43
0.0000001000
44
0.0000000001
12
0.2306712199
22
1.5101023957
32
0.0000000000
13
0.0000000000
23
1.5269229258
33
0.0000000000
40
0.0000000000
40
0.0000000000
40
0.0000000000
40
0.0000000000
40
0.2581884652
40
1.0000000000
40
1.0000000000
40
1.0000000000
40
1.0000000000
10
-349.1268831901
20
-227.9736734699
30
0.0000000000
10
-349.1070309741
20
-227.8437097967
30
0.0000000000
10
-349.0390532453
20
-227.3389507414
30
0.0000000000
10
-349.0072060644
20
-226.8296244739
30
0.0000000000
10
-349.0072060644
20
-226.4520614609
30
0.0000000000
11
-349.1268831901
21
-227.9736734699
31
0.0000000000
11
-349.0743373518
21
-227.5827594089
31
0.0000000000
11
-349.0072060644
21
-226.4520614609
31
0.0000000000
0
SPLINE
5
353
100
AcDbEntity
8
0
100
AcDbSpline
62
7
6
CONTINUOUS
70
0
71
3
72
10
73
6
74
4
42
0.0000001000
43
0.0000001000
44
0.0000000001
12
0.8588211978
22
-0.4294105989
32
0.0000000000
13
-0.0000000000
23
-0.9645276564
33
0.0000000000
40
0.0000000000
40
0.0000000000
40
0.0000000000
40
0.0000000000
40
0.3950875622
40
0.7212632404
40
1.0000000000
40
1.0000000000
40
1.0000000000
40
1.0000000000
10
32.1233489951
20
144.2384730356
30
0.0000000000
10
32.2364521862
20
144.1819214400
30
0.0000000000
10
32.4345048056
20
144.0588830330
30
0.0000000000
10
32.6525334333
20
143.8154676175
30
0.0000000000
10
32.7091354327
20
143.6209826922
30
0.0000000000
10
32.7091354327
20
143.5313662544
30
0.0000000000
11
32.1233489951
21
144.2384730356
31
0.0000000000
11
32.4411862403
21
144.0313662544
31
0.0000000000
11
32.6409870853
21
143.7901852995
31
0.0000000000
11
32.7091354327
21
143.5313662544
31
0.0000000000
0
SPLINE
5
354
100
AcDbEntity
8
0
100
AcDbSpline
62
7
6
CONTINUOUS
70
0
71
3
72
10
73
6
74
4
42
0.0000001000
43
0.0000001000
44
0.0000000001
12
-1.7071296543
22
0.8313538952
32
0.0000000000
13
-0.0000000000
23
1.8759801700
33
0.0000000000
40
0.0000000000
40
0.0000000000
40
0.0000000000
40
0.0000000000
40
0.0970401048
40
0.5055039983
40
1.0000000000
40
1.0000000000
40
1.0000000000
40
1.0000000000
10
-14.8272807943
20
-188.8245634595
30
0.0000000000
10
-14.8825008078
20
-188.7976719031
30
0.0000000000
10
-15.1579588290
20
-188.6353408845
30
0.0000000000
10
-15.5300156688
20
-188.0868918617
30
0.0000000000
10
-15.6063587350
20
-187.5138772556
30
0.0000000000
10
-15.6063587350
20
-187.2046556912
30
0.0000000000
11
-14.8272807943
21
-188.8245634595
31
0.0000000000
11
-14.9850383914
21
-188.7311128265
31
0.0000000000
11
-15.4448828387
21
-188.1181584652
31
0.0000000000
11
-15.6063587350
21
-187.2046556912
31
0.0000000000
0
SPLINE
5
355
100
AcDbEntity
8
0
100
AcDbSpline
62
7
6
CONTINUOUS
70
0
71
3
72
10
73
6
74
4
42
0.0000001000
43
0.0000001000
44
0.0000000001
12
-1.7071296543
22
0.8313538952
32
0.0000000000
13
-0.0000000000
23
1.8759801700
33
0.0000000000
40
0.0000000000
40
0.0000000000
40
0.0000000000
40
0.0000000000
40
0.0970401048
40
0.5055039983
40
1.0000000000
40
1.0000000000
40
1.0000000000
40
1.0000000000
10
-14.8272807943
20
94.3657435780
30
0.0000000000
10
-14.8825008078
20
94.3926351344
30
0.0000000000
10
-15.1579588290
20
94.5549661530
30
0.0000000000
10
-15.5300156688
20
95.1034151758
30
0.0000000000
10
-15.6063587350
20
95.6764297819
30
0.0000000000
10
-15.6063587350
20
95.9856513463
30
0.0000000000
11
-14.8272807943
21
94.3657435780
31
0.0000000000
11
-14.9850383914
21
94.4591942110
31
0.0000000000
11
-15.4448828387
21
95.0721485724
31
0.0000000000
11
-15.6063587350
21
95.9856513463
31
0.0000000000
0
SPLINE
5
356
100
AcDbEntity
8
0
100
AcDbSpline
62
7
6
CONTINUOUS
70
0
71
3
72
9
73
5
74
3
42
0.0000001000
43
0.0000001000
44
0.0000000001
12
0.0000000000
22
-0.3100831148
32
0.0000000000
13
-0.2799904430
23
-0.1475251504
33
0.0000000000
40
0.0000000000
40
0.0000000000
40
0.0000000000
40
0.0000000000
40
0.6403297784
40
1.0000000000
40
1.0000000000
40
1.0000000000
40
1.0000000000
10
-13.4850383914
20
-231.3916133886
30
0.0000000000
10
-13.4850383914
20
-231.4577985393
30
0.0000000000
10
-13.5010175840
20
-231.5675304017
30
0.0000000000
10
-13.5826109444
20
-231.6433822849
30
0.0000000000
10
-13.6161790193
20
-231.6610690861
30
0.0000000000
11
-13.4850383914
21
-231.3916133886
31
0.0000000000
11
-13.5324055642
21
-231.5844361531
31
0.0000000000
11
-13.6161790193
21
-231.6610690861
31
0.0000000000
0
SPLINE
5
357
100
AcDbEntity
8
0
100
AcDbSpline
62
7
6
CONTINUOUS
70
0
71
3
72
10
73
6
74
4
42
0.0000001000
43
0.0000001000
44
0.0000000001
12
0.0000000000
22
0.7323450078
32
0.0000000000
13
-0.6550292881
23
0.3275146441
33
0.0000000000
40
0.0000000000
40
0.0000000000
40
0.0000000000
40
0.0000000000
40
0.3342904765
40
0.6865843886
40
1.0000000000
40
1.0000000000
40
1.0000000000
40
1.0000000000
10
-13.4850383914
20
121.0807259517
30
0.0000000000
10
-13.4850383914
20
121.1623312722
30
0.0000000000
10
-13.5222666538
20
121.3303014286
30
0.0000000000
10
-13.6447794101
20
121.5443441526
30
0.0000000000
10
-13.7701596471
20
121.6562992814
30
0.0000000000
10
-13.8385917820
20
121.6905153489
30
0.0000000000
11
-13.4850383914
21
121.0807259517
31
0.0000000000
11
-13.5324055642
21
121.3209158890
31
0.0000000000
11
-13.6618150867
21
121.5441142994
31
0.0000000000
11
-13.8385917820
21
121.6905153489
31
0.0000000000
0
SPLINE
5
358
100
AcDbEntity
8
0
100
AcDbSpline
62
7
6
CONTINUOUS
70
0
71
3
72
9
73
5
74
3
42
0.0000001000
43
0.0000001000
44
0.0000000001
12
0.8145087617
22
-0.4072543809
32
0.0000000000
13
0.8222726718
23
0.4332501435
33
0.0000000000
40
0.0000000000
40
0.0000000000
40
0.0000000000
40
0.0000000000
40
0.7878668781
40
1.0000000000
40
1.0000000000
40
1.0000000000
40
1.0000000000
10
-13.8385917820
20
-232.9468875008
30
0.0000000000
10
-13.6246836236
20
-233.0538415800
30
0.0000000000
10
-13.2961012096
20
-233.1408932569
30
0.0000000000
10
-13.0070844873
20
-233.0304018332
30
0.0000000000
10
-12.9489407309
20
-232.9997662647
30
0.0000000000
11
-13.8385917820
21
-232.9468875008
31
0.0000000000
11
-13.1314850008
21
-233.0683900839
31
0.0000000000
11
-12.9489407309
21
-232.9997662647
31
0.0000000000
0
SPLINE
5
359
100
AcDbEntity
8
0
100
AcDbSpline
62
7
6
CONTINUOUS
70
0
71
3
72
8
73
4
74
2
42
0.0000001000
43
0.0000001000
44
0.0000000001
12
0.0562382672
22
-0.0696799688
32
0.0000000000
13
0.0541114193
23
-0.0713374435
33
0.0000000000
40
0.0000000000
40
0.0000000000
40
0.0000000000
40
0.0000000000
40
1.0000000000
40
1.0000000000
40
1.0000000000
40
1.0000000000
10
31.4396566723
20
144.6491860602
30
0.0000000000
10
31.4584027614
20
144.6259594039
30
0.0000000000
10
31.4767932514
20
144.6024455365
30
0.0000000000
10
31.4948303911
20
144.5786663886
30
0.0000000000
11
31.4396566723
21
144.6491860602
31
0.0000000000
11
31.4948303911
21
144.5786663886
31
0.0000000000
0
SPLINE
5
35A
100
AcDbEntity
8
0
100
AcDbSpline
62
7
6
CONTINUOUS
70
0
71
3
72
12
73
8
74
6
42
0.0000001000
43
0.0000001000
44
0.0000000001
12
1.1450243572
22
-1.5095355385
32
0.0000000000
13
0.0000000000
23
-1.8932851376
33
0.0000000000
40
0.0000000000
40
0.0000000000
40
0.0000000000
40
0.0000000000
40
0.2045427395
40
0.4116260706
40
0.6162943437
40
0.8137934810
40
1.0000000000
40
1.0000000000
40
1.0000000000
40
1.0000000000
10
31.4948303911
20
144.5786663886
30
0.0000000000
10
31.5728991974
20
144.4757448772
30
0.0000000000
10
31.7166852729
20
144.2586224769
30
0.0000000000
10
31.8915672077
20
143.9101894721
30
0.0000000000
10
32.0220892186
20
143.5474887655
30
0.0000000000
10
32.1033621070
20
143.1841739055
30
0.0000000000
10
32.1233489951
20
142.9417734848
30
0.0000000000
10
32.1233489951
20
142.8242594732
30
0.0000000000
11
31.4948303911
21
144.5786663886
31
0.0000000000
11
31.7091354327
21
144.2561111258
31
0.0000000000
11
31.8850110351
21
143.9057043239
31
0.0000000000
11
32.0156983976
21
143.5409119200
31
0.0000000000
11
32.0961752780
21
143.1757526815
31
0.0000000000
11
32.1233489951
21
142.8242594732
31
0.0000000000
0
SPLINE
5
35B
100
AcDbEntity
8
0
100
AcDbSpline
62
7
6
CONTINUOUS
70
0
71
3
72
10
73
6
74
4
42
0.0000001000
43
0.0000001000
44
0.0000000001
12
-0.8567012730
22
-0.4283506365
32
0.0000000000
13
0.0001383619
23
-0.9749596180
33
0.0000000000
40
0.0000000000
40
0.0000000000
40
0.0000000000
40
0.0000000000
40
0.4665000825
40
0.8374039002
40
1.0000000000
40
1.0000000000
40
1.0000000000
40
1.0000000000
10
-23.7380867186
20
129.3535144852
30
0.0000000000
10
-23.8713037902
20
129.2869059495
30
0.0000000000
10
-24.0994587759
20
129.1415227430
30
0.0000000000
10
-24.2973816745
20
128.8725877060
30
0.0000000000
10
-24.3220145093
20
128.6992113159
30
0.0000000000
10
-24.3220070102
20
128.6463697721
30
0.0000000000
11
-23.7380867186
21
129.3535144852
31
0.0000000000
11
-24.1061352286
21
129.1001537524
31
0.0000000000
11
-24.2994797072
21
128.8021147655
31
0.0000000000
11
-24.3220070102
21
128.6463697721
31
0.0000000000
0
SPLINE
5
35C
100
AcDbEntity
8
0
100
AcDbSpline
62
7
6
CONTINUOUS
70
0
71
3
72
10
73
6
74
4
42
0.0000001000
43
0.0000001000
44
0.0000000001
12
-1.5339906504
22
0.0302519507
32
0.0000000000
13
-1.3708645145
23
-0.6854322572
33
0.0000000000
40
0.0000000000
40
0.0000000000
40
0.0000000000
40
0.0000000000
40
0.2542644516
40
0.6482599241
40
1.0000000000
40
1.0000000000
40
1.0000000000
40
1.0000000000
10
19.4737968194
20
150.5053135466
30
0.0000000000
10
19.3437837223
20
150.5078775451
30
0.0000000000
10
19.0119779252
20
150.4981437220
30
0.0000000000
10
18.5052998893
20
150.4191471001
30
0.0000000000
10
18.1419427008
20
150.2935291950
30
0.0000000000
10
17.9812133714
20
150.2131645303
30
0.0000000000
11
19.4737968194
21
150.5053135466
31
0.0000000000
11
19.0840128108
21
150.4938610245
31
0.0000000000
11
18.4879348371
21
150.3971887852
31
0.0000000000
11
17.9812133714
21
150.2131645303
31
0.0000000000
0
SPLINE
5
35D
100
AcDbEntity
8
0
100
AcDbSpline
62
7
6
CONTINUOUS
70
0
71
3
72
10
73
6
74
4
42
0.0000001000
43
0.0000001000
44
0.0000000001
12
-0.8566403454
22
0.4283201727
32
0.0000000000
13
-0.0001383520
23
0.9748902800
33
0.0000000000
40
0.0000000000
40
0.0000000000
40
0.0000000000
40
0.0000000000
40
0.4666198539
40
0.8367722314
40
1.0000000000
40
1.0000000000
40
1.0000000000
40
1.0000000000
10
-23.7380867186
20
126.6402628172
30
0.0000000000
10
-23.8713285163
20
126.7068837160
30
0.0000000000
10
-24.0993032905
20
126.8521741042
30
0.0000000000
10
-24.2972307299
20
127.1209556559
30
0.0000000000
10
-24.3219994826
20
127.2942886114
30
0.0000000000
10
-24.3220070102
20
127.3473316664
30
0.0000000000
11
-23.7380867186
21
126.6402628172
31
0.0000000000
11
-24.1061953015
21
126.8936825448
31
0.0000000000
11
-24.2992725522
21
127.1910068579
31
0.0000000000
11
-24.3220070102
21
127.3473316664
31
0.0000000000
0
SPLINE
5
35E
100
AcDbEntity
8
0
100
AcDbSpline
62
7
6
CONTINUOUS
70
0
71
3
72
9
73
5
74
3
42
0.0000001000
43
0.0000001000
44
0.0000000001
12
1.1199617721
22
0.5901006018
32
0.0000000000
13
0.0000000000
23
1.2403324592
33
0.0000000000
40
0.0000000000
40
0.0000000000
40
0.0000000000
40
0.0000000000
40
0.3596702216
40
1.0000000000
40
1.0000000000
40
1.0000000000
40
1.0000000000
10
31.5987864838
20
-210.7259026573
30
0.0000000000
10
31.7330587834
20
-210.6551554526
30
0.0000000000
10
32.0594322249
20
-210.3517479197
30
0.0000000000
10
32.1233489951
20
-209.9128204700
30
0.0000000000
10
32.1233489951
20
-209.6480798671
30
0.0000000000
11
31.5987864838
21
-210.7259026573
31
0.0000000000
11
31.9338803041
21
-210.4193709254
31
0.0000000000
11
32.1233489951
21
-209.6480798671
31
0.0000000000
0
SPLINE
5
35F
100
AcDbEntity
8
0
100
AcDbSpline
62
7
6
CONTINUOUS
70
0
71
3
72
10
73
6
74
4
42
0.0000001000
43
0.0000001000
44
0.0000000001
12
-0.8566407232
22
0.4283203616
32
0.0000000000
13
-0.0001383803
23
0.9748904304
33
0.0000000000
40
0.0000000000
40
0.0000000000
40
0.0000000000
40
0.0000000000
40
0.4666346725
40
0.8367713785
40
1.0000000000
40
1.0000000000
40
1.0000000000
40
1.0000000000
10
-23.7380867186
20
-227.9971400325
30
0.0000000000
10
-23.8713328064
20
-227.9305169886
30
0.0000000000
10
-24.0993077514
20
-227.7852255717
30
0.0000000000
10
-24.2972312908
20
-227.5164424784
30
0.0000000000
10
-24.3219995957
20
-227.3431142570
30
0.0000000000
10
-24.3220071250
20
-227.2900709166
30
0.0000000000
11
-23.7380867186
21
-227.9971400325
31
0.0000000000
11
-24.1062057242
21
-227.7437100684
31
0.0000000000
11
-24.2992723670
21
-227.4463965767
31
0.0000000000
11
-24.3220071250
21
-227.2900709166
31
0.0000000000
0
SPLINE
5
360
100
AcDbEntity
8
0
100
AcDbSpline
62
7
6
CONTINUOUS
70
0
71
3
72
10
73
6
74
4
42
0.0000001000
43
0.0000001000
44
0.0000000001
12
0.0000000000
22
-0.9645276564
32
0.0000000000
13
-0.8588211978
23
-0.4294105989
33
0.0000000000
40
0.0000000000
40
0.0000000000
40
0.0000000000
40
0.0000000000
40
0.2787367596
40
0.6049124378
40
1.0000000000
40
1.0000000000
40
1.0000000000
40
1.0000000000
10
32.7091354327
20
-208.9409730859
30
0.0000000000
10
32.7091354327
20
-209.0305895237
30
0.0000000000
10
32.6525334333
20
-209.2250744490
30
0.0000000000
10
32.4345048056
20
-209.4684898645
30
0.0000000000
10
32.2364521862
20
-209.5915282715
30
0.0000000000
10
32.1233489951
20
-209.6480798671
30
0.0000000000
11
32.7091354327
21
-208.9409730859
31
0.0000000000
11
32.6409870853
21
-209.1997921310
31
0.0000000000
11
32.4411862403
21
-209.4409730859
31
0.0000000000
11
32.1233489951
21
-209.6480798671
31
0.0000000000
0
SPLINE
5
361
100
AcDbEntity
8
0
100
AcDbSpline
62
7
6
CONTINUOUS
70
0
71
3
72
10
73
6
74
4
42
0.0000001000
43
0.0000001000
44
0.0000000001
12
-0.8567012407
22
-0.4283506204
32
0.0000000000
13
0.0001383901
23
-0.9749593017
33
0.0000000000
40
0.0000000000
40
0.0000000000
40
0.0000000000
40
0.0000000000
40
0.4665263779
40
0.8374078659
40
1.0000000000
40
1.0000000000
40
1.0000000000
40
1.0000000000
10
-23.7380867186
20
-225.2838883645
30
0.0000000000
10
-23.8713112942
20
-225.3505006523
30
0.0000000000
10
-24.0994678022
20
-225.4958863489
30
0.0000000000
10
-24.2973835290
20
-225.7648248391
30
0.0000000000
10
-24.3220146253
20
-225.9381925731
30
0.0000000000
10
-24.3220071250
20
-225.9910328110
30
0.0000000000
11
-23.7380867186
21
-225.2838883645
31
0.0000000000
11
-24.1061534605
21
-225.5372670009
31
0.0000000000
11
-24.2994808119
21
-225.8352915885
31
0.0000000000
11
-24.3220071250
21
-225.9910328110
31
0.0000000000
0
SPLINE
5
362
100
AcDbEntity
8
0
100
AcDbSpline
62
7
6
CONTINUOUS
70
0
71
3
72
11
73
7
74
5
42
0.0000001000
43
0.0000001000
44
0.0000000001
12
0.0000000000
22
4.4046567014
32
0.0000000000
13
3.9793580163
23
1.9974944306
33
0.0000000000
40
0.0000000000
40
0.0000000000
40
0.0000000000
40
0.0000000000
40
0.2467931079
40
0.5117852234
40
0.7703244106
40
1.0000000000
40
1.0000000000
40
1.0000000000
40
1.0000000000
10
-15.6063587350
20
95.9856513463
30
0.0000000000
10
-15.6063587350
20
96.3479976519
30
0.0000000000
10
-15.4811911638
20
97.1007887689
30
0.0000000000
10
-15.0289640389
20
98.1471994225
30
0.0000000000
10
-14.3613930852
20
99.0438044029
30
0.0000000000
10
-13.7896921907
20
99.4914624926
30
0.0000000000
10
-13.4850383914
20
99.6443877295
30
0.0000000000
11
-15.6063587350
21
95.9856513463
31
0.0000000000
11
-15.4448828387
21
97.0606300166
31
0.0000000000
11
-14.9850383914
21
98.1334288252
31
0.0000000000
11
-14.2968325417
21
99.0407238786
31
0.0000000000
11
-13.4850383914
21
99.6443877295
31
0.0000000000
0
SPLINE
5
363
100
AcDbEntity
8
0
100
AcDbSpline
62
7
6
CONTINUOUS
70
0
71
3
72
11
73
7
74
5
42
0.0000001000
43
0.0000001000
44
0.0000000001
12
0.0000000000
22
4.4046567014
32
0.0000000000
13
3.9793580163
23
1.9974944306
33
0.0000000000
40
0.0000000000
40
0.0000000000
40
0.0000000000
40
0.0000000000
40
0.2467931079
40
0.5117852234
40
0.7703244106
40
1.0000000000
40
1.0000000000
40
1.0000000000
40
1.0000000000
10
-15.6063587350
20
-187.2046556912
30
0.0000000000
10
-15.6063587350
20
-186.8423093856
30
0.0000000000
10
-15.4811911638
20
-186.0895182686
30
0.0000000000
10
-15.0289640389
20
-185.0431076150
30
0.0000000000
10
-14.3613930852
20
-184.1465026346
30
0.0000000000
10
-13.7896921907
20
-183.6988445449
30
0.0000000000
10
-13.4850383914
20
-183.5459193080
30
0.0000000000
11
-15.6063587350
21
-187.2046556912
31
0.0000000000
11
-15.4448828387
21
-186.1296770209
31
0.0000000000
11
-14.9850383914
21
-185.0568782123
31
0.0000000000
11
-14.2968325417
21
-184.1495831589
31
0.0000000000
11
-13.4850383914
21
-183.5459193080
31
0.0000000000
0
SPLINE
5
364
100
AcDbEntity
8
0
100
AcDbSpline
62
7
6
CONTINUOUS
70
0
71
3
72
15
73
11
74
9
42
0.0000001000
43
0.0000001000
44
0.0000000001
12
2.6326381227
22
-1.3163190613
32
0.0000000000
13
0.0000000000
23
-2.9433789012
33
0.0000000000
40
0.0000000000
40
0.0000000000
40
0.0000000000
40
0.0000000000
40
0.1103207721
40
0.2298809776
40
0.3567647248
40
0.4883338301
40
0.6215371336
40
0.7531869865
40
0.8802253985
40
1.0000000000
40
1.0000000000
40
1.0000000000
40
1.0000000000
10
-13.8385917820
20
122.9895534546
30
0.0000000000
10
-13.7417802252
20
122.9411476762
30
0.0000000000
10
-13.5498923619
20
122.8200014639
30
0.0000000000
10
-13.2863748051
20
122.5878656479
30
0.0000000000
10
-13.0437329162
20
122.3059302674
30
0.0000000000
10
-12.8310419418
20
121.9847588695
30
0.0000000000
10
-12.6561600070
20
121.6363258647
30
0.0000000000
10
-12.5256379962
20
121.2736251581
30
0.0000000000
10
-12.4443651077
20
120.9103102982
30
0.0000000000
10
-12.4243782197
20
120.6679098775
30
0.0000000000
10
-12.4243782197
20
120.5503958658
30
0.0000000000
11
-13.8385917820
21
122.9895534546
31
0.0000000000
11
-13.5626924027
21
122.8183228943
31
0.0000000000
11
-13.2973956819
21
122.5871108873
31
0.0000000000
11
-13.0528968236
21
122.3048027813
31
0.0000000000
11
-12.8385917820
21
121.9822475184
31
0.0000000000
11
-12.6627161796
21
121.6318407166
31
0.0000000000
11
-12.5320288171
21
121.2670483126
31
0.0000000000
11
-12.4515519367
21
120.9018890741
31
0.0000000000
11
-12.4243782197
21
120.5503958658
31
0.0000000000
0
SPLINE
5
365
100
AcDbEntity
8
0
100
AcDbSpline
62
7
6
CONTINUOUS
70
0
71
3
72
10
73
6
74
4
42
0.0000001000
43
0.0000001000
44
0.0000000001
12
0.0001383803
22
-0.9748904304
32
0.0000000000
13
0.8566407232
23
-0.4283203616
33
0.0000000000
40
0.0000000000
40
0.0000000000
40
0.0000000000
40
0.0000000000
40
0.1632286215
40
0.5333653275
40
1.0000000000
40
1.0000000000
40
1.0000000000
40
1.0000000000
10
-24.3220071250
20
-225.9910328110
30
0.0000000000
10
-24.3219995957
20
-226.0440761513
30
0.0000000000
10
-24.2972312908
20
-226.2174043727
30
0.0000000000
10
-24.0993077514
20
-226.4861874661
30
0.0000000000
10
-23.8713328064
20
-226.6314788830
30
0.0000000000
10
-23.7380867186
20
-226.6981019269
30
0.0000000000
11
-24.3220071250
21
-225.9910328110
31
0.0000000000
11
-24.2992723670
21
-226.1473584710
31
0.0000000000
11
-24.1062057242
21
-226.4446719627
31
0.0000000000
11
-23.7380867186
21
-226.6981019269
31
0.0000000000
0
SPLINE
5
366
100
AcDbEntity
8
0
100
AcDbSpline
62
7
6
CONTINUOUS
70
0
71
3
72
9
73
5
74
3
42
0.0000001000
43
0.0000001000
44
0.0000000001
12
-0.2055681679
22
-0.1083125359
32
0.0000000000
13
-0.2036271904
23
0.1018135952
33
0.0000000000
40
0.0000000000
40
0.0000000000
40
0.0000000000
40
0.0000000000
40
0.2121331219
40
1.0000000000
40
1.0000000000
40
1.0000000000
40
1.0000000000
10
-13.6161790193
20
-231.6610690861
30
0.0000000000
10
-13.6307149583
20
-231.6687279783
30
0.0000000000
10
-13.7029691389
20
-231.6963508342
30
0.0000000000
10
-13.7851147424
20
-231.6745879150
30
0.0000000000
10
-13.8385917820
20
-231.6478493952
30
0.0000000000
11
-13.6161790193
21
-231.6610690861
31
0.0000000000
11
-13.6618150867
21
-231.6782250409
31
0.0000000000
11
-13.8385917820
21
-231.6478493952
31
0.0000000000
0
SPLINE
5
367
100
AcDbEntity
8
0
100
AcDbSpline
62
7
6
CONTINUOUS
70
0
71
3
72
9
73
5
74
3
42
0.0000001000
43
0.0000001000
44
0.0000000001
12
1.1199617721
22
0.5901006018
32
0.0000000000
13
0.0000000000
23
1.2403324592
33
0.0000000000
40
0.0000000000
40
0.0000000000
40
0.0000000000
40
0.0000000000
40
0.3596702216
40
1.0000000000
40
1.0000000000
40
1.0000000000
40
1.0000000000
10
-12.9489407309
20
-232.9997662647
30
0.0000000000
10
-12.8146684314
20
-232.9290190600
30
0.0000000000
10
-12.4882949899
20
-232.6256115271
30
0.0000000000
10
-12.4243782197
20
-232.1866840774
30
0.0000000000
10
-12.4243782197
20
-231.9219434745
30
0.0000000000
11
-12.9489407309
21
-232.9997662647
31
0.0000000000
11
-12.6138469106
21
-232.6932345327
31
0.0000000000
11
-12.4243782197
21
-231.9219434745
31
0.0000000000
0
SPLINE
5
368
100
AcDbEntity
8
0
100
AcDbSpline
62
7
6
CONTINUOUS
70
0
71
3
72
10
73
6
74
4
42
0.0000001000
43
0.0000001000
44
0.0000000001
12
0.0001383520
22
-0.9748902800
32
0.0000000000
13
0.8566403454
23
-0.4283201727
33
0.0000000000
40
0.0000000000
40
0.0000000000
40
0.0000000000
40
0.0000000000
40
0.1632277686
40
0.5333801461
40
1.0000000000
40
1.0000000000
40
1.0000000000
40
1.0000000000
10
-24.3220070102
20
128.6463697721
30
0.0000000000
10
-24.3219994826
20
128.5933267170
30
0.0000000000
10
-24.2972307299
20
128.4199937616
30
0.0000000000
10
-24.0993032905
20
128.1512122098
30
0.0000000000
10
-23.8713285163
20
128.0059218217
30
0.0000000000
10
-23.7380867186
20
127.9393009229
30
0.0000000000
11
-24.3220070102
21
128.6463697721
31
0.0000000000
11
-24.2992725522
21
128.4900449636
31
0.0000000000
11
-24.1061953015
21
128.1927206504
31
0.0000000000
11
-23.7380867186
21
127.9393009229
31
0.0000000000
0
SPLINE
5
369
100
AcDbEntity
8
0
100
AcDbSpline
62
7
6
CONTINUOUS
70
0
71
3
72
10
73
6
74
4
42
0.0000001000
43
0.0000001000
44
0.0000000001
12
0.0000000000
22
-0.9645276564
32
0.0000000000
13
-0.8588211978
23
-0.4294105989
33
0.0000000000
40
0.0000000000
40
0.0000000000
40
0.0000000000
40
0.0000000000
40
0.2787367596
40
0.6049124378
40
1.0000000000
40
1.0000000000
40
1.0000000000
40
1.0000000000
10
32.7091354327
20
143.5313662544
30
0.0000000000
10
32.7091354327
20
143.4417498165
30
0.0000000000
10
32.6525334333
20
143.2472648912
30
0.0000000000
10
32.4345048056
20
143.0038494757
30
0.0000000000
10
32.2364521862
20
142.8808110688
30
0.0000000000
10
32.1233489951
20
142.8242594732
30
0.0000000000
11
32.7091354327
21
143.5313662544
31
0.0000000000
11
32.6409870853
21
143.2725472093
31
0.0000000000
11
32.4411862403
21
143.0313662544
31
0.0000000000
11
32.1233489951
21
142.8242594732
31
0.0000000000
0
SPLINE
5
36A
100
AcDbEntity
8
0
100
AcDbSpline
62
7
6
CONTINUOUS
70
0
71
3
72
8
73
4
74
2
42
0.0000001000
43
0.0000001000
44
0.0000000001
12
-0.1006428146
22
0.0572836747
32
0.0000000000
13
-0.1030318284
23
0.0515159142
33
0.0000000000
40
0.0000000000
40
0.0000000000
40
0.0000000000
40
0.0000000000
40
1.0000000000
40
1.0000000000
40
1.0000000000
40
1.0000000000
10
-349.6123031415
20
-42.7660800241
30
0.0000000000
10
-349.6458507464
20
-42.7469854659
30
0.0000000000
10
-349.6799689028
20
-42.7289832484
30
0.0000000000
10
-349.7143128456
20
-42.7118112770
30
0.0000000000
11
-349.6123031415
21
-42.7660800241
31
0.0000000000
11
-349.7143128456
21
-42.7118112770
31
0.0000000000
0
SPLINE
5
36B
100
AcDbEntity
8
0
100
AcDbSpline
62
7
6
CONTINUOUS
70
0
71
3
72
13
73
9
74
7
42
0.0000001000
43
0.0000001000
44
0.0000000001
12
2.6028004938
22
-1.3014002469
32
0.0000000000
13
2.6028004938
23
1.3014002469
33
0.0000000000
40
0.0000000000
40
0.0000000000
40
0.0000000000
40
0.0000000000
40
0.1524570658
40
0.3217337100
40
0.5000000000
40
0.6782662900
40
0.8475429342
40
1.0000000000
40
1.0000000000
40
1.0000000000
40
1.0000000000
10
-388.6051858109
20
-418.5981337077
30
0.0000000000
10
-388.4729140355
20
-418.6642695954
30
0.0000000000
10
-388.1783279725
20
-418.7733938184
30
0.0000000000
10
-387.7014426564
20
-418.8693645907
30
0.0000000000
10
-387.1909722485
20
-418.9021382565
30
0.0000000000
10
-386.6805018407
20
-418.8693645907
30
0.0000000000
10
-386.2036165245
20
-418.7733938184
30
0.0000000000
10
-385.9090304615
20
-418.6642695954
30
0.0000000000
10
-385.7767586861
20
-418.5981337077
30
0.0000000000
11
-388.6051858109
21
-418.5981337077
31
0.0000000000
11
-388.1909722485
21
-418.7570523303
31
0.0000000000
11
-387.7086103387
21
-418.8569527528
31
0.0000000000
11
-387.1909722485
21
-418.8910269265
31
0.0000000000
11
-386.6733341583
21
-418.8569527528
31
0.0000000000
11
-386.1909722485
21
-418.7570523303
31
0.0000000000
11
-385.7767586861
21
-418.5981337077
31
0.0000000000
0
SPLINE
5
36C
100
AcDbEntity
8
0
100
AcDbSpline
62
7
6
CONTINUOUS
70
0
71
3
72
10
73
6
74
4
42
0.0000001000
43
0.0000001000
44
0.0000000001
12
-0.8588211978
22
-0.4294105989
32
0.0000000000
13
0.0000000000
23
-0.9645276564
33
0.0000000000
40
0.0000000000
40
0.0000000000
40
0.0000000000
40
0.0000000000
40
0.3950875622
40
0.7212632404
40
1.0000000000
40
1.0000000000
40
1.0000000000
40
1.0000000000
10
-398.5046807475
20
-59.7618333368
30
0.0000000000
10
-398.6177839386
20
-59.8183849323
30
0.0000000000
10
-398.8158365580
20
-59.9414233393
30
0.0000000000
10
-399.0338651857
20
-60.1848387548
30
0.0000000000
10
-399.0904671851
20
-60.3793236801
30
0.0000000000
10
-399.0904671851
20
-60.4689401179
30
0.0000000000
11
-398.5046807475
21
-59.7618333368
31
0.0000000000
11
-398.8225179927
21
-59.9689401179
31
0.0000000000
11
-399.0223188377
21
-60.2101210728
31
0.0000000000
11
-399.0904671851
21
-60.4689401179
31
0.0000000000
0
SPLINE
5
36D
100
AcDbEntity
8
0
100
AcDbSpline
62
7
6
CONTINUOUS
70
0
71
3
72
9
73
5
74
3
42
0.0000001000
43
0.0000001000
44
0.0000000001
12
-0.2131744153
22
0.1065872076
32
0.0000000000
13
0.0000000000
23
0.2367008792
33
0.0000000000
40
0.0000000000
40
0.0000000000
40
0.0000000000
40
0.0000000000
40
0.5679903392
40
1.0000000000
40
1.0000000000
40
1.0000000000
40
1.0000000000
10
-397.4440205757
20
-60.6457168132
30
0.0000000000
10
-397.4843809119
20
-60.6255366452
30
0.0000000000
10
-397.5532569327
20
-60.5819260999
30
0.0000000000
10
-397.5904671851
20
-60.5030258068
30
0.0000000000
10
-397.5904671851
20
-60.4689401179
30
0.0000000000
11
-397.4440205757
21
-60.6457168132
31
0.0000000000
11
-397.5524069514
21
-60.5646109760
31
0.0000000000
11
-397.5904671851
21
-60.4689401179
31
0.0000000000
0
SPLINE
5
36E
100
AcDbEntity
8
0
100
AcDbSpline
62
7
6
CONTINUOUS
70
0
71
3
72
11
73
7
74
5
42
0.0000001000
43
0.0000001000
44
0.0000000001
12
-0.6499098581
22
-0.3249549290
32
0.0000000000
13
-0.6499098581
23
0.3249549290
33
0.0000000000
40
0.0000000000
40
0.0000000000
40
0.0000000000
40
0.0000000000
40
0.2353701082
40
0.5000000000
40
0.7646298918
40
1.0000000000
40
1.0000000000
40
1.0000000000
40
1.0000000000
10
-386.8374188579
20
-65.5954642815
30
0.0000000000
10
-386.8884086425
20
-65.6209591738
30
0.0000000000
10
-387.0055938384
20
-65.6573274254
30
0.0000000000
10
-387.1909722485
20
-65.6747000625
30
0.0000000000
10
-387.3763506586
20
-65.6573274254
30
0.0000000000
10
-387.4935358546
20
-65.6209591738
30
0.0000000000
10
-387.5445256391
20
-65.5954642815
30
0.0000000000
11
-386.8374188579
21
-65.5954642815
31
0.0000000000
11
-386.9996305323
21
-65.6496574694
31
0.0000000000
11
-387.1909722485
21
-65.6686875862
31
0.0000000000
11
-387.3823139647
21
-65.6496574694
31
0.0000000000
11
-387.5445256391
21
-65.5954642815
31
0.0000000000
0
SPLINE
5
36F
100
AcDbEntity
8
0
100
AcDbSpline
62
7
6
CONTINUOUS
70
0
71
3
72
9
73
5
74
3
42
0.0000001000
43
0.0000001000
44
0.0000000001
12
-0.0005852348
22
-0.9465240543
32
0.0000000000
13
0.8526976612
23
-0.4263488306
33
0.0000000000
40
0.0000000000
40
0.0000000000
40
0.0000000000
40
0.0000000000
40
0.4320096608
40
1.0000000000
40
1.0000000000
40
1.0000000000
40
1.0000000000
10
-353.1285264080
20
-42.1198799525
30
0.0000000000
10
-353.1286106837
20
-42.2561824644
30
0.0000000000
10
-352.9796299970
20
-42.5718503355
30
0.0000000000
10
-352.7041813150
20
-42.7462660614
30
0.0000000000
10
-352.5427399704
20
-42.8269867337
30
0.0000000000
11
-353.1285264080
21
-42.1198799525
31
0.0000000000
11
-352.9762854730
21
-42.5025633849
31
0.0000000000
11
-352.5427399704
21
-42.8269867337
31
0.0000000000
0
SPLINE
5
370
100
AcDbEntity
8
0
100
AcDbSpline
62
7
6
CONTINUOUS
70
0
71
3
72
12
73
8
74
6
42
0.0000001000
43
0.0000001000
44
0.0000000001
12
1.1323170694
22
0.5662428658
32
0.0000000000
13
0.0000000000
23
1.2603180291
33
0.0000000000
40
0.0000000000
40
0.0000000000
40
0.0000000000
40
0.0000000000
40
0.0977006842
40
0.2942993550
40
0.5070334244
40
0.7417668452
40
1.0000000000
40
1.0000000000
40
1.0000000000
40
1.0000000000
10
-341.7488657757
20
-397.4059439409
30
0.0000000000
10
-341.7119897249
20
-397.3875031691
30
0.0000000000
10
-341.6054157780
20
-397.3229363199
30
0.0000000000
10
-341.4533132739
20
-397.1690902832
30
0.0000000000
10
-341.3229634752
20
-396.9285844183
30
0.0000000000
10
-341.2447961191
20
-396.6404500912
30
0.0000000000
10
-341.2290314714
20
-396.4327554006
30
0.0000000000
10
-341.2290314714
20
-396.3242701003
30
0.0000000000
11
-341.7488657757
21
-397.4059439409
31
0.0000000000
11
-341.6432450338
21
-397.3419081905
31
0.0000000000
11
-341.4673694314
21
-397.1673769911
31
0.0000000000
11
-341.3366820689
21
-396.9332719496
31
0.0000000000
11
-341.2562051884
21
-396.6485895916
31
0.0000000000
11
-341.2290314714
21
-396.3242701003
31
0.0000000000
0
SPLINE
5
371
100
AcDbEntity
8
0
100
AcDbSpline
62
7
6
CONTINUOUS
70
0
71
3
72
10
73
6
74
4
42
0.0000001000
43
0.0000001000
44
0.0000000001
12
2.6201171525
22
-1.3100585763
32
0.0000000000
13
-0.0000000000
23
-2.9293800310
33
0.0000000000
40
0.0000000000
40
0.0000000000
40
0.0000000000
40
0.0000000000
40
0.3134156114
40
0.6657095235
40
1.0000000000
40
1.0000000000
40
1.0000000000
40
1.0000000000
10
-342.6432450338
20
-41.4127731713
30
0.0000000000
10
-342.3695164940
20
-41.5496374412
30
0.0000000000
10
-341.8679955461
20
-41.9974579564
30
0.0000000000
10
-341.3779445207
20
-42.8536288524
30
0.0000000000
10
-341.2290314714
20
-43.5255094780
30
0.0000000000
10
-341.2290314714
20
-43.8519307601
30
0.0000000000
11
-342.6432450338
21
-41.4127731713
31
0.0000000000
11
-341.9361382526
21
-41.9983773695
31
0.0000000000
11
-341.4185001624
21
-42.8911710108
31
0.0000000000
11
-341.2290314714
21
-43.8519307601
31
0.0000000000
0
SPLINE
5
372
100
AcDbEntity
8
0
100
AcDbSpline
62
7
6
CONTINUOUS
70
0
71
3
72
10
73
6
74
4
42
0.0000001000
43
0.0000001000
44
0.0000000001
12
0.0000000000
22
-0.9645276564
32
0.0000000000
13
0.8588211978
23
-0.4294105989
33
0.0000000000
40
0.0000000000
40
0.0000000000
40
0.0000000000
40
0.0000000000
40
0.2787367596
40
0.6049124378
40
1.0000000000
40
1.0000000000
40
1.0000000000
40
1.0000000000
10
-399.0904671851
20
-412.9412794582
30
0.0000000000
10
-399.0904671851
20
-413.0308958960
30
0.0000000000
10
-399.0338651857
20
-413.2253808214
30
0.0000000000
10
-398.8158365580
20
-413.4687962369
30
0.0000000000
10
-398.6177839386
20
-413.5918346438
30
0.0000000000
10
-398.5046807475
20
-413.6483862394
30
0.0000000000
11
-399.0904671851
21
-412.9412794582
31
0.0000000000
11
-399.0223188377
21
-413.2000985033
31
0.0000000000
11
-398.8225179927
21
-413.4412794582
31
0.0000000000
11
-398.5046807475
21
-413.6483862394
31
0.0000000000
0
SPLINE
5
373
100
AcDbEntity
8
0
100
AcDbSpline
62
7
6
CONTINUOUS
70
0
71
3
72
11
73
7
74
5
42
0.0000001000
43
0.0000001000
44
0.0000000001
12
0.8290696914
22
-0.4145348457
32
0.0000000000
13
0.8327870257
23
0.4164555360
33
0.0000000000
40
0.0000000000
40
0.0000000000
40
0.0000000000
40
0.0000000000
40
0.3183488335
40
0.6069120174
40
0.8738205244
40
1.0000000000
40
1.0000000000
40
1.0000000000
40
1.0000000000
10
-387.1909722485
20
-419.6230777341
30
0.0000000000
10
-387.1029944588
20
-419.6670666289
30
0.0000000000
10
-386.9269058858
20
-419.7360585427
30
0.0000000000
10
-386.6566784506
20
-419.7741778361
30
0.0000000000
10
-386.4449439995
20
-419.7434763726
30
0.0000000000
10
-386.3316198672
20
-419.6973235953
30
0.0000000000
10
-386.2965929904
20
-419.6798075483
30
0.0000000000
11
-387.1909722485
21
-419.6230777341
31
0.0000000000
11
-386.9150728692
21
-419.7277465531
31
0.0000000000
11
-386.6497761484
21
-419.7618312670
31
0.0000000000
11
-386.4052772901
21
-419.7240220192
31
0.0000000000
11
-386.2965929904
21
-419.6798075483
31
0.0000000000
0
SPLINE
5
374
100
AcDbEntity
8
0
100
AcDbSpline
62
7
6
CONTINUOUS
70
0
71
3
72
10
73
6
74
4
42
0.0000001000
43
0.0000001000
44
0.0000000001
12
-0.7650326909
22
0.3825163455
32
0.0000000000
13
-0.1629448885
23
0.8508806562
33
0.0000000000
40
0.0000000000
40
0.0000000000
40
0.0000000000
40
0.0000000000
40
0.5224945255
40
0.9369702260
40
1.0000000000
40
1.0000000000
40
1.0000000000
40
1.0000000000
10
-397.0904671851
20
-414.6733302658
30
0.0000000000
10
-397.2237089827
20
-414.6067093670
30
0.0000000000
10
-397.4516837570
20
-414.4614189788
30
0.0000000000
10
-397.6284451743
20
-414.2213804669
30
0.0000000000
10
-397.6612001064
20
-414.0876033983
30
0.0000000000
10
-397.6646235663
20
-414.0697264598
30
0.0000000000
11
-397.0904671851
21
-414.6733302658
31
0.0000000000
11
-397.4585757680
21
-414.4199105382
31
0.0000000000
11
-397.6516530187
21
-414.1225862250
31
0.0000000000
11
-397.6646235663
21
-414.0697264598
31
0.0000000000
0
SPLINE
5
375
100
AcDbEntity
8
0
100
AcDbSpline
62
7
6
CONTINUOUS
70
0
71
3
72
10
73
6
74
4
42
0.0000001000
43
0.0000001000
44
0.0000000001
12
-1.7644824341
22
0.8822412170
32
0.0000000000
13
-1.9582135047
23
-0.2642006091
33
0.0000000000
40
0.0000000000
40
0.0000000000
40
0.0000000000
40
0.0000000000
40
0.3467744436
40
0.7366577819
40
1.0000000000
40
1.0000000000
40
1.0000000000
40
1.0000000000
10
-349.7143128456
20
-42.7118112770
30
0.0000000000
10
-349.9182719838
20
-42.6098317079
30
0.0000000000
10
-350.3870961528
20
-42.4643188835
30
0.0000000000
10
-351.0449499764
20
-42.4028096046
30
0.0000000000
10
-351.4756056947
20
-42.4296970035
30
0.0000000000
10
-351.6474991240
20
-42.4528887284
30
0.0000000000
11
-349.7143128456
21
-42.7118112770
31
0.0000000000
11
-350.3631595433
21
-42.4950385257
31
0.0000000000
11
-351.1285264080
21
-42.4189180582
31
0.0000000000
11
-351.6474991240
21
-42.4528887284
31
0.0000000000
0
SPLINE
5
376
100
AcDbEntity
8
0
100
AcDbSpline
62
7
6
CONTINUOUS
70
0
71
3
72
9
73
5
74
3
42
0.0000001000
43
0.0000001000
44
0.0000000001
12
-0.7154417711
22
-0.0965268349
32
0.0000000000
13
-0.6744792123
23
-0.2594061360
33
0.0000000000
40
0.0000000000
40
0.0000000000
40
0.0000000000
40
0.0000000000
40
0.3463517794
40
1.0000000000
40
1.0000000000
40
1.0000000000
40
1.0000000000
10
-351.6474991240
20
-42.4528887284
30
0.0000000000
10
-351.7300973008
20
-42.4640328087
30
0.0000000000
10
-351.9674301087
20
-42.5044432172
30
0.0000000000
10
-352.1997169767
20
-42.5699727851
30
0.0000000000
10
-352.3466743556
20
-42.6264929049
30
0.0000000000
11
-351.6474991240
21
-42.4528887284
31
0.0000000000
11
-351.8938932727
21
-42.4950385257
31
0.0000000000
11
-352.3466743556
21
-42.6264929049
31
0.0000000000
0
SPLINE
5
377
100
AcDbEntity
8
0
100
AcDbSpline
62
7
6
CONTINUOUS
70
0
71
3
72
9
73
5
74
3
42
0.0000001000
43
0.0000001000
44
0.0000000001
12
-0.3064280266
22
-0.1178528691
32
0.0000000000
13
-0.2873045468
23
-0.1621843442
33
0.0000000000
40
0.0000000000
40
0.0000000000
40
0.0000000000
40
0.0000000000
40
0.6504197152
40
1.0000000000
40
1.0000000000
40
1.0000000000
40
1.0000000000
10
-352.3466743556
20
-42.6264929049
30
0.0000000000
10
-352.4131099656
20
-42.6520441814
30
0.0000000000
10
-352.5137203712
20
-42.6956290643
30
0.0000000000
10
-352.6113807939
20
-42.7464712259
30
0.0000000000
10
-352.6448594623
20
-42.7653700423
30
0.0000000000
11
-352.3466743556
21
-42.6264929049
31
0.0000000000
11
-352.5427399704
21
-42.7118112770
31
0.0000000000
11
-352.6448594623
21
-42.7653700423
31
0.0000000000
0
SPLINE
5
378
100
AcDbEntity
8
0
100
AcDbSpline
62
7
6
CONTINUOUS
70
0
71
3
72
9
73
5
74
3
42
0.0000001000
43
0.0000001000
44
0.0000000001
12
0.0000000000
22
0.4414986597
32
0.0000000000
13
-0.2546078388
23
0.3632020742
33
0.0000000000
40
0.0000000000
40
0.0000000000
40
0.0000000000
40
0.0000000000
40
0.5545112226
40
1.0000000000
40
1.0000000000
40
1.0000000000
40
1.0000000000
10
-386.8374188579
20
-65.5954642815
30
0.0000000000
10
-386.8374188579
20
-65.5138589610
30
0.0000000000
10
-386.8701071707
20
-65.3663725979
30
0.0000000000
10
-386.9389441849
20
-65.2350857488
30
0.0000000000
10
-386.9767524965
20
-65.1811515995
30
0.0000000000
11
-386.8374188579
21
-65.5954642815
31
0.0000000000
11
-386.8847860307
21
-65.3552743442
31
0.0000000000
11
-386.9767524965
21
-65.1811515995
31
0.0000000000
0
SPLINE
5
379
100
AcDbEntity
8
0
100
AcDbSpline
62
7
6
CONTINUOUS
70
0
71
3
72
9
73
5
74
3
42
0.0000001000
43
0.0000001000
44
0.0000000001
12
-0.1677281651
22
0.2392668575
32
0.0000000000
13
-0.2601408821
23
0.1300704411
33
0.0000000000
40
0.0000000000
40
0.0000000000
40
0.0000000000
40
0.0000000000
40
0.2108260601
40
1.0000000000
40
1.0000000000
40
1.0000000000
40
1.0000000000
10
-386.9767524965
20
-65.1811515995
30
0.0000000000
10
-386.9885396526
20
-65.1643370366
30
0.0000000000
10
-387.0477417311
20
-65.0866802860
30
0.0000000000
10
-387.1225401136
20
-65.0198909518
30
0.0000000000
10
-387.1909722485
20
-64.9856748844
30
0.0000000000
11
-386.9767524965
21
-65.1811515995
31
0.0000000000
11
-387.0141955532
21
-65.1320759339
31
0.0000000000
11
-387.1909722485
21
-64.9856748844
31
0.0000000000
0
SPLINE
5
37A
100
AcDbEntity
8
0
100
AcDbSpline
62
7
6
CONTINUOUS
70
0
71
3
72
12
73
8
74
6
42
0.0000001000
43
0.0000001000
44
0.0000000001
12
-2.6016794696
22
1.3008397348
32
0.0000000000
13
-2.6016794696
23
-1.3008397348
33
0.0000000000
40
0.0000000000
40
0.0000000000
40
0.0000000000
40
0.0000000000
40
0.1853860792
40
0.3924882480
40
0.6070581920
40
0.8146501594
40
1.0000000000
40
1.0000000000
40
1.0000000000
40
1.0000000000
10
-352.5427399704
20
-36.4630257030
30
0.0000000000
10
-352.7035116891
20
-36.3826398436
30
0.0000000000
10
-353.0664581555
20
-36.2571762191
30
0.0000000000
10
-353.6501705687
20
-36.1660606993
30
0.0000000000
10
-354.2628868522
20
-36.1659630668
30
0.0000000000
10
-354.8470659444
20
-36.2570397298
30
0.0000000000
10
-355.2104268035
20
-36.3826555572
30
0.0000000000
10
-355.3711670951
20
-36.4630257030
30
0.0000000000
11
-352.5427399704
21
-36.4630257030
31
0.0000000000
11
-353.0495998987
21
-36.2789662002
31
0.0000000000
11
-353.6442268821
21
-36.1824328788
31
0.0000000000
11
-354.2683606471
21
-36.1823286564
31
0.0000000000
11
-354.8644098222
21
-36.2789923321
31
0.0000000000
11
-355.3711670951
21
-36.4630257030
31
0.0000000000
0
SPLINE
5
37B
100
AcDbEntity
8
0
100
AcDbSpline
62
7
6
CONTINUOUS
70
0
71
3
72
10
73
6
74
4
42
0.0000001000
43
0.0000001000
44
0.0000000001
12
-0.8567012407
22
-0.4283506204
32
0.0000000000
13
0.0001383901
23
-0.9749593017
33
0.0000000000
40
0.0000000000
40
0.0000000000
40
0.0000000000
40
0.0000000000
40
0.4665263779
40
0.8374078659
40
1.0000000000
40
1.0000000000
40
1.0000000000
40
1.0000000000
10
-397.0904671851
20
-57.3226757480
30
0.0000000000
10
-397.2236917607
20
-57.3892880358
30
0.0000000000
10
-397.4518482687
20
-57.5346737324
30
0.0000000000
10
-397.6497639955
20
-57.8036122226
30
0.0000000000
10
-397.6743950918
20
-57.9769799566
30
0.0000000000
10
-397.6743875915
20
-58.0298201945
30
0.0000000000
11
-397.0904671851
21
-57.3226757480
31
0.0000000000
11
-397.4585339270
21
-57.5760543845
31
0.0000000000
11
-397.6518612784
21
-57.8740789720
31
0.0000000000
11
-397.6743875915
21
-58.0298201945
31
0.0000000000
0
SPLINE
5
37C
100
AcDbEntity
8
0
100
AcDbSpline
62
7
6
CONTINUOUS
70
0
71
3
72
10
73
6
74
4
42
0.0000001000
43
0.0000001000
44
0.0000000001
12
1.7644824341
22
-0.8822412170
32
0.0000000000
13
1.9582135047
23
0.2642006091
33
0.0000000000
40
0.0000000000
40
0.0000000000
40
0.0000000000
40
0.0000000000
40
0.3467744436
40
0.7366577819
40
1.0000000000
40
1.0000000000
40
1.0000000000
40
1.0000000000
10
-352.5427399704
20
-42.8269867337
30
0.0000000000
10
-352.3387808323
20
-42.9289663027
30
0.0000000000
10
-351.8699566633
20
-43.0744791272
30
0.0000000000
10
-351.2121028396
20
-43.1359884060
30
0.0000000000
10
-350.7814471213
20
-43.1091010071
30
0.0000000000
10
-350.6095536920
20
-43.0859092823
30
0.0000000000
11
-352.5427399704
21
-42.8269867337
31
0.0000000000
11
-351.8938932727
21
-43.0437594850
31
0.0000000000
11
-351.1285264080
21
-43.1198799525
31
0.0000000000
11
-350.6095536920
21
-43.0859092823
31
0.0000000000
0
SPLINE
5
37D
100
AcDbEntity
8
0
100
AcDbSpline
62
7
6
CONTINUOUS
70
0
71
3
72
9
73
5
74
3
42
0.0000001000
43
0.0000001000
44
0.0000000001
12
0.7154417711
22
0.0965268349
32
0.0000000000
13
0.6744792123
23
0.2594061360
33
0.0000000000
40
0.0000000000
40
0.0000000000
40
0.0000000000
40
0.0000000000
40
0.3463517794
40
1.0000000000
40
1.0000000000
40
1.0000000000
40
1.0000000000
10
-350.6095536920
20
-43.0859092823
30
0.0000000000
10
-350.5269555152
20
-43.0747652020
30
0.0000000000
10
-350.2896227073
20
-43.0343547935
30
0.0000000000
10
-350.0573358394
20
-42.9688252255
30
0.0000000000
10
-349.9103784604
20
-42.9123051058
30
0.0000000000
11
-350.6095536920
21
-43.0859092823
31
0.0000000000
11
-350.3631595433
21
-43.0437594850
31
0.0000000000
11
-349.9103784604
21
-42.9123051058
31
0.0000000000
0
SPLINE
5
37E
100
AcDbEntity
8
0
100
AcDbSpline
62
7
6
CONTINUOUS
70
0
71
3
72
9
73
5
74
3
42
0.0000001000
43
0.0000001000
44
0.0000000001
12
0.7060326089
22
0.2715416393
32
0.0000000000
13
0.4815689845
23
0.6053339313
33
0.0000000000
40
0.0000000000
40
0.0000000000
40
0.0000000000
40
0.0000000000
40
0.2822912529
40
1.0000000000
40
1.0000000000
40
1.0000000000
40
1.0000000000
10
-349.9103784604
20
-42.9123051058
30
0.0000000000
10
-349.8439428505
20
-42.8867538293
30
0.0000000000
10
-349.6121291096
20
-42.7863310678
30
0.0000000000
10
-349.3959761005
20
-42.6473812040
30
0.0000000000
10
-349.2807673430
20
-42.5025633849
30
0.0000000000
11
-349.9103784604
21
-42.9123051058
31
0.0000000000
11
-349.7143128456
21
-42.8269867337
31
0.0000000000
11
-349.2807673430
21
-42.5025633849
31
0.0000000000
0
SPLINE
5
37F
100
AcDbEntity
8
0
100
AcDbSpline
62
7
6
CONTINUOUS
70
0
71
3
72
8
73
4
74
2
42
0.0000001000
43
0.0000001000
44
0.0000000001
12
0.0918504624
22
0.1154563588
32
0.0000000000
13
0.0696410651
23
0.1312345796
33
0.0000000000
40
0.0000000000
40
0.0000000000
40
0.0000000000
40
0.0000000000
40
1.0000000000
40
1.0000000000
40
1.0000000000
40
1.0000000000
10
-349.2807673430
20
-42.5025633849
30
0.0000000000
10
-349.2501505222
20
-42.4640779319
30
0.0000000000
10
-349.2223534255
20
-42.4224079042
30
0.0000000000
10
-349.1991397371
20
-42.3786630443
30
0.0000000000
11
-349.2807673430
21
-42.5025633849
31
0.0000000000
11
-349.1991397371
21
-42.3786630443
31
0.0000000000
0
SPLINE
5
380
100
AcDbEntity
8
0
100
AcDbSpline
62
7
6
CONTINUOUS
70
0
71
3
72
8
73
4
74
2
42
0.0000001000
43
0.0000001000
44
0.0000000001
12
0.1296754638
22
0.2443659491
32
0.0000000000
13
0.0001644895
23
0.2660355096
33
0.0000000000
40
0.0000000000
40
0.0000000000
40
0.0000000000
40
0.0000000000
40
1.0000000000
40
1.0000000000
40
1.0000000000
40
1.0000000000
10
-349.1991397371
20
-42.3786630443
30
0.0000000000
10
-349.1559145825
20
-42.2972077279
30
0.0000000000
10
-349.1285812378
20
-42.2085584557
30
0.0000000000
10
-349.1285264080
20
-42.1198799525
30
0.0000000000
11
-349.1991397371
21
-42.3786630443
31
0.0000000000
11
-349.1285264080
21
-42.1198799525
31
0.0000000000
0
SPLINE
5
381
100
AcDbEntity
8
0
100
AcDbSpline
62
7
6
CONTINUOUS
70
0
71
3
72
8
73
4
74
2
42
0.0000001000
43
0.0000001000
44
0.0000000001
12
-0.1455869425
22
0.0727934712
32
0.0000000000
13
-0.1387969034
23
0.0857557792
33
0.0000000000
40
0.0000000000
40
0.0000000000
40
0.0000000000
40
0.0000000000
40
1.0000000000
40
1.0000000000
40
1.0000000000
40
1.0000000000
10
-397.0904671851
20
-60.0359274161
30
0.0000000000
10
-397.1389961660
20
-60.0116629256
30
0.0000000000
10
-397.1867142332
20
-59.9854882967
30
0.0000000000
10
-397.2329798677
20
-59.9569030370
30
0.0000000000
11
-397.0904671851
21
-60.0359274161
31
0.0000000000
11
-397.2329798677
21
-59.9569030370
31
0.0000000000
0
SPLINE
5
382
100
AcDbEntity
8
0
100
AcDbSpline
62
7
6
CONTINUOUS
70
0
71
3
72
10
73
6
74
4
42
0.0000001000
43
0.0000001000
44
0.0000000001
12
-0.6336136979
22
0.3914787364
32
0.0000000000
13
-0.0718270098
23
0.7519468972
33
0.0000000000
40
0.0000000000
40
0.0000000000
40
0.0000000000
40
0.0000000000
40
0.3824064117
40
0.8594891089
40
1.0000000000
40
1.0000000000
40
1.0000000000
40
1.0000000000
10
-397.2329798677
20
-59.9569030370
30
0.0000000000
10
-397.3137458479
20
-59.9070017107
30
0.0000000000
10
-397.4853255201
20
-59.7783330014
30
0.0000000000
10
-397.6388812188
20
-59.5698020918
30
0.0000000000
10
-397.6685099353
20
-59.4168289649
30
0.0000000000
10
-397.6718740943
20
-59.3816100554
30
0.0000000000
11
-397.2329798677
21
-59.9569030370
31
0.0000000000
11
-397.4585861907
21
-59.7824974519
31
0.0000000000
11
-397.6516528335
21
-59.4851839602
31
0.0000000000
11
-397.6718740943
21
-59.3816100554
31
0.0000000000
0
SPLINE
5
383
100
AcDbEntity
8
0
100
AcDbSpline
62
7
6
CONTINUOUS
70
0
71
3
72
8
73
4
74
2
42
0.0000001000
43
0.0000001000
44
0.0000000001
12
-0.0050193024
22
0.0525463735
32
0.0000000000
13
-0.0000075024
23
0.0528542451
33
0.0000000000
40
0.0000000000
40
0.0000000000
40
0.0000000000
40
0.0000000000
40
1.0000000000
40
1.0000000000
40
1.0000000000
40
1.0000000000
10
-397.6718740943
20
-59.3816100554
30
0.0000000000
10
-397.6735471952
20
-59.3640945976
30
0.0000000000
10
-397.6743850907
20
-59.3464763819
30
0.0000000000
10
-397.6743875915
20
-59.3288583002
30
0.0000000000
11
-397.6718740943
21
-59.3816100554
31
0.0000000000
11
-397.6743875915
21
-59.3288583002
31
0.0000000000
0
SPLINE
5
384
100
AcDbEntity
8
0
100
AcDbSpline
62
7
6
CONTINUOUS
70
0
71
3
72
13
73
9
74
7
42
0.0000001000
43
0.0000001000
44
0.0000000001
12
2.6028004938
22
-1.3014002469
32
0.0000000000
13
2.6028004938
23
1.3014002469
33
0.0000000000
40
0.0000000000
40
0.0000000000
40
0.0000000000
40
0.0000000000
40
0.1524570658
40
0.3217337100
40
0.5000000000
40
0.6782662900
40
0.8475429342
40
1.0000000000
40
1.0000000000
40
1.0000000000
40
1.0000000000
10
-388.6051858109
20
-66.1257943674
30
0.0000000000
10
-388.4729140355
20
-66.1919302551
30
0.0000000000
10
-388.1783279725
20
-66.3010544781
30
0.0000000000
10
-387.7014426564
20
-66.3970252505
30
0.0000000000
10
-387.1909722485
20
-66.4297989162
30
0.0000000000
10
-386.6805018407
20
-66.3970252505
30
0.0000000000
10
-386.2036165245
20
-66.3010544781
30
0.0000000000
10
-385.9090304615
20
-66.1919302551
30
0.0000000000
10
-385.7767586861
20
-66.1257943674
30
0.0000000000
11
-388.6051858109
21
-66.1257943674
31
0.0000000000
11
-388.1909722485
21
-66.2847129900
31
0.0000000000
11
-387.7086103387
21
-66.3846134125
31
0.0000000000
11
-387.1909722485
21
-66.4186875862
31
0.0000000000
11
-386.6733341583
21
-66.3846134125
31
0.0000000000
11
-386.1909722485
21
-66.2847129900
31
0.0000000000
11
-385.7767586861
21
-66.1257943674
31
0.0000000000
0
SPLINE
5
385
100
AcDbEntity
8
0
100
AcDbSpline
62
7
6
CONTINUOUS
70
0
71
3
72
12
73
8
74
6
42
0.0000001000
43
0.0000001000
44
0.0000000001
12
1.1323170694
22
0.5662428658
32
0.0000000000
13
-0.0000000000
23
1.2603180291
33
0.0000000000
40
0.0000000000
40
0.0000000000
40
0.0000000000
40
0.0000000000
40
0.0977006842
40
0.2942993550
40
0.5070334244
40
0.7417668452
40
1.0000000000
40
1.0000000000
40
1.0000000000
40
1.0000000000
10
-386.2965929904
20
-419.6798075483
30
0.0000000000
10
-386.2597169396
20
-419.6613667765
30
0.0000000000
10
-386.1531429927
20
-419.5967999272
30
0.0000000000
10
-386.0010404886
20
-419.4429538906
30
0.0000000000
10
-385.8706906899
20
-419.2024480257
30
0.0000000000
10
-385.7925233338
20
-418.9143136986
30
0.0000000000
10
-385.7767586861
20
-418.7066190079
30
0.0000000000
10
-385.7767586861
20
-418.5981337077
30
0.0000000000
11
-386.2965929904
21
-419.6798075483
31
0.0000000000
11
-386.1909722485
21
-419.6157717979
31
0.0000000000
11
-386.0150966461
21
-419.4412405985
31
0.0000000000
11
-385.8844092836
21
-419.2071355570
31
0.0000000000
11
-385.8039324032
21
-418.9224531990
31
0.0000000000
11
-385.7767586861
21
-418.5981337077
31
0.0000000000
0
SPLINE
5
386
100
AcDbEntity
8
0
100
AcDbSpline
62
7
6
CONTINUOUS
70
0
71
3
72
9
73
5
74
3
42
0.0000001000
43
0.0000001000
44
0.0000000001
12
0.0005852348
22
0.9465240543
32
0.0000000000
13
-0.8526976612
23
0.4263488306
33
0.0000000000
40
0.0000000000
40
0.0000000000
40
0.0000000000
40
0.0000000000
40
0.4320096608
40
1.0000000000
40
1.0000000000
40
1.0000000000
40
1.0000000000
10
-349.1285264080
20
-42.1198799525
30
0.0000000000
10
-349.1284421323
20
-41.9835774406
30
0.0000000000
10
-349.2774228191
20
-41.6679095695
30
0.0000000000
10
-349.5528715010
20
-41.4934938436
30
0.0000000000
10
-349.7143128456
20
-41.4127731713
30
0.0000000000
11
-349.1285264080
21
-42.1198799525
31
0.0000000000
11
-349.2807673430
21
-41.7371965201
31
0.0000000000
11
-349.7143128456
21
-41.4127731713
31
0.0000000000
0
SPLINE
5
387
100
AcDbEntity
8
0
100
AcDbSpline
62
7
6
CONTINUOUS
70
0
71
3
72
10
73
6
74
4
42
0.0000001000
43
0.0000001000
44
0.0000000001
12
0.0001383803
22
-0.9748904304
32
0.0000000000
13
0.8566407232
23
-0.4283203616
33
0.0000000000
40
0.0000000000
40
0.0000000000
40
0.0000000000
40
0.0000000000
40
0.1632286215
40
0.5333653275
40
1.0000000000
40
1.0000000000
40
1.0000000000
40
1.0000000000
10
-397.6743875915
20
-58.0298201945
30
0.0000000000
10
-397.6743800622
20
-58.0828635349
30
0.0000000000
10
-397.6496117573
20
-58.2561917562
30
0.0000000000
10
-397.4516882179
20
-58.5249748496
30
0.0000000000
10
-397.2237132729
20
-58.6702662665
30
0.0000000000
10
-397.0904671851
20
-58.7368893104
30
0.0000000000
11
-397.6743875915
21
-58.0298201945
31
0.0000000000
11
-397.6516528335
21
-58.1861458545
31
0.0000000000
11
-397.4585861907
21
-58.4834593462
31
0.0000000000
11
-397.0904671851
21
-58.7368893104
31
0.0000000000
0
SPLINE
5
388
100
AcDbEntity
8
0
100
AcDbSpline
62
7
6
CONTINUOUS
70
0
71
3
72
10
73
6
74
4
42
0.0000001000
43
0.0000001000
44
0.0000000001
12
2.6201171525
22
-1.3100585763
32
0.0000000000
13
0.0000000000
23
-2.9293800310
33
0.0000000000
40
0.0000000000
40
0.0000000000
40
0.0000000000
40
0.0000000000
40
0.3134156114
40
0.6657095235
40
1.0000000000
40
1.0000000000
40
1.0000000000
40
1.0000000000
10
-387.1909722485
20
-63.6866367787
30
0.0000000000
10
-386.9172437087
20
-63.8235010486
30
0.0000000000
10
-386.4157227608
20
-64.2713215638
30
0.0000000000
10
-385.9256717354
20
-65.1274924598
30
0.0000000000
10
-385.7767586861
20
-65.7993730853
30
0.0000000000
10
-385.7767586861
20
-66.1257943674
30
0.0000000000
11
-387.1909722485
21
-63.6866367787
31
0.0000000000
11
-386.4838654673
21
-64.2722409768
31
0.0000000000
11
-385.9662273771
21
-65.1650346182
31
0.0000000000
11
-385.7767586861
21
-66.1257943674
31
0.0000000000
0
SPLINE
5
389
100
AcDbEntity
8
0
100
AcDbSpline
62
7
6
CONTINUOUS
70
0
71
3
72
9
73
5
74
3
42
0.0000001000
43
0.0000001000
44
0.0000000001
12
0.0000000000
22
0.2367008792
32
0.0000000000
13
0.2131744153
23
0.1065872076
33
0.0000000000
40
0.0000000000
40
0.0000000000
40
0.0000000000
40
0.0000000000
40
0.4320096608
40
1.0000000000
40
1.0000000000
40
1.0000000000
40
1.0000000000
10
-397.5904671851
20
-60.4689401179
30
0.0000000000
10
-397.5904671851
20
-60.4348544291
30
0.0000000000
10
-397.5532569327
20
-60.3559541360
30
0.0000000000
10
-397.4843809119
20
-60.3123435907
30
0.0000000000
10
-397.4440205757
20
-60.2921634226
30
0.0000000000
11
-397.5904671851
21
-60.4689401179
31
0.0000000000
11
-397.5524069514
21
-60.3732692599
31
0.0000000000
11
-397.4440205757
21
-60.2921634226
31
0.0000000000
0
SPLINE
5
38A
100
AcDbEntity
8
0
100
AcDbSpline
62
7
6
CONTINUOUS
70
0
71
3
72
13
73
9
74
7
42
0.0000001000
43
0.0000001000
44
0.0000000001
12
-3.4523370934
22
1.7261685467
32
0.0000000000
13
-0.0023694538
23
-3.8322142202
33
0.0000000000
40
0.0000000000
40
0.0000000000
40
0.0000000000
40
0.0000000000
40
0.1772357096
40
0.3765042871
40
0.5757728646
40
0.7530085742
40
0.8932973179
40
1.0000000000
40
1.0000000000
40
1.0000000000
40
1.0000000000
10
-349.7143128456
20
-41.4127731713
30
0.0000000000
10
-349.9182719838
20
-41.3107936022
30
0.0000000000
10
-350.3870961528
20
-41.1652807778
30
0.0000000000
10
-351.1281955362
20
-41.0959880459
30
0.0000000000
10
-351.8712069823
20
-41.1647633593
30
0.0000000000
10
-352.5099499987
20
-41.3666635482
30
0.0000000000
10
-352.9790712891
20
-41.6682292755
30
0.0000000000
10
-353.1284421323
20
-41.9835774406
30
0.0000000000
10
-353.1285264080
20
-42.1198799525
30
0.0000000000
11
-349.7143128456
21
-41.4127731713
31
0.0000000000
11
-350.3631595433
21
-41.1960004200
31
0.0000000000
11
-351.1285264080
21
-41.1198799525
31
0.0000000000
11
-351.8938932727
21
-41.1960004200
31
0.0000000000
11
-352.5427399704
21
-41.4127731713
31
0.0000000000
11
-352.9762854730
21
-41.7371965201
31
0.0000000000
11
-353.1285264080
21
-42.1198799525
31
0.0000000000
0
SPLINE
5
38B
100
AcDbEntity
8
0
100
AcDbSpline
62
7
6
CONTINUOUS
70
0
71
3
72
10
73
6
74
4
42
0.0000001000
43
0.0000001000
44
0.0000000001
12
0.0000000000
22
-0.9645276564
32
0.0000000000
13
0.8588211978
23
-0.4294105989
33
0.0000000000
40
0.0000000000
40
0.0000000000
40
0.0000000000
40
0.0000000000
40
0.2787367596
40
0.6049124378
40
1.0000000000
40
1.0000000000
40
1.0000000000
40
1.0000000000
10
-399.0904671851
20
-60.4689401179
30
0.0000000000
10
-399.0904671851
20
-60.5585565558
30
0.0000000000
10
-399.0338651857
20
-60.7530414811
30
0.0000000000
10
-398.8158365580
20
-60.9964568966
30
0.0000000000
10
-398.6177839386
20
-61.1194953036
30
0.0000000000
10
-398.5046807475
20
-61.1760468991
30
0.0000000000
11
-399.0904671851
21
-60.4689401179
31
0.0000000000
11
-399.0223188377
21
-60.7277591630
31
0.0000000000
11
-398.8225179927
21
-60.9689401179
31
0.0000000000
11
-398.5046807475
21
-61.1760468991
31
0.0000000000
0
SPLINE
5
38C
100
AcDbEntity
8
0
100
AcDbSpline
62
7
6
CONTINUOUS
70
0
71
3
72
15
73
11
74
9
42
0.0000001000
43
0.0000001000
44
0.0000000001
12
-8.5794275494
22
9.1219008540
32
0.0000000000
13
-1.1165450997
23
-12.4727294249
33
0.0000000000
40
0.0000000000
40
0.0000000000
40
0.0000000000
40
0.0000000000
40
0.0911681124
40
0.1886680942
40
0.2978230799
40
0.4227887469
40
0.5621940001
40
0.7123368459
40
0.8649851652
40
1.0000000000
40
1.0000000000
40
1.0000000000
40
1.0000000000
10
-363.1978256816
20
-282.1190060997
30
0.0000000000
10
-363.4585490867
20
-281.8417972722
30
0.0000000000
10
-364.1478600595
20
-281.3920822471
30
0.0000000000
10
-365.4264056015
20
-281.2658890638
30
0.0000000000
10
-366.7708789452
20
-281.6964719580
30
0.0000000000
10
-368.0783848927
20
-282.5739578359
30
0.0000000000
10
-369.2634557370
20
-283.8519063540
30
0.0000000000
10
-370.2545468774
20
-285.4206189976
30
0.0000000000
10
-370.9478006162
20
-287.1206176045
30
0.0000000000
10
-371.2030501817
20
-288.3038236484
30
0.0000000000
10
-371.2533002325
20
-288.8651581493
30
0.0000000000
11
-363.1978256816
21
-282.1190060997
31
0.0000000000
11
-364.1528946936
21
-281.4935174633
31
0.0000000000
11
-365.3653898178
21
-281.3500468694
31
0.0000000000
11
-366.6785941760
21
-281.7294189247
31
0.0000000000
11
-367.9899464554
21
-282.5833826022
31
0.0000000000
11
-369.1913022590
21
-283.8499812438
31
0.0000000000
11
-370.1999565849
21
-285.4367049013
31
0.0000000000
11
-370.9193325667
21
-287.2077327350
31
0.0000000000
11
-371.2533002325
21
-288.8651581493
31
0.0000000000
0
SPLINE
5
38D
100
AcDbEntity
8
0
100
AcDbSpline
62
7
6
CONTINUOUS
70
0
71
3
72
10
73
6
74
4
42
0.0000001000
43
0.0000001000
44
0.0000000001
12
-0.5341312765
22
1.5961021537
32
0.0000000000
13
-1.0751445106
23
1.2949527354
33
0.0000000000
40
0.0000000000
40
0.0000000000
40
0.0000000000
40
0.0000000000
40
0.3656985724
40
0.6985536109
40
1.0000000000
40
1.0000000000
40
1.0000000000
40
1.0000000000
10
-362.4189211818
20
-283.6016066577
30
0.0000000000
10
-362.4840315302
20
-283.4070425646
30
0.0000000000
10
-362.6253691379
20
-283.0406197818
30
0.0000000000
10
-362.8846345738
20
-282.5417241680
30
0.0000000000
10
-363.0897928714
20
-282.2491257084
30
0.0000000000
10
-363.1978256816
20
-282.1190060997
30
0.0000000000
11
-362.4189211818
21
-283.6016066577
31
0.0000000000
11
-362.6429146129
21
-283.0283023435
31
0.0000000000
11
-362.9039869826
21
-282.5326226187
31
0.0000000000
11
-363.1978256816
21
-282.1190060997
31
0.0000000000
0
SPLINE
5
38E
100
AcDbEntity
8
0
100
AcDbSpline
62
7
6
CONTINUOUS
70
0
71
3
72
10
73
6
74
4
42
0.0000001000
43
0.0000001000
44
0.0000000001
12
1.6646137318
22
-0.9591190449
32
0.0000000000
13
0.0350328440
23
-1.9208385976
33
0.0000000000
40
0.0000000000
40
0.0000000000
40
0.0000000000
40
0.0000000000
40
0.2764952936
40
0.6212889011
40
1.0000000000
40
1.0000000000
40
1.0000000000
40
1.0000000000
10
-365.2853356773
20
-284.9447978425
30
0.0000000000
10
-365.1319163898
20
-285.0331951432
30
0.0000000000
10
-364.8407664207
20
-285.3256339127
30
0.0000000000
10
-364.5821920179
20
-285.9220855135
30
0.0000000000
10
-364.5180311400
20
-286.3868228338
30
0.0000000000
10
-364.5136086978
20
-286.6293037992
30
0.0000000000
11
-365.2853356773
21
-284.9447978425
31
0.0000000000
11
-364.8986189853
21
-285.3089602307
31
0.0000000000
11
-364.6188782923
21
-285.9093958178
31
0.0000000000
11
-364.5136086978
21
-286.6293037992
31
0.0000000000
0
SPLINE
5
38F
100
AcDbEntity
8
0
100
AcDbSpline
62
7
6
CONTINUOUS
70
0
71
3
72
14
73
10
74
8
42
0.0000001000
43
0.0000001000
44
0.0000000001
12
0.3272233598
22
5.8681612139
32
0.0000000000
13
4.9762967456
23
-3.1271171802
33
0.0000000000
40
0.0000000000
40
0.0000000000
40
0.0000000000
40
0.0000000000
40
0.1520199932
40
0.3310138075
40
0.5028082629
40
0.6519259114
40
0.7911394669
40
0.9084066008
40
1.0000000000
40
1.0000000000
40
1.0000000000
40
1.0000000000
10
-368.9748681976
20
-288.5898853604
30
0.0000000000
10
-368.9582866999
20
-288.2925260845
30
0.0000000000
10
-368.8273987852
20
-287.6500982674
30
0.0000000000
10
-368.4420503661
20
-286.7384396107
30
0.0000000000
10
-367.9007964308
20
-285.9133953156
30
0.0000000000
10
-367.2390832091
20
-285.2883924005
30
0.0000000000
10
-366.5363315202
20
-284.8988478210
30
0.0000000000
10
-365.8570551458
20
-284.7482533306
30
0.0000000000
10
-365.4372676554
20
-284.8493234118
30
0.0000000000
10
-365.2853356773
20
-284.9447978425
30
0.0000000000
11
-368.9748681976
21
-288.5898853604
31
0.0000000000
11
-368.8121644880
21
-287.7113611045
31
0.0000000000
11
-368.4076422319
21
-286.7402493664
31
0.0000000000
11
-367.8435586697
21
-285.9028301800
31
0.0000000000
11
-367.2021269907
21
-285.3056262486
31
0.0000000000
11
-366.4817659026
21
-284.9176497742
31
0.0000000000
11
-365.8031092776
21
-284.7974929386
31
0.0000000000
11
-365.2853356773
21
-284.9447978425
31
0.0000000000
0
SPLINE
5
390
100
AcDbEntity
8
0
100
AcDbSpline
62
7
6
CONTINUOUS
70
0
71
3
72
10
73
6
74
4
42
0.0000001000
43
0.0000001000
44
0.0000000001
12
-1.4679179585
22
-3.6453884138
32
0.0000000000
13
-3.3598804619
23
-2.0383432247
33
0.0000000000
40
0.0000000000
40
0.0000000000
40
0.0000000000
40
0.0000000000
40
0.3083942241
40
0.6263827948
40
1.0000000000
40
1.0000000000
40
1.0000000000
40
1.0000000000
10
-359.3094241947
20
-138.1659291039
30
0.0000000000
10
-359.4603233346
20
-138.5406680144
30
0.0000000000
10
-359.8427443139
20
-139.2744529929
30
0.0000000000
10
-360.6901902708
20
-140.2860060645
30
0.0000000000
10
-361.4214378053
20
-140.8364835486
30
0.0000000000
10
-361.8398741880
20
-141.0903369149
30
0.0000000000
11
-359.3094241947
21
-138.1659291039
31
0.0000000000
11
-359.8728600365
21
-139.2389334215
31
0.0000000000
11
-360.6737325688
21
-140.1982110461
31
0.0000000000
11
-361.8398741880
21
-141.0903369149
31
0.0000000000
0
SPLINE
5
391
100
AcDbEntity
8
0
100
AcDbSpline
62
7
6
CONTINUOUS
70
0
71
3
72
10
73
6
74
4
42
0.0000001000
43
0.0000001000
44
0.0000000001
12
0.0000000000
22
-4.3954405250
32
0.0000000000
13
-1.6418344325
23
-4.0772879595
33
0.0000000000
40
0.0000000000
40
0.0000000000
40
0.0000000000
40
0.0000000000
40
0.3924393495
40
0.7206958644
40
1.0000000000
40
1.0000000000
40
1.0000000000
40
1.0000000000
10
-358.5755656836
20
-133.8563561684
30
0.0000000000
10
-358.5755656836
20
-134.4313374419
30
0.0000000000
10
-358.6286708466
20
-135.4888704487
30
0.0000000000
10
-358.8844590982
20
-136.9353477840
30
0.0000000000
10
-359.1565671456
20
-137.7863279742
30
0.0000000000
10
-359.3094241947
20
-138.1659291039
30
0.0000000000
11
-358.5755656836
21
-133.8563561684
31
0.0000000000
11
-358.6723144542
21
-135.5785846258
31
0.0000000000
11
-358.9310466596
21
-136.9980288097
31
0.0000000000
11
-359.3094241947
21
-138.1659291039
31
0.0000000000
0
SPLINE
5
392
100
AcDbEntity
8
0
100
AcDbSpline
62
7
6
CONTINUOUS
70
0
71
3
72
10
73
6
74
4
42
0.0000001000
43
0.0000001000
44
0.0000000001
12
1.7516916087
22
-2.8980648487
32
0.0000000000
13
0.0000000000
23
-3.3863259381
33
0.0000000000
40
0.0000000000
40
0.0000000000
40
0.0000000000
40
0.0000000000
40
0.2417712006
40
0.5649919491
40
1.0000000000
40
1.0000000000
40
1.0000000000
40
1.0000000000
10
-359.2114631044
20
-130.5642786622
30
0.0000000000
10
-359.0702935766
20
-130.7978348681
30
0.0000000000
10
-358.8245526625
20
-131.3942907031
30
0.0000000000
10
-358.6133637870
20
-132.5076672118
30
0.0000000000
10
-358.5755656836
20
-133.3653298197
30
0.0000000000
10
-358.5755656836
20
-133.8563561684
30
0.0000000000
11
-359.2114631044
21
-130.5642786622
31
0.0000000000
11
-358.8831284069
21
-131.3142735679
31
0.0000000000
11
-358.6592018342
21
-132.3856533194
31
0.0000000000
11
-358.5755656836
21
-133.8563561684
31
0.0000000000
0
SPLINE
5
393
100
AcDbEntity
8
0
100
AcDbSpline
62
7
6
CONTINUOUS
70
0
71
3
72
10
73
6
74
4
42
0.0000001000
43
0.0000001000
44
0.0000000001
12
1.8340726202
22
0.9170363101
32
0.0000000000
13
1.0607191912
23
-1.7548939477
33
0.0000000000
40
0.0000000000
40
0.0000000000
40
0.0000000000
40
0.0000000000
40
0.3485345102
40
0.6360953589
40
1.0000000000
40
1.0000000000
40
1.0000000000
40
1.0000000000
10
-360.9853931960
20
-130.0803011641
30
0.0000000000
10
-360.7723139952
20
-129.9737615637
30
0.0000000000
10
-360.3458467092
20
-129.8202586737
30
0.0000000000
10
-359.6409939586
20
-129.9860046750
30
0.0000000000
10
-359.3401299833
20
-130.3514073114
30
0.0000000000
10
-359.2114631044
20
-130.5642786622
30
0.0000000000
11
-360.9853931960
21
-130.0803011641
31
0.0000000000
11
-360.2983963792
21
-129.8832827285
31
0.0000000000
11
-359.7256526940
21
-130.0235074858
31
0.0000000000
11
-359.2114631044
21
-130.5642786622
31
0.0000000000
0
SPLINE
5
394
100
AcDbEntity
8
0
100
AcDbSpline
62
7
6
CONTINUOUS
70
0
71
3
72
10
73
6
74
4
42
0.0000001000
43
0.0000001000
44
0.0000000001
12
0.7415383007
22
1.1937060539
32
0.0000000000
13
1.2569210618
23
0.6284605309
33
0.0000000000
40
0.0000000000
40
0.0000000000
40
0.0000000000
40
0.0000000000
40
0.3660963603
40
0.6894343387
40
1.0000000000
40
1.0000000000
40
1.0000000000
40
1.0000000000
10
-361.9809000807
20
-131.0495971459
30
0.0000000000
10
-361.8904085897
20
-130.9039266653
30
0.0000000000
10
-361.7010988097
20
-130.6403400119
30
0.0000000000
10
-361.3662352573
20
-130.3095587987
30
0.0000000000
10
-361.1155120362
20
-130.1453605842
30
0.0000000000
10
-360.9853931960
20
-130.0803011641
30
0.0000000000
11
-361.9809000807
21
-131.0495971459
31
0.0000000000
11
-361.6776401236
21
-130.6340122712
31
0.0000000000
11
-361.3519539938
21
-130.3171681059
31
0.0000000000
11
-360.9853931960
21
-130.0803011641
31
0.0000000000
0
SPLINE
5
395
100
AcDbEntity
8
0
100
AcDbSpline
62
7
6
CONTINUOUS
70
0
71
3
72
10
73
6
74
4
42
0.0000001000
43
0.0000001000
44
0.0000000001
12
0.3393650651
22
0.9404972808
32
0.0000000000
13
0.5276017713
23
0.8493174633
33
0.0000000000
40
0.0000000000
40
0.0000000000
40
0.0000000000
40
0.0000000000
40
0.3209336150
40
0.6506259768
40
1.0000000000
40
1.0000000000
40
1.0000000000
40
1.0000000000
10
-362.4188503960
20
-131.9466080771
30
0.0000000000
10
-362.3825458437
20
-131.8459956797
30
0.0000000000
10
-362.3015555232
20
-131.6446081886
30
0.0000000000
10
-362.1554959004
20
-131.3447604584
30
0.0000000000
10
-362.0423435318
20
-131.1485069656
30
0.0000000000
10
-361.9809000807
20
-131.0495971459
30
0.0000000000
11
-362.4188503960
21
-131.9466080771
31
0.0000000000
11
-362.2992297177
21
-131.6488518536
31
0.0000000000
11
-362.1550780388
21
-131.3523975588
31
0.0000000000
11
-361.9809000807
21
-131.0495971459
31
0.0000000000
0
SPLINE
5
396
100
AcDbEntity
8
0
100
AcDbSpline
62
7
6
CONTINUOUS
70
0
71
3
72
10
73
6
74
4
42
0.0000001000
43
0.0000001000
44
0.0000000001
12
0.6572158134
22
5.1037188441
32
0.0000000000
13
1.7465839336
23
4.8403846157
33
0.0000000000
40
0.0000000000
40
0.0000000000
40
0.0000000000
40
0.0000000000
40
0.4765275480
40
0.7971186661
40
1.0000000000
40
1.0000000000
40
1.0000000000
40
1.0000000000
10
-363.3625299086
20
-136.9988525392
30
0.0000000000
10
-363.2581360953
20
-136.1881649970
30
0.0000000000
10
-363.0696757885
20
-134.8333032451
30
0.0000000000
10
-362.7605378524
20
-133.1463100298
30
0.0000000000
10
-362.5369668221
20
-132.2739493062
30
0.0000000000
10
-362.4188503960
20
-131.9466080771
30
0.0000000000
11
-363.3625299086
21
-136.9988525392
31
0.0000000000
11
-363.0120947289
21
-134.5718777930
31
0.0000000000
11
-362.7009901227
21
-132.9517603582
31
0.0000000000
11
-362.4188503960
21
-131.9466080771
31
0.0000000000
0
SPLINE
5
397
100
AcDbEntity
8
0
100
AcDbSpline
62
7
6
CONTINUOUS
70
0
71
3
72
10
73
6
74
4
42
0.0000001000
43
0.0000001000
44
0.0000000001
12
2.1830549176
22
5.5936673272
32
0.0000000000
13
0.7668877722
23
5.9553947044
33
0.0000000000
40
0.0000000000
40
0.0000000000
40
0.0000000000
40
0.0000000000
40
0.2160759585
40
0.5381144319
40
1.0000000000
40
1.0000000000
40
1.0000000000
40
1.0000000000
10
-364.5544458486
20
-142.8735476216
30
0.0000000000
10
-364.3972106206
20
-142.4706619451
30
0.0000000000
10
-364.0977031935
20
-141.4326670247
30
0.0000000000
10
-363.7044683605
20
-139.4696372531
30
0.0000000000
10
-363.4806013734
20
-137.9157561613
30
0.0000000000
10
-363.3625299086
20
-136.9988525392
30
0.0000000000
11
-364.5544458486
21
-142.8735476216
31
0.0000000000
11
-364.1708535713
21
-141.6341062024
31
0.0000000000
11
-363.7737042628
21
-139.7416273673
31
0.0000000000
11
-363.3625299086
21
-136.9988525392
31
0.0000000000
0
SPLINE
5
398
100
AcDbEntity
8
0
100
AcDbSpline
62
7
6
CONTINUOUS
70
0
71
3
72
10
73
6
74
4
42
0.0000001000
43
0.0000001000
44
0.0000000001
12
0.6762129983
22
1.0958990775
32
0.0000000000
13
0.4681758561
23
1.1996125103
33
0.0000000000
40
0.0000000000
40
0.0000000000
40
0.0000000000
40
0.0000000000
40
0.3483999917
40
0.6786958954
40
1.0000000000
40
1.0000000000
40
1.0000000000
40
1.0000000000
10
-365.1316033516
20
-144.0229322010
30
0.0000000000
10
-365.0530724839
20
-143.8956617912
30
0.0000000000
10
-364.9069246291
20
-143.6434131925
30
0.0000000000
10
-364.7144005451
20
-143.2594956402
30
0.0000000000
10
-364.6045881233
20
-143.0020277628
30
0.0000000000
10
-364.5544458486
20
-142.8735476216
30
0.0000000000
11
-365.1316033516
21
-144.0229322010
31
0.0000000000
11
-364.9071060506
21
-143.6344934654
31
0.0000000000
11
-364.7166871068
21
-143.2541659654
31
0.0000000000
11
-364.5544458486
21
-142.8735476216
31
0.0000000000
0
SPLINE
5
399
100
AcDbEntity
8
0
100
AcDbSpline
62
7
6
CONTINUOUS
70
0
71
3
72
10
73
6
74
4
42
0.0000001000
43
0.0000001000
44
0.0000000001
12
2.5603341990
22
1.2801670995
32
0.0000000000
13
1.5031731928
23
2.4361053683
33
0.0000000000
40
0.0000000000
40
0.0000000000
40
0.0000000000
40
0.0000000000
40
0.3460768272
40
0.6695465912
40
1.0000000000
40
1.0000000000
40
1.0000000000
40
1.0000000000
10
-367.1971799112
20
-145.9561005935
30
0.0000000000
10
-366.9018224658
20
-145.8084218708
30
0.0000000000
10
-366.3576649357
20
-145.4632943495
30
0.0000000000
10
-365.6658495322
20
-144.7988607738
30
0.0000000000
10
-365.2971795868
20
-144.2912719754
30
0.0000000000
10
-365.1316033516
20
-144.0229322010
30
0.0000000000
11
-367.1971799112
21
-145.9561005935
31
0.0000000000
11
-366.3609201055
21
-145.4249934775
31
0.0000000000
11
-365.6911672863
21
-144.7856141272
31
0.0000000000
11
-365.1316033516
21
-144.0229322010
31
0.0000000000
0
SPLINE
5
39A
100
AcDbEntity
8
0
100
AcDbSpline
62
7
6
CONTINUOUS
70
0
71
3
72
10
73
6
74
4
42
0.0000001000
43
0.0000001000
44
0.0000000001
12
2.2239147556
22
-2.5949693940
32
0.0000000000
13
3.0567516086
23
1.5283758043
33
0.0000000000
40
0.0000000000
40
0.0000000000
40
0.0000000000
40
0.0000000000
40
0.3264945656
40
0.6221078928
40
1.0000000000
40
1.0000000000
40
1.0000000000
40
1.0000000000
10
-370.3270756361
20
-145.5597038791
30
0.0000000000
10
-370.0850436087
20
-145.8421183474
30
0.0000000000
10
-369.5013674909
20
-146.3099211658
30
0.0000000000
10
-368.3192407427
20
-146.4252847798
30
0.0000000000
10
-367.5822206801
20
-146.1486209779
30
0.0000000000
10
-367.1971799112
20
-145.9561005935
30
0.0000000000
11
-370.3270756361
21
-145.5597038791
31
0.0000000000
11
-369.4306009356
21
-146.2240607256
31
0.0000000000
11
-368.4278996074
21
-146.3475255007
31
0.0000000000
11
-367.1971799112
21
-145.9561005935
31
0.0000000000
0
SPLINE
5
39B
100
AcDbEntity
8
0
100
AcDbSpline
62
7
6
CONTINUOUS
70
0
71
3
72
10
73
6
74
4
42
0.0000001000
43
0.0000001000
44
0.0000000001
12
0.0000000000
22
-5.0936017815
32
0.0000000000
13
3.3145759068
23
-3.8676046420
33
0.0000000000
40
0.0000000000
40
0.0000000000
40
0.0000000000
40
0.0000000000
40
0.4508375390
40
0.7681759973
40
1.0000000000
40
1.0000000000
40
1.0000000000
40
1.0000000000
10
-371.5175876030
20
-140.6942373397
30
0.0000000000
10
-371.5175876030
20
-141.4596996370
30
0.0000000000
10
-371.4477504999
20
-142.7683693138
30
0.0000000000
10
-371.0461945604
20
-144.4302111811
30
0.0000000000
10
-370.5832083874
20
-145.2608360161
30
0.0000000000
10
-370.3270756361
20
-145.5597038791
30
0.0000000000
11
-371.5175876030
21
-140.6942373397
31
0.0000000000
11
-371.3534195367
21
-142.9847485497
31
0.0000000000
11
-370.9308909920
21
-144.5449423859
31
0.0000000000
11
-370.3270756361
21
-145.5597038791
31
0.0000000000
0
SPLINE
5
39C
100
AcDbEntity
8
0
100
AcDbSpline
62
7
6
CONTINUOUS
70
0
71
3
72
10
73
6
74
4
42
0.0000001000
43
0.0000001000
44
0.0000000001
12
-0.9962190968
22
-4.1021374470
32
0.0000000000
13
0.0000000000
23
-4.2213723033
33
0.0000000000
40
0.0000000000
40
0.0000000000
40
0.0000000000
40
0.0000000000
40
0.2986651497
40
0.6306832905
40
1.0000000000
40
1.0000000000
40
1.0000000000
40
1.0000000000
10
-371.0430190152
20
-136.5084868211
30
0.0000000000
10
-371.1421976570
20
-136.9168753192
30
0.0000000000
10
-371.3155860033
20
-137.7883572552
30
0.0000000000
10
-371.4802121884
20
-139.1871485049
30
0.0000000000
10
-371.5175876030
20
-140.1745628968
30
0.0000000000
10
-371.5175876030
20
-140.6942373397
30
0.0000000000
11
-371.0430190152
21
-136.5084868211
31
0.0000000000
11
-371.2908169134
21
-137.7446722108
31
0.0000000000
11
-371.4565722956
21
-139.1364084431
31
0.0000000000
11
-371.5175876030
21
-140.6942373397
31
0.0000000000
0
SPLINE
5
39D
100
AcDbEntity
8
0
100
AcDbSpline
62
7
6
CONTINUOUS
70
0
71
3
72
10
73
6
74
4
42
0.0000001000
43
0.0000001000
44
0.0000000001
12
-2.0404761597
22
-3.1370930225
32
0.0000000000
13
-0.8831635650
23
-3.6366079947
33
0.0000000000
40
0.0000000000
40
0.0000000000
40
0.0000000000
40
0.0000000000
40
0.3071288626
40
0.6339267969
40
1.0000000000
40
1.0000000000
40
1.0000000000
40
1.0000000000
10
-369.5974066876
20
-133.0740412649
30
0.0000000000
10
-369.8063030616
20
-133.3952052022
30
0.0000000000
10
-370.1985106733
20
-134.0842911814
30
0.0000000000
10
-370.6879679926
20
-135.2343103988
30
0.0000000000
10
-370.9352515101
20
-136.0647319088
30
0.0000000000
10
-371.0430190152
20
-136.5084868211
30
0.0000000000
11
-369.5974066876
21
-133.0740412649
31
0.0000000000
11
-370.1671109123
21
-134.0722861364
31
0.0000000000
11
-370.6483119859
21
-135.1966191916
31
0.0000000000
11
-371.0430190152
21
-136.5084868211
31
0.0000000000
0
SPLINE
5
39E
100
AcDbEntity
8
0
100
AcDbSpline
62
7
6
CONTINUOUS
70
0
71
3
72
10
73
6
74
4
42
0.0000001000
43
0.0000001000
44
0.0000000001
12
-3.2309481516
22
-1.9268492988
32
0.0000000000
13
-2.0511481621
23
-3.1535004988
33
0.0000000000
40
0.0000000000
40
0.0000000000
40
0.0000000000
40
0.0000000000
40
0.3812759240
40
0.7076345011
40
1.0000000000
40
1.0000000000
40
1.0000000000
40
1.0000000000
10
-366.8707491978
20
-130.5254401006
30
0.0000000000
10
-367.2813767784
20
-130.7703271828
30
0.0000000000
10
-368.0142758701
20
-131.2779630586
30
0.0000000000
10
-368.9242247561
20
-132.1475651930
30
0.0000000000
10
-369.3975117024
20
-132.7667163494
30
0.0000000000
10
-369.5974066876
20
-133.0740412649
30
0.0000000000
11
-366.8707491978
21
-130.5254401006
31
0.0000000000
11
-368.0453199303
21
-131.3486325637
31
0.0000000000
11
-368.9301942858
21
-132.1996917407
31
0.0000000000
11
-369.5974066876
21
-133.0740412649
31
0.0000000000
0
SPLINE
5
39F
100
AcDbEntity
8
0
100
AcDbSpline
62
7
6
CONTINUOUS
70
0
71
3
72
10
73
6
74
4
42
0.0000001000
43
0.0000001000
44
0.0000000001
12
1.3000515645
22
3.1832818702
32
0.0000000000
13
2.8834103998
23
1.8733291227
33
0.0000000000
40
0.0000000000
40
0.0000000000
40
0.0000000000
40
0.0000000000
40
0.3021235583
40
0.6214780413
40
1.0000000000
40
1.0000000000
40
1.0000000000
40
1.0000000000
10
-369.0663028299
20
-136.0572832969
30
0.0000000000
10
-368.9353774284
20
-135.7367018150
30
0.0000000000
10
-368.6019483516
20
-135.1010120114
30
0.0000000000
10
-367.8680766752
20
-134.2107431036
30
0.0000000000
10
-367.2345605818
20
-133.7108765642
30
0.0000000000
10
-366.8707491978
20
-133.4745111613
30
0.0000000000
11
-369.0663028299
21
-136.0572832969
31
0.0000000000
11
-368.5822056899
21
-135.1381122113
31
0.0000000000
11
-367.8860835985
21
-134.2888464711
31
0.0000000000
11
-366.8707491978
21
-133.4745111613
31
0.0000000000
0
SPLINE
5
3A0
100
AcDbEntity
8
0
100
AcDbSpline
62
7
6
CONTINUOUS
70
0
71
3
72
10
73
6
74
4
42
0.0000001000
43
0.0000001000
44
0.0000000001
12
0.0000000000
22
3.8808577715
32
0.0000000000
13
1.4672928174
23
3.5927856644
33
0.0000000000
40
0.0000000000
40
0.0000000000
40
0.0000000000
40
0.0000000000
40
0.3989301706
40
0.7268248771
40
1.0000000000
40
1.0000000000
40
1.0000000000
40
1.0000000000
10
-369.7126176268
20
-139.8623047680
30
0.0000000000
10
-369.7126176268
20
-139.3462410171
30
0.0000000000
10
-369.6651540928
20
-138.4045482720
30
0.0000000000
10
-369.4388521231
20
-137.1274970884
30
0.0000000000
10
-369.1999121285
20
-136.3844365187
30
0.0000000000
10
-369.0663028299
20
-136.0572832969
30
0.0000000000
11
-369.7126176268
21
-139.8623047680
31
0.0000000000
11
-369.6252629313
21
-138.3165799179
31
0.0000000000
11
-369.3958419466
21
-137.0649191673
31
0.0000000000
11
-369.0663028299
21
-136.0572832969
31
0.0000000000
0
SPLINE
5
3A1
100
AcDbEntity
8
0
100
AcDbSpline
62
7
6
CONTINUOUS
70
0
71
3
72
10
73
6
74
4
42
0.0000001000
43
0.0000001000
44
0.0000000001
12
-1.6818263352
22
2.4741645008
32
0.0000000000
13
0.0000000000
23
2.9916600407
33
0.0000000000
40
0.0000000000
40
0.0000000000
40
0.0000000000
40
0.0000000000
40
0.2404388091
40
0.5631973568
40
1.0000000000
40
1.0000000000
40
1.0000000000
40
1.0000000000
10
-369.0950678666
20
-142.7532207905
30
0.0000000000
10
-369.2298599737
20
-142.5549257351
30
0.0000000000
10
-369.4676016966
20
-142.0376440211
30
0.0000000000
10
-369.6747691387
20
-141.0572882193
30
0.0000000000
10
-369.7126176268
20
-140.2978931058
30
0.0000000000
10
-369.7126176268
20
-139.8623047680
30
0.0000000000
11
-369.0950678666
21
-142.7532207905
31
0.0000000000
11
-369.4107869437
21
-142.1069004099
31
0.0000000000
11
-369.6295641572
21
-141.1664278147
31
0.0000000000
11
-369.7126176268
21
-139.8623047680
31
0.0000000000
0
SPLINE
5
3A2
100
AcDbEntity
8
0
100
AcDbSpline
62
7
6
CONTINUOUS
70
0
71
3
72
10
73
6
74
4
42
0.0000001000
43
0.0000001000
44
0.0000000001
12
-1.6963935328
22
-0.8481967664
32
0.0000000000
13
-1.0662290788
23
1.5685484769
33
0.0000000000
40
0.0000000000
40
0.0000000000
40
0.0000000000
40
0.0000000000
40
0.3637827807
40
0.6533738511
40
1.0000000000
40
1.0000000000
40
1.0000000000
40
1.0000000000
10
-367.4180007376
20
-143.1174388620
30
0.0000000000
10
-367.6237069898
20
-143.2202919881
30
0.0000000000
10
-368.0252396522
20
-143.3691534631
30
0.0000000000
10
-368.6805372102
20
-143.2459055063
30
0.0000000000
10
-368.9718735735
20
-142.9344540964
30
0.0000000000
10
-369.0950678666
20
-142.7532207905
30
0.0000000000
11
-367.4180007376
21
-143.1174388620
31
0.0000000000
11
-368.0790870548
21
-143.3149466615
31
0.0000000000
11
-368.6171448882
21
-143.2046526592
31
0.0000000000
11
-369.0950678666
21
-142.7532207905
31
0.0000000000
0
SPLINE
5
3A3
100
AcDbEntity
8
0
100
AcDbSpline
62
7
6
CONTINUOUS
70
0
71
3
72
10
73
6
74
4
42
0.0000001000
43
0.0000001000
44
0.0000000001
12
-0.7062514925
22
-1.0717219565
32
0.0000000000
13
-1.1479996943
23
-0.5739998471
33
0.0000000000
40
0.0000000000
40
0.0000000000
40
0.0000000000
40
0.0000000000
40
0.3209206895
40
0.6466430784
40
1.0000000000
40
1.0000000000
40
1.0000000000
40
1.0000000000
10
-366.4675109105
20
-142.2753237369
30
0.0000000000
10
-366.5430611491
20
-142.3899696533
30
0.0000000000
10
-366.7136302659
20
-142.6097088088
30
0.0000000000
10
-367.0330273753
20
-142.8976453017
30
0.0000000000
10
-367.2827828582
20
-143.0498299223
30
0.0000000000
10
-367.4180007376
20
-143.1174388620
30
0.0000000000
11
-366.4675109105
21
-142.2753237369
31
0.0000000000
11
-366.7212223533
21
-142.5998144550
31
0.0000000000
11
-367.0317608735
21
-142.8797155777
31
0.0000000000
11
-367.4180007376
21
-143.1174388620
31
0.0000000000
0
SPLINE
5
3A4
100
AcDbEntity
8
0
100
AcDbSpline
62
7
6
CONTINUOUS
70
0
71
3
72
10
73
6
74
4
42
0.0000001000
43
0.0000001000
44
0.0000000001
12
-0.6635831951
22
-5.3335028311
32
0.0000000000
13
-2.0442095968
23
-4.9706943409
33
0.0000000000
40
0.0000000000
40
0.0000000000
40
0.0000000000
40
0.0000000000
40
0.4926631840
40
0.8105122681
40
1.0000000000
40
1.0000000000
40
1.0000000000
40
1.0000000000
10
-365.1534364574
20
-136.4421347052
30
0.0000000000
10
-365.2624107940
20
-137.3180082007
30
0.0000000000
10
-365.4590332407
20
-138.7578239993
30
0.0000000000
10
-365.7912260107
20
-140.5174896076
30
0.0000000000
10
-366.0311647546
20
-141.3985461531
30
0.0000000000
10
-366.1602823012
20
-141.7125080186
30
0.0000000000
11
-365.1534364574
21
-136.4421347052
31
0.0000000000
11
-365.5282739079
21
-139.0633491110
31
0.0000000000
11
-365.8618938478
21
-140.7387755732
31
0.0000000000
11
-366.1602823012
21
-141.7125080186
31
0.0000000000
0
SPLINE
5
3A5
100
AcDbEntity
8
0
100
AcDbSpline
62
7
6
CONTINUOUS
70
0
71
3
72
10
73
6
74
4
42
0.0000001000
43
0.0000001000
44
0.0000000001
12
-2.1007788626
22
-5.5454277403
32
0.0000000000
13
-0.7321545473
23
-5.8846402075
33
0.0000000000
40
0.0000000000
40
0.0000000000
40
0.0000000000
40
0.0000000000
40
0.2228635053
40
0.5456287855
40
1.0000000000
40
1.0000000000
40
1.0000000000
40
1.0000000000
10
-363.9903455436
20
-130.6375141799
30
0.0000000000
10
-364.1464078573
20
-131.0494720014
30
0.0000000000
10
-364.4439554307
20
-132.0891923312
30
0.0000000000
10
-364.8284187378
20
-134.0288679254
30
0.0000000000
10
-365.0425464738
20
-135.5508643324
30
0.0000000000
10
-365.1534364574
20
-136.4421347052
30
0.0000000000
11
-363.9903455436
21
-130.6375141799
31
0.0000000000
11
-364.3748324926
21
-131.9019318396
31
0.0000000000
11
-364.7632188280
21
-133.7761141888
31
0.0000000000
11
-365.1534364574
21
-136.4421347052
31
0.0000000000
0
SPLINE
5
3A6
100
AcDbEntity
8
0
100
AcDbSpline
62
7
6
CONTINUOUS
70
0
71
3
72
10
73
6
74
4
42
0.0000001000
43
0.0000001000
44
0.0000000001
12
-0.8901006924
22
-1.4146402628
32
0.0000000000
13
-0.5921040767
23
-1.5629776320
33
0.0000000000
40
0.0000000000
40
0.0000000000
40
0.0000000000
40
0.0000000000
40
0.3278237778
40
0.6571213434
40
1.0000000000
40
1.0000000000
40
1.0000000000
40
1.0000000000
10
-363.2488661643
20
-129.1423979692
30
0.0000000000
10
-363.3461315548
20
-129.2969822075
30
0.0000000000
10
-363.5308241445
20
-129.6134602866
30
0.0000000000
10
-363.7787635820
20
-130.1127908566
30
0.0000000000
10
-363.9226722601
20
-130.4588769564
30
0.0000000000
10
-363.9903455436
20
-130.6375141799
30
0.0000000000
11
-363.2488661643
21
-129.1423979692
31
0.0000000000
11
-363.5249927250
21
-129.6156481239
31
0.0000000000
11
-363.7699362242
21
-130.1085169111
31
0.0000000000
11
-363.9903455436
21
-130.6375141799
31
0.0000000000
0
SPLINE
5
3A7
100
AcDbEntity
8
0
100
AcDbSpline
62
7
6
CONTINUOUS
70
0
71
3
72
10
73
6
74
4
42
0.0000001000
43
0.0000001000
44
0.0000000001
12
-2.5426844809
22
-1.2713422404
32
0.0000000000
13
-1.5139563142
23
-2.4061362680
33
0.0000000000
40
0.0000000000
40
0.0000000000
40
0.0000000000
40
0.0000000000
40
0.3474696064
40
0.6718152245
40
1.0000000000
40
1.0000000000
40
1.0000000000
40
1.0000000000
10
-361.1870123396
20
-127.2320384364
30
0.0000000000
10
-361.4815141982
20
-127.3792893657
30
0.0000000000
10
-362.0237878562
20
-127.7228689610
30
0.0000000000
10
-362.7137253100
20
-128.3793562529
30
0.0000000000
10
-363.0832470266
20
-128.8791788722
30
0.0000000000
10
-363.2488661643
20
-129.1423979692
30
0.0000000000
11
-361.1870123396
21
-127.2320384364
31
0.0000000000
11
-362.0213833606
21
-127.7607658023
31
0.0000000000
11
-362.6911423230
21
-128.3944875180
31
0.0000000000
11
-363.2488661643
21
-129.1423979692
31
0.0000000000
0
SPLINE
5
3A8
100
AcDbEntity
8
0
100
AcDbSpline
62
7
6
CONTINUOUS
70
0
71
3
72
11
73
7
74
5
42
0.0000001000
43
0.0000001000
44
0.0000000001
12
-2.2660198952
22
2.6842392587
32
0.0000000000
13
-3.1419721912
23
-1.5709860956
33
0.0000000000
40
0.0000000000
40
0.0000000000
40
0.0000000000
40
0.0000000000
40
0.2628310083
40
0.4851258404
40
0.7157062317
40
1.0000000000
40
1.0000000000
40
1.0000000000
40
1.0000000000
10
-357.9967821409
20
-127.7076624420
30
0.0000000000
10
-358.1953089055
20
-127.4724953384
30
0.0000000000
10
-358.6275459474
20
-127.0811872682
30
0.0000000000
10
-359.4418106729
20
-126.8028724742
30
0.0000000000
10
-360.3205596431
20
-126.8614190274
30
0.0000000000
10
-360.8892646349
20
-127.0831645840
30
0.0000000000
10
-361.1870123396
20
-127.2320384364
30
0.0000000000
11
-357.9967821409
21
-127.7076624420
31
0.0000000000
11
-358.6987961148
21
-127.1079755518
31
0.0000000000
11
-359.4383145792
21
-126.8571912166
31
0.0000000000
11
-360.2474938494
21
-126.8934249657
31
0.0000000000
11
-361.1870123396
21
-127.2320384364
31
0.0000000000
0
SPLINE
5
3A9
100
AcDbEntity
8
0
100
AcDbSpline
62
7
6
CONTINUOUS
70
0
71
3
72
10
73
6
74
4
42
0.0000001000
43
0.0000001000
44
0.0000000001
12
0.0000000000
22
5.4062223093
32
0.0000000000
13
-3.4873880538
23
4.1310245969
33
0.0000000000
40
0.0000000000
40
0.0000000000
40
0.0000000000
40
0.0000000000
40
0.4532314453
40
0.7704831522
40
1.0000000000
40
1.0000000000
40
1.0000000000
40
1.0000000000
10
-356.7705952596
20
-132.8833191595
30
0.0000000000
10
-356.7705952596
20
-132.0665625091
30
0.0000000000
10
-356.8398323760
20
-130.6737831944
30
0.0000000000
10
-357.2492943876
20
-128.9064240244
30
0.0000000000
10
-357.7299773698
20
-128.0237090232
30
0.0000000000
10
-357.9967821409
20
-127.7076624420
30
0.0000000000
11
-356.7705952596
21
-132.8833191595
31
0.0000000000
11
-356.9372604486
21
-130.4387239890
31
0.0000000000
11
-357.3716753134
21
-128.7795176096
31
0.0000000000
11
-357.9967821409
21
-127.7076624420
31
0.0000000000
0
SPLINE
5
3AA
100
AcDbEntity
8
0
100
AcDbSpline
62
7
6
CONTINUOUS
70
0
71
3
72
13
73
9
74
7
42
0.0000001000
43
0.0000001000
44
0.0000000001
12
11.2836356067
22
6.2071637883
32
0.0000000000
13
-0.0000000000
23
12.8782496791
33
0.0000000000
40
0.0000000000
40
0.0000000000
40
0.0000000000
40
0.0000000000
40
0.1462617921
40
0.2775847414
40
0.4104052913
40
0.5633841291
40
0.7544688008
40
1.0000000000
40
1.0000000000
40
1.0000000000
40
1.0000000000
10
-361.8398741880
20
-144.0394090596
30
0.0000000000
10
-361.2897525997
20
-143.7367854265
30
0.0000000000
10
-360.3018293225
20
-143.0499663399
30
0.0000000000
10
-359.0963009557
20
-141.7497647980
30
0.0000000000
10
-358.1496150167
20
-140.2180224320
30
0.0000000000
10
-357.3977257458
20
-138.3031009524
30
0.0000000000
10
-356.8760781180
20
-135.8158470322
30
0.0000000000
10
-356.7705952596
20
-133.9373231884
30
0.0000000000
10
-356.7705952596
20
-132.8833191595
30
0.0000000000
11
-361.8398741880
21
-144.0394090596
31
0.0000000000
11
-360.2965656702
21
-142.9595330269
31
0.0000000000
11
-359.1443030973
21
-141.7215987339
31
0.0000000000
11
-358.2381351838
21
-140.2708551394
31
0.0000000000
11
-357.5048687909
21
-138.4423002176
31
0.0000000000
11
-356.9780366358
21
-136.0385193928
31
0.0000000000
11
-356.7705952596
21
-132.8833191595
31
0.0000000000
0
ENDSEC
0
SECTION
2
OBJECTS
0
DICTIONARY
5
3AB
100
AcDbDictionary
3
ACAD_GROUP
350
3AC
3
ACAD_MLINESTYLE
350
3AD
0
DICTIONARY
5
3AC
102
{ACAD_REACTORS
330
3AB
102
}
100
AcDbDictionary
0
DICTIONARY
5
3AD
102
{ACAD_REACTORS
330
3AB
102
}
100
AcDbDictionary
3
STANDARD
350
3AE
0
MLINESTYLE
5
3AE
102
{ACAD_REACTORS
330
3AD
102
}
100
AcDbMlineStyle
2
STANDARD
70
0
3

62
256
51
90.0
52
90.0
71
2
49
0.5
62
256
6
BYLAYER
49
-0.5
62
256
6
BYLAYER
0
ENDSEC
0
EOF
