0
SECTION
2
HEADER
9
$ACADVER
1
AC1014
9
$HANDSEED
5
       2BE
9
$EXTMAX
10
297.0000000000
20
210.0000000000
9
$EXTMIN
10
0.0000000000
20
0.0000000000
9
$LIMMIN
10
0.0000000000
20
0.0000000000
9
$LIMMAX
10
297.0000000000
20
210.0000000000
9
$VIEWCTR
10
148.5000000000
20
105.0000000000
9
$VIEWSIZE
40
210.0000000000
9
$CLAYER
8
0
9
$LTSCALE
40
16.3350000000
9
$CELTYPE
6
BYLAYER
9
$DIMSCALE
40
1
9
$DIMASZ
40
3.0000000000
9
$DIMEXO
40
1.8562500000
9
$DIMDLI
40
11.2860000000
9
$DIMEXE
40
5.3460000000
9
$DIMCEN
40
2.6730000000
9
$DIMLFAC
40
1.0000000000
9
$DIMTXT
40
3.0000000000
9
$DIMTOL
70
1
9
$DIMLIM
70
0
9
$DIMTFAC
40
1.0000000000
9
$DIMTP
40
0.0100000000
9
$DIMTM
40
0.0100000000
9
$MEASUREMENT
70
1
0
ENDSEC
0
SECTION
2
CLASSES
0
ENDSEC
0
SECTION
2
TABLES
0
TABLE
2
VPORT
5
8
100
AcDbSymbolTable
70
2
0
VPORT
5
1F4
100
AcDbSymbolTableRecord
100
AcDbViewportTableRecord
2
*ACTIVE
70
0
10
0.0
20
0.0
11
1.0
21
1.0
12
148.5000000000
22
105.0000000000
13
0.0
23
0.0
14
1.0
24
1.0
15
0.0
25
0.0
16
0.0
26
0.0
36
1.0
17
0.0
27
0.0
37
0.0
40
210.0000000000
41
1.4142857143
42
50.0
43
0.0
44
0.0
50
0.0
51
0.0
71
0
72
100
73
1
74
1
75
0
76
0
77
0
78
0
0
ENDTAB
0
TABLE
2
LTYPE
5
5
100
AcDbSymbolTable
70
6
0
LTYPE
5
14
100
AcDbSymbolTableRecord
100
AcDbLinetypeTableRecord
2
BYBLOCK
70
0
3

72
65
73
0
40
0.0
0
LTYPE
5
15
100
AcDbSymbolTableRecord
100
AcDbLinetypeTableRecord
2
BYLAYER
70
0
3

72
65
73
0
40
0.0
0
LTYPE
5
16
100
AcDbSymbolTableRecord
100
AcDbLinetypeTableRecord
2
CONTINUOUS
70
64
3
Solid line
72
65
73
0
40
0
0
LTYPE
5
1F5
100
AcDbSymbolTableRecord
100
AcDbLinetypeTableRecord
2
CENTER
70
64
3
____ _ ____ _ ____ _ ____ _ ____ _ ____ _ ____
72
65
73
4
40
0.6
49
0.375
74
0
49
-0.075
74
0
49
0.075
74
0
49
-0.075
74
0
0
LTYPE
5
1F6
100
AcDbSymbolTableRecord
100
AcDbLinetypeTableRecord
2
HIDDEN
70
64
3
- - - - - - - - - - - - - - - - - - - -
72
65
73
2
40
0.2
49
0.1
74
0
49
-0.1
74
0
0
LTYPE
5
1F7
100
AcDbSymbolTableRecord
100
AcDbLinetypeTableRecord
2
PHANTOM
70
64
3
_____ _ _ _____ _ _ _____ _ _ _____
72
65
73
6
40
0.8
49
0.45
74
0
49
-0.05
74
0
49
0.1
74
0
49
-0.05
74
0
49
0.1
74
0
49
-0.05
74
0
0
LTYPE
5
1F8
100
AcDbSymbolTableRecord
100
AcDbLinetypeTableRecord
2
DOT
70
64
3
. . . . . . . . . . . . . . . . . . . .
72
65
73
2
40
0.2
49
0.1
74
0
49
-0.1
74
0
0
LTYPE
5
1F9
100
AcDbSymbolTableRecord
100
AcDbLinetypeTableRecord
2
DASHED
70
64
3
- - - - - - - - - - - - - - - - - - - -
72
65
73
2
40
0.2
49
0.1
74
0
49
-0.1
74
0
0
ENDTAB
0
TABLE
2
LAYER
5
2
100
AcDbSymbolTable
70
36
0
LAYER
5
10
100
AcDbSymbolTableRecord
100
AcDbLayerTableRecord
2
0
70
0
62
7
6
CONTINUOUS
0
LAYER
5
1FA
100
AcDbSymbolTableRecord
100
AcDbLayerTableRecord
2
DEFAULT_1
70
0
62
7
6
CENTER
0
LAYER
5
1FB
100
AcDbSymbolTableRecord
100
AcDbLayerTableRecord
2
DEFAULT_2
70
0
62
8
6
HIDDEN
0
LAYER
5
1FC
100
AcDbSymbolTableRecord
100
AcDbLayerTableRecord
2
DEFAULT_3
70
0
62
7
6
PHANTOM
0
LAYER
5
1FD
100
AcDbSymbolTableRecord
100
AcDbLayerTableRecord
2
ASSI
70
0
62
7
6
CONTINUOUS
0
LAYER
5
1FE
100
AcDbSymbolTableRecord
100
AcDbLayerTableRecord
2
COORDINATE
70
0
62
7
6
CONTINUOUS
0
LAYER
5
1FF
100
AcDbSymbolTableRecord
100
AcDbLayerTableRecord
2
COORD_ORIGINE
70
0
62
7
6
CONTINUOUS
0
LAYER
5
200
100
AcDbSymbolTableRecord
100
AcDbLayerTableRecord
2
PIANI
70
0
62
7
6
CONTINUOUS
0
LAYER
5
201
100
AcDbSymbolTableRecord
100
AcDbLayerTableRecord
2
PIANI_ORIGINE
70
0
62
7
6
CONTINUOUS
0
LAYER
5
202
100
AcDbSymbolTableRecord
100
AcDbLayerTableRecord
2
PUNTI
70
0
62
7
6
CONTINUOUS
0
LAYER
5
203
100
AcDbSymbolTableRecord
100
AcDbLayerTableRecord
2
RACCORDO
70
0
62
7
6
CONTINUOUS
0
LAYER
5
204
100
AcDbSymbolTableRecord
100
AcDbLayerTableRecord
2
TRASH
70
0
62
7
6
CONTINUOUS
0
ENDTAB
0
TABLE
2
STYLE
5
3
100
AcDbSymbolTable
70
1
0
STYLE
5
11
100
AcDbSymbolTableRecord
100
AcDbTextStyleTableRecord
2
STANDARD
70
0
40
0.0
41
0.8000000000
50
0.0
71
0
42
0.2
3
txt
4

0
ENDTAB
0
TABLE
2
VIEW
5
6
100
AcDbSymbolTable
70
0
0
ENDTAB
0
TABLE
2
UCS
5
7
100
AcDbSymbolTable
70
0
0
ENDTAB
0
TABLE
2
APPID
5
9
100
AcDbSymbolTable
70
1
0
APPID
5
205
100
AcDbSymbolTableRecord
100
AcDbRegAppTableRecord
2
ACAD
70
0
0
ENDTAB
0
TABLE
2
DIMSTYLE
5
A
100
AcDbSymbolTable
70
1
0
DIMSTYLE
105
206
100
AcDbSymbolTableRecord
100
AcDbDimStyleTableRecord
2
STANDARD
70
0
3

4

5

6

7

40
1.0
41
3.0000000000
42
0.0625
43
0.38
44
0.18
45
0.0
46
0.0
47
0.0100000000
48
0.0100000000
140
3.0000000000
141
0.09
142
0.0
143
25.4
144
1.0000000000
145
0.0
146
1.0000000000
147
0.09
71
1
72
0
73
0
74
0
75
0
76
0
77
1
78
8
170
0
171
2
172
0
173
0
174
0
175
0
176
0
177
0
178
0
270
2
271
2
272
2
273
2
274
2
340
11
275
0
280
0
281
0
282
0
283
1
284
8
285
0
286
0
287
3
288
0
0
ENDTAB
0
TABLE
2
BLOCK_RECORD
5
1
100
AcDbSymbolTable
70
0
0
BLOCK_RECORD
5
1B
100
AcDbSymbolTableRecord
100
AcDbBlockTableRecord
2
*MODEL_SPACE
0
BLOCK_RECORD
5
1C
100
AcDbSymbolTableRecord
100
AcDbBlockTableRecord
2
*PAPER_SPACE
0
ENDTAB
0
ENDSEC
0
SECTION
2
BLOCKS
0
BLOCK
5
1E
100
AcDbEntity
8
0
100
AcDbBlockBegin
2
*MODEL_SPACE
70
0
10
0.0
20
0.0
30
0.0
3
*MODEL_SPACE
1

0
ENDBLK
5
1F
100
AcDbEntity
8
0
100
AcDbBlockEnd
0
BLOCK
5
20
100
AcDbEntity
8
0
100
AcDbBlockBegin
2
*PAPER_SPACE
70
0
10
0.0
20
0.0
30
0.0
3
*PAPER_SPACE
1

0
ENDBLK
5
21
100
AcDbEntity
8
0
100
AcDbBlockEnd
0
ENDSEC
0
SECTION
2
ENTITIES
0
LINE
5
207
100
AcDbEntity
8
0
100
AcDbLine
62
7
6
CONTINUOUS
10
46.5410581971
20
90.2087152633
11
47.3418818631
21
90.7749831081
0
LINE
5
208
100
AcDbEntity
8
0
100
AcDbLine
62
7
6
CONTINUOUS
10
49.5423904734
20
6.5279102899
11
48.1281769110
21
7.2350170711
0
LINE
5
209
100
AcDbEntity
8
0
100
AcDbLine
62
7
6
CONTINUOUS
10
44.3443130449
20
11.1475344760
11
45.7966640950
21
10.4213589509
0
LINE
5
20A
100
AcDbEntity
8
0
100
AcDbLine
62
7
6
CONTINUOUS
10
16.3012956137
20
43.5179674489
11
21.2927260541
21
61.8433778690
0
LINE
5
20B
100
AcDbEntity
8
0
100
AcDbLine
62
7
6
CONTINUOUS
10
52.6160658114
20
9.5272345674
11
52.1210910646
21
9.7747219408
0
LINE
5
20C
100
AcDbEntity
8
0
100
AcDbLine
62
9
6
CONTINUOUS
10
47.4182568330
20
15.2939578398
11
46.0040432707
21
16.0010646210
0
LINE
5
20D
100
AcDbEntity
8
0
100
AcDbLine
62
9
6
CONTINUOUS
10
52.6143675949
20
9.5280848706
11
52.6160658114
21
9.5272345674
0
LINE
5
20E
100
AcDbEntity
8
0
100
AcDbLine
62
7
6
CONTINUOUS
10
18.5014501309
20
45.6963442450
11
22.6269192176
21
60.8424862361
0
LINE
5
20F
100
AcDbEntity
8
0
100
AcDbLine
62
7
6
CONTINUOUS
10
30.7503826322
20
68.2159149883
11
21.9750220581
21
63.8282347012
0
LINE
5
210
100
AcDbEntity
8
0
100
AcDbLine
62
9
6
CONTINUOUS
10
30.7244611537
20
67.1949199091
11
22.4288134024
21
63.0470960335
0
LINE
5
211
100
AcDbEntity
8
0
100
AcDbLine
62
7
6
CONTINUOUS
10
56.6409881709
20
17.5770792864
11
56.1460134241
21
17.8245666598
0
LINE
5
212
100
AcDbEntity
8
0
100
AcDbLine
62
7
6
CONTINUOUS
10
62.1273041535
20
77.0604979688
11
62.9281278195
21
77.6267658136
0
LINE
5
213
100
AcDbEntity
8
0
100
AcDbLine
62
9
6
CONTINUOUS
10
32.8939903686
20
51.7014215499
11
32.8939903686
21
50.7534498974
0
LINE
5
214
100
AcDbEntity
8
0
100
AcDbLine
62
9
6
CONTINUOUS
10
34.7324141906
20
50.8826570350
11
34.7324141906
21
50.5050092063
0
LINE
5
215
100
AcDbEntity
8
0
100
AcDbLine
62
7
6
CONTINUOUS
10
44.2502553348
20
79.8284268803
11
44.2502553348
21
85.1977843838
0
LINE
5
216
100
AcDbEntity
8
0
100
AcDbLine
62
7
6
CONTINUOUS
10
44.7345930083
20
75.3440890410
11
44.7345930083
21
71.8799874258
0
LINE
5
217
100
AcDbEntity
8
0
100
AcDbLine
62
9
6
CONTINUOUS
10
50.9252166842
20
48.7988943926
11
62.1352033065
21
54.4038877038
0
LINE
5
218
100
AcDbEntity
8
0
100
AcDbLine
62
7
6
CONTINUOUS
10
48.7345930083
20
75.3440890410
11
48.7345930083
21
76.2853849645
0
LINE
5
219
100
AcDbEntity
8
0
100
AcDbLine
62
7
6
CONTINUOUS
10
48.7345930083
20
88.1612650170
11
48.7345930083
21
96.9947241356
0
LINE
5
21A
100
AcDbEntity
8
0
100
AcDbLine
62
7
6
CONTINUOUS
10
51.9253231956
20
75.9908929500
11
51.9253231956
21
81.3602504534
0
LINE
5
21B
100
AcDbEntity
8
0
100
AcDbLine
62
7
6
CONTINUOUS
10
55.6131976623
20
46.9613443313
11
55.2735511222
21
46.7915210612
0
LINE
5
21C
100
AcDbEntity
8
0
100
AcDbLine
62
9
6
CONTINUOUS
10
55.4459835855
20
44.7667491033
11
65.6330343375
21
49.8602744794
0
LINE
5
21D
100
AcDbEntity
8
0
100
AcDbLine
62
7
6
CONTINUOUS
10
46.0040432707
20
16.0010646210
11
54.4007799363
21
46.8286294687
0
LINE
5
21E
100
AcDbEntity
8
0
100
AcDbLine
62
7
6
CONTINUOUS
10
47.4182568330
20
15.2939578398
11
55.4459835855
21
44.7667491033
0
LINE
5
21F
100
AcDbEntity
8
0
100
AcDbLine
62
7
6
CONTINUOUS
10
60.7345930083
20
75.3440890410
11
60.7345930083
21
76.2852022638
0
LINE
5
220
100
AcDbEntity
8
0
100
AcDbLine
62
7
6
CONTINUOUS
10
60.7345930083
20
88.1612650170
11
60.7345930083
21
96.9947241356
0
LINE
5
221
100
AcDbEntity
8
0
100
AcDbLine
62
7
6
CONTINUOUS
10
62.4096608691
20
77.3955278564
11
62.4096608691
21
82.7648853598
0
LINE
5
222
100
AcDbEntity
8
0
100
AcDbLine
62
7
6
CONTINUOUS
10
64.7345930083
20
75.3440890410
11
64.7345930083
21
71.8799874258
0
LINE
5
223
100
AcDbEntity
8
0
100
AcDbLine
62
7
6
CONTINUOUS
10
65.2189306819
20
82.6376966931
11
65.2189306819
21
88.0070541966
0
LINE
5
224
100
AcDbEntity
8
0
100
AcDbLine
62
9
6
CONTINUOUS
10
65.6330343375
20
49.8602744794
11
65.6330343375
21
15.8973127349
0
LINE
5
225
100
AcDbEntity
8
0
100
AcDbLine
62
9
6
CONTINUOUS
10
67.6063690597
20
50.6262844052
11
67.6063690597
21
17.8994563008
0
LINE
5
226
100
AcDbEntity
8
0
100
AcDbLine
62
9
6
CONTINUOUS
10
54.0816257219
20
16.0314350071
11
54.0818143043
21
16.0316050684
0
LINE
5
227
100
AcDbEntity
8
0
100
AcDbLine
62
7
6
CONTINUOUS
10
79.9845930083
20
61.4876825804
11
79.9845930083
21
57.8204919258
0
LINE
5
228
100
AcDbEntity
8
0
100
AcDbLine
62
7
6
CONTINUOUS
10
54.0145264284
20
6.8119281621
11
55.3129227212
21
7.4611263085
0
SPLINE
5
229
100
AcDbEntity
8
0
100
AcDbSpline
62
7
6
CONTINUOUS
70
0
71
3
72
19
73
15
74
13
42
0.0000001000
43
0.0000001000
44
0.0000000001
12
-39.8185958408
22
1.2895276688
32
0.0000000000
13
-5.1180513347
23
39.5093534100
33
0.0000000000
40
0.0000000000
40
0.0000000000
40
0.0000000000
40
0.0000000000
40
0.1071152227
40
0.2125522788
40
0.3151125637
40
0.4137710256
40
0.5076151283
40
0.5958847599
40
0.6780194729
40
0.7537202623
40
0.8230278158
40
0.8864166059
40
0.9448932459
40
1.0000000000
40
1.0000000000
40
1.0000000000
40
1.0000000000
10
55.2735511222
20
46.7915210612
30
0.0000000000
10
53.8518252021
20
46.8375637424
30
0.0000000000
10
51.0326015199
20
47.0132792608
30
0.0000000000
10
46.8772809147
20
47.5293373652
30
0.0000000000
10
42.8734865915
20
48.2895515807
30
0.0000000000
10
39.0796801422
20
49.2828869632
30
0.0000000000
10
35.5496074457
20
50.4952386993
30
0.0000000000
10
32.3330517770
20
51.9096096207
30
0.0000000000
10
29.4750170471
20
53.5065781734
30
0.0000000000
10
27.0152138477
20
55.2650741079
30
0.0000000000
10
24.9880526694
20
57.1629889515
30
0.0000000000
10
23.4235508935
20
59.1787068161
30
0.0000000000
10
22.3499532658
20
61.2867386397
30
0.0000000000
10
21.9721814203
20
62.7634683704
30
0.0000000000
10
21.8781683548
20
63.4892124449
30
0.0000000000
11
55.2735511222
21
46.7915210612
31
0.0000000000
11
51.0144934338
21
47.0584448172
31
0.0000000000
11
46.8463187804
21
47.5790169796
31
0.0000000000
11
42.8329296959
21
48.3456166625
31
0.0000000000
11
39.0321839404
21
49.3472000753
31
0.0000000000
11
35.4988770963
21
50.5693359429
31
0.0000000000
11
32.2839527057
21
51.9944132367
31
0.0000000000
11
29.4337981181
21
53.6018754320
31
0.0000000000
11
26.9895263829
21
55.3685288540
31
0.0000000000
11
24.9863595574
21
57.2689017318
31
0.0000000000
11
23.4531601916
21
59.2755962740
31
0.0000000000
11
22.4120158667
21
61.3596836007
31
0.0000000000
11
21.8781683548
21
63.4892124449
31
0.0000000000
0
SPLINE
5
22A
100
AcDbEntity
8
0
100
AcDbSpline
62
7
6
CONTINUOUS
70
0
71
3
72
12
73
8
74
6
42
0.0000001000
43
0.0000001000
44
0.0000000001
12
2.6035261094
22
12.7282151633
32
0.0000000000
13
11.5967370791
23
5.7983685395
33
0.0000000000
40
0.0000000000
40
0.0000000000
40
0.0000000000
40
0.0000000000
40
0.1061918251
40
0.2966125388
40
0.5090985575
40
0.7428654586
40
1.0000000000
40
1.0000000000
40
1.0000000000
40
1.0000000000
10
31.4470600487
20
73.9716710914
30
0.0000000000
10
31.5392177784
20
74.4222152243
30
0.0000000000
10
31.8783954060
20
75.6640782946
30
0.0000000000
10
32.8298839817
20
77.6671353142
30
0.0000000000
10
34.5291622137
20
79.8577346760
30
0.0000000000
10
36.8480986575
20
81.8503436781
30
0.0000000000
10
38.6829688746
20
82.9367479622
30
0.0000000000
10
39.6769427646
20
83.4337349072
30
0.0000000000
11
31.4470600487
21
73.9716710914
31
0.0000000000
11
31.8096602148
21
75.3018350744
31
0.0000000000
11
32.8606439714
21
77.5358768456
31
0.0000000000
11
34.5358841012
21
79.7230166679
31
0.0000000000
11
36.8201457108
21
81.7151507076
31
0.0000000000
11
39.6769427646
21
83.4337349072
31
0.0000000000
0
SPLINE
5
22B
100
AcDbEntity
8
0
100
AcDbSpline
62
7
6
CONTINUOUS
70
0
71
3
72
21
73
17
74
15
42
0.0000001000
43
0.0000001000
44
0.0000000001
12
-19.9265921759
22
-9.9632960879
32
0.0000000000
13
-11.5781917592
23
14.2163558764
33
0.0000000000
40
0.0000000000
40
0.0000000000
40
0.0000000000
40
0.0000000000
40
0.0659220205
40
0.1455437976
40
0.2364950596
40
0.3355815117
40
0.4394205191
40
0.5437534348
40
0.6444310266
40
0.7376742871
40
0.8196687252
40
0.8876630286
40
0.9401361767
40
0.9764980575
40
0.9969659744
40
1.0000000000
40
1.0000000000
40
1.0000000000
40
1.0000000000
10
64.4256801061
20
71.0593662365
30
0.0000000000
10
63.9878130333
20
70.8404327001
30
0.0000000000
10
62.9901018787
20
70.4183132666
30
0.0000000000
10
61.3104120582
20
69.8972145966
30
0.0000000000
10
59.3494486053
20
69.4784969958
30
0.0000000000
10
57.1819790193
20
69.2035986249
30
0.0000000000
10
54.9001368770
20
69.0996813534
30
0.0000000000
10
52.6054055372
20
69.1778755054
30
0.0000000000
10
50.4026785462
20
69.4314372961
30
0.0000000000
10
48.3912186516
20
69.8378635613
30
0.0000000000
10
46.6585311267
20
70.3517948848
30
0.0000000000
10
45.2616681868
20
70.9296269656
30
0.0000000000
10
44.2443573535
20
71.4710564158
30
0.0000000000
10
43.5678849124
20
71.9858386792
30
0.0000000000
10
43.2715634070
20
72.2354736045
30
0.0000000000
10
43.1442996716
20
72.4171590072
30
0.0000000000
10
43.1325901615
20
72.4315366031
30
0.0000000000
11
64.4256801061
21
71.0593662365
31
0.0000000000
11
63.0766283260
21
70.4788539664
31
0.0000000000
11
61.3845766784
21
69.9463610519
31
0.0000000000
11
59.4041050892
21
69.5180013085
31
0.0000000000
11
57.2145625938
21
69.2369391495
31
0.0000000000
11
54.9036249744
21
69.1304800625
31
0.0000000000
11
52.5806106546
21
69.2104983263
31
0.0000000000
11
50.3527529156
21
69.4703134833
31
0.0000000000
11
48.3174757625
21
69.8861821911
31
0.0000000000
11
46.5688498810
21
70.4145952794
31
0.0000000000
11
45.1704181086
21
70.9968867161
31
0.0000000000
11
44.1490771315
21
71.5656490769
31
0.0000000000
11
43.4983448843
21
72.0481391736
31
0.0000000000
11
43.1769761805
21
72.3716436282
31
0.0000000000
11
43.1325901615
21
72.4315366031
31
0.0000000000
0
SPLINE
5
22C
100
AcDbEntity
8
0
100
AcDbSpline
62
7
6
CONTINUOUS
70
0
71
3
72
25
73
21
74
19
42
0.0000001000
43
0.0000001000
44
0.0000000001
12
1.1692042235
22
-37.0667443746
32
0.0000000000
13
36.4308029415
23
6.5373954116
33
0.0000000000
40
0.0000000000
40
0.0000000000
40
0.0000000000
40
0.0000000000
40
0.0042603377
40
0.0423968094
40
0.0823521474
40
0.1252945826
40
0.1720269282
40
0.2229944208
40
0.2783393901
40
0.3379629119
40
0.4015778714
40
0.4687511056
40
0.5389366923
40
0.6115030479
40
0.6857559917
40
0.7609593042
40
0.8363538286
40
0.9111758540
40
0.9846753643
40
1.0000000000
40
1.0000000000
40
1.0000000000
40
1.0000000000
10
30.7376722291
20
65.6266198362
30
0.0000000000
10
30.7393326307
20
65.5739808873
30
0.0000000000
10
30.7627863646
20
65.0503808894
30
0.0000000000
10
30.9429919499
20
64.0414713152
30
0.0000000000
10
31.5261657453
20
62.6553159645
30
0.0000000000
10
32.4240477443
20
61.3218677042
30
0.0000000000
10
33.6201786438
20
60.0562677701
30
0.0000000000
10
35.0970638524
20
58.8723175800
30
0.0000000000
10
36.8350046590
20
57.7836183399
30
0.0000000000
10
38.8113043221
20
56.8034382808
30
0.0000000000
10
41.0000846002
20
55.9442383441
30
0.0000000000
10
43.3724749597
20
55.2172337770
30
0.0000000000
10
45.8969800279
20
54.6320650041
30
0.0000000000
10
48.5399280493
20
54.1965637049
30
0.0000000000
10
51.2659584486
20
53.9165897323
30
0.0000000000
10
54.0385302810
20
53.7959213982
30
0.0000000000
10
56.8204438278
20
53.8361897071
30
0.0000000000
10
59.5743650444
20
54.0368495149
30
0.0000000000
10
61.5765610362
20
54.3036679779
30
0.0000000000
10
62.6565132434
20
54.4899375987
30
0.0000000000
10
62.8426095049
20
54.5233319998
30
0.0000000000
11
30.7376722291
21
65.6266198362
31
0.0000000000
11
30.7447462064
21
65.4687929744
31
0.0000000000
11
30.9879936824
21
64.0786272877
31
0.0000000000
11
31.5523731774
21
62.7119810581
31
0.0000000000
11
32.4302524269
21
61.3873358316
31
0.0000000000
11
33.6097596200
21
60.1226051624
31
0.0000000000
11
35.0749439454
21
58.9348923631
31
0.0000000000
11
36.8059912986
21
57.8402592120
31
0.0000000000
11
38.7794922336
21
56.8535087445
31
0.0000000000
11
40.9687585359
21
55.9879850679
31
0.0000000000
11
43.3441841344
21
55.2553929052
31
0.0000000000
11
45.8736454728
21
54.6656393086
31
0.0000000000
11
48.5229359259
21
54.2266996839
31
0.0000000000
11
51.2562283850
21
53.9445099364
31
0.0000000000
11
54.0365597585
21
53.8228861984
31
0.0000000000
11
56.8263308343
21
53.8634732222
31
0.0000000000
11
59.5878147443
21
54.0657221382
31
0.0000000000
11
62.2836671560
21
54.4268978765
31
0.0000000000
11
62.8426095049
21
54.5233319998
31
0.0000000000
0
SPLINE
5
22D
100
AcDbEntity
8
0
100
AcDbSpline
62
7
6
CONTINUOUS
70
0
71
3
72
11
73
7
74
5
42
0.0000001000
43
0.0000001000
44
0.0000000001
12
9.1809047109
22
1.6474850809
32
0.0000000000
13
8.3413519921
23
4.1706759960
33
0.0000000000
40
0.0000000000
40
0.0000000000
40
0.0000000000
40
0.0000000000
40
0.2227484421
40
0.4955699484
40
0.7553062351
40
1.0000000000
40
1.0000000000
40
1.0000000000
40
1.0000000000
10
62.8426095049
20
54.5233319998
30
0.0000000000
10
63.5242869119
20
54.6456569115
30
0.0000000000
10
65.0341478341
20
54.9553500659
30
0.0000000000
10
67.3039827215
20
55.5635863690
30
0.0000000000
10
69.5881853106
20
56.3579215202
30
0.0000000000
10
71.0247968158
20
56.9923487546
30
0.0000000000
10
71.7051557568
20
57.3325282251
30
0.0000000000
11
62.8426095049
21
54.5233319998
31
0.0000000000
11
64.8774312901
21
54.9421161549
31
0.0000000000
11
67.3340309364
21
55.6044095301
31
0.0000000000
11
69.6202447988
21
56.4048216203
31
0.0000000000
11
71.7051557568
21
57.3325282251
31
0.0000000000
0
SPLINE
5
22E
100
AcDbEntity
8
0
100
AcDbSpline
62
7
6
CONTINUOUS
70
0
71
3
72
10
73
6
74
4
42
0.0000001000
43
0.0000001000
44
0.0000000001
12
-0.2672956514
22
8.3872777380
32
0.0000000000
13
1.6804750330
23
8.2215496401
33
0.0000000000
40
0.0000000000
40
0.0000000000
40
0.0000000000
40
0.0000000000
40
0.3334208295
40
0.6669159834
40
1.0000000000
40
1.0000000000
40
1.0000000000
40
1.0000000000
10
30.7376393618
20
65.6266187995
30
0.0000000000
10
30.7079320492
20
66.5587831665
30
0.0000000000
10
30.7210122747
20
68.4264743657
30
0.0000000000
10
30.9580259119
20
71.2161457791
30
0.0000000000
10
31.2602359964
20
73.0583262254
30
0.0000000000
10
31.4468157877
20
73.9711484843
30
0.0000000000
11
30.7376393618
21
65.6266187995
31
0.0000000000
11
30.7572497277
21
68.4244629368
31
0.0000000000
11
30.9942232805
21
71.2129482602
31
0.0000000000
11
31.4468157877
21
73.9711484843
31
0.0000000000
0
SPLINE
5
22F
100
AcDbEntity
8
0
100
AcDbSpline
62
7
6
CONTINUOUS
70
0
71
3
72
9
73
5
74
3
42
0.0000001000
43
0.0000001000
44
0.0000000001
12
4.3874100611
22
2.1937050306
32
0.0000000000
13
4.7118458908
23
1.3724011872
33
0.0000000000
40
0.0000000000
40
0.0000000000
40
0.0000000000
40
0.0000000000
40
0.7009282577
40
1.0000000000
40
1.0000000000
40
1.0000000000
40
1.0000000000
10
39.6769427646
20
83.4337349072
30
0.0000000000
10
40.7020293278
20
83.9462781889
30
0.0000000000
10
42.2193359420
20
84.5707077471
30
0.0000000000
10
43.7793765950
20
85.0649206922
30
0.0000000000
10
44.2491032484
20
85.2017361636
30
0.0000000000
11
39.6769427646
21
83.4337349072
31
0.0000000000
11
42.8500707420
21
84.7576633564
31
0.0000000000
11
44.2491032484
21
85.2017361636
31
0.0000000000
0
SPLINE
5
230
100
AcDbEntity
8
0
100
AcDbSpline
62
7
6
CONTINUOUS
70
0
71
3
72
14
73
10
74
8
42
0.0000001000
43
0.0000001000
44
0.0000000001
12
17.1707549976
22
-4.9990247071
32
0.0000000000
13
3.5880675067
23
-17.5449824644
33
0.0000000000
40
0.0000000000
40
0.0000000000
40
0.0000000000
40
0.0000000000
40
0.1347116902
40
0.3225918649
40
0.4992017679
40
0.6560401215
40
0.7985709945
40
0.9295110842
40
1.0000000000
40
1.0000000000
40
1.0000000000
40
1.0000000000
10
65.2194185598
20
85.2018831692
30
0.0000000000
10
65.9904523690
20
84.9774074801
30
0.0000000000
10
67.8162093836
20
84.3691621437
30
0.0000000000
10
70.5333990003
20
83.1378188532
30
0.0000000000
10
73.1541908999
20
81.4452683412
30
0.0000000000
10
75.2471439651
20
79.5084989908
30
0.0000000000
10
76.7718191156
20
77.4261381439
30
0.0000000000
10
77.6269066496
20
75.5476298165
30
0.0000000000
10
77.9378455953
20
74.3838533805
30
0.0000000000
10
78.0221519248
20
73.9716111165
30
0.0000000000
11
65.2194185598
21
85.2018831692
31
0.0000000000
11
67.5031107230
21
84.4367199125
31
0.0000000000
11
70.5544634900
21
83.0344817231
31
0.0000000000
11
73.1946555565
21
81.3041487511
31
0.0000000000
11
75.2398900023
21
79.3869967706
31
0.0000000000
11
76.7343527188
21
77.3238272114
31
0.0000000000
11
77.6969780378
21
75.1905676783
31
0.0000000000
11
78.0221519248
21
73.9716111165
31
0.0000000000
0
SPLINE
5
231
100
AcDbEntity
8
0
100
AcDbSpline
62
7
6
CONTINUOUS
70
0
71
3
72
11
73
7
74
5
42
0.0000001000
43
0.0000001000
44
0.0000000001
12
-0.8699429421
22
-24.6788745570
32
0.0000000000
13
-7.0047490892
23
-23.6798889423
33
0.0000000000
40
0.0000000000
40
0.0000000000
40
0.0000000000
40
0.0000000000
40
0.2136256059
40
0.4520976132
40
0.7159906624
40
1.0000000000
40
1.0000000000
40
1.0000000000
40
1.0000000000
10
79.9434576867
20
56.0041885509
30
0.0000000000
10
79.8815103240
20
54.2468420412
30
0.0000000000
10
79.6088159839
20
50.5319509939
30
0.0000000000
10
78.7933360409
20
44.6913199510
30
0.0000000000
10
77.5053519771
20
38.3438835691
30
0.0000000000
10
76.3481787396
20
33.9817147272
30
0.0000000000
10
75.6850406899
20
31.7399448694
30
0.0000000000
11
79.9434576867
21
56.0041885509
31
0.0000000000
11
79.5697199668
21
50.7421301899
31
0.0000000000
11
78.7658101623
21
44.9083843288
31
0.0000000000
11
77.4780370806
21
38.5202635534
31
0.0000000000
11
75.6850406899
21
31.7399448694
31
0.0000000000
0
SPLINE
5
232
100
AcDbEntity
8
0
100
AcDbSpline
62
7
6
CONTINUOUS
70
0
71
3
72
19
73
15
74
13
42
0.0000001000
43
0.0000001000
44
0.0000000001
12
11.9719710533
22
10.9494164636
32
0.0000000000
13
4.6020910936
23
15.5575888030
33
0.0000000000
40
0.0000000000
40
0.0000000000
40
0.0000000000
40
0.0000000000
40
0.0682626293
40
0.1366948569
40
0.2051234639
40
0.2734193996
40
0.3420711052
40
0.4129915633
40
0.4882159360
40
0.5697459059
40
0.6595372163
40
0.7598457670
40
0.8727365655
40
1.0000000000
40
1.0000000000
40
1.0000000000
40
1.0000000000
10
67.6063690597
20
17.8994563008
30
0.0000000000
10
67.8787818006
20
18.1486016200
30
0.0000000000
10
68.4122069386
20
18.6608937543
30
0.0000000000
10
69.1750683850
20
19.4667870951
30
0.0000000000
10
69.8999440620
20
20.3072514100
30
0.0000000000
10
70.5872672020
20
21.1801600446
30
0.0000000000
10
71.2442276722
20
22.0927766897
30
0.0000000000
10
71.8827968487
20
23.0635358496
30
0.0000000000
10
72.5157842790
20
24.1200582023
30
0.0000000000
10
73.1516470312
20
25.2924604812
30
0.0000000000
10
73.7946056416
20
26.6137936085
30
0.0000000000
10
74.4437380807
20
28.1189538107
30
0.0000000000
10
75.0922167553
20
29.8429200828
30
0.0000000000
10
75.4898147171
20
31.0799741415
30
0.0000000000
10
75.6850406899
20
31.7399448694
30
0.0000000000
11
67.6063690597
21
17.8994563008
31
0.0000000000
11
68.4052976182
21
18.6664321684
31
0.0000000000
11
69.1687257443
21
19.4725454063
31
0.0000000000
11
69.8940214407
21
20.3130552388
31
0.0000000000
11
70.5797352229
21
21.1834187364
31
0.0000000000
11
71.2307236661
21
22.0871745182
31
0.0000000000
11
71.8633705895
21
23.0482507344
31
0.0000000000
11
72.4909923405
21
24.0949422899
31
0.0000000000
11
73.1221130309
21
25.2574100383
31
0.0000000000
11
73.7601842715
21
26.5670104675
31
0.0000000000
11
74.4055626299
21
28.0609760487
31
0.0000000000
11
75.0516219856
21
29.7747854296
31
0.0000000000
11
75.6850406899
21
31.7399448694
31
0.0000000000
0
SPLINE
5
233
100
AcDbEntity
8
0
100
AcDbSpline
62
7
6
CONTINUOUS
70
0
71
3
72
12
73
8
74
6
42
0.0000001000
43
0.0000001000
44
0.0000000001
12
1.5508923779
22
3.9832005294
32
0.0000000000
13
-2.3708395475
23
-1.1854197737
33
0.0000000000
40
0.0000000000
40
0.0000000000
40
0.0000000000
40
0.0000000000
40
0.1113319018
40
0.1211903099
40
0.2817586134
40
0.5734671422
40
1.0000000000
40
1.0000000000
40
1.0000000000
40
1.0000000000
10
66.2809895633
20
72.1610081979
30
0.0000000000
10
66.3385441626
20
72.3088272946
30
0.0000000000
10
66.4069808623
20
72.4825754448
30
0.0000000000
10
66.2076382659
20
72.3045512591
30
0.0000000000
10
65.9636605183
20
71.9953915632
30
0.0000000000
10
65.3065277933
20
71.5444061385
30
0.0000000000
10
64.7627604286
20
71.2279063977
30
0.0000000000
10
64.4256801061
20
71.0593662365
30
0.0000000000
11
66.2809895633
21
72.1610081979
31
0.0000000000
11
66.3341687139
21
72.4168047847
31
0.0000000000
11
66.3143670447
21
72.3997534506
31
0.0000000000
11
66.0203633856
21
72.0920035048
31
0.0000000000
11
65.4062379178
21
71.6221865860
31
0.0000000000
11
64.4256801061
21
71.0593662365
31
0.0000000000
0
SPLINE
5
234
100
AcDbEntity
8
0
100
AcDbSpline
62
7
6
CONTINUOUS
70
0
71
3
72
11
73
7
74
5
42
0.0000001000
43
0.0000001000
44
0.0000000001
12
-8.8447350740
22
-10.0605983606
32
0.0000000000
13
-11.8190313329
23
-6.3051943868
33
0.0000000000
40
0.0000000000
40
0.0000000000
40
0.0000000000
40
0.0000000000
40
0.2651106562
40
0.5214313591
40
0.7668876851
40
1.0000000000
40
1.0000000000
40
1.0000000000
40
1.0000000000
10
65.6330343375
20
15.8973127349
30
0.0000000000
10
64.8514231644
20
15.0082554572
30
0.0000000000
10
63.2474672192
20
13.3166689156
30
0.0000000000
10
60.6936801296
20
11.0293463711
30
0.0000000000
10
58.0622221351
20
9.0615622270
30
0.0000000000
10
56.2313099724
20
7.9510657949
30
0.0000000000
10
55.3129227212
20
7.4611263085
30
0.0000000000
11
65.6330343375
21
15.8973127349
31
0.0000000000
11
63.1861917120
21
13.3234030654
31
0.0000000000
11
60.6246772094
21
11.0368701376
31
0.0000000000
11
57.9871703904
21
9.0734792458
31
0.0000000000
11
55.3129227212
21
7.4611263085
31
0.0000000000
0
SPLINE
5
235
100
AcDbEntity
8
0
100
AcDbSpline
62
7
6
CONTINUOUS
70
0
71
3
72
11
73
7
74
5
42
0.0000001000
43
0.0000001000
44
0.0000000001
12
-4.1457679848
22
-2.0728839924
32
0.0000000000
13
-4.1642334338
23
2.0814718663
33
0.0000000000
40
0.0000000000
40
0.0000000000
40
0.0000000000
40
0.0000000000
40
0.3146059701
40
0.6000905582
40
0.8641778868
40
1.0000000000
40
1.0000000000
40
1.0000000000
40
1.0000000000
10
54.0145264284
20
6.8119281621
30
0.0000000000
10
53.5797653088
20
6.5945476023
30
0.0000000000
10
52.7096708942
20
6.2526189579
30
0.0000000000
10
51.3746157026
20
6.0582364438
30
0.0000000000
10
50.3091982397
20
6.2027007437
30
0.0000000000
10
49.7310027928
20
6.4340903572
30
0.0000000000
10
49.5424711311
20
6.5283269930
30
0.0000000000
11
54.0145264284
21
6.8119281621
31
0.0000000000
11
52.6517865779
21
6.2929060531
31
0.0000000000
11
51.3401394177
21
6.1180390767
31
0.0000000000
11
50.1287620393
21
6.2938834542
31
0.0000000000
11
49.5424711311
21
6.5283269930
31
0.0000000000
0
SPLINE
5
236
100
AcDbEntity
8
0
100
AcDbSpline
62
7
6
CONTINUOUS
70
0
71
3
72
14
73
10
74
8
42
0.0000001000
43
0.0000001000
44
0.0000000001
12
-0.3660377686
22
-11.4043554864
32
0.0000000000
13
-10.1823152998
23
-5.0911576499
33
0.0000000000
40
0.0000000000
40
0.0000000000
40
0.0000000000
40
0.0000000000
40
0.0753671167
40
0.2017506920
40
0.3360845244
40
0.4815858565
40
0.6402663930
40
0.8130555249
40
1.0000000000
40
1.0000000000
40
1.0000000000
40
1.0000000000
10
78.7313818966
20
65.6266240876
30
0.0000000000
10
78.7221861595
20
65.3401196239
30
0.0000000000
10
78.6430457468
20
64.5748279064
30
0.0000000000
10
78.2749493295
20
63.3428802184
30
0.0000000000
10
77.5324008345
20
61.9809974322
30
0.0000000000
10
76.4833039832
20
60.6797180458
30
0.0000000000
10
75.1444676552
20
59.4532219527
30
0.0000000000
10
73.5345442067
20
58.3152677259
30
0.0000000000
10
72.3396649533
20
57.6497828233
30
0.0000000000
10
71.7051557568
20
57.3325282251
30
0.0000000000
11
78.7313818966
21
65.6266240876
31
0.0000000000
11
78.6432657625
21
64.7719406864
31
0.0000000000
11
78.2387679307
21
63.3911987314
31
0.0000000000
11
77.5164164541
21
62.0432725255
31
0.0000000000
11
76.4859798972
21
60.7463904585
31
0.0000000000
11
75.1613931468
21
59.5180906353
31
0.0000000000
11
73.5605689664
21
58.3749837041
31
0.0000000000
11
71.7051557568
21
57.3325282251
31
0.0000000000
0
SPLINE
5
237
100
AcDbEntity
8
0
100
AcDbSpline
62
7
6
CONTINUOUS
70
0
71
3
72
10
73
6
74
4
42
0.0000001000
43
0.0000001000
44
0.0000000001
12
1.6804750321
22
-8.2215496354
32
0.0000000000
13
-0.2672956513
23
-8.3872777333
33
0.0000000000
40
0.0000000000
40
0.0000000000
40
0.0000000000
40
0.0000000000
40
0.3324998176
40
0.6659349862
40
1.0000000000
40
1.0000000000
40
1.0000000000
40
1.0000000000
10
78.0223702290
20
73.9711484843
30
0.0000000000
10
78.2086227762
20
73.0599272329
30
0.0000000000
10
78.5106653981
20
71.2195559064
30
0.0000000000
10
78.7480792332
20
68.4299198249
30
0.0000000000
10
78.7613113633
20
66.5605841501
30
0.0000000000
10
78.7315466548
20
65.6266187995
30
0.0000000000
11
78.0223702290
21
73.9711484843
31
0.0000000000
11
78.4743570641
21
71.2178167710
31
0.0000000000
11
78.7116877790
21
68.4298670138
31
0.0000000000
11
78.7315466548
21
65.6266187995
31
0.0000000000
0
SPLINE
5
238
100
AcDbEntity
8
0
100
AcDbSpline
62
7
6
CONTINUOUS
70
0
71
3
72
11
73
7
74
5
42
0.0000001000
43
0.0000001000
44
0.0000000001
12
-0.0000022565
22
3.0678727947
32
0.0000000000
13
2.3601977972
23
1.9491288025
33
0.0000000000
40
0.0000000000
40
0.0000000000
40
0.0000000000
40
0.0000000000
40
0.2589740886
40
0.5357728201
40
0.8436407133
40
1.0000000000
40
1.0000000000
40
1.0000000000
40
1.0000000000
10
44.7345930083
20
75.3440890410
30
0.0000000000
10
44.7345928136
20
75.6089222279
30
0.0000000000
10
44.8242049468
20
76.1568162108
30
0.0000000000
10
45.2112063288
20
76.9364661701
30
0.0000000000
10
45.7042310745
20
77.5162216393
30
0.0000000000
10
46.0574172368
20
77.8323172765
30
0.0000000000
10
46.1804301849
20
77.9339054062
30
0.0000000000
11
44.7345930083
21
75.3440890410
31
0.0000000000
11
44.8577096024
21
76.1262613662
31
0.0000000000
11
45.2240278454
21
76.8891740129
31
0.0000000000
11
45.8245277665
21
77.6140415397
31
0.0000000000
11
46.1804301849
21
77.9339054062
31
0.0000000000
0
SPLINE
5
239
100
AcDbEntity
8
0
100
AcDbSpline
62
7
6
CONTINUOUS
70
0
71
3
72
10
73
6
74
4
42
0.0000001000
43
0.0000001000
44
0.0000000001
12
1.8569202918
22
2.1121864122
32
0.0000000000
13
2.0753058395
23
1.8980490201
33
0.0000000000
40
0.0000000000
40
0.0000000000
40
0.0000000000
40
0.0000000000
40
0.3187253195
40
0.6524460079
40
1.0000000000
40
1.0000000000
40
1.0000000000
40
1.0000000000
10
65.6330343375
20
15.8973127349
30
0.0000000000
10
65.8303168420
20
16.1217151646
30
0.0000000000
10
66.2435158473
20
16.5729271997
30
0.0000000000
10
66.9018058221
20
17.2406249610
30
0.0000000000
10
67.3659421166
20
17.6795647961
30
0.0000000000
10
67.6063690597
20
17.8994563008
30
0.0000000000
11
65.6330343375
21
15.8973127349
31
0.0000000000
11
66.2379089241
21
16.5588399587
31
0.0000000000
11
66.8964571232
21
17.2275623050
31
0.0000000000
11
67.6063690597
21
17.8994563008
31
0.0000000000
0
SPLINE
5
23A
100
AcDbEntity
8
0
100
AcDbSpline
62
7
6
CONTINUOUS
70
0
71
3
72
16
73
12
74
10
42
0.0000001000
43
0.0000001000
44
0.0000000001
12
4.5806621918
22
3.2357553176
32
0.0000000000
13
1.5217576917
23
5.3855887500
33
0.0000000000
40
0.0000000000
40
0.0000000000
40
0.0000000000
40
0.0000000000
40
0.0200167381
40
0.0887212458
40
0.1683726502
40
0.2614580280
40
0.3698027181
40
0.4949829776
40
0.6390591941
40
0.8054380537
40
1.0000000000
40
1.0000000000
40
1.0000000000
40
1.0000000000
10
62.9151954278
20
77.6176181449
30
0.0000000000
10
62.9457587329
20
77.6392079005
30
0.0000000000
10
63.0779212088
20
77.7395966152
30
0.0000000000
10
63.3010501113
20
77.9628574300
30
0.0000000000
10
63.5696756945
20
78.3258358560
30
0.0000000000
10
63.8345320155
20
78.7792385533
30
0.0000000000
10
64.0991747614
20
79.3285668783
30
0.0000000000
10
64.3669837499
20
79.9804059484
30
0.0000000000
10
64.6421964366
20
80.7452698094
30
0.0000000000
10
64.9309280364
20
81.6421764915
30
0.0000000000
10
65.1202386358
20
82.2884198168
30
0.0000000000
10
65.2189306819
20
82.6376966931
30
0.0000000000
11
62.9151954278
21
77.6176181449
31
0.0000000000
11
63.0046515237
21
77.6853843659
31
0.0000000000
11
63.2797782547
21
77.9539860176
31
0.0000000000
11
63.5484737412
21
78.3096679584
31
0.0000000000
11
63.8144750759
21
78.7575856716
31
0.0000000000
11
64.0804547860
21
79.3024806473
31
0.0000000000
11
64.3490724292
21
79.9495022166
31
0.0000000000
11
64.6240933758
21
80.7074660386
31
0.0000000000
11
64.9111924356
21
81.5932316250
31
0.0000000000
11
65.2189306819
21
82.6376966931
31
0.0000000000
0
SPLINE
5
23B
100
AcDbEntity
8
0
100
AcDbSpline
62
7
6
CONTINUOUS
70
0
71
3
72
9
73
5
74
3
42
0.0000001000
43
0.0000001000
44
0.0000000001
12
-1.3037594103
22
0.9221994423
32
0.0000000000
13
-1.4601190984
23
0.6459365431
33
0.0000000000
40
0.0000000000
40
0.0000000000
40
0.0000000000
40
0.0000000000
40
0.3942120208
40
1.0000000000
40
1.0000000000
40
1.0000000000
40
1.0000000000
10
62.1274788371
20
90.7749189482
30
0.0000000000
10
61.9561596265
20
90.8960996501
30
0.0000000000
10
61.5063798006
20
91.1820340015
30
0.0000000000
10
61.0300037402
20
91.4209507450
30
0.0000000000
10
60.7351628742
20
91.5513842761
30
0.0000000000
11
62.1274788371
21
90.7749189482
31
0.0000000000
11
61.5974092605
21
91.1142304842
31
0.0000000000
11
60.7351628742
21
91.5513842761
31
0.0000000000
0
SPLINE
5
23C
100
AcDbEntity
8
0
100
AcDbSpline
62
7
6
CONTINUOUS
70
0
71
3
72
8
73
4
74
2
42
0.0000001000
43
0.0000001000
44
0.0000000001
12
-0.4061677316
22
-0.1797506980
32
0.0000000000
13
-0.3970791800
23
-0.1985395900
33
0.0000000000
40
0.0000000000
40
0.0000000000
40
0.0000000000
40
0.0000000000
40
1.0000000000
40
1.0000000000
40
1.0000000000
40
1.0000000000
10
48.7340798225
20
91.5514384167
30
0.0000000000
10
48.5986905786
20
91.4915215173
30
0.0000000000
10
48.4646770804
20
91.4285827076
30
0.0000000000
10
48.3323173538
20
91.3624028443
30
0.0000000000
11
48.7340798225
21
91.5514384167
31
0.0000000000
11
48.3323173538
21
91.3624028443
31
0.0000000000
0
SPLINE
5
23D
100
AcDbEntity
8
0
100
AcDbSpline
62
7
6
CONTINUOUS
70
0
71
3
72
19
73
15
74
13
42
0.0000001000
43
0.0000001000
44
0.0000000001
12
11.7122747644
22
-8.2845448095
32
0.0000000000
13
12.8212582947
23
6.4106291473
33
0.0000000000
40
0.0000000000
40
0.0000000000
40
0.0000000000
40
0.0000000000
40
0.0438819650
40
0.1185146802
40
0.1994783845
40
0.2858072444
40
0.3762668638
40
0.4694389937
40
0.5637932331
40
0.6577521385
40
0.7497538829
40
0.8383157069
40
0.9221016997
40
1.0000000000
40
1.0000000000
40
1.0000000000
40
1.0000000000
10
47.3417071796
20
77.0605621287
30
0.0000000000
10
47.5130263902
20
76.9393814268
30
0.0000000000
10
47.9918945008
20
76.6349550503
30
0.0000000000
10
48.8486459324
20
76.2122636548
30
0.0000000000
10
49.9364136369
20
75.8153870069
30
0.0000000000
10
51.1294564647
20
75.5032471186
30
0.0000000000
10
52.4018052636
20
75.2826552236
30
0.0000000000
10
53.7255560291
20
75.1584910946
30
0.0000000000
10
55.0715583424
20
75.1335184892
30
0.0000000000
10
56.4101323019
20
75.2082969899
30
0.0000000000
10
57.7117526211
20
75.3811507100
30
0.0000000000
10
58.9478725031
20
75.6482710723
30
0.0000000000
10
60.0912359639
20
76.0036786197
30
0.0000000000
10
60.8039505867
20
76.3066191945
30
0.0000000000
10
61.1368686629
20
76.4730782326
30
0.0000000000
11
47.3417071796
21
77.0605621287
31
0.0000000000
11
47.8717767562
21
76.7212505926
31
0.0000000000
11
48.8286620738
21
76.2428079338
31
0.0000000000
11
49.9174761293
21
75.8410172623
31
0.0000000000
11
51.1138966158
21
75.5248539177
31
0.0000000000
11
52.3911974767
21
75.3013804668
31
0.0000000000
11
53.7208459215
21
75.1755889371
31
0.0000000000
11
55.0731398010
21
75.1502893036
31
0.0000000000
11
56.4178711045
21
75.2260467183
31
0.0000000000
11
57.7250007570
21
75.4011688857
31
0.0000000000
11
58.9653296418
21
75.6717438660
31
0.0000000000
11
60.1111508613
21
76.0317274612
31
0.0000000000
11
61.1368686629
21
76.4730782326
31
0.0000000000
0
SPLINE
5
23E
100
AcDbEntity
8
0
100
AcDbSpline
62
7
6
CONTINUOUS
70
0
71
3
72
8
73
4
74
2
42
0.0000001000
43
0.0000001000
44
0.0000000001
12
0.3307502138
22
0.6687908255
32
0.0000000000
13
0.3241919082
23
0.6719757850
33
0.0000000000
40
0.0000000000
40
0.0000000000
40
0.0000000000
40
0.0000000000
40
1.0000000000
40
1.0000000000
40
1.0000000000
40
1.0000000000
10
41.7564658544
20
47.8701061716
30
0.0000000000
10
41.8667159257
20
48.0930364467
30
0.0000000000
10
41.9759216964
20
48.3164804531
30
0.0000000000
10
42.0839856658
20
48.5404723815
30
0.0000000000
11
41.7564658544
21
47.8701061716
31
0.0000000000
11
42.0839856658
21
48.5404723815
31
0.0000000000
0
SPLINE
5
23F
100
AcDbEntity
8
0
100
AcDbSpline
62
7
6
CONTINUOUS
70
0
71
3
72
16
73
12
74
10
42
0.0000001000
43
0.0000001000
44
0.0000000001
12
-4.5806621918
22
-3.2357553176
32
0.0000000000
13
-1.5217576917
23
-5.3855887500
33
0.0000000000
40
0.0000000000
40
0.0000000000
40
0.0000000000
40
0.0000000000
40
0.0200167381
40
0.0887212458
40
0.1683726502
40
0.2614580280
40
0.3698027181
40
0.4949829776
40
0.6390591941
40
0.8054380537
40
1.0000000000
40
1.0000000000
40
1.0000000000
40
1.0000000000
10
46.5539905889
20
90.2178629320
30
0.0000000000
10
46.5234272838
20
90.1962731764
30
0.0000000000
10
46.3912648079
20
90.0958844616
30
0.0000000000
10
46.1681359054
20
89.8726236469
30
0.0000000000
10
45.8995103222
20
89.5096452209
30
0.0000000000
10
45.6346540012
20
89.0562425236
30
0.0000000000
10
45.3700112553
20
88.5069141986
30
0.0000000000
10
45.1022022668
20
87.8550751285
30
0.0000000000
10
44.8269895801
20
87.0902112675
30
0.0000000000
10
44.5382579803
20
86.1933045854
30
0.0000000000
10
44.3489473809
20
85.5470612601
30
0.0000000000
10
44.2502553348
20
85.1977843838
30
0.0000000000
11
46.5539905889
21
90.2178629320
31
0.0000000000
11
46.4645344930
21
90.1500967110
31
0.0000000000
11
46.1894077620
21
89.8814950593
31
0.0000000000
11
45.9207122755
21
89.5258131185
31
0.0000000000
11
45.6547109408
21
89.0778954053
31
0.0000000000
11
45.3887312307
21
88.5330004296
31
0.0000000000
11
45.1201135875
21
87.8859788603
31
0.0000000000
11
44.8450926409
21
87.1280150382
31
0.0000000000
11
44.5579935811
21
86.2422494518
31
0.0000000000
11
44.2502553348
21
85.1977843838
31
0.0000000000
0
SPLINE
5
240
100
AcDbEntity
8
0
100
AcDbSpline
62
7
6
CONTINUOUS
70
0
71
3
72
24
73
20
74
18
42
0.0000001000
43
0.0000001000
44
0.0000000001
12
-0.0000011189
22
11.6697638965
32
0.0000000000
13
-10.4005940081
23
-5.2002970041
33
0.0000000000
40
0.0000000000
40
0.0000000000
40
0.0000000000
40
0.0000000000
40
0.0184050192
40
0.0563168633
40
0.0972756940
40
0.1426239378
40
0.1930533835
40
0.2487148276
40
0.3093506016
40
0.3744026151
40
0.4430934459
40
0.5144885973
40
0.5875473786
40
0.6611674490
40
0.7342262303
40
0.8056213817
40
0.8743122125
40
0.9393642260
40
1.0000000000
40
1.0000000000
40
1.0000000000
40
1.0000000000
10
60.7344722165
20
96.9947241356
30
0.0000000000
10
60.7344722096
20
97.0663182116
30
0.0000000000
10
60.7190030205
20
97.2853863593
30
0.0000000000
10
60.6105246842
20
97.6514147507
30
0.0000000000
10
60.3598819840
20
98.0675006121
30
0.0000000000
10
59.9964203979
20
98.4574136682
30
0.0000000000
10
59.5285664839
20
98.8155244931
30
0.0000000000
10
58.9655637376
20
99.1360937010
30
0.0000000000
10
58.3182798922
20
99.4134035696
30
0.0000000000
10
57.5993491615
20
99.6421781278
30
0.0000000000
10
56.8229839678
20
99.8179123709
30
0.0000000000
10
56.0046685698
20
99.9370833994
30
0.0000000000
10
55.1608102657
20
99.9972803303
30
0.0000000000
10
54.3083760411
20
99.9972805551
30
0.0000000000
10
53.4645160247
20
99.9370827372
30
0.0000000000
10
52.6462072323
20
99.8179147009
30
0.0000000000
10
51.8698187010
20
99.6421699875
30
0.0000000000
10
51.1509681602
20
99.4134313813
30
0.0000000000
10
50.7021683437
20
99.2211524904
30
0.0000000000
10
50.4919523212
20
99.1160444791
30
0.0000000000
11
60.7344722165
21
96.9947241356
31
0.0000000000
11
60.7193056960
21
97.2087416852
31
0.0000000000
11
60.5974742042
21
97.6324200042
31
0.0000000000
11
60.3562913583
21
98.0431166744
31
0.0000000000
11
60.0006669457
21
98.4324710957
31
0.0000000000
11
59.5378404539
21
98.7925571351
31
0.0000000000
11
58.9772336955
21
99.1160444791
31
0.0000000000
11
58.3302590074
21
99.3963478584
31
0.0000000000
11
57.6100869287
21
99.6277611043
31
0.0000000000
11
56.8313780859
21
99.8055733106
31
0.0000000000
11
56.0099847457
21
99.9261647335
31
0.0000000000
11
55.1626281075
21
99.9870804794
31
0.0000000000
11
54.3065579092
21
99.9870804794
31
0.0000000000
11
53.4592012710
21
99.9261647335
31
0.0000000000
11
52.6378079308
21
99.8055733106
31
0.0000000000
11
51.8590990880
21
99.6277611043
31
0.0000000000
11
51.1389270093
21
99.3963478584
31
0.0000000000
11
50.4919523212
21
99.1160444791
31
0.0000000000
0
SPLINE
5
241
100
AcDbEntity
8
0
100
AcDbSpline
62
7
6
CONTINUOUS
70
0
71
3
72
10
73
6
74
4
42
0.0000001000
43
0.0000001000
44
0.0000000001
12
-0.8508967084
22
-1.2981302562
32
0.0000000000
13
-0.4072880656
23
-1.4953070168
33
0.0000000000
40
0.0000000000
40
0.0000000000
40
0.0000000000
40
0.0000000000
40
0.0925577993
40
0.5375232299
40
1.0000000000
40
1.0000000000
40
1.0000000000
40
1.0000000000
10
21.9168936450
20
63.2564897242
30
0.0000000000
10
21.8906412694
20
63.2164390309
30
0.0000000000
10
21.7421093101
20
62.9812771424
30
0.0000000000
10
21.5079652737
20
62.5189731205
30
0.0000000000
10
21.3555131438
20
62.0738927888
30
0.0000000000
10
21.2927260541
20
61.8433778690
30
0.0000000000
11
21.9168936450
21
63.2564897242
31
0.0000000000
11
21.8401612056
21
63.1350570586
31
0.0000000000
11
21.5264969320
21
62.5209214460
31
0.0000000000
11
21.2927260541
21
61.8433778690
31
0.0000000000
0
SPLINE
5
242
100
AcDbEntity
8
0
100
AcDbSpline
62
7
6
CONTINUOUS
70
0
71
3
72
9
73
5
74
3
42
0.0000001000
43
0.0000001000
44
0.0000000001
12
0.0639978915
22
1.8155166966
32
0.0000000000
13
0.0003642248
23
1.8167342378
33
0.0000000000
40
0.0000000000
40
0.0000000000
40
0.0000000000
40
0.0000000000
40
0.5062525944
40
1.0000000000
40
1.0000000000
40
1.0000000000
40
1.0000000000
10
79.9434576925
20
56.0041885480
30
0.0000000000
10
79.9542573920
20
56.3105585607
30
0.0000000000
10
79.9744807537
20
56.9157753913
30
0.0000000000
10
79.9845321231
20
57.5212995106
30
0.0000000000
10
79.9845920681
20
57.8203021161
30
0.0000000000
11
79.9434576925
21
56.0041885480
31
0.0000000000
11
79.9721266535
21
56.9234224976
31
0.0000000000
11
79.9845920681
21
57.8203021161
31
0.0000000000
0
SPLINE
5
243
100
AcDbEntity
8
0
100
AcDbSpline
62
7
6
CONTINUOUS
70
0
71
3
72
10
73
6
74
4
42
0.0000001000
43
0.0000001000
44
0.0000000001
12
5.5869041709
22
0.5182363299
32
0.0000000000
13
5.0185307798
23
2.5092653897
33
0.0000000000
40
0.0000000000
40
0.0000000000
40
0.0000000000
40
0.0000000000
40
0.3160233421
40
0.6491919701
40
1.0000000000
40
1.0000000000
40
1.0000000000
40
1.0000000000
10
45.2572368700
20
-6.0871582524
30
0.0000000000
10
45.8457675793
20
-6.0325666601
30
0.0000000000
10
47.0478544700
20
-5.8320577674
30
0.0000000000
10
48.8414221614
20
-5.2870308623
30
0.0000000000
10
50.0164432299
20
-4.7733547650
30
0.0000000000
10
50.6032901952
20
-4.4799312823
30
0.0000000000
11
45.2572368700
21
-6.0871582524
31
0.0000000000
11
47.0071693167
21
-5.8010215437
31
0.0000000000
11
48.7975088957
21
-5.2632155256
31
0.0000000000
11
50.6032901952
21
-4.4799312823
31
0.0000000000
0
SPLINE
5
244
100
AcDbEntity
8
0
100
AcDbSpline
62
7
6
CONTINUOUS
70
0
71
3
72
8
73
4
74
2
42
0.0000001000
43
0.0000001000
44
0.0000000001
12
0.4326222625
22
0.2163111312
32
0.0000000000
13
0.4272461137
23
0.2270921586
33
0.0000000000
40
0.0000000000
40
0.0000000000
40
0.0000000000
40
0.0000000000
40
1.0000000000
40
1.0000000000
40
1.0000000000
40
1.0000000000
10
50.6032901951
20
-4.4799312824
30
0.0000000000
10
50.7474976159
20
-4.4078275720
30
0.0000000000
10
50.8908149560
20
-4.3338882493
30
0.0000000000
10
51.0332303273
20
-4.2581908631
30
0.0000000000
11
50.6032901951
21
-4.4799312824
31
0.0000000000
11
51.0332303273
21
-4.2581908631
31
0.0000000000
0
SPLINE
5
245
100
AcDbEntity
8
0
100
AcDbSpline
62
7
6
CONTINUOUS
70
0
71
3
72
15
73
11
74
9
42
0.0000001000
43
0.0000001000
44
0.0000000001
12
22.6097384364
22
12.0176501111
32
0.0000000000
13
6.7943845828
23
24.6905960107
33
0.0000000000
40
0.0000000000
40
0.0000000000
40
0.0000000000
40
0.0000000000
40
0.1024804116
40
0.2317458512
40
0.3675886202
40
0.5083040056
40
0.6520755016
40
0.7968154552
40
0.9404258336
40
1.0000000000
40
1.0000000000
40
1.0000000000
40
1.0000000000
10
51.0332303273
20
-4.2581908631
30
0.0000000000
10
51.8055820942
20
-3.8476662865
30
0.0000000000
10
53.4921630736
20
-2.8023904363
30
0.0000000000
10
55.9368093461
20
-0.8253218843
30
0.0000000000
10
58.3557193106
20
1.6628692216
30
0.0000000000
10
60.5660216996
20
4.4953648578
30
0.0000000000
10
62.5171719151
20
7.6017681597
30
0.0000000000
10
64.1640497573
20
10.9070808723
30
0.0000000000
10
65.2217076555
20
13.6861119050
30
0.0000000000
10
65.7190909900
20
15.3481474192
30
0.0000000000
10
65.8540142559
20
15.8384546441
30
0.0000000000
11
51.0332303273
21
-4.2581908631
31
0.0000000000
11
53.2688047561
21
-2.8838649164
31
0.0000000000
11
55.8495767864
21
-0.8132538367
31
0.0000000000
11
58.2798354519
21
1.6735317290
31
0.0000000000
11
60.5003413501
21
4.5094641461
31
0.0000000000
11
62.4601402952
21
7.6242640694
31
0.0000000000
11
64.1123217464
21
10.9403087478
31
0.0000000000
11
65.4170830982
21
14.3768843439
31
0.0000000000
11
65.8540142559
21
15.8384546441
31
0.0000000000
0
SPLINE
5
246
100
AcDbEntity
8
0
100
AcDbSpline
62
7
6
CONTINUOUS
70
0
71
3
72
8
73
4
74
2
42
0.0000001000
43
0.0000001000
44
0.0000000001
12
0.1165163135
22
0.4234168954
32
0.0000000000
13
0.1110509914
23
0.4248794780
33
0.0000000000
40
0.0000000000
40
0.0000000000
40
0.0000000000
40
0.0000000000
40
1.0000000000
40
1.0000000000
40
1.0000000000
40
1.0000000000
10
65.8540142559
20
15.8384546441
30
0.0000000000
10
65.8928530271
20
15.9795936093
30
0.0000000000
10
65.9307877162
20
16.1209807196
30
0.0000000000
10
65.9678047134
20
16.2626072122
30
0.0000000000
11
65.8540142559
21
15.8384546441
31
0.0000000000
11
65.9678047134
21
16.2626072122
31
0.0000000000
0
SPLINE
5
247
100
AcDbEntity
8
0
100
AcDbSpline
62
7
6
CONTINUOUS
70
0
71
3
72
20
73
16
74
14
42
0.0000001000
43
0.0000001000
44
0.0000000001
12
-38.9567711903
22
-19.4783855936
32
0.0000000000
13
22.8030076640
23
-37.1087676014
33
0.0000000000
40
0.0000000000
40
0.0000000000
40
0.0000000000
40
0.0000000000
40
0.0713312337
40
0.1472983950
40
0.2271309446
40
0.3098270501
40
0.3943191803
40
0.4793804554
40
0.5637778953
40
0.6463255805
40
0.7259244372
40
0.8016060209
40
0.8727094454
40
0.9388229439
40
1.0000000000
40
1.0000000000
40
1.0000000000
40
1.0000000000
10
39.1729719655
20
41.3246410470
30
0.0000000000
10
38.2466937826
20
40.8615019556
30
0.0000000000
10
36.4097696524
20
39.7487344024
30
0.0000000000
10
33.8394512283
20
37.6700302519
30
0.0000000000
10
31.4205406693
20
35.1818380952
30
0.0000000000
10
29.2102378622
20
32.3493412626
30
0.0000000000
10
27.2590874447
20
29.2429366888
30
0.0000000000
10
25.6122096496
20
25.9376227029
30
0.0000000000
10
24.3086580541
20
22.5124958255
30
0.0000000000
10
23.3805691465
20
19.0487176858
30
0.0000000000
10
22.8529204316
20
15.6288702707
30
0.0000000000
10
22.7426049601
20
12.3352796947
30
0.0000000000
10
23.0584271499
20
9.2493327090
30
0.0000000000
10
23.7978296681
20
6.4523580049
30
0.0000000000
10
24.5940500838
20
4.7686667755
30
0.0000000000
10
25.0590570436
20
4.0119317231
30
0.0000000000
11
39.1729719655
21
41.3246410470
31
0.0000000000
11
36.5074565990
21
39.7285741177
31
0.0000000000
11
33.9266838348
21
37.6579622007
31
0.0000000000
11
31.4964245643
21
35.1711755804
31
0.0000000000
11
29.2759182397
21
32.3352419581
31
0.0000000000
11
27.3161190884
21
29.2204407504
31
0.0000000000
11
25.6639376857
21
25.9043947860
31
0.0000000000
11
24.3591766618
21
22.4678179815
31
0.0000000000
11
23.4344292104
21
18.9934138391
31
0.0000000000
11
22.9148733378
21
15.5656376375
31
0.0000000000
11
22.8172741209
21
12.2707718962
31
0.0000000000
11
23.1484901804
21
9.1916254535
31
0.0000000000
11
23.9030426823
21
6.4126703509
31
0.0000000000
11
25.0590570436
21
4.0119317231
31
0.0000000000
0
SPLINE
5
248
100
AcDbEntity
8
0
100
AcDbSpline
62
7
6
CONTINUOUS
70
0
71
3
72
10
73
6
74
4
42
0.0000001000
43
0.0000001000
44
0.0000000001
12
-5.4330472465
22
-0.5039647055
32
0.0000000000
13
-4.9008623801
23
-2.4006793186
33
0.0000000000
40
0.0000000000
40
0.0000000000
40
0.0000000000
40
0.0000000000
40
0.3249714069
40
0.6675755673
40
1.0000000000
40
1.0000000000
40
1.0000000000
40
1.0000000000
10
44.5190252976
20
42.9318680177
30
0.0000000000
10
43.9304969618
20
42.8772766445
30
0.0000000000
10
42.7284112737
20
42.6767683164
30
0.0000000000
10
40.9842361935
20
42.1467514397
30
0.0000000000
10
39.8545233631
20
41.6592008293
30
0.0000000000
10
39.3114678976
20
41.3931860091
30
0.0000000000
11
44.5190252976
21
42.9318680177
31
0.0000000000
11
42.7690998282
21
42.6457329322
31
0.0000000000
11
40.9787568116
21
42.1079265931
31
0.0000000000
11
39.3114678976
21
41.3931860091
31
0.0000000000
0
SPLINE
5
249
100
AcDbEntity
8
0
100
AcDbSpline
62
7
6
CONTINUOUS
70
0
71
3
72
8
73
4
74
2
42
0.0000001000
43
0.0000001000
44
0.0000000001
12
-0.1387861786
22
-0.0679841797
32
0.0000000000
13
-0.1382046187
23
-0.0691023093
33
0.0000000000
40
0.0000000000
40
0.0000000000
40
0.0000000000
40
0.0000000000
40
1.0000000000
40
1.0000000000
40
1.0000000000
40
1.0000000000
10
39.3114678976
20
41.3931860091
30
0.0000000000
10
39.2652058380
20
41.3705246159
30
0.0000000000
10
39.2190401718
20
41.3476751501
30
0.0000000000
10
39.1729719656
20
41.3246410470
30
0.0000000000
11
39.3114678976
21
41.3931860091
31
0.0000000000
11
39.1729719656
21
41.3246410470
31
0.0000000000
0
SPLINE
5
24A
100
AcDbEntity
8
0
100
AcDbSpline
62
7
6
CONTINUOUS
70
0
71
3
72
20
73
16
74
14
42
0.0000001000
43
0.0000001000
44
0.0000000001
12
-38.9567712347
22
-19.4783856188
32
0.0000000000
13
22.8030075689
23
-37.1087670167
33
0.0000000000
40
0.0000000000
40
0.0000000000
40
0.0000000000
40
0.0000000000
40
0.0713312111
40
0.1472983471
40
0.2271308696
40
0.3098269472
40
0.3943190499
40
0.4793802989
40
0.5637777154
40
0.6463253809
40
0.7259242221
40
0.8016057952
40
0.8727092136
40
0.9388227096
40
1.0000000000
40
1.0000000000
40
1.0000000000
40
1.0000000000
10
23.5105567612
20
49.1558486481
30
0.0000000000
10
22.5842788707
20
48.6927097028
30
0.0000000000
10
20.7473553117
20
47.5799425590
30
0.0000000000
10
18.1770376105
20
45.5012392498
30
0.0000000000
10
15.7581276459
20
43.0130481438
30
0.0000000000
10
13.5478252569
20
40.1805525073
30
0.0000000000
10
11.5966750414
20
37.0741492050
30
0.0000000000
10
9.9497971992
20
33.7688364921
30
0.0000000000
10
8.6462452834
20
30.3437108123
30
0.0000000000
10
7.7181557675
20
26.8799337187
30
0.0000000000
10
7.1905061509
20
23.4600871224
30
0.0000000000
10
7.0801894897
20
20.1664970639
30
0.0000000000
10
7.3960102196
20
17.0805502243
30
0.0000000000
10
8.1354119223
20
14.2835719191
30
0.0000000000
10
8.9316331098
20
12.5998772501
30
0.0000000000
10
9.3966418482
20
11.8431393118
30
0.0000000000
11
23.5105567612
21
49.1558486481
31
0.0000000000
11
20.8450422007
21
47.5597822822
31
0.0000000000
11
18.2642701702
21
45.4891712023
31
0.0000000000
11
15.8340115046
21
43.0023856363
31
0.0000000000
11
13.6135056064
21
40.1664532189
31
0.0000000000
11
11.6537066612
21
37.0516532953
31
0.0000000000
11
10.0015252102
21
33.7356086166
31
0.0000000000
11
8.6967638584
21
30.2990330203
31
0.0000000000
11
7.7720157846
21
26.8246299288
31
0.0000000000
11
7.2524589904
21
23.3968545424
31
0.0000000000
11
7.1548585609
21
20.1019893002
31
0.0000000000
11
7.4860731420
21
17.0228429632
31
0.0000000000
11
8.2406239525
21
14.2438875066
31
0.0000000000
11
9.3966418482
21
11.8431393118
31
0.0000000000
0
SPLINE
5
24B
100
AcDbEntity
8
0
100
AcDbSpline
62
7
6
CONTINUOUS
70
0
71
3
72
13
73
9
74
7
42
0.0000001000
43
0.0000001000
44
0.0000000001
12
-2.5867819137
22
-1.2933909568
32
0.0000000000
13
0.0000002783
23
-2.9024432798
33
0.0000000000
40
0.0000000000
40
0.0000000000
40
0.0000000000
40
0.0000000000
40
0.2237962465
40
0.4265563584
40
0.6088866393
40
0.7735685426
40
0.9259995214
40
1.0000000000
40
1.0000000000
40
1.0000000000
40
1.0000000000
10
50.4919523212
20
99.1160444791
30
0.0000000000
10
50.2989816270
20
99.0195591320
30
0.0000000000
10
49.9405714537
20
98.8155029390
30
0.0000000000
10
49.4727766221
20
98.4574186001
30
0.0000000000
10
49.1093015100
20
98.0674994845
30
0.0000000000
10
48.8586619373
20
97.6514150111
30
0.0000000000
10
48.7501829370
20
97.2853863717
30
0.0000000000
10
48.7347137933
20
97.0663181995
30
0.0000000000
10
48.7347138002
20
96.9947241356
30
0.0000000000
11
50.4919523212
21
99.1160444791
31
0.0000000000
11
49.9313455628
21
98.7925571351
31
0.0000000000
11
49.4685190709
21
98.4324710957
31
0.0000000000
11
49.1128946583
21
98.0431166744
31
0.0000000000
11
48.8717118125
21
97.6324200042
31
0.0000000000
11
48.7498803207
21
97.2087416852
31
0.0000000000
11
48.7347138002
21
96.9947241356
31
0.0000000000
0
SPLINE
5
24C
100
AcDbEntity
8
0
100
AcDbSpline
62
7
6
CONTINUOUS
70
0
71
3
72
10
73
6
74
4
42
0.0000001000
43
0.0000001000
44
0.0000000001
12
-5.4330471976
22
-0.5039646920
32
0.0000000000
13
-4.9008623928
23
-2.4006793250
33
0.0000000000
40
0.0000000000
40
0.0000000000
40
0.0000000000
40
0.0000000000
40
0.3249727201
40
0.6675762593
40
1.0000000000
40
1.0000000000
40
1.0000000000
40
1.0000000000
10
28.8566100874
20
50.7630756187
30
0.0000000000
10
28.2680793786
20
50.7084840264
30
0.0000000000
10
27.0659924880
20
50.5079751339
30
0.0000000000
10
25.3218176066
20
49.9779576486
30
0.0000000000
10
24.1921070298
20
49.4904078775
30
0.0000000000
10
23.6490526934
20
49.2243936103
30
0.0000000000
11
28.8566100874
21
50.7630756187
31
0.0000000000
11
27.1066776422
21
50.4769389103
31
0.0000000000
11
25.3163380622
21
49.9391328921
31
0.0000000000
11
23.6490526934
21
49.2243936103
31
0.0000000000
0
SPLINE
5
24D
100
AcDbEntity
8
0
100
AcDbSpline
62
7
6
CONTINUOUS
70
0
71
3
72
8
73
4
74
2
42
0.0000001000
43
0.0000001000
44
0.0000000001
12
-0.1387861789
22
-0.0679841798
32
0.0000000000
13
-0.1382046190
23
-0.0691023095
33
0.0000000000
40
0.0000000000
40
0.0000000000
40
0.0000000000
40
0.0000000000
40
1.0000000000
40
1.0000000000
40
1.0000000000
40
1.0000000000
10
23.6490526934
20
49.2243936103
30
0.0000000000
10
23.6027906338
20
49.2017322171
30
0.0000000000
10
23.5566249674
20
49.1788827512
30
0.0000000000
10
23.5105567611
20
49.1558486481
30
0.0000000000
11
23.6490526934
21
49.2243936103
31
0.0000000000
11
23.5105567611
21
49.1558486481
31
0.0000000000
0
SPLINE
5
24E
100
AcDbEntity
8
0
100
AcDbSpline
62
7
6
CONTINUOUS
70
0
71
3
72
20
73
16
74
14
42
0.0000001000
43
0.0000001000
44
0.0000000001
12
-28.0218404236
22
29.2104687615
32
0.0000000000
13
36.1137411522
23
18.0568705761
33
0.0000000000
40
0.0000000000
40
0.0000000000
40
0.0000000000
40
0.0000000000
40
0.0487944444
40
0.1109427877
40
0.1788378144
40
0.2526656470
40
0.3319338283
40
0.4156474009
40
0.5024616532
40
0.5908128031
40
0.6790348258
40
0.7654701383
40
0.8485807805
40
0.9270668350
40
1.0000000000
40
1.0000000000
40
1.0000000000
40
1.0000000000
10
23.8491135112
20
6.5494440062
30
0.0000000000
10
23.3933434664
20
7.0245468708
30
0.0000000000
10
22.4827006052
20
8.2244039088
30
0.0000000000
10
21.4716000493
20
10.4292039667
30
0.0000000000
10
20.8350529355
20
13.1133562431
30
0.0000000000
10
20.6323622434
20
16.0921463855
30
0.0000000000
10
20.8656531310
20
19.2800156947
30
0.0000000000
10
21.5265892541
20
22.5843680695
30
0.0000000000
10
22.5951359116
20
25.9080837017
30
0.0000000000
10
24.0394290077
20
29.1527290194
30
0.0000000000
10
25.8165280282
20
32.2218929152
30
0.0000000000
10
27.8735766133
20
35.0242936126
30
0.0000000000
10
30.1502151996
20
37.4769826889
30
0.0000000000
10
32.5788344633
20
39.5068180206
30
0.0000000000
10
34.3228050307
20
40.5805755373
30
0.0000000000
10
35.2007681781
20
41.0195571110
30
0.0000000000
11
23.8491135112
21
6.5494440062
31
0.0000000000
11
22.6471332463
21
8.1124584788
31
0.0000000000
11
21.5792761781
21
10.3832286126
31
0.0000000000
11
20.9253012515
21
13.0454363400
31
0.0000000000
11
20.7050791637
21
16.0181918263
31
0.0000000000
11
20.9253012515
21
19.2111694004
31
0.0000000000
11
21.5792761781
21
22.5273520543
31
0.0000000000
11
22.6471332463
21
25.8659792564
31
0.0000000000
11
24.0964261595
21
29.1256085083
31
0.0000000000
11
25.8831188858
21
32.2071976248
31
0.0000000000
11
27.9529236709
21
35.0171140799
31
0.0000000000
11
30.2429505438
21
37.4699799840
31
0.0000000000
11
32.6836181967
21
39.4912662478
31
0.0000000000
11
35.2007681781
21
41.0195571110
31
0.0000000000
0
SPLINE
5
24F
100
AcDbEntity
8
0
100
AcDbSpline
62
7
6
CONTINUOUS
70
0
71
3
72
9
73
5
74
3
42
0.0000001000
43
0.0000001000
44
0.0000000001
12
1.0298658292
22
0.5149329146
32
0.0000000000
13
0.9414438590
23
0.6653473966
33
0.0000000000
40
0.0000000000
40
0.0000000000
40
0.0000000000
40
0.0000000000
40
0.8866189671
40
1.0000000000
40
1.0000000000
40
1.0000000000
40
1.0000000000
10
61.1368686629
20
76.4730782326
30
0.0000000000
10
61.4412348555
20
76.6252613289
30
0.0000000000
10
61.7754069762
20
76.8165664784
30
0.0000000000
10
62.0914752247
20
77.0351537066
30
0.0000000000
10
62.1270558504
20
77.0602996316
30
0.0000000000
11
61.1368686629
21
76.4730782326
31
0.0000000000
11
62.0195702058
21
76.9859371334
31
0.0000000000
11
62.1270558504
21
77.0602996316
31
0.0000000000
0
SPLINE
5
250
100
AcDbEntity
8
0
100
AcDbSpline
62
7
6
CONTINUOUS
70
0
71
3
72
9
73
5
74
3
42
0.0000001000
43
0.0000001000
44
0.0000000001
12
-1.0298658292
22
-0.5149329146
32
0.0000000000
13
-0.9414438590
23
-0.6653473966
33
0.0000000000
40
0.0000000000
40
0.0000000000
40
0.0000000000
40
0.0000000000
40
0.8866189671
40
1.0000000000
40
1.0000000000
40
1.0000000000
40
1.0000000000
10
48.3323173538
20
91.3624028443
30
0.0000000000
10
48.0279511612
20
91.2102197480
30
0.0000000000
10
47.6937790404
20
91.0189145985
30
0.0000000000
10
47.3777107920
20
90.8003273703
30
0.0000000000
10
47.3421301663
20
90.7751814452
30
0.0000000000
11
48.3323173538
21
91.3624028443
31
0.0000000000
11
47.4496158109
21
90.8495439435
31
0.0000000000
11
47.3421301663
21
90.7751814452
31
0.0000000000
0
SPLINE
5
251
100
AcDbEntity
8
0
100
AcDbSpline
62
7
6
CONTINUOUS
70
0
71
3
72
11
73
7
74
5
42
0.0000001000
43
0.0000001000
44
0.0000000001
12
2.4568694645
22
-2.7329538704
32
0.0000000000
13
3.0011175296
23
-2.1230238584
33
0.0000000000
40
0.0000000000
40
0.0000000000
40
0.0000000000
40
0.0000000000
40
0.3332925337
40
0.6272709111
40
0.8925165225
40
1.0000000000
40
1.0000000000
40
1.0000000000
40
1.0000000000
10
44.2502553348
20
79.8284268803
30
0.0000000000
10
44.5232074177
20
79.5248025070
30
0.0000000000
10
45.0494311246
20
78.9643418541
30
0.0000000000
10
45.8417789351
20
78.2100435185
30
0.0000000000
10
46.4703868494
20
77.6874951037
30
0.0000000000
10
46.8382583555
20
77.4166389153
30
0.0000000000
10
46.9457818716
20
77.3405755863
30
0.0000000000
11
44.2502553348
21
79.8284268803
31
0.0000000000
11
45.0910645355
21
78.9377780806
31
0.0000000000
11
45.8758000333
21
78.1952433640
31
0.0000000000
11
46.6274602409
21
77.5746214428
31
0.0000000000
11
46.9457818716
21
77.3405755863
31
0.0000000000
0
SPLINE
5
252
100
AcDbEntity
8
0
100
AcDbSpline
62
7
6
CONTINUOUS
70
0
71
3
72
11
73
7
74
5
42
0.0000001000
43
0.0000001000
44
0.0000000001
12
-2.4568694645
22
2.7329538704
32
0.0000000000
13
-3.0011175296
23
2.1230238584
33
0.0000000000
40
0.0000000000
40
0.0000000000
40
0.0000000000
40
0.0000000000
40
0.3332925337
40
0.6272709111
40
0.8925165225
40
1.0000000000
40
1.0000000000
40
1.0000000000
40
1.0000000000
10
65.2189306819
20
88.0070541966
30
0.0000000000
10
64.9459785990
20
88.3106785699
30
0.0000000000
10
64.4197548921
20
88.8711392228
30
0.0000000000
10
63.6274070816
20
89.6254375584
30
0.0000000000
10
62.9987991673
20
90.1479859732
30
0.0000000000
10
62.6309276612
20
90.4188421616
30
0.0000000000
10
62.5234041451
20
90.4949054906
30
0.0000000000
11
65.2189306819
21
88.0070541966
31
0.0000000000
11
64.3781214812
21
88.8977029963
31
0.0000000000
11
63.5933859834
21
89.6402377128
31
0.0000000000
11
62.8417257758
21
90.2608596341
31
0.0000000000
11
62.5234041451
21
90.4949054906
31
0.0000000000
0
SPLINE
5
253
100
AcDbEntity
8
0
100
AcDbSpline
62
7
6
CONTINUOUS
70
0
71
3
72
14
73
10
74
8
42
0.0000001000
43
0.0000001000
44
0.0000000001
12
10.9453850416
22
-17.8121120069
32
0.0000000000
13
20.9204419504
23
-0.8285574030
33
0.0000000000
40
0.0000000000
40
0.0000000000
40
0.0000000000
40
0.0000000000
40
0.1623857189
40
0.3219594135
40
0.4814531886
40
0.6422366636
40
0.8045577087
40
0.9699739838
40
1.0000000000
40
1.0000000000
40
1.0000000000
40
1.0000000000
10
9.3966418627
20
11.8431392881
30
0.0000000000
10
9.9890999355
20
10.8789950839
30
0.0000000000
10
11.3146223011
20
9.0552886170
30
0.0000000000
10
13.6957491268
20
6.6731511351
30
0.0000000000
10
16.4115106393
20
4.6981536955
30
0.0000000000
10
19.4219633645
20
3.1674435621
30
0.0000000000
10
22.6775296936
20
2.1224952437
30
0.0000000000
10
25.1532607164
20
1.7498855523
30
0.0000000000
10
26.5153676714
20
1.6760597102
30
0.0000000000
10
26.7247535146
20
1.6677669508
30
0.0000000000
11
9.3966418627
21
11.8431392881
31
0.0000000000
11
11.3940684441
21
9.0980504795
31
0.0000000000
11
13.7531173728
21
6.7391510788
31
0.0000000000
11
16.4501525512
21
4.7784434891
31
0.0000000000
11
19.4464655816
21
3.2549543402
31
0.0000000000
11
22.6774750180
21
2.2173489657
31
0.0000000000
11
26.0970712280
21
1.7018054828
31
0.0000000000
11
26.7247535146
21
1.6677669508
31
0.0000000000
0
SPLINE
5
254
100
AcDbEntity
8
0
100
AcDbSpline
62
7
6
CONTINUOUS
70
0
71
3
72
11
73
7
74
5
42
0.0000001000
43
0.0000001000
44
0.0000000001
12
2.3824458706
22
-1.9540522187
32
0.0000000000
13
0.0000022715
23
-3.0883096172
33
0.0000000000
40
0.0000000000
40
0.0000000000
40
0.0000000000
40
0.0000000000
40
0.1619420610
40
0.4677726450
40
0.7427396669
40
1.0000000000
40
1.0000000000
40
1.0000000000
40
1.0000000000
10
63.2730375295
20
77.9468516295
30
0.0000000000
10
63.4016435943
20
77.8413705483
30
0.0000000000
10
63.7605046015
20
77.5214414011
30
0.0000000000
10
64.2579850999
20
76.9364637789
30
0.0000000000
10
64.6449798744
20
76.1568168176
30
0.0000000000
10
64.7345928136
20
75.6089222279
30
0.0000000000
10
64.7345930083
20
75.3440890410
30
0.0000000000
11
63.2730375295
21
77.9468516295
31
0.0000000000
11
63.6446582502
21
77.6140415397
31
0.0000000000
11
64.2451581713
21
76.8891740129
31
0.0000000000
11
64.6114764143
21
76.1262613662
31
0.0000000000
11
64.7345930083
21
75.3440890410
31
0.0000000000
0
SPLINE
5
255
100
AcDbEntity
8
0
100
AcDbSpline
62
7
6
CONTINUOUS
70
0
71
3
72
10
73
6
74
4
42
0.0000001000
43
0.0000001000
44
0.0000000001
12
-6.7606275920
22
0.8293231890
32
0.0000000000
13
-6.0761716293
23
-3.0380858147
33
0.0000000000
40
0.0000000000
40
0.0000000000
40
0.0000000000
40
0.0000000000
40
0.2373653498
40
0.6019028525
40
1.0000000000
40
1.0000000000
40
1.0000000000
40
1.0000000000
10
41.7727386662
20
42.3760213939
30
0.0000000000
10
41.2378257551
20
42.4416389235
30
0.0000000000
10
39.8653811018
20
42.4801250856
30
0.0000000000
10
37.6197083059
20
42.0719218971
30
0.0000000000
10
36.0070703758
20
41.4227082099
30
0.0000000000
10
35.2007681781
20
41.0195571110
30
0.0000000000
11
41.7727386662
21
42.3760213939
31
0.0000000000
11
40.1585858124
21
42.4277976183
31
0.0000000000
11
37.7179181594
21
42.0084162292
31
0.0000000000
11
35.2007681781
21
41.0195571110
31
0.0000000000
0
SPLINE
5
256
100
AcDbEntity
8
0
100
AcDbSpline
62
7
6
CONTINUOUS
70
0
71
3
72
14
73
10
74
8
42
0.0000001000
43
0.0000001000
44
0.0000000001
12
-13.2137411555
22
16.2389505877
32
0.0000000000
13
-20.8178237396
23
-1.9310429423
33
0.0000000000
40
0.0000000000
40
0.0000000000
40
0.0000000000
40
0.0000000000
40
0.0251355758
40
0.1847023489
40
0.3441892049
40
0.5049657047
40
0.6672797075
40
0.8326888060
40
1.0000000000
40
1.0000000000
40
1.0000000000
40
1.0000000000
10
47.3944392589
20
43.0050101697
30
0.0000000000
10
47.2837275946
20
43.1410686277
30
0.0000000000
10
46.4580169582
20
44.1309168692
30
0.0000000000
10
44.7556839904
20
45.8339726680
30
0.0000000000
10
42.0399226394
20
47.8089703385
30
0.0000000000
10
39.0294700479
20
49.3396807232
30
0.0000000000
10
35.7739038161
20
50.3846293134
30
0.0000000000
10
32.3481058335
20
50.9002290488
30
0.0000000000
10
30.0176283399
20
50.8707706463
30
0.0000000000
10
28.8566100244
20
50.7630756128
30
0.0000000000
11
47.3944392589
21
43.0050101697
31
0.0000000000
11
47.0573644795
21
43.4090731210
31
0.0000000000
11
44.6983157329
21
45.7679727339
31
0.0000000000
11
42.0012807203
21
47.7286805487
31
0.0000000000
11
39.0049678216
21
49.2521699481
31
0.0000000000
11
35.7739584825
21
50.2897755920
31
0.0000000000
11
32.3543623299
21
50.8053193608
31
0.0000000000
11
28.8566100244
21
50.7630756128
31
0.0000000000
0
SPLINE
5
257
100
AcDbEntity
8
0
100
AcDbSpline
62
7
6
CONTINUOUS
70
0
71
3
72
11
73
7
74
5
42
0.0000001000
43
0.0000001000
44
0.0000000001
12
-3.5166337275
22
1.7577722970
32
0.0000000000
13
-1.0675571605
23
3.7735142140
33
0.0000000000
40
0.0000000000
40
0.0000000000
40
0.0000000000
40
0.0000000000
40
0.1421006799
40
0.4537179513
40
0.7898851060
40
1.0000000000
40
1.0000000000
40
1.0000000000
40
1.0000000000
10
48.1282575688
20
7.2354337742
30
0.0000000000
10
47.9616855542
20
7.3186939870
30
0.0000000000
10
47.4493782985
20
7.6235432081
30
0.0000000000
10
46.7007899488
20
8.3549343545
30
0.0000000000
10
46.1438784859
20
9.3400918106
30
0.0000000000
10
45.9090187064
20
10.0155796051
30
0.0000000000
10
45.8342488198
20
10.2798701182
30
0.0000000000
11
48.1282575688
21
7.2354337742
31
0.0000000000
11
47.6488585947
21
7.5209531001
31
0.0000000000
11
46.7688117167
21
8.3655396806
31
0.0000000000
11
46.1074031080
21
9.5030842116
31
0.0000000000
11
45.8342488198
21
10.2798701182
31
0.0000000000
0
SPLINE
5
258
100
AcDbEntity
8
0
100
AcDbSpline
62
7
6
CONTINUOUS
70
0
71
3
72
8
73
4
74
2
42
0.0000001000
43
0.0000001000
44
0.0000000001
12
-0.0351092835
22
0.1241014393
32
0.0000000000
13
-0.0328463151
23
0.1247294615
33
0.0000000000
40
0.0000000000
40
0.0000000000
40
0.0000000000
40
0.0000000000
40
1.0000000000
40
1.0000000000
40
1.0000000000
40
1.0000000000
10
45.8342488198
20
10.2798701182
30
0.0000000000
10
45.8225457253
20
10.3212372646
30
0.0000000000
10
45.8112239221
20
10.3627141563
30
0.0000000000
10
45.8002751504
20
10.4042906435
30
0.0000000000
11
45.8342488198
21
10.2798701182
31
0.0000000000
11
45.8002751504
21
10.4042906435
31
0.0000000000
0
SPLINE
5
259
100
AcDbEntity
8
0
100
AcDbSpline
62
7
6
CONTINUOUS
70
0
71
3
72
11
73
7
74
5
42
0.0000001000
43
0.0000001000
44
0.0000000001
12
-1.4433299957
22
5.4808514369
32
0.0000000000
13
1.4865952371
23
5.4578478401
33
0.0000000000
40
0.0000000000
40
0.0000000000
40
0.0000000000
40
0.0000000000
40
0.0880810373
40
0.3698827654
40
0.6753973420
40
1.0000000000
40
1.0000000000
40
1.0000000000
40
1.0000000000
10
45.8002751504
20
10.4042906435
30
0.0000000000
10
45.7578984827
20
10.5652103367
30
0.0000000000
10
45.6034107817
20
11.2472331643
30
0.0000000000
10
45.4858388789
20
12.5216834567
30
0.0000000000
10
45.6009057544
20
14.2432920999
30
0.0000000000
10
45.8431923489
20
15.4105206491
30
0.0000000000
10
46.0040432707
20
16.0010646210
30
0.0000000000
11
45.8002751504
21
10.4042906435
31
0.0000000000
11
45.6894307118
21
10.8909371656
31
0.0000000000
11
45.5305654091
21
12.4770642961
31
0.0000000000
11
45.6367634767
21
14.2019975381
31
0.0000000000
11
46.0040432707
21
16.0010646210
31
0.0000000000
0
SPLINE
5
25A
100
AcDbEntity
8
0
100
AcDbSpline
62
7
6
CONTINUOUS
70
0
71
3
72
14
73
10
74
8
42
0.0000001000
43
0.0000001000
44
0.0000000001
12
12.4481026995
22
-20.2575787768
32
0.0000000000
13
23.6749245982
23
2.1960650943
33
0.0000000000
40
0.0000000000
40
0.0000000000
40
0.0000000000
40
0.0000000000
40
0.1427826658
40
0.2830928468
40
0.4233327552
40
0.5647066726
40
0.7074325464
40
0.8528799983
40
1.0000000000
40
1.0000000000
40
1.0000000000
40
1.0000000000
10
25.0590570576
20
4.0119317001
30
0.0000000000
10
25.6515148200
20
3.0477880002
30
0.0000000000
10
26.9770367579
20
1.2240819620
30
0.0000000000
10
29.3581629670
20
-1.1580553017
30
0.0000000000
10
32.0739243180
20
-3.1330529722
30
0.0000000000
10
35.0843769095
20
-4.6637633569
30
0.0000000000
10
38.3399431413
20
-5.7087119471
30
0.0000000000
10
41.7657411239
20
-6.2243116825
30
0.0000000000
10
44.0962186175
20
-6.1948532800
30
0.0000000000
10
45.2572369330
20
-6.0871582465
30
0.0000000000
11
25.0590570576
21
4.0119317001
31
0.0000000000
11
27.0564824779
21
1.2668442453
31
0.0000000000
11
29.4155312244
21
-1.0920553677
31
0.0000000000
11
32.1125662371
21
-3.0527631825
31
0.0000000000
11
35.1088791358
21
-4.5762525819
31
0.0000000000
11
38.3398884749
21
-5.6138582257
31
0.0000000000
11
41.7594846274
21
-6.1294019945
31
0.0000000000
11
45.2572369330
21
-6.0871582465
31
0.0000000000
0
SPLINE
5
25B
100
AcDbEntity
8
0
100
AcDbSpline
62
7
6
CONTINUOUS
70
0
71
3
72
22
73
18
74
16
42
0.0000001000
43
0.0000001000
44
0.0000000001
12
-38.4447186568
22
19.2409202941
32
0.0000000000
13
38.0768660600
23
19.7123485699
33
0.0000000000
40
0.0000000000
40
0.0000000000
40
0.0000000000
40
0.0000000000
40
0.0417108433
40
0.0920362235
40
0.1459131255
40
0.2044191495
40
0.2679563138
40
0.3363539130
40
0.4089985641
40
0.4849531561
40
0.5630588260
40
0.6420241369
40
0.7205068867
40
0.7971932227
40
0.8708782507
40
0.9405526091
40
1.0000000000
40
1.0000000000
40
1.0000000000
40
1.0000000000
10
41.6960821924
20
-2.9012145917
30
0.0000000000
10
41.1615616470
20
-2.6336962545
30
0.0000000000
10
40.0509004955
20
-1.9049014724
30
0.0000000000
10
38.6258485537
20
-0.3527275978
30
0.0000000000
10
37.4875975348
20
1.6956122115
30
0.0000000000
10
36.7230438551
20
4.1050831966
30
0.0000000000
10
36.3445389684
20
6.8109398750
30
0.0000000000
10
36.3578487799
20
9.7429849984
30
0.0000000000
10
36.7607800672
20
12.8248494034
30
0.0000000000
10
37.5419337130
20
15.9753766808
30
0.0000000000
10
38.6802522006
20
19.1108860578
30
0.0000000000
10
40.1452354255
20
22.1476701667
30
0.0000000000
10
41.8977079916
20
25.0045076368
30
0.0000000000
10
43.8908069150
20
27.6049695547
30
0.0000000000
10
46.0719368050
20
29.8798199611
30
0.0000000000
10
48.3218204418
20
31.7181381407
30
0.0000000000
10
49.8984930573
20
32.6907911497
30
0.0000000000
10
50.6530165046
20
33.0814070469
30
0.0000000000
11
41.6960821924
21
-2.9012145917
31
0.0000000000
11
40.1983583718
21
-1.9217162271
31
0.0000000000
11
38.7278784592
21
-0.3430792187
31
0.0000000000
11
37.5884180305
21
1.6659379886
31
0.0000000000
11
36.8110585959
21
4.0505346425
31
0.0000000000
11
36.4170044942
21
6.7456651626
31
0.0000000000
11
36.4170044942
21
9.6778134139
31
0.0000000000
11
36.8110585959
21
12.7669980356
31
0.0000000000
11
37.5884180305
21
15.9289541242
31
0.0000000000
11
38.7278784592
21
19.0774317602
31
0.0000000000
11
40.1983583718
21
22.1265486812
31
0.0000000000
11
41.9597469096
21
24.9931329259
31
0.0000000000
11
43.9639979847
21
27.5989915489
31
0.0000000000
11
46.1564408526
21
29.8730435198
31
0.0000000000
11
48.4772713872
21
31.7532586289
31
0.0000000000
11
50.6530165046
21
33.0814070469
31
0.0000000000
0
SPLINE
5
25C
100
AcDbEntity
8
0
100
AcDbSpline
62
7
6
CONTINUOUS
70
0
71
3
72
12
73
8
74
6
42
0.0000001000
43
0.0000001000
44
0.0000000001
12
0.3695794423
22
4.0084321007
32
0.0000000000
13
2.9897525801
23
2.6964456266
33
0.0000000000
40
0.0000000000
40
0.0000000000
40
0.0000000000
40
0.0000000000
40
0.1099763358
40
0.3313999045
40
0.5617657856
40
0.7893093452
40
1.0000000000
40
1.0000000000
40
1.0000000000
40
1.0000000000
10
52.3175440917
20
12.5092477169
30
0.0000000000
10
52.3310924226
20
12.6561919417
30
0.0000000000
10
52.3946646930
20
13.0973009080
30
0.0000000000
10
52.5999390377
20
13.8243972285
30
0.0000000000
10
52.9801144362
20
14.6552497188
30
0.0000000000
10
53.4737007928
20
15.4070300992
30
0.0000000000
10
53.8718439345
20
15.8422324249
30
0.0000000000
10
54.0818149107
20
16.0316043897
30
0.0000000000
11
52.3175440917
21
12.5092477169
31
0.0000000000
11
52.3796208038
21
12.9476184153
31
0.0000000000
11
52.6177484154
21
13.8050895943
31
0.0000000000
11
53.0023933036
21
14.6472707990
31
0.0000000000
11
53.5062601267
21
15.4104636492
31
0.0000000000
11
54.0818149107
21
16.0316043897
31
0.0000000000
0
SPLINE
5
25D
100
AcDbEntity
8
0
100
AcDbSpline
62
7
6
CONTINUOUS
70
0
71
3
72
11
73
7
74
5
42
0.0000001000
43
0.0000001000
44
0.0000000001
12
2.7545998235
22
-1.3842247220
32
0.0000000000
13
-0.0000000000
23
-3.0675259884
33
0.0000000000
40
0.0000000000
40
0.0000000000
40
0.0000000000
40
0.0000000000
40
0.1749349644
40
0.4208223427
40
0.6942919558
40
1.0000000000
40
1.0000000000
40
1.0000000000
40
1.0000000000
10
56.6426238843
20
17.5761046023
30
0.0000000000
10
56.8032491583
20
17.4953881682
30
0.0000000000
10
57.1638686853
20
17.2491027034
30
0.0000000000
10
57.6065457377
20
16.6770877645
30
0.0000000000
10
57.8988959213
20
15.8742382268
30
0.0000000000
10
57.9569541159
20
15.2789596127
30
0.0000000000
10
57.9569541159
20
14.9663704893
30
0.0000000000
11
56.6426238843
21
17.5761046023
31
0.0000000000
11
57.0871159213
21
17.2732739536
31
0.0000000000
11
57.5559840294
21
16.6824442149
31
0.0000000000
11
57.8546631693
21
15.8985422562
31
0.0000000000
11
57.9569541159
21
14.9663704893
31
0.0000000000
0
SPLINE
5
25E
100
AcDbEntity
8
0
100
AcDbSpline
62
7
6
CONTINUOUS
70
0
71
3
72
10
73
6
74
4
42
0.0000001000
43
0.0000001000
44
0.0000000001
12
-8.2592342960
22
2.6580336732
32
0.0000000000
13
-8.6299598461
23
-0.8005074556
33
0.0000000000
40
0.0000000000
40
0.0000000000
40
0.0000000000
40
0.0000000000
40
0.1973878477
40
0.5963998406
40
1.0000000000
40
1.0000000000
40
1.0000000000
40
1.0000000000
10
53.0859618270
20
42.0001480897
30
0.0000000000
10
52.5425376666
20
42.1750359383
30
0.0000000000
10
50.8793174600
20
42.6372533316
30
0.0000000000
10
48.0105198227
20
43.0690214811
30
0.0000000000
10
45.6800429345
20
43.0395629886
30
0.0000000000
10
44.5190252114
20
42.9318680097
30
0.0000000000
11
53.0859618270
21
42.0001480897
31
0.0000000000
11
51.4363719394
21
42.4585684006
31
0.0000000000
11
48.0167757294
21
42.9741118835
31
0.0000000000
11
44.5190252114
21
42.9318680097
31
0.0000000000
0
SPLINE
5
25F
100
AcDbEntity
8
0
100
AcDbSpline
62
7
6
CONTINUOUS
70
0
71
3
72
17
73
13
74
11
42
0.0000001000
43
0.0000001000
44
0.0000000001
12
0.0000000000
22
-8.7523132916
32
0.0000000000
13
-7.8594674469
23
3.9494917007
33
0.0000000000
40
0.0000000000
40
0.0000000000
40
0.0000000000
40
0.0000000000
40
0.1151890406
40
0.2364946530
40
0.3602392063
40
0.4826550676
40
0.6004971148
40
0.7103805373
40
0.8098605783
40
0.8988266306
40
0.9806789560
40
1.0000000000
40
1.0000000000
40
1.0000000000
40
1.0000000000
10
57.9569541159
20
14.9663704893
30
0.0000000000
10
57.9569541159
20
14.6303136323
30
0.0000000000
10
57.8841820462
20
13.9393280842
30
0.0000000000
10
57.5965103047
20
12.9241373890
30
0.0000000000
10
57.1464094666
20
11.9464367641
30
0.0000000000
10
56.5584227657
20
11.0569925648
30
0.0000000000
10
55.8614850327
20
10.3032639129
30
0.0000000000
10
55.0898574691
20
9.7301740095
30
0.0000000000
10
54.2844786290
20
9.3767699485
30
0.0000000000
10
53.4906813687
20
9.2695132617
30
0.0000000000
10
52.9356767688
20
9.3808441707
30
0.0000000000
10
52.6650478034
20
9.5027731505
30
0.0000000000
10
52.6144300980
20
9.5282092515
30
0.0000000000
11
57.9569541159
21
14.9663704893
31
0.0000000000
11
57.8585252893
21
13.9630162816
31
0.0000000000
11
57.5728577987
21
12.9404650574
31
0.0000000000
11
57.1204929487
21
11.9564093049
31
0.0000000000
11
56.5276377356
21
11.0639588953
31
0.0000000000
11
55.8232160020
21
10.3105954914
31
0.0000000000
11
55.0456350907
21
9.7446445392
31
0.0000000000
11
54.2436426014
21
9.4056864969
31
0.0000000000
11
53.4706153664
21
9.3122072892
31
0.0000000000
11
52.7693120586
21
9.4584899351
31
0.0000000000
11
52.6144300980
21
9.5282092515
31
0.0000000000
0
SPLINE
5
260
100
AcDbEntity
8
0
100
AcDbSpline
62
7
6
CONTINUOUS
70
0
71
3
72
9
73
5
74
3
42
0.0000001000
43
0.0000001000
44
0.0000000001
12
0.2442742738
22
-0.4479008371
32
0.0000000000
13
0.2229400230
23
-0.4590548885
33
0.0000000000
40
0.0000000000
40
0.0000000000
40
0.0000000000
40
0.0000000000
40
0.5233092297
40
1.0000000000
40
1.0000000000
40
1.0000000000
40
1.0000000000
10
78.7482442774
20
66.1971559303
30
0.0000000000
10
78.7908546048
20
66.1190257163
30
0.0000000000
10
78.8704713634
20
65.9687324554
30
0.0000000000
10
78.9465243421
20
65.8165699588
30
0.0000000000
10
78.9819488259
20
65.7436275493
30
0.0000000000
11
78.7482442774
21
66.1971559303
31
0.0000000000
11
78.8732070238
21
65.9612141202
31
0.0000000000
11
78.9819488259
21
65.7436275493
31
0.0000000000
0
SPLINE
5
261
100
AcDbEntity
8
0
100
AcDbSpline
62
7
6
CONTINUOUS
70
0
71
3
72
9
73
5
74
3
42
0.0000001000
43
0.0000001000
44
0.0000000001
12
1.9260872680
22
-3.9659984064
32
0.0000000000
13
0.0000000000
23
-4.3998201287
33
0.0000000000
40
0.0000000000
40
0.0000000000
40
0.0000000000
40
0.0000000000
40
0.4851636160
40
1.0000000000
40
1.0000000000
40
1.0000000000
40
1.0000000000
10
78.9819488259
20
65.7436275493
30
0.0000000000
10
79.2934379805
20
65.1022415067
30
0.0000000000
10
79.8033113008
20
63.7152291647
30
0.0000000000
10
79.9845930083
20
62.2427450756
30
0.0000000000
10
79.9845930083
20
61.4876825804
30
0.0000000000
11
78.9819488259
21
65.7436275493
31
0.0000000000
11
79.7108368272
21
63.7362670012
31
0.0000000000
11
79.9845930083
21
61.4876825804
31
0.0000000000
0
SPLINE
5
262
100
AcDbEntity
8
0
100
AcDbSpline
62
7
6
CONTINUOUS
70
0
71
3
72
9
73
5
74
3
42
0.0000001000
43
0.0000001000
44
0.0000000001
12
-0.2508165239
22
-0.1531989462
32
0.0000000000
13
-0.0362332374
23
-0.3520716430
33
0.0000000000
40
0.0000000000
40
0.0000000000
40
0.0000000000
40
0.0000000000
40
0.2873952636
40
1.0000000000
40
1.0000000000
40
1.0000000000
40
1.0000000000
10
21.9787751516
20
63.8289233008
30
0.0000000000
10
21.9547473246
20
63.8142470836
30
0.0000000000
10
21.8871098305
20
63.6760134825
30
0.0000000000
10
21.8867750137
20
63.5728417517
30
0.0000000000
10
21.8781683548
20
63.4892124449
30
0.0000000000
11
21.9787751516
21
63.8289233008
31
0.0000000000
11
21.9214288682
21
63.7376876907
31
0.0000000000
11
21.8781683548
21
63.4892124449
31
0.0000000000
0
SPLINE
5
263
100
AcDbEntity
8
0
100
AcDbSpline
62
9
6
CONTINUOUS
70
0
71
3
72
8
73
4
74
2
42
0.0000001000
43
0.0000001000
44
0.0000000001
12
1.0606787872
22
0.5303393936
32
0.0000000000
13
1.0948540426
23
0.4594627489
33
0.0000000000
40
0.0000000000
40
0.0000000000
40
0.0000000000
40
0.0000000000
40
1.0000000000
40
1.0000000000
40
1.0000000000
40
1.0000000000
10
50.4511892654
20
35.8017080466
30
0.0000000000
10
50.8047488611
20
35.9784878445
30
0.0000000000
10
51.1642607919
20
36.1443452644
30
0.0000000000
10
51.5292121394
20
36.2974995140
30
0.0000000000
11
50.4511892654
21
35.8017080466
31
0.0000000000
11
51.5292121394
21
36.2974995140
31
0.0000000000
0
SPLINE
5
264
100
AcDbEntity
8
0
100
AcDbSpline
62
9
6
CONTINUOUS
70
0
71
3
72
29
73
25
74
23
42
0.0000001000
43
0.0000001000
44
0.0000000001
12
-9.3508766039
22
-45.7149043903
32
0.0000000000
13
41.6561595216
23
20.8280797608
33
0.0000000000
40
0.0000000000
40
0.0000000000
40
0.0000000000
40
0.0000000000
40
0.0037055696
40
0.0329680779
40
0.0625246504
40
0.0934908827
40
0.1267721786
40
0.1629907352
40
0.2024916204
40
0.2453851426
40
0.2915946335
40
0.3408975731
40
0.3929582510
40
0.4473535656
40
0.5035940266
40
0.5611416292
40
0.6194257876
40
0.6778581392
40
0.7358467920
40
0.7928104676
40
0.8481929654
40
0.9014784473
40
0.9522082208
40
1.0000000000
40
1.0000000000
40
1.0000000000
40
1.0000000000
10
31.4468196235
20
73.9711476997
30
0.0000000000
10
31.4352695156
20
73.9146811136
30
0.0000000000
10
31.3396397523
20
73.4108307647
30
0.0000000000
10
31.2815199231
20
72.4328861628
30
0.0000000000
10
31.5287823555
20
71.0485481863
30
0.0000000000
10
32.0975974025
20
69.6965223799
30
0.0000000000
10
32.9733719923
20
68.3959059243
30
0.0000000000
10
34.1400520783
20
67.1614672515
30
0.0000000000
10
35.5805738163
20
66.0066679648
30
0.0000000000
10
37.2757235115
20
64.9447743847
30
0.0000000000
10
39.2033632556
20
63.9887280555
30
0.0000000000
10
41.3382519742
20
63.1506831087
30
0.0000000000
10
43.6522299760
20
62.4415786525
30
0.0000000000
10
46.1145773589
20
61.8708177479
30
0.0000000000
10
48.6924514247
20
61.4460392446
30
0.0000000000
10
51.3513622363
20
61.1729587159
30
0.0000000000
10
54.0556685504
20
61.0552614451
30
0.0000000000
10
56.7690865697
20
61.0945382785
30
0.0000000000
10
59.4552014783
20
61.2902574944
30
0.0000000000
10
62.0779926083
20
61.6397782711
30
0.0000000000
10
64.6023098245
20
62.1383795133
30
0.0000000000
10
66.9945025869
20
62.7794034442
30
0.0000000000
10
69.2224641539
20
63.5541806888
30
0.0000000000
10
70.6237037968
20
64.1729872264
30
0.0000000000
10
71.2873111229
20
64.5047908894
30
0.0000000000
11
31.4468196235
21
73.9711476997
31
0.0000000000
11
31.4145931676
21
73.8012677564
31
0.0000000000
11
31.3354177654
21
72.4407267153
31
0.0000000000
11
31.5726760675
21
71.0847893143
31
0.0000000000
11
32.1231595622
21
69.7517922809
31
0.0000000000
11
32.9794239049
21
68.4597621130
31
0.0000000000
11
34.1298895889
21
67.2261713024
31
0.0000000000
11
35.5589985397
21
66.0677020484
31
0.0000000000
11
37.2474245103
21
65.0000206604
31
0.0000000000
11
39.1723344358
21
64.0375656977
31
0.0000000000
11
41.3076972118
21
63.1933527124
31
0.0000000000
11
43.6246357197
21
62.4787982370
31
0.0000000000
11
46.0918173411
21
61.9035653949
31
0.0000000000
11
48.6758776768
21
61.4754332236
31
0.0000000000
11
51.3418717437
21
61.2001914762
31
0.0000000000
11
54.0537465455
21
61.0815623252
31
0.0000000000
11
56.7748286278
21
61.1211500263
31
0.0000000000
11
59.4683200234
21
61.3184192238
31
0.0000000000
11
62.0977958817
21
61.6707021901
31
0.0000000000
11
64.6276970525
21
62.1732349026
31
0.0000000000
11
67.0238109627
21
62.8192214684
31
0.0000000000
11
69.2537342820
21
63.5999260273
31
0.0000000000
11
71.2873111229
21
64.5047908894
31
0.0000000000
0
SPLINE
5
265
100
AcDbEntity
8
0
100
AcDbSpline
62
9
6
CONTINUOUS
70
0
71
3
72
21
73
17
74
15
42
0.0000001000
43
0.0000001000
44
0.0000000001
12
-12.6905020630
22
-6.3452510311
32
0.0000000000
13
12.7370514682
23
-6.3657107228
33
0.0000000000
40
0.0000000000
40
0.0000000000
40
0.0000000000
40
0.0000000000
40
0.0565355777
40
0.1256912403
40
0.2058755168
40
0.2941894811
40
0.3866248885
40
0.4796910744
40
0.5707768402
40
0.6576664005
40
0.7386905442
40
0.8128570056
40
0.8800265108
40
0.9411754366
40
0.9985328316
40
1.0000000000
40
1.0000000000
40
1.0000000000
40
1.0000000000
10
47.3630048145
20
23.0305894908
30
0.0000000000
10
47.1238498594
20
22.9110120133
30
0.0000000000
10
46.6112536748
20
22.6059341350
30
0.0000000000
10
45.8457819764
20
21.9997918498
30
0.0000000000
10
45.0599612668
20
21.1918285989
30
0.0000000000
10
44.3141532628
20
20.2047334891
30
0.0000000000
10
43.6614055851
20
19.0827050657
30
0.0000000000
10
43.1409631434
20
17.8791668315
30
0.0000000000
10
42.7780229725
20
16.6462187605
30
0.0000000000
10
42.5876551880
20
15.4322514887
30
0.0000000000
10
42.5775512253
20
14.2826315868
30
0.0000000000
10
42.7495036067
20
13.2388348001
30
0.0000000000
10
43.1008409223
20
12.3388071204
30
0.0000000000
10
43.6245230191
20
11.6193610320
30
0.0000000000
10
44.0888617890
20
11.2765226455
30
0.0000000000
10
44.3380846458
20
11.1506491346
30
0.0000000000
10
44.3443137789
20
11.1475359447
30
0.0000000000
11
47.3630048145
21
23.0305894908
31
0.0000000000
11
46.6718780086
21
22.6234181153
31
0.0000000000
11
45.8999674700
21
22.0176744614
31
0.0000000000
11
45.1039506419
21
21.2048458874
31
0.0000000000
11
44.3464008152
21
20.2067402377
31
0.0000000000
11
43.6860426909
21
19.0736073698
31
0.0000000000
11
43.1627570217
21
17.8612581864
31
0.0000000000
11
42.8005625890
21
16.6206874120
31
0.0000000000
11
42.6145152748
21
15.4019816562
31
0.0000000000
11
42.6117431930
21
14.2523810132
31
0.0000000000
11
42.7923476348
21
13.2156908480
31
0.0000000000
11
43.1494464859
21
12.3320936369
31
0.0000000000
11
43.6683449181
21
11.6367628381
31
0.0000000000
11
44.3256661064
21
11.1569543308
31
0.0000000000
11
44.3443137789
21
11.1475359447
31
0.0000000000
0
SPLINE
5
266
100
AcDbEntity
8
0
100
AcDbSpline
62
9
6
CONTINUOUS
70
0
71
3
72
25
73
21
74
19
42
0.0000001000
43
0.0000001000
44
0.0000000001
12
-54.1798832077
22
-5.0162124960
32
0.0000000000
13
48.5724584157
23
24.2862292076
33
0.0000000000
40
0.0000000000
40
0.0000000000
40
0.0000000000
40
0.0000000000
40
0.0419666237
40
0.0838044189
40
0.1250090529
40
0.1672628797
40
0.2120351391
40
0.2603212034
40
0.3126066556
40
0.3689347718
40
0.4289863580
40
0.4921652824
40
0.5576717544
40
0.6245529012
40
0.6917842067
40
0.7583726823
40
0.8233560653
40
0.8857703622
40
0.9448082137
40
1.0000000000
40
1.0000000000
40
1.0000000000
40
1.0000000000
10
45.2572363668
20
-6.0871395462
30
0.0000000000
10
44.4993207772
20
-6.1573107136
30
0.0000000000
10
42.9702098328
20
-6.1490445576
30
0.0000000000
10
40.7493862374
20
-5.6029083898
30
0.0000000000
10
38.7371708289
20
-4.5017258398
30
0.0000000000
10
37.0326616923
20
-2.8916358194
30
0.0000000000
10
35.6783152474
20
-0.8275728134
30
0.0000000000
10
34.6992612298
20
1.6307406224
30
0.0000000000
10
34.1111061126
20
4.4213821517
30
0.0000000000
10
33.9228700428
20
7.4781286565
30
0.0000000000
10
34.1365640864
20
10.7292085982
30
0.0000000000
10
34.7460797997
20
14.0976699644
30
0.0000000000
10
35.7363800318
20
17.5027053844
30
0.0000000000
10
37.0832488134
20
20.8618640137
30
0.0000000000
10
38.7540131210
20
24.0941976022
30
0.0000000000
10
40.7088477390
20
27.1224911783
30
0.0000000000
10
42.9009822700
20
29.8735344358
30
0.0000000000
10
45.2774306671
20
32.2798012291
30
0.0000000000
10
47.7798767198
20
34.2823746052
30
0.0000000000
10
49.5575890172
20
35.3549079225
30
0.0000000000
10
50.4511892654
20
35.8017080466
30
0.0000000000
11
45.2572363668
21
-6.0871395462
31
0.0000000000
11
42.9779652356
21
-6.0592925011
31
0.0000000000
11
40.7740901128
21
-5.5069787408
31
0.0000000000
11
38.8103133789
21
-4.4343020450
31
0.0000000000
11
37.1335000149
21
-2.8679091419
31
0.0000000000
11
35.7839867191
21
-0.8454213323
31
0.0000000000
11
34.7954610983
21
1.5833199828
31
0.0000000000
11
34.1925214921
21
4.3579610844
31
0.0000000000
11
33.9898978356
21
7.4101783119
31
0.0000000000
11
34.1925209882
21
10.6650184638
31
0.0000000000
11
34.7954597910
21
14.0425977111
31
0.0000000000
11
35.7839848857
21
17.4598648634
31
0.0000000000
11
37.1334992191
21
20.8318694715
31
0.0000000000
11
38.8103128302
21
24.0750765178
31
0.0000000000
11
40.7740844131
21
27.1115226552
31
0.0000000000
11
42.9779541325
21
29.8677076168
31
0.0000000000
11
45.3660108529
21
32.2730253368
31
0.0000000000
11
47.8769585340
21
34.2665527024
31
0.0000000000
11
50.4511892654
21
35.8017080466
31
0.0000000000
0
SPLINE
5
267
100
AcDbEntity
8
0
100
AcDbSpline
62
7
6
CONTINUOUS
70
0
71
3
72
19
73
15
74
13
42
0.0000001000
43
0.0000001000
44
0.0000000001
12
0.0000000000
22
-6.2178834208
32
0.0000000000
13
-0.4646988791
23
6.2149324047
33
0.0000000000
40
0.0000000000
40
0.0000000000
40
0.0000000000
40
0.0000000000
40
0.0954571845
40
0.1976629026
40
0.3025932597
40
0.4058113029
40
0.5031368590
40
0.5913520151
40
0.6690426974
40
0.7376131532
40
0.8019368375
40
0.8689737806
40
0.9443107061
40
1.0000000000
40
1.0000000000
40
1.0000000000
40
1.0000000000
10
55.9013191973
20
14.6835277768
30
0.0000000000
10
55.9013191973
20
14.4856805617
30
0.0000000000
10
55.8560049287
20
14.0754201295
30
0.0000000000
10
55.6785395320
20
13.4711549040
30
0.0000000000
10
55.4001857067
20
12.8882065272
30
0.0000000000
10
55.0390210273
20
12.3647991111
30
0.0000000000
10
54.6181609173
20
11.9346225150
30
0.0000000000
10
54.1633586941
20
11.6253292016
30
0.0000000000
10
53.7001382555
20
11.4578874133
30
0.0000000000
10
53.2529875420
20
11.4514757044
30
0.0000000000
10
52.8606611928
20
11.6225766327
30
0.0000000000
10
52.5703362749
20
11.9534115060
30
0.0000000000
10
52.4215700133
20
12.3427145233
30
0.0000000000
10
52.3812561732
20
12.6129145036
30
0.0000000000
10
52.3726299224
20
12.7282829028
30
0.0000000000
11
55.9013191973
21
14.6835277768
31
0.0000000000
11
55.8410839991
21
14.0930505076
31
0.0000000000
11
55.6644833336
21
13.4825780902
31
0.0000000000
11
55.3835522443
21
12.8937132111
31
0.0000000000
11
55.0174357208
21
12.3665860386
31
0.0000000000
11
54.5910839991
21
11.9371194183
31
0.0000000000
11
54.1335522443
21
11.6345807909
31
0.0000000000
11
53.6760204896
21
11.4795876636
31
0.0000000000
11
53.2496687679
21
11.4827025621
31
0.0000000000
11
52.8835522443
21
11.6437132111
31
0.0000000000
11
52.6026211551
21
11.9516470010
31
0.0000000000
11
52.4260204896
21
12.3855187528
31
0.0000000000
11
52.3726299224
21
12.7282829028
31
0.0000000000
0
SPLINE
5
268
100
AcDbEntity
8
0
100
AcDbSpline
62
7
6
CONTINUOUS
70
0
71
3
72
8
73
4
74
2
42
0.0000001000
43
0.0000001000
44
0.0000000001
12
-0.0106843261
22
0.1428933172
32
0.0000000000
13
-0.0024024863
23
0.1430605605
33
0.0000000000
40
0.0000000000
40
0.0000000000
40
0.0000000000
40
0.0000000000
40
1.0000000000
40
1.0000000000
40
1.0000000000
40
1.0000000000
10
52.3726299224
20
12.7282829028
30
0.0000000000
10
52.3690684804
20
12.7759140085
30
0.0000000000
10
52.3669572795
20
12.8236349283
30
0.0000000000
10
52.3661564507
20
12.8713217818
30
0.0000000000
11
52.3726299224
21
12.7282829028
31
0.0000000000
11
52.3661564507
21
12.8713217818
31
0.0000000000
0
SPLINE
5
269
100
AcDbEntity
8
0
100
AcDbSpline
62
7
6
CONTINUOUS
70
0
71
3
72
9
73
5
74
3
42
0.0000001000
43
0.0000001000
44
0.0000000001
12
0.6409435363
22
-0.4534105733
32
0.0000000000
13
0.6766100779
23
-0.3984198845
33
0.0000000000
40
0.0000000000
40
0.0000000000
40
0.0000000000
40
0.0000000000
40
0.6376230218
40
1.0000000000
40
1.0000000000
40
1.0000000000
40
1.0000000000
10
46.9457818716
20
77.3405755863
30
0.0000000000
10
47.0820086564
20
77.2442072463
30
0.0000000000
10
47.2992836240
20
77.0982138924
30
0.0000000000
10
47.5226148777
20
76.9616560230
30
0.0000000000
10
47.6043441829
20
76.9135299584
30
0.0000000000
11
46.9457818716
21
77.3405755863
31
0.0000000000
11
47.3615499618
21
77.0618659193
31
0.0000000000
11
47.6043441829
21
76.9135299584
31
0.0000000000
0
SPLINE
5
26A
100
AcDbEntity
8
0
100
AcDbSpline
62
7
6
CONTINUOUS
70
0
71
3
72
13
73
9
74
7
42
0.0000001000
43
0.0000001000
44
0.0000000001
12
3.8791299255
22
-2.2842144202
32
0.0000000000
13
4.4715591930
23
0.5024799979
33
0.0000000000
40
0.0000000000
40
0.0000000000
40
0.0000000000
40
0.0000000000
40
0.1224273229
40
0.2984196286
40
0.4687594063
40
0.6382575669
40
0.8128248828
40
1.0000000000
40
1.0000000000
40
1.0000000000
40
1.0000000000
10
47.6043441829
20
76.9135299584
30
0.0000000000
10
47.7626480135
20
76.8203132063
30
0.0000000000
10
48.1558260785
20
76.6055262327
30
0.0000000000
10
48.8016811621
20
76.3238953456
30
0.0000000000
10
49.5439980239
20
76.0992877651
30
0.0000000000
10
50.3060565430
20
75.9668976756
30
0.0000000000
10
51.1035564874
20
75.9256345979
30
0.0000000000
10
51.6463349902
20
75.9595423658
30
0.0000000000
10
51.9253231956
20
75.9908929500
30
0.0000000000
11
47.6043441829
21
76.9135299584
31
0.0000000000
11
48.0882791231
21
76.6500538039
31
0.0000000000
11
48.8149492048
21
76.3352888428
31
0.0000000000
11
49.5488262538
21
76.1141245416
31
0.0000000000
11
50.3001974533
21
75.9832066908
31
0.0000000000
11
51.0845666713
21
75.9410535293
31
0.0000000000
11
51.9253231956
21
75.9908929500
31
0.0000000000
0
SPLINE
5
26B
100
AcDbEntity
8
0
100
AcDbSpline
62
7
6
CONTINUOUS
70
0
71
3
72
17
73
13
74
11
42
0.0000001000
43
0.0000001000
44
0.0000000001
12
-33.0913681013
22
3.1348430014
32
0.0000000000
13
-11.7782508924
23
31.0827715845
33
0.0000000000
40
0.0000000000
40
0.0000000000
40
0.0000000000
40
0.0000000000
40
0.1257849169
40
0.2481297689
40
0.3658231263
40
0.4777866705
40
0.5831221004
40
0.6811662638
40
0.7715641884
40
0.8543611790
40
0.9301126948
40
1.0000000000
40
1.0000000000
40
1.0000000000
40
1.0000000000
10
50.9252166842
20
48.7988943926
30
0.0000000000
10
49.5377516881
20
48.9303330481
30
0.0000000000
10
46.8077895788
20
49.2726621574
30
0.0000000000
10
42.8236708492
20
50.0332266226
30
0.0000000000
10
39.0482821359
20
51.0248206124
30
0.0000000000
10
35.5349088929
20
52.2334718226
30
0.0000000000
10
32.3326362300
20
53.6423631829
30
0.0000000000
10
29.4859123350
20
55.2323596545
30
0.0000000000
10
27.0340156313
20
56.9824415520
30
0.0000000000
10
25.0108181313
20
58.8713953752
30
0.0000000000
10
23.4464496809
20
60.8757168950
30
0.0000000000
10
22.7031968073
20
62.3229989855
30
0.0000000000
10
22.4288134024
20
63.0470960335
30
0.0000000000
11
50.9252166842
21
48.7988943926
31
0.0000000000
11
46.7770397870
21
49.3220058048
31
0.0000000000
11
42.7833231111
21
50.0889151871
31
0.0000000000
11
39.0011556017
21
51.0886695741
31
0.0000000000
11
35.4846065190
21
52.3069877638
31
0.0000000000
11
32.2839527057
21
53.7264640442
31
0.0000000000
11
29.4450001448
21
55.3267909509
31
0.0000000000
11
27.0083637654
21
57.0850654922
31
0.0000000000
11
25.0088549913
21
58.9761492469
31
0.0000000000
11
23.4750362267
21
60.9730075849
31
0.0000000000
11
22.4288134024
21
63.0470960335
31
0.0000000000
0
SPLINE
5
26C
100
AcDbEntity
8
0
100
AcDbSpline
62
7
6
CONTINUOUS
70
0
71
3
72
9
73
5
74
3
42
0.0000001000
43
0.0000001000
44
0.0000000001
12
-0.2160125446
22
0.5700565089
32
0.0000000000
13
-0.2572833808
23
0.5220802166
33
0.0000000000
40
0.0000000000
40
0.0000000000
40
0.0000000000
40
0.0000000000
40
0.7888305139
40
1.0000000000
40
1.0000000000
40
1.0000000000
40
1.0000000000
10
22.4288134024
20
63.0470960335
30
0.0000000000
10
22.3720143068
20
63.1969886898
30
0.0000000000
10
22.2860887155
20
63.3927701980
30
0.0000000000
10
22.2136407885
20
63.5652921171
30
0.0000000000
10
22.1955306554
20
63.6020412542
30
0.0000000000
11
22.4288134024
21
63.0470960335
31
0.0000000000
11
22.2448393750
21
63.4913921827
31
0.0000000000
11
22.1955306554
21
63.6020412542
31
0.0000000000
0
SPLINE
5
26D
100
AcDbEntity
8
0
100
AcDbSpline
62
7
6
CONTINUOUS
70
0
71
3
72
10
73
6
74
4
42
0.0000001000
43
0.0000001000
44
0.0000000001
12
-0.1365721505
22
0.2771326220
32
0.0000000000
13
-0.2293193343
23
-0.1400684445
33
0.0000000000
40
0.0000000000
40
0.0000000000
40
0.0000000000
40
0.0000000000
40
0.5396087315
40
0.9456356770
40
1.0000000000
40
1.0000000000
40
1.0000000000
40
1.0000000000
10
22.1955306554
20
63.6020412542
30
0.0000000000
10
22.1709654804
20
63.6518889817
30
0.0000000000
10
22.1188515831
20
63.7402690860
30
0.0000000000
10
22.0192854239
20
63.8466112067
30
0.0000000000
10
21.9829307484
20
63.8314615428
30
0.0000000000
10
21.9787751516
20
63.8289233008
30
0.0000000000
11
22.1955306554
21
63.6020412542
31
0.0000000000
11
22.0978010547
21
63.7567200843
31
0.0000000000
11
21.9916487281
21
63.8341454714
31
0.0000000000
11
21.9787751516
21
63.8289233008
31
0.0000000000
0
SPLINE
5
26E
100
AcDbEntity
8
0
100
AcDbSpline
62
9
6
CONTINUOUS
70
0
71
3
72
21
73
17
74
15
42
0.0000001000
43
0.0000001000
44
0.0000000001
12
-22.7939253665
22
37.0948418931
32
0.0000000000
13
38.7068774963
23
19.7456639773
33
0.0000000000
40
0.0000000000
40
0.0000000000
40
0.0000000000
40
0.0000000000
40
0.0186501576
40
0.0790027283
40
0.1443539993
40
0.2147582076
40
0.2898164274
40
0.3687835443
40
0.4506597755
40
0.5342540114
40
0.6182859824
40
0.7015148879
40
0.7827376665
40
0.8607488880
40
0.9345397946
40
1.0000000000
40
1.0000000000
40
1.0000000000
40
1.0000000000
10
25.0591016245
20
4.0119593606
30
0.0000000000
10
24.9173981907
20
4.2425675771
30
0.0000000000
10
24.3511127189
20
5.2403914072
30
0.0000000000
10
23.5731406294
20
7.1938133915
30
0.0000000000
10
22.9849881593
20
9.9844536357
30
0.0000000000
10
22.7967537859
20
13.0411981072
30
0.0000000000
10
23.0104490614
20
16.2922779206
30
0.0000000000
10
23.6199660665
20
19.6607395529
30
0.0000000000
10
24.6102666991
20
23.0657719846
30
0.0000000000
10
25.9571337972
20
26.4249252246
30
0.0000000000
10
27.6278975966
20
29.6572572307
30
0.0000000000
10
29.5827347228
20
32.6855571217
30
0.0000000000
10
31.7748769011
20
35.4366023083
30
0.0000000000
10
34.1513209290
20
37.8428729229
30
0.0000000000
10
36.6138317656
20
39.8134708116
30
0.0000000000
10
38.3438243376
20
40.8648913247
30
0.0000000000
10
39.1884110551
20
41.2957430648
30
0.0000000000
11
25.0591016245
21
4.0119593606
31
0.0000000000
11
24.6578630611
21
4.7176506179
31
0.0000000000
11
23.6693397716
21
7.1463942236
31
0.0000000000
11
23.0664033266
21
9.9210320724
31
0.0000000000
11
22.8637814523
21
12.9732468305
31
0.0000000000
11
23.0664058621
21
16.2280870379
31
0.0000000000
11
23.6693462958
21
19.6056683663
31
0.0000000000
11
24.6578722595
21
23.0229342063
31
0.0000000000
11
26.0073836087
21
26.3949297594
31
0.0000000000
11
27.6841941989
21
29.6381312425
31
0.0000000000
11
29.6479717444
21
32.6745869347
31
0.0000000000
11
31.8518520812
21
35.4307817832
31
0.0000000000
11
34.2399043290
21
37.8360955580
31
0.0000000000
11
36.7508477091
21
39.8296110428
31
0.0000000000
11
39.1884110551
21
41.2957430648
31
0.0000000000
0
SPLINE
5
26F
100
AcDbEntity
8
0
100
AcDbSpline
62
9
6
CONTINUOUS
70
0
71
3
72
8
73
4
74
2
42
0.0000001000
43
0.0000001000
44
0.0000000001
12
0.1363897615
22
0.0695769479
32
0.0000000000
13
0.1369335787
23
0.0684667894
33
0.0000000000
40
0.0000000000
40
0.0000000000
40
0.0000000000
40
0.0000000000
40
1.0000000000
40
1.0000000000
40
1.0000000000
40
1.0000000000
10
39.1884110551
20
41.2957430648
30
0.0000000000
10
39.2338743090
20
41.3189353808
30
0.0000000000
10
39.2794283690
20
41.3419439686
30
0.0000000000
10
39.3250728952
20
41.3647662317
30
0.0000000000
11
39.1884110551
21
41.2957430648
31
0.0000000000
11
39.3250728952
21
41.3647662317
31
0.0000000000
0
SPLINE
5
270
100
AcDbEntity
8
0
100
AcDbSpline
62
7
6
CONTINUOUS
70
0
71
3
72
12
73
8
74
6
42
0.0000001000
43
0.0000001000
44
0.0000000001
12
-3.1917081467
22
3.7079488188
32
0.0000000000
13
-4.8706249460
23
0.4614086815
33
0.0000000000
40
0.0000000000
40
0.0000000000
40
0.0000000000
40
0.0000000000
40
0.1674277323
40
0.3550260911
40
0.5618891483
40
0.7808487258
40
1.0000000000
40
1.0000000000
40
1.0000000000
40
1.0000000000
10
55.2735511222
20
46.7915210612
30
0.0000000000
10
55.0954243031
20
46.9984588820
30
0.0000000000
10
54.6706709721
20
47.3977016343
30
0.0000000000
10
53.9042517776
20
47.9061421000
30
0.0000000000
10
52.9953843015
20
48.3323377057
30
0.0000000000
10
51.9882575013
20
48.6459662351
30
0.0000000000
10
51.2810179052
20
48.7651882924
30
0.0000000000
10
50.9252166842
20
48.7988943926
30
0.0000000000
11
55.2735511222
21
46.7915210612
31
0.0000000000
11
54.6815694937
21
47.3576743794
31
0.0000000000
11
53.9200338911
21
47.8699658890
31
0.0000000000
11
53.0052812936
21
48.3029784242
31
0.0000000000
11
51.9827795265
21
48.6224395114
31
0.0000000000
11
50.9252166842
21
48.7988943926
31
0.0000000000
0
SPLINE
5
271
100
AcDbEntity
8
0
100
AcDbSpline
62
9
6
CONTINUOUS
70
0
71
3
72
12
73
8
74
6
42
0.0000001000
43
0.0000001000
44
0.0000000001
12
-9.4618570382
22
5.5323880910
32
0.0000000000
13
-9.7757858638
23
-4.8878929319
33
0.0000000000
40
0.0000000000
40
0.0000000000
40
0.0000000000
40
0.0000000000
40
0.1208886992
40
0.3206668907
40
0.5306604695
40
0.7560971282
40
1.0000000000
40
1.0000000000
40
1.0000000000
40
1.0000000000
10
45.6903833130
20
43.0121754465
30
0.0000000000
10
45.3091061165
20
43.2351098465
30
0.0000000000
10
44.2515186900
20
43.7475986521
30
0.0000000000
10
42.3540870556
20
44.2139281746
30
0.0000000000
10
40.0199633002
20
44.2131053998
30
0.0000000000
10
37.5851582388
20
43.6914892173
30
0.0000000000
10
35.9955489270
20
43.0373129214
30
0.0000000000
10
35.2007681781
20
42.6399225469
30
0.0000000000
11
45.6903833130
21
43.0121754465
31
0.0000000000
11
44.4990555881
21
43.5887306355
31
0.0000000000
11
42.3809731341
21
44.1192335879
31
0.0000000000
11
40.0858721461
21
44.1354956010
31
0.0000000000
11
37.6726970871
21
43.6378841721
31
0.0000000000
11
35.2007681781
21
42.6399225469
31
0.0000000000
0
SPLINE
5
272
100
AcDbEntity
8
0
100
AcDbSpline
62
9
6
CONTINUOUS
70
0
71
3
72
23
73
19
74
17
42
0.0000001000
43
0.0000001000
44
0.0000000001
12
-42.5663190540
22
-21.2831595270
32
0.0000000000
13
43.9729716790
23
-18.5201817420
33
0.0000000000
40
0.0000000000
40
0.0000000000
40
0.0000000000
40
0.0000000000
40
0.0604880330
40
0.1252286309
40
0.1936726396
40
0.2649350794
40
0.3379581886
40
0.4116862716
40
0.4850305300
40
0.5568675156
40
0.6261519630
40
0.6920064569
40
0.7537771809
40
0.8111141429
40
0.8640650501
40
0.9131627076
40
0.9594987108
40
1.0000000000
40
1.0000000000
40
1.0000000000
40
1.0000000000
10
35.2007681781
20
42.6399225469
30
0.0000000000
10
34.3425172082
20
42.2107970620
30
0.0000000000
10
32.6345798062
20
41.1804625552
30
0.0000000000
10
30.2300435397
20
39.2564735230
30
0.0000000000
10
27.9461406936
20
36.9441342469
30
0.0000000000
10
25.8393561647
20
34.3003971904
30
0.0000000000
10
23.9606237034
20
31.3901709135
30
0.0000000000
10
22.3549037674
20
28.2838274385
30
0.0000000000
10
21.0604735094
20
25.0555801113
30
0.0000000000
10
20.1087368912
20
21.7832272785
30
0.0000000000
10
19.5229723386
20
18.5460196003
30
0.0000000000
10
19.3176343759
20
15.4216324359
30
0.0000000000
10
19.4985924552
20
12.4840320974
30
0.0000000000
10
20.0639113014
20
9.8021991060
30
0.0000000000
10
21.0049206144
20
7.4397793554
30
0.0000000000
10
22.3066194041
20
5.4562922638
30
0.0000000000
10
23.8902692371
20
3.9606860665
30
0.0000000000
10
25.1017147107
20
3.2773571527
30
0.0000000000
10
25.6953687250
20
3.0273267404
30
0.0000000000
11
35.2007681781
21
42.6399225469
31
0.0000000000
11
32.7283135372
21
41.1655892294
31
0.0000000000
11
30.3151828977
21
39.2499617547
31
0.0000000000
11
28.0201283951
21
36.9385404246
31
0.0000000000
11
25.9020585713
21
34.2898575220
31
0.0000000000
11
24.0147329718
21
31.3717918632
31
0.0000000000
11
22.4032000979
21
28.2550018283
31
0.0000000000
11
21.1062278566
21
25.0144108634
31
0.0000000000
11
20.1561964840
21
21.7302988050
31
0.0000000000
11
19.5767529666
21
18.4843240253
31
0.0000000000
11
19.3820563775
21
15.3563231161
31
0.0000000000
11
19.5768436614
21
12.4230783088
31
0.0000000000
11
20.1563719740
21
9.7566293053
31
0.0000000000
11
21.1064821640
21
7.4226382645
31
0.0000000000
11
22.4035315839
21
5.4791106561
31
0.0000000000
11
24.0151279550
21
3.9739601479
31
0.0000000000
11
25.6953687250
21
3.0273267404
31
0.0000000000
0
SPLINE
5
273
100
AcDbEntity
8
0
100
AcDbSpline
62
9
6
CONTINUOUS
70
0
71
3
72
18
73
14
74
12
42
0.0000001000
43
0.0000001000
44
0.0000000001
12
-1.3312233714
22
13.1120992146
32
0.0000000000
13
11.2826621611
23
6.7909992755
33
0.0000000000
40
0.0000000000
40
0.0000000000
40
0.0000000000
40
0.0000000000
40
0.0651670627
40
0.1810254062
40
0.3030046455
40
0.4252456573
40
0.5405790420
40
0.6447901881
40
0.7370908716
40
0.8177676175
40
0.8876513138
40
0.9479313115
40
1.0000000000
40
1.0000000000
40
1.0000000000
40
1.0000000000
10
24.1419243033
20
21.7612076228
30
0.0000000000
10
24.1130069977
20
22.0460332867
30
0.0000000000
10
24.0755671748
20
22.8416529853
30
0.0000000000
10
24.1827082593
20
24.1716450386
30
0.0000000000
10
24.5230514775
20
25.7190918810
30
0.0000000000
10
25.0474765988
20
27.2109169413
30
0.0000000000
10
25.6986840223
20
28.5650539423
30
0.0000000000
10
26.4143037567
20
29.7339660162
30
0.0000000000
10
27.1453338047
20
30.7082431938
30
0.0000000000
10
27.8596953531
20
31.5009188258
30
0.0000000000
10
28.5369406411
20
32.1328772859
30
0.0000000000
10
29.1660326490
20
32.6280263941
30
0.0000000000
10
29.5775172273
20
32.9004756130
30
0.0000000000
10
29.7733417012
20
33.0183417550
30
0.0000000000
11
24.1419243033
21
21.7612076228
31
0.0000000000
11
24.0991982139
21
22.6187268126
31
0.0000000000
11
24.2139326252
21
24.1395961337
31
0.0000000000
11
24.5540797230
21
25.7089243936
31
0.0000000000
11
25.0856521485
21
27.2278058781
31
0.0000000000
11
25.7434732811
21
28.5961794796
31
0.0000000000
11
26.4605641831
21
29.7657057335
31
0.0000000000
11
27.1909689392
21
30.7367400209
31
0.0000000000
11
27.9031440596
21
31.5246222791
31
0.0000000000
11
28.5767944024
21
32.1511496549
31
0.0000000000
11
29.2011850048
21
32.6408903158
31
0.0000000000
11
29.7733417012
21
33.0183417550
31
0.0000000000
0
SPLINE
5
274
100
AcDbEntity
8
0
100
AcDbSpline
62
9
6
CONTINUOUS
70
0
71
3
72
9
73
5
74
3
42
0.0000001000
43
0.0000001000
44
0.0000000001
12
-0.6511537948
22
0.1239043612
32
0.0000000000
13
-0.6382714768
23
0.1795834183
33
0.0000000000
40
0.0000000000
40
0.0000000000
40
0.0000000000
40
0.0000000000
40
0.2633228069
40
1.0000000000
40
1.0000000000
40
1.0000000000
40
1.0000000000
10
23.5159518391
20
7.6264770768
30
0.0000000000
10
23.4587972908
20
7.6373526915
30
0.0000000000
10
23.2421982409
20
7.6810742724
30
0.0000000000
10
23.0275249834
20
7.7340848253
30
0.0000000000
10
22.8707916367
20
7.7781831615
30
0.0000000000
11
23.5159518391
21
7.6264770768
31
0.0000000000
11
23.3448598835
21
7.6610225575
31
0.0000000000
11
22.8707916367
21
7.7781831615
31
0.0000000000
0
SPLINE
5
275
100
AcDbEntity
8
0
100
AcDbSpline
62
9
6
CONTINUOUS
70
0
71
3
72
8
73
4
74
2
42
0.0000001000
43
0.0000001000
44
0.0000000001
12
0.5371665742
22
-0.4093693701
32
0.0000000000
13
0.4995196251
23
-0.4548711824
33
0.0000000000
40
0.0000000000
40
0.0000000000
40
0.0000000000
40
0.0000000000
40
1.0000000000
40
1.0000000000
40
1.0000000000
40
1.0000000000
10
40.1799980860
20
42.4326920867
30
0.0000000000
10
40.3590536107
20
42.2962356300
30
0.0000000000
10
40.5320276388
20
42.1517535574
30
0.0000000000
10
40.6985341805
20
42.0001298299
30
0.0000000000
11
40.1799980860
21
42.4326920867
31
0.0000000000
11
40.6985341805
21
42.0001298299
31
0.0000000000
0
SPLINE
5
276
100
AcDbEntity
8
0
100
AcDbSpline
62
9
6
CONTINUOUS
70
0
71
3
72
15
73
11
74
9
42
0.0000001000
43
0.0000001000
44
0.0000000001
12
2.5042167282
22
-12.2606566342
32
0.0000000000
13
-11.1674609233
23
-5.5837304616
33
0.0000000000
40
0.0000000000
40
0.0000000000
40
0.0000000000
40
0.0000000000
40
0.0685388456
40
0.1776920114
40
0.2900892941
40
0.4095570153
40
0.5389563801
40
0.6800764669
40
0.8337438154
40
1.0000000000
40
1.0000000000
40
1.0000000000
40
1.0000000000
10
78.0222299249
20
73.9711198274
30
0.0000000000
10
78.0794419662
20
73.6910094101
30
0.0000000000
10
78.1772716519
20
72.9545132155
30
0.0000000000
10
78.1049813611
20
71.7381314623
30
0.0000000000
10
77.6953450042
20
70.3671576117
30
0.0000000000
10
76.9710793387
20
69.0388067373
30
0.0000000000
10
75.9478130680
20
67.7695671022
30
0.0000000000
10
74.6419412082
20
66.5732694662
30
0.0000000000
10
73.0716568621
20
65.4633336424
30
0.0000000000
10
71.9061976044
20
64.8142341302
30
0.0000000000
10
71.2873111229
20
64.5047908894
30
0.0000000000
11
78.0222299249
21
73.9711198274
31
0.0000000000
11
78.1337682513
21
73.1215731781
31
0.0000000000
11
78.0545928491
21
71.7610321369
31
0.0000000000
11
77.6600544542
21
70.4142864392
31
0.0000000000
11
76.9554885214
21
69.0995485100
31
0.0000000000
11
75.9504230964
21
67.8345979246
31
0.0000000000
11
74.6584499650
21
66.6365409695
31
0.0000000000
11
73.0970408472
21
65.5215793099
31
0.0000000000
11
71.2873111229
21
64.5047908894
31
0.0000000000
0
SPLINE
5
277
100
AcDbEntity
8
0
100
AcDbSpline
62
7
6
CONTINUOUS
70
0
71
3
72
9
73
5
74
3
42
0.0000001000
43
0.0000001000
44
0.0000000001
12
-0.8780141395
22
-0.6205196584
32
0.0000000000
13
-0.7339074587
23
-0.7865388216
33
0.0000000000
40
0.0000000000
40
0.0000000000
40
0.0000000000
40
0.0000000000
40
0.7352510153
40
1.0000000000
40
1.0000000000
40
1.0000000000
40
1.0000000000
10
47.3421301663
20
90.7751814452
30
0.0000000000
10
47.1269432371
20
90.6231022089
30
0.0000000000
10
46.8469832102
20
90.3982399277
30
0.0000000000
10
46.5936368156
20
90.1441349386
30
0.0000000000
10
46.5288697308
20
90.0747231538
30
0.0000000000
11
47.3421301663
21
90.7751814452
31
0.0000000000
11
46.7296486205
21
90.2766333337
31
0.0000000000
11
46.5288697308
21
90.0747231538
31
0.0000000000
0
SPLINE
5
278
100
AcDbEntity
8
0
100
AcDbSpline
62
7
6
CONTINUOUS
70
0
71
3
72
26
73
22
74
20
42
0.0000001000
43
0.0000001000
44
0.0000000001
12
-13.4531410141
22
-14.4179181641
32
0.0000000000
13
17.6063821651
23
8.8031910825
33
0.0000000000
40
0.0000000000
40
0.0000000000
40
0.0000000000
40
0.0000000000
40
0.0273703054
40
0.0650393301
40
0.1000529042
40
0.1344980985
40
0.1706094044
40
0.2102095318
40
0.2544298001
40
0.3037390549
40
0.3580878307
40
0.4170469375
40
0.4799130391
40
0.5457872281
40
0.6136367120
40
0.6823470275
40
0.7507694544
40
0.8177666443
40
0.8822588272
40
0.9432731711
40
1.0000000000
40
1.0000000000
40
1.0000000000
40
1.0000000000
10
46.5288697308
20
90.0747231538
30
0.0000000000
10
46.4061308716
20
89.9431822128
30
0.0000000000
10
46.1341501372
20
89.6123614661
30
0.0000000000
10
45.8137467642
20
89.0315491039
30
0.0000000000
10
45.6518317845
20
88.3370687512
30
0.0000000000
10
45.7062026796
20
87.6356657876
30
0.0000000000
10
45.9725212302
20
86.9539431774
30
0.0000000000
10
46.4354055198
20
86.3094399787
30
0.0000000000
10
47.0794135872
20
85.7124821217
30
0.0000000000
10
47.8895439624
20
85.1725002077
30
0.0000000000
10
48.8486459324
20
84.6993126119
30
0.0000000000
10
49.9364136369
20
84.3024359640
30
0.0000000000
10
51.1294564647
20
83.9902960757
30
0.0000000000
10
52.4018052636
20
83.7697041807
30
0.0000000000
10
53.7255560291
20
83.6455400517
30
0.0000000000
10
55.0715583424
20
83.6205674462
30
0.0000000000
10
56.4101323019
20
83.6953459470
30
0.0000000000
10
57.7117526211
20
83.8681996671
30
0.0000000000
10
58.9478725031
20
84.1353200294
30
0.0000000000
10
60.0912359639
20
84.4907275768
30
0.0000000000
10
60.8039505867
20
84.7936681516
30
0.0000000000
10
61.1368686629
20
84.9601271897
30
0.0000000000
11
46.5288697308
21
90.0747231538
31
0.0000000000
11
46.1884986600
21
89.6564688913
31
0.0000000000
11
45.8382543252
21
89.0029040651
31
0.0000000000
11
45.6867394958
21
88.3305384133
31
0.0000000000
11
45.7373387628
21
87.6543914736
31
0.0000000000
11
45.9889218222
21
86.9895672512
31
0.0000000000
11
46.4358687240
21
86.3509168207
31
0.0000000000
11
47.0681954131
21
85.7527065775
31
0.0000000000
11
47.8717767562
21
85.2082995497
31
0.0000000000
11
48.8286620738
21
84.7298568909
31
0.0000000000
11
49.9174761293
21
84.3280662194
31
0.0000000000
11
51.1138966158
21
84.0119028748
31
0.0000000000
11
52.3911974767
21
83.7884294239
31
0.0000000000
11
53.7208459215
21
83.6626378942
31
0.0000000000
11
55.0731398010
21
83.6373382607
31
0.0000000000
11
56.4178711045
21
83.7130956754
31
0.0000000000
11
57.7250007570
21
83.8882178428
31
0.0000000000
11
58.9653296418
21
84.1587928231
31
0.0000000000
11
60.1111508613
21
84.5187764182
31
0.0000000000
11
61.1368686629
21
84.9601271897
31
0.0000000000
0
SPLINE
5
279
100
AcDbEntity
8
0
100
AcDbSpline
62
9
6
CONTINUOUS
70
0
71
3
72
8
73
4
74
2
42
0.0000001000
43
0.0000001000
44
0.0000000001
12
-0.1369335791
22
-0.0684667896
32
0.0000000000
13
-0.1363897614
23
-0.0695769488
33
0.0000000000
40
0.0000000000
40
0.0000000000
40
0.0000000000
40
0.0000000000
40
1.0000000000
40
1.0000000000
40
1.0000000000
40
1.0000000000
10
23.6626576920
20
49.1959738333
30
0.0000000000
10
23.6170131656
20
49.1731515701
30
0.0000000000
10
23.5714591055
20
49.1501429822
30
0.0000000000
10
23.5259958517
20
49.1269506659
30
0.0000000000
11
23.6626576920
21
49.1959738333
31
0.0000000000
11
23.5259958517
21
49.1269506659
31
0.0000000000
0
SPLINE
5
27A
100
AcDbEntity
8
0
100
AcDbSpline
62
9
6
CONTINUOUS
70
0
71
3
72
21
73
17
74
15
42
0.0000001000
43
0.0000001000
44
0.0000000001
12
-38.7068775135
22
-19.7456642363
32
0.0000000000
13
22.7939253243
23
-37.0948416760
33
0.0000000000
40
0.0000000000
40
0.0000000000
40
0.0000000000
40
0.0000000000
40
0.0654602731
40
0.1392514868
40
0.2172628255
40
0.2984852767
40
0.3817139218
40
0.4657460381
40
0.5493404928
40
0.6312167475
40
0.7101838106
40
0.7852420273
40
0.8556462947
40
0.9209976536
40
0.9813501947
40
1.0000000000
40
1.0000000000
40
1.0000000000
40
1.0000000000
10
23.5259958517
20
49.1269506659
30
0.0000000000
10
22.6814082602
20
48.6960984745
30
0.0000000000
10
20.9514111545
20
47.6446749051
30
0.0000000000
10
18.4888952867
20
45.6740717505
30
0.0000000000
10
16.1124518976
20
43.2677984893
30
0.0000000000
10
13.9203150215
20
40.5167578780
30
0.0000000000
10
11.9654815535
20
37.4884632853
30
0.0000000000
10
10.2947169490
20
34.2561299631
30
0.0000000000
10
8.9478483754
20
30.8969712056
30
0.0000000000
10
7.9575481615
20
27.4919357838
30
0.0000000000
10
7.3480324975
20
24.1234743942
30
0.0000000000
10
7.1343384700
20
20.8723944473
30
0.0000000000
10
7.3225745395
20
17.8156479452
30
0.0000000000
10
7.9107296319
20
15.0250064299
30
0.0000000000
10
8.6887023794
20
13.0715892719
30
0.0000000000
10
9.2549857534
20
12.0737706717
30
0.0000000000
10
9.3966865098
20
11.8431668134
30
0.0000000000
11
23.5259958517
21
49.1269506659
31
0.0000000000
11
21.0884300937
21
47.6608169226
31
0.0000000000
11
18.5774769091
21
45.6672923087
31
0.0000000000
11
16.1894226112
21
43.2619733774
31
0.0000000000
11
13.9855522839
21
40.5057887198
31
0.0000000000
11
12.0217810206
21
37.4693424225
31
0.0000000000
11
10.3449674417
21
34.2261353602
31
0.0000000000
11
8.9954531992
21
30.8541307066
31
0.0000000000
11
8.0069281588
21
27.4368635272
31
0.0000000000
11
7.4039893944
21
24.0592842607
31
0.0000000000
11
7.2013662603
21
20.8044440995
31
0.0000000000
11
7.4039899154
21
17.7522268727
31
0.0000000000
11
8.0069295001
21
14.9775857818
31
0.0000000000
11
8.9954550822
21
12.5488444862
31
0.0000000000
11
9.3966865098
21
11.8431668134
31
0.0000000000
0
SPLINE
5
27B
100
AcDbEntity
8
0
100
AcDbSpline
62
9
6
CONTINUOUS
70
0
71
3
72
24
73
20
74
18
42
0.0000001000
43
0.0000001000
44
0.0000000001
12
-45.8345216297
22
-22.9172608147
32
0.0000000000
13
50.2957404365
23
-10.5192040046
33
0.0000000000
40
0.0000000000
40
0.0000000000
40
0.0000000000
40
0.0000000000
40
0.0584886222
40
0.1210528583
40
0.1871953878
40
0.2560608476
40
0.3266272231
40
0.3978744841
40
0.4687506074
40
0.5381701051
40
0.6051230843
40
0.6687618701
40
0.7284547109
40
0.7838633740
40
0.8350338448
40
0.8824807625
40
0.9272586265
40
0.9709241529
40
1.0000000000
40
1.0000000000
40
1.0000000000
40
1.0000000000
10
34.7887740621
20
43.6329156482
30
0.0000000000
10
33.8951747222
20
43.1861159783
30
0.0000000000
10
32.1174671607
20
42.1135853605
30
0.0000000000
10
29.6150254915
20
40.1110180417
30
0.0000000000
10
27.2385769252
20
37.7047533187
30
0.0000000000
10
25.0464367888
20
34.9537057897
30
0.0000000000
10
23.0915986750
20
31.9254067798
30
0.0000000000
10
21.4208351132
20
28.6930745504
30
0.0000000000
10
20.0739678622
20
25.3339214074
30
0.0000000000
10
19.0836672346
20
21.9288889642
30
0.0000000000
10
18.4741502286
20
18.5604273300
30
0.0000000000
10
18.2604549908
20
15.3093474939
30
0.0000000000
10
18.4486894263
20
12.2526029874
30
0.0000000000
10
19.0368419932
20
9.4619626944
30
0.0000000000
10
20.0158940559
20
7.0036461545
30
0.0000000000
10
21.3702403918
20
4.9395788959
30
0.0000000000
10
23.0747445979
20
3.3294913352
30
0.0000000000
10
24.8556765903
20
2.3548734392
30
0.0000000000
10
26.0548017919
20
2.0023802227
30
0.0000000000
10
26.5422655443
20
1.9004286337
30
0.0000000000
11
34.7887740621
21
43.6329156482
31
0.0000000000
11
32.2145458966
21
42.0977619491
31
0.0000000000
11
29.7036075756
21
40.1042439347
31
0.0000000000
11
27.3155531378
21
37.6989312549
31
0.0000000000
11
25.1116732977
21
34.9427361581
31
0.0000000000
11
23.1478954823
21
31.9062806008
31
0.0000000000
11
21.4710848575
21
28.6630791350
31
0.0000000000
11
20.1215734485
21
25.2910836118
31
0.0000000000
11
19.1330474637
21
21.8738177824
31
0.0000000000
11
18.5301070370
21
18.4962364505
31
0.0000000000
11
18.3274826628
21
15.2413962253
31
0.0000000000
11
18.5301046001
21
12.1891814356
31
0.0000000000
11
19.1330411356
21
9.4145435416
31
0.0000000000
11
20.1215645362
21
6.9857998803
31
0.0000000000
11
21.4710809586
21
4.9633033052
31
0.0000000000
11
23.1478930420
21
3.3969094739
31
0.0000000000
11
25.1116460370
21
2.3242402952
31
0.0000000000
11
26.5422655443
21
1.9004286337
31
0.0000000000
0
SPLINE
5
27C
100
AcDbEntity
8
0
100
AcDbSpline
62
9
6
CONTINUOUS
70
0
71
3
72
14
73
10
74
8
42
0.0000001000
43
0.0000001000
44
0.0000000001
12
16.7935794884
22
4.9754918930
32
0.0000000000
13
0.0047726470
23
17.5926801000
33
0.0000000000
40
0.0000000000
40
0.0000000000
40
0.0000000000
40
0.0000000000
40
0.1965898791
40
0.3779960588
40
0.5422511344
40
0.6887463092
40
0.8191040286
40
0.9377889843
40
1.0000000000
40
1.0000000000
40
1.0000000000
40
1.0000000000
10
67.6063690597
20
50.6262844052
30
0.0000000000
10
68.7068516468
20
50.9523281884
30
0.0000000000
10
70.7955781810
20
51.6789074370
30
0.0000000000
10
73.6574671247
20
53.0502357123
30
0.0000000000
10
76.0669400687
20
54.6354460601
30
0.0000000000
10
77.9616641143
20
56.4022195445
30
0.0000000000
10
79.2888217770
20
58.3194480705
30
0.0000000000
10
79.8930137160
20
60.0619108543
30
0.0000000000
10
79.9836744636
20
61.1228513544
30
0.0000000000
10
79.9837734340
20
61.4876708537
30
0.0000000000
11
67.6063690597
21
50.6262844052
31
0.0000000000
11
70.8541240878
21
51.7701312199
31
0.0000000000
11
73.7116149014
21
53.1594903986
31
0.0000000000
11
76.1017630329
21
54.7607489339
31
0.0000000000
11
77.9581105184
21
56.5321116128
31
0.0000000000
11
79.2314935755
21
58.4272756384
31
0.0000000000
11
79.8905092098
21
60.3988322619
31
0.0000000000
11
79.9837734340
21
61.4876708537
31
0.0000000000
0
SPLINE
5
27D
100
AcDbEntity
8
0
100
AcDbSpline
62
7
6
CONTINUOUS
70
0
71
3
72
13
73
9
74
7
42
0.0000001000
43
0.0000001000
44
0.0000000001
12
2.5867819137
22
1.2933909568
32
0.0000000000
13
-0.0000002783
23
2.9024432798
33
0.0000000000
40
0.0000000000
40
0.0000000000
40
0.0000000000
40
0.0000000000
40
0.2237962465
40
0.4265563584
40
0.6088866393
40
0.7735685426
40
0.9259995214
40
1.0000000000
40
1.0000000000
40
1.0000000000
40
1.0000000000
10
58.9772336955
20
94.8734037920
30
0.0000000000
10
59.1702043897
20
94.9698891391
30
0.0000000000
10
59.5286145630
20
95.1739453321
30
0.0000000000
10
59.9964093946
20
95.5320296711
30
0.0000000000
10
60.3598845067
20
95.9219487867
30
0.0000000000
10
60.6105240794
20
96.3380332601
30
0.0000000000
10
60.7190030797
20
96.7040618994
30
0.0000000000
10
60.7344722234
20
96.9231300717
30
0.0000000000
10
60.7344722165
20
96.9947241356
30
0.0000000000
11
58.9772336955
21
94.8734037920
31
0.0000000000
11
59.5378404539
21
95.1968911361
31
0.0000000000
11
60.0006669457
21
95.5569771754
31
0.0000000000
11
60.3562913583
21
95.9463315968
31
0.0000000000
11
60.5974742042
21
96.3570282669
31
0.0000000000
11
60.7193056960
21
96.7807065860
31
0.0000000000
11
60.7344722165
21
96.9947241356
31
0.0000000000
0
SPLINE
5
27E
100
AcDbEntity
8
0
100
AcDbSpline
62
7
6
CONTINUOUS
70
0
71
3
72
12
73
8
74
6
42
0.0000001000
43
0.0000001000
44
0.0000000001
12
2.5858647736
22
1.2929323868
32
0.0000000000
13
0.0000021337
23
2.9009323051
33
0.0000000000
40
0.0000000000
40
0.0000000000
40
0.0000000000
40
0.0000000000
40
0.2450762492
40
0.4646860829
40
0.6600369772
40
0.8356736089
40
1.0000000000
40
1.0000000000
40
1.0000000000
40
1.0000000000
10
58.9772336955
20
86.0399446734
30
0.0000000000
10
59.1884783753
20
86.1455670134
30
0.0000000000
10
59.5779413711
20
86.3698592431
30
0.0000000000
10
60.0770522217
20
86.7689111489
30
0.0000000000
10
60.4486282633
20
87.2058401742
30
0.0000000000
10
60.6808251279
20
87.6736283510
30
0.0000000000
10
60.7345928915
20
88.0023651048
30
0.0000000000
10
60.7345930083
20
88.1612650170
30
0.0000000000
11
58.9772336955
21
86.0399446734
31
0.0000000000
11
59.5886949746
21
86.3979092601
31
0.0000000000
11
60.0806321535
21
86.7992935178
31
0.0000000000
11
60.4409321061
21
87.2342140339
31
0.0000000000
11
60.6607230519
21
87.6919616219
31
0.0000000000
11
60.7345930083
21
88.1612650170
31
0.0000000000
0
SPLINE
5
27F
100
AcDbEntity
8
0
100
AcDbSpline
62
9
6
CONTINUOUS
70
0
71
3
72
10
73
6
74
4
42
0.0000001000
43
0.0000001000
44
0.0000000001
12
1.8954622408
22
0.9477311204
32
0.0000000000
13
2.0318891709
23
0.6019948341
33
0.0000000000
40
0.0000000000
40
0.0000000000
40
0.0000000000
40
0.0000000000
40
0.3195323692
40
0.6524695199
40
1.0000000000
40
1.0000000000
40
1.0000000000
40
1.0000000000
10
65.6330343375
20
49.8602744794
30
0.0000000000
10
65.8349215177
20
49.9612180695
30
0.0000000000
10
66.2543031352
20
50.1533043215
30
0.0000000000
10
66.9134658623
20
50.4082447478
30
0.0000000000
10
67.3709879200
20
50.5565472206
30
0.0000000000
10
67.6063690597
20
50.6262844052
30
0.0000000000
11
65.6330343375
21
49.8602744794
31
0.0000000000
11
66.2482537591
21
50.1431833700
31
0.0000000000
11
66.9059969795
21
50.3984973298
31
0.0000000000
11
67.6063690597
21
50.6262844052
31
0.0000000000
0
SPLINE
5
280
100
AcDbEntity
8
0
100
AcDbSpline
62
7
6
CONTINUOUS
70
0
71
3
72
12
73
8
74
6
42
0.0000001000
43
0.0000001000
44
0.0000000001
12
2.5854206804
22
1.2927103402
32
0.0000000000
13
0.0033076350
23
2.9030794476
33
0.0000000000
40
0.0000000000
40
0.0000000000
40
0.0000000000
40
0.0000000000
40
0.2572927079
40
0.4863725014
40
0.6889277868
40
0.8708439206
40
1.0000000000
40
1.0000000000
40
1.0000000000
40
1.0000000000
10
58.9772336955
20
73.2227686974
30
0.0000000000
10
59.1989703247
20
73.3336370121
30
0.0000000000
10
59.6060458583
20
73.5696007354
30
0.0000000000
10
60.1220465095
20
73.9927683099
30
0.0000000000
10
60.4959296319
20
74.4576408012
30
0.0000000000
10
60.6965418688
20
74.9180461477
30
0.0000000000
10
60.7343186769
20
75.2193179309
30
0.0000000000
10
60.7344610773
20
75.3443013841
30
0.0000000000
11
58.9772336955
21
73.2227686974
31
0.0000000000
11
59.6176853120
21
73.6008585948
31
0.0000000000
11
60.1249388997
21
74.0264992744
31
0.0000000000
11
60.4851579031
21
74.4880803682
31
0.0000000000
11
60.6885164868
21
74.9730111472
31
0.0000000000
11
60.7344610773
21
75.3443013841
31
0.0000000000
0
SPLINE
5
281
100
AcDbEntity
8
0
100
AcDbSpline
62
7
6
CONTINUOUS
70
0
71
3
72
24
73
20
74
18
42
0.0000001000
43
0.0000001000
44
0.0000000001
12
0.0000011189
22
-11.6697638965
32
0.0000000000
13
10.4005940081
23
5.2002970041
33
0.0000000000
40
0.0000000000
40
0.0000000000
40
0.0000000000
40
0.0000000000
40
0.0184050192
40
0.0563168633
40
0.0972756940
40
0.1426239378
40
0.1930533835
40
0.2487148276
40
0.3093506016
40
0.3744026151
40
0.4430934459
40
0.5144885973
40
0.5875473786
40
0.6611674490
40
0.7342262303
40
0.8056213817
40
0.8743122125
40
0.9393642260
40
1.0000000000
40
1.0000000000
40
1.0000000000
40
1.0000000000
10
48.7347138002
20
96.9947241356
30
0.0000000000
10
48.7347138070
20
96.9231300596
30
0.0000000000
10
48.7501829962
20
96.7040619119
30
0.0000000000
10
48.8586613325
20
96.3380335205
30
0.0000000000
10
49.1093040327
20
95.9219476591
30
0.0000000000
10
49.4727656188
20
95.5320346030
30
0.0000000000
10
49.9406195328
20
95.1739237781
30
0.0000000000
10
50.5036222791
20
94.8533545702
30
0.0000000000
10
51.1509061245
20
94.5760447015
30
0.0000000000
10
51.8698368552
20
94.3472701434
30
0.0000000000
10
52.6462020489
20
94.1715359003
30
0.0000000000
10
53.4645174469
20
94.0523648717
30
0.0000000000
10
54.3083757510
20
93.9921679408
30
0.0000000000
10
55.1608099756
20
93.9921677161
30
0.0000000000
10
56.0046699920
20
94.0523655340
30
0.0000000000
10
56.8229787844
20
94.1715335702
30
0.0000000000
10
57.5993673157
20
94.3472782837
30
0.0000000000
10
58.3182178565
20
94.5760168899
30
0.0000000000
10
58.7670176729
20
94.7682957808
30
0.0000000000
10
58.9772336955
20
94.8734037920
30
0.0000000000
11
48.7347138002
21
96.9947241356
31
0.0000000000
11
48.7498803207
21
96.7807065860
31
0.0000000000
11
48.8717118125
21
96.3570282669
31
0.0000000000
11
49.1128946583
21
95.9463315968
31
0.0000000000
11
49.4685190709
21
95.5569771754
31
0.0000000000
11
49.9313455628
21
95.1968911361
31
0.0000000000
11
50.4919523212
21
94.8734037920
31
0.0000000000
11
51.1389270093
21
94.5931004128
31
0.0000000000
11
51.8590990880
21
94.3616871669
31
0.0000000000
11
52.6378079308
21
94.1838749606
31
0.0000000000
11
53.4592012710
21
94.0632835377
31
0.0000000000
11
54.3065579092
21
94.0023677918
31
0.0000000000
11
55.1626281075
21
94.0023677918
31
0.0000000000
11
56.0099847457
21
94.0632835377
31
0.0000000000
11
56.8313780859
21
94.1838749606
31
0.0000000000
11
57.6100869287
21
94.3616871669
31
0.0000000000
11
58.3302590074
21
94.5931004128
31
0.0000000000
11
58.9772336955
21
94.8734037920
31
0.0000000000
0
SPLINE
5
282
100
AcDbEntity
8
0
100
AcDbSpline
62
7
6
CONTINUOUS
70
0
71
3
72
16
73
12
74
10
42
0.0000001000
43
0.0000001000
44
0.0000000001
12
5.9410940056
22
2.9705470028
32
0.0000000000
13
-4.6876452981
23
4.7175559353
33
0.0000000000
40
0.0000000000
40
0.0000000000
40
0.0000000000
40
0.0000000000
40
0.1536919929
40
0.2922119657
40
0.4161248027
40
0.5277566409
40
0.6315190737
40
0.7335971176
40
0.8406126690
40
0.9579673138
40
1.0000000000
40
1.0000000000
40
1.0000000000
40
1.0000000000
10
61.1368686629
20
84.9601271897
30
0.0000000000
10
61.4412348555
20
85.1123102860
30
0.0000000000
10
62.0045533192
20
85.4347959640
30
0.0000000000
10
62.7334880440
20
86.0044324731
30
0.0000000000
10
63.2887850752
20
86.6263272566
30
0.0000000000
10
63.6554392525
20
87.2909809301
30
0.0000000000
10
63.8173542322
20
87.9854612827
30
0.0000000000
10
63.7629833371
20
88.6868642464
30
0.0000000000
10
63.4966647865
20
89.3685868565
30
0.0000000000
10
63.1497093757
20
89.8516749136
30
0.0000000000
10
62.9083806996
20
90.1099934401
30
0.0000000000
10
62.8427025917
20
90.1760906228
30
0.0000000000
11
61.1368686629
21
84.9601271897
31
0.0000000000
11
62.0195702058
21
85.4729860905
31
0.0000000000
11
62.7395373962
21
86.0458967003
31
0.0000000000
11
63.2806873567
21
86.6660611427
31
0.0000000000
11
63.6309316915
21
87.3196259689
31
0.0000000000
11
63.7824465209
21
87.9919916207
31
0.0000000000
11
63.7318472539
21
88.6681385604
31
0.0000000000
11
63.4802641945
21
89.3329627828
31
0.0000000000
11
63.0333172927
21
89.9716132132
31
0.0000000000
11
62.8427025917
21
90.1760906228
31
0.0000000000
0
SPLINE
5
283
100
AcDbEntity
8
0
100
AcDbSpline
62
7
6
CONTINUOUS
70
0
71
3
72
8
73
4
74
2
42
0.0000001000
43
0.0000001000
44
0.0000000001
12
-0.4172646876
22
0.4199271443
32
0.0000000000
13
-0.4632091651
23
0.3685898791
33
0.0000000000
40
0.0000000000
40
0.0000000000
40
0.0000000000
40
0.0000000000
40
1.0000000000
40
1.0000000000
40
1.0000000000
40
1.0000000000
10
62.8427025917
20
90.1760906228
30
0.0000000000
10
62.7036143625
20
90.3160663376
30
0.0000000000
10
62.5553936586
20
90.4469601635
30
0.0000000000
10
62.4009906036
20
90.5698234565
30
0.0000000000
11
62.8427025917
21
90.1760906228
31
0.0000000000
11
62.4009906036
21
90.5698234565
31
0.0000000000
0
SPLINE
5
284
100
AcDbEntity
8
0
100
AcDbSpline
62
7
6
CONTINUOUS
70
0
71
3
72
8
73
4
74
2
42
0.0000001000
43
0.0000001000
44
0.0000000001
12
-0.2676181805
22
0.2129520749
32
0.0000000000
13
-0.2791080658
23
0.1974239270
33
0.0000000000
40
0.0000000000
40
0.0000000000
40
0.0000000000
40
0.0000000000
40
1.0000000000
40
1.0000000000
40
1.0000000000
40
1.0000000000
10
62.4009906036
20
90.5698234565
30
0.0000000000
10
62.3117845434
20
90.6408074815
30
0.0000000000
10
62.2205148590
20
90.7091109725
30
0.0000000000
10
62.1274788371
20
90.7749189482
30
0.0000000000
11
62.4009906036
21
90.5698234565
31
0.0000000000
11
62.1274788371
21
90.7749189482
31
0.0000000000
0
SPLINE
5
285
100
AcDbEntity
8
0
100
AcDbSpline
62
7
6
CONTINUOUS
70
0
71
3
72
17
73
13
74
11
42
0.0000001000
43
0.0000001000
44
0.0000000001
12
8.9034649026
22
1.0005040372
32
0.0000000000
13
5.9898339338
23
-6.6629261624
33
0.0000000000
40
0.0000000000
40
0.0000000000
40
0.0000000000
40
0.0000000000
40
0.0940102411
40
0.1817237435
40
0.2668843580
40
0.3524617690
40
0.4408626303
40
0.5340925220
40
0.6340129445
40
0.7427727375
40
0.8633006544
40
1.0000000000
40
1.0000000000
40
1.0000000000
40
1.0000000000
10
44.2502553348
20
85.1977843838
30
0.0000000000
10
44.5292609621
20
85.2291369257
30
0.0000000000
10
45.0721799338
20
85.2630518454
30
0.0000000000
10
45.8699227306
20
85.2217490687
30
0.0000000000
10
46.6322757173
20
85.0892360967
30
0.0000000000
10
47.3747784774
20
84.8644631995
30
0.0000000000
10
48.1077830396
20
84.5447004788
30
0.0000000000
10
48.8391888162
20
84.1269858527
30
0.0000000000
10
49.5774639823
20
83.6073899264
30
0.0000000000
10
50.3341721278
20
82.9782873265
30
0.0000000000
10
51.1262925208
20
82.2241816406
30
0.0000000000
10
51.6523877359
20
81.6638563354
30
0.0000000000
10
51.9253231956
20
81.3602504534
30
0.0000000000
11
44.2502553348
21
85.1977843838
31
0.0000000000
11
45.0910645355
21
85.2476239828
31
0.0000000000
11
45.8758000333
21
85.2054232016
31
0.0000000000
11
46.6274602409
21
85.0743849153
31
0.0000000000
11
47.3615499618
21
84.8530507178
31
0.0000000000
11
48.0882791231
21
84.5381336720
31
0.0000000000
11
48.8149492048
21
84.1262285513
31
0.0000000000
11
49.5488262538
21
83.6135158036
31
0.0000000000
11
50.3001974533
21
82.9930624549
31
0.0000000000
11
51.0845666713
21
82.2508463983
31
0.0000000000
11
51.9253231956
21
81.3602504534
31
0.0000000000
0
SPLINE
5
286
100
AcDbEntity
8
0
100
AcDbSpline
62
7
6
CONTINUOUS
70
0
71
3
72
22
73
18
74
16
42
0.0000001000
43
0.0000001000
44
0.0000000001
12
-0.0000085808
22
-11.6662540669
32
0.0000000000
13
10.3991931759
23
5.1995965879
33
0.0000000000
40
0.0000000000
40
0.0000000000
40
0.0000000000
40
0.0000000000
40
0.0408614225
40
0.0845352510
40
0.1331112306
40
0.1877194414
40
0.2486601345
40
0.3156163512
40
0.3878302442
40
0.4642323203
40
0.5435386866
40
0.6243300672
40
0.7051214478
40
0.7844278142
40
0.8608298903
40
0.9330437833
40
1.0000000000
40
1.0000000000
40
1.0000000000
40
1.0000000000
10
48.7345930083
20
88.1612650170
30
0.0000000000
10
48.7345928915
20
88.0023651048
30
0.0000000000
10
48.7883601714
20
87.6736287151
30
0.0000000000
10
49.0205610006
20
87.2058387395
30
0.0000000000
10
49.3921193893
20
86.7689174493
30
0.0000000000
10
49.8913086974
20
86.3698312505
30
0.0000000000
10
50.5061064545
20
86.0157206276
30
0.0000000000
10
51.2223198825
20
85.7139543933
30
0.0000000000
10
52.0231771006
20
85.4713922754
30
0.0000000000
10
52.8896106640
20
85.2937928317
30
0.0000000000
10
53.8007690367
20
85.1854625786
30
0.0000000000
10
54.7345924739
20
85.1490538093
30
0.0000000000
10
55.6684190980
20
85.1854633814
30
0.0000000000
10
56.5795681995
20
85.2937897371
30
0.0000000000
10
57.4460338333
20
85.4714031565
30
0.0000000000
10
58.2467813935
20
85.7139173633
30
0.0000000000
10
58.7451368181
20
85.9238962348
30
0.0000000000
10
58.9772336955
20
86.0399446734
30
0.0000000000
11
48.7345930083
21
88.1612650170
31
0.0000000000
11
48.8084629648
21
87.6919616219
31
0.0000000000
11
49.0282539106
21
87.2342140339
31
0.0000000000
11
49.3885538632
21
86.7992935178
31
0.0000000000
11
49.8804910421
21
86.3979092601
31
0.0000000000
11
50.4919523212
21
86.0399446734
31
0.0000000000
11
51.2078814946
21
85.7342140339
31
0.0000000000
11
52.0106500099
21
85.4882454444
31
0.0000000000
11
52.8804910421
21
85.3080954681
31
0.0000000000
11
53.7959862181
21
85.1981999952
31
0.0000000000
11
54.7345930083
21
85.1612650170
31
0.0000000000
11
55.6731997986
21
85.1981999952
31
0.0000000000
11
56.5886949746
21
85.3080954681
31
0.0000000000
11
57.4585360068
21
85.4882454444
31
0.0000000000
11
58.2613045221
21
85.7342140339
31
0.0000000000
11
58.9772336955
21
86.0399446734
31
0.0000000000
0
SPLINE
5
287
100
AcDbEntity
8
0
100
AcDbSpline
62
7
6
CONTINUOUS
70
0
71
3
72
17
73
13
74
11
42
0.0000001000
43
0.0000001000
44
0.0000000001
12
9.4598833839
22
5.5081337624
32
0.0000000000
13
10.4429440267
23
-3.2823545265
33
0.0000000000
40
0.0000000000
40
0.0000000000
40
0.0000000000
40
0.0000000000
40
0.1194143489
40
0.2272308396
40
0.3273224946
40
0.4224346401
40
0.5146251683
40
0.6056332806
40
0.6972193963
40
0.7914931706
40
0.8911751180
40
1.0000000000
40
1.0000000000
40
1.0000000000
40
1.0000000000
10
51.9253231956
20
81.3602504534
30
0.0000000000
10
52.3018718005
20
81.5795005223
30
0.0000000000
10
53.0298914332
20
81.9775795539
30
0.0000000000
10
54.1142712155
20
82.4804658071
30
0.0000000000
10
55.1506364747
20
82.8691803177
30
0.0000000000
10
56.1614375849
20
83.1535401417
30
0.0000000000
10
57.1617119737
20
83.3375187989
30
0.0000000000
10
58.1623411824
20
83.4227299199
30
0.0000000000
10
59.1740637771
20
83.4102417779
30
0.0000000000
10
60.2115540219
20
83.2999909338
30
0.0000000000
10
61.2971025744
20
83.0881762727
30
0.0000000000
10
62.0308434854
20
82.8839526411
30
0.0000000000
10
62.4096608691
20
82.7648853598
30
0.0000000000
11
51.9253231956
21
81.3602504534
31
0.0000000000
11
53.0738899234
21
81.9843734164
31
0.0000000000
11
54.1458585487
21
82.4781569478
31
0.0000000000
11
55.1726454872
21
82.8605121308
31
0.0000000000
11
56.1754306946
21
83.1405705370
31
0.0000000000
11
57.1681611906
21
83.3220187392
31
0.0000000000
11
58.1608109825
21
83.4064385144
31
0.0000000000
11
59.1633056746
21
83.3949731127
31
0.0000000000
11
60.1896978208
21
83.2877158371
31
0.0000000000
11
61.2611660985
21
83.0812339195
31
0.0000000000
11
62.4096608691
21
82.7648853598
31
0.0000000000
0
SPLINE
5
288
100
AcDbEntity
8
0
100
AcDbSpline
62
7
6
CONTINUOUS
70
0
71
3
72
16
73
12
74
10
42
0.0000001000
43
0.0000001000
44
0.0000000001
12
8.8089306575
22
-2.7687626538
32
0.0000000000
13
8.3437801761
23
3.9600521710
33
0.0000000000
40
0.0000000000
40
0.0000000000
40
0.0000000000
40
0.0000000000
40
0.1290193614
40
0.2472464314
40
0.3590497271
40
0.4676559512
40
0.5755555547
40
0.6848405518
40
0.7975659489
40
0.9161811387
40
1.0000000000
40
1.0000000000
40
1.0000000000
40
1.0000000000
10
51.9253231956
20
75.9908929500
30
0.0000000000
10
52.3041640649
20
75.8718182868
30
0.0000000000
10
53.0380912273
20
75.6675444078
30
0.0000000000
10
54.1239629552
20
75.4556926180
30
0.0000000000
10
55.1618546079
20
75.3454690302
30
0.0000000000
10
56.1738369412
20
75.3330849976
30
0.0000000000
10
57.1745625244
20
75.4184332907
30
0.0000000000
10
58.1747345272
20
75.6025216819
30
0.0000000000
10
59.1852724893
20
75.8869137149
30
0.0000000000
10
60.0944773827
20
76.2279939623
30
0.0000000000
10
60.6634404487
20
76.4826347290
30
0.0000000000
10
60.8965624998
20
76.5932770836
30
0.0000000000
11
51.9253231956
21
75.9908929500
31
0.0000000000
11
53.0738899234
21
75.6745275141
31
0.0000000000
11
54.1458585487
21
75.4679771102
31
0.0000000000
11
55.1726454872
21
75.3607486582
31
0.0000000000
11
56.1754306946
21
75.3493857385
31
0.0000000000
11
57.1681611906
21
75.4339388711
31
0.0000000000
11
58.1608109825
21
75.6154988059
31
0.0000000000
11
59.1633056746
21
75.8955818507
31
0.0000000000
11
60.1896978208
21
76.2778600730
31
0.0000000000
11
60.8965624998
21
76.5932770836
31
0.0000000000
0
SPLINE
5
289
100
AcDbEntity
8
0
100
AcDbSpline
62
7
6
CONTINUOUS
70
0
71
3
72
8
73
4
74
2
42
0.0000001000
43
0.0000001000
44
0.0000000001
12
0.3666145641
22
0.1739994067
32
0.0000000000
13
0.3626096914
23
0.1822004729
33
0.0000000000
40
0.0000000000
40
0.0000000000
40
0.0000000000
40
0.0000000000
40
1.0000000000
40
1.0000000000
40
1.0000000000
40
1.0000000000
10
60.8965624998
20
76.5932770836
30
0.0000000000
10
61.0187673545
20
76.6512768858
30
0.0000000000
10
61.1402962014
20
76.7107075594
30
0.0000000000
10
61.2611660985
20
76.7714410504
30
0.0000000000
11
60.8965624998
21
76.5932770836
31
0.0000000000
11
61.2611660985
21
76.7714410504
31
0.0000000000
0
SPLINE
5
28A
100
AcDbEntity
8
0
100
AcDbSpline
62
7
6
CONTINUOUS
70
0
71
3
72
8
73
4
74
2
42
0.0000001000
43
0.0000001000
44
0.0000000001
12
1.1682131185
22
0.5869919853
32
0.0000000000
13
1.1295762575
23
0.6577097062
33
0.0000000000
40
0.0000000000
40
0.0000000000
40
0.0000000000
40
0.0000000000
40
1.0000000000
40
1.0000000000
40
1.0000000000
40
1.0000000000
10
61.2611660985
20
76.7714410504
30
0.0000000000
10
61.6505704714
20
76.9671050455
30
0.0000000000
10
62.0331354499
20
77.1762912876
30
0.0000000000
10
62.4096608691
20
77.3955278564
30
0.0000000000
11
61.2611660985
21
76.7714410504
31
0.0000000000
11
62.4096608691
21
77.3955278564
31
0.0000000000
0
SPLINE
5
28B
100
AcDbEntity
8
0
100
AcDbSpline
62
7
6
CONTINUOUS
70
0
71
3
72
17
73
13
74
11
42
0.0000001000
43
0.0000001000
44
0.0000000001
12
1.6726549910
22
5.9196230461
32
0.0000000000
13
6.0399449355
23
1.1656658627
33
0.0000000000
40
0.0000000000
40
0.0000000000
40
0.0000000000
40
0.0000000000
40
0.1770203193
40
0.3284558019
40
0.4595740009
40
0.5734783368
40
0.6720383279
40
0.7567015158
40
0.8291325159
40
0.8916069105
40
0.9471915056
40
1.0000000000
40
1.0000000000
40
1.0000000000
40
1.0000000000
10
62.4096608691
20
82.7648853598
30
0.0000000000
10
62.5083588426
20
83.1141832137
30
0.0000000000
10
62.6977142268
20
83.7605779412
30
0.0000000000
10
62.9865256697
20
84.6577105143
30
0.0000000000
10
63.2618445132
20
85.4228049474
30
0.0000000000
10
63.5297251620
20
86.0747178197
30
0.0000000000
10
63.7944006205
20
86.6239900913
30
0.0000000000
10
64.0592403067
20
87.0772372979
30
0.0000000000
10
64.3278072600
20
87.4400258806
30
0.0000000000
10
64.6053164949
20
87.7176216768
30
0.0000000000
10
64.8994093816
20
87.9131801221
30
0.0000000000
10
65.1126105491
20
87.9865351768
30
0.0000000000
10
65.2189306819
20
88.0070541966
30
0.0000000000
11
62.4096608691
21
82.7648853598
31
0.0000000000
11
62.7174183963
21
83.8094129232
31
0.0000000000
11
63.0046515237
21
84.6955642034
31
0.0000000000
11
63.2797782547
21
85.4537494902
31
0.0000000000
11
63.5484737412
21
86.1008527568
31
0.0000000000
11
63.8144750759
21
86.6456655397
31
0.0000000000
11
64.0804547860
21
87.0934203558
31
0.0000000000
11
64.3490724292
21
87.4488934786
31
0.0000000000
11
64.6240933758
21
87.7173218027
31
0.0000000000
11
64.9111924356
21
87.9030244941
31
0.0000000000
11
65.2189306819
21
88.0070541966
31
0.0000000000
0
SPLINE
5
28C
100
AcDbEntity
8
0
100
AcDbSpline
62
7
6
CONTINUOUS
70
0
71
3
72
9
73
5
74
3
42
0.0000001000
43
0.0000001000
44
0.0000000001
12
0.5448877810
22
0.1051594165
32
0.0000000000
13
0.4542168281
23
0.3208563424
33
0.0000000000
40
0.0000000000
40
0.0000000000
40
0.0000000000
40
0.0000000000
40
0.5854073430
40
1.0000000000
40
1.0000000000
40
1.0000000000
40
1.0000000000
10
62.4096608691
20
77.3955278564
30
0.0000000000
10
62.5159879718
20
77.4160482212
30
0.0000000000
10
62.6934319387
20
77.4771023651
30
0.0000000000
10
62.8524237739
20
77.5732765838
30
0.0000000000
10
62.9151954278
20
77.6176181449
30
0.0000000000
11
62.4096608691
21
77.3955278564
31
0.0000000000
11
62.7174183963
21
77.4995670209
31
0.0000000000
11
62.9151954278
21
77.6176181449
31
0.0000000000
0
SPLINE
5
28D
100
AcDbEntity
8
0
100
AcDbSpline
62
7
6
CONTINUOUS
70
0
71
3
72
10
73
6
74
4
42
0.0000001000
43
0.0000001000
44
0.0000000001
12
0.5814373257
22
2.1346741690
32
0.0000000000
13
-0.2462963191
23
2.1986908139
33
0.0000000000
40
0.0000000000
40
0.0000000000
40
0.0000000000
40
0.0000000000
40
0.3325406399
40
0.6693098370
40
1.0000000000
40
1.0000000000
40
1.0000000000
40
1.0000000000
10
55.4459835855
20
44.7667491033
30
0.0000000000
10
55.5104340989
20
45.0033710747
30
0.0000000000
10
55.6088877043
20
45.4887011127
30
0.0000000000
10
55.6642439625
20
46.2258105828
30
0.0000000000
10
55.6403469189
20
46.7189825234
30
0.0000000000
10
55.6131976623
20
46.9613443313
30
0.0000000000
11
55.4459835855
21
44.7667491033
31
0.0000000000
11
55.5931082693
21
45.4876157774
31
0.0000000000
11
55.6490908591
21
46.2305922319
31
0.0000000000
11
55.6131976623
21
46.9613443313
31
0.0000000000
0
SPLINE
5
28E
100
AcDbEntity
8
0
100
AcDbSpline
62
7
6
CONTINUOUS
70
0
71
3
72
8
73
4
74
2
42
0.0000001000
43
0.0000001000
44
0.0000000001
12
-0.0004475163
22
-0.5646515204
32
0.0000000000
13
-0.1238072355
23
-0.5506411975
33
0.0000000000
40
0.0000000000
40
0.0000000000
40
0.0000000000
40
0.0000000000
40
1.0000000000
40
1.0000000000
40
1.0000000000
40
1.0000000000
10
64.7344562655
20
71.8802494128
30
0.0000000000
10
64.7343070934
20
71.6920322393
30
0.0000000000
10
64.7129841858
20
71.5037121112
30
0.0000000000
10
64.6717151073
20
71.3201650453
30
0.0000000000
11
64.7344562655
21
71.8802494128
31
0.0000000000
11
64.6717151073
21
71.3201650453
31
0.0000000000
0
SPLINE
5
28F
100
AcDbEntity
8
0
100
AcDbSpline
62
7
6
CONTINUOUS
70
0
71
3
72
8
73
4
74
2
42
0.0000001000
43
0.0000001000
44
0.0000000001
12
-0.0351032076
22
-0.1561239306
32
0.0000000000
13
-0.0444369290
23
-0.1536655276
33
0.0000000000
40
0.0000000000
40
0.0000000000
40
0.0000000000
40
0.0000000000
40
1.0000000000
40
1.0000000000
40
1.0000000000
40
1.0000000000
10
64.6717151073
20
71.3201650453
30
0.0000000000
10
64.6600140381
20
71.2681237351
30
0.0000000000
10
64.6467094980
20
71.2164661310
30
0.0000000000
10
64.6318971883
20
71.1652442884
30
0.0000000000
11
64.6717151073
21
71.3201650453
31
0.0000000000
11
64.6318971883
21
71.1652442884
31
0.0000000000
0
SPLINE
5
290
100
AcDbEntity
8
0
100
AcDbSpline
62
7
6
CONTINUOUS
70
0
71
3
72
22
73
18
74
16
42
0.0000001000
43
0.0000001000
44
0.0000000001
12
-0.0133028379
22
-11.6757729222
32
0.0000000000
13
10.3981945094
23
5.1990972547
33
0.0000000000
40
0.0000000000
40
0.0000000000
40
0.0000000000
40
0.0000000000
40
0.0106151365
40
0.0542019120
40
0.1017423980
40
0.1552920835
40
0.2157601835
40
0.2831477460
40
0.3568076131
40
0.4356403369
40
0.5182361560
40
0.6029849622
40
0.6881696302
40
0.7720519615
40
0.8529573002
40
0.9293632797
40
1.0000000000
40
1.0000000000
40
1.0000000000
40
1.0000000000
10
48.7347249394
20
75.3438766978
30
0.0000000000
10
48.7346778689
20
75.3025633902
30
0.0000000000
10
48.7431087763
20
75.0916714076
30
0.0000000000
10
48.8440070420
20
74.7033781733
30
0.0000000000
10
49.1415843464
20
74.2204564265
30
0.0000000000
10
49.5882176920
20
73.7754910184
30
0.0000000000
10
50.1703429867
20
73.3760358868
30
0.0000000000
10
50.8730213214
20
73.0303771764
30
0.0000000000
10
51.6783069859
20
72.7467879454
30
0.0000000000
10
52.5651961377
20
72.5325670015
30
0.0000000000
10
53.5101974295
20
72.3934160156
30
0.0000000000
10
54.4880572725
20
72.3330958748
30
0.0000000000
10
55.4725422340
20
72.3532496059
30
0.0000000000
10
56.4371988506
20
72.4533208105
30
0.0000000000
10
57.3562463931
20
72.6306204062
30
0.0000000000
10
58.2050009059
20
72.8802925357
30
0.0000000000
10
58.7324022432
20
73.1003529713
30
0.0000000000
10
58.9772336955
20
73.2227686974
30
0.0000000000
11
48.7347249394
21
75.3438766978
31
0.0000000000
11
48.7397184580
21
75.2201141182
31
0.0000000000
11
48.8622919364
21
74.7284430144
31
0.0000000000
11
49.1450464800
21
74.2535651293
31
0.0000000000
11
49.5802692821
21
73.8084338937
31
0.0000000000
11
50.1560885991
21
73.4051913274
31
0.0000000000
11
50.8567975812
21
73.0548368364
31
0.0000000000
11
51.6632827138
21
72.7669271779
31
0.0000000000
11
52.5535451850
21
72.5493157768
31
0.0000000000
11
53.5033009552
21
72.4079385050
31
0.0000000000
11
54.4866431629
21
72.3466517658
31
0.0000000000
11
55.4767487960
21
72.3671273018
31
0.0000000000
11
56.4466103538
21
72.4688065936
31
0.0000000000
11
57.3697725414
21
72.6489160953
31
0.0000000000
11
58.2210539008
21
72.9025428892
31
0.0000000000
11
58.9772336955
21
73.2227686974
31
0.0000000000
0
SPLINE
5
291
100
AcDbEntity
8
0
100
AcDbSpline
62
7
6
CONTINUOUS
70
0
71
3
72
22
73
18
74
16
42
0.0000001000
43
0.0000001000
44
0.0000000001
12
0.0000143013
22
-19.4437567781
32
0.0000000000
13
-17.3319886265
23
8.6659943132
33
0.0000000000
40
0.0000000000
40
0.0000000000
40
0.0000000000
40
0.0000000000
40
0.0408614225
40
0.0845352510
40
0.1331112306
40
0.1877194414
40
0.2486601345
40
0.3156163512
40
0.3878302442
40
0.4642323203
40
0.5435386866
40
0.6243300672
40
0.7051214478
40
0.7844278142
40
0.8608298903
40
0.9330437833
40
1.0000000000
40
1.0000000000
40
1.0000000000
40
1.0000000000
10
64.7345930083
20
75.3440890410
30
0.0000000000
10
64.7345932031
20
75.0792558540
30
0.0000000000
10
64.6449810699
20
74.5313618711
30
0.0000000000
10
64.2579796879
20
73.7517119119
30
0.0000000000
10
63.6387157067
20
73.0235097614
30
0.0000000000
10
62.8067335266
20
72.3583660969
30
0.0000000000
10
61.7820705981
20
71.7681817253
30
0.0000000000
10
60.5883815515
20
71.2652380016
30
0.0000000000
10
59.2536195213
20
70.8609678050
30
0.0000000000
10
57.8095635823
20
70.5649687322
30
0.0000000000
10
56.2909662944
20
70.3844183104
30
0.0000000000
10
54.7345938990
20
70.3237370281
30
0.0000000000
10
53.1782161923
20
70.3844196484
30
0.0000000000
10
51.6596343563
20
70.5649635745
30
0.0000000000
10
50.2155249668
20
70.8609859402
30
0.0000000000
10
48.8809456998
20
71.2651762848
30
0.0000000000
10
48.0503533254
20
71.6151410706
30
0.0000000000
10
47.6635251965
20
71.8085551350
30
0.0000000000
11
64.7345930083
21
75.3440890410
31
0.0000000000
11
64.6114764143
21
74.5619167158
31
0.0000000000
11
64.2451581713
21
73.7990040691
31
0.0000000000
11
63.6446582502
21
73.0741365423
31
0.0000000000
11
62.8247629521
21
72.4051627795
31
0.0000000000
11
61.8056608202
21
71.8085551350
31
0.0000000000
11
60.6124455313
21
71.2990040691
31
0.0000000000
11
59.2744980057
21
70.8890564200
31
0.0000000000
11
57.8247629521
21
70.5888064595
31
0.0000000000
11
56.2989376587
21
70.4056473380
31
0.0000000000
11
54.7345930083
21
70.3440890410
31
0.0000000000
11
53.1702483579
21
70.4056473380
31
0.0000000000
11
51.6444230646
21
70.5888064595
31
0.0000000000
11
50.1946880109
21
70.8890564200
31
0.0000000000
11
48.8567404854
21
71.2990040691
31
0.0000000000
11
47.6635251965
21
71.8085551350
31
0.0000000000
0
SPLINE
5
292
100
AcDbEntity
8
0
100
AcDbSpline
62
7
6
CONTINUOUS
70
0
71
3
72
12
73
8
74
6
42
0.0000001000
43
0.0000001000
44
0.0000000001
12
-4.3097746227
22
2.1548873113
32
0.0000000000
13
-0.0000035562
23
4.8348871752
33
0.0000000000
40
0.0000000000
40
0.0000000000
40
0.0000000000
40
0.0000000000
40
0.2450762492
40
0.4646860829
40
0.6600369772
40
0.8356736089
40
1.0000000000
40
1.0000000000
40
1.0000000000
40
1.0000000000
10
47.6635251965
20
71.8085551350
30
0.0000000000
10
47.3114507300
20
71.9845923683
30
0.0000000000
10
46.6623457371
20
72.3584127512
30
0.0000000000
10
45.8304943194
20
73.0234992609
30
0.0000000000
10
45.2112009168
20
73.7517143030
30
0.0000000000
10
44.8242061423
20
74.5313612643
30
0.0000000000
10
44.7345932031
20
75.0792558540
30
0.0000000000
10
44.7345930083
20
75.3440890410
30
0.0000000000
11
47.6635251965
21
71.8085551350
31
0.0000000000
11
46.6444230646
21
72.4051627795
31
0.0000000000
11
45.8245277665
21
73.0741365423
31
0.0000000000
11
45.2240278454
21
73.7990040691
31
0.0000000000
11
44.8577096024
21
74.5619167158
31
0.0000000000
11
44.7345930083
21
75.3440890410
31
0.0000000000
0
SPLINE
5
293
100
AcDbEntity
8
0
100
AcDbSpline
62
7
6
CONTINUOUS
70
0
71
3
72
9
73
5
74
3
42
0.0000001000
43
0.0000001000
44
0.0000000001
12
-0.2007386546
22
0.6961344967
32
0.0000000000
13
0.0005741120
23
0.7243830064
33
0.0000000000
40
0.0000000000
40
0.0000000000
40
0.0000000000
40
0.0000000000
40
0.7419808782
40
1.0000000000
40
1.0000000000
40
1.0000000000
40
1.0000000000
10
44.8374447650
20
71.1652422512
30
0.0000000000
10
44.7877966840
20
71.3374150796
30
0.0000000000
10
44.7434803527
20
71.5760066004
30
0.0000000000
10
44.7346803739
20
71.8174238832
30
0.0000000000
10
44.7347297512
20
71.8797254389
30
0.0000000000
11
44.8374447650
21
71.1652422512
31
0.0000000000
11
44.7415859605
21
71.6930314545
31
0.0000000000
11
44.7347297512
21
71.8797254389
31
0.0000000000
0
SPLINE
5
294
100
AcDbEntity
8
0
100
AcDbSpline
62
9
6
CONTINUOUS
70
0
71
3
72
9
73
5
74
3
42
0.0000001000
43
0.0000001000
44
0.0000000001
12
-0.2089642194
22
-0.0193468300
32
0.0000000000
13
-0.2085317989
23
-0.0230765109
33
0.0000000000
40
0.0000000000
40
0.0000000000
40
0.0000000000
40
0.0000000000
40
0.5208373800
40
1.0000000000
40
1.0000000000
40
1.0000000000
40
1.0000000000
10
28.8566105276
20
50.7630569067
30
0.0000000000
10
28.8203317354
20
50.7596980559
30
0.0000000000
10
28.7507113752
20
50.7529222144
30
0.0000000000
10
28.6811642689
20
50.7455249707
30
0.0000000000
10
28.6478573879
20
50.7418391703
30
0.0000000000
11
28.8566105276
21
50.7630569067
31
0.0000000000
11
28.7478298351
21
50.7524712641
31
0.0000000000
11
28.6478573879
21
50.7418391703
31
0.0000000000
0
SPLINE
5
295
100
AcDbEntity
8
0
100
AcDbSpline
62
9
6
CONTINUOUS
70
0
71
3
72
8
73
4
74
2
42
0.0000001000
43
0.0000001000
44
0.0000000001
12
-0.6660316021
22
-0.0737042773
32
0.0000000000
13
-0.6607697280
23
-0.1101739697
33
0.0000000000
40
0.0000000000
40
0.0000000000
40
0.0000000000
40
0.0000000000
40
1.0000000000
40
1.0000000000
40
1.0000000000
40
1.0000000000
10
28.6478573879
20
50.7418391703
30
0.0000000000
10
28.4258468538
20
50.7172710778
30
0.0000000000
10
28.2046135234
20
50.6864241918
30
0.0000000000
10
27.9843569473
20
50.6496995352
30
0.0000000000
11
28.6478573879
21
50.7418391703
31
0.0000000000
11
27.9843569473
21
50.6496995352
31
0.0000000000
0
SPLINE
5
296
100
AcDbEntity
8
0
100
AcDbSpline
62
9
6
CONTINUOUS
70
0
71
3
72
8
73
4
74
2
42
0.0000001000
43
0.0000001000
44
0.0000000001
12
-0.1017689888
22
-0.0169685338
32
0.0000000000
13
-0.1016277849
23
-0.0178006936
33
0.0000000000
40
0.0000000000
40
0.0000000000
40
0.0000000000
40
0.0000000000
40
1.0000000000
40
1.0000000000
40
1.0000000000
40
1.0000000000
10
27.9843569473
20
50.6496995352
30
0.0000000000
10
27.9504339511
20
50.6440433572
30
0.0000000000
10
27.9165341243
20
50.6382477534
30
0.0000000000
10
27.8826581959
20
50.6323141889
30
0.0000000000
11
27.9843569473
21
50.6496995352
31
0.0000000000
11
27.8826581959
21
50.6323141889
31
0.0000000000
0
SPLINE
5
297
100
AcDbEntity
8
0
100
AcDbSpline
62
9
6
CONTINUOUS
70
0
71
3
72
9
73
5
74
3
42
0.0000001000
43
0.0000001000
44
0.0000000001
12
-4.4065434554
22
-0.7718315416
32
0.0000000000
13
-3.9957417831
23
-1.9978708916
33
0.0000000000
40
0.0000000000
40
0.0000000000
40
0.0000000000
40
0.0000000000
40
0.3785995142
40
1.0000000000
40
1.0000000000
40
1.0000000000
40
1.0000000000
10
27.8826581959
20
50.6323141889
30
0.0000000000
10
27.3265531255
20
50.5349091734
30
0.0000000000
10
25.8747159990
20
50.1794330569
30
0.0000000000
10
24.4903096537
20
49.6097998142
30
0.0000000000
10
23.6626576920
20
49.1959738333
30
0.0000000000
11
27.8826581959
21
50.6323141889
31
0.0000000000
11
26.2368888298
21
50.2350462365
31
0.0000000000
11
23.6626576920
21
49.1959738333
31
0.0000000000
0
SPLINE
5
298
100
AcDbEntity
8
0
100
AcDbSpline
62
7
6
CONTINUOUS
70
0
71
3
72
11
73
7
74
5
42
0.0000001000
43
0.0000001000
44
0.0000000001
12
-2.1019356965
22
-1.8528426493
32
0.0000000000
13
-0.4855684209
23
-2.7662081344
33
0.0000000000
40
0.0000000000
40
0.0000000000
40
0.0000000000
40
0.0000000000
40
0.0799899916
40
0.4534601627
40
0.7899157127
40
1.0000000000
40
1.0000000000
40
1.0000000000
40
1.0000000000
10
44.7328094402
20
74.7179214672
30
0.0000000000
10
44.6767648340
20
74.6685185112
30
0.0000000000
10
44.3638103477
20
74.3829856440
30
0.0000000000
10
43.8696495476
20
73.8295592676
30
0.0000000000
10
43.4506967597
20
73.0701011005
30
0.0000000000
10
43.3124507145
20
72.5745983418
30
0.0000000000
10
43.2784472826
20
72.3808860537
30
0.0000000000
11
44.7328094402
21
74.7179214672
31
0.0000000000
11
44.5672659830
21
74.5667820384
31
0.0000000000
11
43.8799347098
21
73.7790920321
31
0.0000000000
11
43.4350785662
21
72.9489791670
31
0.0000000000
11
43.2784472826
21
72.3808860537
31
0.0000000000
0
SPLINE
5
299
100
AcDbEntity
8
0
100
AcDbSpline
62
7
6
CONTINUOUS
70
0
71
3
72
8
73
4
74
2
42
0.0000001000
43
0.0000001000
44
0.0000000001
12
-0.0189424770
22
-0.1079123595
32
0.0000000000
13
-0.0149296751
23
-0.1085204548
33
0.0000000000
40
0.0000000000
40
0.0000000000
40
0.0000000000
40
0.0000000000
40
1.0000000000
40
1.0000000000
40
1.0000000000
40
1.0000000000
10
43.2784472826
20
72.3808860537
30
0.0000000000
10
43.2721331236
20
72.3449152672
30
0.0000000000
10
43.2664788335
20
72.3088325495
30
0.0000000000
10
43.2615022751
20
72.2726590645
30
0.0000000000
11
43.2784472826
21
72.3808860537
31
0.0000000000
11
43.2615022751
21
72.2726590645
31
0.0000000000
0
SPLINE
5
29A
100
AcDbEntity
8
0
100
AcDbSpline
62
7
6
CONTINUOUS
70
0
71
3
72
11
73
7
74
5
42
0.0000001000
43
0.0000001000
44
0.0000000001
12
2.1856596593
22
-1.9241670811
32
0.0000000000
13
0.3958503763
23
-2.8920440474
33
0.0000000000
40
0.0000000000
40
0.0000000000
40
0.0000000000
40
0.0000000000
40
0.2622715002
40
0.6027626944
40
0.9132561814
40
1.0000000000
40
1.0000000000
40
1.0000000000
40
1.0000000000
10
64.7353352681
20
74.7188626817
30
0.0000000000
10
64.9264140140
20
74.5506446194
30
0.0000000000
10
65.3428916980
20
74.1384189099
30
0.0000000000
10
65.8635709089
20
73.4134441712
30
0.0000000000
10
66.1270380874
20
72.7390205075
30
0.0000000000
10
66.1958002408
20
72.3583766516
30
0.0000000000
10
66.2072460985
20
72.2747543368
30
0.0000000000
11
64.7353352681
21
74.7188626817
31
0.0000000000
11
65.2750589509
21
74.1793665657
31
0.0000000000
11
65.8427400107
21
73.3681969352
31
0.0000000000
11
66.1622834221
21
72.5237831634
31
0.0000000000
11
66.2072460985
21
72.2747543368
31
0.0000000000
0
SPLINE
5
29B
100
AcDbEntity
8
0
100
AcDbSpline
62
9
6
CONTINUOUS
70
0
71
3
72
13
73
9
74
7
42
0.0000001000
43
0.0000001000
44
0.0000000001
12
-9.8536899203
22
8.6613349934
32
0.0000000000
13
-11.7058109311
23
-5.8529054655
33
0.0000000000
40
0.0000000000
40
0.0000000000
40
0.0000000000
40
0.0000000000
40
0.0649452860
40
0.2359191761
40
0.4095207452
40
0.5919954352
40
0.7878875539
40
1.0000000000
40
1.0000000000
40
1.0000000000
40
1.0000000000
10
47.0948033290
20
43.0152540302
30
0.0000000000
10
46.8814864256
20
43.2027583230
30
0.0000000000
10
46.0755823520
20
43.8483729159
30
0.0000000000
10
44.4906049507
20
44.7157539803
30
0.0000000000
10
42.2341046599
20
45.2706767301
30
0.0000000000
10
39.8054152057
20
45.2701850596
30
0.0000000000
10
37.2711723753
20
44.7276171864
30
0.0000000000
10
35.6164234589
20
44.0467403466
30
0.0000000000
10
34.7887740621
20
43.6329156482
30
0.0000000000
11
47.0948033290
21
43.0152540302
31
0.0000000000
11
46.4296556279
21
43.5471570361
31
0.0000000000
11
44.4659031188
21
44.6198259719
31
0.0000000000
11
42.2620494471
21
45.1721451904
31
0.0000000000
11
39.8739753830
21
45.1894139232
31
0.0000000000
11
37.3629958666
21
44.6719881896
31
0.0000000000
11
34.7887740621
21
43.6329156482
31
0.0000000000
0
SPLINE
5
29C
100
AcDbEntity
8
0
100
AcDbSpline
62
9
6
CONTINUOUS
70
0
71
3
72
17
73
13
74
11
42
0.0000001000
43
0.0000001000
44
0.0000000001
12
0.0000000000
22
8.7024755466
32
0.0000000000
13
7.8278966740
23
-3.9302476773
33
0.0000000000
40
0.0000000000
40
0.0000000000
40
0.0000000000
40
0.0000000000
40
0.1129826810
40
0.2336704013
40
0.3580754783
40
0.4817268305
40
0.6002488057
40
0.7099511348
40
0.8085016577
40
0.8957501821
40
0.9745915500
40
1.0000000000
40
1.0000000000
40
1.0000000000
40
1.0000000000
10
51.4465464758
20
11.9611666692
30
0.0000000000
10
51.4465464758
20
12.2889096753
30
0.0000000000
10
51.5156625954
20
12.9676285900
30
0.0000000000
10
51.7895438484
20
13.9735437684
30
0.0000000000
10
52.2225028271
20
14.9559656225
30
0.0000000000
10
52.7903607644
20
15.8596131839
30
0.0000000000
10
53.4616769013
20
16.6343661393
30
0.0000000000
10
54.2001932712
20
17.2373950366
30
0.0000000000
10
54.9681796151
20
17.6349811918
30
0.0000000000
10
55.7294693120
20
17.8009001799
30
0.0000000000
10
56.2938000393
20
17.7288634252
30
0.0000000000
10
56.5745020111
20
17.6099921735
30
0.0000000000
10
56.6408002515
20
17.5767050063
30
0.0000000000
11
51.4465464758
21
11.9611666692
31
0.0000000000
11
51.5390090466
21
12.9400384562
31
0.0000000000
11
51.8110231703
21
13.9544843437
31
0.0000000000
11
52.2467803750
21
14.9455484242
31
0.0000000000
11
52.8209560356
21
15.8556336556
31
0.0000000000
11
53.5001811500
21
16.6318491923
31
0.0000000000
11
54.2449816232
21
17.2290842088
31
0.0000000000
11
55.0120723591
21
17.6126295768
31
0.0000000000
11
55.7568728324
21
17.7601950335
31
0.0000000000
11
56.4360979467
21
17.6632046111
31
0.0000000000
11
56.6408002515
21
17.5767050063
31
0.0000000000
0
SPLINE
5
29D
100
AcDbEntity
8
0
100
AcDbSpline
62
9
6
CONTINUOUS
70
0
71
3
72
8
73
4
74
2
42
0.0000001000
43
0.0000001000
44
0.0000000001
12
0.0000000000
22
0.3748792043
32
0.0000000000
13
0.0338538211
23
0.3739607575
33
0.0000000000
40
0.0000000000
40
0.0000000000
40
0.0000000000
40
0.0000000000
40
1.0000000000
40
1.0000000000
40
1.0000000000
40
1.0000000000
10
52.2996606710
20
12.1274671706
30
0.0000000000
10
52.2996606710
20
12.2524269054
30
0.0000000000
10
52.3056210116
20
12.3774627723
30
0.0000000000
10
52.3169056186
20
12.5021163581
30
0.0000000000
11
52.2996606710
21
12.1274671706
31
0.0000000000
11
52.3169056186
21
12.5021163581
31
0.0000000000
0
SPLINE
5
29E
100
AcDbEntity
8
0
100
AcDbSpline
62
7
6
CONTINUOUS
70
0
71
3
72
9
73
5
74
3
42
0.0000001000
43
0.0000001000
44
0.0000000001
12
-1.3398598536
22
0.6697224434
32
0.0000000000
13
-0.9945226331
23
1.1193893535
33
0.0000000000
40
0.0000000000
40
0.0000000000
40
0.0000000000
40
0.0000000000
40
0.3729614274
40
1.0000000000
40
1.0000000000
40
1.0000000000
40
1.0000000000
10
49.5424711311
20
6.5283269930
30
0.0000000000
10
49.3758991166
20
6.6115872058
30
0.0000000000
10
48.9456928009
20
6.8675821362
30
0.0000000000
10
48.5735292638
20
7.2048612172
30
0.0000000000
10
48.3656612463
20
7.4388279847
30
0.0000000000
11
49.5424711311
21
6.5283269930
31
0.0000000000
11
49.0630721570
21
6.8138463189
31
0.0000000000
11
48.3656612463
21
7.4388279847
31
0.0000000000
0
SPLINE
5
29F
100
AcDbEntity
8
0
100
AcDbSpline
62
7
6
CONTINUOUS
70
0
71
3
72
13
73
9
74
7
42
0.0000001000
43
0.0000001000
44
0.0000000001
12
-5.4737525837
22
6.1610064590
32
0.0000000000
13
2.1571763749
23
7.9198023272
33
0.0000000000
40
0.0000000000
40
0.0000000000
40
0.0000000000
40
0.0000000000
40
0.0346737534
40
0.1949807763
40
0.3715607113
40
0.5657613858
40
0.7763035184
40
1.0000000000
40
1.0000000000
40
1.0000000000
40
1.0000000000
10
48.3656612463
20
7.4388279847
30
0.0000000000
10
48.3023960640
20
7.5100363908
30
0.0000000000
10
47.9599161779
20
7.9221717966
30
0.0000000000
10
47.4541120743
20
8.8169220707
30
0.0000000000
10
47.0468958412
20
10.2228306071
30
0.0000000000
10
46.9000524413
20
11.8145766756
30
0.0000000000
10
47.0151193167
20
13.5361853187
30
0.0000000000
10
47.2574059113
20
14.7034138679
30
0.0000000000
10
47.4182568330
20
15.2939578398
30
0.0000000000
11
48.3656612463
21
7.4388279847
31
0.0000000000
11
48.1830252790
21
7.6584328995
31
0.0000000000
11
47.5216166704
21
8.7959774304
31
0.0000000000
11
47.1036442741
21
10.1838303844
31
0.0000000000
11
46.9447789714
21
11.7699575149
31
0.0000000000
11
47.0509770391
21
13.4948907569
31
0.0000000000
11
47.4182568330
21
15.2939578398
31
0.0000000000
0
SPLINE
5
2A0
100
AcDbEntity
8
0
100
AcDbSpline
62
9
6
CONTINUOUS
70
0
71
3
72
11
73
7
74
5
42
0.0000001000
43
0.0000001000
44
0.0000000001
12
0.0000000000
22
-2.6111146859
32
0.0000000000
13
2.1798819272
23
-1.4697798449
33
0.0000000000
40
0.0000000000
40
0.0000000000
40
0.0000000000
40
0.0000000000
40
0.3413173014
40
0.6441357701
40
0.9144679433
40
1.0000000000
40
1.0000000000
40
1.0000000000
40
1.0000000000
10
51.4465464758
20
11.9611666692
30
0.0000000000
10
51.4465464758
20
11.6640937965
30
0.0000000000
10
51.4982720422
20
11.1008062152
30
0.0000000000
10
51.7620510887
20
10.3396351647
30
0.0000000000
10
52.1150873532
20
9.8726031162
30
0.0000000000
10
52.3623917182
20
9.6817061359
30
0.0000000000
10
52.4245416464
20
9.6398017049
30
0.0000000000
11
51.4465464758
21
11.9611666692
31
0.0000000000
11
51.5390090466
21
11.0747574530
31
0.0000000000
11
51.8110231703
21
10.3323256893
31
0.0000000000
11
52.2467803750
21
9.7770188134
31
0.0000000000
11
52.4245416464
21
9.6398017049
31
0.0000000000
0
SPLINE
5
2A1
100
AcDbEntity
8
0
100
AcDbSpline
62
9
6
CONTINUOUS
70
0
71
3
72
8
73
4
74
2
42
0.0000001000
43
0.0000001000
44
0.0000000001
12
0.1827310278
22
-0.1232059307
32
0.0000000000
13
0.1967753448
23
-0.0990698573
33
0.0000000000
40
0.0000000000
40
0.0000000000
40
0.0000000000
40
0.0000000000
40
1.0000000000
40
1.0000000000
40
1.0000000000
40
1.0000000000
10
52.4245416464
20
9.6398017049
30
0.0000000000
10
52.4854519890
20
9.5987330614
30
0.0000000000
10
52.5489655591
20
9.5614850348
30
0.0000000000
10
52.6145573407
20
9.5284617490
30
0.0000000000
11
52.4245416464
21
9.6398017049
31
0.0000000000
11
52.6145573407
21
9.5284617490
31
0.0000000000
0
SPLINE
5
2A2
100
AcDbEntity
8
0
100
AcDbSpline
62
9
6
CONTINUOUS
70
0
71
3
72
14
73
10
74
8
42
0.0000001000
43
0.0000001000
44
0.0000000001
12
7.0464620902
22
-1.1442923829
32
0.0000000000
13
6.3787505513
23
3.1893752757
33
0.0000000000
40
0.0000000000
40
0.0000000000
40
0.0000000000
40
0.0000000000
40
0.1288309035
40
0.2970271439
40
0.4527323901
40
0.5982194552
40
0.7359391185
40
0.8687040037
40
1.0000000000
40
1.0000000000
40
1.0000000000
40
1.0000000000
10
39.7595099012
20
-1.5253223975
30
0.0000000000
10
40.0621105938
20
-1.5744624713
30
0.0000000000
10
40.7659446082
20
-1.6494494173
30
0.0000000000
10
41.8449644086
20
-1.6364933838
30
0.0000000000
10
42.9538003517
20
-1.4947523916
30
0.0000000000
10
43.9726939474
20
-1.2639437801
30
0.0000000000
10
44.9172256423
20
-0.9681153765
30
0.0000000000
10
45.8071726013
20
-0.6195573589
30
0.0000000000
10
46.3767298970
20
-0.3546334399
30
0.0000000000
10
46.6558980333
20
-0.2150493717
30
0.0000000000
11
39.7595099012
21
-1.5253223975
31
0.0000000000
11
40.6734333239
21
-1.6238052566
31
0.0000000000
11
41.8728961579
21
-1.6122610056
31
0.0000000000
11
42.9746472701
21
-1.4736445700
31
0.0000000000
11
43.9869327318
21
-1.2460094205
31
0.0000000000
11
44.9245735954
21
-0.9536275924
31
0.0000000000
11
45.8065485272
21
-0.6092225066
31
0.0000000000
11
46.6558980333
21
-0.2150493717
31
0.0000000000
0
SPLINE
5
2A3
100
AcDbEntity
8
0
100
AcDbSpline
62
9
6
CONTINUOUS
70
0
71
3
72
19
73
15
74
13
42
0.0000001000
43
0.0000001000
44
0.0000000001
12
0.0000000000
22
-9.3813394409
32
0.0000000000
13
0.0000000000
23
9.3813394409
33
0.0000000000
40
0.0000000000
40
0.0000000000
40
0.0000000000
40
0.0000000000
40
0.0833146381
40
0.1564476189
40
0.2215234293
40
0.2839653559
40
0.3505298168
40
0.4259476966
40
0.5115821618
40
0.6060605067
40
0.7062589570
40
0.8081196282
40
0.9073353683
40
1.0000000000
40
1.0000000000
40
1.0000000000
40
1.0000000000
10
52.2996606710
20
12.1274671706
30
0.0000000000
10
52.2996606710
20
11.8669328707
30
0.0000000000
10
52.3482121349
20
11.3749228047
30
0.0000000000
10
52.5992519933
20
10.7179823581
30
0.0000000000
10
53.0244703157
20
10.2334319764
30
0.0000000000
10
53.5990829024
20
9.9828325782
30
0.0000000000
10
54.2539928482
20
9.9922233536
30
0.0000000000
10
54.9324389810
20
10.2374634689
30
0.0000000000
10
55.5985555505
20
10.6904634552
30
0.0000000000
10
56.2149595135
20
11.3205126148
30
0.0000000000
10
56.7439318117
20
12.0871103460
30
0.0000000000
10
57.1516169236
20
12.9409135008
30
0.0000000000
10
57.4115379073
20
13.8259379325
30
0.0000000000
10
57.4779065037
20
14.4268172990
30
0.0000000000
10
57.4779065037
20
14.7165900870
30
0.0000000000
11
52.2996606710
21
12.1274671706
31
0.0000000000
11
52.3878828950
21
11.3508592049
31
0.0000000000
11
52.6465373682
21
10.7153980127
31
0.0000000000
11
53.0579972158
21
10.2643892240
31
0.0000000000
11
53.5942221291
21
10.0285683425
31
0.0000000000
11
54.2186692665
21
10.0240061716
31
0.0000000000
11
54.8887835873
21
10.2510136156
31
0.0000000000
11
55.5588979082
21
10.6941204925
31
0.0000000000
11
56.1833450455
21
11.3231298007
31
0.0000000000
11
56.7195699588
21
12.0951755955
31
0.0000000000
11
57.1310298064
21
12.9576442318
31
0.0000000000
11
57.3896842797
21
13.8517598973
31
0.0000000000
11
57.4779065037
21
14.7165900870
31
0.0000000000
0
SPLINE
5
2A4
100
AcDbEntity
8
0
100
AcDbSpline
62
9
6
CONTINUOUS
70
0
71
3
72
15
73
11
74
9
42
0.0000001000
43
0.0000001000
44
0.0000000001
12
3.7045541557
22
3.3388012181
32
0.0000000000
13
0.0000000000
23
-4.9799632666
33
0.0000000000
40
0.0000000000
40
0.0000000000
40
0.0000000000
40
0.0000000000
40
0.0362728288
40
0.1975924898
40
0.3396659734
40
0.4650612362
40
0.5826903989
40
0.7052813165
40
0.8430504688
40
1.0000000000
40
1.0000000000
40
1.0000000000
40
1.0000000000
10
54.0817961821
20
16.0316251758
30
0.0000000000
10
54.1265877351
20
16.0719944308
30
0.0000000000
10
54.3751036877
20
16.2869483926
30
0.0000000000
10
54.8451281937
20
16.6065937888
30
0.0000000000
10
55.5235743265
20
16.8518339041
30
0.0000000000
10
56.1784842723
20
16.8612246794
30
0.0000000000
10
56.7530968589
20
16.6106252813
30
0.0000000000
10
57.1783151814
20
16.1260748996
30
0.0000000000
10
57.4293550397
20
15.4691344529
30
0.0000000000
10
57.4779065037
20
14.9771243870
30
0.0000000000
10
57.4779065037
20
14.7165900870
30
0.0000000000
11
54.0817961821
21
16.0316251758
31
0.0000000000
11
54.2186692665
21
16.1499367652
31
0.0000000000
11
54.8887835873
21
16.5930436420
31
0.0000000000
11
55.5588979082
21
16.8200510860
31
0.0000000000
11
56.1833450455
21
16.8154889151
31
0.0000000000
11
56.7195699588
21
16.5796680336
31
0.0000000000
11
57.1310298064
21
16.1286592450
31
0.0000000000
11
57.3896842797
21
15.4931980527
31
0.0000000000
11
57.4779065037
21
14.7165900870
31
0.0000000000
0
SPLINE
5
2A5
100
AcDbEntity
8
0
100
AcDbSpline
62
9
6
CONTINUOUS
70
0
71
3
72
12
73
8
74
6
42
0.0000001000
43
0.0000001000
44
0.0000000001
12
3.0200577992
22
-3.9220039394
32
0.0000000000
13
-0.0000000511
23
-4.9368538610
33
0.0000000000
40
0.0000000000
40
0.0000000000
40
0.0000000000
40
0.0000000000
40
0.1840194872
40
0.3866529373
40
0.5978237346
40
0.8060042349
40
1.0000000000
40
1.0000000000
40
1.0000000000
40
1.0000000000
10
66.0935872749
20
55.2495156823
30
0.0000000000
10
66.2788371041
20
55.0089406311
30
0.0000000000
10
66.6200867535
20
54.4697698045
30
0.0000000000
10
67.0327799303
20
53.5738009016
30
0.0000000000
10
67.3508593594
20
52.5986053509
30
0.0000000000
10
67.5537395476
20
51.6077623791
30
0.0000000000
10
67.6063690626
20
50.9455273191
30
0.0000000000
10
67.6063690593
20
50.6262844051
30
0.0000000000
11
66.0935872749
21
55.2495156823
31
0.0000000000
11
66.5868214567
21
54.4865949917
31
0.0000000000
11
67.0091316374
21
53.5797335298
31
0.0000000000
11
67.3331818888
21
52.5888561094
31
0.0000000000
11
67.5368885091
21
51.5814895120
31
0.0000000000
11
67.6063690593
21
50.6262844051
31
0.0000000000
0
SPLINE
5
2A6
100
AcDbEntity
8
0
100
AcDbSpline
62
9
6
CONTINUOUS
70
0
71
3
72
13
73
9
74
7
42
0.0000001000
43
0.0000001000
44
0.0000000001
12
4.7040745104
22
-2.9554738705
32
0.0000000000
13
-0.0000000000
23
-5.5446718349
33
0.0000000000
40
0.0000000000
40
0.0000000000
40
0.0000000000
40
0.0000000000
40
0.0972389740
40
0.2718669214
40
0.4570675111
40
0.6453404022
40
0.8287245364
40
1.0000000000
40
1.0000000000
40
1.0000000000
40
1.0000000000
10
63.0995824733
20
54.5722901188
30
0.0000000000
10
63.2520555996
20
54.4764943698
30
0.0000000000
10
63.6596669739
20
54.1772453387
30
0.0000000000
10
64.2532348067
20
53.5703049124
30
0.0000000000
10
64.8312555888
20
52.7327695215
30
0.0000000000
10
65.2765780203
20
51.8000752495
30
0.0000000000
10
65.5605339492
20
50.8332450752
30
0.0000000000
10
65.6330343375
20
50.1768298923
30
0.0000000000
10
65.6330343375
20
49.8602744794
30
0.0000000000
11
63.0995824733
21
54.5722901188
31
0.0000000000
11
63.5366584069
21
54.2545275328
31
0.0000000000
11
64.2188213023
21
53.5673806242
31
0.0000000000
11
64.8046076660
21
52.7239770028
31
0.0000000000
11
65.2540972176
21
51.7817932911
31
0.0000000000
11
65.5366580968
21
50.8050377225
31
0.0000000000
11
65.6330343375
21
49.8602744794
31
0.0000000000
0
SPLINE
5
2A7
100
AcDbEntity
8
0
100
AcDbSpline
62
7
6
CONTINUOUS
70
0
71
3
72
18
73
14
74
12
42
0.0000001000
43
0.0000001000
44
0.0000000001
12
0.0000000000
22
8.7045254048
32
0.0000000000
13
7.8183612377
23
-3.9143711452
33
0.0000000000
40
0.0000000000
40
0.0000000000
40
0.0000000000
40
0.0000000000
40
0.1046100158
40
0.2160857668
40
0.3312986261
40
0.4466976932
40
0.5587118133
40
0.6641495814
40
0.7606382396
40
0.8471477101
40
0.9246093189
40
0.9963947002
40
1.0000000000
40
1.0000000000
40
1.0000000000
40
1.0000000000
10
50.9515717290
20
12.2086540426
30
0.0000000000
10
50.9515717290
20
12.5121808895
30
0.0000000000
10
51.0108582694
20
13.1399060504
30
0.0000000000
10
51.2481357719
20
14.0746622140
30
0.0000000000
10
51.6256074332
20
14.9961034262
30
0.0000000000
10
52.1249718536
20
15.8592744342
30
0.0000000000
10
52.7221487527
20
16.6225772585
30
0.0000000000
10
53.3887469341
20
17.2492575777
30
0.0000000000
10
54.0941628849
20
17.7092418058
30
0.0000000000
10
54.8078688227
20
17.9792273676
30
0.0000000000
10
55.5001030919
20
18.0400916978
30
0.0000000000
10
55.9389967912
20
17.9258433565
30
0.0000000000
10
56.1364093924
20
17.8293610769
30
0.0000000000
10
56.1458052379
20
17.8246569163
30
0.0000000000
11
50.9515717290
21
12.2086540426
31
0.0000000000
11
51.0313506239
21
13.1157330077
31
0.0000000000
11
51.2666868617
21
14.0571061407
31
0.0000000000
11
51.6457797008
21
14.9855690619
31
0.0000000000
11
52.1496198433
21
15.8545647636
31
0.0000000000
11
52.7529426405
21
16.6205181727
31
0.0000000000
11
53.4254949682
21
17.2450211869
31
0.0000000000
11
54.1335522443
21
17.6967586173
31
0.0000000000
11
54.8416095204
21
17.9530784630
31
0.0000000000
11
55.5141618481
21
18.0011277765
31
0.0000000000
11
56.1174846454
21
17.8384971647
31
0.0000000000
11
56.1458052379
21
17.8246569163
31
0.0000000000
0
SPLINE
5
2A8
100
AcDbEntity
8
0
100
AcDbSpline
62
7
6
CONTINUOUS
70
0
71
3
72
14
73
10
74
8
42
0.0000001000
43
0.0000001000
44
0.0000000001
12
2.5150743972
22
1.8025616637
32
0.0000000000
13
0.0000000000
23
-3.0875815065
33
0.0000000000
40
0.0000000000
40
0.0000000000
40
0.0000000000
40
0.0000000000
40
0.1163606748
40
0.2728169836
40
0.4109066500
40
0.5404440142
40
0.6754454373
40
0.8271616653
40
1.0000000000
40
1.0000000000
40
1.0000000000
40
1.0000000000
10
53.8260983979
20
15.7780537944
30
0.0000000000
10
53.9236503160
20
15.8479695583
30
0.0000000000
10
54.1638708746
20
15.9956930059
30
0.0000000000
10
54.5669662331
20
16.1414011873
30
0.0000000000
10
55.0141169466
20
16.1478128962
30
0.0000000000
10
55.4064432959
20
15.9767119679
30
0.0000000000
10
55.6967682138
20
15.6458770947
30
0.0000000000
10
55.8681698737
20
15.1973400228
30
0.0000000000
10
55.9013191973
20
14.8614119254
30
0.0000000000
10
55.9013191973
20
14.6835277768
30
0.0000000000
11
53.8260983979
21
15.7780537944
31
0.0000000000
11
54.1335522443
21
15.9647078098
31
0.0000000000
11
54.5910839991
21
16.1197009370
31
0.0000000000
11
55.0174357208
21
16.1165860386
31
0.0000000000
11
55.3835522443
21
15.9555753896
31
0.0000000000
11
55.6644833336
21
15.6476415997
31
0.0000000000
11
55.8410839991
21
15.2137698478
31
0.0000000000
11
55.9013191973
21
14.6835277768
31
0.0000000000
0
SPLINE
5
2A9
100
AcDbEntity
8
0
100
AcDbSpline
62
9
6
CONTINUOUS
70
0
71
3
72
10
73
6
74
4
42
0.0000001000
43
0.0000001000
44
0.0000000001
12
-2.8745537138
22
0.3427174302
32
0.0000000000
13
-2.5819069728
23
-1.2909534864
33
0.0000000000
40
0.0000000000
40
0.0000000000
40
0.0000000000
40
0.0000000000
40
0.3026755772
40
0.6603151475
40
1.0000000000
40
1.0000000000
40
1.0000000000
40
1.0000000000
10
48.7406239694
20
26.0503833402
30
0.0000000000
10
48.4506049013
20
26.0849607389
30
0.0000000000
10
47.8092276524
20
26.0841325736
30
0.0000000000
10
46.8632620124
20
25.8750608781
30
0.0000000000
10
46.2411361485
20
25.6159195278
30
0.0000000000
10
45.9487912521
20
25.4697470795
30
0.0000000000
11
48.7406239694
21
26.0503833402
31
0.0000000000
11
47.8661329391
21
26.0553687895
31
0.0000000000
11
46.8561464756
21
25.8414913546
31
0.0000000000
11
45.9487912521
21
25.4697470795
31
0.0000000000
0
SPLINE
5
2AA
100
AcDbEntity
8
0
100
AcDbSpline
62
9
6
CONTINUOUS
70
0
71
3
72
24
73
20
74
18
42
0.0000001000
43
0.0000001000
44
0.0000000001
12
-19.9746615621
22
-9.9873307810
32
0.0000000000
13
20.1481778261
23
9.6541542564
33
0.0000000000
40
0.0000000000
40
0.0000000000
40
0.0000000000
40
0.0000000000
40
0.0464692376
40
0.1034106125
40
0.1694438121
40
0.2421863622
40
0.3183358436
40
0.3950123320
40
0.4700612621
40
0.5416520767
40
0.6084052932
40
0.6695037837
40
0.7248340080
40
0.7752023758
40
0.8224467920
40
0.8686927076
40
0.9151238140
40
0.9613519865
40
1.0000000000
40
1.0000000000
40
1.0000000000
40
1.0000000000
10
45.9487912521
20
25.4697470795
30
0.0000000000
10
45.6393888207
20
25.3150458638
30
0.0000000000
10
44.9755432364
20
24.9200772632
30
0.0000000000
10
43.9837345291
20
24.1350662136
30
0.0000000000
10
42.9649006321
20
23.0879712589
30
0.0000000000
10
41.9977654845
20
21.8084137096
30
0.0000000000
10
41.1511753836
20
20.3536598839
30
0.0000000000
10
40.4761192708
20
18.7930065790
30
0.0000000000
10
40.0053529408
20
17.1940986485
30
0.0000000000
10
39.7584705812
20
15.6197908130
30
0.0000000000
10
39.7454551103
20
14.1290049696
30
0.0000000000
10
39.9686085852
20
12.7755776683
30
0.0000000000
10
40.4244370101
20
11.6087297656
30
0.0000000000
10
41.1037664434
20
10.6762130859
30
0.0000000000
10
41.9804847950
20
10.0296148927
30
0.0000000000
10
42.9887373303
20
9.7058700042
30
0.0000000000
10
44.0348756577
20
9.6880973660
30
0.0000000000
10
44.9958306499
20
9.9004819190
30
0.0000000000
10
45.5837173594
20
10.1382745341
30
0.0000000000
10
45.8432797086
20
10.2626458286
30
0.0000000000
11
45.9487912521
21
25.4697470795
31
0.0000000000
11
45.0545922953
21
24.9430885545
31
0.0000000000
11
44.0540283084
21
24.1582786207
31
0.0000000000
11
43.0220029021
21
23.1049056969
31
0.0000000000
11
42.0396342326
21
21.8110774809
31
0.0000000000
11
41.1831567717
21
20.3419021281
31
0.0000000000
11
40.5044025578
21
18.7698045558
31
0.0000000000
11
40.0345954072
21
17.1609785916
31
0.0000000000
11
39.7933172984
21
15.5804982640
31
0.0000000000
11
39.7898184925
21
14.0897461385
31
0.0000000000
11
40.0241985892
21
12.7455540816
31
0.0000000000
11
40.4874927201
21
11.6000414160
31
0.0000000000
11
41.1605931285
21
10.6988144914
31
0.0000000000
11
42.0131075515
21
10.0771951806
31
0.0000000000
11
42.9949135335
21
9.7567399782
31
0.0000000000
11
44.0314495651
21
9.7286808034
31
0.0000000000
11
45.0414360286
21
9.9425582382
31
0.0000000000
11
45.8432797086
21
10.2626458286
31
0.0000000000
0
SPLINE
5
2AB
100
AcDbEntity
8
0
100
AcDbSpline
62
9
6
CONTINUOUS
70
0
71
3
72
8
73
4
74
2
42
0.0000001000
43
0.0000001000
44
0.0000000001
12
-0.6443049700
22
-0.2176696727
32
0.0000000000
13
-0.6073821095
23
-0.3036910548
33
0.0000000000
40
0.0000000000
40
0.0000000000
40
0.0000000000
40
0.0000000000
40
1.0000000000
40
1.0000000000
40
1.0000000000
40
1.0000000000
10
47.9893534219
20
23.2932125934
30
0.0000000000
10
47.7745850986
20
23.2206560358
30
0.0000000000
10
47.5654655176
20
23.1318198424
30
0.0000000000
10
47.3630048145
20
23.0305894908
30
0.0000000000
11
47.9893534219
21
23.2932125934
31
0.0000000000
11
47.3630048145
21
23.0305894908
31
0.0000000000
0
SPLINE
5
2AC
100
AcDbEntity
8
0
100
AcDbSpline
62
9
6
CONTINUOUS
70
0
71
3
72
15
73
11
74
9
42
0.0000001000
43
0.0000001000
44
0.0000000001
12
7.3845510481
22
-2.0795265982
32
0.0000000000
13
6.8523916611
23
3.4261958305
33
0.0000000000
40
0.0000000000
40
0.0000000000
40
0.0000000000
40
0.0000000000
40
0.0664140738
40
0.2286337436
40
0.3775641037
40
0.5154348792
40
0.6442585288
40
0.7662051655
40
0.8837653068
40
1.0000000000
40
1.0000000000
40
1.0000000000
40
1.0000000000
10
38.5314538311
20
-0.0525327608
30
0.0000000000
10
38.6949332039
20
-0.0985693718
30
0.0000000000
10
39.2630133724
20
-0.2381511542
30
0.0000000000
10
40.2231014206
20
-0.3613907153
30
0.0000000000
10
41.3727382537
20
-0.3475605125
30
0.0000000000
10
42.4274691966
20
-0.2127152744
30
0.0000000000
10
43.3966505925
20
0.0068482067
30
0.0000000000
10
44.2951027493
20
0.2882590781
30
0.0000000000
10
45.1415778656
20
0.6198028095
30
0.0000000000
10
45.6832960379
20
0.8717818155
30
0.0000000000
10
45.9487912521
20
1.0045294226
30
0.0000000000
11
38.5314538311
21
-0.0525327608
31
0.0000000000
11
39.0260900701
21
-0.1741806379
31
0.0000000000
11
40.2583717862
21
-0.3355179256
31
0.0000000000
11
41.3993049763
21
-0.3245107959
31
0.0000000000
11
42.4472970322
21
-0.1926377993
31
0.0000000000
11
43.4101926363
21
0.0239071965
31
0.0000000000
11
44.3020902461
21
0.3020392010
31
0.0000000000
11
45.1410430195
21
0.6296567558
31
0.0000000000
11
45.9487912521
21
1.0045294226
31
0.0000000000
0
SPLINE
5
2AD
100
AcDbEntity
8
0
100
AcDbSpline
62
9
6
CONTINUOUS
70
0
71
3
72
14
73
10
74
8
42
0.0000001000
43
0.0000001000
44
0.0000000001
12
7.5171085733
22
3.7585542867
32
0.0000000000
13
5.5029321223
23
6.3545574242
33
0.0000000000
40
0.0000000000
40
0.0000000000
40
0.0000000000
40
0.0000000000
40
0.1091005381
40
0.2261100828
40
0.3551000347
40
0.5002904929
40
0.6662172443
40
0.8576571165
40
1.0000000000
40
1.0000000000
40
1.0000000000
40
1.0000000000
10
45.9487912521
20
1.0045294226
30
0.0000000000
10
46.2221647823
20
1.1412161877
30
0.0000000000
10
46.7805882796
20
1.4410525710
30
0.0000000000
10
47.6300190922
20
1.9597397281
30
0.0000000000
10
48.5327298663
20
2.5821378431
30
0.0000000000
10
49.5069943018
20
3.3388635552
30
0.0000000000
10
50.5665855972
20
4.2672218793
30
0.0000000000
10
51.5607190002
20
5.2542112393
30
0.0000000000
10
52.1883453890
20
5.9478939693
30
0.0000000000
10
52.4494464643
20
6.2494026449
30
0.0000000000
11
45.9487912521
21
1.0045294226
31
0.0000000000
11
46.7569699367
21
1.4376511635
31
0.0000000000
11
47.5966587443
21
1.9494954045
31
0.0000000000
11
48.4896470626
21
2.5641525084
31
0.0000000000
11
49.4539557422
21
3.3118724819
31
0.0000000000
11
50.5036276742
21
4.2299424197
31
0.0000000000
11
51.6464168626
21
5.3625065196
31
0.0000000000
11
52.4494464643
21
6.2494026449
31
0.0000000000
0
SPLINE
5
2AE
100
AcDbEntity
8
0
100
AcDbSpline
62
9
6
CONTINUOUS
70
0
71
3
72
15
73
11
74
9
42
0.0000001000
43
0.0000001000
44
0.0000000001
12
10.2593759792
22
5.1296879896
32
0.0000000000
13
6.7266615558
23
9.2944129027
33
0.0000000000
40
0.0000000000
40
0.0000000000
40
0.0000000000
40
0.0000000000
40
0.0840568883
40
0.1741876728
40
0.2735475741
40
0.3853873337
40
0.5132009945
40
0.6606683002
40
0.8315247355
40
1.0000000000
40
1.0000000000
40
1.0000000000
40
1.0000000000
10
46.6558980333
20
-0.2150493717
30
0.0000000000
10
46.9433551068
20
-0.0713208350
30
0.0000000000
10
47.5304790558
20
0.2439310377
30
0.0000000000
10
48.4235323881
20
0.7892686475
30
0.0000000000
10
49.3725418994
20
1.4436050826
30
0.0000000000
10
50.3967815475
20
2.2391653670
30
0.0000000000
10
51.5107299127
20
3.2151716844
30
0.0000000000
10
52.7220542684
20
4.4178211723
30
0.0000000000
10
53.9540552669
20
5.8149033588
30
0.0000000000
10
54.7472512496
20
6.8427776830
30
0.0000000000
10
55.1250099445
20
7.3647372404
30
0.0000000000
11
46.6558980333
21
-0.2150493717
31
0.0000000000
11
47.5057092801
21
0.2403910712
31
0.0000000000
11
48.3884585495
21
0.7784970678
31
0.0000000000
11
49.3272470629
21
1.4246948822
31
0.0000000000
11
50.3410197316
21
2.2107871460
31
0.0000000000
11
51.4445395409
21
3.1759765681
31
0.0000000000
11
52.6459577850
21
4.3666748691
31
0.0000000000
11
53.9434527129
21
5.8354308283
31
0.0000000000
11
55.1250099445
21
7.3647372404
31
0.0000000000
0
SPLINE
5
2AF
100
AcDbEntity
8
0
100
AcDbSpline
62
7
6
CONTINUOUS
70
0
71
3
72
11
73
7
74
5
42
0.0000001000
43
0.0000001000
44
0.0000000001
12
-2.5452164245
22
1.2742979542
32
0.0000000000
13
0.0000000000
23
2.8337013799
33
0.0000000000
40
0.0000000000
40
0.0000000000
40
0.0000000000
40
0.0000000000
40
0.2085139606
40
0.4440617153
40
0.7066953394
40
1.0000000000
40
1.0000000000
40
1.0000000000
40
1.0000000000
10
52.1212992508
20
9.7746316843
30
0.0000000000
10
51.9443948651
20
9.8632013221
30
0.0000000000
10
51.6014210655
20
10.1199402540
30
0.0000000000
10
51.2250668755
20
10.6846924667
30
0.0000000000
10
50.9968277356
20
11.4044060366
30
0.0000000000
10
50.9515717290
20
11.9316081022
30
0.0000000000
10
50.9515717290
20
12.2086540426
30
0.0000000000
11
52.1212992508
21
9.7746316843
31
0.0000000000
11
51.6457797008
21
10.1259469952
31
0.0000000000
11
51.2666868617
21
10.6753170774
31
0.0000000000
11
51.0313506239
21
11.3813539725
31
0.0000000000
11
50.9515717290
21
12.2086540426
31
0.0000000000
0
SPLINE
5
2B0
100
AcDbEntity
8
0
100
AcDbSpline
62
7
6
CONTINUOUS
70
0
71
3
72
12
73
8
74
6
42
0.0000001000
43
0.0000001000
44
0.0000000001
12
-8.5046926634
22
-4.2523463317
32
0.0000000000
13
-8.5271764695
23
4.2677051235
33
0.0000000000
40
0.0000000000
40
0.0000000000
40
0.0000000000
40
0.0000000000
40
0.2701143501
40
0.5185528461
40
0.7492888218
40
0.9693642531
40
1.0000000000
40
1.0000000000
40
1.0000000000
40
1.0000000000
10
50.8631833813
20
-2.3186920458
30
0.0000000000
10
50.0974368707
20
-2.7015653011
30
0.0000000000
10
48.5662439036
20
-3.3250901632
30
0.0000000000
10
46.2207682349
20
-3.7912950762
30
0.0000000000
10
43.9835387278
20
-3.7259519730
30
0.0000000000
10
42.5025500152
20
-3.2878164025
30
0.0000000000
10
41.7831609991
20
-2.9447960364
30
0.0000000000
10
41.6960821924
20
-2.9012145917
30
0.0000000000
11
50.8631833813
21
-2.3186920458
31
0.0000000000
11
48.4772713872
21
-3.2695131594
31
0.0000000000
11
46.1564408526
21
-3.7101285849
31
0.0000000000
11
43.9639979847
21
-3.6285194819
31
0.0000000000
11
41.9597469096
21
-3.0269119341
31
0.0000000000
11
41.6960821924
21
-2.9012145917
31
0.0000000000
0
SPLINE
5
2B1
100
AcDbEntity
8
0
100
AcDbSpline
62
7
6
CONTINUOUS
70
0
71
3
72
14
73
10
74
8
42
0.0000001000
43
0.0000001000
44
0.0000000001
12
19.0330271169
22
9.5165135585
32
0.0000000000
13
6.8507147919
23
20.1565126544
33
0.0000000000
40
0.0000000000
40
0.0000000000
40
0.0000000000
40
0.0000000000
40
0.1308415687
40
0.2712053865
40
0.4196489758
40
0.5741389078
40
0.7322478396
40
0.8913289243
40
1.0000000000
40
1.0000000000
40
1.0000000000
40
1.0000000000
10
50.8631833813
20
-2.3186920458
30
0.0000000000
10
51.6932870899
20
-1.9036401915
30
0.0000000000
10
53.3435277541
20
-0.8983372736
30
0.0000000000
10
55.6544299577
20
0.9898375025
30
0.0000000000
10
57.8355598477
20
3.2646879089
30
0.0000000000
10
59.8286587711
20
5.8651498268
30
0.0000000000
10
61.5811313372
20
8.7219872969
30
0.0000000000
10
62.8958367007
20
11.4472583361
30
0.0000000000
10
63.5723676266
20
13.2240977787
30
0.0000000000
10
63.8205258085
20
13.9542410828
30
0.0000000000
11
50.8631833813
21
-2.3186920458
31
0.0000000000
11
53.2490953755
21
-0.8836011653
31
0.0000000000
11
55.5699259101
21
0.9966139438
31
0.0000000000
11
57.7623687780
21
3.2706659147
31
0.0000000000
11
59.7666198531
21
5.8765245377
31
0.0000000000
11
61.5280083909
21
8.7431087824
31
0.0000000000
11
62.9984883035
21
11.7922257034
31
0.0000000000
11
63.8205258085
21
13.9542410828
31
0.0000000000
0
SPLINE
5
2B2
100
AcDbEntity
8
0
100
AcDbSpline
62
9
6
CONTINUOUS
70
0
71
3
72
8
73
4
74
2
42
0.0000001000
43
0.0000001000
44
0.0000000001
12
0.2981981752
22
0.1490990876
32
0.0000000000
13
0.3010983538
23
0.1435804549
33
0.0000000000
40
0.0000000000
40
0.0000000000
40
0.0000000000
40
0.0000000000
40
1.0000000000
40
1.0000000000
40
1.0000000000
40
1.0000000000
10
50.8631833813
20
34.8087149453
30
0.0000000000
10
50.9625827731
20
34.8584146412
30
0.0000000000
10
51.0624716930
20
34.9072159929
30
0.0000000000
10
51.1628378109
20
34.9550761446
30
0.0000000000
11
50.8631833813
21
34.8087149453
31
0.0000000000
11
51.1628378109
21
34.9550761446
31
0.0000000000
0
SPLINE
5
2B3
100
AcDbEntity
8
0
100
AcDbSpline
62
9
6
CONTINUOUS
70
0
71
3
72
15
73
11
74
9
42
0.0000001000
43
0.0000001000
44
0.0000000001
12
-6.6374591576
22
-24.5012948092
32
0.0000000000
13
-22.6950379201
23
-11.3475189600
33
0.0000000000
40
0.0000000000
40
0.0000000000
40
0.0000000000
40
0.0000000000
40
0.0903015686
40
0.2278632247
40
0.3661444812
40
0.5031027501
40
0.6367586162
40
0.7651290739
40
0.8865539502
40
1.0000000000
40
1.0000000000
40
1.0000000000
40
1.0000000000
10
65.6314671015
20
15.8766523018
30
0.0000000000
10
65.4316761104
20
15.1391505172
30
0.0000000000
10
64.8632717473
20
13.2955830363
30
0.0000000000
10
63.7089095732
20
10.4167388953
30
0.0000000000
10
62.1031830345
20
7.3104471378
30
0.0000000000
10
60.2244575805
20
4.4002793547
30
0.0000000000
10
58.1176905293
20
1.7565971406
30
0.0000000000
10
55.8338062890
20
-0.5556980075
30
0.0000000000
10
53.4293066411
20
-2.4796406060
30
0.0000000000
10
51.7214041820
20
-3.5099470814
30
0.0000000000
10
50.8631833813
20
-3.9390574817
30
0.0000000000
11
65.6314671015
21
15.8766523018
31
0.0000000000
11
64.9576055479
21
13.6861114023
31
0.0000000000
11
63.6606135862
21
10.4455621737
31
0.0000000000
11
62.0490718998
21
7.3288204226
31
0.0000000000
11
60.1617560542
21
4.4108175067
31
0.0000000000
11
58.0437081853
21
1.7621955001
31
0.0000000000
11
55.7486706674
21
-0.5491842301
31
0.0000000000
11
53.3355547800
21
-2.4647821439
31
0.0000000000
11
50.8631833813
21
-3.9390574817
31
0.0000000000
0
SPLINE
5
2B4
100
AcDbEntity
8
0
100
AcDbSpline
62
9
6
CONTINUOUS
70
0
71
3
72
8
73
4
74
2
42
0.0000001000
43
0.0000001000
44
0.0000000001
12
-0.4153315358
22
-0.2076657679
32
0.0000000000
13
-0.4209294121
23
-0.1968621908
33
0.0000000000
40
0.0000000000
40
0.0000000000
40
0.0000000000
40
0.0000000000
40
1.0000000000
40
1.0000000000
40
1.0000000000
40
1.0000000000
10
50.8631833813
20
-3.9390574817
30
0.0000000000
10
50.7247395361
20
-4.0082794043
30
0.0000000000
10
50.5853460540
20
-4.0757586272
30
0.0000000000
10
50.4450362500
20
-4.1413793575
30
0.0000000000
11
50.8631833813
21
-3.9390574817
31
0.0000000000
11
50.4450362500
21
-4.1413793575
31
0.0000000000
0
SPLINE
5
2B5
100
AcDbEntity
8
0
100
AcDbSpline
62
9
6
CONTINUOUS
70
0
71
3
72
27
73
23
74
21
42
0.0000001000
43
0.0000001000
44
0.0000000001
12
-51.6310217867
22
-24.1470321906
32
0.0000000000
13
50.9443886712
23
25.4721943356
33
0.0000000000
40
0.0000000000
40
0.0000000000
40
0.0000000000
40
0.0000000000
40
0.0386603553
40
0.0819181013
40
0.1222127653
40
0.1605482236
40
0.1983030048
40
0.2370187985
40
0.2780420826
40
0.3222851055
40
0.3701929158
40
0.4218051974
40
0.4768293929
40
0.5347191825
40
0.5947416205
40
0.6560234826
40
0.7176259170
40
0.7786389782
40
0.8381808636
40
0.8953681708
40
0.9494613152
40
1.0000000000
40
1.0000000000
40
1.0000000000
40
1.0000000000
10
50.4450362500
20
-4.1413793575
30
0.0000000000
10
49.7796783671
20
-4.4525569724
30
0.0000000000
10
48.3261786394
20
-5.0233623896
30
0.0000000000
10
46.0434918104
20
-5.5122959650
30
0.0000000000
10
43.7094270575
20
-5.5130092459
30
0.0000000000
10
41.5407951712
20
-4.9799204518
30
0.0000000000
10
39.6069249519
20
-3.9218175360
30
0.0000000000
10
37.9687717480
20
-2.3745969572
30
0.0000000000
10
36.6671473873
20
-0.3910593172
30
0.0000000000
10
35.7262074230
20
1.9713945080
30
0.0000000000
10
35.1609524139
20
4.6532490246
30
0.0000000000
10
34.9800526057
20
7.5908543221
30
0.0000000000
10
35.1854406707
20
10.7152267279
30
0.0000000000
10
35.7712443025
20
13.9524031163
30
0.0000000000
10
36.7230088182
20
17.2247158491
30
0.0000000000
10
38.0174571895
20
20.4529185683
30
0.0000000000
10
39.6231837282
20
23.5592103258
30
0.0000000000
10
41.5019091821
20
26.4693781089
30
0.0000000000
10
43.6086762334
20
29.1130603230
30
0.0000000000
10
45.8925604737
20
31.4253554711
30
0.0000000000
10
48.2970601216
20
33.3492980696
30
0.0000000000
10
50.0049625807
20
34.3796045450
30
0.0000000000
10
50.8631833813
20
34.8087149453
30
0.0000000000
11
50.4450362500
21
-4.1413793575
31
0.0000000000
11
48.3906987209
21
-4.9371879165
31
0.0000000000
11
45.9775921414
21
-5.4346825761
31
0.0000000000
11
43.6825648201
21
-5.4183177556
31
0.0000000000
11
41.5645202969
21
-4.8877201127
31
0.0000000000
11
39.6772106576
21
-3.8570072050
31
0.0000000000
11
38.0656826505
21
-2.3517845721
31
0.0000000000
11
36.7687072297
21
-0.4082081498
31
0.0000000000
11
35.8186648615
21
1.9258208178
31
0.0000000000
11
35.2391999600
21
4.5922958296
31
0.0000000000
11
35.0444715310
21
7.5255487891
31
0.0000000000
11
35.2392191430
21
10.6535359959
31
0.0000000000
11
35.8187020045
21
13.8994765521
31
0.0000000000
11
36.7687612148
21
17.1835460613
31
0.0000000000
11
38.0657531765
21
20.4240952900
31
0.0000000000
11
39.6772948629
21
23.5408370410
31
0.0000000000
11
41.5646107085
21
26.4588399569
31
0.0000000000
11
43.6826585774
21
29.1074619635
31
0.0000000000
11
45.9776960953
21
31.4188416937
31
0.0000000000
11
48.3908119827
21
33.3344396075
31
0.0000000000
11
50.8631833813
21
34.8087149453
31
0.0000000000
0
SPLINE
5
2B6
100
AcDbEntity
8
0
100
AcDbSpline
62
9
6
CONTINUOUS
70
0
71
3
72
9
73
5
74
3
42
0.0000001000
43
0.0000001000
44
0.0000000001
12
3.9957520909
22
1.9978760455
32
0.0000000000
13
4.4065556591
23
0.7718297906
33
0.0000000000
40
0.0000000000
40
0.0000000000
40
0.0000000000
40
0.0000000000
40
0.6213975952
40
1.0000000000
40
1.0000000000
40
1.0000000000
40
1.0000000000
10
39.3250728952
20
41.3647662317
30
0.0000000000
10
40.1527231420
20
41.7785913551
30
0.0000000000
10
41.5371329550
20
42.3482260851
30
0.0000000000
10
42.9889739883
20
42.7037030292
30
0.0000000000
10
43.5450848448
20
42.8011085675
30
0.0000000000
11
39.3250728952
21
41.3647662317
31
0.0000000000
11
41.8992985513
21
42.4038368473
31
0.0000000000
11
43.5450848448
21
42.8011085675
31
0.0000000000
0
SPLINE
5
2B7
100
AcDbEntity
8
0
100
AcDbSpline
62
9
6
CONTINUOUS
70
0
71
3
72
8
73
4
74
2
42
0.0000001000
43
0.0000001000
44
0.0000000001
12
0.1016330496
22
0.0178015261
32
0.0000000000
13
0.1017742675
23
0.0169692788
33
0.0000000000
40
0.0000000000
40
0.0000000000
40
0.0000000000
40
0.0000000000
40
1.0000000000
40
1.0000000000
40
1.0000000000
40
1.0000000000
10
43.5450848448
20
42.8011085675
30
0.0000000000
10
43.5789625280
20
42.8070424095
30
0.0000000000
10
43.6128641121
20
42.8128382763
30
0.0000000000
10
43.6467888680
20
42.8184947026
30
0.0000000000
11
43.5450848448
21
42.8011085675
31
0.0000000000
11
43.6467888680
21
42.8184947026
31
0.0000000000
0
SPLINE
5
2B8
100
AcDbEntity
8
0
100
AcDbSpline
62
9
6
CONTINUOUS
70
0
71
3
72
8
73
4
74
2
42
0.0000001000
43
0.0000001000
44
0.0000000001
12
0.6607912469
22
0.1101766801
32
0.0000000000
13
0.6660534117
23
0.0737045042
33
0.0000000000
40
0.0000000000
40
0.0000000000
40
0.0000000000
40
0.0000000000
40
1.0000000000
40
1.0000000000
40
1.0000000000
40
1.0000000000
10
43.6467888680
20
42.8184947026
30
0.0000000000
10
43.8670526169
20
42.8552202626
30
0.0000000000
10
44.0882931786
20
42.8860676594
30
0.0000000000
10
44.3103109824
20
42.9106358275
30
0.0000000000
11
43.6467888680
21
42.8184947026
31
0.0000000000
11
44.3103109824
21
42.9106358275
31
0.0000000000
0
SPLINE
5
2B9
100
AcDbEntity
8
0
100
AcDbSpline
62
9
6
CONTINUOUS
70
0
71
3
72
9
73
5
74
3
42
0.0000001000
43
0.0000001000
44
0.0000000001
12
0.2084926163
22
0.0230714904
32
0.0000000000
13
0.2089248724
23
0.0193432037
33
0.0000000000
40
0.0000000000
40
0.0000000000
40
0.0000000000
40
0.0000000000
40
0.4791914558
40
1.0000000000
40
1.0000000000
40
1.0000000000
40
1.0000000000
10
44.3103109824
20
42.9106358275
30
0.0000000000
10
44.3436136092
20
42.9143210479
30
0.0000000000
10
44.4131476426
20
42.9217167100
30
0.0000000000
10
44.4827549015
20
42.9284912019
30
0.0000000000
10
44.5190248544
20
42.9318492371
30
0.0000000000
11
44.3103109824
21
42.9106358275
31
0.0000000000
11
44.4102706530
21
42.9212662882
31
0.0000000000
11
44.5190248544
21
42.9318492371
31
0.0000000000
0
ENDSEC
0
SECTION
2
OBJECTS
0
DICTIONARY
5
2BA
100
AcDbDictionary
3
ACAD_GROUP
350
2BB
3
ACAD_MLINESTYLE
350
2BC
0
DICTIONARY
5
2BB
102
{ACAD_REACTORS
330
2BA
102
}
100
AcDbDictionary
0
DICTIONARY
5
2BC
102
{ACAD_REACTORS
330
2BA
102
}
100
AcDbDictionary
3
STANDARD
350
2BD
0
MLINESTYLE
5
2BD
102
{ACAD_REACTORS
330
2BC
102
}
100
AcDbMlineStyle
2
STANDARD
70
0
3

62
256
51
90.0
52
90.0
71
2
49
0.5
62
256
6
BYLAYER
49
-0.5
62
256
6
BYLAYER
0
ENDSEC
0
EOF
