  0
SECTION
  2
HEADER
  9
$ACADVER
  1
AC1021
  9
$DWGCODEPAGE
  3
ANSI_1252
  9
$EXTMAX
 10
558.8
 20
431.8
 30
0.0
  9
$EXTMIN
 10
0.0
 20
0.0
 30
0.0
  9
$LIMMIN
 10
0.0
 20
0.0
  9
$LIMMAX
 10
558.8
 20
431.8
  9
$VIEWCTR
 10
279.4
 20
215.9
  9
$VIEWSIZE
 40
431.8
  9
$CLAYER
  8
0
  9
$LTSCALE
 40
30.734
  9
$CELTYPE
  6
BYLAYER
  9
$DIMSCALE
 40
1.0
  9
$DIMASZ
 40
3.0
  9
$DIMEXO
 40
0.5
  9
$DIMDLI
 40
21.2344
  9
$DIMEXE
 40
1.5
  9
$DIMCEN
 40
5.0292
  9
$DIMLFAC
 40
1.0
  9
$DIMBLK
  1
_FILLED
  9
$DIMALT
 70
0
  9
$DIMALTF
 40
25.4
  9
$DIMTXT
 40
3.0
  9
$DIMTOL
 70
1
  9
$DIMLIM
 70
0
  9
$DIMTFAC
 40
1.0
  9
$DIMTP
 40
0.01
  9
$DIMTM
 40
0.01
  9
$DIMGAP
 40
0.625
  9
$DIMDSEP
 70
44
  9
$AUNITS
 70
0
  9
$PDMODE
 70
3
  9
$PDSIZE
 40
3.0
  9
$HANDSEED
  5
44A
  9
$TILEMODE
 70
1
  9
$MEASUREMENT
 70
1
  9
$INSUNITS
 70
4
  0
ENDSEC
  0
SECTION
  2
CLASSES
  0
CLASS
  1
ACDBDICTIONARYWDFLT
  2
AcDbDictionaryWithDefault
  3
AutoCAD 2000
 90
0
 91
1
280
0
281
0
  0
CLASS
  1
ACDBPLACEHOLDER
  2
AcDbPlaceHolder
  3
AutoCAD 2000
 90
0
 91
1
280
0
281
0
  0
CLASS
  1
LAYOUT
  2
AcDbLayout
  3
AutoCAD 2000
 90
0
 91
0
280
0
281
0
  0
ENDSEC
  0
SECTION
  2
TABLES
  0
TABLE
  2
VPORT
  5
8
100
AcDbSymbolTable
 70
2
  0
VPORT
  5
1F4
100
AcDbSymbolTableRecord
100
AcDbViewportTableRecord
  2
*ACTIVE
 70
0
 10
0.0
 20
0.0
 11
1.0
 21
1.0
 12
279.4
 22
215.9
 13
0.0
 23
0.0
 14
1.0
 24
1.0
 15
0.0
 25
0.0
 16
0.0
 26
0.0
 36
1.0
 17
0.0
 27
0.0
 37
0.0
 40
431.8
 41
1.2941176471
 42
50.0
 43
0.0
 44
0.0
 50
0.0
 51
0.0
 71
0
 72
100
 73
1
 74
1
 75
0
 76
0
 77
0
 78
0
  0
ENDTAB
  0
TABLE
  2
LTYPE
  5
5
100
AcDbSymbolTable
 70
6
  0
LTYPE
  5
14
100
AcDbSymbolTableRecord
100
AcDbLinetypeTableRecord
  2
BYBLOCK
 70
0
  3

 72
65
 73
0
 40
0.0
  0
LTYPE
  5
15
100
AcDbSymbolTableRecord
100
AcDbLinetypeTableRecord
  2
BYLAYER
 70
0
  3

 72
65
 73
0
 40
0.0
  0
LTYPE
  5
16
100
AcDbSymbolTableRecord
100
AcDbLinetypeTableRecord
  2
CONTINUOUS
 70
64
  3
Solid line
 72
65
 73
0
 40
0.0
  0
LTYPE
  5
1F5
100
AcDbSymbolTableRecord
100
AcDbLinetypeTableRecord
  2
CENTER
 70
64
  3
____ _ ____ _ ____ _ ____ _ ____ _ ____ _ ____
 72
65
 73
4
 40
0.6
 49
0.375
 74
0
 49
-0.075
 74
0
 49
0.075
 74
0
 49
-0.075
 74
0
  0
LTYPE
  5
1F6
100
AcDbSymbolTableRecord
100
AcDbLinetypeTableRecord
  2
HIDDEN
 70
64
  3
- - - - - - - - - - - - - - - - - - - -
 72
65
 73
2
 40
0.2
 49
0.1
 74
0
 49
-0.1
 74
0
  0
LTYPE
  5
1F7
100
AcDbSymbolTableRecord
100
AcDbLinetypeTableRecord
  2
PHANTOM
 70
64
  3
_____ _ _ _____ _ _ _____ _ _ _____
 72
65
 73
6
 40
0.8
 49
0.45
 74
0
 49
-0.05
 74
0
 49
0.1
 74
0
 49
-0.05
 74
0
 49
0.1
 74
0
 49
-0.05
 74
0
  0
LTYPE
  5
1F8
100
AcDbSymbolTableRecord
100
AcDbLinetypeTableRecord
  2
DOT
 70
64
  3
. . . . . . . . . . . . . . . . . . . .
 72
65
 73
2
 40
0.2
 49
0.1
 74
0
 49
-0.1
 74
0
  0
LTYPE
  5
1F9
100
AcDbSymbolTableRecord
100
AcDbLinetypeTableRecord
  2
DASHED
 70
64
  3
- - - - - - - - - - - - - - - - - - - -
 72
65
 73
2
 40
0.2
 49
0.1
 74
0
 49
-0.1
 74
0
  0
ENDTAB
  0
TABLE
  2
LAYER
  5
2
100
AcDbSymbolTable
 70
36
  0
LAYER
  5
10
100
AcDbSymbolTableRecord
100
AcDbLayerTableRecord
  2
0
 70
0
 62
7
  6
CONTINUOUS
370
-3
390
F
  0
LAYER
  5
1FA
100
AcDbSymbolTableRecord
100
AcDbLayerTableRecord
  2
DEFAULT_1
 70
0
 62
7
  6
CENTER
370
-3
390
F
  0
LAYER
  5
1FB
100
AcDbSymbolTableRecord
100
AcDbLayerTableRecord
  2
DEFAULT_2
 70
0
 62
7
  6
HIDDEN
370
-3
390
F
  0
LAYER
  5
1FC
100
AcDbSymbolTableRecord
100
AcDbLayerTableRecord
  2
DEFAULT_3
 70
0
 62
7
  6
PHANTOM
370
-3
390
F
  0
LAYER
  5
1FD
100
AcDbSymbolTableRecord
100
AcDbLayerTableRecord
  2
ASSI
 70
0
 62
7
  6
CONTINUOUS
370
-3
390
F
  0
LAYER
  5
1FE
100
AcDbSymbolTableRecord
100
AcDbLayerTableRecord
  2
COORDINATE
 70
0
 62
7
  6
CONTINUOUS
370
-3
390
F
  0
LAYER
  5
1FF
100
AcDbSymbolTableRecord
100
AcDbLayerTableRecord
  2
COORD_ORIGINE
 70
0
 62
7
  6
CONTINUOUS
370
-3
390
F
  0
LAYER
  5
200
100
AcDbSymbolTableRecord
100
AcDbLayerTableRecord
  2
CURVE
 70
0
 62
7
  6
CONTINUOUS
370
-3
390
F
  0
LAYER
  5
201
100
AcDbSymbolTableRecord
100
AcDbLayerTableRecord
  2
DRAFT
 70
0
 62
7
  6
CONTINUOUS
370
-3
390
F
  0
LAYER
  5
202
100
AcDbSymbolTableRecord
100
AcDbLayerTableRecord
  2
PIANI
 70
0
 62
7
  6
CONTINUOUS
370
-3
390
F
  0
LAYER
  5
203
100
AcDbSymbolTableRecord
100
AcDbLayerTableRecord
  2
PIANI_ORIGINE
 70
0
 62
7
  6
CONTINUOUS
370
-3
390
F
  0
LAYER
  5
204
100
AcDbSymbolTableRecord
100
AcDbLayerTableRecord
  2
PUNTI
 70
0
 62
7
  6
CONTINUOUS
370
-3
390
F
  0
LAYER
  5
205
100
AcDbSymbolTableRecord
100
AcDbLayerTableRecord
  2
RACCORDO
 70
0
 62
7
  6
CONTINUOUS
370
-3
390
F
  0
LAYER
  5
206
100
AcDbSymbolTableRecord
100
AcDbLayerTableRecord
  2
SMUSSO
 70
0
 62
7
  6
CONTINUOUS
370
-3
390
F
  0
LAYER
  5
207
100
AcDbSymbolTableRecord
100
AcDbLayerTableRecord
  2
SNAPLINE
 70
0
 62
7
  6
CONTINUOUS
370
-3
390
F
  0
LAYER
  5
208
100
AcDbSymbolTableRecord
100
AcDbLayerTableRecord
  2
SUPERFICI
 70
0
 62
7
  6
CONTINUOUS
370
-3
390
F
  0
LAYER
  5
209
100
AcDbSymbolTableRecord
100
AcDbLayerTableRecord
  2
TRASH
 70
0
 62
7
  6
CONTINUOUS
370
-3
390
F
  0
LAYER
  5
20A
100
AcDbSymbolTableRecord
100
AcDbLayerTableRecord
  2
VECCHIO_NETSAFE
 70
0
 62
7
  6
CONTINUOUS
370
-3
390
F
  0
ENDTAB
  0
TABLE
  2
STYLE
  5
3
100
AcDbSymbolTable
 70
1
  0
STYLE
  5
11
100
AcDbSymbolTableRecord
100
AcDbTextStyleTableRecord
  2
STANDARD
 70
0
 40
0.0
 41
0.8
 50
0.0
 71
0
 42
0.2
  3
txt
  4

  0
STYLE
  5
20B
100
AcDbSymbolTableRecord
100
AcDbTextStyleTableRecord
  2
TEXTSTYLE_1
 70
0
 40
0.0
 41
0.8
 50
0.0
 71
0
 42
0.2
  3
gdt
  4

  0
ENDTAB
  0
TABLE
  2
VIEW
  5
6
100
AcDbSymbolTable
 70
0
  0
ENDTAB
  0
TABLE
  2
UCS
  5
7
100
AcDbSymbolTable
 70
0
  0
ENDTAB
  0
TABLE
  2
APPID
  5
9
100
AcDbSymbolTable
 70
1
  0
APPID
  5
20C
100
AcDbSymbolTableRecord
100
AcDbRegAppTableRecord
  2
ACAD
 70
0
  0
ENDTAB
  0
TABLE
  2
BLOCK_RECORD
  5
1
100
AcDbSymbolTable
 70
0
  0
BLOCK_RECORD
  5
20D
100
AcDbSymbolTableRecord
100
AcDbBlockTableRecord
  2
*Model_Space
  0
BLOCK_RECORD
  5
20E
100
AcDbSymbolTableRecord
100
AcDbBlockTableRecord
  2
*Paper_Space
  0
ENDTAB
  0
TABLE
  2
DIMSTYLE
  5
A
100
AcDbSymbolTable
 70
1
100
AcDbDimStyleTable
 71
0
  0
DIMSTYLE
105
20F
100
AcDbSymbolTableRecord
100
AcDbDimStyleTableRecord
  2
STANDARD
 70
0
  3

  4

 40
1.0
 41
3.0
 42
0.5
 43
0.38
 44
1.5
 45
0.0
 46
0.0
 47
0.01
 48
0.01
140
3.0
141
0.09
142
0.0
143
25.4
144
1.0
145
0.0
146
1.0
147
0.625
 71
1.0
 72
0.0
 73
0
 74
0
 75
0
 76
0
 77
1
 78
8
170
0
171
1
172
0
173
0
174
0
175
0
176
0
177
0
178
0
270
2
271
2
272
2
273
2
274
2
275
0
280
0
281
0
282
0
283
1
284
8
285
0
286
0
287
3
288
0
340
11
278
44
  0
ENDTAB
  0
ENDSEC
  0
SECTION
  2
BLOCKS
  0
BLOCK
  5
20
100
AcDbEntity
  8
0
100
AcDbBlockBegin
  2
*Model_Space
 70
0
 10
0.0
 20
0.0
 30
0.0
  3
*Model_Space
  1

  0
ENDBLK
  5
21
100
AcDbEntity
  8
0
100
AcDbBlockEnd
  0
BLOCK
  5
1C
100
AcDbEntity
  8
0
100
AcDbBlockBegin
  2
*Paper_Space
 70
0
 10
0.0
 20
0.0
 30
0.0
  3
*Paper_Space
  1

  0
ENDBLK
  5
1D
100
AcDbEntity
  8
0
100
AcDbBlockEnd
  0
ENDSEC
  0
SECTION
  2
ENTITIES
  0
LWPOLYLINE
  5
210
100
AcDbEntity
  8
0
100
AcDbPolyline
 62
7
  6
CONTINUOUS
 90
37
 70
0
 10
-120.2636058181
 20
-308.8478322781
 10
-120.2398874864
 20
-308.859178702
 10
-120.2153011484
 20
-308.8699595218
 10
-120.1898468039
 20
-308.8801747377
 10
-120.1634727603
 20
-308.8898416197
 10
-120.1362307104
 20
-308.8989428976
 10
-120.1082757322
 20
-308.9074267616
 10
-120.0796037596
 20
-308.9152896902
 10
-120.0502188588
 20
-308.9225352049
 10
-120.0202883064
 20
-308.9291220598
 10
-119.9898089903
 20
-308.9350464983
 10
-119.9587840226
 20
-308.9403122771
 10
-119.927390016
 20
-308.94488942
 10
-119.8956248658
 20
-308.9487739996
 10
-119.8634906769
 20
-308.9519699434
 10
-119.8311703763
 20
-308.9544590582
 10
-119.7986629027
 20
-308.9562373126
 10
-119.7659693174
 20
-308.957308738
 10
-119.7332757322
 20
-308.9576672351
 10
-119.7005821469
 20
-308.957308738
 10
-119.6678885617
 20
-308.9562373126
 10
-119.635381088
 20
-308.9544590582
 10
-119.6030607874
 20
-308.9519699434
 10
-119.5709265985
 20
-308.9487739996
 10
-119.5391614483
 20
-308.94488942
 10
-119.5077674418
 20
-308.9403122771
 10
-119.476742474
 20
-308.9350464983
 10
-119.4462631579
 20
-308.9291220598
 10
-119.4163326055
 20
-308.9225352049
 10
-119.3869477047
 20
-308.9152896902
 10
-119.3582757322
 20
-308.9074267616
 10
-119.330320754
 20
-308.8989428976
 10
-119.303078704
 20
-308.8898416197
 10
-119.2767046604
 20
-308.8801747377
 10
-119.251250316
 20
-308.8699595218
 10
-119.2266639779
 20
-308.859178702
 10
-119.2029456463
 20
-308.8478322781
  0
LINE
  5
211
100
AcDbEntity
  8
0
100
AcDbLine
 62
7
  6
CONTINUOUS
 10
-119.6625650541
 20
-309.1809390867
 11
-124.9305105739
 21
-306.5469663267
  0
LINE
  5
212
100
AcDbEntity
  8
0
100
AcDbLine
 62
7
  6
CONTINUOUS
 10
-125.3901299817
 20
-306.2845701963
 11
-120.2636058181
 21
-308.8478322781
  0
LINE
  5
213
100
AcDbEntity
  8
0
100
AcDbLine
 62
7
  6
CONTINUOUS
 10
-108.5961147096
 20
-224.3543493493
 11
-102.9911281926
 21
-229.1563033766
  0
LINE
  5
214
100
AcDbEntity
  8
0
100
AcDbLine
 62
7
  6
CONTINUOUS
 10
-102.3972191099
 20
-228.8623323755
 11
-108.387345192
 21
-223.6971145897
  0
LINE
  5
215
100
AcDbEntity
  8
0
100
AcDbLine
 62
7
  6
CONTINUOUS
 10
-105.7069589588
 20
-222.3555042915
 11
-99.7173200868
 21
-227.5455053006
  0
LWPOLYLINE
  5
216
100
AcDbEntity
  8
0
100
AcDbPolyline
 62
7
  6
CONTINUOUS
 90
19
 70
0
 10
-125.3901299817
 20
180.0860114127
 10
-125.4128228294
 20
180.0741522469
 10
-125.4343844692
 20
180.0618590778
 10
-125.454814901
 20
180.0491319056
 10
-125.4741486648
 20
180.0359448838
 10
-125.4923512207
 20
180.0223238588
 10
-125.5093189486
 20
180.0083463697
 10
-125.5250448059
 20
179.9940103835
 10
-125.5395358353
 20
179.9793179331
 10
-125.5527095452
 20
179.9643526569
 10
-125.5645584222
 20
179.9491129988
 10
-125.5750899796
 20
179.9336005149
 10
-125.5842442655
 20
179.9179035116
 10
-125.5920134246
 20
179.9020209366
 10
-125.5984053122
 20
179.8859538421
 10
-125.6033835418
 20
179.8697936918
 10
-125.6069400506
 20
179.853539955
 10
-125.6090829014
 20
179.8371931624
 10
-125.6097998958
 20
179.8208463697
  0
LWPOLYLINE
  5
217
100
AcDbEntity
  8
0
100
AcDbPolyline
 62
7
  6
CONTINUOUS
 90
19
 70
0
 10
-124.9305105739
 20
179.8562017088
 10
-124.9335362869
 20
179.8546204867
 10
-124.9364111722
 20
179.8529813975
 10
-124.9391352298
 20
179.8512844412
 10
-124.941713065
 20
179.8495261716
 10
-124.9441400724
 20
179.8477100349
 10
-124.9464024362
 20
179.8458463697
 10
-124.9484992171
 20
179.8439349049
 10
-124.9504313544
 20
179.8419759115
 10
-124.952187849
 20
179.8399805414
 10
-124.9537676993
 20
179.8379485869
 10
-124.955171907
 20
179.8358802558
 10
-124.9563924784
 20
179.833787322
 10
-124.9574283663
 20
179.8316696453
 10
-124.958280618
 20
179.829527366
 10
-124.9589443819
 20
179.8273726793
 10
-124.9594185831
 20
179.8252055144
 10
-124.9597042965
 20
179.8230259421
 10
-124.9597998958
 20
179.8208463697
  0
LINE
  5
218
100
AcDbEntity
  8
0
100
AcDbLine
 62
7
  6
CONTINUOUS
 10
-98.9443363653
 20
193.4122053256
 11
-124.9305105739
 21
180.4191182213
  0
LINE
  5
219
100
AcDbEntity
  8
0
100
AcDbLine
 62
7
  6
CONTINUOUS
 10
99.0455623669
 20
292.4071546917
 11
122.4569453665
 21
304.1128461915
  0
LINE
  5
21A
100
AcDbEntity
  8
0
100
AcDbLine
 62
7
  6
CONTINUOUS
 10
124.4682904352
 20
305.1185187258
 11
124.665620052
 21
305.2171835342
  0
LINE
  5
21B
100
AcDbEntity
  8
0
100
AcDbLine
 62
7
  6
CONTINUOUS
 10
-124.9305105739
 20
180.3158211166
 11
-125.3901299817
 21
180.0860114127
  0
LINE
  5
21C
100
AcDbEntity
  8
0
100
AcDbLine
 62
253
  6
CONTINUOUS
 10
-125.3901299817
 20
179.5556813268
 11
-124.9305105739
 21
179.7854910307
  0
LINE
  5
21D
100
AcDbEntity
  8
0
100
AcDbLine
 62
253
  6
CONTINUOUS
 10
-93.6763908454
 20
190.7782325656
 11
-119.6625650541
 21
177.7851454613
  0
LINE
  5
21E
100
AcDbEntity
  8
0
100
AcDbLine
 62
253
  6
CONTINUOUS
 10
104.3135078868
 20
289.7731819318
 11
125.6411571479
 21
300.4370065623
  0
LINE
  5
21F
100
AcDbEntity
  8
0
100
AcDbLine
 62
253
  6
CONTINUOUS
 10
129.665620052
 20
302.4492380144
 11
130.2996820954
 21
302.7662690361
  0
LINE
  5
220
100
AcDbEntity
  8
0
100
AcDbLine
 62
7
  6
CONTINUOUS
 10
104.0215557348
 20
289.3562414953
 11
-93.4671586329
 21
190.6118843115
  0
LINE
  5
221
100
AcDbEntity
  8
0
100
AcDbLine
 62
253
  6
CONTINUOUS
 10
130.7593015032
 20
302.5038729056
 11
130.6257047902
 21
302.4370745491
  0
LINE
  5
222
100
AcDbEntity
  8
0
100
AcDbLine
 62
253
  6
CONTINUOUS
 10
-120.2636058181
 20
176.992419245
 11
-119.8039864103
 21
177.2222289489
  0
LINE
  5
223
100
AcDbEntity
  8
0
100
AcDbLine
 62
253
  6
CONTINUOUS
 10
-93.2167714377
 20
189.9855063493
 11
-119.2029456463
 21
176.992419245
  0
LINE
  5
224
100
AcDbEntity
  8
0
100
AcDbLine
 62
253
  6
CONTINUOUS
 10
104.7731272946
 20
288.9804557154
 11
130.7593015032
 21
301.9735428197
  0
LINE
  5
225
100
AcDbEntity
  8
0
100
AcDbLine
 62
7
  6
CONTINUOUS
 10
-93.2167714377
 20
189.3228643467
 11
104.3135078868
 21
288.0880040089
  0
LINE
  5
226
100
AcDbEntity
  8
SMUSSO
100
AcDbLine
 62
7
  6
CONTINUOUS
 10
125.2215979582
 20
309.0472140211
 11
124.8949993259
 21
308.8162739134
  0
LWPOLYLINE
  5
227
100
AcDbEntity
  8
SMUSSO
100
AcDbPolyline
 62
7
  6
CONTINUOUS
 90
20
 70
0
 10
125.221610842
 20
309.0472094777
 10
125.2351599973
 20
309.0565331649
 10
125.2865727848
 20
309.087594795
 10
125.3441107754
 20
309.1163637903
 10
125.4062340355
 20
309.1420701841
 10
125.4730663889
 20
309.1646312718
 10
125.5444840117
 20
309.184129758
 10
125.6185754994
 20
309.2000437898
 10
125.6954130587
 20
309.21227657
 10
125.7749244828
 20
309.2209248958
 10
125.8549817463
 20
309.2257573054
 10
125.9355995895
 20
309.2266707511
 10
126.0167632721
 20
309.2237682805
 10
126.0963005482
 20
309.2171275747
 10
126.174167497
 20
309.2066476839
 10
126.2504080393
 20
309.1924295578
 10
126.3229816907
 20
309.1748537272
 10
126.39120829
 20
309.1540470356
 10
126.4557679984
 20
309.1298826394
 10
126.516660816
 20
309.1023605387
  0
LINE
  5
228
100
AcDbEntity
  8
0
100
AcDbLine
 62
7
  6
CONTINUOUS
 10
-99.3996046328
 20
148.053563908
 11
-100.9852586098
 21
147.2607369194
  0
LINE
  5
229
100
AcDbEntity
  8
0
100
AcDbLine
 62
7
  6
CONTINUOUS
 10
-111.955944251
 20
141.6820792764
 11
-113.5407462495
 21
140.8896782772
  0
LINE
  5
22A
100
AcDbEntity
  8
0
100
AcDbLine
 62
7
  6
CONTINUOUS
 10
-103.7612856446
 20
-205.5320135064
 11
-113.3841109109
 21
-206.9791118686
  0
LINE
  5
22B
100
AcDbEntity
  8
0
100
AcDbLine
 62
7
  6
CONTINUOUS
 10
-113.3841109109
 20
-203.4082613641
 11
-99.4034349889
 21
-201.9219586822
  0
LINE
  5
22C
100
AcDbEntity
  8
0
100
AcDbLine
 62
7
  6
CONTINUOUS
 10
-105.6212098243
 20
-183.8630755935
 11
-113.3841109109
 21
-184.1705436514
  0
LINE
  5
22D
100
AcDbEntity
  8
0
100
AcDbLine
 62
7
  6
CONTINUOUS
 10
-108.4938007173
 20
-180.8176462741
 11
-99.4034349889
 21
-180.522516421
  0
LINE
  5
22E
100
AcDbEntity
  8
0
100
AcDbLine
 62
7
  6
CONTINUOUS
 10
-105.8775634351
 20
143.9389754541
 11
-107.4624871448
 21
143.1465135992
  0
LINE
  5
22F
100
AcDbEntity
  8
0
100
AcDbLine
 62
7
  6
CONTINUOUS
 10
-100.9852586098
 20
135.5847570281
 11
-105.8775634351
 21
133.1386046155
  0
LINE
  5
230
100
AcDbEntity
  8
0
100
AcDbLine
 62
7
  6
CONTINUOUS
 10
-107.4624871448
 20
132.3461427607
 11
-111.955944251
 21
130.0994142075
  0
LINE
  5
231
100
AcDbEntity
  8
0
100
AcDbLine
 62
7
  6
CONTINUOUS
 10
-113.5407462495
 20
126.5430460555
 11
-99.3996046328
 21
133.6136168639
  0
LINE
  5
232
100
AcDbEntity
  8
0
100
AcDbLine
 62
7
  6
CONTINUOUS
 10
-111.955944251
 20
122.8223487094
 11
-113.5407462495
 21
122.0299477102
  0
LINE
  5
233
100
AcDbEntity
  8
0
100
AcDbLine
 62
7
  6
CONTINUOUS
 10
-105.8775634351
 20
124.5193559525
 11
-107.4624871448
 21
123.7268940976
  0
LINE
  5
234
100
AcDbEntity
  8
0
100
AcDbLine
 62
7
  6
CONTINUOUS
 10
-99.4034349954
 20
-171.1838864045
 11
-113.3841108303
 21
-172.803404414
  0
LWPOLYLINE
  5
235
100
AcDbEntity
  8
0
100
AcDbPolyline
 62
7
  6
CONTINUOUS
 90
19
 70
0
 10
-125.6097998958
 20
-306.0194051533
 10
-125.6090829014
 20
-306.035751946
 10
-125.6069400506
 20
-306.0520987386
 10
-125.6033835418
 20
-306.0683524754
 10
-125.5984053122
 20
-306.0845126257
 10
-125.5920134246
 20
-306.1005797202
 10
-125.5842442655
 20
-306.1164622952
 10
-125.5750899796
 20
-306.1321592985
 10
-125.5645584222
 20
-306.1476717824
 10
-125.5527095452
 20
-306.1629114405
 10
-125.5395358353
 20
-306.1778767167
 10
-125.5250448059
 20
-306.1925691671
 10
-125.5093189486
 20
-306.2069051533
 10
-125.4923512207
 20
-306.2208826424
 10
-125.4741486648
 20
-306.2345036674
 10
-125.454814901
 20
-306.2476906892
 10
-125.4343844692
 20
-306.2604178614
 10
-125.4128228294
 20
-306.2727110305
 10
-125.3901299817
 20
-306.2845701963
  0
LINE
  5
236
100
AcDbEntity
  8
0
100
AcDbLine
 62
7
  6
CONTINUOUS
 10
-107.0532939708
 20
99.1157105245
 11
-99.4473154371
 21
106.5380031281
  0
LINE
  5
237
100
AcDbEntity
  8
0
100
AcDbLine
 62
7
  6
CONTINUOUS
 10
-99.4473154371
 20
111.8390601816
 11
-113.7852641217
 21
97.9090841037
  0
LINE
  5
238
100
AcDbEntity
  8
0
100
AcDbLine
 62
7
  6
CONTINUOUS
 10
-99.3996046328
 20
118.2101122922
 11
-105.8775634351
 21
114.971132891
  0
LINE
  5
239
100
AcDbEntity
  8
0
100
AcDbLine
 62
7
  6
CONTINUOUS
 10
-107.4624871448
 20
114.1786710362
 11
-111.955944251
 21
111.931942483
  0
LINE
  5
23A
100
AcDbEntity
  8
0
100
AcDbLine
 62
7
  6
CONTINUOUS
 10
-113.5407462495
 20
108.3752762006
 11
-99.3996046328
 21
115.445847009
  0
LINE
  5
23B
100
AcDbEntity
  8
0
100
AcDbLine
 62
7
  6
CONTINUOUS
 10
-109.5432510973
 20
-169.2212918278
 11
-104.3545855903
 21
-168.4064916322
  0
LINE
  5
23C
100
AcDbEntity
  8
0
100
AcDbLine
 62
7
  6
CONTINUOUS
 10
-102.1942961133
 20
-168.057761776
 11
-99.4034349954
 21
-167.6494354954
  0
LWPOLYLINE
  5
23D
100
AcDbEntity
  8
SMUSSO
100
AcDbPolyline
 62
7
  6
CONTINUOUS
 90
19
 70
0
 10
125.1986495066
 20
-191.3201853143
 10
125.290620052
 20
-191.3494811639
 10
125.3873472249
 20
-191.3746576535
 10
125.4880948729
 20
-191.3955231746
 10
125.5920962457
 20
-191.411918928
 10
125.69855983
 20
-191.4237201322
 10
125.8066753736
 20
-191.4308369729
 10
125.915620052
 20
-191.4332152866
 10
126.0245647305
 20
-191.4308369729
 10
126.1326802741
 20
-191.4237201322
 10
126.2391438584
 20
-191.411918928
 10
126.3431452312
 20
-191.3955231746
 10
126.4438928792
 20
-191.3746576535
 10
126.540620052
 20
-191.3494811639
 10
126.6325905975
 20
-191.3201853143
 10
126.7191045641
 20
-191.2869930635
 10
126.7995035285
 20
-191.2501570248
 10
126.8731756059
 20
-191.2099575426
 10
126.9362407782
 20
-191.1690592048
  0
LWPOLYLINE
  5
23E
100
AcDbEntity
  8
0
100
AcDbPolyline
 62
7
  6
CONTINUOUS
 90
23
 70
0
 10
-107.8656770154
 20
-97.7334958854
 10
-107.6654299764
 20
-97.821049083
 10
-107.4382032868
 20
-97.8921983649
 10
-107.20004487
 20
-97.9391685827
 10
-106.9543285295
 20
-97.9612943743
 10
-106.7009466927
 20
-97.9582221232
 10
-106.4400069323
 20
-97.9303054459
 10
-106.1752057711
 20
-97.8779398302
 10
-105.9064882495
 20
-97.8007772885
 10
-105.633909327
 20
-97.6991658085
 10
-105.3613304046
 20
-97.5745448409
 10
-105.0887514821
 20
-97.4265868861
 10
-104.8161725596
 20
-97.2556194436
 10
-104.5474550381
 20
-97.0640644637
 10
-104.2826538768
 20
-96.8516289181
 10
-104.0217141164
 20
-96.618605835
 10
-103.7683322796
 20
-96.3682962493
 10
-103.5226159392
 20
-96.1004541173
 10
-103.2844575223
 20
-95.8153254826
 10
-103.0572308327
 20
-95.5169495112
 10
-102.8420604719
 20
-95.2066725914
 10
-102.6378218383
 20
-94.8831483348
 10
-102.4445149322
 20
-94.5463767414
  0
LWPOLYLINE
  5
23F
100
AcDbEntity
  8
RACCORDO
100
AcDbPolyline
 62
7
  6
CONTINUOUS
 90
7
 70
0
 10
-114.4503113206
 20
-98.8739652826
 10
-114.3981298141
 20
-98.8974333146
 10
-114.322306927
 20
-98.9231352687
 10
-114.2426585729
 20
-98.9407682362
 10
-114.1598925819
 20
-98.9500513802
 10
-114.0746997085
 20
-98.9507687888
 10
-113.9876944692
 20
-98.9427637613
  0
LWPOLYLINE
  5
240
100
AcDbEntity
  8
RACCORDO
100
AcDbPolyline
 62
253
  6
CONTINUOUS
 90
10
 70
0
 10
-114.4511917521
 20
-92.9254601012
 10
-114.4349011643
 20
-92.9329156179
 10
-114.4173582251
 20
-92.9396232117
 10
-114.3986998309
 20
-92.9455305401
 10
-114.3790715849
 20
-92.9505915042
 10
-114.3586266547
 20
-92.9547666121
 10
-114.3375245768
 20
-92.9580232854
 10
-114.3159300192
 20
-92.9603361107
 10
-114.2940114975
 20
-92.9616870383
 10
-114.2719400535
 20
-92.9620655255
  0
LWPOLYLINE
  5
241
100
AcDbEntity
  8
0
100
AcDbPolyline
 62
7
  6
CONTINUOUS
 90
17
 70
0
 10
104.3135078868
 20
-197.1929026162
 10
104.3336193979
 20
-197.2024141241
 10
104.3536168549
 20
-197.2108075764
 10
104.373500258
 20
-197.218082973
 10
104.3933069745
 20
-197.2242498945
 10
104.412999637
 20
-197.2292987603
 10
104.432466143
 20
-197.2332008293
 10
104.4517052026
 20
-197.2359495609
 10
104.4707181057
 20
-197.2375514956
 10
104.4893966193
 20
-197.2379975144
 10
104.5077388364
 20
-197.2372810245
 10
104.5257466639
 20
-197.2354086187
 10
104.5433175907
 20
-197.2323909557
 10
104.5604491247
 20
-197.2282215037
 10
104.5771437579
 20
-197.2229067947
 10
104.5933064543
 20
-197.216477083
 10
104.6041957147
 20
-197.2113617601
  0
LINE
  5
242
100
AcDbEntity
  8
RACCORDO
100
AcDbLine
 62
7
  6
CONTINUOUS
 10
-114.4503124412
 20
-98.873964722
 11
-114.9302214774
 21
-98.6340102337
  0
LINE
  5
243
100
AcDbEntity
  8
RACCORDO
100
AcDbLine
 62
253
  6
CONTINUOUS
 10
-114.7423410313
 20
-98.3170232492
 11
-115.190114663
 21
-98.0931364333
  0
LINE
  5
244
100
AcDbEntity
  8
ASSI
100
AcDbLine
 62
7
  6
CONTINUOUS
 10
-108.7496100158
 20
-97.2916531111
 11
-107.8657265394
 21
-97.7335948493
  0
LINE
  5
245
100
AcDbEntity
  8
0
100
AcDbLine
 62
253
  6
CONTINUOUS
 10
-110.2050118557
 20
-94.2627598288
 11
-109.8514584651
 21
-94.4395365241
  0
LWPOLYLINE
  5
246
100
AcDbEntity
  8
RACCORDO
100
AcDbPolyline
 62
7
  6
CONTINUOUS
 90
12
 70
0
 10
-114.9302082783
 20
-98.6339838349
 10
-114.9375451024
 20
-98.6302155697
 10
-114.9828357021
 20
-98.6020801922
 10
-115.024340381
 20
-98.567372892
 10
-115.062076444
 20
-98.5261325402
 10
-115.0952512989
 20
-98.4789910278
 10
-115.1238531632
 20
-98.4254310196
 10
-115.1478938193
 20
-98.3659698508
 10
-115.1666160218
 20
-98.3027914181
 10
-115.1797673558
 20
-98.2366236871
 10
-115.1876002362
 20
-98.1667386921
 10
-115.190114663
 20
-98.0931364333
  0
LWPOLYLINE
  5
247
100
AcDbEntity
  8
RACCORDO
100
AcDbPolyline
 62
253
  6
CONTINUOUS
 90
24
 70
0
 10
-114.4504641741
 20
-98.8738888853
 10
-114.4692295833
 20
-98.8640354994
 10
-114.5020287547
 20
-98.844382487
 10
-114.5322642831
 20
-98.8231538684
 10
-114.5599678231
 20
-98.8006206252
 10
-114.5852949267
 20
-98.7769442188
 10
-114.6083137729
 20
-98.7523319301
 10
-114.6290885963
 20
-98.7270007484
 10
-114.6477614905
 20
-98.7010834236
 10
-114.6643996401
 20
-98.674767693
 10
-114.6790920869
 20
-98.6482155996
 10
-114.6920050501
 20
-98.6214885654
 10
-114.7032175694
 20
-98.5947172121
 10
-114.7128058908
 20
-98.568043417
 10
-114.7209220873
 20
-98.5415188369
 10
-114.727633667
 20
-98.5152964124
 10
-114.7330287386
 20
-98.4894394929
 10
-114.7372704899
 20
-98.4638369284
 10
-114.7404242736
 20
-98.4385655324
 10
-114.7425451392
 20
-98.4136967025
 10
-114.7437492409
 20
-98.3890801886
 10
-114.7440977809
 20
-98.364695024
 10
-114.7436139245
 20
-98.3406609484
 10
-114.7423410313
 20
-98.3170232492
  0
LWPOLYLINE
  5
248
100
AcDbEntity
  8
RACCORDO
100
AcDbPolyline
 62
253
  6
CONTINUOUS
 90
7
 70
0
 10
-114.2497170883
 20
-98.7809241778
 10
-114.2773043921
 20
-98.7655467583
 10
-114.3027590986
 20
-98.7490777332
 10
-114.3260499437
 20
-98.731508204
 10
-114.3474250696
 20
-98.7132688307
 10
-114.3668680121
 20
-98.6944050615
 10
-114.3843644486
 20
-98.6749133582
  0
LWPOLYLINE
  5
249
100
AcDbEntity
  8
RACCORDO
100
AcDbPolyline
 62
253
  6
CONTINUOUS
 90
10
 70
0
 10
-114.7423410313
 20
-98.3170232492
 10
-114.7187688351
 20
-98.3303422749
 10
-114.6927507916
 20
-98.3420376061
 10
-114.6647022651
 20
-98.3519225328
 10
-114.6350710359
 20
-98.3598392471
 10
-114.6043301511
 20
-98.3656613626
 10
-114.5729703728
 20
-98.3692959321
 10
-114.5414923436
 20
-98.3706849315
 10
-114.5103985939
 20
-98.3698061859
 10
-114.4801855191
 20
-98.3666737238
  0
LWPOLYLINE
  5
24A
100
AcDbEntity
  8
0
100
AcDbPolyline
 62
7
  6
CONTINUOUS
 90
3
 70
0
 10
-108.2781458769
 20
-97.4631922138
 10
-108.0848389708
 20
-97.606656901
 10
-107.8656770154
 20
-97.7334958854
  0
LINE
  5
24B
100
AcDbEntity
  8
ASSI
100
AcDbLine
 62
7
  6
CONTINUOUS
 10
-107.3975760434
 20
-87.8477875049
 11
-107.264878083
 21
-87.9495819254
  0
LWPOLYLINE
  5
24C
100
AcDbEntity
  8
0
100
AcDbPolyline
 62
7
  6
CONTINUOUS
 90
13
 70
0
 10
-102.359040386
 20
-92.0451726205
 10
-102.5931398261
 20
-91.7827597476
 10
-102.8186141715
 20
-91.5096286813
 10
-103.0354634221
 20
-91.2257794215
 10
-103.2443481409
 20
-90.9302016411
 10
-103.444607765
 20
-90.6239056672
 10
-103.6342606058
 20
-90.3099224814
 10
-103.8132013554
 20
-89.9881757626
 10
-103.9815353216
 20
-89.6587418319
 10
-104.1375967394
 20
-89.324880635
 10
-104.2808303536
 20
-88.9876788202
 10
-104.4117914194
 20
-88.6460497392
 10
-104.5304799367
 20
-88.2999933919
  0
LWPOLYLINE
  5
24D
100
AcDbEntity
  8
ASSI
100
AcDbPolyline
 62
7
  6
CONTINUOUS
 90
3
 70
0
 10
-107.633019288
 20
-87.596191556
 10
-107.5202417604
 20
-87.7299137536
 10
-107.3975760434
 20
-87.8477875049
  0
LWPOLYLINE
  5
24E
100
AcDbEntity
  8
RACCORDO
100
AcDbPolyline
 62
253
  6
CONTINUOUS
 90
6
 70
0
 10
-107.7278321867
 20
-87.4579513707
 10
-107.641895468
 20
-87.5599023365
 10
-107.52219238
 20
-87.6748428025
 10
-107.3927514723
 20
-87.7743547604
 10
-107.2542141116
 20
-87.8579123748
 10
-107.2275286883
 20
-87.8716422502
  0
LWPOLYLINE
  5
24F
100
AcDbEntity
  8
RACCORDO
100
AcDbPolyline
 62
253
  6
CONTINUOUS
 90
17
 70
0
 10
-114.3843644486
 20
-98.6749133582
 10
-114.4001700313
 20
-98.6551457395
 10
-114.4142666199
 20
-98.6351507302
 10
-114.4266509455
 20
-98.6149110064
 10
-114.4376046517
 20
-98.5946748178
 10
-114.4471270118
 20
-98.5744684957
 10
-114.4552048257
 20
-98.5542871979
 10
-114.4621039567
 20
-98.5343280702
 10
-114.4678232266
 20
-98.5146512889
 10
-114.4723550078
 20
-98.495210925
 10
-114.4759576942
 20
-98.4760414672
 10
-114.4786522696
 20
-98.4571680631
 10
-114.4804127378
 20
-98.4385740188
 10
-114.4814285643
 20
-98.4202285071
 10
-114.4817621383
 20
-98.4021226026
 10
-114.4813483245
 20
-98.3842700687
 10
-114.4801859784
 20
-98.3666729811
  0
LWPOLYLINE
  5
250
100
AcDbEntity
  8
RACCORDO
100
AcDbPolyline
 62
253
  6
CONTINUOUS
 90
3
 70
0
 10
-110.3714745497
 20
-89.1577290965
 10
-110.2167450533
 20
-89.4003598209
 10
-110.2050118557
 20
-89.415588548
  0
LWPOLYLINE
  5
251
100
AcDbEntity
  8
RACCORDO
100
AcDbPolyline
 62
7
  6
CONTINUOUS
 90
9
 70
0
 10
-110.2050118557
 20
-88.2108004873
 10
-110.2188953799
 20
-88.1780463681
 10
-110.2904036694
 20
-87.9668006529
 10
-110.3520978039
 20
-87.7358507255
 10
-110.4035056787
 20
-87.4870433991
 10
-110.4441027572
 20
-87.2215033422
 10
-110.4732656158
 20
-86.9404785879
 10
-110.4904407633
 20
-86.6459048506
 10
-110.4948973321
 20
-86.4552532621
  0
LINE
  5
252
100
AcDbEntity
  8
RACCORDO
100
AcDbLine
 62
7
  6
CONTINUOUS
 10
-130.5751478965
 20
-46.9873221139
 11
-130.9122360028
 21
-44.7306532357
  0
LINE
  5
253
100
AcDbEntity
  8
RACCORDO
100
AcDbLine
 62
7
  6
CONTINUOUS
 10
-129.6327706688
 20
-44.53567499
 11
-129.1609343341
 21
-47.6944288951
  0
LWPOLYLINE
  5
254
100
AcDbEntity
  8
0
100
AcDbPolyline
 62
7
  6
CONTINUOUS
 90
23
 70
0
 10
-111.0017144599
 20
-158.4271961582
 10
-111.0194005308
 20
-158.3060382152
 10
-111.0361901022
 20
-158.1841967039
 10
-111.0519981588
 20
-158.0616446075
 10
-111.0667396851
 20
-157.9383549093
 10
-111.0803296656
 20
-157.8143005925
 10
-111.0926830849
 20
-157.6894546406
 10
-111.1037149276
 20
-157.5637900367
 10
-111.1133401783
 20
-157.4372797643
 10
-111.1214738214
 20
-157.3098968065
 10
-111.1280308416
 20
-157.1816141467
 10
-111.1329262235
 20
-157.0524047682
 10
-111.1361240638
 20
-156.9203594005
 10
-111.1375358796
 20
-156.787374015
 10
-111.1371733036
 20
-156.653490179
 10
-111.1350479682
 20
-156.5187494598
 10
-111.1311715059
 20
-156.3831934245
 10
-111.1264354767
 20
-156.2655900278
 10
-111.1204596268
 20
-156.1474527981
 10
-111.1132996044
 20
-156.0288241431
 10
-111.1050110582
 20
-155.9097464709
 10
-111.0956496366
 20
-155.7902621891
 10
-111.0852709879
 20
-155.6704137057
  0
LWPOLYLINE
  5
255
100
AcDbEntity
  8
RACCORDO
100
AcDbPolyline
 62
253
  6
CONTINUOUS
 90
13
 70
0
 10
-111.0010402959
 20
-86.7339369223
 10
-110.9791069609
 20
-87.0053505077
 10
-110.9453415186
 20
-87.2658023898
 10
-110.9031277595
 20
-87.5133214761
 10
-110.860635489
 20
-87.745683661
 10
-110.8187104339
 20
-87.9636487324
 10
-110.7703817797
 20
-88.1698845232
 10
-110.7161349888
 20
-88.3652347089
 10
-110.6592520197
 20
-88.5488046897
 10
-110.5959122512
 20
-88.7199960628
 10
-110.5254917712
 20
-88.8784286871
 10
-110.4504709637
 20
-89.0243296015
 10
-110.371474287
 20
-89.1577163886
  0
LINE
  5
256
100
AcDbEntity
  8
0
100
AcDbLine
 62
7
  6
CONTINUOUS
 10
-105.7855944733
 20
-86.7863884671
 11
-105.8135942129
 21
-86.4334982712
  0
LINE
  5
257
100
AcDbEntity
  8
0
100
AcDbLine
 62
7
  6
CONTINUOUS
 10
-105.8135942129
 20
-86.4334982712
 11
-105.8388833025
 21
-86.1091914866
  0
LINE
  5
258
100
AcDbEntity
  8
0
100
AcDbLine
 62
7
  6
CONTINUOUS
 10
-105.8388833025
 20
-86.1091914866
 11
-105.8541901594
 21
-85.9085113785
  0
LINE
  5
259
100
AcDbEntity
  8
0
100
AcDbLine
 62
7
  6
CONTINUOUS
 10
-105.8541901594
 20
-85.9085113785
 11
-105.8681499498
 21
-85.720297995
  0
LINE
  5
25A
100
AcDbEntity
  8
0
100
AcDbLine
 62
7
  6
CONTINUOUS
 10
-105.8681499498
 20
-85.720297995
 11
-105.8807197339
 21
-85.5440479139
  0
LWPOLYLINE
  5
25B
100
AcDbEntity
  8
0
100
AcDbPolyline
 62
7
  6
CONTINUOUS
 90
22
 70
0
 10
-105.8807197339
 20
-85.5440479139
 10
-105.8916513265
 20
-85.3814282179
 10
-105.8964817574
 20
-85.3045178473
 10
-105.900849992
 20
-85.2308791015
 10
-105.9047616708
 20
-85.1603382095
 10
-105.9081710398
 20
-85.0923377808
 10
-105.9110732362
 20
-85.0272158763
 10
-105.9134731226
 20
-84.9646344351
 10
-105.9153395332
 20
-84.9030218841
 10
-105.9166761273
 20
-84.8420913492
 10
-105.9174792455
 20
-84.7821297045
 10
-105.9177067439
 20
-84.7224259988
 10
-105.9173234657
 20
-84.6629057944
 10
-105.9163645677
 20
-84.6036435291
 10
-105.9148933766
 20
-84.5441515647
 10
-105.9129208438
 20
-84.4848598391
 10
-105.9104360179
 20
-84.4253384144
 10
-105.9074693719
 20
-84.3638098387
 10
-105.9040198218
 20
-84.2999139375
 10
-105.9000884516
 20
-84.2340108853
 10
-105.8957089863
 20
-84.1654037539
 10
-105.8908705004
 20
-84.0938493595
  0
LWPOLYLINE
  5
25C
100
AcDbEntity
  8
RACCORDO
100
AcDbPolyline
 62
253
  6
CONTINUOUS
 90
7
 70
0
 10
-111.0235231463
 20
-86.4426114303
 10
-111.0204566534
 20
-86.4914954813
 10
-111.0171232773
 20
-86.5402659664
 10
-111.0135114241
 20
-86.5889150455
 10
-111.0096238722
 20
-86.6374227759
 10
-111.005465122
 20
-86.685769516
 10
-111.0010402959
 20
-86.7339369223
  0
LWPOLYLINE
  5
25D
100
AcDbEntity
  8
RACCORDO
100
AcDbPolyline
 62
253
  6
CONTINUOUS
 90
34
 70
0
 10
-114.4801858508
 20
-30.7743067563
 10
-114.4813482073
 20
-30.754894277
 10
-114.4817620335
 20
-30.7348945861
 10
-114.4814284741
 20
-30.7143066304
 10
-114.4804126643
 20
-30.6931673053
 10
-114.4786522149
 20
-30.6714371455
 10
-114.4759576604
 20
-30.6489998865
 10
-114.4723549965
 20
-30.6258393003
 10
-114.4678232399
 20
-30.601966851
 10
-114.4621039968
 20
-30.5773062807
 10
-114.4552048948
 20
-30.5517952026
 10
-114.4471271123
 20
-30.52548766
 10
-114.4376047857
 20
-30.4984798277
 10
-114.4266511151
 20
-30.4707510381
 10
-114.4142668274
 20
-30.4423089999
 10
-114.4001702791
 20
-30.4132896045
 10
-114.3843647395
 20
-30.3836436084
 10
-114.3668683486
 20
-30.3534011994
 10
-114.3474254535
 20
-30.3228140854
 10
-114.3260503749
 20
-30.291842225
 10
-114.3027595787
 20
-30.2605000006
 10
-114.2773049274
 20
-30.2291172553
 10
-114.2497176918
 20
-30.1976426867
 10
-114.2200093193
 20
-30.166094959
 10
-114.1879072774
 20
-30.1349050415
 10
-114.153403499
 20
-30.103960338
 10
-114.1165648101
 20
-30.0733330152
 10
-114.0772353883
 20
-30.0437287662
 10
-114.0354135909
 20
-30.015025603
 10
-113.9911740118
 20
-29.9873016295
 10
-113.94447467
 20
-29.9615643201
 10
-113.8953265869
 20
-29.9381369491
 10
-113.8437982133
 20
-29.9166562012
 10
-113.7899336959
 20
-29.8971017951
  0
LWPOLYLINE
  5
25E
100
AcDbEntity
  8
RACCORDO
100
AcDbPolyline
 62
253
  6
CONTINUOUS
 90
34
 70
0
 10
-114.7423408733
 20
-30.767041833
 10
-114.743613777
 20
-30.7415625098
 10
-114.744097645
 20
-30.7152810579
 10
-114.7437491175
 20
-30.6881994049
 10
-114.7425450295
 20
-30.6603859045
 10
-114.7404241785
 20
-30.6317866087
 10
-114.73727041
 20
-30.6022197742
 10
-114.7330286743
 20
-30.5716909276
 10
-114.7276336185
 20
-30.5402223513
 10
-114.7209220549
 20
-30.5076568336
 10
-114.7128058748
 20
-30.4739680373
 10
-114.7032175697
 20
-30.4392429727
 10
-114.6920050664
 20
-30.4035030842
 10
-114.6790921185
 20
-30.3668187284
 10
-114.6643996862
 20
-30.3292367619
 10
-114.6477615501
 20
-30.2907600712
 10
-114.6290886684
 20
-30.2514734147
 10
-114.6083138562
 20
-30.211485588
 10
-114.5852950198
 20
-30.1708596612
 10
-114.5599679243
 20
-30.1297596594
 10
-114.5322643906
 20
-30.0883134137
 10
-114.5020288675
 20
-30.0465654364
 10
-114.4692297006
 20
-30.004761239
 10
-114.4338028191
 20
-29.9630785093
 10
-114.3955280496
 20
-29.9215229442
 10
-114.3543622523
 20
-29.8803949728
 10
-114.3103059138
 20
-29.8400172333
 10
-114.2631946977
 20
-29.8005265396
 10
-114.2130813673
 20
-29.7623774903
 10
-114.1599994097
 20
-29.7259904554
 10
-114.1037678393
 20
-29.6915977444
 10
-114.0444192588
 20
-29.6597179042
 10
-113.982227909
 20
-29.6310818079
 10
-113.9174374172
 20
-29.6063613761
  0
LWPOLYLINE
  5
25F
100
AcDbEntity
  8
0
100
AcDbPolyline
 62
7
  6
CONTINUOUS
 90
19
 70
0
 10
-125.6097998958
 20
179.8208463697
 10
-125.6090829014
 20
179.8044995771
 10
-125.6069400506
 20
179.7881527845
 10
-125.6033835418
 20
179.7718990477
 10
-125.5984053122
 20
179.7557388974
 10
-125.5920134246
 20
179.7396718029
 10
-125.5842442655
 20
179.7237892278
 10
-125.5750899796
 20
179.7080922245
 10
-125.5645584222
 20
179.6925797407
 10
-125.5527095452
 20
179.6773400826
 10
-125.5395358353
 20
179.6623748064
 10
-125.5250448059
 20
179.647682356
 10
-125.5093189486
 20
179.6333463697
 10
-125.4923512207
 20
179.6193688806
 10
-125.4741486648
 20
179.6057478556
 10
-125.454814901
 20
179.5925608339
 10
-125.4343844692
 20
179.5798336616
 10
-125.4128228294
 20
179.5675404926
 10
-125.3901299817
 20
179.5556813268
  0
LWPOLYLINE
  5
260
100
AcDbEntity
  8
0
100
AcDbPolyline
 62
7
  6
CONTINUOUS
 90
19
 70
0
 10
-124.9597998958
 20
179.8208463697
 10
-124.9597042965
 20
179.8186667974
 10
-124.9594185831
 20
179.816487225
 10
-124.9589443819
 20
179.8143200601
 10
-124.958280618
 20
179.8121653734
 10
-124.9574283663
 20
179.8100230942
 10
-124.9563924784
 20
179.8079054175
 10
-124.955171907
 20
179.8058124837
 10
-124.9537676993
 20
179.8037441525
 10
-124.952187849
 20
179.8017121981
 10
-124.9504313544
 20
179.799716828
 10
-124.9484992171
 20
179.7977578346
 10
-124.9464024362
 20
179.7958463697
 10
-124.9441400724
 20
179.7939827045
 10
-124.941713065
 20
179.7921665679
 10
-124.9391352298
 20
179.7904082983
 10
-124.9364111722
 20
179.788711342
 10
-124.9335362869
 20
179.7870722528
 10
-124.9305105739
 20
179.7854910307
  0
LWPOLYLINE
  5
261
100
AcDbEntity
  8
ASSI
100
AcDbPolyline
 62
7
  6
CONTINUOUS
 90
14
 70
0
 10
-110.2050118557
 20
-94.2627598288
 10
-110.1949770879
 20
-94.598744965
 10
-110.1661333924
 20
-94.9204291551
 10
-110.1184807693
 20
-95.2278123992
 10
-110.0516051375
 20
-95.5222484842
 10
-109.9659205781
 20
-95.8023836231
 10
-109.862669334
 20
-96.0641564551
 10
-109.7415954891
 20
-96.307299473
 10
-109.6029549595
 20
-96.532080184
 10
-109.4487577368
 20
-96.7352397479
 10
-109.2787771868
 20
-96.9164631823
 10
-109.0932399437
 20
-97.0760654696
 10
-108.8948359009
 20
-97.2117327177
 10
-108.7495531675
 20
-97.2915393002
  0
LWPOLYLINE
  5
262
100
AcDbEntity
  8
0
100
AcDbPolyline
 62
7
  6
CONTINUOUS
 90
53
 70
0
 10
-113.3745493326
 20
-240.8857710191
 10
-113.3740409574
 20
-240.9353043568
 10
-113.3725081684
 20
-240.9843543742
 10
-113.3699394702
 20
-241.0328716841
 10
-113.3663233678
 20
-241.0808068997
 10
-113.3616483659
 20
-241.1281106341
 10
-113.3559029693
 20
-241.1747335003
 10
-113.3490756828
 20
-241.2206261114
 10
-113.3411550111
 20
-241.2657390804
 10
-113.332129459
 20
-241.3100230204
 10
-113.3219875313
 20
-241.3534285445
 10
-113.3107177328
 20
-241.3959062657
 10
-113.2983085683
 20
-241.4374067971
 10
-113.2866835521
 20
-241.4723732698
 10
-113.2741994517
 20
-241.5065339511
 10
-113.2608531552
 20
-241.5398465833
 10
-113.2466415507
 20
-241.5722689087
 10
-113.2315615265
 20
-241.6037586696
 10
-113.2156099707
 20
-241.6342736083
 10
-113.1987837715
 20
-241.6637714671
 10
-113.181079817
 20
-241.6922099883
 10
-113.1624949955
 20
-241.7195469142
 10
-113.1430261949
 20
-241.7457399871
 10
-113.1226703036
 20
-241.7707469493
 10
-113.1014242096
 20
-241.7945255432
 10
-113.0792848012
 20
-241.8170335109
 10
-113.0569802596
 20
-241.8375935629
 10
-113.0338569221
 20
-241.8568904194
 10
-113.0099377471
 20
-241.8748936977
 10
-112.9852456932
 20
-241.8915730154
 10
-112.9598037189
 20
-241.9068979897
 10
-112.9336347829
 20
-241.920838238
 10
-112.9067618436
 20
-241.9333633778
 10
-112.8792078597
 20
-241.9444430264
 10
-112.8509957897
 20
-241.9540468013
 10
-112.8221485921
 20
-241.9621443198
 10
-112.7926892255
 20
-241.9687051993
 10
-112.7626406485
 20
-241.9736990572
 10
-112.7320258195
 20
-241.9770955108
 10
-112.701103352
 20
-241.9788672757
 10
-112.6696910313
 20
-241.9790661473
 10
-112.63783431
 20
-241.9777230877
 10
-112.6055786409
 20
-241.9748690591
 10
-112.5729694766
 20
-241.9705350236
 10
-112.5400522698
 20
-241.9647519433
 10
-112.5068724733
 20
-241.9575507804
 10
-112.4734755398
 20
-241.9489624971
 10
-112.4399069219
 20
-241.9390180554
 10
-112.4062120723
 20
-241.9277484175
 10
-112.3724364438
 20
-241.9151845456
 10
-112.3386254891
 20
-241.9013574018
 10
-112.3048246608
 20
-241.8862979482
 10
-112.2710794117
 20
-241.8700371469
  0
LWPOLYLINE
  5
263
100
AcDbEntity
  8
RACCORDO
100
AcDbPolyline
 62
253
  6
CONTINUOUS
 90
10
 70
0
 10
-114.451192477
 20
-36.449745203
 10
-114.4564838343
 20
-35.8828240786
 10
-114.4688217523
 20
-35.2995217023
 10
-114.4882062312
 20
-34.6998380742
 10
-114.515013197
 20
-34.0834283121
 10
-114.5488667236
 20
-33.4506372981
 10
-114.5886390324
 20
-32.8024996786
 10
-114.6339541972
 20
-32.1393603356
 10
-114.6851881442
 20
-31.4608743871
 10
-114.7423408733
 20
-30.767041833
  0
LWPOLYLINE
  5
264
100
AcDbEntity
  8
0
100
AcDbPolyline
 62
7
  6
CONTINUOUS
 90
164
 70
0
 10
-113.8781297945
 20
75.7762551309
 10
-113.8764971001
 20
75.5415927296
 10
-113.871569677
 20
75.3085979552
 10
-113.8633035151
 20
75.0773791423
 10
-113.8516546041
 20
74.8480446257
 10
-113.836578934
 20
74.62070274
 10
-113.8180324947
 20
74.3954618199
 10
-113.7964737132
 20
74.177194684
 10
-113.7714620978
 20
73.961188949
 10
-113.7429105198
 20
73.74759042
 10
-113.7107318505
 20
73.5365449018
 10
-113.6748389612
 20
73.3281981994
 10
-113.6351447231
 20
73.1226961178
 10
-113.5995078455
 20
72.9555916103
 10
-113.5611469629
 20
72.7906590773
 10
-113.519978938
 20
72.6280395391
 10
-113.4759206336
 20
72.4678740162
 10
-113.4288889124
 20
72.3103035291
 10
-113.3788006373
 20
72.1554690982
 10
-113.3255726708
 20
72.0035117439
 10
-113.2720889616
 20
71.8621392025
 10
-113.2156175901
 20
71.7237068878
 10
-113.1560721773
 20
71.5884380485
 10
-113.0933663439
 20
71.4565559331
 10
-113.0274137108
 20
71.3282837903
 10
-112.958127899
 20
71.2038448689
 10
-112.8854225293
 20
71.0834624174
 10
-112.8216974586
 20
70.9857259686
 10
-112.7554486689
 20
70.8911786625
 10
-112.686622142
 20
70.7999948631
 10
-112.6151638599
 20
70.7123489343
 10
-112.5429629064
 20
70.6305285965
 10
-112.4681861861
 20
70.5524212535
 10
-112.3908074602
 20
70.4782159817
 10
-112.3108004899
 20
70.4081018577
 10
-112.229856675
 20
70.343566577
 10
-112.1463759625
 20
70.2833197603
 10
-112.0603688145
 20
70.2275423785
 10
-111.9718456932
 20
70.1764154027
 10
-111.8818705136
 20
70.1306117881
 10
-111.7895024968
 20
70.0896754472
 10
-111.6947978408
 20
70.0537511795
 10
-111.5978127438
 20
70.0229837841
 10
-111.4984414803
 20
69.9974655241
 10
-111.3969661558
 20
69.9773343366
 10
-111.2935146683
 20
69.962657231
 10
-111.1882149156
 20
69.9535012168
 10
-111.0798882842
 20
69.9499094376
 10
-110.96992707
 20
69.9520202696
 10
-110.8569351854
 20
69.9599516068
 10
-110.7425654825
 20
69.9736619157
 10
-110.6248590015
 20
69.993492687
 10
-110.5060693122
 20
70.0191379322
 10
-110.4245224476
 20
70.039899376
 10
-110.3426065098
 20
70.0632576376
 10
-110.2603777184
 20
70.0891600959
 10
-110.1972874703
 20
70.1106627545
 10
-110.1340646249
 20
70.1335984131
 10
-110.0697956197
 20
70.1583093191
 10
-110.0054298603
 20
70.1844401835
 10
-109.9399758295
 20
70.2124051443
 10
-109.8744658194
 20
70.2417743791
 10
-109.8081079438
 20
70.2729039402
 10
-109.7411648972
 20
70.3056899721
 10
-109.6806396144
 20
70.3365640265
 10
-109.6208210475
 20
70.3683011037
 10
-109.5032836673
 20
70.4343358523
 10
-109.3885119677
 20
70.5037372694
 10
-109.2764651597
 20
70.5764484068
 10
-109.1680685136
 20
70.6517201708
 10
-109.0603830629
 20
70.731572049
 10
-108.957036816
 20
70.8132428185
 10
-108.8547110653
 20
70.8992511919
 10
-108.7562593746
 20
70.9871245038
 10
-108.6591228554
 20
71.0790302488
 10
-108.565420595
 20
71.1728856737
 10
-108.4732921219
 20
71.2704536329
 10
-108.3845723849
 20
71.3696823616
 10
-108.2976303606
 20
71.472213179
 10
-108.2125956458
 20
71.577853574
 10
-108.1295978374
 20
71.6864110356
 10
-108.0491351399
 20
71.7971487952
 10
-107.9708577968
 20
71.9103775844
 10
-107.8948054446
 20
72.0258900167
 10
-107.8210177198
 20
72.1434787055
 10
-107.748495571
 20
72.2647005629
 10
-107.6783234989
 20
72.3876565743
 10
-107.6104794266
 20
72.5121569621
 10
-107.5449412771
 20
72.6380119484
 10
-107.4799387745
 20
72.7686190116
 10
-107.4172844445
 20
72.9003110904
 10
-107.3569127158
 20
73.0329421287
 10
-107.2987580171
 20
73.16636607
 10
-107.2408056329
 20
73.3052079471
 10
-107.1850667971
 20
73.4446435037
 10
-107.1314484291
 20
73.5845729199
 10
-107.0798574479
 20
73.7248963759
 10
-107.0104571011
 20
73.9230460476
 10
-106.9446784184
 20
74.1216467674
 10
-106.8823055039
 20
74.3205658671
 10
-106.8231224621
 20
74.5196706785
 10
-106.7669133972
 20
74.7188285333
 10
-106.7134624134
 20
74.9179067635
 10
-106.648684976
 20
75.172694119
 10
-106.5877590863
 20
75.4271093192
 10
-106.5303628978
 20
75.681128721
 10
-106.4761745636
 20
75.9347286812
 10
-106.4248722371
 20
76.1878855565
 10
-106.3739336832
 20
76.4523774578
 10
-106.325550978
 20
76.7163801877
 10
-106.2794706243
 20
76.9799159314
 10
-106.2354391249
 20
77.2430068738
 10
-106.1932029826
 20
77.5056752003
 10
-106.1416140826
 20
77.8398134935
 10
-106.0921874709
 20
78.1733873555
 10
-106.0443218737
 20
78.5079017324
 10
-105.9975707134
 20
78.8421181404
 10
-105.9053808113
 20
79.5103801322
 10
-105.8144842101
 20
80.1729872318
 10
-105.7542337954
 20
80.6036599712
 10
-105.6918082082
 20
81.0349217108
 10
-105.6261802884
 20
81.4670419423
 10
-105.5872288704
 20
81.7119678172
 10
-105.5466234449
 20
81.9572852397
 10
-105.5040634701
 20
82.2030247952
 10
-105.4592484043
 20
82.449217069
 10
-105.4118777058
 20
82.6958926466
 10
-105.3728119195
 20
82.889297456
 10
-105.3317597589
 20
83.0830028168
 10
-105.2884842299
 20
83.2769945283
 10
-105.2451045637
 20
83.4614935645
 10
-105.1992825406
 20
83.6462184958
 10
-105.1507952196
 20
83.8311497196
 10
-105.1107712973
 20
83.9762049346
 10
-105.0687729385
 20
84.1212940943
 10
-105.0245997448
 20
84.2663364732
 10
-104.9780513176
 20
84.4112513459
 10
-104.9289272586
 20
84.5559579869
 10
-104.8770271692
 20
84.7003756707
 10
-104.8221506508
 20
84.8444236719
 10
-104.7775611597
 20
84.9554506862
 10
-104.7309884201
 20
85.0659968695
 10
-104.6823478213
 20
85.175850578
 10
-104.6315547527
 20
85.2848001682
 10
-104.5785246036
 20
85.3926339962
 10
-104.5231727632
 20
85.4991404185
 10
-104.465414621
 20
85.6041077914
 10
-104.4051655662
 20
85.7073244712
 10
-104.346447657
 20
85.8021580249
 10
-104.2855025313
 20
85.894989147
 10
-104.2223600896
 20
85.9855351434
 10
-104.1570502322
 20
86.0735133198
 10
-104.090312939
 20
86.1578039907
 10
-104.0216332713
 20
86.2390559836
 10
-103.9511635513
 20
86.3170240327
 10
-103.879056101
 20
86.3914628724
 10
-103.8032578436
 20
86.46420378
 10
-103.7261017478
 20
86.532863379
 10
-103.6478052177
 20
86.5973631081
 10
-103.5685856576
 20
86.6576244057
 10
-103.4828197147
 20
86.7175026749
 10
-103.3964809129
 20
86.772524946
 10
-103.3098084158
 20
86.8228031445
 10
-103.2230413872
 20
86.8684491961
  0
LINE
  5
265
100
AcDbEntity
  8
RACCORDO
100
AcDbLine
 62
7
  6
CONTINUOUS
 10
-110.4949126064
 20
-86.4552022644
 11
-110.4957818567
 21
-86.347487975
  0
LINE
  5
266
100
AcDbEntity
  8
RACCORDO
100
AcDbLine
 62
7
  6
CONTINUOUS
 10
-110.4957818567
 20
-86.347487975
 11
-110.4962351707
 21
-86.2347130048
  0
LINE
  5
267
100
AcDbEntity
  8
0
100
AcDbLine
 62
7
  6
CONTINUOUS
 10
-116.0482364717
 20
-224.0863448291
 11
-116.0449477181
 21
-247.2099715615
  0
LINE
  5
268
100
AcDbEntity
  8
0
100
AcDbLine
 62
7
  6
CONTINUOUS
 10
-125.6097998958
 20
-306.0194051533
 11
-125.6097998958
 21
-47.0002489306
  0
LINE
  5
269
100
AcDbEntity
  8
0
100
AcDbLine
 62
7
  6
CONTINUOUS
 10
-125.6097998958
 20
-36.9623779109
 11
-125.6097998958
 21
179.8208463697
  0
LINE
  5
26A
100
AcDbEntity
  8
0
100
AcDbLine
 62
253
  6
CONTINUOUS
 10
-125.3901299817
 20
179.5556813268
 11
-125.3901299817
 21
-36.8295674795
  0
LINE
  5
26B
100
AcDbEntity
  8
0
100
AcDbLine
 62
253
  6
CONTINUOUS
 10
-125.3901299817
 20
-46.8623190417
 11
-125.3901299817
 21
-306.2845701963
  0
LINE
  5
26C
100
AcDbEntity
  8
0
100
AcDbLine
 62
7
  6
CONTINUOUS
 10
-124.9305105739
 20
-306.5469663267
 11
-124.9305105739
 21
-306.5143799002
  0
LINE
  5
26D
100
AcDbEntity
  8
0
100
AcDbLine
 62
7
  6
CONTINUOUS
 10
-124.9305105739
 20
180.4191182213
 11
-124.9305105739
 21
179.8562017088
  0
LINE
  5
26E
100
AcDbEntity
  8
0
100
AcDbLine
 62
253
  6
CONTINUOUS
 10
-124.9305105739
 20
179.8562017088
 11
-124.9305105739
 21
179.7854910307
  0
LINE
  5
26F
100
AcDbEntity
  8
0
100
AcDbLine
 62
7
  6
CONTINUOUS
 10
-121.2181999727
 20
178.0000464082
 11
-121.2181999727
 21
177.9293357301
  0
LINE
  5
270
100
AcDbEntity
  8
ASSI
100
AcDbLine
 62
253
  6
CONTINUOUS
 10
-120.9247238154
 20
-36.11880357
 11
-120.9247238154
 21
-44.2444995566
  0
LINE
  5
271
100
AcDbEntity
  8
0
100
AcDbLine
 62
253
  6
CONTINUOUS
 10
-120.2636058181
 20
176.992419245
 11
-120.2636058181
 21
-308.8478322781
  0
LINE
  5
272
100
AcDbEntity
  8
ASSI
100
AcDbLine
 62
253
  6
CONTINUOUS
 10
-120.1998545546
 20
-35.5737225542
 11
-120.1998545546
 21
-43.2135548666
  0
LINE
  5
273
100
AcDbEntity
  8
ASSI
100
AcDbLine
 62
7
  6
CONTINUOUS
 10
-119.9172308677
 20
-40.9587434233
 11
-119.9172308677
 21
-34.1544260685
  0
LINE
  5
274
100
AcDbEntity
  8
0
100
AcDbLine
 62
253
  6
CONTINUOUS
 10
-119.6625650541
 20
-309.1809390867
 11
-119.6625650541
 21
-308.955946101
  0
LINE
  5
275
100
AcDbEntity
  8
0
100
AcDbLine
 62
253
  6
CONTINUOUS
 10
-119.6625650541
 20
177.7851454613
 11
-119.6625650541
 21
177.2222289489
  0
LINE
  5
276
100
AcDbEntity
  8
0
100
AcDbLine
 62
253
  6
CONTINUOUS
 10
-119.2029456463
 20
176.992419245
 11
-119.2029456463
 21
-308.8478322781
  0
LINE
  5
277
100
AcDbEntity
  8
0
100
AcDbLine
 62
7
  6
CONTINUOUS
 10
-115.5929993582
 20
-246.4276418776
 11
-115.5929993582
 21
-224.4154550333
  0
LINE
  5
278
100
AcDbEntity
  8
RACCORDO
100
AcDbLine
 62
7
  6
CONTINUOUS
 10
-115.190114663
 20
-30.5431549381
 11
-115.190114663
 21
-98.0931364333
  0
LINE
  5
279
100
AcDbEntity
  8
RACCORDO
100
AcDbLine
 62
253
  6
CONTINUOUS
 10
-114.4511917521
 20
-92.9254601012
 11
-114.451192477
 21
-36.449745203
  0
LINE
  5
27A
100
AcDbEntity
  8
RACCORDO
100
AcDbLine
 62
253
  6
CONTINUOUS
 10
-114.2719400535
 20
-92.9620616396
 11
-114.2719407317
 21
-36.4863275233
  0
LINE
  5
27B
100
AcDbEntity
  8
0
100
AcDbLine
 62
7
  6
CONTINUOUS
 10
-113.7852641217
 20
97.9090841037
 11
-113.7852641217
 21
93.626142445
  0
LINE
  5
27C
100
AcDbEntity
  8
0
100
AcDbLine
 62
7
  6
CONTINUOUS
 10
-113.5407462495
 20
140.8896782772
 11
-113.5407462495
 21
126.5430460555
  0
LINE
  5
27D
100
AcDbEntity
  8
0
100
AcDbLine
 62
7
  6
CONTINUOUS
 10
-113.5407462495
 20
122.0299477102
 11
-113.5407462495
 21
108.3752762006
  0
LINE
  5
27E
100
AcDbEntity
  8
0
100
AcDbLine
 62
7
  6
CONTINUOUS
 10
-113.5407462495
 20
65.2023388343
 11
-113.5407462495
 21
48.5787355059
  0
LINE
  5
27F
100
AcDbEntity
  8
0
100
AcDbLine
 62
7
  6
CONTINUOUS
 10
-113.5407462495
 20
45.8995864585
 11
-113.5407462495
 21
31.5488549435
  0
LINE
  5
280
100
AcDbEntity
  8
0
100
AcDbLine
 62
7
  6
CONTINUOUS
 10
-113.5407462495
 20
25.6120347626
 11
-113.5407462495
 21
22.9882634413
  0
LINE
  5
281
100
AcDbEntity
  8
0
100
AcDbLine
 62
7
  6
CONTINUOUS
 10
-113.5407462495
 20
11.985909241
 11
-113.5407462495
 21
9.0464923342
  0
LINE
  5
282
100
AcDbEntity
  8
0
100
AcDbLine
 62
7
  6
CONTINUOUS
 10
-113.3841109109
 20
-217.4901985933
 11
-113.3841109109
 21
-213.6063747352
  0
LINE
  5
283
100
AcDbEntity
  8
0
100
AcDbLine
 62
7
  6
CONTINUOUS
 10
-113.3841109109
 20
-206.9791118686
 11
-113.3841109109
 21
-203.4082613641
  0
LINE
  5
284
100
AcDbEntity
  8
0
100
AcDbLine
 62
7
  6
CONTINUOUS
 10
-113.3841109109
 20
-194.8507222693
 11
-113.3841109109
 21
-191.2795738521
  0
LINE
  5
285
100
AcDbEntity
  8
0
100
AcDbLine
 62
7
  6
CONTINUOUS
 10
-113.3841109109
 20
-184.1705436514
 11
-113.3841109109
 21
-180.633854818
  0
LINE
  5
286
100
AcDbEntity
  8
0
100
AcDbLine
 62
7
  6
CONTINUOUS
 10
-113.3841108303
 20
-172.803404414
 11
-113.3841108303
 21
-169.3459288422
  0
LINE
  5
287
100
AcDbEntity
  8
0
100
AcDbLine
 62
7
  6
CONTINUOUS
 10
-113.3841109109
 20
-198.5080952068
 11
-113.3841109109
 21
-202.0819287358
  0
LINE
  5
288
100
AcDbEntity
  8
0
100
AcDbLine
 62
7
  6
CONTINUOUS
 10
-113.3745493326
 20
-227.7452156976
 11
-113.3745493326
 21
-240.8857710191
  0
LINE
  5
289
100
AcDbEntity
  8
0
100
AcDbLine
 62
7
  6
CONTINUOUS
 10
-112.9218093694
 20
-240.644856279
 11
-112.9218093694
 21
-227.5116852196
  0
LINE
  5
28A
100
AcDbEntity
  8
0
100
AcDbLine
 62
7
  6
CONTINUOUS
 10
-111.955944251
 20
35.1088006606
 11
-111.955944251
 21
46.6919874577
  0
LINE
  5
28B
100
AcDbEntity
  8
0
100
AcDbLine
 62
7
  6
CONTINUOUS
 10
-111.955944251
 20
49.3711365052
 11
-111.955944251
 21
56.3022216472
  0
LINE
  5
28C
100
AcDbEntity
  8
0
100
AcDbLine
 62
7
  6
CONTINUOUS
 10
-111.955944251
 20
59.0663378652
 11
-111.955944251
 21
65.9947398335
  0
LINE
  5
28D
100
AcDbEntity
  8
0
100
AcDbLine
 62
7
  6
CONTINUOUS
 10
-111.955944251
 20
111.931942483
 11
-111.955944251
 21
122.8223487094
  0
LINE
  5
28E
100
AcDbEntity
  8
0
100
AcDbLine
 62
7
  6
CONTINUOUS
 10
-111.955944251
 20
130.0994142075
 11
-111.955944251
 21
141.6820792764
  0
LINE
  5
28F
100
AcDbEntity
  8
RACCORDO
100
AcDbLine
 62
253
  6
CONTINUOUS
 10
-111.0235148756
 20
-42.9734545304
 11
-111.0235216123
 21
-86.4426142016
  0
LINE
  5
290
100
AcDbEntity
  8
0
100
AcDbLine
 62
7
  6
CONTINUOUS
 10
-110.7491773503
 20
13.0617997466
 11
-110.7491773503
 21
13.1197861139
  0
LINE
  5
291
100
AcDbEntity
  8
RACCORDO
100
AcDbLine
 62
7
  6
CONTINUOUS
 10
-110.4962351707
 20
-86.2347130048
 11
-110.4962951705
 21
-42.7072038366
  0
LINE
  5
292
100
AcDbEntity
  8
ASSI
100
AcDbLine
 62
7
  6
CONTINUOUS
 10
-110.381788551
 20
-43.2431790989
 11
-110.381788551
 21
-83.6652172308
  0
LINE
  5
293
100
AcDbEntity
  8
ASSI
100
AcDbLine
 62
7
  6
CONTINUOUS
 10
-110.2050118557
 20
-83.7536055784
 11
-110.2050118557
 21
-94.2627598288
  0
LINE
  5
294
100
AcDbEntity
  8
0
100
AcDbLine
 62
7
  6
CONTINUOUS
 10
-109.8514584651
 20
-42.5646148374
 11
-109.8514584651
 21
-94.4395365241
  0
LINE
  5
295
100
AcDbEntity
  8
0
100
AcDbLine
 62
7
  6
CONTINUOUS
 10
-109.4018339724
 20
83.0510184102
 11
-109.4018339724
 21
85.6694979165
  0
LWPOLYLINE
  5
296
100
AcDbEntity
  8
ASSI
100
AcDbPolyline
 62
7
  6
CONTINUOUS
 90
3
 70
0
 10
-110.3840877383
 20
-43.7628829623
 10
-110.3833676813
 20
-43.5122892954
 10
-110.381788551
 20
-43.2431790989
  0
LINE
  5
297
100
AcDbEntity
  8
RACCORDO
100
AcDbLine
 62
7
  6
CONTINUOUS
 10
-110.4962974599
 20
-42.7071960957
 11
-110.4960306571
 21
-42.5819338383
  0
LWPOLYLINE
  5
298
100
AcDbEntity
  8
RACCORDO
100
AcDbPolyline
 62
253
  6
CONTINUOUS
 90
10
 70
0
 10
-114.2719408603
 20
-36.4863280177
 10
-114.2679357468
 20
-35.9164087276
 10
-114.2701566113
 20
-35.3297157616
 10
-114.2792005058
 20
-34.7264709611
 10
-114.2963888102
 20
-34.1067702559
 10
-114.3213606691
 20
-33.4709937834
 10
-114.3521231219
 20
-32.8197009816
 10
-114.388243248
 20
-32.1531240858
 10
-114.4308410229
 20
-31.4712818713
 10
-114.4801858508
 20
-30.7743067563
  0
LWPOLYLINE
  5
299
100
AcDbEntity
  8
0
100
AcDbPolyline
 62
7
  6
CONTINUOUS
 90
57
 70
0
 10
-112.9218093694
 20
-227.5116852196
 10
-112.9215360897
 20
-227.4723052928
 10
-112.9206847033
 20
-227.4326319594
 10
-112.9192078892
 20
-227.3926654805
 10
-112.9170583264
 20
-227.3524061172
 10
-112.9141886941
 20
-227.3118541309
 10
-112.9105516713
 20
-227.2710097826
 10
-112.9060999371
 20
-227.2298733336
 10
-112.9023330259
 20
-227.1998587837
 10
-112.8980842565
 20
-227.1697028261
 10
-112.8933251816
 20
-227.1394175544
 10
-112.8880273537
 20
-227.1090150621
 10
-112.8821623253
 20
-227.0785074431
 10
-112.875701649
 20
-227.0479067907
 10
-112.8686168772
 20
-227.0172251988
 10
-112.8608795625
 20
-226.9864747609
 10
-112.853754309
 20
-226.9602414402
 10
-112.8461227052
 20
-226.9339947564
 10
-112.837972437
 20
-226.9077625182
 10
-112.82929119
 20
-226.8815725343
 10
-112.8200666499
 20
-226.8554526135
 10
-112.8102865026
 20
-226.8294305647
 10
-112.7999384336
 20
-226.8035341965
 10
-112.7890101289
 20
-226.7777913178
 10
-112.7771286765
 20
-226.7514471521
 10
-112.7646307011
 20
-226.7253438029
 10
-112.7515293611
 20
-226.6995294279
 10
-112.7378378147
 20
-226.6740521846
 10
-112.7235692202
 20
-226.6489602306
 10
-112.7087367358
 20
-226.6243017235
 10
-112.6933535197
 20
-226.6001248209
 10
-112.6777510726
 20
-226.5769259047
 10
-112.6616630866
 20
-226.5542393041
 10
-112.6451208559
 20
-226.5320680115
 10
-112.6281556747
 20
-226.5104150191
 10
-112.6107988371
 20
-226.4892833194
 10
-112.5930816375
 20
-226.4686759047
 10
-112.5750353699
 20
-226.4485957674
 10
-112.5566913287
 20
-226.4290458999
 10
-112.5380808079
 20
-226.4100292944
 10
-112.5192351019
 20
-226.3915489435
 10
-112.5001855047
 20
-226.3736078394
 10
-112.4809633106
 20
-226.3562089745
 10
-112.4615998138
 20
-226.3393553412
 10
-112.4421263085
 20
-226.3230499318
 10
-112.4165382608
 20
-226.3025510909
 10
-112.3908292738
 20
-226.2829472344
 10
-112.3650130076
 20
-226.2641907796
 10
-112.3391031226
 20
-226.2462341438
 10
-112.3131132791
 20
-226.2290297445
 10
-112.2870571372
 20
-226.2125299988
 10
-112.2609483572
 20
-226.1966873243
 10
-112.2348005995
 20
-226.1814541383
 10
-112.2086275242
 20
-226.1667828581
 10
-112.1824427917
 20
-226.152625901
 10
-112.1562600622
 20
-226.1389356845
 10
-112.1300929959
 20
-226.1256646258
  0
LWPOLYLINE
  5
29A
100
AcDbEntity
  8
RACCORDO
100
AcDbPolyline
 62
7
  6
CONTINUOUS
 90
3
 70
0
 10
-110.4960306571
 20
-42.5819338383
 10
-110.4953194242
 20
-42.4709641478
 10
-110.4949250912
 20
-42.4285445067
  0
LWPOLYLINE
  5
29B
100
AcDbEntity
  8
0
100
AcDbPolyline
 62
7
  6
CONTINUOUS
 90
39
 70
0
 10
-119.2029456463
 20
-308.8478322781
 10
-119.2030764268
 20
-308.8611756265
 10
-119.2034667794
 20
-308.8743664517
 10
-119.2041167039
 20
-308.8874047535
 10
-119.2050268622
 20
-308.9002977415
 10
-119.2061965926
 20
-308.9130382063
 10
-119.2076239091
 20
-308.9256045191
 10
-119.2093092494
 20
-308.9379963842
 10
-119.2112521759
 20
-308.9502140974
 10
-119.2134493902
 20
-308.9622369176
 10
-119.2159013243
 20
-308.9740645137
 10
-119.2186075462
 20
-308.9856972167
 10
-119.2215634618
 20
-308.9971152787
 10
-119.2247694951
 20
-309.008318335
 10
-119.2282252222
 20
-309.0193067503
 10
-119.2319247763
 20
-309.0300618703
 10
-119.2358685718
 20
-309.0405832986
 10
-119.2400561944
 20
-309.0508714317
 10
-119.2444805351
 20
-309.060908804
 10
-119.2491419959
 20
-309.0706949897
 10
-119.2540401749
 20
-309.0802304146
 10
-119.2591667567
 20
-309.0894988911
 10
-119.2645221292
 20
-309.0984999658
 10
-119.2701059045
 20
-309.1072340922
 10
-119.2759086035
 20
-309.1156864429
 10
-119.281930598
 20
-309.1238565393
 10
-119.2881715161
 20
-309.1317448601
 10
-119.294620763
 20
-309.1393380137
 10
-119.3012786927
 20
-309.1466354989
 10
-119.3081449512
 20
-309.153637817
 10
-119.3152078823
 20
-309.1603330806
 10
-119.3224678199
 20
-309.1667207682
 10
-119.32992443
 20
-309.1728014014
 10
-119.3375650541
 20
-309.1785646574
 10
-119.3453900046
 20
-309.1840099972
 10
-119.3533989691
 20
-309.18913796
 10
-119.3615783513
 20
-309.1939398402
 10
-119.3699284407
 20
-309.1984150841
 10
-119.3718763827
 20
-309.1993999169
  0
LWPOLYLINE
  5
29C
100
AcDbEntity
  8
RACCORDO
100
AcDbPolyline
 62
7
  6
CONTINUOUS
 90
10
 70
0
 10
-110.4949121112
 20
-42.4283973331
 10
-110.4890565673
 20
-42.1977354451
 10
-110.4685335442
 20
-41.8609992109
 10
-110.4347094221
 20
-41.5260677404
 10
-110.388702728
 20
-41.1960152956
 10
-110.3314310929
 20
-40.8721924346
 10
-110.2631270384
 20
-40.5543705749
 10
-110.183929028
 20
-40.2440337387
 10
-110.0943856883
 20
-39.9442375371
 10
-110.0379435362
 20
-39.7773904325
  0
LWPOLYLINE
  5
29D
100
AcDbEntity
  8
RACCORDO
100
AcDbPolyline
 62
7
  6
CONTINUOUS
 90
19
 70
0
 10
-115.190114663
 20
-30.5431549381
 10
-115.1876002362
 20
-30.4670382524
 10
-115.1797673558
 20
-30.3893203771
 10
-115.1666160218
 20
-30.3100013121
 10
-115.1478938193
 20
-30.2281006769
 10
-115.1238531632
 20
-30.144598852
 10
-115.0952512989
 20
-30.0624369795
 10
-115.062076444
 20
-29.9821206123
 10
-115.024340381
 20
-29.9031441974
 10
-114.9828357021
 20
-29.8269322182
 10
-114.9375451024
 20
-29.753506241
 10
-114.8884858868
 20
-29.6828446995
 10
-114.8365025628
 20
-29.6163073786
 10
-114.7812054283
 20
-29.5537118181
 10
-114.7229841853
 20
-29.4952404782
 10
-114.6638524478
 20
-29.4428005243
 10
-114.6044814204
 20
-29.3970276781
 10
-114.5441998984
 20
-29.3572862179
 10
-114.4830078819
 20
-29.3235761437
  0
LINE
  5
29E
100
AcDbEntity
  8
ASSI
100
AcDbLine
 62
7
  6
CONTINUOUS
 10
-120.1998545546
 20
-43.2135548666
 11
-119.9172308677
 21
-40.9587434233
  0
LWPOLYLINE
  5
29F
100
AcDbEntity
  8
0
100
AcDbPolyline
 62
7
  6
CONTINUOUS
 90
43
 70
0
 10
-107.4851705952
 20
80.0336586722
 10
-107.6047868343
 20
79.154789613
 10
-107.6648803509
 20
78.7223871205
 10
-107.7271558335
 20
78.2893726384
 10
-107.7729004015
 20
77.9838661119
 10
-107.8207639148
 20
77.6778289705
 10
-107.8712878319
 20
77.37117498
 10
-107.9250136117
 20
77.0638179058
 10
-107.9664612021
 20
76.8396711701
 10
-108.010281913
 20
76.6150818166
 10
-108.0568667199
 20
76.3900251828
 10
-108.1066065986
 20
76.1644766065
 10
-108.1598925246
 20
75.9384114256
 10
-108.2015077648
 20
75.7721834084
 10
-108.2455533081
 20
75.605797991
 10
-108.2923389466
 20
75.4393893039
 10
-108.3421744725
 20
75.2730914775
 10
-108.3953696778
 20
75.1070386422
 10
-108.4522343546
 20
74.9413649284
 10
-108.4926874077
 20
74.8302900055
 10
-108.5350892743
 20
74.7195806165
 10
-108.5795905726
 20
74.6093703611
 10
-108.6263419206
 20
74.4997928392
 10
-108.6719969324
 20
74.3985290651
 10
-108.7198353571
 20
74.2981459666
 10
-108.7699618044
 20
74.1988606308
 10
-108.8224808841
 20
74.1008901447
 10
-108.8742844165
 20
74.0099173127
 10
-108.9283274834
 20
73.9206079137
 10
-108.9846286466
 20
73.8332629218
 10
-109.0432064682
 20
73.7481833112
 10
-109.1022434741
 20
73.6680478141
 10
-109.1633176165
 20
73.5906354672
 10
-109.2263030415
 20
73.5162509158
 10
-109.2910738955
 20
73.4451988051
 10
-109.3584708358
 20
73.3767974297
 10
-109.4273488237
 20
73.3122807007
 10
-109.4974804709
 20
73.2517890957
 10
-109.5686383888
 20
73.1954630926
 10
-109.6453994198
 20
73.1401001331
 10
-109.7228011362
 20
73.089545191
 10
-109.8005756744
 20
73.0437090865
 10
-109.878455171
 20
73.0025026401
  0
LWPOLYLINE
  5
2A0
100
AcDbEntity
  8
0
100
AcDbPolyline
 62
7
  6
CONTINUOUS
 90
3
 70
0
 10
-107.3607365518
 20
80.9280799391
 10
-107.42375847
 20
80.4806494969
 10
-107.4851705952
 20
80.0336586722
  0
LINE
  5
2A1
100
AcDbEntity
  8
RACCORDO
100
AcDbLine
 62
7
  6
CONTINUOUS
 10
-130.5751478965
 20
-41.1416506384
 11
-130.9122360028
 21
-43.0612314103
  0
LINE
  5
2A2
100
AcDbEntity
  8
RACCORDO
100
AcDbLine
 62
7
  6
CONTINUOUS
 10
-129.6327706688
 20
-44.53567499
 11
-129.1609343341
 21
-41.8487574195
  0
LINE
  5
2A3
100
AcDbEntity
  8
ASSI
100
AcDbLine
 62
7
  6
CONTINUOUS
 10
-121.9255257795
 20
-33.9546239032
 11
-122.2081494663
 21
-35.3739203889
  0
LINE
  5
2A4
100
AcDbEntity
  8
ASSI
100
AcDbLine
 62
7
  6
CONTINUOUS
 10
-120.1998545546
 20
-35.5737225542
 11
-119.9172308677
 21
-34.1544260685
  0
LWPOLYLINE
  5
2A5
100
AcDbEntity
  8
0
100
AcDbPolyline
 62
7
  6
CONTINUOUS
 90
60
 70
0
 10
-109.4018339724
 20
85.6694979165
 10
-109.5389054817
 20
85.5912837286
 10
-109.6758569543
 20
85.5088767015
 10
-109.8125429495
 20
85.4222142978
 10
-109.9488180265
 20
85.3312339799
 10
-110.0845367443
 20
85.2358732102
 10
-110.2195536622
 20
85.1360694512
 10
-110.3537233394
 20
85.0317601653
 10
-110.4869003349
 20
84.9228828149
 10
-110.6074095593
 20
84.8195289237
 10
-110.7268353368
 20
84.712376027
 10
-110.845041552
 20
84.6014794632
 10
-110.9618920893
 20
84.4868945706
 10
-111.0772508333
 20
84.3686766875
 10
-111.1909816687
 20
84.2468811522
 10
-111.30294848
 20
84.1215633029
 10
-111.4130151517
 20
83.9927784781
 10
-111.5169489541
 20
83.8657297972
 10
-111.6189141686
 20
83.7356793485
 10
-111.7188253211
 20
83.602780422
 10
-111.8165969379
 20
83.4671863078
 10
-111.912143545
 20
83.3290502958
 10
-112.0053796685
 20
83.1885256762
 10
-112.0962198346
 20
83.0457657389
 10
-112.1845785693
 20
82.9009237741
 10
-112.2714785563
 20
82.7522403095
 10
-112.3557442535
 20
82.6017327686
 10
-112.4373751679
 20
82.4495560736
 10
-112.5163708062
 20
82.295865147
 10
-112.5927306752
 20
82.1408149111
 10
-112.6664542816
 20
81.9845602883
 10
-112.7375411324
 20
81.8272562008
 10
-112.8059907342
 20
81.6690575711
 10
-112.8847226084
 20
81.4780870717
 10
-112.9597292099
 20
81.2862115482
 10
-113.0310896436
 20
81.0935927197
 10
-113.0988830141
 20
80.9003923054
 10
-113.1631884259
 20
80.7067720241
 10
-113.2240849839
 20
80.512893595
 10
-113.2816517927
 20
80.3189187372
 10
-113.339649602
 20
80.1114358288
 10
-113.394041792
 20
79.9041015575
 10
-113.4449438896
 20
79.69698982
 10
-113.4924714215
 20
79.4901745129
 10
-113.5367399145
 20
79.2837295328
 10
-113.5778648955
 20
79.0777287764
 10
-113.6159618913
 20
78.8722461404
 10
-113.6576758251
 20
78.6274015612
 10
-113.6953506651
 20
78.383460565
 10
-113.7291085653
 20
78.1404808758
 10
-113.7590716799
 20
77.8985202175
 10
-113.785362163
 20
77.6576363141
 10
-113.8081021689
 20
77.4178868893
 10
-113.8274138516
 20
77.1793296673
 10
-113.8434193653
 20
76.9420223718
 10
-113.8562408642
 20
76.7060227269
 10
-113.8660005024
 20
76.4713884564
 10
-113.8728204341
 20
76.2381772843
 10
-113.8768228134
 20
76.0064469345
 10
-113.8781297945
 20
75.7762551309
  0
LWPOLYLINE
  5
2A6
100
AcDbEntity
  8
0
100
AcDbPolyline
 62
7
  6
CONTINUOUS
 90
65
 70
0
 10
-104.0550593936
 20
72.5071660533
 10
-103.920094736
 20
72.5766921333
 10
-103.7850718216
 20
72.6504109423
 10
-103.6501274123
 20
72.7283682469
 10
-103.5153982702
 20
72.8106098135
 10
-103.3810211575
 20
72.8971814086
 10
-103.2471328362
 20
72.9881287985
 10
-103.1138700684
 20
73.0834977497
 10
-102.9813696161
 20
73.1833340287
 10
-102.8497682415
 20
73.2876834019
 10
-102.7302190202
 20
73.3871719306
 10
-102.6116545782
 20
73.4904054913
 10
-102.4941918795
 20
73.5973097523
 10
-102.3779478882
 20
73.707810382
 10
-102.2630395684
 20
73.8218330487
 10
-102.1495838841
 20
73.9393034207
 10
-102.0376977993
 20
74.0601471664
 10
-101.9274982782
 20
74.1842899541
 10
-101.8191022848
 20
74.3116574521
 10
-101.7154694641
 20
74.4385944105
 10
-101.6137123486
 20
74.5683664076
 10
-101.5138885444
 20
74.7008260687
 10
-101.4160556577
 20
74.8358260191
 10
-101.3202712946
 20
74.9732188841
 10
-101.2265930614
 20
75.112857289
 10
-101.1350785641
 20
75.254593859
 10
-101.045785409
 20
75.3982812196
 10
-100.9587712022
 20
75.5437719959
 10
-100.8613232885
 20
75.7135875825
 10
-100.7669619071
 20
75.8854236136
 10
-100.6756669487
 20
76.059098691
 10
-100.5874183039
 20
76.2344314161
 10
-100.5021958633
 20
76.4112403905
 10
-100.4199795175
 20
76.5893442158
 10
-100.3407491571
 20
76.7685614934
 10
-100.2644846728
 20
76.948710825
 10
-100.187140022
 20
77.1397747408
 10
-100.1130117722
 20
77.3315626015
 10
-100.0420314533
 20
77.5239612843
 10
-99.9741305955
 20
77.7168576664
 10
-99.9092407287
 20
77.910138625
 10
-99.847293383
 20
78.1036910373
 10
-99.7882200886
 20
78.2974017803
 10
-99.7319523754
 20
78.4911577314
 10
-99.6670947748
 20
78.7271274222
 10
-99.6061858442
 20
78.9629064492
 10
-99.5491116619
 20
79.1984049517
 10
-99.4957583068
 20
79.4335330692
 10
-99.4460118572
 20
79.6682009412
 10
-99.3997583918
 20
79.9023187072
 10
-99.3568839891
 20
80.1357965067
 10
-99.3149067577
 20
80.3831047003
 10
-99.2765185838
 20
80.6295470661
 10
-99.2416216277
 20
80.8750818746
 10
-99.2101180501
 20
81.1196673961
 10
-99.1819100114
 20
81.363261901
 10
-99.1568996721
 20
81.6058236598
 10
-99.1349891927
 20
81.8473109429
 10
-99.115173634
 20
82.1003021679
 10
-99.0986101759
 20
82.3520228245
 10
-99.0852246261
 20
82.6024391198
 10
-99.0749427924
 20
82.851517261
 10
-99.0676904825
 20
83.0992234553
 10
-99.0633935042
 20
83.3455239098
 10
-99.0619776653
 20
83.5903848318
  0
LINE
  5
2A7
100
AcDbEntity
  8
0
100
AcDbLine
 62
7
  6
CONTINUOUS
 10
-111.955944251
 20
65.9947398335
 11
-113.5407462495
 21
65.2023388343
  0
LWPOLYLINE
  5
2A8
100
AcDbEntity
  8
0
100
AcDbPolyline
 62
7
  6
CONTINUOUS
 90
53
 70
0
 10
-103.2230413872
 20
86.8684491961
 10
-103.1349826398
 20
86.9107073558
 10
-103.0468618059
 20
86.9493608923
 10
-102.9588529603
 20
86.9841829106
 10
-102.8711301777
 20
87.0149465154
 10
-102.7838675327
 20
87.0414248118
 10
-102.6972391002
 20
87.0633909046
 10
-102.6114189547
 20
87.0806178987
 10
-102.5265811711
 20
87.092878899
 10
-102.4511586027
 20
87.0995120967
 10
-102.3767981745
 20
87.1019395214
 10
-102.3036240153
 20
87.1001674692
 10
-102.2317602537
 20
87.0942022356
 10
-102.1613310183
 20
87.0840501167
 10
-102.0924604379
 20
87.0697174082
 10
-102.0252726411
 20
87.0512104058
 10
-101.9598917565
 20
87.0285354055
 10
-101.8971448542
 20
87.0020587219
 10
-101.8362948037
 20
86.9716802604
 10
-101.7773517578
 20
86.9375643812
 10
-101.7203258694
 20
86.8998754449
 10
-101.6652272913
 20
86.8587778118
 10
-101.6120661762
 20
86.8144358422
 10
-101.560852677
 20
86.7670138967
 10
-101.5115969464
 20
86.7166763355
 10
-101.4550711228
 20
86.6526470115
 10
-101.4012878952
 20
86.5848931891
 10
-101.3501561163
 20
86.5136520886
 10
-101.301584639
 20
86.4391609302
 10
-101.2554823159
 20
86.361656934
 10
-101.2117579998
 20
86.2813773203
 10
-101.1703205435
 20
86.1985593092
 10
-101.1217654569
 20
86.0921650278
 10
-101.0764630397
 20
85.9824515457
 10
-101.0342586063
 20
85.8696706797
 10
-100.9949974708
 20
85.7540742467
 10
-100.9585249476
 20
85.6359140633
 10
-100.924686351
 20
85.5154419466
 10
-100.8916200955
 20
85.3858446358
 10
-100.8611946216
 20
85.2540956394
 10
-100.8332808108
 20
85.120344911
 10
-100.8077495446
 20
84.9847424039
 10
-100.7844717044
 20
84.8474380717
 10
-100.7633181718
 20
84.7085818677
 10
-100.7373966016
 20
84.5145776892
 10
-100.7151189644
 20
84.3180875014
 10
-100.6963265631
 20
84.1192972102
 10
-100.6808607003
 20
83.918392722
 10
-100.6685626791
 20
83.7155599429
 10
-100.6592738021
 20
83.5109847791
 10
-100.6528353721
 20
83.3048531368
 10
-100.6490886921
 20
83.0973509222
 10
-100.6478750648
 20
82.8886640415
  0
LWPOLYLINE
  5
2A9
100
AcDbEntity
  8
0
100
AcDbPolyline
 62
7
  6
CONTINUOUS
 90
98
 70
0
 10
-109.878455171
 20
73.0025026401
 10
-109.9696188249
 20
72.9588795018
 10
-110.0608162606
 20
72.9192734156
 10
-110.1518464277
 20
72.8839597552
 10
-110.2425082763
 20
72.8532138945
 10
-110.332600756
 20
72.827311207
 10
-110.4219228169
 20
72.8065270665
 10
-110.5102734087
 20
72.7911368466
 10
-110.5888816622
 20
72.7820880348
 10
-110.6663789974
 20
72.7776682753
 10
-110.7426064659
 20
72.7779037145
 10
-110.8174051191
 20
72.7828204986
 10
-110.8906160082
 20
72.792444774
 10
-110.9620801848
 20
72.8068026868
 10
-111.0316387002
 20
72.8259203833
 10
-111.0977342151
 20
72.8492308644
 10
-111.1618138441
 20
72.8769505099
 10
-111.2238391853
 20
72.9089045194
 10
-111.2837718364
 20
72.9449180925
 10
-111.3415733954
 20
72.9848164286
 10
-111.3972054602
 20
73.0284247275
 10
-111.4506296287
 20
73.0755681887
 10
-111.512459302
 20
73.1372643369
 10
-111.5710768587
 20
73.2035888969
 10
-111.6265772418
 20
73.2742230678
 10
-111.679055394
 20
73.3488480486
 10
-111.7286062583
 20
73.4271450385
 10
-111.7753247774
 20
73.5087952365
 10
-111.8220864694
 20
73.5991315089
 10
-111.8658703996
 20
73.6926784686
 10
-111.9068052794
 20
73.7892032813
 10
-111.9450198201
 20
73.8884731123
 10
-111.980642733
 20
73.9902551273
 10
-112.0138027296
 20
74.0943164918
 10
-112.0527128338
 20
74.2300148036
 10
-112.0880138292
 20
74.3687796128
 10
-112.1198937065
 20
74.5103483089
 10
-112.1485404561
 20
74.6544582813
 10
-112.1741420686
 20
74.8008469195
 10
-112.1939631931
 20
74.9290770897
 10
-112.2117324668
 20
75.0587282513
 10
-112.2275343154
 20
75.1897139996
 10
-112.248049266
 20
75.3920977203
 10
-112.2644213776
 20
75.5971014846
 10
-112.2770172946
 20
75.8070124164
 10
-112.2858130781
 20
76.0190987451
 10
-112.2910137374
 20
76.2343539696
 10
-112.2927192399
 20
76.4517951519
 10
-112.2920870851
 20
76.5846733298
 10
-112.2901635899
 20
76.7181777585
 10
-112.2869783467
 20
76.8497059373
 10
-112.2824621265
 20
76.9818430218
 10
-112.274567469
 20
77.1537333403
 10
-112.2642561828
 20
77.3266409082
 10
-112.2514146779
 20
77.5005560199
 10
-112.2365937101
 20
77.66849359
 10
-112.2192160295
 20
77.837319787
 10
-112.199162731
 20
78.0070031497
 10
-112.1772801165
 20
78.1706831056
 10
-112.1526979128
 20
78.3351059149
 10
-112.1252921231
 20
78.5002534147
 10
-112.0967856636
 20
78.6564272902
 10
-112.0655504178
 20
78.8131347957
 10
-112.0314722207
 20
78.9702828435
 10
-111.9944369075
 20
79.1277783459
 10
-111.9543303131
 20
79.2855282154
 10
-111.9110382726
 20
79.4434393642
 10
-111.8676970163
 20
79.590753258
 10
-111.8214116343
 20
79.7379679889
 10
-111.7721076752
 20
79.8849250876
 10
-111.7197106878
 20
80.0314660846
 10
-111.6641462208
 20
80.1774325106
 10
-111.605339823
 20
80.3226658963
 10
-111.5460655038
 20
80.4605956521
 10
-111.483780648
 20
80.5974957312
 10
-111.4185026363
 20
80.7331504216
 10
-111.3502488493
 20
80.8673440111
 10
-111.2790366674
 20
80.9998607876
 10
-111.2048834714
 20
81.130485039
 10
-111.1282650804
 20
81.2582917015
 10
-111.0488856328
 20
81.3838249317
 10
-110.9668750605
 20
81.5068959942
 10
-110.8823632954
 20
81.6273161534
 10
-110.7954802694
 20
81.744896674
 10
-110.7063559145
 20
81.8594488203
 10
-110.6110536775
 20
81.9756462189
 10
-110.5136332837
 20
82.088281626
 10
-110.4142784185
 20
82.1973003384
 10
-110.3131727675
 20
82.3026476534
 10
-110.2105000159
 20
82.4042688678
 10
-110.1064438493
 20
82.5021092788
 10
-110.0079785243
 20
82.5902059772
 10
-109.9085824793
 20
82.67499351
 10
-109.8083755005
 20
82.7565211549
 10
-109.7074773741
 20
82.8348381897
 10
-109.6060078864
 20
82.909993892
 10
-109.5040868238
 20
82.9820375396
 10
-109.4018339724
 20
83.0510184102
  0
LWPOLYLINE
  5
2AA
100
AcDbEntity
  8
RACCORDO
100
AcDbPolyline
 62
253
  6
CONTINUOUS
 90
7
 70
0
 10
-114.0354124734
 20
-98.8383209425
 10
-114.0772345259
 20
-98.8342081175
 10
-114.1165640235
 20
-98.827621083
 10
-114.1534027299
 20
-98.8185296999
 10
-114.1879065352
 20
-98.8076724924
 10
-114.2200086416
 20
-98.7951473103
 10
-114.2497170883
 20
-98.7809241778
  0
LWPOLYLINE
  5
2AB
100
AcDbEntity
  8
RACCORDO
100
AcDbPolyline
 62
7
  6
CONTINUOUS
 90
8
 70
0
 10
-106.9924966106
 20
-87.9666200128
 10
-106.8156122658
 20
-88.0113795283
 10
-106.6314598567
 20
-88.0368455144
 10
-106.4411250503
 20
-88.0427036275
 10
-106.2456019732
 20
-88.0287703038
 10
-106.0454463641
 20
-87.9948630923
 10
-105.8414489535
 20
-87.9407990216
 10
-105.6347360045
 20
-87.8665433723
  0
LINE
  5
2AC
100
AcDbEntity
  8
0
100
AcDbLine
 62
7
  6
CONTINUOUS
 10
-104.5304799367
 20
-86.7000315014
 11
-105.3114524653
 21
-86.478200601
  0
LINE
  5
2AD
100
AcDbEntity
  8
ASSI
100
AcDbLine
 62
7
  6
CONTINUOUS
 10
-103.7507760207
 20
-81.063948174
 11
-103.9091180988
 21
-81.0124401954
  0
LWPOLYLINE
  5
2AE
100
AcDbEntity
  8
RACCORDO
100
AcDbPolyline
 62
253
  6
CONTINUOUS
 90
6
 70
0
 10
-103.8498757768
 20
-81.1193127905
 10
-103.968940113
 20
-81.0664724493
 10
-104.1235974727
 20
-81.016028509
 10
-104.2851966695
 20
-80.9825760466
 10
-104.4528329622
 20
-80.9662940766
 10
-104.4642933926
 20
-80.9663563494
  0
LWPOLYLINE
  5
2AF
100
AcDbEntity
  8
ASSI
100
AcDbPolyline
 62
7
  6
CONTINUOUS
 90
11
 70
0
 10
-107.0942346981
 20
-88.0499724634
 10
-106.9718847884
 20
-88.1043793944
 10
-106.8135427103
 20
-88.1558873729
 10
-106.6473796372
 20
-88.1903008721
 10
-106.4758045786
 20
-88.2071209698
 10
-106.2987386914
 20
-88.2060913606
 10
-106.1162608186
 20
-88.1874683498
 10
-105.9310164996
 20
-88.1515219314
 10
-105.7438875808
 20
-88.0983421032
 10
-105.5539922158
 20
-88.0278388674
 10
-105.3613304046
 20
-87.9400122238
  0
LINE
  5
2B0
100
AcDbEntity
  8
ASSI
100
AcDbLine
 62
7
  6
CONTINUOUS
 10
-103.628426111
 20
-81.1183551049
 11
-103.7507760207
 21
-81.063948174
  0
LWPOLYLINE
  5
2B1
100
AcDbEntity
  8
SMUSSO
100
AcDbPolyline
 62
7
  6
CONTINUOUS
 90
20
 70
0
 10
125.314579288
 20
-191.4551458301
 10
125.3754721056
 20
-191.4826679308
 10
125.4400318141
 20
-191.506832327
 10
125.5082584133
 20
-191.5276390187
 10
125.5808320648
 20
-191.5452148493
 10
125.6570726071
 20
-191.5594329753
 10
125.7349395559
 20
-191.5699128661
 10
125.814476832
 20
-191.5765535719
 10
125.8956405146
 20
-191.5794560425
 10
125.9762583578
 20
-191.5785425968
 10
126.0563156213
 20
-191.5737101873
 10
126.1358270454
 20
-191.5650618615
 10
126.2126646047
 20
-191.5528290812
 10
126.2867560923
 20
-191.5369150494
 10
126.3581737152
 20
-191.5174165632
 10
126.4250060686
 20
-191.4948554755
 10
126.4871293287
 20
-191.4691490817
 10
126.5446673192
 20
-191.4403800864
 10
126.5960801068
 20
-191.4093184564
 10
126.609629262
 20
-191.3999947692
  0
LWPOLYLINE
  5
2B2
100
AcDbEntity
  8
SMUSSO
100
AcDbPolyline
 62
7
  6
CONTINUOUS
 90
3
 70
0
 10
125.0317365756
 20
-191.2501570248
 10
125.1121355399
 20
-191.2869930635
 10
125.1986495066
 20
-191.3201853143
  0
LWPOLYLINE
  5
2B3
100
AcDbEntity
  8
RACCORDO
100
AcDbPolyline
 62
7
  6
CONTINUOUS
 90
3
 70
0
 10
-107.2275286883
 20
-87.8716422502
 10
-107.1612591412
 20
-87.9029368388
 10
-106.9924966106
 20
-87.9666200128
  0
LINE
  5
2B4
100
AcDbEntity
  8
0
100
AcDbLine
 62
7
  6
CONTINUOUS
 10
102.2747765734
 20
-196.1735369595
 11
104.3135078868
 21
-197.1929026162
  0
LINE
  5
2B5
100
AcDbEntity
  8
0
100
AcDbLine
 62
253
  6
CONTINUOUS
 10
104.7731272946
 20
-196.8597958077
 11
104.3135078868
 21
-196.6299861038
  0
LINE
  5
2B6
100
AcDbEntity
  8
0
100
AcDbLine
 62
7
  6
CONTINUOUS
 10
102.8376930858
 20
-195.8920787033
 11
104.3135078868
 21
-196.6299861038
  0
LINE
  5
2B7
100
AcDbEntity
  8
ASSI
100
AcDbLine
 62
7
  6
CONTINUOUS
 10
-98.4994808256
 20
-93.9749524007
 11
-102.359040386
 21
-92.0451726205
  0
LINE
  5
2B8
100
AcDbEntity
  8
ASSI
100
AcDbLine
 62
7
  6
CONTINUOUS
 10
-110.2727178877
 20
-88.0190469816
 11
-110.2050118557
 21
-88.0528999976
  0
LINE
  5
2B9
100
AcDbEntity
  8
ASSI
100
AcDbLine
 62
253
  6
CONTINUOUS
 10
-110.4885490592
 20
-86.6783497732
 11
-110.2050118557
 21
-86.8201183749
  0
LINE
  5
2BA
100
AcDbEntity
  8
0
100
AcDbLine
 62
7
  6
CONTINUOUS
 10
-107.5269899406
 20
-87.7219123237
 11
-107.2263384229
 21
-87.8722380826
  0
LINE
  5
2BB
100
AcDbEntity
  8
ASSI
100
AcDbLine
 62
7
  6
CONTINUOUS
 10
-110.2050118557
 20
-83.7536055784
 11
-110.381788551
 21
-83.6652172308
  0
LINE
  5
2BC
100
AcDbEntity
  8
0
100
AcDbLine
 62
7
  6
CONTINUOUS
 10
-105.3114524653
 20
-85.8286815482
 11
-105.8807197339
 21
-85.5440479139
  0
LINE
  5
2BD
100
AcDbEntity
  8
ASSI
100
AcDbLine
 62
7
  6
CONTINUOUS
 10
-110.3840877433
 20
-82.6170827791
 11
-110.4962951705
 21
-82.5609790655
  0
LINE
  5
2BE
100
AcDbEntity
  8
0
100
AcDbLine
 62
7
  6
CONTINUOUS
 10
-105.8536622656
 20
-83.6090194895
 11
-104.5304799367
 21
-84.270610654
  0
LINE
  5
2BF
100
AcDbEntity
  8
0
100
AcDbLine
 62
7
  6
CONTINUOUS
 10
-105.7963649216
 20
-82.9305613804
 11
-104.52667444
 21
-83.5654066211
  0
LINE
  5
2C0
100
AcDbEntity
  8
ASSI
100
AcDbLine
 62
7
  6
CONTINUOUS
 10
-102.359040386
 20
-81.9992779366
 11
-98.4994808256
 21
-83.9290577168
  0
LINE
  5
2C1
100
AcDbEntity
  8
0
100
AcDbLine
 62
7
  6
CONTINUOUS
 10
-104.1463900686
 20
-80.9710556446
 11
-103.8498757768
 21
-81.1193127905
  0
LINE
  5
2C2
100
AcDbEntity
  8
ASSI
100
AcDbLine
 62
7
  6
CONTINUOUS
 10
-100.4852074158
 20
-81.0623614515
 11
-96.6256478555
 21
-82.9921412317
  0
LINE
  5
2C3
100
AcDbEntity
  8
RACCORDO
100
AcDbLine
 62
253
  6
CONTINUOUS
 10
-107.2275286883
 20
-87.8716422502
 11
-107.2263384229
 21
-87.8722380826
  0
LINE
  5
2C4
100
AcDbEntity
  8
ASSI
100
AcDbLine
 62
7
  6
CONTINUOUS
 10
-107.1222919332
 20
-88.0355278995
 11
-107.0942346981
 21
-88.0499724634
  0
LINE
  5
2C5
100
AcDbEntity
  8
RACCORDO
100
AcDbLine
 62
7
  6
CONTINUOUS
 10
-103.7556561083
 20
-81.1705094754
 11
-103.8486855114
 21
-81.1199086229
  0
LINE
  5
2C6
100
AcDbEntity
  8
ASSI
100
AcDbLine
 62
7
  6
CONTINUOUS
 10
-107.264878083
 20
-87.9495819254
 11
-107.1222919332
 21
-88.0355278995
  0
LINE
  5
2C7
100
AcDbEntity
  8
RACCORDO
100
AcDbLine
 62
7
  6
CONTINUOUS
 10
-103.6064865202
 20
-81.2700268403
 11
-103.7556561083
 21
-81.1705094754
  0
LWPOLYLINE
  5
2C8
100
AcDbEntity
  8
ASSI
100
AcDbPolyline
 62
7
  6
CONTINUOUS
 90
13
 70
0
 10
-98.4994808256
 20
-83.9290577168
 10
-98.2653813855
 20
-84.1914705896
 10
-98.0399070401
 20
-84.464601656
 10
-97.8230577894
 20
-84.7484509158
 10
-97.6141730706
 20
-85.0440286962
 10
-97.4139134465
 20
-85.3503246701
 10
-97.2242606058
 20
-85.6643078558
 10
-97.0453198562
 20
-85.9860545747
 10
-96.8769858899
 20
-86.3154885053
 10
-96.7209244721
 20
-86.6493497023
 10
-96.5776908579
 20
-86.986551517
 10
-96.4467297922
 20
-87.3281805981
 10
-96.3280412749
 20
-87.6742369454
  0
LWPOLYLINE
  5
2C9
100
AcDbEntity
  8
ASSI
100
AcDbPolyline
 62
7
  6
CONTINUOUS
 90
13
 70
0
 10
-96.6256478555
 20
-82.9921412317
 10
-96.3915484153
 20
-83.2545541046
 10
-96.1660740699
 20
-83.5276851709
 10
-95.9492248193
 20
-83.8115344307
 10
-95.7403401005
 20
-84.1071122111
 10
-95.5400804764
 20
-84.413408185
 10
-95.3504276356
 20
-84.7273913708
 10
-95.171486886
 20
-85.0491380896
 10
-95.0031529198
 20
-85.3785720203
 10
-94.847091502
 20
-85.7124332172
 10
-94.7038578878
 20
-86.049635032
 10
-94.572896822
 20
-86.391264113
 10
-94.4542083048
 20
-86.7373204603
  0
LWPOLYLINE
  5
2CA
100
AcDbEntity
  8
RACCORDO
100
AcDbPolyline
 62
253
  6
CONTINUOUS
 90
31
 70
0
 10
-111.0235148756
 20
-42.9734545304
 10
-111.1215337051
 20
-42.8355203274
 10
-111.2216789066
 20
-42.6906739245
 10
-111.32395048
 20
-42.5389153216
 10
-111.4287432329
 20
-42.3800537073
 10
-111.5356623578
 20
-42.2142798931
 10
-111.6435234316
 20
-42.0421663134
 10
-111.7522844075
 20
-41.8633938548
 10
-111.8619873322
 20
-41.6782816307
 10
-111.9715739233
 20
-41.4883594161
 10
-112.0807607386
 20
-41.2938766368
 10
-112.1898312202
 20
-41.0945838669
 10
-112.298577412
 20
-40.891262604
 10
-112.4068982164
 20
-40.6841015121
 10
-112.514894731
 20
-40.4729119271
 10
-112.6226622917
 20
-40.2579093545
 10
-112.7301559701
 20
-40.0392163603
 10
-112.8374206946
 20
-39.8167103786
 10
-112.9446865861
 20
-39.5902392166
 10
-113.0519054622
 20
-39.3599571895
 10
-113.1591255053
 20
-39.1257099822
 10
-113.2667213841
 20
-38.8868824565
 10
-113.3746517547
 20
-38.6436328192
 10
-113.4829579609
 20
-38.3958028635
 10
-113.5921387033
 20
-38.1423028318
 10
-113.702161885
 20
-37.8832777679
 10
-113.8130596029
 20
-37.6185826279
 10
-113.9254268474
 20
-37.3466925224
 10
-114.0394619488
 20
-37.0670991549
 10
-114.1549665769
 20
-36.7803108219
 10
-114.2719407317
 20
-36.4863275233
  0
LWPOLYLINE
  5
2CB
100
AcDbEntity
  8
0
100
AcDbPolyline
 62
253
  6
CONTINUOUS
 90
16
 70
0
 10
-103.106677146
 20
-82.1592255709
 10
-103.145226423
 20
-82.0789485033
 10
-103.2254926845
 20
-81.9427012208
 10
-103.3146581586
 20
-81.8184391206
 10
-103.4128339976
 20
-81.7063018483
 10
-103.5199090491
 20
-81.6061497581
 10
-103.6345339741
 20
-81.5192933612
 10
-103.75683057
 20
-81.4458945632
 10
-103.8866770394
 20
-81.3857914585
 10
-104.0223586505
 20
-81.33980884
 10
-104.1639886595
 20
-81.3081569397
 10
-104.3114538102
 20
-81.2906255257
 10
-104.4626996032
 20
-81.2874086959
 10
-104.6170412052
 20
-81.2985711496
 10
-104.7751634494
 20
-81.3240481874
 10
-104.9370663358
 20
-81.3638398095
  0
LWPOLYLINE
  5
2CC
100
AcDbEntity
  8
ASSI
100
AcDbPolyline
 62
7
  6
CONTINUOUS
 90
9
 70
0
 10
-102.8356477383
 20
-82.023710867
 10
-102.8988240074
 20
-81.8815123293
 10
-102.9883872162
 20
-81.7197679702
 10
-103.0896415211
 20
-81.5721360124
 10
-103.2024190487
 20
-81.4384138147
 10
-103.3250847657
 20
-81.3205400635
 10
-103.4577827261
 20
-81.218745643
 10
-103.6003688759
 20
-81.1327996688
 10
-103.628426111
 20
-81.1183551049
  0
LWPOLYLINE
  5
2CD
100
AcDbEntity
  8
RACCORDO
100
AcDbPolyline
 62
7
  6
CONTINUOUS
 90
7
 70
0
 10
-102.9970978963
 20
-82.104435946
 10
-103.029124407
 20
-82.0219016127
 10
-103.1193531583
 20
-81.8397532313
 10
-103.2228882979
 20
-81.6728599281
 10
-103.3391622057
 20
-81.5217723551
 10
-103.4674278401
 20
-81.3871924632
 10
-103.6064865202
 20
-81.2700268403
  0
LWPOLYLINE
  5
2CE
100
AcDbEntity
  8
RACCORDO
100
AcDbPolyline
 62
253
  6
CONTINUOUS
 90
5
 70
0
 10
-110.3713343054
 20
-39.7517565948
 10
-110.4353799582
 20
-39.4808651856
 10
-110.5000063522
 20
-39.2040725364
 10
-110.565190462
 20
-38.9214407978
 10
-110.6306336588
 20
-38.6331728706
  0
LWPOLYLINE
  5
2CF
100
AcDbEntity
  8
RACCORDO
100
AcDbPolyline
 62
253
  6
CONTINUOUS
 90
20
 70
0
 10
-110.9024118517
 20
-37.4213989105
 10
-110.9743695984
 20
-37.1018716785
 10
-111.0483566707
 20
-36.7749272046
 10
-111.1243997093
 20
-36.4402903756
 10
-111.2032112546
 20
-36.0957409035
 10
-111.2848865854
 20
-35.7410662528
 10
-111.3694249834
 20
-35.3762983566
 10
-111.4574263256
 20
-34.9995223358
 10
-111.5491057837
 20
-34.6100536905
 10
-111.6443879437
 20
-34.208316952
 10
-111.7434604161
 20
-33.7940173948
 10
-111.8465426109
 20
-33.3665416419
 10
-111.9535927274
 20
-32.9261866747
 10
-112.0644139222
 20
-32.4740138352
 10
-112.179005824
 20
-32.010344783
 10
-112.2975638217
 20
-31.5345321014
 10
-112.4201840439
 20
-31.046191407
 10
-112.5469710527
 20
-30.5450820186
 10
-112.6780416609
 20
-30.0311004037
 10
-112.8135158366
 20
-29.5040664121
  0
LINE
  5
2D0
100
AcDbEntity
  8
RACCORDO
100
AcDbLine
 62
253
  6
CONTINUOUS
 10
-110.6306336588
 20
-38.6331728706
 11
-110.9024118517
 21
-37.4213989105
  0
LWPOLYLINE
  5
2D1
100
AcDbEntity
  8
0
100
AcDbPolyline
 62
7
  6
CONTINUOUS
 90
86
 70
0
 10
-106.012561479
 20
-150.1848294543
 10
-106.0168015137
 20
-150.1613620545
 10
-106.0233219648
 20
-150.1396386751
 10
-106.0311865888
 20
-150.1190554581
 10
-106.0526517825
 20
-150.0707103502
 10
-106.0762282742
 20
-150.0249229015
 10
-106.1109968391
 20
-149.9657636996
 10
-106.1482219787
 20
-149.9094485276
 10
-106.1967791485
 20
-149.8429479616
 10
-106.2477031451
 20
-149.7796490792
 10
-106.310126001
 20
-149.7091751424
 10
-106.3752072165
 20
-149.6425412995
 10
-106.4517881356
 20
-149.571547173
 10
-106.5312696388
 20
-149.5051419326
 10
-106.6069484224
 20
-149.4479374823
 10
-106.6848654534
 20
-149.3945594917
 10
-106.7649372591
 20
-149.3450230735
 10
-106.8470803664
 20
-149.2993433408
 10
-106.9312113026
 20
-149.2575354066
 10
-107.0307266694
 20
-149.2140972103
 10
-107.1326628839
 20
-149.1758814431
 10
-107.2369014532
 20
-149.1429275781
 10
-107.3433238842
 20
-149.1152750881
 10
-107.4518116836
 20
-149.0929634464
 10
-107.5525916135
 20
-149.0772811694
 10
-107.6549139712
 20
-149.0660808493
 10
-107.7586975016
 20
-149.0593572863
 10
-107.8701954312
 20
-149.0571082678
 10
-107.9831216478
 20
-149.0598524548
 10
-108.0973543291
 20
-149.0675599971
 10
-108.2198586199
 20
-149.0811246255
 10
-108.3435589588
 20
-149.1001615176
 10
-108.4683176094
 20
-149.1245883219
 10
-108.5685708613
 20
-149.1478959406
 10
-108.669337957
 20
-149.1745203167
 10
-108.770546173
 20
-149.2043963658
 10
-108.8721227861
 20
-149.2374590038
 10
-108.9791808745
 20
-149.2755619249
 10
-109.0865084116
 20
-149.3170279609
 10
-109.1978290686
 20
-149.3634028265
 10
-109.3093053024
 20
-149.4131887859
 10
-109.4249348188
 20
-149.4682811081
 10
-109.540580389
 20
-149.5268185718
 10
-109.6594181715
 20
-149.5904584167
 10
-109.7804006018
 20
-149.6587944115
 10
-109.8773185524
 20
-149.7162867398
 10
-109.9726081643
 20
-149.7752863806
 10
-110.0655997599
 20
-149.835291388
 10
-110.1583381618
 20
-149.8975874025
 10
-110.248167216
 20
-149.9603309982
 10
-110.337662175
 20
-150.0252570827
 10
-110.4243569152
 20
-150.0905168201
 10
-110.5106517845
 20
-150.1578550271
 10
-110.6206078665
 20
-150.2472085047
 10
-110.7297325096
 20
-150.3399584131
 10
-110.8379141141
 20
-150.4360741306
 10
-110.9399166757
 20
-150.5306635082
 10
-111.0408743242
 20
-150.6282282455
 10
-111.1406977951
 20
-150.7287215585
 10
-111.2348800135
 20
-150.8273703385
 10
-111.3278660818
 20
-150.9285776388
 10
-111.4195754718
 20
-151.0322741561
 10
-111.5060722157
 20
-151.1337771449
 10
-111.5912717463
 20
-151.2374405881
 10
-111.6751197884
 20
-151.3432087687
 10
-111.7676868368
 20
-151.4645321499
 10
-111.858393001
 20
-151.5883152686
 10
-111.947153554
 20
-151.714428962
 10
-112.0338837688
 20
-151.842744067
 10
-112.1184989186
 20
-151.9731314207
 10
-112.2122392496
 20
-152.1240749959
 10
-112.3030326072
 20
-152.2773676753
 10
-112.390788476
 20
-152.4328354416
 10
-112.4754163405
 20
-152.5903042772
 10
-112.5482745822
 20
-152.7324911907
 10
-112.6184663135
 20
-152.8760100601
 10
-112.6858922754
 20
-153.0207354941
 10
-112.7504532084
 20
-153.1665421014
 10
-112.8034870122
 20
-153.2924385576
 10
-112.8542077987
 20
-153.4189697482
 10
-112.9024856573
 20
-153.5460665041
 10
-112.948190677
 20
-153.6736596559
 10
-112.9827614566
 20
-153.7759827932
 10
-113.0153146115
 20
-153.8784671447
 10
-113.045560605
 20
-153.9810007638
 10
-113.0732099006
 20
-154.0834717039
  0
LWPOLYLINE
  5
2D2
100
AcDbEntity
  8
RACCORDO
100
AcDbPolyline
 62
7
  6
CONTINUOUS
 90
3
 70
0
 10
-101.942037259
 20
-24.471022585
 10
-101.9495911677
 20
-24.4001245726
 10
-101.9636259375
 20
-24.3137862128
  0
LINE
  5
2D3
100
AcDbEntity
  8
RACCORDO
100
AcDbLine
 62
253
  6
CONTINUOUS
 10
-102.2940657839
 20
-34.6537156337
 11
-102.2664868189
 21
-34.9142341846
  0
LWPOLYLINE
  5
2D4
100
AcDbEntity
  8
RACCORDO
100
AcDbPolyline
 62
253
  6
CONTINUOUS
 90
3
 70
0
 10
-102.2664868189
 20
-34.9142341846
 10
-102.2137793599
 20
-35.4179828644
 10
-102.188572119
 20
-35.6607500453
  0
LINE
  5
2D5
100
AcDbEntity
  8
RACCORDO
100
AcDbLine
 62
253
  6
CONTINUOUS
 10
-101.9593195746
 20
-24.4938799367
 11
-101.9575041493
 21
-24.5129659082
  0
LWPOLYLINE
  5
2D6
100
AcDbEntity
  8
RACCORDO
100
AcDbPolyline
 62
253
  6
CONTINUOUS
 90
8
 70
0
 10
-101.9575041493
 20
-24.5129659082
 10
-101.8979320183
 20
-25.2048224322
 10
-101.8437584718
 20
-25.8808663293
 10
-101.7953962062
 20
-26.5413061053
 10
-101.7534210961
 20
-27.1869607442
 10
-101.7180337912
 20
-27.8174926339
 10
-101.6893616839
 20
-28.4314401645
 10
-101.6679832983
 20
-29.0285416928
  0
LINE
  5
2D7
100
AcDbEntity
  8
RACCORDO
100
AcDbLine
 62
7
  6
CONTINUOUS
 10
-101.8904494062
 20
-25.0987940117
 11
-101.9420890886
 21
-24.4703410444
  0
LINE
  5
2D8
100
AcDbEntity
  8
RACCORDO
100
AcDbLine
 62
253
  6
CONTINUOUS
 10
-101.9420890886
 20
-24.4703410444
 11
-101.9420362964
 21
-24.471022506
  0
LWPOLYLINE
  5
2D9
100
AcDbEntity
  8
RACCORDO
100
AcDbPolyline
 62
253
  6
CONTINUOUS
 90
25
 70
0
 10
-103.154543161
 20
-24.674580088
 10
-103.1221400343
 20
-25.2025129814
 10
-103.0891250601
 20
-25.7170452991
 10
-103.0555916213
 20
-26.2184105375
 10
-103.021651331
 20
-26.7067239729
 10
-102.9873661263
 20
-27.1823127642
 10
-102.9527501568
 20
-27.6457210259
 10
-102.9178562588
 20
-28.0973373544
 10
-102.8827848673
 20
-28.5371798904
 10
-102.8476187203
 20
-28.9652339583
 10
-102.8124179983
 20
-29.3816572096
 10
-102.7772575153
 20
-29.7866634545
 10
-102.7422365419
 20
-30.1803101757
 10
-102.7074151277
 20
-30.5626218072
 10
-102.6728463046
 20
-30.9338941741
 10
-102.6386080573
 20
-31.2945625355
 10
-102.6047539239
 20
-31.6445660927
 10
-102.5713185223
 20
-31.9842205699
 10
-102.538335588
 20
-32.3144799509
 10
-102.5058299485
 20
-32.6353731299
 10
-102.4738384845
 20
-32.9470518644
 10
-102.4423931543
 20
-33.2505949346
 10
-102.4114906769
 20
-33.5460420301
 10
-102.3811702003
 20
-33.8334582301
 10
-102.2940657839
 20
-34.6537156337
  0
LWPOLYLINE
  5
2DA
100
AcDbEntity
  8
0
100
AcDbPolyline
 62
7
  6
CONTINUOUS
 90
3
 70
0
 10
-102.0676691088
 20
-38.3877373355
 10
-102.0590269719
 20
-38.585391575
 10
-102.0559970512
 20
-38.7952991671
  0
LWPOLYLINE
  5
2DB
100
AcDbEntity
  8
RACCORDO
100
AcDbPolyline
 62
253
  6
CONTINUOUS
 90
13
 70
0
 10
-101.686196147
 20
-38.0209068381
 10
-101.6967748576
 20
-37.7551718003
 10
-101.7144406828
 20
-37.502803729
 10
-101.7388598433
 20
-37.2641818897
 10
-101.7683225078
 20
-37.0383248651
 10
-101.8018800653
 20
-36.8245516496
 10
-101.8408944442
 20
-36.6229845157
 10
-101.8854683409
 20
-36.4324726825
 10
-101.9345396852
 20
-36.2528010756
 10
-101.989268864
 20
-36.0859043749
 10
-102.0501835432
 20
-35.9322241451
 10
-102.1166504149
 20
-35.7906053913
 10
-102.1885770628
 20
-35.6607623759
  0
LINE
  5
2DC
100
AcDbEntity
  8
RACCORDO
100
AcDbLine
 62
253
  6
CONTINUOUS
 10
-101.6679832983
 20
-29.0285416928
 11
-101.6546751408
 21
-29.609741468
  0
LWPOLYLINE
  5
2DD
100
AcDbEntity
  8
0
100
AcDbPolyline
 62
7
  6
CONTINUOUS
 90
52
 70
0
 10
-99.4008771425
 20
-220.7716563565
 10
-99.4014048342
 20
-220.7210712132
 10
-99.403002625
 20
-220.6709551012
 10
-99.4056925886
 20
-220.6213768291
 10
-99.4094967986
 20
-220.5724052055
 10
-99.4144373287
 20
-220.5241090391
 10
-99.4205362524
 20
-220.4765571384
 10
-99.4278156434
 20
-220.429818312
 10
-99.4362975753
 20
-220.3839613686
 10
-99.4460041217
 20
-220.3390551169
 10
-99.4569573563
 20
-220.2951683653
 10
-99.4691793527
 20
-220.2523699227
 10
-99.4826921846
 20
-220.2107285974
 10
-99.4975179255
 20
-220.1703131983
 10
-99.511942439
 20
-220.135168327
 10
-99.5274261561
 20
-220.101103694
 10
-99.5439547582
 20
-220.0681583807
 10
-99.5615139267
 20
-220.0363714685
 10
-99.5800893431
 20
-220.0057820388
 10
-99.5996666888
 20
-219.9764291731
 10
-99.6202316452
 20
-219.9483519526
 10
-99.6417698938
 20
-219.9215894589
 10
-99.6642671158
 20
-219.8961807733
 10
-99.6877089929
 20
-219.8721649773
 10
-99.7120812063
 20
-219.8495811522
 10
-99.7373694376
 20
-219.8284683794
 10
-99.7635593681
 20
-219.8088657404
 10
-99.7924087214
 20
-219.7896936633
 10
-99.8222183883
 20
-219.772274695
 10
-99.8529431314
 20
-219.7566064244
 10
-99.8845377135
 20
-219.7426864404
 10
-99.9169568975
 20
-219.7305123319
 10
-99.9501554462
 20
-219.7200816878
 10
-99.9840881222
 20
-219.711392097
 10
-100.0187096884
 20
-219.7044411483
 10
-100.0539749076
 20
-219.6992264308
 10
-100.0898385426
 20
-219.6957455333
 10
-100.126255356
 20
-219.6939960446
 10
-100.1631801108
 20
-219.6939755537
 10
-100.1998945958
 20
-219.6956303186
 10
-100.2370149222
 20
-219.6989144568
 10
-100.2745006522
 20
-219.7037920437
 10
-100.3123113477
 20
-219.710227155
 10
-100.3504065708
 20
-219.7181838661
 10
-100.3887458835
 20
-219.7276262525
 10
-100.4272888479
 20
-219.7385183897
 10
-100.465995026
 20
-219.7508243533
 10
-100.5048239799
 20
-219.7645082188
 10
-100.5437352716
 20
-219.7795340615
 10
-100.5826884632
 20
-219.7958659572
 10
-100.6216431166
 20
-219.8134679812
 10
-100.660558794
 20
-219.8323042091
  0
LINE
  5
2DE
100
AcDbEntity
  8
RACCORDO
100
AcDbLine
 62
253
  6
CONTINUOUS
 10
-101.6546751408
 20
-29.609741468
 11
-101.6500580227
 21
-30.1754220552
  0
LWPOLYLINE
  5
2DF
100
AcDbEntity
  8
RACCORDO
100
AcDbPolyline
 62
253
  6
CONTINUOUS
 90
6
 70
0
 10
-101.6823549312
 20
-38.2555573262
 10
-101.6826918318
 20
-38.208214028
 10
-101.6832416229
 20
-38.1610610022
 10
-101.6840073882
 20
-38.1141152783
 10
-101.6849916013
 20
-38.0673924733
 10
-101.686196147
 20
-38.0209068381
  0
LWPOLYLINE
  5
2E0
100
AcDbEntity
  8
0
100
AcDbPolyline
 62
7
  6
CONTINUOUS
 90
123
 70
0
 10
-99.0619776653
 20
83.5903848318
 10
-99.0635808768
 20
83.8293147765
 10
-99.0683948801
 20
84.0666170017
 10
-99.076426228
 20
84.3022133378
 10
-99.0876814733
 20
84.5360256149
 10
-99.102167169
 20
84.7679756635
 10
-99.119889868
 20
84.9979853137
 10
-99.1410099095
 20
85.2274141627
 10
-99.1654812973
 20
85.4546793222
 10
-99.193370404
 20
85.679661446
 10
-99.2247436021
 20
85.902241188
 10
-99.2596672643
 20
86.1222992021
 10
-99.2982077631
 20
86.3397161422
 10
-99.333424625
 20
86.5201705833
 10
-99.3713200509
 20
86.6985502322
 10
-99.4119748307
 20
86.8747272262
 10
-99.4554697538
 20
87.0485737026
 10
-99.5018856102
 20
87.2199617987
 10
-99.5513031894
 20
87.3887636517
 10
-99.6038032811
 20
87.5548513989
 10
-99.6570823297
 20
87.711317123
 10
-99.7133694154
 20
87.8649475255
 10
-99.7727680511
 20
88.015516762
 10
-99.8353817497
 20
88.1627989884
 10
-99.9013140242
 20
88.3065683605
 10
-99.9706683874
 20
88.4465990342
 10
-100.0435483524
 20
88.5826651651
 10
-100.1075929674
 20
88.6937594044
 10
-100.1742773327
 20
88.8017008863
 10
-100.2436787319
 20
88.9062956262
 10
-100.3158744488
 20
89.0073496399
 10
-100.3887799026
 20
89.1019672117
 10
-100.4644519261
 20
89.1928352109
 10
-100.5429453256
 20
89.2797308951
 10
-100.6243149075
 20
89.3624315225
 10
-100.7064408856
 20
89.4387852752
 10
-100.7913716732
 20
89.5107075523
 10
-100.879127531
 20
89.5779639523
 10
-100.9697287197
 20
89.6403200734
 10
-101.0614738971
 20
89.6965565841
 10
-101.155950836
 20
89.7476285676
 10
-101.253128256
 20
89.7933224237
 10
-101.3529748769
 20
89.8334245526
 10
-101.434280559
 20
89.8611966828
 10
-101.5171913672
 20
89.8852253838
 10
-101.6016430837
 20
89.9054409864
 10
-101.6875714906
 20
89.9217738216
 10
-101.7749123702
 20
89.9341542203
 10
-101.8492667003
 20
89.9414494791
 10
-101.9245293676
 20
89.9459028984
 10
-102.0006588027
 20
89.9475063937
 10
-102.0784730262
 20
89.9462241902
 10
-102.1570728526
 20
89.9420261088
 10
-102.236400191
 20
89.9349183368
 10
-102.3177364864
 20
89.9247195581
 10
-102.3997044733
 20
89.9115502934
 10
-102.4822439089
 20
89.8954412071
 10
-102.5671538482
 20
89.8759690708
 10
-102.6525282622
 20
89.8535121372
 10
-102.7382973305
 20
89.8281261621
 10
-102.8041578025
 20
89.8067562411
 10
-102.8701862345
 20
89.7837329082
 10
-102.9373656364
 20
89.7586991257
 10
-103.0046678297
 20
89.7320243595
 10
-103.0731760937
 20
89.7032635321
 10
-103.1417555377
 20
89.6728819107
 10
-103.2112808783
 20
89.6404859097
 10
-103.2814627802
 20
89.6061869566
 10
-103.3461340244
 20
89.5732445243
 10
-103.4100835409
 20
89.5394556859
 10
-103.53583693
 20
89.4693671247
 10
-103.658762026
 20
89.3959779404
 10
-103.7788979075
 20
89.3193448005
 10
-103.8952543701
 20
89.2402451976
 10
-104.0109583406
 20
89.1565733236
 10
-104.1221131439
 20
89.0712186067
 10
-104.2323308573
 20
88.9815060333
 10
-104.3384354629
 20
88.890095141
 10
-104.4433280855
 20
88.7945962691
 10
-104.5445231954
 20
88.6973497949
 10
-104.644262653
 20
88.5962973705
 10
-104.7401081751
 20
88.4940314976
 10
-104.83430256
 20
88.3883453562
 10
-104.9267099075
 20
88.2793972613
 10
-105.0171943177
 20
88.1673455281
 10
-105.1044599298
 20
88.0539150029
 10
-105.1896609576
 20
87.9378031145
 10
-105.2727368048
 20
87.8191953563
 10
-105.3536268749
 20
87.6982772217
 10
-105.4326462849
 20
87.574647359
 10
-105.509394319
 20
87.4490556333
 10
-105.5838672493
 20
87.3216851881
 10
-105.6560613476
 20
87.1927191672
 10
-105.7272410832
 20
87.0599312058
 10
-105.7960958533
 20
86.9258304394
 10
-105.8626677235
 20
86.7905687651
 10
-105.9269987593
 20
86.6542980802
 10
-105.9907765854
 20
86.5134634477
 10
-106.0523099745
 20
86.3718353962
 10
-106.1116730995
 20
86.2295243358
 10
-106.1689401331
 20
86.0866406766
 10
-106.2347767541
 20
85.915153168
 10
-106.2978425066
 20
85.7431078009
 10
-106.3582582653
 20
85.5706077381
 10
-106.4161449051
 20
85.3977561421
 10
-106.471623301
 20
85.2246561757
 10
-106.5248143277
 20
85.0514110016
 10
-106.5758388601
 20
84.8781237824
 10
-106.6360769149
 20
84.6640349681
 10
-106.6933724445
 20
84.4500735326
 10
-106.747907269
 20
84.2362735074
 10
-106.7998632087
 20
84.0226689243
 10
-106.8494220839
 20
83.8092938148
 10
-106.8967657148
 20
83.5961822106
 10
-106.9531330246
 20
83.3299902911
 10
-107.0065655013
 20
83.0642615494
 10
-107.05731064
 20
82.7989935152
 10
-107.1056159357
 20
82.534183718
 10
-107.1517288834
 20
82.2698296875
 10
-107.2077086326
 20
81.9334765591
 10
-107.2609330067
 20
81.5977843703
 10
-107.3118072362
 20
81.262677403
 10
-107.3607365518
 20
80.9280799391
  0
LWPOLYLINE
  5
2E1
100
AcDbEntity
  8
RACCORDO
100
AcDbPolyline
 62
7
  6
CONTINUOUS
 90
9
 70
0
 10
-101.649890918
 20
-30.1742881444
 10
-101.6527278652
 20
-29.7174708182
 10
-101.6641009808
 20
-29.1274770148
 10
-101.6834797542
 20
-28.5138812982
 10
-101.7104680644
 20
-27.8769452315
 10
-101.7449139722
 20
-27.2167811943
 10
-101.7865317552
 20
-26.5336061175
 10
-101.8350624647
 20
-25.8275928714
 10
-101.8904494062
 20
-25.0987940117
  0
LINE
  5
2E2
100
AcDbEntity
  8
0
100
AcDbLine
 62
7
  6
CONTINUOUS
 10
-96.8583713608
 20
-237.6166833829
 11
-96.862147311
 21
-214.4933002488
  0
LINE
  5
2E3
100
AcDbEntity
  8
0
100
AcDbLine
 62
7
  6
CONTINUOUS
 10
-108.2781458769
 20
-40.0949413339
 11
-108.2781458769
 21
-97.4631922138
  0
LINE
  5
2E4
100
AcDbEntity
  8
0
100
AcDbLine
 62
7
  6
CONTINUOUS
 10
-107.4624871448
 20
143.1465135992
 11
-107.4624871448
 21
132.3461427607
  0
LINE
  5
2E5
100
AcDbEntity
  8
0
100
AcDbLine
 62
7
  6
CONTINUOUS
 10
-107.4624871448
 20
123.7268940976
 11
-107.4624871448
 21
114.1786710362
  0
LINE
  5
2E6
100
AcDbEntity
  8
0
100
AcDbLine
 62
7
  6
CONTINUOUS
 10
-107.4624871448
 20
48.1544839328
 11
-107.4624871448
 21
37.3555292138
  0
LINE
  5
2E7
100
AcDbEntity
  8
0
100
AcDbLine
 62
7
  6
CONTINUOUS
 10
-107.1643260987
 20
-154.4661195272
 11
-107.1643260987
 21
-156.5085019776
  0
LINE
  5
2E8
100
AcDbEntity
  8
0
100
AcDbLine
 62
7
  6
CONTINUOUS
 10
-105.8775634351
 20
38.1479910686
 11
-105.8775634351
 21
48.9469457877
  0
LINE
  5
2E9
100
AcDbEntity
  8
0
100
AcDbLine
 62
7
  6
CONTINUOUS
 10
-105.8775634351
 20
114.971132891
 11
-105.8775634351
 21
124.5193559525
  0
LINE
  5
2EA
100
AcDbEntity
  8
0
100
AcDbLine
 62
7
  6
CONTINUOUS
 10
-105.8775634351
 20
133.1386046155
 11
-105.8775634351
 21
143.9389754541
  0
LINE
  5
2EB
100
AcDbEntity
  8
0
100
AcDbLine
 62
7
  6
CONTINUOUS
 10
-105.7855944733
 20
-81.7881038782
 11
-105.7855944733
 21
-82.8062031699
  0
LINE
  5
2EC
100
AcDbEntity
  8
0
100
AcDbLine
 62
7
  6
CONTINUOUS
 10
-105.7855944733
 20
-86.7863884671
 11
-105.7855944733
 21
-86.8531061525
  0
LINE
  5
2ED
100
AcDbEntity
  8
0
100
AcDbLine
 62
7
  6
CONTINUOUS
 10
-105.3114524653
 20
-86.478200601
 11
-105.3114524653
 21
-85.8286815482
  0
LINE
  5
2EE
100
AcDbEntity
  8
0
100
AcDbLine
 62
7
  6
CONTINUOUS
 10
-105.1138430311
 20
-83.2718223256
 11
-105.1138430311
 21
-81.4509818193
  0
LINE
  5
2EF
100
AcDbEntity
  8
0
100
AcDbLine
 62
7
  6
CONTINUOUS
 10
-104.9370663358
 20
-83.3602106732
 11
-104.9370663358
 21
-81.3638398095
  0
LINE
  5
2F0
100
AcDbEntity
  8
0
100
AcDbLine
 62
7
  6
CONTINUOUS
 10
-104.8759003717
 20
-155.2458425677
 11
-104.8759003717
 21
-153.3301113993
  0
LINE
  5
2F1
100
AcDbEntity
  8
0
100
AcDbLine
 62
7
  6
CONTINUOUS
 10
-104.5304799367
 20
-88.2999933919
 11
-104.5304799367
 21
-83.5730176145
  0
LINE
  5
2F2
100
AcDbEntity
  8
0
100
AcDbLine
 62
7
  6
CONTINUOUS
 10
-104.3545855903
 20
-168.4064916322
 11
-104.3545855903
 21
-164.985116897
  0
LINE
  5
2F3
100
AcDbEntity
  8
0
100
AcDbLine
 62
7
  6
CONTINUOUS
 10
-104.0550593936
 20
75.128030603
 11
-104.0550593936
 21
72.5071660533
  0
LINE
  5
2F4
100
AcDbEntity
  8
0
100
AcDbLine
 62
7
  6
CONTINUOUS
 10
-102.4445149322
 20
-37.1781258615
 11
-102.4445149322
 21
-81.8281444639
  0
LINE
  5
2F5
100
AcDbEntity
  8
0
100
AcDbLine
 62
7
  6
CONTINUOUS
 10
-102.4445149322
 20
-91.9493602545
 11
-102.4445149322
 21
-94.5463767414
  0
LINE
  5
2F6
100
AcDbEntity
  8
0
100
AcDbLine
 62
7
  6
CONTINUOUS
 10
-102.1942961133
 20
-163.1913093404
 11
-102.1942961133
 21
-168.057761776
  0
LINE
  5
2F7
100
AcDbEntity
  8
0
100
AcDbLine
 62
7
  6
CONTINUOUS
 10
-102.0748175907
 20
28.7212277706
 11
-102.0748175907
 21
28.666148175
  0
LINE
  5
2F8
100
AcDbEntity
  8
0
100
AcDbLine
 62
7
  6
CONTINUOUS
 10
-101.9318625158
 20
-81.5718182558
 11
-101.9318625158
 21
-38.6048168628
  0
LINE
  5
2F9
100
AcDbEntity
  8
RACCORDO
100
AcDbLine
 62
253
  6
CONTINUOUS
 10
-101.6822220587
 20
-81.4469980272
 11
-101.6823549312
 21
-38.2555573262
  0
LINE
  5
2FA
100
AcDbEntity
  8
RACCORDO
100
AcDbLine
 62
7
  6
CONTINUOUS
 10
-101.6500594242
 20
-30.1754216196
 11
-101.6500594193
 21
-81.4309167075
  0
LINE
  5
2FB
100
AcDbEntity
  8
0
100
AcDbLine
 62
7
  6
CONTINUOUS
 10
-100.9852586098
 20
147.2607369194
 11
-100.9852586098
 21
135.5847570281
  0
LINE
  5
2FC
100
AcDbEntity
  8
0
100
AcDbLine
 62
7
  6
CONTINUOUS
 10
-100.9852586098
 20
52.2666203401
 11
-100.9852586098
 21
40.5941434812
  0
LINE
  5
2FD
100
AcDbEntity
  8
0
100
AcDbLine
 62
7
  6
CONTINUOUS
 10
-99.4473154371
 20
93.9306637949
 11
-99.4473154371
 21
99.2063797625
  0
LINE
  5
2FE
100
AcDbEntity
  8
0
100
AcDbLine
 62
7
  6
CONTINUOUS
 10
-99.4473154371
 20
106.5380031281
 11
-99.4473154371
 21
111.8390601816
  0
LINE
  5
2FF
100
AcDbEntity
  8
0
100
AcDbLine
 62
7
  6
CONTINUOUS
 10
-99.4034349889
 20
-195.0915907748
 11
-99.4034349889
 21
-191.5177572458
  0
LINE
  5
300
100
AcDbEntity
  8
0
100
AcDbLine
 62
7
  6
CONTINUOUS
 10
-99.4034349954
 20
-156.0688241724
 11
-99.4034349954
 21
-152.5096098796
  0
LINE
  5
301
100
AcDbEntity
  8
0
100
AcDbLine
 62
7
  6
CONTINUOUS
 10
-99.4034349954
 20
-147.0372004274
 11
-99.4034349954
 21
-143.5986703361
  0
LINE
  5
302
100
AcDbEntity
  8
0
100
AcDbLine
 62
7
  6
CONTINUOUS
 10
-99.4034349954
 20
-157.102770032
 11
-99.4034349954
 21
-160.8697879004
  0
LINE
  5
303
100
AcDbEntity
  8
0
100
AcDbLine
 62
7
  6
CONTINUOUS
 10
-99.4034349954
 20
-167.6494354954
 11
-99.4034349954
 21
-171.1838864045
  0
LINE
  5
304
100
AcDbEntity
  8
0
100
AcDbLine
 62
7
  6
CONTINUOUS
 10
-99.4034349889
 20
-172.0416543494
 11
-99.4034349889
 21
-175.5376174722
  0
LINE
  5
305
100
AcDbEntity
  8
0
100
AcDbLine
 62
7
  6
CONTINUOUS
 10
-99.4034349889
 20
-180.522516421
 11
-99.4034349889
 21
-181.0231544486
  0
LINE
  5
306
100
AcDbEntity
  8
0
100
AcDbLine
 62
7
  6
CONTINUOUS
 10
-99.4034349889
 20
-185.9868704161
 11
-99.4034349889
 21
-189.4066042507
  0
LINE
  5
307
100
AcDbEntity
  8
0
100
AcDbLine
 62
7
  6
CONTINUOUS
 10
-99.4034349889
 20
-201.9219586822
 11
-99.4034349889
 21
-205.0698917429
  0
LINE
  5
308
100
AcDbEntity
  8
0
100
AcDbLine
 62
7
  6
CONTINUOUS
 10
-99.4008771425
 20
-233.8617152599
 11
-99.4008771425
 21
-220.7716563565
  0
LINE
  5
309
100
AcDbEntity
  8
0
100
AcDbLine
 62
7
  6
CONTINUOUS
 10
-99.3996046328
 20
16.1170631426
 11
-99.3996046328
 21
18.7365861053
  0
LINE
  5
30A
100
AcDbEntity
  8
0
100
AcDbLine
 62
7
  6
CONTINUOUS
 10
-99.3996046328
 20
29.6550911241
 11
-99.3996046328
 21
32.682605571
  0
LINE
  5
30B
100
AcDbEntity
  8
0
100
AcDbLine
 62
7
  6
CONTINUOUS
 10
-99.3996046328
 20
38.6194257519
 11
-99.3996046328
 21
53.0594473286
  0
LINE
  5
30C
100
AcDbEntity
  8
0
100
AcDbLine
 62
7
  6
CONTINUOUS
 10
-99.3996046328
 20
62.5803914564
 11
-99.3996046328
 21
65.3445076743
  0
LINE
  5
30D
100
AcDbEntity
  8
0
100
AcDbLine
 62
7
  6
CONTINUOUS
 10
-99.3996046328
 20
115.445847009
 11
-99.3996046328
 21
118.2101122922
  0
LINE
  5
30E
100
AcDbEntity
  8
0
100
AcDbLine
 62
7
  6
CONTINUOUS
 10
-99.3996046328
 20
133.6136168639
 11
-99.3996046328
 21
148.053563908
  0
LINE
  5
30F
100
AcDbEntity
  8
ASSI
100
AcDbLine
 62
7
  6
CONTINUOUS
 10
-99.1564683996
 20
-89.5544885808
 11
-99.1564683996
 21
-87.6925339626
  0
LINE
  5
310
100
AcDbEntity
  8
ASSI
100
AcDbLine
 62
7
  6
CONTINUOUS
 10
-97.3887014467
 20
-88.5764174391
 11
-97.3887014467
 21
-90.4383720573
  0
LINE
  5
311
100
AcDbEntity
  8
0
100
AcDbLine
 62
7
  6
CONTINUOUS
 10
-97.3161049148
 20
-215.2770078116
 11
-97.3161049148
 21
-237.2891946559
  0
LINE
  5
312
100
AcDbEntity
  8
ASSI
100
AcDbLine
 62
7
  6
CONTINUOUS
 10
-96.3280412749
 20
-87.6742369454
 11
-96.3280412749
 21
-92.4012127228
  0
LINE
  5
313
100
AcDbEntity
  8
ASSI
100
AcDbLine
 62
7
  6
CONTINUOUS
 10
-94.4542083048
 20
-86.7373204603
 11
-94.4542083048
 21
-91.4642962377
  0
LINE
  5
314
100
AcDbEntity
  8
0
100
AcDbLine
 62
7
  6
CONTINUOUS
 10
-93.2167714377
 20
189.9855063493
 11
-93.2167714377
 21
-295.8547451738
  0
LWPOLYLINE
  5
315
100
AcDbEntity
  8
RACCORDO
100
AcDbPolyline
 62
253
  6
CONTINUOUS
 90
3
 70
0
 10
-101.6500594242
 20
-30.1754216196
 10
-101.6512903116
 20
-30.5504661513
 10
-101.6525033134
 20
-30.9161528666
  0
LWPOLYLINE
  5
316
100
AcDbEntity
  8
RACCORDO
100
AcDbPolyline
 62
253
  6
CONTINUOUS
 90
4
 70
0
 10
-101.6525033134
 20
-30.9161528666
 10
-101.6548745032
 20
-31.6190410458
 10
-101.6560326912
 20
-31.9562425096
 10
-101.6571764645
 20
-32.2853215645
  0
LWPOLYLINE
  5
317
100
AcDbEntity
  8
RACCORDO
100
AcDbPolyline
 62
253
  6
CONTINUOUS
 90
4
 70
0
 10
-101.6571764645
 20
-32.2853215645
 10
-101.6594208778
 20
-32.9192266201
 10
-101.6605247672
 20
-33.2250596826
 10
-101.6616174843
 20
-33.523864137
  0
LWPOLYLINE
  5
318
100
AcDbEntity
  8
RACCORDO
100
AcDbPolyline
 62
253
  6
CONTINUOUS
 90
3
 70
0
 10
-101.6616174843
 20
-33.523864137
 10
-101.6637730798
 20
-34.1012734535
 10
-101.6648395158
 20
-34.3809231361
  0
LWPOLYLINE
  5
319
100
AcDbEntity
  8
RACCORDO
100
AcDbPolyline
 62
253
  6
CONTINUOUS
 90
3
 70
0
 10
-101.6648395158
 20
-34.3809231361
 10
-101.6669528226
 20
-34.9227395899
 10
-101.6680044141
 20
-35.1860466915
  0
LINE
  5
31A
100
AcDbEntity
  8
RACCORDO
100
AcDbLine
 62
253
  6
CONTINUOUS
 10
-101.6680044141
 20
-35.1860466915
 11
-101.6700936185
 21
-35.6963547935
  0
LINE
  5
31B
100
AcDbEntity
  8
RACCORDO
100
AcDbLine
 62
253
  6
CONTINUOUS
 10
-101.6700936185
 20
-35.6963547935
 11
-101.6721631149
 21
-36.184231897
  0
LINE
  5
31C
100
AcDbEntity
  8
RACCORDO
100
AcDbLine
 62
253
  6
CONTINUOUS
 10
-101.6721631149
 20
-36.184231897
 11
-101.6741992859
 21
-36.6466484407
  0
LINE
  5
31D
100
AcDbEntity
  8
RACCORDO
100
AcDbLine
 62
253
  6
CONTINUOUS
 10
-101.6741992859
 20
-36.6466484407
 11
-101.6762010629
 21
-37.0837241453
  0
LINE
  5
31E
100
AcDbEntity
  8
RACCORDO
100
AcDbLine
 62
253
  6
CONTINUOUS
 10
-101.6762010629
 20
-37.0837241453
 11
-101.6781666316
 21
-37.4962265796
  0
LINE
  5
31F
100
AcDbEntity
  8
RACCORDO
100
AcDbLine
 62
253
  6
CONTINUOUS
 10
-101.6781666316
 20
-37.4962265796
 11
-101.6801675231
 21
-37.9012084586
  0
LINE
  5
320
100
AcDbEntity
  8
RACCORDO
100
AcDbLine
 62
253
  6
CONTINUOUS
 10
-101.6801675231
 20
-37.9012084586
 11
-101.682222005
 21
-38.3030770243
  0
LWPOLYLINE
  5
321
100
AcDbEntity
  8
0
100
AcDbPolyline
 62
7
  6
CONTINUOUS
 90
54
 70
0
 10
-100.6478750648
 20
82.8886640415
 10
-100.6493502555
 20
82.6799653755
 10
-100.6538406406
 20
82.4696258097
 10
-100.66144344
 20
82.257726744
 10
-100.6722558734
 20
82.0443495787
 10
-100.6863751605
 20
81.8295757139
 10
-100.7038985212
 20
81.6134865498
 10
-100.724923175
 20
81.3961634865
 10
-100.7495463419
 20
81.1776879242
 10
-100.7778652415
 20
80.958141263
 10
-100.8099770937
 20
80.7376049031
 10
-100.8459791181
 20
80.5161602447
 10
-100.8800944036
 20
80.3252847247
 10
-100.9172767211
 20
80.1338688052
 10
-100.9576510575
 20
79.9419822031
 10
-101.0013423994
 20
79.7496946352
 10
-101.0484757338
 20
79.5570758182
 10
-101.0991760474
 20
79.3641954688
 10
-101.1428885146
 20
79.2080278624
 10
-101.189091836
 20
79.0518429792
 10
-101.2378606777
 20
78.8957490752
 10
-101.2892697056
 20
78.7398544061
 10
-101.3433935859
 20
78.5842672278
 10
-101.4003069846
 20
78.4290957964
 10
-101.4600845676
 20
78.2744483676
 10
-101.5193432546
 20
78.1287254108
 10
-101.5812733485
 20
77.9837499629
 10
-101.6459154493
 20
77.8397035461
 10
-101.713310157
 20
77.6967676828
 10
-101.7834980714
 20
77.5551238951
 10
-101.8565197926
 20
77.4149537054
 10
-101.9324159205
 20
77.2764386357
 10
-102.0086501046
 20
77.1441039055
 10
-102.0875529333
 20
77.0137305313
 10
-102.1690611096
 20
76.8855585692
 10
-102.2531113363
 20
76.7598280756
 10
-102.3396403164
 20
76.6367791066
 10
-102.4285847526
 20
76.5166517187
 10
-102.5198813479
 20
76.3996859679
 10
-102.6150763159
 20
76.2841854235
 10
-102.7124647222
 20
76.1723583338
 10
-102.8118718173
 20
76.064358566
 10
-102.9131228515
 20
75.9603399874
 10
-103.016043075
 20
75.8604564652
 10
-103.1204577383
 20
75.7648618666
 10
-103.2261920917
 20
75.6737100588
 10
-103.3277910706
 20
75.591274223
 10
-103.4302714957
 20
75.5129637054
 10
-103.5334797059
 20
75.4387481187
 10
-103.6372620401
 20
75.368597076
 10
-103.7414648371
 20
75.3024801902
 10
-103.8459344358
 20
75.2403670741
 10
-103.950517175
 20
75.1822273408
 10
-104.0550593936
 20
75.128030603
  0
LWPOLYLINE
  5
322
100
AcDbEntity
  8
0
100
AcDbPolyline
 62
7
  6
CONTINUOUS
 90
39
 70
0
 10
-93.2167714377
 20
-295.8547451738
 10
-93.2169022182
 20
-295.8680885222
 10
-93.2172925708
 20
-295.8812793474
 10
-93.2179424952
 20
-295.8943176492
 10
-93.2188526536
 20
-295.9072106372
 10
-93.220022384
 20
-295.919951102
 10
-93.2214497005
 20
-295.9325174148
 10
-93.2231350408
 20
-295.9449092799
 10
-93.2250779673
 20
-295.9571269931
 10
-93.2272751816
 20
-295.9691498133
 10
-93.2297271157
 20
-295.9809774094
 10
-93.2324333376
 20
-295.9926101124
 10
-93.2353892532
 20
-296.0040281744
 10
-93.2385952865
 20
-296.0152312307
 10
-93.2420510136
 20
-296.026219646
 10
-93.2457505677
 20
-296.036974766
 10
-93.2496943632
 20
-296.0474961943
 10
-93.2538819858
 20
-296.0577843274
 10
-93.2583063265
 20
-296.0678216997
 10
-93.2629677873
 20
-296.0776078854
 10
-93.2678659663
 20
-296.0871433103
 10
-93.272992548
 20
-296.0964117868
 10
-93.2783479206
 20
-296.1054128615
 10
-93.2839316959
 20
-296.1141469879
 10
-93.2897343949
 20
-296.1225993386
 10
-93.2957563894
 20
-296.130769435
 10
-93.3019973074
 20
-296.1386577558
 10
-93.3084465544
 20
-296.1462509094
 10
-93.3151044841
 20
-296.1535483946
 10
-93.3219707426
 20
-296.1605507127
 10
-93.3290336737
 20
-296.1672459763
 10
-93.3362936113
 20
-296.1736336639
 10
-93.3437502214
 20
-296.179714297
 10
-93.3513908454
 20
-296.1854775531
 10
-93.359215796
 20
-296.1909228929
 10
-93.3672247605
 20
-296.1960508557
 10
-93.3754041427
 20
-296.2008527359
 10
-93.3837542321
 20
-296.2053279798
 10
-93.3857021741
 20
-296.2063128126
  0
LINE
  5
323
100
AcDbEntity
  8
RACCORDO
100
AcDbLine
 62
253
  6
CONTINUOUS
 10
-101.6500472598
 20
-30.1742881822
 11
-101.6500594242
 21
-30.1754176972
  0
LWPOLYLINE
  5
324
100
AcDbEntity
  8
0
100
AcDbPolyline
 62
7
  6
CONTINUOUS
 90
46
 70
0
 10
-104.8759003717
 20
-153.3301113993
 10
-104.8752238432
 20
-153.2712837112
 10
-104.8731948639
 20
-153.2116888125
 10
-104.8698143431
 20
-153.1513918181
 10
-104.8650831899
 20
-153.0904578431
 10
-104.8590023135
 20
-153.0289520025
 10
-104.8515726231
 20
-152.9669394113
 10
-104.842795028
 20
-152.9044851845
 10
-104.8326704374
 20
-152.8416544373
 10
-104.8211997603
 20
-152.7785122845
 10
-104.8083839062
 20
-152.7151238413
 10
-104.7942237841
 20
-152.6515542227
 10
-104.7787203033
 20
-152.5878685437
 10
-104.761874373
 20
-152.5241319193
 10
-104.7436869023
 20
-152.4604094646
 10
-104.7241588006
 20
-152.3967662945
 10
-104.7032909769
 20
-152.3332675242
 10
-104.6816583267
 20
-152.2715465633
 10
-104.6587855839
 20
-152.2100671378
 10
-104.6347056891
 20
-152.1488715627
 10
-104.6094515829
 20
-152.0880021525
 10
-104.5830562061
 20
-152.0275012222
 10
-104.5555524993
 20
-151.9674110864
 10
-104.5269734032
 20
-151.90777406
 10
-104.4973518584
 20
-151.8486324577
 10
-104.4667208056
 20
-151.7900285942
 10
-104.4351131854
 20
-151.7320047844
 10
-104.4025619385
 20
-151.674603343
 10
-104.3691000055
 20
-151.6178665847
 10
-104.3347603272
 20
-151.5618368244
 10
-104.2967777712
 20
-151.502238416
 10
-104.2578612317
 20
-151.4435197751
 10
-104.2180594998
 20
-151.3856889818
 10
-104.1774213667
 20
-151.3287541164
 10
-104.1359956236
 20
-151.272723259
 10
-104.0938310615
 20
-151.2176044897
 10
-104.0509764718
 20
-151.1634058888
 10
-104.0074806455
 20
-151.1101355363
 10
-103.9633923738
 20
-151.0578015125
 10
-103.9187604479
 20
-151.0064118975
 10
-103.873633659
 20
-150.9559747714
 10
-103.8280607981
 20
-150.9064982146
 10
-103.7820906565
 20
-150.857990307
 10
-103.7357720254
 20
-150.810459129
 10
-103.6891536959
 20
-150.7639127606
 10
-103.6422844592
 20
-150.718359282
  0
LWPOLYLINE
  5
325
100
AcDbEntity
  8
ASSI
100
AcDbPolyline
 62
7
  6
CONTINUOUS
 90
13
 70
0
 10
-99.1564683996
 20
-87.6925339626
 10
-99.1538826175
 20
-87.6121894137
 10
-99.1464956828
 20
-87.5355875554
 10
-99.1343075955
 20
-87.4627283876
 10
-99.1171969489
 20
-87.3932476755
 10
-99.0952851497
 20
-87.3275096539
 10
-99.0689364183
 20
-87.2666070278
 10
-99.0380765927
 20
-87.2106206195
 10
-99.002779835
 20
-87.1594696067
 10
-98.9636328519
 20
-87.1140042272
 10
-98.9205712879
 20
-87.074319515
 10
-98.8736594985
 20
-87.0403204363
 10
-98.8316006485
 20
-87.0164442487
  0
LWPOLYLINE
  5
326
100
AcDbEntity
  8
ASSI
100
AcDbPolyline
 62
7
  6
CONTINUOUS
 90
13
 70
0
 10
-97.3887014467
 20
-90.4383720573
 10
-97.3912872288
 20
-90.5187166062
 10
-97.3986741635
 20
-90.5953184645
 10
-97.4108622508
 20
-90.6681776323
 10
-97.4279728975
 20
-90.7376583444
 10
-97.4498846967
 20
-90.803396366
 10
-97.476233428
 20
-90.8642989921
 10
-97.5070932536
 20
-90.9202854004
 10
-97.5423900113
 20
-90.9714364132
 10
-97.5815369944
 20
-91.0169017927
 10
-97.6245985584
 20
-91.0565865049
 10
-97.6715103478
 20
-91.0905855836
 10
-97.7135691978
 20
-91.1144617712
  0
LWPOLYLINE
  5
327
100
AcDbEntity
  8
0
100
AcDbPolyline
 62
7
  6
CONTINUOUS
 90
7
 70
0
 10
-110.2050118557
 20
-42.3878381421
 10
-110.21046202
 20
-42.5504091242
 10
-110.2255172317
 20
-42.7049744438
 10
-110.2501774906
 20
-42.8515341011
 10
-110.2844427968
 20
-42.9900880961
 10
-110.3283131502
 20
-43.1206364287
 10
-110.381788551
 20
-43.2431790989
  0
LWPOLYLINE
  5
328
100
AcDbEntity
  8
0
100
AcDbPolyline
 62
7
  6
CONTINUOUS
 90
13
 70
0
 10
-109.4704938566
 20
-42.5025475698
 10
-109.4611951342
 20
-42.2864756561
 10
-109.4346727142
 20
-42.0712391383
 10
-109.3909265966
 20
-41.8568380161
 10
-109.3295067717
 20
-41.6420480103
 10
-109.2508632491
 20
-41.4280934003
 10
-109.1563460579
 20
-41.2186470241
 10
-109.0456811355
 20
-41.0137867175
 10
-108.9191425445
 20
-40.8134346448
 10
-108.7789025015
 20
-40.6210301369
 10
-108.6256850787
 20
-40.4377196377
 10
-108.4587662038
 20
-40.2623567033
 10
-108.2781458769
 20
-40.0949413339
  0
LINE
  5
329
100
AcDbEntity
  8
0
100
AcDbLine
 62
7
  6
CONTINUOUS
 10
-105.8908705004
 20
-84.0938493595
 11
-105.8799157444
 21
-83.942660957
  0
LWPOLYLINE
  5
32A
100
AcDbEntity
  8
RACCORDO
100
AcDbPolyline
 62
253
  6
CONTINUOUS
 90
10
 70
0
 10
-114.4801859784
 20
-98.3666729811
 10
-114.4308429901
 20
-97.7292856019
 10
-114.3882472091
 20
-97.1016382017
 10
-114.3521274058
 20
-96.4834511745
 10
-114.3213663541
 20
-95.8741808161
 10
-114.2963943717
 20
-95.2738447523
 10
-114.2792041032
 20
-94.6828328726
 10
-114.2701601494
 20
-94.1009309672
 10
-114.2679334362
 20
-93.5274739926
 10
-114.2719401416
 20
-92.9620619077
  0
LINE
  5
32B
100
AcDbEntity
  8
0
100
AcDbLine
 62
7
  6
CONTINUOUS
 10
-105.8799157444
 20
-83.942660957
 11
-105.8674500631
 21
-83.780847689
  0
LINE
  5
32C
100
AcDbEntity
  8
0
100
AcDbLine
 62
7
  6
CONTINUOUS
 10
-105.8674500631
 20
-83.780847689
 11
-105.8535936033
 21
-83.6081706714
  0
LWPOLYLINE
  5
32D
100
AcDbEntity
  8
RACCORDO
100
AcDbPolyline
 62
253
  6
CONTINUOUS
 90
4
 70
0
 10
-101.9420362964
 20
-24.471022506
 10
-101.9432323676
 20
-24.4854367088
 10
-101.9484298699
 20
-24.499263576
 10
-101.9575029836
 20
-24.5129660154
  0
LINE
  5
32E
100
AcDbEntity
  8
0
100
AcDbLine
 62
7
  6
CONTINUOUS
 10
-105.8535936033
 20
-83.6081706714
 11
-105.8384161659
 21
-83.4245167774
  0
LINE
  5
32F
100
AcDbEntity
  8
0
100
AcDbLine
 62
7
  6
CONTINUOUS
 10
-105.8384161659
 20
-83.4245167774
 11
-105.813338037
 21
-83.1280972528
  0
LINE
  5
330
100
AcDbEntity
  8
0
100
AcDbLine
 62
7
  6
CONTINUOUS
 10
-105.813338037
 20
-83.1280972528
 11
-105.7855944733
 21
-82.8062031699
  0
LWPOLYLINE
  5
331
100
AcDbEntity
  8
RACCORDO
100
AcDbPolyline
 62
253
  6
CONTINUOUS
 90
7
 70
0
 10
-111.0010961997
 20
-42.6783581328
 10
-111.0055632378
 20
-42.728242628
 10
-111.0097291081
 20
-42.7778621486
 10
-111.0135991701
 20
-42.8272068548
 10
-111.0171793595
 20
-42.8762664955
 10
-111.020476193
 20
-42.9250304165
 10
-111.0234967736
 20
-42.9734875697
  0
LWPOLYLINE
  5
332
100
AcDbEntity
  8
RACCORDO
100
AcDbPolyline
 62
253
  6
CONTINUOUS
 90
10
 70
0
 10
-114.7423410313
 20
-98.3170232492
 10
-114.6851905472
 20
-97.6803587268
 10
-114.6339583351
 20
-97.0531275937
 10
-114.5886443951
 20
-96.4353298497
 10
-114.5488729018
 20
-95.8270093638
 10
-114.5150196805
 20
-95.228122267
 10
-114.4882122073
 20
-94.6385369531
 10
-114.4688263075
 20
-94.058209553
 10
-114.4564861557
 20
-93.4871839357
 10
-114.4511917521
 20
-92.9254601012
  0
LWPOLYLINE
  5
333
100
AcDbEntity
  8
0
100
AcDbPolyline
 62
7
  6
CONTINUOUS
 90
50
 70
0
 10
-111.0852709879
 20
-155.6704137057
 10
-111.0781001829
 20
-155.5987955174
 10
-111.0694459615
 20
-155.5266035
 10
-111.0593057675
 20
-155.4539017356
 10
-111.0476770448
 20
-155.3807543063
 10
-111.0345572374
 20
-155.307225294
 10
-111.0199437889
 20
-155.233378781
 10
-111.0038341433
 20
-155.1592788491
 10
-110.9862257445
 20
-155.0849895805
 10
-110.9671160363
 20
-155.0105750573
 10
-110.9465024625
 20
-154.9360993614
 10
-110.9243824671
 20
-154.861626575
 10
-110.9007534938
 20
-154.78722078
 10
-110.8768263627
 20
-154.7164193637
 10
-110.8515422553
 20
-154.645800061
 10
-110.824917566
 20
-154.5754258928
 10
-110.7969686895
 20
-154.5053598801
 10
-110.7677120203
 20
-154.4356650438
 10
-110.7371639529
 20
-154.3664044049
 10
-110.7053408819
 20
-154.2976409844
 10
-110.6722592017
 20
-154.2294378031
 10
-110.6379353071
 20
-154.1618578821
 10
-110.6023855924
 20
-154.0949642422
 10
-110.5656264523
 20
-154.0288199045
 10
-110.5276742812
 20
-153.9634878898
 10
-110.4887942637
 20
-153.8994255
 10
-110.4487930162
 20
-153.8362893429
 10
-110.4077114909
 20
-153.7741410602
 10
-110.36559064
 20
-153.7130422934
 10
-110.3224714158
 20
-153.6530546843
 10
-110.2783947704
 20
-153.5942398745
 10
-110.2334016562
 20
-153.5366595057
 10
-110.1875330252
 20
-153.4803752195
 10
-110.1408298298
 20
-153.4254486576
 10
-110.0933330221
 20
-153.3719414616
 10
-110.0450835544
 20
-153.3199152733
 10
-109.9961223788
 20
-153.2694317342
 10
-109.9476432384
 20
-153.2216531732
 10
-109.8985794512
 20
-153.1754265416
 10
-109.8489865967
 20
-153.1307724968
 10
-109.7989202542
 20
-153.0877116966
 10
-109.7484360031
 20
-153.0462647986
 10
-109.6975894229
 20
-153.0064524605
 10
-109.6464360929
 20
-152.9682953399
 10
-109.5950315926
 20
-152.9318140945
 10
-109.5434315014
 20
-152.8970293819
 10
-109.4916913986
 20
-152.8639618597
 10
-109.4398668637
 20
-152.8326321856
 10
-109.388013476
 20
-152.8030610173
 10
-109.336186815
 20
-152.7752690125
  0
LWPOLYLINE
  5
334
100
AcDbEntity
  8
RACCORDO
100
AcDbPolyline
 62
253
  6
CONTINUOUS
 90
9
 70
0
 10
-101.6822258121
 20
-38.3028509743
 10
-101.6874304648
 20
-38.33742732
 10
-101.7015811469
 20
-38.3713721005
 10
-101.7244377704
 20
-38.4041094163
 10
-101.7556125374
 20
-38.4350838549
 10
-101.7945765198
 20
-38.4637699141
 10
-101.8406686337
 20
-38.4896809176
 10
-101.8931068551
 20
-38.5123772725
 10
-101.9510014889
 20
-38.5314739279
  0
LWPOLYLINE
  5
335
100
AcDbEntity
  8
RACCORDO
100
AcDbPolyline
 62
253
  6
CONTINUOUS
 90
11
 70
0
 10
-101.6862001987
 20
-38.0209068201
 10
-101.6934579684
 20
-38.0564280433
 10
-101.7093160169
 20
-38.0911669323
 10
-101.7335126995
 20
-38.1245503162
 10
-101.765648792
 20
-38.1560273885
 10
-101.8051940764
 20
-38.1850787952
 10
-101.85149609
 20
-38.2112252033
 10
-101.9037908898
 20
-38.2340352097
 10
-101.9612156572
 20
-38.2531324591
 10
-102.0228229337
 20
-38.2682018528
 10
-102.076175972
 20
-38.2770918367
  0
LWPOLYLINE
  5
336
100
AcDbEntity
  8
RACCORDO
100
AcDbPolyline
 62
7
  6
CONTINUOUS
 90
29
 70
0
 10
-110.0378676868
 20
-39.7774640212
 10
-109.9487829354
 20
-39.5362688175
 10
-109.8041050751
 20
-39.1820389667
 10
-109.6451380194
 20
-38.8335293039
 10
-109.4727816253
 20
-38.4924253819
 10
-109.2878503779
 20
-38.1601568772
 10
-109.0910787312
 20
-37.837868059
 10
-108.8835404166
 20
-37.526881428
 10
-108.6663959618
 20
-37.2285733012
 10
-108.4406464652
 20
-36.9440569199
 10
-108.2074745837
 20
-36.6745435293
 10
-107.9680849634
 20
-36.421194185
 10
-107.723533792
 20
-36.1849232409
 10
-107.4750778564
 20
-35.96657523
 10
-107.2240813062
 20
-35.7669747914
 10
-106.9719005872
 20
-35.5868672982
 10
-106.7204064387
 20
-35.4271660429
 10
-106.4703979756
 20
-35.2879705109
 10
-106.2217169366
 20
-35.1690304962
 10
-105.9763074898
 20
-35.0710123942
 10
-105.7348912828
 20
-34.9938571536
 10
-105.4958775525
 20
-34.9371915788
 10
-105.2595392112
 20
-34.9017132429
 10
-105.0286896506
 20
-34.8884711082
 10
-104.8055388606
 20
-34.8979608821
 10
-104.5910324103
 20
-34.9302175428
 10
-104.38567305
 20
-34.9853037307
 10
-104.1902939907
 20
-35.0632565637
 10
-104.1492717144
 20
-35.0831718261
  0
LWPOLYLINE
  5
337
100
AcDbEntity
  8
RACCORDO
100
AcDbPolyline
 62
253
  6
CONTINUOUS
 90
13
 70
0
 10
-110.3713368472
 20
-39.7517442057
 10
-110.4508872113
 20
-39.959165954
 10
-110.5264118962
 20
-40.1732810946
 10
-110.5972914708
 20
-40.3940265812
 10
-110.6608474271
 20
-40.6208827099
 10
-110.7176546009
 20
-40.8540090529
 10
-110.7717434984
 20
-41.0941805698
 10
-110.8200513801
 20
-41.3397300291
 10
-110.8618725443
 20
-41.5912984936
 10
-110.9039869675
 20
-41.8523902186
 10
-110.9457319183
 20
-42.1227910829
 10
-110.979128578
 20
-42.3988049352
 10
-111.0010961997
 20
-42.6783581328
  0
LINE
  5
338
100
AcDbEntity
  8
0
100
AcDbLine
 62
7
  6
CONTINUOUS
 10
-110.7491773503
 20
13.1197861139
 11
-99.3996046328
 21
29.6550911241
  0
LINE
  5
339
100
AcDbEntity
  8
0
100
AcDbLine
 62
7
  6
CONTINUOUS
 10
-102.0748175907
 20
28.666148175
 11
-113.5407462495
 21
11.985909241
  0
LINE
  5
33A
100
AcDbEntity
  8
0
100
AcDbLine
 62
7
  6
CONTINUOUS
 10
-99.3996046328
 20
65.3445076743
 11
-111.955944251
 21
59.0663378652
  0
LINE
  5
33B
100
AcDbEntity
  8
0
100
AcDbLine
 62
7
  6
CONTINUOUS
 10
-111.955944251
 20
56.3022216472
 11
-99.3996046328
 21
62.5803914564
  0
LINE
  5
33C
100
AcDbEntity
  8
0
100
AcDbLine
 62
7
  6
CONTINUOUS
 10
-113.5407462495
 20
48.5787355059
 11
-111.955944251
 21
49.3711365052
  0
LINE
  5
33D
100
AcDbEntity
  8
0
100
AcDbLine
 62
7
  6
CONTINUOUS
 10
-99.3996046328
 20
53.0594473286
 11
-100.9852586098
 21
52.2666203401
  0
LINE
  5
33E
100
AcDbEntity
  8
0
100
AcDbLine
 62
7
  6
CONTINUOUS
 10
-111.955944251
 20
46.6919874577
 11
-113.5407462495
 21
45.8995864585
  0
LINE
  5
33F
100
AcDbEntity
  8
0
100
AcDbLine
 62
7
  6
CONTINUOUS
 10
-105.8775634351
 20
48.9469457877
 11
-107.4624871448
 21
48.1544839328
  0
LWPOLYLINE
  5
340
100
AcDbEntity
  8
ASSI
100
AcDbPolyline
 62
7
  6
CONTINUOUS
 90
8
 70
0
 10
-104.0752811719
 20
-80.9780266962
 10
-104.2468562305
 20
-80.9612065985
 10
-104.4239221178
 20
-80.9622362078
 10
-104.6063999905
 20
-80.9808592185
 10
-104.7916443095
 20
-81.016805637
 10
-104.9787732283
 20
-81.0699854651
 10
-105.1686685933
 20
-81.140488701
 10
-105.3613304046
 20
-81.2283153445
  0
LINE
  5
341
100
AcDbEntity
  8
ASSI
100
AcDbLine
 62
7
  6
CONTINUOUS
 10
-103.9091180988
 20
-81.0124401954
 11
-104.0752811719
 21
-80.9780266962
  0
LINE
  5
342
100
AcDbEntity
  8
RACCORDO
100
AcDbLine
 62
7
  6
CONTINUOUS
 10
-130.0670766051
 20
-47.857748571
 11
-128.6528630427
 21
-48.5648553521
  0
LINE
  5
343
100
AcDbEntity
  8
RACCORDO
100
AcDbLine
 62
253
  6
CONTINUOUS
 10
-130.5751478965
 20
-46.9873221139
 11
-129.1609343341
 21
-47.6944288951
  0
LINE
  5
344
100
AcDbEntity
  8
RACCORDO
100
AcDbLine
 62
253
  6
CONTINUOUS
 10
-130.5751478965
 20
-41.1416506384
 11
-129.1609343341
 21
-41.8487574195
  0
LINE
  5
345
100
AcDbEntity
  8
RACCORDO
100
AcDbLine
 62
253
  6
CONTINUOUS
 10
-129.425054694
 20
-39.3569989622
 11
-128.0108411316
 21
-40.0641057434
  0
LINE
  5
346
100
AcDbEntity
  8
0
100
AcDbLine
 62
7
  6
CONTINUOUS
 10
-110.2050118557
 20
-42.3878381421
 11
-109.8514584651
 21
-42.5646148374
  0
LINE
  5
347
100
AcDbEntity
  8
ASSI
100
AcDbLine
 62
7
  6
CONTINUOUS
 10
-123.0920329428
 20
-35.6292187212
 11
-121.6778193804
 21
-36.3363255024
  0
LWPOLYLINE
  5
348
100
AcDbEntity
  8
SMUSSO
100
AcDbPolyline
 62
7
  6
CONTINUOUS
 90
3
 70
0
 10
124.8949993259
 20
-191.1690592048
 10
124.9580644981
 20
-191.2099575426
 10
125.0317365756
 20
-191.2501570248
  0
LWPOLYLINE
  5
349
100
AcDbEntity
  8
SMUSSO
100
AcDbPolyline
 62
7
  6
CONTINUOUS
 90
3
 70
0
 10
125.2216773873
 20
-191.3999711362
 10
125.2595350865
 20
-191.4246994213
 10
125.314579288
 20
-191.4551458301
  0
LWPOLYLINE
  5
34A
100
AcDbEntity
  8
0
100
AcDbPolyline
 62
7
  6
CONTINUOUS
 90
6
 70
0
 10
-102.4445149322
 20
-37.1781258615
 10
-102.3856611178
 20
-37.2258041603
 10
-102.3312718215
 20
-37.2905130091
 10
-102.2813470433
 20
-37.3722524078
 10
-102.2356508495
 20
-37.4716887973
 10
-102.2077322965
 20
-37.5472435196
  0
LWPOLYLINE
  5
34B
100
AcDbEntity
  8
RACCORDO
100
AcDbPolyline
 62
253
  6
CONTINUOUS
 90
10
 70
0
 10
-113.9174374172
 20
-29.6063613761
 10
-113.8971317219
 20
-29.6259382927
 10
-113.8773331669
 20
-29.6504333218
 10
-113.858536203
 20
-29.6792347226
 10
-113.8412102672
 20
-29.7116232064
 10
-113.825788059
 20
-29.7467899004
 10
-113.812654734
 20
-29.7838565488
 10
-113.8021382852
 20
-29.8218974459
 10
-113.7945013512
 20
-29.8599625551
 10
-113.7899346576
 20
-29.8971012352
  0
LWPOLYLINE
  5
34C
100
AcDbEntity
  8
0
100
AcDbPolyline
 62
7
  6
CONTINUOUS
 90
31
 70
0
 10
-102.4445149322
 20
-37.1781258615
 10
-102.5747082198
 20
-37.0048599999
 10
-102.71629735
 20
-36.850503427
 10
-102.8692823229
 20
-36.7150561429
 10
-103.0344670104
 20
-36.5980718749
 10
-103.2110475405
 20
-36.4999968957
 10
-103.3966122972
 20
-36.4221700231
 10
-103.5912844781
 20
-36.3648689882
 10
-103.7949408856
 20
-36.3278160601
 10
-104.0048003105
 20
-36.3115168634
 10
-104.2209478091
 20
-36.3162560523
 10
-104.4432983252
 20
-36.3417489727
 10
-104.6688154806
 20
-36.3876472868
 10
-104.8975426957
 20
-36.4542308653
 10
-105.1294365501
 20
-36.5412198375
 10
-105.3613304046
 20
-36.6474262532
 10
-105.593224259
 20
-36.773113692
 10
-105.8251181134
 20
-36.9180185742
 10
-106.0538453285
 20
-37.0801622108
 10
-106.2793624839
 20
-37.2597810521
 10
-106.501713
 20
-37.4566386478
 10
-106.7178604986
 20
-37.6680469575
 10
-106.9277199235
 20
-37.8942055791
 10
-107.131376331
 20
-38.1349149147
 10
-107.3260485119
 20
-38.3868881304
 10
-107.5116132686
 20
-38.6502797597
 10
-107.6881937987
 20
-38.9249352691
 10
-107.8533784862
 20
-39.2071042246
 10
-108.0063634591
 20
-39.4955364816
 10
-108.1479525893
 20
-39.7914821847
 10
-108.2781458769
 20
-40.0949413339
  0
LWPOLYLINE
  5
34D
100
AcDbEntity
  8
RACCORDO
100
AcDbPolyline
 62
253
  6
CONTINUOUS
 90
34
 70
0
 10
-102.188572119
 20
-35.6607500453
 10
-102.337323138
 20
-35.4220439617
 10
-102.5028362807
 20
-35.2033443583
 10
-102.6842496807
 20
-35.0057163982
 10
-102.8803208485
 20
-34.8303182786
 10
-103.0905178453
 20
-34.6778609761
 10
-103.315171256
 20
-34.548833204
 10
-103.5537627527
 20
-34.4436391669
 10
-103.8047095271
 20
-34.3630668427
 10
-104.066679301
 20
-34.3080462548
 10
-104.3385166547
 20
-34.2790738302
 10
-104.619085064
 20
-34.276386476
 10
-104.9069764985
 20
-34.300164488
 10
-105.2007720595
 20
-34.3500878047
 10
-105.4992171201
 20
-34.4258272736
 10
-105.801046441
 20
-34.5271800575
 10
-106.1049264115
 20
-34.6538618628
 10
-106.4095276904
 20
-34.8054932507
 10
-106.713596734
 20
-34.9814527823
 10
-107.0157943041
 20
-35.1807787015
 10
-107.3147963723
 20
-35.4024384099
 10
-107.6093675533
 20
-35.6453995496
 10
-107.8982698169
 20
-35.9087616733
 10
-108.1800671631
 20
-36.1914044723
 10
-108.4533327454
 20
-36.4916955938
 10
-108.7166122304
 20
-36.8078663734
 10
-108.9691104441
 20
-37.1386114578
 10
-109.210401963
 20
-37.4828437703
 10
-109.4391076106
 20
-37.8388570421
 10
-109.6542166924
 20
-38.205283058
 10
-109.8558549043
 20
-38.5815235727
 10
-110.043399829
 20
-38.9661496491
 10
-110.2155444507
 20
-39.356886412
 10
-110.3713343054
 20
-39.7517565948
  0
LWPOLYLINE
  5
34E
100
AcDbEntity
  8
ASSI
100
AcDbPolyline
 62
7
  6
CONTINUOUS
 90
4
 70
0
 10
-102.3744132074
 20
-37.112302142
 10
-102.5223723911
 20
-36.7921668672
 10
-102.6843142013
 20
-36.4883824707
 10
-102.8345585256
 20
-36.2386421043
  0
LINE
  5
34F
100
AcDbEntity
  8
ASSI
100
AcDbLine
 62
7
  6
CONTINUOUS
 10
-102.3613839565
 20
-37.1454510127
 11
-102.3744132074
 21
-37.112302142
  0
LWPOLYLINE
  5
350
100
AcDbEntity
  8
RACCORDO
100
AcDbPolyline
 62
253
  6
CONTINUOUS
 90
12
 70
0
 10
-102.0053296266
 20
-24.2823420119
 10
-101.9985280812
 20
-24.3011879258
 10
-101.9924018016
 20
-24.3203934555
 10
-101.9868498169
 20
-24.3396790091
 10
-101.9818659937
 20
-24.358988066
 10
-101.9774338744
 20
-24.3783785979
 10
-101.9734427138
 20
-24.3977422915
 10
-101.9698788301
 20
-24.4170503484
 10
-101.9667426875
 20
-24.4363322284
 10
-101.9639488458
 20
-24.4555667461
 10
-101.9614667638
 20
-24.474746903
 10
-101.9593195746
 20
-24.4938799367
  0
LWPOLYLINE
  5
351
100
AcDbEntity
  8
0
100
AcDbPolyline
 62
7
  6
CONTINUOUS
 90
7
 70
0
 10
-102.2077322965
 20
-37.5472435196
 10
-102.1944191737
 20
-37.5881557366
 10
-102.158359817
 20
-37.7196539037
 10
-102.1275620805
 20
-37.866442816
 10
-102.1019366631
 20
-38.028262956
 10
-102.0819234617
 20
-38.2023364487
 10
-102.0676691088
 20
-38.3877373355
  0
LWPOLYLINE
  5
352
100
AcDbEntity
  8
RACCORDO
100
AcDbPolyline
 62
7
  6
CONTINUOUS
 90
8
 70
0
 10
-101.9636259375
 20
-24.3137862128
 10
-101.9840178729
 20
-24.2287360752
 10
-102.0115848391
 20
-24.1476854647
 10
-102.0456235457
 20
-24.0752732668
 10
-102.0860035727
 20
-24.0119502614
 10
-102.1335262737
 20
-23.956846362
 10
-102.1871591369
 20
-23.9114658087
 10
-102.2432455707
 20
-23.8777425761
  0
LINE
  5
353
100
AcDbEntity
  8
RACCORDO
100
AcDbLine
 62
7
  6
CONTINUOUS
 10
-101.9707719337
 20
-92.263063182
 11
-101.9669979857
 21
-92.2411938206
  0
LINE
  5
354
100
AcDbEntity
  8
RACCORDO
100
AcDbLine
 62
253
  6
CONTINUOUS
 10
-101.9755511784
 20
-92.2369172243
 11
-101.9774337801
 21
-92.2477502807
  0
LWPOLYLINE
  5
355
100
AcDbEntity
  8
RACCORDO
100
AcDbPolyline
 62
253
  6
CONTINUOUS
 90
15
 70
0
 10
-101.9774337801
 20
-92.2477502807
 10
-101.9818658981
 20
-92.2716725507
 10
-101.9868497186
 20
-92.2967008336
 10
-101.9924016992
 20
-92.3228854738
 10
-101.998527973
 20
-92.3501687721
 10
-102.0053295106
 20
-92.3785370001
 10
-102.0128221376
 20
-92.4079963127
 10
-102.0210244763
 20
-92.4385293265
 10
-102.030048884
 20
-92.4700847931
 10
-102.03992728
 20
-92.5026943619
 10
-102.0506780015
 20
-92.5363096063
 10
-102.0624013581
 20
-92.5707564903
 10
-102.0751338534
 20
-92.6060496429
 10
-102.0889065527
 20
-92.6421509162
 10
-102.0926172224
 20
-92.6512705711
  0
LWPOLYLINE
  5
356
100
AcDbEntity
  8
0
100
AcDbPolyline
 62
7
  6
CONTINUOUS
 90
34
 70
0
 10
-113.0732099006
 20
-154.0834717039
 10
-113.1094902673
 20
-154.227419815
 10
-113.1441254108
 20
-154.3712468765
 10
-113.1769574561
 20
-154.5148908387
 10
-113.2196407297
 20
-154.7152737035
 10
-113.2587253133
 20
-154.9151022631
 10
-113.2944441931
 20
-155.1143012246
 10
-113.326663711
 20
-155.3105312495
 10
-113.3559890428
 20
-155.506053937
 10
-113.3825872473
 20
-155.7008507588
 10
-113.4066253836
 20
-155.8949031864
 10
-113.4337322985
 20
-156.1404515844
 10
-113.4572332121
 20
-156.3847870203
 10
-113.4773879406
 20
-156.627929005
 10
-113.4944562999
 20
-156.8698970491
 10
-113.5114348205
 20
-157.163553677
 10
-113.5244149669
 20
-157.4555328545
 10
-113.5336058686
 20
-157.7458755732
 10
-113.5392166552
 20
-158.0346228245
 10
-113.5414564564
 20
-158.3218156002
 10
-113.5405344017
 20
-158.6074948917
 10
-113.5366596207
 20
-158.8917016906
 10
-113.530041243
 20
-159.1744769885
 10
-113.5208883981
 20
-159.4558617768
 10
-113.5056197507
 20
-159.8170591362
 10
-113.4866438811
 20
-160.1760757216
 10
-113.464127504
 20
-160.5329790118
 10
-113.4382373337
 20
-160.8878364859
 10
-113.4091400847
 20
-161.2407156226
 10
-113.3770024714
 20
-161.5916839009
 10
-113.3419912084
 20
-161.9408087997
 10
-113.30427301
 20
-162.2881577977
 10
-113.2640145907
 20
-162.6337983739
 10
-113.2213826649
 20
-162.9777980072
  0
LINE
  5
357
100
AcDbEntity
  8
RACCORDO
100
AcDbLine
 62
253
  6
CONTINUOUS
 10
-110.8927982431
 20
-91.1907777623
 11
-110.7089179156
 21
-90.4620194363
  0
LWPOLYLINE
  5
358
100
AcDbEntity
  8
RACCORDO
100
AcDbPolyline
 62
253
  6
CONTINUOUS
 90
6
 70
0
 10
-110.7089179156
 20
-90.4620194363
 10
-110.5934352019
 20
-90.0063047277
 10
-110.5370378809
 20
-89.7865143174
 10
-110.4811273915
 20
-89.5716531741
 10
-110.4259351094
 20
-89.3620408812
 10
-110.3714745497
 20
-89.1577290965
  0
LWPOLYLINE
  5
359
100
AcDbEntity
  8
RACCORDO
100
AcDbPolyline
 62
253
  6
CONTINUOUS
 90
21
 70
0
 10
-112.8135158703
 20
-98.439874373
 10
-112.6897559667
 20
-97.9908793037
 10
-112.5697619463
 20
-97.5537591048
 10
-112.4534403875
 20
-97.128280065
 10
-112.3407182864
 20
-96.7143248152
 10
-112.2314949867
 20
-96.3115677857
 10
-112.1256406408
 20
-95.9194711139
 10
-112.0230491474
 20
-95.537683273
 10
-111.9236739138
 20
-95.1661505489
 10
-111.82747781
 20
-94.8047867562
 10
-111.7344112349
 20
-94.4534315936
 10
-111.6443899418
 20
-94.1118771538
 10
-111.5573307653
 20
-93.7799794332
 10
-111.4732147992
 20
-93.4576800686
 10
-111.3919492024
 20
-93.1447210829
 10
-111.3133507991
 20
-92.8406887562
 10
-111.2374243309
 20
-92.5455993488
 10
-111.1640778752
 20
-92.2591846017
 10
-111.0929989067
 20
-91.98064941
 10
-111.0241850381
 20
-91.7099473088
 10
-110.8927982431
 20
-91.1907777623
  0
LWPOLYLINE
  5
35A
100
AcDbEntity
  8
RACCORDO
100
AcDbPolyline
 62
253
  6
CONTINUOUS
 90
31
 70
0
 10
-114.2719400535
 20
-92.9620616396
 10
-114.1484339873
 20
-92.6505878411
 10
-114.026654562
 20
-92.3473409753
 10
-113.9066017775
 20
-92.0523210423
 10
-113.7883886605
 20
-91.7658657866
 10
-113.6719021843
 20
-91.4876374636
 10
-113.5568032691
 20
-91.2166228398
 10
-113.4430866432
 20
-90.9527696906
 10
-113.3307575782
 20
-90.6961302405
 10
-113.2194928099
 20
-90.4458479291
 10
-113.1092989264
 20
-90.2018917257
 10
-113.0001693394
 20
-89.964292661
 10
-112.8917610196
 20
-89.7322872663
 10
-112.7840622785
 20
-89.5058009901
 10
-112.6770848045
 20
-89.2849083841
 10
-112.5705206338
 20
-89.0690696341
 10
-112.4642128551
 20
-88.8579629836
 10
-112.3583183797
 20
-88.6519101891
 10
-112.2529999772
 20
-88.4513367064
 10
-112.148215422
 20
-88.2562248887
 10
-112.0440069396
 20
-88.0665923827
 10
-111.9406639759
 20
-87.8829175842
 10
-111.8383992499
 20
-87.7056618807
 10
-111.7370000425
 20
-87.5343638846
 10
-111.636117642
 20
-87.3681178292
 10
-111.536282372
 20
-87.2078183297
 10
-111.4369639089
 20
-87.0525707709
 10
-111.3362225696
 20
-86.89878554
 10
-111.2334117933
 20
-86.7452660993
 10
-111.1291781409
 20
-86.5932089865
 10
-111.0235216123
 20
-86.4426142016
  0
LWPOLYLINE
  5
35B
100
AcDbEntity
  8
RACCORDO
100
AcDbPolyline
 62
253
  6
CONTINUOUS
 90
16
 70
0
 10
-102.1886179435
 20
-35.6606245626
 10
-102.2181017173
 20
-35.7249362157
 10
-102.2566416272
 20
-35.7877063858
 10
-102.3035728423
 20
-35.8478520842
 10
-102.3580857678
 20
-35.9043355964
 10
-102.4192400114
 20
-35.9561823845
 10
-102.4859806064
 20
-36.0024979006
 10
-102.5571562129
 20
-36.0424830179
 10
-102.6315389803
 20
-36.0754478175
 10
-102.7078457289
 20
-36.1008234913
 10
-102.7847600877
 20
-36.1181721559
 10
-102.8609552038
 20
-36.1271944057
 10
-102.9351166331
 20
-36.1277344788
 10
-103.0059650162
 20
-36.1197829458
 10
-103.0722781499
 20
-36.1034768723
 10
-103.1329120722
 20
-36.0790974541
  0
LINE
  5
35C
100
AcDbEntity
  8
0
100
AcDbLine
 62
7
  6
CONTINUOUS
 10
-101.9318625158
 20
-38.6048168628
 11
-102.0559970512
 21
-38.7952991671
  0
LINE
  5
35D
100
AcDbEntity
  8
0
100
AcDbLine
 62
7
  6
CONTINUOUS
 10
-123.6223630287
 20
-37.3085973265
 11
-129.6327706688
 21
-44.53567499
  0
LINE
  5
35E
100
AcDbEntity
  8
0
100
AcDbLine
 62
7
  6
CONTINUOUS
 10
-100.9852586098
 20
40.5941434812
 11
-105.8775634351
 21
38.1479910686
  0
LINE
  5
35F
100
AcDbEntity
  8
0
100
AcDbLine
 62
7
  6
CONTINUOUS
 10
-107.4624871448
 20
37.3555292138
 11
-111.955944251
 21
35.1088006606
  0
LINE
  5
360
100
AcDbEntity
  8
0
100
AcDbLine
 62
7
  6
CONTINUOUS
 10
-113.5407462495
 20
31.5488549435
 11
-99.3996046328
 21
38.6194257519
  0
LINE
  5
361
100
AcDbEntity
  8
0
100
AcDbLine
 62
7
  6
CONTINUOUS
 10
-99.3996046328
 20
32.682605571
 11
-113.5407462495
 21
25.6120347626
  0
LINE
  5
362
100
AcDbEntity
  8
0
100
AcDbLine
 62
7
  6
CONTINUOUS
 10
-113.5407462495
 20
22.9882634413
 11
-102.0748175907
 21
28.7212277706
  0
LWPOLYLINE
  5
363
100
AcDbEntity
  8
RACCORDO
100
AcDbPolyline
 62
253
  6
CONTINUOUS
 90
3
 70
0
 10
-113.7899336938
 20
-98.8095532555
 10
-113.8437974853
 20
-98.8226053213
 10
-113.8953253592
 20
-98.8320313299
  0
LWPOLYLINE
  5
364
100
AcDbEntity
  8
RACCORDO
100
AcDbPolyline
 62
7
  6
CONTINUOUS
 90
3
 70
0
 10
-113.9876944692
 20
-98.9427637613
 10
-113.8994834238
 20
-98.9259076238
 10
-113.845477588
 20
-98.9112900134
  0
LWPOLYLINE
  5
365
100
AcDbEntity
  8
RACCORDO
100
AcDbPolyline
 62
253
  6
CONTINUOUS
 90
4
 70
0
 10
-113.8953253592
 20
-98.8320313299
 10
-113.9444731743
 20
-98.8378687169
 10
-113.9911725841
 20
-98.8398538355
 10
-114.0354124734
 20
-98.8383209425
  0
LWPOLYLINE
  5
366
100
AcDbEntity
  8
RACCORDO
100
AcDbPolyline
 62
253
  6
CONTINUOUS
 90
13
 70
0
 10
-111.0010405239
 20
-86.7339342058
 10
-110.9335118395
 20
-86.7285490411
 10
-110.8674702362
 20
-86.7189027448
 10
-110.8040053306
 20
-86.7051544839
 10
-110.7441642266
 20
-86.6875311034
 10
-110.6889342388
 20
-86.6663233842
 10
-110.6392266033
 20
-86.6418812448
 10
-110.595861443
 20
-86.6146079687
 10
-110.5595542367
 20
-86.5849535503
 10
-110.5309040141
 20
-86.5534072706
 10
-110.5103834728
 20
-86.5204896244
 10
-110.498331179
 20
-86.4867437331
 10
-110.4948973321
 20
-86.4552532621
  0
LWPOLYLINE
  5
367
100
AcDbEntity
  8
RACCORDO
100
AcDbPolyline
 62
253
  6
CONTINUOUS
 90
13
 70
0
 10
-111.0235159711
 20
-86.4427565171
 10
-110.9543492525
 20
-86.4401598085
 10
-110.8864456524
 20
-86.4330899724
 10
-110.8209572819
 20
-86.4216669383
 10
-110.7589952735
 20
-86.4060844953
 10
-110.7016109281
 20
-86.3866070047
 10
-110.6497778782
 20
-86.3635649141
 10
-110.604375568
 20
-86.337349151
 10
-110.5661743325
 20
-86.30840449
 10
-110.5358223269
 20
-86.2772220065
 10
-110.5138345295
 20
-86.2443307443
 10
-110.5005840043
 20
-86.21028874
 10
-110.4962926569
 20
-86.1765596422
  0
LINE
  5
368
100
AcDbEntity
  8
0
100
AcDbLine
 62
7
  6
CONTINUOUS
 10
-123.6223630287
 20
-45.7523450134
 11
-129.6327706688
 21
-44.53567499
  0
LINE
  5
369
100
AcDbEntity
  8
ASSI
100
AcDbLine
 62
7
  6
CONTINUOUS
 10
-110.4962951705
 20
-45.1284816563
 11
-110.3840877433
 21
-45.1767867643
  0
LWPOLYLINE
  5
36A
100
AcDbEntity
  8
ASSI
100
AcDbPolyline
 62
7
  6
CONTINUOUS
 90
21
 70
0
 10
-115.188265411
 20
-30.4871744144
 10
-115.3049018883
 20
-30.4347710594
 10
-115.4607671677
 20
-30.3802189031
 10
-115.6223976559
 20
-30.3393517794
 10
-115.789741429
 20
-30.3120464394
 10
-115.9612822944
 20
-30.2985503001
 10
-116.1370583961
 20
-30.2989888595
 10
-116.31703159
 20
-30.3132366196
 10
-116.4995712504
 20
-30.3411645035
 10
-116.6847032891
 20
-30.3828983914
 10
-116.8724017943
 20
-30.438312403
 10
-117.0609584047
 20
-30.5068998213
 10
-117.2503788802
 20
-30.5887808595
 10
-117.4406574608
 20
-30.6838353043
 10
-117.6300685054
 20
-30.7911957995
 10
-117.8186017684
 20
-30.9109724638
 10
-118.0062674954
 20
-31.0430551784
 10
-118.1913707821
 20
-31.1862462297
 10
-118.3733466603
 20
-31.3401463797
 10
-118.5527600982
 20
-31.5051548664
 10
-118.7296110957
 20
-31.6812716898
  0
LWPOLYLINE
  5
36B
100
AcDbEntity
  8
RACCORDO
100
AcDbPolyline
 62
253
  6
CONTINUOUS
 90
10
 70
0
 10
-114.451192477
 20
-36.449745203
 10
-114.4348969587
 20
-36.4572024338
 10
-114.4173497455
 20
-36.4639108976
 10
-114.3986880939
 20
-36.4698183936
 10
-114.3790579535
 20
-36.4748789825
 10
-114.3586126882
 20
-36.4790533769
 10
-114.3375118588
 20
-36.4823092237
 10
-114.3159201682
 20
-36.4846213143
 10
-114.2940061911
 20
-36.4859717987
 10
-114.2719409105
 20
-36.4863503419
  0
LINE
  5
36C
100
AcDbEntity
  8
ASSI
100
AcDbLine
 62
7
  6
CONTINUOUS
 10
-120.0868291228
 20
-33.0878282223
 11
-118.6726155604
 21
-33.7949350035
  0
LINE
  5
36D
100
AcDbEntity
  8
ASSI
100
AcDbLine
 62
253
  6
CONTINUOUS
 10
-118.7296110957
 20
-31.6812716898
 11
-117.3153975333
 21
-32.388378471
  0
LINE
  5
36E
100
AcDbEntity
  8
0
100
AcDbLine
 62
7
  6
CONTINUOUS
 10
-102.0610008201
 20
-38.5402477107
 11
-101.9318625158
 21
-38.6048168628
  0
LINE
  5
36F
100
AcDbEntity
  8
RACCORDO
100
AcDbLine
 62
253
  6
CONTINUOUS
 10
-115.190114663
 20
-30.5431549381
 11
-114.7423408733
 21
-30.767041833
  0
LINE
  5
370
100
AcDbEntity
  8
RACCORDO
100
AcDbLine
 62
253
  6
CONTINUOUS
 10
-114.4830078819
 20
-29.3235761437
 11
-113.9174374172
 21
-29.6063613761
  0
LINE
  5
371
100
AcDbEntity
  8
RACCORDO
100
AcDbLine
 62
253
  6
CONTINUOUS
 10
-102.6037289135
 20
-23.9495071289
 11
-103.1692993829
 21
-23.6667218943
  0
LINE
  5
372
100
AcDbEntity
  8
RACCORDO
100
AcDbLine
 62
7
  6
CONTINUOUS
 10
-102.2423274378
 20
-23.8781992818
 11
-102.7220857874
 21
-23.638320107
  0
LWPOLYLINE
  5
373
100
AcDbEntity
  8
RACCORDO
100
AcDbPolyline
 62
253
  6
CONTINUOUS
 90
10
 70
0
 10
-103.3283444299
 20
-24.4151801513
 10
-103.3014638576
 20
-24.4310258401
 10
-103.2752040756
 20
-24.4515053576
 10
-103.2501714997
 20
-24.4761457712
 10
-103.2269442062
 20
-24.5043780609
 10
-103.2060585817
 20
-24.5355502596
 10
-103.1879969372
 20
-24.5689425091
 10
-103.1731763692
 20
-24.6037836835
 10
-103.1619391285
 20
-24.6392691971
 10
-103.154544716
 20
-24.6745795845
  0
LWPOLYLINE
  5
374
100
AcDbEntity
  8
RACCORDO
100
AcDbPolyline
 62
253
  6
CONTINUOUS
 90
10
 70
0
 10
-112.9860913303
 20
-29.2440536275
 10
-112.9594001619
 20
-29.2599939175
 10
-112.9333253785
 20
-29.2805659236
 10
-112.9084691308
 20
-29.3052945719
 10
-112.8854054297
 20
-29.3336087982
 10
-112.8646668904
 20
-29.3648547359
 10
-112.8467324325
 20
-29.3983108155
 10
-112.8320162204
 20
-29.4332044284
 10
-112.820858099
 20
-29.4687297687
 10
-112.813515745
 20
-29.5040664419
  0
LINE
  5
375
100
AcDbEntity
  8
SMUSSO
100
AcDbLine
 62
7
  6
CONTINUOUS
 10
125.2215979582
 20
-191.3999993125
 11
124.8949993259
 21
-191.1690592048
  0
LWPOLYLINE
  5
376
100
AcDbEntity
  8
RACCORDO
100
AcDbPolyline
 62
7
  6
CONTINUOUS
 90
7
 70
0
 10
-102.0985651156
 20
-92.6958323344
 10
-102.0915621899
 20
-92.6793827526
 10
-102.0605695732
 20
-92.5968102625
 10
-102.0329797022
 20
-92.5131216973
 10
-102.008814528
 20
-92.4290887251
 10
-101.9880685282
 20
-92.3454342471
 10
-101.9707719337
 20
-92.263063182
  0
LWPOLYLINE
  5
377
100
AcDbEntity
  8
0
100
AcDbPolyline
 62
7
  6
CONTINUOUS
 90
9
 70
0
 10
-104.5304799367
 20
-83.5730176145
 10
-104.4117914194
 20
-83.3456497845
 10
-104.2808303536
 20
-83.1349817692
 10
-104.1375967394
 20
-82.9410135687
 10
-103.9815353216
 20
-82.7632137895
 10
-103.8132013554
 20
-82.6021138251
 10
-103.6342606058
 20
-82.4593078558
 10
-103.444607765
 20
-82.3349775108
 10
-103.2958431973
 20
-82.2539499588
  0
LWPOLYLINE
  5
378
100
AcDbEntity
  8
ASSI
100
AcDbPolyline
 62
7
  6
CONTINUOUS
 90
9
 70
0
 10
-96.3280412749
 20
-92.4012127228
 10
-96.4467297922
 20
-92.6285805528
 10
-96.5776908579
 20
-92.8392485681
 10
-96.7209244721
 20
-93.0332167686
 10
-96.8769858899
 20
-93.2110165478
 10
-97.0453198562
 20
-93.3721165122
 10
-97.2242606058
 20
-93.5149224814
 10
-97.4139134465
 20
-93.6392528264
 10
-97.5626780142
 20
-93.7202803785
  0
LWPOLYLINE
  5
379
100
AcDbEntity
  8
0
100
AcDbPolyline
 62
7
  6
CONTINUOUS
 90
7
 70
0
 10
127.150842053
 20
303.1865857625
 10
127.1713251074
 20
303.220986446
 10
127.187951951
 20
303.2557914106
 10
127.2006875212
 20
303.2910043323
 10
127.2095668806
 20
303.3266215352
 10
127.2145095379
 20
303.3623201498
 10
127.2156072489
 20
303.389181381
  0
LINE
  5
37A
100
AcDbEntity
  8
ASSI
100
AcDbLine
 62
7
  6
CONTINUOUS
 10
-120.0868291228
 20
-33.0878282223
 11
-118.7296110957
 21
-31.6812716898
  0
LINE
  5
37B
100
AcDbEntity
  8
ASSI
100
AcDbLine
 62
7
  6
CONTINUOUS
 10
-118.6726155604
 20
-33.7949350035
 11
-117.3153975333
 21
-32.388378471
  0
LWPOLYLINE
  5
37C
100
AcDbEntity
  8
ASSI
100
AcDbPolyline
 62
7
  6
CONTINUOUS
 90
4
 70
0
 10
-117.3153975333
 20
-32.388378471
 10
-117.1384797466
 20
-32.2121998699
 10
-116.9590040414
 20
-32.0471409796
 10
-116.7897496
 20
-31.9040086874
  0
LINE
  5
37D
100
AcDbEntity
  8
0
100
AcDbLine
 62
7
  6
CONTINUOUS
 10
-99.3996046328
 20
18.7365861053
 11
-110.7491773503
 21
13.0617997466
  0
LINE
  5
37E
100
AcDbEntity
  8
0
100
AcDbLine
 62
7
  6
CONTINUOUS
 10
-113.5407462495
 20
9.0464923342
 11
-99.3996046328
 21
16.1170631426
  0
LWPOLYLINE
  5
37F
100
AcDbEntity
  8
0
100
AcDbPolyline
 62
7
  6
CONTINUOUS
 90
7
 70
0
 10
-109.4704938566
 20
-42.5025475698
 10
-109.5948659419
 20
-42.4866402595
 10
-109.7184570598
 20
-42.4694485782
 10
-109.8412672101
 20
-42.4509725258
 10
-109.9632963928
 20
-42.4312121023
 10
-110.084544608
 20
-42.4101673078
 10
-110.2050118557
 20
-42.3878381421
  0
LWPOLYLINE
  5
380
100
AcDbEntity
  8
RACCORDO
100
AcDbPolyline
 62
253
  6
CONTINUOUS
 90
10
 70
0
 10
-110.3713509699
 20
-39.7518326828
 10
-110.3039520185
 20
-39.7677618778
 10
-110.2421107255
 20
-39.7803923409
 10
-110.1868935983
 20
-39.7895063418
 10
-110.1392529082
 20
-39.794946796
 10
-110.1000102696
 20
-39.7966199752
 10
-110.0698424704
 20
-39.7944971242
 10
-110.0492697993
 20
-39.7886149531
 10
-110.0386470736
 20
-39.7790750047
 10
-110.0379581552
 20
-39.7774324535
  0
LWPOLYLINE
  5
381
100
AcDbEntity
  8
RACCORDO
100
AcDbPolyline
 62
253
  6
CONTINUOUS
 90
10
 70
0
 10
-114.7423407295
 20
-30.767041761
 10
-114.7187685003
 20
-30.7744729558
 10
-114.6927504573
 20
-30.7803744527
 10
-114.6647019624
 20
-30.7846520381
 10
-114.6350707924
 20
-30.7872374229
 10
-114.6043299903
 20
-30.7880893331
 10
-114.5729703141
 20
-30.7871941684
 10
-114.5414924014
 20
-30.7845662195
 10
-114.5103987775
 20
-30.7802474401
 10
-114.4801858328
 20
-30.7743067765
  0
LWPOLYLINE
  5
382
100
AcDbEntity
  8
RACCORDO
100
AcDbPolyline
 62
253
  6
CONTINUOUS
 90
10
 70
0
 10
-102.6037289132
 20
-23.9495233276
 10
-102.569984173
 20
-23.962379289
 10
-102.5370821535
 20
-23.9803206874
 10
-102.5058444833
 20
-24.0028994916
 10
-102.477051229
 20
-24.0295518652
 10
-102.4514214153
 20
-24.0596122471
 10
-102.42959507
 20
-24.0923299714
 10
-102.4121172406
 20
-24.1268880135
 10
-102.399424384
 20
-24.1624233924
 10
-102.3918334672
 20
-24.1980487214
  0
LWPOLYLINE
  5
383
100
AcDbEntity
  8
ASSI
100
AcDbPolyline
 62
7
  6
CONTINUOUS
 90
9
 70
0
 10
-94.4542083048
 20
-91.4642962377
 10
-94.572896822
 20
-91.6916640677
 10
-94.7038578878
 20
-91.902332083
 10
-94.847091502
 20
-92.0963002835
 10
-95.0031529198
 20
-92.2741000627
 10
-95.171486886
 20
-92.4352000271
 10
-95.3504276356
 20
-92.5780059964
 10
-95.5400804764
 20
-92.7023363413
 10
-95.6888450441
 20
-92.7833638934
  0
LWPOLYLINE
  5
384
100
AcDbEntity
  8
RACCORDO
100
AcDbPolyline
 62
253
  6
CONTINUOUS
 90
22
 70
0
 10
-102.3918289339
 20
-24.1980494066
 10
-102.3592227911
 20
-24.1743685155
 10
-102.3283162717
 20
-24.1546318287
 10
-102.2990516624
 20
-24.1388528383
 10
-102.2713292673
 20
-24.1273792119
 10
-102.2451381378
 20
-24.119887725
 10
-102.2205477586
 20
-24.1153847134
 10
-102.1975305444
 20
-24.1138156062
 10
-102.175994611
 20
-24.1152556028
 10
-102.1559071124
 20
-24.118904657
 10
-102.1372423588
 20
-24.1247111626
 10
-102.1199177369
 20
-24.1327423825
 10
-102.1038205595
 20
-24.1423747387
 10
-102.0889068112
 20
-24.1535732844
 10
-102.0751340862
 20
-24.1663837534
 10
-102.0624015676
 20
-24.1803018227
 10
-102.0506781892
 20
-24.1953058095
 10
-102.0399274484
 20
-24.2114246644
 10
-102.0300490355
 20
-24.2282286978
 10
-102.0210246137
 20
-24.2456876231
 10
-102.0128222632
 20
-24.2638363587
 10
-102.0053296266
 20
-24.2823420119
  0
LINE
  5
385
100
AcDbEntity
  8
ASSI
100
AcDbLine
 62
7
  6
CONTINUOUS
 10
-119.9172308677
 20
-40.9587434233
 11
-118.7624466783
 21
-40.1375037401
  0
LINE
  5
386
100
AcDbEntity
  8
ASSI
100
AcDbLine
 62
7
  6
CONTINUOUS
 10
-120.9247238154
 20
-44.2444995566
 11
-121.6778193804
 21
-44.7800731893
  0
LWPOLYLINE
  5
387
100
AcDbEntity
  8
RACCORDO
100
AcDbPolyline
 62
253
  6
CONTINUOUS
 90
12
 70
0
 10
-102.6037289135
 20
-23.9495071289
 10
-102.5594471871
 20
-23.9196914581
 10
-102.5169214789
 20
-23.8959690264
 10
-102.4763954157
 20
-23.8779115409
 10
-102.4381642986
 20
-23.8650728988
 10
-102.4022396699
 20
-23.8569566275
 10
-102.3683773637
 20
-23.8531178466
 10
-102.336602933
 20
-23.8531657096
 10
-102.3069770753
 20
-23.8567023459
 10
-102.2792960763
 20
-23.8634069131
 10
-102.2535406135
 20
-23.8729473535
 10
-102.2432368392
 20
-23.8777469549
  0
LINE
  5
388
100
AcDbEntity
  8
RACCORDO
100
AcDbLine
 62
7
  6
CONTINUOUS
 10
-129.425054694
 20
-39.3569989622
 11
-125.7277807556
 21
-37.0354949652
  0
LINE
  5
389
100
AcDbEntity
  8
RACCORDO
100
AcDbLine
 62
7
  6
CONTINUOUS
 10
-128.0108411316
 20
-40.0641057434
 11
-123.6223630287
 21
-37.3085973265
  0
LINE
  5
38A
100
AcDbEntity
  8
RACCORDO
100
AcDbLine
 62
7
  6
CONTINUOUS
 10
-128.0108411316
 20
-48.5078534303
 11
-123.6223630287
 21
-45.7523450134
  0
LWPOLYLINE
  5
38B
100
AcDbEntity
  8
RACCORDO
100
AcDbPolyline
 62
253
  6
CONTINUOUS
 90
10
 70
0
 10
-103.3283444299
 20
-24.4151801513
 10
-103.237789286
 20
-24.3683583929
 10
-103.1496754986
 20
-24.3202700509
 10
-103.0640030677
 20
-24.2709151255
 10
-102.9806796989
 20
-24.2202447347
 10
-102.8997976866
 20
-24.1683077605
 10
-102.8216339136
 20
-24.1152508483
 10
-102.7462806742
 20
-24.0611228798
 10
-102.6736456742
 20
-24.0058749734
 10
-102.6037289135
 20
-23.9495071289
  0
LWPOLYLINE
  5
38C
100
AcDbEntity
  8
RACCORDO
100
AcDbPolyline
 62
253
  6
CONTINUOUS
 90
4
 70
0
 10
-104.7415717915
 20
-25.1271002752
 10
-104.0063919446
 20
-24.7567206009
 10
-103.6602285322
 20
-24.5823512135
 10
-103.3283444299
 20
-24.4151801513
  0
LWPOLYLINE
  5
38D
100
AcDbEntity
  8
RACCORDO
100
AcDbPolyline
 62
253
  6
CONTINUOUS
 90
10
 70
0
 10
-103.1545429547
 20
-24.6745800251
 10
-103.0592626809
 20
-24.6266447077
 10
-102.9664423789
 20
-24.5774094447
 10
-102.8761582691
 20
-24.5268867535
 10
-102.7884838169
 20
-24.4750688092
 10
-102.7034938252
 20
-24.4219900469
 10
-102.6212639721
 20
-24.3677273477
 10
-102.5418653643
 20
-24.312316473
 10
-102.4653648696
 20
-24.2557518704
 10
-102.3918289339
 20
-24.1980494066
  0
LINE
  5
38E
100
AcDbEntity
  8
RACCORDO
100
AcDbLine
 62
253
  6
CONTINUOUS
 10
-111.3877631036
 20
-28.7872883546
 11
-110.2100145239
 21
-28.1949638114
  0
LWPOLYLINE
  5
38F
100
AcDbEntity
  8
RACCORDO
100
AcDbPolyline
 62
253
  6
CONTINUOUS
 90
3
 70
0
 10
-112.8135158366
 20
-29.5040664121
 10
-112.4721448067
 20
-29.3326862206
 10
-111.3877631036
 20
-28.7872883546
  0
LWPOLYLINE
  5
390
100
AcDbEntity
  8
RACCORDO
100
AcDbPolyline
 62
253
  6
CONTINUOUS
 90
3
 70
0
 10
-110.2100145239
 20
-28.1949638114
 10
-108.9345344298
 20
-27.5543702152
 10
-108.4880731287
 20
-27.3306917592
  0
LINE
  5
391
100
AcDbEntity
  8
RACCORDO
100
AcDbLine
 62
7
  6
CONTINUOUS
 10
-114.4830078819
 20
-29.3235761437
 11
-103.1692993829
 21
-23.6667218943
  0
LWPOLYLINE
  5
392
100
AcDbEntity
  8
RACCORDO
100
AcDbPolyline
 62
253
  6
CONTINUOUS
 90
3
 70
0
 10
-108.4880731287
 20
-27.3306917592
 10
-107.5775749032
 20
-26.8752799049
 10
-107.1138529507
 20
-26.6438429823
  0
LINE
  5
393
100
AcDbEntity
  8
RACCORDO
100
AcDbLine
 62
7
  6
CONTINUOUS
 10
-123.0920329428
 20
-35.6292187212
 11
-124.2369769335
 21
-36.2016907165
  0
LINE
  5
394
100
AcDbEntity
  8
0
100
AcDbLine
 62
7
  6
CONTINUOUS
 10
-123.6223630287
 20
-37.3085973265
 11
-121.6778193804
 21
-36.3363255024
  0
LWPOLYLINE
  5
395
100
AcDbEntity
  8
RACCORDO
100
AcDbPolyline
 62
253
  6
CONTINUOUS
 90
8
 70
0
 10
-108.6568941644
 20
-27.0928710121
 10
-108.205579007
 20
-26.8674680033
 10
-107.7468031338
 20
-26.6378964702
 10
-107.2833472148
 20
-26.4056240642
 10
-106.828949033
 20
-26.1776194846
 10
-106.3864624173
 20
-25.9552747218
 10
-105.9530335389
 20
-25.7371977853
 10
-104.7415717915
 20
-25.1271002752
  0
LWPOLYLINE
  5
396
100
AcDbEntity
  8
RACCORDO
100
AcDbPolyline
 62
253
  6
CONTINUOUS
 90
3
 70
0
 10
-109.965007261
 20
-27.744382013
 10
-109.5400885682
 20
-27.5330086662
 10
-108.6568941644
 20
-27.0928710121
  0
LWPOLYLINE
  5
397
100
AcDbEntity
  8
RACCORDO
100
AcDbPolyline
 62
253
  6
CONTINUOUS
 90
3
 70
0
 10
-107.1138529507
 20
-26.6438429823
 10
-105.3623738115
 20
-25.7722689846
 10
-104.1939974373
 20
-25.1915160194
  0
LWPOLYLINE
  5
398
100
AcDbEntity
  8
RACCORDO
100
AcDbPolyline
 62
253
  6
CONTINUOUS
 90
3
 70
0
 10
-104.1939974373
 20
-25.1915160194
 10
-103.8332774251
 20
-25.0123174474
 10
-103.154543161
 20
-24.674580088
  0
LWPOLYLINE
  5
399
100
AcDbEntity
  8
RACCORDO
100
AcDbPolyline
 62
253
  6
CONTINUOUS
 90
7
 70
0
 10
-112.9860913303
 20
-29.2440536084
 10
-112.6444754672
 20
-29.0745017826
 10
-112.2926942444
 20
-28.8999104312
 10
-111.9307476616
 20
-28.7202795541
 10
-111.5588396836
 20
-28.5357445435
 10
-111.1767663456
 20
-28.3461700072
 10
-109.965007261
 20
-27.744382013
  0
LWPOLYLINE
  5
39A
100
AcDbEntity
  8
RACCORDO
100
AcDbPolyline
 62
7
  6
CONTINUOUS
 90
9
 70
0
 10
-103.1692993829
 20
-23.6667218943
 10
-103.1081073664
 20
-23.6392399519
 10
-103.0478258444
 20
-23.6186998901
 10
-102.988454817
 20
-23.6051017089
 10
-102.9293230794
 20
-23.5984099253
 10
-102.8711018365
 20
-23.5986600222
 10
-102.8158047019
 20
-23.6059584482
 10
-102.7638213779
 20
-23.6205124451
 10
-102.7220989865
 20
-23.6383465059
  0
LINE
  5
39B
100
AcDbEntity
  8
0
100
AcDbLine
 62
7
  6
CONTINUOUS
 10
-109.8514584651
 20
-42.5646148374
 11
-109.4704938566
 21
-42.5025475698
  0
LWPOLYLINE
  5
39C
100
AcDbEntity
  8
RACCORDO
100
AcDbPolyline
 62
253
  6
CONTINUOUS
 90
13
 70
0
 10
-111.0235148756
 20
-42.9734625195
 10
-110.9543480969
 20
-42.9708587178
 10
-110.8864445861
 20
-42.9637818768
 10
-110.8209564293
 20
-42.9523520417
 10
-110.7589947323
 20
-42.9367631129
 10
-110.7016107693
 20
-42.9172795558
 10
-110.6497781464
 20
-42.8942319144
 10
-110.6043762826
 20
-42.8680112028
 10
-110.5661754893
 20
-42.8390622707
 10
-110.535823901
 20
-42.8078762565
 10
-110.5138364785
 20
-42.7749822541
 10
-110.5005862717
 20
-42.7409383358
 10
-110.4962951705
 20
-42.7072038366
  0
LWPOLYLINE
  5
39D
100
AcDbEntity
  8
RACCORDO
100
AcDbPolyline
 62
253
  6
CONTINUOUS
 90
13
 70
0
 10
-111.0010962517
 20
-42.6783575548
 10
-110.933563831
 20
-42.6764778105
 10
-110.8675185606
 20
-42.6702593096
 10
-110.8040501184
 20
-42.6598046527
 10
-110.7442056674
 20
-42.6452863325
 10
-110.6889725783
 20
-42.6269438877
 10
-110.6392621395
 20
-42.6050799514
 10
-110.5958945212
 20
-42.5800552574
 10
-110.5595852438
 20
-42.5522826888
 10
-110.5309333726
 20
-42.5222204658
 10
-110.5104116336
 20
-42.4903645854
 10
-110.4983586141
 20
-42.4572406382
 10
-110.4949250912
 20
-42.4285445067
  0
LWPOLYLINE
  5
39E
100
AcDbEntity
  8
0
100
AcDbPolyline
 62
7
  6
CONTINUOUS
 90
34
 70
0
 10
-105.7855944733
 20
-82.8062031699
 10
-105.9149167508
 20
-82.9193245864
 10
-106.0391974887
 20
-83.0413760425
 10
-106.1584366872
 20
-83.1723575381
 10
-106.2733248047
 20
-83.3132104682
 10
-106.3831713827
 20
-83.4629934379
 10
-106.4859050453
 20
-83.6188822629
 10
-106.581390841
 20
-83.7809928325
 10
-106.6697637214
 20
-83.9492092573
 10
-106.7493571654
 20
-84.1203596847
 10
-106.8200045927
 20
-84.2944998211
 10
-106.8818725836
 20
-84.4715739599
 10
-106.9337943578
 20
-84.6482431289
 10
-106.9755811846
 20
-84.8244997043
 10
-107.0074217948
 20
-85.0003513099
 10
-107.0287156002
 20
-85.1724818443
 10
-107.039262405
 20
-85.3408208281
 10
-107.039262405
 20
-85.5054387407
 10
-107.0287156002
 20
-85.6632309198
 10
-107.0074217948
 20
-85.8140676487
 10
-106.9755811846
 20
-85.9580786441
 10
-106.9337943578
 20
-86.0925483927
 10
-106.8818725836
 20
-86.2172957874
 10
-106.8200045927
 20
-86.3325019354
 10
-106.7493571654
 20
-86.4359946445
 10
-106.6697637214
 20
-86.5275516279
 10
-106.581390841
 20
-86.6073951723
 10
-106.4859050453
 20
-86.6740199462
 10
-106.3831713827
 20
-86.7271751085
 10
-106.2733248047
 20
-86.7671115002
 10
-106.1584366872
 20
-86.7930763128
 10
-106.0391974887
 20
-86.8048186101
 10
-105.9149167508
 20
-86.8025893282
 10
-105.7855944733
 20
-86.7863884671
  0
LWPOLYLINE
  5
39F
100
AcDbEntity
  8
ASSI
100
AcDbPolyline
 62
7
  6
CONTINUOUS
 90
29
 70
0
 10
-105.9310164996
 20
-81.586491732
 10
-106.1162608186
 20
-81.7357896326
 10
-106.2987386914
 20
-81.8996444946
 10
-106.4758045786
 20
-82.0756807726
 10
-106.6473796372
 20
-82.2640759289
 10
-106.8135427103
 20
-82.4646525012
 10
-106.9718847884
 20
-82.6745025579
 10
-107.1222919332
 20
-82.8937611975
 10
-107.264878083
 20
-83.1222933215
 10
-107.3975760434
 20
-83.3567857023
 10
-107.5202417604
 20
-83.5973251706
 10
-107.633019288
 20
-83.8438248958
 10
-107.7342735929
 20
-84.0927111585
 10
-107.8238368017
 20
-84.3440187265
 10
-107.9018767879
 20
-84.5977128321
 10
-107.9672621384
 20
-84.8501154527
 10
-108.0198084971
 20
-85.1012077738
 10
-108.05970022
 20
-85.3510086099
 10
-108.0863589625
 20
-85.5958963828
 10
-108.099591943
 20
-85.8357995176
 10
-108.099591943
 20
-86.0707895892
 10
-108.0863589625
 20
-86.2974597435
 10
-108.05970022
 20
-86.5156887739
 10
-108.0198084971
 20
-86.7255978871
 10
-107.9672621384
 20
-86.9241438495
 10
-107.9018767879
 20
-87.1111611197
 10
-107.8238368017
 20
-87.286815239
 10
-107.7342735929
 20
-87.4485595982
 10
-107.633019288
 20
-87.596191556
  0
LWPOLYLINE
  5
3A0
100
AcDbEntity
  8
0
100
AcDbPolyline
 62
253
  6
CONTINUOUS
 90
45
 70
0
 10
-105.7855944733
 20
-81.7881038782
 10
-105.9475099724
 20
-81.9102258442
 10
-106.1056428669
 20
-82.0428814176
 10
-106.2599931568
 20
-82.1860705983
 10
-106.4112439007
 20
-82.3405404021
 10
-106.55871204
 20
-82.5055438133
 10
-106.7003483993
 20
-82.6788397842
 10
-106.8360434123
 20
-82.8605297538
 10
-106.9659066452
 20
-83.0505122832
 10
-107.0882176215
 20
-83.2462420073
 10
-107.2028532177
 20
-83.4477587331
 10
-107.3099365573
 20
-83.6550226537
 10
-107.4081165341
 20
-83.8653689832
 10
-107.4972809496
 20
-84.0788244848
 10
-107.5775420023
 20
-84.2953623953
 10
-107.6478851814
 20
-84.5122376388
 10
-107.7081937691
 20
-84.7294765715
 10
-107.7585844831
 20
-84.9470528372
 10
-107.7983929662
 20
-85.1621422912
 10
-107.8274802784
 20
-85.3747207547
 10
-107.8459853597
 20
-85.5848124067
 10
-107.8536606726
 20
-85.789665639
 10
-107.850361053
 20
-85.9892076418
 10
-107.836231665
 20
-86.183511225
 10
-107.811460464
 20
-86.3700432109
 10
-107.7759059923
 20
-86.548699071
 10
-107.7297097076
 20
-86.7195833337
 10
-107.6734839378
 20
-86.8804764072
 10
-107.6071088071
 20
-87.0312344926
 10
-107.5307041913
 20
-87.1720013888
 10
-107.4452420458
 20
-87.3009889003
 10
-107.3506132618
 20
-87.4180567976
 10
-107.246926948
 20
-87.5233453103
 10
-107.1354823864
 20
-87.6154869316
 10
-107.0161573082
 20
-87.6943265246
 10
-106.8890739822
 20
-87.7600192262
 10
-106.7558984966
 20
-87.8116629406
 10
-106.6165212377
 20
-87.8490550044
 10
-106.4710518192
 20
-87.8723980811
 10
-106.3214851701
 20
-87.8813980652
 10
-106.1677715589
 20
-87.8758347543
 10
-106.0099607171
 20
-87.8559283509
 10
-105.8501967685
 20
-87.8220453568
 10
-105.6891944208
 20
-87.7743079393
 10
-105.5262389661
 20
-87.7125939312
  0
LINE
  5
3A1
100
AcDbEntity
  8
0
100
AcDbLine
 62
7
  6
CONTINUOUS
 10
-123.6223630287
 20
-45.7523450134
 11
-121.6778193804
 21
-44.7800731893
  0
LWPOLYLINE
  5
3A2
100
AcDbEntity
  8
RACCORDO
100
AcDbPolyline
 62
253
  6
CONTINUOUS
 90
10
 70
0
 10
-113.7899336959
 20
-29.8971017951
 10
-113.671777694
 20
-29.8589582116
 10
-113.555874114
 20
-29.8193207356
 10
-113.4422938812
 20
-29.778242178
 10
-113.3310984083
 20
-29.7357922274
 10
-113.2223621693
 20
-29.6920078996
 10
-113.116172287
 20
-29.6468936989
 10
-113.0125985211
 20
-29.6004874697
 10
-112.9116936212
 20
-29.5528601467
 10
-112.8135156423
 20
-29.5040663494
  0
LWPOLYLINE
  5
3A3
100
AcDbEntity
  8
RACCORDO
100
AcDbPolyline
 62
253
  6
CONTINUOUS
 90
10
 70
0
 10
-113.9174374172
 20
-29.6063613761
 10
-113.8047109701
 20
-29.5714063234
 10
-113.6942207834
 20
-29.5350908547
 10
-113.5859668571
 20
-29.49741497
 10
-113.4798496891
 20
-29.4583319034
 10
-113.3759687815
 20
-29.4178884207
 10
-113.2746226411
 20
-29.3762248201
 10
-113.1759107702
 20
-29.3333878675
 10
-113.0797336666
 20
-29.2893307969
 10
-112.9860913303
 20
-29.2440536084
  0
LINE
  5
3A4
100
AcDbEntity
  8
ASSI
100
AcDbLine
 62
7
  6
CONTINUOUS
 10
-121.2006565187
 20
-33.4095428874
 11
-120.0868291228
 21
-33.0878282223
  0
LINE
  5
3A5
100
AcDbEntity
  8
ASSI
100
AcDbLine
 62
7
  6
CONTINUOUS
 10
-119.9172308677
 20
-34.1544260685
 11
-118.6726155604
 21
-33.7949350035
  0
LINE
  5
3A6
100
AcDbEntity
  8
ASSI
100
AcDbLine
 62
7
  6
CONTINUOUS
 10
-122.2081494663
 20
-35.3739203889
 11
-123.0920329428
 21
-35.6292187212
  0
LINE
  5
3A7
100
AcDbEntity
  8
ASSI
100
AcDbLine
 62
7
  6
CONTINUOUS
 10
-120.9247238154
 20
-36.11880357
 11
-121.6778193804
 21
-36.3363255024
  0
LWPOLYLINE
  5
3A8
100
AcDbEntity
  8
RACCORDO
100
AcDbPolyline
 62
253
  6
CONTINUOUS
 90
3
 70
0
 10
-101.9510014889
 20
-38.5314739279
 10
-102.0133702633
 20
-38.5466469071
 10
-102.0394778514
 20
-38.551009195
  0
LINE
  5
3A9
100
AcDbEntity
  8
0
100
AcDbLine
 62
7
  6
CONTINUOUS
 10
-108.3927045028
 20
-239.9308496925
 11
-102.3972191099
 21
-228.8623323755
  0
LINE
  5
3AA
100
AcDbEntity
  8
0
100
AcDbLine
 62
7
  6
CONTINUOUS
 10
-102.9911281926
 20
-229.1563033766
 11
-108.5961147096
 21
-239.4768704319
  0
LINE
  5
3AB
100
AcDbEntity
  8
0
100
AcDbLine
 62
7
  6
CONTINUOUS
 10
-99.7173200868
 20
-227.5455053006
 11
-105.7283962022
 21
-238.5942948204
  0
LWPOLYLINE
  5
3AC
100
AcDbEntity
  8
RACCORDO
100
AcDbPolyline
 62
253
  6
CONTINUOUS
 90
4
 70
0
 10
-110.3714006158
 20
-89.1578554039
 10
-110.3039584283
 20
-89.1125229661
 10
-110.2420771393
 20
-89.0614235284
 10
-110.2050118557
 20
-89.0238672509
  0
LWPOLYLINE
  5
3AD
100
AcDbEntity
  8
RACCORDO
100
AcDbPolyline
 62
7
  6
CONTINUOUS
 90
5
 70
0
 10
-105.2204030324
 20
-87.6595553941
 10
-105.0168538169
 20
-87.529101623
 10
-104.8166697235
 20
-87.3815759095
 10
-104.6207715853
 20
-87.2177900944
 10
-104.5304799367
 20
-87.1329485509
  0
LWPOLYLINE
  5
3AE
100
AcDbEntity
  8
ASSI
100
AcDbPolyline
 62
7
  6
CONTINUOUS
 90
3
 70
0
 10
-105.5539922158
 20
-81.3331505122
 10
-105.7438875808
 20
-81.4525426414
 10
-105.9310164996
 20
-81.586491732
  0
LINE
  5
3AF
100
AcDbEntity
  8
ASSI
100
AcDbLine
 62
7
  6
CONTINUOUS
 10
-105.3613304046
 20
-81.2283153445
 11
-105.5539922158
 21
-81.3331505122
  0
LWPOLYLINE
  5
3B0
100
AcDbEntity
  8
0
100
AcDbPolyline
 62
253
  6
CONTINUOUS
 90
7
 70
0
 10
-105.3613304046
 20
-81.5314242358
 10
-105.4320100264
 20
-81.5680339695
 10
-105.502306467
 20
-81.6068308949
 10
-105.5722197265
 20
-81.6478150118
 10
-105.6417498048
 20
-81.6909863205
 10
-105.7108967019
 20
-81.7363448207
 10
-105.7796604178
 20
-81.7838905127
  0
LINE
  5
3B1
100
AcDbEntity
  8
0
100
AcDbLine
 62
7
  6
CONTINUOUS
 10
-110.4962951705
 20
-79.7023033799
 11
-110.3840877433
 21
-79.6461996663
  0
LWPOLYLINE
  5
3B2
100
AcDbEntity
  8
0
100
AcDbPolyline
 62
7
  6
CONTINUOUS
 90
13
 70
0
 10
-103.6422844592
 20
-150.718359282
 10
-103.5509690667
 20
-150.6320734103
 10
-103.4590552619
 20
-150.5475315988
 10
-103.3667280673
 20
-150.4642195498
 10
-103.2741725056
 20
-150.3816229659
 10
-102.990643392
 20
-150.1303971567
 10
-102.7066964728
 20
-149.8808020976
 10
-102.3617685679
 20
-149.5798679392
 10
-102.0164320817
 20
-149.2803091618
 10
-101.2799550538
 20
-148.6445566428
 10
-100.6275172001
 20
-148.0839842195
 10
-99.9746659715
 20
-147.524922794
 10
-99.4034349954
 20
-147.0372004274
  0
LWPOLYLINE
  5
3B3
100
AcDbEntity
  8
0
100
AcDbPolyline
 62
7
  6
CONTINUOUS
 90
39
 70
0
 10
-103.4425120276
 20
-146.9246913628
 10
-103.5693245571
 20
-147.0311372179
 10
-103.6959121333
 20
-147.1384976458
 10
-103.8221852641
 20
-147.2471590911
 10
-103.9480544578
 20
-147.3575079987
 10
-104.0386386176
 20
-147.4384522198
 10
-104.1288900089
 20
-147.5205735634
 10
-104.2187331661
 20
-147.6039676953
 10
-104.3080926234
 20
-147.6887302814
 10
-104.3968929152
 20
-147.7749569874
 10
-104.4850585759
 20
-147.8627434793
 10
-104.5725141397
 20
-147.9521854229
 10
-104.6591841411
 20
-148.0433784841
 10
-104.7449931144
 20
-148.1364183288
 10
-104.8213155259
 20
-148.2217015534
 10
-104.8967671826
 20
-148.308620773
 10
-104.9712339511
 20
-148.3972426201
 10
-105.0446016976
 20
-148.4876337269
 10
-105.1167562887
 20
-148.5798607258
 10
-105.1749286928
 20
-148.6568929195
 10
-105.2321109004
 20
-148.7352032907
 10
-105.2882050844
 20
-148.8147909028
 10
-105.3431134178
 20
-148.895654819
 10
-105.3967380732
 20
-148.9777941025
 10
-105.4489812236
 20
-149.0612078166
 10
-105.4922552055
 20
-149.1331526357
 10
-105.5343864987
 20
-149.2059781624
 10
-105.5753026654
 20
-149.2796437709
 10
-105.6149312681
 20
-149.3541088353
 10
-105.6531998692
 20
-149.4293327298
 10
-105.6900360311
 20
-149.5052748284
 10
-105.7253673161
 20
-149.5818945055
 10
-105.759916351
 20
-149.6610024424
 10
-105.7927602781
 20
-149.7406654258
 10
-105.8238479736
 20
-149.8207705886
 10
-105.8531283137
 20
-149.901205064
 10
-105.8805501746
 20
-149.981855985
 10
-105.9060624325
 20
-150.0626104848
 10
-105.9296139635
 20
-150.1433556965
  0
LINE
  5
3B4
100
AcDbEntity
  8
0
100
AcDbLine
 62
7
  6
CONTINUOUS
 10
-103.1885700759
 20
-146.7129975921
 11
-103.4425120276
 21
-146.9246913628
  0
LWPOLYLINE
  5
3B5
100
AcDbEntity
  8
0
100
AcDbPolyline
 62
7
  6
CONTINUOUS
 90
3
 70
0
 10
-99.4034349954
 20
-143.5986703361
 10
-99.6530418094
 20
-143.80552808
 10
-99.9029009363
 20
-144.0113591428
  0
LWPOLYLINE
  5
3B6
100
AcDbEntity
  8
RACCORDO
100
AcDbPolyline
 62
253
  6
CONTINUOUS
 90
6
 70
0
 10
-112.8747660788
 20
-98.5334229296
 10
-112.8646680107
 20
-98.5275704004
 10
-112.8467337586
 20
-98.5121760993
 10
-112.8320177248
 20
-98.4921032271
 10
-112.8208597459
 20
-98.4678153258
 10
-112.8135174926
 20
-98.4398732747
  0
LINE
  5
3B7
100
AcDbEntity
  8
RACCORDO
100
AcDbLine
 62
7
  6
CONTINUOUS
 10
-105.4263036982
 20
-87.7721217812
 11
-105.2204030324
 21
-87.6595553941
  0
LWPOLYLINE
  5
3B8
100
AcDbEntity
  8
ASSI
100
AcDbPolyline
 62
7
  6
CONTINUOUS
 90
6
 70
0
 10
-105.3613304046
 20
-87.9400122238
 10
-105.1686685933
 20
-87.8351770561
 10
-104.9787732283
 20
-87.715784927
 10
-104.7916443095
 20
-87.5818358363
 10
-104.6063999905
 20
-87.4325379358
 10
-104.5304799367
 20
-87.3643659993
  0
LWPOLYLINE
  5
3B9
100
AcDbEntity
  8
0
100
AcDbPolyline
 62
253
  6
CONTINUOUS
 90
7
 70
0
 10
-105.3613304046
 20
-87.6369033325
 10
-105.1962907023
 20
-87.5475946906
 10
-105.0332407307
 20
-87.4462828249
 10
-104.8721804897
 20
-87.3329677355
 10
-104.7124081048
 20
-87.2070639058
 10
-104.5546254505
 20
-87.0691568523
 10
-104.5304799367
 20
-87.0458807073
  0
LINE
  5
3BA
100
AcDbEntity
  8
0
100
AcDbLine
 62
7
  6
CONTINUOUS
 10
-104.9370691801
 20
-81.3625920496
 11
-105.7796604178
 21
-81.7838905127
  0
LINE
  5
3BB
100
AcDbEntity
  8
ASSI
100
AcDbLine
 62
7
  6
CONTINUOUS
 10
-103.2958997529
 20
-82.2538368743
 11
-101.4220667828
 21
-81.3169203893
  0
LINE
  5
3BC
100
AcDbEntity
  8
ASSI
100
AcDbLine
 62
7
  6
CONTINUOUS
 10
-102.359040386
 20
-81.9992779366
 11
-100.4852074158
 21
-81.0623614515
  0
LINE
  5
3BD
100
AcDbEntity
  8
0
100
AcDbLine
 62
7
  6
CONTINUOUS
 10
-105.7940352365
 20
-86.6805498388
 11
-105.3114524653
 21
-86.4392584532
  0
LINE
  5
3BE
100
AcDbEntity
  8
0
100
AcDbLine
 62
7
  6
CONTINUOUS
 10
-105.7855944733
 20
-86.8531061525
 11
-105.1356530572
 21
-86.5281354445
  0
LINE
  5
3BF
100
AcDbEntity
  8
ASSI
100
AcDbLine
 62
7
  6
CONTINUOUS
 10
-98.4994808256
 20
-83.9290577168
 11
-96.6256478555
 21
-82.9921412317
  0
LINE
  5
3C0
100
AcDbEntity
  8
ASSI
100
AcDbLine
 62
253
  6
CONTINUOUS
 10
-98.0963532231
 20
-87.1624763744
 11
-99.1564683996
 21
-87.6925339626
  0
LINE
  5
3C1
100
AcDbEntity
  8
ASSI
100
AcDbLine
 62
7
  6
CONTINUOUS
 10
-96.3280412749
 20
-87.6742369454
 11
-94.4542083048
 21
-86.7373204603
  0
LINE
  5
3C2
100
AcDbEntity
  8
ASSI
100
AcDbLine
 62
253
  6
CONTINUOUS
 10
-97.3887014467
 20
-88.6706051043
 11
-99.1564683996
 21
-89.5544885808
  0
LINE
  5
3C3
100
AcDbEntity
  8
ASSI
100
AcDbLine
 62
7
  6
CONTINUOUS
 10
-96.3280412749
 20
-92.4012127228
 11
-94.4542083048
 21
-91.4642962377
  0
LINE
  5
3C4
100
AcDbEntity
  8
ASSI
100
AcDbLine
 62
7
  6
CONTINUOUS
 10
-97.5626214586
 20
-93.7203934629
 11
-95.6887884885
 21
-92.7834769779
  0
LINE
  5
3C5
100
AcDbEntity
  8
0
100
AcDbLine
 62
7
  6
CONTINUOUS
 10
-105.7796604178
 20
-81.7838905127
 11
-105.7855973175
 21
-81.7868561183
  0
LWPOLYLINE
  5
3C6
100
AcDbEntity
  8
RACCORDO
100
AcDbPolyline
 62
7
  6
CONTINUOUS
 90
3
 70
0
 10
-110.735234693
 20
-97.471613145
 10
-109.6340055917
 20
-96.9244918159
 10
-109.3867734666
 20
-96.801323793
  0
LWPOLYLINE
  5
3C7
100
AcDbEntity
  8
RACCORDO
100
AcDbPolyline
 62
253
  6
CONTINUOUS
 90
3
 70
0
 10
-109.4181155029
 20
-96.767908726
 10
-110.1245170169
 20
-97.1169380629
 10
-110.5532495771
 20
-97.3281274393
  0
LWPOLYLINE
  5
3C8
100
AcDbEntity
  8
RACCORDO
100
AcDbPolyline
 62
253
  6
CONTINUOUS
 90
4
 70
0
 10
-110.5532495771
 20
-97.3281274393
 10
-111.7510230551
 20
-97.9172746932
 10
-112.1201238273
 20
-98.0986512072
 10
-112.8135158703
 20
-98.439874373
  0
LWPOLYLINE
  5
3C9
100
AcDbEntity
  8
ASSI
100
AcDbPolyline
 62
7
  6
CONTINUOUS
 90
32
 70
0
 10
-98.8316006485
 20
-87.0164442487
 10
-98.8236772568
 20
-87.0125721274
 10
-98.770573241
 20
-86.9911790685
 10
-98.7143987729
 20
-86.9760367796
 10
-98.6560875909
 20
-86.9673969575
 10
-98.5956039804
 20
-86.9653682892
 10
-98.532983656
 20
-86.9698420877
 10
-98.4692674999
 20
-86.980743989
 10
-98.4044371954
 20
-86.9981814372
 10
-98.3385110593
 20
-87.0220469882
 10
-98.2725849232
 20
-87.0519439461
 10
-98.206658787
 20
-87.0879731243
 10
-98.1407326509
 20
-87.1300337095
 10
-98.0759023465
 20
-87.1774265657
 10
-98.0121861903
 20
-87.2302408205
 10
-97.9495658659
 20
-87.2883873464
 10
-97.8890822554
 20
-87.3508996252
 10
-97.8307710734
 20
-87.4178506293
 10
-97.7745966053
 20
-87.4891673864
 10
-97.7214925895
 20
-87.5636644611
 10
-97.6715103478
 20
-87.6413950116
 10
-97.6245985584
 20
-87.7223058798
 10
-97.5815369944
 20
-87.805052156
 10
-97.5423900113
 20
-87.8896645185
 10
-97.5070932536
 20
-87.9761122891
 10
-97.476233428
 20
-88.062958523
 10
-97.4498846967
 20
-88.1502098804
 10
-97.4279728975
 20
-88.2378597012
 10
-97.4108622508
 20
-88.3244510599
 10
-97.3986741635
 20
-88.409498315
 10
-97.3912872288
 20
-88.493487108
 10
-97.3887014467
 20
-88.5764174391
  0
LWPOLYLINE
  5
3CA
100
AcDbEntity
  8
ASSI
100
AcDbPolyline
 62
7
  6
CONTINUOUS
 90
32
 70
0
 10
-97.7135691978
 20
-91.1144617712
 10
-97.7214925895
 20
-91.1183338924
 10
-97.7745966053
 20
-91.1397269514
 10
-97.8307710734
 20
-91.1548692403
 10
-97.8890822554
 20
-91.1635090624
 10
-97.9495658659
 20
-91.1655377307
 10
-98.0121861903
 20
-91.1610639322
 10
-98.0759023465
 20
-91.1501620309
 10
-98.1407326509
 20
-91.1327245827
 10
-98.206658787
 20
-91.1088590317
 10
-98.2725849232
 20
-91.0789620737
 10
-98.3385110593
 20
-91.0429328955
 10
-98.4044371954
 20
-91.0008723104
 10
-98.4692674999
 20
-90.9534794542
 10
-98.532983656
 20
-90.9006651994
 10
-98.5956039804
 20
-90.8425186735
 10
-98.6560875909
 20
-90.7800063947
 10
-98.7143987729
 20
-90.7130553906
 10
-98.770573241
 20
-90.6417386335
 10
-98.8236772568
 20
-90.5672415588
 10
-98.8736594985
 20
-90.4895110083
 10
-98.9205712879
 20
-90.4086001401
 10
-98.9636328519
 20
-90.3258538639
 10
-99.002779835
 20
-90.2412415013
 10
-99.0380765927
 20
-90.1547937308
 10
-99.0689364183
 20
-90.0679474969
 10
-99.0952851497
 20
-89.9806961395
 10
-99.1171969489
 20
-89.8930463187
 10
-99.1343075955
 20
-89.8064549599
 10
-99.1464956828
 20
-89.7214077049
 10
-99.1538826175
 20
-89.6374189119
 10
-99.1564683996
 20
-89.5544885808
  0
LWPOLYLINE
  5
3CB
100
AcDbEntity
  8
0
100
AcDbPolyline
 62
7
  6
CONTINUOUS
 90
6
 70
0
 10
-101.4220102272
 20
-81.3170334737
 10
-101.3705151708
 20
-81.292024676
 10
-101.161630452
 20
-81.2053316143
 10
-100.9447812013
 20
-81.1383316052
 10
-100.7193068559
 20
-81.0906748843
 10
-100.4852074158
 20
-81.0623614515
  0
LWPOLYLINE
  5
3CC
100
AcDbEntity
  8
0
100
AcDbPolyline
 62
7
  6
CONTINUOUS
 90
6
 70
0
 10
-103.2958431973
 20
-82.2539499588
 10
-103.2443481409
 20
-82.228941161
 10
-103.0354634221
 20
-82.1422480994
 10
-102.8186141715
 20
-82.0752480903
 10
-102.5931398261
 20
-82.0275913693
 10
-102.359040386
 20
-81.9992779366
  0
LWPOLYLINE
  5
3CD
100
AcDbEntity
  8
ASSI
100
AcDbPolyline
 62
7
  6
CONTINUOUS
 90
6
 70
0
 10
-97.5626780142
 20
-93.7202803785
 10
-97.6141730706
 20
-93.7452891762
 10
-97.8230577894
 20
-93.8319822379
 10
-98.0399070401
 20
-93.898982247
 10
-98.2653813855
 20
-93.9466389679
 10
-98.4994808256
 20
-93.9749524007
  0
LINE
  5
3CE
100
AcDbEntity
  8
RACCORDO
100
AcDbLine
 62
253
  6
CONTINUOUS
 10
-112.8135156862
 20
-98.4398746286
 11
-112.9116936884
 21
-98.4863612691
  0
LINE
  5
3CF
100
AcDbEntity
  8
0
100
AcDbLine
 62
253
  6
CONTINUOUS
 10
-105.5262389661
 20
-87.7125939312
 11
-105.3613304046
 21
-87.6369033325
  0
LINE
  5
3D0
100
AcDbEntity
  8
RACCORDO
100
AcDbLine
 62
7
  6
CONTINUOUS
 10
-105.6347360045
 20
-87.8665433723
 11
-105.4263036982
 21
-87.7721217812
  0
LINE
  5
3D1
100
AcDbEntity
  8
RACCORDO
100
AcDbLine
 62
253
  6
CONTINUOUS
 10
-112.9116936884
 20
-98.4863612691
 11
-113.0125986034
 21
-98.5315543899
  0
LWPOLYLINE
  5
3D2
100
AcDbEntity
  8
RACCORDO
100
AcDbPolyline
 62
253
  6
CONTINUOUS
 90
8
 70
0
 10
-113.0125986034
 20
-98.5315543899
 10
-113.1161723752
 20
-98.5754323918
 10
-113.2223622501
 20
-98.6179927783
 10
-113.3310984709
 20
-98.6591985568
 10
-113.4422939253
 20
-98.6989784625
 10
-113.5558741431
 20
-98.7372983857
 10
-113.6717777078
 20
-98.774161191
 10
-113.7899336938
 20
-98.8095532555
  0
LWPOLYLINE
  5
3D3
100
AcDbEntity
  8
0
100
AcDbPolyline
 62
253
  6
CONTINUOUS
 90
7
 70
0
 10
-104.9430003913
 20
-81.3655604994
 10
-105.0117789872
 20
-81.386784416
 10
-105.0809348123
 20
-81.4105763484
 10
-105.1504678665
 20
-81.4369362966
 10
-105.22037815
 20
-81.4658642606
 10
-105.2906656627
 20
-81.4973602403
 10
-105.3613304046
 20
-81.5314242358
  0
LINE
  5
3D4
100
AcDbEntity
  8
0
100
AcDbLine
 62
7
  6
CONTINUOUS
 10
-99.4034349889
 20
-181.0231544486
 11
-108.5337518969
 21
-189.7810817973
  0
LINE
  5
3D5
100
AcDbEntity
  8
0
100
AcDbLine
 62
7
  6
CONTINUOUS
 10
-113.3841109109
 20
-191.2795738521
 11
-105.6212098243
 21
-183.8630755935
  0
LINE
  5
3D6
100
AcDbEntity
  8
0
100
AcDbLine
 62
7
  6
CONTINUOUS
 10
-113.3841108303
 20
-169.3459288422
 11
-99.4034349954
 21
-157.102770032
  0
LINE
  5
3D7
100
AcDbEntity
  8
0
100
AcDbLine
 62
7
  6
CONTINUOUS
 10
-99.4034349954
 20
-160.8697879004
 11
-102.1942961133
 21
-163.1913093404
  0
LWPOLYLINE
  5
3D8
100
AcDbEntity
  8
0
100
AcDbPolyline
 62
7
  6
CONTINUOUS
 90
6
 70
0
 10
-99.9029009363
 20
-144.0113591428
 10
-101.2169831514
 20
-145.0898080584
 10
-102.3205862938
 20
-145.9959702944
 10
-102.6101071984
 20
-146.2341934541
 10
-102.8994724568
 20
-146.4730531851
 10
-103.1885700759
 20
-146.7129975921
  0
LINE
  5
3D9
100
AcDbEntity
  8
0
100
AcDbLine
 62
7
  6
CONTINUOUS
 10
-104.3545855903
 20
-164.985116897
 11
-109.5432510973
 21
-169.2212918278
  0
LWPOLYLINE
  5
3DA
100
AcDbEntity
  8
RACCORDO
100
AcDbPolyline
 62
253
  6
CONTINUOUS
 90
7
 70
0
 10
-113.8454247905
 20
-98.9112741756
 10
-113.8412130368
 20
-98.9097999758
 10
-113.8257911626
 20
-98.9002654382
 10
-113.8126579302
 20
-98.8850275032
 10
-113.8021413001
 20
-98.8644666913
 10
-113.794503891
 20
-98.8390964456
 10
-113.7899364217
 20
-98.8095503101
  0
LWPOLYLINE
  5
3DB
100
AcDbEntity
  8
RACCORDO
100
AcDbPolyline
 62
7
  6
CONTINUOUS
 90
8
 70
0
 10
-113.6699585604
 20
-98.8560705665
 10
-113.5324420856
 20
-98.8092338951
 10
-113.3980698425
 20
-98.7602138589
 10
-113.2669600619
 20
-98.7090502359
 10
-113.1392146486
 20
-98.65577668
 10
-113.0149434645
 20
-98.6004291315
 10
-112.8942801294
 20
-98.5430600031
 10
-110.735234693
 20
-97.471613145
  0
LINE
  5
3DC
100
AcDbEntity
  8
RACCORDO
100
AcDbLine
 62
7
  6
CONTINUOUS
 10
-113.8104695825
 20
-98.9006787671
 11
-113.6699585604
 21
-98.8560705665
  0
LINE
  5
3DD
100
AcDbEntity
  8
RACCORDO
100
AcDbLine
 62
7
  6
CONTINUOUS
 10
-113.8454204351
 20
-98.9112887256
 11
-113.8104695825
 21
-98.9006787671
  0
LINE
  5
3DE
100
AcDbEntity
  8
0
100
AcDbLine
 62
7
  6
CONTINUOUS
 10
-99.4034349889
 20
-205.0698917429
 11
-113.3841109109
 21
-217.4901985933
  0
LINE
  5
3DF
100
AcDbEntity
  8
0
100
AcDbLine
 62
7
  6
CONTINUOUS
 10
-113.3841109109
 20
-213.6063747352
 11
-103.7612856446
 21
-205.5320135064
  0
LWPOLYLINE
  5
3E0
100
AcDbEntity
  8
0
100
AcDbPolyline
 62
7
  6
CONTINUOUS
 90
55
 70
0
 10
-109.336186815
 20
-152.7752690125
 10
-109.266211305
 20
-152.7397946954
 10
-109.1961975052
 20
-152.7060269597
 10
-109.1261947764
 20
-152.6740846962
 10
-109.0562524795
 20
-152.6440867958
 10
-108.9864199753
 20
-152.6161521493
 10
-108.9167466245
 20
-152.5903996476
 10
-108.847281788
 20
-152.5669481816
 10
-108.7780748266
 20
-152.545916642
 10
-108.7188708084
 20
-152.529874648
 10
-108.6599564774
 20
-152.5157965002
 10
-108.6013947867
 20
-152.5037724478
 10
-108.5432486896
 20
-152.49389274
 10
-108.4855811391
 20
-152.4862476261
 10
-108.4284550885
 20
-152.4809273552
 10
-108.3719334908
 20
-152.4780221766
 10
-108.3160792994
 20
-152.4776223395
 10
-108.2597590966
 20
-152.4798871783
 10
-108.2042951035
 20
-152.4849058553
 10
-108.1497807708
 20
-152.4927214745
 10
-108.0963095494
 20
-152.5033771399
 10
-108.0439748899
 20
-152.5169159557
 10
-107.9928702431
 20
-152.5333810258
 10
-107.9430890598
 20
-152.5528154545
 10
-107.8973621359
 20
-152.5739227766
 10
-107.8529430138
 20
-152.5976627018
 10
-107.809875365
 20
-152.6239802005
 10
-107.7682028612
 20
-152.6528202429
 10
-107.7279691737
 20
-152.6841277995
 10
-107.6892179742
 20
-152.7178478406
 10
-107.6519929341
 20
-152.7539253365
 10
-107.6165188878
 20
-152.7920825445
 10
-107.5825868336
 20
-152.8324194642
 10
-107.5501860088
 20
-152.8748384268
 10
-107.5193056507
 20
-152.9192417639
 10
-107.4899349965
 20
-152.9655318067
 10
-107.4620632835
 20
-153.0136108866
 10
-107.4356797488
 20
-153.0633813352
 10
-107.4059841458
 20
-153.1251549182
 10
-107.3783460381
 20
-153.1890831762
 10
-107.3526989141
 20
-153.2550296013
 10
-107.3289762624
 20
-153.3228576855
 10
-107.3071115716
 20
-153.3924309211
 10
-107.2870383303
 20
-153.4636128001
 10
-107.2660337752
 20
-153.5475194287
 10
-107.2472415975
 20
-153.6332554383
 10
-107.2305809313
 20
-153.7206930583
 10
-107.2159709106
 20
-153.8097045183
 10
-107.2033306694
 20
-153.9001620476
 10
-107.1925793417
 20
-153.9919378756
 10
-107.1836360617
 20
-154.0849042319
 10
-107.1764199633
 20
-154.1789333457
 10
-107.1708501807
 20
-154.2738974466
 10
-107.1668458478
 20
-154.3696687639
 10
-107.1643260987
 20
-154.4661195272
  0
LINE
  5
3E1
100
AcDbEntity
  8
0
100
AcDbLine
 62
7
  6
CONTINUOUS
 10
-105.9296139635
 20
-150.1433556965
 11
-106.012561479
 21
-150.1848294543
  0
LINE
  5
3E2
100
AcDbEntity
  8
0
100
AcDbLine
 62
7
  6
CONTINUOUS
 10
-99.4034349954
 20
-152.5096098796
 11
-104.8759003717
 21
-155.2458425677
  0
LINE
  5
3E3
100
AcDbEntity
  8
0
100
AcDbLine
 62
7
  6
CONTINUOUS
 10
-107.1643260987
 20
-156.5085019776
 11
-111.0017144599
 21
-158.4271961582
  0
LWPOLYLINE
  5
3E4
100
AcDbEntity
  8
SMUSSO
100
AcDbPolyline
 62
7
  6
CONTINUOUS
 90
8
 70
0
 10
124.665620052
 20
-190.8082152866
 10
124.6703766794
 20
-190.8626876258
 10
124.6846103608
 20
-190.9167453976
 10
124.7082127692
 20
-190.9699771898
 10
124.7410042761
 20
-191.0219778762
 10
124.7827353182
 20
-191.0723517002
 10
124.8330882973
 20
-191.1207152866
 10
124.8949993259
 20
-191.1690592048
  0
LWPOLYLINE
  5
3E5
100
AcDbEntity
  8
0
100
AcDbPolyline
 62
7
  6
CONTINUOUS
 90
37
 70
0
 10
104.7731272946
 20
288.9804557154
 10
104.7726829182
 20
289.0053093736
 10
104.7713722156
 20
289.0304565079
 10
104.7691951868
 20
289.0558971182
 10
104.7661443989
 20
289.0816806866
 10
104.7622272848
 20
289.1077577311
 10
104.757466143
 20
289.1339798054
 10
104.7518561597
 20
289.1603477366
 10
104.7454021488
 20
289.1868606976
 10
104.7381408504
 20
289.2133677606
 10
104.7300676601
 20
289.239868892
 10
104.7211871823
 20
289.2663641254
 10
104.71154997
 20
289.2927026339
 10
104.7011517072
 20
289.3188835237
 10
104.68999671
 20
289.3449076887
 10
104.6781484792
 20
289.3706269836
 10
104.6656030611
 20
289.3960396696
 10
104.6523644095
 20
289.4211474855
 10
104.6385078868
 20
289.4458075025
 10
104.624029969
 20
289.4700171666
 10
104.60893418
 20
289.4937790317
 10
104.5933064543
 20
289.516957831
 10
104.5771437579
 20
289.5395502391
 10
104.5604491247
 20
289.5615595813
 10
104.5433175907
 20
289.5828605673
 10
104.5257466639
 20
289.603449157
 10
104.5077388364
 20
289.6233293905
 10
104.4893966193
 20
289.6423880974
 10
104.4707181057
 20
289.6606205922
 10
104.4517052026
 20
289.6780315606
 10
104.432466143
 20
289.6945218886
 10
104.412999637
 20
289.7100863256
 10
104.3933069745
 20
289.7247301223
 10
104.373500258
 20
289.7383699174
 10
104.3536168549
 20
289.7509779238
 10
104.3336193979
 20
289.7625819286
 10
104.3135078868
 20
289.7731819318
  0
LINE
  5
3E6
100
AcDbEntity
  8
0
100
AcDbLine
 62
7
  6
CONTINUOUS
 10
99.0455623669
 20
292.4071546917
 11
99.0455623669
 21
291.8442381792
  0
LINE
  5
3E7
100
AcDbEntity
  8
0
100
AcDbLine
 62
253
  6
CONTINUOUS
 10
104.3135078868
 20
289.7731819318
 11
104.3135078868
 21
289.2102654193
  0
LINE
  5
3E8
100
AcDbEntity
  8
0
100
AcDbLine
 62
253
  6
CONTINUOUS
 10
104.3135078868
 20
-197.1929026162
 11
104.3135078868
 21
-196.6299861038
  0
LINE
  5
3E9
100
AcDbEntity
  8
0
100
AcDbLine
 62
7
  6
CONTINUOUS
 10
104.3135078868
 20
-196.6299861038
 11
104.3135078868
 21
289.2102654193
  0
LINE
  5
3EA
100
AcDbEntity
  8
0
100
AcDbLine
 62
7
  6
CONTINUOUS
 10
104.7731272946
 20
-196.8597958077
 11
104.7731272946
 21
288.9804557154
  0
LWPOLYLINE
  5
3EB
100
AcDbEntity
  8
0
100
AcDbPolyline
 62
7
  6
CONTINUOUS
 90
33
 70
0
 10
122.1656291112
 20
303.3891813835
 10
122.1672064892
 20
303.4437152307
 10
122.174262347
 20
303.5163104294
 10
122.1869505228
 20
303.5888236863
 10
122.2052139074
 20
303.6609286192
 10
122.2290776323
 20
303.7326233876
 10
122.2585165658
 20
303.8039098321
 10
122.2933982035
 20
303.8744670926
 10
122.3337470796
 20
303.9442918819
 10
122.3795386598
 20
304.0133874872
 10
122.4305668362
 20
304.0814429092
 10
122.4868552142
 20
304.148453459
 10
122.5483801884
 20
304.2144238256
 10
122.6148648351
 20
304.2790570763
 10
122.6863315112
 20
304.3423471838
 10
122.7627578598
 20
304.4043001756
 10
122.843799886
 20
304.4646372012
 10
122.929478396
 20
304.5233509763
 10
123.0197725837
 20
304.5804487853
 10
123.1142760349
 20
304.635673631
 10
123.213007724
 20
304.6890170707
 10
123.3159486767
 20
304.740487547
 10
123.422635556
 20
304.7898533916
 10
123.5330852475
 20
304.8371051172
 10
123.6472808655
 20
304.882252211
 10
123.7647084157
 20
304.9250914661
 10
123.885382467
 20
304.9656124791
 10
124.0092884504
 20
305.0038256534
 10
124.1358686655
 20
305.0395589915
 10
124.2651351669
 20
305.0728013148
 10
124.3970759
 20
305.1035638019
 10
124.5310969996
 20
305.1317079909
 10
124.665620052
 20
305.1569244463
  0
LWPOLYLINE
  5
3EC
100
AcDbEntity
  8
0
100
AcDbPolyline
 62
7
  6
CONTINUOUS
 90
7
 70
0
 10
124.6156328551
 20
303.389181385
 10
124.6167305661
 20
303.4160426163
 10
124.6216732234
 20
303.4517412308
 10
124.6305525829
 20
303.4873584337
 10
124.6432881531
 20
303.5225713554
 10
124.6599149967
 20
303.5573763201
 10
124.665620052
 20
303.5669577917
  0
LWPOLYLINE
  5
3ED
100
AcDbEntity
  8
SMUSSO
100
AcDbPolyline
 62
7
  6
CONTINUOUS
 90
8
 70
0
 10
124.665620052
 20
308.4554299952
 10
124.6703766794
 20
308.5099023344
 10
124.6846103608
 20
308.5639601062
 10
124.7082127692
 20
308.6171918983
 10
124.7410042761
 20
308.6691925847
 10
124.7827353182
 20
308.7195664087
 10
124.8330882973
 20
308.7679299952
 10
124.8949993259
 20
308.8162739134
  0
LWPOLYLINE
  5
3EE
100
AcDbEntity
  8
SMUSSO
100
AcDbPolyline
 62
7
  6
CONTINUOUS
 90
28
 70
0
 10
127.165620052
 20
308.4554299952
 10
127.1608634247
 20
308.4009576559
 10
127.1466297433
 20
308.3468998841
 10
127.1230273349
 20
308.293668092
 10
127.090235828
 20
308.2416674056
 10
127.0485047858
 20
308.1912935816
 10
126.9981518068
 20
308.1429299952
 10
126.9395601074
 20
308.0969447224
 10
126.8731756059
 20
308.0536877391
 10
126.7995035285
 20
308.0134882569
 10
126.7191045641
 20
307.9766522182
 10
126.6325905975
 20
307.9434599675
 10
126.540620052
 20
307.9141641178
 10
126.4438928792
 20
307.8889876283
 10
126.3431452312
 20
307.8681221072
 10
126.2391438584
 20
307.8517263537
 10
126.1326802741
 20
307.8399251495
 10
126.0245647305
 20
307.8328083088
 10
125.915620052
 20
307.8304299952
 10
125.8066753736
 20
307.8328083088
 10
125.69855983
 20
307.8399251495
 10
125.5920962457
 20
307.8517263537
 10
125.4880948729
 20
307.8681221072
 10
125.3873472249
 20
307.8889876283
 10
125.290620052
 20
307.9141641178
 10
125.1986495066
 20
307.9434599675
 10
125.1121355399
 20
307.9766522182
 10
125.0317365756
 20
308.0134882569
  0
LWPOLYLINE
  5
3EF
100
AcDbEntity
  8
0
100
AcDbPolyline
 62
7
  6
CONTINUOUS
 90
10
 70
0
 10
130.9789714173
 20
302.2387078627
 10
130.9760674001
 20
302.2061105085
 10
130.9674843539
 20
302.1735131544
 10
130.953415787
 20
302.1416507207
 10
130.9337370896
 20
302.110539902
 10
130.9085728715
 20
302.0801640037
 10
130.8784904701
 20
302.0512078627
 10
130.8436789978
 20
302.0238997578
 10
130.8039493422
 20
301.9980114101
 10
130.7593015032
 20
301.9735428197
  0
LINE
  5
3F0
100
AcDbEntity
  8
0
100
AcDbLine
 62
7
  6
CONTINUOUS
 10
-113.3841109109
 20
-180.633854818
 11
-99.4034349889
 21
-172.0416543494
  0
LINE
  5
3F1
100
AcDbEntity
  8
0
100
AcDbLine
 62
7
  6
CONTINUOUS
 10
-99.4034349889
 20
-175.5376174722
 11
-108.4938007173
 21
-180.8176462741
  0
LINE
  5
3F2
100
AcDbEntity
  8
0
100
AcDbLine
 62
7
  6
CONTINUOUS
 10
-113.2213826649
 20
-162.9777980072
 11
-99.4034349954
 21
-156.0688241724
  0
LINE
  5
3F3
100
AcDbEntity
  8
0
100
AcDbLine
 62
7
  6
CONTINUOUS
 10
-113.7852641217
 20
93.626142445
 11
-99.4473154371
 21
93.9306637949
  0
LWPOLYLINE
  5
3F4
100
AcDbEntity
  8
0
100
AcDbPolyline
 62
7
  6
CONTINUOUS
 90
3
 70
0
 10
-99.4473154371
 20
99.2063797625
 10
-100.253694211
 20
99.1968436496
 10
-107.0532939708
 20
99.1157105245
  0
LWPOLYLINE
  5
3F5
100
AcDbEntity
  8
0
100
AcDbPolyline
 62
7
  6
CONTINUOUS
 90
37
 70
0
 10
-120.2636058181
 20
176.992419245
 10
-120.2398874864
 20
176.9810728211
 10
-120.2153011484
 20
176.9702920012
 10
-120.1898468039
 20
176.9600767853
 10
-120.1634727603
 20
176.9504099034
 10
-120.1362307104
 20
176.9413086255
 10
-120.1082757322
 20
176.9328247615
 10
-120.0796037596
 20
176.9249618329
 10
-120.0502188588
 20
176.9177163182
 10
-120.0202883064
 20
176.9111294632
 10
-119.9898089903
 20
176.9052050247
 10
-119.9587840226
 20
176.899939246
 10
-119.927390016
 20
176.8953621031
 10
-119.8956248658
 20
176.8914775235
 10
-119.8634906769
 20
176.8882815797
 10
-119.8311703763
 20
176.8857924649
 10
-119.7986629027
 20
176.8840142105
 10
-119.7659693174
 20
176.8829427851
 10
-119.7332757322
 20
176.8825842879
 10
-119.7005821469
 20
176.8829427851
 10
-119.6678885617
 20
176.8840142105
 10
-119.635381088
 20
176.8857924649
 10
-119.6030607874
 20
176.8882815797
 10
-119.5709265985
 20
176.8914775235
 10
-119.5391614483
 20
176.8953621031
 10
-119.5077674418
 20
176.899939246
 10
-119.476742474
 20
176.9052050247
 10
-119.4462631579
 20
176.9111294632
 10
-119.4163326055
 20
176.9177163182
 10
-119.3869477047
 20
176.9249618329
 10
-119.3582757322
 20
176.9328247615
 10
-119.330320754
 20
176.9413086255
 10
-119.303078704
 20
176.9504099034
 10
-119.2767046604
 20
176.9600767853
 10
-119.251250316
 20
176.9702920012
 10
-119.2266639779
 20
176.9810728211
 10
-119.2029456463
 20
176.992419245
  0
LWPOLYLINE
  5
3F6
100
AcDbEntity
  8
0
100
AcDbPolyline
 62
7
  6
CONTINUOUS
 90
37
 70
0
 10
-119.8039864103
 20
177.2222289489
 10
-119.8008239661
 20
177.2207160924
 10
-119.7975457877
 20
177.2192786497
 10
-119.7941518751
 20
177.2179166209
 10
-119.7906353359
 20
177.2166277033
 10
-119.7870030626
 20
177.2154141996
 10
-119.7832757322
 20
177.2142830177
 10
-119.7794528025
 20
177.2132346273
 10
-119.7755348157
 20
177.2122685586
 10
-119.7715440754
 20
177.2113903113
 10
-119.7674801666
 20
177.2106003862
 10
-119.7633435042
 20
177.2098982823
 10
-119.7591576367
 20
177.2092879966
 10
-119.7549222833
 20
177.2087700527
 10
-119.7506377248
 20
177.2083439268
 10
-119.7463283514
 20
177.2080120449
 10
-119.7419940216
 20
177.2077749443
 10
-119.7376348769
 20
177.2076320876
 10
-119.7332757322
 20
177.2075842879
 10
-119.7289165875
 20
177.2076320876
 10
-119.7245574428
 20
177.2077749443
 10
-119.7202231129
 20
177.2080120449
 10
-119.7159137395
 20
177.2083439268
 10
-119.711629181
 20
177.2087700527
 10
-119.7073938277
 20
177.2092879966
 10
-119.7032079601
 20
177.2098982823
 10
-119.6990712977
 20
177.2106003862
 10
-119.6950073889
 20
177.2113903113
 10
-119.6910166486
 20
177.2122685586
 10
-119.6870986618
 20
177.2132346273
 10
-119.6832757322
 20
177.2142830177
 10
-119.6795484017
 20
177.2154141996
 10
-119.6759161284
 20
177.2166277033
 10
-119.6723995893
 20
177.2179166209
 10
-119.6690056767
 20
177.2192786497
 10
-119.6657274983
 20
177.2207160924
 10
-119.6625650541
 20
177.2222289489
  0
LINE
  5
3F7
100
AcDbEntity
  8
0
100
AcDbLine
 62
7
  6
CONTINUOUS
 10
-125.3901299817
 20
179.5556813268
 11
-120.2636058181
 21
176.992419245
  0
LINE
  5
3F8
100
AcDbEntity
  8
0
100
AcDbLine
 62
7
  6
CONTINUOUS
 10
-124.9305105739
 20
179.7854910307
 11
-119.8039864103
 21
177.2222289489
  0
LINE
  5
3F9
100
AcDbEntity
  8
0
100
AcDbLine
 62
253
  6
CONTINUOUS
 10
-125.3901299817
 20
180.0860114127
 11
-124.9305105739
 21
179.8562017088
  0
LINE
  5
3FA
100
AcDbEntity
  8
0
100
AcDbLine
 62
7
  6
CONTINUOUS
 10
-119.2029456463
 20
176.992419245
 11
-124.9305105739
 21
179.8562017088
  0
LINE
  5
3FB
100
AcDbEntity
  8
0
100
AcDbLine
 62
7
  6
CONTINUOUS
 10
-124.9305105739
 20
180.4191182213
 11
-119.6625650541
 21
177.7851454613
  0
LWPOLYLINE
  5
3FC
100
AcDbEntity
  8
0
100
AcDbPolyline
 62
7
  6
CONTINUOUS
 90
67
 70
0
 10
-119.6625650541
 20
177.7851454613
 10
-119.6516168647
 20
177.7795111939
 10
-119.6406872403
 20
177.7735682994
 10
-119.6297761809
 20
177.767316778
 10
-119.6188775297
 20
177.7607527406
 10
-119.6079974434
 20
177.7538800762
 10
-119.5971543924
 20
177.7467104521
 10
-119.5863484396
 20
177.7392433638
 10
-119.5755795221
 20
177.7314793158
 10
-119.5648659216
 20
177.7234314886
 10
-119.5542077319
 20
177.7150994001
 10
-119.5436048592
 20
177.7064835323
 10
-119.5330753031
 20
177.6975985118
 10
-119.5226191883
 20
177.6884438815
 10
-119.5122363901
 20
177.6790200985
 10
-119.5019445348
 20
177.6693431608
 10
-119.4917437767
 20
177.6594126385
 10
-119.4816339615
 20
177.6492289616
 10
-119.4716322518
 20
177.6388094182
 10
-119.4617388313
 20
177.6281536076
 10
-119.4519535162
 20
177.6172619306
 10
-119.4422929186
 20
177.606152877
 10
-119.4327572502
 20
177.5948260777
 10
-119.4233462991
 20
177.583281902
 10
-119.4140760417
 20
177.5715399475
 10
-119.404946717
 20
177.5595998783
 10
-119.3959580859
 20
177.5474620304
 10
-119.3871254079
 20
177.5351470092
 10
-119.3784489478
 20
177.5226545139
 10
-119.3699284407
 20
177.5099848455
 10
-119.3615783513
 20
177.4971595122
 10
-119.3533989691
 20
177.4841782497
 10
-119.3453900046
 20
177.4710413225
 10
-119.3375650541
 20
177.4577710321
 10
-119.32992443
 20
177.444367152
 10
-119.3224678199
 20
177.4308299087
 10
-119.3152078823
 20
177.4171822835
 10
-119.3081449512
 20
177.4034240888
 10
-119.3012786927
 20
177.3895555122
 10
-119.294620763
 20
177.3756000974
 10
-119.2881715161
 20
177.3615576968
 10
-119.281930598
 20
177.3474284579
 10
-119.2759086035
 20
177.3332363671
 10
-119.2701059045
 20
177.3189813174
 10
-119.2645221292
 20
177.3046634157
 10
-119.2591667567
 20
177.2903069684
 10
-119.2540401749
 20
177.2759119101
 10
-119.2491419959
 20
177.2614783062
 10
-119.2444805351
 20
177.2470306597
 10
-119.2400561944
 20
177.2325689467
 10
-119.2358685718
 20
177.2180931911
 10
-119.2319247763
 20
177.2036279672
 10
-119.2282252222
 20
177.1891732931
 10
-119.2247694951
 20
177.1747291508
 10
-119.2215634618
 20
177.1603200611
 10
-119.2186075462
 20
177.1459460835
 10
-119.2159013243
 20
177.1316071586
 10
-119.2134493902
 20
177.1173276284
 10
-119.2112521759
 20
177.1031075939
 10
-119.2093092494
 20
177.0889469542
 10
-119.2076239091
 20
177.0748697488
 10
-119.2061965926
 20
177.0608761195
 10
-119.2050268622
 20
177.0469659244
 10
-119.2041167039
 20
177.033162778
 10
-119.2034667794
 20
177.0194745517
 10
-119.2030764268
 20
177.005893374
 10
-119.2029456463
 20
176.992419245
  0
LWPOLYLINE
  5
3FD
100
AcDbEntity
  8
0
100
AcDbPolyline
 62
7
  6
CONTINUOUS
 90
29
 70
0
 10
130.7593015032
 20
301.9735428197
 10
130.7588571268
 20
301.9983964779
 10
130.7575464242
 20
302.0235436122
 10
130.7553693954
 20
302.0489842225
 10
130.7523186075
 20
302.0747677909
 10
130.7484014934
 20
302.1008448354
 10
130.7436403516
 20
302.1270669097
 10
130.7380303684
 20
302.1534348409
 10
130.7315763574
 20
302.1799478019
 10
130.724315059
 20
302.2064548649
 10
130.7162418687
 20
302.2329559963
 10
130.7073613909
 20
302.2594512297
 10
130.6977241786
 20
302.2857897382
 10
130.6873259158
 20
302.3119706281
 10
130.6761709186
 20
302.337994793
 10
130.6643226878
 20
302.3637140879
 10
130.6517772697
 20
302.3891267739
 10
130.6385386181
 20
302.4142345898
 10
130.6246820954
 20
302.4388946068
 10
130.6102041776
 20
302.4631042709
 10
130.5951083886
 20
302.486866136
 10
130.5794806629
 20
302.5100449353
 10
130.5633179665
 20
302.5326373434
 10
130.5466233333
 20
302.5546466856
 10
130.5294917993
 20
302.5759476717
 10
130.5119208726
 20
302.5965362613
 10
130.493913045
 20
302.6164164948
 10
130.4755708279
 20
302.6354752017
 10
130.4568923143
 20
302.6537076965
  0
LWPOLYLINE
  5
3FE
100
AcDbEntity
  8
0
100
AcDbPolyline
 62
7
  6
CONTINUOUS
 90
7
 70
0
 10
127.2156072489
 20
303.389181381
 10
127.2154796988
 20
303.3981009161
 10
127.2125131575
 20
303.4339630941
 10
127.2056368057
 20
303.4695815933
 10
127.1948150936
 20
303.5049541983
 10
127.1800835711
 20
303.5400831246
 10
127.165620052
 20
303.5670964839
  0
LWPOLYLINE
  5
3FF
100
AcDbEntity
  8
0
100
AcDbPolyline
 62
7
  6
CONTINUOUS
 90
22
 70
0
 10
129.6656109929
 20
303.3891813825
 10
129.6654317653
 20
303.4073250453
 10
129.6611975977
 20
303.4800844972
 10
129.6513501699
 20
303.5525984007
 10
129.6358641787
 20
303.624865649
 10
129.6147649274
 20
303.696887349
 10
129.5881473837
 20
303.7683393311
 10
129.5559866723
 20
303.8392190273
 10
129.5183076685
 20
303.9095290055
 10
129.4752799654
 20
303.9789528008
 10
129.4268794524
 20
304.0474864184
 10
129.37313024
 20
304.1151338531
 10
129.3142742534
 20
304.1815906238
 10
129.2502884725
 20
304.2468513633
 10
129.1811959175
 20
304.3109214388
 10
129.1073075737
 20
304.3735124711
 10
129.0286018229
 20
304.434617793
 10
128.9451002834
 20
304.4942440716
 10
128.8571787955
 20
304.5521229291
 10
128.7649626392
 20
304.6081649064
 10
128.6683265346
 20
304.6624594626
 10
128.5672704815
 20
304.7150065977
  0
LINE
  5
400
100
AcDbEntity
  8
0
100
AcDbLine
 62
7
  6
CONTINUOUS
 10
122.165620052
 20
302.3066496283
 11
122.165620052
 21
303.389181383
  0
LINE
  5
401
100
AcDbEntity
  8
0
100
AcDbLine
 62
7
  6
CONTINUOUS
 10
124.665620052
 20
308.4554299952
 11
124.665620052
 21
303.2112662822
  0
LINE
  5
402
100
AcDbEntity
  8
0
100
AcDbLine
 62
7
  6
CONTINUOUS
 10
124.665620052
 20
-190.8082152866
 11
124.665620052
 21
-187.5093568861
  0
LINE
  5
403
100
AcDbEntity
  8
0
100
AcDbLine
 62
7
  6
CONTINUOUS
 10
127.165620052
 20
308.4554299952
 11
127.165620052
 21
303.2114049744
  0
LINE
  5
404
100
AcDbEntity
  8
0
100
AcDbLine
 62
7
  6
CONTINUOUS
 10
127.165620052
 20
-190.8082152866
 11
127.165620052
 21
-187.5097097378
  0
LINE
  5
405
100
AcDbEntity
  8
0
100
AcDbLine
 62
7
  6
CONTINUOUS
 10
129.665620052
 20
-184.6806521138
 11
129.665620052
 21
-185.7419666744
  0
LINE
  5
406
100
AcDbEntity
  8
0
100
AcDbLine
 62
7
  6
CONTINUOUS
 10
129.665620052
 20
302.3066496283
 11
129.665620052
 21
303.389181383
  0
LINE
  5
407
100
AcDbEntity
  8
0
100
AcDbLine
 62
253
  6
CONTINUOUS
 10
130.7593015032
 20
-183.8667087034
 11
130.7593015032
 21
301.9735428197
  0
LINE
  5
408
100
AcDbEntity
  8
0
100
AcDbLine
 62
7
  6
CONTINUOUS
 10
130.9789714173
 20
302.2387078627
 11
130.9789714173
 21
-183.6015436604
  0
LWPOLYLINE
  5
409
100
AcDbEntity
  8
0
100
AcDbPolyline
 62
7
  6
CONTINUOUS
 90
42
 70
0
 10
129.664988152
 20
-184.6809680638
 10
129.6640336148
 20
-184.7139687673
 10
129.6569777571
 20
-184.7865639661
 10
129.6442895812
 20
-184.8590772229
 10
129.6260261967
 20
-184.9311821559
 10
129.6021624718
 20
-185.0028769243
 10
129.5727235383
 20
-185.0741633688
 10
129.5378419006
 20
-185.1447206293
 10
129.4974930245
 20
-185.2145454186
 10
129.4517014443
 20
-185.2836410239
 10
129.4006732679
 20
-185.3516964459
 10
129.3443848899
 20
-185.4187069957
 10
129.2828599156
 20
-185.4846773623
 10
129.216375269
 20
-185.549310613
 10
129.1449085928
 20
-185.6126007205
 10
129.0684822443
 20
-185.6745537122
 10
128.9874402181
 20
-185.7348907379
 10
128.901761708
 20
-185.793604513
 10
128.8114675204
 20
-185.850702322
 10
128.7169640692
 20
-185.9059271677
 10
128.61823238
 20
-185.9592706073
 10
128.5152914273
 20
-186.0107410837
 10
128.4086045481
 20
-186.0601069283
 10
128.2981548566
 20
-186.1073586539
 10
128.1839592386
 20
-186.1525057477
 10
128.0665316884
 20
-186.1953450027
 10
127.9458576371
 20
-186.2358660158
 10
127.8219516537
 20
-186.2740791901
 10
127.6953714386
 20
-186.3098125282
 10
127.5661049371
 20
-186.3430548515
 10
127.4341642041
 20
-186.3738173386
 10
127.3001431045
 20
-186.4019615276
 10
127.1640322605
 20
-186.4274756158
 10
127.0258410499
 20
-186.4503714059
 10
126.8861914712
 20
-186.470545844
 10
126.7450769503
 20
-186.4879866628
 10
126.6025040613
 20
-186.5027061296
 10
126.4591145244
 20
-186.514637992
 10
126.3149046585
 20
-186.5237696843
 10
126.1698781448
 20
-186.5301137722
 10
126.0246877473
 20
-186.5336417011
 10
125.9590091236
 20
-186.5339575781
  0
LWPOLYLINE
  5
40A
100
AcDbEntity
  8
0
100
AcDbPolyline
 62
7
  6
CONTINUOUS
 90
54
 70
0
 10
129.6656109929
 20
-185.7419666749
 10
129.6640336148
 20
-185.7965005221
 10
129.6569777571
 20
-185.8690957208
 10
129.6442895812
 20
-185.9416089777
 10
129.6260261967
 20
-186.0137139106
 10
129.6021624718
 20
-186.0854086791
 10
129.5727235383
 20
-186.1566951236
 10
129.5378419006
 20
-186.227252384
 10
129.4974930245
 20
-186.2970771734
 10
129.4517014443
 20
-186.3661727787
 10
129.4006732679
 20
-186.4342282006
 10
129.3443848899
 20
-186.5012387505
 10
129.2828599156
 20
-186.567209117
 10
129.216375269
 20
-186.6318423677
 10
129.1449085928
 20
-186.6951324752
 10
129.0684822443
 20
-186.757085467
 10
128.9874402181
 20
-186.8174224926
 10
128.901761708
 20
-186.8761362677
 10
128.8114675204
 20
-186.9332340767
 10
128.7169640692
 20
-186.9884589225
 10
128.61823238
 20
-187.0418023621
 10
128.5152914273
 20
-187.0932728384
 10
128.4086045481
 20
-187.142638683
 10
128.2981548566
 20
-187.1898904086
 10
128.1839592386
 20
-187.2350375024
 10
128.0665316884
 20
-187.2778767575
 10
127.9458576371
 20
-187.3183977705
 10
127.8219516537
 20
-187.3566109448
 10
127.6953714386
 20
-187.3923442829
 10
127.5661049371
 20
-187.4255866062
 10
127.4341642041
 20
-187.4563490934
 10
127.3001431045
 20
-187.4844932824
 10
127.1640322605
 20
-187.5100073706
 10
127.0258410499
 20
-187.5329031607
 10
126.8861914712
 20
-187.5530775987
 10
126.7450769503
 20
-187.5705184175
 10
126.6025040613
 20
-187.5852378843
 10
126.4591145244
 20
-187.5971697468
 10
126.3149046585
 20
-187.606301439
 10
126.1698781448
 20
-187.612645527
 10
126.0246877473
 20
-187.6161734558
 10
125.8793327274
 20
-187.6168725311
 10
125.7338138238
 20
-187.6147554473
 10
125.5887860167
 20
-187.6098317334
 10
125.4442515201
 20
-187.6020887378
 10
125.3002081201
 20
-187.5915391121
 10
125.1573041558
 20
-187.5782303402
 10
125.0155447636
 20
-187.5621499846
 10
124.874924807
 20
-187.5433104827
 10
124.7360772165
 20
-187.5217966311
 10
124.5990099812
 20
-187.4975963746
 10
124.4637151119
 20
-187.4707217684
 10
124.3308015705
 20
-187.4412937751
 10
124.2056768484
 20
-187.4106237156
  0
LINE
  5
40B
100
AcDbEntity
  8
0
100
AcDbLine
 62
7
  6
CONTINUOUS
 10
-99.4034349889
 20
-191.5177572458
 11
-113.3841109109
 21
-198.5080952068
  0
LINE
  5
40C
100
AcDbEntity
  8
0
100
AcDbLine
 62
7
  6
CONTINUOUS
 10
-113.3841109109
 20
-202.0819287358
 11
-99.4034349889
 21
-195.0915907748
  0
LINE
  5
40D
100
AcDbEntity
  8
0
100
AcDbLine
 62
7
  6
CONTINUOUS
 10
-108.5337518969
 20
-189.7810817973
 11
-99.4034349889
 21
-185.9868704161
  0
LINE
  5
40E
100
AcDbEntity
  8
0
100
AcDbLine
 62
7
  6
CONTINUOUS
 10
-98.9443363653
 20
193.4122053256
 11
-93.6763908454
 21
190.7782325656
  0
LWPOLYLINE
  5
40F
100
AcDbEntity
  8
0
100
AcDbPolyline
 62
7
  6
CONTINUOUS
 90
67
 70
0
 10
-93.6763908454
 20
190.7782325656
 10
-93.6654426561
 20
190.7725982982
 10
-93.6545130317
 20
190.7666554037
 10
-93.6436019723
 20
190.7604038823
 10
-93.6327033211
 20
190.7538398449
 10
-93.6218232348
 20
190.7469671805
 10
-93.6109801838
 20
190.7397975564
 10
-93.600174231
 20
190.7323304681
 10
-93.5894053135
 20
190.7245664201
 10
-93.5786917129
 20
190.7165185929
 10
-93.5680335233
 20
190.7081865044
 10
-93.5574306506
 20
190.6995706366
 10
-93.5469010945
 20
190.6906856162
 10
-93.5364449797
 20
190.6815309858
 10
-93.5260621815
 20
190.6721072028
 10
-93.5157703262
 20
190.6624302651
 10
-93.5055695681
 20
190.6524997428
 10
-93.4954597529
 20
190.6423160659
 10
-93.4854580432
 20
190.6318965225
 10
-93.4755646226
 20
190.6212407119
 10
-93.4657793076
 20
190.6103490349
 10
-93.45611871
 20
190.5992399813
 10
-93.4465830416
 20
190.5879131821
 10
-93.4371720905
 20
190.5763690063
 10
-93.4279018331
 20
190.5646270518
 10
-93.4187725084
 20
190.5526869826
 10
-93.4097838773
 20
190.5405491347
 10
-93.4009511993
 20
190.5282341135
 10
-93.3922747392
 20
190.5157416182
 10
-93.3837542321
 20
190.5030719498
 10
-93.3754041427
 20
190.4902466165
 10
-93.3672247605
 20
190.477265354
 10
-93.359215796
 20
190.4641284268
 10
-93.3513908454
 20
190.4508581364
 10
-93.3437502214
 20
190.4374542563
 10
-93.3362936113
 20
190.423917013
 10
-93.3290336737
 20
190.4102693878
 10
-93.3219707426
 20
190.3965111931
 10
-93.3151044841
 20
190.3826426165
 10
-93.3084465544
 20
190.3686872017
 10
-93.3019973074
 20
190.3546448011
 10
-93.2957563894
 20
190.3405155622
 10
-93.2897343949
 20
190.3263234714
 10
-93.2839316959
 20
190.3120684217
 10
-93.2783479206
 20
190.29775052
 10
-93.272992548
 20
190.2833940727
 10
-93.2678659663
 20
190.2689990144
 10
-93.2629677873
 20
190.2545654105
 10
-93.2583063265
 20
190.240117764
 10
-93.2538819858
 20
190.225656051
 10
-93.2496943632
 20
190.2111802954
 10
-93.2457505677
 20
190.1967150715
 10
-93.2420510136
 20
190.1822603974
 10
-93.2385952865
 20
190.1678162551
 10
-93.2353892532
 20
190.1534071654
 10
-93.2324333376
 20
190.1390331878
 10
-93.2297271157
 20
190.1246942629
 10
-93.2272751816
 20
190.1104147327
 10
-93.2250779673
 20
190.0961946982
 10
-93.2231350408
 20
190.0820340585
 10
-93.2214497005
 20
190.0679568531
 10
-93.220022384
 20
190.0539632238
 10
-93.2188526536
 20
190.0400530287
 10
-93.2179424952
 20
190.0262498823
 10
-93.2172925708
 20
190.012561656
 10
-93.2169022182
 20
189.9989804783
 10
-93.2167714377
 20
189.9855063493
  0
LWPOLYLINE
  5
410
100
AcDbEntity
  8
0
100
AcDbPolyline
 62
7
  6
CONTINUOUS
 90
10
 70
0
 10
130.9789714173
 20
-183.6015436604
 10
130.9760674001
 20
-183.6341410145
 10
130.9674843539
 20
-183.6667383686
 10
130.953415787
 20
-183.6986008023
 10
130.9337370896
 20
-183.7297116211
 10
130.9085728715
 20
-183.7600875194
 10
130.8784904701
 20
-183.7890436604
 10
130.8436789978
 20
-183.8163517653
 10
130.8039493422
 20
-183.842240113
 10
130.7593015032
 20
-183.8667087034
  0
LWPOLYLINE
  5
411
100
AcDbEntity
  8
0
100
AcDbPolyline
 62
7
  6
CONTINUOUS
 90
55
 70
0
 10
-112.1300929959
 20
-225.5684884917
 10
-112.1768707944
 20
-225.5923931045
 10
-112.2236539138
 20
-225.6173845566
 10
-112.2704118465
 20
-225.6435267215
 10
-112.3171140847
 20
-225.6708834725
 10
-112.3637301208
 20
-225.6995186833
 10
-112.4102294469
 20
-225.7294962274
 10
-112.4565815555
 20
-225.7608799781
 10
-112.495782625
 20
-225.7886704224
 10
-112.5348093152
 20
-225.8175638058
 10
-112.5736152928
 20
-225.8476039177
 10
-112.6121542245
 20
-225.8788345472
 10
-112.6503797769
 20
-225.9112994837
 10
-112.6882456168
 20
-225.9450425164
 10
-112.7257054107
 20
-225.9801074345
 10
-112.7580781656
 20
-226.0118720245
 10
-112.7900458112
 20
-226.0446760062
 10
-112.8215489396
 20
-226.0785151429
 10
-112.852528143
 20
-226.1133851981
 10
-112.8829240137
 20
-226.1492819349
 10
-112.9126771438
 20
-226.1862011166
 10
-112.9417281255
 20
-226.2241385066
 10
-112.9678851958
 20
-226.2600698739
 10
-112.9933520682
 20
-226.2968147324
 10
-113.0180881656
 20
-226.3343216376
 10
-113.042052911
 20
-226.3725391454
 10
-113.0652057272
 20
-226.4114158113
 10
-113.0875060372
 20
-226.4509001909
 10
-113.108913264
 20
-226.49094084
 10
-113.1291590718
 20
-226.5310068838
 10
-113.1484936994
 20
-226.5715074999
 10
-113.1669178683
 20
-226.6123842002
 10
-113.1844323002
 20
-226.6535784964
 10
-113.2010377167
 20
-226.6950319006
 10
-113.2167348394
 20
-226.7366859245
 10
-113.2315243899
 20
-226.7784820802
 10
-113.2460083222
 20
-226.8222308074
 10
-113.2595331034
 20
-226.8660366847
 10
-113.2721288854
 20
-226.9098656135
 10
-113.2838258207
 20
-226.9536834953
 10
-113.2946540613
 20
-226.9974562315
 10
-113.3046437595
 20
-227.0411497235
 10
-113.3138250674
 20
-227.0847298728
 10
-113.3242504509
 20
-227.1392211912
 10
-113.3335096777
 20
-227.1934647727
 10
-113.3416624401
 20
-227.2474451241
 10
-113.3487684299
 20
-227.3011467519
 10
-113.3548873393
 20
-227.3545541628
 10
-113.3600788603
 20
-227.4076518634
 10
-113.3647255378
 20
-227.4648584352
 10
-113.3684061963
 20
-227.5216843867
 10
-113.3711748704
 20
-227.5781314033
 10
-113.3730855947
 20
-227.6342011704
 10
-113.3741924039
 20
-227.6898953734
 10
-113.3745493326
 20
-227.7452156976
  0
LINE
  5
412
100
AcDbEntity
  8
0
100
AcDbLine
 62
7
  6
CONTINUOUS
 10
-112.1300929959
 20
-226.1256646258
 11
-108.5961147096
 21
-224.3543493493
  0
LINE
  5
413
100
AcDbEntity
  8
0
100
AcDbLine
 62
7
  6
CONTINUOUS
 10
-96.862147311
 20
-214.4933002488
 11
-116.0482364717
 21
-224.0863448291
  0
LINE
  5
414
100
AcDbEntity
  8
0
100
AcDbLine
 62
7
  6
CONTINUOUS
 10
-115.5929993582
 20
-224.4154550333
 11
-97.3161049148
 21
-215.2770078116
  0
LINE
  5
415
100
AcDbEntity
  8
0
100
AcDbLine
 62
7
  6
CONTINUOUS
 10
-100.660558794
 20
-219.8323042091
 11
-105.7069589588
 21
-222.3555042915
  0
LINE
  5
416
100
AcDbEntity
  8
0
100
AcDbLine
 62
7
  6
CONTINUOUS
 10
-108.387345192
 20
-223.6971145897
 11
-112.1300929959
 21
-225.5684884917
  0
LINE
  5
417
100
AcDbEntity
  8
0
100
AcDbLine
 62
7
  6
CONTINUOUS
 10
-99.4034349889
 20
-189.4066042507
 11
-113.3841109109
 21
-194.8507222693
  0
LWPOLYLINE
  5
418
100
AcDbEntity
  8
0
100
AcDbPolyline
 62
7
  6
CONTINUOUS
 90
53
 70
0
 10
-100.6548340756
 20
-236.0590055272
 10
-100.611767009
 20
-236.0368079223
 10
-100.5686913705
 20
-236.0132561593
 10
-100.5256447248
 20
-235.9883364278
 10
-100.482664637
 20
-235.9620349171
 10
-100.439788672
 20
-235.9343378167
 10
-100.3970543946
 20
-235.9052313159
 10
-100.3544993698
 20
-235.8747016042
 10
-100.3121611626
 20
-235.842734871
 10
-100.2700773378
 20
-235.8093173056
 10
-100.2282854604
 20
-235.7744350976
 10
-100.1918496719
 20
-235.7425790774
 10
-100.1557206778
 20
-235.7096003152
 10
-100.1199510121
 20
-235.6755168804
 10
-100.0845932094
 20
-235.6403468425
 10
-100.0496998039
 20
-235.604108271
 10
-100.0153233299
 20
-235.5668192353
 10
-99.9815163217
 20
-235.528497805
 10
-99.9483313137
 20
-235.4891620496
 10
-99.9158208402
 20
-235.4488300384
 10
-99.8840374354
 20
-235.407519841
 10
-99.8530336338
 20
-235.3652495268
 10
-99.8228619695
 20
-235.3220371655
 10
-99.7962526996
 20
-235.2820414059
 10
-99.7704003321
 20
-235.2413341307
 10
-99.7453336891
 20
-235.199964253
 10
-99.7210815924
 20
-235.1579806863
 10
-99.6976728641
 20
-235.1154323438
 10
-99.6751363261
 20
-235.0723681388
 10
-99.6535008006
 20
-235.0288369849
 10
-99.6311174504
 20
-234.9812308342
 10
-99.6098283126
 20
-234.9331970377
 10
-99.5896373726
 20
-234.8847980948
 10
-99.5705486158
 20
-234.836096505
 10
-99.5525660276
 20
-234.7871547675
 10
-99.5356935933
 20
-234.7380353818
 10
-99.5199352985
 20
-234.6888008474
 10
-99.504260056
 20
-234.6358955155
 10
-99.4898392511
 20
-234.5829687674
 10
-99.476639336
 20
-234.5300598348
 10
-99.4646267628
 20
-234.4772079491
 10
-99.4537679837
 20
-234.4244523418
 10
-99.4440294509
 20
-234.3718322446
 10
-99.4353776165
 20
-234.3193868889
 10
-99.4277789327
 20
-234.2671555062
 10
-99.4211998516
 20
-234.2151773282
 10
-99.4156068254
 20
-234.1634915863
 10
-99.4109663063
 20
-234.1121375121
 10
-99.4072447464
 20
-234.0611543371
 10
-99.4044085979
 20
-234.0105812928
 10
-99.402424313
 20
-233.9604576108
 10
-99.4012583438
 20
-233.9108225227
 10
-99.4008771425
 20
-233.8617152599
  0
LINE
  5
419
100
AcDbEntity
  8
0
100
AcDbLine
 62
7
  6
CONTINUOUS
 10
-108.5961147096
 20
-239.4768704319
 11
-112.1300929959
 21
-241.2438595751
  0
LINE
  5
41A
100
AcDbEntity
  8
0
100
AcDbLine
 62
7
  6
CONTINUOUS
 10
-112.2710794117
 20
-241.8700371469
 11
-108.3927045028
 21
-239.9308496925
  0
LINE
  5
41B
100
AcDbEntity
  8
0
100
AcDbLine
 62
7
  6
CONTINUOUS
 10
-97.3161049148
 20
-237.2891946559
 11
-115.5929993582
 21
-246.4276418776
  0
LINE
  5
41C
100
AcDbEntity
  8
0
100
AcDbLine
 62
7
  6
CONTINUOUS
 10
-116.0449477181
 20
-247.2099715615
 11
-96.8583713608
 21
-237.6166833829
  0
LINE
  5
41D
100
AcDbEntity
  8
0
100
AcDbLine
 62
7
  6
CONTINUOUS
 10
-105.7283962022
 20
-238.5942948204
 11
-100.6548340756
 21
-236.0590055272
  0
LWPOLYLINE
  5
41E
100
AcDbEntity
  8
0
100
AcDbPolyline
 62
7
  6
CONTINUOUS
 90
55
 70
0
 10
-112.1300929959
 20
-241.2438595751
 10
-112.1536396249
 20
-241.2553788727
 10
-112.1772539716
 20
-241.2664080609
 10
-112.2009109991
 20
-241.2769107193
 10
-112.2245856706
 20
-241.2868504275
 10
-112.2482529492
 20
-241.2961907653
 10
-112.2718877979
 20
-241.3048953122
 10
-112.2954651799
 20
-241.312927648
 10
-112.3189600582
 20
-241.3202513522
 10
-112.3423473961
 20
-241.3268300045
 10
-112.3656021564
 20
-241.3326271846
 10
-112.3886993025
 20
-241.3376064721
 10
-112.4116137973
 20
-241.3417314466
 10
-112.4343206039
 20
-241.3449656879
 10
-112.4567946855
 20
-241.3472727755
 10
-112.4790110052
 20
-241.3486162891
 10
-112.5009445261
 20
-241.3489598083
 10
-112.5225702112
 20
-241.3482669129
 10
-112.54352222
 20
-241.346541653
 10
-112.5641180442
 20
-241.3437637657
 10
-112.5843237682
 20
-241.3399192836
 10
-112.6041054764
 20
-241.334994239
 10
-112.6234292533
 20
-241.3289746644
 10
-112.6422611832
 20
-241.3218465924
 10
-112.6605673505
 20
-241.3135960554
 10
-112.677047633
 20
-241.3049335014
 10
-112.6930293473
 20
-241.2953117065
 10
-112.7084953454
 20
-241.2847489579
 10
-112.723428479
 20
-241.2732635429
 10
-112.7378115999
 20
-241.2608737489
 10
-112.75162756
 20
-241.2475978631
 10
-112.7648592111
 20
-241.2334541728
 10
-112.7779553143
 20
-241.2178861005
 10
-112.7904125089
 20
-241.2014430686
 10
-112.8022392583
 20
-241.1841644858
 10
-112.8134440258
 20
-241.1660897611
 10
-112.8240352748
 20
-241.1472583033
 10
-112.8340214684
 20
-241.1277095212
 10
-112.8434110702
 20
-241.1074828236
 10
-112.8522125433
 20
-241.0866176195
 10
-112.8604343512
 20
-241.0651533177
 10
-112.8680849572
 20
-241.0431293269
 10
-112.8751728245
 20
-241.0205850562
 10
-112.8817064166
 20
-240.9975599142
 10
-112.8876941967
 20
-240.9740933099
 10
-112.8945767271
 20
-240.9434718347
 10
-112.900608781
 20
-240.9122318878
 10
-112.9058200359
 20
-240.8804135435
 10
-112.9102401696
 20
-240.8480568767
 10
-112.9138988595
 20
-240.8152019618
 10
-112.9168257834
 20
-240.7818888735
 10
-112.9190506187
 20
-240.7481576865
 10
-112.9206030431
 20
-240.7140484753
 10
-112.9215127341
 20
-240.6796013146
 10
-112.9218093694
 20
-240.644856279
  0
LWPOLYLINE
  5
41F
100
AcDbEntity
  8
0
100
AcDbPolyline
 62
7
  6
CONTINUOUS
 90
22
 70
0
 10
104.6041957147
 20
-197.2113617601
 10
104.60893418
 20
-197.2089260094
 10
104.624029969
 20
-197.2002599332
 10
104.6385078868
 20
-197.190528187
 10
104.6523644095
 20
-197.1797246927
 10
104.6656030611
 20
-197.1678555284
 10
104.6781484792
 20
-197.1549882605
 10
104.68999671
 20
-197.1411171964
 10
104.7011517072
 20
-197.1262480287
 10
104.71154997
 20
-197.1104654016
 10
104.7211871823
 20
-197.0937641054
 10
104.7300676601
 20
-197.0761493498
 10
104.7381408504
 20
-197.0577214087
 10
104.7454021488
 20
-197.0384756441
 10
104.7518561597
 20
-197.0184166941
 10
104.757466143
 20
-196.9976587461
 10
104.7622272848
 20
-196.9761978136
 10
104.7661443989
 20
-196.9540378832
 10
104.7691951868
 20
-196.9313051027
 10
104.7713722156
 20
-196.9080415212
 10
104.7726829182
 20
-196.8842050895
 10
104.7731272946
 20
-196.8597958077
  0
LWPOLYLINE
  5
420
100
AcDbEntity
  8
0
100
AcDbPolyline
 62
7
  6
CONTINUOUS
 90
22
 70
0
 10
130.5903699233
 20
-184.2182746558
 10
130.5951083886
 20
-184.2158389051
 10
130.6102041776
 20
-184.2071728289
 10
130.6246820954
 20
-184.1974410827
 10
130.6385386181
 20
-184.1866375884
 10
130.6517772697
 20
-184.1747684241
 10
130.6643226878
 20
-184.1619011562
 10
130.6761709186
 20
-184.1480300921
 10
130.6873259158
 20
-184.1331609244
 10
130.6977241786
 20
-184.1173782973
 10
130.7073613909
 20
-184.1006770011
 10
130.7162418687
 20
-184.0830622455
 10
130.724315059
 20
-184.0646343044
 10
130.7315763574
 20
-184.0453885398
 10
130.7380303684
 20
-184.0253295898
 10
130.7436403516
 20
-184.0045716418
 10
130.7484014934
 20
-183.9831107093
 10
130.7523186075
 20
-183.9609507789
 10
130.7553693954
 20
-183.9382179984
 10
130.7575464242
 20
-183.9149544169
 10
130.7588571268
 20
-183.8911179852
 10
130.7593015032
 20
-183.8667087034
  0
LINE
  5
421
100
AcDbEntity
  8
0
100
AcDbLine
 62
7
  6
CONTINUOUS
 10
-93.2167714377
 20
-293.919310965
 11
104.3135078868
 21
-195.1541713028
  0
LINE
  5
422
100
AcDbEntity
  8
0
100
AcDbLine
 62
253
  6
CONTINUOUS
 10
104.7731272946
 20
-196.8597958077
 11
130.7593015032
 21
-183.8667087034
  0
LINE
  5
423
100
AcDbEntity
  8
0
100
AcDbLine
 62
253
  6
CONTINUOUS
 10
-93.2167714377
 20
-295.8547451738
 11
-119.2029456463
 21
-308.8478322781
  0
LINE
  5
424
100
AcDbEntity
  8
0
100
AcDbLine
 62
7
  6
CONTINUOUS
 10
-119.371876217
 20
-309.1994002483
 11
-93.3857020084
 21
-296.206313144
  0
LINE
  5
425
100
AcDbEntity
  8
0
100
AcDbLine
 62
7
  6
CONTINUOUS
 10
130.5903709325
 20
-184.2182766736
 11
104.6041967239
 21
-197.2113637779
  0
LWPOLYLINE
  5
426
100
AcDbEntity
  8
0
100
AcDbPolyline
 62
7
  6
CONTINUOUS
 90
30
 70
0
 10
-119.3718763827
 20
-309.1993999169
 10
-119.3784489478
 20
-309.2025642455
 10
-119.3871254079
 20
-309.2063802807
 10
-119.3959580859
 20
-309.2098626238
 10
-119.404946717
 20
-309.2130118407
 10
-119.4140760417
 20
-309.2158225852
 10
-119.4233462991
 20
-309.2182942823
 10
-119.4327572502
 20
-309.220427507
 10
-119.4422929186
 20
-309.2222186378
 10
-119.4519535162
 20
-309.2236670937
 10
-119.4617388313
 20
-309.2247734558
 10
-119.4716322518
 20
-309.2255358458
 10
-119.4816339615
 20
-309.2259536795
 10
-119.4917437767
 20
-309.2260275411
 10
-119.5019445348
 20
-309.2257573054
 10
-119.5122363901
 20
-309.2251423877
 10
-119.5226191883
 20
-309.2241833726
 10
-119.5330753031
 20
-309.2228818881
 10
-119.5436048592
 20
-309.2212373525
 10
-119.5542077319
 20
-309.2192503475
 10
-119.5648659216
 20
-309.2169242464
 10
-119.5755795221
 20
-309.2142584731
 10
-119.5863484396
 20
-309.2112536036
 10
-119.5971543924
 20
-309.2079147391
 10
-119.6079974434
 20
-309.2042413122
 10
-119.6188775297
 20
-309.2002338903
 10
-119.6297761809
 20
-309.1958992765
 10
-119.6406872403
 20
-309.1912397384
 10
-119.6516168647
 20
-309.1862530085
 10
-119.6625650541
 20
-309.1809390867
  0
LWPOLYLINE
  5
427
100
AcDbEntity
  8
SMUSSO
100
AcDbPolyline
 62
7
  6
CONTINUOUS
 90
8
 70
0
 10
126.9362407782
 20
-191.1690592048
 10
126.9981518068
 20
-191.1207152866
 10
127.0485047858
 20
-191.0723517002
 10
127.090235828
 20
-191.0219778762
 10
127.1230273349
 20
-190.9699771898
 10
127.1466297433
 20
-190.9167453976
 10
127.1608634247
 20
-190.8626876258
 10
127.165620052
 20
-190.8082152866
  0
LINE
  5
428
100
AcDbEntity
  8
SMUSSO
100
AcDbLine
 62
7
  6
CONTINUOUS
 10
126.6096421458
 20
-191.3999993125
 11
126.9362407782
 21
-191.1690592048
  0
LWPOLYLINE
  5
429
100
AcDbEntity
  8
0
100
AcDbPolyline
 62
7
  6
CONTINUOUS
 90
7
 70
0
 10
124.6696643248
 20
303.2037128373
 10
124.651156533
 20
303.2382796415
 10
124.6364250104
 20
303.2734085677
 10
124.6256032984
 20
303.3087811727
 10
124.6187269466
 20
303.344399672
 10
124.6157604053
 20
303.3802618499
 10
124.6156328551
 20
303.389181385
  0
LWPOLYLINE
  5
42A
100
AcDbEntity
  8
0
100
AcDbPolyline
 62
7
  6
CONTINUOUS
 90
13
 70
0
 10
127.165620052
 20
305.1565715947
 10
127.2322301228
 20
305.1448110832
 10
127.3675249922
 20
305.117936477
 10
127.5004385336
 20
305.0885084837
 10
127.6309600126
 20
305.0565155933
 10
127.7591001637
 20
305.0219693157
 10
127.8842822283
 20
304.9850251438
 10
128.006492872
 20
304.9456722684
 10
128.1257454292
 20
304.9039214987
 10
128.2415031443
 20
304.8599607547
 10
128.3535870988
 20
304.8138526766
 10
128.4621762112
 20
304.7655346243
 10
128.5672704815
 20
304.7150065977
  0
LWPOLYLINE
  5
42B
100
AcDbEntity
  8
0
100
AcDbPolyline
 62
7
  6
CONTINUOUS
 90
38
 70
0
 10
124.9963812365
 20
302.9295619752
 10
125.0487047396
 20
302.9048312462
 10
125.1033177247
 20
302.8817038267
 10
125.160220192
 20
302.8601797168
 10
125.2195984807
 20
302.8402033995
 10
125.2812662514
 20
302.8218303918
 10
125.3446644865
 20
302.8052272448
 10
125.4098089202
 20
302.7904100509
 10
125.4766838183
 20
302.7773627178
 10
125.5446829605
 20
302.7662035194
 10
125.6138165689
 20
302.7569496235
 10
125.6840744215
 20
302.7495838622
 10
125.7548196314
 20
302.7441730062
 10
125.8260566299
 20
302.7407348303
 10
125.8977809859
 20
302.7392515596
 10
125.9693425186
 20
302.7397366401
 10
126.0407397476
 20
302.7422079687
 10
126.1119741534
 20
302.7466476484
 10
126.1823999969
 20
302.7530154336
 10
126.2520099261
 20
302.7613288553
 10
126.320811293
 20
302.7715703825
 10
126.3881804138
 20
302.7836471758
 10
126.4541042658
 20
302.7975759222
 10
126.5185958718
 20
302.8133399347
 10
126.5810706159
 20
302.8307963127
 10
126.6415101599
 20
302.8499604439
 10
126.699932842
 20
302.8708169405
 10
126.7558090613
 20
302.8931767387
 10
126.809115664
 20
302.9170535071
 10
126.8598758039
 20
302.942433577
 10
126.9076293407
 20
302.9690868784
 10
126.952348937
 20
302.997024988
 10
126.9940619303
 20
303.0262363291
 10
127.0323901927
 20
303.0564561011
 10
127.0673029486
 20
303.0876934732
 10
127.0988309736
 20
303.1199392761
 10
127.1266884665
 20
303.1529012021
 10
127.150842053
 20
303.1865857625
  0
LWPOLYLINE
  5
42C
100
AcDbEntity
  8
0
100
AcDbPolyline
 62
7
  6
CONTINUOUS
 90
62
 70
0
 10
123.2639696226
 20
300.9808244136
 10
123.3690638929
 20
300.930296387
 10
123.4776530053
 20
300.8819783347
 10
123.5897369598
 20
300.8358702566
 10
123.7054946749
 20
300.7919095126
 10
123.8247472321
 20
300.7501587429
 10
123.9469578758
 20
300.7108058675
 10
124.0721399404
 20
300.6738616956
 10
124.2002800915
 20
300.639315418
 10
124.3308015705
 20
300.6073225276
 10
124.4637151119
 20
300.5778945343
 10
124.5990099812
 20
300.5510199281
 10
124.7360772165
 20
300.5268196716
 10
124.874924807
 20
300.50530582
 10
125.0155447636
 20
300.4864663181
 10
125.1573041558
 20
300.4703859625
 10
125.3002081201
 20
300.4570771906
 10
125.4442515201
 20
300.4465275649
 10
125.5887860167
 20
300.4387845694
 10
125.7338138238
 20
300.4338608555
 10
125.8793327274
 20
300.4317437716
 10
126.0246877473
 20
300.4324428469
 10
126.1698781448
 20
300.4359707758
 10
126.3149046585
 20
300.4423148637
 10
126.4591145244
 20
300.4514465559
 10
126.6025040613
 20
300.4633784184
 10
126.7450769503
 20
300.4780978852
 10
126.8861914712
 20
300.495538704
 10
127.0258410499
 20
300.515713142
 10
127.1640322605
 20
300.5386089321
 10
127.3001431045
 20
300.5641230204
 10
127.4341642041
 20
300.5922672094
 10
127.5661049371
 20
300.6230296965
 10
127.6953714386
 20
300.6562720198
 10
127.8219516537
 20
300.6920053579
 10
127.9458576371
 20
300.7302185322
 10
128.0665316884
 20
300.7707395452
 10
128.1839592386
 20
300.8135788003
 10
128.2981548566
 20
300.8587258941
 10
128.4086045481
 20
300.9059776197
 10
128.5152914273
 20
300.9553434643
 10
128.61823238
 20
301.0068139406
 10
128.7169640692
 20
301.0601573803
 10
128.8114675204
 20
301.115382226
 10
128.901761708
 20
301.172480035
 10
128.9874402181
 20
301.2311938101
 10
129.0684822443
 20
301.2915308357
 10
129.1449085928
 20
301.3534838275
 10
129.216375269
 20
301.416773935
 10
129.2828599156
 20
301.4814071857
 10
129.3443848899
 20
301.5473775523
 10
129.4006732679
 20
301.6143881021
 10
129.4517014443
 20
301.6824435241
 10
129.4974930245
 20
301.7515391294
 10
129.5378419006
 20
301.8213639187
 10
129.5727235383
 20
301.8919211791
 10
129.6021624718
 20
301.9632076237
 10
129.6260261967
 20
302.0349023921
 10
129.6442895812
 20
302.107007325
 10
129.6569777571
 20
302.1795205819
 10
129.6640336148
 20
302.2521157806
 10
129.6656109929
 20
302.3066496278
  0
LWPOLYLINE
  5
42D
100
AcDbEntity
  8
0
100
AcDbPolyline
 62
7
  6
CONTINUOUS
 90
62
 70
0
 10
123.2639696226
 20
302.0633561683
 10
123.3690638929
 20
302.0128281417
 10
123.4776530053
 20
301.9645100894
 10
123.5897369598
 20
301.9184020113
 10
123.7054946749
 20
301.8744412673
 10
123.8247472321
 20
301.8326904976
 10
123.9469578758
 20
301.7933376222
 10
124.0721399404
 20
301.7563934503
 10
124.2002800915
 20
301.7218471728
 10
124.3308015705
 20
301.6898542823
 10
124.4637151119
 20
301.660426289
 10
124.5990099812
 20
301.6335516828
 10
124.7360772165
 20
301.6093514263
 10
124.874924807
 20
301.5878375748
 10
125.0155447636
 20
301.5689980729
 10
125.1573041558
 20
301.5529177172
 10
125.3002081201
 20
301.5396089453
 10
125.4442515201
 20
301.5290593197
 10
125.5887860167
 20
301.5213163241
 10
125.7338138238
 20
301.5163926102
 10
125.8793327274
 20
301.5142755264
 10
126.0246877473
 20
301.5149746016
 10
126.1698781448
 20
301.5185025305
 10
126.3149046585
 20
301.5248466184
 10
126.4591145244
 20
301.5339783107
 10
126.6025040613
 20
301.5459101731
 10
126.7450769503
 20
301.5606296399
 10
126.8861914712
 20
301.5780704587
 10
127.0258410499
 20
301.5982448968
 10
127.1640322605
 20
301.6211406869
 10
127.3001431045
 20
301.6466547751
 10
127.4341642041
 20
301.6747989641
 10
127.5661049371
 20
301.7055614512
 10
127.6953714386
 20
301.7388037746
 10
127.8219516537
 20
301.7745371126
 10
127.9458576371
 20
301.8127502869
 10
128.0665316884
 20
301.8532713
 10
128.1839592386
 20
301.896110555
 10
128.2981548566
 20
301.9412576488
 10
128.4086045481
 20
301.9885093744
 10
128.5152914273
 20
302.037875219
 10
128.61823238
 20
302.0893456954
 10
128.7169640692
 20
302.142689135
 10
128.8114675204
 20
302.1979139807
 10
128.901761708
 20
302.2550117897
 10
128.9874402181
 20
302.3137255649
 10
129.0684822443
 20
302.3740625905
 10
129.1449085928
 20
302.4360155822
 10
129.216375269
 20
302.4993056897
 10
129.2828599156
 20
302.5639389405
 10
129.3443848899
 20
302.629909307
 10
129.4006732679
 20
302.6969198568
 10
129.4517014443
 20
302.7649752788
 10
129.4974930245
 20
302.8340708841
 10
129.5378419006
 20
302.9038956734
 10
129.5727235383
 20
302.9744529339
 10
129.6021624718
 20
303.0457393784
 10
129.6260261967
 20
303.1174341468
 10
129.6442895812
 20
303.1895390798
 10
129.6569777571
 20
303.2620523366
 10
129.6640336148
 20
303.3346475354
 10
129.6656109929
 20
303.3891813825
  0
LINE
  5
42E
100
AcDbEntity
  8
0
100
AcDbLine
 62
7
  6
CONTINUOUS
 10
104.3135078868
 20
289.2102654193
 11
99.0455623669
 21
291.8442381792
  0
LINE
  5
42F
100
AcDbEntity
  8
0
100
AcDbLine
 62
7
  6
CONTINUOUS
 10
104.3135078868
 20
289.7731819318
 11
99.0455623669
 21
292.4071546917
  0
LINE
  5
430
100
AcDbEntity
  8
0
100
AcDbLine
 62
7
  6
CONTINUOUS
 10
130.4535974967
 20
302.6567249088
 11
130.7593015032
 21
302.5038729056
  0
LINE
  5
431
100
AcDbEntity
  8
0
100
AcDbLine
 62
7
  6
CONTINUOUS
 10
130.2996820954
 20
302.7662690361
 11
129.665620052
 21
303.0833000577
  0
LWPOLYLINE
  5
432
100
AcDbEntity
  8
0
100
AcDbPolyline
 62
7
  6
CONTINUOUS
 90
22
 70
0
 10
123.2639696226
 20
300.9808244136
 10
123.1629135695
 20
301.0333715487
 10
123.0662774648
 20
301.0876661049
 10
122.9740613086
 20
301.1437080822
 10
122.8861398207
 20
301.2015869397
 10
122.8026382812
 20
301.2612132183
 10
122.7239325304
 20
301.3223185402
 10
122.6500441866
 20
301.3849095725
 10
122.5809516315
 20
301.448979648
 10
122.5169658506
 20
301.5142403875
 10
122.4581098641
 20
301.5806971582
 10
122.4043606517
 20
301.6483445929
 10
122.3559601386
 20
301.7168782105
 10
122.3129324355
 20
301.7863020058
 10
122.2752534318
 20
301.856611984
 10
122.2430927204
 20
301.9274916802
 10
122.2164751767
 20
301.9989436623
 10
122.1953759254
 20
302.0709653623
 10
122.1798899342
 20
302.1432326106
 10
122.1700425064
 20
302.2157465141
 10
122.1658083388
 20
302.288505966
 10
122.1656291112
 20
302.3066496288
  0
LWPOLYLINE
  5
433
100
AcDbEntity
  8
0
100
AcDbPolyline
 62
7
  6
CONTINUOUS
 90
22
 70
0
 10
123.2639696226
 20
302.0633561683
 10
123.1629135695
 20
302.1159033034
 10
123.0662774648
 20
302.1701978596
 10
122.9740613086
 20
302.2262398369
 10
122.8861398207
 20
302.2841186944
 10
122.8026382812
 20
302.343744973
 10
122.7239325304
 20
302.4048502949
 10
122.6500441866
 20
302.4674413272
 10
122.5809516315
 20
302.5315114027
 10
122.5169658506
 20
302.5967721423
 10
122.4581098641
 20
302.663228913
 10
122.4043606517
 20
302.7308763476
 10
122.3559601386
 20
302.7994099652
 10
122.3129324355
 20
302.8688337605
 10
122.2752534318
 20
302.9391437388
 10
122.2430927204
 20
303.0100234349
 10
122.2164751767
 20
303.081475417
 10
122.1953759254
 20
303.153497117
 10
122.1798899342
 20
303.2257643654
 10
122.1700425064
 20
303.2982782689
 10
122.1658083388
 20
303.3710377207
 10
122.1656291112
 20
303.3891813835
  0
LWPOLYLINE
  5
434
100
AcDbEntity
  8
0
100
AcDbPolyline
 62
7
  6
CONTINUOUS
 90
10
 70
0
 10
124.9963812365
 20
302.9295619752
 10
124.9469197783
 20
302.9557237268
 10
124.9006649393
 20
302.9830302194
 10
124.8576167196
 20
303.011481453
 10
124.817664085
 20
303.0411705973
 10
124.7809180695
 20
303.0720044827
 10
124.7477117756
 20
303.1037036003
 10
124.7180773879
 20
303.1362758171
 10
124.6919827217
 20
303.1697132662
 10
124.6696643248
 20
303.2037128373
  0
LWPOLYLINE
  5
435
100
AcDbEntity
  8
SMUSSO
100
AcDbPolyline
 62
7
  6
CONTINUOUS
 90
10
 70
0
 10
125.0317365756
 20
308.0134882569
 10
124.9580644981
 20
308.0536877391
 10
124.8916799967
 20
308.0969447224
 10
124.8330882973
 20
308.1429299952
 10
124.7827353182
 20
308.1912935816
 10
124.7410042761
 20
308.2416674056
 10
124.7082127692
 20
308.293668092
 10
124.6846103608
 20
308.3468998841
 10
124.6703766794
 20
308.4009576559
 10
124.665620052
 20
308.4554299952
  0
LWPOLYLINE
  5
436
100
AcDbEntity
  8
0
100
AcDbPolyline
 62
7
  6
CONTINUOUS
 90
10
 70
0
 10
130.7593015032
 20
302.5038729056
 10
130.8039493422
 20
302.4794043152
 10
130.8436789978
 20
302.4535159675
 10
130.8784904701
 20
302.4262078627
 10
130.9085728715
 20
302.3972517216
 10
130.9337370896
 20
302.3668758233
 10
130.953415787
 20
302.3357650046
 10
130.9674843539
 20
302.3039025709
 10
130.9760674001
 20
302.2713052168
 10
130.9789714173
 20
302.2387078627
  0
LWPOLYLINE
  5
437
100
AcDbEntity
  8
SMUSSO
100
AcDbPolyline
 62
7
  6
CONTINUOUS
 90
16
 70
0
 10
125.314579288
 20
308.5013197747
 10
125.2595350865
 20
308.5317661835
 10
125.2112062941
 20
308.5640460377
 10
125.1695929109
 20
308.5981593373
 10
125.1344412497
 20
308.634446163
 10
125.1060049976
 20
308.6725664342
 10
125.085045216
 20
308.7114999086
 10
125.0717638044
 20
308.7512685466
 10
125.0659588633
 20
308.7918503879
 10
125.0677857546
 20
308.8321593095
 10
125.0774505737
 20
308.8721879413
 10
125.0947472253
 20
308.9119436533
 10
125.1192127858
 20
308.950362433
 10
125.1510408493
 20
308.9874081768
 10
125.1900378218
 20
309.0231169883
 10
125.221610842
 20
309.0472094777
  0
LWPOLYLINE
  5
438
100
AcDbEntity
  8
SMUSSO
100
AcDbPolyline
 62
7
  6
CONTINUOUS
 90
3
 70
0
 10
126.516660816
 20
309.1023605387
 10
126.5717050176
 20
309.0719141299
 10
126.6095627168
 20
309.0471858448
  0
LINE
  5
439
100
AcDbEntity
  8
SMUSSO
100
AcDbLine
 62
7
  6
CONTINUOUS
 10
126.6096421458
 20
309.0472140211
 11
126.9362407782
 21
308.8162739134
  0
LWPOLYLINE
  5
43A
100
AcDbEntity
  8
SMUSSO
100
AcDbPolyline
 62
7
  6
CONTINUOUS
 90
33
 70
0
 10
126.6095627168
 20
309.0471858448
 10
126.6200338099
 20
309.0396342756
 10
126.6616471932
 20
309.005520976
 10
126.6967988544
 20
308.9692341503
 10
126.7252351064
 20
308.9311138792
 10
126.7461948881
 20
308.8921804047
 10
126.7594762997
 20
308.8524117667
 10
126.7652812408
 20
308.8118299254
 10
126.7634543495
 20
308.7715210038
 10
126.7537895304
 20
308.731492372
 10
126.7364928788
 20
308.69173666
 10
126.7120273183
 20
308.6533178803
 10
126.6801992547
 20
308.6162721365
 10
126.6412022823
 20
308.5805633251
 10
126.5960801068
 20
308.5471471484
 10
126.5446673192
 20
308.5160855184
 10
126.4871293287
 20
308.4873165231
 10
126.4250060686
 20
308.4616101293
 10
126.3581737152
 20
308.4390490416
 10
126.2867560923
 20
308.4195505553
 10
126.2126646047
 20
308.4036365235
 10
126.1358270454
 20
308.3914037433
 10
126.0563156213
 20
308.3827554175
 10
125.9762583578
 20
308.377923008
 10
125.8956405146
 20
308.3770095623
 10
125.814476832
 20
308.3799120329
 10
125.7349395559
 20
308.3865527386
 10
125.6570726071
 20
308.3970326295
 10
125.5808320648
 20
308.4112507555
 10
125.5082584133
 20
308.4288265861
 10
125.4400318141
 20
308.4496332777
 10
125.3754721056
 20
308.4737976739
 10
125.314579288
 20
308.5013197747
  0
LWPOLYLINE
  5
43B
100
AcDbEntity
  8
SMUSSO
100
AcDbPolyline
 62
7
  6
CONTINUOUS
 90
8
 70
0
 10
126.9362407782
 20
308.8162739134
 10
126.9981518068
 20
308.7679299952
 10
127.0485047858
 20
308.7195664087
 10
127.090235828
 20
308.6691925847
 10
127.1230273349
 20
308.6171918983
 10
127.1466297433
 20
308.5639601062
 10
127.1608634247
 20
308.5099023344
 10
127.165620052
 20
308.4554299952
  0
LWPOLYLINE
  5
43C
100
AcDbEntity
  8
0
100
AcDbPolyline
 62
7
  6
CONTINUOUS
 90
9
 70
0
 10
130.4568923143
 20
302.6537076965
 10
130.4378794112
 20
302.6711186649
 10
130.4186403516
 20
302.6876089929
 10
130.3991738456
 20
302.7031734299
 10
130.3794811831
 20
302.7178172266
 10
130.3596744666
 20
302.7314570217
 10
130.3397910635
 20
302.7440650281
 10
130.3197936065
 20
302.7556690329
 10
130.2996820954
 20
302.7662690361
  0
ELLIPSE
  5
43D
100
AcDbEntity
  8
RACCORDO
100
AcDbEllipse
 62
7
  6
CONTINUOUS
 10
-129.6347597316
 20
-46.3968560246
 30
0.0
 11
0.274503928
 21
1.5137738179
 31
0.0
 40
0.6101010024
 41
-4.2040712265
 42
-3.3179940815
  0
ELLIPSE
  5
43E
100
AcDbEntity
  8
RACCORDO
100
AcDbEllipse
 62
7
  6
CONTINUOUS
 10
-120.7014430275
 20
-37.9694576695
 30
0.0
 11
7.8741085646
 21
2.7735112248
 31
0.0
 40
0.3605049804
 41
8.189331614
 42
8.4134247063
  0
ELLIPSE
  5
43F
100
AcDbEntity
  8
RACCORDO
100
AcDbEllipse
 62
7
  6
CONTINUOUS
 10
-127.420780893
 20
-45.6416698779
 30
0.0
 11
-2.2693668715
 21
4.4698040196
 31
0.0
 40
0.6131288207
 41
0.6851927098
 42
1.0731577286
  0
ELLIPSE
  5
440
100
AcDbEntity
  8
RACCORDO
100
AcDbEllipse
 62
7
  6
CONTINUOUS
 10
-129.6347597316
 20
-40.551184549
 30
0.0
 11
0.7777850122
 21
1.2871096337
 31
0.0
 40
0.4417995909
 41
0.7200879616
 42
2.2908842884
  0
ELLIPSE
  5
441
100
AcDbEntity
  8
ASSI
100
AcDbEllipse
 62
7
  6
CONTINUOUS
 10
-122.6924907683
 20
-43.3606160801
 30
0.0
 11
2.4880178085
 21
0.410737271
 31
0.0
 40
0.5952069758
 41
-0.88334417
 42
-0.1747178979
  0
ELLIPSE
  5
442
100
AcDbEntity
  8
ASSI
100
AcDbEllipse
 62
7
  6
CONTINUOUS
 10
-119.4328895657
 20
-34.2934263639
 30
0.0
 11
2.4970578851
 21
-0.3114668308
 31
0.0
 40
0.3892917496
 41
2.4047141121
 42
3.1133403842
  0
ELLIPSE
  5
443
100
AcDbEntity
  8
RACCORDO
100
AcDbEllipse
 62
7
  6
CONTINUOUS
 10
-128.2205461692
 20
-47.1039628058
 30
0.0
 11
0.274503928
 21
1.5137738179
 31
0.0
 40
0.6101010024
 41
-4.2040712265
 42
-2.6332748997
  0
ELLIPSE
  5
444
100
AcDbEntity
  8
ASSI
100
AcDbEllipse
 62
7
  6
CONTINUOUS
 10
-122.6924907683
 20
-35.2349200935
 30
0.0
 11
2.4970578851
 21
-0.3114668308
 31
0.0
 40
0.3892917496
 41
-0.7368785415
 42
-0.0282522694
  0
ELLIPSE
  5
445
100
AcDbEntity
  8
RACCORDO
100
AcDbEllipse
 62
7
  6
CONTINUOUS
 10
-128.2205461692
 20
-41.2582913302
 30
0.0
 11
0.7777850122
 21
1.2871096337
 31
0.0
 40
0.4417995909
 41
0.7200879616
 42
2.2908842884
  0
ELLIPSE
  5
446
100
AcDbEntity
  8
0
100
AcDbEllipse
 62
7
  6
CONTINUOUS
 10
-103.8782038932
 20
-93.4663658354
 30
0.0
 11
1.1098722695
 21
5.687053461
 31
0.0
 40
0.281144439
 41
-1.7067606559
 42
-1.2928234001
  0
ELLIPSE
  5
447
100
AcDbEntity
  8
0
100
AcDbEllipse
 62
7
  6
CONTINUOUS
 10
-103.8782038932
 20
-93.4663658354
 30
0.0
 11
5.6847463652
 21
2.4151804811
 31
0.0
 40
0.7593491977
 41
2.8295224567
 42
3.5722788651
  0
ENDSEC
  0
SECTION
  2
OBJECTS
  0
DICTIONARY
  5
C
100
AcDbDictionary
280
0
281
1
  3
ACAD_GROUP
350
D
  3
ACAD_MLINESTYLE
350
17
  3
ACAD_LAYOUT
350
1A
  3
ACAD_PLOTSETTINGS
350
19
  3
ACAD_PLOTSTYLENAME
350
E
  0
DICTIONARY
  5
D
102
{ACAD_REACTORS
330
C
102
}
100
AcDbDictionary
280
0
281
1
  0
ACDBDICTIONARYWDFLT
  5
E
102
{ACAD_REACTORS
330
C
102
}
100
AcDbDictionary
281
1
  3
Normal
350
F
100
AcDbDictionaryWithDefault
340
F
  0
DICTIONARY
  5
17
102
{ACAD_REACTORS
330
C
102
}
100
AcDbDictionary
280
0
281
1
  3
Standard
350
18
  0
DICTIONARY
  5
19
102
{ACAD_REACTORS
330
C
102
}
100
AcDbDictionary
281
1
  0
DICTIONARY
  5
1A
102
{ACAD_REACTORS
330
C
102
}
100
AcDbDictionary
281
1
  3
Model
350
448
  3
Layout1
350
449
  0
ACDBPLACEHOLDER
  5
F
102
{ACAD_REACTORS
330
E
102
}
  0
MLINESTYLE
  5
18
102
{ACAD_REACTORS
330
17
102
}
100
AcDbMlineStyle
  2
STANDARD
 70
0
  3

 62
256
 51
90.0
 52
90.0
 71
2
 49
0.5
 62
256
  6
BYLAYER
 49
-0.5
 62
256
  6
BYLAYER
  0
LAYOUT
  5
448
102
{ACAD_REACTORS
330
1A
102
}
100
AcDbPlotSettings
  1

  2
none_device
  4
ANSI_C_(22.00_x_17.00_Inches)
  6

 40
0.0
 41
0.0
 42
0.0
 43
0.0
 44
558.8
 45
431.8
 46
0.0
 47
0.0
 48
0.0
 49
0.0
140
0.0
141
0.0
142
1.0
143
1.0
 70
1024
 72
1
 73
0
 74
0
  7

 75
0
147
1.0
148
0.0
149
0.0
100
AcDbLayout
  1
Model
 70
0
 71
0
 10
0.0
 20
0.0
 11
558.8
 21
431.8
 12
0.0
 22
0.0
 32
0.0
 14
0.0
 24
0.0
 34
0.0
 15
0.0
 25
0.0
 35
0.0
146
0.0
 13
0.0
 23
0.0
 33
0.0
 16
1.0
 26
0.0
 36
0.0
 17
0.0
 27
1.0
 37
0.0
 76
0
330
20D
345
0
346
0
  0
LAYOUT
  5
449
102
{ACAD_REACTORS
330
1A
102
}
100
AcDbPlotSettings
  1

  2
none_device
  4
ANSI_C_(22.00_x_17.00_Inches)
  6

 40
0.0
 41
0.0
 42
0.0
 43
0.0
 44
558.8
 45
431.8
 46
0.0
 47
0.0
 48
0.0
 49
0.0
140
0.0
141
0.0
142
1.0
143
1.0
 70
0
 72
1
 73
0
 74
0
  7

 75
0
147
1.0
148
0.0
149
0.0
100
AcDbLayout
  1
Layout1
 70
0
 71
1
 10
0.0
 20
0.0
 11
558.8
 21
431.8
 12
0.0
 22
0.0
 32
0.0
 14
0.0
 24
0.0
 34
0.0
 15
0.0
 25
0.0
 35
0.0
146
0.0
 13
0.0
 23
0.0
 33
0.0
 16
1.0
 26
0.0
 36
0.0
 17
0.0
 27
1.0
 37
0.0
 76
0
330
20E
345
0
346
0
  0
ENDSEC
  0
EOF
