0
SECTION
2
HEADER
9
$ACADVER
1
AC1014
9
$HANDSEED
5
       2AD
9
$EXTMAX
10
297.0000000000
20
210.0000000000
9
$EXTMIN
10
0.0000000000
20
0.0000000000
9
$LIMMIN
10
0.0000000000
20
0.0000000000
9
$LIMMAX
10
297.0000000000
20
210.0000000000
9
$VIEWCTR
10
148.5000000000
20
105.0000000000
9
$VIEWSIZE
40
210.0000000000
9
$CLAYER
8
0
9
$LTSCALE
40
16.3350000000
9
$CELTYPE
6
BYLAYER
9
$DIMSCALE
40
1
9
$DIMASZ
40
3.0000000000
9
$DIMEXO
40
1.8562500000
9
$DIMDLI
40
11.2860000000
9
$DIMEXE
40
5.3460000000
9
$DIMCEN
40
2.6730000000
9
$DIMLFAC
40
1.0000000000
9
$DIMTXT
40
3.0000000000
9
$DIMTOL
70
1
9
$DIMLIM
70
0
9
$DIMTFAC
40
1.0000000000
9
$DIMTP
40
0.0100000000
9
$DIMTM
40
0.0100000000
9
$MEASUREMENT
70
1
0
ENDSEC
0
SECTION
2
CLASSES
0
ENDSEC
0
SECTION
2
TABLES
0
TABLE
2
VPORT
5
8
100
AcDbSymbolTable
70
2
0
VPORT
5
1F4
100
AcDbSymbolTableRecord
100
AcDbViewportTableRecord
2
*ACTIVE
70
0
10
0.0
20
0.0
11
1.0
21
1.0
12
148.5000000000
22
105.0000000000
13
0.0
23
0.0
14
1.0
24
1.0
15
0.0
25
0.0
16
0.0
26
0.0
36
1.0
17
0.0
27
0.0
37
0.0
40
210.0000000000
41
1.4142857143
42
50.0
43
0.0
44
0.0
50
0.0
51
0.0
71
0
72
100
73
1
74
1
75
0
76
0
77
0
78
0
0
ENDTAB
0
TABLE
2
LTYPE
5
5
100
AcDbSymbolTable
70
6
0
LTYPE
5
14
100
AcDbSymbolTableRecord
100
AcDbLinetypeTableRecord
2
BYBLOCK
70
0
3

72
65
73
0
40
0.0
0
LTYPE
5
15
100
AcDbSymbolTableRecord
100
AcDbLinetypeTableRecord
2
BYLAYER
70
0
3

72
65
73
0
40
0.0
0
LTYPE
5
16
100
AcDbSymbolTableRecord
100
AcDbLinetypeTableRecord
2
CONTINUOUS
70
64
3
Solid line
72
65
73
0
40
0
0
LTYPE
5
1F5
100
AcDbSymbolTableRecord
100
AcDbLinetypeTableRecord
2
CENTER
70
64
3
____ _ ____ _ ____ _ ____ _ ____ _ ____ _ ____
72
65
73
4
40
0.6
49
0.375
74
0
49
-0.075
74
0
49
0.075
74
0
49
-0.075
74
0
0
LTYPE
5
1F6
100
AcDbSymbolTableRecord
100
AcDbLinetypeTableRecord
2
HIDDEN
70
64
3
- - - - - - - - - - - - - - - - - - - -
72
65
73
2
40
0.2
49
0.1
74
0
49
-0.1
74
0
0
LTYPE
5
1F7
100
AcDbSymbolTableRecord
100
AcDbLinetypeTableRecord
2
PHANTOM
70
64
3
_____ _ _ _____ _ _ _____ _ _ _____
72
65
73
6
40
0.8
49
0.45
74
0
49
-0.05
74
0
49
0.1
74
0
49
-0.05
74
0
49
0.1
74
0
49
-0.05
74
0
0
LTYPE
5
1F8
100
AcDbSymbolTableRecord
100
AcDbLinetypeTableRecord
2
DOT
70
64
3
. . . . . . . . . . . . . . . . . . . .
72
65
73
2
40
0.2
49
0.1
74
0
49
-0.1
74
0
0
LTYPE
5
1F9
100
AcDbSymbolTableRecord
100
AcDbLinetypeTableRecord
2
DASHED
70
64
3
- - - - - - - - - - - - - - - - - - - -
72
65
73
2
40
0.2
49
0.1
74
0
49
-0.1
74
0
0
ENDTAB
0
TABLE
2
LAYER
5
2
100
AcDbSymbolTable
70
36
0
LAYER
5
10
100
AcDbSymbolTableRecord
100
AcDbLayerTableRecord
2
0
70
0
62
7
6
CONTINUOUS
0
LAYER
5
1FA
100
AcDbSymbolTableRecord
100
AcDbLayerTableRecord
2
DEFAULT_1
70
0
62
7
6
CENTER
0
LAYER
5
1FB
100
AcDbSymbolTableRecord
100
AcDbLayerTableRecord
2
DEFAULT_2
70
0
62
8
6
HIDDEN
0
LAYER
5
1FC
100
AcDbSymbolTableRecord
100
AcDbLayerTableRecord
2
DEFAULT_3
70
0
62
7
6
PHANTOM
0
LAYER
5
1FD
100
AcDbSymbolTableRecord
100
AcDbLayerTableRecord
2
ASSI
70
0
62
7
6
CONTINUOUS
0
LAYER
5
1FE
100
AcDbSymbolTableRecord
100
AcDbLayerTableRecord
2
COORDINATE
70
0
62
7
6
CONTINUOUS
0
LAYER
5
1FF
100
AcDbSymbolTableRecord
100
AcDbLayerTableRecord
2
COORD_ORIGINE
70
0
62
7
6
CONTINUOUS
0
LAYER
5
200
100
AcDbSymbolTableRecord
100
AcDbLayerTableRecord
2
DRAFT
70
0
62
7
6
CONTINUOUS
0
LAYER
5
201
100
AcDbSymbolTableRecord
100
AcDbLayerTableRecord
2
PIANI
70
0
62
7
6
CONTINUOUS
0
LAYER
5
202
100
AcDbSymbolTableRecord
100
AcDbLayerTableRecord
2
PIANI_ORIGINE
70
0
62
7
6
CONTINUOUS
0
LAYER
5
203
100
AcDbSymbolTableRecord
100
AcDbLayerTableRecord
2
TRASH
70
0
62
7
6
CONTINUOUS
0
ENDTAB
0
TABLE
2
STYLE
5
3
100
AcDbSymbolTable
70
1
0
STYLE
5
11
100
AcDbSymbolTableRecord
100
AcDbTextStyleTableRecord
2
STANDARD
70
0
40
0.0
41
0.8000000000
50
0.0
71
0
42
0.2
3
txt
4

0
ENDTAB
0
TABLE
2
VIEW
5
6
100
AcDbSymbolTable
70
0
0
ENDTAB
0
TABLE
2
UCS
5
7
100
AcDbSymbolTable
70
0
0
ENDTAB
0
TABLE
2
APPID
5
9
100
AcDbSymbolTable
70
1
0
APPID
5
204
100
AcDbSymbolTableRecord
100
AcDbRegAppTableRecord
2
ACAD
70
0
0
ENDTAB
0
TABLE
2
DIMSTYLE
5
A
100
AcDbSymbolTable
70
1
0
DIMSTYLE
105
205
100
AcDbSymbolTableRecord
100
AcDbDimStyleTableRecord
2
STANDARD
70
0
3

4

5

6

7

40
1.0
41
3.0000000000
42
0.0625
43
0.38
44
0.18
45
0.0
46
0.0
47
0.0100000000
48
0.0100000000
140
3.0000000000
141
0.09
142
0.0
143
25.4
144
1.0000000000
145
0.0
146
1.0000000000
147
0.09
71
1
72
0
73
0
74
0
75
0
76
0
77
1
78
8
170
0
171
2
172
0
173
0
174
0
175
0
176
0
177
0
178
0
270
2
271
2
272
2
273
2
274
2
340
11
275
0
280
0
281
0
282
0
283
1
284
8
285
0
286
0
287
3
288
0
0
ENDTAB
0
TABLE
2
BLOCK_RECORD
5
1
100
AcDbSymbolTable
70
0
0
BLOCK_RECORD
5
1B
100
AcDbSymbolTableRecord
100
AcDbBlockTableRecord
2
*MODEL_SPACE
0
BLOCK_RECORD
5
1C
100
AcDbSymbolTableRecord
100
AcDbBlockTableRecord
2
*PAPER_SPACE
0
ENDTAB
0
ENDSEC
0
SECTION
2
BLOCKS
0
BLOCK
5
1E
100
AcDbEntity
8
0
100
AcDbBlockBegin
2
*MODEL_SPACE
70
0
10
0.0
20
0.0
30
0.0
3
*MODEL_SPACE
1

0
ENDBLK
5
1F
100
AcDbEntity
8
0
100
AcDbBlockEnd
0
BLOCK
5
20
100
AcDbEntity
8
0
100
AcDbBlockBegin
2
*PAPER_SPACE
70
0
10
0.0
20
0.0
30
0.0
3
*PAPER_SPACE
1

0
ENDBLK
5
21
100
AcDbEntity
8
0
100
AcDbBlockEnd
0
ENDSEC
0
SECTION
2
ENTITIES
0
LINE
5
206
100
AcDbEntity
8
0
100
AcDbLine
62
7
6
CONTINUOUS
10
-33.0732653282
20
-9.9892754247
11
-34.0424756106
21
-9.1145424042
0
LINE
5
207
100
AcDbEntity
8
0
100
AcDbLine
62
7
6
CONTINUOUS
10
-33.0732653282
20
3.0011056320
11
-34.0424756106
21
3.8758386525
0
LINE
5
208
100
AcDbEntity
8
0
100
AcDbLine
62
7
6
CONTINUOUS
10
-9.0901573243
20
10.9798401039
11
-6.3186320842
21
12.3656027239
0
LINE
5
209
100
AcDbEntity
8
0
100
AcDbLine
62
7
6
CONTINUOUS
10
-7.5386685611
20
10.9908899760
11
-7.9587864744
21
10.7808310193
0
LINE
5
20A
100
AcDbEntity
8
0
100
AcDbLine
62
7
6
CONTINUOUS
10
25.9823390226
20
-15.6853909547
11
19.8305100263
21
-15.5439695984
0
LINE
5
20B
100
AcDbEntity
8
0
100
AcDbLine
62
7
6
CONTINUOUS
10
25.9823390226
20
-13.9533401471
11
19.8305100263
21
-13.8119187909
0
LINE
5
20C
100
AcDbEntity
8
0
100
AcDbLine
62
7
6
CONTINUOUS
10
0.7969669801
20
11.6231738406
11
-4.4232525684
21
9.0130640663
0
LINE
5
20D
100
AcDbEntity
8
0
100
AcDbLine
62
7
6
CONTINUOUS
10
11.6760510473
20
-10.2527235613
11
10.4781899568
21
-10.5076799621
0
LINE
5
20E
100
AcDbEntity
8
0
100
AcDbLine
62
7
6
CONTINUOUS
10
24.8178729285
20
-11.1249130224
11
29.5178729285
21
-11.1249130224
0
LINE
5
20F
100
AcDbEntity
8
0
100
AcDbLine
62
7
6
CONTINUOUS
10
29.5178729285
20
-10.5069638299
11
24.8178729285
21
-10.5069638299
0
LINE
5
210
100
AcDbEntity
8
0
100
AcDbLine
62
7
6
CONTINUOUS
10
-15.4709391312
20
-3.7277597559
11
-16.9270116063
21
-5.5167350143
0
LINE
5
211
100
AcDbEntity
8
0
100
AcDbLine
62
7
6
CONTINUOUS
10
29.5178729285
20
-8.7749130224
11
24.8178729285
21
-8.7749130224
0
LINE
5
212
100
AcDbEntity
8
0
100
AcDbLine
62
7
6
CONTINUOUS
10
-9.7265534273
20
-5.6468998413
11
-10.9286349553
21
-5.0458590773
0
LINE
5
213
100
AcDbEntity
8
0
100
AcDbLine
62
7
6
CONTINUOUS
10
6.0723257109
20
-12.5665386936
11
4.3045587580
21
-11.6826552171
0
LINE
5
214
100
AcDbEntity
8
0
100
AcDbLine
62
7
6
CONTINUOUS
10
5.6883744025
20
10.1797902553
11
-0.5341652719
21
7.0685204181
0
LINE
5
215
100
AcDbEntity
8
0
100
AcDbLine
62
7
6
CONTINUOUS
10
1.0350911893
20
-8.2031653513
11
-1.6043425526
21
-6.8834484804
0
LINE
5
216
100
AcDbEntity
8
0
100
AcDbLine
62
7
6
CONTINUOUS
10
19.8305100263
20
-15.5439695984
11
14.5272091674
21
-12.8923191690
0
LINE
5
217
100
AcDbEntity
8
0
100
AcDbLine
62
7
6
CONTINUOUS
10
22.4468051167
20
-3.6295811418
11
29.5885836066
21
-3.6295811418
0
LINE
5
218
100
AcDbEntity
8
0
100
AcDbLine
62
7
6
CONTINUOUS
10
19.8305100263
20
-13.8119187909
11
14.5272091674
21
-11.1602683614
0
LINE
5
219
100
AcDbEntity
8
0
100
AcDbLine
62
7
6
CONTINUOUS
10
-16.9270116063
20
7.4736460425
11
-15.4709391312
21
6.4913400087
0
LINE
5
21A
100
AcDbEntity
8
0
100
AcDbLine
62
7
6
CONTINUOUS
10
-16.9270116063
20
-5.5167350143
11
-33.0732653282
21
-9.9892754247
0
LINE
5
21B
100
AcDbEntity
8
0
100
AcDbLine
62
7
6
CONTINUOUS
10
-16.9270116063
20
7.4736460425
11
-18.3983158456
21
8.2092981621
0
LINE
5
21C
100
AcDbEntity
8
0
100
AcDbLine
62
7
6
CONTINUOUS
10
29.3057408942
20
-15.2257715469
11
28.1036593662
21
-14.6247307829
0
LINE
5
21D
100
AcDbEntity
8
0
100
AcDbLine
62
7
6
CONTINUOUS
10
-11.2855172631
20
-2.5683906068
11
-15.4709391312
21
-3.7277597559
0
LINE
5
21E
100
AcDbEntity
8
0
100
AcDbLine
62
7
6
CONTINUOUS
10
-9.7265534273
20
5.3531001587
11
-10.9286349553
21
5.9541409227
0
LINE
5
21F
100
AcDbEntity
8
0
100
AcDbLine
62
7
6
CONTINUOUS
10
14.3857878111
20
-6.5637134774
11
11.5573606864
21
-5.1494999150
0
LINE
5
220
100
AcDbEntity
8
0
100
AcDbLine
62
7
6
CONTINUOUS
10
29.3057408942
20
-13.4937207393
11
28.1036593662
21
-12.8926799753
0
LINE
5
221
100
AcDbEntity
8
0
100
AcDbLine
62
7
6
CONTINUOUS
10
16.0121334079
20
-6.8469169962
11
14.5979198455
21
-6.1398102150
0
LINE
5
222
100
AcDbEntity
8
0
100
AcDbLine
62
7
6
CONTINUOUS
10
14.3857878111
20
-4.8316626698
11
11.5573606864
21
-3.4174491074
0
LINE
5
223
100
AcDbEntity
8
0
100
AcDbLine
62
7
6
CONTINUOUS
10
-9.6405543842
20
8.3711635820
11
-10.7710655127
21
8.9364191462
0
LINE
5
224
100
AcDbEntity
8
0
100
AcDbLine
62
7
6
CONTINUOUS
10
15.3050266267
20
-1.5436161373
11
20.9618808762
21
-4.3720432620
0
LINE
5
225
100
AcDbEntity
8
0
100
AcDbLine
62
7
6
CONTINUOUS
10
33.0534068345
20
-10.4178062412
11
34.2554883625
21
-11.0188470052
0
LINE
5
226
100
AcDbEntity
8
0
100
AcDbLine
62
7
6
CONTINUOUS
10
-9.0901573243
20
10.9798401039
11
-8.1758139338
21
10.5226684087
0
LINE
5
227
100
AcDbEntity
8
0
100
AcDbLine
62
7
6
CONTINUOUS
10
4.2327952215
20
4.6850401714
11
-0.5341652719
21
7.0685204181
0
LINE
5
228
100
AcDbEntity
8
0
100
AcDbLine
62
7
6
CONTINUOUS
10
-2.7162157365
20
8.1595456504
11
-4.4232525684
21
9.0130640663
0
LINE
5
229
100
AcDbEntity
8
0
100
AcDbLine
62
7
6
CONTINUOUS
10
-7.7845222261
20
10.6936988952
11
-7.9587864744
21
10.7808310193
0
LINE
5
22A
100
AcDbEntity
8
0
100
AcDbLine
62
7
6
CONTINUOUS
10
8.8349995788
20
-4.7353283910
11
8.8349995788
21
-6.5539817390
0
LINE
5
22B
100
AcDbEntity
8
0
100
AcDbLine
62
7
6
CONTINUOUS
10
10.6552965754
20
-3.8251798927
11
8.8349995788
21
-4.7353283910
0
LINE
5
22C
100
AcDbEntity
8
0
100
AcDbLine
62
7
6
CONTINUOUS
10
11.5573606864
20
-3.4174491074
11
15.3050266267
21
-1.5436161373
0
LINE
5
22D
100
AcDbEntity
8
0
100
AcDbLine
62
7
6
CONTINUOUS
10
8.8349995788
20
-5.1397681766
11
11.5573606864
21
-3.7785876228
0
LINE
5
22E
100
AcDbEntity
8
0
100
AcDbLine
62
7
6
CONTINUOUS
10
8.8349995788
20
-6.5539817390
11
10.6552965754
21
-5.6438332407
0
LINE
5
22F
100
AcDbEntity
8
0
100
AcDbLine
62
7
6
CONTINUOUS
10
-15.4709391312
20
6.4913400087
11
-9.8107349938
21
8.0592264158
0
LINE
5
230
100
AcDbEntity
8
0
100
AcDbLine
62
7
6
CONTINUOUS
10
29.5885836066
20
-3.6295811418
11
34.8918844655
21
-6.2812315712
0
LINE
5
231
100
AcDbEntity
8
0
100
AcDbLine
62
7
6
CONTINUOUS
10
11.5573606864
20
-3.4174491074
11
11.5573606864
21
-5.1494999150
0
LINE
5
232
100
AcDbEntity
8
0
100
AcDbLine
62
7
6
CONTINUOUS
10
13.0776402659
20
-2.6573093176
11
13.0776402659
21
-2.0564725064
0
LINE
5
233
100
AcDbEntity
8
0
100
AcDbLine
62
7
6
CONTINUOUS
10
14.5272091674
20
-7.5893791164
11
16.0121334079
21
-6.8469169962
0
LINE
5
234
100
AcDbEntity
8
0
100
AcDbLine
62
7
6
CONTINUOUS
10
20.9618808762
20
-4.3720432620
11
22.4468051167
21
-3.6295811418
0
LINE
5
235
100
AcDbEntity
8
0
100
AcDbLine
62
7
6
CONTINUOUS
10
-16.6722540121
20
7.3017796511
11
-10.7710655127
21
8.9364191462
0
LINE
5
236
100
AcDbEntity
8
0
100
AcDbLine
62
7
6
CONTINUOUS
10
-16.9270116063
20
7.4736460425
11
-33.0732653282
21
3.0011056320
0
LINE
5
237
100
AcDbEntity
8
0
100
AcDbLine
62
7
6
CONTINUOUS
10
-34.0424756106
20
3.8758386525
11
-18.3983158456
21
8.2092981621
0
LINE
5
238
100
AcDbEntity
8
0
100
AcDbLine
62
7
6
CONTINUOUS
10
9.1630457334
20
8.4424545899
11
5.6883744025
21
10.1797902553
0
LINE
5
239
100
AcDbEntity
8
0
100
AcDbLine
62
7
6
CONTINUOUS
10
9.3986793289
20
8.5222761685
11
6.7585516832
21
9.8423399913
0
LINE
5
23A
100
AcDbEntity
8
0
100
AcDbLine
62
7
6
CONTINUOUS
10
-1.9483788343
20
14.7421874553
11
-3.1504603623
21
15.3432282193
0
LINE
5
23B
100
AcDbEntity
8
0
100
AcDbLine
62
7
6
CONTINUOUS
10
14.3857878111
20
-4.8316626698
11
14.3857878111
21
-6.5637134774
0
LINE
5
23C
100
AcDbEntity
8
0
100
AcDbLine
62
7
6
CONTINUOUS
10
14.5272091674
20
-12.8923191690
11
14.5272091674
21
-7.5893791164
0
LINE
5
23D
100
AcDbEntity
8
0
100
AcDbLine
62
7
6
CONTINUOUS
10
14.5979198455
20
-6.1398102150
11
14.5979198455
21
-7.5540237774
0
LINE
5
23E
100
AcDbEntity
8
0
100
AcDbLine
62
7
6
CONTINUOUS
10
15.9110248119
20
7.1108595084
11
14.1432578590
21
7.9947429849
0
LINE
5
23F
100
AcDbEntity
8
0
100
AcDbLine
62
7
6
CONTINUOUS
10
5.4076886691
20
13.3423282966
11
4.6277142308
21
13.7323155158
0
LINE
5
240
100
AcDbEntity
8
0
100
AcDbLine
62
7
6
CONTINUOUS
10
14.5502442587
20
-7.5778615707
11
14.3857878111
21
-6.5637134774
0
LINE
5
241
100
AcDbEntity
8
0
100
AcDbLine
62
7
6
CONTINUOUS
10
14.5979198455
20
-6.1398102150
11
14.3857878111
21
-4.8316626698
0
LINE
5
242
100
AcDbEntity
8
0
100
AcDbLine
62
7
6
CONTINUOUS
10
12.9807841777
20
-11.0245535397
11
11.9848456541
21
-11.6795568288
0
LINE
5
243
100
AcDbEntity
8
0
100
AcDbLine
62
7
6
CONTINUOUS
10
17.4222079079
20
1.2395901599
11
16.9074563743
21
2.3508528728
0
LINE
5
244
100
AcDbEntity
8
0
100
AcDbLine
62
7
6
CONTINUOUS
10
18.8225117689
20
0.6589016427
11
18.7489512860
21
1.8486544350
0
LINE
5
245
100
AcDbEntity
8
0
100
AcDbLine
62
7
6
CONTINUOUS
10
19.8305100263
20
-13.8119187909
11
19.8305100263
21
-15.5439695984
0
LINE
5
246
100
AcDbEntity
8
0
100
AcDbLine
62
7
6
CONTINUOUS
10
24.8178729285
20
-8.7749130224
11
24.8178729285
21
-11.1249130224
0
LINE
5
247
100
AcDbEntity
8
0
100
AcDbLine
62
7
6
CONTINUOUS
10
35.1747271780
20
-9.3571460694
11
33.0534068345
21
-10.4178062412
0
LINE
5
248
100
AcDbEntity
8
0
100
AcDbLine
62
7
6
CONTINUOUS
10
28.1036593662
20
-12.8926799753
11
25.9823390226
21
-13.9533401471
0
LINE
5
249
100
AcDbEntity
8
0
100
AcDbLine
62
7
6
CONTINUOUS
10
34.2554883625
20
-11.0188470052
11
29.3057408942
21
-13.4937207393
0
LINE
5
24A
100
AcDbEntity
8
0
100
AcDbLine
62
7
6
CONTINUOUS
10
35.1747271780
20
-11.0891968770
11
34.2554883625
21
-11.5488162847
0
LINE
5
24B
100
AcDbEntity
8
0
100
AcDbLine
62
7
6
CONTINUOUS
10
28.1036593662
20
-14.6247307829
11
25.9823390226
21
-15.6853909547
0
LINE
5
24C
100
AcDbEntity
8
0
100
AcDbLine
62
7
6
CONTINUOUS
10
25.9823390226
20
-13.9533401471
11
25.9823390226
21
-15.6853909547
0
LINE
5
24D
100
AcDbEntity
8
0
100
AcDbLine
62
7
6
CONTINUOUS
10
28.1036593662
20
-12.8926799753
11
28.1036593662
21
-14.6247307829
0
LINE
5
24E
100
AcDbEntity
8
0
100
AcDbLine
62
7
6
CONTINUOUS
10
34.2554883625
20
-12.7508978127
11
29.3057408942
21
-15.2257715469
0
LINE
5
24F
100
AcDbEntity
8
0
100
AcDbLine
62
7
6
CONTINUOUS
10
29.3057408942
20
-13.4937207393
11
29.3057408942
21
-15.2257715469
0
LINE
5
250
100
AcDbEntity
8
0
100
AcDbLine
62
7
6
CONTINUOUS
10
29.5178729285
20
-11.1249130224
11
29.5178729285
21
-8.7749130224
0
LINE
5
251
100
AcDbEntity
8
0
100
AcDbLine
62
7
6
CONTINUOUS
10
34.8918844655
20
-6.2812315712
11
35.1747271780
21
-9.3571460694
0
LINE
5
252
100
AcDbEntity
8
0
100
AcDbLine
62
7
6
CONTINUOUS
10
34.2554883625
20
-11.0188470052
11
34.2554883625
21
-12.7508978127
0
LINE
5
253
100
AcDbEntity
8
0
100
AcDbLine
62
7
6
CONTINUOUS
10
35.1747271780
20
-9.3571460694
11
35.1747271780
21
-11.0891968770
0
SPLINE
5
254
100
AcDbEntity
8
0
100
AcDbSpline
62
7
6
CONTINUOUS
70
0
71
3
72
20
73
16
74
14
42
0.0000001000
43
0.0000001000
44
0.0000000001
12
0.0000000000
22
21.4693376396
32
0.0000000000
13
19.2639813716
23
-9.6120469110
33
0.0000000000
40
0.0000000000
40
0.0000000000
40
0.0000000000
40
0.0000000000
40
0.0819211371
40
0.1676086750
40
0.2560482322
40
0.3455642384
40
0.4347179313
40
0.5220024622
40
0.6063141584
40
0.6861416565
40
0.7608767404
40
0.8297470199
40
0.8931482497
40
0.9523136709
40
1.0000000000
40
1.0000000000
40
1.0000000000
40
1.0000000000
10
0.5603783764
20
-5.1496803182
30
0.0000000000
10
0.5603783764
20
-4.5634161339
30
0.0000000000
10
0.6503790716
20
-3.3628079017
30
0.0000000000
10
1.0201213992
20
-1.5638524431
30
0.0000000000
10
1.6137033915
20
0.2314364206
30
0.0000000000
10
2.4122055407
20
1.9723963599
30
0.0000000000
10
3.3914683002
20
3.6089354361
30
0.0000000000
10
4.5253343314
20
5.0961867428
30
0.0000000000
10
5.7829719023
20
6.3896300441
30
0.0000000000
10
7.1314500302
20
7.4496265271
30
0.0000000000
10
8.5305981145
20
8.2385689494
30
0.0000000000
10
9.9386459348
20
8.7280097522
30
0.0000000000
10
11.3093955442
20
8.9004773618
30
0.0000000000
10
12.5326034974
20
8.7605066848
30
0.0000000000
10
13.2566154171
20
8.4935851279
30
0.0000000000
10
13.5628249356
20
8.3407973838
30
0.0000000000
11
0.5603783764
21
-5.1496803182
31
0.0000000000
11
0.6846756169
21
-3.3952854253
31
0.0000000000
11
1.0501938489
21
-1.5923085071
31
0.0000000000
11
1.6437148937
21
0.2112827652
31
0.0000000000
11
2.4443531910
21
1.9584185016
31
0.0000000000
11
3.4283717769
21
3.6001779844
31
0.0000000000
11
4.5672796616
21
5.0883123700
31
0.0000000000
11
5.8332520650
21
6.3820800429
31
0.0000000000
11
7.1856320331
21
7.4348516212
31
0.0000000000
11
8.5883223039
21
8.2139030786
31
0.0000000000
11
9.9886969892
21
8.6884624320
31
0.0000000000
11
11.3405232073
21
8.8477842033
31
0.0000000000
11
12.6016843126
21
8.6961648345
31
0.0000000000
11
13.5628249356
21
8.3407973838
31
0.0000000000
0
SPLINE
5
255
100
AcDbEntity
8
0
100
AcDbSpline
62
7
6
CONTINUOUS
70
0
71
3
72
9
73
5
74
3
42
0.0000001000
43
0.0000001000
44
0.0000000001
12
0.5543164608
22
-0.2765843531
32
0.0000000000
13
0.5128645724
23
-0.3474798490
33
0.0000000000
40
0.0000000000
40
0.0000000000
40
0.0000000000
40
0.0000000000
40
0.3363810019
40
1.0000000000
40
1.0000000000
40
1.0000000000
40
1.0000000000
10
13.5628249356
20
8.3407973838
30
0.0000000000
10
13.6249787778
20
8.3097848098
30
0.0000000000
10
13.8076802615
20
8.2134667585
30
0.0000000000
10
13.9836195175
20
8.1050389237
30
0.0000000000
10
14.0970684088
20
8.0281741806
30
0.0000000000
11
13.5628249356
21
8.3407973838
31
0.0000000000
11
13.7471282333
21
8.2436154362
31
0.0000000000
11
14.0970684088
21
8.0281741806
31
0.0000000000
0
SPLINE
5
256
100
AcDbEntity
8
0
100
AcDbSpline
62
7
6
CONTINUOUS
70
0
71
3
72
8
73
4
74
2
42
0.0000001000
43
0.0000001000
44
0.0000000001
12
0.0471527161
22
-0.0319472616
32
0.0000000000
13
0.0467691486
23
-0.0325093450
33
0.0000000000
40
0.0000000000
40
0.0000000000
40
0.0000000000
40
0.0000000000
40
1.0000000000
40
1.0000000000
40
1.0000000000
40
1.0000000000
10
14.0970684088
20
8.0281741806
30
0.0000000000
10
14.1127859808
20
8.0175250934
30
0.0000000000
10
14.1284400633
20
8.0067817631
30
0.0000000000
10
14.1440297795
20
7.9959453148
30
0.0000000000
11
14.0970684088
21
8.0281741806
31
0.0000000000
11
14.1440297795
21
7.9959453148
31
0.0000000000
0
SPLINE
5
257
100
AcDbEntity
8
0
100
AcDbSpline
62
7
6
CONTINUOUS
70
0
71
3
72
13
73
9
74
7
42
0.0000001000
43
0.0000001000
44
0.0000000001
12
-6.6153957983
22
3.3008490572
32
0.0000000000
13
0.0000000000
23
7.3727316941
33
0.0000000000
40
0.0000000000
40
0.0000000000
40
0.0000000000
40
0.0000000000
40
0.0281859970
40
0.1964870482
40
0.3741557155
40
0.5658220012
40
0.7746779388
40
1.0000000000
40
1.0000000000
40
1.0000000000
40
1.0000000000
10
3.6829101533
20
-11.4276688520
30
0.0000000000
10
3.6207563112
20
-11.3966562780
30
0.0000000000
10
3.1923320462
20
-11.1707960960
30
0.0000000000
10
2.4473218394
20
-10.6139074316
30
0.0000000000
10
1.6159760205
20
-9.5699069553
30
0.0000000000
10
1.0048402081
20
-8.2748154802
30
0.0000000000
10
0.6359793022
20
-6.7729151147
30
0.0000000000
10
0.5603783764
20
-5.7034266854
30
0.0000000000
10
0.5603783764
20
-5.1496803182
30
0.0000000000
11
3.6829101533
21
-11.4276688520
31
0.0000000000
11
3.4986068557
21
-11.3304869044
31
0.0000000000
11
2.5023975051
21
-10.5907253898
31
0.0000000000
11
1.6794414444
21
-9.5716128951
31
0.0000000000
11
1.0658974844
21
-8.2986529565
31
0.0000000000
11
0.6874039847
21
-6.8060558335
31
0.0000000000
11
0.5603783764
21
-5.1496803182
31
0.0000000000
0
SPLINE
5
258
100
AcDbEntity
8
0
100
AcDbSpline
62
7
6
CONTINUOUS
70
0
71
3
72
8
73
4
74
2
42
0.0000001000
43
0.0000001000
44
0.0000000001
12
-0.0565516402
22
0.0187713733
32
0.0000000000
13
-0.0563138497
23
0.0194769033
33
0.0000000000
40
0.0000000000
40
0.0000000000
40
0.0000000000
40
0.0000000000
40
1.0000000000
40
1.0000000000
40
1.0000000000
40
1.0000000000
10
4.3041202719
20
-11.6840235629
30
0.0000000000
10
4.2852697252
20
-11.6777664384
30
0.0000000000
10
4.2664580084
20
-11.6713915301
30
0.0000000000
10
4.2476867251
20
-11.6648992290
30
0.0000000000
11
4.3041202719
21
-11.6840235629
31
0.0000000000
11
4.2476867251
21
-11.6648992290
31
0.0000000000
0
SPLINE
5
259
100
AcDbEntity
8
0
100
AcDbSpline
62
7
6
CONTINUOUS
70
0
71
3
72
8
73
4
74
2
42
0.0000001000
43
0.0000001000
44
0.0000000001
12
-0.5793619522
22
0.2003801332
32
0.0000000000
13
-0.5484448674
23
0.2736546351
33
0.0000000000
40
0.0000000000
40
0.0000000000
40
0.0000000000
40
0.0000000000
40
1.0000000000
40
1.0000000000
40
1.0000000000
40
1.0000000000
10
4.2476867251
20
-11.6648992290
30
0.0000000000
10
4.0545660744
20
-11.5981058513
30
0.0000000000
10
3.8657251091
20
-11.5188870637
30
0.0000000000
10
3.6829101533
20
-11.4276688520
30
0.0000000000
11
4.2476867251
21
-11.6648992290
31
0.0000000000
11
3.6829101533
21
-11.4276688520
31
0.0000000000
0
SPLINE
5
25A
100
AcDbEntity
8
0
100
AcDbSpline
62
7
6
CONTINUOUS
70
0
71
3
72
9
73
5
74
3
42
0.0000001000
43
0.0000001000
44
0.0000000001
12
-1.8319524198
22
0.9152661582
32
0.0000000000
13
-2.0450599093
23
0.1022444581
33
0.0000000000
40
0.0000000000
40
0.0000000000
40
0.0000000000
40
0.0000000000
40
0.6065611144
40
1.0000000000
40
1.0000000000
40
1.0000000000
40
1.0000000000
10
7.8140746862
20
12.8363590903
30
0.0000000000
10
7.4436776524
20
13.0214140439
30
0.0000000000
10
6.7918946846
20
13.2446881403
30
0.0000000000
10
6.1128862680
20
13.3284151183
30
0.0000000000
10
5.8446842374
20
13.3418241002
30
0.0000000000
11
7.8140746862
21
12.8363590903
31
0.0000000000
11
6.6429685571
21
13.2409311420
31
0.0000000000
11
5.8446842374
21
13.3418241002
31
0.0000000000
0
SPLINE
5
25B
100
AcDbEntity
8
0
100
AcDbSpline
62
7
6
CONTINUOUS
70
0
71
3
72
11
73
7
74
5
42
0.0000001000
43
0.0000001000
44
0.0000000001
12
-4.3448402046
22
0.2172238720
32
0.0000000000
13
-3.7701616903
23
-2.1532795409
33
0.0000000000
40
0.0000000000
40
0.0000000000
40
0.0000000000
40
0.0000000000
40
0.1375481404
40
0.4856747015
40
0.8658501015
40
1.0000000000
40
1.0000000000
40
1.0000000000
40
1.0000000000
10
5.8446842374
20
13.3418241002
30
0.0000000000
10
5.6454760072
20
13.3517836801
30
0.0000000000
10
4.9400304157
20
13.3489018275
30
0.0000000000
10
3.6982431379
20
13.1230932141
30
0.0000000000
10
2.5348835566
20
12.6548419769
30
0.0000000000
10
1.8786876855
20
12.3028887818
30
0.0000000000
10
1.7100987494
20
12.2066013712
30
0.0000000000
11
5.8446842374
21
13.3418241002
31
0.0000000000
11
5.2466107078
21
13.3402232342
31
0.0000000000
11
3.7583987243
21
13.0845028750
31
0.0000000000
11
2.2235511747
21
12.4815399981
31
0.0000000000
11
1.7100987494
21
12.2066013712
31
0.0000000000
0
SPLINE
5
25C
100
AcDbEntity
8
0
100
AcDbSpline
62
7
6
CONTINUOUS
70
0
71
3
72
16
73
12
74
10
42
0.0000001000
43
0.0000001000
44
0.0000000001
12
-15.4865843113
22
-8.8449641941
32
0.0000000000
13
0.0000000000
23
-17.8173007299
33
0.0000000000
40
0.0000000000
40
0.0000000000
40
0.0000000000
40
0.0000000000
40
0.0681198612
40
0.1765710275
40
0.2914123981
40
0.4108477616
40
0.5327519815
40
0.6548346281
40
0.7747936063
40
0.8904680996
40
1.0000000000
40
1.0000000000
40
1.0000000000
40
1.0000000000
10
1.7100987494
20
12.2066013712
30
0.0000000000
10
1.3584507580
20
12.0057621267
30
0.0000000000
10
0.4758787509
20
11.4345556122
30
0.0000000000
10
-0.8561565659
20
10.3213837997
30
0.0000000000
10
-2.2442192733
20
8.8259054232
30
0.0000000000
10
-3.4985546165
20
7.1171082165
30
0.0000000000
10
-4.5821413192
20
5.2456642163
30
0.0000000000
10
-5.4628102162
20
3.2672491798
30
0.0000000000
10
-6.1143638414
20
1.2404899719
30
0.0000000000
10
-6.5173685100
20
-0.7739933863
30
0.0000000000
10
-6.6152835901
20
-2.1126739954
30
0.0000000000
10
-6.6152835901
20
-2.7631949317
30
0.0000000000
11
1.7100987494
21
12.2066013712
31
0.0000000000
11
0.6887036251
21
11.5496553254
31
0.0000000000
11
-0.7995083584
21
10.3171637011
31
0.0000000000
11
-2.1958662077
21
8.8215137596
31
0.0000000000
11
-3.4579422962
21
7.1081500674
31
0.0000000000
11
-4.5473890805
21
5.2291323135
31
0.0000000000
11
-5.4311042715
21
3.2415535013
31
0.0000000000
11
-6.0822366301
21
1.2058052074
31
0.0000000000
11
-6.4810018293
21
-0.8162573865
31
0.0000000000
11
-6.6152835901
21
-2.7631949317
31
0.0000000000
0
SPLINE
5
25D
100
AcDbEntity
8
0
100
AcDbSpline
62
7
6
CONTINUOUS
70
0
71
3
72
13
73
9
74
7
42
0.0000001000
43
0.0000001000
44
0.0000000001
12
-4.5668882318
22
-2.2834441159
32
0.0000000000
13
-4.5756994928
23
2.2880534715
33
0.0000000000
40
0.0000000000
40
0.0000000000
40
0.0000000000
40
0.0000000000
40
0.2246813911
40
0.4342925780
40
0.6306130850
40
0.8168831403
40
0.9976769655
40
1.0000000000
40
1.0000000000
40
1.0000000000
40
1.0000000000
10
10.9916752614
20
-12.2541190342
30
0.0000000000
10
10.6496436611
20
-12.4251348344
30
0.0000000000
10
9.9659775855
20
-12.7137078281
30
0.0000000000
10
8.9206023939
20
-12.9766656065
30
0.0000000000
10
7.9092398446
20
-13.0480545108
30
0.0000000000
10
6.9513774355
20
-12.9235940323
30
0.0000000000
10
6.3553683159
20
-12.7075635703
30
0.0000000000
10
6.0758689782
20
-12.5683102401
30
0.0000000000
10
6.0723258089
20
-12.5665384977
30
0.0000000000
11
10.9916752614
21
-12.2541190342
31
0.0000000000
11
9.9325472910
21
-12.6949547386
31
0.0000000000
11
8.8931488707
21
-12.9501219464
31
0.0000000000
11
7.8928420266
21
-13.0148673752
31
0.0000000000
11
6.9502605823
21
-12.8879849402
31
0.0000000000
11
6.0829630469
21
-12.5718382211
31
0.0000000000
11
6.0723258089
21
-12.5665384977
31
0.0000000000
0
SPLINE
5
25E
100
AcDbEntity
8
0
100
AcDbSpline
62
7
6
CONTINUOUS
70
0
71
3
72
11
73
7
74
5
42
0.0000001000
43
0.0000001000
44
0.0000000001
12
4.4095703108
22
-2.2030760373
32
0.0000000000
13
4.5885218074
23
1.7784556981
33
0.0000000000
40
0.0000000000
40
0.0000000000
40
0.0000000000
40
0.0000000000
40
0.2519953245
40
0.5368552652
40
0.8441271691
40
1.0000000000
40
1.0000000000
40
1.0000000000
40
1.0000000000
10
-3.0134189461
20
-9.7006908841
30
0.0000000000
10
-2.6430219124
20
-9.8857458377
30
0.0000000000
10
-1.8007694171
20
-10.1742669776
30
0.0000000000
10
-0.4049660718
20
-10.2615291916
30
0.0000000000
10
0.8104447952
20
-10.0405169076
30
0.0000000000
10
1.5307530931
20
-9.7970100270
30
0.0000000000
10
1.7691617210
20
-9.7046057189
30
0.0000000000
11
-3.0134189461
21
-9.7006908841
31
0.0000000000
11
-1.8423128171
21
-10.1052629357
31
0.0000000000
11
-0.4459549678
21
-10.2045550279
31
0.0000000000
11
1.0422570157
21
-9.9488346687
31
0.0000000000
11
1.7691617210
21
-9.7046057189
31
0.0000000000
0
SPLINE
5
25F
100
AcDbEntity
8
0
100
AcDbSpline
62
7
6
CONTINUOUS
70
0
71
3
72
10
73
6
74
4
42
0.0000001000
43
0.0000001000
44
0.0000000001
12
1.8695209390
22
0.9347604695
32
0.0000000000
13
1.5262345890
23
1.4295887560
33
0.0000000000
40
0.0000000000
40
0.0000000000
40
0.0000000000
40
0.0000000000
40
0.4405719179
40
0.9118419699
40
1.0000000000
40
1.0000000000
40
1.0000000000
40
1.0000000000
10
12.8301528925
20
-9.8391600452
30
0.0000000000
10
13.1047057011
20
-9.7018836409
30
0.0000000000
10
13.6508854590
20
-9.3723386168
30
0.0000000000
10
14.1961223874
20
-8.9359592537
30
0.0000000000
10
14.4834953410
20
-8.6723267701
30
0.0000000000
10
14.5283452859
20
-8.6303168606
30
0.0000000000
11
12.8301528925
21
-9.8391600452
31
0.0000000000
11
13.6210563705
21
-9.3674735061
31
0.0000000000
11
14.3924851799
21
-8.7549318548
31
0.0000000000
11
14.5283452859
21
-8.6303168606
31
0.0000000000
0
SPLINE
5
260
100
AcDbEntity
8
0
100
AcDbSpline
62
7
6
CONTINUOUS
70
0
71
3
72
12
73
8
74
6
42
0.0000001000
43
0.0000001000
44
0.0000000001
12
0.7640532816
22
3.9932334845
32
0.0000000000
13
-1.7108002772
23
3.6920815183
33
0.0000000000
40
0.0000000000
40
0.0000000000
40
0.0000000000
40
0.0000000000
40
0.1578887499
40
0.4043948303
40
0.6356148352
40
0.8502235879
40
1.0000000000
40
1.0000000000
40
1.0000000000
40
1.0000000000
10
17.7243787758
20
-2.7530120127
30
0.0000000000
10
17.7645905816
20
-2.5428497984
30
0.0000000000
10
17.8499465290
20
-2.0012106083
30
0.0000000000
10
17.9065571276
20
-1.1400459413
30
0.0000000000
10
17.8487332433
20
-0.2011419485
30
0.0000000000
10
17.6816481096
20
0.5915600137
30
0.0000000000
10
17.5075181990
20
1.0555270826
30
0.0000000000
10
17.4221056899
20
1.2398559902
30
0.0000000000
11
17.7243787758
21
-2.7530120127
31
0.0000000000
11
17.8237209244
21
-2.1189493706
31
0.0000000000
11
17.8859663780
21
-1.1191716654
31
0.0000000000
11
17.8237209244
21
-0.1816394138
31
0.0000000000
11
17.6385172531
21
0.6705622285
31
0.0000000000
11
17.4221056899
21
1.2398559902
31
0.0000000000
0
SPLINE
5
261
100
AcDbEntity
8
0
100
AcDbSpline
62
7
6
CONTINUOUS
70
0
71
3
72
9
73
5
74
3
42
0.0000001000
43
0.0000001000
44
0.0000000001
12
-1.0979412322
22
-0.5489706161
32
0.0000000000
13
-1.2024759671
23
-0.2560384321
33
0.0000000000
40
0.0000000000
40
0.0000000000
40
0.0000000000
40
0.0000000000
40
0.6948016409
40
1.0000000000
40
1.0000000000
40
1.0000000000
40
1.0000000000
10
12.8301528925
20
-9.8391600452
30
0.0000000000
10
12.5758691026
20
-9.9663019402
30
0.0000000000
10
12.1954600580
20
-10.1228162176
30
0.0000000000
10
11.7984750580
20
-10.2266785106
30
0.0000000000
10
11.6761438273
20
-10.2527260137
30
0.0000000000
11
12.8301528925
21
-9.8391600452
31
0.0000000000
11
12.0392494146
21
-10.1583769840
31
0.0000000000
11
11.6761438273
21
-10.2527260137
31
0.0000000000
0
SPLINE
5
262
100
AcDbEntity
8
0
100
AcDbSpline
62
7
6
CONTINUOUS
70
0
71
3
72
8
73
4
74
2
42
0.0000001000
43
0.0000001000
44
0.0000000001
12
1.0261958327
22
0.5130979163
32
0.0000000000
13
0.9594392144
23
0.6310004343
33
0.0000000000
40
0.0000000000
40
0.0000000000
40
0.0000000000
40
0.0000000000
40
1.0000000000
40
1.0000000000
40
1.0000000000
40
1.0000000000
10
10.9916752614
20
-12.2541190342
30
0.0000000000
10
11.3337405390
20
-12.0830863954
30
0.0000000000
10
11.6650320878
20
-11.8898895546
30
0.0000000000
10
11.9848451593
20
-11.6795560765
30
0.0000000000
11
10.9916752614
21
-12.2541190342
31
0.0000000000
11
11.9848451593
21
-11.6795560765
31
0.0000000000
0
SPLINE
5
263
100
AcDbEntity
8
0
100
AcDbSpline
62
7
6
CONTINUOUS
70
0
71
3
72
23
73
19
74
17
42
0.0000001000
43
0.0000001000
44
0.0000000001
12
-4.1800564362
22
-0.7849171557
32
0.0000000000
13
-1.6937418394
23
-3.9013081565
33
0.0000000000
40
0.0000000000
40
0.0000000000
40
0.0000000000
40
0.0000000000
40
0.1013673985
40
0.1902512136
40
0.2674551482
40
0.3337511565
40
0.3903221424
40
0.4413372533
40
0.4908619910
40
0.5392279991
40
0.5859204696
40
0.6331066587
40
0.6844034531
40
0.7404420881
40
0.8005631407
40
0.8639789375
40
0.9303551048
40
1.0000000000
40
1.0000000000
40
1.0000000000
40
1.0000000000
10
14.2122538124
20
-1.7671012583
30
0.0000000000
10
14.0710133302
20
-1.7936229283
30
0.0000000000
10
13.8069709480
20
-1.8492151245
30
0.0000000000
10
13.4396431232
20
-1.9436912529
30
0.0000000000
10
13.1241946305
20
-2.0390370060
30
0.0000000000
10
12.8560405225
20
-2.1316860443
30
0.0000000000
10
12.6260700021
20
-2.2206062126
30
0.0000000000
10
12.4211584805
20
-2.3080223490
30
0.0000000000
10
12.2299202083
20
-2.3975298067
30
0.0000000000
10
12.0475140650
20
-2.4911406105
30
0.0000000000
10
11.8717274191
20
-2.5900706964
30
0.0000000000
10
11.6966502883
20
-2.6983976763
30
0.0000000000
10
11.5160101312
20
-2.8225058637
30
0.0000000000
10
11.3283902623
20
-2.9682399492
30
0.0000000000
10
11.1389247569
20
-3.1386894061
30
0.0000000000
10
10.9553683127
20
-3.3362891967
30
0.0000000000
10
10.7868309480
20
-3.5641327342
30
0.0000000000
10
10.6946167330
20
-3.7346111602
30
0.0000000000
10
10.6552965754
20
-3.8251798927
30
0.0000000000
11
14.2122538124
21
-1.7671012583
31
0.0000000000
11
13.7904255359
21
-1.8561594420
31
0.0000000000
11
13.4243615052
21
-1.9505309363
31
0.0000000000
11
13.1101001005
21
-2.0457050224
31
0.0000000000
11
12.8436403339
21
-2.1379173248
31
0.0000000000
11
12.6192668702
21
-2.2247864396
31
0.0000000000
11
12.4197313004
21
-2.3100087593
31
0.0000000000
11
12.2290005748
21
-2.3993876863
31
0.0000000000
11
12.0460375106
21
-2.4934063426
31
0.0000000000
11
11.8730304442
21
-2.5909044536
31
0.0000000000
11
11.7024427231
21
-2.6966190363
31
0.0000000000
11
11.5227453790
21
-2.8203423899
31
0.0000000000
11
11.3347305542
21
-2.9668201203
31
0.0000000000
11
11.1449916907
21
-3.1382332908
31
0.0000000000
11
10.9619930821
21
-3.3363681786
31
0.0000000000
11
10.7950065271
21
-3.5639901909
31
0.0000000000
11
10.6552965754
21
-3.8251798927
31
0.0000000000
0
SPLINE
5
264
100
AcDbEntity
8
0
100
AcDbSpline
62
7
6
CONTINUOUS
70
0
71
3
72
12
73
8
74
6
42
0.0000001000
43
0.0000001000
44
0.0000000001
12
-3.5372799090
22
1.7680890160
32
0.0000000000
13
-3.5280405526
23
-1.7640202763
33
0.0000000000
40
0.0000000000
40
0.0000000000
40
0.0000000000
40
0.0000000000
40
0.1138873810
40
0.3153022036
40
0.5273397261
40
0.7547022305
40
1.0000000000
40
1.0000000000
40
1.0000000000
40
1.0000000000
10
15.9244137540
20
4.3089655916
30
0.0000000000
10
15.7901299058
20
4.3760866007
30
0.0000000000
10
15.4053050330
20
4.5358632390
30
0.0000000000
10
14.7193524422
20
4.6746269164
30
0.0000000000
10
13.8707335739
20
4.6524084498
30
0.0000000000
10
12.9882031260
20
4.4514220385
30
0.0000000000
10
12.4115196041
20
4.2119276610
30
0.0000000000
10
12.1230461113
20
4.0676909146
30
0.0000000000
11
15.9244137540
21
4.3089655916
31
0.0000000000
11
15.5088292921
21
4.4814886021
31
0.0000000000
11
14.7308642518
21
4.6426104375
31
0.0000000000
11
13.8946448636
21
4.6264521209
31
0.0000000000
11
13.0188508867
21
4.4333746023
31
0.0000000000
11
12.1230461113
21
4.0676909146
31
0.0000000000
0
SPLINE
5
265
100
AcDbEntity
8
0
100
AcDbSpline
62
7
6
CONTINUOUS
70
0
71
3
72
13
73
9
74
7
42
0.0000001000
43
0.0000001000
44
0.0000000001
12
-0.3860030186
22
6.2452438012
32
0.0000000000
13
-5.6038546074
23
2.8021768056
33
0.0000000000
40
0.0000000000
40
0.0000000000
40
0.0000000000
40
0.0000000000
40
0.1883725474
40
0.3715042591
40
0.5423538196
40
0.7024044174
40
0.8543323919
40
1.0000000000
40
1.0000000000
40
1.0000000000
40
1.0000000000
10
18.7489518454
20
1.8486544696
30
0.0000000000
10
18.7247143881
20
2.2407986308
30
0.0000000000
10
18.6341562644
20
3.0117558870
30
0.0000000000
10
18.3559280063
20
4.1114347392
30
0.0000000000
10
17.9355283023
20
5.1022215915
30
0.0000000000
10
17.3824935338
20
5.9501886068
30
0.0000000000
10
16.7079246257
20
6.6346066382
30
0.0000000000
10
16.1831247462
20
6.9747971816
30
0.0000000000
10
15.9110247140
20
7.1108593125
30
0.0000000000
11
18.7489518454
21
1.8486544696
31
0.0000000000
11
18.6071622367
21
3.0180827295
31
0.0000000000
11
18.3207452259
21
4.1268521545
31
0.0000000000
11
17.8978015088
21
5.1079316418
31
0.0000000000
11
17.3462097265
21
5.9430455369
31
0.0000000000
11
16.6762449905
21
6.6166372480
31
0.0000000000
11
15.9110247140
21
7.1108593125
31
0.0000000000
0
SPLINE
5
266
100
AcDbEntity
8
0
100
AcDbSpline
62
7
6
CONTINUOUS
70
0
71
3
72
10
73
6
74
4
42
0.0000001000
43
0.0000001000
44
0.0000000001
12
1.6658923039
22
1.0957569563
32
0.0000000000
13
1.4307013155
23
1.3873301624
33
0.0000000000
40
0.0000000000
40
0.0000000000
40
0.0000000000
40
0.0000000000
40
0.0590381154
40
0.6514051531
40
1.0000000000
40
1.0000000000
40
1.0000000000
40
1.0000000000
10
12.9811158917
20
-11.0243348001
30
0.0000000000
10
13.0138996057
20
-11.0027709915
30
0.0000000000
10
13.3740860284
20
-10.7625389530
30
0.0000000000
10
13.9008016072
20
-10.3560549622
30
0.0000000000
10
14.3620752798
20
-9.9338744438
30
0.0000000000
10
14.5283203152
20
-9.7726690619
30
0.0000000000
11
12.9811158917
21
-11.0243348001
31
0.0000000000
11
13.0790480898
21
-10.9590239102
31
0.0000000000
11
14.0155886249
21
-10.2412340149
31
0.0000000000
11
14.5283203152
21
-9.7726690619
31
0.0000000000
0
SPLINE
5
267
100
AcDbEntity
8
0
100
AcDbSpline
62
7
6
CONTINUOUS
70
0
71
3
72
11
73
7
74
5
42
0.0000001000
43
0.0000001000
44
0.0000000001
12
0.9866037681
22
3.6581765012
32
0.0000000000
13
-0.2338879409
23
3.7826483020
33
0.0000000000
40
0.0000000000
40
0.0000000000
40
0.0000000000
40
0.0000000000
40
0.1904892907
40
0.5245867486
40
0.8432615537
40
1.0000000000
40
1.0000000000
40
1.0000000000
40
1.0000000000
10
18.3987531659
20
-3.0901261884
30
0.0000000000
10
18.4613989832
20
-2.8578450393
30
0.0000000000
10
18.6175148346
20
-2.2137539380
30
0.0000000000
10
18.7913796163
20
-1.1616390698
30
0.0000000000
10
18.8523668182
20
-0.1394060020
30
0.0000000000
10
18.8347552394
20
0.4612660543
30
0.0000000000
10
18.8225354952
20
0.6588948603
30
0.0000000000
11
18.3987531659
21
-3.0901261884
31
0.0000000000
11
18.5684539987
21
-2.3887028112
31
0.0000000000
11
18.7721859217
21
-1.1398136325
31
0.0000000000
11
18.8405605326
21
0.0652321931
31
0.0000000000
11
18.8225354952
21
0.6588948603
31
0.0000000000
0
SPLINE
5
268
100
AcDbEntity
8
0
100
AcDbSpline
62
7
6
CONTINUOUS
70
0
71
3
72
13
73
9
74
7
42
0.0000001000
43
0.0000001000
44
0.0000000001
12
-4.5879343011
22
-12.4996410842
32
0.0000000000
13
5.5717399556
23
-12.0932163734
33
0.0000000000
40
0.0000000000
40
0.0000000000
40
0.0000000000
40
0.0000000000
40
0.1807041400
40
0.3560720801
40
0.5256198569
40
0.6892129565
40
0.8471124166
40
1.0000000000
40
1.0000000000
40
1.0000000000
40
1.0000000000
10
-34.0424756106
20
3.8758386525
30
0.0000000000
10
-34.3188285180
20
3.1229263550
30
0.0000000000
10
-34.7855519037
20
1.6091425327
30
0.0000000000
10
-35.2182638003
20
-0.6884145148
30
0.0000000000
10
-35.3670205060
20
-2.9463281864
30
0.0000000000
10
-35.2283505984
20
-5.1279568138
30
0.0000000000
10
-34.8037166461
20
-7.1971692142
30
0.0000000000
10
-34.3264255630
20
-8.4982415285
30
0.0000000000
10
-34.0424756106
20
-9.1145424042
30
0.0000000000
11
-34.0424756106
21
3.8758386525
31
0.0000000000
11
-34.7478383240
21
1.5754703870
31
0.0000000000
11
-35.1757355604
21
-0.7200188027
31
0.0000000000
11
-35.3191517625
21
-2.9729933941
31
0.0000000000
11
-35.1757355604
21
-5.1465149099
31
0.0000000000
11
-34.7478383240
21
-7.2049475397
31
0.0000000000
11
-34.0424756106
21
-9.1145424042
31
0.0000000000
0
SPLINE
5
269
100
AcDbEntity
8
0
100
AcDbSpline
62
7
6
CONTINUOUS
70
0
71
3
72
9
73
5
74
3
42
0.0000001000
43
0.0000001000
44
0.0000000001
12
-0.5607021823
22
0.2803699521
32
0.0000000000
13
-0.5965406214
23
0.1930125194
33
0.0000000000
40
0.0000000000
40
0.0000000000
40
0.0000000000
40
0.0000000000
40
0.0189009362
40
1.0000000000
40
1.0000000000
40
1.0000000000
40
1.0000000000
10
14.1432260032
20
7.9947586691
30
0.0000000000
10
14.1396934045
20
7.9965250873
30
0.0000000000
10
13.9526569536
20
8.0897101536
30
0.0000000000
10
13.7584729207
20
8.1684937402
30
0.0000000000
10
13.5633844390
20
8.2316152076
30
0.0000000000
11
14.1432260032
21
7.9947586691
31
0.0000000000
11
14.1326205230
21
8.0000425124
31
0.0000000000
11
13.5633844390
21
8.2316152076
31
0.0000000000
0
SPLINE
5
26A
100
AcDbEntity
8
0
100
AcDbSpline
62
7
6
CONTINUOUS
70
0
71
3
72
8
73
4
74
2
42
0.0000001000
43
0.0000001000
44
0.0000000001
12
-0.0288453873
22
0.0093330121
32
0.0000000000
13
-0.0289112341
23
0.0091263334
33
0.0000000000
40
0.0000000000
40
0.0000000000
40
0.0000000000
40
0.0000000000
40
1.0000000000
40
1.0000000000
40
1.0000000000
40
1.0000000000
10
13.5633844390
20
8.2316152076
30
0.0000000000
10
13.5537693099
20
8.2347262116
30
0.0000000000
10
13.5441430683
20
8.2378027878
30
0.0000000000
10
13.5345059903
20
8.2408448989
30
0.0000000000
11
13.5633844390
21
8.2316152076
31
0.0000000000
11
13.5345059903
21
8.2408448989
31
0.0000000000
0
SPLINE
5
26B
100
AcDbEntity
8
0
100
AcDbSpline
62
7
6
CONTINUOUS
70
0
71
3
72
12
73
8
74
6
42
0.0000001000
43
0.0000001000
44
0.0000000001
12
-4.2524513554
22
1.3423601653
32
0.0000000000
13
-3.9801764003
23
-1.9900882001
33
0.0000000000
40
0.0000000000
40
0.0000000000
40
0.0000000000
40
0.0000000000
40
0.0627013416
40
0.2764291863
40
0.5016890047
40
0.7421986621
40
1.0000000000
40
1.0000000000
40
1.0000000000
40
1.0000000000
10
13.5345059903
20
8.2408448989
30
0.0000000000
10
13.4456278553
20
8.2689008267
30
0.0000000000
10
13.0497305205
20
8.3796663527
30
0.0000000000
10
12.3063437253
20
8.4762588021
30
0.0000000000
10
11.2949811760
20
8.4048698978
30
0.0000000000
10
10.2496059844
20
8.1419121194
30
0.0000000000
10
9.5659399088
20
7.8533391257
30
0.0000000000
10
9.2239083085
20
7.6823233255
30
0.0000000000
11
13.5345059903
21
8.2408448989
31
0.0000000000
11
13.2653229876
21
8.3161892315
31
0.0000000000
11
12.3227415434
21
8.4430716665
31
0.0000000000
11
11.3224346992
21
8.3783262377
31
0.0000000000
11
10.2830362789
21
8.1231590299
31
0.0000000000
11
9.2239083085
21
7.6823233255
31
0.0000000000
0
SPLINE
5
26C
100
AcDbEntity
8
0
100
AcDbSpline
62
7
6
CONTINUOUS
70
0
71
3
72
9
73
5
74
3
42
0.0000001000
43
0.0000001000
44
0.0000000001
12
-0.8680079022
22
-0.8829372922
32
0.0000000000
13
-0.7682365347
23
-0.9709936184
33
0.0000000000
40
0.0000000000
40
0.0000000000
40
0.0000000000
40
0.0000000000
40
0.5016315586
40
1.0000000000
40
1.0000000000
40
1.0000000000
40
1.0000000000
10
-9.9518941685
20
9.8642488473
30
0.0000000000
10
-10.0970342208
20
9.7166124440
30
0.0000000000
10
-10.3785467368
20
9.4145038957
30
0.0000000000
10
-10.6434438979
20
9.0977233383
30
0.0000000000
10
-10.7710655127
20
8.9364191462
30
0.0000000000
11
-9.9518941685
21
9.8642488473
31
0.0000000000
11
-10.3752843532
21
9.4098261005
31
0.0000000000
11
-10.7710655127
21
8.9364191462
31
0.0000000000
0
SPLINE
5
26D
100
AcDbEntity
8
0
100
AcDbSpline
62
7
6
CONTINUOUS
70
0
71
3
72
9
73
5
74
3
42
0.0000001000
43
0.0000001000
44
0.0000000001
12
-0.9238820687
22
-1.0654182746
32
0.0000000000
13
-0.7996345865
23
-1.1615759575
33
0.0000000000
40
0.0000000000
40
0.0000000000
40
0.0000000000
40
0.0000000000
40
0.4959126292
40
1.0000000000
40
1.0000000000
40
1.0000000000
40
1.0000000000
10
-9.0901573243
20
10.9798401039
30
0.0000000000
10
-9.2428789195
20
10.8037219780
30
0.0000000000
10
-9.5405490691
20
10.4395453119
30
0.0000000000
10
-9.8175322698
20
10.0594274374
30
0.0000000000
10
-9.9518941685
20
9.8642488473
30
0.0000000000
11
-9.0901573243
21
10.9798401039
31
0.0000000000
11
-9.5330281650
21
10.4386019512
31
0.0000000000
11
-9.9518941685
21
9.8642488473
31
0.0000000000
0
SPLINE
5
26E
100
AcDbEntity
8
0
100
AcDbSpline
62
7
6
CONTINUOUS
70
0
71
3
72
24
73
20
74
18
42
0.0000001000
43
0.0000001000
44
0.0000000001
12
-15.6400248883
22
7.8175764788
32
0.0000000000
13
15.1103944487
23
8.7366782095
33
0.0000000000
40
0.0000000000
40
0.0000000000
40
0.0000000000
40
0.0000000000
40
0.0188542520
40
0.0641600588
40
0.1116653780
40
0.1625034346
40
0.2173372907
40
0.2763793816
40
0.3394632754
40
0.4061245078
40
0.4756741602
40
0.5472627211
40
0.6199363351
40
0.6926882557
40
0.7645079849
40
0.8344302533
40
0.9015859655
40
0.9652575311
40
1.0000000000
40
1.0000000000
40
1.0000000000
40
1.0000000000
10
8.3216784687
20
-10.8960156267
30
0.0000000000
10
8.2233848117
20
-10.8468841076
30
0.0000000000
10
7.8974936913
20
-10.6625355476
30
0.0000000000
10
7.3923896816
20
-10.2449134056
30
0.0000000000
10
6.8827868558
20
-9.5751160049
30
0.0000000000
10
6.4947146276
20
-8.7678427819
30
0.0000000000
10
6.2341789207
20
-7.8421413832
30
0.0000000000
10
6.1050476673
20
-6.8182282228
30
0.0000000000
10
6.1091387749
20
-5.7180454894
30
0.0000000000
10
6.2459007515
20
-4.5652599870
30
0.0000000000
10
6.5121531337
20
-3.3848730127
30
0.0000000000
10
6.9019892671
20
-2.2026574442
30
0.0000000000
10
7.4068243960
20
-1.0445377153
30
0.0000000000
10
8.0155519314
20
0.0640336873
30
0.0000000000
10
8.7148031701
20
1.0986875675
30
0.0000000000
10
9.4892307247
20
2.0366873036
30
0.0000000000
10
10.3220495009
20
2.8575141256
30
0.0000000000
10
11.0806980458
20
3.4532940499
30
0.0000000000
10
11.5650556030
20
3.7600688628
30
0.0000000000
10
11.7400464059
20
3.8612467864
30
0.0000000000
11
8.3216784687
21
-10.8960156267
31
0.0000000000
11
8.0349306917
21
-10.7337358454
31
0.0000000000
11
7.4239201959
21
-10.2327310383
31
0.0000000000
11
6.9178804079
21
-9.5767158353
31
0.0000000000
11
6.5281154205
21
-8.7803445322
31
0.0000000000
11
6.2633319394
21
-7.8614067478
31
0.0000000000
11
6.1294447900
21
-6.8404300337
31
0.0000000000
11
6.1294447900
21
-5.7402213227
31
0.0000000000
11
6.2633319394
21
-4.5853574592
31
0.0000000000
11
6.5281154205
21
-3.4016361937
31
0.0000000000
11
6.9178804079
21
-2.2154999032
31
0.0000000000
11
7.4239201959
21
-1.0534449123
31
0.0000000000
11
8.0349306917
21
0.0585703906
31
0.0000000000
11
8.7372629305
21
1.0957054213
31
0.0000000000
11
9.5152279708
21
2.0347922970
31
0.0000000000
11
10.3514473591
21
2.8548533686
31
0.0000000000
11
11.2272413360
21
3.5375698270
31
0.0000000000
11
11.7400464059
21
3.8612467864
31
0.0000000000
0
SPLINE
5
26F
100
AcDbEntity
8
0
100
AcDbSpline
62
7
6
CONTINUOUS
70
0
71
3
72
8
73
4
74
2
42
0.0000001000
43
0.0000001000
44
0.0000000001
12
0.0818291988
22
0.0473128203
32
0.0000000000
13
0.0824106281
23
0.0462609052
33
0.0000000000
40
0.0000000000
40
0.0000000000
40
0.0000000000
40
0.0000000000
40
1.0000000000
40
1.0000000000
40
1.0000000000
40
1.0000000000
10
11.7400464059
20
3.8612467864
30
0.0000000000
10
11.7673228055
20
3.8770177265
30
0.0000000000
10
11.7946964201
20
3.8926156561
30
0.0000000000
10
11.8221666294
20
3.9080359578
30
0.0000000000
11
11.7400464059
21
3.8612467864
31
0.0000000000
11
11.8221666294
21
3.9080359578
31
0.0000000000
0
SPLINE
5
270
100
AcDbEntity
8
0
100
AcDbSpline
62
7
6
CONTINUOUS
70
0
71
3
72
8
73
4
74
2
42
0.0000001000
43
0.0000001000
44
0.0000000001
12
0.2971412173
22
0.1667991375
32
0.0000000000
13
0.3045886755
23
0.1522943378
33
0.0000000000
40
0.0000000000
40
0.0000000000
40
0.0000000000
40
0.0000000000
40
1.0000000000
40
1.0000000000
40
1.0000000000
40
1.0000000000
10
11.8221666294
20
3.9080359578
30
0.0000000000
10
11.9212137019
20
3.9636356703
30
0.0000000000
10
12.0215165528
20
4.0169261354
30
0.0000000000
10
12.1230461113
20
4.0676909146
30
0.0000000000
11
11.8221666294
21
3.9080359578
31
0.0000000000
11
12.1230461113
21
4.0676909146
31
0.0000000000
0
SPLINE
5
271
100
AcDbEntity
8
0
100
AcDbSpline
62
7
6
CONTINUOUS
70
0
71
3
72
8
73
4
74
2
42
0.0000001000
43
0.0000001000
44
0.0000000001
12
-0.5849912245
22
0.2925152903
32
0.0000000000
13
-0.5321090526
23
0.3804754472
33
0.0000000000
40
0.0000000000
40
0.0000000000
40
0.0000000000
40
0.0000000000
40
1.0000000000
40
1.0000000000
40
1.0000000000
40
1.0000000000
10
4.3045906137
20
-11.6826709013
30
0.0000000000
10
4.1095935389
20
-11.5851658046
30
0.0000000000
10
3.9224128457
20
-11.4720200205
30
0.0000000000
10
3.7450431615
20
-11.3451948714
30
0.0000000000
11
4.3045906137
21
-11.6826709013
31
0.0000000000
11
3.7450431615
21
-11.3451948714
31
0.0000000000
0
SPLINE
5
272
100
AcDbEntity
8
0
100
AcDbSpline
62
7
6
CONTINUOUS
70
0
71
3
72
25
73
21
74
19
42
0.0000001000
43
0.0000001000
44
0.0000000001
12
-18.3270639231
22
13.1044525690
32
0.0000000000
13
20.1095613096
23
10.0547806548
33
0.0000000000
40
0.0000000000
40
0.0000000000
40
0.0000000000
40
0.0000000000
40
0.0114819853
40
0.0537376462
40
0.0982524487
40
0.1457707620
40
0.1967051047
40
0.2511622072
40
0.3089917937
40
0.3698381335
40
0.4331869427
40
0.4984065295
40
0.5647842912
40
0.6315600808
40
0.6979578243
40
0.7632165702
40
0.8266220780
40
0.8875401232
40
0.9454528942
40
1.0000000000
40
1.0000000000
40
1.0000000000
40
1.0000000000
10
3.7450431615
20
-11.3451948714
30
0.0000000000
10
3.6748994688
20
-11.2950398276
30
0.0000000000
10
3.3537961899
20
-11.0502931012
30
0.0000000000
10
2.8330900361
20
-10.5219843155
30
0.0000000000
10
2.2800552677
20
-9.6740173002
30
0.0000000000
10
1.8596555637
20
-8.6832304479
30
0.0000000000
10
1.5776182397
20
-7.5684965139
30
0.0000000000
10
1.4377246381
20
-6.3500832056
30
0.0000000000
10
1.4417572507
20
-5.0499119849
30
0.0000000000
10
1.5892631421
20
-3.6914544089
30
0.0000000000
10
1.8773747683
20
-2.2993872841
30
0.0000000000
10
2.3007421953
20
-0.8991333124
30
0.0000000000
10
2.8515665572
20
0.4836410278
30
0.0000000000
10
3.5197164146
20
1.8235363855
30
0.0000000000
10
4.2929069955
20
3.0959202291
30
0.0000000000
10
5.1569503172
20
4.2774122406
30
0.0000000000
10
6.0960057236
20
5.3463122827
30
0.0000000000
10
7.0930595166
20
6.2830701570
30
0.0000000000
10
8.1298085806
20
7.0703723059
30
0.0000000000
10
8.8582688523
20
7.4995035974
30
0.0000000000
10
9.2239083085
20
7.6823233255
30
0.0000000000
11
3.7450431615
21
-11.3451948714
31
0.0000000000
11
3.5393385794
21
-11.1884329567
31
0.0000000000
11
2.8693738434
21
-10.5148412456
31
0.0000000000
11
2.3177820612
21
-9.6797273505
31
0.0000000000
11
1.8948383440
21
-8.6986478632
31
0.0000000000
11
1.6084213332
21
-7.5898784382
31
0.0000000000
11
1.4638664357
21
-6.3740733520
31
0.0000000000
11
1.4638664357
21
-5.0738807530
31
0.0000000000
11
1.6084213332
21
-3.7135207693
31
0.0000000000
11
1.8948383440
21
-2.3183343335
31
0.0000000000
11
2.3177820612
21
-0.9143111290
31
0.0000000000
11
2.8693738434
21
0.4723945483
31
0.0000000000
11
3.5393385794
21
1.8159509954
31
0.0000000000
11
4.3151960939
21
3.0913302979
31
0.0000000000
11
5.1824936294
21
4.2747745524
31
0.0000000000
11
6.1250750736
21
5.3442384316
31
0.0000000000
11
7.1253819178
21
6.2797998470
31
0.0000000000
11
8.1647803381
21
7.0640310595
31
0.0000000000
11
9.2239083085
21
7.6823233255
31
0.0000000000
0
SPLINE
5
273
100
AcDbEntity
8
0
100
AcDbSpline
62
7
6
CONTINUOUS
70
0
71
3
72
10
73
6
74
4
42
0.0000001000
43
0.0000001000
44
0.0000000001
12
-0.0106406160
22
1.9400581027
32
0.0000000000
13
0.3246810661
23
1.9124041087
33
0.0000000000
40
0.0000000000
40
0.0000000000
40
0.0000000000
40
0.0000000000
40
0.0280473344
40
0.6069876945
40
1.0000000000
40
1.0000000000
40
1.0000000000
40
1.0000000000
10
-11.4588161735
20
1.8316188270
30
0.0000000000
10
-11.4589156538
20
1.8497566464
30
0.0000000000
10
-11.4599861232
20
2.2422886665
30
0.0000000000
10
-11.4235243857
20
2.8887655377
30
0.0000000000
10
-11.3372202834
20
3.5115495028
30
0.0000000000
10
-11.2946857320
20
3.7620822855
30
0.0000000000
11
-11.4588161735
21
1.8316188270
31
0.0000000000
11
-11.4589650412
21
1.8860321546
31
0.0000000000
11
-11.3986984740
21
3.0069907267
31
0.0000000000
11
-11.2946857320
21
3.7620822855
31
0.0000000000
0
SPLINE
5
274
100
AcDbEntity
8
0
100
AcDbSpline
62
7
6
CONTINUOUS
70
0
71
3
72
11
73
7
74
5
42
0.0000001000
43
0.0000001000
44
0.0000000001
12
1.7646448747
22
3.9873658593
32
0.0000000000
13
2.8558638259
23
3.2933743525
33
0.0000000000
40
0.0000000000
40
0.0000000000
40
0.0000000000
40
0.0000000000
40
0.1446239297
40
0.4338645601
40
0.7200423391
40
1.0000000000
40
1.0000000000
40
1.0000000000
40
1.0000000000
10
-10.2739020055
20
7.1044222043
30
0.0000000000
10
-10.1888320468
20
7.2966450442
30
0.0000000000
10
-9.9216367842
20
7.8680007910
30
0.0000000000
10
-9.4201634614
20
8.7876279265
30
0.0000000000
10
-8.7358015666
20
9.8268172024
30
0.0000000000
10
-8.2252934599
20
10.4734958926
30
0.0000000000
10
-7.9587864744
20
10.7808310193
30
0.0000000000
11
-10.2739020055
21
7.1044222043
31
0.0000000000
11
-10.0068132620
21
7.6756406556
31
0.0000000000
11
-9.4029647859
21
8.7824829506
31
0.0000000000
11
-8.7161172505
21
9.8238682318
31
0.0000000000
11
-7.9587864744
21
10.7808310193
31
0.0000000000
0
SPLINE
5
275
100
AcDbEntity
8
0
100
AcDbSpline
62
7
6
CONTINUOUS
70
0
71
3
72
12
73
8
74
6
42
0.0000001000
43
0.0000001000
44
0.0000000001
12
-1.3303337038
22
4.7367182815
32
0.0000000000
13
-4.4094109703
23
2.2029964288
33
0.0000000000
40
0.0000000000
40
0.0000000000
40
0.0000000000
40
0.0000000000
40
0.1063408879
40
0.4177048428
40
0.7054528385
40
0.9792521856
40
1.0000000000
40
1.0000000000
40
1.0000000000
40
1.0000000000
10
11.0397328830
20
8.8356894191
30
0.0000000000
10
10.9925765939
20
9.0035916949
30
0.0000000000
10
10.7876602762
20
9.6575759353
30
0.0000000000
10
10.3022383551
20
10.7161370132
30
0.0000000000
10
9.4090608236
20
11.8525930926
30
0.0000000000
10
8.6286489248
20
12.4232756872
30
0.0000000000
10
8.1981232903
20
12.6443466080
30
0.0000000000
10
8.1676280767
20
12.6595823950
30
0.0000000000
11
11.0397328830
21
8.8356894191
31
0.0000000000
11
10.8828923702
21
9.3348163170
31
0.0000000000
11
10.2317600115
21
10.7194322522
31
0.0000000000
11
9.3480448206
21
11.8232958734
31
0.0000000000
11
8.2585980362
21
12.6128668430
31
0.0000000000
11
8.1676280767
21
12.6595823950
31
0.0000000000
0
SPLINE
5
276
100
AcDbEntity
8
0
100
AcDbSpline
62
7
6
CONTINUOUS
70
0
71
3
72
13
73
9
74
7
42
0.0000001000
43
0.0000001000
44
0.0000000001
12
0.0000000000
22
-7.8807204149
32
0.0000000000
13
7.0713386833
23
-3.5329285411
33
0.0000000000
40
0.0000000000
40
0.0000000000
40
0.0000000000
40
0.0000000000
40
0.2306417038
40
0.4427490367
40
0.6369034536
40
0.8163318795
40
0.9870624722
40
1.0000000000
40
1.0000000000
40
1.0000000000
40
1.0000000000
10
-6.6152835901
20
-2.7631949317
30
0.0000000000
10
-6.6152835901
20
-3.3690691929
30
0.0000000000
10
-6.5360347008
20
-4.5346668342
30
0.0000000000
10
-6.1478919056
20
-6.1710601472
30
0.0000000000
10
-5.5015826150
20
-7.5804688070
30
0.0000000000
10
-4.6084050835
20
-8.7169248864
30
0.0000000000
10
-3.8279931848
20
-9.2876074810
30
0.0000000000
10
-3.3974675502
20
-9.5086784017
30
0.0000000000
10
-3.3669723367
20
-9.5239141888
30
0.0000000000
11
-6.6152835901
21
-2.7631949317
31
0.0000000000
11
-6.4810018293
21
-4.5758507160
31
0.0000000000
11
-6.0822366301
21
-6.1991481107
31
0.0000000000
11
-5.4311042715
21
-7.5837640460
31
0.0000000000
11
-4.5473890805
21
-8.6876276672
31
0.0000000000
11
-3.4579422962
21
-9.4771986368
31
0.0000000000
11
-3.3669723367
21
-9.5239141888
31
0.0000000000
0
SPLINE
5
277
100
AcDbEntity
8
0
100
AcDbSpline
62
7
6
CONTINUOUS
70
0
71
3
72
14
73
10
74
8
42
0.0000001000
43
0.0000001000
44
0.0000000001
12
-7.6793858458
22
2.0633737753
32
0.0000000000
13
-7.9116401187
23
0.7977649638
33
0.0000000000
40
0.0000000000
40
0.0000000000
40
0.0000000000
40
0.0000000000
40
0.1830631648
40
0.3496459157
40
0.5032533186
40
0.6442399307
40
0.7724074210
40
0.8895723398
40
1.0000000000
40
1.0000000000
40
1.0000000000
40
1.0000000000
10
4.6277142308
20
13.7323155158
30
0.0000000000
10
4.1591100051
20
13.8582247603
30
0.0000000000
10
3.2629248027
20
14.0944288639
30
0.0000000000
10
1.9686229138
20
14.4172986017
30
0.0000000000
10
0.7775850334
20
14.6927117748
30
0.0000000000
10
-0.3195483250
20
14.9212093478
30
0.0000000000
10
-1.3273207177
20
15.1034168238
30
0.0000000000
10
-2.2599901745
20
15.2433990524
30
0.0000000000
10
-2.8592390602
20
15.3138631132
30
0.0000000000
10
-3.1504603623
20
15.3432282193
30
0.0000000000
11
4.6277142308
21
13.7323155158
31
0.0000000000
11
3.2198450883
21
14.1023047066
31
0.0000000000
11
1.9343215199
21
14.4217778619
31
0.0000000000
11
0.7439850759
21
14.6957068589
31
0.0000000000
11
-0.3538125438
21
14.9230542066
31
0.0000000000
11
-1.3568911608
21
15.1033716614
31
0.0000000000
11
-2.2783382179
21
15.2409913782
31
0.0000000000
11
-3.1504603623
21
15.3432282193
31
0.0000000000
0
SPLINE
5
278
100
AcDbEntity
8
0
100
AcDbSpline
62
7
6
CONTINUOUS
70
0
71
3
72
11
73
7
74
5
42
0.0000001000
43
0.0000001000
44
0.0000000001
12
-5.0032978557
22
-4.2436660927
32
0.0000000000
13
-4.1349413020
23
-5.0947987667
33
0.0000000000
40
0.0000000000
40
0.0000000000
40
0.0000000000
40
0.0000000000
40
0.2862078388
40
0.5586133775
40
0.8247250704
40
1.0000000000
40
1.0000000000
40
1.0000000000
40
1.0000000000
10
-3.1504603623
20
15.3432282193
30
0.0000000000
10
-3.6277880510
20
14.9383713856
30
0.0000000000
10
-4.5454199070
20
14.1313667574
30
0.0000000000
10
-5.8452815226
20
12.8800771224
30
0.0000000000
10
-6.9115147252
20
11.7388523146
30
0.0000000000
10
-7.5350382847
20
11.0015502086
30
0.0000000000
10
-7.7766221332
20
10.7038867102
30
0.0000000000
11
-3.1504603623
21
15.3432282193
31
0.0000000000
11
-4.5583295047
21
14.1007864774
31
0.0000000000
11
-5.8438530732
21
12.8592840471
31
0.0000000000
11
-7.0341895172
21
11.5821328566
31
0.0000000000
11
-7.7766221332
21
10.7038867102
31
0.0000000000
0
SPLINE
5
279
100
AcDbEntity
8
0
100
AcDbSpline
62
7
6
CONTINUOUS
70
0
71
3
72
8
73
4
74
2
42
0.0000001000
43
0.0000001000
44
0.0000000001
12
-0.0335146788
22
-0.0412945509
32
0.0000000000
13
-0.0334373573
23
-0.0413571372
33
0.0000000000
40
0.0000000000
40
0.0000000000
40
0.0000000000
40
0.0000000000
40
1.0000000000
40
1.0000000000
40
1.0000000000
40
1.0000000000
10
-7.7766221332
20
10.7038867102
30
0.0000000000
10
-7.7877936928
20
10.6901218599
30
0.0000000000
10
-7.7989523839
20
10.6763465735
30
0.0000000000
10
-7.8100981697
20
10.6625608611
30
0.0000000000
11
-7.7766221332
21
10.7038867102
31
0.0000000000
11
-7.8100981697
21
10.6625608611
31
0.0000000000
0
SPLINE
5
27A
100
AcDbEntity
8
0
100
AcDbSpline
62
7
6
CONTINUOUS
70
0
71
3
72
10
73
6
74
4
42
0.0000001000
43
0.0000001000
44
0.0000000001
12
-1.8117879237
22
-2.2409175818
32
0.0000000000
13
-1.5801198245
23
-2.4097534696
33
0.0000000000
40
0.0000000000
40
0.0000000000
40
0.0000000000
40
0.0000000000
40
0.1797086214
40
0.7692056771
40
1.0000000000
40
1.0000000000
40
1.0000000000
40
1.0000000000
10
-7.8100981697
20
10.6625608611
30
0.0000000000
10
-7.9186294730
20
10.5283234580
30
0.0000000000
10
-8.3779377386
20
9.9495166136
30
0.0000000000
10
-8.9451035280
20
9.1737224103
30
0.0000000000
10
-9.3842401114
20
8.5194742820
30
0.0000000000
10
-9.5058010063
20
8.3340884752
30
0.0000000000
11
-7.8100981697
21
10.6625608611
31
0.0000000000
11
-8.1319871368
21
10.2568924030
31
0.0000000000
11
-9.1350657538
21
8.8862135459
31
0.0000000000
11
-9.5058010063
21
8.3340884752
31
0.0000000000
0
SPLINE
5
27B
100
AcDbEntity
8
0
100
AcDbSpline
62
7
6
CONTINUOUS
70
0
71
3
72
9
73
5
74
3
42
0.0000001000
43
0.0000001000
44
0.0000000001
12
-1.5208865799
22
-2.3194201198
32
0.0000000000
13
-1.3318072601
23
-2.4325566068
33
0.0000000000
40
0.0000000000
40
0.0000000000
40
0.0000000000
40
0.0000000000
40
0.3713489089
40
1.0000000000
40
1.0000000000
40
1.0000000000
40
1.0000000000
10
-9.5058010063
20
8.3340884752
30
0.0000000000
10
-9.6940608637
20
8.0469837650
30
0.0000000000
10
-10.1881505758
20
7.2653903510
30
0.0000000000
10
-10.6495542596
20
6.4638840444
30
0.0000000000
10
-10.9286349553
20
5.9541409227
30
0.0000000000
11
-9.5058010063
21
8.3340884752
31
0.0000000000
11
-10.0565128109
21
7.4637500539
31
0.0000000000
11
-10.9286349553
21
5.9541409227
31
0.0000000000
0
SPLINE
5
27C
100
AcDbEntity
8
0
100
AcDbSpline
62
7
6
CONTINUOUS
70
0
71
3
72
14
73
10
74
8
42
0.0000001000
43
0.0000001000
44
0.0000000001
12
-2.2526877685
22
-10.8396422880
32
0.0000000000
13
1.8773494457
23
-10.9109122521
33
0.0000000000
40
0.0000000000
40
0.0000000000
40
0.0000000000
40
0.0000000000
40
0.1357224816
40
0.2695190082
40
0.4056562027
40
0.5458944318
40
0.6904634251
40
0.8404827861
40
1.0000000000
40
1.0000000000
40
1.0000000000
40
1.0000000000
10
-10.9286349553
20
5.9541409227
30
0.0000000000
10
-11.0305484134
20
5.4637465391
30
0.0000000000
10
-11.2091994549
20
4.4847322980
30
0.0000000000
10
-11.3942064164
20
2.9983136987
30
0.0000000000
10
-11.4881991548
20
1.4865142927
30
0.0000000000
10
-11.4866606344
20
-0.0679356246
30
0.0000000000
10
-11.3901333812
20
-1.6705513657
30
0.0000000000
10
-11.2036545713
20
-3.3365733591
30
0.0000000000
10
-11.0284581397
20
-4.4656996360
30
0.0000000000
10
-10.9286349553
20
-5.0458590773
30
0.0000000000
11
-10.9286349553
21
5.9541409227
31
0.0000000000
11
-11.1963432510
21
4.4755641378
31
0.0000000000
11
-11.3780903977
21
3.0054621258
31
0.0000000000
11
-11.4716475230
21
1.5011605008
31
0.0000000000
11
-11.4715997799
21
-0.0514511721
31
0.0000000000
11
-11.3779583872
21
-1.6492681803
31
0.0000000000
11
-11.1962600282
21
-3.3002005686
31
0.0000000000
11
-10.9286349553
21
-5.0458590773
31
0.0000000000
0
SPLINE
5
27D
100
AcDbEntity
8
0
100
AcDbSpline
62
7
6
CONTINUOUS
70
0
71
3
72
10
73
6
74
4
42
0.0000001000
43
0.0000001000
44
0.0000000001
12
3.7779387880
22
-1.0150941724
32
0.0000000000
13
3.8198552864
23
-0.8440992694
33
0.0000000000
40
0.0000000000
40
0.0000000000
40
0.0000000000
40
0.0000000000
40
0.3721110256
40
0.7107224460
40
1.0000000000
40
1.0000000000
40
1.0000000000
40
1.0000000000
10
-9.7265534273
20
-5.6468998413
30
0.0000000000
10
-9.2579492017
20
-5.7728090858
30
0.0000000000
10
-8.3617639993
20
-6.0090131894
30
0.0000000000
10
-7.0965110289
20
-6.3246365368
30
0.0000000000
10
-6.2988731922
20
-6.5095911958
30
0.0000000000
10
-5.9305403942
20
-6.5909841865
30
0.0000000000
11
-9.7265534273
21
-5.6468998413
31
0.0000000000
11
-8.3186842849
21
-6.0168890321
31
0.0000000000
11
-7.0331607165
21
-6.3363621873
31
0.0000000000
11
-5.9305403942
21
-6.5909841865
31
0.0000000000
0
SPLINE
5
27E
100
AcDbEntity
8
0
100
AcDbSpline
62
7
6
CONTINUOUS
70
0
71
3
72
17
73
13
74
11
42
0.0000001000
43
0.0000001000
44
0.0000000001
12
-7.0616173251
22
-1.5031440426
32
0.0000000000
13
-0.1513896537
23
7.2130602378
33
0.0000000000
40
0.0000000000
40
0.0000000000
40
0.0000000000
40
0.0000000000
40
0.0528328372
40
0.1620054117
40
0.2657086358
40
0.3672680918
40
0.4704070431
40
0.5785531983
40
0.6942863507
40
0.8191159658
40
0.9535256537
40
1.0000000000
40
1.0000000000
40
1.0000000000
40
1.0000000000
10
10.4781660260
20
-10.5077083763
30
0.0000000000
10
10.3538042666
20
-10.5341801644
30
0.0000000000
10
9.9691250742
20
-10.5993448422
30
0.0000000000
10
9.3259102917
20
-10.6161854365
30
0.0000000000
10
8.5782486924
20
-10.4649384344
30
0.0000000000
10
7.9021603616
20
-10.1429534724
30
0.0000000000
10
7.3171101986
20
-9.6592315110
30
0.0000000000
10
6.8374840096
20
-9.0288339574
30
0.0000000000
10
6.4722395596
20
-8.2690473946
30
0.0000000000
10
6.2270294825
20
-7.3977990194
30
0.0000000000
10
6.1347991669
20
-6.6664823825
30
0.0000000000
10
6.1167873120
20
-6.2317592240
30
0.0000000000
10
6.1144420669
20
-6.1200184708
30
0.0000000000
11
10.4781660260
21
-10.5077083763
31
0.0000000000
11
10.1021056598
21
-10.5708444525
31
0.0000000000
11
9.3150756473
21
-10.5860522799
31
0.0000000000
11
8.5828732565
21
-10.4344081996
31
0.0000000000
11
7.9218546787
21
-10.1192996896
31
0.0000000000
11
7.3467859768
21
-9.6477657535
31
0.0000000000
11
6.8705132352
21
-9.0303396802
31
0.0000000000
11
6.5036756000
21
-8.2808137478
31
0.0000000000
11
6.2544676178
21
-7.4159311272
31
0.0000000000
11
6.1284561831
21
-6.4550118669
31
0.0000000000
11
6.1144420669
21
-6.1200184708
31
0.0000000000
0
SPLINE
5
27F
100
AcDbEntity
8
0
100
AcDbSpline
62
7
6
CONTINUOUS
70
0
71
3
72
9
73
5
74
3
42
0.0000001000
43
0.0000001000
44
0.0000000001
12
0.9417914590
22
0.6756880349
32
0.0000000000
13
1.0359933120
23
0.5179966560
33
0.0000000000
40
0.0000000000
40
0.0000000000
40
0.0000000000
40
0.0000000000
40
0.1541906706
40
1.0000000000
40
1.0000000000
40
1.0000000000
40
1.0000000000
10
10.7800187420
20
3.2099234673
30
0.0000000000
10
10.8284238942
20
3.2446517310
30
0.0000000000
10
11.1448308312
20
3.4664888895
30
0.0000000000
10
11.4774084512
20
3.6654127733
30
0.0000000000
10
11.7694927207
20
3.8114549080
30
0.0000000000
11
10.7800187420
21
3.2099234673
31
0.0000000000
11
10.9263823440
21
3.3125174138
31
0.0000000000
11
11.7694927207
21
3.8114549080
31
0.0000000000
0
SPLINE
5
280
100
AcDbEntity
8
0
100
AcDbSpline
62
7
6
CONTINUOUS
70
0
71
3
72
26
73
22
74
20
42
0.0000001000
43
0.0000001000
44
0.0000000001
12
-16.7754632877
22
-3.5719327744
32
0.0000000000
13
15.3171234505
23
7.6585617253
33
0.0000000000
40
0.0000000000
40
0.0000000000
40
0.0000000000
40
0.0000000000
40
0.0241155053
40
0.0669170118
40
0.1076377867
40
0.1477743366
40
0.1889432131
40
0.2325524641
40
0.2795775840
40
0.3305025920
40
0.3853693226
40
0.4438633214
40
0.5053992918
40
0.5691958446
40
0.6343402042
40
0.6998461312
40
0.7647082366
40
0.8279553893
40
0.8887057572
40
0.9462262984
40
1.0000000000
40
1.0000000000
40
1.0000000000
40
1.0000000000
10
11.6761438273
20
-10.2527260137
30
0.0000000000
10
11.5412942359
20
-10.2814390017
30
0.0000000000
10
11.1631542986
20
-10.3420588550
30
0.0000000000
10
10.5434370359
20
-10.3421301608
30
0.0000000000
10
9.8506720881
20
-10.1718246358
30
0.0000000000
10
9.2326329528
20
-9.8337309743
30
0.0000000000
10
8.7089784756
20
-9.3391633060
30
0.0000000000
10
8.2929516515
20
-8.7051572762
30
0.0000000000
10
7.9922345958
20
-7.9501298099
30
0.0000000000
10
7.8115725418
20
-7.0930148677
30
0.0000000000
10
7.7537486575
20
-6.1541108749
30
0.0000000000
10
7.8193936587
20
-5.1555141980
30
0.0000000000
10
8.0066149560
20
-4.1209228364
30
0.0000000000
10
8.3107855875
20
-3.0751074518
30
0.0000000000
10
8.7245216333
20
-2.0432611212
30
0.0000000000
10
9.2378028269
20
-1.0503248236
30
0.0000000000
10
9.8382195496
20
-0.1203200366
30
0.0000000000
10
10.5112605713
20
0.7242570066
30
0.0000000000
10
11.2408684017
20
1.4630726952
30
0.0000000000
10
12.0094203261
20
2.0781818005
30
0.0000000000
10
12.5556000840
20
2.4077268247
30
0.0000000000
10
12.8301528925
20
2.5450032289
30
0.0000000000
11
11.6761438273
21
-10.2527260137
31
0.0000000000
11
11.2678206051
21
-10.3172641422
31
0.0000000000
11
10.5348616017
21
-10.3119091905
31
0.0000000000
11
9.8584202874
21
-10.1424439856
31
0.0000000000
11
9.2551528925
21
-9.8130413234
31
0.0000000000
11
8.7399138624
21
-9.3318121905
31
0.0000000000
11
8.3253900919
21
-8.7106060453
31
0.0000000000
11
8.0217885320
21
-7.9647190448
31
0.0000000000
11
7.8365848607
21
-7.1125174024
31
0.0000000000
11
7.7743394070
21
-6.1749851509
31
0.0000000000
11
7.8365848607
21
-5.1752074457
31
0.0000000000
11
8.0217885320
21
-4.1378021320
31
0.0000000000
11
8.3253900919
21
-3.0883135716
31
0.0000000000
11
8.7399138624
21
-2.0525836560
31
0.0000000000
11
9.2551528925
21
-1.0561154929
31
0.0000000000
11
9.8584202874
21
-0.1234454358
31
0.0000000000
11
10.5348616017
21
0.7224610834
31
0.0000000000
11
11.2678206051
21
1.4607750385
31
0.0000000000
11
12.0392494146
21
2.0733166898
31
0.0000000000
11
12.8301528925
21
2.5450032289
31
0.0000000000
0
SPLINE
5
281
100
AcDbEntity
8
0
100
AcDbSpline
62
7
6
CONTINUOUS
70
0
71
3
72
10
73
6
74
4
42
0.0000001000
43
0.0000001000
44
0.0000000001
12
2.7074911160
22
1.3537455580
32
0.0000000000
13
2.1045840731
23
2.1779382374
33
0.0000000000
40
0.0000000000
40
0.0000000000
40
0.0000000000
40
0.0000000000
40
0.3438676506
40
0.7107105099
40
1.0000000000
40
1.0000000000
40
1.0000000000
40
1.0000000000
10
12.1230461113
20
-10.6547409497
30
0.0000000000
10
12.4333856477
20
-10.4995711815
30
0.0000000000
10
13.0511115997
20
-10.1300921846
30
0.0000000000
10
13.8464008352
20
-9.5055376874
30
0.0000000000
10
14.3252417599
20
-9.0471279916
30
0.0000000000
10
14.5281864443
20
-8.8371097775
30
0.0000000000
11
12.1230461113
21
-10.6547409497
31
0.0000000000
11
13.0188508867
21
-10.1246198621
31
0.0000000000
11
13.8946448636
21
-9.4419034037
31
0.0000000000
11
14.5281864443
21
-8.8371097775
31
0.0000000000
0
SPLINE
5
282
100
AcDbEntity
8
0
100
AcDbSpline
62
7
6
CONTINUOUS
70
0
71
3
72
16
73
12
74
10
42
0.0000001000
43
0.0000001000
44
0.0000000001
12
1.8600572860
22
7.6792505286
32
0.0000000000
13
-7.0826314266
23
3.5402125792
33
0.0000000000
40
0.0000000000
40
0.0000000000
40
0.0000000000
40
0.0000000000
40
0.1031867923
40
0.2503896142
40
0.3896928773
40
0.5200709410
40
0.6411562867
40
0.7534180185
40
0.8583203253
40
0.9583656196
40
1.0000000000
40
1.0000000000
40
1.0000000000
40
1.0000000000
10
17.8178935144
20
-2.7999915840
30
0.0000000000
10
17.8818712960
20
-2.5358591744
30
0.0000000000
10
18.0158520604
20
-1.8897847889
30
0.0000000000
10
18.1369534478
20
-0.8690045457
30
0.0000000000
10
18.1410445554
20
0.2311781877
30
0.0000000000
10
18.0119133020
20
1.2550913482
30
0.0000000000
10
17.7513775951
20
2.1807927468
30
0.0000000000
10
17.3633053669
20
2.9880659698
30
0.0000000000
10
16.8537025411
20
3.6578633705
30
0.0000000000
10
16.3485985314
20
4.0754855125
30
0.0000000000
10
16.0227074110
20
4.2598340725
30
0.0000000000
10
15.9244137540
20
4.3089655916
30
0.0000000000
11
17.8178935144
21
-2.7999915840
31
0.0000000000
11
17.9827602833
21
-2.0016925759
31
0.0000000000
11
18.1166474326
21
-0.8468287124
31
0.0000000000
11
18.1166474326
21
0.2533799986
31
0.0000000000
11
17.9827602833
21
1.2743567127
31
0.0000000000
11
17.7179768021
21
2.1932944971
31
0.0000000000
11
17.3282118148
21
2.9896658002
31
0.0000000000
11
16.8221720268
21
3.6456810032
31
0.0000000000
11
16.2111615310
21
4.1466858103
31
0.0000000000
11
15.9244137540
21
4.3089655916
31
0.0000000000
0
SPLINE
5
283
100
AcDbEntity
8
0
100
AcDbSpline
62
7
6
CONTINUOUS
70
0
71
3
72
25
73
21
74
19
42
0.0000001000
43
0.0000001000
44
0.0000000001
12
-20.7333172077
22
10.3675817188
32
0.0000000000
13
20.6933917997
23
10.3466958998
33
0.0000000000
40
0.0000000000
40
0.0000000000
40
0.0000000000
40
0.0000000000
40
0.0393714179
40
0.0804349039
40
0.1236937935
40
0.1698714546
40
0.2193687674
40
0.2722894511
40
0.3284874696
40
0.3876171286
40
0.4491786539
40
0.5125581758
40
0.5770631966
40
0.6419550156
40
0.7064794544
40
0.7698970307
40
0.8315136549
40
0.8907129962
40
0.9469918523
40
1.0000000000
40
1.0000000000
40
1.0000000000
40
1.0000000000
10
6.0723258089
20
-12.5665384977
30
0.0000000000
10
5.8002257767
20
-12.4304763668
30
0.0000000000
10
5.2754258972
20
-12.0902858234
30
0.0000000000
10
4.6008569891
20
-11.4058677920
30
0.0000000000
10
4.0478222206
20
-10.5579007767
30
0.0000000000
10
3.6274225166
20
-9.5671139243
30
0.0000000000
10
3.3453851926
20
-8.4523799904
30
0.0000000000
10
3.2054915911
20
-7.2339666821
30
0.0000000000
10
3.2095242037
20
-5.9337954614
30
0.0000000000
10
3.3570300951
20
-4.5753378854
30
0.0000000000
10
3.6451417213
20
-3.1832707606
30
0.0000000000
10
4.0685091483
20
-1.7830167889
30
0.0000000000
10
4.6193335102
20
-0.4002424487
30
0.0000000000
10
5.2874833676
20
0.9396529090
30
0.0000000000
10
6.0606739485
20
2.2120367526
30
0.0000000000
10
6.9247172701
20
3.3935287641
30
0.0000000000
10
7.8637726766
20
4.4624288062
30
0.0000000000
10
8.8608264696
20
5.3991866805
30
0.0000000000
10
9.8975755336
20
6.1864888294
30
0.0000000000
10
10.6260358053
20
6.6156201210
30
0.0000000000
10
10.9916752614
20
6.7984398490
30
0.0000000000
11
6.0723258089
21
-12.5665384977
31
0.0000000000
11
5.3071055324
21
-12.0723164332
31
0.0000000000
11
4.6371407963
21
-11.3987247221
31
0.0000000000
11
4.0855490141
21
-10.5636108270
31
0.0000000000
11
3.6626052970
21
-9.5825313397
31
0.0000000000
11
3.3761882862
21
-8.4737619146
31
0.0000000000
11
3.2316333886
21
-7.2579568285
31
0.0000000000
11
3.2316333886
21
-5.9577642295
31
0.0000000000
11
3.3761882862
21
-4.5974042458
31
0.0000000000
11
3.6626052970
21
-3.2022178100
31
0.0000000000
11
4.0855490141
21
-1.7981946055
31
0.0000000000
11
4.6371407963
21
-0.4114889282
31
0.0000000000
11
5.3071055324
21
0.9320675190
31
0.0000000000
11
6.0829630469
21
2.2074468214
31
0.0000000000
11
6.9502605823
21
3.3908910759
31
0.0000000000
11
7.8928420266
21
4.4603549551
31
0.0000000000
11
8.8931488707
21
5.3959163705
31
0.0000000000
11
9.9325472910
21
6.1801475830
31
0.0000000000
11
10.9916752614
21
6.7984398490
31
0.0000000000
0
SPLINE
5
284
100
AcDbEntity
8
0
100
AcDbSpline
62
7
6
CONTINUOUS
70
0
71
3
72
29
73
25
74
23
42
0.0000001000
43
0.0000001000
44
0.0000000001
12
-21.8141191619
22
-10.9070595809
32
0.0000000000
13
21.8141191619
23
10.9070595809
33
0.0000000000
40
0.0000000000
40
0.0000000000
40
0.0000000000
40
0.0000000000
40
0.0424007379
40
0.0818345527
40
0.1186894403
40
0.1536684697
40
0.1877520682
40
0.2220707263
40
0.2577143190
40
0.2955596396
40
0.3361806907
40
0.3798410297
40
0.4265313107
40
0.4760203301
40
0.5279044304
40
0.5816510850
40
0.6366370206
40
0.6921824427
40
0.7475829420
40
0.8021404338
40
0.8551943434
40
0.9061542867
40
0.9545356923
40
1.0000000000
40
1.0000000000
40
1.0000000000
40
1.0000000000
10
12.1230461113
20
-11.5207663535
30
0.0000000000
10
11.8147345281
20
-11.6749221451
30
0.0000000000
10
11.1984386583
20
-11.9330495345
30
0.0000000000
10
10.2556918447
20
-12.1594925988
30
0.0000000000
10
9.3462181001
20
-12.2045406356
30
0.0000000000
10
8.4894630363
20
-12.0640565202
30
0.0000000000
10
7.7061130133
20
-11.7386473664
30
0.0000000000
10
7.0164575305
20
-11.2358712065
30
0.0000000000
10
6.4366580278
20
-10.5697257070
30
0.0000000000
10
5.9775113361
20
-9.7573360341
30
0.0000000000
10
5.6460143458
20
-8.8168183592
30
0.0000000000
10
5.4468748111
20
-7.7672852989
30
0.0000000000
10
5.3828831284
20
-6.6293761480
30
0.0000000000
10
5.4547126064
20
-5.4254109653
30
0.0000000000
10
5.6606595561
20
-4.1791559978
30
0.0000000000
10
5.9964976252
20
-2.9153798605
30
0.0000000000
10
6.4554605205
20
-1.6593253142
30
0.0000000000
10
7.0283311697
20
-0.4361568694
30
0.0000000000
10
7.7036105396
20
0.7295852426
30
0.0000000000
10
8.4677692573
20
1.8145174643
30
0.0000000000
10
9.3055093837
20
2.7968867134
30
0.0000000000
10
10.2002631613
20
3.6570824007
30
0.0000000000
10
11.1341066465
20
4.3777605842
30
0.0000000000
10
11.7924581697
20
4.7684223476
30
0.0000000000
10
12.1230461113
20
4.9337163184
30
0.0000000000
11
12.1230461113
21
-11.5207663535
31
0.0000000000
11
11.1670441329
21
-11.9150258886
31
0.0000000000
11
10.2305035978
21
-12.1337765284
31
0.0000000000
11
9.3324897707
21
-12.1725651406
31
0.0000000000
11
8.4912836234
21
-12.0306021009
31
0.0000000000
11
7.7240096871
21
-11.7107773674
31
0.0000000000
11
7.0462874467
21
-11.2196016494
31
0.0000000000
11
6.4719133726
21
-10.5670738682
31
0.0000000000
11
6.0125800645
21
-9.7664776075
31
0.0000000000
11
5.6776382240
21
-8.8341106986
31
0.0000000000
11
5.4739063010
21
-7.7889534429
31
0.0000000000
11
5.4055316901
21
-6.6522822282
31
0.0000000000
11
5.4739063010
21
-5.4472364025
31
0.0000000000
11
5.6776382240
21
-4.1983472239
31
0.0000000000
11
6.0125800645
21
-2.9310384744
31
0.0000000000
11
6.4719133726
21
-1.6711089056
31
0.0000000000
11
7.0462874467
21
-0.4442070502
31
0.0000000000
11
7.7240096871
21
0.7246909081
31
0.0000000000
11
8.4912836234
21
1.8117895778
31
0.0000000000
11
9.3324897707
21
2.7949587648
31
0.0000000000
11
10.2305035978
21
3.6541839798
31
0.0000000000
11
11.1670441329
21
4.3719738751
31
0.0000000000
11
12.1230461113
21
4.9337163184
31
0.0000000000
0
SPLINE
5
285
100
AcDbEntity
8
0
100
AcDbSpline
62
7
6
CONTINUOUS
70
0
71
3
72
8
73
4
74
2
42
0.0000001000
43
0.0000001000
44
0.0000000001
12
0.8865778674
22
0.4432889337
32
0.0000000000
13
0.8289694547
23
0.5452627666
33
0.0000000000
40
0.0000000000
40
0.0000000000
40
0.0000000000
40
0.0000000000
40
1.0000000000
40
1.0000000000
40
1.0000000000
40
1.0000000000
10
12.1230461113
20
-11.5207663535
30
0.0000000000
10
12.4185720671
20
-11.3730033756
30
0.0000000000
10
12.7047927401
20
-11.2060890556
30
0.0000000000
10
12.9811158917
20
-11.0243348001
30
0.0000000000
11
12.1230461113
21
-11.5207663535
31
0.0000000000
11
12.9811158917
21
-11.0243348001
31
0.0000000000
0
SPLINE
5
286
100
AcDbEntity
8
0
100
AcDbSpline
62
7
6
CONTINUOUS
70
0
71
3
72
12
73
8
74
6
42
0.0000001000
43
0.0000001000
44
0.0000000001
12
-3.5280405526
22
-1.7640202763
32
0.0000000000
13
-3.5372799090
23
1.7680890160
33
0.0000000000
40
0.0000000000
40
0.0000000000
40
0.0000000000
40
0.0000000000
40
0.2452977695
40
0.4726602739
40
0.6846977964
40
0.8861126190
40
1.0000000000
40
1.0000000000
40
1.0000000000
40
1.0000000000
10
12.1230461113
20
-10.6547409497
30
0.0000000000
10
11.8345726186
20
-10.7989776961
30
0.0000000000
10
11.2578890967
20
-11.0384720735
30
0.0000000000
10
10.3753586488
20
-11.2394584849
30
0.0000000000
10
9.5267397805
20
-11.2616769515
30
0.0000000000
10
8.8407871897
20
-11.1229132741
30
0.0000000000
10
8.4559623169
20
-10.9631366358
30
0.0000000000
10
8.3216784687
20
-10.8960156267
30
0.0000000000
11
12.1230461113
21
-10.6547409497
31
0.0000000000
11
11.2272413360
21
-11.0204246374
31
0.0000000000
11
10.3514473591
21
-11.2135021560
31
0.0000000000
11
9.5152279708
21
-11.2296604726
31
0.0000000000
11
8.7372629305
21
-11.0685386372
31
0.0000000000
11
8.3216784687
21
-10.8960156267
31
0.0000000000
0
SPLINE
5
287
100
AcDbEntity
8
0
100
AcDbSpline
62
7
6
CONTINUOUS
70
0
71
3
72
11
73
7
74
5
42
0.0000001000
43
0.0000001000
44
0.0000000001
12
-3.1262412541
22
-1.5631206271
32
0.0000000000
13
-3.3215771038
23
1.1131842270
33
0.0000000000
40
0.0000000000
40
0.0000000000
40
0.0000000000
40
0.0000000000
40
0.2768245979
40
0.5334088058
40
0.7726983926
40
1.0000000000
40
1.0000000000
40
1.0000000000
40
1.0000000000
10
11.7694927207
20
-10.4779642544
30
0.0000000000
10
11.4810192280
20
-10.6222010008
30
0.0000000000
10
10.9043357061
20
-10.8616953782
30
0.0000000000
10
10.0218052582
20
-11.0626817896
30
0.0000000000
10
9.1731863899
20
-11.0849002562
30
0.0000000000
10
8.6353761449
20
-10.9761047966
30
0.0000000000
10
8.3837095399
20
-10.8917619419
30
0.0000000000
11
11.7694927207
21
-10.4779642544
31
0.0000000000
11
10.8736879454
21
-10.8436479421
31
0.0000000000
11
9.9978939685
21
-11.0367254607
31
0.0000000000
11
9.1616745802
21
-11.0528837773
31
0.0000000000
11
8.3837095399
21
-10.8917619419
31
0.0000000000
0
SPLINE
5
288
100
AcDbEntity
8
0
100
AcDbSpline
62
7
6
CONTINUOUS
70
0
71
3
72
8
73
4
74
2
42
0.0000001000
43
0.0000001000
44
0.0000000001
12
-0.2258611035
22
0.0756944698
32
0.0000000000
13
-0.2196869465
23
0.0922526303
33
0.0000000000
40
0.0000000000
40
0.0000000000
40
0.0000000000
40
0.0000000000
40
1.0000000000
40
1.0000000000
40
1.0000000000
40
1.0000000000
10
8.3837095399
20
-10.8917619419
30
0.0000000000
10
8.3084225055
20
-10.8665304520
30
0.0000000000
10
8.2340599003
20
-10.8384940046
30
0.0000000000
10
8.1608309181
20
-10.8077431278
30
0.0000000000
11
8.3837095399
21
-10.8917619419
31
0.0000000000
11
8.1608309181
21
-10.8077431278
31
0.0000000000
0
SPLINE
5
289
100
AcDbEntity
8
0
100
AcDbSpline
62
7
6
CONTINUOUS
70
0
71
3
72
17
73
13
74
11
42
0.0000001000
43
0.0000001000
44
0.0000000001
12
-9.7677391781
22
10.5386819830
32
0.0000000000
13
9.3879801886
23
10.8261930749
33
0.0000000000
40
0.0000000000
40
0.0000000000
40
0.0000000000
40
0.0000000000
40
0.0507036382
40
0.1325626154
40
0.2222311316
40
0.3200262130
40
0.4252668097
40
0.5365387755
40
0.6519242235
40
0.7691970668
40
0.8859978399
40
1.0000000000
40
1.0000000000
40
1.0000000000
40
1.0000000000
10
-6.5351433862
20
-4.1518562949
30
0.0000000000
10
-6.7002300241
20
-3.9737397887
30
0.0000000000
10
-7.0892231915
20
-3.4681489297
30
0.0000000000
10
-7.5517205173
20
-2.5027289285
30
0.0000000000
10
-7.8605694686
20
-1.2462062475
30
0.0000000000
10
-7.9587330393
20
0.1542085644
30
0.0000000000
10
-7.8452485318
20
1.6558409739
30
0.0000000000
10
-7.5244275677
20
3.2123652785
30
0.0000000000
10
-7.0066258172
20
4.7751199434
30
0.0000000000
10
-6.3082008502
20
6.2949430541
30
0.0000000000
10
-5.4514665727
20
7.7235296505
30
0.0000000000
10
-4.7800025752
20
8.6016609343
30
0.0000000000
10
-4.4232525684
20
9.0130640663
30
0.0000000000
11
-6.5351433862
21
-4.1518562949
31
0.0000000000
11
-6.9812529664
21
-3.5766915010
31
0.0000000000
11
-7.4989646944
21
-2.5241042262
31
0.0000000000
11
-7.8164489671
21
-1.2790205681
31
0.0000000000
11
-7.9234311353
21
0.1182652017
31
0.0000000000
11
-7.8164489671
21
1.6225331397
31
0.0000000000
11
-7.4989646944
21
3.1851010704
31
0.0000000000
11
-6.9812529664
21
4.7554000732
31
0.0000000000
11
-6.2800683335
21
6.2826110288
31
0.0000000000
11
-5.4181030253
21
7.7173092638
31
0.0000000000
11
-4.4232525684
21
9.0130640663
31
0.0000000000
0
SPLINE
5
28A
100
AcDbEntity
8
0
100
AcDbSpline
62
7
6
CONTINUOUS
70
0
71
3
72
18
73
14
74
12
42
0.0000001000
43
0.0000001000
44
0.0000000001
12
-14.0392481016
22
7.0237463817
32
0.0000000000
13
10.2454124952
23
11.8149816656
33
0.0000000000
40
0.0000000000
40
0.0000000000
40
0.0000000000
40
0.0000000000
40
0.0608652629
40
0.1301496702
40
0.2051579197
40
0.2873221326
40
0.3769328034
40
0.4733658789
40
0.5753255620
40
0.6810544724
40
0.7885128232
40
0.8955386110
40
1.0000000000
40
1.0000000000
40
1.0000000000
40
1.0000000000
10
-1.6040255751
20
-6.8835936600
30
0.0000000000
10
-1.8888597509
20
-6.7410929366
30
0.0000000000
10
-2.4553985440
20
-6.3525269931
30
0.0000000000
10
-3.1482969971
20
-5.5209014390
30
0.0000000000
10
-3.6626332208
20
-4.4472725767
30
0.0000000000
10
-3.9714821721
20
-3.1907498958
30
0.0000000000
10
-4.0696457428
20
-1.7903350838
30
0.0000000000
10
-3.9561612353
20
-0.2887026744
30
0.0000000000
10
-3.6353402711
20
1.2678216303
30
0.0000000000
10
-3.1175385207
20
2.8305762952
30
0.0000000000
10
-2.4191135537
20
4.3503994058
30
0.0000000000
10
-1.5623792762
20
5.7789860022
30
0.0000000000
10
-0.8909152787
20
6.6571172860
30
0.0000000000
10
-0.5341652719
20
7.0685204181
30
0.0000000000
11
-1.6040255751
21
-6.8835936600
31
0.0000000000
11
-2.3909810370
21
-6.3472614720
31
0.0000000000
11
-3.0921656699
21
-5.5212351492
31
0.0000000000
11
-3.6098773979
21
-4.4686478745
31
0.0000000000
11
-3.9273616705
21
-3.2235642163
31
0.0000000000
11
-4.0343438388
21
-1.8262784466
31
0.0000000000
11
-3.9273616705
21
-0.3220105086
31
0.0000000000
11
-3.6098773979
21
1.2405574222
31
0.0000000000
11
-3.0921656699
21
2.8108564249
31
0.0000000000
11
-2.3909810370
21
4.3380673806
31
0.0000000000
11
-1.5290157288
21
5.7727656156
31
0.0000000000
11
-0.5341652719
21
7.0685204181
31
0.0000000000
0
SPLINE
5
28B
100
AcDbEntity
8
0
100
AcDbSpline
62
7
6
CONTINUOUS
70
0
71
3
72
8
73
4
74
2
42
0.0000001000
43
0.0000001000
44
0.0000000001
12
0.9310186091
22
0.4655093045
32
0.0000000000
13
0.8597607205
23
0.5885517388
33
0.0000000000
40
0.0000000000
40
0.0000000000
40
0.0000000000
40
0.0000000000
40
1.0000000000
40
1.0000000000
40
1.0000000000
40
1.0000000000
10
11.7694927207
20
-10.4779642544
30
0.0000000000
10
12.0798322571
20
-10.3227944862
30
0.0000000000
10
12.3787105892
20
-10.1440270797
30
0.0000000000
10
12.6652974961
20
-9.9478431668
30
0.0000000000
11
11.7694927207
21
-10.4779642544
31
0.0000000000
11
12.6652974961
21
-9.9478431668
31
0.0000000000
0
SPLINE
5
28C
100
AcDbEntity
8
0
100
AcDbSpline
62
7
6
CONTINUOUS
70
0
71
3
72
8
73
4
74
2
42
0.0000001000
43
0.0000001000
44
0.0000000001
12
0.1290793809
22
0.0883616711
32
0.0000000000
13
0.1274217152
23
0.0906784435
33
0.0000000000
40
0.0000000000
40
0.0000000000
40
0.0000000000
40
0.0000000000
40
1.0000000000
40
1.0000000000
40
1.0000000000
40
1.0000000000
10
12.6652974961
20
-9.9478431668
30
0.0000000000
10
12.7083239564
20
-9.9183892764
30
0.0000000000
10
12.7510733650
20
-9.8885428138
30
0.0000000000
10
12.7935472700
20
-9.8583166660
30
0.0000000000
11
12.6652974961
21
-9.9478431668
31
0.0000000000
11
12.7935472700
21
-9.8583166660
31
0.0000000000
0
SPLINE
5
28D
100
AcDbEntity
8
0
100
AcDbSpline
62
7
6
CONTINUOUS
70
0
71
3
72
13
73
9
74
7
42
0.0000001000
43
0.0000001000
44
0.0000000001
12
-0.1189075237
22
4.8166333309
32
0.0000000000
13
-4.0718575067
23
2.5908543617
33
0.0000000000
40
0.0000000000
40
0.0000000000
40
0.0000000000
40
0.0000000000
40
0.0672674389
40
0.2811125141
40
0.4797157461
40
0.6638465559
40
0.8359064948
40
1.0000000000
40
1.0000000000
40
1.0000000000
40
1.0000000000
10
17.7772500333
20
0.1063689351
30
0.0000000000
10
17.7745838317
20
0.2143697978
30
0.0000000000
10
17.7550101872
20
0.6655044656
30
0.0000000000
10
17.6583599114
20
1.4318680434
30
0.0000000000
10
17.3978242045
20
2.3575694421
30
0.0000000000
10
17.0097519763
20
3.1648426651
30
0.0000000000
10
16.5001491505
20
3.8346400658
30
0.0000000000
10
16.0803299307
20
4.1817483811
30
0.0000000000
10
15.8576081404
20
4.3234625056
30
0.0000000000
11
17.7772500333
21
0.1063689351
31
0.0000000000
11
17.7630940420
21
0.4301566939
31
0.0000000000
11
17.6292068927
21
1.4511334080
31
0.0000000000
11
17.3644234116
21
2.3700711924
31
0.0000000000
11
16.9746584242
21
3.1664424955
31
0.0000000000
11
16.4686186362
21
3.8224576985
31
0.0000000000
11
15.8576081404
21
4.3234625056
31
0.0000000000
0
SPLINE
5
28E
100
AcDbEntity
8
0
100
AcDbSpline
62
7
6
CONTINUOUS
70
0
71
3
72
18
73
14
74
12
42
0.0000001000
43
0.0000001000
44
0.0000000001
12
-15.9914858452
22
-7.9957429226
32
0.0000000000
13
3.7474763697
23
-17.5079307134
33
0.0000000000
40
0.0000000000
40
0.0000000000
40
0.0000000000
40
0.0000000000
40
0.0863700809
40
0.1793160937
40
0.2777387097
40
0.3800985200
40
0.4845742170
40
0.5892028310
40
0.6920113955
40
0.7911480235
40
0.8850202589
40
0.9724498374
40
1.0000000000
40
1.0000000000
40
1.0000000000
40
1.0000000000
10
-1.3119827312
20
12.7337624944
30
0.0000000000
10
-1.7723780402
20
12.5035648399
30
0.0000000000
10
-2.6868991914
20
11.9404968738
30
0.0000000000
10
-3.9604434394
20
10.8760710292
30
0.0000000000
10
-5.1542905030
20
9.5899048062
30
0.0000000000
10
-6.2329867122
20
8.1203532210
30
0.0000000000
10
-7.1648801011
20
6.5109136171
30
0.0000000000
10
-7.9222533100
20
4.8094532676
30
0.0000000000
10
-8.4825887523
20
3.0665292165
30
0.0000000000
10
-8.8291772071
20
1.3337590688
30
0.0000000000
10
-8.9515126726
20
-0.3379284958
30
0.0000000000
10
-8.8666895872
20
-1.5845085332
30
0.0000000000
10
-8.7430767178
20
-2.2598625264
30
0.0000000000
10
-8.7086621899
20
-2.4206446393
30
0.0000000000
11
-1.3119827312
21
12.7337624944
31
0.0000000000
11
-2.6319516239
21
11.9323416759
31
0.0000000000
11
-3.9118139297
21
10.8723988790
31
0.0000000000
11
-5.1126816801
21
9.5861399293
31
0.0000000000
11
-6.1980671162
21
8.1126471541
31
0.0000000000
11
-7.1349913507
21
6.4966918857
31
0.0000000000
11
-7.8949864149
21
4.7873741072
31
0.0000000000
11
-8.4549602434
21
3.0366305744
31
0.0000000000
11
-8.7978983146
21
1.2976567437
31
0.0000000000
11
-8.9133806290
21
-0.3767095451
31
0.0000000000
11
-8.7978983146
21
-1.9355935197
31
0.0000000000
11
-8.7086621899
21
-2.4206446393
31
0.0000000000
0
SPLINE
5
28F
100
AcDbEntity
8
0
100
AcDbSpline
62
7
6
CONTINUOUS
70
0
71
3
72
12
73
8
74
6
42
0.0000001000
43
0.0000001000
44
0.0000000001
12
0.9986555396
22
-4.6656443614
32
0.0000000000
13
4.2980555168
23
-2.0898399683
33
0.0000000000
40
0.0000000000
40
0.0000000000
40
0.0000000000
40
0.0000000000
40
0.1983341705
40
0.4745133973
40
0.7297453140
40
0.9726048062
40
1.0000000000
40
1.0000000000
40
1.0000000000
40
1.0000000000
10
-8.7086621899
20
-2.4206446393
30
0.0000000000
10
-8.6426396839
20
-2.7290968740
30
0.0000000000
10
-8.4424521292
20
-3.4579211267
30
0.0000000000
10
-7.9555973252
20
-4.5195539127
30
0.0000000000
10
-7.1874661736
20
-5.4969205038
30
0.0000000000
10
-6.5046241474
20
-5.9962478780
30
0.0000000000
10
-6.1205368717
20
-6.1908434822
30
0.0000000000
10
-6.0812881838
20
-6.2099273392
30
0.0000000000
11
-8.7086621899
21
-2.4206446393
31
0.0000000000
11
-8.4549602434
21
-3.3316292792
31
0.0000000000
11
-7.8949864149
21
-4.5223989835
31
0.0000000000
11
-7.1349913507
21
-5.4717216977
31
0.0000000000
11
-6.1980671162
21
-6.1507527316
31
0.0000000000
11
-6.0812881838
21
-6.2099273392
31
0.0000000000
0
SPLINE
5
290
100
AcDbEntity
8
0
100
AcDbSpline
62
7
6
CONTINUOUS
70
0
71
3
72
11
73
7
74
5
42
0.0000001000
43
0.0000001000
44
0.0000000001
12
-4.2520630575
22
2.1926717466
32
0.0000000000
13
-4.3352245225
23
-2.0000852251
33
0.0000000000
40
0.0000000000
40
0.0000000000
40
0.0000000000
40
0.0000000000
40
0.2338840275
40
0.4862887765
40
0.7585520073
40
1.0000000000
40
1.0000000000
40
1.0000000000
40
1.0000000000
10
3.5410855559
20
13.0159540574
30
0.0000000000
10
3.2095890115
20
13.1868976904
30
0.0000000000
10
2.4700130510
20
13.4451253942
30
0.0000000000
10
1.2525425919
20
13.5212007321
30
0.0000000000
10
0.0445929804
20
13.3016278345
30
0.0000000000
10
-0.7227349301
20
13.0102638947
30
0.0000000000
10
-1.0716453497
20
12.8492917071
30
0.0000000000
11
3.5410855559
21
13.0159540574
31
0.0000000000
11
2.4887162177
21
13.3868388782
31
0.0000000000
11
1.2878484673
21
13.4722300775
31
0.0000000000
11
0.0079861615
21
13.2523105686
31
0.0000000000
11
-1.0716453497
21
12.8492917071
31
0.0000000000
0
SPLINE
5
291
100
AcDbEntity
8
0
100
AcDbSpline
62
7
6
CONTINUOUS
70
0
71
3
72
8
73
4
74
2
42
0.0000001000
43
0.0000001000
44
0.0000000001
12
-0.2422524842
22
-0.1117648260
32
0.0000000000
13
-0.2383935499
23
-0.1191967750
33
0.0000000000
40
0.0000000000
40
0.0000000000
40
0.0000000000
40
0.0000000000
40
1.0000000000
40
1.0000000000
40
1.0000000000
40
1.0000000000
10
-1.0716453497
20
12.8492917071
30
0.0000000000
10
-1.1523961777
20
12.8120367651
30
0.0000000000
10
-1.2325182146
20
12.7734947527
30
0.0000000000
10
-1.3119827312
20
12.7337624944
30
0.0000000000
11
-1.0716453497
21
12.8492917071
31
0.0000000000
11
-1.3119827312
21
12.7337624944
31
0.0000000000
0
SPLINE
5
292
100
AcDbEntity
8
0
100
AcDbSpline
62
7
6
CONTINUOUS
70
0
71
3
72
15
73
11
74
9
42
0.0000001000
43
0.0000001000
44
0.0000000001
12
-2.3680973696
22
5.1136445279
32
0.0000000000
13
-5.2007661476
23
-2.1648803528
33
0.0000000000
40
0.0000000000
40
0.0000000000
40
0.0000000000
40
0.0000000000
40
0.0898815177
40
0.2284638349
40
0.3606297436
40
0.4907716309
40
0.6236606188
40
0.7635582262
40
0.9135669132
40
1.0000000000
40
1.0000000000
40
1.0000000000
40
1.0000000000
10
16.9075462025
20
2.3506736716
30
0.0000000000
10
16.8365968072
20
2.5038810486
30
0.0000000000
10
16.6346334288
20
2.8832253942
30
0.0000000000
10
16.2218752429
20
3.4257348665
30
0.0000000000
10
15.6368250799
20
3.9094568279
30
0.0000000000
10
14.9607367491
20
4.2314417899
30
0.0000000000
10
14.2130751498
20
4.3826887921
30
0.0000000000
10
13.4143750384
20
4.3617772941
30
0.0000000000
10
12.7224103546
20
4.2041900982
30
0.0000000000
10
12.3052792291
20
4.0506740770
30
0.0000000000
10
12.1554398053
20
3.9883016465
30
0.0000000000
11
16.9075462025
21
2.3506736716
31
0.0000000000
11
16.6684722063
21
2.7968430357
31
0.0000000000
11
16.1921994647
21
3.4142691090
31
0.0000000000
11
15.6171307628
21
3.8858030451
31
0.0000000000
11
14.9561121850
21
4.2009115551
31
0.0000000000
11
14.2239097942
21
4.3525556354
31
0.0000000000
11
13.4368797817
21
4.3373478080
31
0.0000000000
11
12.6126030975
21
4.1556277906
31
0.0000000000
11
12.1554398053
21
3.9883016465
31
0.0000000000
0
SPLINE
5
293
100
AcDbEntity
8
0
100
AcDbSpline
62
7
6
CONTINUOUS
70
0
71
3
72
8
73
4
74
2
42
0.0000001000
43
0.0000001000
44
0.0000000001
12
-0.1032845132
22
-0.0429933988
32
0.0000000000
13
-0.1024356991
23
-0.0449367292
33
0.0000000000
40
0.0000000000
40
0.0000000000
40
0.0000000000
40
0.0000000000
40
1.0000000000
40
1.0000000000
40
1.0000000000
40
1.0000000000
10
12.1554398053
20
3.9883016465
30
0.0000000000
10
12.1210116342
20
3.9739705136
30
0.0000000000
10
12.0867231547
20
3.9593092410
30
0.0000000000
10
12.0525779217
20
3.9443303312
30
0.0000000000
11
12.1554398053
21
3.9883016465
31
0.0000000000
11
12.0525779217
21
3.9443303312
31
0.0000000000
0
SPLINE
5
294
100
AcDbEntity
8
0
100
AcDbSpline
62
7
6
CONTINUOUS
70
0
71
3
72
8
73
4
74
2
42
0.0000001000
43
0.0000001000
44
0.0000000001
12
-0.2865252334
22
-0.1256935516
32
0.0000000000
13
-0.2795673719
23
-0.1397836859
33
0.0000000000
40
0.0000000000
40
0.0000000000
40
0.0000000000
40
0.0000000000
40
1.0000000000
40
1.0000000000
40
1.0000000000
40
1.0000000000
10
12.0525779217
20
3.9443303312
30
0.0000000000
10
11.9570695105
20
3.9024324807
30
0.0000000000
10
11.8626818447
20
3.8580494700
30
0.0000000000
10
11.7694927207
20
3.8114549080
30
0.0000000000
11
12.0525779217
21
3.9443303312
31
0.0000000000
11
11.7694927207
21
3.8114549080
31
0.0000000000
0
SPLINE
5
295
100
AcDbEntity
8
0
100
AcDbSpline
62
7
6
CONTINUOUS
70
0
71
3
72
15
73
11
74
9
42
0.0000001000
43
0.0000001000
44
0.0000000001
12
-2.2762198164
22
4.9123145629
32
0.0000000000
13
-4.8358829050
23
-2.4179414525
33
0.0000000000
40
0.0000000000
40
0.0000000000
40
0.0000000000
40
0.0000000000
40
0.0363753373
40
0.1745028094
40
0.3049006657
40
0.4320287415
40
0.5610072856
40
0.6965763164
40
0.8422518939
40
1.0000000000
40
1.0000000000
40
1.0000000000
40
1.0000000000
10
17.4221056899
20
1.2398559902
30
0.0000000000
10
17.3945062687
20
1.2994183566
30
0.0000000000
10
17.2551723550
20
1.5819604076
30
0.0000000000
10
16.9513273095
20
2.0450064897
30
0.0000000000
10
16.4276728323
20
2.5395741580
30
0.0000000000
10
15.8096336969
20
2.8776678196
30
0.0000000000
10
15.1168687491
20
3.0479733446
30
0.0000000000
10
14.3711972117
20
3.0478875463
30
0.0000000000
10
13.5928266738
20
2.8813154716
30
0.0000000000
10
13.0844366825
20
2.6721451239
30
0.0000000000
10
12.8301528925
20
2.5450032289
30
0.0000000000
11
17.4221056899
21
1.2398559902
31
0.0000000000
11
17.3349156932
21
1.4164492290
31
0.0000000000
11
16.9203919227
21
2.0376553742
31
0.0000000000
11
16.4051528925
21
2.5188845071
31
0.0000000000
11
15.8018854976
21
2.8482871694
31
0.0000000000
11
15.1254441834
21
3.0177523742
31
0.0000000000
11
14.3924851799
21
3.0231073259
31
0.0000000000
11
13.6210563705
21
2.8642201678
31
0.0000000000
11
12.8301528925
21
2.5450032289
31
0.0000000000
0
SPLINE
5
296
100
AcDbEntity
8
0
100
AcDbSpline
62
7
6
CONTINUOUS
70
0
71
3
72
12
73
8
74
6
42
0.0000001000
43
0.0000001000
44
0.0000000001
12
0.0000000000
22
-7.3345274682
32
0.0000000000
13
6.1523757940
23
-4.0363275592
33
0.0000000000
40
0.0000000000
40
0.0000000000
40
0.0000000000
40
0.0000000000
40
0.2478172986
40
0.4757199953
40
0.6843328450
40
0.8771230779
40
1.0000000000
40
1.0000000000
40
1.0000000000
40
1.0000000000
10
-6.2617301995
20
-2.9399716269
30
0.0000000000
10
-6.2617301995
20
-3.5458458882
30
0.0000000000
10
-6.1824813102
20
-4.7114435295
30
0.0000000000
10
-5.7943385150
20
-6.3478368425
30
0.0000000000
10
-5.1480292244
20
-7.7572455023
30
0.0000000000
10
-4.3473505730
20
-8.7760083898
30
0.0000000000
10
-3.7399477387
20
-9.2621716498
30
0.0000000000
10
-3.4879527384
20
-9.4274954854
30
0.0000000000
11
-6.2617301995
21
-2.9399716269
31
0.0000000000
11
-6.1274484387
21
-4.7526274113
31
0.0000000000
11
-5.7286832395
21
-6.3759248060
31
0.0000000000
11
-5.0775508809
21
-7.7605407413
31
0.0000000000
11
-4.1938356899
21
-8.8644043625
31
0.0000000000
11
-3.4879527384
21
-9.4274954854
31
0.0000000000
0
SPLINE
5
297
100
AcDbEntity
8
0
100
AcDbSpline
62
7
6
CONTINUOUS
70
0
71
3
72
8
73
4
74
2
42
0.0000001000
43
0.0000001000
44
0.0000000001
12
0.1281096217
22
-0.0840475962
32
0.0000000000
13
0.1307399670
23
-0.0798582807
33
0.0000000000
40
0.0000000000
40
0.0000000000
40
0.0000000000
40
0.0000000000
40
1.0000000000
40
1.0000000000
40
1.0000000000
40
1.0000000000
10
-3.4879527384
20
-9.4274954854
30
0.0000000000
10
-3.4452495311
20
-9.4555113508
30
0.0000000000
10
-3.4020995828
20
-9.4828402921
30
0.0000000000
10
-3.3585195938
20
-9.5094597190
30
0.0000000000
11
-3.4879527384
21
-9.4274954854
31
0.0000000000
11
-3.3585195938
21
-9.5094597190
31
0.0000000000
0
SPLINE
5
298
100
AcDbEntity
8
0
100
AcDbSpline
62
7
6
CONTINUOUS
70
0
71
3
72
9
73
5
74
3
42
0.0000001000
43
0.0000001000
44
0.0000000001
12
0.3368265738
22
-0.2057396195
32
0.0000000000
13
0.3530569198
23
-0.1763916176
33
0.0000000000
40
0.0000000000
40
0.0000000000
40
0.0000000000
40
0.0000000000
40
0.7408756620
40
1.0000000000
40
1.0000000000
40
1.0000000000
40
1.0000000000
10
-3.3585195938
20
-9.5094597190
30
0.0000000000
10
-3.2753373902
20
-9.5602688779
30
0.0000000000
10
-3.1609471557
20
-9.6253597389
30
0.0000000000
10
-3.0439141596
20
-9.6854550970
30
0.0000000000
10
-3.0134189461
20
-9.7006908841
30
0.0000000000
11
-3.3585195938
21
-9.5094597190
31
0.0000000000
11
-3.1043889056
21
-9.6539753321
31
0.0000000000
11
-3.0134189461
21
-9.7006908841
31
0.0000000000
0
SPLINE
5
299
100
AcDbEntity
8
0
100
AcDbSpline
62
7
6
CONTINUOUS
70
0
71
3
72
9
73
5
74
3
42
0.0000001000
43
0.0000001000
44
0.0000000001
12
0.0354359190
22
0.3488513573
32
0.0000000000
13
0.0623004672
23
0.3450314296
33
0.0000000000
40
0.0000000000
40
0.0000000000
40
0.0000000000
40
0.0000000000
40
0.3868771637
40
1.0000000000
40
1.0000000000
40
1.0000000000
40
1.0000000000
10
14.1636206666
20
-2.1142706522
30
0.0000000000
10
14.1681904492
20
-2.0692831110
30
0.0000000000
10
14.1816454529
20
-1.9531664708
30
0.0000000000
10
14.1995211993
20
-1.8376168079
30
0.0000000000
10
14.2122538124
20
-1.7671012583
30
0.0000000000
11
14.1636206666
21
-2.1142706522
31
0.0000000000
11
14.1792629865
21
-1.9795222199
31
0.0000000000
11
14.2122538124
21
-1.7671012583
31
0.0000000000
0
SPLINE
5
29A
100
AcDbEntity
8
0
100
AcDbSpline
62
7
6
CONTINUOUS
70
0
71
3
72
15
73
11
74
9
42
0.0000001000
43
0.0000001000
44
0.0000000001
12
-2.6256770028
22
-2.1570468445
32
0.0000000000
13
-1.0459028477
23
3.2293113447
33
0.0000000000
40
0.0000000000
40
0.0000000000
40
0.0000000000
40
0.0000000000
40
0.1250036513
40
0.2709115833
40
0.4033388600
40
0.5242393433
40
0.6380621589
40
0.7511813470
40
0.8701826587
40
1.0000000000
40
1.0000000000
40
1.0000000000
40
1.0000000000
10
13.4132986047
20
-6.0779802673
30
0.0000000000
10
13.3038922005
20
-6.1678598445
30
0.0000000000
10
13.0555317249
20
-6.3489670285
30
0.0000000000
10
12.6485231117
20
-6.5610525590
30
0.0000000000
10
12.2103261589
20
-6.6855167097
30
0.0000000000
10
11.7898548099
20
-6.6970088199
30
0.0000000000
10
11.4042695282
20
-6.5904055897
30
0.0000000000
10
11.0739230974
20
-6.3682674249
30
0.0000000000
10
10.8150224300
20
-6.0440766693
30
0.0000000000
10
10.7005553511
20
-5.7835734449
30
0.0000000000
10
10.6552965754
20
-5.6438332407
30
0.0000000000
11
13.4132986047
21
-6.0779802673
31
0.0000000000
11
13.0693698193
21
-6.3267623362
31
0.0000000000
11
12.6281513465
21
-6.5517674775
31
0.0000000000
11
12.1943765907
21
-6.6696953331
31
0.0000000000
11
11.7840361269
21
-6.6761963611
31
0.0000000000
11
11.4122577066
21
-6.5710282274
31
0.0000000000
11
11.0927481207
21
-6.3580652423
31
0.0000000000
11
10.8372881492
21
-6.0451563029
31
0.0000000000
11
10.6552965754
21
-5.6438332407
31
0.0000000000
0
SPLINE
5
29B
100
AcDbEntity
8
0
100
AcDbSpline
62
7
6
CONTINUOUS
70
0
71
3
72
13
73
9
74
7
42
0.0000001000
43
0.0000001000
44
0.0000000001
12
0.5514943862
22
1.2702936759
32
0.0000000000
13
1.1279450127
23
0.8037484809
33
0.0000000000
40
0.0000000000
40
0.0000000000
40
0.0000000000
40
0.0000000000
40
0.2138854902
40
0.4177316224
40
0.6124831366
40
0.7971211592
40
0.9692331605
40
1.0000000000
40
1.0000000000
40
1.0000000000
40
1.0000000000
10
10.6552965754
20
-5.6438332407
30
0.0000000000
10
10.6946154578
20
-5.5532674455
30
0.0000000000
10
10.7868259978
20
-5.3827946734
30
0.0000000000
10
10.9553550426
20
-5.1549591547
30
0.0000000000
10
11.1389023519
20
-4.9573651447
30
0.0000000000
10
11.3283630239
20
-4.7869159650
30
0.0000000000
10
11.4697332986
20
-4.6771041285
30
0.0000000000
10
11.5457223233
20
-4.6223418810
30
0.0000000000
10
11.5572900911
20
-4.6140989475
30
0.0000000000
11
10.6552965754
21
-5.6438332407
31
0.0000000000
11
10.7950013434
21
-5.3826516607
31
0.0000000000
11
10.9619803334
21
-5.1550368494
31
0.0000000000
11
11.1449673848
21
-4.9569105032
31
0.0000000000
11
11.3346991717
21
-4.7854996479
31
0.0000000000
11
11.5227201145
21
-4.6390141551
31
0.0000000000
11
11.5572900911
21
-4.6140989475
31
0.0000000000
0
SPLINE
5
29C
100
AcDbEntity
8
0
100
AcDbSpline
62
7
6
CONTINUOUS
70
0
71
3
72
20
73
16
74
14
42
0.0000001000
43
0.0000001000
44
0.0000000001
12
1.5536130602
22
6.3505215794
32
0.0000000000
13
1.9027085711
23
-6.2548011931
33
0.0000000000
40
0.0000000000
40
0.0000000000
40
0.0000000000
40
0.0000000000
40
0.0934367784
40
0.1887283776
40
0.2836948266
40
0.3761813085
40
0.4642369346
40
0.5463077058
40
0.6214747215
40
0.6896841768
40
0.7520505456
40
0.8109885959
40
0.8698588891
40
0.9320422553
40
1.0000000000
40
1.0000000000
40
1.0000000000
40
1.0000000000
10
10.6552965754
20
-3.8251798927
30
0.0000000000
10
10.7036847752
20
-3.6273891334
30
0.0000000000
10
10.8272756884
20
-3.2338232763
30
0.0000000000
10
11.0815280198
20
-2.6688200901
30
0.0000000000
10
11.3988016563
20
-2.1389156376
30
0.0000000000
10
11.7677046512
20
-1.6632622073
30
0.0000000000
10
12.1751581881
20
-1.2588424265
30
0.0000000000
10
12.6070051124
20
-0.9400773385
30
0.0000000000
10
13.0487405513
20
-0.7185389334
30
0.0000000000
10
13.4860725045
20
-0.6032457734
30
0.0000000000
10
13.9044001155
20
-0.6015095860
30
0.0000000000
10
14.2861897741
20
-0.7180817713
30
0.0000000000
10
14.6110713369
20
-0.9494636463
30
0.0000000000
10
14.8635552431
20
-1.2815198378
30
0.0000000000
10
14.9736585920
20
-1.5460621299
30
0.0000000000
10
15.0167598531
20
-1.6877495241
30
0.0000000000
11
10.6552965754
21
-3.8251798927
31
0.0000000000
11
10.8372260025
21
-3.2420288792
31
0.0000000000
11
11.0926011723
21
-2.6737777147
31
0.0000000000
11
11.4120183085
21
-2.1413733750
31
0.0000000000
11
11.7837076257
21
-1.6644472040
31
0.0000000000
11
12.1939692198
21
-1.2605851559
31
0.0000000000
11
12.6276772023
21
-0.9446792596
31
0.0000000000
11
13.0689244891
21
-0.7283431878
31
0.0000000000
11
13.5014054547
21
-0.6196116792
31
0.0000000000
11
13.9091339891
21
-0.6225175007
31
0.0000000000
11
14.2770742775
21
-0.7369529589
31
0.0000000000
11
14.5916592477
21
-0.9586974920
31
0.0000000000
11
14.8412892636
21
-1.2795738271
31
0.0000000000
11
15.0167598531
21
-1.6877495241
31
0.0000000000
0
SPLINE
5
29D
100
AcDbEntity
8
0
100
AcDbSpline
62
7
6
CONTINUOUS
70
0
71
3
72
9
73
5
74
3
42
0.0000001000
43
0.0000001000
44
0.0000000001
12
-0.0731301849
22
1.1827277999
32
0.0000000000
13
-0.2419942805
23
1.1602222163
33
0.0000000000
40
0.0000000000
40
0.0000000000
40
0.0000000000
40
0.0000000000
40
0.4602730138
40
1.0000000000
40
1.0000000000
40
1.0000000000
40
1.0000000000
10
18.8225354952
20
0.6588948603
30
0.0000000000
10
18.8113155450
20
0.8403540899
30
0.0000000000
10
18.7751917170
20
1.2338529101
30
0.0000000000
10
18.7113315548
20
1.6241208880
30
0.0000000000
10
18.6677946069
20
1.8328553014
30
0.0000000000
11
18.8225354952
21
0.6588948603
31
0.0000000000
11
18.7721859217
21
1.2019034078
31
0.0000000000
11
18.6677946069
21
1.8328553014
31
0.0000000000
0
SPLINE
5
29E
100
AcDbEntity
8
0
100
AcDbSpline
62
7
6
CONTINUOUS
70
0
71
3
72
8
73
4
74
2
42
0.0000001000
43
0.0000001000
44
0.0000000001
12
-0.0162001767
22
0.0776704509
32
0.0000000000
13
-0.0170430552
23
0.0774892124
33
0.0000000000
40
0.0000000000
40
0.0000000000
40
0.0000000000
40
0.0000000000
40
1.0000000000
40
1.0000000000
40
1.0000000000
40
1.0000000000
10
18.6677946069
20
1.8328553014
30
0.0000000000
10
18.6623945480
20
1.8587454517
30
0.0000000000
10
18.6568549541
20
1.8846063140
30
0.0000000000
10
18.6511739357
20
1.9104360514
30
0.0000000000
11
18.6677946069
21
1.8328553014
31
0.0000000000
11
18.6511739357
21
1.9104360514
31
0.0000000000
0
SPLINE
5
29F
100
AcDbEntity
8
0
100
AcDbSpline
62
7
6
CONTINUOUS
70
0
71
3
72
17
73
13
74
11
42
0.0000001000
43
0.0000001000
44
0.0000000001
12
-1.8370707470
22
8.3525614419
32
0.0000000000
13
-7.6432967806
23
-3.8216483903
33
0.0000000000
40
0.0000000000
40
0.0000000000
40
0.0000000000
40
0.0000000000
40
0.0405337046
40
0.1564669823
40
0.2644782709
40
0.3662057847
40
0.4641519089
40
0.5614271688
40
0.6612580058
40
0.7664425790
40
0.8789874610
40
1.0000000000
40
1.0000000000
40
1.0000000000
40
1.0000000000
10
18.6511739357
20
1.9104360514
30
0.0000000000
10
18.6263528414
20
2.0232894707
30
0.0000000000
10
18.5201179395
20
2.4566293110
30
0.0000000000
10
18.2685808865
20
3.1702859990
30
0.0000000000
10
17.8094341949
20
3.9826756720
30
0.0000000000
10
17.2296346922
20
4.6488211715
30
0.0000000000
10
16.5399792093
20
5.1515973313
30
0.0000000000
10
15.7566291864
20
5.4770064851
30
0.0000000000
10
14.8998741226
20
5.6174906005
30
0.0000000000
10
13.9904003779
20
5.5724425637
30
0.0000000000
10
13.0476535644
20
5.3459994994
30
0.0000000000
10
12.4313576946
20
5.0878721100
30
0.0000000000
10
12.1230461113
20
4.9337163184
30
0.0000000000
11
18.6511739357
21
1.9104360514
31
0.0000000000
11
18.5684539987
21
2.2470606635
31
0.0000000000
11
18.2335121582
21
3.1794275724
31
0.0000000000
11
17.7741788501
21
3.9800238331
31
0.0000000000
11
17.1998047759
21
4.6325516144
31
0.0000000000
11
16.5220825355
21
5.1237273323
31
0.0000000000
11
15.7548085993
21
5.4435520658
31
0.0000000000
11
14.9136024520
21
5.5855151055
31
0.0000000000
11
14.0155886249
21
5.5467264933
31
0.0000000000
11
13.0790480898
21
5.3279758535
31
0.0000000000
11
12.1230461113
21
4.9337163184
31
0.0000000000
0
SPLINE
5
2A0
100
AcDbEntity
8
0
100
AcDbSpline
62
7
6
CONTINUOUS
70
0
71
3
72
13
73
9
74
7
42
0.0000001000
43
0.0000001000
44
0.0000000001
12
-6.6967853241
22
0.9653729271
32
0.0000000000
13
-6.5339956855
23
1.7556189539
33
0.0000000000
40
0.0000000000
40
0.0000000000
40
0.0000000000
40
0.0000000000
40
0.0923285369
40
0.2429857194
40
0.4087021195
40
0.5892410312
40
0.7849222088
40
1.0000000000
40
1.0000000000
40
1.0000000000
40
1.0000000000
10
4.6526637011
20
13.2758390798
30
0.0000000000
10
4.4465622374
20
13.3055495698
30
0.0000000000
10
3.9049812896
20
13.3894575616
30
0.0000000000
10
2.9978432098
20
13.5534963221
30
0.0000000000
10
1.9006224157
20
13.7820400877
30
0.0000000000
10
0.7097726311
20
14.0574335536
30
0.0000000000
10
-0.5841449425
20
14.3802197945
30
0.0000000000
10
-1.4799397144
20
14.6163225730
30
0.0000000000
10
-1.9483788343
20
14.7421874553
30
0.0000000000
11
4.6526637011
21
13.2758390798
31
0.0000000000
11
4.0353139327
21
13.3712816554
31
0.0000000000
11
3.0320917391
21
13.5516535272
31
0.0000000000
11
1.9341986334
21
13.7790486181
31
0.0000000000
11
0.7438372309
21
14.0530074655
31
0.0000000000
11
-0.5410065442
21
14.3723255413
31
0.0000000000
11
-1.9483788343
21
14.7421874553
31
0.0000000000
0
SPLINE
5
2A1
100
AcDbEntity
8
0
100
AcDbSpline
62
7
6
CONTINUOUS
70
0
71
3
72
13
73
9
74
7
42
0.0000001000
43
0.0000001000
44
0.0000000001
12
-5.5717399556
22
12.0932163734
32
0.0000000000
13
4.5879343011
23
12.4996410842
33
0.0000000000
40
0.0000000000
40
0.0000000000
40
0.0000000000
40
0.0000000000
40
0.1528875834
40
0.3107870435
40
0.4743801431
40
0.6439279199
40
0.8192958600
40
1.0000000000
40
1.0000000000
40
1.0000000000
40
1.0000000000
10
-33.0732653282
20
-9.9892754247
30
0.0000000000
10
-33.3572152806
20
-9.3729745490
30
0.0000000000
10
-33.8345063637
20
-8.0719022347
30
0.0000000000
10
-34.2591403160
20
-6.0026898343
30
0.0000000000
10
-34.3978102236
20
-3.8210612069
30
0.0000000000
10
-34.2490535179
20
-1.5631475353
30
0.0000000000
10
-33.8163416213
20
0.7344095122
30
0.0000000000
10
-33.3496182356
20
2.2481933345
30
0.0000000000
10
-33.0732653282
20
3.0011056320
30
0.0000000000
11
-33.0732653282
21
-9.9892754247
31
0.0000000000
11
-33.7786280416
21
-8.0796805601
31
0.0000000000
11
-34.2065252780
21
-6.0212479304
31
0.0000000000
11
-34.3499414800
21
-3.8477264146
31
0.0000000000
11
-34.2065252780
21
-1.5947518231
31
0.0000000000
11
-33.7786280416
21
0.7007373665
31
0.0000000000
11
-33.0732653282
21
3.0011056320
31
0.0000000000
0
SPLINE
5
2A2
100
AcDbEntity
8
0
100
AcDbSpline
62
7
6
CONTINUOUS
70
0
71
3
72
14
73
10
74
8
42
0.0000001000
43
0.0000001000
44
0.0000000001
12
-5.8916213993
22
-10.7610935822
32
0.0000000000
13
-9.3561622457
23
-7.9356515693
33
0.0000000000
40
0.0000000000
40
0.0000000000
40
0.0000000000
40
0.0000000000
40
0.1421588942
40
0.2803854790
40
0.4188406373
40
0.5591123772
40
0.7014127735
40
0.8470026522
40
1.0000000000
40
1.0000000000
40
1.0000000000
40
1.0000000000
10
-1.9483788343
20
14.7421874553
30
0.0000000000
10
-2.2275609619
20
14.2322590674
30
0.0000000000
10
-2.7998771231
20
13.2381040605
30
0.0000000000
10
-3.7299286033
20
11.7988006618
30
0.0000000000
10
-4.7369364451
20
10.4215411567
30
0.0000000000
10
-5.8366324312
20
9.0953351050
30
0.0000000000
10
-7.0326997020
20
7.8152866138
30
0.0000000000
10
-8.3321804052
20
6.5644408073
30
0.0000000000
10
-9.2493974243
20
5.7578113731
30
0.0000000000
10
-9.7265534273
20
5.3531001587
30
0.0000000000
11
-1.9483788343
21
14.7421874553
31
0.0000000000
11
-2.8208313853
21
13.2320374177
31
0.0000000000
11
-3.7428606603
21
11.8087878407
31
0.0000000000
11
-4.7460828539
21
10.4380795249
31
0.0000000000
11
-5.8439759597
21
9.1128868144
31
0.0000000000
11
-7.0343373621
21
7.8358493500
31
0.0000000000
11
-8.3191811373
21
6.5950842171
31
0.0000000000
11
-9.7265534273
21
5.3531001587
31
0.0000000000
0
SPLINE
5
2A3
100
AcDbEntity
8
0
100
AcDbSpline
62
7
6
CONTINUOUS
70
0
71
3
72
14
73
10
74
8
42
0.0000001000
43
0.0000001000
44
0.0000000001
12
1.8773494673
22
-10.9109123778
32
0.0000000000
13
-2.2526877945
23
-10.8396424128
33
0.0000000000
40
0.0000000000
40
0.0000000000
40
0.0000000000
40
0.0000000000
40
0.1595742921
40
0.3096764431
40
0.4542487534
40
0.5944826685
40
0.7306089745
40
0.8643271515
40
1.0000000000
40
1.0000000000
40
1.0000000000
40
1.0000000000
10
-9.7265534273
20
5.3531001587
30
0.0000000000
10
-9.6266945232
20
4.7727331190
30
0.0000000000
10
-9.4514254531
20
3.6430954005
30
0.0000000000
10
-9.2649361673
20
1.9765417003
30
0.0000000000
10
-9.1684778330
20
0.3736189299
30
0.0000000000
10
-9.1670362888
20
-1.1807873339
30
0.0000000000
10
-9.2611012634
20
-2.6922360188
30
0.0000000000
10
-9.4461023570
20
-4.1781373899
30
0.0000000000
10
-9.6246772374
20
-5.1566847870
30
0.0000000000
10
-9.7265534273
20
-5.6468998413
30
0.0000000000
11
-9.7265534273
21
5.3531001587
31
0.0000000000
11
-9.4588451316
21
3.6068150781
31
0.0000000000
11
-9.2770979849
21
1.9549659194
31
0.0000000000
11
-9.1835408597
21
0.3571071692
31
0.0000000000
11
-9.1835886028
21
-1.1954567606
31
0.0000000000
11
-9.2772299955
21
-2.6996323761
31
0.0000000000
11
-9.4589283545
21
-4.1688664054
31
0.0000000000
11
-9.7265534273
21
-5.6468998413
31
0.0000000000
0
SPLINE
5
2A4
100
AcDbEntity
8
0
100
AcDbSpline
62
7
6
CONTINUOUS
70
0
71
3
72
9
73
5
74
3
42
0.0000001000
43
0.0000001000
44
0.0000000001
12
1.1094711516
22
-0.1699679457
32
0.0000000000
13
1.0076334296
23
-0.5041125852
33
0.0000000000
40
0.0000000000
40
0.0000000000
40
0.0000000000
40
0.0000000000
40
0.9260040457
40
1.0000000000
40
1.0000000000
40
1.0000000000
40
1.0000000000
10
5.6883744025
20
10.1797902553
30
0.0000000000
10
6.0308326609
20
10.1273265868
30
0.0000000000
10
6.3954568595
20
10.0189219001
30
0.0000000000
10
6.7333811067
20
9.8549192682
30
0.0000000000
10
6.7582347058
20
9.8424851710
30
0.0000000000
11
5.6883744025
21
10.1797902553
31
0.0000000000
11
6.6832248594
21
9.8788859097
31
0.0000000000
11
6.7582347058
21
9.8424851710
31
0.0000000000
0
SPLINE
5
2A5
100
AcDbEntity
8
0
100
AcDbSpline
62
7
6
CONTINUOUS
70
0
71
3
72
13
73
9
74
7
42
0.0000001000
43
0.0000001000
44
0.0000000001
12
-4.5756994928
22
2.2880534715
32
0.0000000000
13
-4.5668882318
23
-2.2834441159
33
0.0000000000
40
0.0000000000
40
0.0000000000
40
0.0000000000
40
0.0000000000
40
0.0023230345
40
0.1831168597
40
0.3693869150
40
0.5657074220
40
0.7753186089
40
1.0000000000
40
1.0000000000
40
1.0000000000
40
1.0000000000
10
15.9110247140
20
7.1108593125
30
0.0000000000
10
15.9074815447
20
7.1126310549
30
0.0000000000
10
15.6279822070
20
7.2518843851
30
0.0000000000
10
15.0319730874
20
7.4679148471
30
0.0000000000
10
14.0741106782
20
7.5923753256
30
0.0000000000
10
13.0627481290
20
7.5209864213
30
0.0000000000
10
12.0173729374
20
7.2580286429
30
0.0000000000
10
11.3337068618
20
6.9694556492
30
0.0000000000
10
10.9916752614
20
6.7984398490
30
0.0000000000
11
15.9110247140
21
7.1108593125
31
0.0000000000
11
15.9003874760
21
7.1161590360
31
0.0000000000
11
15.0330899406
21
7.4323057550
31
0.0000000000
11
14.0905084963
21
7.5591881900
31
0.0000000000
11
13.0902016521
21
7.4944427612
31
0.0000000000
11
12.0508032319
21
7.2392755535
31
0.0000000000
11
10.9916752614
21
6.7984398490
31
0.0000000000
0
SPLINE
5
2A6
100
AcDbEntity
8
0
100
AcDbSpline
62
7
6
CONTINUOUS
70
0
71
3
72
8
73
4
74
2
42
0.0000001000
43
0.0000001000
44
0.0000000001
12
-0.3065799530
22
0.1531711483
32
0.0000000000
13
-0.3170341867
23
0.1303974472
33
0.0000000000
40
0.0000000000
40
0.0000000000
40
0.0000000000
40
0.0000000000
40
1.0000000000
40
1.0000000000
40
1.0000000000
40
1.0000000000
10
8.1676280767
20
12.6595823950
30
0.0000000000
10
8.0654347591
20
12.7106394444
30
0.0000000000
10
7.9613422616
20
12.7579188980
30
0.0000000000
10
7.8556641994
20
12.8013847137
30
0.0000000000
11
8.1676280767
21
12.6595823950
31
0.0000000000
11
7.8556641994
21
12.8013847137
31
0.0000000000
0
SPLINE
5
2A7
100
AcDbEntity
8
0
100
AcDbSpline
62
7
6
CONTINUOUS
70
0
71
3
72
8
73
4
74
2
42
0.0000001000
43
0.0000001000
44
0.0000000001
12
-0.0470772784
22
0.0193630756
32
0.0000000000
13
-0.0472839689
23
0.0188581750
33
0.0000000000
40
0.0000000000
40
0.0000000000
40
0.0000000000
40
0.0000000000
40
1.0000000000
40
1.0000000000
40
1.0000000000
40
1.0000000000
10
7.8556641994
20
12.8013847137
30
0.0000000000
10
7.8399717732
20
12.8078390723
30
0.0000000000
10
7.8242443853
20
12.8142093397
30
0.0000000000
10
7.8084830623
20
12.8204953980
30
0.0000000000
11
7.8556641994
21
12.8013847137
31
0.0000000000
11
7.8084830623
21
12.8204953980
31
0.0000000000
0
SPLINE
5
2A8
100
AcDbEntity
8
0
100
AcDbSpline
62
7
6
CONTINUOUS
70
0
71
3
72
20
73
16
74
14
42
0.0000001000
43
0.0000001000
44
0.0000000001
12
-22.1846393410
22
8.8478573540
32
0.0000000000
13
0.0000000000
23
-23.8040983655
33
0.0000000000
40
0.0000000000
40
0.0000000000
40
0.0000000000
40
0.0000000000
40
0.0355388744
40
0.0943473873
40
0.1577827853
40
0.2270581021
40
0.3024903350
40
0.3836657282
40
0.4696241713
40
0.5590212052
40
0.6502661713
40
0.7416446891
40
0.8314336472
40
0.9180156804
40
1.0000000000
40
1.0000000000
40
1.0000000000
40
1.0000000000
10
7.8084830623
20
12.8204953980
30
0.0000000000
10
7.5456773582
20
12.9253096953
30
0.0000000000
10
6.8229426278
20
13.1414130515
30
0.0000000000
10
5.5591752024
20
13.2204207026
30
0.0000000000
10
4.0517965285
20
12.9463165188
30
0.0000000000
10
2.5109964221
20
12.3261457928
30
0.0000000000
10
0.9787124068
20
11.3825313025
30
0.0000000000
10
-0.5026031754
20
10.1446071044
30
0.0000000000
10
-1.8906658827
20
8.6491287279
30
0.0000000000
10
-3.1450012259
20
6.9403315212
30
0.0000000000
10
-4.2285879286
20
5.0688875210
30
0.0000000000
10
-5.1092568256
20
3.0904724845
30
0.0000000000
10
-5.7608104508
20
1.0637132766
30
0.0000000000
10
-6.1638151194
20
-0.9507700816
30
0.0000000000
10
-6.2617301995
20
-2.2894506907
30
0.0000000000
10
-6.2617301995
20
-2.9399716269
30
0.0000000000
11
7.8084830623
21
12.8204953980
31
0.0000000000
11
6.9965219477
21
13.0641544467
31
0.0000000000
11
5.6001640984
21
13.1634465389
31
0.0000000000
11
4.1119521149
21
12.9077261797
31
0.0000000000
11
2.5771045653
21
12.3047633028
31
0.0000000000
11
1.0422570157
21
11.3728786301
31
0.0000000000
11
-0.4459549678
21
10.1403870058
31
0.0000000000
11
-1.8423128171
21
8.6447370643
31
0.0000000000
11
-3.1043889056
21
6.9313733721
31
0.0000000000
11
-4.1938356899
21
5.0523556182
31
0.0000000000
11
-5.0775508809
21
3.0647768060
31
0.0000000000
11
-5.7286832395
21
1.0290285121
31
0.0000000000
11
-6.1274484387
21
-0.9930340818
31
0.0000000000
11
-6.2617301995
21
-2.9399716269
31
0.0000000000
0
ENDSEC
0
SECTION
2
OBJECTS
0
DICTIONARY
5
2A9
100
AcDbDictionary
3
ACAD_GROUP
350
2AA
3
ACAD_MLINESTYLE
350
2AB
0
DICTIONARY
5
2AA
102
{ACAD_REACTORS
330
2A9
102
}
100
AcDbDictionary
0
DICTIONARY
5
2AB
102
{ACAD_REACTORS
330
2A9
102
}
100
AcDbDictionary
3
STANDARD
350
2AC
0
MLINESTYLE
5
2AC
102
{ACAD_REACTORS
330
2AB
102
}
100
AcDbMlineStyle
2
STANDARD
70
0
3

62
256
51
90.0
52
90.0
71
2
49
0.5
62
256
6
BYLAYER
49
-0.5
62
256
6
BYLAYER
0
ENDSEC
0
EOF
