0
SECTION
2
HEADER
9
$ACADVER
1
AC1014
9
$HANDSEED
5
       34D
9
$EXTMAX
10
297.0000000000
20
210.0000000000
9
$EXTMIN
10
0.0000000000
20
0.0000000000
9
$LIMMIN
10
0.0000000000
20
0.0000000000
9
$LIMMAX
10
297.0000000000
20
210.0000000000
9
$VIEWCTR
10
148.5000000000
20
105.0000000000
9
$VIEWSIZE
40
210.0000000000
9
$CLAYER
8
0
9
$LTSCALE
40
16.3350000000
9
$CELTYPE
6
BYLAYER
9
$DIMSCALE
40
1
9
$DIMASZ
40
3.0000000000
9
$DIMEXO
40
1.8562500000
9
$DIMDLI
40
11.2860000000
9
$DIMEXE
40
5.3460000000
9
$DIMCEN
40
2.6730000000
9
$DIMLFAC
40
1.0000000000
9
$DIMTXT
40
3.0000000000
9
$DIMTOL
70
1
9
$DIMLIM
70
0
9
$DIMTFAC
40
1.0000000000
9
$DIMTP
40
0.0100000000
9
$DIMTM
40
0.0100000000
9
$MEASUREMENT
70
1
0
ENDSEC
0
SECTION
2
CLASSES
0
ENDSEC
0
SECTION
2
TABLES
0
TABLE
2
VPORT
5
8
100
AcDbSymbolTable
70
2
0
VPORT
5
1F4
100
AcDbSymbolTableRecord
100
AcDbViewportTableRecord
2
*ACTIVE
70
0
10
0.0
20
0.0
11
1.0
21
1.0
12
148.5000000000
22
105.0000000000
13
0.0
23
0.0
14
1.0
24
1.0
15
0.0
25
0.0
16
0.0
26
0.0
36
1.0
17
0.0
27
0.0
37
0.0
40
210.0000000000
41
1.4142857143
42
50.0
43
0.0
44
0.0
50
0.0
51
0.0
71
0
72
100
73
1
74
1
75
0
76
0
77
0
78
0
0
ENDTAB
0
TABLE
2
LTYPE
5
5
100
AcDbSymbolTable
70
6
0
LTYPE
5
14
100
AcDbSymbolTableRecord
100
AcDbLinetypeTableRecord
2
BYBLOCK
70
0
3

72
65
73
0
40
0.0
0
LTYPE
5
15
100
AcDbSymbolTableRecord
100
AcDbLinetypeTableRecord
2
BYLAYER
70
0
3

72
65
73
0
40
0.0
0
LTYPE
5
16
100
AcDbSymbolTableRecord
100
AcDbLinetypeTableRecord
2
CONTINUOUS
70
64
3
Solid line
72
65
73
0
40
0
0
LTYPE
5
1F5
100
AcDbSymbolTableRecord
100
AcDbLinetypeTableRecord
2
CENTER
70
64
3
____ _ ____ _ ____ _ ____ _ ____ _ ____ _ ____
72
65
73
4
40
0.6
49
0.375
74
0
49
-0.075
74
0
49
0.075
74
0
49
-0.075
74
0
0
LTYPE
5
1F6
100
AcDbSymbolTableRecord
100
AcDbLinetypeTableRecord
2
HIDDEN
70
64
3
- - - - - - - - - - - - - - - - - - - -
72
65
73
2
40
0.2
49
0.1
74
0
49
-0.1
74
0
0
LTYPE
5
1F7
100
AcDbSymbolTableRecord
100
AcDbLinetypeTableRecord
2
PHANTOM
70
64
3
_____ _ _ _____ _ _ _____ _ _ _____
72
65
73
6
40
0.8
49
0.45
74
0
49
-0.05
74
0
49
0.1
74
0
49
-0.05
74
0
49
0.1
74
0
49
-0.05
74
0
0
LTYPE
5
1F8
100
AcDbSymbolTableRecord
100
AcDbLinetypeTableRecord
2
DOT
70
64
3
. . . . . . . . . . . . . . . . . . . .
72
65
73
2
40
0.2
49
0.1
74
0
49
-0.1
74
0
0
LTYPE
5
1F9
100
AcDbSymbolTableRecord
100
AcDbLinetypeTableRecord
2
DASHED
70
64
3
- - - - - - - - - - - - - - - - - - - -
72
65
73
2
40
0.2
49
0.1
74
0
49
-0.1
74
0
0
ENDTAB
0
TABLE
2
LAYER
5
2
100
AcDbSymbolTable
70
36
0
LAYER
5
10
100
AcDbSymbolTableRecord
100
AcDbLayerTableRecord
2
0
70
0
62
7
6
CONTINUOUS
0
LAYER
5
1FA
100
AcDbSymbolTableRecord
100
AcDbLayerTableRecord
2
DEFAULT_1
70
0
62
7
6
CENTER
0
LAYER
5
1FB
100
AcDbSymbolTableRecord
100
AcDbLayerTableRecord
2
DEFAULT_2
70
0
62
8
6
HIDDEN
0
LAYER
5
1FC
100
AcDbSymbolTableRecord
100
AcDbLayerTableRecord
2
DEFAULT_3
70
0
62
7
6
PHANTOM
0
LAYER
5
1FD
100
AcDbSymbolTableRecord
100
AcDbLayerTableRecord
2
ASSI
70
0
62
7
6
CONTINUOUS
0
LAYER
5
1FE
100
AcDbSymbolTableRecord
100
AcDbLayerTableRecord
2
COORDINATE
70
0
62
7
6
CONTINUOUS
0
LAYER
5
1FF
100
AcDbSymbolTableRecord
100
AcDbLayerTableRecord
2
COORD_ORIGINE
70
0
62
7
6
CONTINUOUS
0
LAYER
5
200
100
AcDbSymbolTableRecord
100
AcDbLayerTableRecord
2
CURVE
70
0
62
7
6
CONTINUOUS
0
LAYER
5
201
100
AcDbSymbolTableRecord
100
AcDbLayerTableRecord
2
DRAFT
70
0
62
7
6
CONTINUOUS
0
LAYER
5
202
100
AcDbSymbolTableRecord
100
AcDbLayerTableRecord
2
PIANI
70
0
62
7
6
CONTINUOUS
0
LAYER
5
203
100
AcDbSymbolTableRecord
100
AcDbLayerTableRecord
2
PIANI_ORIGINE
70
0
62
7
6
CONTINUOUS
0
LAYER
5
204
100
AcDbSymbolTableRecord
100
AcDbLayerTableRecord
2
RACCORDO
70
0
62
7
6
CONTINUOUS
0
LAYER
5
205
100
AcDbSymbolTableRecord
100
AcDbLayerTableRecord
2
SMUSSO
70
0
62
7
6
CONTINUOUS
0
LAYER
5
206
100
AcDbSymbolTableRecord
100
AcDbLayerTableRecord
2
SUPERFICI
70
0
62
7
6
CONTINUOUS
0
LAYER
5
207
100
AcDbSymbolTableRecord
100
AcDbLayerTableRecord
2
TRASH
70
0
62
7
6
CONTINUOUS
0
ENDTAB
0
TABLE
2
STYLE
5
3
100
AcDbSymbolTable
70
1
0
STYLE
5
11
100
AcDbSymbolTableRecord
100
AcDbTextStyleTableRecord
2
STANDARD
70
0
40
0.0
41
0.8000000000
50
0.0
71
0
42
0.2
3
txt
4

0
ENDTAB
0
TABLE
2
VIEW
5
6
100
AcDbSymbolTable
70
0
0
ENDTAB
0
TABLE
2
UCS
5
7
100
AcDbSymbolTable
70
0
0
ENDTAB
0
TABLE
2
APPID
5
9
100
AcDbSymbolTable
70
1
0
APPID
5
208
100
AcDbSymbolTableRecord
100
AcDbRegAppTableRecord
2
ACAD
70
0
0
ENDTAB
0
TABLE
2
DIMSTYLE
5
A
100
AcDbSymbolTable
70
1
0
DIMSTYLE
105
209
100
AcDbSymbolTableRecord
100
AcDbDimStyleTableRecord
2
STANDARD
70
0
3

4

5

6

7

40
1.0
41
3.0000000000
42
0.0625
43
0.38
44
0.18
45
0.0
46
0.0
47
0.0100000000
48
0.0100000000
140
3.0000000000
141
0.09
142
0.0
143
25.4
144
1.0000000000
145
0.0
146
1.0000000000
147
0.09
71
1
72
0
73
0
74
0
75
0
76
0
77
1
78
8
170
0
171
2
172
0
173
0
174
0
175
0
176
0
177
0
178
0
270
2
271
2
272
2
273
2
274
2
340
11
275
0
280
0
281
0
282
0
283
1
284
8
285
0
286
0
287
3
288
0
0
ENDTAB
0
TABLE
2
BLOCK_RECORD
5
1
100
AcDbSymbolTable
70
0
0
BLOCK_RECORD
5
1B
100
AcDbSymbolTableRecord
100
AcDbBlockTableRecord
2
*MODEL_SPACE
0
BLOCK_RECORD
5
1C
100
AcDbSymbolTableRecord
100
AcDbBlockTableRecord
2
*PAPER_SPACE
0
ENDTAB
0
ENDSEC
0
SECTION
2
BLOCKS
0
BLOCK
5
1E
100
AcDbEntity
8
0
100
AcDbBlockBegin
2
*MODEL_SPACE
70
0
10
0.0
20
0.0
30
0.0
3
*MODEL_SPACE
1

0
ENDBLK
5
1F
100
AcDbEntity
8
0
100
AcDbBlockEnd
0
BLOCK
5
20
100
AcDbEntity
8
0
100
AcDbBlockBegin
2
*PAPER_SPACE
70
0
10
0.0
20
0.0
30
0.0
3
*PAPER_SPACE
1

0
ENDBLK
5
21
100
AcDbEntity
8
0
100
AcDbBlockEnd
0
ENDSEC
0
SECTION
2
ENTITIES
0
LINE
5
20A
100
AcDbEntity
8
0
100
AcDbLine
62
7
6
CONTINUOUS
10
-12.5070179208
20
-75.3980133321
11
-13.5923236085
21
-74.8553604883
0
LINE
5
20B
100
AcDbEntity
8
0
100
AcDbLine
62
9
6
CONTINUOUS
10
-13.0884814433
20
-74.2854271557
11
-14.1121099798
21
-73.7736128874
0
LINE
5
20C
100
AcDbEntity
8
0
100
AcDbLine
62
7
6
CONTINUOUS
10
-1.2311006854
20
-72.1706462430
11
0.5366662676
21
-73.0545297195
0
LINE
5
20D
100
AcDbEntity
8
0
100
AcDbLine
62
7
6
CONTINUOUS
10
-23.0120977818
20
58.6041251245
11
-23.2017559006
21
58.4618815354
0
LINE
5
20E
100
AcDbEntity
8
0
100
AcDbLine
62
7
6
CONTINUOUS
10
-12.6978964175
20
63.7655076917
11
9.9295205805
21
75.0792161907
0
LINE
5
20F
100
AcDbEntity
8
0
100
AcDbLine
62
7
6
CONTINUOUS
10
16.4614261874
20
73.2203701694
11
12.6426093936
21
71.6998890690
0
LINE
5
210
100
AcDbEntity
8
0
100
AcDbLine
62
7
6
CONTINUOUS
10
19.2898533121
20
71.8061566070
11
12.8021040626
21
69.2230266350
0
LINE
5
211
100
AcDbEntity
8
0
100
AcDbLine
62
9
6
CONTINUOUS
10
-4.1419043651
20
-66.1128596785
11
-3.4347975839
21
-66.4664130691
0
LINE
5
212
100
AcDbEntity
8
0
100
AcDbLine
62
7
6
CONTINUOUS
10
-14.1121099798
20
-51.2849191750
11
-21.9462895824
21
-47.3678293737
0
LINE
5
213
100
AcDbEntity
8
0
100
AcDbLine
62
7
6
CONTINUOUS
10
19.2691576951
20
-65.5372448222
11
11.5500385743
21
-61.6776852618
0
LINE
5
214
100
AcDbEntity
8
0
100
AcDbLine
62
7
6
CONTINUOUS
10
-4.2980136690
20
-53.6150853641
11
-4.1419043651
21
-53.6931400161
0
LINE
5
215
100
AcDbEntity
8
0
100
AcDbLine
62
9
6
CONTINUOUS
10
-4.7158606624
20
-50.9405986220
11
-4.1419043651
21
-51.2275767707
0
LINE
5
216
100
AcDbEntity
8
0
100
AcDbLine
62
9
6
CONTINUOUS
10
-25.1429757663
20
-40.7150816287
11
-14.1121099798
21
-46.2305145219
0
LINE
5
217
100
AcDbEntity
8
0
100
AcDbLine
62
9
6
CONTINUOUS
10
-21.9461557526
20
-47.3678962859
11
-21.9476298938
21
-47.3671589458
0
LINE
5
218
100
AcDbEntity
8
0
100
AcDbLine
62
7
6
CONTINUOUS
10
-21.5415945413
20
43.1026920673
11
-22.2149023334
21
42.4188097663
0
LINE
5
219
100
AcDbEntity
8
0
100
AcDbLine
62
7
6
CONTINUOUS
10
19.2898533121
20
54.9186612332
11
12.9680250144
21
52.4015935221
0
LINE
5
21A
100
AcDbEntity
8
0
100
AcDbLine
62
7
6
CONTINUOUS
10
7.2071594729
20
-50.9874030237
11
5.6452144157
21
-50.5437412229
0
LINE
5
21B
100
AcDbEntity
8
0
100
AcDbLine
62
7
6
CONTINUOUS
10
1.2141394651
20
-53.0311646682
11
1.8154425005
21
-53.3318161859
0
LINE
5
21C
100
AcDbEntity
8
0
100
AcDbLine
62
7
6
CONTINUOUS
10
-4.1419043651
20
-45.0945511776
11
-4.4954577557
21
-44.9177744823
0
LINE
5
21D
100
AcDbEntity
8
0
100
AcDbLine
62
7
6
CONTINUOUS
10
5.6452144157
20
-49.2447031172
11
4.5066798784
21
-48.6754358486
0
LINE
5
21E
100
AcDbEntity
8
0
100
AcDbLine
62
7
6
CONTINUOUS
10
-4.5000561404
20
-42.8215055790
11
-4.7244709948
21
-42.7092981518
0
LINE
5
21F
100
AcDbEntity
8
0
100
AcDbLine
62
9
6
CONTINUOUS
10
-14.1121099798
20
-36.9640427014
11
-25.1429757663
21
-31.4486098082
0
LINE
5
220
100
AcDbEntity
8
0
100
AcDbLine
62
7
6
CONTINUOUS
10
-19.0972127872
20
-33.5910983464
11
-15.8412072010
21
-35.2191011395
0
LINE
5
221
100
AcDbEntity
8
0
100
AcDbLine
62
7
6
CONTINUOUS
10
4.5607948150
20
-44.8053789998
11
7.2071594729
21
-46.1285613288
0
LINE
5
222
100
AcDbEntity
8
0
100
AcDbLine
62
9
6
CONTINUOUS
10
-14.1121099798
20
-35.3909105165
11
-15.1484679674
21
-34.8727315227
0
LINE
5
223
100
AcDbEntity
8
0
100
AcDbLine
62
9
6
CONTINUOUS
10
-19.7122885467
20
-32.5908212330
11
-24.4358689852
21
-30.2290310138
0
LINE
5
224
100
AcDbEntity
8
0
100
AcDbLine
62
7
6
CONTINUOUS
10
4.6753895032
20
-43.4484627815
11
7.2147704663
21
-44.7181532631
0
LINE
5
225
100
AcDbEntity
8
0
100
AcDbLine
62
9
6
CONTINUOUS
10
-19.0972127872
20
27.8967053223
11
-17.6829992248
21
28.6038121034
0
LINE
5
226
100
AcDbEntity
8
0
100
AcDbLine
62
7
6
CONTINUOUS
10
11.5500385743
20
-41.5858958940
11
19.2691576951
21
-45.4454554544
0
LINE
5
227
100
AcDbEntity
8
0
100
AcDbLine
62
7
6
CONTINUOUS
10
7.9753392090
20
-39.5294513100
11
8.5683677926
21
-39.8259656018
0
LINE
5
228
100
AcDbEntity
8
0
100
AcDbLine
62
7
6
CONTINUOUS
10
-25.9020567994
20
52.3541729567
11
-25.9020567994
21
53.0612797379
0
LINE
5
229
100
AcDbEntity
8
0
100
AcDbLine
62
7
6
CONTINUOUS
10
-25.4358689852
20
-40.3615282381
11
-25.4358689852
21
-31.0950564176
0
LINE
5
22A
100
AcDbEntity
8
0
100
AcDbLine
62
7
6
CONTINUOUS
10
12.9680250144
20
56.1818379390
11
20.2886349249
21
64.9843384573
0
LINE
5
22B
100
AcDbEntity
8
0
100
AcDbLine
62
7
6
CONTINUOUS
10
-15.8412072010
20
26.2687025292
11
-14.4269936387
21
26.9758093104
0
LINE
5
22C
100
AcDbEntity
8
0
100
AcDbLine
62
7
6
CONTINUOUS
10
-15.8412072010
20
21.0725501065
11
-14.4269936387
21
21.7796568877
0
LINE
5
22D
100
AcDbEntity
8
0
100
AcDbLine
62
7
6
CONTINUOUS
10
15.2977045146
20
-39.7120629239
11
23.0168236354
21
-43.5716224842
0
LINE
5
22E
100
AcDbEntity
8
0
100
AcDbLine
62
7
6
CONTINUOUS
10
-16.5483139822
20
-27.0713191149
11
-15.1341004199
21
-29.5104767036
0
LINE
5
22F
100
AcDbEntity
8
0
100
AcDbLine
62
7
6
CONTINUOUS
10
-15.1341004199
20
-26.3642123337
11
-14.1121099798
21
-28.1268851037
0
LINE
5
230
100
AcDbEntity
8
0
100
AcDbLine
62
9
6
CONTINUOUS
10
-25.1429757663
20
-40.7150816287
11
-25.1429757663
21
-31.4486098082
0
LINE
5
231
100
AcDbEntity
8
0
100
AcDbLine
62
7
6
CONTINUOUS
10
-21.7842185557
20
46.6083604352
11
-21.7842185557
21
44.6815755484
0
LINE
5
232
100
AcDbEntity
8
0
100
AcDbLine
62
7
6
CONTINUOUS
10
-15.1341004199
20
19.8529713121
11
-16.5483139822
21
18.8280272857
0
LINE
5
233
100
AcDbEntity
8
0
100
AcDbLine
62
7
6
CONTINUOUS
10
-14.1121099798
20
20.2758163969
11
-15.1341004199
21
19.5351340669
0
LINE
5
234
100
AcDbEntity
8
0
100
AcDbLine
62
7
6
CONTINUOUS
10
-15.1341004199
20
19.8529713121
11
-14.1121099798
21
20.3639665321
0
LINE
5
235
100
AcDbEntity
8
0
100
AcDbLine
62
7
6
CONTINUOUS
10
-16.5483139822
20
18.8280272857
11
-15.1341004199
21
19.5351340669
0
LINE
5
236
100
AcDbEntity
8
0
100
AcDbLine
62
7
6
CONTINUOUS
10
-4.1787390642
20
-53.9483896868
11
-4.1791987646
21
-53.9472700699
0
LINE
5
237
100
AcDbEntity
8
0
100
AcDbLine
62
7
6
CONTINUOUS
10
-19.7122885467
20
-32.8486362262
11
-19.7122885467
21
28.6391674425
0
LINE
5
238
100
AcDbEntity
8
0
100
AcDbLine
62
9
6
CONTINUOUS
10
-19.0972127872
20
27.8967053223
11
-19.0972127872
21
-33.5910983464
0
LINE
5
239
100
AcDbEntity
8
0
100
AcDbLine
62
7
6
CONTINUOUS
10
-16.5483139822
20
18.8280272857
11
-16.5483139822
21
-27.0713191149
0
LINE
5
23A
100
AcDbEntity
8
0
100
AcDbLine
62
7
6
CONTINUOUS
10
-15.8412072010
20
26.2687025292
11
-15.8412072010
21
21.0725501065
0
LINE
5
23B
100
AcDbEntity
8
0
100
AcDbLine
62
7
6
CONTINUOUS
10
-15.8412072010
20
-35.2191011395
11
-15.8412072010
21
-30.0229487168
0
LINE
5
23C
100
AcDbEntity
8
0
100
AcDbLine
62
7
6
CONTINUOUS
10
-15.1341004199
20
19.5351340669
11
-15.1341004199
21
-26.3642123337
0
LINE
5
23D
100
AcDbEntity
8
0
100
AcDbLine
62
7
6
CONTINUOUS
10
-4.1357485401
20
41.8348307393
11
-4.1357037755
21
41.8349884173
0
LINE
5
23E
100
AcDbEntity
8
0
100
AcDbLine
62
7
6
CONTINUOUS
10
-14.4269936387
20
26.9758093104
11
-14.4269936387
21
21.7796568877
0
LINE
5
23F
100
AcDbEntity
8
0
100
AcDbLine
62
7
6
CONTINUOUS
10
-14.4269936387
20
-34.5119943583
11
-14.4269936387
21
-29.3158419356
0
LINE
5
240
100
AcDbEntity
8
0
100
AcDbLine
62
7
6
CONTINUOUS
10
-14.1121099798
20
61.3263501029
11
-14.1121099798
21
-73.7736128874
0
LINE
5
241
100
AcDbEntity
8
0
100
AcDbLine
62
9
6
CONTINUOUS
10
-12.6342656865
20
-65.3463257242
11
-12.6342650970
21
51.4212126351
0
LINE
5
242
100
AcDbEntity
8
0
100
AcDbLine
62
9
6
CONTINUOUS
10
-12.2757619741
20
-65.4195493528
11
-12.2757615749
21
51.3479987550
0
LINE
5
243
100
AcDbEntity
8
0
100
AcDbLine
62
7
6
CONTINUOUS
10
12.4043943147
20
45.2030262536
11
12.1561252439
21
44.8220616451
0
LINE
5
244
100
AcDbEntity
8
0
100
AcDbLine
62
7
6
CONTINUOUS
10
-4.7244709948
20
37.5667244348
11
-4.7244711754
21
37.5670342384
0
LINE
5
245
100
AcDbEntity
8
0
100
AcDbLine
62
7
6
CONTINUOUS
10
-4.4954577557
20
35.9263017814
11
-4.4954577557
21
-44.9177744823
0
LINE
5
246
100
AcDbEntity
8
0
100
AcDbLine
62
7
6
CONTINUOUS
10
-4.1419043651
20
-45.0945511776
11
-4.1419043651
21
-66.1128596785
0
LINE
5
247
100
AcDbEntity
8
0
100
AcDbLine
62
7
6
CONTINUOUS
10
-4.7244842606
20
-50.5090858444
11
-4.7244842354
21
-50.5089693989
0
LINE
5
248
100
AcDbEntity
8
0
100
AcDbLine
62
7
6
CONTINUOUS
10
-3.4347975839
20
37.2834303043
11
-3.4347975839
21
-66.4664130691
0
LINE
5
249
100
AcDbEntity
8
0
100
AcDbLine
62
7
6
CONTINUOUS
10
-0.2881724076
20
42.2227773114
11
-0.2881724076
21
-72.5137244484
0
LINE
5
24A
100
AcDbEntity
8
0
100
AcDbLine
62
7
6
CONTINUOUS
10
-15.8412072010
20
21.0725501065
11
-15.1341004199
21
19.8529713121
0
LINE
5
24B
100
AcDbEntity
8
0
100
AcDbLine
62
7
6
CONTINUOUS
10
-14.4269936387
20
21.7796568877
11
-14.1121099798
21
21.2365629120
0
LINE
5
24C
100
AcDbEntity
8
0
100
AcDbLine
62
7
6
CONTINUOUS
10
4.6969303997
20
-41.1635477772
11
4.6969303997
21
-43.1997463607
0
LINE
5
24D
100
AcDbEntity
8
0
100
AcDbLine
62
7
6
CONTINUOUS
10
4.6969303997
20
-51.1601169551
11
4.6969303997
21
-51.2935523259
0
LINE
5
24E
100
AcDbEntity
8
0
100
AcDbLine
62
7
6
CONTINUOUS
10
5.6452144157
20
-50.5437412229
11
5.6452144157
21
-49.2447031172
0
LINE
5
24F
100
AcDbEntity
8
0
100
AcDbLine
62
7
6
CONTINUOUS
10
6.0404332840
20
-44.1309846719
11
6.0404332840
21
-40.4893036595
0
LINE
5
250
100
AcDbEntity
8
0
100
AcDbLine
62
7
6
CONTINUOUS
10
6.3939866746
20
-44.3077613672
11
6.3939866746
21
-40.3150196398
0
LINE
5
251
100
AcDbEntity
8
0
100
AcDbLine
62
7
6
CONTINUOUS
10
-17.4355118514
20
58.9231542770
11
-16.9495541362
21
57.6762299743
0
LINE
5
252
100
AcDbEntity
8
0
100
AcDbLine
62
7
6
CONTINUOUS
10
7.2071594729
20
-54.1873268046
11
7.2071594729
21
-44.7333752498
0
LINE
5
253
100
AcDbEntity
8
0
100
AcDbLine
62
7
6
CONTINUOUS
10
11.3790894819
20
48.0564082562
11
11.3790894819
21
-41.2436289487
0
LINE
5
254
100
AcDbEntity
8
0
100
AcDbLine
62
7
6
CONTINUOUS
10
11.3790894819
20
-61.4860605299
11
11.3790894819
21
-66.6800935036
0
LINE
5
255
100
AcDbEntity
8
0
100
AcDbLine
62
7
6
CONTINUOUS
10
20.2886349249
20
64.9843384573
11
21.2323075942
21
70.3581735982
0
LINE
5
256
100
AcDbEntity
8
0
100
AcDbLine
62
7
6
CONTINUOUS
10
12.4043943147
20
-40.7309765323
11
12.4043943147
21
45.2030262536
0
LINE
5
257
100
AcDbEntity
8
0
100
AcDbLine
62
7
6
CONTINUOUS
10
12.9680250144
20
63.9723639174
11
12.9680250144
21
-40.4491611825
0
LINE
5
258
100
AcDbEntity
8
0
100
AcDbLine
62
9
6
CONTINUOUS
10
12.9680249298
20
63.9722184833
11
12.9680005080
21
63.9698887462
0
LINE
5
259
100
AcDbEntity
8
0
100
AcDbLine
62
7
6
CONTINUOUS
10
-15.1341004199
20
-29.5104767036
11
-15.8412072010
21
-30.0229487168
0
LINE
5
25A
100
AcDbEntity
8
0
100
AcDbLine
62
7
6
CONTINUOUS
10
-14.1121099798
20
-29.0876316188
11
-14.4269936387
21
-29.3158419356
0
LINE
5
25B
100
AcDbEntity
8
0
100
AcDbLine
62
7
6
CONTINUOUS
10
-19.7122885467
20
-27.6152322096
11
-24.8830825807
21
-30.2006292266
0
LINE
5
25C
100
AcDbEntity
8
0
100
AcDbLine
62
9
6
CONTINUOUS
10
-19.7122885467
20
-27.8672407946
11
-24.4358689852
21
-30.2290310138
0
LINE
5
25D
100
AcDbEntity
8
0
100
AcDbLine
62
7
6
CONTINUOUS
10
-16.5483139822
20
-27.0713191149
11
-15.1341004199
21
-26.3642123337
0
LINE
5
25E
100
AcDbEntity
8
0
100
AcDbLine
62
7
6
CONTINUOUS
10
-19.0972127872
20
27.8967053223
11
-15.8412072010
21
26.2687025292
0
LINE
5
25F
100
AcDbEntity
8
0
100
AcDbLine
62
9
6
CONTINUOUS
10
12.5121531691
20
73.4063733513
11
12.5122644616
21
73.4048614006
0
LINE
5
260
100
AcDbEntity
8
0
100
AcDbLine
62
7
6
CONTINUOUS
10
17.9551825470
20
-56.6963171824
11
17.9551825470
21
-52.9724079461
0
LINE
5
261
100
AcDbEntity
8
0
100
AcDbLine
62
7
6
CONTINUOUS
10
21.4907164529
20
-54.7401748991
11
21.4907164529
21
-58.4640841353
0
LINE
5
262
100
AcDbEntity
8
0
100
AcDbLine
62
7
6
CONTINUOUS
10
-15.1341004199
20
-29.5104767036
11
-14.1121099798
21
-28.9994814836
0
LINE
5
263
100
AcDbEntity
8
0
100
AcDbLine
62
7
6
CONTINUOUS
10
-15.8412072010
20
-30.0229487168
11
-14.4269936387
21
-29.3158419356
0
LINE
5
264
100
AcDbEntity
8
0
100
AcDbLine
62
7
6
CONTINUOUS
10
-17.6829992248
20
28.6038121034
11
-14.4269936387
21
26.9758093104
0
LINE
5
265
100
AcDbEntity
8
0
100
AcDbLine
62
7
6
CONTINUOUS
10
23.6120367965
20
-52.9358139116
11
23.6120367965
21
-62.3897654664
0
LINE
5
266
100
AcDbEntity
8
0
100
AcDbLine
62
7
6
CONTINUOUS
10
27.3597027368
20
-51.0619809414
11
27.3597027368
21
-60.5159324962
0
LINE
5
267
100
AcDbEntity
8
0
100
AcDbLine
62
7
6
CONTINUOUS
10
-15.8412072010
20
-35.2191011395
11
-14.4269936387
21
-34.5119943583
0
LINE
5
268
100
AcDbEntity
8
0
100
AcDbLine
62
9
6
CONTINUOUS
10
-19.4802143445
20
29.1189729276
11
-17.7012373942
21
28.6620153227
0
LINE
5
269
100
AcDbEntity
8
0
100
AcDbLine
62
7
6
CONTINUOUS
10
-14.1121099798
20
36.6780609910
11
-18.5968983923
21
38.9204551973
0
LINE
5
26A
100
AcDbEntity
8
0
100
AcDbLine
62
7
6
CONTINUOUS
10
-19.2849152537
20
39.3483161771
11
-21.1089417849
21
40.2603294427
0
LINE
5
26B
100
AcDbEntity
8
0
100
AcDbLine
62
7
6
CONTINUOUS
10
-4.7244709948
20
-36.9919467806
11
-4.5000561404
21
-36.8797393534
0
LINE
5
26C
100
AcDbEntity
8
0
100
AcDbLine
62
7
6
CONTINUOUS
10
-22.2149023334
20
42.4188097663
11
-21.1669325243
21
41.8948248618
0
LINE
5
26D
100
AcDbEntity
8
0
100
AcDbLine
62
7
6
CONTINUOUS
10
-14.1121099798
20
40.8455212605
11
-21.7842185557
21
44.6815755484
0
LINE
5
26E
100
AcDbEntity
8
0
100
AcDbLine
62
7
6
CONTINUOUS
10
-4.1419043651
20
37.6369836949
11
-3.4347975839
21
37.2834303043
0
LINE
5
26F
100
AcDbEntity
8
0
100
AcDbLine
62
7
6
CONTINUOUS
10
-14.1121099798
20
42.7723061473
11
-21.7842185557
21
46.6083604352
0
LINE
5
270
100
AcDbEntity
8
0
100
AcDbLine
62
7
6
CONTINUOUS
10
20.2886349249
20
64.9843384573
11
21.2323075942
21
58.6668306471
0
LINE
5
271
100
AcDbEntity
8
0
100
AcDbLine
62
7
6
CONTINUOUS
10
-3.4347975839
20
37.2834303043
11
-2.6728683669
21
37.4075648397
0
LINE
5
272
100
AcDbEntity
8
0
100
AcDbLine
62
7
6
CONTINUOUS
10
-25.0078870647
20
51.9070880893
11
-25.9020567994
21
52.3541729567
0
LINE
5
273
100
AcDbEntity
8
0
100
AcDbLine
62
7
6
CONTINUOUS
10
6.3821185637
20
-40.3184610196
11
4.7087985106
21
-41.1551210461
0
LINE
5
274
100
AcDbEntity
8
0
100
AcDbLine
62
7
6
CONTINUOUS
10
9.6763198404
20
-42.0950137695
11
13.4239857807
21
-40.2211807993
0
LINE
5
275
100
AcDbEntity
8
0
100
AcDbLine
62
7
6
CONTINUOUS
10
11.5500385743
20
-41.5858958940
11
15.2977045146
21
-39.7120629239
0
LINE
5
276
100
AcDbEntity
8
0
100
AcDbLine
62
7
6
CONTINUOUS
10
-22.7294409155
20
57.1392334860
11
-23.8608153471
21
57.7049207018
0
LINE
5
277
100
AcDbEntity
8
0
100
AcDbLine
62
7
6
CONTINUOUS
10
4.6800488732
20
-50.9484396985
11
5.6452144157
21
-50.4658569273
0
LINE
5
278
100
AcDbEntity
8
0
100
AcDbLine
62
7
6
CONTINUOUS
10
4.6969303997
20
-51.2935523259
11
5.9968132318
21
-50.6436109098
0
LINE
5
279
100
AcDbEntity
8
0
100
AcDbLine
62
7
6
CONTINUOUS
10
-16.3041410015
20
58.3574688521
11
-17.4355118514
21
58.9231542770
0
LINE
5
27A
100
AcDbEntity
8
0
100
AcDbLine
62
7
6
CONTINUOUS
10
12.1461177061
20
45.3321645579
11
12.4043943147
21
45.2030262536
0
LINE
5
27B
100
AcDbEntity
8
0
100
AcDbLine
62
9
6
CONTINUOUS
10
-14.1121099798
20
61.3263501029
11
-13.0884816514
21
60.8145359387
0
LINE
5
27C
100
AcDbEntity
8
0
100
AcDbLine
62
7
6
CONTINUOUS
10
19.2691576951
20
-45.4454554544
11
23.0168236354
21
-43.5716224842
0
LINE
5
27D
100
AcDbEntity
8
0
100
AcDbLine
62
9
6
CONTINUOUS
10
-12.6978964175
20
63.7655076917
11
-11.4668496020
21
63.1499842840
0
LINE
5
27E
100
AcDbEntity
8
0
100
AcDbLine
62
9
6
CONTINUOUS
10
20.0754129001
20
-51.9122927696
11
17.9551825470
21
-52.9724079461
0
LINE
5
27F
100
AcDbEntity
8
0
100
AcDbLine
62
7
6
CONTINUOUS
10
23.6120367965
20
-52.9358139116
11
27.3597027368
21
-51.0619809414
0
LINE
5
280
100
AcDbEntity
8
0
100
AcDbLine
62
9
6
CONTINUOUS
10
21.4907164529
20
-54.9285502294
11
17.9551825470
21
-56.6963171824
0
LINE
5
281
100
AcDbEntity
8
0
100
AcDbLine
62
7
6
CONTINUOUS
10
-10.0949754315
20
-74.9588446308
11
-10.0946569147
21
-74.9586860202
0
LINE
5
282
100
AcDbEntity
8
0
100
AcDbLine
62
7
6
CONTINUOUS
10
23.6120367965
20
-62.3897654664
11
27.3597027368
21
-60.5159324962
0
LINE
5
283
100
AcDbEntity
8
0
100
AcDbLine
62
7
6
CONTINUOUS
10
21.1428764290
20
-65.0281269467
11
24.8905423693
21
-63.1542939766
0
LINE
5
284
100
AcDbEntity
8
0
100
AcDbLine
62
7
6
CONTINUOUS
10
-11.3084449550
20
-75.4552613186
11
-11.3082320752
21
-75.4551903799
0
LINE
5
285
100
AcDbEntity
8
0
100
AcDbLine
62
7
6
CONTINUOUS
10
12.9245252295
20
66.4750346050
11
20.2886349249
21
64.9843384573
0
LINE
5
286
100
AcDbEntity
8
0
100
AcDbLine
62
9
6
CONTINUOUS
10
11.1605674316
20
74.4636927651
11
9.9295205805
21
75.0792161907
0
LINE
5
287
100
AcDbEntity
8
0
100
AcDbLine
62
7
6
CONTINUOUS
10
11.9105369474
20
74.5927209948
11
10.8239477715
21
75.1360197651
0
LINE
5
288
100
AcDbEntity
8
0
100
AcDbLine
62
9
6
CONTINUOUS
10
16.4614261874
20
73.2203701694
11
19.2898533121
21
71.8061566070
0
LINE
5
289
100
AcDbEntity
8
0
100
AcDbLine
62
7
6
CONTINUOUS
10
17.8585946201
20
73.2778117079
11
20.6868108082
21
71.8637036139
0
SPLINE
5
28A
100
AcDbEntity
8
0
100
AcDbSpline
62
7
6
CONTINUOUS
70
0
71
3
72
13
73
9
74
7
42
0.0000001000
43
0.0000001000
44
0.0000000001
12
2.0646008806
22
1.5495880231
32
0.0000000000
13
2.5166035132
23
0.5695562609
33
0.0000000000
40
0.0000000000
40
0.0000000000
40
0.0000000000
40
0.0000000000
40
0.0297373792
40
0.2043068793
40
0.3903776466
40
0.5918732738
40
0.8130807676
40
1.0000000000
40
1.0000000000
40
1.0000000000
40
1.0000000000
10
-23.0160671199
20
58.6011404270
30
0.0000000000
10
-22.9956018468
20
58.6165006559
30
0.0000000000
10
-22.8539223264
20
58.7205931850
30
0.0000000000
10
-22.5697047784
20
58.9005341751
30
0.0000000000
10
-22.1358569451
20
59.1154800396
30
0.0000000000
10
-21.6472421966
20
59.3050650725
30
0.0000000000
10
-21.1452984071
20
59.4577382114
30
0.0000000000
10
-20.8044353562
20
59.5418279804
30
0.0000000000
10
-20.6476348238
20
59.5773149868
30
0.0000000000
11
-23.0160671199
21
58.6011404270
31
0.0000000000
11
-22.9542084934
21
58.6465923713
31
0.0000000000
11
-22.5743834148
21
58.8885937440
31
0.0000000000
11
-22.1450069124
21
59.1032436173
31
0.0000000000
11
-21.6610705808
21
59.2930690605
31
0.0000000000
11
-21.1156492659
21
59.4610018835
31
0.0000000000
11
-20.6476348238
21
59.5773149868
31
0.0000000000
0
SPLINE
5
28B
100
AcDbEntity
8
0
100
AcDbSpline
62
7
6
CONTINUOUS
70
0
71
3
72
13
73
9
74
7
42
0.0000001000
43
0.0000001000
44
0.0000000001
12
-1.0555390481
22
1.5104779298
32
0.0000000000
13
0.0000000000
23
1.8425089192
33
0.0000000000
40
0.0000000000
40
0.0000000000
40
0.0000000000
40
0.0000000000
40
0.0835879656
40
0.3055074486
40
0.5025219476
40
0.6794475953
40
0.8425938276
40
1.0000000000
40
1.0000000000
40
1.0000000000
40
1.0000000000
10
-25.2278543752
20
50.6686781383
30
0.0000000000
10
-25.2572644957
20
50.7107640641
30
0.0000000000
10
-25.3631580799
20
50.8657018066
30
0.0000000000
10
-25.5265002158
20
51.1278990081
30
0.0000000000
10
-25.6935814270
20
51.4540835450
30
0.0000000000
10
-25.8125534819
20
51.7625589907
30
0.0000000000
10
-25.8851346186
20
52.0603161119
30
0.0000000000
10
-25.9020567994
20
52.2574988645
30
0.0000000000
10
-25.9020567994
20
52.3541729567
30
0.0000000000
11
-25.2278543752
21
50.6686781383
31
0.0000000000
11
-25.3147169274
21
50.7958813593
31
0.0000000000
11
-25.5293476117
21
51.1439094881
31
0.0000000000
11
-25.6931016935
21
51.4678760080
31
0.0000000000
11
-25.8086455994
21
51.7726992104
31
0.0000000000
11
-25.8782410120
21
52.0651301758
31
0.0000000000
11
-25.9020567994
21
52.3541729567
31
0.0000000000
0
SPLINE
5
28C
100
AcDbEntity
8
0
100
AcDbSpline
62
7
6
CONTINUOUS
70
0
71
3
72
16
73
12
74
10
42
0.0000001000
43
0.0000001000
44
0.0000000001
12
0.0000000000
22
6.2312945633
32
0.0000000000
13
4.9885359369
23
3.7405390409
33
0.0000000000
40
0.0000000000
40
0.0000000000
40
0.0000000000
40
0.0000000000
40
0.1073238836
40
0.2202291296
40
0.3372820572
40
0.4568079199
40
0.5769971808
40
0.6960051676
40
0.8120500645
40
0.9235138992
40
1.0000000000
40
1.0000000000
40
1.0000000000
40
1.0000000000
10
-25.9020567994
20
53.0612797379
30
0.0000000000
10
-25.9020567994
20
53.2842019820
30
0.0000000000
10
-25.8719766718
20
53.7419796667
30
0.0000000000
10
-25.7469846195
20
54.4325962905
30
0.0000000000
10
-25.5439130105
20
55.1308348204
30
0.0000000000
10
-25.2676937066
20
55.8197109540
30
0.0000000000
10
-24.9250147065
20
56.4826203240
30
0.0000000000
10
-24.5241656792
20
57.1035107332
30
0.0000000000
10
-24.0748180173
20
57.6673746995
30
0.0000000000
10
-23.6302378130
20
58.1175826325
30
0.0000000000
10
-23.3287698416
20
58.3666550928
30
0.0000000000
10
-23.2015852874
20
58.4620215081
30
0.0000000000
11
-25.9020567994
21
53.0612797379
31
0.0000000000
11
-25.8605003182
21
53.7287540829
31
0.0000000000
11
-25.7368541331
21
54.4213494756
31
0.0000000000
11
-25.5341628235
21
55.1220119187
31
0.0000000000
11
-25.2574173222
21
55.8134887775
31
0.0000000000
11
-24.9134320219
21
56.4787535969
31
0.0000000000
11
-24.5106769823
21
57.1014253491
31
0.0000000000
11
-24.0590693690
21
57.6661717891
31
0.0000000000
11
-23.5697292605
21
58.1590869853
31
0.0000000000
11
-23.2015852874
21
58.4620215081
31
0.0000000000
0
SPLINE
5
28D
100
AcDbEntity
8
0
100
AcDbSpline
62
7
6
CONTINUOUS
70
0
71
3
72
8
73
4
74
2
42
0.0000001000
43
0.0000001000
44
0.0000000001
12
0.0000000000
22
0.7063015527
32
0.0000000000
13
0.0426108560
23
0.7051829907
33
0.0000000000
40
0.0000000000
40
0.0000000000
40
0.0000000000
40
0.0000000000
40
1.0000000000
40
1.0000000000
40
1.0000000000
40
1.0000000000
10
-25.9020567994
20
52.3541729567
30
0.0000000000
10
-25.9020567994
20
52.5896068076
30
0.0000000000
10
-25.8958166152
20
52.8251334160
30
0.0000000000
10
-25.8816129966
20
53.0601944129
30
0.0000000000
11
-25.9020567994
21
52.3541729567
31
0.0000000000
11
-25.8816129966
21
53.0601944129
31
0.0000000000
0
SPLINE
5
28E
100
AcDbEntity
8
0
100
AcDbSpline
62
7
6
CONTINUOUS
70
0
71
3
72
16
73
12
74
10
42
0.0000001000
43
0.0000001000
44
0.0000000001
12
0.3126726909
22
5.1745372844
32
0.0000000000
13
3.5553338353
23
3.7710009965
33
0.0000000000
40
0.0000000000
40
0.0000000000
40
0.0000000000
40
0.0000000000
40
0.0103548922
40
0.1427771818
40
0.2663957308
40
0.3849415896
40
0.5011480670
40
0.6174458430
40
0.7366162993
40
0.8623617557
40
1.0000000000
40
1.0000000000
40
1.0000000000
40
1.0000000000
10
-25.8816129966
20
53.0601944129
30
0.0000000000
10
-25.8805337659
20
53.0780550048
30
0.0000000000
10
-25.8650189898
20
53.3242865565
30
0.0000000000
10
-25.8194941944
20
53.7826684957
30
0.0000000000
10
-25.7040023771
20
54.4201989874
30
0.0000000000
10
-25.5395541980
20
55.0179941012
30
0.0000000000
10
-25.3232757028
20
55.5856082594
30
0.0000000000
10
-25.0522992772
20
56.1304285161
30
0.0000000000
10
-24.7224668788
20
56.6611907309
30
0.0000000000
10
-24.3253311856
20
57.1903767329
30
0.0000000000
10
-24.0239319827
20
57.5319093830
30
0.0000000000
10
-23.8608153471
20
57.7049207018
30
0.0000000000
11
-25.8816129966
21
53.0601944129
31
0.0000000000
11
-25.8782366207
21
53.1137678793
31
0.0000000000
11
-25.8085776845
21
53.7965345974
31
0.0000000000
11
-25.6929374940
21
54.4266953775
31
0.0000000000
11
-25.5290693713
21
55.0188321563
31
0.0000000000
11
-25.3143619312
21
55.5815293472
31
0.0000000000
11
-25.0463224040
21
56.1213926717
31
0.0000000000
11
-24.7212228294
21
56.6465376143
31
0.0000000000
11
-24.3313005662
21
57.1687274176
31
0.0000000000
11
-23.8608153471
21
57.7049207018
31
0.0000000000
0
SPLINE
5
28F
100
AcDbEntity
8
0
100
AcDbSpline
62
7
6
CONTINUOUS
70
0
71
3
72
10
73
6
74
4
42
0.0000001000
43
0.0000001000
44
0.0000000001
12
0.5577955357
22
0.8366933035
32
0.0000000000
13
0.7651841675
23
0.6533247705
33
0.0000000000
40
0.0000000000
40
0.0000000000
40
0.0000000000
40
0.0000000000
40
0.4471818869
40
0.8758934740
40
1.0000000000
40
1.0000000000
40
1.0000000000
40
1.0000000000
10
-23.8608153471
20
57.7049207018
30
0.0000000000
10
-23.7776699937
20
57.8296387319
30
0.0000000000
10
-23.6007228871
20
58.0649673456
30
0.0000000000
10
-23.3673029879
20
58.3066576495
30
0.0000000000
10
-23.2283873317
20
58.4294846601
30
0.0000000000
10
-23.1967325488
20
58.4565119493
30
0.0000000000
11
-23.8608153471
21
57.7049207018
31
0.0000000000
11
-23.5898225212
21
58.0637695832
31
0.0000000000
11
-23.2902620987
21
58.3737923445
31
0.0000000000
11
-23.1967325488
21
58.4565119493
31
0.0000000000
0
SPLINE
5
290
100
AcDbEntity
8
0
100
AcDbSpline
62
7
6
CONTINUOUS
70
0
71
3
72
8
73
4
74
2
42
0.0000001000
43
0.0000001000
44
0.0000000001
12
0.0141727520
22
0.0121008907
32
0.0000000000
13
0.0142350712
23
0.0120277369
33
0.0000000000
40
0.0000000000
40
0.0000000000
40
0.0000000000
40
0.0000000000
40
1.0000000000
40
1.0000000000
40
1.0000000000
40
1.0000000000
10
-23.1967325488
20
58.4565119493
30
0.0000000000
10
-23.1920082981
20
58.4605455795
30
0.0000000000
10
-23.1872736122
20
58.4645670235
30
0.0000000000
10
-23.1825285885
20
58.4685762691
30
0.0000000000
11
-23.1967325488
21
58.4565119493
31
0.0000000000
11
-23.1825285885
21
58.4685762691
31
0.0000000000
0
SPLINE
5
291
100
AcDbEntity
8
0
100
AcDbSpline
62
7
6
CONTINUOUS
70
0
71
3
72
8
73
4
74
2
42
0.0000001000
43
0.0000001000
44
0.0000000001
12
0.1625618963
22
0.1373545440
32
0.0000000000
13
0.1702160634
23
0.1277558174
33
0.0000000000
40
0.0000000000
40
0.0000000000
40
0.0000000000
40
0.0000000000
40
1.0000000000
40
1.0000000000
40
1.0000000000
40
1.0000000000
10
-23.1825285885
20
58.4685762691
30
0.0000000000
10
-23.1283412897
20
58.5143611171
30
0.0000000000
10
-23.0728058077
20
58.5585551546
30
0.0000000000
10
-23.0160671199
20
58.6011404270
30
0.0000000000
11
-23.1825285885
21
58.4685762691
31
0.0000000000
11
-23.0160671199
21
58.6011404270
31
0.0000000000
0
SPLINE
5
292
100
AcDbEntity
8
0
100
AcDbSpline
62
7
6
CONTINUOUS
70
0
71
3
72
18
73
14
74
12
42
0.0000001000
43
0.0000001000
44
0.0000000001
12
0.0000000000
22
18.0234746183
32
0.0000000000
13
16.0341148995
23
8.2611427160
33
0.0000000000
40
0.0000000000
40
0.0000000000
40
0.0000000000
40
0.0000000000
40
0.0868813057
40
0.1779673374
40
0.2723232083
40
0.3688547207
40
0.4663684493
40
0.5636277562
40
0.6594071065
40
0.7525468170
40
0.8420104288
40
0.9269472441
40
1.0000000000
40
1.0000000000
40
1.0000000000
40
1.0000000000
10
-24.3121252984
20
46.9265990327
30
0.0000000000
10
-24.3121252984
20
47.4485667023
30
0.0000000000
10
-24.2483181866
20
48.5184522402
30
0.0000000000
10
-23.9811308383
20
50.1351125444
30
0.0000000000
10
-23.5454246715
20
51.7747499583
30
0.0000000000
10
-22.9499807350
20
53.4043004695
30
0.0000000000
10
-22.2067568072
20
54.9912044878
30
0.0000000000
10
-21.3306692072
20
56.5036011200
30
0.0000000000
10
-20.3392792046
20
57.9111555703
30
0.0000000000
10
-19.2524023608
20
59.1856597755
30
0.0000000000
10
-18.0916446595
20
60.3016173912
30
0.0000000000
10
-16.9121090774
20
61.2118404023
30
0.0000000000
10
-16.0962560180
20
61.7015259551
30
0.0000000000
10
-15.7058105906
20
61.9026923693
30
0.0000000000
11
-24.3121252984
21
46.9265990327
31
0.0000000000
11
-24.2234182374
21
48.4899874328
31
0.0000000000
11
-23.9591028742
21
50.1102568146
31
0.0000000000
11
-23.5245599074
21
51.7544231659
31
0.0000000000
11
-22.9286353787
21
53.3890160012
31
0.0000000000
11
-22.1834605931
21
54.9807597241
31
0.0000000000
11
-21.3042051601
21
56.4972510227
31
0.0000000000
11
-20.3087681850
21
57.9076185073
31
0.0000000000
11
-19.2174138939
21
59.1831511631
31
0.0000000000
11
-18.0523591129
21
60.2978828236
31
0.0000000000
11
-16.8373209976
21
61.2291207667
31
0.0000000000
11
-15.7058105906
21
61.9026923693
31
0.0000000000
0
SPLINE
5
293
100
AcDbEntity
8
0
100
AcDbSpline
62
7
6
CONTINUOUS
70
0
71
3
72
10
73
6
74
4
42
0.0000001000
43
0.0000001000
44
0.0000000001
12
1.8460129456
22
0.9511080902
32
0.0000000000
13
2.0216126481
23
0.4792273474
33
0.0000000000
40
0.0000000000
40
0.0000000000
40
0.0000000000
40
0.0000000000
40
0.0587412318
40
0.7052898013
40
1.0000000000
40
1.0000000000
40
1.0000000000
40
1.0000000000
10
-15.7058105906
20
61.9026923693
30
0.0000000000
10
-15.6696648991
20
61.9213154562
30
0.0000000000
10
-15.2343149019
20
62.1423185580
30
0.0000000000
10
-14.5939568543
20
62.4104962178
30
0.0000000000
10
-13.9659786231
20
62.5878005754
30
0.0000000000
10
-13.7673820013
20
62.6348783043
30
0.0000000000
11
-15.7058105906
21
61.9026923693
31
0.0000000000
11
-15.5970342203
21
61.9579076734
31
0.0000000000
11
-14.3567474430
21
62.4694075440
31
0.0000000000
11
-13.7673820013
21
62.6348783043
31
0.0000000000
0
SPLINE
5
294
100
AcDbEntity
8
0
100
AcDbSpline
62
7
6
CONTINUOUS
70
0
71
3
72
14
73
10
74
8
42
0.0000001000
43
0.0000001000
44
0.0000000001
12
-6.9708868390
22
3.4831626940
32
0.0000000000
13
0.0000000000
23
7.7755237155
33
0.0000000000
40
0.0000000000
40
0.0000000000
40
0.0000000000
40
0.0000000000
40
0.0283207465
40
0.1679758005
40
0.3130224938
40
0.4670288159
40
0.6323305908
40
0.8100003294
40
1.0000000000
40
1.0000000000
40
1.0000000000
40
1.0000000000
10
-21.1092336650
20
40.2605340277
30
0.0000000000
10
-21.1750405713
20
40.2934159503
30
0.0000000000
10
-21.5606756770
20
40.4977564932
30
0.0000000000
10
-22.2221611540
20
40.9799949130
30
0.0000000000
10
-22.9743744857
20
41.8442333647
30
0.0000000000
10
-23.5700570480
20
42.8981930036
30
0.0000000000
10
-24.0001304182
20
44.1184284322
30
0.0000000000
10
-24.2584891722
20
45.4799037611
30
0.0000000000
10
-24.3121252984
20
46.4341500512
30
0.0000000000
10
-24.3121252984
20
46.9265990327
30
0.0000000000
11
-21.1092336650
21
40.2605340277
31
0.0000000000
11
-21.3042051601
21
40.3638671811
31
0.0000000000
11
-22.1834605931
21
41.0011030467
31
0.0000000000
11
-22.9286353787
21
41.8476719840
31
0.0000000000
11
-23.5245599074
21
42.8863402906
31
0.0000000000
11
-23.9591028742
21
44.0959636751
31
0.0000000000
11
-24.2234182374
21
45.4519176937
31
0.0000000000
11
-24.3121252984
21
46.9265990327
31
0.0000000000
0
SPLINE
5
295
100
AcDbEntity
8
0
100
AcDbSpline
62
7
6
CONTINUOUS
70
0
71
3
72
10
73
6
74
4
42
0.0000001000
43
0.0000001000
44
0.0000000001
12
-1.4890770984
22
3.5866474898
32
0.0000000000
13
0.0000000000
23
3.8834766410
33
0.0000000000
40
0.0000000000
40
0.0000000000
40
0.0000000000
40
0.0000000000
40
0.3118419696
40
0.6452326131
40
1.0000000000
40
1.0000000000
40
1.0000000000
40
1.0000000000
10
-22.2149023334
20
42.4188097663
30
0.0000000000
10
-22.3696879118
20
42.7916321721
30
0.0000000000
10
-22.6270069018
20
43.5901528147
30
0.0000000000
10
-22.8510991948
20
44.8683357039
30
0.0000000000
10
-22.8979117361
20
45.7602486316
30
0.0000000000
10
-22.8979117361
20
46.2194922515
30
0.0000000000
11
-22.2149023334
21
42.4188097663
31
0.0000000000
11
-22.5920823806
21
43.5696057110
31
0.0000000000
11
-22.8211014264
21
44.8439041960
31
0.0000000000
11
-22.8979117361
21
46.2194922515
31
0.0000000000
0
SPLINE
5
296
100
AcDbEntity
8
0
100
AcDbSpline
62
7
6
CONTINUOUS
70
0
71
3
72
16
73
12
74
10
42
0.0000001000
43
0.0000001000
44
0.0000000001
12
0.0000000000
22
13.9061916749
32
0.0000000000
13
9.7597860434
23
9.9144750450
33
0.0000000000
40
0.0000000000
40
0.0000000000
40
0.0000000000
40
0.0000000000
40
0.1108848869
40
0.2270731493
40
0.3474123363
40
0.4705522963
40
0.5950189369
40
0.7192814776
40
0.8418177916
40
0.9611800684
40
1.0000000000
40
1.0000000000
40
1.0000000000
40
1.0000000000
10
-22.8979117361
20
46.2194922515
30
0.0000000000
10
-22.8979117361
20
46.7334877486
30
0.0000000000
10
-22.8360494989
20
47.7867247619
30
0.0000000000
10
-22.5767120817
20
49.3785501283
30
0.0000000000
10
-22.1535858714
20
50.9936376577
30
0.0000000000
10
-21.5749519265
20
52.6003710999
30
0.0000000000
10
-20.8520940189
20
54.1675838969
30
0.0000000000
10
-19.9990985314
20
55.6647303307
30
0.0000000000
10
-19.0325696635
20
57.0626571754
30
0.0000000000
10
-18.1975322597
20
58.0630872159
30
0.0000000000
10
-17.6916814667
20
58.5944832020
30
0.0000000000
10
-17.5653900578
20
58.7227762830
30
0.0000000000
11
-22.8979117361
21
46.2194922515
31
0.0000000000
11
-22.8118256626
21
47.7590738593
31
0.0000000000
11
-22.5552711954
21
49.3543115932
31
0.0000000000
11
-22.1333176778
21
50.9737012714
31
0.0000000000
11
-21.5543032775
21
52.5852480731
31
0.0000000000
11
-20.8296682357
21
54.1571163497
31
0.0000000000
11
-19.9737291828
21
55.6582549164
31
0.0000000000
11
-19.0033962557
21
57.0590103967
31
0.0000000000
11
-17.9378389979
21
58.3317129341
31
0.0000000000
11
-17.5653900578
21
58.7227762830
31
0.0000000000
0
SPLINE
5
297
100
AcDbEntity
8
0
100
AcDbSpline
62
7
6
CONTINUOUS
70
0
71
3
72
8
73
4
74
2
42
0.0000001000
43
0.0000001000
44
0.0000000001
12
0.1478733354
22
0.1502170731
32
0.0000000000
13
0.1498416194
23
0.1482505477
33
0.0000000000
40
0.0000000000
40
0.0000000000
40
0.0000000000
40
0.0000000000
40
1.0000000000
40
1.0000000000
40
1.0000000000
40
1.0000000000
10
-17.5653900578
20
58.7227762830
30
0.0000000000
10
-17.5160989460
20
58.7728486408
30
0.0000000000
10
-17.4664804477
20
58.8225983190
30
0.0000000000
10
-17.4165332412
20
58.8720151682
30
0.0000000000
11
-17.5653900578
21
58.7227762830
31
0.0000000000
11
-17.4165332412
21
58.8720151682
31
0.0000000000
0
SPLINE
5
298
100
AcDbEntity
8
0
100
AcDbSpline
62
7
6
CONTINUOUS
70
0
71
3
72
10
73
6
74
4
42
0.0000001000
43
0.0000001000
44
0.0000000001
12
1.5770261046
22
3.3162657216
32
0.0000000000
13
3.2953499039
23
1.6485650948
33
0.0000000000
40
0.0000000000
40
0.0000000000
40
0.0000000000
40
0.0000000000
40
0.4053046586
40
0.7847549127
40
1.0000000000
40
1.0000000000
40
1.0000000000
40
1.0000000000
10
7.2071594729
20
-44.7333752498
30
0.0000000000
10
7.4202181486
20
-44.2853426011
30
0.0000000000
10
7.9247906023
20
-43.4560247535
30
0.0000000000
10
8.8138390632
20
-42.5935025092
30
0.0000000000
10
9.4402453179
20
-42.2134100446
30
0.0000000000
10
9.6766812771
20
-42.0951281987
30
0.0000000000
11
7.2071594729
21
-44.7333752498
31
0.0000000000
11
7.9929258674
21
-43.4693671582
31
0.0000000000
11
8.9995981347
21
-42.5059557325
31
0.0000000000
11
9.6766812771
21
-42.0951281987
31
0.0000000000
0
SPLINE
5
299
100
AcDbEntity
8
0
100
AcDbSpline
62
7
6
CONTINUOUS
70
0
71
3
72
11
73
7
74
5
42
0.0000001000
43
0.0000001000
44
0.0000000001
12
-5.9361703764
22
6.3890353149
32
0.0000000000
13
-2.6751714830
23
8.3006836182
33
0.0000000000
40
0.0000000000
40
0.0000000000
40
0.0000000000
40
0.0000000000
40
0.2436665153
40
0.4946058710
40
0.7482864955
40
1.0000000000
40
1.0000000000
40
1.0000000000
40
1.0000000000
10
11.5500385743
20
-61.6776852618
30
0.0000000000
10
11.0678899245
20
-61.1587539381
30
0.0000000000
10
10.1525730088
20
-60.0450485509
30
0.0000000000
10
8.9620349216
20
-58.2197130944
30
0.0000000000
10
7.9599281580
20
-56.2582869498
30
0.0000000000
10
7.4316184027
20
-54.8837915258
30
0.0000000000
10
7.2071594729
20
-54.1873268046
30
0.0000000000
11
11.5500385743
21
-61.6776852618
31
0.0000000000
11
10.1971925020
21
-60.0388988639
31
0.0000000000
11
8.9995981347
21
-58.2071849837
31
0.0000000000
11
7.9929258674
21
-56.2371012908
31
0.0000000000
11
7.2071594729
21
-54.1873268046
31
0.0000000000
0
SPLINE
5
29A
100
AcDbEntity
8
0
100
AcDbSpline
62
7
6
CONTINUOUS
70
0
71
3
72
11
73
7
74
5
42
0.0000001000
43
0.0000001000
44
0.0000000001
12
0.0000000000
22
-1.5742785444
32
0.0000000000
13
-1.4140091247
23
-0.7079433079
33
0.0000000000
40
0.0000000000
40
0.0000000000
40
0.0000000000
40
0.0000000000
40
0.2933046606
40
0.5559382847
40
0.7914860394
40
1.0000000000
40
1.0000000000
40
1.0000000000
40
1.0000000000
10
21.4907164529
20
-58.4640841353
30
0.0000000000
10
21.4907164529
20
-58.6179985467
30
0.0000000000
10
21.4655742270
20
-58.9108885831
30
0.0000000000
10
21.3387747049
20
-59.3107294553
30
0.0000000000
10
21.1296890437
20
-59.6244806846
30
0.0000000000
10
20.9391480440
20
-59.7671134245
30
0.0000000000
10
20.8408678297
20
-59.8163187789
30
0.0000000000
11
21.4907164529
21
-58.4640841353
31
0.0000000000
11
21.4463948446
21
-58.9236952854
31
0.0000000000
11
21.3156524903
21
-59.3159380049
31
0.0000000000
11
21.1050453574
21
-59.6211436061
31
0.0000000000
11
20.8408678297
21
-59.8163187789
31
0.0000000000
0
SPLINE
5
29B
100
AcDbEntity
8
0
100
AcDbSpline
62
7
6
CONTINUOUS
70
0
71
3
72
18
73
14
74
12
42
0.0000001000
43
0.0000001000
44
0.0000000001
12
4.3435340209
22
2.1746506362
32
0.0000000000
13
-0.0000000000
23
-4.8358474471
33
0.0000000000
40
0.0000000000
40
0.0000000000
40
0.0000000000
40
0.0000000000
40
0.0036052998
40
0.0753906811
40
0.1528522899
40
0.2393617604
40
0.3358504186
40
0.4412881867
40
0.5533023068
40
0.6687013739
40
0.7839142332
40
0.8953899842
40
1.0000000000
40
1.0000000000
40
1.0000000000
40
1.0000000000
10
18.6050311702
20
-51.6201733026
30
0.0000000000
10
18.6102510843
20
-51.6175598801
30
0.0000000000
10
18.7199247517
20
-51.5639586136
30
0.0000000000
10
18.9637545846
20
-51.5004873129
30
0.0000000000
10
19.3483291786
20
-51.5343008296
30
0.0000000000
10
19.7448324774
20
-51.6842928084
30
0.0000000000
10
20.1367302279
20
-51.9398396018
30
0.0000000000
10
20.5070625509
20
-52.2879953347
30
0.0000000000
10
20.8388274948
20
-52.7120524593
30
0.0000000000
10
21.1162521728
20
-53.1915919082
30
0.0000000000
10
21.3259586513
20
-53.7035036928
30
0.0000000000
10
21.4577794860
20
-54.2228126725
30
0.0000000000
10
21.4907164529
20
-54.5715488730
30
0.0000000000
10
21.4907164529
20
-54.7401748991
30
0.0000000000
11
18.6050311702
21
-51.6201733026
31
0.0000000000
11
18.6207648327
21
-51.6124842757
31
0.0000000000
11
18.9559441645
21
-51.5221339358
31
0.0000000000
11
19.3295843466
21
-51.5488279989
31
0.0000000000
11
19.7229494999
21
-51.6912279131
31
0.0000000000
11
20.1163146533
21
-51.9421931523
31
0.0000000000
11
20.4899548354
21
-52.2891392712
31
0.0000000000
11
20.8251341672
21
-52.7146689430
31
0.0000000000
11
21.1050453574
21
-53.1974443328
31
0.0000000000
11
21.3156524903
21
-53.7132570668
31
0.0000000000
11
21.4463948446
21
-54.2362421407
31
0.0000000000
11
21.4907164529
21
-54.7401748991
31
0.0000000000
0
SPLINE
5
29C
100
AcDbEntity
8
0
100
AcDbSpline
62
7
6
CONTINUOUS
70
0
71
3
72
10
73
6
74
4
42
0.0000001000
43
0.0000001000
44
0.0000000001
12
-1.5770261046
22
-3.3162657216
32
0.0000000000
13
-3.2953499039
23
-1.6485650948
33
0.0000000000
40
0.0000000000
40
0.0000000000
40
0.0000000000
40
0.0000000000
40
0.4053046586
40
0.7847549127
40
1.0000000000
40
1.0000000000
40
1.0000000000
40
1.0000000000
10
27.3597027368
20
-60.5159324962
30
0.0000000000
10
27.1466440611
20
-60.9639651450
30
0.0000000000
10
26.6420716074
20
-61.7932829925
30
0.0000000000
10
25.7530231465
20
-62.6558052368
30
0.0000000000
10
25.1266168918
20
-63.0358977015
30
0.0000000000
10
24.8901809326
20
-63.1541795474
30
0.0000000000
11
27.3597027368
21
-60.5159324962
31
0.0000000000
11
26.5739363423
21
-61.7799405879
31
0.0000000000
11
25.5672640750
21
-62.7433520136
31
0.0000000000
11
24.8901809326
21
-63.1541795474
31
0.0000000000
0
SPLINE
5
29D
100
AcDbEntity
8
0
100
AcDbSpline
62
7
6
CONTINUOUS
70
0
71
3
72
11
73
7
74
5
42
0.0000001000
43
0.0000001000
44
0.0000000001
12
5.9361703764
22
-6.3890353149
32
0.0000000000
13
2.6751714830
23
-8.3006836182
33
0.0000000000
40
0.0000000000
40
0.0000000000
40
0.0000000000
40
0.0000000000
40
0.2436665153
40
0.4946058710
40
0.7482864955
40
1.0000000000
40
1.0000000000
40
1.0000000000
40
1.0000000000
10
23.0168236354
20
-43.5716224842
30
0.0000000000
10
23.4989722852
20
-44.0905538079
30
0.0000000000
10
24.4142892009
20
-45.2042591951
30
0.0000000000
10
25.6048272881
20
-47.0295946516
30
0.0000000000
10
26.6069340517
20
-48.9910207962
30
0.0000000000
10
27.1352438070
20
-50.3655162203
30
0.0000000000
10
27.3597027368
20
-51.0619809414
30
0.0000000000
11
23.0168236354
21
-43.5716224842
31
0.0000000000
11
24.3696697077
21
-45.2104088822
31
0.0000000000
11
25.5672640750
21
-47.0421227623
31
0.0000000000
11
26.5739363423
21
-49.0122064553
31
0.0000000000
11
27.3597027368
21
-51.0619809414
31
0.0000000000
0
SPLINE
5
29E
100
AcDbEntity
8
0
100
AcDbSpline
62
7
6
CONTINUOUS
70
0
71
3
72
9
73
5
74
3
42
0.0000001000
43
0.0000001000
44
0.0000000001
12
1.7476163366
22
0.8742802360
32
0.0000000000
13
1.9417974843
23
0.1481379311
33
0.0000000000
40
0.0000000000
40
0.0000000000
40
0.0000000000
40
0.0000000000
40
0.2899732864
40
1.0000000000
40
1.0000000000
40
1.0000000000
40
1.0000000000
10
13.4243472174
20
-40.2212952286
30
0.0000000000
10
13.5932679016
20
-40.1367892575
30
0.0000000000
10
14.1929048825
20
-39.8793173359
30
0.0000000000
10
14.8381284859
20
-39.7471235533
30
0.0000000000
10
15.2977045146
20
-39.7120629239
30
0.0000000000
11
13.4243472174
21
-40.2212952286
31
0.0000000000
11
13.9448584423
21
-39.9980032495
31
0.0000000000
11
15.2977045146
21
-39.7120629239
31
0.0000000000
0
SPLINE
5
29F
100
AcDbEntity
8
0
100
AcDbSpline
62
7
6
CONTINUOUS
70
0
71
3
72
9
73
5
74
3
42
0.0000001000
43
0.0000001000
44
0.0000000001
12
-1.7476163366
22
-0.8742802360
32
0.0000000000
13
-1.9417974843
23
-0.1481379311
33
0.0000000000
40
0.0000000000
40
0.0000000000
40
0.0000000000
40
0.0000000000
40
0.2899732864
40
1.0000000000
40
1.0000000000
40
1.0000000000
40
1.0000000000
10
21.1425149923
20
-65.0280125175
30
0.0000000000
10
20.9735943082
20
-65.1125184886
30
0.0000000000
10
20.3739573272
20
-65.3699904102
30
0.0000000000
10
19.7287337238
20
-65.5021841927
30
0.0000000000
10
19.2691576951
20
-65.5372448222
30
0.0000000000
11
21.1425149923
21
-65.0280125175
31
0.0000000000
11
20.6220037674
21
-65.2513044966
31
0.0000000000
11
19.2691576951
21
-65.5372448222
31
0.0000000000
0
SPLINE
5
2A0
100
AcDbEntity
8
0
100
AcDbSpline
62
7
6
CONTINUOUS
70
0
71
3
72
10
73
6
74
4
42
0.0000001000
43
0.0000001000
44
0.0000000001
12
-1.5770261046
22
-3.3162657216
32
0.0000000000
13
-3.2953499039
23
-1.6485650948
33
0.0000000000
40
0.0000000000
40
0.0000000000
40
0.0000000000
40
0.0000000000
40
0.4053046586
40
0.7847549127
40
1.0000000000
40
1.0000000000
40
1.0000000000
40
1.0000000000
10
23.6120367965
20
-62.3897654664
30
0.0000000000
10
23.3989781208
20
-62.8377981151
30
0.0000000000
10
22.8944056671
20
-63.6671159627
30
0.0000000000
10
22.0053572062
20
-64.5296382070
30
0.0000000000
10
21.3789509515
20
-64.9097306716
30
0.0000000000
10
21.1425149923
20
-65.0280125175
30
0.0000000000
11
23.6120367965
21
-62.3897654664
31
0.0000000000
11
22.8262704020
21
-63.6537735580
31
0.0000000000
11
21.8195981347
21
-64.6171849837
31
0.0000000000
11
21.1425149923
21
-65.0280125175
31
0.0000000000
0
SPLINE
5
2A1
100
AcDbEntity
8
0
100
AcDbSpline
62
7
6
CONTINUOUS
70
0
71
3
72
11
73
7
74
5
42
0.0000001000
43
0.0000001000
44
0.0000000001
12
0.0000000000
22
1.5742785444
32
0.0000000000
13
1.4140091247
23
0.7079433079
33
0.0000000000
40
0.0000000000
40
0.0000000000
40
0.0000000000
40
0.0000000000
40
0.2933046606
40
0.5559382847
40
0.7914860394
40
1.0000000000
40
1.0000000000
40
1.0000000000
40
1.0000000000
10
17.9551825470
20
-52.9724079461
30
0.0000000000
10
17.9551825470
20
-52.8184935347
30
0.0000000000
10
17.9803247729
20
-52.5256034983
30
0.0000000000
10
18.1071242950
20
-52.1257626261
30
0.0000000000
10
18.3162099561
20
-51.8120113969
30
0.0000000000
10
18.5067509559
20
-51.6693786569
30
0.0000000000
10
18.6050311702
20
-51.6201733026
30
0.0000000000
11
17.9551825470
21
-52.9724079461
31
0.0000000000
11
17.9995041553
21
-52.5127967960
31
0.0000000000
11
18.1302465096
21
-52.1205540765
31
0.0000000000
11
18.3408536424
21
-51.8153484753
31
0.0000000000
11
18.6050311702
21
-51.6201733026
31
0.0000000000
0
SPLINE
5
2A2
100
AcDbEntity
8
0
100
AcDbSpline
62
7
6
CONTINUOUS
70
0
71
3
72
9
73
5
74
3
42
0.0000001000
43
0.0000001000
44
0.0000000001
12
1.7476163366
22
0.8742802360
32
0.0000000000
13
1.9417974843
23
0.1481379311
33
0.0000000000
40
0.0000000000
40
0.0000000000
40
0.0000000000
40
0.0000000000
40
0.2899732864
40
1.0000000000
40
1.0000000000
40
1.0000000000
40
1.0000000000
10
9.6766812771
20
-42.0951281987
30
0.0000000000
10
9.8456019613
20
-42.0106222276
30
0.0000000000
10
10.4452389422
20
-41.7531503060
30
0.0000000000
10
11.0904625456
20
-41.6209565235
30
0.0000000000
10
11.5500385743
20
-41.5858958940
30
0.0000000000
11
9.6766812771
21
-42.0951281987
31
0.0000000000
11
10.1971925020
21
-41.8718362196
31
0.0000000000
11
11.5500385743
21
-41.5858958940
31
0.0000000000
0
SPLINE
5
2A3
100
AcDbEntity
8
0
100
AcDbSpline
62
7
6
CONTINUOUS
70
0
71
3
72
11
73
7
74
5
42
0.0000001000
43
0.0000001000
44
0.0000000001
12
5.9361703764
22
-6.3890353149
32
0.0000000000
13
2.6751714830
23
-8.3006836182
33
0.0000000000
40
0.0000000000
40
0.0000000000
40
0.0000000000
40
0.0000000000
40
0.2436665153
40
0.4946058710
40
0.7482864955
40
1.0000000000
40
1.0000000000
40
1.0000000000
40
1.0000000000
10
19.2691576951
20
-45.4454554544
30
0.0000000000
10
19.7513063449
20
-45.9643867781
30
0.0000000000
10
20.6666232606
20
-47.0780921653
30
0.0000000000
10
21.8571613478
20
-48.9034276218
30
0.0000000000
10
22.8592681114
20
-50.8648537664
30
0.0000000000
10
23.3875778667
20
-52.2393491904
30
0.0000000000
10
23.6120367965
20
-52.9358139116
30
0.0000000000
11
19.2691576951
21
-45.4454554544
31
0.0000000000
11
20.6220037674
21
-47.0842418523
31
0.0000000000
11
21.8195981347
21
-48.9159557325
31
0.0000000000
11
22.8262704020
21
-50.8860394254
31
0.0000000000
11
23.6120367965
21
-52.9358139116
31
0.0000000000
0
SPLINE
5
2A4
100
AcDbEntity
8
0
100
AcDbSpline
62
7
6
CONTINUOUS
70
0
71
3
72
18
73
14
74
12
42
0.0000001000
43
0.0000001000
44
0.0000000001
12
-4.3435340209
22
-2.1746506362
32
0.0000000000
13
0.0000000000
23
4.8358474471
33
0.0000000000
40
0.0000000000
40
0.0000000000
40
0.0000000000
40
0.0000000000
40
0.0036052998
40
0.0753906811
40
0.1528522899
40
0.2393617604
40
0.3358504186
40
0.4412881867
40
0.5533023068
40
0.6687013739
40
0.7839142332
40
0.8953899842
40
1.0000000000
40
1.0000000000
40
1.0000000000
40
1.0000000000
10
20.8408678297
20
-59.8163187789
30
0.0000000000
10
20.8356479156
20
-59.8189322014
30
0.0000000000
10
20.7259742482
20
-59.8725334679
30
0.0000000000
10
20.4821444152
20
-59.9360047686
30
0.0000000000
10
20.0975698213
20
-59.9021912518
30
0.0000000000
10
19.7010665225
20
-59.7521992730
30
0.0000000000
10
19.3091687720
20
-59.4966524796
30
0.0000000000
10
18.9388364490
20
-59.1484967467
30
0.0000000000
10
18.6070715051
20
-58.7244396221
30
0.0000000000
10
18.3296468271
20
-58.2449001732
30
0.0000000000
10
18.1199403486
20
-57.7329883887
30
0.0000000000
10
17.9881195139
20
-57.2136794089
30
0.0000000000
10
17.9551825470
20
-56.8649432084
30
0.0000000000
10
17.9551825470
20
-56.6963171824
30
0.0000000000
11
20.8408678297
21
-59.8163187789
31
0.0000000000
11
20.8251341672
21
-59.8240078057
31
0.0000000000
11
20.4899548354
21
-59.9143581456
31
0.0000000000
11
20.1163146533
21
-59.8876640826
31
0.0000000000
11
19.7229494999
21
-59.7452641683
31
0.0000000000
11
19.3295843466
21
-59.4942989292
31
0.0000000000
11
18.9559441645
21
-59.1473528102
31
0.0000000000
11
18.6207648327
21
-58.7218231385
31
0.0000000000
11
18.3408536424
21
-58.2390477486
31
0.0000000000
11
18.1302465096
21
-57.7232350146
31
0.0000000000
11
17.9995041553
21
-57.2002499407
31
0.0000000000
11
17.9551825470
21
-56.6963171824
31
0.0000000000
0
SPLINE
5
2A5
100
AcDbEntity
8
0
100
AcDbSpline
62
7
6
CONTINUOUS
70
0
71
3
72
23
73
19
74
17
42
0.0000001000
43
0.0000001000
44
0.0000000001
12
-21.3264566304
22
-0.2312742633
32
0.0000000000
13
12.6301935247
23
-17.2197131974
33
0.0000000000
40
0.0000000000
40
0.0000000000
40
0.0000000000
40
0.0000000000
40
0.0409707989
40
0.0959370059
40
0.1556828836
40
0.2201524478
40
0.2888401627
40
0.3609079811
40
0.4352860751
40
0.5107602376
40
0.5860511740
40
0.6598903202
40
0.7310962262
40
0.7986556570
40
0.8618142750
40
0.9201820226
40
0.9738540420
40
1.0000000000
40
1.0000000000
40
1.0000000000
40
1.0000000000
10
-15.8672550023
20
61.8183645038
30
0.0000000000
10
-16.1585089908
20
61.8152060067
30
0.0000000000
10
-16.8412970228
20
61.7415908661
30
0.0000000000
10
-17.9046594672
20
61.4168366857
30
0.0000000000
10
-19.0438808459
20
60.8372813846
30
0.0000000000
10
-20.1632754687
20
60.0399626789
30
0.0000000000
10
-21.2346756390
20
59.0464681258
30
0.0000000000
10
-22.2301327515
20
57.8832347058
30
0.0000000000
10
-23.1233947111
20
56.5812428942
30
0.0000000000
10
-23.8906783634
20
55.1752536238
30
0.0000000000
10
-24.5114833519
20
53.7028588612
30
0.0000000000
10
-24.9691972543
20
52.2033970220
30
0.0000000000
10
-25.2515436340
20
50.7167921627
30
0.0000000000
10
-25.3508167508
20
49.2823581638
30
0.0000000000
10
-25.2638391526
20
47.9376447869
30
0.0000000000
10
-24.9915541311
20
46.7175158995
30
0.0000000000
10
-24.6042624611
20
45.8086620856
30
0.0000000000
10
-24.2964490604
20
45.3296262001
30
0.0000000000
10
-24.1863728906
20
45.1795509008
30
0.0000000000
11
-15.8672550023
21
61.8183645038
31
0.0000000000
11
-16.7366740767
21
61.7292572098
31
0.0000000000
11
-17.8595708435
21
61.3965589907
31
0.0000000000
11
-18.9978982199
21
60.8267311329
31
0.0000000000
11
-20.1206231328
21
60.0353062292
31
0.0000000000
11
-21.1971374231
21
59.0438584384
31
0.0000000000
11
-22.1980923451
21
57.8794154138
31
0.0000000000
11
-23.0961987470
21
56.5737215305
31
0.0000000000
11
-23.8669711158
21
55.1623724937
31
0.0000000000
11
-24.4893951983
21
53.6838449205
31
0.0000000000
11
-24.9465009904
21
52.1784473527
31
0.0000000000
11
-25.2258254701
21
50.6872213017
31
0.0000000000
11
-25.3197524543
21
49.2508223171
31
0.0000000000
11
-25.2257203445
21
47.9084116280
31
0.0000000000
11
-24.9462919846
21
46.6965879202
31
0.0000000000
11
-24.4890848049
21
45.6483900104
31
0.0000000000
11
-24.1863728906
21
45.1795509008
31
0.0000000000
0
SPLINE
5
2A6
100
AcDbEntity
8
0
100
AcDbSpline
62
7
6
CONTINUOUS
70
0
71
3
72
11
73
7
74
5
42
0.0000001000
43
0.0000001000
44
0.0000000001
12
1.3366627006
22
0.5321989725
32
0.0000000000
13
1.2922023338
23
-0.6462183125
33
0.0000000000
40
0.0000000000
40
0.0000000000
40
0.0000000000
40
0.0000000000
40
0.3100105041
40
0.6024875173
40
0.8602211775
40
1.0000000000
40
1.0000000000
40
1.0000000000
40
1.0000000000
10
16.4614261874
20
73.2203701694
30
0.0000000000
10
16.5995526799
20
73.2753659266
30
0.0000000000
10
16.8761910457
20
73.3636016629
30
0.0000000000
10
17.2886137481
20
73.4149310409
30
0.0000000000
10
17.6212881241
20
73.3753771333
30
0.0000000000
10
17.8010731099
20
73.3064940415
30
0.0000000000
10
17.8612806168
20
73.2763848299
30
0.0000000000
11
16.4614261874
21
73.2203701694
31
0.0000000000
11
16.8874763428
21
73.3523262849
31
0.0000000000
11
17.3056917620
21
73.3988145788
31
0.0000000000
11
17.6731680642
21
73.3492377433
31
0.0000000000
11
17.8612806168
21
73.2763848299
31
0.0000000000
0
SPLINE
5
2A7
100
AcDbEntity
8
0
100
AcDbSpline
62
7
6
CONTINUOUS
70
0
71
3
72
12
73
8
74
6
42
0.0000001000
43
0.0000001000
44
0.0000000001
12
0.2964615867
22
1.6882291333
32
0.0000000000
13
-1.5408154182
23
0.7701401533
33
0.0000000000
40
0.0000000000
40
0.0000000000
40
0.0000000000
40
0.0000000000
40
0.2541538678
40
0.4927755098
40
0.7038767934
40
0.8998967197
40
1.0000000000
40
1.0000000000
40
1.0000000000
40
1.0000000000
10
21.2323075942
20
70.3581735982
30
0.0000000000
10
21.2574232138
20
70.5011969195
30
0.0000000000
10
21.2843205992
20
70.7832794771
30
0.0000000000
10
21.2359971815
20
71.1866824183
30
0.0000000000
10
21.0884473160
20
71.5316890567
30
0.0000000000
10
20.8862547925
20
71.7480426166
30
0.0000000000
10
20.7406028784
20
71.8366879942
30
0.0000000000
10
20.6891893192
20
71.8623858461
30
0.0000000000
11
21.2323075942
21
70.3581735982
31
0.0000000000
11
21.2690142439
21
70.7922597704
31
0.0000000000
11
21.2138697780
21
71.1975375236
31
0.0000000000
11
21.0663788508
21
71.5279539958
31
0.0000000000
11
20.8359218840
21
71.7724514735
31
0.0000000000
11
20.6891893192
21
71.8623858461
31
0.0000000000
0
SPLINE
5
2A8
100
AcDbEntity
8
0
100
AcDbSpline
62
7
6
CONTINUOUS
70
0
71
3
72
15
73
11
74
9
42
0.0000001000
43
0.0000001000
44
0.0000000001
12
4.1978069629
22
1.6713779410
32
0.0000000000
13
-0.6675124112
23
4.4687262951
33
0.0000000000
40
0.0000000000
40
0.0000000000
40
0.0000000000
40
0.0000000000
40
0.1094968849
40
0.2307145472
40
0.3556622122
40
0.4832098164
40
0.6133372802
40
0.7457437810
40
0.8781724943
40
1.0000000000
40
1.0000000000
40
1.0000000000
40
1.0000000000
10
19.2898533121
20
54.9186612332
30
0.0000000000
10
19.4430689075
20
54.9796647926
30
0.0000000000
10
19.7529031009
20
55.1427650660
30
0.0000000000
10
20.1728444940
20
55.4800892500
30
0.0000000000
10
20.5446178667
20
55.9062756665
30
0.0000000000
10
20.8497189561
20
56.3979149109
30
0.0000000000
10
21.0805066312
20
56.9406301519
30
0.0000000000
10
21.2285225760
20
57.5192023027
30
0.0000000000
10
21.2840588495
20
58.1012833053
30
0.0000000000
10
21.2594147182
20
58.4853593877
30
0.0000000000
10
21.2323075942
20
58.6668306471
30
0.0000000000
11
19.2898533121
21
54.9186612332
31
0.0000000000
11
19.7287337084
21
55.1470295189
31
0.0000000000
11
20.1573426571
21
55.4880104312
31
0.0000000000
11
20.5298250840
21
55.9122456654
31
0.0000000000
11
20.8346714193
21
56.4013155429
31
0.0000000000
11
21.0651697239
21
56.9422059292
31
0.0000000000
11
21.2132140068
21
57.5218520441
31
0.0000000000
11
21.2689891005
21
58.1176002816
31
0.0000000000
11
21.2323075942
21
58.6668306471
31
0.0000000000
0
SPLINE
5
2A9
100
AcDbEntity
8
0
100
AcDbSpline
62
7
6
CONTINUOUS
70
0
71
3
72
11
73
7
74
5
42
0.0000001000
43
0.0000001000
44
0.0000000001
12
-1.2926152841
22
0.6460831851
32
0.0000000000
13
-1.3359553106
23
-0.5319173216
33
0.0000000000
40
0.0000000000
40
0.0000000000
40
0.0000000000
40
0.0000000000
40
0.1181636889
40
0.3804602358
40
0.6803241720
40
1.0000000000
40
1.0000000000
40
1.0000000000
40
1.0000000000
10
20.6891893192
20
71.8623858461
30
0.0000000000
10
20.6382759224
20
71.8878337036
30
0.0000000000
10
20.4674741835
20
71.9562929417
30
0.0000000000
10
20.1401035570
20
72.0017580665
30
0.0000000000
10
19.7168120155
20
71.9529640305
30
0.0000000000
10
19.4322108522
20
71.8628369771
30
0.0000000000
10
19.2898533121
20
71.8061566070
30
0.0000000000
11
20.6891893192
21
71.8623858461
31
0.0000000000
11
20.5309963519
21
71.9262069261
31
0.0000000000
11
20.1583261213
21
71.9842969407
31
0.0000000000
11
19.7293170538
21
71.9409773090
31
0.0000000000
11
19.2898533121
21
71.8061566070
31
0.0000000000
0
SPLINE
5
2AA
100
AcDbEntity
8
0
100
AcDbSpline
62
7
6
CONTINUOUS
70
0
71
3
72
9
73
5
74
3
42
0.0000001000
43
0.0000001000
44
0.0000000001
12
0.0007444089
22
-0.0367952076
32
0.0000000000
13
0.0310981653
23
-0.0202795989
33
0.0000000000
40
0.0000000000
40
0.0000000000
40
0.0000000000
40
0.0000000000
40
0.5142193979
40
1.0000000000
40
1.0000000000
40
1.0000000000
40
1.0000000000
10
-17.7122404862
20
28.6392199325
30
0.0000000000
10
-17.7121128897
20
28.6329129960
30
0.0000000000
10
-17.7069880759
20
28.6205049231
30
0.0000000000
10
-17.6974915041
20
28.6124416634
30
0.0000000000
10
-17.6924558756
20
28.6091578514
30
0.0000000000
11
-17.7122404862
21
28.6392199325
31
0.0000000000
11
-17.7056863452
21
28.6213009148
31
0.0000000000
11
-17.6924558756
21
28.6091578514
31
0.0000000000
0
SPLINE
5
2AB
100
AcDbEntity
8
0
100
AcDbSpline
62
7
6
CONTINUOUS
70
0
71
3
72
8
73
4
74
2
42
0.0000001000
43
0.0000001000
44
0.0000000001
12
0.0091284139
22
-0.0059527812
32
0.0000000000
13
0.0096504630
23
-0.0048252315
33
0.0000000000
40
0.0000000000
40
0.0000000000
40
0.0000000000
40
0.0000000000
40
1.0000000000
40
1.0000000000
40
1.0000000000
40
1.0000000000
10
-17.6924558756
20
28.6091578514
30
0.0000000000
10
-17.6894130710
20
28.6071735910
30
0.0000000000
10
-17.6862160458
20
28.6054205139
30
0.0000000000
10
-17.6829992248
20
28.6038121034
30
0.0000000000
11
-17.6924558756
21
28.6091578514
31
0.0000000000
11
-17.6829992248
21
28.6038121034
31
0.0000000000
0
SPLINE
5
2AC
100
AcDbEntity
8
0
100
AcDbSpline
62
7
6
CONTINUOUS
70
0
71
3
72
8
73
4
74
2
42
0.0000001000
43
0.0000001000
44
0.0000000001
12
-0.3145961063
22
-0.2211353438
32
0.0000000000
13
-0.3121079965
23
-0.2247285162
33
0.0000000000
40
0.0000000000
40
0.0000000000
40
0.0000000000
40
0.0000000000
40
1.0000000000
40
1.0000000000
40
1.0000000000
40
1.0000000000
10
-14.1163446254
20
-29.8789926318
30
0.0000000000
10
-14.2212099941
20
-29.9527044130
30
0.0000000000
10
-14.3256672237
20
-30.0270103930
30
0.0000000000
10
-14.4297032225
20
-30.1019198984
30
0.0000000000
11
-14.1163446254
21
-29.8789926318
31
0.0000000000
11
-14.4297032225
21
-30.1019198984
31
0.0000000000
0
SPLINE
5
2AD
100
AcDbEntity
8
0
100
AcDbSpline
62
7
6
CONTINUOUS
70
0
71
3
72
9
73
5
74
3
42
0.0000001000
43
0.0000001000
44
0.0000000001
12
-0.0183199464
22
-0.0178302987
32
0.0000000000
13
0.0005177321
23
-0.0255908520
33
0.0000000000
40
0.0000000000
40
0.0000000000
40
0.0000000000
40
0.0000000000
40
0.8951512805
40
1.0000000000
40
1.0000000000
40
1.0000000000
40
1.0000000000
10
-17.7012373942
20
28.6620153227
30
0.0000000000
10
-17.7067037687
20
28.6566950512
30
0.0000000000
10
-17.7119501796
20
28.6486305016
30
0.0000000000
10
-17.7122585807
20
28.6401143218
30
0.0000000000
10
-17.7122404862
20
28.6392199325
30
0.0000000000
11
-17.7012373942
21
28.6620153227
31
0.0000000000
11
-17.7121396250
21
28.6418951780
31
0.0000000000
11
-17.7122404862
21
28.6392199325
31
0.0000000000
0
SPLINE
5
2AE
100
AcDbEntity
8
0
100
AcDbSpline
62
7
6
CONTINUOUS
70
0
71
3
72
9
73
5
74
3
42
0.0000001000
43
0.0000001000
44
0.0000000001
12
-3.8001546564
22
-2.6711980516
32
0.0000000000
13
-3.3263212822
23
-3.2374167909
33
0.0000000000
40
0.0000000000
40
0.0000000000
40
0.0000000000
40
0.0000000000
40
0.1418206675
40
1.0000000000
40
1.0000000000
40
1.0000000000
40
1.0000000000
10
-14.1163446254
20
31.6088110369
30
0.0000000000
10
-14.2959914487
20
31.4825340067
30
0.0000000000
10
-15.5542638097
20
30.5798385648
30
0.0000000000
10
-16.7497106683
20
29.5881100497
30
0.0000000000
10
-17.7012373942
20
28.6620153227
30
0.0000000000
11
-14.1163446254
21
31.6088110369
31
0.0000000000
11
-14.6516258852
21
31.2247015352
31
0.0000000000
11
-17.7012373942
21
28.6620153227
31
0.0000000000
0
SPLINE
5
2AF
100
AcDbEntity
8
0
100
AcDbSpline
62
7
6
CONTINUOUS
70
0
71
3
72
8
73
4
74
2
42
0.0000001000
43
0.0000001000
44
0.0000000001
12
0.2180029749
22
0.1090014877
32
0.0000000000
13
0.2138082621
23
0.1173293267
33
0.0000000000
40
0.0000000000
40
0.0000000000
40
0.0000000000
40
0.0000000000
40
1.0000000000
40
1.0000000000
40
1.0000000000
40
1.0000000000
10
5.4155119499
20
-53.1315835833
30
0.0000000000
10
5.4881796082
20
-53.0952497540
30
0.0000000000
10
5.5601540246
20
-53.0574850820
30
0.0000000000
10
5.6314234453
20
-53.0183753064
30
0.0000000000
11
5.4155119499
21
-53.1315835833
31
0.0000000000
11
5.6314234453
21
-53.0183753064
31
0.0000000000
0
SPLINE
5
2B0
100
AcDbEntity
8
0
100
AcDbSpline
62
7
6
CONTINUOUS
70
0
71
3
72
8
73
4
74
2
42
0.0000001000
43
0.0000001000
44
0.0000000001
12
0.1977290069
22
0.1085056818
32
0.0000000000
13
0.1940834423
23
0.1152046192
33
0.0000000000
40
0.0000000000
40
0.0000000000
40
0.0000000000
40
0.0000000000
40
1.0000000000
40
1.0000000000
40
1.0000000000
40
1.0000000000
10
5.6314234453
20
-53.0183753064
30
0.0000000000
10
5.6973331143
20
-52.9822067458
30
0.0000000000
10
5.7626398374
20
-52.9448877888
30
0.0000000000
10
5.8273343182
20
-52.9064862491
30
0.0000000000
11
5.6314234453
21
-53.0183753064
31
0.0000000000
11
5.8273343182
21
-52.9064862491
31
0.0000000000
0
SPLINE
5
2B1
100
AcDbEntity
8
0
100
AcDbSpline
62
7
6
CONTINUOUS
70
0
71
3
72
9
73
5
74
3
42
0.0000001000
43
0.0000001000
44
0.0000000001
12
1.4951095550
22
0.8874715171
32
0.0000000000
13
1.2682993296
23
1.1886143866
33
0.0000000000
40
0.0000000000
40
0.0000000000
40
0.0000000000
40
0.0000000000
40
0.5637351743
40
1.0000000000
40
1.0000000000
40
1.0000000000
40
1.0000000000
10
5.8273343182
20
-52.9064862491
30
0.0000000000
10
6.1082829334
20
-52.7397199456
30
0.0000000000
10
6.5861710113
20
-52.4076797057
30
0.0000000000
10
7.0253310380
20
-52.0288719867
30
0.0000000000
10
7.2097691667
20
-51.8560217707
30
0.0000000000
11
5.8273343182
21
-52.9064862491
31
0.0000000000
11
6.6347798992
21
-52.3504918398
31
0.0000000000
11
7.2097691667
21
-51.8560217707
31
0.0000000000
0
SPLINE
5
2B2
100
AcDbEntity
8
0
100
AcDbSpline
62
7
6
CONTINUOUS
70
0
71
3
72
10
73
6
74
4
42
0.0000001000
43
0.0000001000
44
0.0000000001
12
-0.7693554688
22
1.9452505248
32
0.0000000000
13
-1.6770267137
23
1.2585311907
33
0.0000000000
40
0.0000000000
40
0.0000000000
40
0.0000000000
40
0.0000000000
40
0.2790663106
40
0.8264098314
40
1.0000000000
40
1.0000000000
40
1.0000000000
40
1.0000000000
10
10.2781701077
20
-41.7945323813
30
0.0000000000
10
10.2066030437
20
-41.6135810856
30
0.0000000000
10
9.9621344444
20
-41.0908199434
30
0.0000000000
10
9.5380924470
20
-40.5253452626
30
0.0000000000
10
9.1519888319
20
-40.2004776559
30
0.0000000000
10
9.0549503819
20
-40.1276547754
30
0.0000000000
11
10.2781701077
21
-41.7945323813
31
0.0000000000
11
10.0294130298
21
-41.2668464835
31
0.0000000000
11
9.3332636660
21
-40.3617249471
31
0.0000000000
11
9.0549503819
21
-40.1276547754
31
0.0000000000
0
SPLINE
5
2B3
100
AcDbEntity
8
0
100
AcDbSpline
62
7
6
CONTINUOUS
70
0
71
3
72
8
73
4
74
2
42
0.0000001000
43
0.0000001000
44
0.0000000001
12
-0.2869865548
22
0.2153701713
32
0.0000000000
13
-0.3090230288
23
0.1821563246
33
0.0000000000
40
0.0000000000
40
0.0000000000
40
0.0000000000
40
0.0000000000
40
1.0000000000
40
1.0000000000
40
1.0000000000
40
1.0000000000
10
9.0549503819
20
-40.1276547754
30
0.0000000000
10
8.9592881970
20
-40.0558647183
30
0.0000000000
10
8.8596702414
20
-39.9893229961
30
0.0000000000
10
8.7566625651
20
-39.9286042213
30
0.0000000000
11
9.0549503819
21
-40.1276547754
31
0.0000000000
11
8.7566625651
21
-39.9286042213
31
0.0000000000
0
SPLINE
5
2B4
100
AcDbEntity
8
0
100
AcDbSpline
62
7
6
CONTINUOUS
70
0
71
3
72
8
73
4
74
2
42
0.0000001000
43
0.0000001000
44
0.0000000001
12
-0.1825193750
22
0.1075876404
32
0.0000000000
13
-0.1892644697
23
0.0950445170
33
0.0000000000
40
0.0000000000
40
0.0000000000
40
0.0000000000
40
0.0000000000
40
1.0000000000
40
1.0000000000
40
1.0000000000
40
1.0000000000
10
8.7566625651
20
-39.9286042213
30
0.0000000000
10
8.6958227734
20
-39.8927416744
30
0.0000000000
10
8.6338004844
20
-39.8589104513
30
0.0000000000
10
8.5707123279
20
-39.8272289456
30
0.0000000000
11
8.7566625651
21
-39.9286042213
31
0.0000000000
11
8.5707123279
21
-39.8272289456
31
0.0000000000
0
SPLINE
5
2B5
100
AcDbEntity
8
0
100
AcDbSpline
62
7
6
CONTINUOUS
70
0
71
3
72
9
73
5
74
3
42
0.0000001000
43
0.0000001000
44
0.0000000001
12
0.4535826578
22
-0.2277793855
32
0.0000000000
13
0.4845050584
23
-0.1516131764
33
0.0000000000
40
0.0000000000
40
0.0000000000
40
0.0000000000
40
0.0000000000
40
0.2888330448
40
1.0000000000
40
1.0000000000
40
1.0000000000
40
1.0000000000
10
1.8130979653
20
-53.3305528422
30
0.0000000000
10
1.8567678520
20
-53.3524829133
30
0.0000000000
10
2.0097302446
20
-53.4248431975
30
0.0000000000
10
2.1683507407
20
-53.4843859401
30
0.0000000000
10
2.2832054030
20
-53.5203267004
30
0.0000000000
11
1.8130979653
21
-53.3305528422
31
0.0000000000
11
1.9456010638
21
-53.3932136984
31
0.0000000000
11
2.2832054030
21
-53.5203267004
31
0.0000000000
0
SPLINE
5
2B6
100
AcDbEntity
8
0
100
AcDbSpline
62
7
6
CONTINUOUS
70
0
71
3
72
10
73
6
74
4
42
0.0000001000
43
0.0000001000
44
0.0000000001
12
3.0722575232
22
-0.9613825776
32
0.0000000000
13
2.8712743481
23
1.4239753609
33
0.0000000000
40
0.0000000000
40
0.0000000000
40
0.0000000000
40
0.0000000000
40
0.2289179987
40
0.5956137770
40
1.0000000000
40
1.0000000000
40
1.0000000000
40
1.0000000000
10
2.2832054030
20
-53.5203267004
30
0.0000000000
10
2.5176370843
20
-53.5936859590
30
0.0000000000
10
3.1498074899
20
-53.7151381978
30
0.0000000000
10
4.2296674594
20
-53.6233904244
30
0.0000000000
10
5.0104153425
20
-53.3325232473
30
0.0000000000
10
5.3974499388
20
-53.1405779080
30
0.0000000000
11
2.2832054030
21
-53.5203267004
31
0.0000000000
11
3.0051996329
21
-53.6610310496
31
0.0000000000
11
4.1772266180
21
-53.5770662055
31
0.0000000000
11
5.3974499388
21
-53.1405779080
31
0.0000000000
0
SPLINE
5
2B7
100
AcDbEntity
8
0
100
AcDbSpline
62
7
6
CONTINUOUS
70
0
71
3
72
8
73
4
74
2
42
0.0000001000
43
0.0000001000
44
0.0000000001
12
0.0180783478
22
0.0089657479
32
0.0000000000
13
0.0180456436
23
0.0090228218
33
0.0000000000
40
0.0000000000
40
0.0000000000
40
0.0000000000
40
0.0000000000
40
1.0000000000
40
1.0000000000
40
1.0000000000
40
1.0000000000
10
5.3974499388
20
-53.1405779080
30
0.0000000000
10
5.4034760547
20
-53.1375893254
30
0.0000000000
10
5.4094967353
20
-53.1345911906
30
0.0000000000
10
5.4155119498
20
-53.1315835833
30
0.0000000000
11
5.3974499388
21
-53.1405779080
31
0.0000000000
11
5.4155119498
21
-53.1315835833
31
0.0000000000
0
SPLINE
5
2B8
100
AcDbEntity
8
0
100
AcDbSpline
62
7
6
CONTINUOUS
70
0
71
3
72
8
73
4
74
2
42
0.0000001000
43
0.0000001000
44
0.0000000001
12
-0.2389874035
22
0.1197833060
32
0.0000000000
13
-0.2488722528
23
0.0971054583
33
0.0000000000
40
0.0000000000
40
0.0000000000
40
0.0000000000
40
0.0000000000
40
1.0000000000
40
1.0000000000
40
1.0000000000
40
1.0000000000
10
9.0106487277
20
-39.8238073858
30
0.0000000000
10
8.9309862599
20
-39.7838796171
30
0.0000000000
10
8.8495247225
20
-39.7476048549
30
0.0000000000
10
8.7665673049
20
-39.7152363688
30
0.0000000000
11
9.0106487277
21
-39.8238073858
31
0.0000000000
11
8.7665673049
21
-39.7152363688
31
0.0000000000
0
SPLINE
5
2B9
100
AcDbEntity
8
0
100
AcDbSpline
62
7
6
CONTINUOUS
70
0
71
3
72
8
73
4
74
2
42
0.0000001000
43
0.0000001000
44
0.0000000001
12
-0.3104103872
22
0.1211165270
32
0.0000000000
13
-0.3221964391
23
0.0852493744
33
0.0000000000
40
0.0000000000
40
0.0000000000
40
0.0000000000
40
0.0000000000
40
1.0000000000
40
1.0000000000
40
1.0000000000
40
1.0000000000
10
8.7665673049
20
-39.7152363688
30
0.0000000000
10
8.6630971759
20
-39.6748641932
30
0.0000000000
10
8.5572999397
20
-39.6405689228
30
0.0000000000
10
8.4499011267
20
-39.6121524646
30
0.0000000000
11
8.7665673049
21
-39.7152363688
31
0.0000000000
11
8.4499011267
21
-39.6121524646
31
0.0000000000
0
SPLINE
5
2BA
100
AcDbEntity
8
0
100
AcDbSpline
62
7
6
CONTINUOUS
70
0
71
3
72
10
73
6
74
4
42
0.0000001000
43
0.0000001000
44
0.0000000001
12
-2.9048487693
22
0.7685886942
32
0.0000000000
13
-2.6760892515
23
-1.3380446258
33
0.0000000000
40
0.0000000000
40
0.0000000000
40
0.0000000000
40
0.0000000000
40
0.2277294411
40
0.5937891983
40
1.0000000000
40
1.0000000000
40
1.0000000000
40
1.0000000000
10
8.4499011267
20
-39.6121524646
30
0.0000000000
10
8.2293945978
20
-39.5538090400
30
0.0000000000
10
7.6368349212
20
-39.4662994637
30
0.0000000000
10
6.6335022158
20
-39.5830387601
30
0.0000000000
10
5.9078106573
20
-39.8627946498
30
0.0000000000
10
5.5454585372
20
-40.0439707098
30
0.0000000000
11
8.4499011267
21
-39.6121524646
31
0.0000000000
11
7.7744068853
21
-39.5097532179
31
0.0000000000
11
6.6848307273
21
-39.6209512948
31
0.0000000000
11
5.5454585372
21
-40.0439707098
31
0.0000000000
0
SPLINE
5
2BB
100
AcDbEntity
8
0
100
AcDbSpline
62
7
6
CONTINUOUS
70
0
71
3
72
8
73
4
74
2
42
0.0000001000
43
0.0000001000
44
0.0000000001
12
0.2225133608
22
-0.0985750483
32
0.0000000000
13
0.2244287498
23
-0.0941355754
33
0.0000000000
40
0.0000000000
40
0.0000000000
40
0.0000000000
40
0.0000000000
40
1.0000000000
40
1.0000000000
40
1.0000000000
40
1.0000000000
10
-4.7258621684
20
32.1503251129
30
0.0000000000
10
-4.6516910481
20
32.1174667634
30
0.0000000000
10
-4.5771933004
20
32.0853457014
30
0.0000000000
10
-4.5023837172
20
32.0539671763
30
0.0000000000
11
-4.7258621684
21
32.1503251129
31
0.0000000000
11
-4.5023837172
21
32.0539671763
31
0.0000000000
0
SPLINE
5
2BC
100
AcDbEntity
8
0
100
AcDbSpline
62
7
6
CONTINUOUS
70
0
71
3
72
10
73
6
74
4
42
0.0000001000
43
0.0000001000
44
0.0000000001
12
0.8125665843
22
-2.3912813756
32
0.0000000000
13
0.0000000000
23
-2.5267591273
33
0.0000000000
40
0.0000000000
40
0.0000000000
40
0.0000000000
40
0.0000000000
40
0.1433877212
40
0.5302051247
40
1.0000000000
40
1.0000000000
40
1.0000000000
40
1.0000000000
10
11.8533396430
20
47.3214069964
30
0.0000000000
10
11.8921769999
20
47.2071135340
30
0.0000000000
10
12.0087056073
20
46.7767677879
30
0.0000000000
10
12.1303655330
20
45.9393851074
30
0.0000000000
10
12.1561252439
20
45.2177478081
30
0.0000000000
10
12.1561252439
20
44.8220616451
30
0.0000000000
11
11.8533396430
21
47.3214069964
31
0.0000000000
11
11.9513997122
21
46.9733521718
31
0.0000000000
11
12.1042724228
21
46.0079870818
31
0.0000000000
11
12.1561252439
21
44.8220616451
31
0.0000000000
0
SPLINE
5
2BD
100
AcDbEntity
8
0
100
AcDbSpline
62
7
6
CONTINUOUS
70
0
71
3
72
8
73
4
74
2
42
0.0000001000
43
0.0000001000
44
0.0000000001
12
-0.0322745703
22
0.0767042721
32
0.0000000000
13
-0.0327945164
23
0.0764802798
33
0.0000000000
40
0.0000000000
40
0.0000000000
40
0.0000000000
40
0.0000000000
40
1.0000000000
40
1.0000000000
40
1.0000000000
40
1.0000000000
10
11.5471259575
20
48.1224404658
30
0.0000000000
10
11.5363677674
20
48.1480085565
30
0.0000000000
10
11.5255228096
20
48.1735396722
30
0.0000000000
10
11.5145913041
20
48.1990330988
30
0.0000000000
11
11.5471259575
21
48.1224404658
31
0.0000000000
11
11.5145913041
21
48.1990330988
31
0.0000000000
0
SPLINE
5
2BE
100
AcDbEntity
8
0
100
AcDbSpline
62
7
6
CONTINUOUS
70
0
71
3
72
8
73
4
74
2
42
0.0000001000
43
0.0000001000
44
0.0000000001
12
-0.7743036034
22
1.8057578735
32
0.0000000000
13
-1.0521674256
23
1.6586406068
33
0.0000000000
40
0.0000000000
40
0.0000000000
40
0.0000000000
40
0.0000000000
40
1.0000000000
40
1.0000000000
40
1.0000000000
40
1.0000000000
10
11.5145913041
20
48.1990330988
30
0.0000000000
10
11.2564901029
20
48.8009523899
30
0.0000000000
10
10.9501413728
20
49.3818611981
30
0.0000000000
10
10.5994188976
20
49.9347414003
30
0.0000000000
11
11.5145913041
21
48.1990330988
31
0.0000000000
11
10.5994188976
21
49.9347414003
31
0.0000000000
0
SPLINE
5
2BF
100
AcDbEntity
8
0
100
AcDbSpline
62
7
6
CONTINUOUS
70
0
71
3
72
15
73
11
74
9
42
0.0000001000
43
0.0000001000
44
0.0000000001
12
12.3361079788
22
-6.1732691840
32
0.0000000000
13
6.5637375425
23
12.0373490530
33
0.0000000000
40
0.0000000000
40
0.0000000000
40
0.0000000000
40
0.0000000000
40
0.0315084237
40
0.1372367710
40
0.2515379963
40
0.3782408824
40
0.5183836252
40
0.6707576971
40
0.8325682432
40
1.0000000000
40
1.0000000000
40
1.0000000000
40
1.0000000000
10
0.5394035427
20
-73.0553501710
30
0.0000000000
10
0.6689673150
20
-73.1201868314
30
0.0000000000
10
1.2476740756
20
-73.3737381864
30
0.0000000000
10
2.3973703286
20
-73.5889748392
30
0.0000000000
10
3.9908753231
20
-73.3962554432
30
0.0000000000
10
5.6288346232
20
-72.7630505945
30
0.0000000000
10
7.2518885044
20
-71.7255038770
30
0.0000000000
10
8.7989022896
20
-70.3283223597
30
0.0000000000
10
10.2086758435
20
-68.6294811417
30
0.0000000000
10
11.0127634459
20
-67.3519050035
30
0.0000000000
10
11.3790894819
20
-66.6800935036
30
0.0000000000
11
0.5394035427
21
-73.0553501710
31
0.0000000000
11
0.9372593935
21
-73.2294381867
31
0.0000000000
11
2.3594622872
21
-73.5099287694
31
0.0000000000
11
3.9177078041
21
-73.3432196812
31
0.0000000000
11
5.5454585372
21
-72.7364297027
31
0.0000000000
11
7.1732092702
21
-71.7154689482
31
0.0000000000
11
8.7314547871
21
-70.3239325194
31
0.0000000000
11
10.1536576808
21
-68.6212390431
31
0.0000000000
11
11.3790894819
21
-66.6800935036
31
0.0000000000
0
SPLINE
5
2C0
100
AcDbEntity
8
0
100
AcDbSpline
62
7
6
CONTINUOUS
70
0
71
3
72
12
73
8
74
6
42
0.0000001000
43
0.0000001000
44
0.0000000001
12
0.0000000000
22
-7.0544790724
32
0.0000000000
13
6.3418725058
23
-3.1628911448
33
0.0000000000
40
0.0000000000
40
0.0000000000
40
0.0000000000
40
0.0000000000
40
0.2746975881
40
0.5226512135
40
0.7461869462
40
0.9533368893
40
1.0000000000
40
1.0000000000
40
1.0000000000
40
1.0000000000
10
-4.1419043651
20
-66.1128596785
30
0.0000000000
10
-4.1419043651
20
-66.7588091407
30
0.0000000000
10
-4.0425452699
20
-67.9919483906
30
0.0000000000
10
-3.5460458899
20
-69.6900468741
30
0.0000000000
10
-2.7167601760
20
-71.0784943209
30
0.0000000000
10
-1.8563833537
20
-71.8321217322
30
0.0000000000
10
-1.3304986785
20
-72.1207074362
30
0.0000000000
10
-1.2318548456
20
-72.1699042160
30
0.0000000000
11
-4.1419043651
21
-66.1128596785
31
0.0000000000
11
-3.9688421924
21
-68.0429648192
31
0.0000000000
11
-3.4572193217
21
-69.7156529310
31
0.0000000000
11
-2.6293961274
21
-71.0578195167
31
0.0000000000
11
-1.5215524555
21
-72.0108054563
31
0.0000000000
11
-1.2318548456
21
-72.1699042160
31
0.0000000000
0
SPLINE
5
2C1
100
AcDbEntity
8
0
100
AcDbSpline
62
7
6
CONTINUOUS
70
0
71
3
72
11
73
7
74
5
42
0.0000001000
43
0.0000001000
44
0.0000000001
12
-0.1983257851
22
2.4840584644
32
0.0000000000
13
-0.1726878316
23
2.4859774335
33
0.0000000000
40
0.0000000000
40
0.0000000000
40
0.0000000000
40
0.0000000000
40
0.2841127739
40
0.5451851081
40
0.7837090571
40
1.0000000000
40
1.0000000000
40
1.0000000000
40
1.0000000000
10
4.6969303997
20
-51.1601169551
30
0.0000000000
10
4.6781481034
20
-50.9248660415
30
0.0000000000
10
4.6422877687
20
-50.4734276364
30
0.0000000000
10
4.5915780470
20
-49.8244140978
30
0.0000000000
10
4.5464829418
20
-49.2314709573
30
0.0000000000
10
4.5191289416
20
-48.8546674002
30
0.0000000000
10
4.5066786703
20
-48.6754359325
30
0.0000000000
11
4.6969303997
21
-51.1601169551
31
0.0000000000
11
4.6409309204
21
-50.4543365633
31
0.0000000000
11
4.5903527412
21
-49.8057229941
31
0.0000000000
11
4.5454387994
21
-49.2130294786
31
0.0000000000
11
4.5066786703
21
-48.6754359325
31
0.0000000000
0
SPLINE
5
2C2
100
AcDbEntity
8
0
100
AcDbSpline
62
7
6
CONTINUOUS
70
0
71
3
72
19
73
15
74
13
42
0.0000001000
43
0.0000001000
44
0.0000000001
12
-0.3802834868
22
5.4744804983
32
0.0000000000
13
0.4743647382
23
5.4671205936
33
0.0000000000
40
0.0000000000
40
0.0000000000
40
0.0000000000
40
0.0000000000
40
0.0874864839
40
0.1649336111
40
0.2339799851
40
0.2998045250
40
0.3647854388
40
0.4305673638
40
0.5030041645
40
0.5843874605
40
0.6746021316
40
0.7738322844
40
0.8822494957
40
1.0000000000
40
1.0000000000
40
1.0000000000
40
1.0000000000
10
4.5066786703
20
-48.6754359325
30
0.0000000000
10
4.4955887819
20
-48.5157882491
30
0.0000000000
10
4.4755174210
20
-48.2147539119
30
0.0000000000
10
4.4513803953
20
-47.7874223133
30
0.0000000000
10
4.4360298216
20
-47.3993216794
30
0.0000000000
10
4.4308720796
20
-47.0337333428
30
0.0000000000
10
4.4368109033
20
-46.6741280374
30
0.0000000000
10
4.4526772584
20
-46.3027411550
30
0.0000000000
10
4.4769998958
20
-45.9017647657
30
0.0000000000
10
4.5089818499
20
-45.4565133789
30
0.0000000000
10
4.5477267794
20
-44.9626244830
30
0.0000000000
10
4.5924609096
20
-44.4196078483
30
0.0000000000
10
4.6427430681
20
-43.8265106820
30
0.0000000000
10
4.6783115040
20
-43.4143317631
30
0.0000000000
10
4.6969303997
20
-43.1997463607
30
0.0000000000
11
4.5066786703
21
-48.6754359325
31
0.0000000000
11
4.4751558315
21
-48.1963757154
31
0.0000000000
11
4.4517772666
21
-47.7720155824
31
0.0000000000
11
4.4374402798
21
-47.3933837890
31
0.0000000000
11
4.4327058585
21
-47.0321920184
31
0.0000000000
11
4.4383325930
21
-46.6756431502
31
0.0000000000
11
4.4531806025
21
-46.3149596983
31
0.0000000000
11
4.4767013737
21
-45.9181475286
31
0.0000000000
11
4.5082878574
21
-45.4726619348
31
0.0000000000
11
4.5467430298
21
-44.9790901445
31
0.0000000000
11
4.5912870145
21
-44.4363735756
31
0.0000000000
11
4.6414432722
21
-43.8435345265
31
0.0000000000
11
4.6969303997
21
-43.1997463607
31
0.0000000000
0
SPLINE
5
2C3
100
AcDbEntity
8
0
100
AcDbSpline
62
7
6
CONTINUOUS
70
0
71
3
72
8
73
4
74
2
42
0.0000001000
43
0.0000001000
44
0.0000000001
12
-0.2762238249
22
-0.1381119125
32
0.0000000000
13
-0.2695536761
23
-0.1511911874
33
0.0000000000
40
0.0000000000
40
0.0000000000
40
0.0000000000
40
0.0000000000
40
1.0000000000
40
1.0000000000
40
1.0000000000
40
1.0000000000
10
5.5454585372
20
-40.0439707098
30
0.0000000000
10
5.4533839288
20
-40.0900080140
30
0.0000000000
10
5.3624112502
20
-40.1383148468
30
0.0000000000
10
5.2725600248
20
-40.1887119092
30
0.0000000000
11
5.5454585372
21
-40.0439707098
31
0.0000000000
11
5.2725600248
21
-40.1887119092
31
0.0000000000
0
SPLINE
5
2C4
100
AcDbEntity
8
0
100
AcDbSpline
62
7
6
CONTINUOUS
70
0
71
3
72
8
73
4
74
2
42
0.0000001000
43
0.0000001000
44
0.0000000001
12
-0.1132158911
22
-0.0635021761
32
0.0000000000
13
-0.1120245350
23
-0.0656747508
33
0.0000000000
40
0.0000000000
40
0.0000000000
40
0.0000000000
40
0.0000000000
40
1.0000000000
40
1.0000000000
40
1.0000000000
40
1.0000000000
10
5.2725600248
20
-40.1887119092
30
0.0000000000
10
5.2348213945
20
-40.2098793013
30
0.0000000000
10
5.1972806001
20
-40.2314154316
30
0.0000000000
10
5.1599390885
20
-40.2533070152
30
0.0000000000
11
5.2725600248
21
-40.1887119092
31
0.0000000000
11
5.1599390885
21
-40.2533070152
31
0.0000000000
0
SPLINE
5
2C5
100
AcDbEntity
8
0
100
AcDbSpline
62
7
6
CONTINUOUS
70
0
71
3
72
9
73
5
74
3
42
0.0000001000
43
0.0000001000
44
0.0000000001
12
-0.8065052876
22
-0.4728163683
32
0.0000000000
13
-0.7429144142
23
-0.5684908744
33
0.0000000000
40
0.0000000000
40
0.0000000000
40
0.0000000000
40
0.0000000000
40
0.9715989085
40
1.0000000000
40
1.0000000000
40
1.0000000000
40
1.0000000000
10
5.1599390885
20
-40.2533070152
30
0.0000000000
10
4.8987392028
20
-40.4064363043
30
0.0000000000
10
4.6399397365
20
-40.5819419508
30
0.0000000000
10
4.3919937172
20
-40.7710545158
30
0.0000000000
10
4.3849605238
20
-40.7764364362
30
0.0000000000
11
5.1599390885
21
-40.2533070152
31
0.0000000000
11
4.4060863470
21
-40.7603234849
31
0.0000000000
11
4.3849605238
21
-40.7764364362
31
0.0000000000
0
SPLINE
5
2C6
100
AcDbEntity
8
0
100
AcDbSpline
62
7
6
CONTINUOUS
70
0
71
3
72
17
73
13
74
11
42
0.0000001000
43
0.0000001000
44
0.0000000001
12
-11.2860319725
22
-8.6362655804
32
0.0000000000
13
10.8046521882
23
-9.2810809626
33
0.0000000000
40
0.0000000000
40
0.0000000000
40
0.0000000000
40
0.0000000000
40
0.1013538445
40
0.2109812361
40
0.3243554866
40
0.4384486810
40
0.5501648262
40
0.6566366610
40
0.7555425301
40
0.8454732547
40
0.9263731739
40
1.0000000000
40
1.0000000000
40
1.0000000000
40
1.0000000000
10
4.3849605238
20
-40.7764364362
30
0.0000000000
10
4.0036662805
20
-41.0682093425
30
0.0000000000
10
3.2634505807
20
-41.7423654804
30
0.0000000000
10
2.2855638140
20
-42.9304963311
30
0.0000000000
10
1.4412156202
20
-44.2877243376
30
0.0000000000
10
0.7714126221
20
-45.7498912631
30
0.0000000000
10
0.3046102517
20
-47.2550683476
30
0.0000000000
10
0.0606635765
20
-48.7399373260
30
0.0000000000
10
0.0504677447
20
-50.1429390902
30
0.0000000000
10
0.2767348384
20
-51.4071612034
30
0.0000000000
10
0.7362838412
20
-52.4813371881
30
0.0000000000
10
1.2077965102
20
-53.0551361858
30
0.0000000000
10
1.4729672595
20
-53.2829150305
30
0.0000000000
11
4.3849605238
21
-40.7764364362
31
0.0000000000
11
3.3165101890
21
-41.7387015661
31
0.0000000000
11
2.3243497694
21
-42.9363451366
31
0.0000000000
11
1.4729672595
21
-44.3009114254
31
0.0000000000
11
0.7995721605
21
-45.7727623378
31
0.0000000000
11
0.3335950694
21
-47.2875709262
31
0.0000000000
11
0.0954014212
21
-48.7791327864
31
0.0000000000
11
0.0954014212
21
-50.1822595079
31
0.0000000000
11
0.3335950694
21
-51.4356277198
31
0.0000000000
11
0.7995721605
21
-52.4844592172
31
0.0000000000
11
1.4729672595
21
-53.2829150305
31
0.0000000000
0
SPLINE
5
2C7
100
AcDbEntity
8
0
100
AcDbSpline
62
7
6
CONTINUOUS
70
0
71
3
72
8
73
4
74
2
42
0.0000001000
43
0.0000001000
44
0.0000000001
12
0.2536900430
22
-0.2179170405
32
0.0000000000
13
0.2766245732
23
-0.1885911079
33
0.0000000000
40
0.0000000000
40
0.0000000000
40
0.0000000000
40
0.0000000000
40
1.0000000000
40
1.0000000000
40
1.0000000000
40
1.0000000000
10
1.4729672595
20
-53.2829150305
30
0.0000000000
10
1.5575306072
20
-53.3555540440
30
0.0000000000
10
1.6462138218
20
-53.4235538734
30
0.0000000000
10
1.7384220129
20
-53.4864175760
30
0.0000000000
11
1.4729672595
21
-53.2829150305
31
0.0000000000
11
1.7384220129
21
-53.4864175760
31
0.0000000000
0
SPLINE
5
2C8
100
AcDbEntity
8
0
100
AcDbSpline
62
7
6
CONTINUOUS
70
0
71
3
72
8
73
4
74
2
42
0.0000001000
43
0.0000001000
44
0.0000000001
12
0.2752618104
22
-0.1876620330
32
0.0000000000
13
0.2944453718
23
-0.1556792526
33
0.0000000000
40
0.0000000000
40
0.0000000000
40
0.0000000000
40
0.0000000000
40
1.0000000000
40
1.0000000000
40
1.0000000000
40
1.0000000000
10
1.7384220129
20
-53.4864175760
30
0.0000000000
10
1.8301759497
20
-53.5489715870
30
0.0000000000
10
1.9254202176
20
-53.6064399518
30
0.0000000000
10
2.0235686749
20
-53.6583330360
30
0.0000000000
11
1.7384220129
21
-53.4864175760
31
0.0000000000
11
2.0235686749
21
-53.6583330360
31
0.0000000000
0
SPLINE
5
2C9
100
AcDbEntity
8
0
100
AcDbSpline
62
7
6
CONTINUOUS
70
0
71
3
72
8
73
4
74
2
42
0.0000001000
43
0.0000001000
44
0.0000000001
12
0.0563843007
22
-0.0298115258
32
0.0000000000
13
0.0570109269
23
-0.0285745491
33
0.0000000000
40
0.0000000000
40
0.0000000000
40
0.0000000000
40
0.0000000000
40
1.0000000000
40
1.0000000000
40
1.0000000000
40
1.0000000000
10
2.0235686749
20
-53.6583330360
30
0.0000000000
10
2.0423634418
20
-53.6682702113
30
0.0000000000
10
2.0612647043
20
-53.6780029429
30
0.0000000000
10
2.0802683466
20
-53.6875277926
30
0.0000000000
11
2.0235686749
21
-53.6583330360
31
0.0000000000
11
2.0802683466
21
-53.6875277926
31
0.0000000000
0
SPLINE
5
2CA
100
AcDbEntity
8
0
100
AcDbSpline
62
7
6
CONTINUOUS
70
0
71
3
72
10
73
6
74
4
42
0.0000001000
43
0.0000001000
44
0.0000000001
12
1.0890372749
22
4.6265719153
32
0.0000000000
13
0.5348587844
23
4.7233605098
33
0.0000000000
40
0.0000000000
40
0.0000000000
40
0.0000000000
40
0.0000000000
40
0.4653800223
40
0.9152963862
40
1.0000000000
40
1.0000000000
40
1.0000000000
40
1.0000000000
10
11.3790894819
20
-66.6800935036
30
0.0000000000
10
11.5480282124
20
-65.9623887898
30
0.0000000000
10
11.8418118824
20
-64.5414819388
30
0.0000000000
10
12.0807571682
20
-62.9745366602
30
0.0000000000
10
12.1806528551
20
-62.1333227839
30
0.0000000000
10
12.1957543458
20
-61.9999608824
30
0.0000000000
11
11.3790894819
21
-66.6800935036
31
0.0000000000
11
11.8273662244
21
-64.5140346127
31
0.0000000000
11
12.1482994187
21
-62.3997939811
31
0.0000000000
11
12.1957543458
21
-61.9999608824
31
0.0000000000
0
SPLINE
5
2CB
100
AcDbEntity
8
0
100
AcDbSpline
62
7
6
CONTINUOUS
70
0
71
3
72
9
73
5
74
3
42
0.0000001000
43
0.0000001000
44
0.0000000001
12
-0.0118624066
22
-0.0059369318
32
0.0000000000
13
-0.0118646989
23
-0.0059323495
33
0.0000000000
40
0.0000000000
40
0.0000000000
40
0.0000000000
40
0.0000000000
40
0.4999108942
40
1.0000000000
40
1.0000000000
40
1.0000000000
40
1.0000000000
10
6.3939809861
20
-40.3125241199
30
0.0000000000
10
6.3920042707
20
-40.3135134322
30
0.0000000000
10
6.3880510829
20
-40.3154943028
30
0.0000000000
10
6.3840963659
20
-40.3174721185
30
0.0000000000
10
6.3821185637
20
-40.3184610196
30
0.0000000000
11
6.3939809861
21
-40.3125241199
31
0.0000000000
11
6.3880514052
21
-40.3154931863
31
0.0000000000
11
6.3821185637
21
-40.3184610196
31
0.0000000000
0
SPLINE
5
2CC
100
AcDbEntity
8
0
100
AcDbSpline
62
7
6
CONTINUOUS
70
0
71
3
72
9
73
5
74
3
42
0.0000001000
43
0.0000001000
44
0.0000000001
12
-0.0118715251
22
-0.0059357625
32
0.0000000000
13
-0.0118738156
23
-0.0059311793
33
0.0000000000
40
0.0000000000
40
0.0000000000
40
0.0000000000
40
0.0000000000
40
0.4999443254
40
1.0000000000
40
1.0000000000
40
1.0000000000
40
1.0000000000
10
4.7087985106
20
-41.1551210461
30
0.0000000000
10
4.7068201434
20
-41.1561102297
30
0.0000000000
10
4.7028627847
20
-41.1580884504
30
0.0000000000
10
4.6989039009
20
-41.1600636174
30
0.0000000000
10
4.6969247113
20
-41.1610522574
30
0.0000000000
11
4.7087985106
21
-41.1551210461
31
0.0000000000
11
4.7028628441
21
-41.1580874669
31
0.0000000000
11
4.6969247113
21
-41.1610522574
31
0.0000000000
0
SPLINE
5
2CD
100
AcDbEntity
8
0
100
AcDbSpline
62
7
6
CONTINUOUS
70
0
71
3
72
9
73
5
74
3
42
0.0000001000
43
0.0000001000
44
0.0000000001
12
-1.4760481625
22
0.1805745573
32
0.0000000000
13
-1.4605518245
23
0.2794883121
33
0.0000000000
40
0.0000000000
40
0.0000000000
40
0.0000000000
40
0.0000000000
40
0.5034700884
40
1.0000000000
40
1.0000000000
40
1.0000000000
40
1.0000000000
10
-2.6728683669
20
37.4075648397
30
0.0000000000
10
-2.9205837332
20
37.4378694691
30
0.0000000000
10
-3.4116556137
20
37.5060710797
30
0.0000000000
10
-3.9001684757
20
37.5907255926
30
0.0000000000
10
-4.1419043651
20
37.6369836949
30
0.0000000000
11
-2.6728683669
21
37.4075648397
31
0.0000000000
11
-3.4144150739
21
37.5107149276
31
0.0000000000
11
-4.1419043651
21
37.6369836949
31
0.0000000000
0
SPLINE
5
2CE
100
AcDbEntity
8
0
100
AcDbSpline
62
7
6
CONTINUOUS
70
0
71
3
72
8
73
4
74
2
42
0.0000001000
43
0.0000001000
44
0.0000000001
12
0.0414380756
22
0.0207190378
32
0.0000000000
13
0.0412890850
23
0.0210236748
33
0.0000000000
40
0.0000000000
40
0.0000000000
40
0.0000000000
40
0.0000000000
40
1.0000000000
40
1.0000000000
40
1.0000000000
40
1.0000000000
10
5.5454585372
20
-53.4673644685
30
0.0000000000
10
5.5592712290
20
-53.4604581226
30
0.0000000000
10
5.5730591221
20
-53.4535007011
30
0.0000000000
10
5.5868221504
20
-53.4464928096
30
0.0000000000
11
5.5454585372
21
-53.4673644685
31
0.0000000000
11
5.5868221504
21
-53.4464928096
31
0.0000000000
0
SPLINE
5
2CF
100
AcDbEntity
8
0
100
AcDbSpline
62
7
6
CONTINUOUS
70
0
71
3
72
9
73
5
74
3
42
0.0000001000
43
0.0000001000
44
0.0000000001
12
1.7634331356
22
0.8979090882
32
0.0000000000
13
1.4792453118
23
1.3168952974
33
0.0000000000
40
0.0000000000
40
0.0000000000
40
0.0000000000
40
0.0000000000
40
0.6567607081
40
1.0000000000
40
1.0000000000
40
1.0000000000
40
1.0000000000
10
5.5868221504
20
-53.4464928096
30
0.0000000000
10
5.9728733487
20
-53.2499223400
30
0.0000000000
10
6.5308966095
20
-52.8901563630
30
0.0000000000
10
7.0401917507
20
-52.4693001578
30
0.0000000000
10
7.2094367885
20
-52.3186300880
30
0.0000000000
11
5.5868221504
21
-53.4464928096
31
0.0000000000
11
6.6848307273
21
-52.7510116935
31
0.0000000000
11
7.2094367885
21
-52.3186300880
31
0.0000000000
0
SPLINE
5
2D0
100
AcDbEntity
8
0
100
AcDbSpline
62
7
6
CONTINUOUS
70
0
71
3
72
10
73
6
74
4
42
0.0000001000
43
0.0000001000
44
0.0000000001
12
-0.9380827069
22
2.2728625280
32
0.0000000000
13
-2.2024148682
23
1.1038763143
33
0.0000000000
40
0.0000000000
40
0.0000000000
40
0.0000000000
40
0.0000000000
40
0.2771049842
40
0.7030894373
40
1.0000000000
40
1.0000000000
40
1.0000000000
40
1.0000000000
10
10.5994231363
20
-41.6336889548
30
0.0000000000
10
10.5127740051
20
-41.4237484432
30
0.0000000000
10
10.2539230290
20
-40.9074404897
30
0.0000000000
10
9.7265328490
20
-40.2656423440
30
0.0000000000
10
9.2286221403
20
-39.9330582316
30
0.0000000000
10
9.0106487277
20
-39.8238073858
30
0.0000000000
11
10.5994231363
21
-41.6336889548
31
0.0000000000
11
10.2913449138
21
-41.0268759612
31
0.0000000000
11
9.6179498148
21
-40.2284201478
31
0.0000000000
11
9.0106487277
21
-39.8238073858
31
0.0000000000
0
SPLINE
5
2D1
100
AcDbEntity
8
0
100
AcDbSpline
62
7
6
CONTINUOUS
70
0
71
3
72
17
73
13
74
11
42
0.0000001000
43
0.0000001000
44
0.0000000001
12
-8.8166787984
22
13.0199863687
32
0.0000000000
13
-5.8870389018
23
-14.5806941893
33
0.0000000000
40
0.0000000000
40
0.0000000000
40
0.0000000000
40
0.0000000000
40
0.0799246075
40
0.1566475262
40
0.2352738313
40
0.3202842685
40
0.4143598115
40
0.5182246137
40
0.6310260443
40
0.7507906543
40
0.8748159272
40
1.0000000000
40
1.0000000000
40
1.0000000000
40
1.0000000000
10
11.3790894819
20
48.0564082562
30
0.0000000000
10
11.1441996177
20
48.4032806898
30
0.0000000000
10
10.5858137343
20
49.0259160625
30
0.0000000000
10
9.4884170044
20
49.6374371351
30
0.0000000000
10
8.2252047817
20
49.8551231856
30
0.0000000000
10
6.8691727450
20
49.6811785731
30
0.0000000000
10
5.4758186676
20
49.1400890672
30
0.0000000000
10
4.0945759191
20
48.2608956627
30
0.0000000000
10
2.7757017405
20
47.0803315370
30
0.0000000000
10
1.5694094649
20
45.6452271923
30
0.0000000000
10
0.5231611891
20
44.0129736550
30
0.0000000000
10
-0.0425179055
20
42.8312008723
30
0.0000000000
10
-0.2881724076
20
42.2227773114
30
0.0000000000
11
11.3790894819
21
48.0564082562
31
0.0000000000
11
10.5295547005
21
48.9825476933
31
0.0000000000
11
9.4748947518
21
49.5683199330
31
0.0000000000
11
8.2585187253
21
49.7896262524
31
0.0000000000
11
6.9304883851
21
49.6373654056
31
0.0000000000
11
5.5454585372
21
49.1178074728
31
0.0000000000
11
4.1604286892
21
48.2523355576
31
0.0000000000
11
2.8323983490
21
47.0765660642
31
0.0000000000
11
1.6160223225
21
45.6388837183
31
0.0000000000
11
0.5613623738
21
43.9984515299
31
0.0000000000
11
-0.2881724076
21
42.2227773114
31
0.0000000000
0
SPLINE
5
2D2
100
AcDbEntity
8
0
100
AcDbSpline
62
7
6
CONTINUOUS
70
0
71
3
72
8
73
4
74
2
42
0.0000001000
43
0.0000001000
44
0.0000000001
12
0.7581170457
22
-0.6322065989
32
0.0000000000
13
0.8881706656
23
-0.4444608145
33
0.0000000000
40
0.0000000000
40
0.0000000000
40
0.0000000000
40
0.0000000000
40
1.0000000000
40
1.0000000000
40
1.0000000000
40
1.0000000000
10
-0.2881724076
20
-72.5137244484
30
0.0000000000
10
-0.0354667257
20
-72.7244599813
30
0.0000000000
10
0.2433466542
20
-72.9071965662
30
0.0000000000
10
0.5394035427
20
-73.0553501710
30
0.0000000000
11
-0.2881724076
21
-72.5137244484
31
0.0000000000
11
0.5394035427
21
-73.0553501710
31
0.0000000000
0
SPLINE
5
2D3
100
AcDbEntity
8
0
100
AcDbSpline
62
7
6
CONTINUOUS
70
0
71
3
72
11
73
7
74
5
42
0.0000001000
43
0.0000001000
44
0.0000000001
12
0.0000000000
22
-6.1417712616
32
0.0000000000
13
4.5570030896
23
-4.1421997742
33
0.0000000000
40
0.0000000000
40
0.0000000000
40
0.0000000000
40
0.0000000000
40
0.2816452056
40
0.5613333419
40
0.8482569376
40
1.0000000000
40
1.0000000000
40
1.0000000000
40
1.0000000000
10
-3.4347975839
20
-66.4664130691
30
0.0000000000
10
-3.4347975839
20
-67.0430132123
30
0.0000000000
10
-3.3070409572
20
-68.1972096583
30
0.0000000000
10
-2.7058940408
20
-69.8442372817
30
0.0000000000
10
-1.8732050350
20
-71.0736943510
30
0.0000000000
10
-1.2417629436
20
-71.7184362281
30
0.0000000000
10
-1.0112650755
20
-71.9279529211
30
0.0000000000
11
-3.4347975839
21
-66.4664130691
31
0.0000000000
11
-3.2386109896
21
-68.1850521664
31
0.0000000000
11
-2.6488297141
21
-69.7984114235
31
0.0000000000
11
-1.6639053956
21
-71.2596917599
31
0.0000000000
11
-1.0112650755
21
-71.9279529211
31
0.0000000000
0
SPLINE
5
2D4
100
AcDbEntity
8
0
100
AcDbSpline
62
7
6
CONTINUOUS
70
0
71
3
72
8
73
4
74
2
42
0.0000001000
43
0.0000001000
44
0.0000000001
12
0.6896928065
22
-0.6269131996
32
0.0000000000
13
0.7538702917
23
-0.5438123456
33
0.0000000000
40
0.0000000000
40
0.0000000000
40
0.0000000000
40
0.0000000000
40
1.0000000000
40
1.0000000000
40
1.0000000000
40
1.0000000000
10
-1.0112650755
20
-71.9279529211
30
0.0000000000
10
-0.7813674733
20
-72.1369239877
30
0.0000000000
10
-0.5394625049
20
-72.3324536665
30
0.0000000000
10
-0.2881724076
20
-72.5137244484
30
0.0000000000
11
-1.0112650755
21
-71.9279529211
31
0.0000000000
11
-0.2881724076
21
-72.5137244484
31
0.0000000000
0
SPLINE
5
2D5
100
AcDbEntity
8
0
100
AcDbSpline
62
9
6
CONTINUOUS
70
0
71
3
72
10
73
6
74
4
42
0.0000001000
43
0.0000001000
44
0.0000000001
12
-1.1411924745
22
0.5723435252
32
0.0000000000
13
-1.2742613201
23
0.0495395301
33
0.0000000000
40
0.0000000000
40
0.0000000000
40
0.0000000000
40
0.0000000000
40
0.2042544578
40
0.9820447176
40
1.0000000000
40
1.0000000000
40
1.0000000000
40
1.0000000000
10
8.5683107445
20
-39.8262380451
30
0.0000000000
10
8.4906128612
20
-39.7872701396
30
0.0000000000
10
8.1085926574
20
-39.6170670360
30
0.0000000000
10
7.6851790857
20
-39.5335653880
30
0.0000000000
10
7.3472016414
20
-39.5192558664
30
0.0000000000
10
7.3395750674
20
-39.5189593676
30
0.0000000000
11
8.5683107445
21
-39.8262380451
31
0.0000000000
11
8.3302391203
21
-39.7202849194
31
0.0000000000
11
7.3624534218
21
-39.5199281740
31
0.0000000000
11
7.3395750674
21
-39.5189593676
31
0.0000000000
0
SPLINE
5
2D6
100
AcDbEntity
8
0
100
AcDbSpline
62
7
6
CONTINUOUS
70
0
71
3
72
9
73
5
74
3
42
0.0000001000
43
0.0000001000
44
0.0000000001
12
0.7468164292
22
-0.4691224707
32
0.0000000000
13
0.2836168728
23
-0.8346488261
33
0.0000000000
40
0.0000000000
40
0.0000000000
40
0.0000000000
40
0.0000000000
40
0.5750803208
40
1.0000000000
40
1.0000000000
40
1.0000000000
40
1.0000000000
10
11.3790894819
20
48.0564082562
30
0.0000000000
10
11.5222492925
20
47.9664805559
30
0.0000000000
10
11.7001896024
20
47.7125844022
30
0.0000000000
10
11.8131681794
20
47.4396265669
30
0.0000000000
10
11.8533396430
20
47.3214069964
30
0.0000000000
11
11.3790894819
21
48.0564082562
31
0.0000000000
11
11.7054252597
21
47.6681551635
31
0.0000000000
11
11.8533396430
21
47.3214069964
31
0.0000000000
0
SPLINE
5
2D7
100
AcDbEntity
8
0
100
AcDbSpline
62
7
6
CONTINUOUS
70
0
71
3
72
11
73
7
74
5
42
0.0000001000
43
0.0000001000
44
0.0000000001
12
0.0000000000
22
5.5273448198
32
0.0000000000
13
4.1750173665
23
3.6222604471
33
0.0000000000
40
0.0000000000
40
0.0000000000
40
0.0000000000
40
0.0000000000
40
0.2354090163
40
0.4814360280
40
0.7371937863
40
1.0000000000
40
1.0000000000
40
1.0000000000
40
1.0000000000
10
-2.6728683669
20
37.4075648397
30
0.0000000000
10
-2.6728683669
20
37.8412937752
30
0.0000000000
10
-2.5586300067
20
38.7311760394
30
0.0000000000
10
-2.0800378899
20
40.0133226616
30
0.0000000000
10
-1.3188248682
20
41.2098047014
30
0.0000000000
10
-0.6539125764
20
41.9054597937
30
0.0000000000
10
-0.2881724076
20
42.2227773114
30
0.0000000000
11
-2.6728683669
21
37.4075648397
31
0.0000000000
11
-2.5137338470
21
38.6989839469
31
0.0000000000
11
-2.0445727696
21
39.9753659309
31
0.0000000000
11
-1.2896856567
21
41.1705997053
31
0.0000000000
11
-0.2881724076
21
42.2227773114
31
0.0000000000
0
SPLINE
5
2D8
100
AcDbEntity
8
0
100
AcDbSpline
62
7
6
CONTINUOUS
70
0
71
3
72
11
73
7
74
5
42
0.0000001000
43
0.0000001000
44
0.0000000001
12
3.2245012556
22
-1.6161580694
32
0.0000000000
13
3.2108910958
23
1.6054455479
33
0.0000000000
40
0.0000000000
40
0.0000000000
40
0.0000000000
40
0.0000000000
40
0.0741160832
40
0.3563578208
40
0.6614471410
40
1.0000000000
40
1.0000000000
40
1.0000000000
40
1.0000000000
10
2.0802683466
20
-53.6875277926
30
0.0000000000
10
2.1599308144
20
-53.7274555612
30
0.0000000000
10
2.5516063410
20
-53.9018683828
30
0.0000000000
10
3.3427957315
20
-54.0579840602
30
0.0000000000
10
4.4574148585
20
-53.9282964183
30
0.0000000000
10
5.1831064170
20
-53.6485405286
30
0.0000000000
10
5.5454585372
20
-53.4673644685
30
0.0000000000
11
2.0802683466
21
-53.6875277926
31
0.0000000000
11
2.3243497694
21
-53.7960988095
31
0.0000000000
11
3.3165101890
21
-54.0015819605
31
0.0000000000
11
4.4060863470
21
-53.8903838836
31
0.0000000000
11
5.5454585372
21
-53.4673644685
31
0.0000000000
0
SPLINE
5
2D9
100
AcDbEntity
8
0
100
AcDbSpline
62
9
6
CONTINUOUS
70
0
71
3
72
9
73
5
74
3
42
0.0000001000
43
0.0000001000
44
0.0000000001
12
0.8139035746
22
-1.0254174722
32
0.0000000000
13
1.1702623367
23
-0.5882549935
33
0.0000000000
40
0.0000000000
40
0.0000000000
40
0.0000000000
40
0.0000000000
40
0.4576964895
40
1.0000000000
40
1.0000000000
40
1.0000000000
40
1.0000000000
10
0.8102709431
20
-52.5049762900
30
0.0000000000
10
0.9344445460
20
-52.6614196158
30
0.0000000000
10
1.2356450496
20
-52.9791824883
30
0.0000000000
10
1.6016384701
20
-53.2240436540
30
0.0000000000
10
1.8131842613
20
-53.3303812367
30
0.0000000000
11
0.8102709431
21
-52.5049762900
31
0.0000000000
11
1.2237345862
21
-52.9370256257
31
0.0000000000
11
1.8131842613
21
-53.3303812367
31
0.0000000000
0
SPLINE
5
2DA
100
AcDbEntity
8
0
100
AcDbSpline
62
9
6
CONTINUOUS
70
0
71
3
72
22
73
18
74
16
42
0.0000001000
43
0.0000001000
44
0.0000000001
12
-13.6324299254
22
-9.6996176731
32
0.0000000000
13
15.4603735089
23
6.4769956161
33
0.0000000000
40
0.0000000000
40
0.0000000000
40
0.0000000000
40
0.0000000000
40
0.0740205913
40
0.1530187908
40
0.2351783179
40
0.3184834697
40
0.4009502888
40
0.4806951254
40
0.5559988308
40
0.6255595779
40
0.6887660140
40
0.7459606513
40
0.7987285744
40
0.8498051830
40
0.9023992194
40
0.9591814310
40
1.0000000000
40
1.0000000000
40
1.0000000000
40
1.0000000000
10
4.6969303997
20
-41.1635477772
30
0.0000000000
10
4.3605702252
20
-41.4028715890
30
0.0000000000
10
3.7067872139
20
-41.9575453692
30
0.0000000000
10
2.8338498908
20
-42.9412605956
30
0.0000000000
10
2.0643139663
20
-44.0710197779
30
0.0000000000
10
1.4282829223
20
-45.3024925485
30
0.0000000000
10
0.9494867037
20
-46.5889553908
30
0.0000000000
10
0.6458864915
20
-47.8821971068
30
0.0000000000
10
0.5292273141
20
-49.1338962062
30
0.0000000000
10
0.6048255785
20
-50.2975276567
30
0.0000000000
10
0.8722455892
20
-51.3305000525
30
0.0000000000
10
1.3270914389
20
-52.1944050359
30
0.0000000000
10
1.9607460937
20
-52.8507097147
30
0.0000000000
10
2.7498888089
20
-53.2590437202
30
0.0000000000
10
3.6491092470
20
-53.3946456129
30
0.0000000000
10
4.4879391961
20
-53.2782623749
30
0.0000000000
10
5.0053523225
20
-53.1008166711
30
0.0000000000
10
5.2157090969
20
-53.0126894402
30
0.0000000000
11
4.6969303997
21
-41.1635477772
31
0.0000000000
11
3.7481330326
21
-41.9594812174
31
0.0000000000
11
2.8674225476
21
-42.9450195892
31
0.0000000000
11
2.0916841033
21
-44.0798240353
31
0.0000000000
11
1.4518862780
21
-45.3180779871
31
0.0000000000
11
0.9723489834
21
-46.6118152985
31
0.0000000000
11
0.6713334139
21
-47.9116246032
31
0.0000000000
11
0.5607980010
21
-49.1666712989
31
0.0000000000
11
0.6451984183
21
-50.3274264427
31
0.0000000000
11
0.9211514707
21
-51.3482928352
31
0.0000000000
11
1.3776352546
21
-52.1893178215
31
0.0000000000
11
1.9971545735
21
-52.8183138840
31
0.0000000000
11
2.7563223531
21
-53.2106659021
31
0.0000000000
11
3.6251490061
21
-53.3501361512
31
0.0000000000
11
4.5677258093
21
-53.2314307343
31
0.0000000000
11
5.2157090969
21
-53.0126894402
31
0.0000000000
0
SPLINE
5
2DB
100
AcDbEntity
8
0
100
AcDbSpline
62
9
6
CONTINUOUS
70
0
71
3
72
8
73
4
74
2
42
0.0000001000
43
0.0000001000
44
0.0000000001
12
0.1217719035
22
0.0510153319
32
0.0000000000
13
0.1203978011
23
0.0540403009
33
0.0000000000
40
0.0000000000
40
0.0000000000
40
0.0000000000
40
0.0000000000
40
1.0000000000
40
1.0000000000
40
1.0000000000
40
1.0000000000
10
5.2157090969
20
-53.0126894402
30
0.0000000000
10
5.2562997315
20
-52.9956843296
30
0.0000000000
10
5.2966656374
20
-52.9781610740
30
0.0000000000
10
5.3367982378
20
-52.9601476403
30
0.0000000000
11
5.2157090969
21
-53.0126894402
31
0.0000000000
11
5.3367982378
21
-52.9601476403
31
0.0000000000
0
SPLINE
5
2DC
100
AcDbEntity
8
0
100
AcDbSpline
62
9
6
CONTINUOUS
70
0
71
3
72
8
73
4
74
2
42
0.0000001000
43
0.0000001000
44
0.0000000001
12
0.2108530587
22
0.0946409539
32
0.0000000000
13
0.2064214695
23
0.1032107347
33
0.0000000000
40
0.0000000000
40
0.0000000000
40
0.0000000000
40
0.0000000000
40
1.0000000000
40
1.0000000000
40
1.0000000000
40
1.0000000000
10
5.3367982378
20
-52.9601476403
30
0.0000000000
10
5.4070825907
20
-52.9286006557
30
0.0000000000
10
5.4766513807
20
-52.8955502641
30
0.0000000000
10
5.5454585372
20
-52.8611466859
30
0.0000000000
11
5.3367982378
21
-52.9601476403
31
0.0000000000
11
5.5454585372
21
-52.8611466859
31
0.0000000000
0
SPLINE
5
2DD
100
AcDbEntity
8
0
100
AcDbSpline
62
9
6
CONTINUOUS
70
0
71
3
72
9
73
5
74
3
42
0.0000001000
43
0.0000001000
44
0.0000000001
12
1.8282053935
22
0.9141026968
32
0.0000000000
13
1.4952938155
23
1.3959981964
33
0.0000000000
40
0.0000000000
40
0.0000000000
40
0.0000000000
40
0.0000000000
40
0.5634902346
40
1.0000000000
40
1.0000000000
40
1.0000000000
40
1.0000000000
10
5.5454585372
20
-52.8611466859
30
0.0000000000
10
5.8888504992
20
-52.6894507049
30
0.0000000000
10
6.4683321094
20
-52.3231079518
30
0.0000000000
10
6.9906314378
20
-51.8833399217
30
0.0000000000
10
7.2082015553
20
-51.6802176399
30
0.0000000000
11
5.5454585372
21
-52.8611466859
31
0.0000000000
11
6.5237583668
21
-52.2532754918
31
0.0000000000
11
7.2082015553
21
-51.6802176399
31
0.0000000000
0
SPLINE
5
2DE
100
AcDbEntity
8
0
100
AcDbSpline
62
9
6
CONTINUOUS
70
0
71
3
72
12
73
8
74
6
42
0.0000001000
43
0.0000001000
44
0.0000000001
12
-1.8816220677
22
3.9664857818
32
0.0000000000
13
-4.2052191860
23
-1.2131613827
33
0.0000000000
40
0.0000000000
40
0.0000000000
40
0.0000000000
40
0.0000000000
40
0.1823839784
40
0.3825157153
40
0.5777963308
40
0.7804359070
40
1.0000000000
40
1.0000000000
40
1.0000000000
40
1.0000000000
10
10.0578048999
20
-41.9043491201
30
0.0000000000
10
9.9434123271
20
-41.6632079677
30
0.0000000000
10
9.6525572040
20
-41.1811953362
30
0.0000000000
10
9.0321638188
20
-40.5903707443
30
0.0000000000
10
8.2252742098
20
-40.2180492447
30
0.0000000000
10
7.3161309511
20
-40.1192395695
30
0.0000000000
10
6.7017583867
20
-40.2262307469
30
0.0000000000
10
6.3939866746
20
-40.3150196398
30
0.0000000000
11
10.0578048999
21
-41.9043491201
31
0.0000000000
11
9.6388030292
21
-41.2242182621
31
0.0000000000
11
8.9990513981
21
-40.6259267432
31
0.0000000000
11
8.2234020453
21
-40.2669577009
31
0.0000000000
11
7.3427201398
21
-40.1621574127
31
0.0000000000
11
6.3939866746
21
-40.3150196398
31
0.0000000000
0
SPLINE
5
2DF
100
AcDbEntity
8
0
100
AcDbSpline
62
7
6
CONTINUOUS
70
0
71
3
72
9
73
5
74
3
42
0.0000001000
43
0.0000001000
44
0.0000000001
12
0.0000000000
22
-1.7581155658
32
0.0000000000
13
-0.7772917438
23
-1.5769552586
33
0.0000000000
40
0.0000000000
40
0.0000000000
40
0.0000000000
40
0.0000000000
40
0.5299883831
40
1.0000000000
40
1.0000000000
40
1.0000000000
40
1.0000000000
10
-4.1419043651
20
37.6369836949
30
0.0000000000
10
-4.1419043651
20
37.3263900862
30
0.0000000000
10
-4.1925437614
20
36.7384199543
30
0.0000000000
10
-4.3736790393
20
36.1733642116
30
0.0000000000
10
-4.4954577557
20
35.9263017814
30
0.0000000000
11
-4.1419043651
21
37.6369836949
31
0.0000000000
11
-4.2322356349
21
36.7095917769
31
0.0000000000
11
-4.4954577557
21
35.9263017814
31
0.0000000000
0
SPLINE
5
2E0
100
AcDbEntity
8
0
100
AcDbSpline
62
7
6
CONTINUOUS
70
0
71
3
72
8
73
4
74
2
42
0.0000001000
43
0.0000001000
44
0.0000000001
12
0.0012992337
22
0.9323305697
32
0.0000000000
13
0.0058825534
23
0.9322761769
33
0.0000000000
40
0.0000000000
40
0.0000000000
40
0.0000000000
40
0.0000000000
40
1.0000000000
40
1.0000000000
40
1.0000000000
40
1.0000000000
10
-4.5006919349
20
34.9939333150
30
0.0000000000
10
-4.5002588570
20
35.3047101715
30
0.0000000000
10
-4.4974186068
20
35.6155430557
30
0.0000000000
10
-4.4954577557
20
35.9263017814
30
0.0000000000
11
-4.5006919349
21
34.9939333150
31
0.0000000000
11
-4.4954577557
21
35.9263017814
31
0.0000000000
0
SPLINE
5
2E1
100
AcDbEntity
8
0
100
AcDbSpline
62
7
6
CONTINUOUS
70
0
71
3
72
18
73
14
74
12
42
0.0000001000
43
0.0000001000
44
0.0000000001
12
-7.9367054805
22
-6.5063694716
32
0.0000000000
13
10.1000483530
23
1.8202090133
33
0.0000000000
40
0.0000000000
40
0.0000000000
40
0.0000000000
40
0.0000000000
40
0.1018383269
40
0.2097494411
40
0.3201425203
40
0.4291144667
40
0.5329390000
40
0.6285759087
40
0.7142616195
40
0.7902327185
40
0.8594253693
40
0.9273290271
40
1.0000000000
40
1.0000000000
40
1.0000000000
40
1.0000000000
10
4.6969303997
20
-43.1997463607
30
0.0000000000
10
4.4275101308
20
-43.4206122877
30
0.0000000000
10
3.9157387187
20
-43.9295835975
30
0.0000000000
10
3.2685803972
20
-44.8178453586
30
0.0000000000
10
2.7463470728
20
-45.8126891077
30
0.0000000000
10
2.3779681623
20
-46.8593967969
30
0.0000000000
10
2.1835416341
20
-47.9011967407
30
0.0000000000
10
2.1742586941
20
-48.8825535683
30
0.0000000000
10
2.3533507900
20
-49.7527507234
30
0.0000000000
10
2.7194735072
20
-50.4665701067
30
0.0000000000
10
3.2673627367
20
-50.9742790452
30
0.0000000000
10
3.9607320770
20
-51.2220149264
30
0.0000000000
10
4.4522702864
20
-51.2042090750
30
0.0000000000
10
4.6969303997
20
-51.1601169551
30
0.0000000000
11
4.6969303997
21
-43.1997463607
31
0.0000000000
11
3.9512459719
21
-43.9320550971
31
0.0000000000
11
3.2963092556
21
-44.8251045466
31
0.0000000000
11
2.7694050155
21
-45.8280593902
31
0.0000000000
11
2.4005306307
21
-46.8838262787
31
0.0000000000
11
2.2106881458
21
-47.9323037094
31
0.0000000000
11
2.2106881458
21
-48.9138018603
31
0.0000000000
11
2.4005306307
21
-49.7724368061
31
0.0000000000
11
2.7694050155
21
-50.4593293098
31
0.0000000000
11
3.2963092556
21
-50.9353799133
31
0.0000000000
11
3.9512459719
21
-51.1734926465
31
0.0000000000
11
4.6969303997
21
-51.1601169551
31
0.0000000000
0
SPLINE
5
2E2
100
AcDbEntity
8
0
100
AcDbSpline
62
9
6
CONTINUOUS
70
0
71
3
72
9
73
5
74
3
42
0.0000001000
43
0.0000001000
44
0.0000000001
12
-0.8649373397
22
-0.2521214346
32
0.0000000000
13
-0.8058197413
23
-0.4029098706
33
0.0000000000
40
0.0000000000
40
0.0000000000
40
0.0000000000
40
0.0000000000
40
0.4870547233
40
1.0000000000
40
1.0000000000
40
1.0000000000
40
1.0000000000
10
6.3821185637
20
-40.3184610196
30
0.0000000000
10
6.2416946248
20
-40.3593933315
30
0.0000000000
10
5.9574383115
20
-40.4578162778
30
0.0000000000
10
5.6832390139
20
-40.5812982541
30
0.0000000000
10
5.5454585372
20
-40.6501884925
30
0.0000000000
11
6.3821185637
21
-40.3184610196
31
0.0000000000
11
5.9671836132
21
-40.4612126141
31
0.0000000000
11
5.5454585372
21
-40.6501884925
31
0.0000000000
0
SPLINE
5
2E3
100
AcDbEntity
8
0
100
AcDbSpline
62
9
6
CONTINUOUS
70
0
71
3
72
9
73
5
74
3
42
0.0000001000
43
0.0000001000
44
0.0000000001
12
-0.8746868153
22
-0.4373434077
32
0.0000000000
13
-0.7979483570
23
-0.5653536068
33
0.0000000000
40
0.0000000000
40
0.0000000000
40
0.0000000000
40
0.0000000000
40
0.4926238778
40
1.0000000000
40
1.0000000000
40
1.0000000000
40
1.0000000000
10
5.5454585372
20
-40.6501884925
30
0.0000000000
10
5.4018280002
20
-40.7220037610
30
0.0000000000
10
5.1163355933
20
-40.8801621071
30
0.0000000000
10
4.8437518250
20
-41.0595054059
30
0.0000000000
10
4.7087985106
20
-41.1551210461
30
0.0000000000
11
5.5454585372
21
-40.6501884925
31
0.0000000000
11
5.1236798933
21
-40.8829700445
31
0.0000000000
11
4.7087985106
21
-41.1551210461
31
0.0000000000
0
SPLINE
5
2E4
100
AcDbEntity
8
0
100
AcDbSpline
62
7
6
CONTINUOUS
70
0
71
3
72
11
73
7
74
5
42
0.0000001000
43
0.0000001000
44
0.0000000001
12
-0.9861765810
22
-0.4930882905
32
0.0000000000
13
0.0003503760
23
-1.1073355022
33
0.0000000000
40
0.0000000000
40
0.0000000000
40
0.0000000000
40
0.0000000000
40
0.2888465760
40
0.5824147529
40
0.8808010071
40
1.0000000000
40
1.0000000000
40
1.0000000000
40
1.0000000000
10
-24.8830825807
20
-30.2006292266
30
0.0000000000
10
-24.9780338236
20
-30.2481048480
30
0.0000000000
10
-25.1553715457
20
-30.3755355979
30
0.0000000000
10
-25.3478623881
20
-30.6426245224
30
0.0000000000
10
-25.4257765709
20
-30.8972276416
30
0.0000000000
10
-25.4358825802
20
-31.0513415749
30
0.0000000000
10
-25.4358686587
20
-31.0953393338
30
0.0000000000
11
-24.8830825807
21
-30.2006292266
31
0.0000000000
11
-25.1416218563
21
-30.3865983138
31
0.0000000000
11
-25.3309430585
21
-30.6491389329
31
0.0000000000
11
-25.4272087336
21
-30.9637342829
31
0.0000000000
11
-25.4358686587
21
-31.0953393338
31
0.0000000000
0
SPLINE
5
2E5
100
AcDbEntity
8
0
100
AcDbSpline
62
7
6
CONTINUOUS
70
0
71
3
72
12
73
8
74
6
42
0.0000001000
43
0.0000001000
44
0.0000000001
12
-7.0569203553
22
3.5337311759
32
0.0000000000
13
-0.2227816219
23
7.8664290627
33
0.0000000000
40
0.0000000000
40
0.0000000000
40
0.0000000000
40
0.0000000000
40
0.1172138408
40
0.3202045595
40
0.5404815471
40
0.7821160074
40
1.0000000000
40
1.0000000000
40
1.0000000000
40
1.0000000000
10
-21.9474907164
20
-47.3668810062
30
0.0000000000
10
-22.2232136295
20
-47.2288136050
30
0.0000000000
10
-22.9435647518
20
-46.7856886059
30
0.0000000000
10
-23.9542330368
20
-45.7656326779
30
0.0000000000
10
-24.8116239331
20
-44.2267308049
30
0.0000000000
10
-25.2977647895
20
-42.4989351857
30
0.0000000000
10
-25.4146064139
20
-41.2945111679
30
0.0000000000
10
-25.4307865970
20
-40.7231881772
30
0.0000000000
11
-21.9474907164
21
-47.3668810062
31
0.0000000000
11
-22.7343033396
21
-46.8827928843
31
0.0000000000
11
-23.8654026392
21
-45.7566721720
31
0.0000000000
11
-24.7237480904
21
-44.2522997762
31
0.0000000000
11
-25.2561919441
21
-42.4284792474
31
0.0000000000
11
-25.4307865970
21
-40.7231881772
31
0.0000000000
0
SPLINE
5
2E6
100
AcDbEntity
8
0
100
AcDbSpline
62
7
6
CONTINUOUS
70
0
71
3
72
8
73
4
74
2
42
0.0000001000
43
0.0000001000
44
0.0000000001
12
-0.0102436349
22
0.3617032075
32
0.0000000000
13
0.0000000000
23
0.3615417856
33
0.0000000000
40
0.0000000000
40
0.0000000000
40
0.0000000000
40
0.0000000000
40
1.0000000000
40
1.0000000000
40
1.0000000000
40
1.0000000000
10
-25.4307865970
20
-40.7231881772
30
0.0000000000
10
-25.4342011420
20
-40.6026204414
30
0.0000000000
10
-25.4358689852
20
-40.4820421666
30
0.0000000000
10
-25.4358689852
20
-40.3615282381
30
0.0000000000
11
-25.4307865970
21
-40.7231881772
31
0.0000000000
11
-25.4358689852
21
-40.3615282381
31
0.0000000000
0
SPLINE
5
2E7
100
AcDbEntity
8
0
100
AcDbSpline
62
7
6
CONTINUOUS
70
0
71
3
72
8
73
4
74
2
42
0.0000001000
43
0.0000001000
44
0.0000000001
12
0.1742803409
22
0.0865422848
32
0.0000000000
13
0.1742850790
23
0.0865327462
33
0.0000000000
40
0.0000000000
40
0.0000000000
40
0.0000000000
40
0.0000000000
40
1.0000000000
40
1.0000000000
40
1.0000000000
40
1.0000000000
10
-10.0946545793
20
-74.9586907269
30
0.0000000000
10
-10.0365611323
20
-74.9298432986
30
0.0000000000
10
-9.9784668672
20
-74.9009975173
30
0.0000000000
10
-9.9203718409
20
-74.8721532686
30
0.0000000000
11
-10.0946545793
21
-74.9586907269
31
0.0000000000
11
-9.9203718409
21
-74.8721532686
31
0.0000000000
0
SPLINE
5
2E8
100
AcDbEntity
8
0
100
AcDbSpline
62
7
6
CONTINUOUS
70
0
71
3
72
9
73
5
74
3
42
0.0000001000
43
0.0000001000
44
0.0000000001
12
7.4151681698
22
3.6816396960
32
0.0000000000
13
7.4104305631
23
3.6911738144
33
0.0000000000
40
0.0000000000
40
0.0000000000
40
0.0000000000
40
0.0000000000
40
0.9035069314
40
1.0000000000
40
1.0000000000
40
1.0000000000
40
1.0000000000
10
-9.9203718409
20
-74.8721532686
30
0.0000000000
10
-7.6871532280
20
-73.7633576072
30
0.0000000000
10
-5.2141854392
20
-72.5386509244
30
0.0000000000
10
-2.7437935600
20
-71.3087589320
30
0.0000000000
10
-2.5054418317
20
-71.1900347026
30
0.0000000000
11
-9.9203718409
21
-74.8721532686
31
0.0000000000
11
-3.2205689303
21
-71.5460627569
31
0.0000000000
11
-2.5054418317
21
-71.1900347026
31
0.0000000000
0
SPLINE
5
2E9
100
AcDbEntity
8
0
100
AcDbSpline
62
7
6
CONTINUOUS
70
0
71
3
72
11
73
7
74
5
42
0.0000001000
43
0.0000001000
44
0.0000000001
12
0.6881579243
22
1.1751217032
32
0.0000000000
13
0.2459006062
23
1.3386325006
33
0.0000000000
40
0.0000000000
40
0.0000000000
40
0.0000000000
40
0.0000000000
40
0.0104299828
40
0.3840576751
40
0.7588493617
40
1.0000000000
40
1.0000000000
40
1.0000000000
40
1.0000000000
10
12.0049513550
20
-63.4312327724
30
0.0000000000
10
12.0073438468
20
-63.4271472727
30
0.0000000000
10
12.0950790448
20
-63.2765010705
30
0.0000000000
10
12.2422957123
20
-62.9640636587
30
0.0000000000
10
12.3795461615
20
-62.5357588015
30
0.0000000000
10
12.4401757535
20
-62.2628591886
30
0.0000000000
10
12.4599421162
20
-62.1552551613
30
0.0000000000
11
12.0049513550
21
-63.4312327724
31
0.0000000000
11
12.0120993990
21
-63.4189594574
31
0.0000000000
11
12.2317546369
21
-62.9606083923
31
0.0000000000
11
12.3888995571
21
-62.4755808421
31
0.0000000000
11
12.4599421162
21
-62.1552551613
31
0.0000000000
0
SPLINE
5
2EA
100
AcDbEntity
8
0
100
AcDbSpline
62
7
6
CONTINUOUS
70
0
71
3
72
8
73
4
74
2
42
0.0000001000
43
0.0000001000
44
0.0000000001
12
0.0038256054
22
0.0208258116
32
0.0000000000
13
0.0037263037
23
0.0208446172
33
0.0000000000
40
0.0000000000
40
0.0000000000
40
0.0000000000
40
0.0000000000
40
1.0000000000
40
1.0000000000
40
1.0000000000
40
1.0000000000
10
12.4599421162
20
-62.1552551613
30
0.0000000000
10
12.4612173180
20
-62.1483132240
30
0.0000000000
10
12.4624759923
20
-62.1413681247
30
0.0000000000
10
12.4637180935
20
-62.1344199190
30
0.0000000000
11
12.4599421162
21
-62.1552551613
31
0.0000000000
11
12.4637180935
21
-62.1344199190
31
0.0000000000
0
SPLINE
5
2EB
100
AcDbEntity
8
0
100
AcDbSpline
62
7
6
CONTINUOUS
70
0
71
3
72
10
73
6
74
4
42
0.0000001000
43
0.0000001000
44
0.0000000001
12
0.8274044596
22
0.4137022298
32
0.0000000000
13
0.8344920936
23
-0.4159325482
33
0.0000000000
40
0.0000000000
40
0.0000000000
40
0.0000000000
40
0.0000000000
40
0.4130560525
40
0.7863409613
40
1.0000000000
40
1.0000000000
40
1.0000000000
40
1.0000000000
10
9.9295205805
20
75.0792161907
30
0.0000000000
10
10.0434420538
20
75.1361769273
30
0.0000000000
10
10.2747913098
20
75.2202417652
30
0.0000000000
10
10.5907212397
20
75.2255790665
30
0.0000000000
10
10.7646882423
20
75.1651996639
30
0.0000000000
10
10.8241205018
20
75.1355770811
30
0.0000000000
11
9.9295205805
21
75.0792161907
31
0.0000000000
11
10.2912050581
21
75.2024557423
31
0.0000000000
11
10.6365140991
21
75.2007422226
31
0.0000000000
11
10.8241205018
21
75.1355770811
31
0.0000000000
0
SPLINE
5
2EC
100
AcDbEntity
8
0
100
AcDbSpline
62
7
6
CONTINUOUS
70
0
71
3
72
13
73
9
74
7
42
0.0000001000
43
0.0000001000
44
0.0000000001
12
0.0000000000
22
2.9415742072
32
0.0000000000
13
2.6310239553
23
1.3155119777
33
0.0000000000
40
0.0000000000
40
0.0000000000
40
0.0000000000
40
0.0000000000
40
0.1593252894
40
0.3345030442
40
0.5119288799
40
0.6863024154
40
0.8527282253
40
1.0000000000
40
1.0000000000
40
1.0000000000
40
1.0000000000
10
-14.1121099798
20
61.3263501029
30
0.0000000000
10
-14.1121099798
20
61.4825724902
30
0.0000000000
10
-14.0762922985
20
61.8110069876
30
0.0000000000
10
-13.9346122031
20
62.2948464808
30
0.0000000000
10
-13.7109404914
20
62.7630541665
30
0.0000000000
10
-13.4209542403
20
63.1831085288
30
0.0000000000
10
-13.0842918704
20
63.5266949016
30
0.0000000000
10
-12.8270549399
20
63.7009284305
30
0.0000000000
10
-12.6978964175
20
63.7655076917
30
0.0000000000
11
-14.1121099798
21
61.3263501029
31
0.0000000000
11
-14.0651131666
21
61.7926549475
31
0.0000000000
11
-13.9223812382
21
62.2877912943
31
0.0000000000
11
-13.6975529245
21
62.7587940487
31
0.0000000000
11
-13.4048899360
21
63.1800402051
31
0.0000000000
11
-13.0595808950
21
63.5270627658
31
0.0000000000
11
-12.6978964175
21
63.7655076917
31
0.0000000000
0
SPLINE
5
2ED
100
AcDbEntity
8
0
100
AcDbSpline
62
7
6
CONTINUOUS
70
0
71
3
72
10
73
6
74
4
42
0.0000001000
43
0.0000001000
44
0.0000000001
12
0.0017834358
22
9.3649035673
32
0.0000000000
13
-0.7583335696
23
9.3341949015
33
0.0000000000
40
0.0000000000
40
0.0000000000
40
0.0000000000
40
0.0000000000
40
0.2919457461
40
0.6448303556
40
1.0000000000
40
1.0000000000
40
1.0000000000
40
1.0000000000
10
12.9682345257
20
63.9722184380
30
0.0000000000
10
12.9684080812
20
64.8835663575
30
0.0000000000
10
12.9258941447
20
66.8965711872
30
0.0000000000
10
12.7689371174
20
70.0145134127
30
0.0000000000
10
12.6086235722
20
72.2191496587
30
0.0000000000
10
12.5188445508
20
73.3242238866
30
0.0000000000
11
12.9682345257
21
63.9722184380
31
0.0000000000
11
12.9178801644
21
66.7058302893
31
0.0000000000
11
12.7570801341
21
70.0066346946
31
0.0000000000
11
12.5188445508
21
73.3242238866
31
0.0000000000
0
SPLINE
5
2EE
100
AcDbEntity
8
0
100
AcDbSpline
62
7
6
CONTINUOUS
70
0
71
3
72
8
73
4
74
2
42
0.0000001000
43
0.0000001000
44
0.0000000001
12
-0.0066741502
22
0.0821509436
32
0.0000000000
13
-0.0067085106
23
0.0821479897
33
0.0000000000
40
0.0000000000
40
0.0000000000
40
0.0000000000
40
0.0000000000
40
1.0000000000
40
1.0000000000
40
1.0000000000
40
1.0000000000
10
12.5188445508
20
73.3242238866
30
0.0000000000
10
12.5166198341
20
73.3516075345
30
0.0000000000
10
12.5143893678
20
73.3789906904
30
0.0000000000
10
12.5121531976
20
73.4063733536
30
0.0000000000
11
12.5188445508
21
73.3242238866
31
0.0000000000
11
12.5121531976
21
73.4063733536
31
0.0000000000
0
SPLINE
5
2EF
100
AcDbEntity
8
0
100
AcDbSpline
62
7
6
CONTINUOUS
70
0
71
3
72
8
73
4
74
2
42
0.0000001000
43
0.0000001000
44
0.0000000001
12
-0.0247885563
22
0.3059055699
32
0.0000000000
13
-0.0574722034
23
0.3025316687
33
0.0000000000
40
0.0000000000
40
0.0000000000
40
0.0000000000
40
0.0000000000
40
1.0000000000
40
1.0000000000
40
1.0000000000
40
1.0000000000
10
12.5123633962
20
73.4048694238
30
0.0000000000
10
12.5041005441
20
73.5068379471
30
0.0000000000
10
12.4911356075
20
73.6084706351
30
0.0000000000
10
12.4719782063
20
73.7093145246
30
0.0000000000
11
12.5123633962
21
73.4048694238
31
0.0000000000
11
12.4719782063
21
73.7093145246
31
0.0000000000
0
SPLINE
5
2F0
100
AcDbEntity
8
0
100
AcDbSpline
62
7
6
CONTINUOUS
70
0
71
3
72
10
73
6
74
4
42
0.0000001000
43
0.0000001000
44
0.0000000001
12
-0.2028582357
22
1.0678386579
32
0.0000000000
13
-0.9805845360
23
0.4844365157
33
0.0000000000
40
0.0000000000
40
0.0000000000
40
0.0000000000
40
0.0000000000
40
0.4723458142
40
0.8776550355
40
1.0000000000
40
1.0000000000
40
1.0000000000
40
1.0000000000
10
12.4719782063
20
73.7093145246
30
0.0000000000
10
12.4400384602
20
73.8774442314
30
0.0000000000
10
12.3487091019
20
74.1857682374
30
0.0000000000
10
12.1121773887
20
74.4757460630
30
0.0000000000
10
11.9466721073
20
74.5745775078
30
0.0000000000
10
11.9066822472
20
74.5943336306
30
0.0000000000
11
12.4719782063
21
73.7093145246
31
0.0000000000
11
12.3080574785
21
74.1937285423
31
0.0000000000
11
12.0212341254
21
74.5258336147
31
0.0000000000
11
11.9066822472
21
74.5943336306
31
0.0000000000
0
SPLINE
5
2F1
100
AcDbEntity
8
0
100
AcDbSpline
62
7
6
CONTINUOUS
70
0
71
3
72
10
73
6
74
4
42
0.0000001000
43
0.0000001000
44
0.0000000001
12
0.9875355963
22
-0.4926997441
32
0.0000000000
13
1.0675488233
23
0.2774069920
33
0.0000000000
40
0.0000000000
40
0.0000000000
40
0.0000000000
40
0.0000000000
40
0.3452850624
40
0.8306905226
40
1.0000000000
40
1.0000000000
40
1.0000000000
40
1.0000000000
10
-12.5071819089
20
-75.3978770401
30
0.0000000000
10
-12.3935214789
20
-75.4545843274
30
0.0000000000
10
-12.1008916115
20
-75.5527639274
30
0.0000000000
10
-11.7279464728
20
-75.5561511056
30
0.0000000000
10
-11.4918475978
20
-75.5075060939
30
0.0000000000
10
-11.4315988867
20
-75.4918502163
30
0.0000000000
11
-12.5071819089
21
-75.3978770401
31
0.0000000000
11
-12.1472853609
21
-75.5197263506
31
0.0000000000
11
-11.6144980097
21
-75.5292639284
31
0.0000000000
11
-11.4315988867
21
-75.4918502163
31
0.0000000000
0
SPLINE
5
2F2
100
AcDbEntity
8
0
100
AcDbSpline
62
7
6
CONTINUOUS
70
0
71
3
72
8
73
4
74
2
42
0.0000001000
43
0.0000001000
44
0.0000000001
12
0.1243872597
22
0.0323225456
32
0.0000000000
13
0.1218347471
23
0.0407461893
33
0.0000000000
40
0.0000000000
40
0.0000000000
40
0.0000000000
40
0.0000000000
40
1.0000000000
40
1.0000000000
40
1.0000000000
40
1.0000000000
10
-11.4315988867
20
-75.4918502163
30
0.0000000000
10
-11.3901364668
20
-75.4810760345
30
0.0000000000
10
-11.3490560204
20
-75.4688449274
30
0.0000000000
10
-11.3084444381
20
-75.4552628643
30
0.0000000000
11
-11.4315988867
21
-75.4918502163
31
0.0000000000
11
-11.3084444381
21
-75.4552628643
31
0.0000000000
0
SPLINE
5
2F3
100
AcDbEntity
8
0
100
AcDbSpline
62
7
6
CONTINUOUS
70
0
71
3
72
8
73
4
74
2
42
0.0000001000
43
0.0000001000
44
0.0000000001
12
0.1770795125
22
0.0592463283
32
0.0000000000
13
0.1760358158
23
0.0622977922
33
0.0000000000
40
0.0000000000
40
0.0000000000
40
0.0000000000
40
0.0000000000
40
1.0000000000
40
1.0000000000
40
1.0000000000
40
1.0000000000
10
-11.3082164223
20
-75.4552373891
30
0.0000000000
10
-11.2491899181
20
-75.4354886130
30
0.0000000000
10
-11.1903289195
20
-75.4152389030
30
0.0000000000
10
-11.1316503142
20
-75.3944729723
30
0.0000000000
11
-11.3082164223
21
-75.4552373891
31
0.0000000000
11
-11.1316503142
21
-75.3944729723
31
0.0000000000
0
SPLINE
5
2F4
100
AcDbEntity
8
0
100
AcDbSpline
62
7
6
CONTINUOUS
70
0
71
3
72
8
73
4
74
2
42
0.0000001000
43
0.0000001000
44
0.0000000001
12
0.1888103433
22
0.0668186044
32
0.0000000000
13
0.1874888769
23
0.0704383586
33
0.0000000000
40
0.0000000000
40
0.0000000000
40
0.0000000000
40
0.0000000000
40
1.0000000000
40
1.0000000000
40
1.0000000000
40
1.0000000000
10
-11.1316503142
20
-75.3944729723
30
0.0000000000
10
-11.0687135331
20
-75.3722001041
30
0.0000000000
10
-11.0059865776
20
-75.3493333748
30
0.0000000000
10
-10.9434902853
20
-75.3258539219
30
0.0000000000
11
-11.1316503142
21
-75.3944729723
31
0.0000000000
11
-10.9434902853
21
-75.3258539219
31
0.0000000000
0
SPLINE
5
2F5
100
AcDbEntity
8
0
100
AcDbSpline
62
7
6
CONTINUOUS
70
0
71
3
72
9
73
5
74
3
42
0.0000001000
43
0.0000001000
44
0.0000000001
12
0.8657711948
22
0.3252646390
32
0.0000000000
13
0.8283557368
23
0.4113797825
33
0.0000000000
40
0.0000000000
40
0.0000000000
40
0.0000000000
40
0.0000000000
40
0.6320565129
40
1.0000000000
40
1.0000000000
40
1.0000000000
40
1.0000000000
10
-10.9434902853
20
-75.3258539219
30
0.0000000000
10
-10.7610848445
20
-75.2573253774
30
0.0000000000
10
-10.4756032225
20
-75.1406458156
30
0.0000000000
10
-10.1965695797
20
-75.0093032627
30
0.0000000000
10
-10.0949735470
20
-74.9588484255
30
0.0000000000
11
-10.9434902853
21
-75.3258539219
31
0.0000000000
11
-10.4027797458
21
-75.1039714255
31
0.0000000000
11
-10.0949735470
21
-74.9588484255
31
0.0000000000
0
SPLINE
5
2F6
100
AcDbEntity
8
0
100
AcDbSpline
62
7
6
CONTINUOUS
70
0
71
3
72
11
73
7
74
5
42
0.0000001000
43
0.0000001000
44
0.0000000001
12
-1.1344240437
22
0.5654264275
32
0.0000000000
13
-0.0000000000
23
1.2575523125
33
0.0000000000
40
0.0000000000
40
0.0000000000
40
0.0000000000
40
0.0000000000
40
0.0970261888
40
0.3621373076
40
0.6644803149
40
1.0000000000
40
1.0000000000
40
1.0000000000
40
1.0000000000
10
-13.5924963388
20
-74.8549178043
30
0.0000000000
10
-13.6291859526
20
-74.8366307472
30
0.0000000000
10
-13.7605845670
20
-74.7575048024
30
0.0000000000
10
-13.9494552495
20
-74.5425084373
30
0.0000000000
10
-14.0858871833
20
-74.1830582384
30
0.0000000000
10
-14.1121099798
20
-73.9142574061
30
0.0000000000
10
-14.1121099798
20
-73.7736128874
30
0.0000000000
11
-13.5924963388
21
-74.8549178043
31
0.0000000000
11
-13.6975529245
21
-74.7914997779
31
0.0000000000
11
-13.9223812382
21
-74.5453253371
31
0.0000000000
11
-14.0651131666
21
-74.1929209187
31
0.0000000000
11
-14.1121099798
21
-73.7736128874
31
0.0000000000
0
SPLINE
5
2F7
100
AcDbEntity
8
0
100
AcDbSpline
62
7
6
CONTINUOUS
70
0
71
3
72
8
73
4
74
2
42
0.0000001000
43
0.0000001000
44
0.0000000001
12
-0.0360485928
22
0.0848241414
32
0.0000000000
13
-0.0347508807
23
0.0853142356
33
0.0000000000
40
0.0000000000
40
0.0000000000
40
0.0000000000
40
0.0000000000
40
1.0000000000
40
1.0000000000
40
1.0000000000
40
1.0000000000
10
-4.1433747061
20
-54.0334762647
30
0.0000000000
10
-4.1553909037
20
-54.0052015509
30
0.0000000000
10
-4.1671891091
20
-53.9768414808
30
0.0000000000
10
-4.1787727360
20
-53.9484034023
30
0.0000000000
11
-4.1433747061
21
-54.0334762647
31
0.0000000000
11
-4.1787727360
21
-53.9484034023
31
0.0000000000
0
SPLINE
5
2F8
100
AcDbEntity
8
0
100
AcDbSpline
62
7
6
CONTINUOUS
70
0
71
3
72
10
73
6
74
4
42
0.0000001000
43
0.0000001000
44
0.0000000001
12
-1.3236183044
22
3.2378875141
32
0.0000000000
13
0.0003472847
23
3.4989641058
33
0.0000000000
40
0.0000000000
40
0.0000000000
40
0.0000000000
40
0.0000000000
40
0.2671857926
40
0.6376068136
40
1.0000000000
40
1.0000000000
40
1.0000000000
40
1.0000000000
10
-4.1794875720
20
-53.9473867430
30
0.0000000000
10
-4.2973715739
20
-53.6590142290
30
0.0000000000
10
-4.5090615113
20
-52.9415680017
30
0.0000000000
10
-4.6863655322
20
-51.7871227806
30
0.0000000000
10
-4.7245447260
20
-50.9317527596
30
0.0000000000
10
-4.7245027748
20
-50.5090858425
30
0.0000000000
11
-4.1794875720
21
-53.9473867430
31
0.0000000000
11
-4.4574657092
21
-53.0544576300
31
0.0000000000
11
-4.6643456580
21
-51.7754594066
31
0.0000000000
11
-4.7245027748
21
-50.5090858425
31
0.0000000000
0
SPLINE
5
2F9
100
AcDbEntity
8
0
100
AcDbSpline
62
7
6
CONTINUOUS
70
0
71
3
72
9
73
5
74
3
42
0.0000001000
43
0.0000001000
44
0.0000000001
12
-0.0000000000
22
71.1630739276
32
0.0000000000
13
-0.0000000000
23
71.1630739276
33
0.0000000000
40
0.0000000000
40
0.0000000000
40
0.0000000000
40
0.0000000000
40
0.6189670015
40
1.0000000000
40
1.0000000000
40
1.0000000000
40
1.0000000000
10
-4.7244709948
20
-50.5089694011
30
0.0000000000
10
-4.7244709948
20
-35.8264379053
30
0.0000000000
10
-4.7244709948
20
-12.1054132628
30
0.0000000000
10
-4.7244709948
20
11.6156113798
30
0.0000000000
10
-4.7244709948
20
20.6541045264
30
0.0000000000
11
-4.7244709948
21
-50.5089694011
31
0.0000000000
11
-4.7244709948
21
-6.4613749136
31
0.0000000000
11
-4.7244709948
21
20.6541045264
31
0.0000000000
0
SPLINE
5
2FA
100
AcDbEntity
8
0
100
AcDbSpline
62
7
6
CONTINUOUS
70
0
71
3
72
8
73
4
74
2
42
0.0000001000
43
0.0000001000
44
0.0000000001
12
0.0000000000
22
10.1723013109
32
0.0000000000
13
0.0000000000
23
10.1723013109
33
0.0000000000
40
0.0000000000
40
0.0000000000
40
0.0000000000
40
0.0000000000
40
1.0000000000
40
1.0000000000
40
1.0000000000
40
1.0000000000
10
-4.7244709948
20
20.6541045264
30
0.0000000000
10
-4.7244709948
20
24.0448716301
30
0.0000000000
10
-4.7244709948
20
27.4356387337
30
0.0000000000
10
-4.7244709948
20
30.8264058373
30
0.0000000000
11
-4.7244709948
21
20.6541045264
31
0.0000000000
11
-4.7244709948
21
30.8264058373
31
0.0000000000
0
SPLINE
5
2FB
100
AcDbEntity
8
0
100
AcDbSpline
62
7
6
CONTINUOUS
70
0
71
3
72
8
73
4
74
2
42
0.0000001000
43
0.0000001000
44
0.0000000001
12
-0.0000000000
22
6.7403185974
32
0.0000000000
13
-0.0000000000
23
6.7403185974
33
0.0000000000
40
0.0000000000
40
0.0000000000
40
0.0000000000
40
0.0000000000
40
1.0000000000
40
1.0000000000
40
1.0000000000
40
1.0000000000
10
-4.7244709948
20
30.8264058373
30
0.0000000000
10
-4.7244709948
20
33.0731787031
30
0.0000000000
10
-4.7244709948
20
35.3199515689
30
0.0000000000
10
-4.7244709948
20
37.5667244348
30
0.0000000000
11
-4.7244709948
21
30.8264058373
31
0.0000000000
11
-4.7244709948
21
37.5667244348
31
0.0000000000
0
SPLINE
5
2FC
100
AcDbEntity
8
0
100
AcDbSpline
62
7
6
CONTINUOUS
70
0
71
3
72
10
73
6
74
4
42
0.0000001000
43
0.0000001000
44
0.0000000001
12
-0.0003771812
22
4.3198582335
32
0.0000000000
13
1.1963591789
23
4.1508084919
33
0.0000000000
40
0.0000000000
40
0.0000000000
40
0.0000000000
40
0.0000000000
40
0.3300328110
40
0.7013435140
40
1.0000000000
40
1.0000000000
40
1.0000000000
40
1.0000000000
10
-4.7244880761
20
37.5670342316
30
0.0000000000
10
-4.7245295702
20
38.0422658836
30
0.0000000000
10
-4.6739821646
20
39.0527504823
30
0.0000000000
10
-4.4723647775
20
40.4798085196
30
0.0000000000
10
-4.2549045842
20
41.4216248920
30
0.0000000000
10
-4.1358044414
20
41.8348468513
30
0.0000000000
11
-4.7244880761
21
37.5670342316
31
0.0000000000
11
-4.6568382398
21
38.9911462312
31
0.0000000000
11
-4.4324114259
21
40.5791084225
31
0.0000000000
11
-4.1358044414
21
41.8348468513
31
0.0000000000
0
SPLINE
5
2FD
100
AcDbEntity
8
0
100
AcDbSpline
62
7
6
CONTINUOUS
70
0
71
3
72
17
73
13
74
11
42
0.0000001000
43
0.0000001000
44
0.0000000001
12
4.8625745676
22
16.9212962646
32
0.0000000000
13
15.8300606214
23
-7.8828281659
33
0.0000000000
40
0.0000000000
40
0.0000000000
40
0.0000000000
40
0.0000000000
40
0.1106256141
40
0.2360568259
40
0.3595708235
40
0.4782946987
40
0.5895251160
40
0.6910009151
40
0.7813298081
40
0.8622303761
40
0.9364779000
40
1.0000000000
40
1.0000000000
40
1.0000000000
40
1.0000000000
10
-4.1354945009
20
41.8349290217
30
0.0000000000
10
-3.9561860684
20
42.4589052852
30
0.0000000000
10
-3.4990535845
20
43.7700131016
30
0.0000000000
10
-2.5894803003
20
45.6784726464
30
0.0000000000
10
-1.4428059074
20
47.5115859310
30
0.0000000000
10
-0.1412522342
20
49.1328251841
30
0.0000000000
10
1.2606333094
20
50.4887774572
30
0.0000000000
10
2.7043857307
20
51.5381057713
30
0.0000000000
10
4.1421600209
20
52.2595372497
30
0.0000000000
10
5.5425523007
20
52.6423520244
30
0.0000000000
10
6.8440872450
20
52.6597006424
30
0.0000000000
10
7.6295685705
20
52.4156189418
30
0.0000000000
10
7.9647548019
20
52.2487076754
30
0.0000000000
11
-4.1354945009
21
41.8349290217
31
0.0000000000
11
-3.4969781691
21
43.6749951560
31
0.0000000000
11
-2.5473964530
21
45.6683089649
31
0.0000000000
11
-1.3923803898
21
47.5103332482
31
0.0000000000
11
-0.0800954113
21
49.1368261939
31
0.0000000000
11
1.3329830195
21
50.4921292668
31
0.0000000000
11
2.7847635022
21
51.5328282527
31
0.0000000000
11
4.2124785883
21
52.2327307196
31
0.0000000000
11
5.5909373070
21
52.5902879140
31
0.0000000000
11
6.8978966217
21
52.5864858050
31
0.0000000000
11
7.9647548019
21
52.2487076754
31
0.0000000000
0
SPLINE
5
2FE
100
AcDbEntity
8
0
100
AcDbSpline
62
7
6
CONTINUOUS
70
0
71
3
72
13
73
9
74
7
42
0.0000001000
43
0.0000001000
44
0.0000000001
12
0.9353804520
22
13.1859670315
32
0.0000000000
13
9.3976883479
23
9.2966723542
33
0.0000000000
40
0.0000000000
40
0.0000000000
40
0.0000000000
40
0.0000000000
40
0.1590267520
40
0.3255260327
40
0.4964061965
40
0.6681246370
40
0.8371122753
40
1.0000000000
40
1.0000000000
40
1.0000000000
40
1.0000000000
10
-21.7842185557
20
46.6083604352
30
0.0000000000
10
-21.7346350506
20
47.3073342717
30
0.0000000000
10
-21.5305314768
20
48.7321170641
30
0.0000000000
10
-20.9543870857
20
50.8471675326
30
0.0000000000
10
-20.1186573202
20
52.9341610658
30
0.0000000000
10
-19.0506858652
20
54.9247503353
30
0.0000000000
10
-17.7858529328
20
56.7535765298
30
0.0000000000
10
-16.8143970256
20
57.8526975831
30
0.0000000000
10
-16.3041410015
20
58.3574688521
30
0.0000000000
11
-21.7842185557
21
46.6083604352
31
0.0000000000
11
-21.4937596371
21
48.6903883286
31
0.0000000000
11
-20.9199519594
21
50.8152455302
31
0.0000000000
11
-20.0820221613
21
52.9129640828
31
0.0000000000
11
-19.0082851715
21
54.9129200063
31
0.0000000000
11
-17.7347749011
21
56.7482193867
31
0.0000000000
11
-16.3041410015
21
58.3574688521
31
0.0000000000
0
SPLINE
5
2FF
100
AcDbEntity
8
0
100
AcDbSpline
62
7
6
CONTINUOUS
70
0
71
3
72
9
73
5
74
3
42
0.0000001000
43
0.0000001000
44
0.0000000001
12
2.8794571678
22
2.8485058086
32
0.0000000000
13
3.6272582349
23
1.8140909862
33
0.0000000000
40
0.0000000000
40
0.0000000000
40
0.0000000000
40
0.0000000000
40
0.5195996827
40
1.0000000000
40
1.0000000000
40
1.0000000000
40
1.0000000000
10
-17.4355118514
20
58.9231542770
30
0.0000000000
10
-16.9367901745
20
59.4165151818
30
0.0000000000
10
-15.9130099864
20
60.3049236972
30
0.0000000000
10
-14.7636659937
20
61.0252561690
30
0.0000000000
10
-14.1828206580
20
61.3157527975
30
0.0000000000
11
-17.4355118514
21
58.9231542770
31
0.0000000000
11
-15.8389782559
21
60.2943709331
31
0.0000000000
11
-14.1828206580
21
61.3157527975
31
0.0000000000
0
SPLINE
5
300
100
AcDbEntity
8
0
100
AcDbSpline
62
7
6
CONTINUOUS
70
0
71
3
72
8
73
4
74
2
42
0.0000001000
43
0.0000001000
44
0.0000000001
12
0.0613829696
22
0.0306993008
32
0.0000000000
13
0.0615960011
23
0.0302820427
33
0.0000000000
40
0.0000000000
40
0.0000000000
40
0.0000000000
40
0.0000000000
40
1.0000000000
40
1.0000000000
40
1.0000000000
40
1.0000000000
10
-14.1828206580
20
61.3157527975
30
0.0000000000
10
-14.1623596681
20
61.3259858978
30
0.0000000000
10
-14.1418630647
20
61.3361500652
30
0.0000000000
10
-14.1213310643
20
61.3462440794
30
0.0000000000
11
-14.1828206580
21
61.3157527975
31
0.0000000000
11
-14.1213310643
21
61.3462440794
31
0.0000000000
0
SPLINE
5
301
100
AcDbEntity
8
0
100
AcDbSpline
62
7
6
CONTINUOUS
70
0
71
3
72
12
73
8
74
6
42
0.0000001000
43
0.0000001000
44
0.0000000001
12
-6.1682252410
22
3.0808195493
32
0.0000000000
13
-0.5230596074
23
6.8504606795
33
0.0000000000
40
0.0000000000
40
0.0000000000
40
0.0000000000
40
0.0000000000
40
0.0684996219
40
0.2748957707
40
0.4951170346
40
0.7358288431
40
1.0000000000
40
1.0000000000
40
1.0000000000
40
1.0000000000
10
-18.5972719413
20
38.9209492074
30
0.0000000000
10
-18.7381123068
20
38.9912941988
30
0.0000000000
10
-19.2889564603
20
39.3019940709
30
0.0000000000
10
-20.1549007686
20
40.0592011448
30
0.0000000000
10
-20.9965809628
20
41.3545254949
30
0.0000000000
10
-21.5611414345
20
42.9288047000
30
0.0000000000
10
-21.7381594685
20
44.0783441741
30
0.0000000000
10
-21.7842185557
20
44.6815755484
30
0.0000000000
11
-18.5972719413
21
38.9209492074
31
0.0000000000
11
-19.0082851715
21
39.1529493616
31
0.0000000000
11
-20.0820221613
21
40.0791682953
31
0.0000000000
11
-20.9199519594
21
41.3389570498
31
0.0000000000
11
-21.4937596371
21
42.8900065737
31
0.0000000000
11
-21.7842185557
21
44.6815755484
31
0.0000000000
0
SPLINE
5
302
100
AcDbEntity
8
0
100
AcDbSpline
62
9
6
CONTINUOUS
70
0
71
3
72
12
73
8
74
6
42
0.0000001000
43
0.0000001000
44
0.0000000001
12
-6.9612119246
22
3.4839477848
32
0.0000000000
13
0.0000000012
23
7.7493861556
33
0.0000000000
40
0.0000000000
40
0.0000000000
40
0.0000000000
40
0.0000000000
40
0.0973223926
40
0.2941511549
40
0.5071664244
40
0.7418604492
40
1.0000000000
40
1.0000000000
40
1.0000000000
40
1.0000000000
10
-21.9473872851
20
-47.3666741939
30
0.0000000000
10
-22.1732145518
20
-47.2536521492
30
0.0000000000
10
-22.8281698131
20
-46.8568639095
30
0.0000000000
10
-23.7638226158
20
-45.9107532665
30
0.0000000000
10
-24.5656825872
20
-44.4306988634
30
0.0000000000
10
-25.0461218161
20
-42.6586047274
30
0.0000000000
10
-25.1429757664
20
-41.3818893157
30
0.0000000000
10
-25.1429757663
20
-40.7150816287
30
0.0000000000
11
-21.9473872851
21
-47.3666741939
31
0.0000000000
11
-22.5943177997
21
-46.9744575621
31
0.0000000000
11
-23.6771705677
21
-45.9002246566
31
0.0000000000
11
-24.4816085154
21
-44.4587621533
31
0.0000000000
11
-24.9760549894
21
-42.7085283619
31
0.0000000000
11
-25.1429757663
21
-40.7150816287
31
0.0000000000
0
SPLINE
5
303
100
AcDbEntity
8
0
100
AcDbSpline
62
9
6
CONTINUOUS
70
0
71
3
72
10
73
6
74
4
42
0.0000001000
43
0.0000001000
44
0.0000000001
12
0.0008971345
22
9.4064649071
32
0.0000000000
13
-0.7656163547
23
9.3752554339
33
0.0000000000
40
0.0000000000
40
0.0000000000
40
0.0000000000
40
0.0000000000
40
0.2976066819
40
0.6302261989
40
1.0000000000
40
1.0000000000
40
1.0000000000
40
1.0000000000
10
-12.6342650970
20
51.4212126351
30
0.0000000000
10
-12.6341760992
20
52.3543549050
30
0.0000000000
10
-12.6766550680
20
54.3304562168
30
0.0000000000
10
-12.8342096739
20
57.4622378978
30
0.0000000000
10
-12.9941133615
20
59.6589613260
30
0.0000000000
10
-13.0884816514
20
60.8145359387
30
0.0000000000
11
-12.6342650970
21
51.4212126351
31
0.0000000000
11
-12.6869647290
21
54.2201433742
31
0.0000000000
11
-12.8393976107
21
57.3452017552
31
0.0000000000
11
-13.0884816514
21
60.8145359387
31
0.0000000000
0
SPLINE
5
304
100
AcDbEntity
8
0
100
AcDbSpline
62
9
6
CONTINUOUS
70
0
71
3
72
9
73
5
74
3
42
0.0000001000
43
0.0000001000
44
0.0000000001
12
0.0000000000
22
-0.4734017584
32
0.0000000000
13
0.4263488306
23
-0.2131744153
33
0.0000000000
40
0.0000000000
40
0.0000000000
40
0.0000000000
40
0.0000000000
40
0.4320096608
40
1.0000000000
40
1.0000000000
40
1.0000000000
40
1.0000000000
10
-25.4358689852
20
-40.3615282381
30
0.0000000000
10
-25.4358689852
20
-40.4296996158
30
0.0000000000
10
-25.3614484803
20
-40.5875002019
30
0.0000000000
10
-25.2236964386
20
-40.6747212925
30
0.0000000000
10
-25.1429757663
20
-40.7150816287
30
0.0000000000
11
-25.4358689852
21
-40.3615282381
31
0.0000000000
11
-25.3597485177
21
-40.5528699543
31
0.0000000000
11
-25.1429757663
21
-40.7150816287
31
0.0000000000
0
SPLINE
5
305
100
AcDbEntity
8
0
100
AcDbSpline
62
9
6
CONTINUOUS
70
0
71
3
72
8
73
4
74
2
42
0.0000001000
43
0.0000001000
44
0.0000000001
12
0.0060769009
22
-0.0883313060
32
0.0000000000
13
-0.0557511847
23
-0.0695142701
33
0.0000000000
40
0.0000000000
40
0.0000000000
40
0.0000000000
40
0.0000000000
40
1.0000000000
40
1.0000000000
40
1.0000000000
40
1.0000000000
10
12.5122624870
20
73.4048612648
30
0.0000000000
10
12.5142881206
20
73.3754174961
30
0.0000000000
10
12.5001537357
20
73.3444498588
30
0.0000000000
10
12.4815700075
20
73.3212784354
30
0.0000000000
11
12.5122624870
21
73.4048612648
31
0.0000000000
11
12.4815700075
21
73.3212784354
31
0.0000000000
0
SPLINE
5
306
100
AcDbEntity
8
0
100
AcDbSpline
62
9
6
CONTINUOUS
70
0
71
3
72
10
73
6
74
4
42
0.0000001000
43
0.0000001000
44
0.0000000001
12
-0.0000005150
22
86.8578749985
32
0.0000000000
13
-0.0000000000
23
86.8578749985
33
0.0000000000
40
0.0000000000
40
0.0000000000
40
0.0000000000
40
0.0000000000
40
0.3239451760
40
0.6619600736
40
1.0000000000
40
1.0000000000
40
1.0000000000
40
1.0000000000
10
12.9036765998
20
-40.4813354159
30
0.0000000000
10
12.9036765442
20
-31.1022722149
30
0.0000000000
10
12.9036751649
20
-11.9367904381
30
0.0000000000
10
12.9036756027
20
17.0158345614
30
0.0000000000
10
12.9036758637
20
36.5893963598
30
0.0000000000
10
12.9036758637
20
46.3765395826
30
0.0000000000
11
12.9036765998
21
-40.4813354159
31
0.0000000000
11
12.9036755940
21
-12.3441458129
31
0.0000000000
11
12.9036755940
21
17.0151099144
31
0.0000000000
11
12.9036758637
21
46.3765395826
31
0.0000000000
0
SPLINE
5
307
100
AcDbEntity
8
0
100
AcDbSpline
62
9
6
CONTINUOUS
70
0
71
3
72
20
73
16
74
14
42
0.0000001000
43
0.0000001000
44
0.0000000001
12
-0.0534357074
22
-17.5934014046
32
0.0000000000
13
-0.0901282111
23
-17.5932516967
33
0.0000000000
40
0.0000000000
40
0.0000000000
40
0.0000000000
40
0.0000000000
40
0.1106821449
40
0.2145297715
40
0.3119639392
40
0.4034999192
40
0.4896426612
40
0.5705660255
40
0.6460383765
40
0.7159216614
40
0.7807127738
40
0.8413364591
40
0.8983554922
40
0.9516124275
40
1.0000000000
40
1.0000000000
40
1.0000000000
40
1.0000000000
10
12.9680005080
20
63.9699020411
30
0.0000000000
10
12.9660290484
20
63.3208102402
30
0.0000000000
10
12.9621669809
20
62.0627075697
30
0.0000000000
10
12.9564102893
20
60.2332059177
30
0.0000000000
10
12.9508640087
20
58.5159867371
30
0.0000000000
10
12.9455053350
20
56.9025976919
30
0.0000000000
10
12.9403150307
20
55.3860361394
30
0.0000000000
10
12.9352874123
20
53.9636796496
30
0.0000000000
10
12.9304301988
20
52.6366766542
30
0.0000000000
10
12.9257454992
20
51.4042811704
30
0.0000000000
10
12.9212081617
20
50.2589656826
30
0.0000000000
10
12.9167704655
20
49.1890927393
30
0.0000000000
10
12.9123916170
20
48.1868622690
30
0.0000000000
10
12.9080736307
20
47.2563908634
30
0.0000000000
10
12.9051295588
20
46.6603044964
30
0.0000000000
10
12.9036758637
20
46.3765395826
30
0.0000000000
11
12.9680005080
21
63.9699020411
31
0.0000000000
11
12.9620182121
21
62.0226268459
31
0.0000000000
11
12.9562657952
21
60.1955944948
31
0.0000000000
11
12.9507253118
21
58.4813971186
31
0.0000000000
11
12.9453723429
21
56.8709693468
31
0.0000000000
11
12.9401810242
21
55.3554274106
31
0.0000000000
11
12.9351435814
21
53.9317125239
31
0.0000000000
11
12.9302778215
21
52.6038999490
31
0.0000000000
11
12.9255978815
21
51.3744185019
31
0.0000000000
11
12.9210747862
21
50.2345261702
31
0.0000000000
11
12.9166422517
21
49.1679536311
31
0.0000000000
11
12.9122482760
21
48.1647998898
31
0.0000000000
11
12.9078922895
21
47.2278350529
31
0.0000000000
11
12.9036758637
21
46.3765395826
31
0.0000000000
0
SPLINE
5
308
100
AcDbEntity
8
0
100
AcDbSpline
62
9
6
CONTINUOUS
70
0
71
3
72
21
73
17
74
15
42
0.0000001000
43
0.0000001000
44
0.0000000001
12
-8.9987582682
22
12.9311568535
32
0.0000000000
13
-5.3741671850
23
14.8091456542
33
0.0000000000
40
0.0000000000
40
0.0000000000
40
0.0000000000
40
0.0000000000
40
0.0573575702
40
0.1172955003
40
0.1798591509
40
0.2426113215
40
0.3045340313
40
0.3665680853
40
0.4298682786
40
0.4955324135
40
0.5646478076
40
0.6382977854
40
0.7175631330
40
0.8035254382
40
0.8972732512
40
1.0000000000
40
1.0000000000
40
1.0000000000
40
1.0000000000
10
-5.7789449634
20
37.0351400284
30
0.0000000000
10
-5.9509939331
20
37.2823732741
30
0.0000000000
10
-6.2921155309
20
37.7955439745
30
0.0000000000
10
-6.7791641486
20
38.6050815020
30
0.0000000000
10
-7.2515772905
20
39.4556885925
30
0.0000000000
10
-7.7050872764
20
40.3282257084
30
0.0000000000
10
-8.1383869401
20
41.2078317281
30
0.0000000000
10
-8.5573547090
20
42.0975166094
30
0.0000000000
10
-8.9710882926
20
43.0112486276
30
0.0000000000
10
-9.3877016763
20
43.9643937161
30
0.0000000000
10
-9.8141997181
20
44.9724469406
30
0.0000000000
10
-10.2568309716
20
46.0511523094
30
0.0000000000
10
-10.7212495614
20
47.2164744282
30
0.0000000000
10
-11.2126401779
20
48.4845940241
30
0.0000000000
10
-11.7359912189
20
49.8723933553
30
0.0000000000
10
-12.0917380007
20
50.8409002930
30
0.0000000000
10
-12.2757615749
20
51.3479987550
30
0.0000000000
11
-5.7789449634
21
37.0351400284
31
0.0000000000
11
-6.2789938505
21
37.7877868529
31
0.0000000000
11
-6.7674244086
21
38.5959209975
31
0.0000000000
11
-7.2470988344
21
39.4569610543
31
0.0000000000
11
-7.7038944042
21
40.3337043304
31
0.0000000000
11
-8.1355509183
21
41.2085456373
31
0.0000000000
11
-8.5523347643
21
42.0925090978
31
0.0000000000
11
-8.9640132608
21
43.0008079526
31
0.0000000000
11
-9.3786187851
21
43.9485701764
31
0.0000000000
11
-9.8031579219
21
44.9512498263
31
0.0000000000
11
-10.2438844356
21
46.0245789076
31
0.0000000000
11
-10.7064526243
21
47.1845025205
31
0.0000000000
11
-11.1960396204
21
48.4471692457
31
0.0000000000
11
-11.7174597380
21
49.8289790733
31
0.0000000000
11
-12.2757615749
21
51.3479987550
31
0.0000000000
0
SPLINE
5
309
100
AcDbEntity
8
0
100
AcDbSpline
62
9
6
CONTINUOUS
70
0
71
3
72
9
73
5
74
3
42
0.0000001000
43
0.0000001000
44
0.0000000001
12
0.2284878966
22
0.0876812861
32
0.0000000000
13
0.0256527348
23
0.2393843734
33
0.0000000000
40
0.0000000000
40
0.0000000000
40
0.0000000000
40
0.0000000000
40
0.3417446923
40
1.0000000000
40
1.0000000000
40
1.0000000000
40
1.0000000000
10
-11.3088292772
20
-75.4536341364
30
0.0000000000
10
-11.2828011019
20
-75.4436459316
30
0.0000000000
10
-11.2130550795
20
-75.3894092237
30
0.0000000000
10
-11.1976769360
20
-75.3050062331
30
0.0000000000
10
-11.1920482531
20
-75.2524808884
30
0.0000000000
11
-11.3088292772
21
-75.4536341364
31
0.0000000000
11
-11.2414800298
21
-75.4030526144
31
0.0000000000
11
-11.1920482531
21
-75.2524808884
31
0.0000000000
0
SPLINE
5
30A
100
AcDbEntity
8
0
100
AcDbSpline
62
9
6
CONTINUOUS
70
0
71
3
72
10
73
6
74
4
42
0.0000001000
43
0.0000001000
44
0.0000000001
12
0.0000000000
22
-88.0775340193
32
0.0000000000
13
0.0000000000
23
-88.0775340193
33
0.0000000000
40
0.0000000000
40
0.0000000000
40
0.0000000000
40
0.0000000000
40
0.3333033528
40
0.6666366710
40
1.0000000000
40
1.0000000000
40
1.0000000000
40
1.0000000000
10
-5.7789449634
20
37.0351400284
30
0.0000000000
10
-5.7789449634
20
27.2496275632
30
0.0000000000
10
-5.7789487100
20
7.6777228740
30
0.0000000000
10
-5.7789361010
20
-21.6814551325
30
0.0000000000
10
-5.7789659808
20
-41.2551206738
30
0.0000000000
10
-5.7789659808
20
-51.0423939910
30
0.0000000000
11
-5.7789449634
21
37.0351400284
31
0.0000000000
11
-5.7789456721
21
7.6786026330
31
0.0000000000
11
-5.7789456721
21
-21.6805740395
31
0.0000000000
11
-5.7789659808
21
-51.0423939910
31
0.0000000000
0
SPLINE
5
30B
100
AcDbEntity
8
0
100
AcDbSpline
62
9
6
CONTINUOUS
70
0
71
3
72
20
73
16
74
14
42
0.0000001000
43
0.0000001000
44
0.0000000001
12
5.3769996380
22
14.8699878078
32
0.0000000000
13
8.9955965020
23
13.0041495718
33
0.0000000000
40
0.0000000000
40
0.0000000000
40
0.0000000000
40
0.0000000000
40
0.1116077002
40
0.2161656669
40
0.3140829326
40
0.4059060609
40
0.4921290095
40
0.5728746472
40
0.6479336562
40
0.7173106065
40
0.7816489933
40
0.8418975733
40
0.8985830929
40
0.9516187714
40
1.0000000000
40
1.0000000000
40
1.0000000000
40
1.0000000000
10
-12.2757619741
20
-65.4195493528
30
0.0000000000
10
-12.0757237863
20
-64.8663476390
30
0.0000000000
10
-11.6837876084
20
-63.7965039505
30
0.0000000000
10
-11.0995122581
20
-62.2475531121
30
0.0000000000
10
-10.5368962101
20
-60.8019696875
30
0.0000000000
10
-9.9937771062
20
-59.4525977816
30
0.0000000000
10
-9.4684023821
20
-58.1937606204
30
0.0000000000
10
-8.9604604349
20
-57.0235250348
30
0.0000000000
10
-8.4707213723
20
-55.9423364390
30
0.0000000000
10
-7.9989602929
20
-54.9481201666
30
0.0000000000
10
-7.5421150002
20
-54.0334464371
30
0.0000000000
10
-7.0952964696
20
-53.1888012731
30
0.0000000000
10
-6.6543223517
20
-52.4088204322
30
0.0000000000
10
-6.2202456820
20
-51.6972632185
30
0.0000000000
10
-5.9240386510
20
-51.2521129019
30
0.0000000000
10
-5.7789659808
20
-51.0423939910
30
0.0000000000
11
-12.2757619741
21
-65.4195493528
31
0.0000000000
11
-11.6682897561
21
-63.7626232172
31
0.0000000000
11
-11.0843802338
21
-62.2158668950
31
0.0000000000
11
-10.5223977767
21
-60.7731617073
31
0.0000000000
11
-9.9798183797
21
-59.4264171187
31
0.0000000000
11
-9.4542289315
21
-58.1684155147
31
0.0000000000
11
-8.9453385695
21
-56.9974407161
31
0.0000000000
11
-8.4550556995
21
-55.9165855483
31
0.0000000000
11
-7.9841321520
21
-54.9257983470
31
0.0000000000
11
-7.5288411113
21
-54.0160260019
31
0.0000000000
11
-7.0824930879
21
-53.1743904922
31
0.0000000000
11
-6.6404276403
21
-52.3946583113
31
0.0000000000
11
-6.2026090494
21
-51.6794022025
31
0.0000000000
11
-5.7789659808
21
-51.0423939910
31
0.0000000000
0
SPLINE
5
30C
100
AcDbEntity
8
0
100
AcDbSpline
62
9
6
CONTINUOUS
70
0
71
3
72
12
73
8
74
6
42
0.0000001000
43
0.0000001000
44
0.0000000001
12
14.7400224331
22
7.4039069765
32
0.0000000000
13
14.7695995974
23
7.3447292663
33
0.0000000000
40
0.0000000000
40
0.0000000000
40
0.0000000000
40
0.0000000000
40
0.2083589627
40
0.4355068537
40
0.6824620803
40
0.9420418442
40
1.0000000000
40
1.0000000000
40
1.0000000000
40
1.0000000000
10
-9.9716860206
20
63.0966842983
30
0.0000000000
10
-8.9479474259
20
63.6109077575
30
0.0000000000
10
-6.8084986314
20
64.6864117735
30
0.0000000000
10
-3.4564586188
20
66.3729515674
30
0.0000000000
10
0.1490785612
20
68.1822646191
30
0.0000000000
10
2.9268951315
20
69.5668904849
30
0.0000000000
10
4.4901169503
20
70.3444632326
30
0.0000000000
10
4.7754565353
20
70.4863588870
30
0.0000000000
11
-9.9716860206
21
63.0966842983
31
0.0000000000
11
-6.9008861175
21
64.6401823517
31
0.0000000000
11
-3.5534617489
21
66.3234378984
31
0.0000000000
11
0.0878330269
21
68.1495418773
31
0.0000000000
11
3.9194888802
21
70.0605690397
31
0.0000000000
11
4.7754565353
21
70.4863588870
31
0.0000000000
0
SPLINE
5
30D
100
AcDbEntity
8
0
100
AcDbSpline
62
9
6
CONTINUOUS
70
0
71
3
72
9
73
5
74
3
42
0.0000001000
43
0.0000001000
44
0.0000000001
12
5.7929585348
22
2.8807627322
32
0.0000000000
13
5.7920300169
23
2.8826286003
33
0.0000000000
40
0.0000000000
40
0.0000000000
40
0.0000000000
40
0.0000000000
40
0.4618609647
40
1.0000000000
40
1.0000000000
40
1.0000000000
40
1.0000000000
10
4.7754565353
20
70.4863588870
30
0.0000000000
10
5.6673036744
20
70.9298628385
30
0.0000000000
10
7.5986018930
20
71.8894888323
30
0.0000000000
10
9.5295963029
20
72.8497267181
30
0.0000000000
10
10.5685687848
20
73.3668117094
30
0.0000000000
11
4.7754565353
21
70.4863588870
31
0.0000000000
11
7.4512213840
21
71.8164209391
31
0.0000000000
11
10.5685687848
21
73.3668117094
31
0.0000000000
0
SPLINE
5
30E
100
AcDbEntity
8
0
100
AcDbSpline
62
9
6
CONTINUOUS
70
0
71
3
72
15
73
11
74
9
42
0.0000001000
43
0.0000001000
44
0.0000000001
12
-1.1890624008
22
0.5984717572
32
0.0000000000
13
0.0874039193
23
1.3254675229
33
0.0000000000
40
0.0000000000
40
0.0000000000
40
0.0000000000
40
0.0000000000
40
0.0841659347
40
0.2437383119
40
0.3908877412
40
0.5278636023
40
0.6561963244
40
0.7770448197
40
0.8909447817
40
1.0000000000
40
1.0000000000
40
1.0000000000
40
1.0000000000
10
-12.5099621900
20
-75.3965212917
30
0.0000000000
10
-12.5433217061
20
-75.3797309801
30
0.0000000000
10
-12.6373055009
20
-75.3259315761
30
0.0000000000
10
-12.7729076861
20
-75.2163154698
30
0.0000000000
10
-12.8985943045
20
-75.0637596883
30
0.0000000000
10
-12.9878902887
20
-74.9034425738
30
0.0000000000
10
-13.0465260426
20
-74.7421558891
30
0.0000000000
10
-13.0800256628
20
-74.5844538618
30
0.0000000000
10
-13.0934429955
20
-74.4325039674
30
0.0000000000
10
-13.0916587278
20
-74.3336102057
30
0.0000000000
10
-13.0884814433
20
-74.2854271557
30
0.0000000000
11
-12.5099621900
21
-75.3965212917
31
0.0000000000
11
-12.6071049845
21
-75.3408405769
31
0.0000000000
11
-12.7719342777
21
-75.2075684287
31
0.0000000000
11
-12.8963874107
21
-75.0568430694
31
0.0000000000
11
-12.9851893122
21
-74.8980333693
31
0.0000000000
11
-13.0437246563
21
-74.7379279957
31
0.0000000000
11
-13.0773546410
21
-74.5809615412
31
0.0000000000
11
-13.0908955705
21
-74.4302701224
31
0.0000000000
11
-13.0884814433
21
-74.2854271557
31
0.0000000000
0
SPLINE
5
30F
100
AcDbEntity
8
0
100
AcDbSpline
62
9
6
CONTINUOUS
70
0
71
3
72
19
73
15
74
13
42
0.0000001000
43
0.0000001000
44
0.0000000001
12
1.0509355962
22
-23.0677754144
32
0.0000000000
13
2.1815272821
23
-22.9884246288
33
0.0000000000
40
0.0000000000
40
0.0000000000
40
0.0000000000
40
0.0000000000
40
0.1216724341
40
0.2343406357
40
0.3388263980
40
0.4360101654
40
0.5264155697
40
0.6103666581
40
0.6882663384
40
0.7606409557
40
0.8279988074
40
0.8904348991
40
0.9476863696
40
1.0000000000
40
1.0000000000
40
1.0000000000
40
1.0000000000
10
10.5685687848
20
73.3668117094
30
0.0000000000
10
10.6111920822
20
72.4312409147
30
0.0000000000
10
10.6985623871
20
70.6295698254
30
0.0000000000
10
10.8411200583
20
68.0254265667
30
0.0000000000
10
10.9883971536
20
65.6103664397
30
0.0000000000
10
11.1388846139
20
63.3672262443
30
0.0000000000
10
11.2909205814
20
61.2826430756
30
0.0000000000
10
11.4426721713
20
59.3468986400
30
0.0000000000
10
11.5924357209
20
57.5502356052
30
0.0000000000
10
11.7388197814
20
55.8814736441
30
0.0000000000
10
11.8804370991
20
54.3317895780
30
0.0000000000
10
12.0154432777
20
52.8983998234
30
0.0000000000
10
12.1418328729
20
51.5805130386
30
0.0000000000
10
12.2223727405
20
50.7410192034
30
0.0000000000
10
12.2604139445
20
50.3401498866
30
0.0000000000
11
10.5685687848
21
73.3668117094
31
0.0000000000
11
10.7049458119
21
70.5604998195
31
0.0000000000
11
10.8473564912
21
67.9626997459
31
0.0000000000
11
10.9943466857
21
65.5544272423
31
0.0000000000
11
11.1446259163
21
63.3153259843
31
0.0000000000
11
11.2964879332
21
61.2332421486
31
0.0000000000
11
11.4479595185
21
59.3005953024
31
0.0000000000
11
11.5973100169
21
57.5079697762
31
0.0000000000
11
11.7432389081
21
55.8430998695
31
0.0000000000
11
11.8846290184
21
54.2941320648
31
0.0000000000
11
12.0196100112
21
52.8587089507
31
0.0000000000
11
12.1454693269
21
51.5426796434
31
0.0000000000
11
12.2604139445
21
50.3401498866
31
0.0000000000
0
SPLINE
5
310
100
AcDbEntity
8
0
100
AcDbSpline
62
9
6
CONTINUOUS
70
0
71
3
72
20
73
16
74
14
42
0.0000001000
43
0.0000001000
44
0.0000000001
12
-9.5812505882
22
22.6609319675
32
0.0000000000
13
-7.4114921652
23
-23.4603491951
33
0.0000000000
40
0.0000000000
40
0.0000000000
40
0.0000000000
40
0.0000000000
40
0.0639183912
40
0.1242745440
40
0.1826138533
40
0.2422385568
40
0.3060267708
40
0.3756010076
40
0.4516175652
40
0.5344590872
40
0.6230745832
40
0.7156193502
40
0.8104190783
40
0.9061297814
40
1.0000000000
40
1.0000000000
40
1.0000000000
40
1.0000000000
10
12.2604139445
20
50.3401498866
30
0.0000000000
10
12.0562745702
20
50.8229666579
30
0.0000000000
10
11.5608867977
20
51.7254796022
30
0.0000000000
10
10.5238003769
20
52.8313580511
30
0.0000000000
10
9.2383930462
20
53.5741513544
30
0.0000000000
10
7.7652871502
20
53.9117751213
30
0.0000000000
10
6.1675321753
20
53.8346401271
30
0.0000000000
10
4.5048306794
20
53.3577465614
30
0.0000000000
10
2.8271532557
20
52.5029084191
30
0.0000000000
10
1.1832689436
20
51.3001376841
30
0.0000000000
10
-0.3771555252
20
49.7905878904
30
0.0000000000
10
-1.8030012344
20
48.0264733664
30
0.0000000000
10
-3.0532396202
20
46.0649879074
30
0.0000000000
10
-4.0899421924
20
43.9711469416
30
0.0000000000
10
-4.6332258183
20
42.5110565746
30
0.0000000000
10
-4.8651319483
20
41.7769805386
30
0.0000000000
11
12.2604139445
21
50.3401498866
31
0.0000000000
11
11.4910327832
21
51.7116880370
31
0.0000000000
11
10.4654109077
21
52.7855559816
31
0.0000000000
11
9.2217902187
21
53.5022099793
31
0.0000000000
11
7.7940186607
21
53.8390160132
31
0.0000000000
11
6.2257465327
21
53.7796552873
31
0.0000000000
11
4.5758321488
21
53.3237273029
31
0.0000000000
11
2.9028003896
21
52.4877809775
31
0.0000000000
11
1.2509227571
21
51.2938679732
31
0.0000000000
11
-0.3216895496
21
49.7838095382
31
0.0000000000
11
-1.7570675036
21
48.0163372263
31
0.0000000000
11
-3.0128233275
21
46.0508690915
31
0.0000000000
11
-4.0589733501
21
43.9412219837
31
0.0000000000
11
-4.8651319483
21
41.7769805386
31
0.0000000000
0
SPLINE
5
311
100
AcDbEntity
8
0
100
AcDbSpline
62
9
6
CONTINUOUS
70
0
71
3
72
21
73
17
74
15
42
0.0000001000
43
0.0000001000
44
0.0000000001
12
-4.6277442777
22
21.4314246859
32
0.0000000000
13
-5.5959198339
23
21.1992373066
33
0.0000000000
40
0.0000000000
40
0.0000000000
40
0.0000000000
40
0.0000000000
40
0.0464185398
40
0.0931644417
40
0.1411718454
40
0.1912836328
40
0.2443635117
40
0.3012808986
40
0.3629076822
40
0.4301179001
40
0.5037885022
40
0.5848000616
40
0.6740366530
40
0.7723841983
40
0.8807276290
40
1.0000000000
40
1.0000000000
40
1.0000000000
40
1.0000000000
10
-4.8651319483
20
41.7769805386
30
0.0000000000
10
-4.9367363255
20
42.1085856850
30
0.0000000000
10
-5.0783717444
20
42.7745814500
30
0.0000000000
10
-5.2936600473
20
43.7836181268
30
0.0000000000
10
-5.5165063623
20
44.8186415541
30
0.0000000000
10
-5.7524444537
20
45.8981940114
30
0.0000000000
10
-6.0063195164
20
47.0404747433
30
0.0000000000
10
-6.2831728307
20
48.2638499060
30
0.0000000000
10
-6.5881848958
20
49.5867241865
30
0.0000000000
10
-6.9267634136
20
51.0274989221
30
0.0000000000
10
-7.3045457652
20
52.6045781541
30
0.0000000000
10
-7.7273942066
20
54.3363782006
30
0.0000000000
10
-8.2013584645
20
56.2413272279
30
0.0000000000
10
-8.7326105727
20
58.3378461521
30
0.0000000000
10
-9.3274447110
20
60.6446849442
30
0.0000000000
10
-9.7492064785
20
62.2538565328
30
0.0000000000
10
-9.9716860206
20
63.0966842983
30
0.0000000000
11
-4.8651319483
21
41.7769805386
31
0.0000000000
11
-5.0779835837
21
42.7722175059
31
0.0000000000
11
-5.2920428198
21
43.7745360127
31
0.0000000000
11
-5.5137893301
21
44.8034935595
31
0.0000000000
11
-5.7484259501
21
45.8768669709
31
0.0000000000
11
-6.0009389979
21
47.0129385468
31
0.0000000000
11
-6.2763651550
21
48.2301000145
31
0.0000000000
11
-6.5798985369
21
49.5467558123
31
0.0000000000
11
-6.9169438344
21
50.9813025150
31
0.0000000000
11
-7.2931356637
21
52.5521398114
31
0.0000000000
11
-7.7143320946
21
54.2776863219
31
0.0000000000
11
-8.1865806468
21
56.1763837165
31
0.0000000000
11
-8.7160528756
21
58.2666749352
31
0.0000000000
11
-9.3089504265
21
60.5669642283
31
0.0000000000
11
-9.9716860206
21
63.0966842983
31
0.0000000000
0
SPLINE
5
312
100
AcDbEntity
8
0
100
AcDbSpline
62
9
6
CONTINUOUS
70
0
71
3
72
10
73
6
74
4
42
0.0000001000
43
0.0000001000
44
0.0000000001
12
-7.3963369531
22
-3.6604546059
32
0.0000000000
13
-7.4034354142
23
-3.6460454546
33
0.0000000000
40
0.0000000000
40
0.0000000000
40
0.0000000000
40
0.0000000000
40
0.1034811575
40
0.5794299106
40
1.0000000000
40
1.0000000000
40
1.0000000000
40
1.0000000000
10
-2.5680132748
20
-71.1232187070
30
0.0000000000
10
-2.8231404445
20
-71.2494814002
30
0.0000000000
10
-4.2520049138
20
-71.9558437579
30
0.0000000000
10
-6.7206396646
20
-73.1695199583
30
0.0000000000
10
-8.9337982518
20
-74.2576424894
30
0.0000000000
10
-9.9716860831
20
-74.7687817103
30
0.0000000000
11
-2.5680132748
21
-71.1232187070
31
0.0000000000
11
-3.3335550535
21
-71.5016822060
31
0.0000000000
11
-6.8573440084
21
-73.2367427018
31
0.0000000000
11
-9.9716860831
21
-74.7687817103
31
0.0000000000
0
SPLINE
5
313
100
AcDbEntity
8
0
100
AcDbSpline
62
9
6
CONTINUOUS
70
0
71
3
72
19
73
15
74
13
42
0.0000001000
43
0.0000001000
44
0.0000000001
12
5.4322185582
22
19.5414355220
32
0.0000000000
13
4.7277933307
23
19.7237083467
33
0.0000000000
40
0.0000000000
40
0.0000000000
40
0.0000000000
40
0.0000000000
40
0.1234573148
40
0.2373158668
40
0.3424997012
40
0.4400242828
40
0.5305174172
40
0.6143200399
40
0.6918634452
40
0.7637387541
40
0.8304606632
40
0.8920996235
40
0.9484805087
40
1.0000000000
40
1.0000000000
40
1.0000000000
40
1.0000000000
10
-9.9716860831
20
-74.7687817103
30
0.0000000000
10
-9.7481370442
20
-73.9646039912
30
0.0000000000
10
-9.3199372237
20
-72.4183504465
30
0.0000000000
10
-8.7074498411
20
-70.1852455455
30
0.0000000000
10
-8.1472707494
20
-68.1196034655
30
0.0000000000
10
-7.6347102519
20
-66.2047330130
30
0.0000000000
10
-7.1660350037
20
-64.4277711154
30
0.0000000000
10
-6.7384201536
20
-62.7797018619
30
0.0000000000
10
-6.3489780541
20
-61.2517824812
30
0.0000000000
10
-5.9944113887
20
-59.8341606422
30
0.0000000000
10
-5.6718689821
20
-58.5193831752
30
0.0000000000
10
-5.3793652817
20
-57.3051099296
30
0.0000000000
10
-5.1145075185
20
-56.1899069635
30
0.0000000000
10
-4.9461933051
20
-55.4800952634
30
0.0000000000
10
-4.8650021360
20
-55.1413767899
30
0.0000000000
11
-9.9716860831
21
-74.7687817103
31
0.0000000000
11
-9.3036491752
21
-72.3555244757
31
0.0000000000
11
-8.6930461994
21
-70.1283835109
31
0.0000000000
11
-8.1348849782
21
-68.0693110580
31
0.0000000000
11
-7.6236293026
21
-66.1584893632
31
0.0000000000
11
-7.1557320782
21
-64.3837107789
31
0.0000000000
11
-6.7290165675
21
-62.7384257282
31
0.0000000000
11
-6.3406961613
21
-61.2143499375
31
0.0000000000
11
-5.9870621174
21
-59.8000869878
31
0.0000000000
11
-5.6646350241
21
-58.4857761491
31
0.0000000000
11
-5.3717190901
21
-57.2703877246
31
0.0000000000
11
-5.1069811896
21
-56.1579130804
31
0.0000000000
11
-4.8650021360
21
-55.1413767899
31
0.0000000000
0
SPLINE
5
314
100
AcDbEntity
8
0
100
AcDbSpline
62
9
6
CONTINUOUS
70
0
71
3
72
8
73
4
74
2
42
0.0000001000
43
0.0000001000
44
0.0000000001
12
0.5973581037
22
-1.3351658751
32
0.0000000000
13
0.8491385095
23
-1.1958960841
33
0.0000000000
40
0.0000000000
40
0.0000000000
40
0.0000000000
40
0.0000000000
40
1.0000000000
40
1.0000000000
40
1.0000000000
40
1.0000000000
10
-4.8650021360
20
-55.1413767899
30
0.0000000000
10
-4.6658827681
20
-55.5864320816
30
0.0000000000
10
-4.4280187354
20
-56.0164566623
30
0.0000000000
10
-4.1449725656
20
-56.4150886903
30
0.0000000000
11
-4.8650021360
21
-55.1413767899
31
0.0000000000
11
-4.1449725656
21
-56.4150886903
31
0.0000000000
0
SPLINE
5
315
100
AcDbEntity
8
0
100
AcDbSpline
62
9
6
CONTINUOUS
70
0
71
3
72
10
73
6
74
4
42
0.0000001000
43
0.0000001000
44
0.0000000001
12
0.9852719862
22
0.4960060481
32
0.0000000000
13
0.8836565798
23
0.6602529330
33
0.0000000000
40
0.0000000000
40
0.0000000000
40
0.0000000000
40
0.0000000000
40
0.3456596318
40
0.6794022816
40
1.0000000000
40
1.0000000000
40
1.0000000000
40
1.0000000000
10
10.2205059340
20
73.8889607435
30
0.0000000000
10
10.3340288514
20
73.9461104995
30
0.0000000000
10
10.5543724113
20
74.0641184680
30
0.0000000000
10
10.8684940382
20
74.2555907264
30
0.0000000000
10
11.0661346705
20
74.3931342372
30
0.0000000000
10
11.1605674316
20
74.4636927651
30
0.0000000000
11
10.2205059340
21
73.8889607435
31
0.0000000000
11
10.5564438730
21
74.0693149159
31
0.0000000000
11
10.8705675218
21
74.2612958224
31
0.0000000000
11
11.1605674316
21
74.4636927651
31
0.0000000000
0
SPLINE
5
316
100
AcDbEntity
8
0
100
AcDbSpline
62
9
6
CONTINUOUS
70
0
71
3
72
12
73
8
74
6
42
0.0000001000
43
0.0000001000
44
0.0000000001
12
14.8408207678
22
7.3699362782
32
0.0000000000
13
14.8010175286
23
7.4495516516
33
0.0000000000
40
0.0000000000
40
0.0000000000
40
0.0000000000
40
0.0000000000
40
0.2070996832
40
0.4328748810
40
0.6784851089
40
0.9369624977
40
1.0000000000
40
1.0000000000
40
1.0000000000
40
1.0000000000
10
-10.3173854938
20
63.6200150529
30
0.0000000000
10
-9.2928757338
20
64.1287855425
30
0.0000000000
10
-7.1511539348
20
65.1915700204
30
0.0000000000
10
-3.7941261962
20
66.8571533110
30
0.0000000000
10
-0.1855230747
20
68.6541676902
30
0.0000000000
10
2.6142930458
20
70.0588572101
30
0.0000000000
10
4.2006697361
20
70.8569846566
30
0.0000000000
10
4.5116761281
20
71.0135183663
30
0.0000000000
11
-10.3173854938
21
63.6200150529
31
0.0000000000
11
-7.2435384734
21
65.1456865215
31
0.0000000000
11
-3.8926565786
21
66.8092473430
31
0.0000000000
11
-0.2500223204
21
68.6242503120
31
0.0000000000
11
3.5785724840
21
70.5440849323
31
0.0000000000
11
4.5116761281
21
71.0135183663
31
0.0000000000
0
SPLINE
5
317
100
AcDbEntity
8
0
100
AcDbSpline
62
9
6
CONTINUOUS
70
0
71
3
72
9
73
5
74
3
42
0.0000001000
43
0.0000001000
44
0.0000000001
12
5.7096781551
22
2.8737579865
32
0.0000000000
13
5.7094186993
23
2.8742729610
33
0.0000000000
40
0.0000000000
40
0.0000000000
40
0.0000000000
40
0.0000000000
40
0.4544414556
40
1.0000000000
40
1.0000000000
40
1.0000000000
40
1.0000000000
10
4.5116761281
20
71.0135183663
30
0.0000000000
10
5.3765809454
20
71.4488366204
30
0.0000000000
10
7.2793815320
20
72.4076006351
30
0.0000000000
10
9.1822318824
20
73.3662660193
30
0.0000000000
10
10.2205059340
20
73.8889607435
30
0.0000000000
11
4.5116761281
21
71.0135183663
31
0.0000000000
11
7.1060141591
21
72.3202204804
31
0.0000000000
11
10.2205059340
21
73.8889607435
31
0.0000000000
0
SPLINE
5
318
100
AcDbEntity
8
0
100
AcDbSpline
62
9
6
CONTINUOUS
70
0
71
3
72
9
73
5
74
3
42
0.0000001000
43
0.0000001000
44
0.0000000001
12
0.2115992947
22
0.1058555608
32
0.0000000000
13
0.0396939828
23
0.2275833800
33
0.0000000000
40
0.0000000000
40
0.0000000000
40
0.0000000000
40
0.0000000000
40
0.3054368360
40
1.0000000000
40
1.0000000000
40
1.0000000000
40
1.0000000000
10
-10.0951789459
20
-74.9576425093
30
0.0000000000
10
-10.0736355395
20
-74.9468651134
30
0.0000000000
10
-10.0090874048
20
-74.8995169777
30
0.0000000000
10
-9.9808781265
20
-74.8214707060
30
0.0000000000
10
-9.9716881338
20
-74.7687803618
30
0.0000000000
11
-10.0951789459
21
-74.9576425093
31
0.0000000000
11
-10.0375948957
21
-74.9150775038
31
0.0000000000
11
-9.9716881338
21
-74.7687803618
31
0.0000000000
0
SPLINE
5
319
100
AcDbEntity
8
0
100
AcDbSpline
62
9
6
CONTINUOUS
70
0
71
3
72
10
73
6
74
4
42
0.0000001000
43
0.0000001000
44
0.0000000001
12
1.1785061033
22
0.3943157373
32
0.0000000000
13
1.1130341627
23
0.5527354600
33
0.0000000000
40
0.0000000000
40
0.0000000000
40
0.0000000000
40
0.0000000000
40
0.3459848498
40
0.6798206654
40
1.0000000000
40
1.0000000000
40
1.0000000000
40
1.0000000000
10
-11.4668496020
20
63.1499842840
30
0.0000000000
10
-11.3309345163
20
63.1954600410
30
0.0000000000
10
-11.0656563652
20
63.2902732073
30
0.0000000000
10
-10.6820026275
20
63.4468383907
30
0.0000000000
10
-10.4361756730
20
63.5610235623
30
0.0000000000
10
-10.3173854938
20
63.6200150529
30
0.0000000000
11
-11.4668496020
21
63.1499842840
31
0.0000000000
11
-11.0620714283
21
63.2949781636
31
0.0000000000
11
-10.6780890482
21
63.4520481824
31
0.0000000000
11
-10.3173854938
21
63.6200150529
31
0.0000000000
0
SPLINE
5
31A
100
AcDbEntity
8
0
100
AcDbSpline
62
9
6
CONTINUOUS
70
0
71
3
72
10
73
6
74
4
42
0.0000001000
43
0.0000001000
44
0.0000000001
12
-0.4127554052
22
0.2063777026
32
0.0000000000
13
-0.4148162640
23
-0.2102281180
33
0.0000000000
40
0.0000000000
40
0.0000000000
40
0.0000000000
40
0.0000000000
40
0.4951745952
40
0.9255981662
40
1.0000000000
40
1.0000000000
40
1.0000000000
40
1.0000000000
10
-24.4358689852
20
-30.2290310138
30
0.0000000000
10
-24.5039976487
20
-30.1949666820
30
0.0000000000
10
-24.6420030745
20
-30.1478331097
30
0.0000000000
10
-24.8013680640
20
-30.1634528057
30
0.0000000000
10
-24.8727275129
20
-30.1955483750
30
0.0000000000
10
-24.8830152098
20
-30.2007621608
30
0.0000000000
11
-24.4358689852
21
-30.2290310138
31
0.0000000000
11
-24.6543769974
21
-30.1621633079
31
0.0000000000
11
-24.8514959229
21
-30.1866136795
31
0.0000000000
11
-24.8830152098
21
-30.2007621608
31
0.0000000000
0
SPLINE
5
31B
100
AcDbEntity
8
0
100
AcDbSpline
62
9
6
CONTINUOUS
70
0
71
3
72
12
73
8
74
6
42
0.0000001000
43
0.0000001000
44
0.0000000001
12
0.0000000000
22
1.4698814226
32
0.0000000000
13
1.3147019119
23
0.6573509560
33
0.0000000000
40
0.0000000000
40
0.0000000000
40
0.0000000000
40
0.0000000000
40
0.1959418058
40
0.4065611027
40
0.6191911402
40
0.8212679867
40
1.0000000000
40
1.0000000000
40
1.0000000000
40
1.0000000000
10
-25.1429757663
20
-31.4486098082
30
0.0000000000
10
-25.1429757663
20
-31.3526060681
30
0.0000000000
10
-25.1163774386
20
-31.1530775467
30
0.0000000000
10
-25.0155509471
20
-30.8651454106
30
0.0000000000
10
-24.8609767691
20
-30.5983513714
30
0.0000000000
10
-24.6679368799
20
-30.3784403134
30
0.0000000000
10
-24.5141954250
20
-30.2681942337
30
0.0000000000
10
-24.4358689852
20
-30.2290310138
30
0.0000000000
11
-25.1429757663
21
-31.4486098082
31
0.0000000000
11
-25.1081385707
21
-31.1627132660
31
0.0000000000
11
-25.0070372935
21
-30.8701014985
31
0.0000000000
11
-24.8498535691
21
-30.5999624283
31
0.0000000000
11
-24.6519324558
21
-30.3784822683
31
0.0000000000
11
-24.4358689852
21
-30.2290310138
31
0.0000000000
0
SPLINE
5
31C
100
AcDbEntity
8
0
100
AcDbSpline
62
9
6
CONTINUOUS
70
0
71
3
72
10
73
6
74
4
42
0.0000001000
43
0.0000001000
44
0.0000000001
12
0.6426951635
22
-0.2150483642
32
0.0000000000
13
0.0947989910
23
-0.6710559019
33
0.0000000000
40
0.0000000000
40
0.0000000000
40
0.0000000000
40
0.0000000000
40
0.3233543737
40
0.6684276706
40
1.0000000000
40
1.0000000000
40
1.0000000000
40
1.0000000000
10
11.1605674307
20
74.4636457890
30
0.0000000000
10
11.2298401947
20
74.4404668460
30
0.0000000000
10
11.3624520405
20
74.3590985033
30
0.0000000000
10
11.5067636990
20
74.1810030596
30
0.0000000000
10
11.5607512499
20
74.0335298100
30
0.0000000000
10
11.5712288240
20
73.9593619539
30
0.0000000000
11
11.1605674307
21
74.4636457890
31
0.0000000000
11
11.3496834182
21
74.3529256175
31
0.0000000000
11
11.4973570527
21
74.1715854574
31
0.0000000000
11
11.5712288240
21
73.9593619539
31
0.0000000000
0
SPLINE
5
31D
100
AcDbEntity
8
0
100
AcDbSpline
62
9
6
CONTINUOUS
70
0
71
3
72
10
73
6
74
4
42
0.0000001000
43
0.0000001000
44
0.0000000001
12
0.5791171804
22
-0.2875965215
32
0.0000000000
13
0.0955737865
23
-0.6394952065
33
0.0000000000
40
0.0000000000
40
0.0000000000
40
0.0000000000
40
0.0000000000
40
0.3083613946
40
0.6558103550
40
1.0000000000
40
1.0000000000
40
1.0000000000
40
1.0000000000
10
10.2205059340
20
73.8889607435
30
0.0000000000
10
10.2800317278
20
73.8593995220
30
0.0000000000
10
10.3916550754
20
73.7664839371
30
0.0000000000
10
10.5108106117
20
73.5844846487
30
0.0000000000
10
10.5576016886
20
73.4401815793
30
0.0000000000
10
10.5685668578
20
73.3668123699
30
0.0000000000
11
10.2205059340
21
73.8889607435
31
0.0000000000
11
10.3776001301
21
73.7661760251
31
0.0000000000
11
10.5022094740
21
73.5792416052
31
0.0000000000
11
10.5685668578
21
73.3668123699
31
0.0000000000
0
SPLINE
5
31E
100
AcDbEntity
8
0
100
AcDbSpline
62
9
6
CONTINUOUS
70
0
71
3
72
10
73
6
74
4
42
0.0000001000
43
0.0000001000
44
0.0000000001
12
0.5770599701
22
-0.2905009437
32
0.0000000000
13
0.0948129721
23
-0.6390614272
33
0.0000000000
40
0.0000000000
40
0.0000000000
40
0.0000000000
40
0.0000000000
40
0.3078321159
40
0.6553947980
40
1.0000000000
40
1.0000000000
40
1.0000000000
40
1.0000000000
10
-10.3173854938
20
63.6200146381
30
0.0000000000
10
-10.2581729633
20
63.5902061314
30
0.0000000000
10
-10.1472630807
20
63.4967871665
30
0.0000000000
10
-10.0290141948
20
63.3144588517
30
0.0000000000
10
-9.9825764447
20
63.1700921024
30
0.0000000000
10
-9.9716854302
20
63.0966841383
30
0.0000000000
11
-10.3173854938
21
63.6200146381
31
0.0000000000
11
-10.1613570911
21
63.4966972624
31
0.0000000000
11
-10.0375928707
21
63.3093394927
31
0.0000000000
11
-9.9716854302
21
63.0966841383
31
0.0000000000
0
SPLINE
5
31F
100
AcDbEntity
8
0
100
AcDbSpline
62
9
6
CONTINUOUS
70
0
71
3
72
10
73
6
74
4
42
0.0000001000
43
0.0000001000
44
0.0000000001
12
0.5193770293
22
-0.3880812616
32
0.0000000000
13
0.0596063691
23
-0.6456056420
33
0.0000000000
40
0.0000000000
40
0.0000000000
40
0.0000000000
40
0.0000000000
40
0.2933972121
40
0.6455004433
40
1.0000000000
40
1.0000000000
40
1.0000000000
40
1.0000000000
10
-11.4668496020
20
63.1499842839
30
0.0000000000
10
-11.4160550112
20
63.1120302972
30
0.0000000000
10
-11.3256518901
20
63.0012172081
30
0.0000000000
10
-11.2337169412
20
62.8046103010
30
0.0000000000
10
-11.1990828867
20
62.6540078500
30
0.0000000000
10
-11.1920394095
20
62.5777188787
30
0.0000000000
11
-11.4668496020
21
63.1499842839
31
0.0000000000
11
-11.3402903744
21
63.0079697706
31
0.0000000000
11
-11.2414677684
21
62.8021813405
31
0.0000000000
11
-11.1920394095
21
62.5777188787
31
0.0000000000
0
SPLINE
5
320
100
AcDbEntity
8
0
100
AcDbSpline
62
9
6
CONTINUOUS
70
0
71
3
72
10
73
6
74
4
42
0.0000001000
43
0.0000001000
44
0.0000000001
12
0.4964251094
22
-0.1848305364
32
0.0000000000
13
0.5168364598
23
0.1161046521
33
0.0000000000
40
0.0000000000
40
0.0000000000
40
0.0000000000
40
0.0000000000
40
0.3005885373
40
0.6467355532
40
1.0000000000
40
1.0000000000
40
1.0000000000
40
1.0000000000
10
-13.0884811419
20
60.8145361935
30
0.0000000000
10
-13.0387412427
20
60.7960168799
30
0.0000000000
10
-12.9257090442
20
60.7725395202
30
0.0000000000
10
-12.7486451691
20
60.7681214037
30
0.0000000000
10
-12.6255213816
20
60.7844927324
30
0.0000000000
10
-12.5646613996
20
60.7981646143
30
0.0000000000
11
-13.0884811419
21
60.8145361935
31
0.0000000000
11
-12.9333514668
21
60.7786476607
31
0.0000000000
11
-12.7500809599
21
60.7729196830
31
0.0000000000
11
-12.5646613996
21
60.7981646143
31
0.0000000000
0
SPLINE
5
321
100
AcDbEntity
8
0
100
AcDbSpline
62
9
6
CONTINUOUS
70
0
71
3
72
10
73
6
74
4
42
0.0000001000
43
0.0000001000
44
0.0000000001
12
0.3297681416
22
-0.1648779302
32
0.0000000000
13
0.3686847425
23
0.0018220181
33
0.0000000000
40
0.0000000000
40
0.0000000000
40
0.0000000000
40
0.0000000000
40
0.3048956413
40
0.6435992689
40
1.0000000000
40
1.0000000000
40
1.0000000000
40
1.0000000000
10
-12.6342650970
20
51.4212126351
30
0.0000000000
10
-12.6007501406
20
51.4044557810
30
0.0000000000
10
-12.5260348330
20
51.3768996794
30
0.0000000000
10
-12.4051419314
20
51.3529241952
30
0.0000000000
10
-12.3195616051
20
51.3477860575
30
0.0000000000
10
-12.2757617678
20
51.3480025137
30
0.0000000000
11
-12.6342650970
21
51.4212126351
31
0.0000000000
11
-12.5292658355
21
51.3810684548
31
0.0000000000
11
-12.4069140439
21
51.3560854505
31
0.0000000000
11
-12.2757617678
21
51.3480025137
31
0.0000000000
0
SPLINE
5
322
100
AcDbEntity
8
0
100
AcDbSpline
62
9
6
CONTINUOUS
70
0
71
3
72
10
73
6
74
4
42
0.0000001000
43
0.0000001000
44
0.0000000001
12
0.3297665251
22
-0.1648830078
32
0.0000000000
13
0.3686855508
23
0.0018253716
33
0.0000000000
40
0.0000000000
40
0.0000000000
40
0.0000000000
40
0.0000000000
40
0.3048526286
40
0.6435538301
40
1.0000000000
40
1.0000000000
40
1.0000000000
40
1.0000000000
10
-12.6342656865
20
-65.3463257242
30
0.0000000000
10
-12.6007556225
20
-65.3630807303
30
0.0000000000
10
-12.5260461741
20
-65.3906367436
30
0.0000000000
10
-12.4051534052
20
-65.4146147640
30
0.0000000000
10
-12.3195674916
20
-65.4197534501
30
0.0000000000
10
-12.2757619741
20
-65.4195365679
30
0.0000000000
11
-12.6342656865
21
-65.3463257242
31
0.0000000000
11
-12.5292818924
21
-65.3864666580
31
0.0000000000
11
-12.4069312387
21
-65.4114521608
31
0.0000000000
11
-12.2757619741
21
-65.4195365679
31
0.0000000000
0
SPLINE
5
323
100
AcDbEntity
8
0
100
AcDbSpline
62
9
6
CONTINUOUS
70
0
71
3
72
10
73
6
74
4
42
0.0000001000
43
0.0000001000
44
0.0000000001
12
0.4588616911
22
-0.2880216876
32
0.0000000000
13
0.5362320682
23
0.0772380290
33
0.0000000000
40
0.0000000000
40
0.0000000000
40
0.0000000000
40
0.0000000000
40
0.3134633737
40
0.6575977338
40
1.0000000000
40
1.0000000000
40
1.0000000000
40
1.0000000000
10
-13.0884814432
20
-74.2854271557
30
0.0000000000
10
-13.0405359987
20
-74.3155219057
30
0.0000000000
10
-12.9296955623
20
-74.3625496172
30
0.0000000000
10
-12.7510126758
20
-74.3950580132
30
0.0000000000
10
-12.6258623955
20
-74.3920776404
30
0.0000000000
10
-12.5646600371
20
-74.3832621483
30
0.0000000000
11
-13.0884814432
21
-74.2854271557
31
0.0000000000
11
-12.9333517256
21
-74.3545278605
31
0.0000000000
11
-12.7500805669
21
-74.3887577228
31
0.0000000000
11
-12.5646600371
21
-74.3832621483
31
0.0000000000
0
SPLINE
5
324
100
AcDbEntity
8
0
100
AcDbSpline
62
9
6
CONTINUOUS
70
0
71
3
72
11
73
7
74
5
42
0.0000001000
43
0.0000001000
44
0.0000000001
12
0.6560036797
22
0.4425926094
32
0.0000000000
13
0.7125215696
23
-0.3526288461
33
0.0000000000
40
0.0000000000
40
0.0000000000
40
0.0000000000
40
0.0000000000
40
0.3779638851
40
0.6657421297
40
0.8984097559
40
1.0000000000
40
1.0000000000
40
1.0000000000
40
1.0000000000
10
11.1605674316
20
74.4636927651
30
0.0000000000
10
11.2432159981
20
74.5194541058
30
0.0000000000
10
11.3992217663
20
74.6044709974
30
0.0000000000
10
11.6337488213
20
74.6580755088
30
0.0000000000
10
11.8002131171
20
74.6395256606
30
0.0000000000
10
11.8826573547
20
74.6064562494
30
0.0000000000
10
11.9067857681
20
74.5945150325
30
0.0000000000
11
11.1605674316
21
74.4636927651
31
0.0000000000
11
11.4260874925
21
74.6013884847
31
0.0000000000
11
11.6491799482
21
74.6471240293
31
0.0000000000
11
11.8318959044
21
74.6244237443
31
0.0000000000
11
11.9067857681
21
74.5945150325
31
0.0000000000
0
SPLINE
5
325
100
AcDbEntity
8
0
100
AcDbSpline
62
9
6
CONTINUOUS
70
0
71
3
72
18
73
14
74
12
42
0.0000001000
43
0.0000001000
44
0.0000000001
12
-0.1863450566
22
3.0122556933
32
0.0000000000
13
2.8299753203
23
1.0486412774
33
0.0000000000
40
0.0000000000
40
0.0000000000
40
0.0000000000
40
0.0000000000
40
0.0523892681
40
0.1098773645
40
0.1741030315
40
0.2459032662
40
0.3262219509
40
0.4157132034
40
0.5145604256
40
0.6228208805
40
0.7405644133
40
0.8667612248
40
1.0000000000
40
1.0000000000
40
1.0000000000
40
1.0000000000
10
-13.0884816514
20
60.8145359387
30
0.0000000000
10
-13.0917358118
20
60.8671392291
30
0.0000000000
10
-13.0933228498
20
60.9778489745
30
0.0000000000
10
-13.0794341783
20
61.1526961578
30
0.0000000000
10
-13.0453472695
20
61.3446849507
30
0.0000000000
10
-12.9861447679
20
61.5545010804
30
0.0000000000
10
-12.8965984171
20
61.7809257080
30
0.0000000000
10
-12.7714949729
20
62.0210571040
30
0.0000000000
10
-12.6060559339
20
62.2700692576
30
0.0000000000
10
-12.3959271817
20
62.5212635439
30
0.0000000000
10
-12.1373819574
20
62.7649233749
30
0.0000000000
10
-11.8280888046
20
62.9867533785
30
0.0000000000
10
-11.5925370839
20
63.1034110575
30
0.0000000000
10
-11.4668496020
20
63.1499842840
30
0.0000000000
11
-13.0884816514
21
60.8145359387
31
0.0000000000
11
-13.0908957639
21
60.9726290554
31
0.0000000000
11
-13.0773548118
21
61.1455997234
31
0.0000000000
11
-13.0437247906
21
61.3364940082
31
0.0000000000
11
-12.9851894029
21
61.5451323290
31
0.0000000000
11
-12.8963874541
21
61.7706836297
31
0.0000000000
11
-12.7719342781
21
62.0103871500
31
0.0000000000
11
-12.6071049484
21
62.2590384928
31
0.0000000000
11
-12.3975371746
21
62.5097073380
31
0.0000000000
11
-12.1387037248
21
62.7531822470
31
0.0000000000
11
-11.8284661482
21
62.9741117442
31
0.0000000000
11
-11.4668496020
21
63.1499842840
31
0.0000000000
0
SPLINE
5
326
100
AcDbEntity
8
0
100
AcDbSpline
62
9
6
CONTINUOUS
70
0
71
3
72
10
73
6
74
4
42
0.0000001000
43
0.0000001000
44
0.0000000001
12
1.0318563773
22
0.5081817718
32
0.0000000000
13
0.1783462163
23
1.1455640797
33
0.0000000000
40
0.0000000000
40
0.0000000000
40
0.0000000000
40
0.0000000000
40
0.4132793830
40
0.7869743083
40
1.0000000000
40
1.0000000000
40
1.0000000000
40
1.0000000000
10
-4.8649666600
20
-55.1414349288
30
0.0000000000
10
-4.7228183377
20
-55.0714279125
30
0.0000000000
10
-4.4683840899
20
-54.9000411785
30
0.0000000000
10
-4.2267105766
20
-54.5930468965
30
0.0000000000
10
-4.1537299453
20
-54.3739359500
30
0.0000000000
10
-4.1410658366
20
-54.2925910898
30
0.0000000000
11
-4.8649666600
21
-55.1414349288
31
0.0000000000
11
-4.4733033529
21
-54.8720578610
31
0.0000000000
11
-4.2157968591
21
-54.5279048956
31
0.0000000000
11
-4.1410658366
21
-54.2925910898
31
0.0000000000
0
SPLINE
5
327
100
AcDbEntity
8
0
100
AcDbSpline
62
9
6
CONTINUOUS
70
0
71
3
72
10
73
6
74
4
42
0.0000001000
43
0.0000001000
44
0.0000000001
12
0.7930383916
22
8.9179394945
32
0.0000000000
13
-0.0008701594
23
8.9531309585
33
0.0000000000
40
0.0000000000
40
0.0000000000
40
0.0000000000
40
0.0000000000
40
0.3594916442
40
0.6920524339
40
1.0000000000
40
1.0000000000
40
1.0000000000
40
1.0000000000
10
-13.0884814433
20
-74.2854271557
30
0.0000000000
10
-12.9934512181
20
-73.2167855783
30
0.0000000000
10
-12.8322455647
20
-71.1575064133
30
0.0000000000
10
-12.6751164934
20
-68.1769508228
30
0.0000000000
10
-12.6341763653
20
-66.2653573536
30
0.0000000000
10
-12.6342656865
20
-65.3463257242
30
0.0000000000
11
-13.0884814433
21
-74.2854271557
31
0.0000000000
11
-12.8401290246
21
-71.0764473867
31
0.0000000000
11
-12.6873437799
21
-68.1029096626
31
0.0000000000
11
-12.6342656865
21
-65.3463257242
31
0.0000000000
0
SPLINE
5
328
100
AcDbEntity
8
0
100
AcDbSpline
62
9
6
CONTINUOUS
70
0
71
3
72
11
73
7
74
5
42
0.0000001000
43
0.0000001000
44
0.0000000001
12
1.2713292529
22
0.0070270755
32
0.0000000000
13
0.0036170389
23
1.2627062688
33
0.0000000000
40
0.0000000000
40
0.0000000000
40
0.0000000000
40
0.0000000000
40
0.3204069015
40
0.6048578889
40
0.8298947663
40
1.0000000000
40
1.0000000000
40
1.0000000000
40
1.0000000000
10
-5.7789549811
20
-51.0423947884
30
0.0000000000
10
-5.6431740922
20
-51.0416442806
30
0.0000000000
10
-5.3858728615
20
-51.0166089854
30
0.0000000000
10
-5.0487160260
20
-50.9080625031
30
0.0000000000
10
-4.8020544456
20
-50.7472178327
30
0.0000000000
10
-4.7246929298
20
-50.5806834825
30
0.0000000000
10
-4.7244878374
20
-50.5090858341
30
0.0000000000
11
-5.7789549811
21
-51.0423947884
31
0.0000000000
11
-5.3738238360
21
-50.9999463164
31
0.0000000000
11
-5.0314562521
21
-50.8834760941
31
0.0000000000
11
-4.8035417497
21
-50.7105356951
31
0.0000000000
11
-4.7244878374
21
-50.5090858341
31
0.0000000000
0
SPLINE
5
329
100
AcDbEntity
8
0
100
AcDbSpline
62
9
6
CONTINUOUS
70
0
71
3
72
11
73
7
74
5
42
0.0000001000
43
0.0000001000
44
0.0000000001
12
1.2705609548
22
0.0056046052
32
0.0000000000
13
0.0029901486
23
1.2617502361
33
0.0000000000
40
0.0000000000
40
0.0000000000
40
0.0000000000
40
0.0000000000
40
0.3205594725
40
0.6050656161
40
0.8300223834
40
1.0000000000
40
1.0000000000
40
1.0000000000
40
1.0000000000
10
-5.7789449634
20
37.0351382313
30
0.0000000000
10
-5.6431815136
20
37.0357371011
30
0.0000000000
10
-5.3859200148
20
37.0604707062
30
0.0000000000
10
-5.0487939080
20
37.1685702939
30
0.0000000000
10
-4.8021061878
20
37.3288976960
30
0.0000000000
10
-4.7246436957
20
37.4952346766
30
0.0000000000
10
-4.7244742763
20
37.5667244425
30
0.0000000000
11
-5.7789449634
21
37.0351382313
31
0.0000000000
11
-5.3738201007
21
37.0771203967
31
0.0000000000
11
-5.0314532411
21
37.1931247054
31
0.0000000000
11
-4.8035350789
21
37.3656028430
31
0.0000000000
11
-4.7244742763
21
37.5667244425
31
0.0000000000
0
SPLINE
5
32A
100
AcDbEntity
8
0
100
AcDbSpline
62
9
6
CONTINUOUS
70
0
71
3
72
10
73
6
74
4
42
0.0000001000
43
0.0000001000
44
0.0000000001
12
0.7394349306
22
-0.1164779611
32
0.0000000000
13
0.3254097581
23
0.6198242073
33
0.0000000000
40
0.0000000000
40
0.0000000000
40
0.0000000000
40
0.0000000000
40
0.5252620905
40
0.8712234244
40
1.0000000000
40
1.0000000000
40
1.0000000000
40
1.0000000000
10
-4.8649870755
20
41.7772926234
30
0.0000000000
10
-4.7355213631
20
41.7568988042
30
0.0000000000
10
-4.5197045358
20
41.7475598980
30
0.0000000000
10
-4.2665453270
20
41.7193039115
30
0.0000000000
10
-4.1551239762
20
41.8110631795
30
0.0000000000
10
-4.1411555914
20
41.8376694591
30
0.0000000000
11
-4.8649870755
21
41.7772926234
31
0.0000000000
11
-4.4735652398
21
41.7400843769
31
0.0000000000
11
-4.2162166829
21
41.7690210343
31
0.0000000000
11
-4.1411555914
21
41.8376694591
31
0.0000000000
0
SPLINE
5
32B
100
AcDbEntity
8
0
100
AcDbSpline
62
9
6
CONTINUOUS
70
0
71
3
72
11
73
7
74
5
42
0.0000001000
43
0.0000001000
44
0.0000000001
12
-0.6465135583
22
-1.5853865649
32
0.0000000000
13
-1.7184324193
23
-0.0443880474
33
0.0000000000
40
0.0000000000
40
0.0000000000
40
0.0000000000
40
0.0000000000
40
0.2449158823
40
0.5196713692
40
0.8050127307
40
1.0000000000
40
1.0000000000
40
1.0000000000
40
1.0000000000
10
12.2605021678
20
50.3401471868
30
0.0000000000
10
12.2077216883
20
50.2107184037
30
0.0000000000
10
12.0322789006
20
49.9614454096
30
0.0000000000
10
11.6598827829
20
49.6831711246
30
0.0000000000
10
11.2537087868
20
49.5237593073
30
0.0000000000
10
10.9801678379
20
49.4848377706
30
0.0000000000
10
10.8684770230
20
49.4819527358
30
0.0000000000
11
12.2605021678
21
50.3401471868
31
0.0000000000
11
12.0279253345
21
49.9912255382
31
0.0000000000
11
11.6546277332
21
49.7049664415
31
0.0000000000
11
11.1997545420
21
49.5267347461
31
0.0000000000
11
10.8684770230
21
49.4819527358
31
0.0000000000
0
SPLINE
5
32C
100
AcDbEntity
8
0
100
AcDbSpline
62
9
6
CONTINUOUS
70
0
71
3
72
11
73
7
74
5
42
0.0000001000
43
0.0000001000
44
0.0000000001
12
-0.0198481504
22
-1.0000084890
32
0.0000000000
13
-0.9927359351
23
-0.1345786941
33
0.0000000000
40
0.0000000000
40
0.0000000000
40
0.0000000000
40
0.0000000000
40
0.2196382662
40
0.5084246034
40
0.8721578356
40
1.0000000000
40
1.0000000000
40
1.0000000000
40
1.0000000000
10
12.9037163388
20
46.3765235617
30
0.0000000000
10
12.9022632010
20
46.3033101848
30
0.0000000000
10
12.8199839500
20
46.1376268732
30
0.0000000000
10
12.5695763572
20
45.9779754714
30
0.0000000000
10
12.3193839321
20
45.8997811621
30
0.0000000000
10
12.1574651449
20
45.8723379665
30
0.0000000000
10
12.1151606414
20
45.8666030227
30
0.0000000000
11
12.9037163388
21
46.3765235617
31
0.0000000000
11
12.8192872446
21
46.1737120247
31
0.0000000000
11
12.5868132169
21
46.0022837735
31
0.0000000000
11
12.2413925634
21
45.8880874389
31
0.0000000000
11
12.1151606414
21
45.8666030227
31
0.0000000000
0
SPLINE
5
32D
100
AcDbEntity
8
0
100
AcDbSpline
62
9
6
CONTINUOUS
70
0
71
3
72
12
73
8
74
6
42
0.0000001000
43
0.0000001000
44
0.0000000001
12
-0.0031116600
22
4.0414406054
32
0.0000000000
13
-1.7314523097
23
3.6517563922
33
0.0000000000
40
0.0000000000
40
0.0000000000
40
0.0000000000
40
0.0000000000
40
0.1897557582
40
0.3990656800
40
0.6126564903
40
0.8169377155
40
1.0000000000
40
1.0000000000
40
1.0000000000
40
1.0000000000
10
12.9037239713
20
46.3765268693
30
0.0000000000
10
12.9035271528
20
46.6321557448
30
0.0000000000
10
12.8907738114
20
47.1698309465
30
0.0000000000
10
12.8298754283
20
47.9933002754
30
0.0000000000
10
12.7153768287
20
48.8312312250
30
0.0000000000
10
12.5399339029
20
49.6224321908
30
0.0000000000
10
12.3660691885
20
50.1173145902
30
0.0000000000
10
12.2604146501
20
50.3401475461
30
0.0000000000
11
12.9037239713
21
46.3765268693
31
0.0000000000
11
12.8853134593
21
47.1431927024
31
0.0000000000
11
12.8216859554
21
47.9867102258
31
0.0000000000
11
12.7017346698
21
48.8415502872
31
0.0000000000
11
12.5168337332
21
49.6461692154
31
0.0000000000
11
12.2604146501
21
50.3401475461
31
0.0000000000
0
SPLINE
5
32E
100
AcDbEntity
8
0
100
AcDbSpline
62
9
6
CONTINUOUS
70
0
71
3
72
10
73
6
74
4
42
0.0000001000
43
0.0000001000
44
0.0000000001
12
0.7378332024
22
-8.4190466255
32
0.0000000000
13
0.1217708816
23
-8.4507862811
33
0.0000000000
40
0.0000000000
40
0.0000000000
40
0.0000000000
40
0.0000000000
40
0.4085697443
40
0.7772934572
40
1.0000000000
40
1.0000000000
40
1.0000000000
40
1.0000000000
10
12.4815669040
20
73.3212787300
30
0.0000000000
10
12.5820523450
20
72.1746894876
30
0.0000000000
10
12.7528253020
20
69.9914272095
30
0.0000000000
10
12.9053202051
20
67.1781915146
30
0.0000000000
10
12.9521521553
20
65.5124048944
30
0.0000000000
10
12.9611918793
20
64.8850564288
30
0.0000000000
11
12.4815669040
21
73.3212787300
31
0.0000000000
11
12.7471463514
21
69.8785551731
31
0.0000000000
11
12.9107345226
21
66.7666513476
31
0.0000000000
11
12.9611918793
21
64.8850564288
31
0.0000000000
0
SPLINE
5
32F
100
AcDbEntity
8
0
100
AcDbSpline
62
9
6
CONTINUOUS
70
0
71
3
72
8
73
4
74
2
42
0.0000001000
43
0.0000001000
44
0.0000000001
12
0.0003378097
22
-0.0234436780
32
0.0000000000
13
0.0003297936
23
-0.0234437576
33
0.0000000000
40
0.0000000000
40
0.0000000000
40
0.0000000000
40
0.0000000000
40
1.0000000000
40
1.0000000000
40
1.0000000000
40
1.0000000000
10
12.9611918793
20
64.8850564288
30
0.0000000000
10
12.9613044825
20
64.8772418694
30
0.0000000000
10
12.9614157521
20
64.8694272966
30
0.0000000000
10
12.9615256833
20
64.8616127108
30
0.0000000000
11
12.9611918793
21
64.8850564288
31
0.0000000000
11
12.9615256833
21
64.8616127108
31
0.0000000000
0
SPLINE
5
330
100
AcDbEntity
8
0
100
AcDbSpline
62
9
6
CONTINUOUS
70
0
71
3
72
8
73
4
74
2
42
0.0000001000
43
0.0000001000
44
0.0000000001
12
0.0125435983
22
-0.8916762449
32
0.0000000000
13
0.0001458942
23
-0.8917291082
33
0.0000000000
40
0.0000000000
40
0.0000000000
40
0.0000000000
40
0.0000000000
40
1.0000000000
40
1.0000000000
40
1.0000000000
40
1.0000000000
10
12.9615256833
20
64.8616127108
30
0.0000000000
10
12.9657068827
20
64.5643872958
30
0.0000000000
10
12.9679519239
20
64.2671429491
30
0.0000000000
10
12.9680005553
20
63.9698999130
30
0.0000000000
11
12.9615256833
21
64.8616127108
31
0.0000000000
11
12.9680005553
21
63.9698999130
31
0.0000000000
0
SPLINE
5
331
100
AcDbEntity
8
0
100
AcDbSpline
62
9
6
CONTINUOUS
70
0
71
3
72
14
73
10
74
8
42
0.0000001000
43
0.0000001000
44
0.0000000001
12
0.8157888771
22
0.5892977209
32
0.0000000000
13
0.3654510685
23
-0.9383951654
33
0.0000000000
40
0.0000000000
40
0.0000000000
40
0.0000000000
40
0.0000000000
40
0.2283874056
40
0.3998217794
40
0.5352599292
40
0.6530327545
40
0.7665500074
40
0.8819198119
40
1.0000000000
40
1.0000000000
40
1.0000000000
40
1.0000000000
10
11.5712443672
20
73.9593592558
30
0.0000000000
10
11.6333496689
20
74.0042219816
30
0.0000000000
10
11.7496661923
20
74.0736675627
30
0.0000000000
10
11.9244605451
20
74.1243436590
30
0.0000000000
10
12.0697696096
20
74.1178846427
30
0.0000000000
10
12.1848137774
20
74.0675415394
30
0.0000000000
10
12.2721365142
20
73.9884551382
30
0.0000000000
10
12.3379791966
20
73.8915713018
30
0.0000000000
10
12.3707353581
20
73.8201637298
30
0.0000000000
10
12.3851195351
20
73.7832284372
30
0.0000000000
11
11.5712443672
21
73.9593592558
31
0.0000000000
11
11.7708844680
21
74.0732514163
31
0.0000000000
11
11.9377123264
21
74.1172276368
31
0.0000000000
11
12.0737509344
21
74.1087730605
31
0.0000000000
11
12.1824422269
21
74.0615083674
31
0.0000000000
11
12.2681719241
21
73.9860013253
31
0.0000000000
11
12.3346452927
21
73.8908087248
31
0.0000000000
11
12.3851195351
21
73.7832284372
31
0.0000000000
0
SPLINE
5
332
100
AcDbEntity
8
0
100
AcDbSpline
62
9
6
CONTINUOUS
70
0
71
3
72
11
73
7
74
5
42
0.0000001000
43
0.0000001000
44
0.0000000001
12
0.1579580545
22
-0.4056003320
32
0.0000000000
13
0.0443150160
23
-0.4327546827
33
0.0000000000
40
0.0000000000
40
0.0000000000
40
0.0000000000
40
0.0000000000
40
0.2764316879
40
0.5520236924
40
0.8223467375
40
1.0000000000
40
1.0000000000
40
1.0000000000
40
1.0000000000
10
12.3851195351
20
73.7832284372
30
0.0000000000
10
12.3996744056
20
73.7458548424
30
0.0000000000
10
12.4242743313
20
73.6695507471
30
0.0000000000
10
12.4509658304
20
73.5532290325
30
0.0000000000
10
12.4677180026
20
73.4496061953
30
0.0000000000
10
12.4753183036
20
73.3850822422
30
0.0000000000
10
12.4779425394
20
73.3594554818
30
0.0000000000
11
12.3851195351
21
73.7832284372
31
0.0000000000
11
12.4226360400
21
73.6689882830
31
0.0000000000
11
12.4498422046
21
73.5522388826
31
0.0000000000
11
12.4688543888
21
73.4362005553
31
0.0000000000
11
12.4779425394
21
73.3594554818
31
0.0000000000
0
SPLINE
5
333
100
AcDbEntity
8
0
100
AcDbSpline
62
9
6
CONTINUOUS
70
0
71
3
72
8
73
4
74
2
42
0.0000001000
43
0.0000001000
44
0.0000000001
12
0.0039067051
22
-0.0381506107
32
0.0000000000
13
0.0033476492
23
-0.0382005204
33
0.0000000000
40
0.0000000000
40
0.0000000000
40
0.0000000000
40
0.0000000000
40
1.0000000000
40
1.0000000000
40
1.0000000000
40
1.0000000000
10
12.4779425394
20
73.3594554818
30
0.0000000000
10
12.4792447744
20
73.3467386115
30
0.0000000000
10
12.4804510210
20
73.3340122368
30
0.0000000000
10
12.4815669040
20
73.3212787300
30
0.0000000000
11
12.4779425394
21
73.3594554818
31
0.0000000000
11
12.4815669040
21
73.3212787300
31
0.0000000000
0
SPLINE
5
334
100
AcDbEntity
8
0
100
AcDbSpline
62
9
6
CONTINUOUS
70
0
71
3
72
10
73
6
74
4
42
0.0000001000
43
0.0000001000
44
0.0000000001
12
1.0484437850
22
0.5101147003
32
0.0000000000
13
0.9451622000
23
0.6827296635
33
0.0000000000
40
0.0000000000
40
0.0000000000
40
0.0000000000
40
0.0000000000
40
0.3463772368
40
0.6798585020
40
1.0000000000
40
1.0000000000
40
1.0000000000
40
1.0000000000
10
10.5685691034
20
73.3668117883
30
0.0000000000
10
10.6896214571
20
73.4257091618
30
0.0000000000
10
10.9244085434
20
73.5472354894
30
0.0000000000
10
11.2594317949
20
73.7446089436
30
0.0000000000
10
11.4703824864
20
73.8865025567
30
0.0000000000
10
11.5712443672
20
73.9593592558
30
0.0000000000
11
10.5685691034
21
73.3668117883
31
0.0000000000
11
10.9270402596
21
73.5528268056
31
0.0000000000
11
11.2618111352
21
73.7505961523
31
0.0000000000
11
11.5712443672
21
73.9593592558
31
0.0000000000
0
SPLINE
5
335
100
AcDbEntity
8
0
100
AcDbSpline
62
9
6
CONTINUOUS
70
0
71
3
72
11
73
7
74
5
42
0.0000001000
43
0.0000001000
44
0.0000000001
12
-1.6732856345
22
-4.5442837448
32
0.0000000000
13
-0.3624592499
23
-4.8289774135
33
0.0000000000
40
0.0000000000
40
0.0000000000
40
0.0000000000
40
0.0000000000
40
0.2416519278
40
0.4886553205
40
0.7419519835
40
1.0000000000
40
1.0000000000
40
1.0000000000
40
1.0000000000
10
-4.8651304771
20
41.7769709425
30
0.0000000000
10
-4.9999147102
20
41.4109259667
30
0.0000000000
10
-5.2289569349
20
40.6545128492
30
0.0000000000
10
-5.4822978290
20
39.4831297282
30
0.0000000000
10
-5.6656503806
20
38.2721712510
30
0.0000000000
10
-5.7477482548
20
37.4504774326
30
0.0000000000
10
-5.7789255516
20
37.0351080849
30
0.0000000000
11
-4.8651304771
21
41.7769709425
31
0.0000000000
11
-5.2112397811
21
40.6591114818
31
0.0000000000
11
-5.4679940417
21
39.4908640852
31
0.0000000000
11
-5.6543100557
21
38.2784923568
31
0.0000000000
11
-5.7789255516
21
37.0351080849
31
0.0000000000
0
SPLINE
5
336
100
AcDbEntity
8
0
100
AcDbSpline
62
9
6
CONTINUOUS
70
0
71
3
72
10
73
6
74
4
42
0.0000001000
43
0.0000001000
44
0.0000000001
12
1.2523273680
22
0.4389754986
32
0.0000000000
13
1.1805288901
23
0.6061145640
33
0.0000000000
40
0.0000000000
40
0.0000000000
40
0.0000000000
40
0.0000000000
40
0.3459183947
40
0.6794659851
40
1.0000000000
40
1.0000000000
40
1.0000000000
40
1.0000000000
10
-11.1920378768
20
62.5777181020
30
0.0000000000
10
-11.0476368525
20
62.6283346686
30
0.0000000000
10
-10.7659747052
20
62.7335363566
30
0.0000000000
10
-10.3586652385
20
62.9064195392
30
0.0000000000
10
-10.0978189986
20
63.0319242476
30
0.0000000000
10
-9.9716857770
20
63.0966843591
30
0.0000000000
11
-11.1920378768
21
62.5777181020
31
0.0000000000
11
-10.7621189809
21
62.7386310492
31
0.0000000000
11
-10.3548124687
21
62.9119004505
31
0.0000000000
11
-9.9716857770
21
63.0966843591
31
0.0000000000
0
SPLINE
5
337
100
AcDbEntity
8
0
100
AcDbSpline
62
9
6
CONTINUOUS
70
0
71
3
72
18
73
14
74
12
42
0.0000001000
43
0.0000001000
44
0.0000000001
12
-0.1592141383
22
2.3842838867
32
0.0000000000
13
2.2550752402
23
0.7904394065
33
0.0000000000
40
0.0000000000
40
0.0000000000
40
0.0000000000
40
0.0000000000
40
0.0504030701
40
0.1057015070
40
0.1676327631
40
0.2372243908
40
0.3156632864
40
0.4038953705
40
0.5024069878
40
0.6115236939
40
0.7315385339
40
0.8615090788
40
1.0000000000
40
1.0000000000
40
1.0000000000
40
1.0000000000
10
-12.5646614681
20
60.7981646920
30
0.0000000000
10
-12.5673364285
20
60.8382231013
30
0.0000000000
10
-12.5684378172
20
60.9225901522
30
0.0000000000
10
-12.5560158494
20
61.0557802278
30
0.0000000000
10
-12.5261478621
20
61.2018700987
30
0.0000000000
10
-12.4746801058
20
61.3613531668
30
0.0000000000
10
-12.3972708708
20
61.5333076162
30
0.0000000000
10
-12.2896918731
20
61.7155785551
30
0.0000000000
10
-12.1481972278
20
61.9046222308
30
0.0000000000
10
-11.9695152317
20
62.0955674088
30
0.0000000000
10
-11.7510525111
20
62.2812691538
30
0.0000000000
10
-11.4915126011
20
62.4512575329
30
0.0000000000
10
-11.2961403593
20
62.5412285415
30
0.0000000000
10
-11.1920378768
20
62.5777181020
30
0.0000000000
11
-12.5646614681
21
60.7981646920
31
0.0000000000
11
-12.5663553735
21
60.9185956464
31
0.0000000000
11
-12.5542699988
21
61.0501826370
31
0.0000000000
11
-12.5248863613
21
61.1952267836
31
0.0000000000
11
-12.4741493678
21
61.3535935287
31
0.0000000000
11
-12.3975987332
21
61.5246860997
31
0.0000000000
11
-12.2908368327
21
61.7064962085
31
0.0000000000
11
-12.1501324889
21
61.8952201997
31
0.0000000000
11
-11.9721847503
21
62.0858044442
31
0.0000000000
11
-11.7536671340
21
62.2715372535
31
0.0000000000
11
-11.4934516546
21
62.4410833024
31
0.0000000000
11
-11.1920378768
21
62.5777181020
31
0.0000000000
0
SPLINE
5
338
100
AcDbEntity
8
0
100
AcDbSpline
62
9
6
CONTINUOUS
70
0
71
3
72
10
73
6
74
4
42
0.0000001000
43
0.0000001000
44
0.0000000001
12
0.0002049562
22
-0.4872398332
32
0.0000000000
13
0.4280782817
23
-0.2140391408
33
0.0000000000
40
0.0000000000
40
0.0000000000
40
0.0000000000
40
0.0000000000
40
0.1605852985
40
0.5321935133
40
1.0000000000
40
1.0000000000
40
1.0000000000
40
1.0000000000
10
-25.4349164498
20
-31.0953389332
30
0.0000000000
10
-25.4349054788
20
-31.1214201179
30
0.0000000000
10
-25.4227479265
20
-31.2078163863
30
0.0000000000
10
-25.3240012473
20
-31.3423974225
30
0.0000000000
10
-25.2097283653
20
-31.4152335087
30
0.0000000000
10
-25.1429757663
20
-31.4486098082
30
0.0000000000
11
-25.4349164498
21
-31.0953389332
31
0.0000000000
11
-25.4238907012
21
-31.1722138679
31
0.0000000000
11
-25.3273498943
21
-31.3215855486
31
0.0000000000
11
-25.1429757663
21
-31.4486098082
31
0.0000000000
0
SPLINE
5
339
100
AcDbEntity
8
0
100
AcDbSpline
62
9
6
CONTINUOUS
70
0
71
3
72
10
73
6
74
4
42
0.0000001000
43
0.0000001000
44
0.0000000001
12
0.2076624104
22
9.4548789262
32
0.0000000000
13
-0.6303394118
23
9.4361290480
33
0.0000000000
40
0.0000000000
40
0.0000000000
40
0.0000000000
40
0.0000000000
40
0.2978314325
40
0.6303879918
40
1.0000000000
40
1.0000000000
40
1.0000000000
40
1.0000000000
10
-12.2757616986
20
51.3479968966
30
0.0000000000
10
-12.2551455676
20
52.2866502747
30
0.0000000000
10
-12.2578789487
20
54.2744540439
30
0.0000000000
10
-12.3607266833
20
57.4254666071
30
0.0000000000
10
-12.4870011294
20
59.6355958229
30
0.0000000000
10
-12.5646614681
20
60.7981646920
30
0.0000000000
11
-12.2757616986
21
51.3479968966
31
0.0000000000
11
-12.2715902222
21
54.1646330642
31
0.0000000000
11
-12.3690413540
21
57.3081632159
31
0.0000000000
11
-12.5646614681
21
60.7981646920
31
0.0000000000
0
SPLINE
5
33A
100
AcDbEntity
8
0
100
AcDbSpline
62
9
6
CONTINUOUS
70
0
71
3
72
12
73
8
74
6
42
0.0000001000
43
0.0000001000
44
0.0000000001
12
0.3158789622
22
-4.2124129600
32
0.0000000000
13
1.9925746879
23
-3.7247615463
33
0.0000000000
40
0.0000000000
40
0.0000000000
40
0.0000000000
40
0.0000000000
40
0.1889440781
40
0.3971719769
40
0.6099129709
40
0.8145437421
40
1.0000000000
40
1.0000000000
40
1.0000000000
40
1.0000000000
10
-5.7789548228
20
-51.0424035805
30
0.0000000000
10
-5.7590603364
20
-51.3077070750
30
0.0000000000
10
-5.7074559738
20
-51.8647254405
30
0.0000000000
10
-5.5921452238
20
-52.7160432656
30
0.0000000000
10
-5.4256311042
20
-53.5818174385
30
0.0000000000
10
-5.1980918238
20
-54.4005655357
30
0.0000000000
10
-4.9881791492
20
-54.9111144720
30
0.0000000000
10
-4.8650006674
20
-55.1413745847
30
0.0000000000
11
-5.7789548228
21
-51.0424035805
31
0.0000000000
11
-5.7046464695
21
-51.8370820573
31
0.0000000000
11
-5.5850567048
21
-52.7085191040
31
0.0000000000
11
-5.4114048756
21
-53.5902509183
31
0.0000000000
11
-5.1736078732
21
-54.4213082590
31
0.0000000000
11
-4.8650006674
21
-55.1413745847
31
0.0000000000
0
SPLINE
5
33B
100
AcDbEntity
8
0
100
AcDbSpline
62
9
6
CONTINUOUS
70
0
71
3
72
10
73
6
74
4
42
0.0000001000
43
0.0000001000
44
0.0000000001
12
0.6544768719
22
8.9473333729
32
0.0000000000
13
-0.1970743014
23
8.9690733179
33
0.0000000000
40
0.0000000000
40
0.0000000000
40
0.0000000000
40
0.0000000000
40
0.3587326621
40
0.6912188017
40
1.0000000000
40
1.0000000000
40
1.0000000000
40
1.0000000000
10
-12.5646612442
20
-74.3832602014
30
0.0000000000
10
-12.4864005007
20
-73.3133599616
30
0.0000000000
10
-12.3591582298
20
-71.2499777127
30
0.0000000000
10
-12.2569763868
20
-68.2609426451
30
0.0000000000
10
-12.2554775782
20
-66.3427076872
30
0.0000000000
10
-12.2757618579
20
-65.4195472848
30
0.0000000000
11
-12.5646612442
21
-74.3832602014
31
0.0000000000
11
-12.3695749605
21
-71.1709023841
31
0.0000000000
11
-12.2717662174
21
-68.1896940785
31
0.0000000000
11
-12.2757618579
21
-65.4195472848
31
0.0000000000
0
SPLINE
5
33C
100
AcDbEntity
8
0
100
AcDbSpline
62
9
6
CONTINUOUS
70
0
71
3
72
8
73
4
74
2
42
0.0000001000
43
0.0000001000
44
0.0000000001
12
-0.2009637832
22
-0.0646592349
32
0.0000000000
13
-0.2086865038
23
-0.0351619712
33
0.0000000000
40
0.0000000000
40
0.0000000000
40
0.0000000000
40
0.0000000000
40
1.0000000000
40
1.0000000000
40
1.0000000000
40
1.0000000000
10
-11.1920378519
20
-75.2524911625
30
0.0000000000
10
-11.2590257796
20
-75.2740442408
30
0.0000000000
10
-11.3276891354
20
-75.2910967655
30
0.0000000000
10
-11.3972513033
20
-75.3028174226
30
0.0000000000
11
-11.1920378519
21
-75.2524911625
31
0.0000000000
11
-11.3972513033
21
-75.3028174226
31
0.0000000000
0
SPLINE
5
33D
100
AcDbEntity
8
0
100
AcDbSpline
62
9
6
CONTINUOUS
70
0
71
3
72
9
73
5
74
3
42
0.0000001000
43
0.0000001000
44
0.0000000001
12
-0.2715684252
22
-0.0457570613
32
0.0000000000
13
-0.2748398769
23
0.0135144850
33
0.0000000000
40
0.0000000000
40
0.0000000000
40
0.0000000000
40
0.0000000000
40
0.3524126254
40
1.0000000000
40
1.0000000000
40
1.0000000000
40
1.0000000000
10
-11.3972513033
20
-75.3028174226
30
0.0000000000
10
-11.4291526839
20
-75.3081925447
30
0.0000000000
10
-11.5202118941
20
-75.3202628950
30
0.0000000000
10
-11.6121900567
20
-75.3226584357
30
0.0000000000
10
-11.6715176681
20
-75.3197411657
30
0.0000000000
11
-11.3972513033
21
-75.3028174226
31
0.0000000000
11
-11.4934476435
21
-75.3154984727
31
0.0000000000
11
-11.6715176681
21
-75.3197411657
31
0.0000000000
0
SPLINE
5
33E
100
AcDbEntity
8
0
100
AcDbSpline
62
9
6
CONTINUOUS
70
0
71
3
72
12
73
8
74
6
42
0.0000001000
43
0.0000001000
44
0.0000000001
12
-0.7835018071
22
0.0385265177
32
0.0000000000
13
-0.5135087662
23
0.5927765395
33
0.0000000000
40
0.0000000000
40
0.0000000000
40
0.0000000000
40
0.0000000000
40
0.1051187807
40
0.3912620859
40
0.6413856337
40
0.8640364611
40
1.0000000000
40
1.0000000000
40
1.0000000000
40
1.0000000000
10
-11.6715176681
20
-75.3197411657
30
0.0000000000
10
-11.6989712530
20
-75.3183912122
30
0.0000000000
10
-11.8009677781
20
-75.3098049784
30
0.0000000000
10
-11.9656199473
20
-75.2730731910
30
0.0000000000
10
-12.1471045908
20
-75.1902200013
30
0.0000000000
10
-12.2763772719
20
-75.0960313582
30
0.0000000000
10
-12.3422852074
20
-75.0290760527
30
0.0000000000
10
-12.3655580305
20
-75.0022107207
30
0.0000000000
11
-11.6715176681
21
-75.3197411657
31
0.0000000000
11
-11.7536650325
21
-75.3127799283
31
0.0000000000
11
-11.9721830016
21
-75.2630856744
31
0.0000000000
11
-12.1501312884
21
-75.1811924877
31
0.0000000000
11
-12.2908359976
21
-75.0781979428
31
0.0000000000
11
-12.3655580305
21
-75.0022107207
31
0.0000000000
0
SPLINE
5
33F
100
AcDbEntity
8
0
100
AcDbSpline
62
9
6
CONTINUOUS
70
0
71
3
72
13
73
9
74
7
42
0.0000001000
43
0.0000001000
44
0.0000000001
12
-0.4373490757
22
0.5048604594
32
0.0000000000
13
0.0486422877
23
0.6652357427
33
0.0000000000
40
0.0000000000
40
0.0000000000
40
0.0000000000
40
0.0000000000
40
0.0759851426
40
0.2901636907
40
0.4866654925
40
0.6687408871
40
0.8384857043
40
1.0000000000
40
1.0000000000
40
1.0000000000
40
1.0000000000
10
-12.3655580305
20
-75.0022107207
30
0.0000000000
10
-12.3766353745
20
-74.9894234227
30
0.0000000000
10
-12.4174523939
20
-74.9393121318
30
0.0000000000
10
-12.4757683628
20
-74.8475069678
30
0.0000000000
10
-12.5269627074
20
-74.7254466181
30
0.0000000000
10
-12.5564573214
20
-74.6067084437
30
0.0000000000
10
-12.5685393151
20
-74.4929071592
30
0.0000000000
10
-12.5672800524
20
-74.4190752289
30
0.0000000000
10
-12.5646612442
20
-74.3832602014
30
0.0000000000
11
-12.3655580305
21
-75.0022107207
31
0.0000000000
11
-12.3975981685
21
-74.9628609430
31
0.0000000000
11
-12.4741489822
21
-74.8422423700
31
0.0000000000
11
-12.5248860813
21
-74.7213919171
31
0.0000000000
11
-12.5542697700
21
-74.6035537513
31
0.0000000000
11
-12.5663551626
21
-74.4909788154
31
0.0000000000
11
-12.5646612442
21
-74.3832602014
31
0.0000000000
0
SPLINE
5
340
100
AcDbEntity
8
0
100
AcDbSpline
62
9
6
CONTINUOUS
70
0
71
3
72
8
73
4
74
2
42
0.0000001000
43
0.0000001000
44
0.0000000001
12
-0.0039213023
22
-0.0226678639
32
0.0000000000
13
-0.0040563096
23
-0.0226441578
33
0.0000000000
40
0.0000000000
40
0.0000000000
40
0.0000000000
40
0.0000000000
40
1.0000000000
40
1.0000000000
40
1.0000000000
40
1.0000000000
10
12.4457648635
20
-62.1255227948
30
0.0000000000
10
12.4444577627
20
-62.1330787495
30
0.0000000000
10
12.4431280442
20
-62.1406307986
30
0.0000000000
10
12.4417759410
20
-62.1481788512
30
0.0000000000
11
12.4457648635
21
-62.1255227948
31
0.0000000000
11
12.4417759410
21
-62.1481788512
31
0.0000000000
0
SPLINE
5
341
100
AcDbEntity
8
0
100
AcDbSpline
62
9
6
CONTINUOUS
70
0
71
3
72
14
73
10
74
8
42
0.0000001000
43
0.0000001000
44
0.0000000001
12
-0.2236938511
22
-1.2487604024
32
0.0000000000
13
-0.6429973073
23
-1.0942143648
33
0.0000000000
40
0.0000000000
40
0.0000000000
40
0.0000000000
40
0.0000000000
40
0.0798323008
40
0.2132023264
40
0.3637055532
40
0.5313064217
40
0.7146530075
40
0.9117800956
40
1.0000000000
40
1.0000000000
40
1.0000000000
40
1.0000000000
10
12.4417759410
20
-62.1481788512
30
0.0000000000
10
12.4358232761
20
-62.1814093233
30
0.0000000000
10
12.4187672347
20
-62.2699486580
30
0.0000000000
10
12.3846341448
20
-62.4199523860
30
0.0000000000
10
12.3341783068
20
-62.6041437995
30
0.0000000000
10
12.2679727031
20
-62.8056923561
30
0.0000000000
10
12.1827448955
20
-63.0213825873
30
0.0000000000
10
12.0968924855
20
-63.2002325787
30
0.0000000000
10
12.0379373930
20
-63.3056104220
30
0.0000000000
10
12.0190290060
20
-63.3377875842
30
0.0000000000
11
12.4417759410
21
-62.1481788512
31
0.0000000000
11
12.4226362375
21
-62.2476301074
31
0.0000000000
11
12.3851198289
21
-62.4126070213
31
0.0000000000
11
12.3346457285
21
-62.5967377657
31
0.0000000000
11
12.2681725556
21
-62.7986921892
31
0.0000000000
11
12.1824431099
21
-63.0149036368
31
0.0000000000
11
12.0737521732
21
-63.2401163430
31
0.0000000000
11
12.0190290060
21
-63.3377875842
31
0.0000000000
0
SPLINE
5
342
100
AcDbEntity
8
0
100
AcDbSpline
62
9
6
CONTINUOUS
70
0
71
3
72
8
73
4
74
2
42
0.0000001000
43
0.0000001000
44
0.0000000001
12
-0.2506219089
22
-0.1214088123
32
0.0000000000
13
-0.2546124836
23
-0.1128993359
33
0.0000000000
40
0.0000000000
40
0.0000000000
40
0.0000000000
40
0.0000000000
40
1.0000000000
40
1.0000000000
40
1.0000000000
40
1.0000000000
10
-9.9716857926
20
-74.7687820964
30
0.0000000000
10
-10.0552264289
20
-74.8092517005
30
0.0000000000
10
-10.1394848778
20
-74.8482607564
30
0.0000000000
10
-10.2243557056
20
-74.8858938684
30
0.0000000000
11
-9.9716857926
21
-74.7687820964
31
0.0000000000
11
-10.2243557056
21
-74.8858938684
31
0.0000000000
0
SPLINE
5
343
100
AcDbEntity
8
0
100
AcDbSpline
62
9
6
CONTINUOUS
70
0
71
3
72
9
73
5
74
3
42
0.0000001000
43
0.0000001000
44
0.0000000001
12
-0.2617777705
22
-0.1160765413
32
0.0000000000
13
-0.2653486197
23
-0.1076176873
33
0.0000000000
40
0.0000000000
40
0.0000000000
40
0.0000000000
40
0.0000000000
40
0.4965737137
40
1.0000000000
40
1.0000000000
40
1.0000000000
40
1.0000000000
10
-10.2243557056
20
-74.8858938684
30
0.0000000000
10
-10.2676863589
20
-74.9051073881
30
0.0000000000
10
-10.3552670633
20
-74.9430773135
30
0.0000000000
10
-10.4434381976
20
-74.9796384217
30
0.0000000000
10
-10.4879660210
20
-74.9976976126
30
0.0000000000
11
-10.2243557056
21
-74.8858938684
31
0.0000000000
11
-10.3548125016
21
-74.9424697280
31
0.0000000000
11
-10.4879660210
21
-74.9976976126
31
0.0000000000
0
SPLINE
5
344
100
AcDbEntity
8
0
100
AcDbSpline
62
9
6
CONTINUOUS
70
0
71
3
72
9
73
5
74
3
42
0.0000001000
43
0.0000001000
44
0.0000000001
12
-0.6940222366
22
-0.2814752462
32
0.0000000000
13
-0.7128790138
23
-0.2293576935
33
0.0000000000
40
0.0000000000
40
0.0000000000
40
0.0000000000
40
0.0000000000
40
0.3926155324
40
1.0000000000
40
1.0000000000
40
1.0000000000
40
1.0000000000
10
-10.4879660210
20
-74.9976976126
30
0.0000000000
10
-10.5787939910
20
-75.0345347971
30
0.0000000000
10
-10.8116200654
20
-75.1246864007
30
0.0000000000
10
-11.0477073051
20
-75.2060550623
30
0.0000000000
10
-11.1920378519
20
-75.2524911625
30
0.0000000000
11
-10.4879660210
21
-74.9976976126
31
0.0000000000
11
-10.7621189560
21
-75.1039707730
31
0.0000000000
11
-11.1920378519
21
-75.2524911625
31
0.0000000000
0
SPLINE
5
345
100
AcDbEntity
8
0
100
AcDbSpline
62
7
6
CONTINUOUS
70
0
71
3
72
9
73
5
74
3
42
0.0000001000
43
0.0000001000
44
0.0000000001
12
-0.3847188748
22
-0.3744362734
32
0.0000000000
13
0.0108723735
23
-0.5374078921
33
0.0000000000
40
0.0000000000
40
0.0000000000
40
0.0000000000
40
0.0000000000
40
0.8951512805
40
1.0000000000
40
1.0000000000
40
1.0000000000
40
1.0000000000
10
-19.4802143445
20
29.1189729276
30
0.0000000000
10
-19.5950082090
20
29.0072472244
30
0.0000000000
10
-19.7051828365
20
28.8378916841
30
0.0000000000
10
-19.7116592611
20
28.6590519085
30
0.0000000000
10
-19.7112792763
20
28.6402697321
30
0.0000000000
11
-19.4802143445
21
29.1189729276
31
0.0000000000
11
-19.7091611908
21
28.6964498889
31
0.0000000000
11
-19.7112792763
21
28.6402697321
31
0.0000000000
0
SPLINE
5
346
100
AcDbEntity
8
0
100
AcDbSpline
62
7
6
CONTINUOUS
70
0
71
3
72
9
73
5
74
3
42
0.0000001000
43
0.0000001000
44
0.0000000001
12
0.0202213065
22
-0.9995140136
32
0.0000000000
13
0.8930694209
23
-0.4465347105
33
0.0000000000
40
0.0000000000
40
0.0000000000
40
0.0000000000
40
0.0000000000
40
0.3975301935
40
1.0000000000
40
1.0000000000
40
1.0000000000
40
1.0000000000
10
-19.7112792763
20
-32.8475339366
30
0.0000000000
10
-19.7085997496
20
-32.9799796030
30
0.0000000000
10
-19.5693880545
20
-33.3170355281
30
0.0000000000
10
-19.2765619076
20
-33.5014237862
30
0.0000000000
10
-19.0972127872
20
-33.5910983464
30
0.0000000000
11
-19.7112792763
21
-32.8475339366
31
0.0000000000
11
-19.5736423145
21
-33.2238333070
31
0.0000000000
11
-19.0972127872
21
-33.5910983464
31
0.0000000000
0
SPLINE
5
347
100
AcDbEntity
8
0
100
AcDbSpline
62
7
6
CONTINUOUS
70
0
71
3
72
9
73
5
74
3
42
0.0000001000
43
0.0000001000
44
0.0000000001
12
-5.7555840356
22
-3.6123758355
32
0.0000000000
13
-4.8672339844
23
-4.7371446381
33
0.0000000000
40
0.0000000000
40
0.0000000000
40
0.0000000000
40
0.0000000000
40
0.3890737474
40
1.0000000000
40
1.0000000000
40
1.0000000000
40
1.0000000000
10
-14.1149858139
20
33.2714354214
30
0.0000000000
10
-14.8614346970
20
32.8029418869
30
0.0000000000
10
-16.7398050798
20
31.5348000055
30
0.0000000000
10
-18.4890406717
20
30.0836549348
30
0.0000000000
10
-19.4802143445
20
29.1189729276
30
0.0000000000
11
-14.1149858139
21
33.2714354214
31
0.0000000000
11
-16.3035356893
21
31.7884377322
31
0.0000000000
11
-19.4802143445
21
29.1189729276
31
0.0000000000
0
SPLINE
5
348
100
AcDbEntity
8
0
100
AcDbSpline
62
7
6
CONTINUOUS
70
0
71
3
72
9
73
5
74
3
42
0.0000001000
43
0.0000001000
44
0.0000000001
12
0.0202213065
22
-0.9995140136
32
0.0000000000
13
0.8930694209
23
-0.4465347105
33
0.0000000000
40
0.0000000000
40
0.0000000000
40
0.0000000000
40
0.0000000000
40
0.3975301935
40
1.0000000000
40
1.0000000000
40
1.0000000000
40
1.0000000000
10
-19.7112792763
20
28.6402697321
30
0.0000000000
10
-19.7085997496
20
28.5078240657
30
0.0000000000
10
-19.5693880545
20
28.1707681406
30
0.0000000000
10
-19.2765619076
20
27.9863798825
30
0.0000000000
10
-19.0972127872
20
27.8967053223
30
0.0000000000
11
-19.7112792763
21
28.6402697321
31
0.0000000000
11
-19.5736423145
21
28.2639703617
31
0.0000000000
11
-19.0972127872
21
27.8967053223
31
0.0000000000
0
ENDSEC
0
SECTION
2
OBJECTS
0
DICTIONARY
5
349
100
AcDbDictionary
3
ACAD_GROUP
350
34A
3
ACAD_MLINESTYLE
350
34B
0
DICTIONARY
5
34A
102
{ACAD_REACTORS
330
349
102
}
100
AcDbDictionary
0
DICTIONARY
5
34B
102
{ACAD_REACTORS
330
349
102
}
100
AcDbDictionary
3
STANDARD
350
34C
0
MLINESTYLE
5
34C
102
{ACAD_REACTORS
330
34B
102
}
100
AcDbMlineStyle
2
STANDARD
70
0
3

62
256
51
90.0
52
90.0
71
2
49
0.5
62
256
6
BYLAYER
49
-0.5
62
256
6
BYLAYER
0
ENDSEC
0
EOF
