0
SECTION
2
HEADER
9
$ACADVER
1
AC1014
9
$HANDSEED
5
       291
9
$EXTMAX
10
297.0000000000
20
210.0000000000
9
$EXTMIN
10
0.0000000000
20
0.0000000000
9
$LIMMIN
10
0.0000000000
20
0.0000000000
9
$LIMMAX
10
297.0000000000
20
210.0000000000
9
$VIEWCTR
10
148.5000000000
20
105.0000000000
9
$VIEWSIZE
40
210.0000000000
9
$CLAYER
8
0
9
$LTSCALE
40
16.3350000000
9
$CELTYPE
6
BYLAYER
9
$DIMSCALE
40
1
9
$DIMASZ
40
3.0000000000
9
$DIMEXO
40
1.8562500000
9
$DIMDLI
40
11.2860000000
9
$DIMEXE
40
5.3460000000
9
$DIMCEN
40
2.6730000000
9
$DIMLFAC
40
1.0000000000
9
$DIMTXT
40
3.0000000000
9
$DIMTOL
70
1
9
$DIMLIM
70
0
9
$DIMTFAC
40
1.0000000000
9
$DIMTP
40
0.0100000000
9
$DIMTM
40
0.0100000000
9
$MEASUREMENT
70
1
0
ENDSEC
0
SECTION
2
CLASSES
0
ENDSEC
0
SECTION
2
TABLES
0
TABLE
2
VPORT
5
8
100
AcDbSymbolTable
70
2
0
VPORT
5
1F4
100
AcDbSymbolTableRecord
100
AcDbViewportTableRecord
2
*ACTIVE
70
0
10
0.0
20
0.0
11
1.0
21
1.0
12
148.5000000000
22
105.0000000000
13
0.0
23
0.0
14
1.0
24
1.0
15
0.0
25
0.0
16
0.0
26
0.0
36
1.0
17
0.0
27
0.0
37
0.0
40
210.0000000000
41
1.4142857143
42
50.0
43
0.0
44
0.0
50
0.0
51
0.0
71
0
72
100
73
1
74
1
75
0
76
0
77
0
78
0
0
ENDTAB
0
TABLE
2
LTYPE
5
5
100
AcDbSymbolTable
70
6
0
LTYPE
5
14
100
AcDbSymbolTableRecord
100
AcDbLinetypeTableRecord
2
BYBLOCK
70
0
3

72
65
73
0
40
0.0
0
LTYPE
5
15
100
AcDbSymbolTableRecord
100
AcDbLinetypeTableRecord
2
BYLAYER
70
0
3

72
65
73
0
40
0.0
0
LTYPE
5
16
100
AcDbSymbolTableRecord
100
AcDbLinetypeTableRecord
2
CONTINUOUS
70
64
3
Solid line
72
65
73
0
40
0
0
LTYPE
5
1F5
100
AcDbSymbolTableRecord
100
AcDbLinetypeTableRecord
2
CENTER
70
64
3
____ _ ____ _ ____ _ ____ _ ____ _ ____ _ ____
72
65
73
4
40
0.6
49
0.375
74
0
49
-0.075
74
0
49
0.075
74
0
49
-0.075
74
0
0
LTYPE
5
1F6
100
AcDbSymbolTableRecord
100
AcDbLinetypeTableRecord
2
HIDDEN
70
64
3
- - - - - - - - - - - - - - - - - - - -
72
65
73
2
40
0.2
49
0.1
74
0
49
-0.1
74
0
0
LTYPE
5
1F7
100
AcDbSymbolTableRecord
100
AcDbLinetypeTableRecord
2
PHANTOM
70
64
3
_____ _ _ _____ _ _ _____ _ _ _____
72
65
73
6
40
0.8
49
0.45
74
0
49
-0.05
74
0
49
0.1
74
0
49
-0.05
74
0
49
0.1
74
0
49
-0.05
74
0
0
LTYPE
5
1F8
100
AcDbSymbolTableRecord
100
AcDbLinetypeTableRecord
2
DOT
70
64
3
. . . . . . . . . . . . . . . . . . . .
72
65
73
2
40
0.2
49
0.1
74
0
49
-0.1
74
0
0
LTYPE
5
1F9
100
AcDbSymbolTableRecord
100
AcDbLinetypeTableRecord
2
DASHED
70
64
3
- - - - - - - - - - - - - - - - - - - -
72
65
73
2
40
0.2
49
0.1
74
0
49
-0.1
74
0
0
ENDTAB
0
TABLE
2
LAYER
5
2
100
AcDbSymbolTable
70
36
0
LAYER
5
10
100
AcDbSymbolTableRecord
100
AcDbLayerTableRecord
2
0
70
0
62
7
6
CONTINUOUS
0
LAYER
5
1FA
100
AcDbSymbolTableRecord
100
AcDbLayerTableRecord
2
DEFAULT_1
70
0
62
7
6
CENTER
0
LAYER
5
1FB
100
AcDbSymbolTableRecord
100
AcDbLayerTableRecord
2
DEFAULT_2
70
0
62
8
6
HIDDEN
0
LAYER
5
1FC
100
AcDbSymbolTableRecord
100
AcDbLayerTableRecord
2
DEFAULT_3
70
0
62
7
6
PHANTOM
0
LAYER
5
1FD
100
AcDbSymbolTableRecord
100
AcDbLayerTableRecord
2
ASSI
70
0
62
7
6
CONTINUOUS
0
LAYER
5
1FE
100
AcDbSymbolTableRecord
100
AcDbLayerTableRecord
2
COORDINATE
70
0
62
7
6
CONTINUOUS
0
LAYER
5
1FF
100
AcDbSymbolTableRecord
100
AcDbLayerTableRecord
2
COORD_ORIGINE
70
0
62
7
6
CONTINUOUS
0
LAYER
5
200
100
AcDbSymbolTableRecord
100
AcDbLayerTableRecord
2
PIANI
70
0
62
7
6
CONTINUOUS
0
LAYER
5
201
100
AcDbSymbolTableRecord
100
AcDbLayerTableRecord
2
PIANI_ORIGINE
70
0
62
7
6
CONTINUOUS
0
LAYER
5
202
100
AcDbSymbolTableRecord
100
AcDbLayerTableRecord
2
RACCORDO
70
0
62
7
6
CONTINUOUS
0
LAYER
5
203
100
AcDbSymbolTableRecord
100
AcDbLayerTableRecord
2
TRASH
70
0
62
7
6
CONTINUOUS
0
ENDTAB
0
TABLE
2
STYLE
5
3
100
AcDbSymbolTable
70
1
0
STYLE
5
11
100
AcDbSymbolTableRecord
100
AcDbTextStyleTableRecord
2
STANDARD
70
0
40
0.0
41
0.8000000000
50
0.0
71
0
42
0.2
3
txt
4

0
ENDTAB
0
TABLE
2
VIEW
5
6
100
AcDbSymbolTable
70
0
0
ENDTAB
0
TABLE
2
UCS
5
7
100
AcDbSymbolTable
70
0
0
ENDTAB
0
TABLE
2
APPID
5
9
100
AcDbSymbolTable
70
1
0
APPID
5
204
100
AcDbSymbolTableRecord
100
AcDbRegAppTableRecord
2
ACAD
70
0
0
ENDTAB
0
TABLE
2
DIMSTYLE
5
A
100
AcDbSymbolTable
70
1
0
DIMSTYLE
105
205
100
AcDbSymbolTableRecord
100
AcDbDimStyleTableRecord
2
STANDARD
70
0
3

4

5

6

7

40
1.0
41
3.0000000000
42
0.0625
43
0.38
44
0.18
45
0.0
46
0.0
47
0.0100000000
48
0.0100000000
140
3.0000000000
141
0.09
142
0.0
143
25.4
144
1.0000000000
145
0.0
146
1.0000000000
147
0.09
71
1
72
0
73
0
74
0
75
0
76
0
77
1
78
8
170
0
171
2
172
0
173
0
174
0
175
0
176
0
177
0
178
0
270
2
271
2
272
2
273
2
274
2
340
11
275
0
280
0
281
0
282
0
283
1
284
8
285
0
286
0
287
3
288
0
0
ENDTAB
0
TABLE
2
BLOCK_RECORD
5
1
100
AcDbSymbolTable
70
0
0
BLOCK_RECORD
5
1B
100
AcDbSymbolTableRecord
100
AcDbBlockTableRecord
2
*MODEL_SPACE
0
BLOCK_RECORD
5
1C
100
AcDbSymbolTableRecord
100
AcDbBlockTableRecord
2
*PAPER_SPACE
0
ENDTAB
0
ENDSEC
0
SECTION
2
BLOCKS
0
BLOCK
5
1E
100
AcDbEntity
8
0
100
AcDbBlockBegin
2
*MODEL_SPACE
70
0
10
0.0
20
0.0
30
0.0
3
*MODEL_SPACE
1

0
ENDBLK
5
1F
100
AcDbEntity
8
0
100
AcDbBlockEnd
0
BLOCK
5
20
100
AcDbEntity
8
0
100
AcDbBlockBegin
2
*PAPER_SPACE
70
0
10
0.0
20
0.0
30
0.0
3
*PAPER_SPACE
1

0
ENDBLK
5
21
100
AcDbEntity
8
0
100
AcDbBlockEnd
0
ENDSEC
0
SECTION
2
ENTITIES
0
LINE
5
206
100
AcDbEntity
8
0
100
AcDbLine
62
7
6
CONTINUOUS
10
-88.1916298530
20
-63.1448119628
11
-89.2522900248
21
-62.6144818769
0
LINE
5
207
100
AcDbEntity
8
0
100
AcDbLine
62
7
6
CONTINUOUS
10
-90.2918627675
20
-60.4509866753
11
-90.2918627675
21
-29.2740721391
0
LINE
5
208
100
AcDbEntity
8
0
100
AcDbLine
62
7
6
CONTINUOUS
10
-89.2312025957
20
-60.9813167612
11
-89.2312025957
21
-29.8044022249
0
LINE
5
209
100
AcDbEntity
8
0
100
AcDbLine
62
9
6
CONTINUOUS
10
-89.2312025957
20
-60.9813167612
11
-90.2918627675
21
-60.4509866753
0
LINE
5
20A
100
AcDbEntity
8
0
100
AcDbLine
62
7
6
CONTINUOUS
10
-83.3923678309
20
-17.9166204742
11
-83.3923678309
21
-16.6175823685
0
LINE
5
20B
100
AcDbEntity
8
0
100
AcDbLine
62
9
6
CONTINUOUS
10
-82.5136881745
20
-18.9772806460
11
-82.5136881745
21
-17.6782425403
0
LINE
5
20C
100
AcDbEntity
8
0
100
AcDbLine
62
9
6
CONTINUOUS
10
-77.2389602319
20
-57.0350836320
11
-77.5186570075
21
-56.8952352442
0
LINE
5
20D
100
AcDbEntity
8
0
100
AcDbLine
62
7
6
CONTINUOUS
10
-78.6246008779
20
-59.1421175174
11
-78.6246008779
21
-57.8430794118
0
LINE
5
20E
100
AcDbEntity
8
0
100
AcDbLine
62
9
6
CONTINUOUS
10
-78.6246008779
20
-19.6227861885
11
-78.6246008779
21
-20.9218242942
0
LINE
5
20F
100
AcDbEntity
8
0
100
AcDbLine
62
7
6
CONTINUOUS
10
-78.6246008779
20
-21.0369997509
11
-78.6246008779
21
-22.3360378566
0
LINE
5
210
100
AcDbEntity
8
0
100
AcDbLine
62
9
6
CONTINUOUS
10
-84.8117852133
20
-45.1535795433
11
-83.7511250415
21
-45.6839096292
0
LINE
5
211
100
AcDbEntity
8
0
100
AcDbLine
62
9
6
CONTINUOUS
10
-82.3369114792
20
-43.9161426763
11
-81.2762513074
21
-44.4464727621
0
LINE
5
212
100
AcDbEntity
8
0
100
AcDbLine
62
9
6
CONTINUOUS
10
-67.3108923789
20
-45.0633871640
11
-66.2502322072
21
-45.5937172499
0
LINE
5
213
100
AcDbEntity
8
0
100
AcDbLine
62
9
6
CONTINUOUS
10
-89.2312025957
20
-29.8044022249
11
-90.2918627675
21
-29.2740721391
0
LINE
5
214
100
AcDbEntity
8
0
100
AcDbLine
62
9
6
CONTINUOUS
10
-86.4027754710
20
-24.9260870474
11
-87.4634356428
21
-24.3957569615
0
LINE
5
215
100
AcDbEntity
8
0
100
AcDbLine
62
9
6
CONTINUOUS
10
-78.6164876869
20
-22.4195537634
11
-78.2710474873
21
-22.5922738632
0
LINE
5
216
100
AcDbEntity
8
0
100
AcDbLine
62
9
6
CONTINUOUS
10
-77.4932300280
20
-22.2033651335
11
-78.5538901998
21
-21.6730350476
0
LINE
5
217
100
AcDbEntity
8
0
100
AcDbLine
62
7
6
CONTINUOUS
10
-78.6246008779
20
-21.0369997509
11
-79.6852610497
21
-20.5066696650
0
LINE
5
218
100
AcDbEntity
8
0
100
AcDbLine
62
9
6
CONTINUOUS
10
-77.2389602319
20
-21.7012471576
11
-78.4124688436
21
-21.1144928518
0
LINE
5
219
100
AcDbEntity
8
0
100
AcDbLine
62
7
6
CONTINUOUS
10
-82.5136881745
20
-18.9772806460
11
-78.6246008779
21
-20.9218242942
0
LINE
5
21A
100
AcDbEntity
8
0
100
AcDbLine
62
7
6
CONTINUOUS
10
-82.5136881745
20
-17.6782425403
11
-78.6246008779
21
-19.6227861885
0
LINE
5
21B
100
AcDbEntity
8
0
100
AcDbLine
62
7
6
CONTINUOUS
10
68.8071629995
20
60.1035033902
11
-82.5136881745
21
-15.5569221967
0
LINE
5
21C
100
AcDbEntity
8
0
100
AcDbLine
62
9
6
CONTINUOUS
10
76.9388909831
20
58.1589597420
11
-78.6246008779
21
-19.6227861885
0
LINE
5
21D
100
AcDbEntity
8
0
100
AcDbLine
62
7
6
CONTINUOUS
10
86.4848325291
20
62.5783771244
11
78.7066579361
21
58.6892898279
0
LINE
5
21E
100
AcDbEntity
8
0
100
AcDbLine
62
7
6
CONTINUOUS
10
-79.6852610497
20
-20.5066696650
11
-87.4634356428
21
-24.3957569615
0
LINE
5
21F
100
AcDbEntity
8
0
100
AcDbLine
62
7
6
CONTINUOUS
10
87.5454927009
20
62.0480470385
11
79.7673181079
21
58.1589597420
0
LINE
5
220
100
AcDbEntity
8
0
100
AcDbLine
62
7
6
CONTINUOUS
10
-78.6246008779
20
-21.0369997509
11
-86.4027754710
21
-24.9260870474
0
LINE
5
221
100
AcDbEntity
8
0
100
AcDbLine
62
7
6
CONTINUOUS
10
78.3531045455
20
56.7804623250
11
78.1607690316
21
56.6842945680
0
LINE
5
222
100
AcDbEntity
8
0
100
AcDbLine
62
7
6
CONTINUOUS
10
-78.5538901456
20
-21.6730350205
11
-78.6246008779
21
-21.7083903867
0
LINE
5
223
100
AcDbEntity
8
0
100
AcDbLine
62
7
6
CONTINUOUS
10
79.4137647173
20
56.2501322391
11
78.6359472049
21
55.8612234829
0
LINE
5
224
100
AcDbEntity
8
0
100
AcDbLine
62
9
6
CONTINUOUS
10
78.6359472049
20
55.8612234829
11
-77.4932299738
21
-22.2033651064
0
LINE
5
225
100
AcDbEntity
8
0
100
AcDbLine
62
7
6
CONTINUOUS
10
-77.4932299738
20
-22.2033651064
11
-78.2710474873
21
-22.5922738632
0
LINE
5
226
100
AcDbEntity
8
0
100
AcDbLine
62
7
6
CONTINUOUS
10
67.3929494371
20
44.6105594744
11
-66.2502322072
21
-22.2110313477
0
LINE
5
227
100
AcDbEntity
8
0
100
AcDbLine
62
7
6
CONTINUOUS
10
-83.7511250415
20
-39.6217318027
11
-81.2762513074
21
-38.3842949356
0
LINE
5
228
100
AcDbEntity
8
0
100
AcDbLine
62
7
6
CONTINUOUS
10
82.4189685373
20
43.4633149867
11
84.8938422715
21
44.7007518538
0
LINE
5
229
100
AcDbEntity
8
0
100
AcDbLine
62
7
6
CONTINUOUS
10
83.8331820997
20
39.1689041132
11
81.3583083655
21
37.9314672461
0
LINE
5
22A
100
AcDbEntity
8
0
100
AcDbLine
62
7
6
CONTINUOUS
10
-82.3369114792
20
-43.9161426763
11
-84.8117852133
21
-45.1535795433
0
LINE
5
22B
100
AcDbEntity
8
0
100
AcDbLine
62
7
6
CONTINUOUS
10
84.8938422715
20
38.6385740273
11
82.4189685373
21
37.4011371602
0
LINE
5
22C
100
AcDbEntity
8
0
100
AcDbLine
62
7
6
CONTINUOUS
10
-81.2762513074
20
-44.4464727621
11
-83.7511250415
21
-45.6839096292
0
LINE
5
22D
100
AcDbEntity
8
0
100
AcDbLine
62
7
6
CONTINUOUS
10
68.4683311293
20
23.1280077943
11
-69.4469342429
21
-45.8296248918
0
LINE
5
22E
100
AcDbEntity
8
0
100
AcDbLine
62
7
6
CONTINUOUS
10
-67.3108923789
20
-45.0633871640
11
66.3322892653
21
21.7582036581
0
LINE
5
22F
100
AcDbEntity
8
0
100
AcDbLine
62
7
6
CONTINUOUS
10
-66.2502322072
20
-45.5937172499
11
67.3929494371
21
21.2278735723
0
LINE
5
230
100
AcDbEntity
8
0
100
AcDbLine
62
7
6
CONTINUOUS
10
-78.2710474873
20
-57.2332900146
11
-77.4932299749
21
-56.8443812583
0
LINE
5
231
100
AcDbEntity
8
0
100
AcDbLine
62
9
6
CONTINUOUS
10
78.6359472033
20
21.2202073308
11
-77.4932299749
21
-56.8443812583
0
LINE
5
232
100
AcDbEntity
8
0
100
AcDbLine
62
7
6
CONTINUOUS
10
78.6359472033
20
21.2202073308
11
79.4137647173
21
21.6091160877
0
LINE
5
233
100
AcDbEntity
8
0
100
AcDbLine
62
7
6
CONTINUOUS
10
-77.7301736869
20
-57.7847075295
11
77.8333181741
21
19.9970384010
0
LINE
5
234
100
AcDbEntity
8
0
100
AcDbLine
62
7
6
CONTINUOUS
10
87.5454927009
20
23.9429292720
11
79.7673181079
21
20.0538419755
0
LINE
5
235
100
AcDbEntity
8
0
100
AcDbLine
62
7
6
CONTINUOUS
10
-78.6246008779
20
-59.1421175174
11
-86.4027754710
21
-63.0312048140
0
LINE
5
236
100
AcDbEntity
8
0
100
AcDbLine
62
9
6
CONTINUOUS
10
66.3322892653
20
21.7582036581
11
67.3929494371
21
21.2278735723
0
LINE
5
237
100
AcDbEntity
8
0
100
AcDbLine
62
7
6
CONTINUOUS
10
79.7673181079
20
20.0538419755
11
78.7066579361
21
20.5841720614
0
LINE
5
238
100
AcDbEntity
8
0
100
AcDbLine
62
9
6
CONTINUOUS
10
79.3343054060
20
21.5693864321
11
79.7673181079
21
21.3528800811
0
LINE
5
239
100
AcDbEntity
8
0
100
AcDbLine
62
9
6
CONTINUOUS
10
81.3583083655
20
37.9314672461
11
82.4189685373
21
37.4011371602
0
LINE
5
23A
100
AcDbEntity
8
0
100
AcDbLine
62
9
6
CONTINUOUS
10
83.8331820997
20
39.1689041132
11
84.8938422715
21
38.6385740273
0
LINE
5
23B
100
AcDbEntity
8
0
100
AcDbLine
62
7
6
CONTINUOUS
10
78.7066579361
20
21.2202073580
11
78.7066579361
21
20.5841720614
0
LINE
5
23C
100
AcDbEntity
8
0
100
AcDbLine
62
7
6
CONTINUOUS
10
78.7066579361
20
57.3902517222
11
78.7066579361
21
58.6892898279
0
LINE
5
23D
100
AcDbEntity
8
0
100
AcDbLine
62
7
6
CONTINUOUS
10
79.7673181079
20
58.1589597420
11
79.7673181079
21
56.8599216363
0
LINE
5
23E
100
AcDbEntity
8
0
100
AcDbLine
62
7
6
CONTINUOUS
10
79.7673181079
20
20.0538419755
11
79.7673181079
21
21.3528800811
0
LINE
5
23F
100
AcDbEntity
8
0
100
AcDbLine
62
9
6
CONTINUOUS
10
78.6359472580
20
55.8612235095
11
78.3412311693
21
56.0085815538
0
LINE
5
240
100
AcDbEntity
8
0
100
AcDbLine
62
9
6
CONTINUOUS
10
78.3531045455
20
56.7804623250
11
79.4137647173
21
56.2501322391
0
LINE
5
241
100
AcDbEntity
8
0
100
AcDbLine
62
7
6
CONTINUOUS
10
73.0498036866
20
60.1035033902
11
76.9388909831
21
58.1589597420
0
LINE
5
242
100
AcDbEntity
8
0
100
AcDbLine
62
9
6
CONTINUOUS
10
78.7066579361
20
57.3902517222
11
79.7673181079
21
56.8599216363
0
LINE
5
243
100
AcDbEntity
8
0
100
AcDbLine
62
7
6
CONTINUOUS
10
79.7673181079
20
58.1589597420
11
78.7066579361
21
58.6892898279
0
LINE
5
244
100
AcDbEntity
8
0
100
AcDbLine
62
7
6
CONTINUOUS
10
90.3739198257
20
28.8212444495
11
90.3739198257
21
59.9981589857
0
LINE
5
245
100
AcDbEntity
8
0
100
AcDbLine
62
9
6
CONTINUOUS
10
87.5454927009
20
62.0480470385
11
86.4848325291
21
62.5783771244
0
LINE
5
246
100
AcDbEntity
8
0
100
AcDbLine
62
7
6
CONTINUOUS
10
89.3343470829
20
62.1616541874
11
88.2736869111
21
62.6919842733
0
SPLINE
5
247
100
AcDbEntity
8
0
100
AcDbSpline
62
7
6
CONTINUOUS
70
0
71
3
72
19
73
15
74
13
42
0.0000001000
43
0.0000001000
44
0.0000000001
12
-25.4830868333
22
12.7724237501
32
0.0000000000
13
25.3755263593
23
12.6877631797
33
0.0000000000
40
0.0000000000
40
0.0000000000
40
0.0000000000
40
0.0000000000
40
0.0446997208
40
0.1088314443
40
0.1792983043
40
0.2576313340
40
0.3437820509
40
0.4365230072
40
0.5338319544
40
0.6332114005
40
0.7319646195
40
0.8274541840
40
0.9173656102
40
1.0000000000
40
1.0000000000
40
1.0000000000
40
1.0000000000
10
-72.2863699584
20
-45.9772275563
30
0.0000000000
10
-72.6660655803
20
-45.7869196313
30
0.0000000000
10
-73.5333939117
20
-45.2075795646
30
0.0000000000
10
-74.6275042581
20
-43.8761213420
30
0.0000000000
10
-75.4280089727
20
-42.0049760784
30
0.0000000000
10
-75.8221516521
20
-39.8027827198
30
0.0000000000
10
-75.8043911709
20
-37.3588441629
30
0.0000000000
10
-75.3794518012
20
-34.7722982005
30
0.0000000000
10
-74.5663121883
20
-32.1503768276
30
0.0000000000
10
-73.3995585787
20
-29.6033763767
30
0.0000000000
10
-71.9287584992
20
-27.2391727525
30
0.0000000000
10
-70.2155246398
20
-25.1575963654
30
0.0000000000
10
-68.3325568954
20
-23.4470283137
30
0.0000000000
10
-66.9491959191
20
-22.5605132037
30
0.0000000000
10
-66.2502322072
20
-22.2110313477
30
0.0000000000
11
-72.2863699584
21
-45.9772275563
31
0.0000000000
11
-73.3442492714
21
-45.2724182289
31
0.0000000000
11
-74.5172600891
21
-43.8815597153
31
0.0000000000
11
-75.3289621187
21
-42.0545629135
31
0.0000000000
11
-75.7438800866
21
-39.8712763507
31
0.0000000000
11
-75.7438800866
21
-37.4271201263
31
0.0000000000
11
-75.3289621187
21
-34.8289155956
31
0.0000000000
11
-74.5172600891
21
-32.1902167642
31
0.0000000000
11
-73.3442492714
21
-29.6263474329
31
0.0000000000
11
-71.8611958672
21
-27.2493609943
31
0.0000000000
11
-70.1329164266
21
-25.1631431618
31
0.0000000000
11
-68.2349450544
21
-23.4588716655
31
0.0000000000
11
-66.2502322072
21
-22.2110313477
31
0.0000000000
0
SPLINE
5
248
100
AcDbEntity
8
0
100
AcDbSpline
62
7
6
CONTINUOUS
70
0
71
3
72
10
73
6
74
4
42
0.0000001000
43
0.0000001000
44
0.0000000001
12
1.6689773624
22
-0.8319730156
32
0.0000000000
13
1.6548624562
23
0.8274312281
33
0.0000000000
40
0.0000000000
40
0.0000000000
40
0.0000000000
40
0.0000000000
40
0.2133608788
40
0.5871130325
40
1.0000000000
40
1.0000000000
40
1.0000000000
40
1.0000000000
10
-88.1920336515
20
-63.1438995488
30
0.0000000000
10
-88.0733354926
20
-63.2030697134
30
0.0000000000
10
-87.7253305968
20
-63.3239406299
30
0.0000000000
10
-87.0933976610
20
-63.3133023283
30
0.0000000000
10
-86.6305325181
20
-63.1450833375
30
0.0000000000
10
-86.4027754710
20
-63.0312048140
30
0.0000000000
11
-88.1920336515
21
-63.1438995488
31
0.0000000000
11
-87.8173618306
21
-63.2741327248
31
0.0000000000
11
-87.1258572698
21
-63.2776333589
31
0.0000000000
11
-86.4027754710
21
-63.0312048140
31
0.0000000000
0
SPLINE
5
249
100
AcDbEntity
8
0
100
AcDbSpline
62
7
6
CONTINUOUS
70
0
71
3
72
10
73
6
74
4
42
0.0000001000
43
0.0000001000
44
0.0000000001
12
-0.2337355743
22
0.1140031753
32
0.0000000000
13
-0.0289043493
23
0.2566595261
33
0.0000000000
40
0.0000000000
40
0.0000000000
40
0.0000000000
40
0.0000000000
40
0.1205454484
40
0.6197046715
40
1.0000000000
40
1.0000000000
40
1.0000000000
40
1.0000000000
10
-78.4947738933
20
-22.6060189135
30
0.0000000000
10
-78.5041658132
20
-22.6014380589
30
0.0000000000
10
-78.5503560636
20
-22.5740795786
30
0.0000000000
10
-78.6010340520
20
-22.4987264641
30
0.0000000000
10
-78.6179460399
20
-22.4243294114
30
0.0000000000
10
-78.6216101029
20
-22.3917939384
30
0.0000000000
11
-78.4947738933
21
-22.6060189135
31
0.0000000000
11
-78.5215763074
21
-22.5900627466
31
0.0000000000
11
-78.5981482708
21
-22.4871514939
31
0.0000000000
11
-78.6216101029
21
-22.3917939384
31
0.0000000000
0
SPLINE
5
24A
100
AcDbEntity
8
0
100
AcDbSpline
62
7
6
CONTINUOUS
70
0
71
3
72
8
73
4
74
2
42
0.0000001000
43
0.0000001000
44
0.0000000001
12
-0.0062631869
22
0.0556146958
32
0.0000000000
13
0.0000000000
23
0.0556837804
33
0.0000000000
40
0.0000000000
40
0.0000000000
40
0.0000000000
40
0.0000000000
40
1.0000000000
40
1.0000000000
40
1.0000000000
40
1.0000000000
10
-78.6216101029
20
-22.3917939384
30
0.0000000000
10
-78.6236978318
20
-22.3732557065
30
0.0000000000
10
-78.6246008779
20
-22.3545991167
30
0.0000000000
10
-78.6246008779
20
-22.3360378566
30
0.0000000000
11
-78.6216101029
21
-22.3917939384
31
0.0000000000
11
-78.6246008779
21
-22.3360378566
31
0.0000000000
0
SPLINE
5
24B
100
AcDbEntity
8
0
100
AcDbSpline
62
7
6
CONTINUOUS
70
0
71
3
72
10
73
6
74
4
42
0.0000001000
43
0.0000001000
44
0.0000000001
12
-1.4583726238
22
0.7324479115
32
0.0000000000
13
-1.4459119535
23
-0.7229559767
33
0.0000000000
40
0.0000000000
40
0.0000000000
40
0.0000000000
40
0.0000000000
40
0.1495565444
40
0.5466245793
40
1.0000000000
40
1.0000000000
40
1.0000000000
40
1.0000000000
10
86.4583192818
20
44.7995391764
30
0.0000000000
10
86.3856162252
20
44.8360533025
30
0.0000000000
10
86.1082010952
20
44.9455752079
30
0.0000000000
10
85.5529280143
20
44.9651468747
30
0.0000000000
10
85.1123559182
20
44.8100086771
30
0.0000000000
10
84.8938422715
20
44.7007518538
30
0.0000000000
11
86.4583192818
21
44.7995391764
31
0.0000000000
11
86.2318600302
21
44.8885860765
31
0.0000000000
11
85.5910947764
21
44.9265977077
31
0.0000000000
11
84.8938422715
21
44.7007518538
31
0.0000000000
0
SPLINE
5
24C
100
AcDbEntity
8
0
100
AcDbSpline
62
7
6
CONTINUOUS
70
0
71
3
72
10
73
6
74
4
42
0.0000001000
43
0.0000001000
44
0.0000000001
12
-1.4583726238
22
0.7324479115
32
0.0000000000
13
-1.4459119535
23
-0.7229559767
33
0.0000000000
40
0.0000000000
40
0.0000000000
40
0.0000000000
40
0.0000000000
40
0.1495565444
40
0.5466245793
40
1.0000000000
40
1.0000000000
40
1.0000000000
40
1.0000000000
10
-79.7117742970
20
-38.2855076131
30
0.0000000000
10
-79.7844773537
20
-38.2489934869
30
0.0000000000
10
-80.0618924836
20
-38.1394715815
30
0.0000000000
10
-80.6171655645
20
-38.1198999147
30
0.0000000000
10
-81.0577376606
20
-38.2750381123
30
0.0000000000
10
-81.2762513074
20
-38.3842949356
30
0.0000000000
11
-79.7117742970
21
-38.2855076131
31
0.0000000000
11
-79.9382335486
21
-38.1964607129
31
0.0000000000
11
-80.5789988024
21
-38.1584490817
31
0.0000000000
11
-81.2762513074
21
-38.3842949356
31
0.0000000000
0
SPLINE
5
24D
100
AcDbEntity
8
0
100
AcDbSpline
62
7
6
CONTINUOUS
70
0
71
3
72
9
73
5
74
3
42
0.0000001000
43
0.0000001000
44
0.0000000001
12
-0.0904397494
22
0.0437382395
32
0.0000000000
13
-0.0559523667
23
0.0835837270
33
0.0000000000
40
0.0000000000
40
0.0000000000
40
0.0000000000
40
0.0000000000
40
0.2754268024
40
1.0000000000
40
1.0000000000
40
1.0000000000
40
1.0000000000
10
78.4558063525
20
55.8509654543
30
0.0000000000
10
78.4475031755
20
55.8549810154
30
0.0000000000
10
78.4186262965
20
55.8719336113
30
0.0000000000
10
78.3961726004
20
55.8969656471
30
0.0000000000
10
78.3826587386
20
55.9171531565
30
0.0000000000
11
78.4558063525
21
55.8509654543
31
0.0000000000
11
78.4320835048
21
55.8649323196
31
0.0000000000
11
78.3826587386
21
55.9171531565
31
0.0000000000
0
SPLINE
5
24E
100
AcDbEntity
8
0
100
AcDbSpline
62
7
6
CONTINUOUS
70
0
71
3
72
8
73
4
74
2
42
0.0000001000
43
0.0000001000
44
0.0000000001
12
-0.0220554007
22
0.0329471780
32
0.0000000000
13
-0.0174602635
23
0.0355287141
33
0.0000000000
40
0.0000000000
40
0.0000000000
40
0.0000000000
40
0.0000000000
40
1.0000000000
40
1.0000000000
40
1.0000000000
40
1.0000000000
10
78.3826587386
20
55.9171531565
30
0.0000000000
10
78.3753069384
20
55.9281355492
30
0.0000000000
10
78.3687706428
20
55.9397246438
30
0.0000000000
10
78.3629505550
20
55.9515675485
30
0.0000000000
11
78.3826587386
21
55.9171531565
31
0.0000000000
11
78.3629505550
21
55.9515675485
31
0.0000000000
0
SPLINE
5
24F
100
AcDbEntity
8
0
100
AcDbSpline
62
7
6
CONTINUOUS
70
0
71
3
72
8
73
4
74
2
42
0.0000001000
43
0.0000001000
44
0.0000000001
12
-0.0389456644
22
0.0792479093
32
0.0000000000
13
-0.0206344494
23
0.0847893618
33
0.0000000000
40
0.0000000000
40
0.0000000000
40
0.0000000000
40
0.0000000000
40
1.0000000000
40
1.0000000000
40
1.0000000000
40
1.0000000000
10
78.3629505550
20
55.9515675485
30
0.0000000000
10
78.3499686669
20
55.9779835183
30
0.0000000000
10
78.3405501056
20
56.0056622618
30
0.0000000000
10
78.3336719558
20
56.0339253824
30
0.0000000000
11
78.3629505550
21
55.9515675485
31
0.0000000000
11
78.3336719558
21
56.0339253824
31
0.0000000000
0
SPLINE
5
250
100
AcDbEntity
8
0
100
AcDbSpline
62
7
6
CONTINUOUS
70
0
71
3
72
8
73
4
74
2
42
0.0000001000
43
0.0000001000
44
0.0000000001
12
-0.0112343385
22
0.0461632085
32
0.0000000000
13
-0.0072113983
23
0.0468740893
33
0.0000000000
40
0.0000000000
40
0.0000000000
40
0.0000000000
40
0.0000000000
40
1.0000000000
40
1.0000000000
40
1.0000000000
40
1.0000000000
10
78.3336719558
20
56.0339253824
30
0.0000000000
10
78.3299271763
20
56.0493131186
30
0.0000000000
10
78.3269354286
20
56.0648740765
30
0.0000000000
10
78.3245316292
20
56.0804987729
30
0.0000000000
11
78.3336719558
21
56.0339253824
31
0.0000000000
11
78.3245316292
21
56.0804987729
31
0.0000000000
0
SPLINE
5
251
100
AcDbEntity
8
0
100
AcDbSpline
62
7
6
CONTINUOUS
70
0
71
3
72
10
73
6
74
4
42
0.0000001000
43
0.0000001000
44
0.0000000001
12
-0.1653617425
22
-0.9094895835
32
0.0000000000
13
-0.8343893252
23
-0.4172068749
33
0.0000000000
40
0.0000000000
40
0.0000000000
40
0.0000000000
40
0.0000000000
40
0.4333545015
40
0.8168782539
40
1.0000000000
40
1.0000000000
40
1.0000000000
40
1.0000000000
10
78.3245316292
20
20.7466622985
30
0.0000000000
10
78.3006448773
20
20.6152851635
30
0.0000000000
10
78.2249520994
20
20.3707020256
30
0.0000000000
10
78.0329660096
20
20.1189727654
30
0.0000000000
10
77.8839870684
20
20.0229050947
30
0.0000000000
10
77.8330554583
20
19.9974385443
30
0.0000000000
11
78.3245316292
21
20.7466622985
31
0.0000000000
11
78.1975004081
21
20.3667441158
31
0.0000000000
11
77.9760801090
21
20.0898611408
31
0.0000000000
11
77.8330554583
21
19.9974385443
31
0.0000000000
0
SPLINE
5
252
100
AcDbEntity
8
0
100
AcDbSpline
62
7
6
CONTINUOUS
70
0
71
3
72
9
73
5
74
3
42
0.0000001000
43
0.0000001000
44
0.0000000001
12
-0.3591302653
22
-0.1795703890
32
0.0000000000
13
-0.4008288302
23
0.0122644858
33
0.0000000000
40
0.0000000000
40
0.0000000000
40
0.0000000000
40
0.0000000000
40
0.4176449334
40
1.0000000000
40
1.0000000000
40
1.0000000000
40
1.0000000000
10
-77.7304364027
20
-57.7843073863
30
0.0000000000
10
-77.7804327146
20
-57.8093062740
30
0.0000000000
10
-77.9065716430
20
-57.8562898934
30
0.0000000000
10
-78.0404514498
20
-57.8685705455
30
0.0000000000
10
-78.1182596832
20
-57.8661897836
30
0.0000000000
11
-77.7304364027
21
-57.7843073863
31
0.0000000000
11
-77.8871455038
21
-57.8424980706
31
0.0000000000
11
-78.1182596832
21
-57.8661897836
31
0.0000000000
0
SPLINE
5
253
100
AcDbEntity
8
0
100
AcDbSpline
62
7
6
CONTINUOUS
70
0
71
3
72
9
73
5
74
3
42
0.0000001000
43
0.0000001000
44
0.0000000001
12
-0.4836945550
22
0.0147999958
32
0.0000000000
13
-0.4363275211
23
0.2025885497
33
0.0000000000
40
0.0000000000
40
0.0000000000
40
0.0000000000
40
0.0000000000
40
0.2533133526
40
1.0000000000
40
1.0000000000
40
1.0000000000
40
1.0000000000
10
-78.1182596832
20
-57.8661897836
30
0.0000000000
10
-78.1591017796
20
-57.8649401048
30
0.0000000000
10
-78.3201621488
20
-57.8496383683
30
0.0000000000
10
-78.4742752858
20
-57.7984465542
30
0.0000000000
10
-78.5828752637
20
-57.7480231659
30
0.0000000000
11
-78.1182596832
21
-57.8661897836
31
0.0000000000
11
-78.2402534762
21
-57.8548848544
31
0.0000000000
11
-78.5828752637
21
-57.7480231659
31
0.0000000000
0
SPLINE
5
254
100
AcDbEntity
8
0
100
AcDbSpline
62
7
6
CONTINUOUS
70
0
71
3
72
13
73
9
74
7
42
0.0000001000
43
0.0000001000
44
0.0000000001
12
-3.9042100043
22
1.9521050022
32
0.0000000000
13
-3.9042100043
23
-1.9521050022
33
0.0000000000
40
0.0000000000
40
0.0000000000
40
0.0000000000
40
0.0000000000
40
0.1505070703
40
0.3216620624
40
0.4997617895
40
0.6780288495
40
0.8495595580
40
1.0000000000
40
1.0000000000
40
1.0000000000
40
1.0000000000
10
73.0498036866
20
60.1035033902
30
0.0000000000
10
72.8539332834
20
60.2014385918
30
0.0000000000
10
72.4124371964
20
60.3656406761
30
0.0000000000
10
71.6974625287
20
60.5100821223
30
0.0000000000
10
70.9292845302
20
60.5594970023
30
0.0000000000
10
70.1605435571
20
60.5102676435
30
0.0000000000
10
69.4448566648
20
60.3657732892
30
0.0000000000
10
69.0029466924
20
60.2013952367
30
0.0000000000
10
68.8071629995
20
60.1035033902
30
0.0000000000
11
73.0498036866
21
60.1035033902
31
0.0000000000
11
72.4366869411
21
60.3395044991
31
0.0000000000
11
71.7052531287
21
60.4916900616
31
0.0000000000
11
70.9295255270
21
60.5428431280
31
0.0000000000
11
70.1530541210
21
60.4918695745
31
0.0000000000
11
69.4199994814
21
60.3394229922
31
0.0000000000
11
68.8071629995
21
60.1035033902
31
0.0000000000
0
SPLINE
5
255
100
AcDbEntity
8
0
100
AcDbSpline
62
7
6
CONTINUOUS
70
0
71
3
72
10
73
6
74
4
42
0.0000001000
43
0.0000001000
44
0.0000000001
12
-1.2882125622
22
-0.6441062811
32
0.0000000000
13
0.0001160479
23
-1.4467279790
33
0.0000000000
40
0.0000000000
40
0.0000000000
40
0.0000000000
40
0.0000000000
40
0.3907738210
40
0.7211332407
40
1.0000000000
40
1.0000000000
40
1.0000000000
40
1.0000000000
10
-82.5136881745
20
-15.5569221967
30
0.0000000000
10
-82.6814880895
20
-15.6408221543
30
0.0000000000
10
-82.9785039456
20
-15.8249751958
30
0.0000000000
10
-83.3068066442
20
-16.1893233914
30
0.0000000000
10
-83.3923785872
20
-16.4830947855
30
0.0000000000
10
-83.3923677999
20
-16.6175762332
30
0.0000000000
11
-82.5136881745
21
-15.5569221967
31
0.0000000000
11
-82.9856903921
21
-15.8634805694
31
0.0000000000
11
-83.2900615173
21
-16.2291974757
31
0.0000000000
11
-83.3923677999
21
-16.6175762332
31
0.0000000000
0
SPLINE
5
256
100
AcDbEntity
8
0
100
AcDbSpline
62
7
6
CONTINUOUS
70
0
71
3
72
11
73
7
74
5
42
0.0000001000
43
0.0000001000
44
0.0000000001
12
5.5931651346
22
2.7965825673
32
0.0000000000
13
5.6168731549
23
-2.8152430886
33
0.0000000000
40
0.0000000000
40
0.0000000000
40
0.0000000000
40
0.0000000000
40
0.3385528590
40
0.6436421792
40
0.9258839168
40
1.0000000000
40
1.0000000000
40
1.0000000000
40
1.0000000000
10
67.3929494371
20
44.6105594744
30
0.0000000000
10
68.0241434528
20
44.9261564823
30
0.0000000000
10
69.2882513290
20
45.4134731934
30
0.0000000000
10
71.2298459373
20
45.6393806987
30
0.0000000000
10
72.6080468111
20
45.3674372606
30
0.0000000000
10
73.2903203089
20
45.0636213779
30
0.0000000000
10
73.4290871884
20
44.9940697809
30
0.0000000000
11
67.3929494371
21
44.6105594744
31
0.0000000000
11
69.3776622844
21
45.3474320039
31
0.0000000000
11
71.2756336565
21
45.5411318798
31
0.0000000000
11
73.0039130971
21
45.1831934878
31
0.0000000000
11
73.4290871884
21
44.9940697809
31
0.0000000000
0
SPLINE
5
257
100
AcDbEntity
8
0
100
AcDbSpline
62
7
6
CONTINUOUS
70
0
71
3
72
11
73
7
74
5
42
0.0000001000
43
0.0000001000
44
0.0000000001
12
1.8063830543
22
-0.9031915272
32
0.0000000000
13
0.6838864412
23
-1.9036988170
33
0.0000000000
40
0.0000000000
40
0.0000000000
40
0.0000000000
40
0.0000000000
40
0.2290350168
40
0.4806714481
40
0.7485336681
40
1.0000000000
40
1.0000000000
40
1.0000000000
40
1.0000000000
10
76.9388909831
20
58.1589597420
30
0.0000000000
10
77.0767993075
20
58.0900055798
30
0.0000000000
10
77.3461649620
20
57.9041704688
30
0.0000000000
10
77.6952606446
20
57.5371649303
30
0.0000000000
10
77.9830458632
20
57.1020960516
30
0.0000000000
10
78.1277113874
20
56.7823713614
30
0.0000000000
10
78.1850361923
20
56.6227993085
30
0.0000000000
11
76.9388909831
21
58.1589597420
31
0.0000000000
11
77.3232383848
21
57.9015932396
31
0.0000000000
11
77.6763463573
21
57.5360984834
31
0.0000000000
11
77.9760801090
21
57.0857514508
31
0.0000000000
11
78.1850361923
21
56.6227993085
31
0.0000000000
0
SPLINE
5
258
100
AcDbEntity
8
0
100
AcDbSpline
62
7
6
CONTINUOUS
70
0
71
3
72
9
73
5
74
3
42
0.0000001000
43
0.0000001000
44
0.0000000001
12
0.1896451584
22
-0.5279052809
32
0.0000000000
13
0.0851588068
23
-0.5535322439
33
0.0000000000
40
0.0000000000
40
0.0000000000
40
0.0000000000
40
0.0000000000
40
0.0668192764
40
1.0000000000
40
1.0000000000
40
1.0000000000
40
1.0000000000
10
78.1850361923
20
56.6227993085
30
0.0000000000
10
78.1892601764
20
56.6110412255
30
0.0000000000
10
78.2514412970
20
56.4346862803
30
0.0000000000
10
78.2980421102
20
56.2526806462
30
0.0000000000
10
78.3245316292
20
56.0804987729
30
0.0000000000
11
78.1850361923
21
56.6227993085
31
0.0000000000
11
78.1975004081
21
56.5874481766
31
0.0000000000
11
78.3245316292
21
56.0804987729
31
0.0000000000
0
SPLINE
5
259
100
AcDbEntity
8
0
100
AcDbSpline
62
7
6
CONTINUOUS
70
0
71
3
72
13
73
9
74
7
42
0.0000001000
43
0.0000001000
44
0.0000000001
12
5.2620468072
22
2.6310234036
32
0.0000000000
13
0.0000000000
23
5.8831471808
33
0.0000000000
40
0.0000000000
40
0.0000000000
40
0.0000000000
40
0.0000000000
40
0.1472220723
40
0.3141268383
40
0.4884967143
40
0.6656416789
40
0.8406789094
40
1.0000000000
40
1.0000000000
40
1.0000000000
40
1.0000000000
10
87.5454927009
20
23.9429292720
30
0.0000000000
10
87.8037225127
20
24.0720441779
30
0.0000000000
10
88.3189093353
20
24.4209631315
30
0.0000000000
10
88.9926794799
20
25.1089243599
30
0.0000000000
10
89.5725306757
20
25.9495722880
30
0.0000000000
10
90.0192692792
20
26.8853339685
30
0.0000000000
10
90.3023174149
20
27.8522228566
30
0.0000000000
10
90.3739198257
20
28.5088079745
30
0.0000000000
10
90.3739198257
20
28.8212444495
30
0.0000000000
11
87.5454927009
21
23.9429292720
31
0.0000000000
11
88.2686345619
21
24.4196320098
31
0.0000000000
11
88.9610968110
21
25.1158168526
31
0.0000000000
11
89.5460661340
21
25.9585303715
31
0.0000000000
11
89.9947671713
21
26.8991607333
31
0.0000000000
11
90.2799309818
21
27.8886593029
31
0.0000000000
11
90.3739198257
21
28.8212444495
31
0.0000000000
0
SPLINE
5
25A
100
AcDbEntity
8
0
100
AcDbSpline
62
7
6
CONTINUOUS
70
0
71
3
72
11
73
7
74
5
42
0.0000001000
43
0.0000001000
44
0.0000000001
12
0.0000000000
22
2.5150465151
32
0.0000000000
13
-2.2687129911
23
1.1309368427
33
0.0000000000
40
0.0000000000
40
0.0000000000
40
0.0000000000
40
0.0000000000
40
0.3355460494
40
0.6380887750
40
0.9029409236
40
1.0000000000
40
1.0000000000
40
1.0000000000
40
1.0000000000
10
90.3739198257
20
59.9981589857
30
0.0000000000
10
90.3739198257
20
60.2794636265
30
0.0000000000
10
90.3214568256
20
60.8172396104
30
0.0000000000
10
90.0485244138
20
61.5360972964
30
0.0000000000
10
89.6707639846
20
61.9659831135
30
0.0000000000
10
89.4081506106
20
62.1241525449
30
0.0000000000
10
89.3347508814
20
62.1607417734
30
0.0000000000
11
90.3739198257
21
59.9981589857
31
0.0000000000
11
90.2799150986
21
60.8368209077
31
0.0000000000
11
89.9941790842
21
61.5420424887
31
0.0000000000
11
89.5449191034
21
62.0338506766
31
0.0000000000
11
89.3347508814
21
62.1607417734
31
0.0000000000
0
SPLINE
5
25B
100
AcDbEntity
8
0
100
AcDbSpline
62
7
6
CONTINUOUS
70
0
71
3
72
11
73
7
74
5
42
0.0000001000
43
0.0000001000
44
0.0000000001
12
0.0965759009
22
0.5311674547
32
0.0000000000
13
0.4515576970
23
0.2984614976
33
0.0000000000
40
0.0000000000
40
0.0000000000
40
0.0000000000
40
0.0000000000
40
0.2550246117
40
0.5411417140
40
0.8272295370
40
1.0000000000
40
1.0000000000
40
1.0000000000
40
1.0000000000
10
78.3245316292
20
20.7466622985
30
0.0000000000
10
78.3327413730
20
20.7918158898
30
0.0000000000
10
78.3612769734
20
20.8856325025
30
0.0000000000
10
78.4276188011
20
21.0196628031
30
0.0000000000
10
78.5090068061
20
21.1273027976
30
0.0000000000
10
78.5728670437
20
21.1815239018
30
0.0000000000
10
78.5988723212
20
21.1987123455
30
0.0000000000
11
78.3245316292
21
20.7466622985
31
0.0000000000
11
78.3629383477
21
20.8788785769
31
0.0000000000
11
78.4317774486
21
21.0171588698
31
0.0000000000
11
78.5267239480
21
21.1389806261
31
0.0000000000
11
78.5988723212
21
21.1987123455
31
0.0000000000
0
SPLINE
5
25C
100
AcDbEntity
8
0
100
AcDbSpline
62
7
6
CONTINUOUS
70
0
71
3
72
8
73
4
74
2
42
0.0000001000
43
0.0000001000
44
0.0000000001
12
0.0358328581
22
0.0236840797
32
0.0000000000
13
0.0383183652
23
0.0191591826
33
0.0000000000
40
0.0000000000
40
0.0000000000
40
0.0000000000
40
0.0000000000
40
1.0000000000
40
1.0000000000
40
1.0000000000
40
1.0000000000
10
78.5988723212
20
21.1987123455
30
0.0000000000
10
78.6108166072
20
21.2066070387
30
0.0000000000
10
78.6231744697
20
21.2138209638
30
0.0000000000
10
78.6359472581
20
21.2202073580
30
0.0000000000
11
78.5988723212
21
21.1987123455
31
0.0000000000
11
78.6359472581
21
21.2202073580
31
0.0000000000
0
SPLINE
5
25D
100
AcDbEntity
8
0
100
AcDbSpline
62
7
6
CONTINUOUS
70
0
71
3
72
9
73
5
74
3
42
0.0000001000
43
0.0000001000
44
0.0000000001
12
0.1628134813
22
0.0814067406
32
0.0000000000
13
0.1651864455
23
-0.0811292334
33
0.0000000000
40
0.0000000000
40
0.0000000000
40
0.0000000000
40
0.0000000000
40
0.6164247212
40
1.0000000000
40
1.0000000000
40
1.0000000000
40
1.0000000000
10
-77.4932300279
20
-56.8443812850
30
0.0000000000
10
-77.4597759429
20
-56.8276542425
30
0.0000000000
10
-77.3994373499
20
-56.8086229429
30
0.0000000000
10
-77.3368349138
20
-56.8221218579
30
0.0000000000
10
-77.3157144348
20
-56.8324949140
30
0.0000000000
11
-77.4932300279
21
-56.8443812850
31
0.0000000000
11
-77.3845273283
21
-56.8165523280
31
0.0000000000
11
-77.3157144348
21
-56.8324949140
31
0.0000000000
0
SPLINE
5
25E
100
AcDbEntity
8
0
100
AcDbSpline
62
7
6
CONTINUOUS
70
0
71
3
72
9
73
5
74
3
42
0.0000001000
43
0.0000001000
44
0.0000000001
12
0.2054369141
22
0.1027184570
32
0.0000000000
13
0.2089112229
23
-0.1018952414
33
0.0000000000
40
0.0000000000
40
0.0000000000
40
0.0000000000
40
0.0000000000
40
0.6061991326
40
1.0000000000
40
1.0000000000
40
1.0000000000
40
1.0000000000
10
79.4137647173
20
21.6091160877
30
0.0000000000
10
79.4552766103
20
21.6298720343
30
0.0000000000
10
79.5316205058
20
21.6541607015
30
0.0000000000
10
79.6100679830
20
21.6362366162
30
0.0000000000
10
79.6374911232
20
21.6228611381
30
0.0000000000
11
79.4137647173
21
21.6091160877
31
0.0000000000
11
79.5486088355
21
21.6438073402
31
0.0000000000
11
79.6374911232
21
21.6228611381
31
0.0000000000
0
SPLINE
5
25F
100
AcDbEntity
8
0
100
AcDbSpline
62
7
6
CONTINUOUS
70
0
71
3
72
16
73
12
74
10
42
0.0000001000
43
0.0000001000
44
0.0000000001
12
-6.5703919788
22
-3.2851959894
32
0.0000000000
13
6.6270147130
23
-3.3283284441
33
0.0000000000
40
0.0000000000
40
0.0000000000
40
0.0000000000
40
0.0000000000
40
0.1145746343
40
0.2416443620
40
0.3760092531
40
0.5110775561
40
0.6401322390
40
0.7575767082
40
0.8603695018
40
0.9498070606
40
1.0000000000
40
1.0000000000
40
1.0000000000
40
1.0000000000
10
-83.7511250415
20
-39.6217318027
30
0.0000000000
10
-84.0020584610
20
-39.7471985125
30
0.0000000000
10
-84.4931494333
20
-40.0898878317
30
0.0000000000
10
-85.1231825895
20
-40.7682748916
30
0.0000000000
10
-85.6474978482
20
-41.5915039134
30
0.0000000000
10
-86.0254198457
20
-42.4963341535
30
0.0000000000
10
-86.2283423895
20
-43.4140307303
30
0.0000000000
10
-86.2398399738
20
-44.2765344436
30
0.0000000000
10
-86.0546517385
20
-45.0230033332
30
0.0000000000
10
-85.7142331771
20
-45.5297265349
30
0.0000000000
10
-85.4264785012
20
-45.7270107558
30
0.0000000000
10
-85.3156020519
20
-45.7826969518
30
0.0000000000
11
-83.7511250415
21
-39.6217318027
31
0.0000000000
11
-84.4483775465
21
-40.0931384538
31
0.0000000000
11
-85.0891428003
21
-40.7719153387
31
0.0000000000
11
-85.6215098127
21
-41.6030719912
31
0.0000000000
11
-86.0023493746
21
-42.5192730422
31
0.0000000000
11
-86.2008081295
21
-43.4462933315
31
0.0000000000
11
-86.2008081295
21
-44.3090311885
31
0.0000000000
11
-86.0023493746
21
-45.0375927228
31
0.0000000000
11
-85.6215098127
21
-45.5729542119
31
0.0000000000
11
-85.3156020519
21
-45.7826969518
31
0.0000000000
0
SPLINE
5
260
100
AcDbEntity
8
0
100
AcDbSpline
62
7
6
CONTINUOUS
70
0
71
3
72
11
73
7
74
5
42
0.0000001000
43
0.0000001000
44
0.0000000001
12
0.0000000000
22
0.7341140818
32
0.0000000000
13
0.6566115960
23
0.3283057980
33
0.0000000000
40
0.0000000000
40
0.0000000000
40
0.0000000000
40
0.0000000000
40
0.2458763493
40
0.5132100427
40
0.7724571074
40
1.0000000000
40
1.0000000000
40
1.0000000000
40
1.0000000000
10
-78.6246008779
20
-57.8430794118
30
0.0000000000
10
-78.6246008779
20
-57.7829123150
30
0.0000000000
10
-78.6037756259
20
-57.6571156899
30
0.0000000000
10
-78.5280362035
20
-57.4821485424
30
0.0000000000
10
-78.4167227740
20
-57.3329320925
30
0.0000000000
10
-78.3208499213
20
-57.2581912315
30
0.0000000000
10
-78.2710474873
20
-57.2332900146
30
0.0000000000
11
-78.6246008779
21
-57.8430794118
31
0.0000000000
11
-78.5978762862
21
-57.6645674737
31
0.0000000000
11
-78.5205175463
21
-57.4842038585
31
0.0000000000
11
-78.4052304871
21
-57.3327792093
31
0.0000000000
11
-78.2710474873
21
-57.2332900146
31
0.0000000000
0
SPLINE
5
261
100
AcDbEntity
8
0
100
AcDbSpline
62
7
6
CONTINUOUS
70
0
71
3
72
16
73
12
74
10
42
0.0000001000
43
0.0000001000
44
0.0000000001
12
-6.5703919788
22
-3.2851959894
32
0.0000000000
13
6.6270147130
23
-3.3283284441
33
0.0000000000
40
0.0000000000
40
0.0000000000
40
0.0000000000
40
0.0000000000
40
0.1145746343
40
0.2416443620
40
0.3760092531
40
0.5110775561
40
0.6401322390
40
0.7575767082
40
0.8603695018
40
0.9498070606
40
1.0000000000
40
1.0000000000
40
1.0000000000
40
1.0000000000
10
82.4189685373
20
43.4633149867
30
0.0000000000
10
82.1680351178
20
43.3378482770
30
0.0000000000
10
81.6769441455
20
42.9951589577
30
0.0000000000
10
81.0469109894
20
42.3167718978
30
0.0000000000
10
80.5225957306
20
41.4935428760
30
0.0000000000
10
80.1446737331
20
40.5887126359
30
0.0000000000
10
79.9417511893
20
39.6710160591
30
0.0000000000
10
79.9302536050
20
38.8085123458
30
0.0000000000
10
80.1154418404
20
38.0620434563
30
0.0000000000
10
80.4558604018
20
37.5553202546
30
0.0000000000
10
80.7436150776
20
37.3580360336
30
0.0000000000
10
80.8544915269
20
37.3023498376
30
0.0000000000
11
82.4189685373
21
43.4633149867
31
0.0000000000
11
81.7217160323
21
42.9919083356
31
0.0000000000
11
81.0809507786
21
42.3131314507
31
0.0000000000
11
80.5485837661
21
41.4819747982
31
0.0000000000
11
80.1677442043
21
40.5657737472
31
0.0000000000
11
79.9692854493
21
39.6387534579
31
0.0000000000
11
79.9692854493
21
38.7760156010
31
0.0000000000
11
80.1677442043
21
38.0474540666
31
0.0000000000
11
80.5485837661
21
37.5120925775
31
0.0000000000
11
80.8544915269
21
37.3023498376
31
0.0000000000
0
SPLINE
5
262
100
AcDbEntity
8
0
100
AcDbSpline
62
7
6
CONTINUOUS
70
0
71
3
72
12
73
8
74
6
42
0.0000001000
43
0.0000001000
44
0.0000000001
12
2.3073021835
22
-1.1536510917
32
0.0000000000
13
0.3922531390
23
-2.5496454032
33
0.0000000000
40
0.0000000000
40
0.0000000000
40
0.0000000000
40
0.0000000000
40
0.1793111349
40
0.3763168798
40
0.5860257678
40
0.7974049178
40
1.0000000000
40
1.0000000000
40
1.0000000000
40
1.0000000000
10
-78.6246008779
20
-19.6227861885
30
0.0000000000
10
-78.4866925535
20
-19.6917403507
30
0.0000000000
10
-78.2173268991
20
-19.8775754617
30
0.0000000000
10
-77.8682312165
20
-20.2445810003
30
0.0000000000
10
-77.5735293866
20
-20.6901062961
30
0.0000000000
10
-77.3543092099
20
-21.1820129247
30
0.0000000000
10
-77.2654497508
20
-21.5290652843
30
0.0000000000
10
-77.2389602319
20
-21.7012471576
30
0.0000000000
11
-78.6246008779
21
-19.6227861885
31
0.0000000000
11
-78.2402534762
21
-19.8801526910
31
0.0000000000
11
-77.8871455038
21
-20.2456474471
31
0.0000000000
11
-77.5874117521
21
-20.6959944797
31
0.0000000000
11
-77.3659914529
21
-21.1942977539
31
0.0000000000
11
-77.2389602319
21
-21.7012471576
31
0.0000000000
0
SPLINE
5
263
100
AcDbEntity
8
0
100
AcDbSpline
62
7
6
CONTINUOUS
70
0
71
3
72
10
73
6
74
4
42
0.0000001000
43
0.0000001000
44
0.0000000001
12
0.1728511150
22
-0.0848936389
32
0.0000000000
13
-0.0093407252
23
-0.1921920841
33
0.0000000000
40
0.0000000000
40
0.0000000000
40
0.0000000000
40
0.0000000000
40
0.1305314387
40
0.6236074953
40
1.0000000000
40
1.0000000000
40
1.0000000000
40
1.0000000000
10
-77.3157144348
20
-56.8324949140
30
0.0000000000
10
-77.3081935999
20
-56.8361886769
30
0.0000000000
10
-77.2740152846
20
-56.8569826411
30
0.0000000000
10
-77.2379609129
20
-56.9151138719
30
0.0000000000
10
-77.2331152792
20
-56.9712684467
30
0.0000000000
10
-77.2342872055
20
-56.9953816667
30
0.0000000000
11
-77.3157144348
21
-56.8324949140
31
0.0000000000
11
-77.2943977965
21
-56.8455709526
31
0.0000000000
11
-77.2422772466
21
-56.9237014403
31
0.0000000000
11
-77.2342872055
21
-56.9953816667
31
0.0000000000
0
SPLINE
5
264
100
AcDbEntity
8
0
100
AcDbSpline
62
7
6
CONTINUOUS
70
0
71
3
72
8
73
4
74
2
42
0.0000001000
43
0.0000001000
44
0.0000000001
12
-0.0019486616
22
-0.0400951026
32
0.0000000000
13
-0.0071084345
23
-0.0390963900
33
0.0000000000
40
0.0000000000
40
0.0000000000
40
0.0000000000
40
0.0000000000
40
1.0000000000
40
1.0000000000
40
1.0000000000
40
1.0000000000
10
-77.2342872055
20
-56.9953816667
30
0.0000000000
10
-77.2349367594
20
-57.0087467009
30
0.0000000000
10
-77.2365907537
20
-57.0220515020
30
0.0000000000
10
-77.2389602319
20
-57.0350836320
30
0.0000000000
11
-77.2342872055
21
-56.9953816667
31
0.0000000000
11
-77.2389602319
21
-57.0350836320
31
0.0000000000
0
SPLINE
5
265
100
AcDbEntity
8
0
100
AcDbSpline
62
7
6
CONTINUOUS
70
0
71
3
72
9
73
5
74
3
42
0.0000001000
43
0.0000001000
44
0.0000000001
12
-0.1655447645
22
-0.0827723823
32
0.0000000000
13
-0.1689571985
23
0.0817106466
33
0.0000000000
40
0.0000000000
40
0.0000000000
40
0.0000000000
40
0.0000000000
40
0.6078496692
40
1.0000000000
40
1.0000000000
40
1.0000000000
40
1.0000000000
10
78.6359472581
20
55.8612235094
30
0.0000000000
10
78.6024051480
20
55.8444524543
30
0.0000000000
10
78.5405202945
20
55.8248402927
30
0.0000000000
10
78.4778918929
20
55.8402845019
30
0.0000000000
10
78.4558063525
20
55.8509654543
30
0.0000000000
11
78.6359472581
21
55.8612235094
31
0.0000000000
11
78.5268970455
21
55.8335626331
31
0.0000000000
11
78.4558063525
21
55.8509654543
31
0.0000000000
0
SPLINE
5
266
100
AcDbEntity
8
0
100
AcDbSpline
62
7
6
CONTINUOUS
70
0
71
3
72
11
73
7
74
5
42
0.0000001000
43
0.0000001000
44
0.0000000001
12
0.0904606063
22
-0.5879939408
32
0.0000000000
13
-0.5321052495
23
-0.2660526248
33
0.0000000000
40
0.0000000000
40
0.0000000000
40
0.0000000000
40
0.0000000000
40
0.2518019267
40
0.5134210179
40
0.7714620505
40
1.0000000000
40
1.0000000000
40
1.0000000000
40
1.0000000000
10
-77.2389602319
20
-21.7012471576
30
0.0000000000
10
-77.2313675136
20
-21.7505998267
30
0.0000000000
10
-77.2346897844
20
-21.8546869947
30
0.0000000000
10
-77.2874313792
20
-22.0005537181
30
0.0000000000
10
-77.3750824496
20
-22.1223469318
30
0.0000000000
10
-77.4526946136
20
-22.1830974265
30
0.0000000000
10
-77.4932300279
20
-22.2033651336
30
0.0000000000
11
-77.2389602319
21
-21.7012471576
31
0.0000000000
11
-77.2422698851
21
-21.8510105177
31
0.0000000000
11
-77.2941013191
21
-21.9977667676
31
0.0000000000
11
-77.3843348983
21
-22.1219590615
31
0.0000000000
11
-77.4932300279
21
-22.2033651336
31
0.0000000000
0
SPLINE
5
267
100
AcDbEntity
8
0
100
AcDbSpline
62
7
6
CONTINUOUS
70
0
71
3
72
8
73
4
74
2
42
0.0000001000
43
0.0000001000
44
0.0000000001
12
-0.0716602555
22
-0.3941314050
32
0.0000000000
13
-0.1889681881
23
-0.3563685511
33
0.0000000000
40
0.0000000000
40
0.0000000000
40
0.0000000000
40
0.0000000000
40
1.0000000000
40
1.0000000000
40
1.0000000000
40
1.0000000000
10
-77.2389602319
20
-57.0350836320
30
0.0000000000
10
-77.2628469837
20
-57.1664607670
30
0.0000000000
10
-77.3030020568
20
-57.2962122977
30
0.0000000000
10
-77.3659914529
20
-57.4150018147
30
0.0000000000
11
-77.2389602319
21
-57.0350836320
31
0.0000000000
11
-77.3659914529
21
-57.4150018147
31
0.0000000000
0
SPLINE
5
268
100
AcDbEntity
8
0
100
AcDbSpline
62
7
6
CONTINUOUS
70
0
71
3
72
9
73
5
74
3
42
0.0000001000
43
0.0000001000
44
0.0000000001
12
-0.2470909447
22
-0.4659802417
32
0.0000000000
13
-0.4728029551
23
-0.2364083976
33
0.0000000000
40
0.0000000000
40
0.0000000000
40
0.0000000000
40
0.0000000000
40
0.6768319054
40
1.0000000000
40
1.0000000000
40
1.0000000000
40
1.0000000000
10
-77.3659914529
20
-57.4150018147
30
0.0000000000
10
-77.4217377979
20
-57.5201319130
30
0.0000000000
10
-77.5305258515
20
-57.6627731651
30
0.0000000000
10
-77.6795047927
20
-57.7588408358
30
0.0000000000
10
-77.7304364027
20
-57.7843073863
30
0.0000000000
11
-77.3659914529
21
-57.4150018147
31
0.0000000000
11
-77.5874117521
21
-57.6918847898
31
0.0000000000
11
-77.7304364027
21
-57.7843073863
31
0.0000000000
0
SPLINE
5
269
100
AcDbEntity
8
0
100
AcDbSpline
62
7
6
CONTINUOUS
70
0
71
3
72
13
73
9
74
7
42
0.0000001000
43
0.0000001000
44
0.0000000001
12
-5.2620468072
22
-2.6310234036
32
0.0000000000
13
0.0000000000
23
-5.8831471808
33
0.0000000000
40
0.0000000000
40
0.0000000000
40
0.0000000000
40
0.0000000000
40
0.1472220723
40
0.3141268383
40
0.4884967143
40
0.6656416789
40
0.8406789094
40
1.0000000000
40
1.0000000000
40
1.0000000000
40
1.0000000000
10
-86.4027754710
20
-24.9260870474
30
0.0000000000
10
-86.6610052827
20
-25.0552019533
30
0.0000000000
10
-87.1761921053
20
-25.4041209070
30
0.0000000000
10
-87.8499622500
20
-26.0920821353
30
0.0000000000
10
-88.4298134458
20
-26.9327300634
30
0.0000000000
10
-88.8765520493
20
-27.8684917440
30
0.0000000000
10
-89.1596001850
20
-28.8353806320
30
0.0000000000
10
-89.2312025957
20
-29.4919657499
30
0.0000000000
10
-89.2312025957
20
-29.8044022249
30
0.0000000000
11
-86.4027754710
21
-24.9260870474
31
0.0000000000
11
-87.1259173319
21
-25.4027897853
31
0.0000000000
11
-87.8183795811
21
-26.0989746281
31
0.0000000000
11
-88.4033489040
21
-26.9416881470
31
0.0000000000
11
-88.8520499414
21
-27.8823185087
31
0.0000000000
11
-89.1372137519
21
-28.8718170784
31
0.0000000000
11
-89.2312025957
21
-29.8044022249
31
0.0000000000
0
SPLINE
5
26A
100
AcDbEntity
8
0
100
AcDbSpline
62
7
6
CONTINUOUS
70
0
71
3
72
9
73
5
74
3
42
0.0000001000
43
0.0000001000
44
0.0000000001
12
0.0000000000
22
-1.1065985131
32
0.0000000000
13
0.3622788523
23
-1.0508790223
33
0.0000000000
40
0.0000000000
40
0.0000000000
40
0.0000000000
40
0.0000000000
40
0.7626197868
40
1.0000000000
40
1.0000000000
40
1.0000000000
40
1.0000000000
10
-89.2312025957
20
-60.9813167612
30
0.0000000000
10
-89.2312025957
20
-61.2626214019
30
0.0000000000
10
-89.1950269679
20
-61.6334424350
30
0.0000000000
10
-89.0920890183
20
-61.9901063330
30
0.0000000000
10
-89.0634230746
20
-62.0732589618
30
0.0000000000
11
-89.2312025957
21
-60.9813167612
31
0.0000000000
11
-89.1371978687
21
-61.8199786832
31
0.0000000000
11
-89.0634230746
21
-62.0732589618
31
0.0000000000
0
SPLINE
5
26B
100
AcDbEntity
8
0
100
AcDbSpline
62
7
6
CONTINUOUS
70
0
71
3
72
10
73
6
74
4
42
0.0000001000
43
0.0000001000
44
0.0000000001
12
0.4610985100
22
-1.3375297740
32
0.0000000000
13
1.2704990783
23
-0.6333345037
33
0.0000000000
40
0.0000000000
40
0.0000000000
40
0.0000000000
40
0.0000000000
40
0.3537400287
40
0.8266829223
40
1.0000000000
40
1.0000000000
40
1.0000000000
40
1.0000000000
10
-89.0634230746
20
-62.0732589618
30
0.0000000000
10
-89.0090534079
20
-62.2309715687
30
0.0000000000
10
-88.8464271896
20
-62.5868286327
30
0.0000000000
10
-88.5280467547
20
-62.9491408890
30
0.0000000000
10
-88.2654333807
20
-63.1073103204
30
0.0000000000
10
-88.1920336515
20
-63.1438995488
30
0.0000000000
11
-89.0634230746
21
-62.0732589618
31
0.0000000000
11
-88.8514618542
21
-62.5252002642
31
0.0000000000
11
-88.4022018735
21
-63.0170084520
31
0.0000000000
11
-88.1920336515
21
-63.1438995488
31
0.0000000000
0
SPLINE
5
26C
100
AcDbEntity
8
0
100
AcDbSpline
62
7
6
CONTINUOUS
70
0
71
3
72
11
73
7
74
5
42
0.0000001000
43
0.0000001000
44
0.0000000001
12
-5.5931651346
22
-2.7965825673
32
0.0000000000
13
-5.6168731549
23
2.8152430886
33
0.0000000000
40
0.0000000000
40
0.0000000000
40
0.0000000000
40
0.0000000000
40
0.3385528590
40
0.6436421792
40
0.9258839168
40
1.0000000000
40
1.0000000000
40
1.0000000000
40
1.0000000000
10
-66.2502322072
20
-45.5937172499
30
0.0000000000
10
-66.8814262228
20
-45.9093142577
30
0.0000000000
10
-68.1455340990
20
-46.3966309688
30
0.0000000000
10
-70.0871287074
20
-46.6225384742
30
0.0000000000
10
-71.4653295812
20
-46.3505950361
30
0.0000000000
10
-72.1476030790
20
-46.0467791534
30
0.0000000000
10
-72.2863699584
20
-45.9772275563
30
0.0000000000
11
-66.2502322072
21
-45.5937172499
31
0.0000000000
11
-68.2349450544
21
-46.3305897794
31
0.0000000000
11
-70.1329164266
21
-46.5242896552
31
0.0000000000
11
-71.8611958672
21
-46.1663512633
31
0.0000000000
11
-72.2863699584
21
-45.9772275563
31
0.0000000000
0
SPLINE
5
26D
100
AcDbEntity
8
0
100
AcDbSpline
62
7
6
CONTINUOUS
70
0
71
3
72
19
73
15
74
13
42
0.0000001000
43
0.0000001000
44
0.0000000001
12
25.4830868333
22
-12.7724237501
32
0.0000000000
13
-25.3755263593
23
-12.6877631797
33
0.0000000000
40
0.0000000000
40
0.0000000000
40
0.0000000000
40
0.0000000000
40
0.0446997208
40
0.1088314443
40
0.1792983043
40
0.2576313340
40
0.3437820509
40
0.4365230072
40
0.5338319544
40
0.6332114005
40
0.7319646195
40
0.8274541840
40
0.9173656102
40
1.0000000000
40
1.0000000000
40
1.0000000000
40
1.0000000000
10
73.4290871884
20
44.9940697809
30
0.0000000000
10
73.8087828102
20
44.8037618558
30
0.0000000000
10
74.6761111416
20
44.2244217891
30
0.0000000000
10
75.7702214881
20
42.8929635666
30
0.0000000000
10
76.5707262026
20
41.0218183029
30
0.0000000000
10
76.9648688821
20
38.8196249444
30
0.0000000000
10
76.9471084008
20
36.3756863875
30
0.0000000000
10
76.5221690311
20
33.7891404251
30
0.0000000000
10
75.7090294182
20
31.1672190521
30
0.0000000000
10
74.5422758086
20
28.6202186012
30
0.0000000000
10
73.0714757291
20
26.2560149770
30
0.0000000000
10
71.3582418698
20
24.1744385900
30
0.0000000000
10
69.4752741254
20
22.4638705383
30
0.0000000000
10
68.0919131491
20
21.5773554282
30
0.0000000000
10
67.3929494371
20
21.2278735723
30
0.0000000000
11
73.4290871884
21
44.9940697809
31
0.0000000000
11
74.4869665013
21
44.2892604535
31
0.0000000000
11
75.6599773190
21
42.8984019398
31
0.0000000000
11
76.4716793486
21
41.0714051380
31
0.0000000000
11
76.8865973165
21
38.8881185753
31
0.0000000000
11
76.8865973165
21
36.4439623508
31
0.0000000000
11
76.4716793486
21
33.8457578201
31
0.0000000000
11
75.6599773190
21
31.2070589887
31
0.0000000000
11
74.4869665013
21
28.6431896574
31
0.0000000000
11
73.0039130971
21
26.2662032188
31
0.0000000000
11
71.2756336565
21
24.1799853863
31
0.0000000000
11
69.3776622844
21
22.4757138900
31
0.0000000000
11
67.3929494371
21
21.2278735723
31
0.0000000000
0
SPLINE
5
26E
100
AcDbEntity
8
0
100
AcDbSpline
62
7
6
CONTINUOUS
70
0
71
3
72
10
73
6
74
4
42
0.0000001000
43
0.0000001000
44
0.0000000001
12
1.4583726238
22
-0.7324479115
32
0.0000000000
13
1.4459119535
23
0.7229559767
33
0.0000000000
40
0.0000000000
40
0.0000000000
40
0.0000000000
40
0.0000000000
40
0.1495565444
40
0.5466245793
40
1.0000000000
40
1.0000000000
40
1.0000000000
40
1.0000000000
10
-85.3156020519
20
-45.7826969518
30
0.0000000000
10
-85.2428989952
20
-45.8192110780
30
0.0000000000
10
-84.9654838653
20
-45.9287329834
30
0.0000000000
10
-84.4102107844
20
-45.9483046502
30
0.0000000000
10
-83.9696386883
20
-45.7931664526
30
0.0000000000
10
-83.7511250415
20
-45.6839096292
30
0.0000000000
11
-85.3156020519
21
-45.7826969518
31
0.0000000000
11
-85.0891428003
21
-45.8717438519
31
0.0000000000
11
-84.4483775465
21
-45.9097554831
31
0.0000000000
11
-83.7511250415
21
-45.6839096292
31
0.0000000000
0
SPLINE
5
26F
100
AcDbEntity
8
0
100
AcDbSpline
62
7
6
CONTINUOUS
70
0
71
3
72
11
73
7
74
5
42
0.0000001000
43
0.0000001000
44
0.0000000001
12
0.0000000000
22
-0.7341140818
32
0.0000000000
13
-0.6566115960
23
-0.3283057980
33
0.0000000000
40
0.0000000000
40
0.0000000000
40
0.0000000000
40
0.0000000000
40
0.2458763493
40
0.5132100427
40
0.7724571074
40
1.0000000000
40
1.0000000000
40
1.0000000000
40
1.0000000000
10
79.7673181079
20
56.8599216363
30
0.0000000000
10
79.7673181079
20
56.7997545395
30
0.0000000000
10
79.7464928559
20
56.6739579144
30
0.0000000000
10
79.6707534334
20
56.4989907669
30
0.0000000000
10
79.5594400039
20
56.3497743171
30
0.0000000000
10
79.4635671512
20
56.2750334561
30
0.0000000000
10
79.4137647173
20
56.2501322391
30
0.0000000000
11
79.7673181079
21
56.8599216363
31
0.0000000000
11
79.7405935162
21
56.6814096982
31
0.0000000000
11
79.6632347763
21
56.5010460830
31
0.0000000000
11
79.5479477171
21
56.3496214339
31
0.0000000000
11
79.4137647173
21
56.2501322391
31
0.0000000000
0
SPLINE
5
270
100
AcDbEntity
8
0
100
AcDbSpline
62
7
6
CONTINUOUS
70
0
71
3
72
10
73
6
74
4
42
0.0000001000
43
0.0000001000
44
0.0000000001
12
1.4583726238
22
-0.7324479115
32
0.0000000000
13
1.4459119535
23
0.7229559767
33
0.0000000000
40
0.0000000000
40
0.0000000000
40
0.0000000000
40
0.0000000000
40
0.1495565444
40
0.5466245793
40
1.0000000000
40
1.0000000000
40
1.0000000000
40
1.0000000000
10
80.8544915269
20
37.3023498376
30
0.0000000000
10
80.9271945836
20
37.2658357114
30
0.0000000000
10
81.2046097136
20
37.1563138061
30
0.0000000000
10
81.7598827944
20
37.1367421393
30
0.0000000000
10
82.2004548906
20
37.2918803368
30
0.0000000000
10
82.4189685373
20
37.4011371602
30
0.0000000000
11
80.8544915269
21
37.3023498376
31
0.0000000000
11
81.0809507786
21
37.2133029375
31
0.0000000000
11
81.7217160323
21
37.1752913063
31
0.0000000000
11
82.4189685373
21
37.4011371602
31
0.0000000000
0
SPLINE
5
271
100
AcDbEntity
8
0
100
AcDbSpline
62
7
6
CONTINUOUS
70
0
71
3
72
9
73
5
74
3
42
0.0000001000
43
0.0000001000
44
0.0000000001
12
-0.2054369141
22
-0.1027184570
32
0.0000000000
13
-0.2089112229
23
0.1018952414
33
0.0000000000
40
0.0000000000
40
0.0000000000
40
0.0000000000
40
0.0000000000
40
0.6061991326
40
1.0000000000
40
1.0000000000
40
1.0000000000
40
1.0000000000
10
-78.2710474873
20
-22.5922738632
30
0.0000000000
10
-78.3125593804
20
-22.6130298097
30
0.0000000000
10
-78.3889032759
20
-22.6373184769
30
0.0000000000
10
-78.4673507531
20
-22.6193943916
30
0.0000000000
10
-78.4947738933
20
-22.6060189135
30
0.0000000000
11
-78.2710474873
21
-22.5922738632
31
0.0000000000
11
-78.4058916055
21
-22.6269651157
31
0.0000000000
11
-78.4947738933
21
-22.6060189135
31
0.0000000000
0
SPLINE
5
272
100
AcDbEntity
8
0
100
AcDbSpline
62
7
6
CONTINUOUS
70
0
71
3
72
16
73
12
74
10
42
0.0000001000
43
0.0000001000
44
0.0000000001
12
6.5703919788
22
3.2851959894
32
0.0000000000
13
-6.6270147130
23
3.3283284441
33
0.0000000000
40
0.0000000000
40
0.0000000000
40
0.0000000000
40
0.0000000000
40
0.1145746343
40
0.2416443620
40
0.3760092531
40
0.5110775561
40
0.6401322390
40
0.7575767082
40
0.8603695018
40
0.9498070606
40
1.0000000000
40
1.0000000000
40
1.0000000000
40
1.0000000000
10
-81.2762513074
20
-44.4464727621
30
0.0000000000
10
-81.0253178879
20
-44.3210060524
30
0.0000000000
10
-80.5342269156
20
-43.9783167332
30
0.0000000000
10
-79.9041937594
20
-43.2999296733
30
0.0000000000
10
-79.3798785007
20
-42.4767006514
30
0.0000000000
10
-79.0019565032
20
-41.5718704113
30
0.0000000000
10
-78.7990339594
20
-40.6541738345
30
0.0000000000
10
-78.7875363751
20
-39.7916701213
30
0.0000000000
10
-78.9727246104
20
-39.0452012317
30
0.0000000000
10
-79.3131431718
20
-38.5384780300
30
0.0000000000
10
-79.6008978477
20
-38.3411938090
30
0.0000000000
10
-79.7117742970
20
-38.2855076131
30
0.0000000000
11
-81.2762513074
21
-44.4464727621
31
0.0000000000
11
-80.5789988024
21
-43.9750661111
31
0.0000000000
11
-79.9382335486
21
-43.2962892261
31
0.0000000000
11
-79.4058665362
21
-42.4651325737
31
0.0000000000
11
-79.0250269743
21
-41.5489315227
31
0.0000000000
11
-78.8265682194
21
-40.6219112334
31
0.0000000000
11
-78.8265682194
21
-39.7591733764
31
0.0000000000
11
-79.0250269743
21
-39.0306118421
31
0.0000000000
11
-79.4058665362
21
-38.4952503529
31
0.0000000000
11
-79.7117742970
21
-38.2855076131
31
0.0000000000
0
SPLINE
5
273
100
AcDbEntity
8
0
100
AcDbSpline
62
7
6
CONTINUOUS
70
0
71
3
72
10
73
6
74
4
42
0.0000001000
43
0.0000001000
44
0.0000000001
12
0.0001160469
22
-1.4467147159
32
0.0000000000
13
1.2882007524
23
-0.6441003762
33
0.0000000000
40
0.0000000000
40
0.0000000000
40
0.0000000000
40
0.0000000000
40
0.2783436896
40
0.6093705128
40
1.0000000000
40
1.0000000000
40
1.0000000000
40
1.0000000000
10
-83.3923677999
20
-16.6175762332
30
0.0000000000
10
-83.3923570329
20
-16.7518042038
30
0.0000000000
10
-83.3069641527
20
-17.0456892564
30
0.0000000000
10
-82.9786425983
20
-17.4101076658
30
0.0000000000
10
-82.6814245742
20
-17.5943743404
30
0.0000000000
10
-82.5136881745
20
-17.6782425403
30
0.0000000000
11
-83.3923677999
21
-16.6175762332
31
0.0000000000
11
-83.2904205429
21
-17.0052969795
31
0.0000000000
11
-82.9855273785
21
-17.3718242993
31
0.0000000000
11
-82.5136881745
21
-17.6782425403
31
0.0000000000
0
SPLINE
5
274
100
AcDbEntity
8
0
100
AcDbSpline
62
7
6
CONTINUOUS
70
0
71
3
72
10
73
6
74
4
42
0.0000001000
43
0.0000001000
44
0.0000000001
12
-1.6689773624
22
0.8319730156
32
0.0000000000
13
-1.6548624562
23
-0.8274312281
33
0.0000000000
40
0.0000000000
40
0.0000000000
40
0.0000000000
40
0.0000000000
40
0.2133608788
40
0.5871130325
40
1.0000000000
40
1.0000000000
40
1.0000000000
40
1.0000000000
10
89.3347508814
20
62.1607417734
30
0.0000000000
10
89.2160527225
20
62.2199119380
30
0.0000000000
10
88.8680478267
20
62.3407828545
30
0.0000000000
10
88.2361148910
20
62.3301445529
30
0.0000000000
10
87.7732497480
20
62.1619255620
30
0.0000000000
10
87.5454927009
20
62.0480470385
30
0.0000000000
11
89.3347508814
21
62.1607417734
31
0.0000000000
11
88.9600790605
21
62.2909749494
31
0.0000000000
11
88.2685744997
21
62.2944755835
31
0.0000000000
11
87.5454927009
21
62.0480470385
31
0.0000000000
0
SPLINE
5
275
100
AcDbEntity
8
0
100
AcDbSpline
62
7
6
CONTINUOUS
70
0
71
3
72
16
73
12
74
10
42
0.0000001000
43
0.0000001000
44
0.0000000001
12
6.5703919788
22
3.2851959894
32
0.0000000000
13
-6.6270147130
23
3.3283284441
33
0.0000000000
40
0.0000000000
40
0.0000000000
40
0.0000000000
40
0.0000000000
40
0.1145746343
40
0.2416443620
40
0.3760092531
40
0.5110775561
40
0.6401322390
40
0.7575767082
40
0.8603695018
40
0.9498070606
40
1.0000000000
40
1.0000000000
40
1.0000000000
40
1.0000000000
10
84.8938422715
20
38.6385740273
30
0.0000000000
10
85.1447756909
20
38.7640407370
30
0.0000000000
10
85.6358666633
20
39.1067300562
30
0.0000000000
10
86.2658998194
20
39.7851171161
30
0.0000000000
10
86.7902150781
20
40.6083461380
30
0.0000000000
10
87.1681370756
20
41.5131763781
30
0.0000000000
10
87.3710596194
20
42.4308729549
30
0.0000000000
10
87.3825572037
20
43.2933766681
30
0.0000000000
10
87.1973689684
20
44.0398455577
30
0.0000000000
10
86.8569504070
20
44.5465687594
30
0.0000000000
10
86.5691957311
20
44.7438529804
30
0.0000000000
10
86.4583192818
20
44.7995391764
30
0.0000000000
11
84.8938422715
21
38.6385740273
31
0.0000000000
11
85.5910947764
21
39.1099806784
31
0.0000000000
11
86.2318600302
21
39.7887575633
31
0.0000000000
11
86.7642270426
21
40.6199142157
31
0.0000000000
11
87.1450666045
21
41.5361152667
31
0.0000000000
11
87.3435253595
21
42.4631355561
31
0.0000000000
11
87.3435253595
21
43.3258734130
31
0.0000000000
11
87.1450666045
21
44.0544349474
31
0.0000000000
11
86.7642270426
21
44.5897964365
31
0.0000000000
11
86.4583192818
21
44.7995391764
31
0.0000000000
0
SPLINE
5
276
100
AcDbEntity
8
0
100
AcDbSpline
62
7
6
CONTINUOUS
70
0
71
3
72
10
73
6
74
4
42
0.0000001000
43
0.0000001000
44
0.0000000001
12
0.2843829555
22
-0.1387061427
32
0.0000000000
13
-0.0000000000
23
-0.3126621295
33
0.0000000000
40
0.0000000000
40
0.0000000000
40
0.0000000000
40
0.0000000000
40
0.0990768225
40
0.5093379350
40
1.0000000000
40
1.0000000000
40
1.0000000000
40
1.0000000000
10
79.6374911232
20
21.6228611381
30
0.0000000000
10
79.6468830431
20
21.6182802834
30
0.0000000000
10
79.6930732936
20
21.5909218031
30
0.0000000000
10
79.7547325260
20
21.4992406738
30
0.0000000000
10
79.7673181079
20
21.4040172298
30
0.0000000000
10
79.7673181079
20
21.3528800811
30
0.0000000000
11
79.6374911232
21
21.6228611381
31
0.0000000000
11
79.6642935373
21
21.6069049712
31
0.0000000000
11
79.7408655008
21
21.5039937184
31
0.0000000000
11
79.7673181079
21
21.3528800811
31
0.0000000000
0
SPLINE
5
277
100
AcDbEntity
8
0
100
AcDbSpline
62
7
6
CONTINUOUS
70
0
71
3
72
9
73
5
74
3
42
0.0000001000
43
0.0000001000
44
0.0000000001
12
0.9725431921
22
-0.6630394253
32
0.0000000000
13
0.8032065068
23
-0.8580859831
33
0.0000000000
40
0.0000000000
40
0.0000000000
40
0.0000000000
40
0.0000000000
40
0.4954660766
40
1.0000000000
40
1.0000000000
40
1.0000000000
40
1.0000000000
10
72.9639012753
20
45.1740788444
30
0.0000000000
10
73.1245219953
20
45.0645743302
30
0.0000000000
10
73.4363101189
20
44.8255038442
30
0.0000000000
10
73.7188642987
20
44.5535144197
30
0.0000000000
10
73.8539459421
20
44.4092032572
30
0.0000000000
11
72.9639012753
21
45.1740788444
31
0.0000000000
11
73.4263063295
21
44.8195905394
31
0.0000000000
11
73.8539459421
21
44.4092032572
31
0.0000000000
0
SPLINE
5
278
100
AcDbEntity
8
0
100
AcDbSpline
62
7
6
CONTINUOUS
70
0
71
3
72
17
73
13
74
11
42
0.0000001000
43
0.0000001000
44
0.0000000001
12
16.0077929437
22
-17.1015332041
32
0.0000000000
13
-17.7943629501
23
-15.1393848000
33
0.0000000000
40
0.0000000000
40
0.0000000000
40
0.0000000000
40
0.0000000000
40
0.0526411657
40
0.1382986158
40
0.2335179512
40
0.3382402380
40
0.4509734268
40
0.5692593315
40
0.6900620739
40
0.8101035930
40
0.9261779094
40
1.0000000000
40
1.0000000000
40
1.0000000000
40
1.0000000000
10
73.8539459421
20
44.4092032572
30
0.0000000000
10
74.1348355692
20
44.1091217093
30
0.0000000000
10
74.7878555287
20
43.2402843059
30
0.0000000000
10
75.5100660308
20
41.5521483888
30
0.0000000000
10
75.9042087103
20
39.3499550303
30
0.0000000000
10
75.8864482290
20
36.9060164734
30
0.0000000000
10
75.4615088594
20
34.3194705110
30
0.0000000000
10
74.6483692464
20
31.6975491380
30
0.0000000000
10
73.4816156368
20
29.1505486871
30
0.0000000000
10
72.0108155573
20
26.7863450629
30
0.0000000000
10
70.4735211208
20
24.9185347919
30
0.0000000000
10
69.4005503239
20
23.8983562846
30
0.0000000000
10
68.9626779658
20
23.5258159390
30
0.0000000000
11
73.8539459421
21
44.4092032572
31
0.0000000000
11
74.5993171472
21
43.4287320257
31
0.0000000000
11
75.4110191768
21
41.6017352239
31
0.0000000000
11
75.8259371447
21
39.4184486612
31
0.0000000000
11
75.8259371447
21
36.9742924367
31
0.0000000000
11
75.4110191768
21
34.3760879060
31
0.0000000000
11
74.5993171472
21
31.7373890746
31
0.0000000000
11
73.4263063295
21
29.1735197433
31
0.0000000000
11
71.9432529253
21
26.7965333047
31
0.0000000000
11
70.2149734847
21
24.7103154722
31
0.0000000000
11
68.9626779658
21
23.5258159390
31
0.0000000000
0
SPLINE
5
279
100
AcDbEntity
8
0
100
AcDbSpline
62
7
6
CONTINUOUS
70
0
71
3
72
8
73
4
74
2
42
0.0000001000
43
0.0000001000
44
0.0000000001
12
-0.6311946000
22
-0.5370182658
32
0.0000000000
13
-0.6602620168
23
-0.5019397445
33
0.0000000000
40
0.0000000000
40
0.0000000000
40
0.0000000000
40
0.0000000000
40
1.0000000000
40
1.0000000000
40
1.0000000000
40
1.0000000000
10
68.9626779658
20
23.5258159390
30
0.0000000000
10
68.7522797658
20
23.3468098504
30
0.0000000000
10
68.5370894515
20
23.1733572241
30
0.0000000000
10
68.3170021126
20
23.0060439759
30
0.0000000000
11
68.9626779658
21
23.5258159390
31
0.0000000000
11
68.3170021126
21
23.0060439759
31
0.0000000000
0
SPLINE
5
27A
100
AcDbEntity
8
0
100
AcDbSpline
62
7
6
CONTINUOUS
70
0
71
3
72
8
73
4
74
2
42
0.0000001000
43
0.0000001000
44
0.0000000001
12
-1.8697198125
22
-1.4213852398
32
0.0000000000
13
-2.0968911359
23
-1.0484455680
33
0.0000000000
40
0.0000000000
40
0.0000000000
40
0.0000000000
40
0.0000000000
40
1.0000000000
40
1.0000000000
40
1.0000000000
40
1.0000000000
10
68.3170021126
20
23.0060439759
30
0.0000000000
10
67.6937621751
20
22.5322488960
30
0.0000000000
10
67.0312529773
20
22.1076855141
30
0.0000000000
10
66.3322892653
20
21.7582036581
30
0.0000000000
11
68.3170021126
21
23.0060439759
31
0.0000000000
11
66.3322892653
21
21.7582036581
31
0.0000000000
0
SPLINE
5
27B
100
AcDbEntity
8
0
100
AcDbSpline
62
7
6
CONTINUOUS
70
0
71
3
72
14
73
10
74
8
42
0.0000001000
43
0.0000001000
44
0.0000000001
12
5.4391930335
22
2.7195965167
32
0.0000000000
13
-1.9120573196
23
5.7946115823
33
0.0000000000
40
0.0000000000
40
0.0000000000
40
0.0000000000
40
0.0000000000
40
0.1384029311
40
0.2918995829
40
0.4542085867
40
0.6173672922
40
0.7732617142
40
0.9151313248
40
1.0000000000
40
1.0000000000
40
1.0000000000
40
1.0000000000
10
-82.3369114792
20
-43.9161426763
30
0.0000000000
10
-82.0859780597
20
-43.7906759665
30
0.0000000000
10
-81.5948870874
20
-43.4479866473
30
0.0000000000
10
-80.9648539312
20
-42.7695995874
30
0.0000000000
10
-80.4405386725
20
-41.9463705655
30
0.0000000000
10
-80.0626166750
20
-41.0415403254
30
0.0000000000
10
-79.8596941312
20
-40.1238437486
30
0.0000000000
10
-79.8492675167
20
-39.3416799966
30
0.0000000000
10
-79.9440197002
20
-38.8875961371
30
0.0000000000
10
-79.9981109574
20
-38.7236691343
30
0.0000000000
11
-82.3369114792
21
-43.9161426763
31
0.0000000000
11
-81.6396589742
21
-43.4447360252
31
0.0000000000
11
-80.9988937204
21
-42.7659591402
31
0.0000000000
11
-80.4665267080
21
-41.9348024878
31
0.0000000000
11
-80.0856871461
21
-41.0186014368
31
0.0000000000
11
-79.8872283911
21
-40.0915811475
31
0.0000000000
11
-79.8872283911
21
-39.2288432905
31
0.0000000000
11
-79.9981109574
21
-38.7236691343
31
0.0000000000
0
SPLINE
5
27C
100
AcDbEntity
8
0
100
AcDbSpline
62
7
6
CONTINUOUS
70
0
71
3
72
9
73
5
74
3
42
0.0000001000
43
0.0000001000
44
0.0000000001
12
-0.2054293537
22
0.6225667504
32
0.0000000000
13
-0.4056666378
23
0.5171060616
33
0.0000000000
40
0.0000000000
40
0.0000000000
40
0.0000000000
40
0.0000000000
40
0.3658090378
40
1.0000000000
40
1.0000000000
40
1.0000000000
40
1.0000000000
10
-79.9981109574
20
-38.7236691343
30
0.0000000000
10
-80.0231602621
20
-38.6477556197
30
0.0000000000
10
-80.1025557883
20
-38.4437729452
30
0.0000000000
10
-80.2151287638
20
-38.2529691498
30
0.0000000000
10
-80.3008854689
20
-38.1436544862
30
0.0000000000
11
-79.9981109574
21
-38.7236691343
31
0.0000000000
11
-80.0856871461
21
-38.5002817562
31
0.0000000000
11
-80.3008854689
21
-38.1436544862
31
0.0000000000
0
SPLINE
5
27D
100
AcDbEntity
8
0
100
AcDbSpline
62
7
6
CONTINUOUS
70
0
71
3
72
14
73
10
74
8
42
0.0000001000
43
0.0000001000
44
0.0000000001
12
5.4391930335
22
2.7195965167
32
0.0000000000
13
-1.9120573196
23
5.7946115823
33
0.0000000000
40
0.0000000000
40
0.0000000000
40
0.0000000000
40
0.0000000000
40
0.1384029311
40
0.2918995829
40
0.4542085867
40
0.6173672922
40
0.7732617142
40
0.9151313248
40
1.0000000000
40
1.0000000000
40
1.0000000000
40
1.0000000000
10
83.8331820997
20
39.1689041132
30
0.0000000000
10
84.0841155192
20
39.2943708229
30
0.0000000000
10
84.5752064915
20
39.6370601421
30
0.0000000000
10
85.2052396476
20
40.3154472020
30
0.0000000000
10
85.7295549063
20
41.1386762239
30
0.0000000000
10
86.1074769038
20
42.0435064640
30
0.0000000000
10
86.3103994477
20
42.9612030408
30
0.0000000000
10
86.3208260621
20
43.7433667928
30
0.0000000000
10
86.2260738786
20
44.1974506524
30
0.0000000000
10
86.1719826214
20
44.3613776551
30
0.0000000000
11
83.8331820997
21
39.1689041132
31
0.0000000000
11
84.5304346047
21
39.6403107642
31
0.0000000000
11
85.1711998584
21
40.3190876492
31
0.0000000000
11
85.7035668708
21
41.1502443016
31
0.0000000000
11
86.0844064327
21
42.0664453526
31
0.0000000000
11
86.2828651877
21
42.9934656419
31
0.0000000000
11
86.2828651877
21
43.8562034989
31
0.0000000000
11
86.1719826214
21
44.3613776551
31
0.0000000000
0
SPLINE
5
27E
100
AcDbEntity
8
0
100
AcDbSpline
62
7
6
CONTINUOUS
70
0
71
3
72
9
73
5
74
3
42
0.0000001000
43
0.0000001000
44
0.0000000001
12
-0.2054293537
22
0.6225667504
32
0.0000000000
13
-0.4056666378
23
0.5171060616
33
0.0000000000
40
0.0000000000
40
0.0000000000
40
0.0000000000
40
0.0000000000
40
0.3658090378
40
1.0000000000
40
1.0000000000
40
1.0000000000
40
1.0000000000
10
86.1719826214
20
44.3613776551
30
0.0000000000
10
86.1469333167
20
44.4372911697
30
0.0000000000
10
86.0675377905
20
44.6412738442
30
0.0000000000
10
85.9549648150
20
44.8320776396
30
0.0000000000
10
85.8692081099
20
44.9413923032
30
0.0000000000
11
86.1719826214
21
44.3613776551
31
0.0000000000
11
86.0844064327
21
44.5847650332
31
0.0000000000
11
85.8692081099
21
44.9413923032
31
0.0000000000
0
SPLINE
5
27F
100
AcDbEntity
8
0
100
AcDbSpline
62
7
6
CONTINUOUS
70
0
71
3
72
11
73
7
74
5
42
0.0000001000
43
0.0000001000
44
0.0000000001
12
-2.2687129911
22
1.1309368427
32
0.0000000000
13
-0.0000000000
23
2.5150465151
33
0.0000000000
40
0.0000000000
40
0.0000000000
40
0.0000000000
40
0.0000000000
40
0.0970590764
40
0.3619112250
40
0.6644539506
40
1.0000000000
40
1.0000000000
40
1.0000000000
40
1.0000000000
10
-89.2526938233
20
-62.6135694629
30
0.0000000000
10
-89.3260935525
20
-62.5769802345
30
0.0000000000
10
-89.5887069265
20
-62.4188108031
30
0.0000000000
10
-89.9664673557
20
-61.9889249859
30
0.0000000000
10
-90.2393997675
20
-61.2700673000
30
0.0000000000
10
-90.2918627675
20
-60.7322913160
30
0.0000000000
10
-90.2918627675
20
-60.4509866753
30
0.0000000000
11
-89.2526938233
21
-62.6135694629
31
0.0000000000
11
-89.4628620452
21
-62.4866783662
31
0.0000000000
11
-89.9121220260
21
-61.9948701783
31
0.0000000000
11
-90.1978580404
21
-61.2896485973
31
0.0000000000
11
-90.2918627675
21
-60.4509866753
31
0.0000000000
0
SPLINE
5
280
100
AcDbEntity
8
0
100
AcDbSpline
62
7
6
CONTINUOUS
70
0
71
3
72
10
73
6
74
4
42
0.0000001000
43
0.0000001000
44
0.0000000001
12
1.6548624562
22
0.8274312281
32
0.0000000000
13
1.6689773624
23
-0.8319730156
33
0.0000000000
40
0.0000000000
40
0.0000000000
40
0.0000000000
40
0.0000000000
40
0.4128869675
40
0.7866391212
40
1.0000000000
40
1.0000000000
40
1.0000000000
40
1.0000000000
10
86.4848325291
20
62.5783771244
30
0.0000000000
10
86.7125895762
20
62.6922556479
30
0.0000000000
10
87.1754547192
20
62.8604746388
30
0.0000000000
10
87.8073876549
20
62.8711129404
30
0.0000000000
10
88.1553925507
20
62.7502420238
30
0.0000000000
10
88.2740907097
20
62.6910718593
30
0.0000000000
11
86.4848325291
21
62.5783771244
31
0.0000000000
11
87.2079143279
21
62.8248056694
31
0.0000000000
11
87.8994188887
21
62.8213050353
31
0.0000000000
11
88.2740907097
21
62.6910718593
31
0.0000000000
0
SPLINE
5
281
100
AcDbEntity
8
0
100
AcDbSpline
62
7
6
CONTINUOUS
70
0
71
3
72
13
73
9
74
7
42
0.0000001000
43
0.0000001000
44
0.0000000001
12
0.0000000000
22
5.8831471808
32
0.0000000000
13
5.2620468072
23
2.6310234036
33
0.0000000000
40
0.0000000000
40
0.0000000000
40
0.0000000000
40
0.0000000000
40
0.1593210906
40
0.3343583211
40
0.5115032857
40
0.6858731617
40
0.8527779277
40
1.0000000000
40
1.0000000000
40
1.0000000000
40
1.0000000000
10
-90.2918627675
20
-29.2740721391
30
0.0000000000
10
-90.2918627675
20
-28.9616356640
30
0.0000000000
10
-90.2202603568
20
-28.3050505461
30
0.0000000000
10
-89.9372122211
20
-27.3381616581
30
0.0000000000
10
-89.4904736176
20
-26.4023999775
30
0.0000000000
10
-88.9106224218
20
-25.5617520494
30
0.0000000000
10
-88.2368522771
20
-24.8737908211
30
0.0000000000
10
-87.7216654545
20
-24.5248718674
30
0.0000000000
10
-87.4634356428
20
-24.3957569615
30
0.0000000000
11
-90.2918627675
21
-29.2740721391
31
0.0000000000
11
-90.1978739237
21
-28.3414869925
31
0.0000000000
11
-89.9127101131
21
-27.3519884228
31
0.0000000000
11
-89.4640090758
21
-26.4113580611
31
0.0000000000
11
-88.8790397529
21
-25.5686445422
31
0.0000000000
11
-88.1865775037
21
-24.8724596994
31
0.0000000000
11
-87.4634356428
21
-24.3957569615
31
0.0000000000
0
SPLINE
5
282
100
AcDbEntity
8
0
100
AcDbSpline
62
7
6
CONTINUOUS
70
0
71
3
72
9
73
5
74
3
42
0.0000001000
43
0.0000001000
44
0.0000000001
12
1.0157011753
22
-0.0238017940
32
0.0000000000
13
0.9011576341
23
0.4505788171
33
0.0000000000
40
0.0000000000
40
0.0000000000
40
0.0000000000
40
0.0000000000
40
0.2725568586
40
1.0000000000
40
1.0000000000
40
1.0000000000
40
1.0000000000
10
80.3847703548
20
37.6892462078
30
0.0000000000
10
80.4770491287
20
37.6870837604
30
0.0000000000
10
80.8169226607
20
37.7085178181
30
0.0000000000
10
81.1397947188
20
37.8222104227
30
0.0000000000
10
81.3583083655
20
37.9314672461
30
0.0000000000
11
80.3847703548
21
37.6892462078
31
0.0000000000
11
80.6610558605
21
37.7056213922
31
0.0000000000
11
81.3583083655
21
37.9314672461
31
0.0000000000
0
SPLINE
5
283
100
AcDbEntity
8
0
100
AcDbSpline
62
7
6
CONTINUOUS
70
0
71
3
72
9
73
5
74
3
42
0.0000001000
43
0.0000001000
44
0.0000000001
12
1.0157011753
22
-0.0238017940
32
0.0000000000
13
0.9011576341
23
0.4505788171
33
0.0000000000
40
0.0000000000
40
0.0000000000
40
0.0000000000
40
0.0000000000
40
0.2725568586
40
1.0000000000
40
1.0000000000
40
1.0000000000
40
1.0000000000
10
-85.7853232240
20
-45.3958005816
30
0.0000000000
10
-85.6930444501
20
-45.3979630290
30
0.0000000000
10
-85.3531709181
20
-45.3765289713
30
0.0000000000
10
-85.0302988601
20
-45.2628363667
30
0.0000000000
10
-84.8117852133
20
-45.1535795433
30
0.0000000000
11
-85.7853232240
21
-45.3958005816
31
0.0000000000
11
-85.5090377183
21
-45.3794253972
31
0.0000000000
11
-84.8117852133
21
-45.1535795433
31
0.0000000000
0
SPLINE
5
284
100
AcDbEntity
8
0
100
AcDbSpline
62
7
6
CONTINUOUS
70
0
71
3
72
10
73
6
74
4
42
0.0000001000
43
0.0000001000
44
0.0000000001
12
-4.1350052301
22
-2.0675026151
32
0.0000000000
13
-4.5933616225
23
0.6957526653
33
0.0000000000
40
0.0000000000
40
0.0000000000
40
0.0000000000
40
0.0000000000
40
0.4579394563
40
0.8706148591
40
1.0000000000
40
1.0000000000
40
1.0000000000
40
1.0000000000
10
-67.3108923789
20
-45.0633871640
30
0.0000000000
10
-67.9420863946
20
-45.3789841718
30
0.0000000000
10
-69.2061942708
20
-45.8663008829
30
0.0000000000
10
-70.7565110183
20
-46.0466826101
30
0.0000000000
10
-71.5932118049
20
-45.9653281746
30
0.0000000000
10
-71.7913160518
20
-45.9353214891
30
0.0000000000
11
-67.3108923789
21
-45.0633871640
31
0.0000000000
11
-69.2956052262
21
-45.8002596935
31
0.0000000000
11
-71.1935765984
21
-45.9939595693
31
0.0000000000
11
-71.7913160518
21
-45.9353214891
31
0.0000000000
0
SPLINE
5
285
100
AcDbEntity
8
0
100
AcDbSpline
62
7
6
CONTINUOUS
70
0
71
3
72
8
73
4
74
2
42
0.0000001000
43
0.0000001000
44
0.0000000001
12
-0.5849386966
22
0.0886001780
32
0.0000000000
13
-0.5715822219
23
0.1512339087
33
0.0000000000
40
0.0000000000
40
0.0000000000
40
0.0000000000
40
0.0000000000
40
1.0000000000
40
1.0000000000
40
1.0000000000
40
1.0000000000
10
-71.7913160518
20
-45.9353214891
30
0.0000000000
10
-71.9862956174
20
-45.9057880964
30
0.0000000000
10
-72.1797165792
20
-45.8659979908
30
0.0000000000
10
-72.3702439865
20
-45.8155866879
30
0.0000000000
11
-71.7913160518
21
-45.9353214891
31
0.0000000000
11
-72.3702439865
21
-45.8155866879
31
0.0000000000
0
SPLINE
5
286
100
AcDbEntity
8
0
100
AcDbSpline
62
7
6
CONTINUOUS
70
0
71
3
72
8
73
4
74
2
42
0.0000001000
43
0.0000001000
44
0.0000000001
12
-0.4402798252
22
0.1164928445
32
0.0000000000
13
-0.4281483767
23
0.1548041759
33
0.0000000000
40
0.0000000000
40
0.0000000000
40
0.0000000000
40
0.0000000000
40
1.0000000000
40
1.0000000000
40
1.0000000000
40
1.0000000000
10
-72.3702439865
20
-45.8155866879
30
0.0000000000
10
-72.5170039283
20
-45.7767557398
30
0.0000000000
10
-72.6620470221
20
-45.7316228609
30
0.0000000000
10
-72.8047631476
20
-45.6800214689
30
0.0000000000
11
-72.3702439865
21
-45.8155866879
31
0.0000000000
11
-72.8047631476
21
-45.6800214689
31
0.0000000000
0
SPLINE
5
287
100
AcDbEntity
8
0
100
AcDbSpline
62
7
6
CONTINUOUS
70
0
71
3
72
9
73
5
74
3
42
0.0000001000
43
0.0000001000
44
0.0000000001
12
0.2111464963
22
-0.1055732482
32
0.0000000000
13
0.1493448677
23
-0.1832562335
33
0.0000000000
40
0.0000000000
40
0.0000000000
40
0.0000000000
40
0.0000000000
40
0.5813207975
40
1.0000000000
40
1.0000000000
40
1.0000000000
40
1.0000000000
10
-78.6246008779
20
-20.9218242942
30
0.0000000000
10
-78.5836862614
20
-20.9422816025
30
0.0000000000
10
-78.5191026566
20
-20.9892339929
30
0.0000000000
10
-78.4650932306
20
-21.0469731457
30
0.0000000000
10
-78.4442507006
20
-21.0725483369
30
0.0000000000
11
-78.6246008779
21
-20.9218242942
31
0.0000000000
11
-78.5121720493
21
-21.0005156169
31
0.0000000000
11
-78.4442507006
21
-21.0725483369
31
0.0000000000
0
SPLINE
5
288
100
AcDbEntity
8
0
100
AcDbSpline
62
7
6
CONTINUOUS
70
0
71
3
72
8
73
4
74
2
42
0.0000001000
43
0.0000001000
44
0.0000000001
12
0.0332729639
22
-0.0408281726
32
0.0000000000
13
0.0303033288
23
-0.0429870492
33
0.0000000000
40
0.0000000000
40
0.0000000000
40
0.0000000000
40
0.0000000000
40
1.0000000000
40
1.0000000000
40
1.0000000000
40
1.0000000000
10
-78.4442507006
20
-21.0725483369
30
0.0000000000
10
-78.4331597126
20
-21.0861577278
30
0.0000000000
10
-78.4225699532
20
-21.1001638354
30
0.0000000000
10
-78.4124688436
20
-21.1144928518
30
0.0000000000
11
-78.4442507006
21
-21.0725483369
31
0.0000000000
11
-78.4124688436
21
-21.1144928518
31
0.0000000000
0
SPLINE
5
289
100
AcDbEntity
8
0
100
AcDbSpline
62
7
6
CONTINUOUS
70
0
71
3
72
10
73
6
74
4
42
0.0000001000
43
0.0000001000
44
0.0000000001
12
-1.2882007524
22
0.6441003762
32
0.0000000000
13
-0.0001160469
23
1.4467147159
33
0.0000000000
40
0.0000000000
40
0.0000000000
40
0.0000000000
40
0.0000000000
40
0.3906294872
40
0.7216563104
40
1.0000000000
40
1.0000000000
40
1.0000000000
40
1.0000000000
10
-82.5136881745
20
-18.9772806460
30
0.0000000000
10
-82.6814245742
20
-18.8934124461
30
0.0000000000
10
-82.9786425983
20
-18.7091457715
30
0.0000000000
10
-83.3069641527
20
-18.3447273621
30
0.0000000000
10
-83.3923570329
20
-18.0508423095
30
0.0000000000
10
-83.3923677999
20
-17.9166143389
30
0.0000000000
11
-82.5136881745
21
-18.9772806460
31
0.0000000000
11
-82.9855273785
21
-18.6708624050
31
0.0000000000
11
-83.2904205429
21
-18.3043350852
31
0.0000000000
11
-83.3923677999
21
-17.9166143389
31
0.0000000000
0
SPLINE
5
28A
100
AcDbEntity
8
0
100
AcDbSpline
62
7
6
CONTINUOUS
70
0
71
3
72
8
73
4
74
2
42
0.0000001000
43
0.0000001000
44
0.0000000001
12
0.0426531314
22
0.0213265657
32
0.0000000000
13
0.0395958244
23
0.0268795042
33
0.0000000000
40
0.0000000000
40
0.0000000000
40
0.0000000000
40
0.0000000000
40
1.0000000000
40
1.0000000000
40
1.0000000000
40
1.0000000000
10
-78.5538901990
20
-21.6730350481
30
0.0000000000
10
-78.5396724885
20
-21.6659261928
30
0.0000000000
10
-78.5259384264
20
-21.6578237511
30
0.0000000000
10
-78.5127398183
20
-21.6488639164
30
0.0000000000
11
-78.5538901990
21
-21.6730350481
31
0.0000000000
11
-78.5127398183
21
-21.6488639164
31
0.0000000000
0
SPLINE
5
28B
100
AcDbEntity
8
0
100
AcDbSpline
62
7
6
CONTINUOUS
70
0
71
3
72
11
73
7
74
5
42
0.0000001000
43
0.0000001000
44
0.0000000001
12
0.5026101193
22
0.3411953414
32
0.0000000000
13
-0.3487691241
23
0.4947494591
33
0.0000000000
40
0.0000000000
40
0.0000000000
40
0.0000000000
40
0.0000000000
40
0.1654430701
40
0.4314162321
40
0.7093784302
40
1.0000000000
40
1.0000000000
40
1.0000000000
40
1.0000000000
10
-78.5127398183
20
-21.6488639164
30
0.0000000000
10
-78.4850220312
20
-21.6300477815
30
0.0000000000
10
-78.4189018516
20
-21.5711217777
30
0.0000000000
10
-78.3419484532
20
-21.4460547223
30
0.0000000000
10
-78.3280889171
20
-21.2705788582
30
0.0000000000
10
-78.3786822335
20
-21.1624211399
30
0.0000000000
10
-78.4124688436
20
-21.1144928518
30
0.0000000000
11
-78.5127398183
21
-21.6488639164
31
0.0000000000
11
-78.4371506844
21
-21.5823330045
31
0.0000000000
11
-78.3551975999
21
-21.4437521372
31
0.0000000000
11
-78.3426472063
21
-21.2759637204
31
0.0000000000
11
-78.4124688436
21
-21.1144928518
31
0.0000000000
0
SPLINE
5
28C
100
AcDbEntity
8
0
100
AcDbSpline
62
7
6
CONTINUOUS
70
0
71
3
72
11
73
7
74
5
42
0.0000001000
43
0.0000001000
44
0.0000000001
12
0.6566115960
22
0.3283057980
32
0.0000000000
13
0.0000000000
23
0.7341140818
33
0.0000000000
40
0.0000000000
40
0.0000000000
40
0.0000000000
40
0.0000000000
40
0.2275428926
40
0.4867899573
40
0.7541236507
40
1.0000000000
40
1.0000000000
40
1.0000000000
40
1.0000000000
10
78.3531045455
20
56.7804623250
30
0.0000000000
10
78.4029069794
20
56.8053635420
30
0.0000000000
10
78.4987798321
20
56.8801044030
30
0.0000000000
10
78.6100932616
20
57.0293208528
30
0.0000000000
10
78.6858326841
20
57.2042880003
30
0.0000000000
10
78.7066579361
20
57.3300846254
30
0.0000000000
10
78.7066579361
20
57.3902517222
30
0.0000000000
11
78.3531045455
21
56.7804623250
31
0.0000000000
11
78.4872875453
21
56.8799515198
31
0.0000000000
11
78.6025746045
21
57.0313761689
31
0.0000000000
11
78.6799333444
21
57.2117397841
31
0.0000000000
11
78.7066579361
21
57.3902517222
31
0.0000000000
0
ENDSEC
0
SECTION
2
OBJECTS
0
DICTIONARY
5
28D
100
AcDbDictionary
3
ACAD_GROUP
350
28E
3
ACAD_MLINESTYLE
350
28F
0
DICTIONARY
5
28E
102
{ACAD_REACTORS
330
28D
102
}
100
AcDbDictionary
0
DICTIONARY
5
28F
102
{ACAD_REACTORS
330
28D
102
}
100
AcDbDictionary
3
STANDARD
350
290
0
MLINESTYLE
5
290
102
{ACAD_REACTORS
330
28F
102
}
100
AcDbMlineStyle
2
STANDARD
70
0
3

62
256
51
90.0
52
90.0
71
2
49
0.5
62
256
6
BYLAYER
49
-0.5
62
256
6
BYLAYER
0
ENDSEC
0
EOF
