0
SECTION
2
HEADER
9
$ACADVER
1
AC1014
9
$HANDSEED
5
       280
9
$EXTMAX
10
297.0000000000
20
210.0000000000
9
$EXTMIN
10
0.0000000000
20
0.0000000000
9
$LIMMIN
10
0.0000000000
20
0.0000000000
9
$LIMMAX
10
297.0000000000
20
210.0000000000
9
$VIEWCTR
10
148.5000000000
20
105.0000000000
9
$VIEWSIZE
40
210.0000000000
9
$CLAYER
8
0
9
$LTSCALE
40
16.3350000000
9
$CELTYPE
6
BYLAYER
9
$DIMSCALE
40
1
9
$DIMASZ
40
3.0000000000
9
$DIMEXO
40
1.8562500000
9
$DIMDLI
40
11.2860000000
9
$DIMEXE
40
5.3460000000
9
$DIMCEN
40
2.6730000000
9
$DIMLFAC
40
1.0000000000
9
$DIMTXT
40
3.0000000000
9
$DIMTOL
70
1
9
$DIMLIM
70
0
9
$DIMTFAC
40
1.0000000000
9
$DIMTP
40
0.0100000000
9
$DIMTM
40
0.0100000000
9
$MEASUREMENT
70
1
0
ENDSEC
0
SECTION
2
CLASSES
0
ENDSEC
0
SECTION
2
TABLES
0
TABLE
2
VPORT
5
8
100
AcDbSymbolTable
70
2
0
VPORT
5
1F4
100
AcDbSymbolTableRecord
100
AcDbViewportTableRecord
2
*ACTIVE
70
0
10
0.0
20
0.0
11
1.0
21
1.0
12
148.5000000000
22
105.0000000000
13
0.0
23
0.0
14
1.0
24
1.0
15
0.0
25
0.0
16
0.0
26
0.0
36
1.0
17
0.0
27
0.0
37
0.0
40
210.0000000000
41
1.4142857143
42
50.0
43
0.0
44
0.0
50
0.0
51
0.0
71
0
72
100
73
1
74
1
75
0
76
0
77
0
78
0
0
ENDTAB
0
TABLE
2
LTYPE
5
5
100
AcDbSymbolTable
70
6
0
LTYPE
5
14
100
AcDbSymbolTableRecord
100
AcDbLinetypeTableRecord
2
BYBLOCK
70
0
3

72
65
73
0
40
0.0
0
LTYPE
5
15
100
AcDbSymbolTableRecord
100
AcDbLinetypeTableRecord
2
BYLAYER
70
0
3

72
65
73
0
40
0.0
0
LTYPE
5
16
100
AcDbSymbolTableRecord
100
AcDbLinetypeTableRecord
2
CONTINUOUS
70
64
3
Solid line
72
65
73
0
40
0
0
LTYPE
5
1F5
100
AcDbSymbolTableRecord
100
AcDbLinetypeTableRecord
2
CENTER
70
64
3
____ _ ____ _ ____ _ ____ _ ____ _ ____ _ ____
72
65
73
4
40
0.6
49
0.375
74
0
49
-0.075
74
0
49
0.075
74
0
49
-0.075
74
0
0
LTYPE
5
1F6
100
AcDbSymbolTableRecord
100
AcDbLinetypeTableRecord
2
HIDDEN
70
64
3
- - - - - - - - - - - - - - - - - - - -
72
65
73
2
40
0.2
49
0.1
74
0
49
-0.1
74
0
0
LTYPE
5
1F7
100
AcDbSymbolTableRecord
100
AcDbLinetypeTableRecord
2
PHANTOM
70
64
3
_____ _ _ _____ _ _ _____ _ _ _____
72
65
73
6
40
0.8
49
0.45
74
0
49
-0.05
74
0
49
0.1
74
0
49
-0.05
74
0
49
0.1
74
0
49
-0.05
74
0
0
LTYPE
5
1F8
100
AcDbSymbolTableRecord
100
AcDbLinetypeTableRecord
2
DOT
70
64
3
. . . . . . . . . . . . . . . . . . . .
72
65
73
2
40
0.2
49
0.1
74
0
49
-0.1
74
0
0
LTYPE
5
1F9
100
AcDbSymbolTableRecord
100
AcDbLinetypeTableRecord
2
DASHED
70
64
3
- - - - - - - - - - - - - - - - - - - -
72
65
73
2
40
0.2
49
0.1
74
0
49
-0.1
74
0
0
ENDTAB
0
TABLE
2
LAYER
5
2
100
AcDbSymbolTable
70
36
0
LAYER
5
10
100
AcDbSymbolTableRecord
100
AcDbLayerTableRecord
2
0
70
0
62
7
6
CONTINUOUS
0
LAYER
5
1FA
100
AcDbSymbolTableRecord
100
AcDbLayerTableRecord
2
DEFAULT_1
70
0
62
7
6
CENTER
0
LAYER
5
1FB
100
AcDbSymbolTableRecord
100
AcDbLayerTableRecord
2
DEFAULT_2
70
0
62
8
6
HIDDEN
0
LAYER
5
1FC
100
AcDbSymbolTableRecord
100
AcDbLayerTableRecord
2
DEFAULT_3
70
0
62
7
6
PHANTOM
0
LAYER
5
1FD
100
AcDbSymbolTableRecord
100
AcDbLayerTableRecord
2
ASSI
70
0
62
7
6
CONTINUOUS
0
LAYER
5
1FE
100
AcDbSymbolTableRecord
100
AcDbLayerTableRecord
2
COORDINATE
70
0
62
7
6
CONTINUOUS
0
LAYER
5
1FF
100
AcDbSymbolTableRecord
100
AcDbLayerTableRecord
2
COORD_ORIGINE
70
0
62
7
6
CONTINUOUS
0
LAYER
5
200
100
AcDbSymbolTableRecord
100
AcDbLayerTableRecord
2
PIANI
70
0
62
7
6
CONTINUOUS
0
LAYER
5
201
100
AcDbSymbolTableRecord
100
AcDbLayerTableRecord
2
PIANI_ORIGINE
70
0
62
7
6
CONTINUOUS
0
LAYER
5
202
100
AcDbSymbolTableRecord
100
AcDbLayerTableRecord
2
RACCORDO
70
0
62
7
6
CONTINUOUS
0
LAYER
5
203
100
AcDbSymbolTableRecord
100
AcDbLayerTableRecord
2
TRASH
70
0
62
7
6
CONTINUOUS
0
ENDTAB
0
TABLE
2
STYLE
5
3
100
AcDbSymbolTable
70
1
0
STYLE
5
11
100
AcDbSymbolTableRecord
100
AcDbTextStyleTableRecord
2
STANDARD
70
0
40
0.0
41
0.8000000000
50
0.0
71
0
42
0.2
3
txt
4

0
ENDTAB
0
TABLE
2
VIEW
5
6
100
AcDbSymbolTable
70
0
0
ENDTAB
0
TABLE
2
UCS
5
7
100
AcDbSymbolTable
70
0
0
ENDTAB
0
TABLE
2
APPID
5
9
100
AcDbSymbolTable
70
1
0
APPID
5
204
100
AcDbSymbolTableRecord
100
AcDbRegAppTableRecord
2
ACAD
70
0
0
ENDTAB
0
TABLE
2
DIMSTYLE
5
A
100
AcDbSymbolTable
70
1
0
DIMSTYLE
105
205
100
AcDbSymbolTableRecord
100
AcDbDimStyleTableRecord
2
STANDARD
70
0
3

4

5

6

7

40
1.0
41
3.0000000000
42
0.0625
43
0.38
44
0.18
45
0.0
46
0.0
47
0.0100000000
48
0.0100000000
140
3.0000000000
141
0.09
142
0.0
143
25.4
144
1.0000000000
145
0.0
146
1.0000000000
147
0.09
71
1
72
0
73
0
74
0
75
0
76
0
77
1
78
8
170
0
171
2
172
0
173
0
174
0
175
0
176
0
177
0
178
0
270
2
271
2
272
2
273
2
274
2
340
11
275
0
280
0
281
0
282
0
283
1
284
8
285
0
286
0
287
3
288
0
0
ENDTAB
0
TABLE
2
BLOCK_RECORD
5
1
100
AcDbSymbolTable
70
0
0
BLOCK_RECORD
5
1B
100
AcDbSymbolTableRecord
100
AcDbBlockTableRecord
2
*MODEL_SPACE
0
BLOCK_RECORD
5
1C
100
AcDbSymbolTableRecord
100
AcDbBlockTableRecord
2
*PAPER_SPACE
0
ENDTAB
0
ENDSEC
0
SECTION
2
BLOCKS
0
BLOCK
5
1E
100
AcDbEntity
8
0
100
AcDbBlockBegin
2
*MODEL_SPACE
70
0
10
0.0
20
0.0
30
0.0
3
*MODEL_SPACE
1

0
ENDBLK
5
1F
100
AcDbEntity
8
0
100
AcDbBlockEnd
0
BLOCK
5
20
100
AcDbEntity
8
0
100
AcDbBlockBegin
2
*PAPER_SPACE
70
0
10
0.0
20
0.0
30
0.0
3
*PAPER_SPACE
1

0
ENDBLK
5
21
100
AcDbEntity
8
0
100
AcDbBlockEnd
0
ENDSEC
0
SECTION
2
ENTITIES
0
LINE
5
206
100
AcDbEntity
8
0
100
AcDbLine
62
7
6
CONTINUOUS
10
-86.0502772724
20
-64.6772942541
11
-87.1109374442
21
-64.1469641682
0
LINE
5
207
100
AcDbEntity
8
0
100
AcDbLine
62
7
6
CONTINUOUS
10
-88.1505101869
20
-61.9834689666
11
-88.1505101869
21
-30.8065544303
0
LINE
5
208
100
AcDbEntity
8
0
100
AcDbLine
62
7
6
CONTINUOUS
10
-87.0898500152
20
-62.5137990525
11
-87.0898500152
21
-31.3368845162
0
LINE
5
209
100
AcDbEntity
8
0
100
AcDbLine
62
9
6
CONTINUOUS
10
-87.0898500152
20
-62.5137990525
11
-88.1505101869
21
-61.9834689666
0
LINE
5
20A
100
AcDbEntity
8
0
100
AcDbLine
62
7
6
CONTINUOUS
10
-81.2510152503
20
-19.4491027655
11
-81.2510152503
21
-18.1500646598
0
LINE
5
20B
100
AcDbEntity
8
0
100
AcDbLine
62
9
6
CONTINUOUS
10
-80.3723355939
20
-20.5097629372
11
-80.3723355939
21
-19.2107248316
0
LINE
5
20C
100
AcDbEntity
8
0
100
AcDbLine
62
9
6
CONTINUOUS
10
-75.0976076513
20
-58.5675659233
11
-75.3773043952
21
-58.4277175514
0
LINE
5
20D
100
AcDbEntity
8
0
100
AcDbLine
62
7
6
CONTINUOUS
10
-76.4832482974
20
-60.6745998087
11
-76.4832482974
21
-59.3755617030
0
LINE
5
20E
100
AcDbEntity
8
0
100
AcDbLine
62
9
6
CONTINUOUS
10
-76.4832482974
20
-21.1552684798
11
-76.4832482974
21
-22.4543065855
0
LINE
5
20F
100
AcDbEntity
8
0
100
AcDbLine
62
7
6
CONTINUOUS
10
-76.4832482974
20
-22.5694820422
11
-76.4832482974
21
-23.8685201479
0
LINE
5
210
100
AcDbEntity
8
0
100
AcDbLine
62
9
6
CONTINUOUS
10
-82.6704326327
20
-46.6860618346
11
-81.6097724610
21
-47.2163919205
0
LINE
5
211
100
AcDbEntity
8
0
100
AcDbLine
62
9
6
CONTINUOUS
10
-80.1955588986
20
-45.4486249675
11
-79.1348987268
21
-45.9789550534
0
LINE
5
212
100
AcDbEntity
8
0
100
AcDbLine
62
9
6
CONTINUOUS
10
-87.0898500152
20
-31.3368845162
11
-88.1505101869
21
-30.8065544303
0
LINE
5
213
100
AcDbEntity
8
0
100
AcDbLine
62
9
6
CONTINUOUS
10
-84.2614228904
20
-26.4585693387
11
-85.3220830622
21
-25.9282392528
0
LINE
5
214
100
AcDbEntity
8
0
100
AcDbLine
62
9
6
CONTINUOUS
10
-76.4751351063
20
-23.9520360547
11
-76.1296949068
21
-24.1247561545
0
LINE
5
215
100
AcDbEntity
8
0
100
AcDbLine
62
9
6
CONTINUOUS
10
-75.3518774475
20
-23.7358474248
11
-76.4125376192
21
-23.2055173389
0
LINE
5
216
100
AcDbEntity
8
0
100
AcDbLine
62
7
6
CONTINUOUS
10
-76.4832482974
20
-22.5694820422
11
-77.5439084691
21
-22.0391519563
0
LINE
5
217
100
AcDbEntity
8
0
100
AcDbLine
62
9
6
CONTINUOUS
10
-75.0976076513
20
-23.2337294489
11
-76.2711162630
21
-22.6469751431
0
LINE
5
218
100
AcDbEntity
8
0
100
AcDbLine
62
7
6
CONTINUOUS
10
-80.3723355939
20
-20.5097629372
11
-76.4832482974
21
-22.4543065855
0
LINE
5
219
100
AcDbEntity
8
0
100
AcDbLine
62
7
6
CONTINUOUS
10
-80.3723355939
20
-19.2107248316
11
-76.4832482974
21
-21.1552684798
0
LINE
5
21A
100
AcDbEntity
8
0
100
AcDbLine
62
7
6
CONTINUOUS
10
70.9485155800
20
58.5710210990
11
-80.3723355939
21
-17.0894044880
0
LINE
5
21B
100
AcDbEntity
8
0
100
AcDbLine
62
9
6
CONTINUOUS
10
79.0802435637
20
56.6264774507
11
-76.4832482974
21
-21.1552684798
0
LINE
5
21C
100
AcDbEntity
8
0
100
AcDbLine
62
7
6
CONTINUOUS
10
88.6261851097
20
61.0458948331
11
80.8480105166
21
57.1568075366
0
LINE
5
21D
100
AcDbEntity
8
0
100
AcDbLine
62
7
6
CONTINUOUS
10
-77.5439084691
20
-22.0391519563
11
-85.3220830622
21
-25.9282392528
0
LINE
5
21E
100
AcDbEntity
8
0
100
AcDbLine
62
7
6
CONTINUOUS
10
89.6868452815
20
60.5155647472
11
81.9086706884
21
56.6264774507
0
LINE
5
21F
100
AcDbEntity
8
0
100
AcDbLine
62
7
6
CONTINUOUS
10
-76.4832482974
20
-22.5694820422
11
-84.2614228904
21
-26.4585693387
0
LINE
5
220
100
AcDbEntity
8
0
100
AcDbLine
62
7
6
CONTINUOUS
10
80.4944571261
20
55.2479800337
11
80.3021216121
21
55.1518122768
0
LINE
5
221
100
AcDbEntity
8
0
100
AcDbLine
62
7
6
CONTINUOUS
10
-76.4125375650
20
-23.2055173118
11
-76.4832482974
21
-23.2408726780
0
LINE
5
222
100
AcDbEntity
8
0
100
AcDbLine
62
7
6
CONTINUOUS
10
81.5551172978
20
54.7176499478
11
80.7772997854
21
54.3287411916
0
LINE
5
223
100
AcDbEntity
8
0
100
AcDbLine
62
9
6
CONTINUOUS
10
80.7772997854
20
54.3287411916
11
-75.3518773932
21
-23.7358473977
0
LINE
5
224
100
AcDbEntity
8
0
100
AcDbLine
62
7
6
CONTINUOUS
10
-75.3518773932
20
-23.7358473977
11
-76.1296949068
21
-24.1247561545
0
LINE
5
225
100
AcDbEntity
8
0
100
AcDbLine
62
7
6
CONTINUOUS
10
-81.6097724610
20
-41.1542140940
11
-79.1348987268
21
-39.9167772269
0
LINE
5
226
100
AcDbEntity
8
0
100
AcDbLine
62
7
6
CONTINUOUS
10
84.5603211179
20
41.9308326954
11
87.0351948520
21
43.1682695625
0
LINE
5
227
100
AcDbEntity
8
0
100
AcDbLine
62
7
6
CONTINUOUS
10
85.9745346802
20
37.6364218219
11
83.4996609461
21
36.3989849548
0
LINE
5
228
100
AcDbEntity
8
0
100
AcDbLine
62
7
6
CONTINUOUS
10
-80.1955588986
20
-45.4486249675
11
-82.6704326327
21
-46.6860618346
0
LINE
5
229
100
AcDbEntity
8
0
100
AcDbLine
62
7
6
CONTINUOUS
10
87.0351948520
20
37.1060917360
11
84.5603211179
21
35.8686548689
0
LINE
5
22A
100
AcDbEntity
8
0
100
AcDbLine
62
7
6
CONTINUOUS
10
-79.1348987268
20
-45.9789550534
11
-81.6097724610
21
-47.2163919205
0
LINE
5
22B
100
AcDbEntity
8
0
100
AcDbLine
62
7
6
CONTINUOUS
10
-76.1296949068
20
-58.7657723058
11
-75.3518773943
21
-58.3768635496
0
LINE
5
22C
100
AcDbEntity
8
0
100
AcDbLine
62
9
6
CONTINUOUS
10
80.7772997839
20
19.6877250395
11
-75.3518773943
21
-58.3768635496
0
LINE
5
22D
100
AcDbEntity
8
0
100
AcDbLine
62
7
6
CONTINUOUS
10
80.7772997839
20
19.6877250395
11
81.5551172978
21
20.0766337965
0
LINE
5
22E
100
AcDbEntity
8
0
100
AcDbLine
62
7
6
CONTINUOUS
10
-75.5888211064
20
-59.3171898208
11
79.9746707547
21
18.4645561097
0
LINE
5
22F
100
AcDbEntity
8
0
100
AcDbLine
62
7
6
CONTINUOUS
10
89.6868452815
20
22.4104469807
11
81.9086706884
21
18.5213596842
0
LINE
5
230
100
AcDbEntity
8
0
100
AcDbLine
62
7
6
CONTINUOUS
10
-76.4832482974
20
-60.6745998087
11
-84.2614228904
21
-64.5636871052
0
LINE
5
231
100
AcDbEntity
8
0
100
AcDbLine
62
7
6
CONTINUOUS
10
81.9086706884
20
18.5213596842
11
80.8480105166
21
19.0516897701
0
LINE
5
232
100
AcDbEntity
8
0
100
AcDbLine
62
9
6
CONTINUOUS
10
81.4756579865
20
20.0369041408
11
81.9086706884
21
19.8203977899
0
LINE
5
233
100
AcDbEntity
8
0
100
AcDbLine
62
9
6
CONTINUOUS
10
83.4996609461
20
36.3989849548
11
84.5603211179
21
35.8686548689
0
LINE
5
234
100
AcDbEntity
8
0
100
AcDbLine
62
9
6
CONTINUOUS
10
85.9745346802
20
37.6364218219
11
87.0351948520
21
37.1060917360
0
LINE
5
235
100
AcDbEntity
8
0
100
AcDbLine
62
7
6
CONTINUOUS
10
80.8480105166
20
19.6877250395
11
80.8480105166
21
19.0516897701
0
LINE
5
236
100
AcDbEntity
8
0
100
AcDbLine
62
7
6
CONTINUOUS
10
80.8480105166
20
55.8577694309
11
80.8480105166
21
57.1568075366
0
LINE
5
237
100
AcDbEntity
8
0
100
AcDbLine
62
7
6
CONTINUOUS
10
81.9086706884
20
56.6264774507
11
81.9086706884
21
55.3274393450
0
LINE
5
238
100
AcDbEntity
8
0
100
AcDbLine
62
7
6
CONTINUOUS
10
81.9086706884
20
18.5213596842
11
81.9086706884
21
19.8203977899
0
LINE
5
239
100
AcDbEntity
8
0
100
AcDbLine
62
9
6
CONTINUOUS
10
80.7772998385
20
54.3287412182
11
80.4825837498
21
54.4760992625
0
LINE
5
23A
100
AcDbEntity
8
0
100
AcDbLine
62
9
6
CONTINUOUS
10
80.4944571261
20
55.2479800337
11
81.5551172978
21
54.7176499478
0
LINE
5
23B
100
AcDbEntity
8
0
100
AcDbLine
62
7
6
CONTINUOUS
10
75.1911562672
20
58.5710210990
11
79.0802435637
21
56.6264774507
0
LINE
5
23C
100
AcDbEntity
8
0
100
AcDbLine
62
9
6
CONTINUOUS
10
80.8480105166
20
55.8577694309
11
81.9086706884
21
55.3274393450
0
LINE
5
23D
100
AcDbEntity
8
0
100
AcDbLine
62
7
6
CONTINUOUS
10
81.9086706884
20
56.6264774507
11
80.8480105166
21
57.1568075366
0
LINE
5
23E
100
AcDbEntity
8
0
100
AcDbLine
62
7
6
CONTINUOUS
10
92.5152724062
20
27.2887621582
11
92.5152724062
21
58.4656766945
0
LINE
5
23F
100
AcDbEntity
8
0
100
AcDbLine
62
9
6
CONTINUOUS
10
89.6868452815
20
60.5155647472
11
88.6261851097
21
61.0458948331
0
LINE
5
240
100
AcDbEntity
8
0
100
AcDbLine
62
7
6
CONTINUOUS
10
91.4756996635
20
60.6291718961
11
90.4150394917
21
61.1595019820
0
SPLINE
5
241
100
AcDbEntity
8
0
100
AcDbSpline
62
7
6
CONTINUOUS
70
0
71
3
72
10
73
6
74
4
42
0.0000001000
43
0.0000001000
44
0.0000000001
12
-0.2337355743
22
0.1140031753
32
0.0000000000
13
-0.0289043493
23
0.2566595261
33
0.0000000000
40
0.0000000000
40
0.0000000000
40
0.0000000000
40
0.0000000000
40
0.1205454484
40
0.6197046715
40
1.0000000000
40
1.0000000000
40
1.0000000000
40
1.0000000000
10
-76.3534213127
20
-24.1385012048
30
0.0000000000
10
-76.3628132326
20
-24.1339203502
30
0.0000000000
10
-76.4090034831
20
-24.1065618698
30
0.0000000000
10
-76.4596814714
20
-24.0312087554
30
0.0000000000
10
-76.4765934593
20
-23.9568117027
30
0.0000000000
10
-76.4802575223
20
-23.9242762297
30
0.0000000000
11
-76.3534213127
21
-24.1385012048
31
0.0000000000
11
-76.3802237268
21
-24.1225450379
31
0.0000000000
11
-76.4567956903
21
-24.0196337852
31
0.0000000000
11
-76.4802575223
21
-23.9242762297
31
0.0000000000
0
SPLINE
5
242
100
AcDbEntity
8
0
100
AcDbSpline
62
7
6
CONTINUOUS
70
0
71
3
72
8
73
4
74
2
42
0.0000001000
43
0.0000001000
44
0.0000000001
12
-0.0062631869
22
0.0556146958
32
0.0000000000
13
0.0000000000
23
0.0556837804
33
0.0000000000
40
0.0000000000
40
0.0000000000
40
0.0000000000
40
0.0000000000
40
1.0000000000
40
1.0000000000
40
1.0000000000
40
1.0000000000
10
-76.4802575223
20
-23.9242762297
30
0.0000000000
10
-76.4823452513
20
-23.9057379978
30
0.0000000000
10
-76.4832482974
20
-23.8870814080
30
0.0000000000
10
-76.4832482974
20
-23.8685201479
30
0.0000000000
11
-76.4802575223
21
-23.9242762297
31
0.0000000000
11
-76.4832482974
21
-23.8685201479
31
0.0000000000
0
SPLINE
5
243
100
AcDbEntity
8
0
100
AcDbSpline
62
7
6
CONTINUOUS
70
0
71
3
72
9
73
5
74
3
42
0.0000001000
43
0.0000001000
44
0.0000000001
12
-0.0904397494
22
0.0437382395
32
0.0000000000
13
-0.0559523667
23
0.0835837270
33
0.0000000000
40
0.0000000000
40
0.0000000000
40
0.0000000000
40
0.0000000000
40
0.2754268024
40
1.0000000000
40
1.0000000000
40
1.0000000000
40
1.0000000000
10
80.5971589331
20
54.3184831630
30
0.0000000000
10
80.5888557561
20
54.3224987241
30
0.0000000000
10
80.5599788771
20
54.3394513200
30
0.0000000000
10
80.5375251810
20
54.3644833558
30
0.0000000000
10
80.5240113192
20
54.3846708652
30
0.0000000000
11
80.5971589331
21
54.3184831630
31
0.0000000000
11
80.5734360853
21
54.3324500284
31
0.0000000000
11
80.5240113192
21
54.3846708652
31
0.0000000000
0
SPLINE
5
244
100
AcDbEntity
8
0
100
AcDbSpline
62
7
6
CONTINUOUS
70
0
71
3
72
8
73
4
74
2
42
0.0000001000
43
0.0000001000
44
0.0000000001
12
-0.0220554007
22
0.0329471780
32
0.0000000000
13
-0.0174602635
23
0.0355287141
33
0.0000000000
40
0.0000000000
40
0.0000000000
40
0.0000000000
40
0.0000000000
40
1.0000000000
40
1.0000000000
40
1.0000000000
40
1.0000000000
10
80.5240113192
20
54.3846708652
30
0.0000000000
10
80.5166595190
20
54.3956532579
30
0.0000000000
10
80.5101232234
20
54.4072423525
30
0.0000000000
10
80.5043031356
20
54.4190852572
30
0.0000000000
11
80.5240113192
21
54.3846708652
31
0.0000000000
11
80.5043031356
21
54.4190852572
31
0.0000000000
0
SPLINE
5
245
100
AcDbEntity
8
0
100
AcDbSpline
62
7
6
CONTINUOUS
70
0
71
3
72
8
73
4
74
2
42
0.0000001000
43
0.0000001000
44
0.0000000001
12
-0.0389456644
22
0.0792479093
32
0.0000000000
13
-0.0206344494
23
0.0847893618
33
0.0000000000
40
0.0000000000
40
0.0000000000
40
0.0000000000
40
0.0000000000
40
1.0000000000
40
1.0000000000
40
1.0000000000
40
1.0000000000
10
80.5043031356
20
54.4190852572
30
0.0000000000
10
80.4913212474
20
54.4455012270
30
0.0000000000
10
80.4819026862
20
54.4731799705
30
0.0000000000
10
80.4750245364
20
54.5014430911
30
0.0000000000
11
80.5043031356
21
54.4190852572
31
0.0000000000
11
80.4750245364
21
54.5014430911
31
0.0000000000
0
SPLINE
5
246
100
AcDbEntity
8
0
100
AcDbSpline
62
7
6
CONTINUOUS
70
0
71
3
72
8
73
4
74
2
42
0.0000001000
43
0.0000001000
44
0.0000000001
12
-0.0112343385
22
0.0461632085
32
0.0000000000
13
-0.0072113983
23
0.0468740893
33
0.0000000000
40
0.0000000000
40
0.0000000000
40
0.0000000000
40
0.0000000000
40
1.0000000000
40
1.0000000000
40
1.0000000000
40
1.0000000000
10
80.4750245364
20
54.5014430911
30
0.0000000000
10
80.4712797569
20
54.5168308273
30
0.0000000000
10
80.4682880092
20
54.5323917852
30
0.0000000000
10
80.4658842097
20
54.5480164816
30
0.0000000000
11
80.4750245364
21
54.5014430911
31
0.0000000000
11
80.4658842097
21
54.5480164816
31
0.0000000000
0
SPLINE
5
247
100
AcDbEntity
8
0
100
AcDbSpline
62
7
6
CONTINUOUS
70
0
71
3
72
10
73
6
74
4
42
0.0000001000
43
0.0000001000
44
0.0000000001
12
1.6689773624
22
-0.8319730156
32
0.0000000000
13
1.6548624562
23
0.8274312281
33
0.0000000000
40
0.0000000000
40
0.0000000000
40
0.0000000000
40
0.0000000000
40
0.2133608788
40
0.5871130325
40
1.0000000000
40
1.0000000000
40
1.0000000000
40
1.0000000000
10
-86.0506810709
20
-64.6763818401
30
0.0000000000
10
-85.9319829120
20
-64.7355520047
30
0.0000000000
10
-85.5839780162
20
-64.8564229212
30
0.0000000000
10
-84.9520450805
20
-64.8457846196
30
0.0000000000
10
-84.4891799375
20
-64.6775656288
30
0.0000000000
10
-84.2614228904
20
-64.5636871052
30
0.0000000000
11
-86.0506810709
21
-64.6763818401
31
0.0000000000
11
-85.6760092500
21
-64.8066150161
31
0.0000000000
11
-84.9845046892
21
-64.8101156502
31
0.0000000000
11
-84.2614228904
21
-64.5636871052
31
0.0000000000
0
SPLINE
5
248
100
AcDbEntity
8
0
100
AcDbSpline
62
7
6
CONTINUOUS
70
0
71
3
72
9
73
5
74
3
42
0.0000001000
43
0.0000001000
44
0.0000000001
12
-0.3591302653
22
-0.1795703890
32
0.0000000000
13
-0.4008288302
23
0.0122644858
33
0.0000000000
40
0.0000000000
40
0.0000000000
40
0.0000000000
40
0.0000000000
40
0.4176449334
40
1.0000000000
40
1.0000000000
40
1.0000000000
40
1.0000000000
10
-75.5890838221
20
-59.3167896775
30
0.0000000000
10
-75.6390801341
20
-59.3417885653
30
0.0000000000
10
-75.7652190625
20
-59.3887721847
30
0.0000000000
10
-75.8990988693
20
-59.4010528367
30
0.0000000000
10
-75.9769071026
20
-59.3986720749
30
0.0000000000
11
-75.5890838221
21
-59.3167896775
31
0.0000000000
11
-75.7457929232
21
-59.3749803619
31
0.0000000000
11
-75.9769071026
21
-59.3986720749
31
0.0000000000
0
SPLINE
5
249
100
AcDbEntity
8
0
100
AcDbSpline
62
7
6
CONTINUOUS
70
0
71
3
72
9
73
5
74
3
42
0.0000001000
43
0.0000001000
44
0.0000000001
12
-0.4836945550
22
0.0147999958
32
0.0000000000
13
-0.4363275211
23
0.2025885497
33
0.0000000000
40
0.0000000000
40
0.0000000000
40
0.0000000000
40
0.0000000000
40
0.2533133526
40
1.0000000000
40
1.0000000000
40
1.0000000000
40
1.0000000000
10
-75.9769071026
20
-59.3986720749
30
0.0000000000
10
-76.0177491991
20
-59.3974223961
30
0.0000000000
10
-76.1788095682
20
-59.3821206596
30
0.0000000000
10
-76.3329227052
20
-59.3309288455
30
0.0000000000
10
-76.4415226832
20
-59.2805054572
30
0.0000000000
11
-75.9769071026
21
-59.3986720749
31
0.0000000000
11
-76.0989008956
21
-59.3873671456
31
0.0000000000
11
-76.4415226832
21
-59.2805054572
31
0.0000000000
0
SPLINE
5
24A
100
AcDbEntity
8
0
100
AcDbSpline
62
7
6
CONTINUOUS
70
0
71
3
72
10
73
6
74
4
42
0.0000001000
43
0.0000001000
44
0.0000000001
12
-1.4583726238
22
0.7324479115
32
0.0000000000
13
-1.4459119535
23
-0.7229559767
33
0.0000000000
40
0.0000000000
40
0.0000000000
40
0.0000000000
40
0.0000000000
40
0.1495565444
40
0.5466245793
40
1.0000000000
40
1.0000000000
40
1.0000000000
40
1.0000000000
10
88.5996718624
20
43.2670568851
30
0.0000000000
10
88.5269688057
20
43.3035710113
30
0.0000000000
10
88.2495536758
20
43.4130929166
30
0.0000000000
10
87.6942805949
20
43.4326645834
30
0.0000000000
10
87.2537084988
20
43.2775263859
30
0.0000000000
10
87.0351948520
20
43.1682695625
30
0.0000000000
11
88.5996718624
21
43.2670568851
31
0.0000000000
11
88.3732126108
21
43.3561037852
31
0.0000000000
11
87.7324473570
21
43.3941154164
31
0.0000000000
11
87.0351948520
21
43.1682695625
31
0.0000000000
0
SPLINE
5
24B
100
AcDbEntity
8
0
100
AcDbSpline
62
7
6
CONTINUOUS
70
0
71
3
72
10
73
6
74
4
42
0.0000001000
43
0.0000001000
44
0.0000000001
12
-1.4583726238
22
0.7324479115
32
0.0000000000
13
-1.4459119535
23
-0.7229559767
33
0.0000000000
40
0.0000000000
40
0.0000000000
40
0.0000000000
40
0.0000000000
40
0.1495565444
40
0.5466245793
40
1.0000000000
40
1.0000000000
40
1.0000000000
40
1.0000000000
10
-77.5704217164
20
-39.8179899044
30
0.0000000000
10
-77.6431247731
20
-39.7814757782
30
0.0000000000
10
-77.9205399031
20
-39.6719538728
30
0.0000000000
10
-78.4758129840
20
-39.6523822060
30
0.0000000000
10
-78.9163850801
20
-39.8075204036
30
0.0000000000
10
-79.1348987268
20
-39.9167772269
30
0.0000000000
11
-77.5704217164
21
-39.8179899044
31
0.0000000000
11
-77.7968809681
21
-39.7289430042
31
0.0000000000
11
-78.4376462218
21
-39.6909313730
31
0.0000000000
11
-79.1348987268
21
-39.9167772269
31
0.0000000000
0
SPLINE
5
24C
100
AcDbEntity
8
0
100
AcDbSpline
62
7
6
CONTINUOUS
70
0
71
3
72
16
73
12
74
10
42
0.0000001000
43
0.0000001000
44
0.0000000001
12
-6.5703919788
22
-3.2851959894
32
0.0000000000
13
6.6270147130
23
-3.3283284441
33
0.0000000000
40
0.0000000000
40
0.0000000000
40
0.0000000000
40
0.0000000000
40
0.1145746343
40
0.2416443620
40
0.3760092531
40
0.5110775561
40
0.6401322390
40
0.7575767082
40
0.8603695018
40
0.9498070606
40
1.0000000000
40
1.0000000000
40
1.0000000000
40
1.0000000000
10
84.5603211179
20
41.9308326954
30
0.0000000000
10
84.3093876984
20
41.8053659857
30
0.0000000000
10
83.8182967261
20
41.4626766664
30
0.0000000000
10
83.1882635699
20
40.7842896066
30
0.0000000000
10
82.6639483112
20
39.9610605847
30
0.0000000000
10
82.2860263137
20
39.0562303446
30
0.0000000000
10
82.0831037699
20
38.1385337678
30
0.0000000000
10
82.0716061856
20
37.2760300546
30
0.0000000000
10
82.2567944209
20
36.5295611650
30
0.0000000000
10
82.5972129823
20
36.0228379633
30
0.0000000000
10
82.8849676582
20
35.8255537423
30
0.0000000000
10
82.9958441075
20
35.7698675463
30
0.0000000000
11
84.5603211179
21
41.9308326954
31
0.0000000000
11
83.8630686129
21
41.4594260443
31
0.0000000000
11
83.2223033591
21
40.7806491594
31
0.0000000000
11
82.6899363467
21
39.9494925070
31
0.0000000000
11
82.3090967848
21
39.0332914559
31
0.0000000000
11
82.1106380299
21
38.1062711666
31
0.0000000000
11
82.1106380299
21
37.2435333097
31
0.0000000000
11
82.3090967848
21
36.5149717753
31
0.0000000000
11
82.6899363467
21
35.9796102862
31
0.0000000000
11
82.9958441075
21
35.7698675463
31
0.0000000000
0
SPLINE
5
24D
100
AcDbEntity
8
0
100
AcDbSpline
62
7
6
CONTINUOUS
70
0
71
3
72
16
73
12
74
10
42
0.0000001000
43
0.0000001000
44
0.0000000001
12
-6.5703919788
22
-3.2851959894
32
0.0000000000
13
6.6270147130
23
-3.3283284441
33
0.0000000000
40
0.0000000000
40
0.0000000000
40
0.0000000000
40
0.0000000000
40
0.1145746343
40
0.2416443620
40
0.3760092531
40
0.5110775561
40
0.6401322390
40
0.7575767082
40
0.8603695018
40
0.9498070606
40
1.0000000000
40
1.0000000000
40
1.0000000000
40
1.0000000000
10
-81.6097724610
20
-41.1542140940
30
0.0000000000
10
-81.8607058804
20
-41.2796808038
30
0.0000000000
10
-82.3517968528
20
-41.6223701230
30
0.0000000000
10
-82.9818300089
20
-42.3007571829
30
0.0000000000
10
-83.5061452676
20
-43.1239862047
30
0.0000000000
10
-83.8840672651
20
-44.0288164448
30
0.0000000000
10
-84.0869898090
20
-44.9465130216
30
0.0000000000
10
-84.0984873932
20
-45.8090167349
30
0.0000000000
10
-83.9132991579
20
-46.5554856245
30
0.0000000000
10
-83.5728805965
20
-47.0622088261
30
0.0000000000
10
-83.2851259207
20
-47.2594930471
30
0.0000000000
10
-83.1742494713
20
-47.3151792431
30
0.0000000000
11
-81.6097724610
21
-41.1542140940
31
0.0000000000
11
-82.3070249659
21
-41.6256207451
31
0.0000000000
11
-82.9477902197
21
-42.3043976300
31
0.0000000000
11
-83.4801572321
21
-43.1355542825
31
0.0000000000
11
-83.8609967940
21
-44.0517553335
31
0.0000000000
11
-84.0594555490
21
-44.9787756228
31
0.0000000000
11
-84.0594555490
21
-45.8415134797
31
0.0000000000
11
-83.8609967940
21
-46.5700750141
31
0.0000000000
11
-83.4801572321
21
-47.1054365032
31
0.0000000000
11
-83.1742494713
21
-47.3151792431
31
0.0000000000
0
SPLINE
5
24E
100
AcDbEntity
8
0
100
AcDbSpline
62
7
6
CONTINUOUS
70
0
71
3
72
11
73
7
74
5
42
0.0000001000
43
0.0000001000
44
0.0000000001
12
0.0000000000
22
2.5150465151
32
0.0000000000
13
-2.2687129911
23
1.1309368427
33
0.0000000000
40
0.0000000000
40
0.0000000000
40
0.0000000000
40
0.0000000000
40
0.3355460494
40
0.6380887750
40
0.9029409236
40
1.0000000000
40
1.0000000000
40
1.0000000000
40
1.0000000000
10
92.5152724062
20
58.4656766945
30
0.0000000000
10
92.5152724062
20
58.7469813352
30
0.0000000000
10
92.4628094062
20
59.2847573191
30
0.0000000000
10
92.1898769944
20
60.0036150051
30
0.0000000000
10
91.8121165652
20
60.4335008222
30
0.0000000000
10
91.5495031912
20
60.5916702536
30
0.0000000000
10
91.4761034620
20
60.6282594821
30
0.0000000000
11
92.5152724062
21
58.4656766945
31
0.0000000000
11
92.4212676792
21
59.3043386164
31
0.0000000000
11
92.1355316647
21
60.0095601975
31
0.0000000000
11
91.6862716840
21
60.5013683853
31
0.0000000000
11
91.4761034620
21
60.6282594821
31
0.0000000000
0
SPLINE
5
24F
100
AcDbEntity
8
0
100
AcDbSpline
62
7
6
CONTINUOUS
70
0
71
3
72
13
73
9
74
7
42
0.0000001000
43
0.0000001000
44
0.0000000001
12
5.2620468072
22
2.6310234036
32
0.0000000000
13
-0.0000000000
23
5.8831471808
33
0.0000000000
40
0.0000000000
40
0.0000000000
40
0.0000000000
40
0.0000000000
40
0.1472220723
40
0.3141268383
40
0.4884967143
40
0.6656416789
40
0.8406789094
40
1.0000000000
40
1.0000000000
40
1.0000000000
40
1.0000000000
10
89.6868452815
20
22.4104469807
30
0.0000000000
10
89.9450750932
20
22.5395618866
30
0.0000000000
10
90.4602619158
20
22.8884808402
30
0.0000000000
10
91.1340320605
20
23.5764420686
30
0.0000000000
10
91.7138832563
20
24.4170899967
30
0.0000000000
10
92.1606218598
20
25.3528516772
30
0.0000000000
10
92.4436699955
20
26.3197405653
30
0.0000000000
10
92.5152724062
20
26.9763256832
30
0.0000000000
10
92.5152724062
20
27.2887621582
30
0.0000000000
11
89.6868452815
21
22.4104469807
31
0.0000000000
11
90.4099871424
21
22.8871497186
31
0.0000000000
11
91.1024493916
21
23.5833345614
31
0.0000000000
11
91.6874187145
21
24.4260480802
31
0.0000000000
11
92.1361197519
21
25.3666784420
31
0.0000000000
11
92.4212835624
21
26.3561770116
31
0.0000000000
11
92.5152724062
21
27.2887621582
31
0.0000000000
0
SPLINE
5
250
100
AcDbEntity
8
0
100
AcDbSpline
62
7
6
CONTINUOUS
70
0
71
3
72
11
73
7
74
5
42
0.0000001000
43
0.0000001000
44
0.0000000001
12
0.0000000000
22
0.7341140818
32
0.0000000000
13
0.6566115960
23
0.3283057980
33
0.0000000000
40
0.0000000000
40
0.0000000000
40
0.0000000000
40
0.0000000000
40
0.2458763493
40
0.5132100427
40
0.7724571074
40
1.0000000000
40
1.0000000000
40
1.0000000000
40
1.0000000000
10
-76.4832482974
20
-59.3755617030
30
0.0000000000
10
-76.4832482974
20
-59.3153946062
30
0.0000000000
10
-76.4624230454
20
-59.1895979811
30
0.0000000000
10
-76.3866836229
20
-59.0146308337
30
0.0000000000
10
-76.2753701934
20
-58.8654143838
30
0.0000000000
10
-76.1794973407
20
-58.7906735228
30
0.0000000000
10
-76.1296949068
20
-58.7657723058
30
0.0000000000
11
-76.4832482974
21
-59.3755617030
31
0.0000000000
11
-76.4565237057
21
-59.1970497650
31
0.0000000000
11
-76.3791649658
21
-59.0166861498
31
0.0000000000
11
-76.2638779066
21
-58.8652615006
31
0.0000000000
11
-76.1296949068
21
-58.7657723058
31
0.0000000000
0
SPLINE
5
251
100
AcDbEntity
8
0
100
AcDbSpline
62
7
6
CONTINUOUS
70
0
71
3
72
9
73
5
74
3
42
0.0000001000
43
0.0000001000
44
0.0000000001
12
0.2054369141
22
0.1027184570
32
0.0000000000
13
0.2089112229
23
-0.1018952414
33
0.0000000000
40
0.0000000000
40
0.0000000000
40
0.0000000000
40
0.0000000000
40
0.6061991326
40
1.0000000000
40
1.0000000000
40
1.0000000000
40
1.0000000000
10
81.5551172978
20
20.0766337965
30
0.0000000000
10
81.5966291909
20
20.0973897430
30
0.0000000000
10
81.6729730864
20
20.1216784102
30
0.0000000000
10
81.7514205635
20
20.1037543249
30
0.0000000000
10
81.7788437038
20
20.0903788468
30
0.0000000000
11
81.5551172978
21
20.0766337965
31
0.0000000000
11
81.6899614160
21
20.1113250489
31
0.0000000000
11
81.7788437038
21
20.0903788468
31
0.0000000000
0
SPLINE
5
252
100
AcDbEntity
8
0
100
AcDbSpline
62
7
6
CONTINUOUS
70
0
71
3
72
10
73
6
74
4
42
0.0000001000
43
0.0000001000
44
0.0000000001
12
-0.1653617425
22
-0.9094895835
32
0.0000000000
13
-0.8343893252
23
-0.4172068749
33
0.0000000000
40
0.0000000000
40
0.0000000000
40
0.0000000000
40
0.0000000000
40
0.4333545015
40
0.8168782539
40
1.0000000000
40
1.0000000000
40
1.0000000000
40
1.0000000000
10
80.4658842097
20
19.2141800072
30
0.0000000000
10
80.4419974579
20
19.0828028722
30
0.0000000000
10
80.3663046800
20
18.8382197343
30
0.0000000000
10
80.1743185902
20
18.5864904741
30
0.0000000000
10
80.0253396489
20
18.4904228034
30
0.0000000000
10
79.9744080389
20
18.4649562530
30
0.0000000000
11
80.4658842097
21
19.2141800072
31
0.0000000000
11
80.3388529887
21
18.8342618245
31
0.0000000000
11
80.1174326895
21
18.5573788495
31
0.0000000000
11
79.9744080389
21
18.4649562530
31
0.0000000000
0
SPLINE
5
253
100
AcDbEntity
8
0
100
AcDbSpline
62
7
6
CONTINUOUS
70
0
71
3
72
9
73
5
74
3
42
0.0000001000
43
0.0000001000
44
0.0000000001
12
0.1628134813
22
0.0814067406
32
0.0000000000
13
0.1651864455
23
-0.0811292334
33
0.0000000000
40
0.0000000000
40
0.0000000000
40
0.0000000000
40
0.0000000000
40
0.6164247212
40
1.0000000000
40
1.0000000000
40
1.0000000000
40
1.0000000000
10
-75.3518774473
20
-58.3768635763
30
0.0000000000
10
-75.3184233624
20
-58.3601365338
30
0.0000000000
10
-75.2580847693
20
-58.3411052342
30
0.0000000000
10
-75.1954823332
20
-58.3546041492
30
0.0000000000
10
-75.1743618542
20
-58.3649772053
30
0.0000000000
11
-75.3518774473
21
-58.3768635763
31
0.0000000000
11
-75.2431747477
21
-58.3490346193
31
0.0000000000
11
-75.1743618542
21
-58.3649772053
31
0.0000000000
0
SPLINE
5
254
100
AcDbEntity
8
0
100
AcDbSpline
62
7
6
CONTINUOUS
70
0
71
3
72
11
73
7
74
5
42
0.0000001000
43
0.0000001000
44
0.0000000001
12
0.0965759009
22
0.5311674547
32
0.0000000000
13
0.4515576970
23
0.2984614976
33
0.0000000000
40
0.0000000000
40
0.0000000000
40
0.0000000000
40
0.0000000000
40
0.2550246117
40
0.5411417140
40
0.8272295370
40
1.0000000000
40
1.0000000000
40
1.0000000000
40
1.0000000000
10
80.4658842097
20
19.2141800072
30
0.0000000000
10
80.4740939536
20
19.2593335985
30
0.0000000000
10
80.5026295540
20
19.3531502112
30
0.0000000000
10
80.5689713817
20
19.4871805119
30
0.0000000000
10
80.6503593867
20
19.5948205063
30
0.0000000000
10
80.7142196243
20
19.6490416105
30
0.0000000000
10
80.7402249018
20
19.6662300542
30
0.0000000000
11
80.4658842097
21
19.2141800072
31
0.0000000000
11
80.5042909283
21
19.3463962856
31
0.0000000000
11
80.5731300292
21
19.4846765785
31
0.0000000000
11
80.6680765285
21
19.6064983348
31
0.0000000000
11
80.7402249018
21
19.6662300542
31
0.0000000000
0
SPLINE
5
255
100
AcDbEntity
8
0
100
AcDbSpline
62
7
6
CONTINUOUS
70
0
71
3
72
8
73
4
74
2
42
0.0000001000
43
0.0000001000
44
0.0000000001
12
0.0358328581
22
0.0236840797
32
0.0000000000
13
0.0383183652
23
0.0191591826
33
0.0000000000
40
0.0000000000
40
0.0000000000
40
0.0000000000
40
0.0000000000
40
1.0000000000
40
1.0000000000
40
1.0000000000
40
1.0000000000
10
80.7402249018
20
19.6662300542
30
0.0000000000
10
80.7521691878
20
19.6741247475
30
0.0000000000
10
80.7645270503
20
19.6813386725
30
0.0000000000
10
80.7772998387
20
19.6877250667
30
0.0000000000
11
80.7402249018
21
19.6662300542
31
0.0000000000
11
80.7772998387
21
19.6877250667
31
0.0000000000
0
SPLINE
5
256
100
AcDbEntity
8
0
100
AcDbSpline
62
7
6
CONTINUOUS
70
0
71
3
72
13
73
9
74
7
42
0.0000001000
43
0.0000001000
44
0.0000000001
12
-3.9042100043
22
1.9521050022
32
0.0000000000
13
-3.9042100043
23
-1.9521050022
33
0.0000000000
40
0.0000000000
40
0.0000000000
40
0.0000000000
40
0.0000000000
40
0.1505070703
40
0.3216620624
40
0.4997617895
40
0.6780288495
40
0.8495595580
40
1.0000000000
40
1.0000000000
40
1.0000000000
40
1.0000000000
10
75.1911562672
20
58.5710210990
30
0.0000000000
10
74.9952858640
20
58.6689563005
30
0.0000000000
10
74.5537897770
20
58.8331583848
30
0.0000000000
10
73.8388151093
20
58.9775998311
30
0.0000000000
10
73.0706371108
20
59.0270147110
30
0.0000000000
10
72.3018961377
20
58.9777853522
30
0.0000000000
10
71.5862092454
20
58.8332909979
30
0.0000000000
10
71.1442992730
20
58.6689129454
30
0.0000000000
10
70.9485155800
20
58.5710210990
30
0.0000000000
11
75.1911562672
21
58.5710210990
31
0.0000000000
11
74.5780395217
21
58.8070222078
31
0.0000000000
11
73.8466057093
21
58.9592077704
31
0.0000000000
11
73.0708781076
21
59.0103608367
31
0.0000000000
11
72.2944067015
21
58.9593872832
31
0.0000000000
11
71.5613520619
21
58.8069407010
31
0.0000000000
11
70.9485155800
21
58.5710210990
31
0.0000000000
0
SPLINE
5
257
100
AcDbEntity
8
0
100
AcDbSpline
62
7
6
CONTINUOUS
70
0
71
3
72
10
73
6
74
4
42
0.0000001000
43
0.0000001000
44
0.0000000001
12
-1.2882125622
22
-0.6441062811
32
0.0000000000
13
0.0001160479
23
-1.4467279790
33
0.0000000000
40
0.0000000000
40
0.0000000000
40
0.0000000000
40
0.0000000000
40
0.3907738210
40
0.7211332407
40
1.0000000000
40
1.0000000000
40
1.0000000000
40
1.0000000000
10
-80.3723355939
20
-17.0894044880
30
0.0000000000
10
-80.5401355090
20
-17.1733044455
30
0.0000000000
10
-80.8371513650
20
-17.3574574871
30
0.0000000000
10
-81.1654540637
20
-17.7218056827
30
0.0000000000
10
-81.2510260066
20
-18.0155770768
30
0.0000000000
10
-81.2510152193
20
-18.1500585245
30
0.0000000000
11
-80.3723355939
21
-17.0894044880
31
0.0000000000
11
-80.8443378116
21
-17.3959628607
31
0.0000000000
11
-81.1487089367
21
-17.7616797669
31
0.0000000000
11
-81.2510152193
21
-18.1500585245
31
0.0000000000
0
SPLINE
5
258
100
AcDbEntity
8
0
100
AcDbSpline
62
7
6
CONTINUOUS
70
0
71
3
72
11
73
7
74
5
42
0.0000001000
43
0.0000001000
44
0.0000000001
12
1.8063830543
22
-0.9031915272
32
0.0000000000
13
0.6838864412
23
-1.9036988170
33
0.0000000000
40
0.0000000000
40
0.0000000000
40
0.0000000000
40
0.0000000000
40
0.2290350168
40
0.4806714481
40
0.7485336681
40
1.0000000000
40
1.0000000000
40
1.0000000000
40
1.0000000000
10
79.0802435637
20
56.6264774507
30
0.0000000000
10
79.2181518881
20
56.5575232885
30
0.0000000000
10
79.4875175426
20
56.3716881775
30
0.0000000000
10
79.8366132251
20
56.0046826390
30
0.0000000000
10
80.1243984438
20
55.5696137603
30
0.0000000000
10
80.2690639679
20
55.2498890701
30
0.0000000000
10
80.3263887729
20
55.0903170172
30
0.0000000000
11
79.0802435637
21
56.6264774507
31
0.0000000000
11
79.4645909654
21
56.3691109483
31
0.0000000000
11
79.8176989379
21
56.0036161921
31
0.0000000000
11
80.1174326895
21
55.5532691595
31
0.0000000000
11
80.3263887729
21
55.0903170172
31
0.0000000000
0
SPLINE
5
259
100
AcDbEntity
8
0
100
AcDbSpline
62
7
6
CONTINUOUS
70
0
71
3
72
9
73
5
74
3
42
0.0000001000
43
0.0000001000
44
0.0000000001
12
0.1896451584
22
-0.5279052809
32
0.0000000000
13
0.0851588068
23
-0.5535322439
33
0.0000000000
40
0.0000000000
40
0.0000000000
40
0.0000000000
40
0.0000000000
40
0.0668192764
40
1.0000000000
40
1.0000000000
40
1.0000000000
40
1.0000000000
10
80.3263887729
20
55.0903170172
30
0.0000000000
10
80.3306127570
20
55.0785589343
30
0.0000000000
10
80.3927938776
20
54.9022039890
30
0.0000000000
10
80.4393946908
20
54.7201983549
30
0.0000000000
10
80.4658842097
20
54.5480164816
30
0.0000000000
11
80.3263887729
21
55.0903170172
31
0.0000000000
11
80.3388529887
21
55.0549658853
31
0.0000000000
11
80.4658842097
21
54.5480164816
31
0.0000000000
0
SPLINE
5
25A
100
AcDbEntity
8
0
100
AcDbSpline
62
7
6
CONTINUOUS
70
0
71
3
72
10
73
6
74
4
42
0.0000001000
43
0.0000001000
44
0.0000000001
12
0.1728511150
22
-0.0848936389
32
0.0000000000
13
-0.0093407252
23
-0.1921920841
33
0.0000000000
40
0.0000000000
40
0.0000000000
40
0.0000000000
40
0.0000000000
40
0.1305314387
40
0.6236074953
40
1.0000000000
40
1.0000000000
40
1.0000000000
40
1.0000000000
10
-75.1743618542
20
-58.3649772053
30
0.0000000000
10
-75.1668410193
20
-58.3686709682
30
0.0000000000
10
-75.1326627041
20
-58.3894649324
30
0.0000000000
10
-75.0966083323
20
-58.4475961632
30
0.0000000000
10
-75.0917626986
20
-58.5037507380
30
0.0000000000
10
-75.0929346250
20
-58.5278639580
30
0.0000000000
11
-75.1743618542
21
-58.3649772053
31
0.0000000000
11
-75.1530452159
21
-58.3780532439
31
0.0000000000
11
-75.1009246660
21
-58.4561837316
31
0.0000000000
11
-75.0929346250
21
-58.5278639580
31
0.0000000000
0
SPLINE
5
25B
100
AcDbEntity
8
0
100
AcDbSpline
62
7
6
CONTINUOUS
70
0
71
3
72
8
73
4
74
2
42
0.0000001000
43
0.0000001000
44
0.0000000001
12
-0.0019486616
22
-0.0400951026
32
0.0000000000
13
-0.0071084345
23
-0.0390963900
33
0.0000000000
40
0.0000000000
40
0.0000000000
40
0.0000000000
40
0.0000000000
40
1.0000000000
40
1.0000000000
40
1.0000000000
40
1.0000000000
10
-75.0929346250
20
-58.5278639580
30
0.0000000000
10
-75.0935841788
20
-58.5412289922
30
0.0000000000
10
-75.0952381731
20
-58.5545337933
30
0.0000000000
10
-75.0976076513
20
-58.5675659233
30
0.0000000000
11
-75.0929346250
21
-58.5278639580
31
0.0000000000
11
-75.0976076513
21
-58.5675659233
31
0.0000000000
0
SPLINE
5
25C
100
AcDbEntity
8
0
100
AcDbSpline
62
7
6
CONTINUOUS
70
0
71
3
72
10
73
6
74
4
42
0.0000001000
43
0.0000001000
44
0.0000000001
12
1.4583726238
22
-0.7324479115
32
0.0000000000
13
1.4459119535
23
0.7229559767
33
0.0000000000
40
0.0000000000
40
0.0000000000
40
0.0000000000
40
0.0000000000
40
0.1495565444
40
0.5466245793
40
1.0000000000
40
1.0000000000
40
1.0000000000
40
1.0000000000
10
82.9958441075
20
35.7698675463
30
0.0000000000
10
83.0685471642
20
35.7333534201
30
0.0000000000
10
83.3459622941
20
35.6238315148
30
0.0000000000
10
83.9012353750
20
35.6042598480
30
0.0000000000
10
84.3418074711
20
35.7593980455
30
0.0000000000
10
84.5603211179
20
35.8686548689
30
0.0000000000
11
82.9958441075
21
35.7698675463
31
0.0000000000
11
83.2223033591
21
35.6808206462
31
0.0000000000
11
83.8630686129
21
35.6428090150
31
0.0000000000
11
84.5603211179
21
35.8686548689
31
0.0000000000
0
SPLINE
5
25D
100
AcDbEntity
8
0
100
AcDbSpline
62
7
6
CONTINUOUS
70
0
71
3
72
10
73
6
74
4
42
0.0000001000
43
0.0000001000
44
0.0000000001
12
1.4583726238
22
-0.7324479115
32
0.0000000000
13
1.4459119535
23
0.7229559767
33
0.0000000000
40
0.0000000000
40
0.0000000000
40
0.0000000000
40
0.0000000000
40
0.1495565444
40
0.5466245793
40
1.0000000000
40
1.0000000000
40
1.0000000000
40
1.0000000000
10
-83.1742494713
20
-47.3151792431
30
0.0000000000
10
-83.1015464147
20
-47.3516933693
30
0.0000000000
10
-82.8241312847
20
-47.4612152746
30
0.0000000000
10
-82.2688582038
20
-47.4807869414
30
0.0000000000
10
-81.8282861077
20
-47.3256487439
30
0.0000000000
10
-81.6097724610
20
-47.2163919205
30
0.0000000000
11
-83.1742494713
21
-47.3151792431
31
0.0000000000
11
-82.9477902197
21
-47.4042261432
31
0.0000000000
11
-82.3070249659
21
-47.4422377744
31
0.0000000000
11
-81.6097724610
21
-47.2163919205
31
0.0000000000
0
SPLINE
5
25E
100
AcDbEntity
8
0
100
AcDbSpline
62
7
6
CONTINUOUS
70
0
71
3
72
9
73
5
74
3
42
0.0000001000
43
0.0000001000
44
0.0000000001
12
-0.2054369141
22
-0.1027184570
32
0.0000000000
13
-0.2089112229
23
0.1018952414
33
0.0000000000
40
0.0000000000
40
0.0000000000
40
0.0000000000
40
0.0000000000
40
0.6061991326
40
1.0000000000
40
1.0000000000
40
1.0000000000
40
1.0000000000
10
-76.1296949068
20
-24.1247561545
30
0.0000000000
10
-76.1712067998
20
-24.1455121010
30
0.0000000000
10
-76.2475506953
20
-24.1698007682
30
0.0000000000
10
-76.3259981725
20
-24.1518766829
30
0.0000000000
10
-76.3534213127
20
-24.1385012048
30
0.0000000000
11
-76.1296949068
21
-24.1247561545
31
0.0000000000
11
-76.2645390250
21
-24.1594474069
31
0.0000000000
11
-76.3534213127
21
-24.1385012048
31
0.0000000000
0
SPLINE
5
25F
100
AcDbEntity
8
0
100
AcDbSpline
62
7
6
CONTINUOUS
70
0
71
3
72
11
73
7
74
5
42
0.0000001000
43
0.0000001000
44
0.0000000001
12
0.0000000000
22
-0.7341140818
32
0.0000000000
13
-0.6566115960
23
-0.3283057980
33
0.0000000000
40
0.0000000000
40
0.0000000000
40
0.0000000000
40
0.0000000000
40
0.2458763493
40
0.5132100427
40
0.7724571074
40
1.0000000000
40
1.0000000000
40
1.0000000000
40
1.0000000000
10
81.9086706884
20
55.3274393450
30
0.0000000000
10
81.9086706884
20
55.2672722482
30
0.0000000000
10
81.8878454364
20
55.1414756231
30
0.0000000000
10
81.8121060140
20
54.9665084756
30
0.0000000000
10
81.7007925845
20
54.8172920258
30
0.0000000000
10
81.6049197318
20
54.7425511648
30
0.0000000000
10
81.5551172978
20
54.7176499478
30
0.0000000000
11
81.9086706884
21
55.3274393450
31
0.0000000000
11
81.8819460967
21
55.1489274070
31
0.0000000000
11
81.8045873568
21
54.9685637917
31
0.0000000000
11
81.6893002976
21
54.8171391426
31
0.0000000000
11
81.5551172978
21
54.7176499478
31
0.0000000000
0
SPLINE
5
260
100
AcDbEntity
8
0
100
AcDbSpline
62
7
6
CONTINUOUS
70
0
71
3
72
16
73
12
74
10
42
0.0000001000
43
0.0000001000
44
0.0000000001
12
6.5703919788
22
3.2851959894
32
0.0000000000
13
-6.6270147130
23
3.3283284441
33
0.0000000000
40
0.0000000000
40
0.0000000000
40
0.0000000000
40
0.0000000000
40
0.1145746343
40
0.2416443620
40
0.3760092531
40
0.5110775561
40
0.6401322390
40
0.7575767082
40
0.8603695018
40
0.9498070606
40
1.0000000000
40
1.0000000000
40
1.0000000000
40
1.0000000000
10
87.0351948520
20
37.1060917360
30
0.0000000000
10
87.2861282715
20
37.2315584457
30
0.0000000000
10
87.7772192438
20
37.5742477650
30
0.0000000000
10
88.4072524000
20
38.2526348248
30
0.0000000000
10
88.9315676587
20
39.0758638467
30
0.0000000000
10
89.3094896562
20
39.9806940868
30
0.0000000000
10
89.5124122000
20
40.8983906636
30
0.0000000000
10
89.5239097843
20
41.7608943769
30
0.0000000000
10
89.3387215490
20
42.5073632664
30
0.0000000000
10
88.9983029876
20
43.0140864681
30
0.0000000000
10
88.7105483117
20
43.2113706891
30
0.0000000000
10
88.5996718624
20
43.2670568851
30
0.0000000000
11
87.0351948520
21
37.1060917360
31
0.0000000000
11
87.7324473570
21
37.5774983871
31
0.0000000000
11
88.3732126108
21
38.2562752720
31
0.0000000000
11
88.9055796232
21
39.0874319244
31
0.0000000000
11
89.2864191851
21
40.0036329755
31
0.0000000000
11
89.4848779400
21
40.9306532648
31
0.0000000000
11
89.4848779400
21
41.7933911217
31
0.0000000000
11
89.2864191851
21
42.5219526561
31
0.0000000000
11
88.9055796232
21
43.0573141452
31
0.0000000000
11
88.5996718624
21
43.2670568851
31
0.0000000000
0
SPLINE
5
261
100
AcDbEntity
8
0
100
AcDbSpline
62
7
6
CONTINUOUS
70
0
71
3
72
8
73
4
74
2
42
0.0000001000
43
0.0000001000
44
0.0000000001
12
-0.0716602555
22
-0.3941314050
32
0.0000000000
13
-0.1889681881
23
-0.3563685511
33
0.0000000000
40
0.0000000000
40
0.0000000000
40
0.0000000000
40
0.0000000000
40
1.0000000000
40
1.0000000000
40
1.0000000000
40
1.0000000000
10
-75.0976076513
20
-58.5675659233
30
0.0000000000
10
-75.1214944031
20
-58.6989430583
30
0.0000000000
10
-75.1616494763
20
-58.8286945890
30
0.0000000000
10
-75.2246388723
20
-58.9474841060
30
0.0000000000
11
-75.0976076513
21
-58.5675659233
31
0.0000000000
11
-75.2246388723
21
-58.9474841060
31
0.0000000000
0
SPLINE
5
262
100
AcDbEntity
8
0
100
AcDbSpline
62
7
6
CONTINUOUS
70
0
71
3
72
9
73
5
74
3
42
0.0000001000
43
0.0000001000
44
0.0000000001
12
-0.2470909447
22
-0.4659802417
32
0.0000000000
13
-0.4728029551
23
-0.2364083976
33
0.0000000000
40
0.0000000000
40
0.0000000000
40
0.0000000000
40
0.0000000000
40
0.6768319054
40
1.0000000000
40
1.0000000000
40
1.0000000000
40
1.0000000000
10
-75.2246388723
20
-58.9474841060
30
0.0000000000
10
-75.2803852173
20
-59.0526142043
30
0.0000000000
10
-75.3891732709
20
-59.1952554564
30
0.0000000000
10
-75.5381522121
20
-59.2913231271
30
0.0000000000
10
-75.5890838221
20
-59.3167896775
30
0.0000000000
11
-75.2246388723
21
-58.9474841060
31
0.0000000000
11
-75.4460591715
21
-59.2243670810
31
0.0000000000
11
-75.5890838221
21
-59.3167896775
31
0.0000000000
0
SPLINE
5
263
100
AcDbEntity
8
0
100
AcDbSpline
62
7
6
CONTINUOUS
70
0
71
3
72
16
73
12
74
10
42
0.0000001000
43
0.0000001000
44
0.0000000001
12
6.5703919788
22
3.2851959894
32
0.0000000000
13
-6.6270147130
23
3.3283284441
33
0.0000000000
40
0.0000000000
40
0.0000000000
40
0.0000000000
40
0.0000000000
40
0.1145746343
40
0.2416443620
40
0.3760092531
40
0.5110775561
40
0.6401322390
40
0.7575767082
40
0.8603695018
40
0.9498070606
40
1.0000000000
40
1.0000000000
40
1.0000000000
40
1.0000000000
10
-79.1348987268
20
-45.9789550534
30
0.0000000000
10
-78.8839653073
20
-45.8534883437
30
0.0000000000
10
-78.3928743350
20
-45.5107990245
30
0.0000000000
10
-77.7628411789
20
-44.8324119646
30
0.0000000000
10
-77.2385259201
20
-44.0091829427
30
0.0000000000
10
-76.8606039226
20
-43.1043527026
30
0.0000000000
10
-76.6576813788
20
-42.1866561258
30
0.0000000000
10
-76.6461837945
20
-41.3241524126
30
0.0000000000
10
-76.8313720299
20
-40.5776835230
30
0.0000000000
10
-77.1717905913
20
-40.0709603213
30
0.0000000000
10
-77.4595452671
20
-39.8736761003
30
0.0000000000
10
-77.5704217164
20
-39.8179899044
30
0.0000000000
11
-79.1348987268
21
-45.9789550534
31
0.0000000000
11
-78.4376462218
21
-45.5075484023
31
0.0000000000
11
-77.7968809681
21
-44.8287715174
31
0.0000000000
11
-77.2645139556
21
-43.9976148650
31
0.0000000000
11
-76.8836743938
21
-43.0814138140
31
0.0000000000
11
-76.6852156388
21
-42.1543935247
31
0.0000000000
11
-76.6852156388
21
-41.2916556677
31
0.0000000000
11
-76.8836743938
21
-40.5630941334
31
0.0000000000
11
-77.2645139556
21
-40.0277326442
31
0.0000000000
11
-77.5704217164
21
-39.8179899044
31
0.0000000000
0
SPLINE
5
264
100
AcDbEntity
8
0
100
AcDbSpline
62
7
6
CONTINUOUS
70
0
71
3
72
11
73
7
74
5
42
0.0000001000
43
0.0000001000
44
0.0000000001
12
0.0904606063
22
-0.5879939408
32
0.0000000000
13
-0.5321052495
23
-0.2660526248
33
0.0000000000
40
0.0000000000
40
0.0000000000
40
0.0000000000
40
0.0000000000
40
0.2518019267
40
0.5134210179
40
0.7714620505
40
1.0000000000
40
1.0000000000
40
1.0000000000
40
1.0000000000
10
-75.0976076513
20
-23.2337294489
30
0.0000000000
10
-75.0900149330
20
-23.2830821180
30
0.0000000000
10
-75.0933372038
20
-23.3871692859
30
0.0000000000
10
-75.1460787986
20
-23.5330360094
30
0.0000000000
10
-75.2337298690
20
-23.6548292230
30
0.0000000000
10
-75.3113420331
20
-23.7155797178
30
0.0000000000
10
-75.3518774473
20
-23.7358474249
30
0.0000000000
11
-75.0976076513
21
-23.2337294489
31
0.0000000000
11
-75.1009173045
21
-23.3834928090
31
0.0000000000
11
-75.1527487386
21
-23.5302490589
31
0.0000000000
11
-75.2429823177
21
-23.6544413528
31
0.0000000000
11
-75.3518774473
21
-23.7358474249
31
0.0000000000
0
SPLINE
5
265
100
AcDbEntity
8
0
100
AcDbSpline
62
7
6
CONTINUOUS
70
0
71
3
72
10
73
6
74
4
42
0.0000001000
43
0.0000001000
44
0.0000000001
12
0.2843829555
22
-0.1387061427
32
0.0000000000
13
0.0000000000
23
-0.3126621295
33
0.0000000000
40
0.0000000000
40
0.0000000000
40
0.0000000000
40
0.0000000000
40
0.0990768225
40
0.5093379350
40
1.0000000000
40
1.0000000000
40
1.0000000000
40
1.0000000000
10
81.7788437038
20
20.0903788468
30
0.0000000000
10
81.7882356237
20
20.0857979921
30
0.0000000000
10
81.8344258741
20
20.0584395118
30
0.0000000000
10
81.8960851066
20
19.9667583826
30
0.0000000000
10
81.9086706884
20
19.8715349386
30
0.0000000000
10
81.9086706884
20
19.8203977899
30
0.0000000000
11
81.7788437038
21
20.0903788468
31
0.0000000000
11
81.8056461179
21
20.0744226799
31
0.0000000000
11
81.8822180813
21
19.9715114271
31
0.0000000000
11
81.9086706884
21
19.8203977899
31
0.0000000000
0
SPLINE
5
266
100
AcDbEntity
8
0
100
AcDbSpline
62
7
6
CONTINUOUS
70
0
71
3
72
10
73
6
74
4
42
0.0000001000
43
0.0000001000
44
0.0000000001
12
0.0001160469
22
-1.4467147159
32
0.0000000000
13
1.2882007524
23
-0.6441003762
33
0.0000000000
40
0.0000000000
40
0.0000000000
40
0.0000000000
40
0.0000000000
40
0.2783436896
40
0.6093705128
40
1.0000000000
40
1.0000000000
40
1.0000000000
40
1.0000000000
10
-81.2510152193
20
-18.1500585245
30
0.0000000000
10
-81.2510044524
20
-18.2842864951
30
0.0000000000
10
-81.1656115721
20
-18.5781715477
30
0.0000000000
10
-80.8372900178
20
-18.9425899571
30
0.0000000000
10
-80.5400719936
20
-19.1268566317
30
0.0000000000
10
-80.3723355939
20
-19.2107248316
30
0.0000000000
11
-81.2510152193
21
-18.1500585245
31
0.0000000000
11
-81.1490679623
21
-18.5377792708
31
0.0000000000
11
-80.8441747979
21
-18.9043065906
31
0.0000000000
11
-80.3723355939
21
-19.2107248316
31
0.0000000000
0
SPLINE
5
267
100
AcDbEntity
8
0
100
AcDbSpline
62
7
6
CONTINUOUS
70
0
71
3
72
9
73
5
74
3
42
0.0000001000
43
0.0000001000
44
0.0000000001
12
-0.1655447645
22
-0.0827723823
32
0.0000000000
13
-0.1689571985
23
0.0817106466
33
0.0000000000
40
0.0000000000
40
0.0000000000
40
0.0000000000
40
0.0000000000
40
0.6078496692
40
1.0000000000
40
1.0000000000
40
1.0000000000
40
1.0000000000
10
80.7772998387
20
54.3287412181
30
0.0000000000
10
80.7437577286
20
54.3119701630
30
0.0000000000
10
80.6818728750
20
54.2923580014
30
0.0000000000
10
80.6192444735
20
54.3078022106
30
0.0000000000
10
80.5971589331
20
54.3184831630
30
0.0000000000
11
80.7772998387
21
54.3287412181
31
0.0000000000
11
80.6682496261
21
54.3010803418
31
0.0000000000
11
80.5971589331
21
54.3184831630
31
0.0000000000
0
SPLINE
5
268
100
AcDbEntity
8
0
100
AcDbSpline
62
7
6
CONTINUOUS
70
0
71
3
72
10
73
6
74
4
42
0.0000001000
43
0.0000001000
44
0.0000000001
12
-1.6689773624
22
0.8319730156
32
0.0000000000
13
-1.6548624562
23
-0.8274312281
33
0.0000000000
40
0.0000000000
40
0.0000000000
40
0.0000000000
40
0.0000000000
40
0.2133608788
40
0.5871130325
40
1.0000000000
40
1.0000000000
40
1.0000000000
40
1.0000000000
10
91.4761034620
20
60.6282594821
30
0.0000000000
10
91.3574053031
20
60.6874296467
30
0.0000000000
10
91.0094004073
20
60.8083005632
30
0.0000000000
10
90.3774674715
20
60.7976622616
30
0.0000000000
10
89.9146023286
20
60.6294432708
30
0.0000000000
10
89.6868452815
20
60.5155647472
30
0.0000000000
11
91.4761034620
21
60.6282594821
31
0.0000000000
11
91.1014316411
21
60.7584926581
31
0.0000000000
11
90.4099270803
21
60.7619932922
31
0.0000000000
11
89.6868452815
21
60.5155647472
31
0.0000000000
0
SPLINE
5
269
100
AcDbEntity
8
0
100
AcDbSpline
62
7
6
CONTINUOUS
70
0
71
3
72
12
73
8
74
6
42
0.0000001000
43
0.0000001000
44
0.0000000001
12
2.3073021835
22
-1.1536510917
32
0.0000000000
13
0.3922531390
23
-2.5496454032
33
0.0000000000
40
0.0000000000
40
0.0000000000
40
0.0000000000
40
0.0000000000
40
0.1793111349
40
0.3763168798
40
0.5860257678
40
0.7974049178
40
1.0000000000
40
1.0000000000
40
1.0000000000
40
1.0000000000
10
-76.4832482974
20
-21.1552684798
30
0.0000000000
10
-76.3453399730
20
-21.2242226420
30
0.0000000000
10
-76.0759743185
20
-21.4100577530
30
0.0000000000
10
-75.7268786359
20
-21.7770632915
30
0.0000000000
10
-75.4321768060
20
-22.2225885874
30
0.0000000000
10
-75.2129566293
20
-22.7144952159
30
0.0000000000
10
-75.1240971703
20
-23.0615475756
30
0.0000000000
10
-75.0976076513
20
-23.2337294489
30
0.0000000000
11
-76.4832482974
21
-21.1552684798
31
0.0000000000
11
-76.0989008956
21
-21.4126349823
31
0.0000000000
11
-75.7457929232
21
-21.7781297384
31
0.0000000000
11
-75.4460591715
21
-22.2284767710
31
0.0000000000
11
-75.2246388723
21
-22.7267800452
31
0.0000000000
11
-75.0976076513
21
-23.2337294489
31
0.0000000000
0
SPLINE
5
26A
100
AcDbEntity
8
0
100
AcDbSpline
62
7
6
CONTINUOUS
70
0
71
3
72
9
73
5
74
3
42
0.0000001000
43
0.0000001000
44
0.0000000001
12
0.0000000000
22
-1.1065985131
32
0.0000000000
13
0.3622788523
23
-1.0508790223
33
0.0000000000
40
0.0000000000
40
0.0000000000
40
0.0000000000
40
0.0000000000
40
0.7626197868
40
1.0000000000
40
1.0000000000
40
1.0000000000
40
1.0000000000
10
-87.0898500152
20
-62.5137990525
30
0.0000000000
10
-87.0898500152
20
-62.7951036932
30
0.0000000000
10
-87.0536743873
20
-63.1659247263
30
0.0000000000
10
-86.9507364378
20
-63.5225886243
30
0.0000000000
10
-86.9220704940
20
-63.6057412531
30
0.0000000000
11
-87.0898500152
21
-62.5137990525
31
0.0000000000
11
-86.9958452881
21
-63.3524609744
31
0.0000000000
11
-86.9220704940
21
-63.6057412531
31
0.0000000000
0
SPLINE
5
26B
100
AcDbEntity
8
0
100
AcDbSpline
62
7
6
CONTINUOUS
70
0
71
3
72
10
73
6
74
4
42
0.0000001000
43
0.0000001000
44
0.0000000001
12
0.4610985100
22
-1.3375297740
32
0.0000000000
13
1.2704990783
23
-0.6333345037
33
0.0000000000
40
0.0000000000
40
0.0000000000
40
0.0000000000
40
0.0000000000
40
0.3537400287
40
0.8266829223
40
1.0000000000
40
1.0000000000
40
1.0000000000
40
1.0000000000
10
-86.9220704940
20
-63.6057412531
30
0.0000000000
10
-86.8677008273
20
-63.7634538599
30
0.0000000000
10
-86.7050746091
20
-64.1193109240
30
0.0000000000
10
-86.3866941741
20
-64.4816231803
30
0.0000000000
10
-86.1240808001
20
-64.6397926116
30
0.0000000000
10
-86.0506810709
20
-64.6763818401
30
0.0000000000
11
-86.9220704940
21
-63.6057412531
31
0.0000000000
11
-86.7101092737
21
-64.0576825555
31
0.0000000000
11
-86.2608492929
21
-64.5494907433
31
0.0000000000
11
-86.0506810709
21
-64.6763818401
31
0.0000000000
0
SPLINE
5
26C
100
AcDbEntity
8
0
100
AcDbSpline
62
7
6
CONTINUOUS
70
0
71
3
72
13
73
9
74
7
42
0.0000001000
43
0.0000001000
44
0.0000000001
12
-5.2620468072
22
-2.6310234036
32
0.0000000000
13
0.0000000000
23
-5.8831471808
33
0.0000000000
40
0.0000000000
40
0.0000000000
40
0.0000000000
40
0.0000000000
40
0.1472220723
40
0.3141268383
40
0.4884967143
40
0.6656416789
40
0.8406789094
40
1.0000000000
40
1.0000000000
40
1.0000000000
40
1.0000000000
10
-84.2614228904
20
-26.4585693387
30
0.0000000000
10
-84.5196527022
20
-26.5876842446
30
0.0000000000
10
-85.0348395248
20
-26.9366031982
30
0.0000000000
10
-85.7086096694
20
-27.6245644266
30
0.0000000000
10
-86.2884608652
20
-28.4652123547
30
0.0000000000
10
-86.7351994687
20
-29.4009740352
30
0.0000000000
10
-87.0182476044
20
-30.3678629233
30
0.0000000000
10
-87.0898500152
20
-31.0244480412
30
0.0000000000
10
-87.0898500152
20
-31.3368845162
30
0.0000000000
11
-84.2614228904
21
-26.4585693387
31
0.0000000000
11
-84.9845647514
21
-26.9352720766
31
0.0000000000
11
-85.6770270005
21
-27.6314569194
31
0.0000000000
11
-86.2619963235
21
-28.4741704382
31
0.0000000000
11
-86.7106973608
21
-29.4148008000
31
0.0000000000
11
-86.9958611713
21
-30.4042993697
31
0.0000000000
11
-87.0898500152
21
-31.3368845162
31
0.0000000000
0
SPLINE
5
26D
100
AcDbEntity
8
0
100
AcDbSpline
62
7
6
CONTINUOUS
70
0
71
3
72
14
73
10
74
8
42
0.0000001000
43
0.0000001000
44
0.0000000001
12
5.4391930335
22
2.7195965167
32
0.0000000000
13
-1.9120573196
23
5.7946115823
33
0.0000000000
40
0.0000000000
40
0.0000000000
40
0.0000000000
40
0.0000000000
40
0.1384029311
40
0.2918995829
40
0.4542085867
40
0.6173672922
40
0.7732617142
40
0.9151313248
40
1.0000000000
40
1.0000000000
40
1.0000000000
40
1.0000000000
10
-80.1955588986
20
-45.4486249675
30
0.0000000000
10
-79.9446254791
20
-45.3231582578
30
0.0000000000
10
-79.4535345068
20
-44.9804689386
30
0.0000000000
10
-78.8235013506
20
-44.3020818787
30
0.0000000000
10
-78.2991860919
20
-43.4788528568
30
0.0000000000
10
-77.9212640944
20
-42.5740226167
30
0.0000000000
10
-77.7183415506
20
-41.6563260399
30
0.0000000000
10
-77.7079149362
20
-40.8741622879
30
0.0000000000
10
-77.8026671196
20
-40.4200784283
30
0.0000000000
10
-77.8567583768
20
-40.2561514256
30
0.0000000000
11
-80.1955588986
21
-45.4486249675
31
0.0000000000
11
-79.4983063936
21
-44.9772183165
31
0.0000000000
11
-78.8575411399
21
-44.2984414315
31
0.0000000000
11
-78.3251741274
21
-43.4672847791
31
0.0000000000
11
-77.9443345655
21
-42.5510837281
31
0.0000000000
11
-77.7458758106
21
-41.6240634388
31
0.0000000000
11
-77.7458758106
21
-40.7613255818
31
0.0000000000
11
-77.8567583768
21
-40.2561514256
31
0.0000000000
0
SPLINE
5
26E
100
AcDbEntity
8
0
100
AcDbSpline
62
7
6
CONTINUOUS
70
0
71
3
72
9
73
5
74
3
42
0.0000001000
43
0.0000001000
44
0.0000000001
12
-0.2054293537
22
0.6225667504
32
0.0000000000
13
-0.4056666378
23
0.5171060616
33
0.0000000000
40
0.0000000000
40
0.0000000000
40
0.0000000000
40
0.0000000000
40
0.3658090378
40
1.0000000000
40
1.0000000000
40
1.0000000000
40
1.0000000000
10
-77.8567583768
20
-40.2561514256
30
0.0000000000
10
-77.8818076816
20
-40.1802379110
30
0.0000000000
10
-77.9612032077
20
-39.9762552365
30
0.0000000000
10
-78.0737761832
20
-39.7854514411
30
0.0000000000
10
-78.1595328884
20
-39.6761367775
30
0.0000000000
11
-77.8567583768
21
-40.2561514256
31
0.0000000000
11
-77.9443345655
21
-40.0327640475
31
0.0000000000
11
-78.1595328884
21
-39.6761367775
31
0.0000000000
0
SPLINE
5
26F
100
AcDbEntity
8
0
100
AcDbSpline
62
7
6
CONTINUOUS
70
0
71
3
72
14
73
10
74
8
42
0.0000001000
43
0.0000001000
44
0.0000000001
12
5.4391930335
22
2.7195965167
32
0.0000000000
13
-1.9120573196
23
5.7946115823
33
0.0000000000
40
0.0000000000
40
0.0000000000
40
0.0000000000
40
0.0000000000
40
0.1384029311
40
0.2918995829
40
0.4542085867
40
0.6173672922
40
0.7732617142
40
0.9151313248
40
1.0000000000
40
1.0000000000
40
1.0000000000
40
1.0000000000
10
85.9745346802
20
37.6364218219
30
0.0000000000
10
86.2254680997
20
37.7618885316
30
0.0000000000
10
86.7165590721
20
38.1045778508
30
0.0000000000
10
87.3465922282
20
38.7829649107
30
0.0000000000
10
87.8709074869
20
39.6061939326
30
0.0000000000
10
88.2488294844
20
40.5110241727
30
0.0000000000
10
88.4517520282
20
41.4287207495
30
0.0000000000
10
88.4621786427
20
42.2108845015
30
0.0000000000
10
88.3674264592
20
42.6649683611
30
0.0000000000
10
88.3133352020
20
42.8288953638
30
0.0000000000
11
85.9745346802
21
37.6364218219
31
0.0000000000
11
86.6717871852
21
38.1078284730
31
0.0000000000
11
87.3125524390
21
38.7866053579
31
0.0000000000
11
87.8449194514
21
39.6177620103
31
0.0000000000
11
88.2257590133
21
40.5339630613
31
0.0000000000
11
88.4242177683
21
41.4609833507
31
0.0000000000
11
88.4242177683
21
42.3237212076
31
0.0000000000
11
88.3133352020
21
42.8288953638
31
0.0000000000
0
SPLINE
5
270
100
AcDbEntity
8
0
100
AcDbSpline
62
7
6
CONTINUOUS
70
0
71
3
72
9
73
5
74
3
42
0.0000001000
43
0.0000001000
44
0.0000000001
12
-0.2054293537
22
0.6225667504
32
0.0000000000
13
-0.4056666378
23
0.5171060616
33
0.0000000000
40
0.0000000000
40
0.0000000000
40
0.0000000000
40
0.0000000000
40
0.3658090378
40
1.0000000000
40
1.0000000000
40
1.0000000000
40
1.0000000000
10
88.3133352020
20
42.8288953638
30
0.0000000000
10
88.2882858973
20
42.9048088784
30
0.0000000000
10
88.2088903711
20
43.1087915529
30
0.0000000000
10
88.0963173956
20
43.2995953483
30
0.0000000000
10
88.0105606905
20
43.4089100119
30
0.0000000000
11
88.3133352020
21
42.8288953638
31
0.0000000000
11
88.2257590133
21
43.0522827420
31
0.0000000000
11
88.0105606905
21
43.4089100119
31
0.0000000000
0
SPLINE
5
271
100
AcDbEntity
8
0
100
AcDbSpline
62
7
6
CONTINUOUS
70
0
71
3
72
10
73
6
74
4
42
0.0000001000
43
0.0000001000
44
0.0000000001
12
1.6548624562
22
0.8274312281
32
0.0000000000
13
1.6689773624
23
-0.8319730156
33
0.0000000000
40
0.0000000000
40
0.0000000000
40
0.0000000000
40
0.0000000000
40
0.4128869675
40
0.7866391212
40
1.0000000000
40
1.0000000000
40
1.0000000000
40
1.0000000000
10
88.6261851097
20
61.0458948331
30
0.0000000000
10
88.8539421568
20
61.1597733566
30
0.0000000000
10
89.3168072997
20
61.3279923475
30
0.0000000000
10
89.9487402355
20
61.3386306491
30
0.0000000000
10
90.2967451313
20
61.2177597326
30
0.0000000000
10
90.4154432902
20
61.1585895680
30
0.0000000000
11
88.6261851097
21
61.0458948331
31
0.0000000000
11
89.3492669085
21
61.2923233781
31
0.0000000000
11
90.0407714693
21
61.2888227440
31
0.0000000000
11
90.4154432902
21
61.1585895680
31
0.0000000000
0
SPLINE
5
272
100
AcDbEntity
8
0
100
AcDbSpline
62
7
6
CONTINUOUS
70
0
71
3
72
11
73
7
74
5
42
0.0000001000
43
0.0000001000
44
0.0000000001
12
-2.2687129911
22
1.1309368427
32
0.0000000000
13
0.0000000000
23
2.5150465151
33
0.0000000000
40
0.0000000000
40
0.0000000000
40
0.0000000000
40
0.0000000000
40
0.0970590764
40
0.3619112250
40
0.6644539506
40
1.0000000000
40
1.0000000000
40
1.0000000000
40
1.0000000000
10
-87.1113412427
20
-64.1460517542
30
0.0000000000
10
-87.1847409719
20
-64.1094625257
30
0.0000000000
10
-87.4473543459
20
-63.9512930944
30
0.0000000000
10
-87.8251147751
20
-63.5214072772
30
0.0000000000
10
-88.0980471869
20
-62.8025495913
30
0.0000000000
10
-88.1505101869
20
-62.2647736073
30
0.0000000000
10
-88.1505101869
20
-61.9834689666
30
0.0000000000
11
-87.1113412427
21
-64.1460517542
31
0.0000000000
11
-87.3215094647
21
-64.0191606574
31
0.0000000000
11
-87.7707694454
21
-63.5273524696
31
0.0000000000
11
-88.0565054599
21
-62.8221308886
31
0.0000000000
11
-88.1505101869
21
-61.9834689666
31
0.0000000000
0
SPLINE
5
273
100
AcDbEntity
8
0
100
AcDbSpline
62
7
6
CONTINUOUS
70
0
71
3
72
13
73
9
74
7
42
0.0000001000
43
0.0000001000
44
0.0000000001
12
0.0000000000
22
5.8831471808
32
0.0000000000
13
5.2620468072
23
2.6310234036
33
0.0000000000
40
0.0000000000
40
0.0000000000
40
0.0000000000
40
0.0000000000
40
0.1593210906
40
0.3343583211
40
0.5115032857
40
0.6858731617
40
0.8527779277
40
1.0000000000
40
1.0000000000
40
1.0000000000
40
1.0000000000
10
-88.1505101869
20
-30.8065544303
30
0.0000000000
10
-88.1505101869
20
-30.4941179553
30
0.0000000000
10
-88.0789077762
20
-29.8375328374
30
0.0000000000
10
-87.7958596405
20
-28.8706439493
30
0.0000000000
10
-87.3491210370
20
-27.9348822688
30
0.0000000000
10
-86.7692698412
20
-27.0942343407
30
0.0000000000
10
-86.0954996965
20
-26.4062731123
30
0.0000000000
10
-85.5803128739
20
-26.0573541587
30
0.0000000000
10
-85.3220830622
20
-25.9282392528
30
0.0000000000
11
-88.1505101869
21
-30.8065544303
31
0.0000000000
11
-88.0565213431
21
-29.8739692838
31
0.0000000000
11
-87.7713575326
21
-28.8844707141
31
0.0000000000
11
-87.3226564953
21
-27.9438403523
31
0.0000000000
11
-86.7376871723
21
-27.1011268335
31
0.0000000000
11
-86.0452249232
21
-26.4049419907
31
0.0000000000
11
-85.3220830622
21
-25.9282392528
31
0.0000000000
0
SPLINE
5
274
100
AcDbEntity
8
0
100
AcDbSpline
62
7
6
CONTINUOUS
70
0
71
3
72
9
73
5
74
3
42
0.0000001000
43
0.0000001000
44
0.0000000001
12
1.0157011753
22
-0.0238017940
32
0.0000000000
13
0.9011576341
23
0.4505788171
33
0.0000000000
40
0.0000000000
40
0.0000000000
40
0.0000000000
40
0.0000000000
40
0.2725568586
40
1.0000000000
40
1.0000000000
40
1.0000000000
40
1.0000000000
10
82.5261229354
20
36.1567639165
30
0.0000000000
10
82.6184017093
20
36.1546014691
30
0.0000000000
10
82.9582752413
20
36.1760355268
30
0.0000000000
10
83.2811472993
20
36.2897281314
30
0.0000000000
10
83.4996609461
20
36.3989849548
30
0.0000000000
11
82.5261229354
21
36.1567639165
31
0.0000000000
11
82.8024084411
21
36.1731391009
31
0.0000000000
11
83.4996609461
21
36.3989849548
31
0.0000000000
0
SPLINE
5
275
100
AcDbEntity
8
0
100
AcDbSpline
62
7
6
CONTINUOUS
70
0
71
3
72
9
73
5
74
3
42
0.0000001000
43
0.0000001000
44
0.0000000001
12
1.0157011753
22
-0.0238017940
32
0.0000000000
13
0.9011576341
23
0.4505788171
33
0.0000000000
40
0.0000000000
40
0.0000000000
40
0.0000000000
40
0.0000000000
40
0.2725568586
40
1.0000000000
40
1.0000000000
40
1.0000000000
40
1.0000000000
10
-83.6439706434
20
-46.9282828729
30
0.0000000000
10
-83.5516918696
20
-46.9304453203
30
0.0000000000
10
-83.2118183375
20
-46.9090112626
30
0.0000000000
10
-82.8889462795
20
-46.7953186580
30
0.0000000000
10
-82.6704326327
20
-46.6860618346
30
0.0000000000
11
-83.6439706434
21
-46.9282828729
31
0.0000000000
11
-83.3676851377
21
-46.9119076885
31
0.0000000000
11
-82.6704326327
21
-46.6860618346
31
0.0000000000
0
SPLINE
5
276
100
AcDbEntity
8
0
100
AcDbSpline
62
7
6
CONTINUOUS
70
0
71
3
72
11
73
7
74
5
42
0.0000001000
43
0.0000001000
44
0.0000000001
12
0.6566115960
22
0.3283057980
32
0.0000000000
13
0.0000000000
23
0.7341140818
33
0.0000000000
40
0.0000000000
40
0.0000000000
40
0.0000000000
40
0.0000000000
40
0.2275428926
40
0.4867899573
40
0.7541236507
40
1.0000000000
40
1.0000000000
40
1.0000000000
40
1.0000000000
10
80.4944571261
20
55.2479800337
30
0.0000000000
10
80.5442595600
20
55.2728812507
30
0.0000000000
10
80.6401324127
20
55.3476221117
30
0.0000000000
10
80.7514458422
20
55.4968385615
30
0.0000000000
10
80.8271852647
20
55.6718057090
30
0.0000000000
10
80.8480105166
20
55.7976023341
30
0.0000000000
10
80.8480105166
20
55.8577694309
30
0.0000000000
11
80.4944571261
21
55.2479800337
31
0.0000000000
11
80.6286401258
21
55.3474692285
31
0.0000000000
11
80.7439271850
21
55.4988938776
31
0.0000000000
11
80.8212859249
21
55.6792574929
31
0.0000000000
11
80.8480105166
21
55.8577694309
31
0.0000000000
0
SPLINE
5
277
100
AcDbEntity
8
0
100
AcDbSpline
62
7
6
CONTINUOUS
70
0
71
3
72
8
73
4
74
2
42
0.0000001000
43
0.0000001000
44
0.0000000001
12
0.0426531314
22
0.0213265657
32
0.0000000000
13
0.0395958244
23
0.0268795042
33
0.0000000000
40
0.0000000000
40
0.0000000000
40
0.0000000000
40
0.0000000000
40
1.0000000000
40
1.0000000000
40
1.0000000000
40
1.0000000000
10
-76.4125376184
20
-23.2055173393
30
0.0000000000
10
-76.3983199079
20
-23.1984084841
30
0.0000000000
10
-76.3845858458
20
-23.1903060424
30
0.0000000000
10
-76.3713872377
20
-23.1813462077
30
0.0000000000
11
-76.4125376184
21
-23.2055173393
31
0.0000000000
11
-76.3713872377
21
-23.1813462077
31
0.0000000000
0
SPLINE
5
278
100
AcDbEntity
8
0
100
AcDbSpline
62
7
6
CONTINUOUS
70
0
71
3
72
11
73
7
74
5
42
0.0000001000
43
0.0000001000
44
0.0000000001
12
0.5026101193
22
0.3411953414
32
0.0000000000
13
-0.3487691241
23
0.4947494591
33
0.0000000000
40
0.0000000000
40
0.0000000000
40
0.0000000000
40
0.0000000000
40
0.1654430701
40
0.4314162321
40
0.7093784302
40
1.0000000000
40
1.0000000000
40
1.0000000000
40
1.0000000000
10
-76.3713872377
20
-23.1813462077
30
0.0000000000
10
-76.3436694506
20
-23.1625300727
30
0.0000000000
10
-76.2775492711
20
-23.1036040690
30
0.0000000000
10
-76.2005958726
20
-22.9785370136
30
0.0000000000
10
-76.1867363365
20
-22.8030611494
30
0.0000000000
10
-76.2373296529
20
-22.6949034312
30
0.0000000000
10
-76.2711162630
20
-22.6469751431
30
0.0000000000
11
-76.3713872377
21
-23.1813462077
31
0.0000000000
11
-76.2957981038
21
-23.1148152958
31
0.0000000000
11
-76.2138450193
21
-22.9762344284
31
0.0000000000
11
-76.2012946257
21
-22.8084460117
31
0.0000000000
11
-76.2711162630
21
-22.6469751431
31
0.0000000000
0
SPLINE
5
279
100
AcDbEntity
8
0
100
AcDbSpline
62
7
6
CONTINUOUS
70
0
71
3
72
10
73
6
74
4
42
0.0000001000
43
0.0000001000
44
0.0000000001
12
-1.2882007524
22
0.6441003762
32
0.0000000000
13
-0.0001160469
23
1.4467147159
33
0.0000000000
40
0.0000000000
40
0.0000000000
40
0.0000000000
40
0.0000000000
40
0.3906294872
40
0.7216563104
40
1.0000000000
40
1.0000000000
40
1.0000000000
40
1.0000000000
10
-80.3723355939
20
-20.5097629372
30
0.0000000000
10
-80.5400719936
20
-20.4258947374
30
0.0000000000
10
-80.8372900178
20
-20.2416280628
30
0.0000000000
10
-81.1656115721
20
-19.8772096534
30
0.0000000000
10
-81.2510044524
20
-19.5833246008
30
0.0000000000
10
-81.2510152193
20
-19.4490966302
30
0.0000000000
11
-80.3723355939
21
-20.5097629372
31
0.0000000000
11
-80.8441747979
21
-20.2033446963
31
0.0000000000
11
-81.1490679623
21
-19.8368173765
31
0.0000000000
11
-81.2510152193
21
-19.4490966302
31
0.0000000000
0
SPLINE
5
27A
100
AcDbEntity
8
0
100
AcDbSpline
62
7
6
CONTINUOUS
70
0
71
3
72
9
73
5
74
3
42
0.0000001000
43
0.0000001000
44
0.0000000001
12
0.2111464963
22
-0.1055732482
32
0.0000000000
13
0.1493448677
23
-0.1832562335
33
0.0000000000
40
0.0000000000
40
0.0000000000
40
0.0000000000
40
0.0000000000
40
0.5813207975
40
1.0000000000
40
1.0000000000
40
1.0000000000
40
1.0000000000
10
-76.4832482974
20
-22.4543065855
30
0.0000000000
10
-76.4423336808
20
-22.4747638938
30
0.0000000000
10
-76.3777500761
20
-22.5217162842
30
0.0000000000
10
-76.3237406501
20
-22.5794554370
30
0.0000000000
10
-76.3028981200
20
-22.6050306282
30
0.0000000000
11
-76.4832482974
21
-22.4543065855
31
0.0000000000
11
-76.3708194687
21
-22.5329979082
31
0.0000000000
11
-76.3028981200
21
-22.6050306282
31
0.0000000000
0
SPLINE
5
27B
100
AcDbEntity
8
0
100
AcDbSpline
62
7
6
CONTINUOUS
70
0
71
3
72
8
73
4
74
2
42
0.0000001000
43
0.0000001000
44
0.0000000001
12
0.0332729639
22
-0.0408281726
32
0.0000000000
13
0.0303033288
23
-0.0429870492
33
0.0000000000
40
0.0000000000
40
0.0000000000
40
0.0000000000
40
0.0000000000
40
1.0000000000
40
1.0000000000
40
1.0000000000
40
1.0000000000
10
-76.3028981200
20
-22.6050306282
30
0.0000000000
10
-76.2918071320
20
-22.6186400191
30
0.0000000000
10
-76.2812173726
20
-22.6326461266
30
0.0000000000
10
-76.2711162630
20
-22.6469751431
30
0.0000000000
11
-76.3028981200
21
-22.6050306282
31
0.0000000000
11
-76.2711162630
21
-22.6469751431
31
0.0000000000
0
ENDSEC
0
SECTION
2
OBJECTS
0
DICTIONARY
5
27C
100
AcDbDictionary
3
ACAD_GROUP
350
27D
3
ACAD_MLINESTYLE
350
27E
0
DICTIONARY
5
27D
102
{ACAD_REACTORS
330
27C
102
}
100
AcDbDictionary
0
DICTIONARY
5
27E
102
{ACAD_REACTORS
330
27C
102
}
100
AcDbDictionary
3
STANDARD
350
27F
0
MLINESTYLE
5
27F
102
{ACAD_REACTORS
330
27E
102
}
100
AcDbMlineStyle
2
STANDARD
70
0
3

62
256
51
90.0
52
90.0
71
2
49
0.5
62
256
6
BYLAYER
49
-0.5
62
256
6
BYLAYER
0
ENDSEC
0
EOF
