0
SECTION
2
HEADER
9
$ACADVER
1
AC1014
9
$HANDSEED
5
       35E
9
$EXTMAX
10
297.0000000000
20
210.0000000000
9
$EXTMIN
10
0.0000000000
20
0.0000000000
9
$LIMMIN
10
0.0000000000
20
0.0000000000
9
$LIMMAX
10
297.0000000000
20
210.0000000000
9
$VIEWCTR
10
148.5000000000
20
105.0000000000
9
$VIEWSIZE
40
210.0000000000
9
$CLAYER
8
0
9
$LTSCALE
40
16.3350000000
9
$CELTYPE
6
BYLAYER
9
$DIMSCALE
40
1
9
$DIMASZ
40
3.0000000000
9
$DIMEXO
40
1.8562500000
9
$DIMDLI
40
11.2860000000
9
$DIMEXE
40
5.3460000000
9
$DIMCEN
40
2.6730000000
9
$DIMLFAC
40
1.0000000000
9
$DIMTXT
40
3.0000000000
9
$DIMTOL
70
1
9
$DIMLIM
70
0
9
$DIMTFAC
40
1.0000000000
9
$DIMTP
40
0.0100000000
9
$DIMTM
40
0.0100000000
9
$MEASUREMENT
70
1
0
ENDSEC
0
SECTION
2
CLASSES
0
ENDSEC
0
SECTION
2
TABLES
0
TABLE
2
VPORT
5
8
100
AcDbSymbolTable
70
2
0
VPORT
5
1F4
100
AcDbSymbolTableRecord
100
AcDbViewportTableRecord
2
*ACTIVE
70
0
10
0.0
20
0.0
11
1.0
21
1.0
12
148.5000000000
22
105.0000000000
13
0.0
23
0.0
14
1.0
24
1.0
15
0.0
25
0.0
16
0.0
26
0.0
36
1.0
17
0.0
27
0.0
37
0.0
40
210.0000000000
41
1.4142857143
42
50.0
43
0.0
44
0.0
50
0.0
51
0.0
71
0
72
100
73
1
74
1
75
0
76
0
77
0
78
0
0
ENDTAB
0
TABLE
2
LTYPE
5
5
100
AcDbSymbolTable
70
6
0
LTYPE
5
14
100
AcDbSymbolTableRecord
100
AcDbLinetypeTableRecord
2
BYBLOCK
70
0
3

72
65
73
0
40
0.0
0
LTYPE
5
15
100
AcDbSymbolTableRecord
100
AcDbLinetypeTableRecord
2
BYLAYER
70
0
3

72
65
73
0
40
0.0
0
LTYPE
5
16
100
AcDbSymbolTableRecord
100
AcDbLinetypeTableRecord
2
CONTINUOUS
70
64
3
Solid line
72
65
73
0
40
0
0
LTYPE
5
1F5
100
AcDbSymbolTableRecord
100
AcDbLinetypeTableRecord
2
CENTER
70
64
3
____ _ ____ _ ____ _ ____ _ ____ _ ____ _ ____
72
65
73
4
40
0.6
49
0.375
74
0
49
-0.075
74
0
49
0.075
74
0
49
-0.075
74
0
0
LTYPE
5
1F6
100
AcDbSymbolTableRecord
100
AcDbLinetypeTableRecord
2
HIDDEN
70
64
3
- - - - - - - - - - - - - - - - - - - -
72
65
73
2
40
0.2
49
0.1
74
0
49
-0.1
74
0
0
LTYPE
5
1F7
100
AcDbSymbolTableRecord
100
AcDbLinetypeTableRecord
2
PHANTOM
70
64
3
_____ _ _ _____ _ _ _____ _ _ _____
72
65
73
6
40
0.8
49
0.45
74
0
49
-0.05
74
0
49
0.1
74
0
49
-0.05
74
0
49
0.1
74
0
49
-0.05
74
0
0
LTYPE
5
1F8
100
AcDbSymbolTableRecord
100
AcDbLinetypeTableRecord
2
DOT
70
64
3
. . . . . . . . . . . . . . . . . . . .
72
65
73
2
40
0.2
49
0.1
74
0
49
-0.1
74
0
0
LTYPE
5
1F9
100
AcDbSymbolTableRecord
100
AcDbLinetypeTableRecord
2
DASHED
70
64
3
- - - - - - - - - - - - - - - - - - - -
72
65
73
2
40
0.2
49
0.1
74
0
49
-0.1
74
0
0
ENDTAB
0
TABLE
2
LAYER
5
2
100
AcDbSymbolTable
70
36
0
LAYER
5
10
100
AcDbSymbolTableRecord
100
AcDbLayerTableRecord
2
0
70
0
62
7
6
CONTINUOUS
0
LAYER
5
1FA
100
AcDbSymbolTableRecord
100
AcDbLayerTableRecord
2
DEFAULT_1
70
0
62
7
6
CENTER
0
LAYER
5
1FB
100
AcDbSymbolTableRecord
100
AcDbLayerTableRecord
2
DEFAULT_2
70
0
62
8
6
HIDDEN
0
LAYER
5
1FC
100
AcDbSymbolTableRecord
100
AcDbLayerTableRecord
2
DEFAULT_3
70
0
62
7
6
PHANTOM
0
LAYER
5
1FD
100
AcDbSymbolTableRecord
100
AcDbLayerTableRecord
2
ASSI
70
0
62
7
6
CONTINUOUS
0
LAYER
5
1FE
100
AcDbSymbolTableRecord
100
AcDbLayerTableRecord
2
COORDINATE
70
0
62
7
6
CONTINUOUS
0
LAYER
5
1FF
100
AcDbSymbolTableRecord
100
AcDbLayerTableRecord
2
COORD_ORIGINE
70
0
62
7
6
CONTINUOUS
0
LAYER
5
200
100
AcDbSymbolTableRecord
100
AcDbLayerTableRecord
2
PIANI
70
0
62
7
6
CONTINUOUS
0
LAYER
5
201
100
AcDbSymbolTableRecord
100
AcDbLayerTableRecord
2
PIANI_ORIGINE
70
0
62
7
6
CONTINUOUS
0
LAYER
5
202
100
AcDbSymbolTableRecord
100
AcDbLayerTableRecord
2
RACCORDO
70
0
62
7
6
CONTINUOUS
0
LAYER
5
203
100
AcDbSymbolTableRecord
100
AcDbLayerTableRecord
2
TRASH
70
0
62
7
6
CONTINUOUS
0
ENDTAB
0
TABLE
2
STYLE
5
3
100
AcDbSymbolTable
70
1
0
STYLE
5
11
100
AcDbSymbolTableRecord
100
AcDbTextStyleTableRecord
2
STANDARD
70
0
40
0.0
41
0.8000000000
50
0.0
71
0
42
0.2
3
txt
4

0
ENDTAB
0
TABLE
2
VIEW
5
6
100
AcDbSymbolTable
70
0
0
ENDTAB
0
TABLE
2
UCS
5
7
100
AcDbSymbolTable
70
0
0
ENDTAB
0
TABLE
2
APPID
5
9
100
AcDbSymbolTable
70
1
0
APPID
5
204
100
AcDbSymbolTableRecord
100
AcDbRegAppTableRecord
2
ACAD
70
0
0
ENDTAB
0
TABLE
2
DIMSTYLE
5
A
100
AcDbSymbolTable
70
1
0
DIMSTYLE
105
205
100
AcDbSymbolTableRecord
100
AcDbDimStyleTableRecord
2
STANDARD
70
0
3

4

5

6

7

40
1.0
41
3.0000000000
42
0.0625
43
0.38
44
0.18
45
0.0
46
0.0
47
0.0100000000
48
0.0100000000
140
3.0000000000
141
0.09
142
0.0
143
25.4
144
1.0000000000
145
0.0
146
1.0000000000
147
0.09
71
1
72
0
73
0
74
0
75
0
76
0
77
1
78
8
170
0
171
2
172
0
173
0
174
0
175
0
176
0
177
0
178
0
270
2
271
2
272
2
273
2
274
2
340
11
275
0
280
0
281
0
282
0
283
1
284
8
285
0
286
0
287
3
288
0
0
ENDTAB
0
TABLE
2
BLOCK_RECORD
5
1
100
AcDbSymbolTable
70
0
0
BLOCK_RECORD
5
1B
100
AcDbSymbolTableRecord
100
AcDbBlockTableRecord
2
*MODEL_SPACE
0
BLOCK_RECORD
5
1C
100
AcDbSymbolTableRecord
100
AcDbBlockTableRecord
2
*PAPER_SPACE
0
ENDTAB
0
ENDSEC
0
SECTION
2
BLOCKS
0
BLOCK
5
1E
100
AcDbEntity
8
0
100
AcDbBlockBegin
2
*MODEL_SPACE
70
0
10
0.0
20
0.0
30
0.0
3
*MODEL_SPACE
1

0
ENDBLK
5
1F
100
AcDbEntity
8
0
100
AcDbBlockEnd
0
BLOCK
5
20
100
AcDbEntity
8
0
100
AcDbBlockBegin
2
*PAPER_SPACE
70
0
10
0.0
20
0.0
30
0.0
3
*PAPER_SPACE
1

0
ENDBLK
5
21
100
AcDbEntity
8
0
100
AcDbBlockEnd
0
ENDSEC
0
SECTION
2
ENTITIES
0
LINE
5
206
100
AcDbEntity
8
0
100
AcDbLine
62
7
6
CONTINUOUS
10
-146.4686811219
20
-4.2702304016
11
-146.4686811219
21
-6.0354190758
0
LINE
5
207
100
AcDbEntity
8
0
100
AcDbLine
62
7
6
CONTINUOUS
10
-146.4634773019
20
-2.7869217958
11
-146.4634773019
21
-4.0859599014
0
LINE
5
208
100
AcDbEntity
8
0
100
AcDbLine
62
9
6
CONTINUOUS
10
-140.6350501772
20
-2.9612307843
11
-140.6350501772
21
-1.7262616240
0
LINE
5
209
100
AcDbEntity
8
0
100
AcDbLine
62
9
6
CONTINUOUS
10
-84.3651097845
20
-7.1134355456
11
-84.3651097845
21
-5.8143974399
0
LINE
5
20A
100
AcDbEntity
8
0
100
AcDbLine
62
7
6
CONTINUOUS
10
-77.3935369092
20
-18.7852518875
11
-77.3935369092
21
-18.3707466260
0
LINE
5
20B
100
AcDbEntity
8
0
100
AcDbLine
62
7
6
CONTINUOUS
10
-36.1811106859
20
-71.1631204382
11
-35.1204505141
21
-71.6934505241
0
LINE
5
20C
100
AcDbEntity
8
0
100
AcDbLine
62
9
6
CONTINUOUS
10
-37.2206834286
20
-68.9996252365
11
-36.1600232568
21
-69.5299553224
0
LINE
5
20D
100
AcDbEntity
8
0
100
AcDbLine
62
9
6
CONTINUOUS
10
-68.5651097845
20
-5.8143974399
11
-68.5651097845
21
-7.1134355456
0
LINE
5
20E
100
AcDbEntity
8
0
100
AcDbLine
62
7
6
CONTINUOUS
10
-145.7539748613
20
-7.5228220269
11
-37.2206834286
21
-61.7894677433
0
LINE
5
20F
100
AcDbEntity
8
0
100
AcDbLine
62
9
6
CONTINUOUS
10
-37.2206834286
20
-60.6594179225
11
-146.4686811219
21
-6.0354190758
0
LINE
5
210
100
AcDbEntity
8
0
100
AcDbLine
62
7
6
CONTINUOUS
10
-22.5482177190
20
-66.6649100364
11
-24.3159846720
21
-65.7810265600
0
LINE
5
211
100
AcDbEntity
8
0
100
AcDbLine
62
7
6
CONTINUOUS
10
-22.5482177190
20
-65.3658719308
11
-24.3159846720
21
-64.4819884543
0
LINE
5
212
100
AcDbEntity
8
0
100
AcDbLine
62
9
6
CONTINUOUS
10
-30.6799457027
20
-58.6059764796
11
-31.7406058744
21
-58.0756463937
0
LINE
5
213
100
AcDbEntity
8
0
100
AcDbLine
62
9
6
CONTINUOUS
10
-28.2050719685
20
-57.3685396125
11
-29.2657321403
21
-56.8382095266
0
LINE
5
214
100
AcDbEntity
8
0
100
AcDbLine
62
9
6
CONTINUOUS
10
-58.9092656618
20
5.6144865157
11
-58.9092656618
21
6.9135246214
0
LINE
5
215
100
AcDbEntity
8
0
100
AcDbLine
62
7
6
CONTINUOUS
10
-55.7376927865
20
-5.6428245647
11
-55.7376927865
21
-13.5428245647
0
LINE
5
216
100
AcDbEntity
8
0
100
AcDbLine
62
7
6
CONTINUOUS
10
-145.5847976455
20
-1.7262616240
11
-1.6885676740
21
70.2218533618
0
LINE
5
217
100
AcDbEntity
8
0
100
AcDbLine
62
7
6
CONTINUOUS
10
9.4846505176
20
74.3228262296
11
8.7982041129
21
73.9796030272
0
LINE
5
218
100
AcDbEntity
8
0
100
AcDbLine
62
7
6
CONTINUOUS
10
-145.0181811716
20
-2.9285896151
11
-145.7046275764
21
-3.2718128174
0
LINE
5
219
100
AcDbEntity
8
0
100
AcDbLine
62
9
6
CONTINUOUS
10
-145.6310028834
20
-3.4190622035
11
-144.5703427116
21
-2.8887321176
0
LINE
5
21A
100
AcDbEntity
8
0
100
AcDbLine
62
9
6
CONTINUOUS
10
9.9324889777
20
74.3626837270
11
8.8718288059
21
73.8323536412
0
LINE
5
21B
100
AcDbEntity
8
0
100
AcDbLine
62
7
6
CONTINUOUS
10
7.1502670908
20
69.6915232759
11
6.6199370049
21
69.4263582329
0
LINE
5
21C
100
AcDbEntity
8
0
100
AcDbLine
62
9
6
CONTINUOUS
10
-37.2206834286
20
-46.6994710891
11
-36.1600232568
21
-47.2298011750
0
LINE
5
21D
100
AcDbEntity
8
0
100
AcDbLine
62
9
6
CONTINUOUS
10
-34.3922563039
20
-41.8211559116
11
-33.3315961321
21
-42.3514859975
0
LINE
5
21E
100
AcDbEntity
8
0
100
AcDbLine
62
7
6
CONTINUOUS
10
-51.9376927865
20
-13.5428245647
11
-51.9376927865
21
-5.6428245647
0
LINE
5
21F
100
AcDbEntity
8
0
100
AcDbLine
62
9
6
CONTINUOUS
10
-50.4239842875
20
-22.7849601884
11
-50.4239842875
21
-24.0839982941
0
LINE
5
220
100
AcDbEntity
8
0
100
AcDbLine
62
9
6
CONTINUOUS
10
-25.3766448438
20
-38.3740103533
11
-26.4373050155
21
-37.8436802674
0
LINE
5
221
100
AcDbEntity
8
0
100
AcDbLine
62
7
6
CONTINUOUS
10
-26.4373050155
20
-36.6062434003
11
-45.3524114123
21
-27.1486902020
0
LINE
5
222
100
AcDbEntity
8
0
100
AcDbLine
62
7
6
CONTINUOUS
10
-25.3766448438
20
-36.0759133144
11
-44.2917512405
21
-26.6183601161
0
LINE
5
223
100
AcDbEntity
8
0
100
AcDbLine
62
9
6
CONTINUOUS
10
-43.1092656618
20
6.9135246214
11
-43.1092656618
21
5.6144865157
0
LINE
5
224
100
AcDbEntity
8
0
100
AcDbLine
62
7
6
CONTINUOUS
10
-37.2206834286
20
-68.9996252365
11
-37.2206834286
21
-46.6994710891
0
LINE
5
225
100
AcDbEntity
8
0
100
AcDbLine
62
7
6
CONTINUOUS
10
-36.1600232568
20
-69.5299553224
11
-36.1600232568
21
-47.2298011750
0
LINE
5
226
100
AcDbEntity
8
0
100
AcDbLine
62
9
6
CONTINUOUS
10
-34.6239842875
20
-22.7849601884
11
-34.6239842875
21
-24.0839982941
0
LINE
5
227
100
AcDbEntity
8
0
100
AcDbLine
62
9
6
CONTINUOUS
10
-33.4534215390
20
18.3424085771
11
-33.4534215390
21
19.6414466828
0
LINE
5
228
100
AcDbEntity
8
0
100
AcDbLine
62
7
6
CONTINUOUS
10
-45.3524114123
20
-27.1486902020
11
-145.6310028834
21
-3.4190622035
0
LINE
5
229
100
AcDbEntity
8
0
100
AcDbLine
62
7
6
CONTINUOUS
10
-44.2917512405
20
-26.6183601161
11
-144.5703427116
21
-2.8887321176
0
LINE
5
22A
100
AcDbEntity
8
0
100
AcDbLine
62
7
6
CONTINUOUS
10
-30.2818486638
20
7.0850974967
11
-30.2818486638
21
-0.8149025033
0
LINE
5
22B
100
AcDbEntity
8
0
100
AcDbLine
62
7
6
CONTINUOUS
10
-26.4818486638
20
-0.8149025033
11
-26.4818486638
21
7.0850974967
0
LINE
5
22C
100
AcDbEntity
8
0
100
AcDbLine
62
9
6
CONTINUOUS
10
-26.4373050155
20
-37.8436802674
11
-26.4373050155
21
-36.6062434003
0
LINE
5
22D
100
AcDbEntity
8
0
100
AcDbLine
62
9
6
CONTINUOUS
10
-25.3766448438
20
-67.6023677310
11
-25.3766448438
21
-38.3740103533
0
LINE
5
22E
100
AcDbEntity
8
0
100
AcDbLine
62
9
6
CONTINUOUS
10
-24.9681401648
20
-10.0570381271
11
-24.9681401648
21
-11.3560762327
0
LINE
5
22F
100
AcDbEntity
8
0
100
AcDbLine
62
7
6
CONTINUOUS
10
-24.4247418826
20
-37.2249618339
11
-24.4247418826
21
-66.4533192116
0
LINE
5
230
100
AcDbEntity
8
0
100
AcDbLine
62
9
6
CONTINUOUS
10
-24.3159846720
20
-65.7810265600
11
-24.3159846720
21
-64.4819884543
0
LINE
5
231
100
AcDbEntity
8
0
100
AcDbLine
62
9
6
CONTINUOUS
10
-22.5482177190
20
-65.3658719308
11
-22.5482177190
21
-66.6649100364
0
LINE
5
232
100
AcDbEntity
8
0
100
AcDbLine
62
7
6
CONTINUOUS
10
-21.7965672896
20
-22.6133873132
11
-21.7965672896
21
-30.5133873132
0
LINE
5
233
100
AcDbEntity
8
0
100
AcDbLine
62
7
6
CONTINUOUS
10
-50.4239842875
20
-24.6849601884
11
-34.6239842875
21
-24.6849601884
0
LINE
5
234
100
AcDbEntity
8
0
100
AcDbLine
62
7
6
CONTINUOUS
10
-34.6239842875
20
-24.0839982941
11
-50.4239842875
21
-24.0839982941
0
LINE
5
235
100
AcDbEntity
8
0
100
AcDbLine
62
7
6
CONTINUOUS
10
-34.6239842875
20
-22.7849601884
11
-50.4239842875
21
-22.7849601884
0
LINE
5
236
100
AcDbEntity
8
0
100
AcDbLine
62
9
6
CONTINUOUS
10
-18.3055770319
20
-64.1259673570
11
-18.3055770319
21
-62.8909981966
0
LINE
5
237
100
AcDbEntity
8
0
100
AcDbLine
62
9
6
CONTINUOUS
10
-18.3055770319
20
-65.3658719308
11
-18.3055770319
21
-66.6649100364
0
LINE
5
238
100
AcDbEntity
8
0
100
AcDbLine
62
7
6
CONTINUOUS
10
-17.9965672896
20
-30.5133873132
11
-17.9965672896
21
-22.6133873132
0
LINE
5
239
100
AcDbEntity
8
0
100
AcDbLine
62
9
6
CONTINUOUS
10
-17.6534215390
20
19.6414466828
11
-17.6534215390
21
18.3424085771
0
LINE
5
23A
100
AcDbEntity
8
0
100
AcDbLine
62
7
6
CONTINUOUS
10
-24.9681401648
20
-11.9570381271
11
-9.1681401648
21
-11.9570381271
0
LINE
5
23B
100
AcDbEntity
8
0
100
AcDbLine
62
7
6
CONTINUOUS
10
-9.1681401648
20
-11.3560762327
11
-24.9681401648
21
-11.3560762327
0
LINE
5
23C
100
AcDbEntity
8
0
100
AcDbLine
62
7
6
CONTINUOUS
10
-9.1681401648
20
-10.0570381271
11
-24.9681401648
21
-10.0570381271
0
LINE
5
23D
100
AcDbEntity
8
0
100
AcDbLine
62
9
6
CONTINUOUS
10
-9.1681401648
20
-10.0570381271
11
-9.1681401648
21
-11.3560762327
0
LINE
5
23E
100
AcDbEntity
8
0
100
AcDbLine
62
9
6
CONTINUOUS
10
-7.9975774163
20
31.0703306385
11
-7.9975774163
21
32.3693687441
0
LINE
5
23F
100
AcDbEntity
8
0
100
AcDbLine
62
7
6
CONTINUOUS
10
-4.8260045411
20
19.8130195580
11
-4.8260045411
21
11.9130195580
0
LINE
5
240
100
AcDbEntity
8
0
100
AcDbLine
62
7
6
CONTINUOUS
10
-1.0260045411
20
11.9130195580
11
-1.0260045411
21
19.8130195580
0
LINE
5
241
100
AcDbEntity
8
0
100
AcDbLine
62
7
6
CONTINUOUS
10
-84.3651097845
20
-7.7143974399
11
-68.5651097845
21
-7.7143974399
0
LINE
5
242
100
AcDbEntity
8
0
100
AcDbLine
62
7
6
CONTINUOUS
10
-68.5651097845
20
-7.1134355456
11
-84.3651097845
21
-7.1134355456
0
LINE
5
243
100
AcDbEntity
8
0
100
AcDbLine
62
7
6
CONTINUOUS
10
-68.5651097845
20
-5.8143974399
11
-84.3651097845
21
-5.8143974399
0
LINE
5
244
100
AcDbEntity
8
0
100
AcDbLine
62
7
6
CONTINUOUS
10
0.4877039579
20
0.7708839343
11
16.2877039579
21
0.7708839343
0
LINE
5
245
100
AcDbEntity
8
0
100
AcDbLine
62
7
6
CONTINUOUS
10
16.2877039579
20
1.3718458286
11
0.4877039579
21
1.3718458286
0
LINE
5
246
100
AcDbEntity
8
0
100
AcDbLine
62
7
6
CONTINUOUS
10
16.2877039579
20
2.6708839343
11
0.4877039579
21
2.6708839343
0
LINE
5
247
100
AcDbEntity
8
0
100
AcDbLine
62
9
6
CONTINUOUS
10
0.4877039579
20
2.6708839343
11
0.4877039579
21
1.3718458286
0
LINE
5
248
100
AcDbEntity
8
0
100
AcDbLine
62
9
6
CONTINUOUS
10
0.7863060602
20
67.7494473343
11
0.7863060602
21
68.9844164947
0
LINE
5
249
100
AcDbEntity
8
0
100
AcDbLine
62
7
6
CONTINUOUS
10
3.6592768332
20
-9.8854652518
11
3.6592768332
21
-17.7854652518
0
LINE
5
24A
100
AcDbEntity
8
0
100
AcDbLine
62
7
6
CONTINUOUS
10
7.4592768332
20
-17.7854652518
11
7.4592768332
21
-9.8854652518
0
LINE
5
24B
100
AcDbEntity
8
0
100
AcDbLine
62
9
6
CONTINUOUS
10
7.8024225837
20
32.3693687441
11
7.8024225837
21
31.0703306385
0
LINE
5
24C
100
AcDbEntity
8
0
100
AcDbLine
62
7
6
CONTINUOUS
10
8.0341505673
20
71.2159967688
11
8.0341505673
21
72.9811854431
0
LINE
5
24D
100
AcDbEntity
8
0
100
AcDbLine
62
7
6
CONTINUOUS
10
110.2110804488
20
50.6330557286
11
109.1504202770
21
50.1027256427
0
LINE
5
24E
100
AcDbEntity
8
0
100
AcDbLine
62
7
6
CONTINUOUS
10
-45.3524114123
20
-27.1486902020
11
-44.2917512405
21
-26.6183601161
0
LINE
5
24F
100
AcDbEntity
8
0
100
AcDbLine
62
7
6
CONTINUOUS
10
-58.9092656618
20
5.0135246214
11
-43.1092656618
21
5.0135246214
0
LINE
5
250
100
AcDbEntity
8
0
100
AcDbLine
62
7
6
CONTINUOUS
10
-43.1092656618
20
5.6144865157
11
-58.9092656618
21
5.6144865157
0
LINE
5
251
100
AcDbEntity
8
0
100
AcDbLine
62
7
6
CONTINUOUS
10
-43.1092656618
20
6.9135246214
11
-58.9092656618
21
6.9135246214
0
LINE
5
252
100
AcDbEntity
8
0
100
AcDbLine
62
7
6
CONTINUOUS
10
25.9435480806
20
13.4988059957
11
41.7435480806
21
13.4988059957
0
LINE
5
253
100
AcDbEntity
8
0
100
AcDbLine
62
9
6
CONTINUOUS
10
16.2877039579
20
2.6708839343
11
16.2877039579
21
1.3718458286
0
LINE
5
254
100
AcDbEntity
8
0
100
AcDbLine
62
9
6
CONTINUOUS
10
17.4582667064
20
43.7982526998
11
17.4582667064
21
45.0972908055
0
LINE
5
255
100
AcDbEntity
8
0
100
AcDbLine
62
7
6
CONTINUOUS
10
20.6298395816
20
32.5409416194
11
20.6298395816
21
24.6409416194
0
LINE
5
256
100
AcDbEntity
8
0
100
AcDbLine
62
9
6
CONTINUOUS
10
-25.3766448438
20
-36.0759133144
11
-26.4373050155
21
-36.6062434003
0
LINE
5
257
100
AcDbEntity
8
0
100
AcDbLine
62
9
6
CONTINUOUS
10
128.0655266737
20
40.6451724443
11
129.1261868455
21
41.1755025302
0
LINE
5
258
100
AcDbEntity
8
0
100
AcDbLine
62
7
6
CONTINUOUS
10
41.7435480806
20
14.0997678900
11
25.9435480806
21
14.0997678900
0
LINE
5
259
100
AcDbEntity
8
0
100
AcDbLine
62
7
6
CONTINUOUS
10
41.7435480806
20
15.3988059957
11
25.9435480806
21
15.3988059957
0
LINE
5
25A
100
AcDbEntity
8
0
100
AcDbLine
62
7
6
CONTINUOUS
10
-33.4534215390
20
17.7414466828
11
-17.6534215390
21
17.7414466828
0
LINE
5
25B
100
AcDbEntity
8
0
100
AcDbLine
62
7
6
CONTINUOUS
10
-17.6534215390
20
18.3424085771
11
-33.4534215390
21
18.3424085771
0
LINE
5
25C
100
AcDbEntity
8
0
100
AcDbLine
62
7
6
CONTINUOUS
10
-17.6534215390
20
19.6414466828
11
-33.4534215390
21
19.6414466828
0
LINE
5
25D
100
AcDbEntity
8
0
100
AcDbLine
62
7
6
CONTINUOUS
10
24.4298395816
20
24.6409416194
11
24.4298395816
21
32.5409416194
0
LINE
5
25E
100
AcDbEntity
8
0
100
AcDbLine
62
9
6
CONTINUOUS
10
25.9435480806
20
15.3988059957
11
25.9435480806
21
14.0997678900
0
LINE
5
25F
100
AcDbEntity
8
0
100
AcDbLine
62
7
6
CONTINUOUS
10
29.1151209559
20
2.8424568096
11
29.1151209559
21
-5.0575431904
0
LINE
5
260
100
AcDbEntity
8
0
100
AcDbLine
62
7
6
CONTINUOUS
10
139.5560118680
20
45.1529781744
11
131.6010605797
21
41.1755025302
0
LINE
5
261
100
AcDbEntity
8
0
100
AcDbLine
62
7
6
CONTINUOUS
10
-26.4373050155
20
-37.8436802674
11
-34.3922563039
21
-41.8211559116
0
LINE
5
262
100
AcDbEntity
8
0
100
AcDbLine
62
7
6
CONTINUOUS
10
140.6166720398
20
44.6226480885
11
132.6617207514
21
40.6451724443
0
LINE
5
263
100
AcDbEntity
8
0
100
AcDbLine
62
7
6
CONTINUOUS
10
-25.3766448438
20
-38.3740103533
11
-33.3315961321
21
-42.3514859975
0
LINE
5
264
100
AcDbEntity
8
0
100
AcDbLine
62
7
6
CONTINUOUS
10
51.3993922033
20
26.2267280570
11
67.1993922033
21
26.2267280570
0
LINE
5
265
100
AcDbEntity
8
0
100
AcDbLine
62
7
6
CONTINUOUS
10
67.1993922033
20
26.8276899513
11
51.3993922033
21
26.8276899513
0
LINE
5
266
100
AcDbEntity
8
0
100
AcDbLine
62
7
6
CONTINUOUS
10
67.1993922033
20
28.1267280570
11
51.3993922033
21
28.1267280570
0
LINE
5
267
100
AcDbEntity
8
0
100
AcDbLine
62
7
6
CONTINUOUS
10
-7.9975774163
20
30.4693687441
11
7.8024225837
21
30.4693687441
0
LINE
5
268
100
AcDbEntity
8
0
100
AcDbLine
62
7
6
CONTINUOUS
10
7.8024225837
20
31.0703306385
11
-7.9975774163
21
31.0703306385
0
LINE
5
269
100
AcDbEntity
8
0
100
AcDbLine
62
7
6
CONTINUOUS
10
7.8024225837
20
32.3693687441
11
-7.9975774163
21
32.3693687441
0
LINE
5
26A
100
AcDbEntity
8
0
100
AcDbLine
62
7
6
CONTINUOUS
10
32.9151209559
20
-5.0575431904
11
32.9151209559
21
2.8424568096
0
LINE
5
26B
100
AcDbEntity
8
0
100
AcDbLine
62
9
6
CONTINUOUS
10
33.2582667064
20
45.0972908055
11
33.2582667064
21
43.7982526998
0
LINE
5
26C
100
AcDbEntity
8
0
100
AcDbLine
62
9
6
CONTINUOUS
10
41.7435480806
20
15.3988059957
11
41.7435480806
21
14.0997678900
0
LINE
5
26D
100
AcDbEntity
8
0
100
AcDbLine
62
7
6
CONTINUOUS
10
-30.6799457027
20
-52.5437986531
11
-28.2050719685
21
-51.3063617860
0
LINE
5
26E
100
AcDbEntity
8
0
100
AcDbLine
62
7
6
CONTINUOUS
10
135.4901478762
20
30.5412481363
11
137.9650216103
21
31.7786850034
0
LINE
5
26F
100
AcDbEntity
8
0
100
AcDbLine
62
7
6
CONTINUOUS
10
136.9043614386
20
26.2468372628
11
134.4294877044
21
25.0094003957
0
LINE
5
270
100
AcDbEntity
8
0
100
AcDbLine
62
7
6
CONTINUOUS
10
-29.2657321403
20
-56.8382095266
11
-31.7406058744
21
-58.0756463937
0
LINE
5
271
100
AcDbEntity
8
0
100
AcDbLine
62
7
6
CONTINUOUS
10
137.9650216103
20
25.7165071769
11
135.4901478762
21
24.4790703098
0
LINE
5
272
100
AcDbEntity
8
0
100
AcDbLine
62
7
6
CONTINUOUS
10
-28.2050719685
20
-57.3685396125
11
-30.6799457027
21
-58.6059764796
0
LINE
5
273
100
AcDbEntity
8
0
100
AcDbLine
62
7
6
CONTINUOUS
10
17.4582667064
20
43.1972908055
11
33.2582667064
21
43.1972908055
0
LINE
5
274
100
AcDbEntity
8
0
100
AcDbLine
62
7
6
CONTINUOUS
10
33.2582667064
20
43.7982526998
11
17.4582667064
21
43.7982526998
0
LINE
5
275
100
AcDbEntity
8
0
100
AcDbLine
62
7
6
CONTINUOUS
10
33.2582667064
20
45.0972908055
11
17.4582667064
21
45.0972908055
0
LINE
5
276
100
AcDbEntity
8
0
100
AcDbLine
62
9
6
CONTINUOUS
10
51.3993922033
20
28.1267280570
11
51.3993922033
21
26.8276899513
0
LINE
5
277
100
AcDbEntity
8
0
100
AcDbLine
62
9
6
CONTINUOUS
10
125.5680110903
20
12.6465026236
11
125.4138762443
21
12.5694352005
0
LINE
5
278
100
AcDbEntity
8
0
100
AcDbLine
62
9
6
CONTINUOUS
10
125.5853315984
20
12.6118616074
11
125.4138762443
21
12.5261339304
0
LINE
5
279
100
AcDbEntity
8
0
100
AcDbLine
62
7
6
CONTINUOUS
10
124.5299927678
20
11.0016604374
11
123.8228859866
21
10.6481070468
0
LINE
5
27A
100
AcDbEntity
8
0
100
AcDbLine
62
7
6
CONTINUOUS
10
124.5299927678
20
9.7026223317
11
124.0612639205
21
9.4682579081
0
LINE
5
27B
100
AcDbEntity
8
0
100
AcDbLine
62
7
6
CONTINUOUS
10
140.6166720398
20
15.3942907107
11
132.6617207514
21
11.4168150666
0
LINE
5
27C
100
AcDbEntity
8
0
100
AcDbLine
62
7
6
CONTINUOUS
10
-25.3766448438
20
-67.6023677310
11
-33.3315961321
21
-71.5798433752
0
LINE
5
27D
100
AcDbEntity
8
0
100
AcDbLine
62
7
6
CONTINUOUS
10
-18.3055770319
20
-65.3658719308
11
125.5906529396
21
6.5822430550
0
LINE
5
27E
100
AcDbEntity
8
0
100
AcDbLine
62
7
6
CONTINUOUS
10
-18.3055770319
20
-66.6649100364
11
125.5906529396
21
5.2832049493
0
LINE
5
27F
100
AcDbEntity
8
0
100
AcDbLine
62
7
6
CONTINUOUS
10
54.5709650786
20
15.5703788709
11
54.5709650786
21
7.6703788709
0
LINE
5
280
100
AcDbEntity
8
0
100
AcDbLine
62
7
6
CONTINUOUS
10
58.3709650786
20
7.6703788709
11
58.3709650786
21
15.5703788709
0
LINE
5
281
100
AcDbEntity
8
0
100
AcDbLine
62
7
6
CONTINUOUS
10
125.5906529396
20
8.7035633985
11
123.8228859866
21
9.5874468750
0
LINE
5
282
100
AcDbEntity
8
0
100
AcDbLine
62
7
6
CONTINUOUS
10
2.5540730131
20
70.2218533618
11
4.1450632708
21
69.4263582329
0
LINE
5
283
100
AcDbEntity
8
0
100
AcDbLine
62
9
6
CONTINUOUS
10
124.5299927678
20
11.0016604374
11
7.1502670908
21
69.6915232759
0
LINE
5
284
100
AcDbEntity
8
0
100
AcDbLine
62
9
6
CONTINUOUS
10
67.1993922033
20
28.1267280570
11
67.1993922033
21
26.8276899513
0
LINE
5
285
100
AcDbEntity
8
0
100
AcDbLine
62
7
6
CONTINUOUS
10
109.1504202770
20
50.1027256427
11
8.8718288059
21
73.8323536412
0
LINE
5
286
100
AcDbEntity
8
0
100
AcDbLine
62
7
6
CONTINUOUS
10
110.2110804488
20
50.6330557286
11
9.9324889777
21
74.3626837270
0
LINE
5
287
100
AcDbEntity
8
0
100
AcDbLine
62
9
6
CONTINUOUS
10
125.4138762443
20
12.5261339304
11
8.0341505673
21
71.2159967688
0
LINE
5
288
100
AcDbEntity
8
0
100
AcDbLine
62
7
6
CONTINUOUS
10
128.0655266737
20
11.4168150666
11
125.5552976005
21
12.6719296032
0
LINE
5
289
100
AcDbEntity
8
0
100
AcDbLine
62
9
6
CONTINUOUS
10
135.4901478762
20
24.4790703098
11
134.4294877044
21
25.0094003957
0
LINE
5
28A
100
AcDbEntity
8
0
100
AcDbLine
62
9
6
CONTINUOUS
10
137.9650216103
20
25.7165071769
11
136.9043614386
21
26.2468372628
0
LINE
5
28B
100
AcDbEntity
8
0
100
AcDbLine
62
7
6
CONTINUOUS
10
128.0655266737
20
40.6451724443
11
109.1504202770
21
50.1027256427
0
LINE
5
28C
100
AcDbEntity
8
0
100
AcDbLine
62
7
6
CONTINUOUS
10
129.1261868455
20
41.1755025302
11
110.2110804488
21
50.6330557286
0
LINE
5
28D
100
AcDbEntity
8
0
100
AcDbLine
62
9
6
CONTINUOUS
10
132.6617207514
20
40.6451724443
11
131.6010605797
21
41.1755025302
0
LINE
5
28E
100
AcDbEntity
8
0
100
AcDbLine
62
9
6
CONTINUOUS
10
139.5560118680
20
45.1529781744
11
140.6166720398
21
44.6226480885
0
LINE
5
28F
100
AcDbEntity
8
0
100
AcDbLine
62
7
6
CONTINUOUS
10
141.3448662500
20
45.2665853232
11
142.4055264218
21
44.7362552373
0
LINE
5
290
100
AcDbEntity
8
0
100
AcDbLine
62
9
6
CONTINUOUS
10
123.1157792054
20
6.5847107617
11
123.1157792054
21
7.8196799220
0
LINE
5
291
100
AcDbEntity
8
0
100
AcDbLine
62
9
6
CONTINUOUS
10
123.8228859866
20
9.5874468750
11
123.8228859866
21
10.6481070468
0
LINE
5
292
100
AcDbEntity
8
0
100
AcDbLine
62
9
6
CONTINUOUS
10
124.5299927678
20
9.7026223317
11
124.5299927678
21
11.0016604374
0
LINE
5
293
100
AcDbEntity
8
0
100
AcDbLine
62
7
6
CONTINUOUS
10
125.4138762443
20
12.5261339304
11
125.4138762443
21
12.5694352005
0
LINE
5
294
100
AcDbEntity
8
0
100
AcDbLine
62
9
6
CONTINUOUS
10
125.5906529396
20
6.5822430550
11
125.5906529396
21
5.2832049493
0
LINE
5
295
100
AcDbEntity
8
0
100
AcDbLine
62
7
6
CONTINUOUS
10
126.4693325960
20
7.6429032267
11
126.4693325960
21
6.3438651211
0
LINE
5
296
100
AcDbEntity
8
0
100
AcDbLine
62
9
6
CONTINUOUS
10
128.0655266737
20
11.4168150666
11
128.0655266737
21
40.6451724443
0
LINE
5
297
100
AcDbEntity
8
0
100
AcDbLine
62
9
6
CONTINUOUS
10
132.6617207514
20
11.4168150666
11
132.6617207514
21
40.6451724443
0
LINE
5
298
100
AcDbEntity
8
0
100
AcDbLine
62
7
6
CONTINUOUS
10
143.4450991645
20
20.2726058883
11
143.4450991645
21
42.5727600357
0
SPLINE
5
299
100
AcDbEntity
8
0
100
AcDbSpline
62
7
6
CONTINUOUS
70
0
71
3
72
12
73
8
74
6
42
0.0000001000
43
0.0000001000
44
0.0000000001
12
0.0000810949
22
-2.3383275930
32
0.0000000000
13
-2.2894657198
23
-0.0000000000
33
0.0000000000
40
0.0000000000
40
0.0000000000
40
0.0000000000
40
0.0000000000
40
0.0709890745
40
0.2350832755
40
0.4489404468
40
0.7138033899
40
1.0000000000
40
1.0000000000
40
1.0000000000
40
1.0000000000
10
-32.7267117284
20
-23.7350151876
30
0.0000000000
10
-32.7267098094
20
-23.7903470915
30
0.0000000000
10
-32.7546321816
20
-23.9735667627
30
0.0000000000
10
-32.9847966525
20
-24.2511469449
30
0.0000000000
10
-33.4169268528
20
-24.4923951084
30
0.0000000000
10
-33.9841827183
20
-24.6494755906
30
0.0000000000
10
-34.4055718449
20
-24.6849601884
30
0.0000000000
10
-34.6239842875
20
-24.6849601884
30
0.0000000000
11
-32.7267117284
21
-23.7350151876
31
0.0000000000
11
-32.7520176158
21
-23.8975492254
31
0.0000000000
11
-32.9706519922
21
-24.2030660315
31
0.0000000000
11
-33.3892632239
21
-24.4570169547
31
0.0000000000
11
-33.9713022325
21
-24.6271493689
31
0.0000000000
11
-34.6239842875
21
-24.6849601884
31
0.0000000000
0
SPLINE
5
29A
100
AcDbEntity
8
0
100
AcDbSpline
62
7
6
CONTINUOUS
70
0
71
3
72
12
73
8
74
6
42
0.0000001000
43
0.0000001000
44
0.0000000001
12
0.0000810949
22
-2.3383275930
32
0.0000000000
13
-2.2894657198
23
0.0000000000
33
0.0000000000
40
0.0000000000
40
0.0000000000
40
0.0000000000
40
0.0000000000
40
0.0709890745
40
0.2350832755
40
0.4489404468
40
0.7138033899
40
1.0000000000
40
1.0000000000
40
1.0000000000
40
1.0000000000
10
-66.6678372253
20
-6.7644524391
30
0.0000000000
10
-66.6678353064
20
-6.8197843430
30
0.0000000000
10
-66.6957576785
20
-7.0030040142
30
0.0000000000
10
-66.9259221494
20
-7.2805841964
30
0.0000000000
10
-67.3580523498
20
-7.5218323600
30
0.0000000000
10
-67.9253082152
20
-7.6789128421
30
0.0000000000
10
-68.3466973419
20
-7.7143974399
30
0.0000000000
10
-68.5651097845
20
-7.7143974399
30
0.0000000000
11
-66.6678372253
21
-6.7644524391
31
0.0000000000
11
-66.6931431127
21
-6.9269864769
31
0.0000000000
11
-66.9117774892
21
-7.2325032830
31
0.0000000000
11
-67.3303887208
21
-7.4864542062
31
0.0000000000
11
-67.9124277294
21
-7.6565866204
31
0.0000000000
11
-68.5651097845
21
-7.7143974399
31
0.0000000000
0
SPLINE
5
29B
100
AcDbEntity
8
0
100
AcDbSpline
62
7
6
CONTINUOUS
70
0
71
3
72
16
73
12
74
10
42
0.0000001000
43
0.0000001000
44
0.0000000001
12
0.0000000000
22
-4.5784335911
32
0.0000000000
13
-0.0000000000
23
4.5784335911
33
0.0000000000
40
0.0000000000
40
0.0000000000
40
0.0000000000
40
0.0000000000
40
0.0756491854
40
0.1731864826
40
0.2927012632
40
0.4284651843
40
0.5708809620
40
0.7065903600
40
0.8265874258
40
0.9243801356
40
1.0000000000
40
1.0000000000
40
1.0000000000
40
1.0000000000
10
-17.9965672896
20
-30.5133873132
30
0.0000000000
10
-17.9965672896
20
-30.6288389036
30
0.0000000000
10
-18.1056191810
20
-30.8923662391
30
0.0000000000
10
-18.4709521760
20
-31.1675319716
30
0.0000000000
10
-18.9759181640
20
-31.3651524789
30
0.0000000000
10
-19.5778486977
20
-31.4679782416
30
0.0000000000
10
-20.2121840456
20
-31.4682242022
30
0.0000000000
10
-20.8148381685
20
-31.3658235203
30
0.0000000000
10
-21.3209864832
20
-31.1683329145
30
0.0000000000
10
-21.6874123659
20
-30.8926644945
30
0.0000000000
10
-21.7965672896
20
-30.6287941555
30
0.0000000000
10
-21.7965672896
20
-30.5133873132
30
0.0000000000
11
-17.9965672896
21
-30.5133873132
31
0.0000000000
11
-18.1122733063
21
-30.8398436584
31
0.0000000000
11
-18.4515465962
21
-31.1302169484
31
0.0000000000
11
-18.9572669682
21
-31.3391770725
31
0.0000000000
11
-19.5690444272
21
-31.4491662366
31
0.0000000000
11
-20.2210855554
21
-31.4494278966
31
0.0000000000
11
-20.8327224862
21
-31.3400694540
31
0.0000000000
11
-21.3406821002
21
-31.1307470976
31
0.0000000000
11
-21.6809440271
21
-30.8397305598
31
0.0000000000
11
-21.7965672896
21
-30.5133873132
31
0.0000000000
0
SPLINE
5
29C
100
AcDbEntity
8
0
100
AcDbSpline
62
7
6
CONTINUOUS
70
0
71
3
72
12
73
8
74
6
42
0.0000001000
43
0.0000001000
44
0.0000000001
12
0.0004523004
22
-2.3383630267
32
0.0000000000
13
-2.2894945421
23
0.0000000000
33
0.0000000000
40
0.0000000000
40
0.0000000000
40
0.0000000000
40
0.0000000000
40
0.0708542986
40
0.2350745614
40
0.4489480869
40
0.7138050306
40
1.0000000000
40
1.0000000000
40
1.0000000000
40
1.0000000000
10
-7.2708683531
20
-11.0070621663
30
0.0000000000
10
-7.2708576707
20
-11.0622898571
30
0.0000000000
10
-7.2986973795
20
-11.2454989889
30
0.0000000000
10
-7.5288457945
20
-11.5231742875
30
0.0000000000
10
-7.9610671309
20
-11.7644642414
30
0.0000000000
10
-8.5283380011
20
-11.9215548674
30
0.0000000000
10
-8.9497262247
20
-11.9570381271
30
0.0000000000
10
-9.1681401648
20
-11.9570381271
30
0.0000000000
11
-7.2708683531
21
-11.0070621663
31
0.0000000000
11
-7.2960589980
21
-11.1692972600
31
0.0000000000
11
-7.5147758832
21
-11.4751157254
31
0.0000000000
11
-7.9334205959
21
-11.7290955324
31
0.0000000000
11
-8.5154536716
21
-11.8992264958
31
0.0000000000
11
-9.1681401648
21
-11.9570381271
31
0.0000000000
0
SPLINE
5
29D
100
AcDbEntity
8
0
100
AcDbSpline
62
7
6
CONTINUOUS
70
0
71
3
72
16
73
12
74
10
42
0.0000001000
43
0.0000001000
44
0.0000000001
12
0.0000000000
22
-4.5784335911
32
0.0000000000
13
0.0000000000
23
4.5784335911
33
0.0000000000
40
0.0000000000
40
0.0000000000
40
0.0000000000
40
0.0000000000
40
0.0756491854
40
0.1731864826
40
0.2927012632
40
0.4284651843
40
0.5708809620
40
0.7065903600
40
0.8265874258
40
0.9243801356
40
1.0000000000
40
1.0000000000
40
1.0000000000
40
1.0000000000
10
-51.9376927865
20
-13.5428245647
30
0.0000000000
10
-51.9376927865
20
-13.6582761551
30
0.0000000000
10
-52.0467446779
20
-13.9218034906
30
0.0000000000
10
-52.4120776730
20
-14.1969692231
30
0.0000000000
10
-52.9170436609
20
-14.3945897304
30
0.0000000000
10
-53.5189741947
20
-14.4974154932
30
0.0000000000
10
-54.1533095425
20
-14.4976614537
30
0.0000000000
10
-54.7559636654
20
-14.3952607718
30
0.0000000000
10
-55.2621119802
20
-14.1977701661
30
0.0000000000
10
-55.6285378628
20
-13.9221017460
30
0.0000000000
10
-55.7376927865
20
-13.6582314071
30
0.0000000000
10
-55.7376927865
20
-13.5428245647
30
0.0000000000
11
-51.9376927865
21
-13.5428245647
31
0.0000000000
11
-52.0533988032
21
-13.8692809099
31
0.0000000000
11
-52.3926720931
21
-14.1596541999
31
0.0000000000
11
-52.8983924651
21
-14.3686143240
31
0.0000000000
11
-53.5101699241
21
-14.4786034882
31
0.0000000000
11
-54.1622110524
21
-14.4788651481
31
0.0000000000
11
-54.7738479832
21
-14.3695067055
31
0.0000000000
11
-55.2818075971
21
-14.1601843491
31
0.0000000000
11
-55.6220695241
21
-13.8691678113
31
0.0000000000
11
-55.7376927865
21
-13.5428245647
31
0.0000000000
0
SPLINE
5
29E
100
AcDbEntity
8
0
100
AcDbSpline
62
7
6
CONTINUOUS
70
0
71
3
72
12
73
8
74
6
42
0.0000001000
43
0.0000001000
44
0.0000000001
12
0.0004523004
22
-2.3383630267
32
0.0000000000
13
-2.2894945421
23
0.0000000000
33
0.0000000000
40
0.0000000000
40
0.0000000000
40
0.0000000000
40
0.0000000000
40
0.0708542986
40
0.2350745614
40
0.4489480869
40
0.7138050306
40
1.0000000000
40
1.0000000000
40
1.0000000000
40
1.0000000000
10
-41.2119938501
20
5.9635005822
30
0.0000000000
10
-41.2119831676
20
5.9082728914
30
0.0000000000
10
-41.2398228765
20
5.7250637596
30
0.0000000000
10
-41.4699712915
20
5.4473884609
30
0.0000000000
10
-41.9021926278
20
5.2060985070
30
0.0000000000
10
-42.4694634981
20
5.0490078811
30
0.0000000000
10
-42.8908517216
20
5.0135246214
30
0.0000000000
10
-43.1092656618
20
5.0135246214
30
0.0000000000
11
-41.2119938501
21
5.9635005822
31
0.0000000000
11
-41.2371844950
21
5.8012654885
31
0.0000000000
11
-41.4559013801
21
5.4954470231
31
0.0000000000
11
-41.8745460929
21
5.2414672161
31
0.0000000000
11
-42.4565791685
21
5.0713362526
31
0.0000000000
11
-43.1092656618
21
5.0135246214
31
0.0000000000
0
SPLINE
5
29F
100
AcDbEntity
8
0
100
AcDbSpline
62
7
6
CONTINUOUS
70
0
71
3
72
16
73
12
74
10
42
0.0000001000
43
0.0000001000
44
0.0000000001
12
-0.0000000000
22
-4.5784337703
32
0.0000000000
13
-0.0000000000
23
4.5784337703
33
0.0000000000
40
0.0000000000
40
0.0000000000
40
0.0000000000
40
0.0000000000
40
0.0756486027
40
0.1731831386
40
0.2927096138
40
0.4286218318
40
0.5710250122
40
0.7066031027
40
0.8265871051
40
0.9243807139
40
1.0000000000
40
1.0000000000
40
1.0000000000
40
1.0000000000
10
7.4592768332
20
-17.7854652518
30
0.0000000000
10
7.4592768332
20
-17.9009159575
30
0.0000000000
10
7.3502279934
20
-18.1644383807
30
0.0000000000
10
6.9848875557
20
-18.4396153009
30
0.0000000000
10
6.4796938542
20
-18.6373194741
30
0.0000000000
10
5.8775198048
20
-18.7401107140
30
0.0000000000
10
5.2431784963
20
-18.7402461511
30
0.0000000000
10
4.6407803364
20
-18.6378172078
30
0.0000000000
10
4.1348414803
20
-18.4403987725
30
0.0000000000
10
3.7684310895
20
-18.1647421447
30
0.0000000000
10
3.6592768332
20
-17.9008712162
30
0.0000000000
10
3.6592768332
20
-17.7854652518
30
0.0000000000
11
7.4592768332
21
-17.7854652518
31
0.0000000000
11
7.3435724528
21
-18.1119193611
31
0.0000000000
11
7.0043109606
21
-18.4022870191
31
0.0000000000
11
6.4985402223
21
-18.6112655130
31
0.0000000000
11
5.8860822738
21
-18.7213068789
31
0.0000000000
11
5.2340987592
21
-18.7214485877
31
0.0000000000
11
4.6230651470
21
-18.6121313995
31
0.0000000000
11
4.1151633006
21
-18.4028257836
31
0.0000000000
11
3.7748984722
21
-18.1118062793
31
0.0000000000
11
3.6592768332
21
-17.7854652518
31
0.0000000000
0
SPLINE
5
2A0
100
AcDbEntity
8
0
100
AcDbSpline
62
7
6
CONTINUOUS
70
0
71
3
72
12
73
8
74
6
42
0.0000001000
43
0.0000001000
44
0.0000000001
12
0.0004523004
22
-2.3383630267
32
0.0000000000
13
-2.2894945421
23
-0.0000000000
33
0.0000000000
40
0.0000000000
40
0.0000000000
40
0.0000000000
40
0.0000000000
40
0.0708542986
40
0.2350745614
40
0.4489480869
40
0.7138050306
40
1.0000000000
40
1.0000000000
40
1.0000000000
40
1.0000000000
10
18.1849757696
20
1.7208598950
30
0.0000000000
10
18.1849864521
20
1.6656322043
30
0.0000000000
10
18.1571467432
20
1.4824230725
30
0.0000000000
10
17.9269983282
20
1.2047477738
30
0.0000000000
10
17.4947769919
20
0.9634578199
30
0.0000000000
10
16.9275061216
20
0.8063671940
30
0.0000000000
10
16.5061178980
20
0.7708839343
30
0.0000000000
10
16.2877039579
20
0.7708839343
30
0.0000000000
11
18.1849757696
21
1.7208598950
31
0.0000000000
11
18.1597851247
21
1.5586248014
31
0.0000000000
11
17.9410682395
21
1.2528063360
31
0.0000000000
11
17.5224235268
21
0.9988265290
31
0.0000000000
11
16.9403904511
21
0.8286955655
31
0.0000000000
11
16.2877039579
21
0.7708839343
31
0.0000000000
0
SPLINE
5
2A1
100
AcDbEntity
8
0
100
AcDbSpline
62
7
6
CONTINUOUS
70
0
71
3
72
12
73
8
74
6
42
0.0000001000
43
0.0000001000
44
0.0000000001
12
0.0004523004
22
-2.3383630267
32
0.0000000000
13
-2.2894945421
23
0.0000000000
33
0.0000000000
40
0.0000000000
40
0.0000000000
40
0.0000000000
40
0.0000000000
40
0.0708542986
40
0.2350745614
40
0.4489480869
40
0.7138050306
40
1.0000000000
40
1.0000000000
40
1.0000000000
40
1.0000000000
10
-15.7561497274
20
18.6914226435
30
0.0000000000
10
-15.7561390449
20
18.6361949528
30
0.0000000000
10
-15.7839787538
20
18.4529858210
30
0.0000000000
10
-16.0141271688
20
18.1753105223
30
0.0000000000
10
-16.4463485051
20
17.9340205684
30
0.0000000000
10
-17.0136193754
20
17.7769299425
30
0.0000000000
10
-17.4350075989
20
17.7414466828
30
0.0000000000
10
-17.6534215390
20
17.7414466828
30
0.0000000000
11
-15.7561497274
21
18.6914226435
31
0.0000000000
11
-15.7813403722
21
18.5291875499
31
0.0000000000
11
-16.0000572574
21
18.2233690845
31
0.0000000000
11
-16.4187019702
21
17.9693892775
31
0.0000000000
11
-17.0007350458
21
17.7992583140
31
0.0000000000
11
-17.6534215390
21
17.7414466828
31
0.0000000000
0
SPLINE
5
2A2
100
AcDbEntity
8
0
100
AcDbSpline
62
7
6
CONTINUOUS
70
0
71
3
72
16
73
12
74
10
42
0.0000001000
43
0.0000001000
44
0.0000000001
12
0.0000000000
22
-4.5784337703
32
0.0000000000
13
0.0000000000
23
4.5784337703
33
0.0000000000
40
0.0000000000
40
0.0000000000
40
0.0000000000
40
0.0000000000
40
0.0756486027
40
0.1731831386
40
0.2927096138
40
0.4286218318
40
0.5710250122
40
0.7066031027
40
0.8265871051
40
0.9243807139
40
1.0000000000
40
1.0000000000
40
1.0000000000
40
1.0000000000
10
32.9151209559
20
-5.0575431904
30
0.0000000000
10
32.9151209559
20
-5.1729938962
30
0.0000000000
10
32.8060721161
20
-5.4365163194
30
0.0000000000
10
32.4407316784
20
-5.7116932396
30
0.0000000000
10
31.9355379769
20
-5.9093974128
30
0.0000000000
10
31.3333639276
20
-6.0121886526
30
0.0000000000
10
30.6990226190
20
-6.0123240897
30
0.0000000000
10
30.0966244592
20
-5.9098951464
30
0.0000000000
10
29.5906856030
20
-5.7124767111
30
0.0000000000
10
29.2242752122
20
-5.4368200834
30
0.0000000000
10
29.1151209559
20
-5.1729491549
30
0.0000000000
10
29.1151209559
20
-5.0575431904
30
0.0000000000
11
32.9151209559
21
-5.0575431904
31
0.0000000000
11
32.7994165755
21
-5.3839972997
31
0.0000000000
11
32.4601550833
21
-5.6743649578
31
0.0000000000
11
31.9543843450
21
-5.8833434517
31
0.0000000000
11
31.3419263965
21
-5.9933848175
31
0.0000000000
11
30.6899428819
21
-5.9935265263
31
0.0000000000
11
30.0789092698
21
-5.8842093381
31
0.0000000000
11
29.5710074233
21
-5.6749037223
31
0.0000000000
11
29.2307425949
21
-5.3838842180
31
0.0000000000
11
29.1151209559
21
-5.0575431904
31
0.0000000000
0
SPLINE
5
2A3
100
AcDbEntity
8
0
100
AcDbSpline
62
7
6
CONTINUOUS
70
0
71
3
72
12
73
8
74
6
42
0.0000001000
43
0.0000001000
44
0.0000000001
12
0.0000810949
22
-2.3383275930
32
0.0000000000
13
-2.2894657198
23
-0.0000000000
33
0.0000000000
40
0.0000000000
40
0.0000000000
40
0.0000000000
40
0.0000000000
40
0.0709890745
40
0.2350832755
40
0.4489404468
40
0.7138033899
40
1.0000000000
40
1.0000000000
40
1.0000000000
40
1.0000000000
10
43.6408206398
20
14.4487509965
30
0.0000000000
10
43.6408225587
20
14.3934190925
30
0.0000000000
10
43.6129001866
20
14.2101994214
30
0.0000000000
10
43.3827357157
20
13.9326192392
30
0.0000000000
10
42.9506055153
20
13.6913710756
30
0.0000000000
10
42.3833496499
20
13.5342905935
30
0.0000000000
10
41.9619605232
20
13.4988059957
30
0.0000000000
10
41.7435480806
20
13.4988059957
30
0.0000000000
11
43.6408206398
21
14.4487509965
31
0.0000000000
11
43.6155147524
21
14.2862169587
31
0.0000000000
11
43.3968803759
21
13.9807001526
31
0.0000000000
11
42.9782691443
21
13.7267492294
31
0.0000000000
11
42.3962301357
21
13.5566168152
31
0.0000000000
11
41.7435480806
21
13.4988059957
31
0.0000000000
0
SPLINE
5
2A4
100
AcDbEntity
8
0
100
AcDbSpline
62
7
6
CONTINUOUS
70
0
71
3
72
12
73
8
74
6
42
0.0000001000
43
0.0000001000
44
0.0000000001
12
0.0000810949
22
-2.3383275930
32
0.0000000000
13
-2.2894657198
23
0.0000000000
33
0.0000000000
40
0.0000000000
40
0.0000000000
40
0.0000000000
40
0.0000000000
40
0.0709890745
40
0.2350832755
40
0.4489404468
40
0.7138033899
40
1.0000000000
40
1.0000000000
40
1.0000000000
40
1.0000000000
10
9.6996951428
20
31.4193137450
30
0.0000000000
10
9.6996970618
20
31.3639818410
30
0.0000000000
10
9.6717746896
20
31.1807621699
30
0.0000000000
10
9.4416102187
20
30.9031819877
30
0.0000000000
10
9.0094800184
20
30.6619338241
30
0.0000000000
10
8.4422241529
20
30.5048533419
30
0.0000000000
10
8.0208350263
20
30.4693687441
30
0.0000000000
10
7.8024225837
20
30.4693687441
30
0.0000000000
11
9.6996951428
21
31.4193137450
31
0.0000000000
11
9.6743892554
21
31.2567797072
31
0.0000000000
11
9.4557548790
21
30.9512629011
31
0.0000000000
11
9.0371436473
21
30.6973119778
31
0.0000000000
11
8.4551046387
21
30.5271795637
31
0.0000000000
11
7.8024225837
21
30.4693687441
31
0.0000000000
0
SPLINE
5
2A5
100
AcDbEntity
8
0
100
AcDbSpline
62
7
6
CONTINUOUS
70
0
71
3
72
16
73
12
74
10
42
0.0000001000
43
0.0000001000
44
0.0000000001
12
0.0000000000
22
-4.5784335911
32
0.0000000000
13
0.0000000000
23
4.5784335911
33
0.0000000000
40
0.0000000000
40
0.0000000000
40
0.0000000000
40
0.0000000000
40
0.0756491854
40
0.1731864826
40
0.2927012632
40
0.4284651843
40
0.5708809620
40
0.7065903600
40
0.8265874258
40
0.9243801356
40
1.0000000000
40
1.0000000000
40
1.0000000000
40
1.0000000000
10
58.3709650786
20
7.6703788709
30
0.0000000000
10
58.3709650786
20
7.5549272805
30
0.0000000000
10
58.2619131872
20
7.2913999450
30
0.0000000000
10
57.8965801921
20
7.0162342125
30
0.0000000000
10
57.3916142042
20
6.8186137052
30
0.0000000000
10
56.7896836704
20
6.7157879424
30
0.0000000000
10
56.1553483226
20
6.7155419819
30
0.0000000000
10
55.5526941997
20
6.8179426638
30
0.0000000000
10
55.0465458849
20
7.0154332695
30
0.0000000000
10
54.6801200023
20
7.2911016896
30
0.0000000000
10
54.5709650786
20
7.5549720285
30
0.0000000000
10
54.5709650786
20
7.6703788709
30
0.0000000000
11
58.3709650786
21
7.6703788709
31
0.0000000000
11
58.2552590619
21
7.3439225257
31
0.0000000000
11
57.9159857720
21
7.0535492357
31
0.0000000000
11
57.4102654000
21
6.8445891116
31
0.0000000000
11
56.7984879410
21
6.7345999474
31
0.0000000000
11
56.1464468127
21
6.7343382875
31
0.0000000000
11
55.5348098819
21
6.8436967301
31
0.0000000000
11
55.0268502680
21
7.0530190865
31
0.0000000000
11
54.6865883410
21
7.3440356243
31
0.0000000000
11
54.5709650786
21
7.6703788709
31
0.0000000000
0
SPLINE
5
2A6
100
AcDbEntity
8
0
100
AcDbSpline
62
7
6
CONTINUOUS
70
0
71
3
72
12
73
8
74
6
42
0.0000001000
43
0.0000001000
44
0.0000000001
12
0.0000810949
22
-2.3383275930
32
0.0000000000
13
-2.2894657198
23
0.0000000000
33
0.0000000000
40
0.0000000000
40
0.0000000000
40
0.0000000000
40
0.0000000000
40
0.0709890745
40
0.2350832755
40
0.4489404468
40
0.7138033899
40
1.0000000000
40
1.0000000000
40
1.0000000000
40
1.0000000000
10
69.0966647625
20
27.1766730578
30
0.0000000000
10
69.0966666814
20
27.1213411539
30
0.0000000000
10
69.0687443093
20
26.9381214828
30
0.0000000000
10
68.8385798384
20
26.6605413005
30
0.0000000000
10
68.4064496380
20
26.4192931370
30
0.0000000000
10
67.8391937726
20
26.2622126548
30
0.0000000000
10
67.4178046460
20
26.2267280570
30
0.0000000000
10
67.1993922033
20
26.2267280570
30
0.0000000000
11
69.0966647625
21
27.1766730578
31
0.0000000000
11
69.0713588751
21
27.0141390200
31
0.0000000000
11
68.8527244987
21
26.7086222140
31
0.0000000000
11
68.4341132670
21
26.4546712907
31
0.0000000000
11
67.8520742584
21
26.2845388766
31
0.0000000000
11
67.1993922033
21
26.2267280570
31
0.0000000000
0
SPLINE
5
2A7
100
AcDbEntity
8
0
100
AcDbSpline
62
7
6
CONTINUOUS
70
0
71
3
72
12
73
8
74
6
42
0.0000001000
43
0.0000001000
44
0.0000000001
12
0.0000810949
22
-2.3383275930
32
0.0000000000
13
-2.2894657198
23
0.0000000000
33
0.0000000000
40
0.0000000000
40
0.0000000000
40
0.0000000000
40
0.0000000000
40
0.0709890745
40
0.2350832755
40
0.4489404468
40
0.7138033899
40
1.0000000000
40
1.0000000000
40
1.0000000000
40
1.0000000000
10
35.1555392655
20
44.1472358063
30
0.0000000000
10
35.1555411845
20
44.0919039024
30
0.0000000000
10
35.1276188124
20
43.9086842312
30
0.0000000000
10
34.8974543414
20
43.6311040490
30
0.0000000000
10
34.4653241411
20
43.3898558855
30
0.0000000000
10
33.8980682756
20
43.2327754033
30
0.0000000000
10
33.4766791490
20
43.1972908055
30
0.0000000000
10
33.2582667064
20
43.1972908055
30
0.0000000000
11
35.1555392655
21
44.1472358063
31
0.0000000000
11
35.1302333782
21
43.9847017685
31
0.0000000000
11
34.9115990017
21
43.6791849624
31
0.0000000000
11
34.4929877700
21
43.4252340392
31
0.0000000000
11
33.9109487614
21
43.2551016250
31
0.0000000000
11
33.2582667064
21
43.1972908055
31
0.0000000000
0
SPLINE
5
2A8
100
AcDbEntity
8
0
100
AcDbSpline
62
7
6
CONTINUOUS
70
0
71
3
72
10
73
6
74
4
42
0.0000001000
43
0.0000001000
44
0.0000000001
12
-0.0001686948
22
1.4623151283
32
0.0000000000
13
-1.2849322096
23
0.6424661048
33
0.0000000000
40
0.0000000000
40
0.0000000000
40
0.0000000000
40
0.0000000000
40
0.1631726983
40
0.5357588617
40
1.0000000000
40
1.0000000000
40
1.0000000000
40
1.0000000000
10
126.4665214318
20
7.6429583295
30
0.0000000000
10
126.4665122564
20
7.7224949646
30
0.0000000000
10
126.4292256166
20
7.9836474473
30
0.0000000000
10
126.1314046826
20
8.3864627015
30
0.0000000000
10
125.7894924035
20
8.6041436666
30
0.0000000000
10
125.5906529396
20
8.7035633985
30
0.0000000000
11
126.4665214318
21
7.6429583295
31
0.0000000000
11
126.4324579638
21
7.8773643401
31
0.0000000000
11
126.1403274679
21
8.3258721855
31
0.0000000000
11
125.5906529396
21
8.7035633985
31
0.0000000000
0
SPLINE
5
2A9
100
AcDbEntity
8
0
100
AcDbSpline
62
7
6
CONTINUOUS
70
0
71
3
72
11
73
7
74
5
42
0.0000001000
43
0.0000001000
44
0.0000000001
12
1.6415164752
22
0.8207582376
32
0.0000000000
13
0.0000000000
23
1.8352712123
33
0.0000000000
40
0.0000000000
40
0.0000000000
40
0.0000000000
40
0.0000000000
40
0.2300327624
40
0.4882145546
40
0.7528309013
40
1.0000000000
40
1.0000000000
40
1.0000000000
40
1.0000000000
10
7.1502670908
20
69.6915232759
30
0.0000000000
10
7.2761346139
20
69.7544570374
30
0.0000000000
10
7.5162349562
20
69.9424062192
30
0.0000000000
10
7.7933253257
20
70.3152319106
30
0.0000000000
10
7.9819738221
20
70.7511605494
30
0.0000000000
10
8.0341505673
20
71.0647893251
30
0.0000000000
10
8.0341505673
20
71.2159967688
30
0.0000000000
11
7.1502670908
21
69.6915232759
31
0.0000000000
11
7.4889812128
21
69.9435200398
31
0.0000000000
11
7.7752670908
21
70.3210894860
31
0.0000000000
11
7.9666755325
21
70.7674208676
31
0.0000000000
11
8.0341505673
21
71.2159967688
31
0.0000000000
0
SPLINE
5
2AA
100
AcDbEntity
8
0
100
AcDbSpline
62
7
6
CONTINUOUS
70
0
71
3
72
9
73
5
74
3
42
0.0000001000
43
0.0000001000
44
0.0000000001
12
-0.4417551114
22
0.1045356173
32
0.0000000000
13
-0.4106978241
23
-0.2071295598
33
0.0000000000
40
0.0000000000
40
0.0000000000
40
0.0000000000
40
0.0000000000
40
0.7331781259
40
1.0000000000
40
1.0000000000
40
1.0000000000
40
1.0000000000
10
-144.5703427116
20
-2.8887321176
30
0.0000000000
10
-144.6783044398
20
-2.8631843749
30
0.0000000000
10
-144.8371223477
20
-2.8559487931
30
0.0000000000
10
-144.9810073185
20
-2.9107578633
30
0.0000000000
10
-145.0175350396
20
-2.9291800957
30
0.0000000000
11
-144.5703427116
21
-2.8887321176
31
0.0000000000
11
-144.9031608692
21
-2.8859265471
31
0.0000000000
11
-145.0175350396
21
-2.9291800957
31
0.0000000000
0
SPLINE
5
2AB
100
AcDbEntity
8
0
100
AcDbSpline
62
7
6
CONTINUOUS
70
0
71
3
72
14
73
10
74
8
42
0.0000001000
43
0.0000001000
44
0.0000000001
12
-0.0584257857
22
-3.4176736740
32
0.0000000000
13
-3.0234573316
23
1.5117286658
33
0.0000000000
40
0.0000000000
40
0.0000000000
40
0.0000000000
40
0.0000000000
40
0.0685801050
40
0.1799888771
40
0.3221298987
40
0.4894506253
40
0.6687334881
40
0.8439545279
40
1.0000000000
40
1.0000000000
40
1.0000000000
40
1.0000000000
10
123.6269396181
20
7.2015655204
30
0.0000000000
10
123.6256040026
20
7.1234373806
30
0.0000000000
10
123.5696260544
20
6.9157251890
30
0.0000000000
10
123.2939746160
20
6.6591698161
30
0.0000000000
10
122.8614876644
20
6.4566858282
30
0.0000000000
10
122.3198674785
20
6.3368575888
30
0.0000000000
10
121.7296491016
20
6.3121944496
30
0.0000000000
10
121.1564907794
20
6.3854156543
30
0.0000000000
10
120.7981710802
20
6.5036102505
30
0.0000000000
10
120.6409054713
20
6.5822430550
30
0.0000000000
11
123.6269396181
21
7.2015655204
31
0.0000000000
11
123.5687125344
21
6.9744948240
31
0.0000000000
11
123.3118584159
21
6.6990821067
31
0.0000000000
11
122.8821011020
21
6.4842034498
31
0.0000000000
11
122.3312756673
21
6.3557763905
31
0.0000000000
11
121.7258197885
21
6.3292911277
31
0.0000000000
11
121.1387603803
21
6.4079421748
31
0.0000000000
11
120.6409054713
21
6.5822430550
31
0.0000000000
0
SPLINE
5
2AC
100
AcDbEntity
8
0
100
AcDbSpline
62
7
6
CONTINUOUS
70
0
71
3
72
15
73
11
74
9
42
0.0000001000
43
0.0000001000
44
0.0000000001
12
-6.5668597494
22
-3.2834298747
32
0.0000000000
13
6.6022267274
23
-3.3388332930
33
0.0000000000
40
0.0000000000
40
0.0000000000
40
0.0000000000
40
0.0000000000
40
0.1267913026
40
0.2681655531
40
0.4168420662
40
0.5638832190
40
0.7007064061
40
0.8211682505
40
0.9241265509
40
1.0000000000
40
1.0000000000
40
1.0000000000
40
1.0000000000
10
-30.6799457027
20
-52.5437986531
30
0.0000000000
10
-30.9574859364
20
-52.6825687700
30
0.0000000000
10
-31.4977071063
20
-53.0714661744
30
0.0000000000
10
-32.1732972264
20
-53.8444005639
30
0.0000000000
10
-32.7115691664
20
-54.7764947376
30
0.0000000000
10
-33.0624088379
20
-55.7821148349
30
0.0000000000
10
-33.1939185470
20
-56.7711416028
30
0.0000000000
10
-33.0911638671
20
-57.6580857355
30
0.0000000000
10
-32.7639585564
20
-58.3361555966
30
0.0000000000
10
-32.4110036153
20
-58.6209539274
30
0.0000000000
10
-32.2440257107
20
-58.7053968601
30
0.0000000000
11
-30.6799457027
21
-52.5437986531
31
0.0000000000
11
-31.4447237454
21
-53.0745397253
31
0.0000000000
11
-32.1346399849
21
-53.8500322652
31
0.0000000000
11
-32.6821606125
21
-54.7943656597
31
0.0000000000
11
-33.0336904945
21
-55.8151019766
31
0.0000000000
11
-33.1548194368
21
-56.8123244334
31
0.0000000000
11
-33.0336904945
21
-57.6884179479
31
0.0000000000
11
-32.6821606125
21
-58.3576243828
31
0.0000000000
11
-32.2440257107
21
-58.7053968601
31
0.0000000000
0
SPLINE
5
2AD
100
AcDbEntity
8
0
100
AcDbSpline
62
7
6
CONTINUOUS
70
0
71
3
72
15
73
11
74
9
42
0.0000001000
43
0.0000001000
44
0.0000000001
12
-6.5668597494
22
-3.2834298747
32
0.0000000000
13
6.6022267274
23
-3.3388332930
33
0.0000000000
40
0.0000000000
40
0.0000000000
40
0.0000000000
40
0.0000000000
40
0.1267913026
40
0.2681655531
40
0.4168420662
40
0.5638832190
40
0.7007064061
40
0.8211682505
40
0.9241265509
40
1.0000000000
40
1.0000000000
40
1.0000000000
40
1.0000000000
10
135.4901478762
20
30.5412481363
30
0.0000000000
10
135.2126076424
20
30.4024780194
30
0.0000000000
10
134.6723864725
20
30.0135806151
30
0.0000000000
10
133.9967963524
20
29.2406462255
30
0.0000000000
10
133.4585244125
20
28.3085520518
30
0.0000000000
10
133.1076847409
20
27.3029319545
30
0.0000000000
10
132.9761750318
20
26.3139051867
30
0.0000000000
10
133.0789297117
20
25.4269610539
30
0.0000000000
10
133.4061350224
20
24.7488911928
30
0.0000000000
10
133.7590899635
20
24.4640928620
30
0.0000000000
10
133.9260678681
20
24.3796499294
30
0.0000000000
11
135.4901478762
21
30.5412481363
31
0.0000000000
11
134.7253698334
21
30.0105070641
31
0.0000000000
11
134.0354535940
21
29.2350145243
31
0.0000000000
11
133.4879329663
21
28.2906811298
31
0.0000000000
11
133.1364030843
21
27.2699448128
31
0.0000000000
11
133.0152741420
21
26.2727223560
31
0.0000000000
11
133.1364030843
21
25.3966288415
31
0.0000000000
11
133.4879329663
21
24.7274224066
31
0.0000000000
11
133.9260678681
21
24.3796499294
31
0.0000000000
0
SPLINE
5
2AE
100
AcDbEntity
8
0
100
AcDbSpline
62
7
6
CONTINUOUS
70
0
71
3
72
13
73
9
74
7
42
0.0000001000
43
0.0000001000
44
0.0000000001
12
5.2620479101
22
2.6310239551
32
0.0000000000
13
0.0000000000
23
5.8831484139
33
0.0000000000
40
0.0000000000
40
0.0000000000
40
0.0000000000
40
0.0000000000
40
0.1472740045
40
0.3136951725
40
0.4880704801
40
0.6654990460
40
0.8406738016
40
1.0000000000
40
1.0000000000
40
1.0000000000
40
1.0000000000
10
140.6166720398
20
15.3942907107
30
0.0000000000
10
140.8749929957
20
15.5234511887
30
0.0000000000
10
141.3894624020
20
15.8719166562
30
0.0000000000
10
142.0627862494
20
16.5590879186
30
0.0000000000
10
142.6427598431
20
17.3991957646
30
0.0000000000
10
143.0901040166
20
18.3356142331
30
0.0000000000
10
143.3734638522
20
19.3032944145
30
0.0000000000
10
143.4450991645
20
19.9601593312
30
0.0000000000
10
143.4450991645
20
20.2726058883
30
0.0000000000
11
140.6166720398
21
15.3942907107
31
0.0000000000
11
141.3400511763
21
15.8711889521
31
0.0000000000
11
142.0306499920
21
16.5652147190
31
0.0000000000
11
142.6159831595
21
17.4077147308
31
0.0000000000
11
143.0656460819
21
18.3497350333
31
0.0000000000
11
143.3511045107
21
19.3399909279
31
0.0000000000
11
143.4450991645
21
20.2726058883
31
0.0000000000
0
SPLINE
5
2AF
100
AcDbEntity
8
0
100
AcDbSpline
62
7
6
CONTINUOUS
70
0
71
3
72
11
73
7
74
5
42
0.0000001000
43
0.0000001000
44
0.0000000001
12
0.0000000000
22
2.5150143976
32
0.0000000000
13
-2.2687181678
23
1.1310499032
33
0.0000000000
40
0.0000000000
40
0.0000000000
40
0.0000000000
40
0.0000000000
40
0.3356555426
40
0.6373961386
40
0.9023434213
40
1.0000000000
40
1.0000000000
40
1.0000000000
40
1.0000000000
10
143.4450991645
20
42.5727600357
30
0.0000000000
10
143.4450991645
20
42.8541528765
30
0.0000000000
10
143.3926735988
20
43.3913564195
30
0.0000000000
10
143.1201155286
20
44.1096976572
30
0.0000000000
10
142.7428673268
20
44.5398844967
30
0.0000000000
10
142.4798152521
20
44.6984989366
30
0.0000000000
10
142.4059635006
20
44.7353170913
30
0.0000000000
11
143.4450991645
21
42.5727600357
31
0.0000000000
11
143.3510316769
21
43.4116811794
31
0.0000000000
11
143.0662977971
21
44.1151215972
31
0.0000000000
11
142.6173606829
21
44.6075368351
31
0.0000000000
11
142.4059635006
21
44.7353170913
31
0.0000000000
0
SPLINE
5
2B0
100
AcDbEntity
8
0
100
AcDbSpline
62
7
6
CONTINUOUS
70
0
71
3
72
14
73
10
74
8
42
0.0000001000
43
0.0000001000
44
0.0000000001
12
-0.0584257857
22
-3.4176736740
32
0.0000000000
13
-3.0234573316
23
1.5117286658
33
0.0000000000
40
0.0000000000
40
0.0000000000
40
0.0000000000
40
0.0000000000
40
0.0685801050
40
0.1799888771
40
0.3221298987
40
0.4894506253
40
0.6687334881
40
0.8439545279
40
1.0000000000
40
1.0000000000
40
1.0000000000
40
1.0000000000
10
1.2974664728
20
68.3663020930
30
0.0000000000
10
1.2961308573
20
68.2881739532
30
0.0000000000
10
1.2401529091
20
68.0804617616
30
0.0000000000
10
0.9645014707
20
67.8239063887
30
0.0000000000
10
0.5320145192
20
67.6214224009
30
0.0000000000
10
-0.0096056668
20
67.5015941615
30
0.0000000000
10
-0.5998240437
20
67.4769310222
30
0.0000000000
10
-1.1729823658
20
67.5501522270
30
0.0000000000
10
-1.5313020651
20
67.6683468231
30
0.0000000000
10
-1.6885676740
20
67.7469796276
30
0.0000000000
11
1.2974664728
21
68.3663020930
31
0.0000000000
11
1.2392393891
21
68.1392313967
31
0.0000000000
11
0.9823852706
21
67.8638186793
31
0.0000000000
11
0.5526279567
21
67.6489400224
31
0.0000000000
11
0.0018025220
21
67.5205129631
31
0.0000000000
11
-0.6036533567
21
67.4940277003
31
0.0000000000
11
-1.1907127650
21
67.5726787475
31
0.0000000000
11
-1.6885676740
21
67.7469796276
31
0.0000000000
0
SPLINE
5
2B1
100
AcDbEntity
8
0
100
AcDbSpline
62
7
6
CONTINUOUS
70
0
71
3
72
14
73
10
74
8
42
0.0000001000
43
0.0000001000
44
0.0000000001
12
-0.0584257857
22
-3.4176736740
32
0.0000000000
13
-3.0234573316
23
1.5117286658
33
0.0000000000
40
0.0000000000
40
0.0000000000
40
0.0000000000
40
0.0000000000
40
0.0685801050
40
0.1799888771
40
0.3221298987
40
0.4894506253
40
0.6687334881
40
0.8439545279
40
1.0000000000
40
1.0000000000
40
1.0000000000
40
1.0000000000
10
-17.7944166192
20
-63.5091125983
30
0.0000000000
10
-17.7957522347
20
-63.5872407381
30
0.0000000000
10
-17.8517301829
20
-63.7949529297
30
0.0000000000
10
-18.1273816213
20
-64.0515083026
30
0.0000000000
10
-18.5598685729
20
-64.2539922904
30
0.0000000000
10
-19.1014887588
20
-64.3738205298
30
0.0000000000
10
-19.6917071357
20
-64.3984836691
30
0.0000000000
10
-20.2648654579
20
-64.3252624643
30
0.0000000000
10
-20.6231851571
20
-64.2070678682
30
0.0000000000
10
-20.7804507660
20
-64.1284350637
30
0.0000000000
11
-17.7944166192
21
-63.5091125983
31
0.0000000000
11
-17.8526437030
21
-63.7361832946
31
0.0000000000
11
-18.1094978215
21
-64.0115960120
31
0.0000000000
11
-18.5392551353
21
-64.2264746689
31
0.0000000000
11
-19.0900805700
21
-64.3549017282
31
0.0000000000
11
-19.6955364488
21
-64.3813869910
31
0.0000000000
11
-20.2825958570
21
-64.3027359438
31
0.0000000000
11
-20.7804507660
21
-64.1284350637
31
0.0000000000
0
SPLINE
5
2B2
100
AcDbEntity
8
0
100
AcDbSpline
62
7
6
CONTINUOUS
70
0
71
3
72
9
73
5
74
3
42
0.0000001000
43
0.0000001000
44
0.0000000001
12
1.3856336994
22
-0.6928168497
32
0.0000000000
13
0.0000000000
23
-1.5385557149
33
0.0000000000
40
0.0000000000
40
0.0000000000
40
0.0000000000
40
0.0000000000
40
0.5679903392
40
1.0000000000
40
1.0000000000
40
1.0000000000
40
1.0000000000
10
-25.3766448438
20
-36.0759133144
30
0.0000000000
10
-25.1143026588
20
-36.2070844069
30
0.0000000000
10
-24.6666085235
20
-36.4905529514
30
0.0000000000
10
-24.4247418826
20
-37.0034048564
30
0.0000000000
10
-24.4247418826
20
-37.2249618339
30
0.0000000000
11
-25.3766448438
21
-36.0759133144
31
0.0000000000
11
-24.6721334019
21
-36.6031012563
31
0.0000000000
11
-24.4247418826
21
-37.2249618339
31
0.0000000000
0
SPLINE
5
2B3
100
AcDbEntity
8
0
100
AcDbSpline
62
7
6
CONTINUOUS
70
0
71
3
72
14
73
10
74
8
42
0.0000001000
43
0.0000001000
44
0.0000000001
12
-0.0584257857
22
-3.4176736740
32
0.0000000000
13
-3.0234573316
23
1.5117286658
33
0.0000000000
40
0.0000000000
40
0.0000000000
40
0.0000000000
40
0.0000000000
40
0.0685801050
40
0.1799888771
40
0.3221298987
40
0.4894506253
40
0.6687334881
40
0.8439545279
40
1.0000000000
40
1.0000000000
40
1.0000000000
40
1.0000000000
10
-140.1238897645
20
-2.3443760256
30
0.0000000000
10
-140.1252253800
20
-2.4225041654
30
0.0000000000
10
-140.1812033282
20
-2.6302163571
30
0.0000000000
10
-140.4568547666
20
-2.8867717299
30
0.0000000000
10
-140.8893417181
20
-3.0892557178
30
0.0000000000
10
-141.4309619041
20
-3.2090839572
30
0.0000000000
10
-142.0211802810
20
-3.2337470965
30
0.0000000000
10
-142.5943386032
20
-3.1605258917
30
0.0000000000
10
-142.9526583024
20
-3.0423312955
30
0.0000000000
10
-143.1099239113
20
-2.9636984911
30
0.0000000000
11
-140.1238897645
21
-2.3443760256
31
0.0000000000
11
-140.1821168482
21
-2.5714467220
31
0.0000000000
11
-140.4389709667
21
-2.8468594393
31
0.0000000000
11
-140.8687282806
21
-3.0617380963
31
0.0000000000
11
-141.4195537153
21
-3.1901651555
31
0.0000000000
11
-142.0250095940
21
-3.2166504183
31
0.0000000000
11
-142.6120690023
21
-3.1379993712
31
0.0000000000
11
-143.1099239113
21
-2.9636984911
31
0.0000000000
0
SPLINE
5
2B4
100
AcDbEntity
8
0
100
AcDbSpline
62
7
6
CONTINUOUS
70
0
71
3
72
9
73
5
74
3
42
0.0000001000
43
0.0000001000
44
0.0000000001
12
0.0822600499
22
0.0432965493
32
0.0000000000
13
0.0814526090
23
-0.0407263045
33
0.0000000000
40
0.0000000000
40
0.0000000000
40
0.0000000000
40
0.0000000000
40
0.2134508267
40
1.0000000000
40
1.0000000000
40
1.0000000000
40
1.0000000000
10
125.4663336952
20
12.6772184689
30
0.0000000000
10
125.4721865204
20
12.6802990303
30
0.0000000000
10
125.5011084542
20
12.6913222640
30
0.0000000000
10
125.5339421064
20
12.6826073502
30
0.0000000000
10
125.5552976005
20
12.6719296032
30
0.0000000000
11
125.4663336952
21
12.6772184689
31
0.0000000000
11
125.4847115646
21
12.6841055722
31
0.0000000000
11
125.5552976005
21
12.6719296032
31
0.0000000000
0
SPLINE
5
2B5
100
AcDbEntity
8
0
100
AcDbSpline
62
7
6
CONTINUOUS
70
0
71
3
72
11
73
7
74
5
42
0.0000001000
43
0.0000001000
44
0.0000000001
12
-4.2244140774
22
-2.1122070387
32
0.0000000000
13
-4.2244140774
23
2.1122070387
33
0.0000000000
40
0.0000000000
40
0.0000000000
40
0.0000000000
40
0.0000000000
40
0.2353701082
40
0.5000000000
40
0.7646298918
40
1.0000000000
40
1.0000000000
40
1.0000000000
40
1.0000000000
10
132.6617207514
20
11.4168150666
30
0.0000000000
10
132.3302871520
20
11.2510982669
30
0.0000000000
10
131.5685833782
20
11.0147046317
30
0.0000000000
10
130.3636237126
20
10.9017824901
30
0.0000000000
10
129.1586640470
20
11.0147046317
30
0.0000000000
10
128.3969602732
20
11.2510982669
30
0.0000000000
10
128.0655266737
20
11.4168150666
30
0.0000000000
11
132.6617207514
21
11.4168150666
31
0.0000000000
11
131.6073448678
21
11.0645593457
31
0.0000000000
11
130.3636237126
21
10.9408635860
31
0.0000000000
11
129.1199025574
21
11.0645593457
31
0.0000000000
11
128.0655266737
21
11.4168150666
31
0.0000000000
0
SPLINE
5
2B6
100
AcDbEntity
8
0
100
AcDbSpline
62
7
6
CONTINUOUS
70
0
71
3
72
10
73
6
74
4
42
0.0000001000
43
0.0000001000
44
0.0000000001
12
1.6690254316
22
-0.8320782544
32
0.0000000000
13
1.6548852094
23
0.8274426047
33
0.0000000000
40
0.0000000000
40
0.0000000000
40
0.0000000000
40
0.0000000000
40
0.2130902741
40
0.5871067946
40
1.0000000000
40
1.0000000000
40
1.0000000000
40
1.0000000000
10
-35.1208875929
20
-71.6925123780
30
0.0000000000
10
-35.0023365640
20
-71.7516149725
30
0.0000000000
10
-34.6543592106
20
-71.8725665721
30
0.0000000000
10
-34.0223875001
20
-71.8620021950
30
0.0000000000
10
-33.5593597516
20
-71.6937251850
30
0.0000000000
10
-33.3315961321
20
-71.5798433752
30
0.0000000000
11
-35.1208875929
21
-71.6925123780
31
0.0000000000
11
-34.7467025384
21
-71.8226633614
31
0.0000000000
11
-34.0546999018
21
-71.8262757899
31
0.0000000000
11
-33.3315961321
21
-71.5798433752
31
0.0000000000
0
SPLINE
5
2B7
100
AcDbEntity
8
0
100
AcDbSpline
62
7
6
CONTINUOUS
70
0
71
3
72
10
73
6
74
4
42
0.0000001000
43
0.0000001000
44
0.0000000001
12
-1.4514917354
22
0.7340385495
32
0.0000000000
13
-1.4437163471
23
-0.7218581736
33
0.0000000000
40
0.0000000000
40
0.0000000000
40
0.0000000000
40
0.0000000000
40
0.0738071476
40
0.5045072608
40
1.0000000000
40
1.0000000000
40
1.0000000000
40
1.0000000000
10
139.5291016184
20
31.8781053839
30
0.0000000000
10
139.4933914635
20
31.8961644811
30
0.0000000000
10
139.2439091620
20
32.0082306011
30
0.0000000000
10
138.6864914796
20
32.0628844306
30
0.0000000000
10
138.2034719328
20
31.8979101647
30
0.0000000000
10
137.9650216103
20
31.7786850034
30
0.0000000000
11
139.5291016184
21
31.8781053839
31
0.0000000000
11
139.4197158926
21
31.9271456736
31
0.0000000000
11
138.7297996531
21
32.0127219740
31
0.0000000000
11
137.9650216103
21
31.7786850034
31
0.0000000000
0
SPLINE
5
2B8
100
AcDbEntity
8
0
100
AcDbSpline
62
7
6
CONTINUOUS
70
0
71
3
72
10
73
6
74
4
42
0.0000001000
43
0.0000001000
44
0.0000000001
12
-1.4514917354
22
0.7340385495
32
0.0000000000
13
-1.4437163471
23
-0.7218581736
33
0.0000000000
40
0.0000000000
40
0.0000000000
40
0.0000000000
40
0.0000000000
40
0.0738071476
40
0.5045072608
40
1.0000000000
40
1.0000000000
40
1.0000000000
40
1.0000000000
10
-26.6409919604
20
-51.2069414055
30
0.0000000000
10
-26.6767021153
20
-51.1888823083
30
0.0000000000
10
-26.9261844169
20
-51.0768161883
30
0.0000000000
10
-27.4836020993
20
-51.0221623589
30
0.0000000000
10
-27.9666216460
20
-51.1871366248
30
0.0000000000
10
-28.2050719685
20
-51.3063617860
30
0.0000000000
11
-26.6409919604
21
-51.2069414055
31
0.0000000000
11
-26.7503776863
21
-51.1579011159
31
0.0000000000
11
-27.4402939257
21
-51.0723248154
31
0.0000000000
11
-28.2050719685
21
-51.3063617860
31
0.0000000000
0
SPLINE
5
2B9
100
AcDbEntity
8
0
100
AcDbSpline
62
7
6
CONTINUOUS
70
0
71
3
72
10
73
6
74
4
42
0.0000001000
43
0.0000001000
44
0.0000000001
12
-0.8510716721
22
-0.4292257968
32
0.0000000000
13
-0.0000000000
23
-0.9407119826
33
0.0000000000
40
0.0000000000
40
0.0000000000
40
0.0000000000
40
0.0000000000
40
0.2017639539
40
0.5672132680
40
1.0000000000
40
1.0000000000
40
1.0000000000
40
1.0000000000
10
8.4246364779
20
73.7919056630
30
0.0000000000
10
8.3673979494
20
73.7630382317
30
0.0000000000
10
8.2193515571
20
73.6556668305
30
0.0000000000
10
8.0650479227
20
73.3696281155
30
0.0000000000
10
8.0341505673
20
73.1168946646
30
0.0000000000
10
8.0341505673
20
72.9811854431
30
0.0000000000
11
8.4246364779
21
73.7919056630
31
0.0000000000
11
8.2697325441
21
73.6797087068
31
0.0000000000
11
8.0947788446
21
73.3837735047
31
0.0000000000
11
8.0341505673
21
72.9811854431
31
0.0000000000
0
SPLINE
5
2BA
100
AcDbEntity
8
0
100
AcDbSpline
62
7
6
CONTINUOUS
70
0
71
3
72
9
73
5
74
3
42
0.0000001000
43
0.0000001000
44
0.0000000001
12
0.0000000000
22
-1.5385557149
32
0.0000000000
13
-1.3856336994
23
-0.6928168497
33
0.0000000000
40
0.0000000000
40
0.0000000000
40
0.0000000000
40
0.0000000000
40
0.4320096608
40
1.0000000000
40
1.0000000000
40
1.0000000000
40
1.0000000000
10
-24.4247418826
20
-66.4533192116
30
0.0000000000
10
-24.4247418826
20
-66.6748761891
30
0.0000000000
10
-24.6666085235
20
-67.1877280941
30
0.0000000000
10
-25.1143026588
20
-67.4711966385
30
0.0000000000
10
-25.3766448438
20
-67.6023677310
30
0.0000000000
11
-24.4247418826
21
-66.4533192116
31
0.0000000000
11
-24.6721334019
21
-67.0751797892
31
0.0000000000
11
-25.3766448438
21
-67.6023677310
31
0.0000000000
0
SPLINE
5
2BB
100
AcDbEntity
8
0
100
AcDbSpline
62
7
6
CONTINUOUS
70
0
71
3
72
12
73
8
74
6
42
0.0000001000
43
0.0000001000
44
0.0000000001
12
-2.2895514616
22
0.0000000000
32
0.0000000000
13
-0.0000810979
23
2.3384151647
33
0.0000000000
40
0.0000000000
40
0.0000000000
40
0.0000000000
40
0.0000000000
40
0.2862858821
40
0.5505308969
40
0.7638945063
40
0.9286039949
40
1.0000000000
40
1.0000000000
40
1.0000000000
40
1.0000000000
10
-50.4239842875
20
-24.6849601884
30
0.0000000000
10
-50.6424730408
20
-24.6849601884
30
0.0000000000
10
-51.0634712595
20
-24.6494987253
30
0.0000000000
10
-51.6300126144
20
-24.4926883331
30
0.0000000000
10
-52.0619209325
20
-24.2520247122
30
0.0000000000
10
-52.2930354591
20
-23.9746082889
30
0.0000000000
10
-52.3212549167
20
-23.7905563562
30
0.0000000000
10
-52.3212568467
20
-23.7349051892
30
0.0000000000
11
-50.4239842875
21
-24.6849601884
31
0.0000000000
11
-51.0768925061
21
-24.6271079982
31
0.0000000000
11
-51.6576278222
21
-24.4574772521
31
0.0000000000
11
-52.0755848100
21
-24.2045918830
31
0.0000000000
11
-52.2956675417
21
-23.8983629087
31
0.0000000000
11
-52.3212568467
21
-23.7349051892
31
0.0000000000
0
SPLINE
5
2BC
100
AcDbEntity
8
0
100
AcDbSpline
62
7
6
CONTINUOUS
70
0
71
3
72
12
73
8
74
6
42
0.0000001000
43
0.0000001000
44
0.0000000001
12
-2.2894657198
22
0.0000000000
32
0.0000000000
13
0.0000810949
23
2.3383275930
33
0.0000000000
40
0.0000000000
40
0.0000000000
40
0.0000000000
40
0.0000000000
40
0.2861966101
40
0.5510595532
40
0.7649167245
40
0.9290109255
40
1.0000000000
40
1.0000000000
40
1.0000000000
40
1.0000000000
10
-84.3651097845
20
-7.7143974399
30
0.0000000000
10
-84.5835222271
20
-7.7143974399
30
0.0000000000
10
-85.0049113537
20
-7.6789128421
30
0.0000000000
10
-85.5721672192
20
-7.5218323600
30
0.0000000000
10
-86.0042974195
20
-7.2805841964
30
0.0000000000
10
-86.2344618905
20
-7.0030040142
30
0.0000000000
10
-86.2623842626
20
-6.8197843430
30
0.0000000000
10
-86.2623823436
20
-6.7644524391
30
0.0000000000
11
-84.3651097845
21
-7.7143974399
31
0.0000000000
11
-85.0177918395
21
-7.6565866204
31
0.0000000000
11
-85.5998308481
21
-7.4864542062
31
0.0000000000
11
-86.0184420798
21
-7.2325032830
31
0.0000000000
11
-86.2370764562
21
-6.9269864769
31
0.0000000000
11
-86.2623823436
21
-6.7644524391
31
0.0000000000
0
SPLINE
5
2BD
100
AcDbEntity
8
0
100
AcDbSpline
62
7
6
CONTINUOUS
70
0
71
3
72
12
73
8
74
6
42
0.0000001000
43
0.0000001000
44
0.0000000001
12
-2.2894657198
22
0.0000000000
32
0.0000000000
13
0.0000810949
23
2.3383275930
33
0.0000000000
40
0.0000000000
40
0.0000000000
40
0.0000000000
40
0.0000000000
40
0.2861966101
40
0.5510595532
40
0.7649167245
40
0.9290109255
40
1.0000000000
40
1.0000000000
40
1.0000000000
40
1.0000000000
10
17.4582667064
20
43.1972908055
30
0.0000000000
10
17.2398542638
20
43.1972908055
30
0.0000000000
10
16.8184651371
20
43.2327754033
30
0.0000000000
10
16.2512092717
20
43.3898558855
30
0.0000000000
10
15.8190790713
20
43.6311040490
30
0.0000000000
10
15.5889146004
20
43.9086842312
30
0.0000000000
10
15.5609922283
20
44.0919039024
30
0.0000000000
10
15.5609941472
20
44.1472358063
30
0.0000000000
11
17.4582667064
21
43.1972908055
31
0.0000000000
11
16.8055846513
21
43.2551016250
31
0.0000000000
11
16.2235456428
21
43.4252340392
31
0.0000000000
11
15.8049344111
21
43.6791849624
31
0.0000000000
11
15.5863000346
21
43.9847017685
31
0.0000000000
11
15.5609941472
21
44.1472358063
31
0.0000000000
0
SPLINE
5
2BE
100
AcDbEntity
8
0
100
AcDbSpline
62
7
6
CONTINUOUS
70
0
71
3
72
16
73
12
74
10
42
0.0000001000
43
0.0000001000
44
0.0000000001
12
0.0000000000
22
-4.5784335911
32
0.0000000000
13
0.0000000000
23
4.5784335911
33
0.0000000000
40
0.0000000000
40
0.0000000000
40
0.0000000000
40
0.0000000000
40
0.0756491854
40
0.1731864826
40
0.2927012632
40
0.4284651843
40
0.5708809620
40
0.7065903600
40
0.8265874258
40
0.9243801356
40
1.0000000000
40
1.0000000000
40
1.0000000000
40
1.0000000000
10
24.4298395816
20
24.6409416194
30
0.0000000000
10
24.4298395816
20
24.5254900289
30
0.0000000000
10
24.3207876902
20
24.2619626935
30
0.0000000000
10
23.9554546952
20
23.9867969609
30
0.0000000000
10
23.4504887072
20
23.7891764536
30
0.0000000000
10
22.8485581735
20
23.6863506909
30
0.0000000000
10
22.2142228256
20
23.6861047303
30
0.0000000000
10
21.6115687027
20
23.7885054123
30
0.0000000000
10
21.1054203880
20
23.9859960180
30
0.0000000000
10
20.7389945053
20
24.2616644381
30
0.0000000000
10
20.6298395816
20
24.5255347770
30
0.0000000000
10
20.6298395816
20
24.6409416194
30
0.0000000000
11
24.4298395816
21
24.6409416194
31
0.0000000000
11
24.3141335649
21
24.3144852742
31
0.0000000000
11
23.9748602750
21
24.0241119841
31
0.0000000000
11
23.4691399030
21
23.8151518601
31
0.0000000000
11
22.8573624440
21
23.7051626959
31
0.0000000000
11
22.2053213158
21
23.7049010360
31
0.0000000000
11
21.5936843850
21
23.8142594786
31
0.0000000000
11
21.0857247710
21
24.0235818350
31
0.0000000000
11
20.7454628441
21
24.3145983728
31
0.0000000000
11
20.6298395816
21
24.6409416194
31
0.0000000000
0
SPLINE
5
2BF
100
AcDbEntity
8
0
100
AcDbSpline
62
7
6
CONTINUOUS
70
0
71
3
72
12
73
8
74
6
42
0.0000001000
43
0.0000001000
44
0.0000000001
12
-2.2895514616
22
0.0000000000
32
0.0000000000
13
-0.0000810979
23
2.3384151647
33
0.0000000000
40
0.0000000000
40
0.0000000000
40
0.0000000000
40
0.0000000000
40
0.2862858821
40
0.5505308969
40
0.7638945063
40
0.9286039949
40
1.0000000000
40
1.0000000000
40
1.0000000000
40
1.0000000000
10
51.3993922033
20
26.2267280570
30
0.0000000000
10
51.1809034501
20
26.2267280570
30
0.0000000000
10
50.7599052314
20
26.2621895201
30
0.0000000000
10
50.1933638765
20
26.4189999124
30
0.0000000000
10
49.7614555584
20
26.6596635332
30
0.0000000000
10
49.5303410317
20
26.9370799565
30
0.0000000000
10
49.5021215742
20
27.1211318892
30
0.0000000000
10
49.5021196442
20
27.1767830562
30
0.0000000000
11
51.3993922033
21
26.2267280570
31
0.0000000000
11
50.7464839848
21
26.2845802472
31
0.0000000000
11
50.1657486687
21
26.4542109933
31
0.0000000000
11
49.7477916808
21
26.7070963625
31
0.0000000000
11
49.5277089492
21
27.0133253367
31
0.0000000000
11
49.5021196442
21
27.1767830562
31
0.0000000000
0
SPLINE
5
2C0
100
AcDbEntity
8
0
100
AcDbSpline
62
7
6
CONTINUOUS
70
0
71
3
72
12
73
8
74
6
42
0.0000001000
43
0.0000001000
44
0.0000000001
12
-2.2894657198
22
0.0000000000
32
0.0000000000
13
0.0000810949
23
2.3383275930
33
0.0000000000
40
0.0000000000
40
0.0000000000
40
0.0000000000
40
0.0000000000
40
0.2861966101
40
0.5510595532
40
0.7649167245
40
0.9290109255
40
1.0000000000
40
1.0000000000
40
1.0000000000
40
1.0000000000
10
-7.9975774163
20
30.4693687441
30
0.0000000000
10
-8.2159898590
20
30.4693687441
30
0.0000000000
10
-8.6373789856
20
30.5048533419
30
0.0000000000
10
-9.2046348510
20
30.6619338241
30
0.0000000000
10
-9.6367650514
20
30.9031819877
30
0.0000000000
10
-9.8669295223
20
31.1807621699
30
0.0000000000
10
-9.8948518944
20
31.3639818410
30
0.0000000000
10
-9.8948499755
20
31.4193137450
30
0.0000000000
11
-7.9975774163
21
30.4693687441
31
0.0000000000
11
-8.6502594714
21
30.5271795637
31
0.0000000000
11
-9.2322984800
21
30.6973119778
31
0.0000000000
11
-9.6509097117
21
30.9512629011
31
0.0000000000
11
-9.8695440881
21
31.2567797072
31
0.0000000000
11
-9.8948499755
21
31.4193137450
31
0.0000000000
0
SPLINE
5
2C1
100
AcDbEntity
8
0
100
AcDbSpline
62
7
6
CONTINUOUS
70
0
71
3
72
16
73
12
74
10
42
0.0000001000
43
0.0000001000
44
0.0000000001
12
-0.0000000000
22
-4.5784335911
32
0.0000000000
13
0.0000000000
23
4.5784335911
33
0.0000000000
40
0.0000000000
40
0.0000000000
40
0.0000000000
40
0.0000000000
40
0.0756491854
40
0.1731864826
40
0.2927012632
40
0.4284651843
40
0.5708809620
40
0.7065903600
40
0.8265874258
40
0.9243801356
40
1.0000000000
40
1.0000000000
40
1.0000000000
40
1.0000000000
10
-1.0260045411
20
11.9130195580
30
0.0000000000
10
-1.0260045411
20
11.7975679676
30
0.0000000000
10
-1.1350564325
20
11.5340406321
30
0.0000000000
10
-1.5003894275
20
11.2588748996
30
0.0000000000
10
-2.0053554155
20
11.0612543923
30
0.0000000000
10
-2.6072859493
20
10.9584286296
30
0.0000000000
10
-3.2416212971
20
10.9581826690
30
0.0000000000
10
-3.8442754200
20
11.0605833509
30
0.0000000000
10
-4.3504237348
20
11.2580739567
30
0.0000000000
10
-4.7168496174
20
11.5337423767
30
0.0000000000
10
-4.8260045411
20
11.7976127157
30
0.0000000000
10
-4.8260045411
20
11.9130195580
30
0.0000000000
11
-1.0260045411
21
11.9130195580
31
0.0000000000
11
-1.1417105578
21
11.5865632128
31
0.0000000000
11
-1.4809838477
21
11.2961899228
31
0.0000000000
11
-1.9867042197
21
11.0872297987
31
0.0000000000
11
-2.5984816787
21
10.9772406345
31
0.0000000000
11
-3.2505228069
21
10.9769789746
31
0.0000000000
11
-3.8621597377
21
11.0863374172
31
0.0000000000
11
-4.3701193517
21
11.2956597736
31
0.0000000000
11
-4.7103812786
21
11.5866763114
31
0.0000000000
11
-4.8260045411
21
11.9130195580
31
0.0000000000
0
SPLINE
5
2C2
100
AcDbEntity
8
0
100
AcDbSpline
62
7
6
CONTINUOUS
70
0
71
3
72
12
73
8
74
6
42
0.0000001000
43
0.0000001000
44
0.0000000001
12
-2.2895514616
22
0.0000000000
32
0.0000000000
13
-0.0000810979
23
2.3384151647
33
0.0000000000
40
0.0000000000
40
0.0000000000
40
0.0000000000
40
0.0000000000
40
0.2862858821
40
0.5505308969
40
0.7638945063
40
0.9286039949
40
1.0000000000
40
1.0000000000
40
1.0000000000
40
1.0000000000
10
25.9435480806
20
13.4988059957
30
0.0000000000
10
25.7250593273
20
13.4988059957
30
0.0000000000
10
25.3040611087
20
13.5342674587
30
0.0000000000
10
24.7375197538
20
13.6910778510
30
0.0000000000
10
24.3056114356
20
13.9317414718
30
0.0000000000
10
24.0744969090
20
14.2091578952
30
0.0000000000
10
24.0462774515
20
14.3932098278
30
0.0000000000
10
24.0462755215
20
14.4488609948
30
0.0000000000
11
25.9435480806
21
13.4988059957
31
0.0000000000
11
25.2906398621
21
13.5566581859
31
0.0000000000
11
24.7099045459
21
13.7262889320
31
0.0000000000
11
24.2919475581
21
13.9791743011
31
0.0000000000
11
24.0718648264
21
14.2854032753
31
0.0000000000
11
24.0462755215
21
14.4488609948
31
0.0000000000
0
SPLINE
5
2C3
100
AcDbEntity
8
0
100
AcDbSpline
62
7
6
CONTINUOUS
70
0
71
3
72
12
73
8
74
6
42
0.0000001000
43
0.0000001000
44
0.0000000001
12
-2.2894945421
22
0.0000000000
32
0.0000000000
13
0.0004523004
23
2.3383630267
33
0.0000000000
40
0.0000000000
40
0.0000000000
40
0.0000000000
40
0.0000000000
40
0.2861949694
40
0.5510519131
40
0.7649254386
40
0.9291457014
40
1.0000000000
40
1.0000000000
40
1.0000000000
40
1.0000000000
10
-33.4534215390
20
17.7414466828
30
0.0000000000
10
-33.6718354792
20
17.7414466828
30
0.0000000000
10
-34.0932237027
20
17.7769299425
30
0.0000000000
10
-34.6604945730
20
17.9340205684
30
0.0000000000
10
-35.0927159093
20
18.1753105223
30
0.0000000000
10
-35.3228643243
20
18.4529858210
30
0.0000000000
10
-35.3507040332
20
18.6361949528
30
0.0000000000
10
-35.3506933507
20
18.6914226435
30
0.0000000000
11
-33.4534215390
21
17.7414466828
31
0.0000000000
11
-34.1061080323
21
17.7992583140
31
0.0000000000
11
-34.6881411079
21
17.9693892775
31
0.0000000000
11
-35.1067858207
21
18.2233690845
31
0.0000000000
11
-35.3255027059
21
18.5291875499
31
0.0000000000
11
-35.3506933507
21
18.6914226435
31
0.0000000000
0
SPLINE
5
2C4
100
AcDbEntity
8
0
100
AcDbSpline
62
7
6
CONTINUOUS
70
0
71
3
72
16
73
12
74
10
42
0.0000001000
43
0.0000001000
44
0.0000000001
12
0.0000000000
22
-4.5784335911
32
0.0000000000
13
0.0000000000
23
4.5784335911
33
0.0000000000
40
0.0000000000
40
0.0000000000
40
0.0000000000
40
0.0000000000
40
0.0756491854
40
0.1731864826
40
0.2927012632
40
0.4284651843
40
0.5708809620
40
0.7065903600
40
0.8265874258
40
0.9243801356
40
1.0000000000
40
1.0000000000
40
1.0000000000
40
1.0000000000
10
-26.4818486638
20
-0.8149025033
30
0.0000000000
10
-26.4818486638
20
-0.9303540938
30
0.0000000000
10
-26.5909005552
20
-1.1938814292
30
0.0000000000
10
-26.9562335502
20
-1.4690471618
30
0.0000000000
10
-27.4611995382
20
-1.6666676691
30
0.0000000000
10
-28.0631300720
20
-1.7694934318
30
0.0000000000
10
-28.6974654198
20
-1.7697393924
30
0.0000000000
10
-29.3001195427
20
-1.6673387105
30
0.0000000000
10
-29.8062678575
20
-1.4698481047
30
0.0000000000
10
-30.1726937401
20
-1.1941796847
30
0.0000000000
10
-30.2818486638
20
-0.9303093457
30
0.0000000000
10
-30.2818486638
20
-0.8149025033
30
0.0000000000
11
-26.4818486638
21
-0.8149025033
31
0.0000000000
11
-26.5975546805
21
-1.1413588485
31
0.0000000000
11
-26.9368279704
21
-1.4317321386
31
0.0000000000
11
-27.4425483424
21
-1.6406922626
31
0.0000000000
11
-28.0543258014
21
-1.7506814268
31
0.0000000000
11
-28.7063669296
21
-1.7509430867
31
0.0000000000
11
-29.3180038604
21
-1.6415846441
31
0.0000000000
11
-29.8259634744
21
-1.4322622878
31
0.0000000000
11
-30.1662254014
21
-1.1412457499
31
0.0000000000
11
-30.2818486638
21
-0.8149025033
31
0.0000000000
0
SPLINE
5
2C5
100
AcDbEntity
8
0
100
AcDbSpline
62
7
6
CONTINUOUS
70
0
71
3
72
12
73
8
74
6
42
0.0000001000
43
0.0000001000
44
0.0000000001
12
-2.2895514616
22
0.0000000000
32
0.0000000000
13
-0.0000810979
23
2.3384151647
33
0.0000000000
40
0.0000000000
40
0.0000000000
40
0.0000000000
40
0.0000000000
40
0.2862858821
40
0.5505308969
40
0.7638945063
40
0.9286039949
40
1.0000000000
40
1.0000000000
40
1.0000000000
40
1.0000000000
10
0.4877039579
20
0.7708839343
30
0.0000000000
10
0.2692152046
20
0.7708839343
30
0.0000000000
10
-0.1517830140
20
0.8063453974
30
0.0000000000
10
-0.7183243689
20
0.9631557896
30
0.0000000000
10
-1.1502326871
20
1.2038194105
30
0.0000000000
10
-1.3813472137
20
1.4812358338
30
0.0000000000
10
-1.4095666712
20
1.6652877665
30
0.0000000000
10
-1.4095686013
20
1.7209389335
30
0.0000000000
11
0.4877039579
21
0.7708839343
31
0.0000000000
11
-0.1652042607
21
0.8287361245
31
0.0000000000
11
-0.7459395768
21
0.9983668706
31
0.0000000000
11
-1.1638965646
21
1.2512522398
31
0.0000000000
11
-1.3839792963
21
1.5574812140
31
0.0000000000
11
-1.4095686013
21
1.7209389335
31
0.0000000000
0
SPLINE
5
2C6
100
AcDbEntity
8
0
100
AcDbSpline
62
7
6
CONTINUOUS
70
0
71
3
72
12
73
8
74
6
42
0.0000001000
43
0.0000001000
44
0.0000000001
12
-2.2894945421
22
0.0000000000
32
0.0000000000
13
0.0004523004
23
2.3383630267
33
0.0000000000
40
0.0000000000
40
0.0000000000
40
0.0000000000
40
0.0000000000
40
0.2861949694
40
0.5510519131
40
0.7649254386
40
0.9291457014
40
1.0000000000
40
1.0000000000
40
1.0000000000
40
1.0000000000
10
-58.9092656618
20
5.0135246214
30
0.0000000000
10
-59.1276796019
20
5.0135246214
30
0.0000000000
10
-59.5490678254
20
5.0490078811
30
0.0000000000
10
-60.1163386957
20
5.2060985070
30
0.0000000000
10
-60.5485600320
20
5.4473884609
30
0.0000000000
10
-60.7787084471
20
5.7250637596
30
0.0000000000
10
-60.8065481559
20
5.9082728914
30
0.0000000000
10
-60.8065374734
20
5.9635005822
30
0.0000000000
11
-58.9092656618
21
5.0135246214
31
0.0000000000
11
-59.5619521550
21
5.0713362526
31
0.0000000000
11
-60.1439852306
21
5.2414672161
31
0.0000000000
11
-60.5626299434
21
5.4954470231
31
0.0000000000
11
-60.7813468286
21
5.8012654885
31
0.0000000000
11
-60.8065374734
21
5.9635005822
31
0.0000000000
0
SPLINE
5
2C7
100
AcDbEntity
8
0
100
AcDbSpline
62
7
6
CONTINUOUS
70
0
71
3
72
12
73
8
74
6
42
0.0000001000
43
0.0000001000
44
0.0000000001
12
-2.2894030341
22
0.0000000000
32
0.0000000000
13
-0.0028604245
23
2.3378614615
33
0.0000000000
40
0.0000000000
40
0.0000000000
40
0.0000000000
40
0.0000000000
40
0.2870058030
40
0.5518674233
40
0.7645928730
40
0.9277488145
40
1.0000000000
40
1.0000000000
40
1.0000000000
40
1.0000000000
10
-24.9681401648
20
-11.9570381271
30
0.0000000000
10
-25.1871641502
20
-11.9570381271
30
0.0000000000
10
-25.6091659811
20
-11.9213949417
30
0.0000000000
10
-26.1760872433
20
-11.7640841257
30
0.0000000000
10
-26.6066643252
20
-11.5232842879
30
0.0000000000
10
-26.8366768491
20
-11.2470104966
30
0.0000000000
10
-26.8653965131
20
-11.0634891686
30
0.0000000000
10
-26.8654654028
20
-11.0071847478
30
0.0000000000
11
-24.9681401648
21
-11.9570381271
31
0.0000000000
11
-25.6226346033
21
-11.8988953227
31
0.0000000000
11
-26.2045400255
21
-11.7283763599
31
0.0000000000
11
-26.6208657486
21
-11.4756792863
31
0.0000000000
11
-26.8390907041
21
-11.1725253468
31
0.0000000000
11
-26.8654654028
21
-11.0071847478
31
0.0000000000
0
SPLINE
5
2C8
100
AcDbEntity
8
0
100
AcDbSpline
62
7
6
CONTINUOUS
70
0
71
3
72
10
73
6
74
4
42
0.0000001000
43
0.0000001000
44
0.0000000001
12
-0.7485292214
22
0.3742646107
32
0.0000000000
13
0.0144647015
23
0.8461269115
33
0.0000000000
40
0.0000000000
40
0.0000000000
40
0.0000000000
40
0.0000000000
40
0.5118469792
40
0.9097792195
40
1.0000000000
40
1.0000000000
40
1.0000000000
40
1.0000000000
10
120.6409054713
20
6.5822430550
30
0.0000000000
10
120.5131946643
20
6.6460984584
30
0.0000000000
10
120.2962420460
20
6.7848883491
30
0.0000000000
10
120.1384316181
20
7.0378142637
30
0.0000000000
10
120.1293100530
20
7.1749113798
30
0.0000000000
10
120.1297450586
20
7.2003574566
30
0.0000000000
11
120.6409054713
21
6.5822430550
31
0.0000000000
11
120.2923037110
21
6.8311705095
31
0.0000000000
11
120.1350016167
21
7.1247002136
31
0.0000000000
11
120.1297450586
21
7.2003574566
31
0.0000000000
0
SPLINE
5
2C9
100
AcDbEntity
8
0
100
AcDbSpline
62
7
6
CONTINUOUS
70
0
71
3
72
10
73
6
74
4
42
0.0000001000
43
0.0000001000
44
0.0000000001
12
-0.7485292214
22
0.3742646107
32
0.0000000000
13
0.0144647015
23
0.8461269115
33
0.0000000000
40
0.0000000000
40
0.0000000000
40
0.0000000000
40
0.0000000000
40
0.5118469792
40
0.9097792195
40
1.0000000000
40
1.0000000000
40
1.0000000000
40
1.0000000000
10
-1.6885676740
20
67.7469796276
30
0.0000000000
10
-1.8162784809
20
67.8108350311
30
0.0000000000
10
-2.0332310992
20
67.9496249217
30
0.0000000000
10
-2.1910415272
20
68.2025508364
30
0.0000000000
10
-2.2001630922
20
68.3396479525
30
0.0000000000
10
-2.1997280867
20
68.3650940292
30
0.0000000000
11
-1.6885676740
21
67.7469796276
31
0.0000000000
11
-2.0371694342
21
67.9959070821
31
0.0000000000
11
-2.1944715286
21
68.2894367862
31
0.0000000000
11
-2.1997280867
21
68.3650940292
31
0.0000000000
0
SPLINE
5
2CA
100
AcDbEntity
8
0
100
AcDbSpline
62
7
6
CONTINUOUS
70
0
71
3
72
10
73
6
74
4
42
0.0000001000
43
0.0000001000
44
0.0000000001
12
-0.7485292214
22
0.3742646107
32
0.0000000000
13
0.0144647015
23
0.8461269115
33
0.0000000000
40
0.0000000000
40
0.0000000000
40
0.0000000000
40
0.0000000000
40
0.5118469792
40
0.9097792195
40
1.0000000000
40
1.0000000000
40
1.0000000000
40
1.0000000000
10
-20.7804507660
20
-64.1284350637
30
0.0000000000
10
-20.9081615730
20
-64.0645796602
30
0.0000000000
10
-21.1251141913
20
-63.9257897696
30
0.0000000000
10
-21.2829246193
20
-63.6728638549
30
0.0000000000
10
-21.2920461843
20
-63.5357667388
30
0.0000000000
10
-21.2916111787
20
-63.5103206620
30
0.0000000000
11
-20.7804507660
21
-64.1284350637
31
0.0000000000
11
-21.1290525263
21
-63.8795076092
31
0.0000000000
11
-21.2863546206
21
-63.5859779051
31
0.0000000000
11
-21.2916111787
21
-63.5103206620
31
0.0000000000
0
SPLINE
5
2CB
100
AcDbEntity
8
0
100
AcDbSpline
62
7
6
CONTINUOUS
70
0
71
3
72
10
73
6
74
4
42
0.0000001000
43
0.0000001000
44
0.0000000001
12
-0.7485292214
22
0.3742646107
32
0.0000000000
13
0.0144647015
23
0.8461269115
33
0.0000000000
40
0.0000000000
40
0.0000000000
40
0.0000000000
40
0.0000000000
40
0.5118469792
40
0.9097792195
40
1.0000000000
40
1.0000000000
40
1.0000000000
40
1.0000000000
10
-143.1099239113
20
-2.9636984911
30
0.0000000000
10
-143.2376347183
20
-2.8998430876
30
0.0000000000
10
-143.4545873366
20
-2.7610531970
30
0.0000000000
10
-143.6123977645
20
-2.5081272823
30
0.0000000000
10
-143.6215193296
20
-2.3710301662
30
0.0000000000
10
-143.6210843240
20
-2.3455840894
30
0.0000000000
11
-143.1099239113
21
-2.9636984911
31
0.0000000000
11
-143.4585256715
21
-2.7147710365
31
0.0000000000
11
-143.6158277659
21
-2.4212413324
31
0.0000000000
11
-143.6210843240
21
-2.3455840894
31
0.0000000000
0
SPLINE
5
2CC
100
AcDbEntity
8
0
100
AcDbSpline
62
7
6
CONTINUOUS
70
0
71
3
72
10
73
6
74
4
42
0.0000001000
43
0.0000001000
44
0.0000000001
12
-1.2850198555
22
-0.6425099277
32
0.0000000000
13
0.0001687063
23
-1.4624148735
33
0.0000000000
40
0.0000000000
40
0.0000000000
40
0.0000000000
40
0.0000000000
40
0.4638996715
40
0.8372389637
40
1.0000000000
40
1.0000000000
40
1.0000000000
40
1.0000000000
10
-145.5847976455
20
-1.7262616240
30
0.0000000000
10
-145.7835044084
20
-1.8256150055
30
0.0000000000
10
-146.1255938293
20
-2.0433627310
30
0.0000000000
10
-146.4235141595
20
-2.4463048616
30
0.0000000000
10
-146.4606752906
20
-2.7076355117
30
0.0000000000
10
-146.4606661377
20
-2.7869768985
30
0.0000000000
11
-145.5847976455
21
-1.7262616240
31
0.0000000000
11
-146.1341491064
21
-2.1036370615
31
0.0000000000
11
-146.4268146108
21
-2.5531312946
31
0.0000000000
11
-146.4606661377
21
-2.7869768985
31
0.0000000000
0
SPLINE
5
2CD
100
AcDbEntity
8
0
100
AcDbSpline
62
7
6
CONTINUOUS
70
0
71
3
72
12
73
8
74
6
42
0.0000001000
43
0.0000001000
44
0.0000000001
12
-3.9025282800
22
1.9512641400
32
0.0000000000
13
-3.9025282800
23
-1.9512641400
33
0.0000000000
40
0.0000000000
40
0.0000000000
40
0.0000000000
40
0.0000000000
40
0.1840818575
40
0.3928343235
40
0.6074731160
40
0.8157694620
40
1.0000000000
40
1.0000000000
40
1.0000000000
40
1.0000000000
10
2.5540730131
20
70.2218533618
30
0.0000000000
10
2.3146114615
20
70.3415841375
30
0.0000000000
10
1.7699376339
20
70.5303839836
30
0.0000000000
10
0.8937051836
20
70.6674249627
30
0.0000000000
10
-0.0288829952
20
70.6673258704
30
0.0000000000
10
-0.9046386961
20
70.5302837719
30
0.0000000000
10
-1.4489127125
20
70.3416808425
30
0.0000000000
10
-1.6885676740
20
70.2218533618
30
0.0000000000
11
2.5540730131
21
70.2218533618
31
0.0000000000
11
1.7993221381
21
70.4965290922
31
0.0000000000
11
0.9003336719
21
70.6428618444
31
0.0000000000
11
-0.0361695571
21
70.6427558739
31
0.0000000000
11
-0.9331852479
21
70.4966906259
31
0.0000000000
11
-1.6885676740
21
70.2218533618
31
0.0000000000
0
SPLINE
5
2CE
100
AcDbEntity
8
0
100
AcDbSpline
62
7
6
CONTINUOUS
70
0
71
3
72
11
73
7
74
5
42
0.0000001000
43
0.0000001000
44
0.0000000001
12
-2.2746845032
22
-1.1373422516
32
0.0000000000
13
-2.2746845032
23
1.1373422516
33
0.0000000000
40
0.0000000000
40
0.0000000000
40
0.0000000000
40
0.0000000000
40
0.2353701082
40
0.5000000000
40
0.7646298918
40
1.0000000000
40
1.0000000000
40
1.0000000000
40
1.0000000000
10
6.6199370049
20
69.4263582329
30
0.0000000000
10
6.4414727591
20
69.3371261100
30
0.0000000000
10
6.0313245732
20
69.2098372295
30
0.0000000000
10
5.3825001379
20
69.1490329994
30
0.0000000000
10
4.7336757025
20
69.2098372295
30
0.0000000000
10
4.3235275166
20
69.3371261100
30
0.0000000000
10
4.1450632708
20
69.4263582329
30
0.0000000000
11
6.6199370049
21
69.4263582329
31
0.0000000000
11
6.0521961445
21
69.2366820755
31
0.0000000000
11
5.3825001379
21
69.1700766665
31
0.0000000000
11
4.7128041312
21
69.2366820755
31
0.0000000000
11
4.1450632708
21
69.4263582329
31
0.0000000000
0
SPLINE
5
2CF
100
AcDbEntity
8
0
100
AcDbSpline
62
7
6
CONTINUOUS
70
0
71
3
72
9
73
5
74
3
42
0.0000001000
43
0.0000001000
44
0.0000000001
12
-0.6395232459
22
0.3197616229
32
0.0000000000
13
0.0000000000
23
0.7101026376
33
0.0000000000
40
0.0000000000
40
0.0000000000
40
0.0000000000
40
0.0000000000
40
0.5679903392
40
1.0000000000
40
1.0000000000
40
1.0000000000
40
1.0000000000
10
123.8228859866
20
9.5874468750
30
0.0000000000
10
123.7018049782
20
9.6479873792
30
0.0000000000
10
123.4951769157
20
9.7788190151
30
0.0000000000
10
123.3835461584
20
10.0155198944
30
0.0000000000
10
123.3835461584
20
10.1177769609
30
0.0000000000
11
123.8228859866
21
9.5874468750
31
0.0000000000
11
123.4977268596
21
9.8307643866
31
0.0000000000
11
123.3835461584
21
10.1177769609
31
0.0000000000
0
SPLINE
5
2D0
100
AcDbEntity
8
0
100
AcDbSpline
62
7
6
CONTINUOUS
70
0
71
3
72
12
73
8
74
6
42
0.0000001000
43
0.0000001000
44
0.0000000001
12
2.2895514616
22
0.0000000000
32
0.0000000000
13
0.0000810979
23
-2.3384151647
33
0.0000000000
40
0.0000000000
40
0.0000000000
40
0.0000000000
40
0.0000000000
40
0.2862858821
40
0.5505308969
40
0.7638945063
40
0.9286039949
40
1.0000000000
40
1.0000000000
40
1.0000000000
40
1.0000000000
10
33.2582667064
20
45.0972908055
30
0.0000000000
10
33.4767554597
20
45.0972908055
30
0.0000000000
10
33.8977536783
20
45.0618293424
30
0.0000000000
10
34.4642950332
20
44.9050189502
30
0.0000000000
10
34.8962033514
20
44.6643553293
30
0.0000000000
10
35.1273178780
20
44.3869389060
30
0.0000000000
10
35.1555373355
20
44.2028869733
30
0.0000000000
10
35.1555392655
20
44.1472358063
30
0.0000000000
11
33.2582667064
21
45.0972908055
31
0.0000000000
11
33.9111749249
21
45.0394386153
31
0.0000000000
11
34.4919102411
21
44.8698078692
31
0.0000000000
11
34.9098672289
21
44.6169225000
31
0.0000000000
11
35.1299499606
21
44.3106935258
31
0.0000000000
11
35.1555392655
21
44.1472358063
31
0.0000000000
0
SPLINE
5
2D1
100
AcDbEntity
8
0
100
AcDbSpline
62
7
6
CONTINUOUS
70
0
71
3
72
9
73
5
74
3
42
0.0000001000
43
0.0000001000
44
0.0000000001
12
-0.4417551114
22
0.1045356173
32
0.0000000000
13
-0.4106978241
23
-0.2071295598
33
0.0000000000
40
0.0000000000
40
0.0000000000
40
0.0000000000
40
0.0000000000
40
0.7331781259
40
1.0000000000
40
1.0000000000
40
1.0000000000
40
1.0000000000
10
8.8718288059
20
73.8323536412
30
0.0000000000
10
8.7638670777
20
73.8579013838
30
0.0000000000
10
8.6050491697
20
73.8651369657
30
0.0000000000
10
8.4611641989
20
73.8103278955
30
0.0000000000
10
8.4246364779
20
73.7919056630
30
0.0000000000
11
8.8718288059
21
73.8323536412
31
0.0000000000
11
8.5390106483
21
73.8351592116
31
0.0000000000
11
8.4246364779
21
73.7919056630
31
0.0000000000
0
SPLINE
5
2D2
100
AcDbEntity
8
0
100
AcDbSpline
62
7
6
CONTINUOUS
70
0
71
3
72
16
73
12
74
10
42
0.0000001000
43
0.0000001000
44
0.0000000001
12
0.0000000000
22
4.5784335911
32
0.0000000000
13
0.0000000000
23
-4.5784335911
33
0.0000000000
40
0.0000000000
40
0.0000000000
40
0.0000000000
40
0.0000000000
40
0.0756491854
40
0.1731864826
40
0.2927012632
40
0.4284651843
40
0.5708809620
40
0.7065903600
40
0.8265874258
40
0.9243801356
40
1.0000000000
40
1.0000000000
40
1.0000000000
40
1.0000000000
10
20.6298395816
20
32.5409416194
30
0.0000000000
10
20.6298395816
20
32.6563932098
30
0.0000000000
10
20.7388914730
20
32.9199205453
30
0.0000000000
10
21.1042244681
20
33.1950862778
30
0.0000000000
10
21.6091904560
20
33.3927067851
30
0.0000000000
10
22.2111209898
20
33.4955325479
30
0.0000000000
10
22.8454563376
20
33.4957785085
30
0.0000000000
10
23.4481104606
20
33.3933778265
30
0.0000000000
10
23.9542587753
20
33.1958872208
30
0.0000000000
10
24.3206846580
20
32.9202188007
30
0.0000000000
10
24.4298395816
20
32.6563484618
30
0.0000000000
10
24.4298395816
20
32.5409416194
30
0.0000000000
11
20.6298395816
21
32.5409416194
31
0.0000000000
11
20.7455455984
21
32.8673979646
31
0.0000000000
11
21.0848188883
21
33.1577712547
31
0.0000000000
11
21.5905392602
21
33.3667313787
31
0.0000000000
11
22.2023167192
21
33.4767205429
31
0.0000000000
11
22.8543578475
21
33.4769822028
31
0.0000000000
11
23.4659947783
21
33.3676237602
31
0.0000000000
11
23.9739543922
21
33.1583014038
31
0.0000000000
11
24.3142163192
21
32.8672848660
31
0.0000000000
11
24.4298395816
21
32.5409416194
31
0.0000000000
0
SPLINE
5
2D3
100
AcDbEntity
8
0
100
AcDbSpline
62
7
6
CONTINUOUS
70
0
71
3
72
12
73
8
74
6
42
0.0000001000
43
0.0000001000
44
0.0000000001
12
-0.0000810949
22
2.3383275930
32
0.0000000000
13
2.2894657198
23
0.0000000000
33
0.0000000000
40
0.0000000000
40
0.0000000000
40
0.0000000000
40
0.0000000000
40
0.0709890745
40
0.2350832755
40
0.4489404468
40
0.7138033899
40
1.0000000000
40
1.0000000000
40
1.0000000000
40
1.0000000000
10
24.0462755215
20
14.4488609948
30
0.0000000000
10
24.0462736025
20
14.5041928988
30
0.0000000000
10
24.0741959746
20
14.6874125699
30
0.0000000000
10
24.3043604456
20
14.9649927521
30
0.0000000000
10
24.7364906459
20
15.2062409157
30
0.0000000000
10
25.3037465114
20
15.3633213979
30
0.0000000000
10
25.7251356380
20
15.3988059957
30
0.0000000000
10
25.9435480806
20
15.3988059957
30
0.0000000000
11
24.0462755215
21
14.4488609948
31
0.0000000000
11
24.0715814089
21
14.6113950326
31
0.0000000000
11
24.2902157853
21
14.9169118387
31
0.0000000000
11
24.7088270170
21
15.1708627620
31
0.0000000000
11
25.2908660256
21
15.3409951761
31
0.0000000000
11
25.9435480806
21
15.3988059957
31
0.0000000000
0
SPLINE
5
2D4
100
AcDbEntity
8
0
100
AcDbSpline
62
7
6
CONTINUOUS
70
0
71
3
72
10
73
6
74
4
42
0.0000001000
43
0.0000001000
44
0.0000000001
12
-1.6690254316
22
0.8320782544
32
0.0000000000
13
-1.6548852094
23
-0.8274426047
33
0.0000000000
40
0.0000000000
40
0.0000000000
40
0.0000000000
40
0.0000000000
40
0.2130902741
40
0.5871067946
40
1.0000000000
40
1.0000000000
40
1.0000000000
40
1.0000000000
10
142.4059635006
20
44.7353170913
30
0.0000000000
10
142.2874124717
20
44.7944196857
30
0.0000000000
10
141.9394351183
20
44.9153712854
30
0.0000000000
10
141.3074634078
20
44.9048069083
30
0.0000000000
10
140.8444356593
20
44.7365298982
30
0.0000000000
10
140.6166720398
20
44.6226480885
30
0.0000000000
11
142.4059635006
21
44.7353170913
31
0.0000000000
11
142.0317784461
21
44.8654680747
31
0.0000000000
11
141.3397758095
21
44.8690805032
31
0.0000000000
11
140.6166720398
21
44.6226480885
31
0.0000000000
0
SPLINE
5
2D5
100
AcDbEntity
8
0
100
AcDbSpline
62
7
6
CONTINUOUS
70
0
71
3
72
12
73
8
74
6
42
0.0000001000
43
0.0000001000
44
0.0000000001
12
2.2895514616
22
0.0000000000
32
0.0000000000
13
0.0000810979
23
-2.3384151647
33
0.0000000000
40
0.0000000000
40
0.0000000000
40
0.0000000000
40
0.0000000000
40
0.2862858821
40
0.5505308969
40
0.7638945063
40
0.9286039949
40
1.0000000000
40
1.0000000000
40
1.0000000000
40
1.0000000000
10
67.1993922033
20
28.1267280570
30
0.0000000000
10
67.4178809566
20
28.1267280570
30
0.0000000000
10
67.8388791753
20
28.0912665939
30
0.0000000000
10
68.4054205302
20
27.9344562017
30
0.0000000000
10
68.8373288483
20
27.6937925808
30
0.0000000000
10
69.0684433749
20
27.4163761575
30
0.0000000000
10
69.0966628325
20
27.2323242249
30
0.0000000000
10
69.0966647625
20
27.1766730578
30
0.0000000000
11
67.1993922033
21
28.1267280570
31
0.0000000000
11
67.8523004219
21
28.0688758668
31
0.0000000000
11
68.4330357380
21
27.8992451207
31
0.0000000000
11
68.8509927258
21
27.6463597516
31
0.0000000000
11
69.0710754575
21
27.3401307773
31
0.0000000000
11
69.0966647625
21
27.1766730578
31
0.0000000000
0
SPLINE
5
2D6
100
AcDbEntity
8
0
100
AcDbSpline
62
7
6
CONTINUOUS
70
0
71
3
72
15
73
11
74
9
42
0.0000001000
43
0.0000001000
44
0.0000000001
12
6.5668597494
22
3.2834298747
32
0.0000000000
13
-6.6022267274
23
3.3388332930
33
0.0000000000
40
0.0000000000
40
0.0000000000
40
0.0000000000
40
0.0000000000
40
0.1267913026
40
0.2681655531
40
0.4168420662
40
0.5638832190
40
0.7007064061
40
0.8211682505
40
0.9241265509
40
1.0000000000
40
1.0000000000
40
1.0000000000
40
1.0000000000
10
-28.2050719685
20
-57.3685396125
30
0.0000000000
10
-27.9275317347
20
-57.2297694956
30
0.0000000000
10
-27.3873105648
20
-56.8408720912
30
0.0000000000
10
-26.7117204447
20
-56.0679377017
30
0.0000000000
10
-26.1734485048
20
-55.1358435280
30
0.0000000000
10
-25.8226088333
20
-54.1302234307
30
0.0000000000
10
-25.6910991241
20
-53.1411966628
30
0.0000000000
10
-25.7938538040
20
-52.2542525300
30
0.0000000000
10
-26.1210591147
20
-51.5761826689
30
0.0000000000
10
-26.4740140558
20
-51.2913843382
30
0.0000000000
10
-26.6409919604
20
-51.2069414055
30
0.0000000000
11
-28.2050719685
21
-57.3685396125
31
0.0000000000
11
-27.4402939257
21
-56.8377985403
31
0.0000000000
11
-26.7503776863
21
-56.0623060004
31
0.0000000000
11
-26.2028570586
21
-55.1179726059
31
0.0000000000
11
-25.8513271766
21
-54.0972362890
31
0.0000000000
11
-25.7301982343
21
-53.1000138322
31
0.0000000000
11
-25.8513271766
21
-52.2239203177
31
0.0000000000
11
-26.2028570586
21
-51.5547138827
31
0.0000000000
11
-26.6409919604
21
-51.2069414055
31
0.0000000000
0
SPLINE
5
2D7
100
AcDbEntity
8
0
100
AcDbSpline
62
7
6
CONTINUOUS
70
0
71
3
72
12
73
8
74
6
42
0.0000001000
43
0.0000001000
44
0.0000000001
12
0.0004523059
22
2.3383914845
32
0.0000000000
13
2.2895224052
23
0.0000000000
33
0.0000000000
40
0.0000000000
40
0.0000000000
40
0.0000000000
40
0.0000000000
40
0.0715435035
40
0.2361078006
40
0.4494546943
40
0.7137085075
40
1.0000000000
40
1.0000000000
40
1.0000000000
40
1.0000000000
10
-35.3506933507
20
18.6914226435
30
0.0000000000
10
-35.3506825642
20
18.7471882166
30
0.0000000000
10
-35.3223762713
20
18.9312467570
30
0.0000000000
10
-35.0912509902
20
19.2085583519
30
0.0000000000
10
-34.6594466000
20
19.4491796931
30
0.0000000000
10
-34.0929161171
20
19.6059827966
30
0.0000000000
10
-33.6719118012
20
19.6414466828
30
0.0000000000
10
-33.4534215390
20
19.6414466828
30
0.0000000000
11
-35.3506933507
21
18.6914226435
31
0.0000000000
11
-35.3249793860
21
18.8552081140
31
0.0000000000
11
-35.1050010576
21
19.1610968435
31
0.0000000000
11
-34.6870808096
21
19.4139570295
31
0.0000000000
11
-34.1063342295
21
19.5835936744
31
0.0000000000
11
-33.4534215390
21
19.6414466828
31
0.0000000000
0
SPLINE
5
2D8
100
AcDbEntity
8
0
100
AcDbSpline
62
7
6
CONTINUOUS
70
0
71
3
72
11
73
7
74
5
42
0.0000001000
43
0.0000001000
44
0.0000000001
12
-4.2244140774
22
-2.1122070387
32
0.0000000000
13
-4.2244140774
23
2.1122070387
33
0.0000000000
40
0.0000000000
40
0.0000000000
40
0.0000000000
40
0.0000000000
40
0.2353701082
40
0.5000000000
40
0.7646298918
40
1.0000000000
40
1.0000000000
40
1.0000000000
40
1.0000000000
10
132.6617207514
20
40.6451724443
30
0.0000000000
10
132.3302871520
20
40.4794556446
30
0.0000000000
10
131.5685833782
20
40.2430620094
30
0.0000000000
10
130.3636237126
20
40.1301398678
30
0.0000000000
10
129.1586640470
20
40.2430620094
30
0.0000000000
10
128.3969602732
20
40.4794556446
30
0.0000000000
10
128.0655266737
20
40.6451724443
30
0.0000000000
11
132.6617207514
21
40.6451724443
31
0.0000000000
11
131.6073448678
21
40.2929167234
31
0.0000000000
11
130.3636237126
21
40.1692209637
31
0.0000000000
11
129.1199025574
21
40.2929167234
31
0.0000000000
11
128.0655266737
21
40.6451724443
31
0.0000000000
0
SPLINE
5
2D9
100
AcDbEntity
8
0
100
AcDbSpline
62
7
6
CONTINUOUS
70
0
71
3
72
9
73
5
74
3
42
0.0000001000
43
0.0000001000
44
0.0000000001
12
0.0000000000
22
-1.1062809965
32
0.0000000000
13
0.3620321621
23
-1.0505796802
33
0.0000000000
40
0.0000000000
40
0.0000000000
40
0.0000000000
40
0.0000000000
40
0.7630778482
40
1.0000000000
40
1.0000000000
40
1.0000000000
40
1.0000000000
10
-36.1600232568
20
-69.5299553224
30
0.0000000000
10
-36.1600232568
20
-69.8113481632
30
0.0000000000
10
-36.1238440806
20
-70.1820753339
30
0.0000000000
10
-36.0209411441
20
-70.5386186586
30
0.0000000000
10
-35.9923499978
20
-70.6215871915
30
0.0000000000
11
-36.1600232568
21
-69.5299553224
31
0.0000000000
11
-36.0659557692
21
-70.3688764661
31
0.0000000000
11
-35.9923499978
21
-70.6215871915
31
0.0000000000
0
SPLINE
5
2DA
100
AcDbEntity
8
0
100
AcDbSpline
62
7
6
CONTINUOUS
70
0
71
3
72
10
73
6
74
4
42
0.0000001000
43
0.0000001000
44
0.0000000001
12
0.4610101780
22
-1.3378035877
32
0.0000000000
13
1.2707756520
23
-0.6335342567
33
0.0000000000
40
0.0000000000
40
0.0000000000
40
0.0000000000
40
0.0000000000
40
0.3526426424
40
0.8256535258
40
1.0000000000
40
1.0000000000
40
1.0000000000
40
1.0000000000
10
-35.9923499978
20
-70.6215871915
30
0.0000000000
10
-35.9381593820
20
-70.7788427222
30
0.0000000000
10
-35.7758610453
20
-71.1343759545
30
0.0000000000
10
-35.4577914191
20
-71.4970797834
30
0.0000000000
10
-35.1947393444
20
-71.6556942234
30
0.0000000000
10
-35.1208875929
20
-71.6925123780
30
0.0000000000
11
-35.9923499978
21
-70.6215871915
31
0.0000000000
11
-35.7812218894
21
-71.0723168839
31
0.0000000000
11
-35.3322847752
21
-71.5647321218
31
0.0000000000
11
-35.1208875929
21
-71.6925123780
31
0.0000000000
0
SPLINE
5
2DB
100
AcDbEntity
8
0
100
AcDbSpline
62
7
6
CONTINUOUS
70
0
71
3
72
16
73
12
74
10
42
0.0000001000
43
0.0000001000
44
0.0000000001
12
0.0000000000
22
4.5784335911
32
0.0000000000
13
0.0000000000
23
-4.5784335911
33
0.0000000000
40
0.0000000000
40
0.0000000000
40
0.0000000000
40
0.0000000000
40
0.0756198644
40
0.1734125742
40
0.2934096400
40
0.4291190380
40
0.5715348157
40
0.7072987368
40
0.8268135174
40
0.9243508146
40
1.0000000000
40
1.0000000000
40
1.0000000000
40
1.0000000000
10
54.5709650786
20
15.5703788709
30
0.0000000000
10
54.5709650786
20
15.6857857133
30
0.0000000000
10
54.6801200023
20
15.9496560523
30
0.0000000000
10
55.0465458849
20
16.2253244723
30
0.0000000000
10
55.5526941997
20
16.4228150781
30
0.0000000000
10
56.1553483226
20
16.5252157600
30
0.0000000000
10
56.7896836704
20
16.5249697994
30
0.0000000000
10
57.3916142042
20
16.4221440367
30
0.0000000000
10
57.8965801921
20
16.2245235294
30
0.0000000000
10
58.2619131872
20
15.9493577968
30
0.0000000000
10
58.3709650786
20
15.6858304614
30
0.0000000000
10
58.3709650786
20
15.5703788709
30
0.0000000000
11
54.5709650786
21
15.5703788709
31
0.0000000000
11
54.6865883410
21
15.8967221175
31
0.0000000000
11
55.0268502680
21
16.1877386554
31
0.0000000000
11
55.5348098819
21
16.3970610117
31
0.0000000000
11
56.1464468127
21
16.5064194543
31
0.0000000000
11
56.7984879410
21
16.5061577944
31
0.0000000000
11
57.4102654000
21
16.3961686302
31
0.0000000000
11
57.9159857720
21
16.1872085062
31
0.0000000000
11
58.2552590619
21
15.8968352161
31
0.0000000000
11
58.3709650786
21
15.5703788709
31
0.0000000000
0
SPLINE
5
2DC
100
AcDbEntity
8
0
100
AcDbSpline
62
7
6
CONTINUOUS
70
0
71
3
72
13
73
9
74
7
42
0.0000001000
43
0.0000001000
44
0.0000000001
12
-5.2620479101
22
-2.6310239551
32
0.0000000000
13
-0.0000000000
23
-5.8831484139
33
0.0000000000
40
0.0000000000
40
0.0000000000
40
0.0000000000
40
0.0000000000
40
0.1472740045
40
0.3136951725
40
0.4880704801
40
0.6654990460
40
0.8406738016
40
1.0000000000
40
1.0000000000
40
1.0000000000
40
1.0000000000
10
-33.3315961321
20
-42.3514859975
30
0.0000000000
10
-33.5899170880
20
-42.4806464754
30
0.0000000000
10
-34.1043864943
20
-42.8291119430
30
0.0000000000
10
-34.7777103417
20
-43.5162832053
30
0.0000000000
10
-35.3576839354
20
-44.3563910513
30
0.0000000000
10
-35.8050281089
20
-45.2928095198
30
0.0000000000
10
-36.0883879445
20
-46.2604897012
30
0.0000000000
10
-36.1600232568
20
-46.9173546179
30
0.0000000000
10
-36.1600232568
20
-47.2298011750
30
0.0000000000
11
-33.3315961321
21
-42.3514859975
31
0.0000000000
11
-34.0549752686
21
-42.8283842388
31
0.0000000000
11
-34.7455740843
21
-43.5224100057
31
0.0000000000
11
-35.3309072518
21
-44.3649100176
31
0.0000000000
11
-35.7805701742
21
-45.3069303200
31
0.0000000000
11
-36.0660286031
21
-46.2971862146
31
0.0000000000
11
-36.1600232568
21
-47.2298011750
31
0.0000000000
0
SPLINE
5
2DD
100
AcDbEntity
8
0
100
AcDbSpline
62
7
6
CONTINUOUS
70
0
71
3
72
12
73
8
74
6
42
0.0000001000
43
0.0000001000
44
0.0000000001
12
2.2895514616
22
0.0000000000
32
0.0000000000
13
0.0000810979
23
-2.3384151647
33
0.0000000000
40
0.0000000000
40
0.0000000000
40
0.0000000000
40
0.0000000000
40
0.2862858821
40
0.5505308969
40
0.7638945063
40
0.9286039949
40
1.0000000000
40
1.0000000000
40
1.0000000000
40
1.0000000000
10
7.8024225837
20
32.3693687441
30
0.0000000000
10
8.0209113369
20
32.3693687441
30
0.0000000000
10
8.4419095556
20
32.3339072811
30
0.0000000000
10
9.0084509105
20
32.1770968888
30
0.0000000000
10
9.4403592286
20
31.9364332680
30
0.0000000000
10
9.6714737553
20
31.6590168446
30
0.0000000000
10
9.6996932128
20
31.4749649120
30
0.0000000000
10
9.6996951428
20
31.4193137450
30
0.0000000000
11
7.8024225837
21
32.3693687441
31
0.0000000000
11
8.4553308022
21
32.3115165539
31
0.0000000000
11
9.0360661183
21
32.1418858078
31
0.0000000000
11
9.4540231062
21
31.8890004387
31
0.0000000000
11
9.6741058378
21
31.5827714645
31
0.0000000000
11
9.6996951428
21
31.4193137450
31
0.0000000000
0
SPLINE
5
2DE
100
AcDbEntity
8
0
100
AcDbSpline
62
7
6
CONTINUOUS
70
0
71
3
72
16
73
12
74
10
42
0.0000001000
43
0.0000001000
44
0.0000000001
12
0.0000000000
22
4.5784335911
32
0.0000000000
13
0.0000000000
23
-4.5784335911
33
0.0000000000
40
0.0000000000
40
0.0000000000
40
0.0000000000
40
0.0000000000
40
0.0756491854
40
0.1731864826
40
0.2927012632
40
0.4284651843
40
0.5708809620
40
0.7065903600
40
0.8265874258
40
0.9243801356
40
1.0000000000
40
1.0000000000
40
1.0000000000
40
1.0000000000
10
-4.8260045411
20
19.8130195580
30
0.0000000000
10
-4.8260045411
20
19.9284711485
30
0.0000000000
10
-4.7169526497
20
20.1919984839
30
0.0000000000
10
-4.3516196546
20
20.4671642165
30
0.0000000000
10
-3.8466536667
20
20.6647847238
30
0.0000000000
10
-3.2447231329
20
20.7676104865
30
0.0000000000
10
-2.6103877851
20
20.7678564471
30
0.0000000000
10
-2.0077336622
20
20.6654557652
30
0.0000000000
10
-1.5015853474
20
20.4679651594
30
0.0000000000
10
-1.1351594648
20
20.1922967394
30
0.0000000000
10
-1.0260045411
20
19.9284264004
30
0.0000000000
10
-1.0260045411
20
19.8130195580
30
0.0000000000
11
-4.8260045411
21
19.8130195580
31
0.0000000000
11
-4.7102985243
21
20.1394759032
31
0.0000000000
11
-4.3710252345
21
20.4298491933
31
0.0000000000
11
-3.8653048625
21
20.6388093173
31
0.0000000000
11
-3.2535274035
21
20.7487984815
31
0.0000000000
11
-2.6014862752
21
20.7490601414
31
0.0000000000
11
-1.9898493444
21
20.6397016989
31
0.0000000000
11
-1.4818897305
21
20.4303793425
31
0.0000000000
11
-1.1416278035
21
20.1393628047
31
0.0000000000
11
-1.0260045411
21
19.8130195580
31
0.0000000000
0
SPLINE
5
2DF
100
AcDbEntity
8
0
100
AcDbSpline
62
7
6
CONTINUOUS
70
0
71
3
72
10
73
6
74
4
42
0.0000001000
43
0.0000001000
44
0.0000000001
12
0.0000927688
22
-0.8041574921
32
0.0000000000
13
0.5788120786
23
-0.5518229731
33
0.0000000000
40
0.0000000000
40
0.0000000000
40
0.0000000000
40
0.0000000000
40
0.2967203659
40
0.9742473286
40
1.0000000000
40
1.0000000000
40
1.0000000000
40
1.0000000000
10
-146.4606661377
20
-2.7869768985
30
0.0000000000
10
-146.4606569622
20
-2.8665135336
30
0.0000000000
10
-146.4233703224
20
-3.1276660163
30
0.0000000000
10
-146.2595923988
20
-3.3491824996
30
0.0000000000
10
-146.1246134066
20
-3.4794664171
30
0.0000000000
10
-146.1196447542
20
-3.4842033890
30
0.0000000000
11
-146.4606661377
21
-2.7869768985
31
0.0000000000
11
-146.4266026697
21
-3.0213829091
31
0.0000000000
11
-146.1344721738
21
-3.4698907545
31
0.0000000000
11
-146.1196447542
21
-3.4842033890
31
0.0000000000
0
SPLINE
5
2E0
100
AcDbEntity
8
0
100
AcDbSpline
62
7
6
CONTINUOUS
70
0
71
3
72
15
73
11
74
9
42
0.0000001000
43
0.0000001000
44
0.0000000001
12
6.5668597494
22
3.2834298747
32
0.0000000000
13
-6.6022267274
23
3.3388332930
33
0.0000000000
40
0.0000000000
40
0.0000000000
40
0.0000000000
40
0.0000000000
40
0.1267913026
40
0.2681655531
40
0.4168420662
40
0.5638832190
40
0.7007064061
40
0.8211682505
40
0.9241265509
40
1.0000000000
40
1.0000000000
40
1.0000000000
40
1.0000000000
10
137.9650216103
20
25.7165071769
30
0.0000000000
10
138.2425618441
20
25.8552772938
30
0.0000000000
10
138.7827830140
20
26.2441746982
30
0.0000000000
10
139.4583731341
20
27.0171090878
30
0.0000000000
10
139.9966450741
20
27.9492032614
30
0.0000000000
10
140.3474847456
20
28.9548233588
30
0.0000000000
10
140.4789944547
20
29.9438501266
30
0.0000000000
10
140.3762397748
20
30.8307942594
30
0.0000000000
10
140.0490344641
20
31.5088641205
30
0.0000000000
10
139.6960795230
20
31.7936624512
30
0.0000000000
10
139.5291016184
20
31.8781053839
30
0.0000000000
11
137.9650216103
21
25.7165071769
31
0.0000000000
11
138.7297996531
21
26.2472482492
31
0.0000000000
11
139.4197158926
21
27.0227407890
31
0.0000000000
11
139.9672365202
21
27.9670741835
31
0.0000000000
11
140.3187664022
21
28.9878105005
31
0.0000000000
11
140.4398953445
21
29.9850329572
31
0.0000000000
11
140.3187664022
21
30.8611264718
31
0.0000000000
11
139.9672365202
21
31.5303329067
31
0.0000000000
11
139.5291016184
21
31.8781053839
31
0.0000000000
0
SPLINE
5
2E1
100
AcDbEntity
8
0
100
AcDbSpline
62
7
6
CONTINUOUS
70
0
71
3
72
12
73
8
74
6
42
0.0000001000
43
0.0000001000
44
0.0000000001
12
-0.0000810949
22
2.3383275930
32
0.0000000000
13
2.2894657198
23
0.0000000000
33
0.0000000000
40
0.0000000000
40
0.0000000000
40
0.0000000000
40
0.0000000000
40
0.0709890745
40
0.2350832755
40
0.4489404468
40
0.7138033899
40
1.0000000000
40
1.0000000000
40
1.0000000000
40
1.0000000000
10
49.5021196442
20
27.1767830562
30
0.0000000000
10
49.5021177252
20
27.2321149601
30
0.0000000000
10
49.5300400974
20
27.4153346313
30
0.0000000000
10
49.7602045683
20
27.6929148135
30
0.0000000000
10
50.1923347686
20
27.9341629771
30
0.0000000000
10
50.7595906341
20
28.0912434592
30
0.0000000000
10
51.1809797607
20
28.1267280570
30
0.0000000000
10
51.3993922033
20
28.1267280570
30
0.0000000000
11
49.5021196442
21
27.1767830562
31
0.0000000000
11
49.5274255316
21
27.3393170940
31
0.0000000000
11
49.7460599080
21
27.6448339001
31
0.0000000000
11
50.1646711397
21
27.8987848233
31
0.0000000000
11
50.7467101483
21
28.0689172375
31
0.0000000000
11
51.3993922033
21
28.1267280570
31
0.0000000000
0
SPLINE
5
2E2
100
AcDbEntity
8
0
100
AcDbSpline
62
7
6
CONTINUOUS
70
0
71
3
72
10
73
6
74
4
42
0.0000001000
43
0.0000001000
44
0.0000000001
12
1.4514917354
22
-0.7340385495
32
0.0000000000
13
1.4437163471
23
0.7218581736
33
0.0000000000
40
0.0000000000
40
0.0000000000
40
0.0000000000
40
0.0000000000
40
0.0738071476
40
0.5045072608
40
1.0000000000
40
1.0000000000
40
1.0000000000
40
1.0000000000
10
133.9260678681
20
24.3796499294
30
0.0000000000
10
133.9617780230
20
24.3615908322
30
0.0000000000
10
134.2112603246
20
24.2495247122
30
0.0000000000
10
134.7686780070
20
24.1948708827
30
0.0000000000
10
135.2516975537
20
24.3598451486
30
0.0000000000
10
135.4901478762
20
24.4790703098
30
0.0000000000
11
133.9260678681
21
24.3796499294
31
0.0000000000
11
134.0354535940
21
24.3306096397
31
0.0000000000
11
134.7253698334
21
24.2450333393
31
0.0000000000
11
135.4901478762
21
24.4790703098
31
0.0000000000
0
SPLINE
5
2E3
100
AcDbEntity
8
0
100
AcDbSpline
62
7
6
CONTINUOUS
70
0
71
3
72
11
73
7
74
5
42
0.0000001000
43
0.0000001000
44
0.0000000001
12
1.0936268754
22
0.5468134377
32
0.0000000000
13
0.4369762371
23
1.1437179713
33
0.0000000000
40
0.0000000000
40
0.0000000000
40
0.0000000000
40
0.0000000000
40
0.2719067562
40
0.5750869674
40
0.8939270422
40
1.0000000000
40
1.0000000000
40
1.0000000000
40
1.0000000000
10
124.5299927678
20
11.0016604374
30
0.0000000000
10
124.6291142799
20
11.0512211934
30
0.0000000000
10
124.8220506736
20
11.1901163028
30
0.0000000000
10
125.0633315459
20
11.4661483365
30
0.0000000000
10
125.2126587837
20
11.7247712985
30
0.0000000000
10
125.2798670540
20
11.8847375427
30
0.0000000000
10
125.2953175080
20
11.9251767254
30
0.0000000000
11
124.5299927678
21
11.0016604374
31
0.0000000000
11
124.8031277831
21
11.1912108203
31
0.0000000000
11
125.0495264400
21
11.4681724417
31
0.0000000000
11
125.2450695213
21
11.8054343683
31
0.0000000000
11
125.2953175080
21
11.9251767254
31
0.0000000000
0
SPLINE
5
2E4
100
AcDbEntity
8
0
100
AcDbSpline
62
7
6
CONTINUOUS
70
0
71
3
72
9
73
5
74
3
42
0.0000001000
43
0.0000001000
44
0.0000000001
12
0.2196593921
22
0.5749246136
32
0.0000000000
13
0.0000000000
23
0.6146333729
33
0.0000000000
40
0.0000000000
40
0.0000000000
40
0.0000000000
40
0.0000000000
40
0.4162884574
40
1.0000000000
40
1.0000000000
40
1.0000000000
40
1.0000000000
10
125.2953175080
20
11.9251767254
30
0.0000000000
10
125.3257980645
20
12.0049548856
30
0.0000000000
10
125.3866111654
20
12.2013278746
30
0.0000000000
10
125.4138762443
20
12.4065443989
30
0.0000000000
10
125.4138762443
20
12.5261339304
30
0.0000000000
11
125.2953175080
21
11.9251767254
31
0.0000000000
11
125.3706159078
21
12.1699830529
31
0.0000000000
11
125.4138762443
21
12.5261339304
31
0.0000000000
0
SPLINE
5
2E5
100
AcDbEntity
8
0
100
AcDbSpline
62
7
6
CONTINUOUS
70
0
71
3
72
12
73
8
74
6
42
0.0000001000
43
0.0000001000
44
0.0000000001
12
2.2895514616
22
0.0000000000
32
0.0000000000
13
0.0000810979
23
-2.3384151647
33
0.0000000000
40
0.0000000000
40
0.0000000000
40
0.0000000000
40
0.0000000000
40
0.2862858821
40
0.5505308969
40
0.7638945063
40
0.9286039949
40
1.0000000000
40
1.0000000000
40
1.0000000000
40
1.0000000000
10
41.7435480806
20
15.3988059957
30
0.0000000000
10
41.9620368339
20
15.3988059957
30
0.0000000000
10
42.3830350526
20
15.3633445326
30
0.0000000000
10
42.9495764075
20
15.2065341403
30
0.0000000000
10
43.3814847256
20
14.9658705195
30
0.0000000000
10
43.6125992522
20
14.6884540962
30
0.0000000000
10
43.6408187098
20
14.5044021635
30
0.0000000000
10
43.6408206398
20
14.4487509965
30
0.0000000000
11
41.7435480806
21
15.3988059957
31
0.0000000000
11
42.3964562992
21
15.3409538055
31
0.0000000000
11
42.9771916153
21
15.1713230594
31
0.0000000000
11
43.3951486031
21
14.9184376902
31
0.0000000000
11
43.6152313348
21
14.6122087160
31
0.0000000000
11
43.6408206398
21
14.4487509965
31
0.0000000000
0
SPLINE
5
2E6
100
AcDbEntity
8
0
100
AcDbSpline
62
7
6
CONTINUOUS
70
0
71
3
72
12
73
8
74
6
42
0.0000001000
43
0.0000001000
44
0.0000000001
12
0.0004523059
22
2.3383914845
32
0.0000000000
13
2.2895224052
23
-0.0000000000
33
0.0000000000
40
0.0000000000
40
0.0000000000
40
0.0000000000
40
0.0000000000
40
0.0715435035
40
0.2361078006
40
0.4494546943
40
0.7137085075
40
1.0000000000
40
1.0000000000
40
1.0000000000
40
1.0000000000
10
-60.8065374734
20
5.9635005822
30
0.0000000000
10
-60.8065266869
20
6.0192661553
30
0.0000000000
10
-60.7782203940
20
6.2033246957
30
0.0000000000
10
-60.5470951129
20
6.4806362906
30
0.0000000000
10
-60.1152907227
20
6.7212576317
30
0.0000000000
10
-59.5487602398
20
6.8780607353
30
0.0000000000
10
-59.1277559239
20
6.9135246214
30
0.0000000000
10
-58.9092656618
20
6.9135246214
30
0.0000000000
11
-60.8065374734
21
5.9635005822
31
0.0000000000
11
-60.7808235087
21
6.1272860526
31
0.0000000000
11
-60.5608451804
21
6.4331747821
31
0.0000000000
11
-60.1429249323
21
6.6860349681
31
0.0000000000
11
-59.5621783522
21
6.8556716131
31
0.0000000000
11
-58.9092656618
21
6.9135246214
31
0.0000000000
0
SPLINE
5
2E7
100
AcDbEntity
8
0
100
AcDbSpline
62
7
6
CONTINUOUS
70
0
71
3
72
10
73
6
74
4
42
0.0000001000
43
0.0000001000
44
0.0000000001
12
1.4514917354
22
-0.7340385495
32
0.0000000000
13
1.4437163471
23
0.7218581736
33
0.0000000000
40
0.0000000000
40
0.0000000000
40
0.0000000000
40
0.0000000000
40
0.0738071476
40
0.5045072608
40
1.0000000000
40
1.0000000000
40
1.0000000000
40
1.0000000000
10
-32.2440257107
20
-58.7053968601
30
0.0000000000
10
-32.2083155558
20
-58.7234559572
30
0.0000000000
10
-31.9588332543
20
-58.8355220772
30
0.0000000000
10
-31.4014155719
20
-58.8901759067
30
0.0000000000
10
-30.9183960251
20
-58.7252016408
30
0.0000000000
10
-30.6799457027
20
-58.6059764796
30
0.0000000000
11
-32.2440257107
21
-58.7053968601
31
0.0000000000
11
-32.1346399849
21
-58.7544371497
31
0.0000000000
11
-31.4447237454
21
-58.8400134501
31
0.0000000000
11
-30.6799457027
21
-58.6059764796
31
0.0000000000
0
SPLINE
5
2E8
100
AcDbEntity
8
0
100
AcDbSpline
62
7
6
CONTINUOUS
70
0
71
3
72
12
73
8
74
6
42
0.0000001000
43
0.0000001000
44
0.0000000001
12
-0.0000810949
22
2.3383275930
32
0.0000000000
13
2.2894657198
23
0.0000000000
33
0.0000000000
40
0.0000000000
40
0.0000000000
40
0.0000000000
40
0.0000000000
40
0.0709890745
40
0.2350832755
40
0.4489404468
40
0.7138033899
40
1.0000000000
40
1.0000000000
40
1.0000000000
40
1.0000000000
10
-1.4095686013
20
1.7209389335
30
0.0000000000
10
-1.4095705202
20
1.7762708374
30
0.0000000000
10
-1.3816481481
20
1.9594905086
30
0.0000000000
10
-1.1514836771
20
2.2370706908
30
0.0000000000
10
-0.7193534768
20
2.4783188543
30
0.0000000000
10
-0.1520976113
20
2.6353993365
30
0.0000000000
10
0.2692915153
20
2.6708839343
30
0.0000000000
10
0.4877039579
20
2.6708839343
30
0.0000000000
11
-1.4095686013
21
1.7209389335
31
0.0000000000
11
-1.3842627139
21
1.8834729713
31
0.0000000000
11
-1.1656283374
21
2.1889897774
31
0.0000000000
11
-0.7470171057
21
2.4429407006
31
0.0000000000
11
-0.1649780972
21
2.6130731148
31
0.0000000000
11
0.4877039579
21
2.6708839343
31
0.0000000000
0
SPLINE
5
2E9
100
AcDbEntity
8
0
100
AcDbSpline
62
7
6
CONTINUOUS
70
0
71
3
72
16
73
12
74
10
42
0.0000001000
43
0.0000001000
44
0.0000000001
12
0.0000000000
22
4.5784335911
32
0.0000000000
13
0.0000000000
23
-4.5784335911
33
0.0000000000
40
0.0000000000
40
0.0000000000
40
0.0000000000
40
0.0000000000
40
0.0756198644
40
0.1734125742
40
0.2934096400
40
0.4291190380
40
0.5715348157
40
0.7072987368
40
0.8268135174
40
0.9243508146
40
1.0000000000
40
1.0000000000
40
1.0000000000
40
1.0000000000
10
29.1151209559
20
2.8424568096
30
0.0000000000
10
29.1151209559
20
2.9578636519
30
0.0000000000
10
29.2242758795
20
3.2217339909
30
0.0000000000
10
29.5907017622
20
3.4974024109
30
0.0000000000
10
30.0968500770
20
3.6948930167
30
0.0000000000
10
30.6995041999
20
3.7972936986
30
0.0000000000
10
31.3338395477
20
3.7970477380
30
0.0000000000
10
31.9357700815
20
3.6942219753
30
0.0000000000
10
32.4407360694
20
3.4966014680
30
0.0000000000
10
32.8060690645
20
3.2214357355
30
0.0000000000
10
32.9151209559
20
2.9579084000
30
0.0000000000
10
32.9151209559
20
2.8424568096
30
0.0000000000
11
29.1151209559
21
2.8424568096
31
0.0000000000
11
29.2307442183
21
3.1688000562
31
0.0000000000
11
29.5710061453
21
3.4598165940
31
0.0000000000
11
30.0789657592
21
3.6691389504
31
0.0000000000
11
30.6906026900
21
3.7784973930
31
0.0000000000
11
31.3426438183
21
3.7782357331
31
0.0000000000
11
31.9544212773
21
3.6682465689
31
0.0000000000
11
32.4601416492
21
3.4592864448
31
0.0000000000
11
32.7994149391
21
3.1689131548
31
0.0000000000
11
32.9151209559
21
2.8424568096
31
0.0000000000
0
SPLINE
5
2EA
100
AcDbEntity
8
0
100
AcDbSpline
62
7
6
CONTINUOUS
70
0
71
3
72
14
73
10
74
8
42
0.0000001000
43
0.0000001000
44
0.0000000001
12
0.0584257857
22
3.4176736740
32
0.0000000000
13
3.0234573316
23
-1.5117286658
33
0.0000000000
40
0.0000000000
40
0.0000000000
40
0.0000000000
40
0.0000000000
40
0.0685801050
40
0.1799888771
40
0.3221298987
40
0.4894506253
40
0.6687334881
40
0.8439545279
40
1.0000000000
40
1.0000000000
40
1.0000000000
40
1.0000000000
10
-2.1997280867
20
68.3650940292
30
0.0000000000
10
-2.1983924712
20
68.4432221691
30
0.0000000000
10
-2.1424145230
20
68.6509343607
30
0.0000000000
10
-1.8667630845
20
68.9074897336
30
0.0000000000
10
-1.4342761330
20
69.1099737214
30
0.0000000000
10
-0.8926559471
20
69.2298019608
30
0.0000000000
10
-0.3024375702
20
69.2544651001
30
0.0000000000
10
0.2707207520
20
69.1812438953
30
0.0000000000
10
0.6290404512
20
69.0630492991
30
0.0000000000
10
0.7863060602
20
68.9844164947
30
0.0000000000
11
-2.1997280867
21
68.3650940292
31
0.0000000000
11
-2.1415010029
21
68.5921647256
31
0.0000000000
11
-1.8846468844
21
68.8675774429
31
0.0000000000
11
-1.4548895705
21
69.0824560999
31
0.0000000000
11
-0.9040641359
21
69.2108831591
31
0.0000000000
11
-0.2986082571
21
69.2373684220
31
0.0000000000
11
0.2884511511
21
69.1587173748
31
0.0000000000
11
0.7863060602
21
68.9844164947
31
0.0000000000
0
SPLINE
5
2EB
100
AcDbEntity
8
0
100
AcDbSpline
62
7
6
CONTINUOUS
70
0
71
3
72
12
73
8
74
6
42
0.0000001000
43
0.0000001000
44
0.0000000001
12
0.0000810979
22
2.3384151647
32
0.0000000000
13
2.2895514616
23
-0.0000000000
33
0.0000000000
40
0.0000000000
40
0.0000000000
40
0.0000000000
40
0.0000000000
40
0.0713960051
40
0.2361054937
40
0.4494691031
40
0.7137141179
40
1.0000000000
40
1.0000000000
40
1.0000000000
40
1.0000000000
10
-9.8948499755
20
31.4193137450
30
0.0000000000
10
-9.8948480455
20
31.4749649120
30
0.0000000000
10
-9.8666285879
20
31.6590168446
30
0.0000000000
10
-9.6355140613
20
31.9364332680
30
0.0000000000
10
-9.2036057432
20
32.1770968888
30
0.0000000000
10
-8.6370643883
20
32.3339072811
30
0.0000000000
10
-8.2160661696
20
32.3693687441
30
0.0000000000
10
-7.9975774163
20
32.3693687441
30
0.0000000000
11
-9.8948499755
21
31.4193137450
31
0.0000000000
11
-9.8692606705
21
31.5827714645
31
0.0000000000
11
-9.6491779388
21
31.8890004387
31
0.0000000000
11
-9.2312209510
21
32.1418858078
31
0.0000000000
11
-8.6504856349
21
32.3115165539
31
0.0000000000
11
-7.9975774163
21
32.3693687441
31
0.0000000000
0
SPLINE
5
2EC
100
AcDbEntity
8
0
100
AcDbSpline
62
7
6
CONTINUOUS
70
0
71
3
72
12
73
8
74
6
42
0.0000001000
43
0.0000001000
44
0.0000000001
12
2.2895224052
22
0.0000000000
32
0.0000000000
13
0.0004523059
23
-2.3383914845
33
0.0000000000
40
0.0000000000
40
0.0000000000
40
0.0000000000
40
0.0000000000
40
0.2862914925
40
0.5505453057
40
0.7638921994
40
0.9284564965
40
1.0000000000
40
1.0000000000
40
1.0000000000
40
1.0000000000
10
-17.6534215390
20
19.6414466828
30
0.0000000000
10
-17.4349312769
20
19.6414466828
30
0.0000000000
10
-17.0139269610
20
19.6059827966
30
0.0000000000
10
-16.4473964781
20
19.4491796931
30
0.0000000000
10
-16.0155920879
20
19.2085583519
30
0.0000000000
10
-15.7844668068
20
18.9312467570
30
0.0000000000
10
-15.7561605139
20
18.7471882166
30
0.0000000000
10
-15.7561497274
20
18.6914226435
30
0.0000000000
11
-17.6534215390
21
19.6414466828
31
0.0000000000
11
-17.0005088486
21
19.5835936744
31
0.0000000000
11
-16.4197622685
21
19.4139570295
31
0.0000000000
11
-16.0018420205
21
19.1610968435
31
0.0000000000
11
-15.7818636921
21
18.8552081140
31
0.0000000000
11
-15.7561497274
21
18.6914226435
31
0.0000000000
0
SPLINE
5
2ED
100
AcDbEntity
8
0
100
AcDbSpline
62
7
6
CONTINUOUS
70
0
71
3
72
14
73
10
74
8
42
0.0000001000
43
0.0000001000
44
0.0000000001
12
0.0584257857
22
3.4176736740
32
0.0000000000
13
3.0234573316
23
-1.5117286658
33
0.0000000000
40
0.0000000000
40
0.0000000000
40
0.0000000000
40
0.0000000000
40
0.0685801050
40
0.1799888771
40
0.3221298987
40
0.4894506253
40
0.6687334881
40
0.8439545279
40
1.0000000000
40
1.0000000000
40
1.0000000000
40
1.0000000000
10
-21.2916111787
20
-63.5103206620
30
0.0000000000
10
-21.2902755632
20
-63.4321925222
30
0.0000000000
10
-21.2342976150
20
-63.2244803306
30
0.0000000000
10
-20.9586461766
20
-62.9679249577
30
0.0000000000
10
-20.5261592251
20
-62.7654409699
30
0.0000000000
10
-19.9845390391
20
-62.6456127305
30
0.0000000000
10
-19.3943206622
20
-62.6209495912
30
0.0000000000
10
-18.8211623400
20
-62.6941707960
30
0.0000000000
10
-18.4628426408
20
-62.8123653921
30
0.0000000000
10
-18.3055770319
20
-62.8909981966
30
0.0000000000
11
-21.2916111787
21
-63.5103206620
31
0.0000000000
11
-21.2333840950
21
-63.2832499657
31
0.0000000000
11
-20.9765299765
21
-63.0078372483
31
0.0000000000
11
-20.5467726626
21
-62.7929585914
31
0.0000000000
11
-19.9959472279
21
-62.6645315321
31
0.0000000000
11
-19.3904913492
21
-62.6380462693
31
0.0000000000
11
-18.8034319409
21
-62.7166973165
31
0.0000000000
11
-18.3055770319
21
-62.8909981966
31
0.0000000000
0
SPLINE
5
2EE
100
AcDbEntity
8
0
100
AcDbSpline
62
7
6
CONTINUOUS
70
0
71
3
72
9
73
5
74
3
42
0.0000001000
43
0.0000001000
44
0.0000000001
12
0.0000000000
22
-1.5385557149
32
0.0000000000
13
-1.3856336994
23
-0.6928168497
33
0.0000000000
40
0.0000000000
40
0.0000000000
40
0.0000000000
40
0.0000000000
40
0.4320096608
40
1.0000000000
40
1.0000000000
40
1.0000000000
40
1.0000000000
10
-24.4247418826
20
-37.2249618339
30
0.0000000000
10
-24.4247418826
20
-37.4465188114
30
0.0000000000
10
-24.6666085235
20
-37.9593707163
30
0.0000000000
10
-25.1143026588
20
-38.2428392608
30
0.0000000000
10
-25.3766448438
20
-38.3740103533
30
0.0000000000
11
-24.4247418826
21
-37.2249618339
31
0.0000000000
11
-24.6721334019
21
-37.8468224115
31
0.0000000000
11
-25.3766448438
21
-38.3740103533
31
0.0000000000
0
SPLINE
5
2EF
100
AcDbEntity
8
0
100
AcDbSpline
62
7
6
CONTINUOUS
70
0
71
3
72
12
73
8
74
6
42
0.0000001000
43
0.0000001000
44
0.0000000001
12
2.2895224052
22
0.0000000000
32
0.0000000000
13
0.0004523059
23
-2.3383914845
33
0.0000000000
40
0.0000000000
40
0.0000000000
40
0.0000000000
40
0.0000000000
40
0.2862914925
40
0.5505453057
40
0.7638921994
40
0.9284564965
40
1.0000000000
40
1.0000000000
40
1.0000000000
40
1.0000000000
10
16.2877039579
20
2.6708839343
30
0.0000000000
10
16.5061942201
20
2.6708839343
30
0.0000000000
10
16.9271985360
20
2.6354200482
30
0.0000000000
10
17.4937290188
20
2.4786169446
30
0.0000000000
10
17.9255334091
20
2.2379956034
30
0.0000000000
10
18.1566586901
20
1.9606840086
30
0.0000000000
10
18.1849649831
20
1.7766254681
30
0.0000000000
10
18.1849757696
20
1.7208598950
30
0.0000000000
11
16.2877039579
21
2.6708839343
31
0.0000000000
11
16.9406166483
21
2.6130309259
31
0.0000000000
11
17.5213632284
21
2.4433942810
31
0.0000000000
11
17.9392834765
21
2.1905340950
31
0.0000000000
11
18.1592618049
21
1.8846453655
31
0.0000000000
11
18.1849757696
21
1.7208598950
31
0.0000000000
0
SPLINE
5
2F0
100
AcDbEntity
8
0
100
AcDbSpline
62
7
6
CONTINUOUS
70
0
71
3
72
12
73
8
74
6
42
0.0000001000
43
0.0000001000
44
0.0000000001
12
0.0000810979
22
2.3384151647
32
0.0000000000
13
2.2895514616
23
0.0000000000
33
0.0000000000
40
0.0000000000
40
0.0000000000
40
0.0000000000
40
0.0000000000
40
0.0713960051
40
0.2361054937
40
0.4494691031
40
0.7137141179
40
1.0000000000
40
1.0000000000
40
1.0000000000
40
1.0000000000
10
15.5609941472
20
44.1472358063
30
0.0000000000
10
15.5609960772
20
44.2028869733
30
0.0000000000
10
15.5892155348
20
44.3869389060
30
0.0000000000
10
15.8203300614
20
44.6643553293
30
0.0000000000
10
16.2522383795
20
44.9050189502
30
0.0000000000
10
16.8187797344
20
45.0618293424
30
0.0000000000
10
17.2397779531
20
45.0972908055
30
0.0000000000
10
17.4582667064
20
45.0972908055
30
0.0000000000
11
15.5609941472
21
44.1472358063
31
0.0000000000
11
15.5865834522
21
44.3106935258
31
0.0000000000
11
15.8066661839
21
44.6169225000
31
0.0000000000
11
16.2246231717
21
44.8698078692
31
0.0000000000
11
16.8053584878
21
45.0394386153
31
0.0000000000
11
17.4582667064
21
45.0972908055
31
0.0000000000
0
SPLINE
5
2F1
100
AcDbEntity
8
0
100
AcDbSpline
62
7
6
CONTINUOUS
70
0
71
3
72
9
73
5
74
3
42
0.0000001000
43
0.0000001000
44
0.0000000001
12
0.0000000000
22
0.1240395538
32
0.0000000000
13
0.1120441427
23
0.0589730342
33
0.0000000000
40
0.0000000000
40
0.0000000000
40
0.0000000000
40
0.0000000000
40
0.6433461140
40
1.0000000000
40
1.0000000000
40
1.0000000000
40
1.0000000000
10
125.4138762443
20
12.5694352005
30
0.0000000000
10
125.4138762443
20
12.5960353222
30
0.0000000000
10
125.4203211338
20
12.6399823570
30
0.0000000000
10
125.4530133689
20
12.6702074816
30
0.0000000000
10
125.4663336952
20
12.6772184689
30
0.0000000000
11
125.4138762443
21
12.5694352005
31
0.0000000000
11
125.4330324582
21
12.6469022110
31
0.0000000000
11
125.4663336952
21
12.6772184689
31
0.0000000000
0
SPLINE
5
2F2
100
AcDbEntity
8
0
100
AcDbSpline
62
7
6
CONTINUOUS
70
0
71
3
72
16
73
12
74
10
42
0.0000001000
43
0.0000001000
44
0.0000000001
12
0.0000000000
22
4.5784337703
32
0.0000000000
13
0.0000000000
23
-4.5784337703
33
0.0000000000
40
0.0000000000
40
0.0000000000
40
0.0000000000
40
0.0000000000
40
0.0756192861
40
0.1734128949
40
0.2933968973
40
0.4289749878
40
0.5713781682
40
0.7072903862
40
0.8268168614
40
0.9243513973
40
1.0000000000
40
1.0000000000
40
1.0000000000
40
1.0000000000
10
3.6592768332
20
-9.8854652518
30
0.0000000000
10
3.6592768332
20
-9.7700592874
30
0.0000000000
10
3.7684310895
20
-9.5061883589
30
0.0000000000
10
4.1348414803
20
-9.2305317311
30
0.0000000000
10
4.6407803364
20
-9.0331132958
30
0.0000000000
10
5.2431784963
20
-8.9306843525
30
0.0000000000
10
5.8775198048
20
-8.9308197896
30
0.0000000000
10
6.4796938542
20
-9.0336110295
30
0.0000000000
10
6.9848875557
20
-9.2313152027
30
0.0000000000
10
7.3502279934
20
-9.5064921229
30
0.0000000000
10
7.4592768332
20
-9.7700145461
30
0.0000000000
10
7.4592768332
20
-9.8854652518
30
0.0000000000
11
3.6592768332
21
-9.8854652518
31
0.0000000000
11
3.7748984722
21
-9.5591242243
31
0.0000000000
11
4.1151633006
21
-9.2681047200
31
0.0000000000
11
4.6230651470
21
-9.0587991041
31
0.0000000000
11
5.2340987592
21
-8.9494819159
31
0.0000000000
11
5.8860822738
21
-8.9496236247
31
0.0000000000
11
6.4985402223
21
-9.0596649905
31
0.0000000000
11
7.0043109606
21
-9.2686434845
31
0.0000000000
11
7.3435724528
21
-9.5590111425
31
0.0000000000
11
7.4592768332
21
-9.8854652518
31
0.0000000000
0
SPLINE
5
2F3
100
AcDbEntity
8
0
100
AcDbSpline
62
7
6
CONTINUOUS
70
0
71
3
72
16
73
12
74
10
42
0.0000001000
43
0.0000001000
44
0.0000000001
12
0.0000000000
22
4.5784337703
32
0.0000000000
13
0.0000000000
23
-4.5784337703
33
0.0000000000
40
0.0000000000
40
0.0000000000
40
0.0000000000
40
0.0000000000
40
0.0756486027
40
0.1731831386
40
0.2927096138
40
0.4286218318
40
0.5710250122
40
0.7066031027
40
0.8265871051
40
0.9243807139
40
1.0000000000
40
1.0000000000
40
1.0000000000
40
1.0000000000
10
-30.2818486638
20
7.0850974967
30
0.0000000000
10
-30.2818486638
20
7.2005482024
30
0.0000000000
10
-30.1727998240
20
7.4640706256
30
0.0000000000
10
-29.8074593863
20
7.7392475458
30
0.0000000000
10
-29.3022656848
20
7.9369517190
30
0.0000000000
10
-28.7000916355
20
8.0397429589
30
0.0000000000
10
-28.0657503269
20
8.0398783960
30
0.0000000000
10
-27.4633521671
20
7.9374494527
30
0.0000000000
10
-26.9574133109
20
7.7400310174
30
0.0000000000
10
-26.5910029202
20
7.4643743896
30
0.0000000000
10
-26.4818486638
20
7.2005034611
30
0.0000000000
10
-26.4818486638
20
7.0850974967
30
0.0000000000
11
-30.2818486638
21
7.0850974967
31
0.0000000000
11
-30.1661442834
21
7.4115516060
31
0.0000000000
11
-29.8268827912
21
7.7019192640
31
0.0000000000
11
-29.3211120529
21
7.9108977579
31
0.0000000000
11
-28.7086541044
21
8.0209391238
31
0.0000000000
11
-28.0566705898
21
8.0210808326
31
0.0000000000
11
-27.4456369777
21
7.9117636443
31
0.0000000000
11
-26.9377351312
21
7.7024580285
31
0.0000000000
11
-26.5974703028
21
7.4114385242
31
0.0000000000
11
-26.4818486638
21
7.0850974967
31
0.0000000000
0
SPLINE
5
2F4
100
AcDbEntity
8
0
100
AcDbSpline
62
7
6
CONTINUOUS
70
0
71
3
72
12
73
8
74
6
42
0.0000001000
43
0.0000001000
44
0.0000000001
12
2.2895514616
22
0.0000000000
32
0.0000000000
13
0.0000810979
23
-2.3384151647
33
0.0000000000
40
0.0000000000
40
0.0000000000
40
0.0000000000
40
0.0000000000
40
0.2862858821
40
0.5505308969
40
0.7638945063
40
0.9286039949
40
1.0000000000
40
1.0000000000
40
1.0000000000
40
1.0000000000
10
-34.6239842875
20
-22.7849601884
30
0.0000000000
10
-34.4054955342
20
-22.7849601884
30
0.0000000000
10
-33.9844973156
20
-22.8204216515
30
0.0000000000
10
-33.4179559607
20
-22.9772320438
30
0.0000000000
10
-32.9860476425
20
-23.2178956646
30
0.0000000000
10
-32.7549331159
20
-23.4953120879
30
0.0000000000
10
-32.7267136584
20
-23.6793640206
30
0.0000000000
10
-32.7267117284
20
-23.7350151876
30
0.0000000000
11
-34.6239842875
21
-22.7849601884
31
0.0000000000
11
-33.9710760690
21
-22.8428123786
31
0.0000000000
11
-33.3903407529
21
-23.0124431247
31
0.0000000000
11
-32.9723837650
21
-23.2653284939
31
0.0000000000
11
-32.7523010333
21
-23.5715574681
31
0.0000000000
11
-32.7267117284
21
-23.7350151876
31
0.0000000000
0
SPLINE
5
2F5
100
AcDbEntity
8
0
100
AcDbSpline
62
7
6
CONTINUOUS
70
0
71
3
72
12
73
8
74
6
42
0.0000001000
43
0.0000001000
44
0.0000000001
12
2.2895224052
22
0.0000000000
32
0.0000000000
13
0.0004523059
23
-2.3383914845
33
0.0000000000
40
0.0000000000
40
0.0000000000
40
0.0000000000
40
0.0000000000
40
0.2862914925
40
0.5505453057
40
0.7638921994
40
0.9284564965
40
1.0000000000
40
1.0000000000
40
1.0000000000
40
1.0000000000
10
-43.1092656618
20
6.9135246214
30
0.0000000000
10
-42.8907753996
20
6.9135246214
30
0.0000000000
10
-42.4697710837
20
6.8780607353
30
0.0000000000
10
-41.9032406008
20
6.7212576317
30
0.0000000000
10
-41.4714362106
20
6.4806362906
30
0.0000000000
10
-41.2403109295
20
6.2033246957
30
0.0000000000
10
-41.2120046366
20
6.0192661553
30
0.0000000000
10
-41.2119938501
20
5.9635005822
30
0.0000000000
11
-43.1092656618
21
6.9135246214
31
0.0000000000
11
-42.4563529714
21
6.8556716131
31
0.0000000000
11
-41.8756063912
21
6.6860349681
31
0.0000000000
11
-41.4576861432
21
6.4331747821
31
0.0000000000
11
-41.2377078148
21
6.1272860526
31
0.0000000000
11
-41.2119938501
21
5.9635005822
31
0.0000000000
0
SPLINE
5
2F6
100
AcDbEntity
8
0
100
AcDbSpline
62
7
6
CONTINUOUS
70
0
71
3
72
14
73
10
74
8
42
0.0000001000
43
0.0000001000
44
0.0000000001
12
0.0584257857
22
3.4176736740
32
0.0000000000
13
3.0234573316
23
-1.5117286658
33
0.0000000000
40
0.0000000000
40
0.0000000000
40
0.0000000000
40
0.0000000000
40
0.0685801050
40
0.1799888771
40
0.3221298987
40
0.4894506253
40
0.6687334881
40
0.8439545279
40
1.0000000000
40
1.0000000000
40
1.0000000000
40
1.0000000000
10
-143.6210843240
20
-2.3455840894
30
0.0000000000
10
-143.6197487085
20
-2.2674559496
30
0.0000000000
10
-143.5637707603
20
-2.0597437580
30
0.0000000000
10
-143.2881193218
20
-1.8031883851
30
0.0000000000
10
-142.8556323703
20
-1.6007043972
30
0.0000000000
10
-142.3140121844
20
-1.4808761578
30
0.0000000000
10
-141.7237938075
20
-1.4562130186
30
0.0000000000
10
-141.1506354853
20
-1.5294342234
30
0.0000000000
10
-140.7923157861
20
-1.6476288195
30
0.0000000000
10
-140.6350501772
20
-1.7262616240
30
0.0000000000
11
-143.6210843240
21
-2.3455840894
31
0.0000000000
11
-143.5628572402
21
-2.1185133931
31
0.0000000000
11
-143.3060031217
21
-1.8431006757
31
0.0000000000
11
-142.8762458078
21
-1.6282220188
31
0.0000000000
11
-142.3254203732
21
-1.4997949595
31
0.0000000000
11
-141.7199644944
21
-1.4733096967
31
0.0000000000
11
-141.1329050862
21
-1.5519607439
31
0.0000000000
11
-140.6350501772
21
-1.7262616240
31
0.0000000000
0
SPLINE
5
2F7
100
AcDbEntity
8
0
100
AcDbSpline
62
7
6
CONTINUOUS
70
0
71
3
72
16
73
12
74
10
42
0.0000001000
43
0.0000001000
44
0.0000000001
12
0.0000000000
22
4.5784335911
32
0.0000000000
13
0.0000000000
23
-4.5784335911
33
0.0000000000
40
0.0000000000
40
0.0000000000
40
0.0000000000
40
0.0000000000
40
0.0756491854
40
0.1731864826
40
0.2927012632
40
0.4284651843
40
0.5708809620
40
0.7065903600
40
0.8265874258
40
0.9243801356
40
1.0000000000
40
1.0000000000
40
1.0000000000
40
1.0000000000
10
-55.7376927865
20
-5.6428245647
30
0.0000000000
10
-55.7376927865
20
-5.5273729742
30
0.0000000000
10
-55.6286408951
20
-5.2638456388
30
0.0000000000
10
-55.2633079001
20
-4.9886799062
30
0.0000000000
10
-54.7583419121
20
-4.7910593989
30
0.0000000000
10
-54.1564113783
20
-4.6882336362
30
0.0000000000
10
-53.5220760305
20
-4.6879876756
30
0.0000000000
10
-52.9194219076
20
-4.7903883575
30
0.0000000000
10
-52.4132735928
20
-4.9878789633
30
0.0000000000
10
-52.0468477102
20
-5.2635473833
30
0.0000000000
10
-51.9376927865
20
-5.5274177223
30
0.0000000000
10
-51.9376927865
20
-5.6428245647
30
0.0000000000
11
-55.7376927865
21
-5.6428245647
31
0.0000000000
11
-55.6219867698
21
-5.3163682195
31
0.0000000000
11
-55.2827134799
21
-5.0259949294
31
0.0000000000
11
-54.7769931079
21
-4.8170348054
31
0.0000000000
11
-54.1652156489
21
-4.7070456412
31
0.0000000000
11
-53.5131745207
21
-4.7067839813
31
0.0000000000
11
-52.9015375899
21
-4.8161424239
31
0.0000000000
11
-52.3935779759
21
-5.0254647802
31
0.0000000000
11
-52.0533160489
21
-5.3164813181
31
0.0000000000
11
-51.9376927865
21
-5.6428245647
31
0.0000000000
0
SPLINE
5
2F8
100
AcDbEntity
8
0
100
AcDbSpline
62
7
6
CONTINUOUS
70
0
71
3
72
9
73
5
74
3
42
0.0000001000
43
0.0000001000
44
0.0000000001
12
0.0000000000
22
0.7101026376
32
0.0000000000
13
0.6395232459
23
0.3197616229
33
0.0000000000
40
0.0000000000
40
0.0000000000
40
0.0000000000
40
0.0000000000
40
0.4320096608
40
1.0000000000
40
1.0000000000
40
1.0000000000
40
1.0000000000
10
123.3835461584
20
10.1177769609
30
0.0000000000
10
123.3835461584
20
10.2200340274
30
0.0000000000
10
123.4951769157
20
10.4567349067
30
0.0000000000
10
123.7018049782
20
10.5875665426
30
0.0000000000
10
123.8228859866
20
10.6481070468
30
0.0000000000
11
123.3835461584
21
10.1177769609
31
0.0000000000
11
123.4977268596
21
10.4047895352
31
0.0000000000
11
123.8228859866
21
10.6481070468
31
0.0000000000
0
SPLINE
5
2F9
100
AcDbEntity
8
0
100
AcDbSpline
62
7
6
CONTINUOUS
70
0
71
3
72
12
73
8
74
6
42
0.0000001000
43
0.0000001000
44
0.0000000001
12
2.2895224052
22
0.0000000000
32
0.0000000000
13
0.0004523059
23
-2.3383914845
33
0.0000000000
40
0.0000000000
40
0.0000000000
40
0.0000000000
40
0.0000000000
40
0.2862914925
40
0.5505453057
40
0.7638921994
40
0.9284564965
40
1.0000000000
40
1.0000000000
40
1.0000000000
40
1.0000000000
10
-9.1681401648
20
-10.0570381271
30
0.0000000000
10
-8.9496499027
20
-10.0570381271
30
0.0000000000
10
-8.5286455868
20
-10.0925020132
30
0.0000000000
10
-7.9621151039
20
-10.2493051168
30
0.0000000000
10
-7.5303107136
20
-10.4899264579
30
0.0000000000
10
-7.2991854326
20
-10.7672380528
30
0.0000000000
10
-7.2708791397
20
-10.9512965932
30
0.0000000000
10
-7.2708683531
20
-11.0070621663
30
0.0000000000
11
-9.1681401648
21
-10.0570381271
31
0.0000000000
11
-8.5152274744
21
-10.1148911354
31
0.0000000000
11
-7.9344808943
21
-10.2845277804
31
0.0000000000
11
-7.5165606462
21
-10.5373879664
31
0.0000000000
11
-7.2965823178
21
-10.8432766959
31
0.0000000000
11
-7.2708683531
21
-11.0070621663
31
0.0000000000
0
SPLINE
5
2FA
100
AcDbEntity
8
0
100
AcDbSpline
62
7
6
CONTINUOUS
70
0
71
3
72
12
73
8
74
6
42
0.0000001000
43
0.0000001000
44
0.0000000001
12
-0.0028607949
22
2.3381642049
32
0.0000000000
13
2.2896995024
23
0.0000000000
33
0.0000000000
40
0.0000000000
40
0.0000000000
40
0.0000000000
40
0.0000000000
40
0.0695373280
40
0.2337645282
40
0.4478139246
40
0.7131366284
40
1.0000000000
40
1.0000000000
40
1.0000000000
40
1.0000000000
10
-26.8654654028
20
-11.0071847478
30
0.0000000000
10
-26.8655317134
20
-10.9529881841
30
0.0000000000
10
-26.8385140511
20
-10.7708633265
30
0.0000000000
10
-26.6099938624
20
-10.4926662334
30
0.0000000000
10
-26.1775753700
20
-10.2504784883
30
0.0000000000
10
-25.6093882042
20
-10.0926721627
30
0.0000000000
10
-25.1870838045
20
-10.0570381271
30
0.0000000000
10
-24.9681401648
20
-10.0570381271
30
0.0000000000
11
-26.8654654028
21
-11.0071847478
31
0.0000000000
11
-26.8412930385
21
-10.8479011486
31
0.0000000000
11
-26.6238982431
21
-10.5410807292
31
0.0000000000
11
-26.2053671554
21
-10.2860545326
31
0.0000000000
11
-25.6223964965
21
-10.1151372564
31
0.0000000000
11
-24.9681401648
21
-10.0570381271
31
0.0000000000
0
SPLINE
5
2FB
100
AcDbEntity
8
0
100
AcDbSpline
62
7
6
CONTINUOUS
70
0
71
3
72
15
73
11
74
9
42
0.0000001000
43
0.0000001000
44
0.0000000001
12
2.9380502197
22
2.8733234700
32
0.0000000000
13
0.0000000000
23
-4.0880570121
33
0.0000000000
40
0.0000000000
40
0.0000000000
40
0.0000000000
40
0.0000000000
40
0.0740073413
40
0.2078583333
40
0.3599076063
40
0.5194066492
40
0.6713948588
40
0.8057859877
40
0.9153092713
40
1.0000000000
40
1.0000000000
40
1.0000000000
40
1.0000000000
10
-80.9831837996
20
-17.9341211229
30
0.0000000000
10
-80.9107047044
20
-17.8632387793
30
0.0000000000
10
-80.6741299802
20
-17.6989824068
30
0.0000000000
10
-80.2141860348
20
-17.5189814603
30
0.0000000000
10
-79.6122555011
20
-17.4161556976
30
0.0000000000
10
-78.9779201532
20
-17.4159097370
30
0.0000000000
10
-78.3752660303
20
-17.5183104189
30
0.0000000000
10
-77.8691177156
20
-17.7158010247
30
0.0000000000
10
-77.5026918329
20
-17.9914694447
30
0.0000000000
10
-77.3935369092
20
-18.2553397836
30
0.0000000000
10
-77.3935369092
20
-18.3707466260
30
0.0000000000
11
-80.9831837996
21
-17.9341211229
31
0.0000000000
11
-80.7385576026
21
-17.7539169908
31
0.0000000000
11
-80.2328372306
21
-17.5449568667
31
0.0000000000
11
-79.6210597716
21
-17.4349677025
31
0.0000000000
11
-78.9690186434
21
-17.4347060426
31
0.0000000000
11
-78.3573817126
21
-17.5440644852
31
0.0000000000
11
-77.8494220986
21
-17.7533868416
31
0.0000000000
11
-77.5091601717
21
-18.0444033794
31
0.0000000000
11
-77.3935369092
21
-18.3707466260
31
0.0000000000
0
SPLINE
5
2FC
100
AcDbEntity
8
0
100
AcDbSpline
62
7
6
CONTINUOUS
70
0
71
3
72
16
73
12
74
10
42
0.0000001000
43
0.0000001000
44
0.0000000001
12
0.0000000000
22
4.5784335911
32
0.0000000000
13
0.0000000000
23
-4.5784335911
33
0.0000000000
40
0.0000000000
40
0.0000000000
40
0.0000000000
40
0.0000000000
40
0.0756198644
40
0.1734125742
40
0.2934096400
40
0.4291190380
40
0.5715348157
40
0.7072987368
40
0.8268135174
40
0.9243508146
40
1.0000000000
40
1.0000000000
40
1.0000000000
40
1.0000000000
10
-21.7965672896
20
-22.6133873132
30
0.0000000000
10
-21.7965672896
20
-22.4979804708
30
0.0000000000
10
-21.6874123659
20
-22.2341101318
30
0.0000000000
10
-21.3209864832
20
-21.9584417118
30
0.0000000000
10
-20.8148381685
20
-21.7609511060
30
0.0000000000
10
-20.2121840456
20
-21.6585504241
30
0.0000000000
10
-19.5778486977
20
-21.6587963847
30
0.0000000000
10
-18.9759181640
20
-21.7616221474
30
0.0000000000
10
-18.4709521760
20
-21.9592426547
30
0.0000000000
10
-18.1056191810
20
-22.2344083873
30
0.0000000000
10
-17.9965672896
20
-22.4979357227
30
0.0000000000
10
-17.9965672896
20
-22.6133873132
30
0.0000000000
11
-21.7965672896
21
-22.6133873132
31
0.0000000000
11
-21.6809440271
21
-22.2870440665
31
0.0000000000
11
-21.3406821002
21
-21.9960275287
31
0.0000000000
11
-20.8327224862
21
-21.7867051723
31
0.0000000000
11
-20.2210855554
21
-21.6773467297
31
0.0000000000
11
-19.5690444272
21
-21.6776083897
31
0.0000000000
11
-18.9572669682
21
-21.7875975539
31
0.0000000000
11
-18.4515465962
21
-21.9965576779
31
0.0000000000
11
-18.1122733063
21
-22.2869309679
31
0.0000000000
11
-17.9965672896
21
-22.6133873132
31
0.0000000000
0
SPLINE
5
2FD
100
AcDbEntity
8
0
100
AcDbSpline
62
7
6
CONTINUOUS
70
0
71
3
72
10
73
6
74
4
42
0.0000001000
43
0.0000001000
44
0.0000000001
12
0.7485292214
22
-0.3742646107
32
0.0000000000
13
-0.0144647015
23
-0.8461269115
33
0.0000000000
40
0.0000000000
40
0.0000000000
40
0.0000000000
40
0.0000000000
40
0.5118469792
40
0.9097792195
40
1.0000000000
40
1.0000000000
40
1.0000000000
40
1.0000000000
10
123.1157792054
20
7.8196799220
30
0.0000000000
10
123.2434900124
20
7.7558245186
30
0.0000000000
10
123.4604426307
20
7.6170346280
30
0.0000000000
10
123.6182530586
20
7.3641087133
30
0.0000000000
10
123.6273746237
20
7.2270115972
30
0.0000000000
10
123.6269396181
20
7.2015655204
30
0.0000000000
11
123.1157792054
21
7.8196799220
31
0.0000000000
11
123.4643809657
21
7.5707524675
31
0.0000000000
11
123.6216830600
21
7.2772227634
31
0.0000000000
11
123.6269396181
21
7.2015655204
31
0.0000000000
0
SPLINE
5
2FE
100
AcDbEntity
8
0
100
AcDbSpline
62
7
6
CONTINUOUS
70
0
71
3
72
12
73
8
74
6
42
0.0000001000
43
0.0000001000
44
0.0000000001
12
0.0000810979
22
2.3384151647
32
0.0000000000
13
2.2895514616
23
-0.0000000000
33
0.0000000000
40
0.0000000000
40
0.0000000000
40
0.0000000000
40
0.0000000000
40
0.0713960051
40
0.2361054937
40
0.4494691031
40
0.7137141179
40
1.0000000000
40
1.0000000000
40
1.0000000000
40
1.0000000000
10
-86.2623823436
20
-6.7644524391
30
0.0000000000
10
-86.2623804136
20
-6.7088012721
30
0.0000000000
10
-86.2341609561
20
-6.5247493394
30
0.0000000000
10
-86.0030464295
20
-6.2473329161
30
0.0000000000
10
-85.5711381113
20
-6.0066692953
30
0.0000000000
10
-85.0045967564
20
-5.8498589030
30
0.0000000000
10
-84.5835985378
20
-5.8143974399
30
0.0000000000
10
-84.3651097845
20
-5.8143974399
30
0.0000000000
11
-86.2623823436
21
-6.7644524391
31
0.0000000000
11
-86.2367930387
21
-6.6009947196
31
0.0000000000
11
-86.0167103070
21
-6.2947657454
31
0.0000000000
11
-85.5987533192
21
-6.0418803762
31
0.0000000000
11
-85.0180180030
21
-5.8722496301
31
0.0000000000
11
-84.3651097845
21
-5.8143974399
31
0.0000000000
0
SPLINE
5
2FF
100
AcDbEntity
8
0
100
AcDbSpline
62
7
6
CONTINUOUS
70
0
71
3
72
10
73
6
74
4
42
0.0000001000
43
0.0000001000
44
0.0000000001
12
0.7485292214
22
-0.3742646107
32
0.0000000000
13
-0.0144647015
23
-0.8461269115
33
0.0000000000
40
0.0000000000
40
0.0000000000
40
0.0000000000
40
0.0000000000
40
0.5118469792
40
0.9097792195
40
1.0000000000
40
1.0000000000
40
1.0000000000
40
1.0000000000
10
0.7863060602
20
68.9844164947
30
0.0000000000
10
0.9140168671
20
68.9205610912
30
0.0000000000
10
1.1309694854
20
68.7817712006
30
0.0000000000
10
1.2887799134
20
68.5288452859
30
0.0000000000
10
1.2979014784
20
68.3917481698
30
0.0000000000
10
1.2974664728
20
68.3663020930
30
0.0000000000
11
0.7863060602
21
68.9844164947
31
0.0000000000
11
1.1349078204
21
68.7354890402
31
0.0000000000
11
1.2922099147
21
68.4419593360
31
0.0000000000
11
1.2974664728
21
68.3663020930
31
0.0000000000
0
SPLINE
5
300
100
AcDbEntity
8
0
100
AcDbSpline
62
7
6
CONTINUOUS
70
0
71
3
72
14
73
10
74
8
42
0.0000001000
43
0.0000001000
44
0.0000000001
12
0.0584257857
22
3.4176736740
32
0.0000000000
13
3.0234573316
23
-1.5117286658
33
0.0000000000
40
0.0000000000
40
0.0000000000
40
0.0000000000
40
0.0000000000
40
0.0685801050
40
0.1799888771
40
0.3221298987
40
0.4894506253
40
0.6687334881
40
0.8439545279
40
1.0000000000
40
1.0000000000
40
1.0000000000
40
1.0000000000
10
120.1297450586
20
7.2003574566
30
0.0000000000
10
120.1310806741
20
7.2784855964
30
0.0000000000
10
120.1870586223
20
7.4861977881
30
0.0000000000
10
120.4627100607
20
7.7427531609
30
0.0000000000
10
120.8951970123
20
7.9452371488
30
0.0000000000
10
121.4368171982
20
8.0650653882
30
0.0000000000
10
122.0270355751
20
8.0897285274
30
0.0000000000
10
122.6001938973
20
8.0165073227
30
0.0000000000
10
122.9585135965
20
7.8983127265
30
0.0000000000
10
123.1157792054
20
7.8196799220
30
0.0000000000
11
120.1297450586
21
7.2003574566
31
0.0000000000
11
120.1879721423
21
7.4274281530
31
0.0000000000
11
120.4448262608
21
7.7028408703
31
0.0000000000
11
120.8745835747
21
7.9177195273
31
0.0000000000
11
121.4254090094
21
8.0461465865
31
0.0000000000
11
122.0308648882
21
8.0726318493
31
0.0000000000
11
122.6179242964
21
7.9939808022
31
0.0000000000
11
123.1157792054
21
7.8196799220
31
0.0000000000
0
SPLINE
5
301
100
AcDbEntity
8
0
100
AcDbSpline
62
7
6
CONTINUOUS
70
0
71
3
72
10
73
6
74
4
42
0.0000001000
43
0.0000001000
44
0.0000000001
12
0.7485292214
22
-0.3742646107
32
0.0000000000
13
-0.0144647015
23
-0.8461269115
33
0.0000000000
40
0.0000000000
40
0.0000000000
40
0.0000000000
40
0.0000000000
40
0.5118469792
40
0.9097792195
40
1.0000000000
40
1.0000000000
40
1.0000000000
40
1.0000000000
10
-18.3055770319
20
-62.8909981966
30
0.0000000000
10
-18.1778662249
20
-62.9548536001
30
0.0000000000
10
-17.9609136066
20
-63.0936434907
30
0.0000000000
10
-17.8031031787
20
-63.3465694054
30
0.0000000000
10
-17.7939816136
20
-63.4836665215
30
0.0000000000
10
-17.7944166192
20
-63.5091125983
30
0.0000000000
11
-18.3055770319
21
-62.8909981966
31
0.0000000000
11
-17.9569752716
21
-63.1399256511
31
0.0000000000
11
-17.7996731773
21
-63.4334553552
31
0.0000000000
11
-17.7944166192
21
-63.5091125983
31
0.0000000000
0
SPLINE
5
302
100
AcDbEntity
8
0
100
AcDbSpline
62
7
6
CONTINUOUS
70
0
71
3
72
12
73
8
74
6
42
0.0000001000
43
0.0000001000
44
0.0000000001
12
2.2895514616
22
0.0000000000
32
0.0000000000
13
0.0000810979
23
-2.3384151647
33
0.0000000000
40
0.0000000000
40
0.0000000000
40
0.0000000000
40
0.0000000000
40
0.2862858821
40
0.5505308969
40
0.7638945063
40
0.9286039949
40
1.0000000000
40
1.0000000000
40
1.0000000000
40
1.0000000000
10
-68.5651097845
20
-5.8143974399
30
0.0000000000
10
-68.3466210312
20
-5.8143974399
30
0.0000000000
10
-67.9256228125
20
-5.8498589030
30
0.0000000000
10
-67.3590814576
20
-6.0066692953
30
0.0000000000
10
-66.9271731395
20
-6.2473329161
30
0.0000000000
10
-66.6960586129
20
-6.5247493394
30
0.0000000000
10
-66.6678391553
20
-6.7088012721
30
0.0000000000
10
-66.6678372253
20
-6.7644524391
30
0.0000000000
11
-68.5651097845
21
-5.8143974399
31
0.0000000000
11
-67.9122015659
21
-5.8722496301
31
0.0000000000
11
-67.3314662498
21
-6.0418803762
31
0.0000000000
11
-66.9135092620
21
-6.2947657454
31
0.0000000000
11
-66.6934265303
21
-6.6009947196
31
0.0000000000
11
-66.6678372253
21
-6.7644524391
31
0.0000000000
0
SPLINE
5
303
100
AcDbEntity
8
0
100
AcDbSpline
62
7
6
CONTINUOUS
70
0
71
3
72
10
73
6
74
4
42
0.0000001000
43
0.0000001000
44
0.0000000001
12
0.7485292214
22
-0.3742646107
32
0.0000000000
13
-0.0144647015
23
-0.8461269115
33
0.0000000000
40
0.0000000000
40
0.0000000000
40
0.0000000000
40
0.0000000000
40
0.5118469792
40
0.9097792195
40
1.0000000000
40
1.0000000000
40
1.0000000000
40
1.0000000000
10
-140.6350501772
20
-1.7262616240
30
0.0000000000
10
-140.5073393702
20
-1.7901170274
30
0.0000000000
10
-140.2903867519
20
-1.9289069181
30
0.0000000000
10
-140.1325763239
20
-2.1818328327
30
0.0000000000
10
-140.1234547589
20
-2.3189299488
30
0.0000000000
10
-140.1238897645
20
-2.3443760256
30
0.0000000000
11
-140.6350501772
21
-1.7262616240
31
0.0000000000
11
-140.2864484169
21
-1.9751890785
31
0.0000000000
11
-140.1291463226
21
-2.2687187826
31
0.0000000000
11
-140.1238897645
21
-2.3443760256
31
0.0000000000
0
SPLINE
5
304
100
AcDbEntity
8
0
100
AcDbSpline
62
7
6
CONTINUOUS
70
0
71
3
72
12
73
8
74
6
42
0.0000001000
43
0.0000001000
44
0.0000000001
12
-0.0000810949
22
2.3383275930
32
0.0000000000
13
2.2894657198
23
0.0000000000
33
0.0000000000
40
0.0000000000
40
0.0000000000
40
0.0000000000
40
0.0000000000
40
0.0709890745
40
0.2350832755
40
0.4489404468
40
0.7138033899
40
1.0000000000
40
1.0000000000
40
1.0000000000
40
1.0000000000
10
-52.3212568467
20
-23.7349051892
30
0.0000000000
10
-52.3212587656
20
-23.6795732853
30
0.0000000000
10
-52.2933363935
20
-23.4963536141
30
0.0000000000
10
-52.0631719226
20
-23.2187734319
30
0.0000000000
10
-51.6310417222
20
-22.9775252684
30
0.0000000000
10
-51.0637858568
20
-22.8204447862
30
0.0000000000
10
-50.6423967302
20
-22.7849601884
30
0.0000000000
10
-50.4239842875
20
-22.7849601884
30
0.0000000000
11
-52.3212568467
21
-23.7349051892
31
0.0000000000
11
-52.2959509593
21
-23.5723711514
31
0.0000000000
11
-52.0773165828
21
-23.2668543453
31
0.0000000000
11
-51.6587053512
21
-23.0129034221
31
0.0000000000
11
-51.0766663426
21
-22.8427710079
31
0.0000000000
11
-50.4239842875
21
-22.7849601884
31
0.0000000000
0
SPLINE
5
305
100
AcDbEntity
8
0
100
AcDbSpline
62
7
6
CONTINUOUS
70
0
71
3
72
8
73
4
74
2
42
0.0000001000
43
0.0000001000
44
0.0000000001
12
0.2164317744
22
0.1082158872
32
0.0000000000
13
0.2064173184
23
0.1272743544
33
0.0000000000
40
0.0000000000
40
0.0000000000
40
0.0000000000
40
0.0000000000
40
1.0000000000
40
1.0000000000
40
1.0000000000
40
1.0000000000
10
125.5906529396
20
6.5822430550
30
0.0000000000
10
125.6627968644
20
6.6183150174
30
0.0000000000
10
125.7337332171
20
6.6571942885
30
0.0000000000
10
125.8025389899
20
6.6996190733
30
0.0000000000
11
125.5906529396
21
6.5822430550
31
0.0000000000
11
125.8025389899
21
6.6996190733
31
0.0000000000
0
SPLINE
5
306
100
AcDbEntity
8
0
100
AcDbSpline
62
7
6
CONTINUOUS
70
0
71
3
72
10
73
6
74
4
42
0.0000001000
43
0.0000001000
44
0.0000000001
12
1.0191437313
22
0.6283913648
32
0.0000000000
13
-0.0001402916
23
1.2161050250
33
0.0000000000
40
0.0000000000
40
0.0000000000
40
0.0000000000
40
0.0000000000
40
0.3553179389
40
0.8042733519
40
1.0000000000
40
1.0000000000
40
1.0000000000
40
1.0000000000
10
125.8025389899
20
6.6996190733
30
0.0000000000
10
125.9232456733
20
6.7740453148
30
0.0000000000
10
126.1816268895
20
6.9672104132
30
0.0000000000
10
126.4293694536
20
7.3022862926
30
0.0000000000
10
126.4665305848
20
7.5636169427
30
0.0000000000
10
126.4665214318
20
7.6429583295
30
0.0000000000
11
125.8025389899
21
6.6996190733
31
0.0000000000
11
126.1400044005
21
6.9596184925
31
0.0000000000
11
126.4326699049
21
7.4091127256
31
0.0000000000
11
126.4665214318
21
7.6429583295
31
0.0000000000
0
SPLINE
5
307
100
AcDbEntity
8
0
100
AcDbSpline
62
7
6
CONTINUOUS
70
0
71
3
72
12
73
8
74
6
42
0.0000001000
43
0.0000001000
44
0.0000000001
12
3.9025282800
22
-1.9512641400
32
0.0000000000
13
3.9025282800
23
1.9512641400
33
0.0000000000
40
0.0000000000
40
0.0000000000
40
0.0000000000
40
0.0000000000
40
0.1840818575
40
0.3928343235
40
0.6074731160
40
0.8157694620
40
1.0000000000
40
1.0000000000
40
1.0000000000
40
1.0000000000
10
-22.5482177190
20
-65.3658719308
30
0.0000000000
10
-22.3087561674
20
-65.4856027066
30
0.0000000000
10
-21.7640823398
20
-65.6744025526
30
0.0000000000
10
-20.8878498895
20
-65.8114435317
30
0.0000000000
10
-19.9652617107
20
-65.8113444394
30
0.0000000000
10
-19.0895060098
20
-65.6743023409
30
0.0000000000
10
-18.5452319934
20
-65.4856994115
30
0.0000000000
10
-18.3055770319
20
-65.3658719308
30
0.0000000000
11
-22.5482177190
21
-65.3658719308
31
0.0000000000
11
-21.7934668440
21
-65.6405476613
31
0.0000000000
11
-20.8944783778
21
-65.7868804134
31
0.0000000000
11
-19.9579751488
21
-65.7867744429
31
0.0000000000
11
-19.0609594580
21
-65.6407091949
31
0.0000000000
11
-18.3055770319
21
-65.3658719308
31
0.0000000000
0
SPLINE
5
308
100
AcDbEntity
8
0
100
AcDbSpline
62
7
6
CONTINUOUS
70
0
71
3
72
8
73
4
74
2
42
0.0000001000
43
0.0000001000
44
0.0000000001
12
0.1096596731
22
-0.0452763429
32
0.0000000000
13
0.1060139871
23
-0.0530069936
33
0.0000000000
40
0.0000000000
40
0.0000000000
40
0.0000000000
40
0.0000000000
40
1.0000000000
40
1.0000000000
40
1.0000000000
40
1.0000000000
10
-24.4238821527
20
-64.4328991798
30
0.0000000000
10
-24.3873289283
20
-64.4479912941
30
0.0000000000
10
-24.3513226677
20
-64.4643194564
30
0.0000000000
10
-24.3159846720
20
-64.4819884543
30
0.0000000000
11
-24.4238821527
21
-64.4328991798
31
0.0000000000
11
-24.3159846720
21
-64.4819884543
31
0.0000000000
0
SPLINE
5
309
100
AcDbEntity
8
0
100
AcDbSpline
62
7
6
CONTINUOUS
70
0
71
3
72
11
73
7
74
5
42
0.0000001000
43
0.0000001000
44
0.0000000001
12
2.6613332566
22
1.3306666283
32
0.0000000000
13
0.8747823104
23
2.8490095009
33
0.0000000000
40
0.0000000000
40
0.0000000000
40
0.0000000000
40
0.0000000000
40
0.2458173842
40
0.5199075447
40
0.8081550097
40
1.0000000000
40
1.0000000000
40
1.0000000000
40
1.0000000000
10
124.5299927678
20
9.7026223317
30
0.0000000000
10
124.7480600944
20
9.8116559950
30
0.0000000000
10
125.1725201605
20
10.1172252357
30
0.0000000000
10
125.7033380797
20
10.7244957099
30
0.0000000000
10
126.0797458973
20
11.3764042710
30
0.0000000000
10
126.2508424429
20
11.8224373225
30
0.0000000000
10
126.3067833109
20
12.0046267225
30
0.0000000000
11
124.5299927678
21
9.7026223317
31
0.0000000000
11
125.1308898014
21
10.1196331742
31
0.0000000000
11
125.6729668467
21
10.7289487412
31
0.0000000000
11
126.1031616255
21
11.4709249797
31
0.0000000000
11
126.3067833109
21
12.0046267225
31
0.0000000000
0
SPLINE
5
30A
100
AcDbEntity
8
0
100
AcDbSpline
62
7
6
CONTINUOUS
70
0
71
3
72
8
73
4
74
2
42
0.0000001000
43
0.0000001000
44
0.0000000001
12
0.0815576257
22
0.2656185977
32
0.0000000000
13
0.0634322171
23
0.2708770334
33
0.0000000000
40
0.0000000000
40
0.0000000000
40
0.0000000000
40
0.0000000000
40
1.0000000000
40
1.0000000000
40
1.0000000000
40
1.0000000000
10
126.3067833109
20
12.0046267225
30
0.0000000000
10
126.3339691861
20
12.0931662551
30
0.0000000000
10
126.3582196033
20
12.1826397414
30
0.0000000000
10
126.3793636757
20
12.2729320859
30
0.0000000000
11
126.3067833109
21
12.0046267225
31
0.0000000000
11
126.3793636757
21
12.2729320859
31
0.0000000000
0
SPLINE
5
30B
100
AcDbEntity
8
0
100
AcDbSpline
62
7
6
CONTINUOUS
70
0
71
3
72
9
73
5
74
3
42
0.0000001000
43
0.0000001000
44
0.0000000001
12
-0.6841193747
22
0.3632489015
32
0.0000000000
13
-0.7627796100
23
0.1395031963
33
0.0000000000
40
0.0000000000
40
0.0000000000
40
0.0000000000
40
0.0000000000
40
0.2177052450
40
1.0000000000
40
1.0000000000
40
1.0000000000
40
1.0000000000
10
-33.2380171069
20
-24.3837457731
30
0.0000000000
10
-33.2876625656
20
-24.3573853761
30
0.0000000000
10
-33.5216456370
20
-24.2475671794
30
0.0000000000
10
-33.7721654344
20
-24.1782288421
30
0.0000000000
10
-33.9710715971
20
-24.1418513025
30
0.0000000000
11
-33.2380171069
21
-24.3837457731
31
0.0000000000
11
-33.3903250170
21
-24.3114879474
31
0.0000000000
11
-33.9710715971
21
-24.1418513025
31
0.0000000000
0
SPLINE
5
30C
100
AcDbEntity
8
0
100
AcDbSpline
62
7
6
CONTINUOUS
70
0
71
3
72
8
73
4
74
2
42
0.0000001000
43
0.0000001000
44
0.0000000001
12
-0.6464823516
22
0.1182338296
32
0.0000000000
13
-0.6554707864
23
0.0000000000
33
0.0000000000
40
0.0000000000
40
0.0000000000
40
0.0000000000
40
0.0000000000
40
1.0000000000
40
1.0000000000
40
1.0000000000
40
1.0000000000
10
-33.9710715971
20
-24.1418513025
30
0.0000000000
10
-34.1865657143
20
-24.1024400259
30
0.0000000000
10
-34.4054940254
20
-24.0839982941
30
0.0000000000
10
-34.6239842875
20
-24.0839982941
30
0.0000000000
11
-33.9710715971
21
-24.1418513025
31
0.0000000000
11
-34.6239842875
21
-24.0839982941
31
0.0000000000
0
SPLINE
5
30D
100
AcDbEntity
8
0
100
AcDbSpline
62
7
6
CONTINUOUS
70
0
71
3
72
9
73
5
74
3
42
0.0000001000
43
0.0000001000
44
0.0000000001
12
-0.6841193747
22
0.3632489015
32
0.0000000000
13
-0.7627796100
23
0.1395031963
33
0.0000000000
40
0.0000000000
40
0.0000000000
40
0.0000000000
40
0.0000000000
40
0.2177052450
40
1.0000000000
40
1.0000000000
40
1.0000000000
40
1.0000000000
10
-67.1791426039
20
-7.4131830246
30
0.0000000000
10
-67.2287880626
20
-7.3868226276
30
0.0000000000
10
-67.4627711340
20
-7.2770044309
30
0.0000000000
10
-67.7132909314
20
-7.2076660936
30
0.0000000000
10
-67.9121970941
20
-7.1712885540
30
0.0000000000
11
-67.1791426039
21
-7.4131830246
31
0.0000000000
11
-67.3314505140
21
-7.3409251989
31
0.0000000000
11
-67.9121970941
21
-7.1712885540
31
0.0000000000
0
SPLINE
5
30E
100
AcDbEntity
8
0
100
AcDbSpline
62
7
6
CONTINUOUS
70
0
71
3
72
8
73
4
74
2
42
0.0000001000
43
0.0000001000
44
0.0000000001
12
-0.6464823516
22
0.1182338296
32
0.0000000000
13
-0.6554707864
23
0.0000000000
33
0.0000000000
40
0.0000000000
40
0.0000000000
40
0.0000000000
40
0.0000000000
40
1.0000000000
40
1.0000000000
40
1.0000000000
40
1.0000000000
10
-67.9121970941
20
-7.1712885540
30
0.0000000000
10
-68.1276912113
20
-7.1318772775
30
0.0000000000
10
-68.3466195223
20
-7.1134355456
30
0.0000000000
10
-68.5651097845
20
-7.1134355456
30
0.0000000000
11
-67.9121970941
21
-7.1712885540
31
0.0000000000
11
-68.5651097845
21
-7.1134355456
31
0.0000000000
0
SPLINE
5
30F
100
AcDbEntity
8
0
100
AcDbSpline
62
7
6
CONTINUOUS
70
0
71
3
72
16
73
12
74
10
42
0.0000001000
43
0.0000001000
44
0.0000000001
12
0.0000000000
22
4.5784337703
32
0.0000000000
13
0.0000000000
23
-4.5784337703
33
0.0000000000
40
0.0000000000
40
0.0000000000
40
0.0000000000
40
0.0000000000
40
0.0756486027
40
0.1731831386
40
0.2927096138
40
0.4286218318
40
0.5710250122
40
0.7066031027
40
0.8265871051
40
0.9243807139
40
1.0000000000
40
1.0000000000
40
1.0000000000
40
1.0000000000
10
-17.9965672896
20
-23.9124254188
30
0.0000000000
10
-17.9965672896
20
-23.7969747131
30
0.0000000000
10
-18.1056161293
20
-23.5334522899
30
0.0000000000
10
-18.4709565671
20
-23.2582753697
30
0.0000000000
10
-18.9761502685
20
-23.0605711965
30
0.0000000000
10
-19.5783243179
20
-22.9577799566
30
0.0000000000
10
-20.2126656264
20
-22.9576445195
30
0.0000000000
10
-20.8150637863
20
-23.0600734628
30
0.0000000000
10
-21.3210026424
20
-23.2574918981
30
0.0000000000
10
-21.6874130332
20
-23.5331485259
30
0.0000000000
10
-21.7965672896
20
-23.7970194544
30
0.0000000000
10
-21.7965672896
20
-23.9124254188
30
0.0000000000
11
-17.9965672896
21
-23.9124254188
31
0.0000000000
11
-18.1122716700
21
-23.5859713096
31
0.0000000000
11
-18.4515331622
21
-23.2956036515
31
0.0000000000
11
-18.9573039005
21
-23.0866251576
31
0.0000000000
11
-19.5697618489
21
-22.9765837917
31
0.0000000000
11
-20.2217453635
21
-22.9764420829
31
0.0000000000
11
-20.8327789757
21
-23.0857592712
31
0.0000000000
11
-21.3406808221
21
-23.2950648870
31
0.0000000000
11
-21.6809456505
21
-23.5860843913
31
0.0000000000
11
-21.7965672896
21
-23.9124254188
31
0.0000000000
0
SPLINE
5
310
100
AcDbEntity
8
0
100
AcDbSpline
62
7
6
CONTINUOUS
70
0
71
3
72
8
73
4
74
2
42
0.0000001000
43
0.0000001000
44
0.0000000001
12
0.1096596731
22
-0.0452763429
32
0.0000000000
13
0.1060139871
23
-0.0530069936
33
0.0000000000
40
0.0000000000
40
0.0000000000
40
0.0000000000
40
0.0000000000
40
1.0000000000
40
1.0000000000
40
1.0000000000
40
1.0000000000
10
-24.4238821527
20
-65.7319372855
30
0.0000000000
10
-24.3873289283
20
-65.7470293998
30
0.0000000000
10
-24.3513226677
20
-65.7633575621
30
0.0000000000
10
-24.3159846720
20
-65.7810265600
30
0.0000000000
11
-24.4238821527
21
-65.7319372855
31
0.0000000000
11
-24.3159846720
21
-65.7810265600
31
0.0000000000
0
SPLINE
5
311
100
AcDbEntity
8
0
100
AcDbSpline
62
7
6
CONTINUOUS
70
0
71
3
72
12
73
8
74
6
42
0.0000001000
43
0.0000001000
44
0.0000000001
12
-3.9025282800
22
-1.9512641400
32
0.0000000000
13
-3.9025282800
23
1.9512641400
33
0.0000000000
40
0.0000000000
40
0.0000000000
40
0.0000000000
40
0.0000000000
40
0.1842305380
40
0.3925268840
40
0.6071656765
40
0.8159181425
40
1.0000000000
40
1.0000000000
40
1.0000000000
40
1.0000000000
10
-18.3055770319
20
-66.6649100364
30
0.0000000000
10
-18.5452319934
20
-66.7847375172
30
0.0000000000
10
-19.0895060098
20
-66.9733404466
30
0.0000000000
10
-19.9652617107
20
-67.1103825451
30
0.0000000000
10
-20.8878498895
20
-67.1104816374
30
0.0000000000
10
-21.7640823398
20
-66.9734406583
30
0.0000000000
10
-22.3087561674
20
-66.7846408122
30
0.0000000000
10
-22.5482177190
20
-66.6649100364
30
0.0000000000
11
-18.3055770319
21
-66.6649100364
31
0.0000000000
11
-19.0609594580
21
-66.9397473006
31
0.0000000000
11
-19.9579751488
21
-67.0858125486
31
0.0000000000
11
-20.8944783778
21
-67.0859185191
31
0.0000000000
11
-21.7934668440
21
-66.9395857669
31
0.0000000000
11
-22.5482177190
21
-66.6649100364
31
0.0000000000
0
SPLINE
5
312
100
AcDbEntity
8
0
100
AcDbSpline
62
7
6
CONTINUOUS
70
0
71
3
72
9
73
5
74
3
42
0.0000001000
43
0.0000001000
44
0.0000000001
12
-0.6841288034
22
0.3632497172
32
0.0000000000
13
-0.7627983816
23
0.1395085618
33
0.0000000000
40
0.0000000000
40
0.0000000000
40
0.0000000000
40
0.0000000000
40
0.2177396843
40
1.0000000000
40
1.0000000000
40
1.0000000000
40
1.0000000000
10
-7.7821618857
20
-11.6558268886
30
0.0000000000
10
-7.8318158823
20
-11.6294622624
30
0.0000000000
10
-8.0658031091
20
-11.5196478551
30
0.0000000000
10
-8.3163296453
20
-11.4503057601
30
0.0000000000
10
-8.5152319463
20
-11.4139284229
30
0.0000000000
11
-7.7821618857
21
-11.6558268886
31
0.0000000000
11
-7.9344966301
21
-11.5835591690
31
0.0000000000
11
-8.5152319463
21
-11.4139284229
31
0.0000000000
0
SPLINE
5
313
100
AcDbEntity
8
0
100
AcDbSpline
62
7
6
CONTINUOUS
70
0
71
3
72
8
73
4
74
2
42
0.0000001000
43
0.0000001000
44
0.0000000001
12
-0.6464786561
22
0.1182347914
32
0.0000000000
13
-0.6554662598
23
0.0000000000
33
0.0000000000
40
0.0000000000
40
0.0000000000
40
0.0000000000
40
0.0000000000
40
1.0000000000
40
1.0000000000
40
1.0000000000
40
1.0000000000
10
-8.5152319463
20
-11.4139284229
30
0.0000000000
10
-8.7307248316
20
-11.3745168258
30
0.0000000000
10
-8.9496514115
20
-11.3560762327
30
0.0000000000
10
-9.1681401648
20
-11.3560762327
30
0.0000000000
11
-8.5152319463
21
-11.4139284229
31
0.0000000000
11
-9.1681401648
21
-11.3560762327
31
0.0000000000
0
SPLINE
5
314
100
AcDbEntity
8
0
100
AcDbSpline
62
7
6
CONTINUOUS
70
0
71
3
72
16
73
12
74
10
42
0.0000001000
43
0.0000001000
44
0.0000000001
12
0.0000000000
22
4.5784337703
32
0.0000000000
13
0.0000000000
23
-4.5784337703
33
0.0000000000
40
0.0000000000
40
0.0000000000
40
0.0000000000
40
0.0000000000
40
0.0756192861
40
0.1734128949
40
0.2933968973
40
0.4289749878
40
0.5713781682
40
0.7072903862
40
0.8268168614
40
0.9243513973
40
1.0000000000
40
1.0000000000
40
1.0000000000
40
1.0000000000
10
-51.9376927865
20
-6.9418626704
30
0.0000000000
10
-51.9376927865
20
-6.8264567059
30
0.0000000000
10
-52.0468470429
20
-6.5625857774
30
0.0000000000
10
-52.4132574337
20
-6.2869291497
30
0.0000000000
10
-52.9191962898
20
-6.0895107143
30
0.0000000000
10
-53.5215944496
20
-5.9870817710
30
0.0000000000
10
-54.1559357582
20
-5.9872172082
30
0.0000000000
10
-54.7581098075
20
-6.0900084480
30
0.0000000000
10
-55.2633035090
20
-6.2877126212
30
0.0000000000
10
-55.6286439468
20
-6.5628895414
30
0.0000000000
10
-55.7376927865
20
-6.8264119646
30
0.0000000000
10
-55.7376927865
20
-6.9418626704
30
0.0000000000
11
-51.9376927865
21
-6.9418626704
31
0.0000000000
11
-52.0533144256
21
-6.6155216428
31
0.0000000000
11
-52.3935792539
21
-6.3245021385
31
0.0000000000
11
-52.9014811004
21
-6.1151965227
31
0.0000000000
11
-53.5125147125
21
-6.0058793345
31
0.0000000000
11
-54.1644982272
21
-6.0060210433
31
0.0000000000
11
-54.7769561756
21
-6.1160624091
31
0.0000000000
11
-55.2827269139
21
-6.3250409030
31
0.0000000000
11
-55.6219884061
21
-6.6154085611
31
0.0000000000
11
-55.7376927865
21
-6.9418626704
31
0.0000000000
0
SPLINE
5
315
100
AcDbEntity
8
0
100
AcDbSpline
62
7
6
CONTINUOUS
70
0
71
3
72
9
73
5
74
3
42
0.0000001000
43
0.0000001000
44
0.0000000001
12
-0.6841288034
22
0.3632497172
32
0.0000000000
13
-0.7627983816
23
0.1395085618
33
0.0000000000
40
0.0000000000
40
0.0000000000
40
0.0000000000
40
0.0000000000
40
0.2177396843
40
1.0000000000
40
1.0000000000
40
1.0000000000
40
1.0000000000
10
-41.7232873827
20
5.3147358599
30
0.0000000000
10
-41.7729413792
20
5.3411004861
30
0.0000000000
10
-42.0069286060
20
5.4509148934
30
0.0000000000
10
-42.2574551423
20
5.5202569884
30
0.0000000000
10
-42.4563574432
20
5.5566343256
30
0.0000000000
11
-41.7232873827
21
5.3147358599
31
0.0000000000
11
-41.8756221271
21
5.3870035795
31
0.0000000000
11
-42.4563574432
21
5.5566343256
31
0.0000000000
0
SPLINE
5
316
100
AcDbEntity
8
0
100
AcDbSpline
62
7
6
CONTINUOUS
70
0
71
3
72
8
73
4
74
2
42
0.0000001000
43
0.0000001000
44
0.0000000001
12
-0.6464786561
22
0.1182347914
32
0.0000000000
13
-0.6554662598
23
0.0000000000
33
0.0000000000
40
0.0000000000
40
0.0000000000
40
0.0000000000
40
0.0000000000
40
1.0000000000
40
1.0000000000
40
1.0000000000
40
1.0000000000
10
-42.4563574432
20
5.5566343256
30
0.0000000000
10
-42.6718503286
20
5.5960459227
30
0.0000000000
10
-42.8907769085
20
5.6144865157
30
0.0000000000
10
-43.1092656618
20
5.6144865157
30
0.0000000000
11
-42.4563574432
21
5.5566343256
31
0.0000000000
11
-43.1092656618
21
5.6144865157
31
0.0000000000
0
SPLINE
5
317
100
AcDbEntity
8
0
100
AcDbSpline
62
7
6
CONTINUOUS
70
0
71
3
72
9
73
5
74
3
42
0.0000001000
43
0.0000001000
44
0.0000000001
12
-0.6841235868
22
0.3632543553
32
0.0000000000
13
-0.7627857849
23
0.1395043256
33
0.0000000000
40
0.0000000000
40
0.0000000000
40
0.0000000000
40
0.0000000000
40
0.2177115778
40
1.0000000000
40
1.0000000000
40
1.0000000000
40
1.0000000000
10
17.6736766766
20
1.0720954090
30
0.0000000000
10
17.6240294681
20
1.0984569686
30
0.0000000000
10
17.3900446364
20
1.2082763820
30
0.0000000000
10
17.1395228110
20
1.2776152807
30
0.0000000000
10
16.9406166483
20
1.3139928203
30
0.0000000000
11
17.6736766766
21
1.0720954090
31
0.0000000000
11
17.5213632284
21
1.1443561753
31
0.0000000000
11
16.9406166483
21
1.3139928203
31
0.0000000000
0
SPLINE
5
318
100
AcDbEntity
8
0
100
AcDbSpline
62
7
6
CONTINUOUS
70
0
71
3
72
8
73
4
74
2
42
0.0000001000
43
0.0000001000
44
0.0000000001
12
-0.6464823516
22
0.1182338296
32
0.0000000000
13
-0.6554707864
23
0.0000000000
33
0.0000000000
40
0.0000000000
40
0.0000000000
40
0.0000000000
40
0.0000000000
40
1.0000000000
40
1.0000000000
40
1.0000000000
40
1.0000000000
10
16.9406166483
20
1.3139928203
30
0.0000000000
10
16.7251225311
20
1.3534040968
30
0.0000000000
10
16.5061942201
20
1.3718458286
30
0.0000000000
10
16.2877039579
20
1.3718458286
30
0.0000000000
11
16.9406166483
21
1.3139928203
31
0.0000000000
11
16.2877039579
21
1.3718458286
31
0.0000000000
0
SPLINE
5
319
100
AcDbEntity
8
0
100
AcDbSpline
62
7
6
CONTINUOUS
70
0
71
3
72
9
73
5
74
3
42
0.0000001000
43
0.0000001000
44
0.0000000001
12
-0.6841288034
22
0.3632497172
32
0.0000000000
13
-0.7627983816
23
0.1395085618
33
0.0000000000
40
0.0000000000
40
0.0000000000
40
0.0000000000
40
0.0000000000
40
0.2177396843
40
1.0000000000
40
1.0000000000
40
1.0000000000
40
1.0000000000
10
-16.2674432600
20
18.0426579212
30
0.0000000000
10
-16.3170972565
20
18.0690225475
30
0.0000000000
10
-16.5510844833
20
18.1788369548
30
0.0000000000
10
-16.8016110195
20
18.2481790497
30
0.0000000000
10
-17.0005133205
20
18.2845563869
30
0.0000000000
11
-16.2674432600
21
18.0426579212
31
0.0000000000
11
-16.4197780044
21
18.1149256408
31
0.0000000000
11
-17.0005133205
21
18.2845563869
31
0.0000000000
0
SPLINE
5
31A
100
AcDbEntity
8
0
100
AcDbSpline
62
7
6
CONTINUOUS
70
0
71
3
72
8
73
4
74
2
42
0.0000001000
43
0.0000001000
44
0.0000000001
12
-0.6464786561
22
0.1182347914
32
0.0000000000
13
-0.6554662598
23
0.0000000000
33
0.0000000000
40
0.0000000000
40
0.0000000000
40
0.0000000000
40
0.0000000000
40
1.0000000000
40
1.0000000000
40
1.0000000000
40
1.0000000000
10
-17.0005133205
20
18.2845563869
30
0.0000000000
10
-17.2160062059
20
18.3239679840
30
0.0000000000
10
-17.4349327858
20
18.3424085771
30
0.0000000000
10
-17.6534215390
20
18.3424085771
30
0.0000000000
11
-17.0005133205
21
18.2845563869
31
0.0000000000
11
-17.6534215390
21
18.3424085771
31
0.0000000000
0
SPLINE
5
31B
100
AcDbEntity
8
0
100
AcDbSpline
62
7
6
CONTINUOUS
70
0
71
3
72
16
73
12
74
10
42
0.0000001000
43
0.0000001000
44
0.0000000001
12
0.0000000000
22
4.5784337703
32
0.0000000000
13
0.0000000000
23
-4.5784337703
33
0.0000000000
40
0.0000000000
40
0.0000000000
40
0.0000000000
40
0.0000000000
40
0.0756486027
40
0.1731831386
40
0.2927096138
40
0.4286218318
40
0.5710250122
40
0.7066031027
40
0.8265871051
40
0.9243807139
40
1.0000000000
40
1.0000000000
40
1.0000000000
40
1.0000000000
10
32.9151209559
20
1.5434187039
30
0.0000000000
10
32.9151209559
20
1.6588694096
30
0.0000000000
10
32.8060721161
20
1.9223918328
30
0.0000000000
10
32.4407316784
20
2.1975687530
30
0.0000000000
10
31.9355379769
20
2.3952729262
30
0.0000000000
10
31.3333639276
20
2.4980641661
30
0.0000000000
10
30.6990226190
20
2.4981996032
30
0.0000000000
10
30.0966244592
20
2.3957706599
30
0.0000000000
10
29.5906856030
20
2.1983522246
30
0.0000000000
10
29.2242752122
20
1.9226955968
30
0.0000000000
10
29.1151209559
20
1.6588246683
30
0.0000000000
10
29.1151209559
20
1.5434187039
30
0.0000000000
11
32.9151209559
21
1.5434187039
31
0.0000000000
11
32.7994165755
21
1.8698728132
31
0.0000000000
11
32.4601550833
21
2.1602404712
31
0.0000000000
11
31.9543843450
21
2.3692189651
31
0.0000000000
11
31.3419263965
21
2.4792603310
31
0.0000000000
11
30.6899428819
21
2.4794020398
31
0.0000000000
11
30.0789092698
21
2.3700848515
31
0.0000000000
11
29.5710074233
21
2.1607792357
31
0.0000000000
11
29.2307425949
21
1.8697597314
31
0.0000000000
11
29.1151209559
21
1.5434187039
31
0.0000000000
0
SPLINE
5
31C
100
AcDbEntity
8
0
100
AcDbSpline
62
7
6
CONTINUOUS
70
0
71
3
72
9
73
5
74
3
42
0.0000001000
43
0.0000001000
44
0.0000000001
12
-0.6841193747
22
0.3632489015
32
0.0000000000
13
-0.7627796100
23
0.1395031963
33
0.0000000000
40
0.0000000000
40
0.0000000000
40
0.0000000000
40
0.0000000000
40
0.2177052450
40
1.0000000000
40
1.0000000000
40
1.0000000000
40
1.0000000000
10
43.1295152612
20
13.8000204110
30
0.0000000000
10
43.0798698025
20
13.8263808080
30
0.0000000000
10
42.8458867311
20
13.9361990047
30
0.0000000000
10
42.5953669337
20
14.0055373420
30
0.0000000000
10
42.3964607710
20
14.0419148816
30
0.0000000000
11
43.1295152612
21
13.8000204110
31
0.0000000000
11
42.9772073511
21
13.8722782367
31
0.0000000000
11
42.3964607710
21
14.0419148816
31
0.0000000000
0
SPLINE
5
31D
100
AcDbEntity
8
0
100
AcDbSpline
62
7
6
CONTINUOUS
70
0
71
3
72
8
73
4
74
2
42
0.0000001000
43
0.0000001000
44
0.0000000001
12
-0.6464823516
22
0.1182338296
32
0.0000000000
13
-0.6554707864
23
0.0000000000
33
0.0000000000
40
0.0000000000
40
0.0000000000
40
0.0000000000
40
0.0000000000
40
1.0000000000
40
1.0000000000
40
1.0000000000
40
1.0000000000
10
42.3964607710
20
14.0419148816
30
0.0000000000
10
42.1809666538
20
14.0813261581
30
0.0000000000
10
41.9620383428
20
14.0997678900
30
0.0000000000
10
41.7435480806
20
14.0997678900
30
0.0000000000
11
42.3964607710
21
14.0419148816
31
0.0000000000
11
41.7435480806
21
14.0997678900
31
0.0000000000
0
SPLINE
5
31E
100
AcDbEntity
8
0
100
AcDbSpline
62
7
6
CONTINUOUS
70
0
71
3
72
9
73
5
74
3
42
0.0000001000
43
0.0000001000
44
0.0000000001
12
-0.6841193747
22
0.3632489015
32
0.0000000000
13
-0.7627796100
23
0.1395031963
33
0.0000000000
40
0.0000000000
40
0.0000000000
40
0.0000000000
40
0.0000000000
40
0.2177052450
40
1.0000000000
40
1.0000000000
40
1.0000000000
40
1.0000000000
10
9.1883897643
20
30.7705831594
30
0.0000000000
10
9.1387443056
20
30.7969435565
30
0.0000000000
10
8.9047612342
20
30.9067617532
30
0.0000000000
10
8.6542414368
20
30.9761000905
30
0.0000000000
10
8.4553352741
20
31.0124776301
30
0.0000000000
11
9.1883897643
21
30.7705831594
31
0.0000000000
11
9.0360818542
21
30.8428409852
31
0.0000000000
11
8.4553352741
21
31.0124776301
31
0.0000000000
0
SPLINE
5
31F
100
AcDbEntity
8
0
100
AcDbSpline
62
7
6
CONTINUOUS
70
0
71
3
72
8
73
4
74
2
42
0.0000001000
43
0.0000001000
44
0.0000000001
12
-0.6464823516
22
0.1182338296
32
0.0000000000
13
-0.6554707864
23
0.0000000000
33
0.0000000000
40
0.0000000000
40
0.0000000000
40
0.0000000000
40
0.0000000000
40
1.0000000000
40
1.0000000000
40
1.0000000000
40
1.0000000000
10
8.4553352741
20
31.0124776301
30
0.0000000000
10
8.2398411569
20
31.0518889066
30
0.0000000000
10
8.0209128458
20
31.0703306385
30
0.0000000000
10
7.8024225837
20
31.0703306385
30
0.0000000000
11
8.4553352741
21
31.0124776301
31
0.0000000000
11
7.8024225837
21
31.0703306385
31
0.0000000000
0
SPLINE
5
320
100
AcDbEntity
8
0
100
AcDbSpline
62
7
6
CONTINUOUS
70
0
71
3
72
16
73
12
74
10
42
0.0000001000
43
0.0000001000
44
0.0000000001
12
0.0000000000
22
4.5784337703
32
0.0000000000
13
0.0000000000
23
-4.5784337703
33
0.0000000000
40
0.0000000000
40
0.0000000000
40
0.0000000000
40
0.0000000000
40
0.0756486027
40
0.1731831386
40
0.2927096138
40
0.4286218318
40
0.5710250122
40
0.7066031027
40
0.8265871051
40
0.9243807139
40
1.0000000000
40
1.0000000000
40
1.0000000000
40
1.0000000000
10
58.3709650786
20
14.2713407652
30
0.0000000000
10
58.3709650786
20
14.3867914710
30
0.0000000000
10
58.2619162388
20
14.6503138942
30
0.0000000000
10
57.8965758011
20
14.9254908144
30
0.0000000000
10
57.3913820996
20
15.1231949876
30
0.0000000000
10
56.7892080503
20
15.2259862274
30
0.0000000000
10
56.1548667417
20
15.2261216645
30
0.0000000000
10
55.5524685819
20
15.1236927213
30
0.0000000000
10
55.0465297257
20
14.9262742859
30
0.0000000000
10
54.6801193350
20
14.6506176582
30
0.0000000000
10
54.5709650786
20
14.3867467297
30
0.0000000000
10
54.5709650786
20
14.2713407652
30
0.0000000000
11
58.3709650786
21
14.2713407652
31
0.0000000000
11
58.2552606982
21
14.5977948745
31
0.0000000000
11
57.9159992060
21
14.8881625326
31
0.0000000000
11
57.4102284677
21
15.0971410265
31
0.0000000000
11
56.7977705192
21
15.2071823923
31
0.0000000000
11
56.1457870046
21
15.2073241011
31
0.0000000000
11
55.5347533925
21
15.0980069129
31
0.0000000000
11
55.0268515460
21
14.8887012971
31
0.0000000000
11
54.6865867176
21
14.5976817928
31
0.0000000000
11
54.5709650786
21
14.2713407652
31
0.0000000000
0
SPLINE
5
321
100
AcDbEntity
8
0
100
AcDbSpline
62
7
6
CONTINUOUS
70
0
71
3
72
9
73
5
74
3
42
0.0000001000
43
0.0000001000
44
0.0000000001
12
-0.6841193747
22
0.3632489015
32
0.0000000000
13
-0.7627796100
23
0.1395031963
33
0.0000000000
40
0.0000000000
40
0.0000000000
40
0.0000000000
40
0.0000000000
40
0.2177052450
40
1.0000000000
40
1.0000000000
40
1.0000000000
40
1.0000000000
10
68.5853593839
20
26.5279424723
30
0.0000000000
10
68.5357139252
20
26.5543028694
30
0.0000000000
10
68.3017308539
20
26.6641210660
30
0.0000000000
10
68.0512110565
20
26.7334594034
30
0.0000000000
10
67.8523048938
20
26.7698369430
30
0.0000000000
11
68.5853593839
21
26.5279424723
31
0.0000000000
11
68.4330514739
21
26.6002002980
31
0.0000000000
11
67.8523048938
21
26.7698369430
31
0.0000000000
0
SPLINE
5
322
100
AcDbEntity
8
0
100
AcDbSpline
62
7
6
CONTINUOUS
70
0
71
3
72
8
73
4
74
2
42
0.0000001000
43
0.0000001000
44
0.0000000001
12
-0.6464823516
22
0.1182338296
32
0.0000000000
13
-0.6554707864
23
0.0000000000
33
0.0000000000
40
0.0000000000
40
0.0000000000
40
0.0000000000
40
0.0000000000
40
1.0000000000
40
1.0000000000
40
1.0000000000
40
1.0000000000
10
67.8523048938
20
26.7698369430
30
0.0000000000
10
67.6368107766
20
26.8092482195
30
0.0000000000
10
67.4178824655
20
26.8276899513
30
0.0000000000
10
67.1993922033
20
26.8276899513
30
0.0000000000
11
67.8523048938
21
26.7698369430
31
0.0000000000
11
67.1993922033
21
26.8276899513
31
0.0000000000
0
SPLINE
5
323
100
AcDbEntity
8
0
100
AcDbSpline
62
7
6
CONTINUOUS
70
0
71
3
72
9
73
5
74
3
42
0.0000001000
43
0.0000001000
44
0.0000000001
12
-0.6841193747
22
0.3632489015
32
0.0000000000
13
-0.7627796100
23
0.1395031963
33
0.0000000000
40
0.0000000000
40
0.0000000000
40
0.0000000000
40
0.0000000000
40
0.2177052450
40
1.0000000000
40
1.0000000000
40
1.0000000000
40
1.0000000000
10
34.6442338870
20
43.4985052208
30
0.0000000000
10
34.5945884283
20
43.5248656178
30
0.0000000000
10
34.3606053569
20
43.6346838145
30
0.0000000000
10
34.1100855595
20
43.7040221519
30
0.0000000000
10
33.9111793968
20
43.7403996915
30
0.0000000000
11
34.6442338870
21
43.4985052208
31
0.0000000000
11
34.4919259769
21
43.5707630465
31
0.0000000000
11
33.9111793968
21
43.7403996915
31
0.0000000000
0
SPLINE
5
324
100
AcDbEntity
8
0
100
AcDbSpline
62
7
6
CONTINUOUS
70
0
71
3
72
8
73
4
74
2
42
0.0000001000
43
0.0000001000
44
0.0000000001
12
-0.6464823516
22
0.1182338296
32
0.0000000000
13
-0.6554707864
23
0.0000000000
33
0.0000000000
40
0.0000000000
40
0.0000000000
40
0.0000000000
40
0.0000000000
40
1.0000000000
40
1.0000000000
40
1.0000000000
40
1.0000000000
10
33.9111793968
20
43.7403996915
30
0.0000000000
10
33.6956852796
20
43.7798109680
30
0.0000000000
10
33.4767569685
20
43.7982526998
30
0.0000000000
10
33.2582667064
20
43.7982526998
30
0.0000000000
11
33.9111793968
21
43.7403996915
31
0.0000000000
11
33.2582667064
21
43.7982526998
31
0.0000000000
0
SPLINE
5
325
100
AcDbEntity
8
0
100
AcDbSpline
62
7
6
CONTINUOUS
70
0
71
3
72
10
73
6
74
4
42
0.0000001000
43
0.0000001000
44
0.0000000001
12
0.0001687063
22
-1.4624148735
32
0.0000000000
13
-1.2850198555
23
-0.6425099277
33
0.0000000000
40
0.0000000000
40
0.0000000000
40
0.0000000000
40
0.0000000000
40
0.1627610363
40
0.5361003285
40
1.0000000000
40
1.0000000000
40
1.0000000000
40
1.0000000000
10
126.4665214318
20
6.3439202238
30
0.0000000000
10
126.4665305848
20
6.2645788370
30
0.0000000000
10
126.4293694536
20
6.0032481869
30
0.0000000000
10
126.1314491235
20
5.6003060564
30
0.0000000000
10
125.7893597025
20
5.3825583308
30
0.0000000000
10
125.5906529396
20
5.2832049493
30
0.0000000000
11
126.4665214318
21
6.3439202238
31
0.0000000000
11
126.4326699049
21
6.1100746199
31
0.0000000000
11
126.1400044005
21
5.6605803868
31
0.0000000000
11
125.5906529396
21
5.2832049493
31
0.0000000000
0
SPLINE
5
326
100
AcDbEntity
8
0
100
AcDbSpline
62
7
6
CONTINUOUS
70
0
71
3
72
8
73
4
74
2
42
0.0000001000
43
0.0000001000
44
0.0000000001
12
0.1627948510
22
0.0731829089
32
0.0000000000
13
0.1684326460
23
0.0589711479
33
0.0000000000
40
0.0000000000
40
0.0000000000
40
0.0000000000
40
0.0000000000
40
1.0000000000
40
1.0000000000
40
1.0000000000
40
1.0000000000
10
120.7087544210
20
6.5528526849
30
0.0000000000
10
120.7630193713
20
6.5772469879
30
0.0000000000
10
120.8184393594
20
6.5990243723
30
0.0000000000
10
120.8745835747
20
6.6186814216
30
0.0000000000
11
120.7087544210
21
6.5528526849
31
0.0000000000
11
120.8745835747
21
6.6186814216
31
0.0000000000
0
SPLINE
5
327
100
AcDbEntity
8
0
100
AcDbSpline
62
7
6
CONTINUOUS
70
0
71
3
72
8
73
4
74
2
42
0.0000001000
43
0.0000001000
44
0.0000000001
12
0.3507328149
22
0.1227975527
32
0.0000000000
13
0.3649590563
23
0.0721779339
33
0.0000000000
40
0.0000000000
40
0.0000000000
40
0.0000000000
40
0.0000000000
40
1.0000000000
40
1.0000000000
40
1.0000000000
40
1.0000000000
10
120.8745835747
20
6.6186814216
30
0.0000000000
10
120.9914945130
20
6.6596139391
30
0.0000000000
10
121.1115457801
20
6.6913524512
30
0.0000000000
10
121.2331987988
20
6.7154117625
30
0.0000000000
11
120.8745835747
21
6.6186814216
31
0.0000000000
11
121.2331987988
21
6.7154117625
31
0.0000000000
0
SPLINE
5
328
100
AcDbEntity
8
0
100
AcDbSpline
62
7
6
CONTINUOUS
70
0
71
3
72
11
73
7
74
5
42
0.0000001000
43
0.0000001000
44
0.0000000001
12
1.8146760021
22
0.3588883803
32
0.0000000000
13
1.6832679366
23
-0.7589475658
33
0.0000000000
40
0.0000000000
40
0.0000000000
40
0.0000000000
40
0.0000000000
40
0.1053154729
40
0.4336536422
40
0.7545529992
40
1.0000000000
40
1.0000000000
40
1.0000000000
40
1.0000000000
10
121.2331987988
20
6.7154117625
30
0.0000000000
10
121.2969032859
20
6.7280105957
30
0.0000000000
10
121.5610254958
20
6.7712175081
30
0.0000000000
10
122.0270355751
20
6.7906904218
30
0.0000000000
10
122.5754693426
20
6.7206277887
30
0.0000000000
10
122.9108088964
20
6.6146781752
30
0.0000000000
10
123.0485265853
20
6.5525843740
30
0.0000000000
11
121.2331987988
21
6.7154117625
31
0.0000000000
11
121.4254090094
21
6.7471084808
31
0.0000000000
11
122.0308648882
21
6.7735937437
31
0.0000000000
11
122.6179242964
21
6.6949426965
31
0.0000000000
11
123.0485265853
21
6.5525843740
31
0.0000000000
0
SPLINE
5
329
100
AcDbEntity
8
0
100
AcDbSpline
62
7
6
CONTINUOUS
70
0
71
3
72
8
73
4
74
2
42
0.0000001000
43
0.0000001000
44
0.0000000001
12
0.1627948510
22
0.0731829089
32
0.0000000000
13
0.1684326460
23
0.0589711479
33
0.0000000000
40
0.0000000000
40
0.0000000000
40
0.0000000000
40
0.0000000000
40
1.0000000000
40
1.0000000000
40
1.0000000000
40
1.0000000000
10
-1.6207187243
20
67.7175892575
30
0.0000000000
10
-1.5664537740
20
67.7419835605
30
0.0000000000
10
-1.5110337859
20
67.7637609449
30
0.0000000000
10
-1.4548895705
20
67.7834179942
30
0.0000000000
11
-1.6207187243
21
67.7175892575
31
0.0000000000
11
-1.4548895705
21
67.7834179942
31
0.0000000000
0
SPLINE
5
32A
100
AcDbEntity
8
0
100
AcDbSpline
62
7
6
CONTINUOUS
70
0
71
3
72
8
73
4
74
2
42
0.0000001000
43
0.0000001000
44
0.0000000001
12
0.3507328149
22
0.1227975527
32
0.0000000000
13
0.3649590563
23
0.0721779339
33
0.0000000000
40
0.0000000000
40
0.0000000000
40
0.0000000000
40
0.0000000000
40
1.0000000000
40
1.0000000000
40
1.0000000000
40
1.0000000000
10
-1.4548895705
20
67.7834179942
30
0.0000000000
10
-1.3379786322
20
67.8243505118
30
0.0000000000
10
-1.2179273652
20
67.8560890239
30
0.0000000000
10
-1.0962743465
20
67.8801483352
30
0.0000000000
11
-1.4548895705
21
67.7834179942
31
0.0000000000
11
-1.0962743465
21
67.8801483352
31
0.0000000000
0
SPLINE
5
32B
100
AcDbEntity
8
0
100
AcDbSpline
62
7
6
CONTINUOUS
70
0
71
3
72
11
73
7
74
5
42
0.0000001000
43
0.0000001000
44
0.0000000001
12
1.8146760021
22
0.3588883803
32
0.0000000000
13
1.6832679366
23
-0.7589475658
33
0.0000000000
40
0.0000000000
40
0.0000000000
40
0.0000000000
40
0.0000000000
40
0.1053154729
40
0.4336536422
40
0.7545529992
40
1.0000000000
40
1.0000000000
40
1.0000000000
40
1.0000000000
10
-1.0962743465
20
67.8801483352
30
0.0000000000
10
-1.0325698594
20
67.8927471683
30
0.0000000000
10
-0.7684476495
20
67.9359540808
30
0.0000000000
10
-0.3024375702
20
67.9554269944
30
0.0000000000
10
0.2459961973
20
67.8853643614
30
0.0000000000
10
0.5813357511
20
67.7794147479
30
0.0000000000
10
0.7190534400
20
67.7173209466
30
0.0000000000
11
-1.0962743465
21
67.8801483352
31
0.0000000000
11
-0.9040641359
21
67.9118450535
31
0.0000000000
11
-0.2986082571
21
67.9383303163
31
0.0000000000
11
0.2884511511
21
67.8596792691
31
0.0000000000
11
0.7190534400
21
67.7173209466
31
0.0000000000
0
SPLINE
5
32C
100
AcDbEntity
8
0
100
AcDbSpline
62
7
6
CONTINUOUS
70
0
71
3
72
8
73
4
74
2
42
0.0000001000
43
0.0000001000
44
0.0000000001
12
0.1627948510
22
0.0731829089
32
0.0000000000
13
0.1684326460
23
0.0589711479
33
0.0000000000
40
0.0000000000
40
0.0000000000
40
0.0000000000
40
0.0000000000
40
1.0000000000
40
1.0000000000
40
1.0000000000
40
1.0000000000
10
-20.7126018163
20
-64.1578254337
30
0.0000000000
10
-20.6583368660
20
-64.1334311308
30
0.0000000000
10
-20.6029168779
20
-64.1116537464
30
0.0000000000
10
-20.5467726626
20
-64.0919966971
30
0.0000000000
11
-20.7126018163
21
-64.1578254337
31
0.0000000000
11
-20.5467726626
21
-64.0919966971
31
0.0000000000
0
SPLINE
5
32D
100
AcDbEntity
8
0
100
AcDbSpline
62
7
6
CONTINUOUS
70
0
71
3
72
8
73
4
74
2
42
0.0000001000
43
0.0000001000
44
0.0000000001
12
0.3507328149
22
0.1227975527
32
0.0000000000
13
0.3649590563
23
0.0721779339
33
0.0000000000
40
0.0000000000
40
0.0000000000
40
0.0000000000
40
0.0000000000
40
1.0000000000
40
1.0000000000
40
1.0000000000
40
1.0000000000
10
-20.5467726626
20
-64.0919966971
30
0.0000000000
10
-20.4298617243
20
-64.0510641795
30
0.0000000000
10
-20.3098104572
20
-64.0193256674
30
0.0000000000
10
-20.1881574385
20
-63.9952663561
30
0.0000000000
11
-20.5467726626
21
-64.0919966971
31
0.0000000000
11
-20.1881574385
21
-63.9952663561
31
0.0000000000
0
SPLINE
5
32E
100
AcDbEntity
8
0
100
AcDbSpline
62
7
6
CONTINUOUS
70
0
71
3
72
11
73
7
74
5
42
0.0000001000
43
0.0000001000
44
0.0000000001
12
1.8146760021
22
0.3588883803
32
0.0000000000
13
1.6832679366
23
-0.7589475658
33
0.0000000000
40
0.0000000000
40
0.0000000000
40
0.0000000000
40
0.0000000000
40
0.1053154729
40
0.4336536422
40
0.7545529992
40
1.0000000000
40
1.0000000000
40
1.0000000000
40
1.0000000000
10
-20.1881574385
20
-63.9952663561
30
0.0000000000
10
-20.1244529514
20
-63.9826675230
30
0.0000000000
10
-19.8603307415
20
-63.9394606105
30
0.0000000000
10
-19.3943206622
20
-63.9199876969
30
0.0000000000
10
-18.8458868947
20
-63.9900503299
30
0.0000000000
10
-18.5105473409
20
-64.0959999434
30
0.0000000000
10
-18.3728296521
20
-64.1580937447
30
0.0000000000
11
-20.1881574385
21
-63.9952663561
31
0.0000000000
11
-19.9959472279
21
-63.9635696378
31
0.0000000000
11
-19.3904913492
21
-63.9370843750
31
0.0000000000
11
-18.8034319409
21
-64.0157354222
31
0.0000000000
11
-18.3728296521
21
-64.1580937447
31
0.0000000000
0
SPLINE
5
32F
100
AcDbEntity
8
0
100
AcDbSpline
62
7
6
CONTINUOUS
70
0
71
3
72
8
73
4
74
2
42
0.0000001000
43
0.0000001000
44
0.0000000001
12
0.1627948510
22
0.0731829089
32
0.0000000000
13
0.1684326460
23
0.0589711479
33
0.0000000000
40
0.0000000000
40
0.0000000000
40
0.0000000000
40
0.0000000000
40
1.0000000000
40
1.0000000000
40
1.0000000000
40
1.0000000000
10
-143.0420749616
20
-2.9930888611
30
0.0000000000
10
-142.9878100113
20
-2.9686945582
30
0.0000000000
10
-142.9323900232
20
-2.9469171738
30
0.0000000000
10
-142.8762458078
20
-2.9272601244
30
0.0000000000
11
-143.0420749616
21
-2.9930888611
31
0.0000000000
11
-142.8762458078
21
-2.9272601244
31
0.0000000000
0
SPLINE
5
330
100
AcDbEntity
8
0
100
AcDbSpline
62
7
6
CONTINUOUS
70
0
71
3
72
8
73
4
74
2
42
0.0000001000
43
0.0000001000
44
0.0000000001
12
0.3507328149
22
0.1227975527
32
0.0000000000
13
0.3649590563
23
0.0721779339
33
0.0000000000
40
0.0000000000
40
0.0000000000
40
0.0000000000
40
0.0000000000
40
1.0000000000
40
1.0000000000
40
1.0000000000
40
1.0000000000
10
-142.8762458078
20
-2.9272601244
30
0.0000000000
10
-142.7593348695
20
-2.8863276069
30
0.0000000000
10
-142.6392836025
20
-2.8545890948
30
0.0000000000
10
-142.5176305838
20
-2.8305297835
30
0.0000000000
11
-142.8762458078
21
-2.9272601244
31
0.0000000000
11
-142.5176305838
21
-2.8305297835
31
0.0000000000
0
SPLINE
5
331
100
AcDbEntity
8
0
100
AcDbSpline
62
7
6
CONTINUOUS
70
0
71
3
72
11
73
7
74
5
42
0.0000001000
43
0.0000001000
44
0.0000000001
12
1.8146760021
22
0.3588883803
32
0.0000000000
13
1.6832679366
23
-0.7589475658
33
0.0000000000
40
0.0000000000
40
0.0000000000
40
0.0000000000
40
0.0000000000
40
0.1053154729
40
0.4336536422
40
0.7545529992
40
1.0000000000
40
1.0000000000
40
1.0000000000
40
1.0000000000
10
-142.5176305838
20
-2.8305297835
30
0.0000000000
10
-142.4539260967
20
-2.8179309503
30
0.0000000000
10
-142.1898038868
20
-2.7747240379
30
0.0000000000
10
-141.7237938075
20
-2.7552511243
30
0.0000000000
10
-141.1753600400
20
-2.8253137573
30
0.0000000000
10
-140.8400204862
20
-2.9312633708
30
0.0000000000
10
-140.7023027973
20
-2.9933571720
30
0.0000000000
11
-142.5176305838
21
-2.8305297835
31
0.0000000000
11
-142.3254203732
21
-2.7988330652
31
0.0000000000
11
-141.7199644944
21
-2.7723478024
31
0.0000000000
11
-141.1329050862
21
-2.8509988495
31
0.0000000000
11
-140.7023027973
21
-2.9933571720
31
0.0000000000
0
SPLINE
5
332
100
AcDbEntity
8
0
100
AcDbSpline
62
7
6
CONTINUOUS
70
0
71
3
72
11
73
7
74
5
42
0.0000001000
43
0.0000001000
44
0.0000000001
12
-2.2687181678
22
1.1310499032
32
0.0000000000
13
-0.0000000000
23
2.5150143976
33
0.0000000000
40
0.0000000000
40
0.0000000000
40
0.0000000000
40
0.0000000000
40
0.0976565787
40
0.3626038614
40
0.6643444574
40
1.0000000000
40
1.0000000000
40
1.0000000000
40
1.0000000000
10
-36.1815477647
20
-71.1621822921
30
0.0000000000
10
-36.2553995162
20
-71.1253641375
30
0.0000000000
10
-36.5184515909
20
-70.9667496975
30
0.0000000000
10
-36.8956997927
20
-70.5365628581
30
0.0000000000
10
-37.1682578628
20
-69.8182216203
30
0.0000000000
10
-37.2206834286
20
-69.2810180773
30
0.0000000000
10
-37.2206834286
20
-68.9996252365
30
0.0000000000
11
-36.1815477647
21
-71.1621822921
31
0.0000000000
11
-36.3929449470
21
-71.0344020359
31
0.0000000000
11
-36.8418820611
21
-70.5419867980
31
0.0000000000
11
-37.1266159410
21
-69.8385463802
31
0.0000000000
11
-37.2206834286
21
-68.9996252365
31
0.0000000000
0
SPLINE
5
333
100
AcDbEntity
8
0
100
AcDbSpline
62
7
6
CONTINUOUS
70
0
71
3
72
11
73
7
74
5
42
0.0000001000
43
0.0000001000
44
0.0000000001
12
-2.2746845032
22
-1.1373422516
32
0.0000000000
13
-2.2746845032
23
1.1373422516
33
0.0000000000
40
0.0000000000
40
0.0000000000
40
0.0000000000
40
0.0000000000
40
0.2353701082
40
0.5000000000
40
0.7646298918
40
1.0000000000
40
1.0000000000
40
1.0000000000
40
1.0000000000
10
131.6010605797
20
41.1755025302
30
0.0000000000
10
131.4225963338
20
41.0862704073
30
0.0000000000
10
131.0124481479
20
40.9589815268
30
0.0000000000
10
130.3636237126
20
40.8981772967
30
0.0000000000
10
129.7147992773
20
40.9589815268
30
0.0000000000
10
129.3046510914
20
41.0862704073
30
0.0000000000
10
129.1261868455
20
41.1755025302
30
0.0000000000
11
131.6010605797
21
41.1755025302
31
0.0000000000
11
131.0333197192
21
40.9858263728
31
0.0000000000
11
130.3636237126
21
40.9192209637
31
0.0000000000
11
129.6939277059
21
40.9858263728
31
0.0000000000
11
129.1261868455
21
41.1755025302
31
0.0000000000
0
SPLINE
5
334
100
AcDbEntity
8
0
100
AcDbSpline
62
7
6
CONTINUOUS
70
0
71
3
72
9
73
5
74
3
42
0.0000001000
43
0.0000001000
44
0.0000000001
12
-0.4417551114
22
0.1045356173
32
0.0000000000
13
-0.4106978241
23
-0.2071295598
33
0.0000000000
40
0.0000000000
40
0.0000000000
40
0.0000000000
40
0.0000000000
40
0.7331781259
40
1.0000000000
40
1.0000000000
40
1.0000000000
40
1.0000000000
10
9.9324889777
20
74.3626837270
30
0.0000000000
10
9.8245272494
20
74.3882314697
30
0.0000000000
10
9.6657093415
20
74.3954670516
30
0.0000000000
10
9.5218243707
20
74.3406579813
30
0.0000000000
10
9.4852966497
20
74.3222357489
30
0.0000000000
11
9.9324889777
21
74.3626837270
31
0.0000000000
11
9.5996708201
21
74.3654892975
31
0.0000000000
11
9.4852966497
21
74.3222357489
31
0.0000000000
0
SPLINE
5
335
100
AcDbEntity
8
0
100
AcDbSpline
62
7
6
CONTINUOUS
70
0
71
3
72
9
73
5
74
3
42
0.0000001000
43
0.0000001000
44
0.0000000001
12
1.0167661358
22
-0.0247881224
32
0.0000000000
13
0.8987259504
23
0.4493629752
33
0.0000000000
40
0.0000000000
40
0.0000000000
40
0.0000000000
40
0.0000000000
40
0.2040388206
40
1.0000000000
40
1.0000000000
40
1.0000000000
40
1.0000000000
10
133.4575707983
20
24.7674900055
30
0.0000000000
10
133.5267240527
20
24.7658040924
30
0.0000000000
10
133.8663924041
20
24.7792934549
30
0.0000000000
10
134.1910373819
20
24.8901752345
30
0.0000000000
10
134.4294877044
20
25.0094003957
30
0.0000000000
11
133.4575707983
21
24.7674900055
31
0.0000000000
11
133.6647096616
21
24.7753634252
31
0.0000000000
11
134.4294877044
21
25.0094003957
31
0.0000000000
0
SPLINE
5
336
100
AcDbEntity
8
0
100
AcDbSpline
62
7
6
CONTINUOUS
70
0
71
3
72
9
73
5
74
3
42
0.0000001000
43
0.0000001000
44
0.0000000001
12
1.0167661358
22
-0.0247881224
32
0.0000000000
13
0.8987259504
23
0.4493629752
33
0.0000000000
40
0.0000000000
40
0.0000000000
40
0.0000000000
40
0.0000000000
40
0.2040388206
40
1.0000000000
40
1.0000000000
40
1.0000000000
40
1.0000000000
10
-32.7125227805
20
-58.3175567840
30
0.0000000000
10
-32.6433695261
20
-58.3192426971
30
0.0000000000
10
-32.3037011748
20
-58.3057533345
30
0.0000000000
10
-31.9790561969
20
-58.1948715549
30
0.0000000000
10
-31.7406058744
20
-58.0756463937
30
0.0000000000
11
-32.7125227805
21
-58.3175567840
31
0.0000000000
11
-32.5053839172
21
-58.3096833642
31
0.0000000000
11
-31.7406058744
21
-58.0756463937
31
0.0000000000
0
SPLINE
5
337
100
AcDbEntity
8
0
100
AcDbSpline
62
7
6
CONTINUOUS
70
0
71
3
72
13
73
9
74
7
42
0.0000001000
43
0.0000001000
44
0.0000000001
12
5.3924967315
22
2.6962483658
32
0.0000000000
13
-1.7759391894
23
5.8043158113
33
0.0000000000
40
0.0000000000
40
0.0000000000
40
0.0000000000
40
0.0000000000
40
0.1544035616
40
0.3265659053
40
0.5076207781
40
0.6866841462
40
0.8533043085
40
1.0000000000
40
1.0000000000
40
1.0000000000
40
1.0000000000
10
-29.2657321403
20
-56.8382095266
30
0.0000000000
10
-28.9881919065
20
-56.6994394097
30
0.0000000000
10
-28.4479707366
20
-56.3105420053
30
0.0000000000
10
-27.7723806165
20
-55.5376076158
30
0.0000000000
10
-27.2341086765
20
-54.6055134421
30
0.0000000000
10
-26.8832690050
20
-53.5998933448
30
0.0000000000
10
-26.7517592959
20
-52.6108665769
30
0.0000000000
10
-26.8251464726
20
-51.9774129389
30
0.0000000000
10
-26.9119873484
20
-51.6935902318
30
0.0000000000
11
-29.2657321403
21
-56.8382095266
31
0.0000000000
11
-28.5009540975
21
-56.3074684544
31
0.0000000000
11
-27.8110378581
21
-55.5319759145
31
0.0000000000
11
-27.2635172304
21
-54.5876425200
31
0.0000000000
11
-26.9119873484
21
-53.5669062031
31
0.0000000000
11
-26.7908584061
21
-52.5696837463
31
0.0000000000
11
-26.9119873484
21
-51.6935902318
31
0.0000000000
0
SPLINE
5
338
100
AcDbEntity
8
0
100
AcDbSpline
62
7
6
CONTINUOUS
70
0
71
3
72
8
73
4
74
2
42
0.0000001000
43
0.0000001000
44
0.0000000001
12
-0.2074893211
22
0.6781389557
32
0.0000000000
13
-0.4408415925
23
0.5553598200
33
0.0000000000
40
0.0000000000
40
0.0000000000
40
0.0000000000
40
0.0000000000
40
1.0000000000
40
1.0000000000
40
1.0000000000
40
1.0000000000
10
-26.9119873484
20
-51.6935902318
30
0.0000000000
10
-26.9811504555
20
-51.4675439132
30
0.0000000000
10
-27.0836025324
20
-51.2495931040
30
0.0000000000
10
-27.2305497299
20
-51.0644731640
30
0.0000000000
11
-26.9119873484
21
-51.6935902318
31
0.0000000000
11
-27.2305497299
21
-51.0644731640
31
0.0000000000
0
SPLINE
5
339
100
AcDbEntity
8
0
100
AcDbSpline
62
7
6
CONTINUOUS
70
0
71
3
72
9
73
5
74
3
42
0.0000001000
43
0.0000001000
44
0.0000000001
12
0.0000000000
22
-0.8284530772
32
0.0000000000
13
-0.7461104535
23
-0.3730552268
33
0.0000000000
40
0.0000000000
40
0.0000000000
40
0.0000000000
40
0.0000000000
40
0.4320096608
40
1.0000000000
40
1.0000000000
40
1.0000000000
40
1.0000000000
10
-25.9247418826
20
-37.2249618339
30
0.0000000000
10
-25.9247418826
20
-37.3442617448
30
0.0000000000
10
-26.0549777661
20
-37.6204127706
30
0.0000000000
10
-26.2960438390
20
-37.7730496791
30
0.0000000000
10
-26.4373050155
20
-37.8436802674
30
0.0000000000
11
-25.9247418826
21
-37.2249618339
31
0.0000000000
11
-26.0579527007
21
-37.5598098372
31
0.0000000000
11
-26.4373050155
21
-37.8436802674
31
0.0000000000
0
SPLINE
5
33A
100
AcDbEntity
8
0
100
AcDbSpline
62
7
6
CONTINUOUS
70
0
71
3
72
13
73
9
74
7
42
0.0000001000
43
0.0000001000
44
0.0000000001
12
0.0000000000
22
5.8831484139
32
0.0000000000
13
5.2620479101
23
2.6310239551
33
0.0000000000
40
0.0000000000
40
0.0000000000
40
0.0000000000
40
0.0000000000
40
0.1593261984
40
0.3345009540
40
0.5119295199
40
0.6863048275
40
0.8527259955
40
1.0000000000
40
1.0000000000
40
1.0000000000
40
1.0000000000
10
-37.2206834286
20
-46.6994710891
30
0.0000000000
10
-37.2206834286
20
-46.3870245320
30
0.0000000000
10
-37.1490481163
20
-45.7301596153
30
0.0000000000
10
-36.8656882807
20
-44.7624794339
30
0.0000000000
10
-36.4183441072
20
-43.8260609655
30
0.0000000000
10
-35.8383705135
20
-42.9859531194
30
0.0000000000
10
-35.1650466661
20
-42.2987818571
30
0.0000000000
10
-34.6505772597
20
-41.9503163895
30
0.0000000000
10
-34.3922563039
20
-41.8211559116
30
0.0000000000
11
-37.2206834286
21
-46.6994710891
31
0.0000000000
11
-37.1266887748
21
-45.7668561287
31
0.0000000000
11
-36.8412303459
21
-44.7766002341
31
0.0000000000
11
-36.3915674236
21
-43.8345799317
31
0.0000000000
11
-35.8062342561
21
-42.9920799198
31
0.0000000000
11
-35.1156354404
21
-42.2980541529
31
0.0000000000
11
-34.3922563039
21
-41.8211559116
31
0.0000000000
0
SPLINE
5
33B
100
AcDbEntity
8
0
100
AcDbSpline
62
7
6
CONTINUOUS
70
0
71
3
72
13
73
9
74
7
42
0.0000001000
43
0.0000001000
44
0.0000000001
12
5.3924967315
22
2.6962483658
32
0.0000000000
13
-1.7759391894
23
5.8043158113
33
0.0000000000
40
0.0000000000
40
0.0000000000
40
0.0000000000
40
0.0000000000
40
0.1544035616
40
0.3265659053
40
0.5076207781
40
0.6866841462
40
0.8533043085
40
1.0000000000
40
1.0000000000
40
1.0000000000
40
1.0000000000
10
136.9043614386
20
26.2468372628
30
0.0000000000
10
137.1819016724
20
26.3856073797
30
0.0000000000
10
137.7221228422
20
26.7745047841
30
0.0000000000
10
138.3977129624
20
27.5474391737
30
0.0000000000
10
138.9359849023
20
28.4795333473
30
0.0000000000
10
139.2868245738
20
29.4851534447
30
0.0000000000
10
139.4183342829
20
30.4741802125
30
0.0000000000
10
139.3449471062
20
31.1076338505
30
0.0000000000
10
139.2581062304
20
31.3914565577
30
0.0000000000
11
136.9043614386
21
26.2468372628
31
0.0000000000
11
137.6691394813
21
26.7775783350
31
0.0000000000
11
138.3590557208
21
27.5530708749
31
0.0000000000
11
138.9065763484
21
28.4974042694
31
0.0000000000
11
139.2581062304
21
29.5181405863
31
0.0000000000
11
139.3792351727
21
30.5153630431
31
0.0000000000
11
139.2581062304
21
31.3914565577
31
0.0000000000
0
SPLINE
5
33C
100
AcDbEntity
8
0
100
AcDbSpline
62
7
6
CONTINUOUS
70
0
71
3
72
8
73
4
74
2
42
0.0000001000
43
0.0000001000
44
0.0000000001
12
-0.2074893211
22
0.6781389557
32
0.0000000000
13
-0.4408415925
23
0.5553598200
33
0.0000000000
40
0.0000000000
40
0.0000000000
40
0.0000000000
40
0.0000000000
40
1.0000000000
40
1.0000000000
40
1.0000000000
40
1.0000000000
10
139.2581062304
20
31.3914565577
30
0.0000000000
10
139.1889431234
20
31.6175028762
30
0.0000000000
10
139.0864910464
20
31.8354536855
30
0.0000000000
10
138.9395438489
20
32.0205736254
30
0.0000000000
11
139.2581062304
21
31.3914565577
31
0.0000000000
11
138.9395438489
21
32.0205736254
31
0.0000000000
0
SPLINE
5
33D
100
AcDbEntity
8
0
100
AcDbSpline
62
7
6
CONTINUOUS
70
0
71
3
72
10
73
6
74
4
42
0.0000001000
43
0.0000001000
44
0.0000000001
12
-0.8510716721
22
-0.4292257968
32
0.0000000000
13
-0.0000000000
23
-0.9407119826
33
0.0000000000
40
0.0000000000
40
0.0000000000
40
0.0000000000
40
0.0000000000
40
0.2017639539
40
0.5672132680
40
1.0000000000
40
1.0000000000
40
1.0000000000
40
1.0000000000
10
-146.0781952114
20
-3.4595101816
30
0.0000000000
10
-146.1354337399
20
-3.4883776129
30
0.0000000000
10
-146.2834801322
20
-3.5957490141
30
0.0000000000
10
-146.4377837666
20
-3.8817877291
30
0.0000000000
10
-146.4686811219
20
-4.1345211800
30
0.0000000000
10
-146.4686811219
20
-4.2702304016
30
0.0000000000
11
-146.0781952114
21
-3.4595101816
31
0.0000000000
11
-146.2330991451
21
-3.5717071378
31
0.0000000000
11
-146.4080528447
21
-3.8676423399
31
0.0000000000
11
-146.4686811219
21
-4.2702304016
31
0.0000000000
0
SPLINE
5
33E
100
AcDbEntity
8
0
100
AcDbSpline
62
7
6
CONTINUOUS
70
0
71
3
72
10
73
6
74
4
42
0.0000001000
43
0.0000001000
44
0.0000000001
12
1.6548852094
22
0.8274426047
32
0.0000000000
13
1.6690254316
23
-0.8320782544
33
0.0000000000
40
0.0000000000
40
0.0000000000
40
0.0000000000
40
0.0000000000
40
0.4128932054
40
0.7869097259
40
1.0000000000
40
1.0000000000
40
1.0000000000
40
1.0000000000
10
139.5560118680
20
45.1529781744
30
0.0000000000
10
139.7837754875
20
45.2668599841
30
0.0000000000
10
140.2468032361
20
45.4351369942
30
0.0000000000
10
140.8787749465
20
45.4457013713
30
0.0000000000
10
141.2267522999
20
45.3247497716
30
0.0000000000
10
141.3453033288
20
45.2656471772
30
0.0000000000
11
139.5560118680
21
45.1529781744
31
0.0000000000
11
140.2791156377
21
45.3994105891
31
0.0000000000
11
140.9711182744
21
45.3957981606
31
0.0000000000
11
141.3453033288
21
45.2656471772
31
0.0000000000
0
SPLINE
5
33F
100
AcDbEntity
8
0
100
AcDbSpline
62
7
6
CONTINUOUS
70
0
71
3
72
10
73
6
74
4
42
0.0000001000
43
0.0000001000
44
0.0000000001
12
-1.5528279548
22
0.7852754459
32
0.0000000000
13
-0.0000000000
23
1.7266738544
33
0.0000000000
40
0.0000000000
40
0.0000000000
40
0.0000000000
40
0.0000000000
40
0.2541527265
40
0.5971999397
40
1.0000000000
40
1.0000000000
40
1.0000000000
40
1.0000000000
10
-145.7529010528
20
-7.5228906272
30
0.0000000000
10
-145.8844528723
20
-7.4563639953
30
0.0000000000
10
-146.1616309191
20
-7.2325160749
30
0.0000000000
10
-146.4186642141
20
-6.7001085132
30
0.0000000000
10
-146.4686811219
20
-6.2672538533
30
0.0000000000
10
-146.4686811219
20
-6.0354190758
30
0.0000000000
11
-145.7529010528
21
-7.5228906272
31
0.0000000000
11
-146.0979727000
21
-7.2487925083
31
0.0000000000
11
-146.3733314294
21
-6.7243564553
31
0.0000000000
11
-146.4686811219
21
-6.0354190758
31
0.0000000000
0
SPLINE
5
340
100
AcDbEntity
8
0
100
AcDbSpline
62
7
6
CONTINUOUS
70
0
71
3
72
8
73
4
74
2
42
0.0000001000
43
0.0000001000
44
0.0000000001
12
-0.6552418204
22
0.0000000000
32
0.0000000000
13
-0.6462596099
23
-0.1181490112
33
0.0000000000
40
0.0000000000
40
0.0000000000
40
0.0000000000
40
0.0000000000
40
1.0000000000
40
1.0000000000
40
1.0000000000
40
1.0000000000
10
-50.4239842875
20
-24.0839982941
30
0.0000000000
10
-50.6423982276
20
-24.0839982941
30
0.0000000000
10
-50.8612509108
20
-24.1024269216
30
0.0000000000
10
-51.0766707808
20
-24.1418099253
30
0.0000000000
11
-50.4239842875
21
-24.0839982941
31
0.0000000000
11
-51.0766707808
21
-24.1418099253
31
0.0000000000
0
SPLINE
5
341
100
AcDbEntity
8
0
100
AcDbSpline
62
7
6
CONTINUOUS
70
0
71
3
72
9
73
5
74
3
42
0.0000001000
43
0.0000001000
44
0.0000000001
12
-0.7630666294
22
-0.1395036397
32
0.0000000000
13
-0.6844352396
23
-0.3633737442
33
0.0000000000
40
0.0000000000
40
0.0000000000
40
0.0000000000
40
0.0000000000
40
0.7837795367
40
1.0000000000
40
1.0000000000
40
1.0000000000
40
1.0000000000
10
-51.0766707808
20
-24.1418099253
30
0.0000000000
10
-51.2760294505
20
-24.1782566247
30
0.0000000000
10
-51.5266339253
20
-24.2476548890
30
0.0000000000
10
-51.7606947879
20
-24.3575837820
30
0.0000000000
10
-51.8100244227
20
-24.3837733951
30
0.0000000000
11
-51.0766707808
21
-24.1418099253
31
0.0000000000
11
-51.6587038564
21
-24.3119408888
31
0.0000000000
11
-51.8100244227
21
-24.3837733951
31
0.0000000000
0
SPLINE
5
342
100
AcDbEntity
8
0
100
AcDbSpline
62
7
6
CONTINUOUS
70
0
71
3
72
8
73
4
74
2
42
0.0000001000
43
0.0000001000
44
0.0000000001
12
-0.6554707864
22
0.0000000000
32
0.0000000000
13
-0.6464823516
23
-0.1182338296
33
0.0000000000
40
0.0000000000
40
0.0000000000
40
0.0000000000
40
0.0000000000
40
1.0000000000
40
1.0000000000
40
1.0000000000
40
1.0000000000
10
-84.3651097845
20
-7.1134355456
30
0.0000000000
10
-84.5836000466
20
-7.1134355456
30
0.0000000000
10
-84.8025283577
20
-7.1318772775
30
0.0000000000
10
-85.0180224749
20
-7.1712885540
30
0.0000000000
11
-84.3651097845
21
-7.1134355456
31
0.0000000000
11
-85.0180224749
21
-7.1712885540
31
0.0000000000
0
SPLINE
5
343
100
AcDbEntity
8
0
100
AcDbSpline
62
7
6
CONTINUOUS
70
0
71
3
72
9
73
5
74
3
42
0.0000001000
43
0.0000001000
44
0.0000000001
12
-0.7627796100
22
-0.1395031963
32
0.0000000000
13
-0.6841193747
23
-0.3632489015
33
0.0000000000
40
0.0000000000
40
0.0000000000
40
0.0000000000
40
0.0000000000
40
0.7822947550
40
1.0000000000
40
1.0000000000
40
1.0000000000
40
1.0000000000
10
-85.0180224749
20
-7.1712885540
30
0.0000000000
10
-85.2169286376
20
-7.2076660936
30
0.0000000000
10
-85.4674484350
20
-7.2770044309
30
0.0000000000
10
-85.7014315064
20
-7.3868226276
30
0.0000000000
10
-85.7510769651
20
-7.4131830246
30
0.0000000000
11
-85.0180224749
21
-7.1712885540
31
0.0000000000
11
-85.5987690550
21
-7.3409251989
31
0.0000000000
11
-85.7510769651
21
-7.4131830246
31
0.0000000000
0
SPLINE
5
344
100
AcDbEntity
8
0
100
AcDbSpline
62
7
6
CONTINUOUS
70
0
71
3
72
8
73
4
74
2
42
0.0000001000
43
0.0000001000
44
0.0000000001
12
-0.6554707864
22
0.0000000000
32
0.0000000000
13
-0.6464823516
23
-0.1182338296
33
0.0000000000
40
0.0000000000
40
0.0000000000
40
0.0000000000
40
0.0000000000
40
1.0000000000
40
1.0000000000
40
1.0000000000
40
1.0000000000
10
17.4582667064
20
43.7982526998
30
0.0000000000
10
17.2397764442
20
43.7982526998
30
0.0000000000
10
17.0208481332
20
43.7798109680
30
0.0000000000
10
16.8053540160
20
43.7403996915
30
0.0000000000
11
17.4582667064
21
43.7982526998
31
0.0000000000
11
16.8053540160
21
43.7403996915
31
0.0000000000
0
SPLINE
5
345
100
AcDbEntity
8
0
100
AcDbSpline
62
7
6
CONTINUOUS
70
0
71
3
72
9
73
5
74
3
42
0.0000001000
43
0.0000001000
44
0.0000000001
12
-0.7627796100
22
-0.1395031963
32
0.0000000000
13
-0.6841193747
23
-0.3632489015
33
0.0000000000
40
0.0000000000
40
0.0000000000
40
0.0000000000
40
0.0000000000
40
0.7822947550
40
1.0000000000
40
1.0000000000
40
1.0000000000
40
1.0000000000
10
16.8053540160
20
43.7403996915
30
0.0000000000
10
16.6064478533
20
43.7040221519
30
0.0000000000
10
16.3559280559
20
43.6346838145
30
0.0000000000
10
16.1219449845
20
43.5248656178
30
0.0000000000
10
16.0722995258
20
43.4985052208
30
0.0000000000
11
16.8053540160
21
43.7403996915
31
0.0000000000
11
16.2246074359
21
43.5707630465
31
0.0000000000
11
16.0722995258
21
43.4985052208
31
0.0000000000
0
SPLINE
5
346
100
AcDbEntity
8
0
100
AcDbSpline
62
7
6
CONTINUOUS
70
0
71
3
72
16
73
12
74
10
42
0.0000001000
43
0.0000001000
44
0.0000000001
12
0.0000000000
22
4.5784337703
32
0.0000000000
13
0.0000000000
23
-4.5784337703
33
0.0000000000
40
0.0000000000
40
0.0000000000
40
0.0000000000
40
0.0000000000
40
0.0756192861
40
0.1734128949
40
0.2933968973
40
0.4289749878
40
0.5713781682
40
0.7072903862
40
0.8268168614
40
0.9243513973
40
1.0000000000
40
1.0000000000
40
1.0000000000
40
1.0000000000
10
24.4298395816
20
31.2419035137
30
0.0000000000
10
24.4298395816
20
31.3573094782
30
0.0000000000
10
24.3206853253
20
31.6211804067
30
0.0000000000
10
23.9542749345
20
31.8968370344
30
0.0000000000
10
23.4483360784
20
32.0942554697
30
0.0000000000
10
22.8459379185
20
32.1966844130
30
0.0000000000
10
22.2115966100
20
32.1965489759
30
0.0000000000
10
21.6094225606
20
32.0937577360
30
0.0000000000
10
21.1042288591
20
31.8960535628
30
0.0000000000
10
20.7388884214
20
31.6208766426
30
0.0000000000
10
20.6298395816
20
31.3573542195
30
0.0000000000
10
20.6298395816
20
31.2419035137
30
0.0000000000
11
24.4298395816
21
31.2419035137
31
0.0000000000
11
24.3142179426
21
31.5682445412
31
0.0000000000
11
23.9739531142
21
31.8592640455
31
0.0000000000
11
23.4660512678
21
32.0685696614
31
0.0000000000
11
22.8550176556
21
32.1778868496
31
0.0000000000
11
22.2030341410
21
32.1777451408
31
0.0000000000
11
21.5905761925
21
32.0677037750
31
0.0000000000
11
21.0848054542
21
31.8587252811
31
0.0000000000
11
20.7455439620
21
31.5683576230
31
0.0000000000
11
20.6298395816
21
31.2419035137
31
0.0000000000
0
SPLINE
5
347
100
AcDbEntity
8
0
100
AcDbSpline
62
7
6
CONTINUOUS
70
0
71
3
72
8
73
4
74
2
42
0.0000001000
43
0.0000001000
44
0.0000000001
12
-0.6552418204
22
0.0000000000
32
0.0000000000
13
-0.6462596099
23
-0.1181490112
33
0.0000000000
40
0.0000000000
40
0.0000000000
40
0.0000000000
40
0.0000000000
40
1.0000000000
40
1.0000000000
40
1.0000000000
40
1.0000000000
10
51.3993922033
20
26.8276899513
30
0.0000000000
10
51.1809782632
20
26.8276899513
30
0.0000000000
10
50.9621255801
20
26.8092613239
30
0.0000000000
10
50.7467057101
20
26.7698783201
30
0.0000000000
11
51.3993922033
21
26.8276899513
31
0.0000000000
11
50.7467057101
21
26.7698783201
31
0.0000000000
0
SPLINE
5
348
100
AcDbEntity
8
0
100
AcDbSpline
62
7
6
CONTINUOUS
70
0
71
3
72
9
73
5
74
3
42
0.0000001000
43
0.0000001000
44
0.0000000001
12
-0.7630666294
22
-0.1395036397
32
0.0000000000
13
-0.6844352396
23
-0.3633737442
33
0.0000000000
40
0.0000000000
40
0.0000000000
40
0.0000000000
40
0.0000000000
40
0.7837795367
40
1.0000000000
40
1.0000000000
40
1.0000000000
40
1.0000000000
10
50.7467057101
20
26.7698783201
30
0.0000000000
10
50.5473470403
20
26.7334316208
30
0.0000000000
10
50.2967425656
20
26.6640333564
30
0.0000000000
10
50.0626817030
20
26.5541044634
30
0.0000000000
10
50.0133520681
20
26.5279148503
30
0.0000000000
11
50.7467057101
21
26.7698783201
31
0.0000000000
11
50.1646726345
21
26.5997473567
31
0.0000000000
11
50.0133520681
21
26.5279148503
31
0.0000000000
0
SPLINE
5
349
100
AcDbEntity
8
0
100
AcDbSpline
62
7
6
CONTINUOUS
70
0
71
3
72
8
73
4
74
2
42
0.0000001000
43
0.0000001000
44
0.0000000001
12
-0.6554707864
22
0.0000000000
32
0.0000000000
13
-0.6464823516
23
-0.1182338296
33
0.0000000000
40
0.0000000000
40
0.0000000000
40
0.0000000000
40
0.0000000000
40
1.0000000000
40
1.0000000000
40
1.0000000000
40
1.0000000000
10
-7.9975774163
20
31.0703306385
30
0.0000000000
10
-8.2160676785
20
31.0703306385
30
0.0000000000
10
-8.4349959896
20
31.0518889066
30
0.0000000000
10
-8.6504901067
20
31.0124776301
30
0.0000000000
11
-7.9975774163
21
31.0703306385
31
0.0000000000
11
-8.6504901067
21
31.0124776301
31
0.0000000000
0
SPLINE
5
34A
100
AcDbEntity
8
0
100
AcDbSpline
62
7
6
CONTINUOUS
70
0
71
3
72
9
73
5
74
3
42
0.0000001000
43
0.0000001000
44
0.0000000001
12
-0.7627796100
22
-0.1395031963
32
0.0000000000
13
-0.6841193747
23
-0.3632489015
33
0.0000000000
40
0.0000000000
40
0.0000000000
40
0.0000000000
40
0.0000000000
40
0.7822947550
40
1.0000000000
40
1.0000000000
40
1.0000000000
40
1.0000000000
10
-8.6504901067
20
31.0124776301
30
0.0000000000
10
-8.8493962695
20
30.9761000905
30
0.0000000000
10
-9.0999160669
20
30.9067617532
30
0.0000000000
10
-9.3338991382
20
30.7969435565
30
0.0000000000
10
-9.3835445969
20
30.7705831594
30
0.0000000000
11
-8.6504901067
21
31.0124776301
31
0.0000000000
11
-9.2312366868
21
30.8428409852
31
0.0000000000
11
-9.3835445969
21
30.7705831594
31
0.0000000000
0
SPLINE
5
34B
100
AcDbEntity
8
0
100
AcDbSpline
62
7
6
CONTINUOUS
70
0
71
3
72
16
73
12
74
10
42
0.0000001000
43
0.0000001000
44
0.0000000001
12
-0.0000000000
22
4.5784337703
32
0.0000000000
13
-0.0000000000
23
-4.5784337703
33
0.0000000000
40
0.0000000000
40
0.0000000000
40
0.0000000000
40
0.0000000000
40
0.0756192861
40
0.1734128949
40
0.2933968973
40
0.4289749878
40
0.5713781682
40
0.7072903862
40
0.8268168614
40
0.9243513973
40
1.0000000000
40
1.0000000000
40
1.0000000000
40
1.0000000000
10
-1.0260045411
20
18.5139814524
30
0.0000000000
10
-1.0260045411
20
18.6293874168
30
0.0000000000
10
-1.1351587974
20
18.8932583453
30
0.0000000000
10
-1.5015691882
20
19.1689149731
30
0.0000000000
10
-2.0075080444
20
19.3663334084
30
0.0000000000
10
-2.6099062042
20
19.4687623517
30
0.0000000000
10
-3.2442475128
20
19.4686269146
30
0.0000000000
10
-3.8464215621
20
19.3658356747
30
0.0000000000
10
-4.3516152636
20
19.1681315015
30
0.0000000000
10
-4.7169557013
20
18.8929545813
30
0.0000000000
10
-4.8260045411
20
18.6294321581
30
0.0000000000
10
-4.8260045411
20
18.5139814524
30
0.0000000000
11
-1.0260045411
21
18.5139814524
31
0.0000000000
11
-1.1416261801
21
18.8403224799
31
0.0000000000
11
-1.4818910085
21
19.1313419842
31
0.0000000000
11
-1.9897928550
21
19.3406476000
31
0.0000000000
11
-2.6008264671
21
19.4499647882
31
0.0000000000
11
-3.2528099817
21
19.4498230794
31
0.0000000000
11
-3.8652679302
21
19.3397817136
31
0.0000000000
11
-4.3710386685
21
19.1308032197
31
0.0000000000
11
-4.7103001607
21
18.8404355616
31
0.0000000000
11
-4.8260045411
21
18.5139814524
31
0.0000000000
0
SPLINE
5
34C
100
AcDbEntity
8
0
100
AcDbSpline
62
7
6
CONTINUOUS
70
0
71
3
72
8
73
4
74
2
42
0.0000001000
43
0.0000001000
44
0.0000000001
12
-0.6552418204
22
0.0000000000
32
0.0000000000
13
-0.6462596099
23
-0.1181490112
33
0.0000000000
40
0.0000000000
40
0.0000000000
40
0.0000000000
40
0.0000000000
40
1.0000000000
40
1.0000000000
40
1.0000000000
40
1.0000000000
10
25.9435480806
20
14.0997678900
30
0.0000000000
10
25.7251341405
20
14.0997678900
30
0.0000000000
10
25.5062814574
20
14.0813392625
30
0.0000000000
10
25.2908615874
20
14.0419562588
30
0.0000000000
11
25.9435480806
21
14.0997678900
31
0.0000000000
11
25.2908615874
21
14.0419562588
31
0.0000000000
0
SPLINE
5
34D
100
AcDbEntity
8
0
100
AcDbSpline
62
7
6
CONTINUOUS
70
0
71
3
72
9
73
5
74
3
42
0.0000001000
43
0.0000001000
44
0.0000000001
12
-0.7630666294
22
-0.1395036397
32
0.0000000000
13
-0.6844352396
23
-0.3633737442
33
0.0000000000
40
0.0000000000
40
0.0000000000
40
0.0000000000
40
0.0000000000
40
0.7837795367
40
1.0000000000
40
1.0000000000
40
1.0000000000
40
1.0000000000
10
25.2908615874
20
14.0419562588
30
0.0000000000
10
25.0915029176
20
14.0055095594
30
0.0000000000
10
24.8408984428
20
13.9361112951
30
0.0000000000
10
24.6068375803
20
13.8261824021
30
0.0000000000
10
24.5575079454
20
13.7999927890
30
0.0000000000
11
25.2908615874
21
14.0419562588
31
0.0000000000
11
24.7088285117
21
13.8718252953
31
0.0000000000
11
24.5575079454
21
13.7999927890
31
0.0000000000
0
SPLINE
5
34E
100
AcDbEntity
8
0
100
AcDbSpline
62
7
6
CONTINUOUS
70
0
71
3
72
8
73
4
74
2
42
0.0000001000
43
0.0000001000
44
0.0000000001
12
-0.6554662598
22
0.0000000000
32
0.0000000000
13
-0.6464786561
23
-0.1182347914
33
0.0000000000
40
0.0000000000
40
0.0000000000
40
0.0000000000
40
0.0000000000
40
1.0000000000
40
1.0000000000
40
1.0000000000
40
1.0000000000
10
-33.4534215390
20
18.3424085771
30
0.0000000000
10
-33.6719102923
20
18.3424085771
30
0.0000000000
10
-33.8908368722
20
18.3239679840
30
0.0000000000
10
-34.1063297576
20
18.2845563869
30
0.0000000000
11
-33.4534215390
21
18.3424085771
31
0.0000000000
11
-34.1063297576
21
18.2845563869
31
0.0000000000
0
SPLINE
5
34F
100
AcDbEntity
8
0
100
AcDbSpline
62
7
6
CONTINUOUS
70
0
71
3
72
9
73
5
74
3
42
0.0000001000
43
0.0000001000
44
0.0000000001
12
-0.7627983816
22
-0.1395085618
32
0.0000000000
13
-0.6841288034
23
-0.3632497172
33
0.0000000000
40
0.0000000000
40
0.0000000000
40
0.0000000000
40
0.0000000000
40
0.7822603157
40
1.0000000000
40
1.0000000000
40
1.0000000000
40
1.0000000000
10
-34.1063297576
20
18.2845563869
30
0.0000000000
10
-34.3052320586
20
18.2481790497
30
0.0000000000
10
-34.5557585948
20
18.1788369548
30
0.0000000000
10
-34.7897458216
20
18.0690225475
30
0.0000000000
10
-34.8393998181
20
18.0426579212
30
0.0000000000
11
-34.1063297576
21
18.2845563869
31
0.0000000000
11
-34.6870650737
21
18.1149256408
31
0.0000000000
11
-34.8393998181
21
18.0426579212
31
0.0000000000
0
SPLINE
5
350
100
AcDbEntity
8
0
100
AcDbSpline
62
7
6
CONTINUOUS
70
0
71
3
72
16
73
12
74
10
42
0.0000001000
43
0.0000001000
44
0.0000000001
12
0.0000000000
22
4.5784335911
32
0.0000000000
13
0.0000000000
23
-4.5784335911
33
0.0000000000
40
0.0000000000
40
0.0000000000
40
0.0000000000
40
0.0000000000
40
0.0756198644
40
0.1734125742
40
0.2934096400
40
0.4291190380
40
0.5715348157
40
0.7072987368
40
0.8268135174
40
0.9243508146
40
1.0000000000
40
1.0000000000
40
1.0000000000
40
1.0000000000
10
-26.4818486638
20
5.7860593910
30
0.0000000000
10
-26.4818486638
20
5.9014662334
30
0.0000000000
10
-26.5910035875
20
6.1653365723
30
0.0000000000
10
-26.9574294701
20
6.4410049924
30
0.0000000000
10
-27.4635777849
20
6.6384955981
30
0.0000000000
10
-28.0662319078
20
6.7408962801
30
0.0000000000
10
-28.7005672556
20
6.7406503195
30
0.0000000000
10
-29.3024977894
20
6.6378245568
30
0.0000000000
10
-29.8074637773
20
6.4402040495
30
0.0000000000
10
-30.1727967724
20
6.1650383169
30
0.0000000000
10
-30.2818486638
20
5.9015109815
30
0.0000000000
10
-30.2818486638
20
5.7860593910
30
0.0000000000
11
-26.4818486638
21
5.7860593910
31
0.0000000000
11
-26.5974719262
21
6.1124026376
31
0.0000000000
11
-26.9377338532
21
6.4034191754
31
0.0000000000
11
-27.4456934671
21
6.6127415318
31
0.0000000000
11
-28.0573303979
21
6.7220999744
31
0.0000000000
11
-28.7093715262
21
6.7218383145
31
0.0000000000
11
-29.3211489852
21
6.6118491503
31
0.0000000000
11
-29.8268693572
21
6.4028890263
31
0.0000000000
11
-30.1661426471
21
6.1125157362
31
0.0000000000
11
-30.2818486638
21
5.7860593910
31
0.0000000000
0
SPLINE
5
351
100
AcDbEntity
8
0
100
AcDbSpline
62
7
6
CONTINUOUS
70
0
71
3
72
8
73
4
74
2
42
0.0000001000
43
0.0000001000
44
0.0000000001
12
-0.6552373279
22
0.0000000000
32
0.0000000000
13
-0.6462547198
23
-0.1181449409
33
0.0000000000
40
0.0000000000
40
0.0000000000
40
0.0000000000
40
0.0000000000
40
1.0000000000
40
1.0000000000
40
1.0000000000
40
1.0000000000
10
0.4877039579
20
1.3718458286
30
0.0000000000
10
0.2692915153
20
1.3718458286
30
0.0000000000
10
0.0504401428
20
1.3534166561
30
0.0000000000
10
-0.1649780972
20
1.3140350091
30
0.0000000000
11
0.4877039579
21
1.3718458286
31
0.0000000000
11
-0.1649780972
21
1.3140350091
31
0.0000000000
0
SPLINE
5
352
100
AcDbEntity
8
0
100
AcDbSpline
62
7
6
CONTINUOUS
70
0
71
3
72
9
73
5
74
3
42
0.0000001000
43
0.0000001000
44
0.0000000001
12
-0.7630648983
22
-0.1394995728
32
0.0000000000
13
-0.6844386756
23
-0.3633828751
33
0.0000000000
40
0.0000000000
40
0.0000000000
40
0.0000000000
40
0.0000000000
40
0.7837886444
40
1.0000000000
40
1.0000000000
40
1.0000000000
40
1.0000000000
10
-0.1649780972
20
1.3140350091
30
0.0000000000
10
-0.3643386312
20
1.2775889488
30
0.0000000000
10
-0.6149420966
20
1.2081936096
30
0.0000000000
10
-0.8490041022
20
1.0982597756
30
0.0000000000
10
-0.8983319068
20
1.0720706076
30
0.0000000000
11
-0.1649780972
21
1.3140350091
31
0.0000000000
11
-0.7470171057
21
1.1439025949
31
0.0000000000
11
-0.8983319068
21
1.0720706076
31
0.0000000000
0
SPLINE
5
353
100
AcDbEntity
8
0
100
AcDbSpline
62
7
6
CONTINUOUS
70
0
71
3
72
16
73
12
74
10
42
0.0000001000
43
0.0000001000
44
0.0000000001
12
0.0000000000
22
4.5784335911
32
0.0000000000
13
0.0000000000
23
-4.5784335911
33
0.0000000000
40
0.0000000000
40
0.0000000000
40
0.0000000000
40
0.0000000000
40
0.0756491854
40
0.1731864826
40
0.2927012632
40
0.4284651843
40
0.5708809620
40
0.7065903600
40
0.8265874258
40
0.9243801356
40
1.0000000000
40
1.0000000000
40
1.0000000000
40
1.0000000000
10
7.4592768332
20
-11.1845033575
30
0.0000000000
10
7.4592768332
20
-11.0690517670
30
0.0000000000
10
7.3502249418
20
-10.8055244316
30
0.0000000000
10
6.9848919467
20
-10.5303586990
30
0.0000000000
10
6.4799259588
20
-10.3327381917
30
0.0000000000
10
5.8779954250
20
-10.2299124290
30
0.0000000000
10
5.2436600772
20
-10.2296664684
30
0.0000000000
10
4.6410059542
20
-10.3320671503
30
0.0000000000
10
4.1348576395
20
-10.5295577561
30
0.0000000000
10
3.7684317568
20
-10.8052261761
30
0.0000000000
10
3.6592768332
20
-11.0690965151
30
0.0000000000
10
3.6592768332
20
-11.1845033575
30
0.0000000000
11
7.4592768332
21
-11.1845033575
31
0.0000000000
11
7.3435708164
21
-10.8580470123
31
0.0000000000
11
7.0042975265
21
-10.5676737222
31
0.0000000000
11
6.4985771546
21
-10.3587135982
31
0.0000000000
11
5.8867996956
21
-10.2487244340
31
0.0000000000
11
5.2347585673
21
-10.2484627741
31
0.0000000000
11
4.6231216365
21
-10.3578212167
31
0.0000000000
11
4.1151620225
21
-10.5671435730
31
0.0000000000
11
3.7749000956
21
-10.8581601109
31
0.0000000000
11
3.6592768332
21
-11.1845033575
31
0.0000000000
0
SPLINE
5
354
100
AcDbEntity
8
0
100
AcDbSpline
62
7
6
CONTINUOUS
70
0
71
3
72
8
73
4
74
2
42
0.0000001000
43
0.0000001000
44
0.0000000001
12
-0.6554662598
22
0.0000000000
32
0.0000000000
13
-0.6464786561
23
-0.1182347914
33
0.0000000000
40
0.0000000000
40
0.0000000000
40
0.0000000000
40
0.0000000000
40
1.0000000000
40
1.0000000000
40
1.0000000000
40
1.0000000000
10
-58.9092656618
20
5.6144865157
30
0.0000000000
10
-59.1277544150
20
5.6144865157
30
0.0000000000
10
-59.3466809950
20
5.5960459227
30
0.0000000000
10
-59.5621738803
20
5.5566343256
30
0.0000000000
11
-58.9092656618
21
5.6144865157
31
0.0000000000
11
-59.5621738803
21
5.5566343256
31
0.0000000000
0
SPLINE
5
355
100
AcDbEntity
8
0
100
AcDbSpline
62
7
6
CONTINUOUS
70
0
71
3
72
9
73
5
74
3
42
0.0000001000
43
0.0000001000
44
0.0000000001
12
-0.7627983816
22
-0.1395085618
32
0.0000000000
13
-0.6841288034
23
-0.3632497172
33
0.0000000000
40
0.0000000000
40
0.0000000000
40
0.0000000000
40
0.0000000000
40
0.7822603157
40
1.0000000000
40
1.0000000000
40
1.0000000000
40
1.0000000000
10
-59.5621738803
20
5.5566343256
30
0.0000000000
10
-59.7610761813
20
5.5202569884
30
0.0000000000
10
-60.0116027175
20
5.4509148934
30
0.0000000000
10
-60.2455899443
20
5.3411004861
30
0.0000000000
10
-60.2952439408
20
5.3147358599
30
0.0000000000
11
-59.5621738803
21
5.5566343256
31
0.0000000000
11
-60.1429091964
21
5.3870035795
31
0.0000000000
11
-60.2952439408
21
5.3147358599
31
0.0000000000
0
SPLINE
5
356
100
AcDbEntity
8
0
100
AcDbSpline
62
7
6
CONTINUOUS
70
0
71
3
72
8
73
4
74
2
42
0.0000001000
43
0.0000001000
44
0.0000000001
12
-0.6552418204
22
-0.0000000000
32
0.0000000000
13
-0.6462596099
23
-0.1181490112
33
0.0000000000
40
0.0000000000
40
0.0000000000
40
0.0000000000
40
0.0000000000
40
1.0000000000
40
1.0000000000
40
1.0000000000
40
1.0000000000
10
-24.9681401648
20
-11.3560762327
30
0.0000000000
10
-25.1865541049
20
-11.3560762327
30
0.0000000000
10
-25.4054067881
20
-11.3745048602
30
0.0000000000
10
-25.6208266580
20
-11.4138878639
30
0.0000000000
11
-24.9681401648
21
-11.3560762327
31
0.0000000000
11
-25.6208266580
21
-11.4138878639
31
0.0000000000
0
SPLINE
5
357
100
AcDbEntity
8
0
100
AcDbSpline
62
7
6
CONTINUOUS
70
0
71
3
72
9
73
5
74
3
42
0.0000001000
43
0.0000001000
44
0.0000000001
12
-0.7629290852
22
-0.1394784939
32
0.0000000000
13
-0.6843414487
23
-0.3632522609
33
0.0000000000
40
0.0000000000
40
0.0000000000
40
0.0000000000
40
0.0000000000
40
0.7839208399
40
1.0000000000
40
1.0000000000
40
1.0000000000
40
1.0000000000
10
-25.6208266580
20
-11.4138878639
30
0.0000000000
10
-25.8201853278
20
-11.4503345633
30
0.0000000000
10
-26.0707446307
20
-11.5197203185
30
0.0000000000
10
-26.3047662848
20
-11.6296220922
30
0.0000000000
10
-26.3540569266
20
-11.6557858400
30
0.0000000000
11
-25.6208266580
21
-11.4138878639
31
0.0000000000
11
-26.2028597337
21
-11.5840188274
31
0.0000000000
11
-26.3540569266
21
-11.6557858400
31
0.0000000000
0
SPLINE
5
358
100
AcDbEntity
8
0
100
AcDbSpline
62
7
6
CONTINUOUS
70
0
71
3
72
9
73
5
74
3
42
0.0000001000
43
0.0000001000
44
0.0000000001
12
-0.4417551114
22
0.1045356173
32
0.0000000000
13
-0.4106978242
23
-0.2071295598
33
0.0000000000
40
0.0000000000
40
0.0000000000
40
0.0000000000
40
0.0000000000
40
0.7331781259
40
1.0000000000
40
1.0000000000
40
1.0000000000
40
1.0000000000
10
-145.6310028834
20
-3.4190622035
30
0.0000000000
10
-145.7389646116
20
-3.3935144608
30
0.0000000000
10
-145.8977825195
20
-3.3862788789
30
0.0000000000
10
-146.0416674903
20
-3.4410879492
30
0.0000000000
10
-146.0781952114
20
-3.4595101816
30
0.0000000000
11
-145.6310028834
21
-3.4190622035
31
0.0000000000
11
-145.9638210410
21
-3.4162566330
31
0.0000000000
11
-146.0781952114
21
-3.4595101816
31
0.0000000000
0
SPLINE
5
359
100
AcDbEntity
8
0
100
AcDbSpline
62
7
6
CONTINUOUS
70
0
71
3
72
9
73
5
74
3
42
0.0000001000
43
0.0000001000
44
0.0000000001
12
0.7461104535
22
-0.3730552268
32
0.0000000000
13
0.0000000000
23
-0.8284530772
33
0.0000000000
40
0.0000000000
40
0.0000000000
40
0.0000000000
40
0.0000000000
40
0.5679903392
40
1.0000000000
40
1.0000000000
40
1.0000000000
40
1.0000000000
10
-26.4373050155
20
-36.6062434003
30
0.0000000000
10
-26.2960438390
20
-36.6768739886
30
0.0000000000
10
-26.0549777661
20
-36.8295108972
30
0.0000000000
10
-25.9247418826
20
-37.1056619229
30
0.0000000000
10
-25.9247418826
20
-37.2249618339
30
0.0000000000
11
-26.4373050155
21
-36.6062434003
31
0.0000000000
11
-26.0579527007
21
-36.8901138306
31
0.0000000000
11
-25.9247418826
21
-37.2249618339
31
0.0000000000
0
ENDSEC
0
SECTION
2
OBJECTS
0
DICTIONARY
5
35A
100
AcDbDictionary
3
ACAD_GROUP
350
35B
3
ACAD_MLINESTYLE
350
35C
0
DICTIONARY
5
35B
102
{ACAD_REACTORS
330
35A
102
}
100
AcDbDictionary
0
DICTIONARY
5
35C
102
{ACAD_REACTORS
330
35A
102
}
100
AcDbDictionary
3
STANDARD
350
35D
0
MLINESTYLE
5
35D
102
{ACAD_REACTORS
330
35C
102
}
100
AcDbMlineStyle
2
STANDARD
70
0
3

62
256
51
90.0
52
90.0
71
2
49
0.5
62
256
6
BYLAYER
49
-0.5
62
256
6
BYLAYER
0
ENDSEC
0
EOF
