0
SECTION
2
HEADER
9
$ACADVER
1
AC1015
9
$DWGCODEPAGE
3
ANSI_1252
9
$EXTMAX
10
297.0000000000
20
210.0000000000
30
0.0000000000
9
$EXTMIN
10
0.0000000000
20
0.0000000000
30
0.0000000000
9
$LIMMIN
10
0.0000000000
20
0.0000000000
9
$LIMMAX
10
297.0000000000
20
210.0000000000
9
$VIEWCTR
10
148.5000000000
20
105.0000000000
9
$VIEWSIZE
40
210.0000000000
9
$CLAYER
8
0
9
$LTSCALE
40
16.3350000000
9
$CELTYPE
6
BYLAYER
9
$DIMSCALE
40
1
9
$DIMASZ
40
3.0000000000
9
$DIMEXO
40
1.8562500000
9
$DIMDLI
40
11.2860000000
9
$DIMEXE
40
5.3460000000
9
$DIMCEN
40
2.6730000000
9
$DIMLFAC
40
1.0000000000
9
$DIMBLK
1
_FILLED
9
$DIMTXT
40
3.0000000000
9
$DIMTOL
70
1
9
$DIMLIM
70
0
9
$DIMTFAC
40
1.0000000000
9
$DIMTP
40
0.0100000000
9
$DIMTM
40
0.0100000000
9
$PDMODE
70
3
9
$PDSIZE
40
3.0000000000
9
$HANDSEED
5
405
9
$MEASUREMENT
70
1
9
$INSUNITS
70
4
0
ENDSEC
0
SECTION
2
CLASSES
0
CLASS
1
ACDBDICTIONARYWDFLT
2
AcDbDictionaryWithDefault
3
AutoCAD 2000
90
0
280
0
281
0
0
CLASS
1
ACDBPLACEHOLDER
2
AcDbPlaceHolder
3
AutoCAD 2000
90
0
280
0
281
0
0
CLASS
1
LAYOUT
2
AcDbLayout
3
AutoCAD 2000
90
0
280
0
281
0
0
ENDSEC
0
SECTION
2
TABLES
0
TABLE
2
VPORT
5
8
100
AcDbSymbolTable
70
2
0
VPORT
5
1F4
100
AcDbSymbolTableRecord
100
AcDbViewportTableRecord
2
*ACTIVE
70
0
10
0.0
20
0.0
11
1.0
21
1.0
12
148.5000000000
22
105.0000000000
13
0.0
23
0.0
14
1.0
24
1.0
15
0.0
25
0.0
16
0.0
26
0.0
36
1.0
17
0.0
27
0.0
37
0.0
40
210.0000000000
41
1.4142857143
42
50.0
43
0.0
44
0.0
50
0.0
51
0.0
71
0
72
100
73
1
74
1
75
0
76
0
77
0
78
0
0
ENDTAB
0
TABLE
2
LTYPE
5
5
100
AcDbSymbolTable
70
6
0
LTYPE
5
14
100
AcDbSymbolTableRecord
100
AcDbLinetypeTableRecord
2
BYBLOCK
70
0
3

72
65
73
0
40
0.0
0
LTYPE
5
15
100
AcDbSymbolTableRecord
100
AcDbLinetypeTableRecord
2
BYLAYER
70
0
3

72
65
73
0
40
0.0
0
LTYPE
5
16
100
AcDbSymbolTableRecord
100
AcDbLinetypeTableRecord
2
CONTINUOUS
70
64
3
Solid line
72
65
73
0
40
0
0
LTYPE
5
1F5
100
AcDbSymbolTableRecord
100
AcDbLinetypeTableRecord
2
CENTER
70
64
3
____ _ ____ _ ____ _ ____ _ ____ _ ____ _ ____
72
65
73
4
40
0.6
49
0.375
74
0
49
-0.075
74
0
49
0.075
74
0
49
-0.075
74
0
0
LTYPE
5
1F6
100
AcDbSymbolTableRecord
100
AcDbLinetypeTableRecord
2
HIDDEN
70
64
3
- - - - - - - - - - - - - - - - - - - -
72
65
73
2
40
0.2
49
0.1
74
0
49
-0.1
74
0
0
LTYPE
5
1F7
100
AcDbSymbolTableRecord
100
AcDbLinetypeTableRecord
2
PHANTOM
70
64
3
_____ _ _ _____ _ _ _____ _ _ _____
72
65
73
6
40
0.8
49
0.45
74
0
49
-0.05
74
0
49
0.1
74
0
49
-0.05
74
0
49
0.1
74
0
49
-0.05
74
0
0
LTYPE
5
1F8
100
AcDbSymbolTableRecord
100
AcDbLinetypeTableRecord
2
DOT
70
64
3
. . . . . . . . . . . . . . . . . . . .
72
65
73
2
40
0.2
49
0.1
74
0
49
-0.1
74
0
0
LTYPE
5
1F9
100
AcDbSymbolTableRecord
100
AcDbLinetypeTableRecord
2
DASHED
70
64
3
- - - - - - - - - - - - - - - - - - - -
72
65
73
2
40
0.2
49
0.1
74
0
49
-0.1
74
0
0
ENDTAB
0
TABLE
2
LAYER
5
2
100
AcDbSymbolTable
70
36
0
LAYER
5
10
100
AcDbSymbolTableRecord
100
AcDbLayerTableRecord
2
0
70
0
62
7
6
CONTINUOUS
370
-3
390
F
0
LAYER
5
1FA
100
AcDbSymbolTableRecord
100
AcDbLayerTableRecord
2
DEFAULT_1
70
0
62
7
6
CENTER
370
-3
390
F
0
LAYER
5
1FB
100
AcDbSymbolTableRecord
100
AcDbLayerTableRecord
2
DEFAULT_2
70
0
62
8
6
HIDDEN
370
-3
390
F
0
LAYER
5
1FC
100
AcDbSymbolTableRecord
100
AcDbLayerTableRecord
2
DEFAULT_3
70
0
62
7
6
PHANTOM
370
-3
390
F
0
LAYER
5
1FD
100
AcDbSymbolTableRecord
100
AcDbLayerTableRecord
2
ASSI
70
0
62
7
6
CONTINUOUS
370
-3
390
F
0
LAYER
5
1FE
100
AcDbSymbolTableRecord
100
AcDbLayerTableRecord
2
COORDINATE
70
0
62
7
6
CONTINUOUS
370
-3
390
F
0
LAYER
5
1FF
100
AcDbSymbolTableRecord
100
AcDbLayerTableRecord
2
COORD_ORIGINE
70
0
62
7
6
CONTINUOUS
370
-3
390
F
0
LAYER
5
200
100
AcDbSymbolTableRecord
100
AcDbLayerTableRecord
2
CURVE
70
0
62
7
6
CONTINUOUS
370
-3
390
F
0
LAYER
5
201
100
AcDbSymbolTableRecord
100
AcDbLayerTableRecord
2
NOTE
70
0
62
7
6
CONTINUOUS
370
-3
390
F
0
LAYER
5
202
100
AcDbSymbolTableRecord
100
AcDbLayerTableRecord
2
PIANI
70
0
62
7
6
CONTINUOUS
370
-3
390
F
0
LAYER
5
203
100
AcDbSymbolTableRecord
100
AcDbLayerTableRecord
2
PIANI_ORIGINE
70
0
62
7
6
CONTINUOUS
370
-3
390
F
0
LAYER
5
204
100
AcDbSymbolTableRecord
100
AcDbLayerTableRecord
2
RACCORDO
70
0
62
7
6
CONTINUOUS
370
-3
390
F
0
LAYER
5
205
100
AcDbSymbolTableRecord
100
AcDbLayerTableRecord
2
TRASH
70
0
62
7
6
CONTINUOUS
370
-3
390
F
0
ENDTAB
0
TABLE
2
STYLE
5
3
100
AcDbSymbolTable
70
1
0
STYLE
5
11
100
AcDbSymbolTableRecord
100
AcDbTextStyleTableRecord
2
STANDARD
70
0
40
0.0
41
0.8000000000
50
0.0
71
0
42
0.2
3
txt
4

0
ENDTAB
0
TABLE
2
VIEW
5
6
100
AcDbSymbolTable
70
0
0
ENDTAB
0
TABLE
2
UCS
5
7
100
AcDbSymbolTable
70
0
0
ENDTAB
0
TABLE
2
APPID
5
9
100
AcDbSymbolTable
70
1
0
APPID
5
206
100
AcDbSymbolTableRecord
100
AcDbRegAppTableRecord
2
ACAD
70
0
0
ENDTAB
0
TABLE
2
BLOCK_RECORD
5
1
100
AcDbSymbolTable
70
0
0
BLOCK_RECORD
5
1F
100
AcDbSymbolTableRecord
100
AcDbBlockTableRecord
2
*MODEL_SPACE
0
BLOCK_RECORD
5
1B
100
AcDbSymbolTableRecord
100
AcDbBlockTableRecord
2
*PAPER_SPACE
0
ENDTAB
0
TABLE
2
DIMSTYLE
5
A
100
AcDbSymbolTable
70
1
100
AcDbDimStyleTable
71
0
0
DIMSTYLE
105
207
100
AcDbSymbolTableRecord
100
AcDbDimStyleTableRecord
2
STANDARD
70
0
3

4

40
1.0
41
3.0000000000
42
0.0625
43
0.38
44
0.18
45
0.0
46
0.0
47
0.0100000000
48
0.0100000000
140
3.0000000000
141
0.09
142
0.0
143
25.4
144
1.0000000000
145
0.0
146
1.0000000000
147
0.09
71
1
72
0
73
0
74
0
75
0
76
0
77
1
78
8
170
0
171
2
172
0
173
0
174
0
175
0
176
0
177
0
178
0
270
2
271
2
272
2
273
2
274
2
275
0
280
0
281
0
282
0
283
1
284
8
285
0
286
0
287
3
288
0
340
11
0
ENDTAB
0
ENDSEC
0
SECTION
2
BLOCKS
0
BLOCK
5
20
100
AcDbEntity
8
0
100
AcDbBlockBegin
2
*MODEL_SPACE
70
0
10
0.0
20
0.0
30
0.0
3
*MODEL_SPACE
1

0
ENDBLK
5
21
100
AcDbEntity
8
0
100
AcDbBlockEnd
0
BLOCK
5
1C
100
AcDbEntity
8
0
100
AcDbBlockBegin
2
*PAPER_SPACE
70
0
10
0.0
20
0.0
30
0.0
3
*PAPER_SPACE
1

0
ENDBLK
5
1D
100
AcDbEntity
8
0
100
AcDbBlockEnd
0
ENDSEC
0
SECTION
2
ENTITIES
0
LINE
5
208
100
AcDbEntity
8
0
100
AcDbLine
62
7
6
CONTINUOUS
10
-106.2128059945
20
-42.1940468050
11
-106.2128059945
21
-40.8950086993
0
LINE
5
209
100
AcDbEntity
8
0
100
AcDbLine
62
9
6
CONTINUOUS
10
-105.3341263381
20
-43.2547069768
11
-105.3341263381
21
-41.9556688711
0
LINE
5
20A
100
AcDbEntity
8
0
100
AcDbLine
62
7
6
CONTINUOUS
10
-101.9853423010
20
-34.4158722120
11
-101.9853423010
21
-33.1168341063
0
LINE
5
20B
100
AcDbEntity
8
0
100
AcDbLine
62
9
6
CONTINUOUS
10
-99.9161669194
20
-33.5957202154
11
-99.9161669194
21
-34.8947583211
0
LINE
5
20C
100
AcDbEntity
8
0
100
AcDbLine
62
9
6
CONTINUOUS
10
-90.5877718866
20
-28.9315226991
11
-90.5877718866
21
-30.2305608047
0
LINE
5
20D
100
AcDbEntity
8
0
100
AcDbLine
62
7
6
CONTINUOUS
10
-83.4349035503
20
-66.5260612095
11
-84.4955637221
21
-65.9957311236
0
LINE
5
20E
100
AcDbEntity
8
0
100
AcDbLine
62
9
6
CONTINUOUS
10
-84.4744762931
20
-64.3625660079
11
-85.5351364649
21
-63.8322359220
0
LINE
5
20F
100
AcDbEntity
8
0
100
AcDbLine
62
7
6
CONTINUOUS
10
-90.2892913899
20
-29.8240994715
11
-90.2892913899
21
-28.5250613658
0
LINE
5
210
100
AcDbEntity
8
0
100
AcDbLine
62
7
6
CONTINUOUS
10
-85.5351364649
20
-63.8322359220
11
-85.5351364649
21
-32.6553213858
0
LINE
5
211
100
AcDbEntity
8
0
100
AcDbLine
62
7
6
CONTINUOUS
10
-84.4744762931
20
-64.3625660079
11
-84.4744762931
21
-33.1856514717
0
LINE
5
212
100
AcDbEntity
8
0
100
AcDbLine
62
7
6
CONTINUOUS
10
-83.2470125996
20
-25.0467073612
11
-83.2470125996
21
-23.7476692556
0
LINE
5
213
100
AcDbEntity
8
0
100
AcDbLine
62
7
6
CONTINUOUS
10
-105.3341263381
20
-43.2547069768
11
-85.5351364649
21
-53.1542019134
0
LINE
5
214
100
AcDbEntity
8
0
100
AcDbLine
62
7
6
CONTINUOUS
10
-105.3341263381
20
-41.9556688711
11
-85.5351364649
21
-51.8551638077
0
LINE
5
215
100
AcDbEntity
8
0
100
AcDbLine
62
9
6
CONTINUOUS
10
-70.7653533712
20
-59.2400553545
11
-70.3772478380
21
-59.4341081212
0
LINE
5
216
100
AcDbEntity
8
0
100
AcDbLine
62
9
6
CONTINUOUS
10
-81.1778372179
20
-24.2265553647
11
-81.1778372179
21
-25.5255934704
0
LINE
5
217
100
AcDbEntity
8
0
100
AcDbLine
62
7
6
CONTINUOUS
10
-76.1607677941
20
-19.1149481387
11
-76.1607677941
21
-20.4139862444
0
LINE
5
218
100
AcDbEntity
8
0
100
AcDbLine
62
9
6
CONTINUOUS
10
-75.2820881377
20
-20.1756083105
11
-75.2820881377
21
-21.4746464162
0
LINE
5
219
100
AcDbEntity
8
0
100
AcDbLine
62
9
6
CONTINUOUS
10
-80.6207443356
20
-48.8176715025
11
-79.5600841638
21
-49.3480015884
0
LINE
5
21A
100
AcDbEntity
8
0
100
AcDbLine
62
9
6
CONTINUOUS
10
-78.1458706015
20
-47.5802346354
11
-77.0852104297
21
-48.1105647213
0
LINE
5
21B
100
AcDbEntity
8
0
100
AcDbLine
62
7
6
CONTINUOUS
10
-71.7465542317
20
-61.0296938905
11
-71.7465542317
21
-60.1636684867
0
LINE
5
21C
100
AcDbEntity
8
0
100
AcDbLine
62
9
6
CONTINUOUS
10
-71.7465542317
20
-23.2424133691
11
-71.7465542317
21
-21.9433752635
0
LINE
5
21D
100
AcDbEntity
8
0
100
AcDbLine
62
7
6
CONTINUOUS
10
-71.7465542317
20
-23.7906015277
11
-71.7465542317
21
-24.6566269315
0
LINE
5
21E
100
AcDbEntity
8
0
100
AcDbLine
62
9
6
CONTINUOUS
10
-84.4744762931
20
-33.1856514717
11
-85.5351364649
21
-32.6553213858
0
LINE
5
21F
100
AcDbEntity
8
0
100
AcDbLine
62
7
6
CONTINUOUS
10
-59.9025156469
20
-45.1483824545
11
-59.9025156469
21
-27.8278743788
0
LINE
5
220
100
AcDbEntity
8
0
100
AcDbLine
62
9
6
CONTINUOUS
10
-81.6460491683
20
-28.3073362941
11
-82.7067093401
21
-27.7770062083
0
LINE
5
221
100
AcDbEntity
8
CURVE
100
AcDbLine
62
7
6
CONTINUOUS
10
-54.9527681785
20
-19.8067529393
11
-54.9527681785
21
-19.0697098722
0
LINE
5
222
100
AcDbEntity
8
CURVE
100
AcDbLine
62
7
6
CONTINUOUS
10
-54.5108264403
20
-22.5339535642
11
-54.5108264403
21
-18.9408693542
0
LINE
5
223
100
AcDbEntity
8
CURVE
100
AcDbLine
62
7
6
CONTINUOUS
10
-54.0688847021
20
-17.9828556761
11
-54.0688847021
21
-22.3129826951
0
LINE
5
224
100
AcDbEntity
8
0
100
AcDbLine
62
7
6
CONTINUOUS
10
-50.3565741008
20
-23.0549036058
11
-50.3565741008
21
-39.3147515097
0
LINE
5
225
100
AcDbEntity
8
0
100
AcDbLine
62
7
6
CONTINUOUS
10
-49.2959139291
20
-22.5245735199
11
-49.2959139291
21
-39.8450815956
0
LINE
5
226
100
AcDbEntity
8
0
100
AcDbLine
62
7
6
CONTINUOUS
10
-49.2959139291
20
-39.8450815956
11
-50.3565741008
21
-39.3147515097
0
LINE
5
227
100
AcDbEntity
8
0
100
AcDbLine
62
9
6
CONTINUOUS
10
-71.7384410407
20
-24.7401428383
11
-71.3930008411
21
-24.9128629381
0
LINE
5
228
100
AcDbEntity
8
0
100
AcDbLine
62
9
6
CONTINUOUS
10
-71.7465542317
20
-24.0289794616
11
-70.6858940599
21
-24.5593095475
0
LINE
5
229
100
AcDbEntity
8
0
100
AcDbLine
62
9
6
CONTINUOUS
10
-72.1001076223
20
-23.5343655211
11
-73.1607677941
21
-23.0040354352
0
LINE
5
22A
100
AcDbEntity
8
0
100
AcDbLine
62
7
6
CONTINUOUS
10
-71.8765008246
20
-23.5201646275
11
-72.9371609964
21
-22.9898345416
0
LINE
5
22B
100
AcDbEntity
8
0
100
AcDbLine
62
7
6
CONTINUOUS
10
-75.2820881377
20
-21.4746464162
11
-71.7465542317
21
-23.2424133691
0
LINE
5
22C
100
AcDbEntity
8
0
100
AcDbLine
62
9
6
CONTINUOUS
10
-71.3930008411
20
-23.4191900644
11
-70.3772478380
21
-23.9270665660
0
LINE
5
22D
100
AcDbEntity
8
0
100
AcDbLine
62
7
6
CONTINUOUS
10
-75.2820881377
20
-20.1756083105
11
-71.7465542317
21
-21.9433752635
0
LINE
5
22E
100
AcDbEntity
8
0
100
AcDbLine
62
7
6
CONTINUOUS
10
-41.1641859454
20
-35.7792176038
11
-41.1641859454
21
-18.4587095281
0
LINE
5
22F
100
AcDbEntity
8
CURVE
100
AcDbLine
62
7
6
CONTINUOUS
10
-54.9527681785
20
-19.0697098722
11
-54.5108264403
21
-18.2038265453
0
LINE
5
230
100
AcDbEntity
8
CURVE
100
AcDbLine
62
7
6
CONTINUOUS
10
-37.2750986489
20
-13.9160896685
11
-37.2750986489
21
-13.4554378483
0
LINE
5
231
100
AcDbEntity
8
CURVE
100
AcDbLine
62
7
6
CONTINUOUS
10
-35.0653899577
20
-9.6788031266
11
-35.0653899577
21
-9.4945421663
0
LINE
5
232
100
AcDbEntity
8
CURVE
100
AcDbLine
62
7
6
CONTINUOUS
10
-34.6234482194
20
-9.2735712972
11
-34.6234482194
21
-9.4578322575
0
LINE
5
233
100
AcDbEntity
8
CURVE
100
AcDbLine
62
7
6
CONTINUOUS
10
-34.6234482194
20
-12.1296126336
11
-34.6234482194
21
-12.5902644537
0
LINE
5
234
100
AcDbEntity
8
CURVE
100
AcDbLine
62
7
6
CONTINUOUS
10
-37.2014416903
20
-10.5625680326
11
-37.1277847317
21
-10.1572181488
0
LINE
5
235
100
AcDbEntity
8
CURVE
100
AcDbLine
62
7
6
CONTINUOUS
10
-34.6234482194
20
-9.4578322575
11
-34.6971051056
21
-9.8631821051
0
LINE
5
236
100
AcDbEntity
8
CURVE
100
AcDbLine
62
7
6
CONTINUOUS
10
-54.5108264403
20
-18.9408693542
11
-54.9527681785
21
-19.8067529393
0
LINE
5
237
100
AcDbEntity
8
0
100
AcDbLine
62
7
6
CONTINUOUS
10
-30.5575842276
20
-30.4759167449
11
-31.6182443994
21
-29.9455866590
0
LINE
5
238
100
AcDbEntity
8
CURVE
100
AcDbLine
62
7
6
CONTINUOUS
10
-35.0653899577
20
-9.4945421663
11
-35.2127039407
21
-9.2918081044
0
LINE
5
239
100
AcDbEntity
8
CURVE
100
AcDbLine
62
7
6
CONTINUOUS
10
-34.6971051056
20
-8.9418783357
11
-34.6234482194
21
-9.2735712972
0
LINE
5
23A
100
AcDbEntity
8
0
100
AcDbLine
62
7
6
CONTINUOUS
10
-31.6182443994
20
-13.6857387551
11
-31.6182443994
21
-29.9455866590
0
LINE
5
23B
100
AcDbEntity
8
0
100
AcDbLine
62
7
6
CONTINUOUS
10
-30.5575842276
20
-13.1554086692
11
-30.5575842276
21
-30.4759167449
0
LINE
5
23C
100
AcDbEntity
8
CURVE
100
AcDbLine
62
7
6
CONTINUOUS
10
-35.2127039407
20
-10.1209815226
11
-35.0653899577
21
-9.6788031266
0
LINE
5
23D
100
AcDbEntity
8
CURVE
100
AcDbLine
62
7
6
CONTINUOUS
10
-36.6858429803
20
-10.0283776243
11
-36.8331569106
21
-10.3784256428
0
LINE
5
23E
100
AcDbEntity
8
CURVE
100
AcDbLine
62
7
6
CONTINUOUS
10
-34.6971051056
20
-9.8631821051
11
-34.8444190886
21
-10.2132301499
0
LINE
5
23F
100
AcDbEntity
8
CURVE
100
AcDbLine
62
7
6
CONTINUOUS
10
-37.1277847317
20
-10.1572181488
11
-36.8331569106
21
-9.6413828338
0
LINE
5
240
100
AcDbEntity
8
CURVE
100
AcDbLine
62
7
6
CONTINUOUS
10
-37.2750986489
20
-13.4554378483
11
-35.2127039407
21
-10.1209815226
0
LINE
5
241
100
AcDbEntity
8
CURVE
100
AcDbLine
62
7
6
CONTINUOUS
10
-34.8444190886
20
-10.2132301499
11
-36.6858429803
21
-13.1608100141
0
LINE
5
242
100
AcDbEntity
8
CURVE
100
AcDbLine
62
7
6
CONTINUOUS
10
-34.9917330715
20
-8.7206709142
11
-34.6971051056
21
-8.9418783357
0
LINE
5
243
100
AcDbEntity
8
0
100
AcDbLine
62
7
6
CONTINUOUS
10
-22.4258562440
20
-26.4100527531
11
-22.4258562440
21
-9.0895446774
0
LINE
5
244
100
AcDbEntity
8
CURVE
100
AcDbLine
62
7
6
CONTINUOUS
10
-17.3582576103
20
-1.9308011664
11
-17.3582576103
21
-1.5622797619
0
LINE
5
245
100
AcDbEntity
8
CURVE
100
AcDbLine
62
7
6
CONTINUOUS
10
-16.3270602562
20
-0.3096382759
11
-16.3270602562
21
-0.1253773156
0
LINE
5
246
100
AcDbEntity
8
CURVE
100
AcDbLine
62
7
6
CONTINUOUS
10
-16.2534033701
20
-2.3918080377
11
-16.2534033701
21
-2.0232866332
0
LINE
5
247
100
AcDbEntity
8
CURVE
100
AcDbLine
62
7
6
CONTINUOUS
10
-15.9587754041
20
0.0587651105
11
-15.9587754041
21
-0.1254958499
0
LINE
5
248
100
AcDbEntity
8
CURVE
100
AcDbLine
62
7
6
CONTINUOUS
10
-15.8851185180
20
-1.8391442072
11
-15.8851185180
21
-2.2076656116
0
LINE
5
249
100
AcDbEntity
8
CURVE
100
AcDbLine
62
7
6
CONTINUOUS
10
-18.4631119889
20
-1.1934031819
11
-18.3894550303
21
-0.7880532981
0
LINE
5
24A
100
AcDbEntity
8
CURVE
100
AcDbLine
62
7
6
CONTINUOUS
10
-15.9587754041
20
-0.1254958499
11
-16.0324325010
21
-0.5308458028
0
LINE
5
24B
100
AcDbEntity
8
CURVE
100
AcDbLine
62
7
6
CONTINUOUS
10
-16.4743742392
20
-0.7518166719
11
-16.3270602562
21
-0.3096382759
0
LINE
5
24C
100
AcDbEntity
8
CURVE
100
AcDbLine
62
7
6
CONTINUOUS
10
-17.9475132789
20
-0.6592127735
11
-18.0948272092
21
-1.0092607921
0
LINE
5
24D
100
AcDbEntity
8
CURVE
100
AcDbLine
62
7
6
CONTINUOUS
10
-18.3894550303
20
-0.7880532981
11
-18.0948272092
21
-0.2722179831
0
LINE
5
24E
100
AcDbEntity
8
CURVE
100
AcDbLine
62
7
6
CONTINUOUS
10
-36.4648721112
20
-9.7336314874
11
-36.6858429803
21
-10.0283776243
0
LINE
5
24F
100
AcDbEntity
8
CURVE
100
AcDbLine
62
7
6
CONTINUOUS
10
-36.8331569106
20
-9.6413828338
11
-36.5385291027
21
-9.3098082276
0
LINE
5
250
100
AcDbEntity
8
0
100
AcDbLine
62
7
6
CONTINUOUS
10
83.1098308481
20
61.1416715260
11
-75.2820881377
21
-18.0542879669
0
LINE
5
251
100
AcDbEntity
8
0
100
AcDbLine
62
7
6
CONTINUOUS
10
-76.1607677941
20
-19.9443683967
11
-82.8790646982
21
-23.3035168487
0
LINE
5
252
100
AcDbEntity
8
0
100
AcDbLine
62
7
6
CONTINUOUS
10
-92.4338489186
20
-28.0809089589
11
-101.6173943997
21
-32.6726816994
0
LINE
5
253
100
AcDbEntity
8
CURVE
100
AcDbLine
62
7
6
CONTINUOUS
10
-35.2127039407
20
-9.2918081044
11
-35.4336748098
21
-9.2180328367
0
LINE
5
254
100
AcDbEntity
8
0
100
AcDbLine
62
7
6
CONTINUOUS
10
-11.8192545262
20
-21.1067518942
11
-12.8799146979
21
-20.5764218083
0
LINE
5
255
100
AcDbEntity
8
CURVE
100
AcDbLine
62
7
6
CONTINUOUS
10
-18.3157980783
20
-3.9757875631
11
-18.4631119889
21
-3.7730534650
0
LINE
5
256
100
AcDbEntity
8
CURVE
100
AcDbLine
62
7
6
CONTINUOUS
10
-18.1684841744
20
-3.3493484398
11
-18.0948272092
21
-3.4967806595
0
LINE
5
257
100
AcDbEntity
8
CURVE
100
AcDbLine
62
7
6
CONTINUOUS
10
-18.4631119889
20
-3.7730534650
11
-18.5367689474
21
-3.5334908264
0
LINE
5
258
100
AcDbEntity
8
CURVE
100
AcDbLine
62
7
6
CONTINUOUS
10
-15.9587754041
20
-1.5074511167
11
-15.8851185180
21
-1.8391442072
0
LINE
5
259
100
AcDbEntity
8
0
100
AcDbLine
62
7
6
CONTINUOUS
10
-12.8799146979
20
-4.3165739044
11
-12.8799146979
21
-20.5764218083
0
LINE
5
25A
100
AcDbEntity
8
0
100
AcDbLine
62
7
6
CONTINUOUS
10
-11.8192545262
20
-3.7862438185
11
-11.8192545262
21
-21.1067518942
0
LINE
5
25B
100
AcDbEntity
8
CURVE
100
AcDbLine
62
7
6
CONTINUOUS
10
-15.8851185180
20
-2.2076656116
11
-15.9587754041
21
-2.5208851726
0
LINE
5
25C
100
AcDbEntity
8
CURVE
100
AcDbLine
62
7
6
CONTINUOUS
10
-16.3270602562
20
-2.6128971830
11
-16.2534033701
21
-2.3918080377
0
LINE
5
25D
100
AcDbEntity
8
CURVE
100
AcDbLine
62
7
6
CONTINUOUS
10
-16.0324325010
20
-0.5308458028
11
-16.1797462732
21
-0.8808937423
0
LINE
5
25E
100
AcDbEntity
8
CURVE
100
AcDbLine
62
7
6
CONTINUOUS
10
-15.9587754041
20
-2.5208851726
11
-16.1060893871
21
-2.8709332175
0
LINE
5
25F
100
AcDbEntity
8
CURVE
100
AcDbLine
62
7
6
CONTINUOUS
10
-16.6216880115
20
-1.0097342603
11
-16.4743742392
21
-0.7518166719
0
LINE
5
260
100
AcDbEntity
8
CURVE
100
AcDbLine
62
7
6
CONTINUOUS
10
-16.4743742392
20
-2.8708149413
11
-16.3270602562
21
-2.6128971830
0
LINE
5
261
100
AcDbEntity
8
CURVE
100
AcDbLine
62
7
6
CONTINUOUS
10
-16.1797462732
20
-0.8808937423
11
-16.4743742392
21
-1.3045987786
0
LINE
5
262
100
AcDbEntity
8
CURVE
100
AcDbLine
62
7
6
CONTINUOUS
10
-17.7265424098
20
-0.3644666367
11
-17.9475132789
21
-0.6592127735
0
LINE
5
263
100
AcDbEntity
8
CURVE
100
AcDbLine
62
7
6
CONTINUOUS
10
-16.1060893871
20
-2.8709332175
11
-16.3270602562
21
-3.1656793865
0
LINE
5
264
100
AcDbEntity
8
CURVE
100
AcDbLine
62
7
6
CONTINUOUS
10
-18.0948272092
20
-0.2722179831
11
-17.8001994013
21
0.0593566231
0
LINE
5
265
100
AcDbEntity
8
CURVE
100
AcDbLine
62
7
6
CONTINUOUS
10
-16.6216880115
20
-3.0366021785
11
-16.4743742392
21
-2.8708149413
0
LINE
5
266
100
AcDbEntity
8
CURVE
100
AcDbLine
62
7
6
CONTINUOUS
10
-16.3270602562
20
-3.1656793865
11
-16.6216880115
21
-3.4972539906
0
LINE
5
267
100
AcDbEntity
8
CURVE
100
AcDbLine
62
7
6
CONTINUOUS
10
-17.0636298551
20
-1.4149658843
11
-16.6216880115
21
-1.0097342603
0
LINE
5
268
100
AcDbEntity
8
CURVE
100
AcDbLine
62
7
6
CONTINUOUS
10
-16.6216880115
20
-3.4972539906
11
-16.9163158721
21
-3.7366982801
0
LINE
5
269
100
AcDbEntity
8
CURVE
100
AcDbLine
62
7
6
CONTINUOUS
10
-36.0965873118
20
-9.4573587366
11
-36.4648721112
21
-9.7336314874
0
LINE
5
26A
100
AcDbEntity
8
CURVE
100
AcDbLine
62
7
6
CONTINUOUS
10
-17.3582576103
20
-0.0881938859
11
-17.7265424098
21
-0.3644666367
0
LINE
5
26B
100
AcDbEntity
8
CURVE
100
AcDbLine
62
7
6
CONTINUOUS
10
-16.9899728636
20
-3.3128749557
11
-16.6216880115
21
-3.0366021785
0
LINE
5
26C
100
AcDbEntity
8
CURVE
100
AcDbLine
62
7
6
CONTINUOUS
10
-36.5385291027
20
-9.3098082276
11
-36.0229304257
21
-8.9598785379
0
LINE
5
26D
100
AcDbEntity
8
CURVE
100
AcDbLine
62
7
6
CONTINUOUS
10
-17.8001994013
20
0.0593566231
11
-17.2846007242
21
0.4092863128
0
LINE
5
26E
100
AcDbEntity
8
0
100
AcDbLine
62
9
6
CONTINUOUS
10
90.8880054412
20
59.3739045730
11
-71.7465542317
21
-21.9433752635
0
LINE
5
26F
100
AcDbEntity
8
0
100
AcDbLine
62
7
6
CONTINUOUS
10
-82.7067093401
20
-27.7770062083
11
-73.1607677941
21
-23.0040354352
0
LINE
5
270
100
AcDbEntity
8
0
100
AcDbLine
62
7
6
CONTINUOUS
10
93.0093257847
20
60.0810113542
11
102.5552673308
21
64.8539821272
0
LINE
5
271
100
AcDbEntity
8
0
100
AcDbLine
62
7
6
CONTINUOUS
10
-105.3341263381
20
-39.8343485276
11
-96.5306469123
21
-35.4326088147
0
LINE
5
272
100
AcDbEntity
8
0
100
AcDbLine
62
7
6
CONTINUOUS
10
-84.4535635186
20
-29.3940671178
11
-86.9139946882
21
-30.6242827026
0
LINE
5
273
100
AcDbEntity
8
0
100
AcDbLine
62
7
6
CONTINUOUS
10
-81.6460491683
20
-28.3073362941
11
-72.1001076223
21
-23.5343655211
0
LINE
5
274
100
AcDbEntity
8
0
100
AcDbLine
62
7
6
CONTINUOUS
10
94.0699859565
20
59.5506812683
11
103.6159275025
21
64.3236520413
0
LINE
5
275
100
AcDbEntity
8
0
100
AcDbLine
62
7
6
CONTINUOUS
10
92.1106214007
20
57.8996083546
11
92.3022190036
21
57.9954071560
0
LINE
5
276
100
AcDbEntity
8
0
100
AcDbLine
62
7
6
CONTINUOUS
10
-71.3930008411
20
-24.9128629381
11
-70.6858939932
21
-24.5593095141
0
LINE
5
277
100
AcDbEntity
8
0
100
AcDbLine
62
9
6
CONTINUOUS
10
92.6557723278
20
57.1115236464
11
-70.6858939932
21
-24.5593095141
0
LINE
5
278
100
AcDbEntity
8
0
100
AcDbLine
62
7
6
CONTINUOUS
10
92.6557723278
20
57.1115236464
11
93.3628791753
21
57.4650770701
0
LINE
5
279
100
AcDbEntity
8
CURVE
100
AcDbLine
62
7
6
CONTINUOUS
10
76.6280186521
20
47.3655960010
11
76.3333908969
21
47.2182821233
0
LINE
5
27A
100
AcDbEntity
8
CURVE
100
AcDbLine
62
7
6
CONTINUOUS
10
39.1513592492
20
28.6272662995
11
38.8567314940
21
28.4799524219
0
LINE
5
27B
100
AcDbEntity
8
CURVE
100
AcDbLine
62
7
6
CONTINUOUS
10
-54.5108264403
20
-18.2038265453
11
-54.0688847021
21
-17.9828556761
0
LINE
5
27C
100
AcDbEntity
8
CURVE
100
AcDbLine
62
7
6
CONTINUOUS
10
21.5856482581
20
19.8444108040
11
19.0813118117
21
18.5922425807
0
LINE
5
27D
100
AcDbEntity
8
CURVE
100
AcDbLine
62
7
6
CONTINUOUS
10
-36.0229304257
20
-8.9598785379
11
-35.7283025650
21
-8.8125646076
0
LINE
5
27E
100
AcDbEntity
8
CURVE
100
AcDbLine
62
7
6
CONTINUOUS
10
-17.2846007242
20
0.4092863128
11
-17.1372867412
21
0.4829433043
0
LINE
5
27F
100
AcDbEntity
8
CURVE
100
AcDbLine
62
7
6
CONTINUOUS
10
1.9693277070
20
10.0362505284
11
2.4112694452
21
10.2572213975
0
LINE
5
280
100
AcDbEntity
8
CURVE
100
AcDbLine
62
7
6
CONTINUOUS
10
56.4165498583
20
37.2598616041
11
59.0682002878
21
38.5856868188
0
LINE
5
281
100
AcDbEntity
8
CURVE
100
AcDbLine
62
7
6
CONTINUOUS
10
76.6280186521
20
46.9049442453
11
76.3333908969
21
46.7576303677
0
LINE
5
282
100
AcDbEntity
8
CURVE
100
AcDbLine
62
7
6
CONTINUOUS
10
58.6262585495
20
37.9040641941
11
56.4165498583
21
36.7992098484
0
LINE
5
283
100
AcDbEntity
8
CURVE
100
AcDbLine
62
7
6
CONTINUOUS
10
-17.0636298551
20
0.0591199917
11
-17.3582576103
21
-0.0881938859
0
LINE
5
284
100
AcDbEntity
8
CURVE
100
AcDbLine
62
7
6
CONTINUOUS
10
-35.8019595565
20
-9.3100448590
11
-36.0965873118
21
-9.4573587366
0
LINE
5
285
100
AcDbEntity
8
CURVE
100
AcDbLine
62
7
6
CONTINUOUS
10
19.4495965848
20
18.3157332117
11
21.5856482581
21
19.3837590484
0
LINE
5
286
100
AcDbEntity
8
CURVE
100
AcDbLine
62
7
6
CONTINUOUS
10
38.7830745025
20
27.9824721705
11
39.2250162407
21
28.2034430396
0
LINE
5
287
100
AcDbEntity
8
CURVE
100
AcDbLine
62
7
6
CONTINUOUS
10
-18.0948272092
20
-1.0092607921
11
-18.4631119889
21
-1.1934031819
0
LINE
5
288
100
AcDbEntity
8
CURVE
100
AcDbLine
62
7
6
CONTINUOUS
10
-36.8331569106
20
-10.3784256428
11
-37.2014416903
21
-10.5625680326
0
LINE
5
289
100
AcDbEntity
8
CURVE
100
AcDbLine
62
7
6
CONTINUOUS
10
39.8142719620
20
27.9452887935
11
40.1825566033
21
28.1294311142
0
LINE
5
28A
100
AcDbEntity
8
CURVE
100
AcDbLine
62
7
6
CONTINUOUS
10
39.2250162407
20
27.0978785681
11
38.8567314940
21
26.9137361947
0
LINE
5
28B
100
AcDbEntity
8
CURVE
100
AcDbLine
62
7
6
CONTINUOUS
10
20.6281078955
20
17.7994243955
11
20.1861661573
21
17.5784535264
0
LINE
5
28C
100
AcDbEntity
8
CURVE
100
AcDbLine
62
7
6
CONTINUOUS
10
-35.2863608268
20
-8.6837240896
11
-34.9917330715
21
-8.7206709142
0
LINE
5
28D
100
AcDbEntity
8
CURVE
100
AcDbLine
62
7
6
CONTINUOUS
10
-18.0948272092
20
-4.0495628630
11
-18.3157980783
21
-3.9757875631
0
LINE
5
28E
100
AcDbEntity
8
CURVE
100
AcDbLine
62
7
6
CONTINUOUS
10
-18.0948272092
20
-3.4967806595
11
-17.9475132789
21
-3.6073844611
0
LINE
5
28F
100
AcDbEntity
8
CURVE
100
AcDbLine
62
7
6
CONTINUOUS
10
-16.3270602562
20
0.6116654934
11
-16.0324325010
21
0.3904579665
0
LINE
5
290
100
AcDbEntity
8
CURVE
100
AcDbLine
62
7
6
CONTINUOUS
10
-16.1060893871
20
-1.3047170548
11
-15.9587754041
21
-1.5074511167
0
LINE
5
291
100
AcDbEntity
8
CURVE
100
AcDbLine
62
7
6
CONTINUOUS
10
-16.3270602562
20
-0.1253773156
11
-16.4743742392
21
0.0773567463
0
LINE
5
292
100
AcDbEntity
8
CURVE
100
AcDbLine
62
7
6
CONTINUOUS
10
-16.2534033701
20
-2.0232866332
11
-16.4007171424
21
-1.7284219858
0
LINE
5
293
100
AcDbEntity
8
CURVE
100
AcDbLine
62
7
6
CONTINUOUS
10
-16.0324325010
20
0.3904579665
11
-15.9587754041
21
0.0587651105
0
LINE
5
294
100
AcDbEntity
8
0
100
AcDbLine
62
7
6
CONTINUOUS
10
-3.6875265425
20
-17.0408879023
11
-3.6875265425
21
0.2796201734
0
LINE
5
295
100
AcDbEntity
8
CURVE
100
AcDbLine
62
7
6
CONTINUOUS
10
0.2015607540
20
6.1120650777
11
0.2015607540
21
6.6648473135
0
LINE
5
296
100
AcDbEntity
8
CURVE
100
AcDbLine
62
7
6
CONTINUOUS
10
0.2015607540
20
6.6648473135
11
1.9693277070
21
10.0362505284
0
LINE
5
297
100
AcDbEntity
8
CURVE
100
AcDbLine
62
7
6
CONTINUOUS
10
0.7171594311
20
6.9226466520
11
1.9693277070
21
9.2992077194
0
LINE
5
298
100
AcDbEntity
8
CURVE
100
AcDbLine
62
7
6
CONTINUOUS
10
19.8915383494
20
16.8783575157
11
20.1861661573
21
17.1178017708
0
LINE
5
299
100
AcDbEntity
8
CURVE
100
AcDbLine
62
7
6
CONTINUOUS
10
20.9227356508
20
15.7356096526
11
20.6281078955
21
15.4961654239
0
LINE
5
29A
100
AcDbEntity
8
CURVE
100
AcDbLine
62
7
6
CONTINUOUS
10
20.1861661573
20
17.5784535264
11
19.8178813579
21
17.3021807755
0
LINE
5
29B
100
AcDbEntity
8
CURVE
100
AcDbLine
62
7
6
CONTINUOUS
10
20.6281078955
20
15.0355136037
11
20.9963927476
21
15.3117863890
0
LINE
5
29C
100
AcDbEntity
8
CURVE
100
AcDbLine
62
7
6
CONTINUOUS
10
38.8567314940
20
28.4799524219
11
38.4884466946
21
28.2036796710
0
LINE
5
29D
100
AcDbEntity
8
CURVE
100
AcDbLine
62
7
6
CONTINUOUS
10
38.8567314940
20
26.9137361947
11
38.4884466946
21
26.6374634439
0
LINE
5
29E
100
AcDbEntity
8
CURVE
100
AcDbLine
62
7
6
CONTINUOUS
10
-17.3582576103
20
-1.5622797619
11
-17.0636298551
21
-1.4149658843
0
LINE
5
29F
100
AcDbEntity
8
CURVE
100
AcDbLine
62
7
6
CONTINUOUS
10
76.3333908969
20
45.2835444917
11
76.6280186521
21
45.4308583693
0
LINE
5
2A0
100
AcDbEntity
8
CURVE
100
AcDbLine
62
7
6
CONTINUOUS
10
39.2986732322
20
26.6740553082
11
38.7830745025
21
26.4162559434
0
LINE
5
2A1
100
AcDbEntity
8
CURVE
100
AcDbLine
62
7
6
CONTINUOUS
10
20.1861661573
20
17.1178017708
11
20.6281078955
21
17.3387726399
0
LINE
5
2A2
100
AcDbEntity
8
CURVE
100
AcDbLine
62
7
6
CONTINUOUS
10
76.6280186521
20
45.0623369648
11
76.3333908969
21
44.9150230872
0
LINE
5
2A3
100
AcDbEntity
8
CURVE
100
AcDbLine
62
7
6
CONTINUOUS
10
-17.0636298551
20
-1.7834872888
11
-17.3582576103
21
-1.9308011664
0
LINE
5
2A4
100
AcDbEntity
8
CURVE
100
AcDbLine
62
7
6
CONTINUOUS
10
19.0813118117
20
16.1968531935
11
19.5969104887
21
16.4546525320
0
LINE
5
2A5
100
AcDbEntity
8
CURVE
100
AcDbLine
62
7
6
CONTINUOUS
10
1.9693277070
20
7.5487307900
11
0.7171594311
21
6.9226466520
0
LINE
5
2A6
100
AcDbEntity
8
CURVE
100
AcDbLine
62
7
6
CONTINUOUS
10
2.4112694452
20
7.7697016591
11
3.1478389387
21
8.1379864059
0
LINE
5
2A7
100
AcDbEntity
8
CURVE
100
AcDbLine
62
7
6
CONTINUOUS
10
3.1478389387
20
7.5852041701
11
2.4112694452
21
7.2169194233
0
LINE
5
2A8
100
AcDbEntity
8
CURVE
100
AcDbLine
62
7
6
CONTINUOUS
10
1.9693277070
20
6.9959485542
11
0.2015607540
21
6.1120650777
0
LINE
5
2A9
100
AcDbEntity
8
CURVE
100
AcDbLine
62
7
6
CONTINUOUS
10
19.5232535499
20
15.5886507734
11
19.0813118117
21
15.3676799043
0
LINE
5
2AA
100
AcDbEntity
8
CURVE
100
AcDbLine
62
7
6
CONTINUOUS
10
-18.5367689474
20
-3.5334908264
11
-18.1684841744
21
-3.3493484398
0
LINE
5
2AB
100
AcDbEntity
8
CURVE
100
AcDbLine
62
7
6
CONTINUOUS
10
20.6281078955
20
15.4961654239
11
20.1861661573
21
15.2751945547
0
LINE
5
2AC
100
AcDbEntity
8
CURVE
100
AcDbLine
62
7
6
CONTINUOUS
10
-36.6858429803
20
-13.1608100141
11
-34.6234482194
21
-12.1296126336
0
LINE
5
2AD
100
AcDbEntity
8
CURVE
100
AcDbLine
62
7
6
CONTINUOUS
10
-17.4319146018
20
-3.5338458248
11
-16.9899728636
21
-3.3128749557
0
LINE
5
2AE
100
AcDbEntity
8
CURVE
100
AcDbLine
62
7
6
CONTINUOUS
10
38.7830745025
20
24.5736487273
11
39.2986732322
21
24.8314480922
0
LINE
5
2AF
100
AcDbEntity
8
CURVE
100
AcDbLine
62
7
6
CONTINUOUS
10
76.3333908969
20
43.3488069245
11
76.6280186521
21
43.4961208022
0
LINE
5
2B0
100
AcDbEntity
8
CURVE
100
AcDbLine
62
7
6
CONTINUOUS
10
57.5950611954
20
33.5189902537
11
57.1531194045
21
33.2980193582
0
LINE
5
2B1
100
AcDbEntity
8
CURVE
100
AcDbLine
62
7
6
CONTINUOUS
10
2.4112694452
20
5.9270943786
11
1.9693277070
21
5.7061235095
0
LINE
5
2B2
100
AcDbEntity
8
CURVE
100
AcDbLine
62
7
6
CONTINUOUS
10
-16.9163158721
20
-3.7366982801
11
-17.5055715933
21
-4.0313261407
0
LINE
5
2B3
100
AcDbEntity
8
CURVE
100
AcDbLine
62
7
6
CONTINUOUS
10
-34.6234482194
20
-12.5902644537
11
-37.2750986489
21
-13.9160896685
0
LINE
5
2B4
100
AcDbEntity
8
CURVE
100
AcDbLine
62
7
6
CONTINUOUS
10
20.1861661573
20
14.8145427346
11
20.6281078955
21
15.0355136037
0
LINE
5
2B5
100
AcDbEntity
8
CURVE
100
AcDbLine
62
7
6
CONTINUOUS
10
-54.0688847021
20
-22.3129826951
11
-54.5108264403
21
-22.5339535642
0
LINE
5
2B6
100
AcDbEntity
8
CURVE
100
AcDbLine
62
7
6
CONTINUOUS
10
38.8567314940
20
24.1498254030
11
39.2250162407
21
24.3339677763
0
LINE
5
2B7
100
AcDbEntity
8
CURVE
100
AcDbLine
62
7
6
CONTINUOUS
10
76.2597339054
20
42.8513266087
11
76.7016756436
21
43.0722974778
0
LINE
5
2B8
100
AcDbEntity
8
0
100
AcDbLine
62
7
6
CONTINUOUS
10
-59.9025156469
20
-27.8278743788
11
-49.2959139291
21
-22.5245735199
0
LINE
5
2B9
100
AcDbEntity
8
0
100
AcDbLine
62
7
6
CONTINUOUS
10
-41.1641859454
20
-18.4587095281
11
-30.5575842276
21
-13.1554086692
0
LINE
5
2BA
100
AcDbEntity
8
0
100
AcDbLine
62
7
6
CONTINUOUS
10
-22.4258562440
20
-9.0895446774
11
-11.8192545262
21
-3.7862438185
0
LINE
5
2BB
100
AcDbEntity
8
0
100
AcDbLine
62
7
6
CONTINUOUS
10
-3.6875265425
20
0.2796201734
11
6.9190751753
21
5.5829210323
0
LINE
5
2BC
100
AcDbEntity
8
0
100
AcDbLine
62
7
6
CONTINUOUS
10
15.0508031589
20
9.6487850241
11
25.6574048767
21
14.9520858830
0
LINE
5
2BD
100
AcDbEntity
8
0
100
AcDbLine
62
7
6
CONTINUOUS
10
33.7891328604
20
19.0179498748
11
44.3957345782
21
24.3212507337
0
LINE
5
2BE
100
AcDbEntity
8
0
100
AcDbLine
62
7
6
CONTINUOUS
10
52.5274625618
20
28.3871147255
11
63.1340642796
21
33.6904155844
0
LINE
5
2BF
100
AcDbEntity
8
0
100
AcDbLine
62
7
6
CONTINUOUS
10
71.2657922633
20
37.7562795762
11
81.8723939810
21
43.0595804351
0
LINE
5
2C0
100
AcDbEntity
8
CURVE
100
AcDbLine
62
7
6
CONTINUOUS
10
-17.1372867412
20
0.4829433043
11
-16.6216880115
21
0.6486123180
0
LINE
5
2C1
100
AcDbEntity
8
CURVE
100
AcDbLine
62
7
6
CONTINUOUS
10
-16.6216880115
20
-1.6546467181
11
-17.0636298551
21
-1.7834872888
0
LINE
5
2C2
100
AcDbEntity
8
CURVE
100
AcDbLine
62
7
6
CONTINUOUS
10
-35.7283025650
20
-8.8125646076
11
-35.2863608268
21
-8.6837240896
0
LINE
5
2C3
100
AcDbEntity
8
CURVE
100
AcDbLine
62
7
6
CONTINUOUS
10
-35.4336748098
20
-9.2180328367
11
-35.8019595565
21
-9.3100448590
0
LINE
5
2C4
100
AcDbEntity
8
CURVE
100
AcDbLine
62
7
6
CONTINUOUS
10
-17.5055715933
20
-4.0313261407
11
-17.8001994013
21
-4.0865096855
0
LINE
5
2C5
100
AcDbEntity
8
CURVE
100
AcDbLine
62
7
6
CONTINUOUS
10
-16.4743742392
20
-1.3045987786
11
-16.1060893871
21
-1.3047170548
0
LINE
5
2C6
100
AcDbEntity
8
CURVE
100
AcDbLine
62
7
6
CONTINUOUS
10
-17.8001994013
20
-4.0865096855
11
-18.0948272092
21
-4.0495628630
0
LINE
5
2C7
100
AcDbEntity
8
CURVE
100
AcDbLine
62
7
6
CONTINUOUS
10
-17.9475132789
20
-3.6073844611
11
-17.8001994013
21
-3.6258578734
0
LINE
5
2C8
100
AcDbEntity
8
CURVE
100
AcDbLine
62
7
6
CONTINUOUS
10
-16.6216880115
20
0.6486123180
11
-16.3270602562
21
0.6116654934
0
LINE
5
2C9
100
AcDbEntity
8
CURVE
100
AcDbLine
62
7
6
CONTINUOUS
10
-16.4007171424
20
-1.7284219858
11
-16.6216880115
21
-1.6546467181
0
LINE
5
2CA
100
AcDbEntity
8
CURVE
100
AcDbLine
62
7
6
CONTINUOUS
10
-16.4743742392
20
0.0773567463
11
-16.6953451083
21
0.1511320140
0
LINE
5
2CB
100
AcDbEntity
8
0
100
AcDbLine
62
7
6
CONTINUOUS
10
6.9190751753
20
-11.7375870434
11
5.8584150035
21
-11.2072569575
0
LINE
5
2CC
100
AcDbEntity
8
CURVE
100
AcDbLine
62
7
6
CONTINUOUS
10
1.9693277070
20
9.2992077194
11
1.9693277070
21
7.5487307900
0
LINE
5
2CD
100
AcDbEntity
8
CURVE
100
AcDbLine
62
7
6
CONTINUOUS
10
1.9693277070
20
5.7061235095
11
1.9693277070
21
6.9959485542
0
LINE
5
2CE
100
AcDbEntity
8
CURVE
100
AcDbLine
62
7
6
CONTINUOUS
10
2.4112694452
20
10.2572213975
11
2.4112694452
21
7.7697016591
0
LINE
5
2CF
100
AcDbEntity
8
CURVE
100
AcDbLine
62
7
6
CONTINUOUS
10
2.4112694452
20
7.2169194233
11
2.4112694452
21
5.9270943786
0
LINE
5
2D0
100
AcDbEntity
8
CURVE
100
AcDbLine
62
7
6
CONTINUOUS
10
3.1478389387
20
8.1379864059
11
3.1478389387
21
7.5852041701
0
LINE
5
2D1
100
AcDbEntity
8
0
100
AcDbLine
62
7
6
CONTINUOUS
10
5.8584150035
20
5.0525909464
11
5.8584150035
21
-11.2072569575
0
LINE
5
2D2
100
AcDbEntity
8
0
100
AcDbLine
62
7
6
CONTINUOUS
10
6.9190751753
20
5.5829210323
11
6.9190751753
21
-11.7375870434
0
LINE
5
2D3
100
AcDbEntity
8
CURVE
100
AcDbLine
62
7
6
CONTINUOUS
10
19.5969104887
20
16.4546525320
11
19.8915383494
21
16.8783575157
0
LINE
5
2D4
100
AcDbEntity
8
CURVE
100
AcDbLine
62
7
6
CONTINUOUS
10
21.1437065199
20
16.0303557894
11
20.9227356508
21
15.7356096526
0
LINE
5
2D5
100
AcDbEntity
8
CURVE
100
AcDbLine
62
7
6
CONTINUOUS
10
19.8178813579
20
17.3021807755
11
19.4495965848
21
16.8416473356
0
LINE
5
2D6
100
AcDbEntity
8
CURVE
100
AcDbLine
62
7
6
CONTINUOUS
10
20.9963927476
20
15.3117863890
11
21.3646773890
21
15.7723197872
0
LINE
5
2D7
100
AcDbEntity
8
CURVE
100
AcDbLine
62
7
6
CONTINUOUS
10
38.5621036334
20
27.7798563848
11
38.7830745025
21
27.9824721705
0
LINE
5
2D8
100
AcDbEntity
8
CURVE
100
AcDbLine
62
7
6
CONTINUOUS
10
38.7830745025
20
26.4162559434
11
38.5621036334
21
26.2136401577
0
LINE
5
2D9
100
AcDbEntity
8
CURVE
100
AcDbLine
62
7
6
CONTINUOUS
10
39.2986732322
20
24.8314480922
11
39.5196439960
21
25.0340638252
0
LINE
5
2DA
100
AcDbEntity
8
CURVE
100
AcDbLine
62
7
6
CONTINUOUS
10
39.2250162407
20
24.3339677763
11
39.5933010928
21
24.6102405616
0
LINE
5
2DB
100
AcDbEntity
8
CURVE
100
AcDbLine
62
7
6
CONTINUOUS
10
76.3333908969
20
47.2182821233
11
75.9651060974
21
46.9420093725
0
LINE
5
2DC
100
AcDbEntity
8
0
100
AcDbLine
62
7
6
CONTINUOUS
10
101.5299624980
20
47.2591995690
11
99.0550887639
21
46.0217627020
0
LINE
5
2DD
100
AcDbEntity
8
0
100
AcDbLine
62
7
6
CONTINUOUS
10
-77.0852104297
20
-42.0483868948
11
-79.5600841638
21
-43.2858237619
0
LINE
5
2DE
100
AcDbEntity
8
0
100
AcDbLine
62
7
6
CONTINUOUS
10
-80.6207443356
20
-48.8176715025
11
-78.1458706015
21
-47.5802346354
0
LINE
5
2DF
100
AcDbEntity
8
0
100
AcDbLine
62
7
6
CONTINUOUS
10
97.9944285921
20
40.4899149614
11
100.4693023263
21
41.7273518284
0
LINE
5
2E0
100
AcDbEntity
8
0
100
AcDbLine
62
7
6
CONTINUOUS
10
-79.5600841638
20
-49.3480015884
11
-77.0852104297
21
-48.1105647213
0
LINE
5
2E1
100
AcDbEntity
8
0
100
AcDbLine
62
7
6
CONTINUOUS
10
99.0550887639
20
39.9595848755
11
101.5299624980
21
41.1970217425
0
LINE
5
2E2
100
AcDbEntity
8
CURVE
100
AcDbLine
62
7
6
CONTINUOUS
10
-17.8001994013
20
-3.6258578734
11
-17.4319146018
21
-3.5338458248
0
LINE
5
2E3
100
AcDbEntity
8
CURVE
100
AcDbLine
62
7
6
CONTINUOUS
10
-16.6953451083
20
0.1511320140
11
-17.0636298551
21
0.0591199917
0
LINE
5
2E4
100
AcDbEntity
8
0
100
AcDbLine
62
7
6
CONTINUOUS
10
15.0508031589
20
-7.6717230516
11
15.0508031589
21
9.6487850241
0
LINE
5
2E5
100
AcDbEntity
8
CURVE
100
AcDbLine
62
7
6
CONTINUOUS
10
21.3646773890
20
16.6936233952
11
21.2910205029
21
16.3804038988
0
LINE
5
2E6
100
AcDbEntity
8
CURVE
100
AcDbLine
62
7
6
CONTINUOUS
10
21.5856482581
20
16.2513266585
11
21.7329622411
21
16.7856354702
0
LINE
5
2E7
100
AcDbEntity
8
CURVE
100
AcDbLine
62
7
6
CONTINUOUS
10
21.2910205029
20
16.3804038988
11
21.1437065199
21
16.0303557894
0
LINE
5
2E8
100
AcDbEntity
8
CURVE
100
AcDbLine
62
7
6
CONTINUOUS
10
21.3646773890
20
15.7723197872
11
21.5856482581
21
16.2513266585
0
LINE
5
2E9
100
AcDbEntity
8
CURVE
100
AcDbLine
62
7
6
CONTINUOUS
10
38.3411327643
20
27.4851102480
11
38.5621036334
21
27.7798563848
0
LINE
5
2EA
100
AcDbEntity
8
CURVE
100
AcDbLine
62
7
6
CONTINUOUS
10
38.4884466946
20
26.6374634439
11
38.0465049300
21
26.0479711571
0
LINE
5
2EB
100
AcDbEntity
8
CURVE
100
AcDbLine
62
7
6
CONTINUOUS
10
38.5621036334
20
26.2136401577
11
38.3411327643
21
25.9188940209
0
LINE
5
2EC
100
AcDbEntity
8
CURVE
100
AcDbLine
62
7
6
CONTINUOUS
10
39.5196439960
20
25.0340638252
11
39.7406148651
21
25.3288099620
0
LINE
5
2ED
100
AcDbEntity
8
CURVE
100
AcDbLine
62
7
6
CONTINUOUS
10
38.4884466946
20
28.2036796710
11
38.1201618951
21
27.7431462180
0
LINE
5
2EE
100
AcDbEntity
8
CURVE
100
AcDbLine
62
7
6
CONTINUOUS
10
39.5933010928
20
24.6102405616
11
39.9615857342
21
25.0707739598
0
LINE
5
2EF
100
AcDbEntity
8
CURVE
100
AcDbLine
62
7
6
CONTINUOUS
10
76.3333908969
20
46.7576303677
11
76.0387630363
21
46.5181860863
0
LINE
5
2F0
100
AcDbEntity
8
CURVE
100
AcDbLine
62
7
6
CONTINUOUS
10
76.6280186521
20
45.4308583693
11
76.9226465127
21
45.6703026507
0
LINE
5
2F1
100
AcDbEntity
8
CURVE
100
AcDbLine
62
7
6
CONTINUOUS
10
76.3333908969
20
44.9150230872
11
76.0387630363
21
44.6755788058
0
LINE
5
2F2
100
AcDbEntity
8
CURVE
100
AcDbLine
62
7
6
CONTINUOUS
10
76.6280186521
20
43.4961208022
11
76.9226465127
21
43.7355650836
0
LINE
5
2F3
100
AcDbEntity
8
CURVE
100
AcDbLine
62
7
6
CONTINUOUS
10
76.7016756436
20
43.0722974778
11
77.0699604957
21
43.3485702630
0
LINE
5
2F4
100
AcDbEntity
8
0
100
AcDbLine
62
7
6
CONTINUOUS
10
80.8117338093
20
26.2694024453
11
71.2657922633
21
21.4964316723
0
LINE
5
2F5
100
AcDbEntity
8
0
100
AcDbLine
62
7
6
CONTINUOUS
10
62.0734041078
20
16.9002375946
11
52.5274625618
21
12.1272668216
0
LINE
5
2F6
100
AcDbEntity
8
0
100
AcDbLine
62
7
6
CONTINUOUS
10
43.3350744064
20
7.5310727439
11
33.7891328604
21
2.7581019709
0
LINE
5
2F7
100
AcDbEntity
8
0
100
AcDbLine
62
7
6
CONTINUOUS
10
24.5967447049
20
-1.8380921068
11
15.0508031589
21
-6.6110628798
0
LINE
5
2F8
100
AcDbEntity
8
0
100
AcDbLine
62
7
6
CONTINUOUS
10
5.8584150035
20
-11.2072569575
11
-3.6875265425
21
-15.9802277306
0
LINE
5
2F9
100
AcDbEntity
8
0
100
AcDbLine
62
7
6
CONTINUOUS
10
-12.8799146979
20
-20.5764218083
11
-22.4258562440
21
-25.3493925813
0
LINE
5
2FA
100
AcDbEntity
8
0
100
AcDbLine
62
7
6
CONTINUOUS
10
-31.6182443994
20
-29.9455866590
11
-41.1641859454
21
-34.7185574320
0
LINE
5
2FB
100
AcDbEntity
8
0
100
AcDbLine
62
7
6
CONTINUOUS
10
-50.3565741008
20
-39.3147515097
11
-59.9025156469
21
-44.0877222827
0
LINE
5
2FC
100
AcDbEntity
8
0
100
AcDbLine
62
7
6
CONTINUOUS
10
81.8723939810
20
25.7390723595
11
71.2657922633
21
20.4357715006
0
LINE
5
2FD
100
AcDbEntity
8
0
100
AcDbLine
62
7
6
CONTINUOUS
10
63.1340642796
20
16.3699075087
11
52.5274625618
21
11.0666066498
0
LINE
5
2FE
100
AcDbEntity
8
0
100
AcDbLine
62
7
6
CONTINUOUS
10
44.3957345782
20
7.0007426580
11
33.7891328604
21
1.6974417991
0
LINE
5
2FF
100
AcDbEntity
8
0
100
AcDbLine
62
7
6
CONTINUOUS
10
25.6574048767
20
-2.3684221927
11
15.0508031589
21
-7.6717230516
0
LINE
5
300
100
AcDbEntity
8
0
100
AcDbLine
62
7
6
CONTINUOUS
10
6.9190751753
20
-11.7375870434
11
-3.6875265425
21
-17.0408879023
0
LINE
5
301
100
AcDbEntity
8
0
100
AcDbLine
62
7
6
CONTINUOUS
10
-11.8192545262
20
-21.1067518942
11
-22.4258562440
21
-26.4100527531
0
LINE
5
302
100
AcDbEntity
8
0
100
AcDbLine
62
7
6
CONTINUOUS
10
-30.5575842276
20
-30.4759167449
11
-41.1641859454
21
-35.7792176038
0
LINE
5
303
100
AcDbEntity
8
0
100
AcDbLine
62
7
6
CONTINUOUS
10
-49.2959139291
20
-39.8450815956
11
-59.9025156469
21
-45.1483824545
0
LINE
5
304
100
AcDbEntity
8
CURVE
100
AcDbLine
62
7
6
CONTINUOUS
10
19.8178813579
20
14.7225306941
11
20.1861661573
21
14.8145427346
0
LINE
5
305
100
AcDbEntity
8
CURVE
100
AcDbLine
62
7
6
CONTINUOUS
10
20.9963927476
20
17.8914364704
11
20.6281078955
21
17.7994243955
0
LINE
5
306
100
AcDbEntity
8
CURVE
100
AcDbLine
62
7
6
CONTINUOUS
10
38.4884466946
20
24.0578133624
11
38.8567314940
21
24.1498254030
0
LINE
5
307
100
AcDbEntity
8
CURVE
100
AcDbLine
62
7
6
CONTINUOUS
10
39.5933010928
20
27.1898906430
11
39.2250162407
21
27.0978785681
0
LINE
5
308
100
AcDbEntity
8
CURVE
100
AcDbLine
62
7
6
CONTINUOUS
10
20.1861661573
20
15.2751945547
11
19.8915383494
21
15.2200110019
0
LINE
5
309
100
AcDbEntity
8
CURVE
100
AcDbLine
62
7
6
CONTINUOUS
10
20.6281078955
20
17.3387726399
11
20.9227356508
21
17.3939561664
0
LINE
5
30A
100
AcDbEntity
8
0
100
AcDbLine
62
7
6
CONTINUOUS
10
25.6574048767
20
-2.3684221927
11
24.5967447049
21
-1.8380921068
0
LINE
5
30B
100
AcDbEntity
8
CURVE
100
AcDbLine
62
7
6
CONTINUOUS
10
19.0813118117
20
18.5922425807
11
19.0813118117
21
16.1968531935
0
LINE
5
30C
100
AcDbEntity
8
CURVE
100
AcDbLine
62
7
6
CONTINUOUS
10
19.4495965848
20
16.8416473356
11
19.4495965848
21
18.3157332117
0
LINE
5
30D
100
AcDbEntity
8
CURVE
100
AcDbLine
62
7
6
CONTINUOUS
10
21.3646773890
20
16.8778840975
11
21.3646773890
21
16.6936233952
0
LINE
5
30E
100
AcDbEntity
8
CURVE
100
AcDbLine
62
7
6
CONTINUOUS
10
21.5856482581
20
19.3837590484
11
21.5856482581
21
19.8444108040
0
LINE
5
30F
100
AcDbEntity
8
CURVE
100
AcDbLine
62
7
6
CONTINUOUS
10
21.7329622411
20
16.7856354702
11
21.7329622411
21
17.1541568747
0
LINE
5
310
100
AcDbEntity
8
0
100
AcDbLine
62
7
6
CONTINUOUS
10
24.5967447049
20
14.4217557971
11
24.5967447049
21
-1.8380921068
0
LINE
5
311
100
AcDbEntity
8
0
100
AcDbLine
62
7
6
CONTINUOUS
10
25.6574048767
20
14.9520858830
11
25.6574048767
21
-2.3684221927
0
LINE
5
312
100
AcDbEntity
8
CURVE
100
AcDbLine
62
7
6
CONTINUOUS
10
38.1938188339
20
27.1350622295
11
38.3411327643
21
27.4851102480
0
LINE
5
313
100
AcDbEntity
8
CURVE
100
AcDbLine
62
7
6
CONTINUOUS
10
38.1201618951
20
27.7431462180
11
37.8991910260
21
27.2641393789
0
LINE
5
314
100
AcDbEntity
8
CURVE
100
AcDbLine
62
7
6
CONTINUOUS
10
39.9615857342
20
25.0707739598
11
40.1825566033
21
25.5497808311
0
LINE
5
315
100
AcDbEntity
8
CURVE
100
AcDbLine
62
7
6
CONTINUOUS
10
38.3411327643
20
25.9188940209
11
38.1938188339
21
25.6609763535
0
LINE
5
316
100
AcDbEntity
8
0
100
AcDbLine
62
7
6
CONTINUOUS
10
93.3628791753
20
22.8240609187
11
92.6557723274
21
22.4705074948
0
LINE
5
317
100
AcDbEntity
8
0
100
AcDbLine
62
7
6
CONTINUOUS
10
-70.6858939936
20
-59.2003256657
11
-71.3930008411
21
-59.5538790895
0
LINE
5
318
100
AcDbEntity
8
0
100
AcDbLine
62
9
6
CONTINUOUS
10
-70.6858939936
20
-59.2003256657
11
92.6557723274
21
22.4705074948
0
LINE
5
319
100
AcDbEntity
8
0
100
AcDbLine
62
7
6
CONTINUOUS
10
91.7824326322
20
21.2119832320
11
-70.8521270407
21
-60.1052966044
0
LINE
5
31A
100
AcDbEntity
8
0
100
AcDbLine
62
7
6
CONTINUOUS
10
103.6159275025
20
26.2185342748
11
94.0699859565
21
21.4455635018
0
LINE
5
31B
100
AcDbEntity
8
0
100
AcDbLine
62
7
6
CONTINUOUS
10
-72.1001076223
20
-61.6394832876
11
-81.6460491683
21
-66.4124540607
0
LINE
5
31C
100
AcDbEntity
8
CURVE
100
AcDbLine
62
7
6
CONTINUOUS
10
39.5196439960
20
28.7192783218
11
39.1513592492
21
28.6272662995
0
LINE
5
31D
100
AcDbEntity
8
CURVE
100
AcDbLine
62
7
6
CONTINUOUS
10
75.8914491060
20
42.7593145681
11
76.2597339054
21
42.8513266087
0
LINE
5
31E
100
AcDbEntity
8
CURVE
100
AcDbLine
62
7
6
CONTINUOUS
10
38.5621036334
20
24.5552936439
11
38.7830745025
21
24.5736487273
0
LINE
5
31F
100
AcDbEntity
8
CURVE
100
AcDbLine
62
7
6
CONTINUOUS
10
39.5196439960
20
26.6924103390
11
39.2986732322
21
26.6740553082
0
LINE
5
320
100
AcDbEntity
8
CURVE
100
AcDbLine
62
7
6
CONTINUOUS
10
39.2250162407
20
28.2034430396
11
39.4459871099
21
28.2217981231
0
LINE
5
321
100
AcDbEntity
8
CURVE
100
AcDbLine
62
7
6
CONTINUOUS
10
19.4495965848
20
14.8147793851
11
19.8178813579
21
14.7225306941
0
LINE
5
322
100
AcDbEntity
8
CURVE
100
AcDbLine
62
7
6
CONTINUOUS
10
21.3646773890
20
17.7991877377
11
20.9963927476
21
17.8914364704
0
LINE
5
323
100
AcDbEntity
8
CURVE
100
AcDbLine
62
7
6
CONTINUOUS
10
19.8915383494
20
15.2200110019
11
19.6705674802
21
15.2937862696
0
LINE
5
324
100
AcDbEntity
8
CURVE
100
AcDbLine
62
7
6
CONTINUOUS
10
20.9227356508
20
17.3939561664
11
21.1437065199
21
17.3201808987
0
LINE
5
325
100
AcDbEntity
8
CURVE
100
AcDbLine
62
7
6
CONTINUOUS
10
19.2286257288
20
15.0728153939
11
19.4495965848
21
14.8147793851
0
LINE
5
326
100
AcDbEntity
8
CURVE
100
AcDbLine
62
7
6
CONTINUOUS
10
19.0813118117
20
15.3676799043
11
19.2286257288
21
15.0728153939
0
LINE
5
327
100
AcDbEntity
8
CURVE
100
AcDbLine
62
7
6
CONTINUOUS
10
19.6705674802
20
15.2937862696
11
19.5232535499
21
15.5886507734
0
LINE
5
328
100
AcDbEntity
8
CURVE
100
AcDbLine
62
7
6
CONTINUOUS
10
21.2910205029
20
17.1174468368
11
21.3646773890
21
16.8778840975
0
LINE
5
329
100
AcDbEntity
8
0
100
AcDbLine
62
7
6
CONTINUOUS
10
33.7891328604
20
1.6974417991
11
33.7891328604
21
19.0179498748
0
LINE
5
32A
100
AcDbEntity
8
CURVE
100
AcDbLine
62
7
6
CONTINUOUS
10
37.7518771155
20
26.7298304099
11
37.6782201569
21
26.0480894728
0
LINE
5
32B
100
AcDbEntity
8
CURVE
100
AcDbLine
62
7
6
CONTINUOUS
10
38.0465049300
20
26.2322318593
11
38.1201618951
21
26.8218424487
0
LINE
5
32C
100
AcDbEntity
8
CURVE
100
AcDbLine
62
7
6
CONTINUOUS
10
38.1201618951
20
26.8218424487
11
38.1938188339
21
27.1350622295
0
LINE
5
32D
100
AcDbEntity
8
CURVE
100
AcDbLine
62
7
6
CONTINUOUS
10
38.1938188339
20
25.6609763535
11
38.1201618951
21
25.3477567017
0
LINE
5
32E
100
AcDbEntity
8
CURVE
100
AcDbLine
62
7
6
CONTINUOUS
10
39.8879288481
20
25.6788580714
11
39.9615857342
21
25.9920775678
0
LINE
5
32F
100
AcDbEntity
8
CURVE
100
AcDbLine
62
7
6
CONTINUOUS
10
37.8991910260
20
27.2641393789
11
37.7518771155
21
26.7298304099
0
LINE
5
330
100
AcDbEntity
8
CURVE
100
AcDbLine
62
7
6
CONTINUOUS
10
40.1825566033
20
25.5497808311
11
40.3298705863
21
26.0840896428
0
LINE
5
331
100
AcDbEntity
8
CURVE
100
AcDbLine
62
7
6
CONTINUOUS
10
39.7406148651
20
25.3288099620
11
39.8879288481
21
25.6788580714
0
LINE
5
332
100
AcDbEntity
8
CURVE
100
AcDbLine
62
7
6
CONTINUOUS
10
75.9651060974
20
46.9420093725
11
75.5968212980
21
46.4814759194
0
LINE
5
333
100
AcDbEntity
8
CURVE
100
AcDbLine
62
7
6
CONTINUOUS
10
77.0699604957
20
43.3485702630
11
77.4382451371
21
43.8091036613
0
LINE
5
334
100
AcDbEntity
8
CURVE
100
AcDbLine
62
7
6
CONTINUOUS
10
75.7441352283
20
44.8046559552
11
75.5968212980
21
44.6388686389
0
LINE
5
335
100
AcDbEntity
8
CURVE
100
AcDbLine
62
7
6
CONTINUOUS
10
76.0387630363
20
44.6755788058
11
75.7441352283
21
44.3440041995
0
LINE
5
336
100
AcDbEntity
8
CURVE
100
AcDbLine
62
7
6
CONTINUOUS
10
77.2172742680
20
45.5412254750
11
77.3645882510
21
45.7070128176
0
LINE
5
337
100
AcDbEntity
8
CURVE
100
AcDbLine
62
7
6
CONTINUOUS
10
76.9226465127
20
43.7355650836
11
77.2172742680
21
44.0671396635
0
LINE
5
338
100
AcDbEntity
8
CURVE
100
AcDbLine
62
7
6
CONTINUOUS
10
76.9963033989
20
47.4576080232
11
76.6280186521
21
47.3655960010
0
LINE
5
339
100
AcDbEntity
8
CURVE
100
AcDbLine
62
7
6
CONTINUOUS
10
76.0387630363
20
43.2936233454
11
76.3333908969
21
43.3488069245
0
LINE
5
33A
100
AcDbEntity
8
CURVE
100
AcDbLine
62
7
6
CONTINUOUS
10
76.9226465127
20
45.1175205440
11
76.6280186521
21
45.0623369648
0
LINE
5
33B
100
AcDbEntity
8
CURVE
100
AcDbLine
62
7
6
CONTINUOUS
10
76.0387630363
20
45.2283609125
11
76.3333908969
21
45.2835444917
0
LINE
5
33C
100
AcDbEntity
8
CURVE
100
AcDbLine
62
7
6
CONTINUOUS
10
76.9226465127
20
46.9601278245
11
76.6280186521
21
46.9049442453
0
LINE
5
33D
100
AcDbEntity
8
CURVE
100
AcDbLine
62
7
6
CONTINUOUS
10
38.1201618951
20
24.1500620403
11
38.4884466946
21
24.0578133624
0
LINE
5
33E
100
AcDbEntity
8
0
100
AcDbLine
62
7
6
CONTINUOUS
10
44.3957345782
20
7.0007426580
11
43.3350744064
21
7.5310727439
0
LINE
5
33F
100
AcDbEntity
8
CURVE
100
AcDbLine
62
7
6
CONTINUOUS
10
21.5856482581
20
17.5411517678
11
21.3646773890
21
17.7991877377
0
LINE
5
340
100
AcDbEntity
8
CURVE
100
AcDbLine
62
7
6
CONTINUOUS
10
21.1437065199
20
17.3201808987
11
21.2910205029
21
17.1174468368
0
LINE
5
341
100
AcDbEntity
8
CURVE
100
AcDbLine
62
7
6
CONTINUOUS
10
21.7329622411
20
17.1541568747
11
21.5856482581
21
17.5411517678
0
LINE
5
342
100
AcDbEntity
8
CURVE
100
AcDbLine
62
7
6
CONTINUOUS
10
37.6782201569
20
26.0480894728
11
37.6782201569
21
25.4031770149
0
LINE
5
343
100
AcDbEntity
8
CURVE
100
AcDbLine
62
7
6
CONTINUOUS
10
38.0465049300
20
26.0479711571
11
38.0465049300
21
26.2322318593
0
LINE
5
344
100
AcDbEntity
8
CURVE
100
AcDbLine
62
7
6
CONTINUOUS
10
38.1201618951
20
25.3477567017
11
38.1201618951
21
25.0713656483
0
LINE
5
345
100
AcDbEntity
8
CURVE
100
AcDbLine
62
7
6
CONTINUOUS
10
39.9615857342
20
25.9920775678
11
39.9615857342
21
26.2684686212
0
LINE
5
346
100
AcDbEntity
8
CURVE
100
AcDbLine
62
7
6
CONTINUOUS
10
40.3298705863
20
26.0840896428
11
40.3298705863
21
26.5447415274
0
LINE
5
347
100
AcDbEntity
8
CURVE
100
AcDbLine
62
7
6
CONTINUOUS
10
75.5968212980
20
46.4814759194
11
75.3758504289
21
46.0945994315
0
LINE
5
348
100
AcDbEntity
8
CURVE
100
AcDbLine
62
7
6
CONTINUOUS
10
76.0387630363
20
46.5181860863
11
75.7441352283
21
46.0944811290
0
LINE
5
349
100
AcDbEntity
8
CURVE
100
AcDbLine
62
7
6
CONTINUOUS
10
75.5968212980
20
44.6388686389
11
75.3021934769
21
44.2151636750
0
LINE
5
34A
100
AcDbEntity
8
CURVE
100
AcDbLine
62
7
6
CONTINUOUS
10
76.9226465127
20
45.6703026507
11
77.2172742680
21
46.0940075817
0
LINE
5
34B
100
AcDbEntity
8
CURVE
100
AcDbLine
62
7
6
CONTINUOUS
10
39.9615857342
20
27.0976419103
11
39.5933010928
21
27.1898906430
0
LINE
5
34C
100
AcDbEntity
8
CURVE
100
AcDbLine
62
7
6
CONTINUOUS
10
39.8879288481
20
28.6270296945
11
39.5196439960
21
28.7192783218
0
LINE
5
34D
100
AcDbEntity
8
CURVE
100
AcDbLine
62
7
6
CONTINUOUS
10
38.3411327643
20
24.6290689116
11
38.5621036334
21
24.5552936439
0
LINE
5
34E
100
AcDbEntity
8
CURVE
100
AcDbLine
62
7
6
CONTINUOUS
10
39.7406148651
20
26.6186350713
11
39.5196439960
21
26.6924103390
0
LINE
5
34F
100
AcDbEntity
8
CURVE
100
AcDbLine
62
7
6
CONTINUOUS
10
39.4459871099
20
28.2217981231
11
39.6669579790
21
28.1480228554
0
LINE
5
350
100
AcDbEntity
8
CURVE
100
AcDbLine
62
7
6
CONTINUOUS
10
37.6782201569
20
25.4031770149
11
37.7518771155
21
24.7950929073
0
LINE
5
351
100
AcDbEntity
8
0
100
AcDbLine
62
7
6
CONTINUOUS
10
43.3350744064
20
23.7909206478
11
43.3350744064
21
7.5310727439
0
LINE
5
352
100
AcDbEntity
8
0
100
AcDbLine
62
7
6
CONTINUOUS
10
44.3957345782
20
24.3212507337
11
44.3957345782
21
7.0007426580
0
LINE
5
353
100
AcDbEntity
8
CURVE
100
AcDbLine
62
7
6
CONTINUOUS
10
57.1531194045
20
33.2980193582
11
58.6262585495
21
37.9040641941
0
LINE
5
354
100
AcDbEntity
8
CURVE
100
AcDbLine
62
7
6
CONTINUOUS
10
59.0682002878
20
38.1250350632
11
57.5950611954
21
33.5189902537
0
LINE
5
355
100
AcDbEntity
8
CURVE
100
AcDbLine
62
7
6
CONTINUOUS
10
75.7441352283
20
44.3440041995
11
75.5231643329
21
43.8649972183
0
LINE
5
356
100
AcDbEntity
8
CURVE
100
AcDbLine
62
7
6
CONTINUOUS
10
77.3645882510
20
45.7070128176
11
77.5855591201
21
46.0938893055
0
LINE
5
357
100
AcDbEntity
8
CURVE
100
AcDbLine
62
7
6
CONTINUOUS
10
77.4382451371
20
43.8091036613
11
77.6592160062
21
44.1959801815
0
LINE
5
358
100
AcDbEntity
8
0
100
AcDbLine
62
7
6
CONTINUOUS
10
63.1340642796
20
16.3699075087
11
62.0734041078
21
16.9002375946
0
LINE
5
359
100
AcDbEntity
8
CURVE
100
AcDbLine
62
7
6
CONTINUOUS
10
39.8879288481
20
26.5080313606
11
39.7406148651
21
26.6186350713
0
LINE
5
35A
100
AcDbEntity
8
CURVE
100
AcDbLine
62
7
6
CONTINUOUS
10
40.1825566033
20
26.9317362915
11
39.9615857342
21
27.0976419103
0
LINE
5
35B
100
AcDbEntity
8
CURVE
100
AcDbLine
62
7
6
CONTINUOUS
10
37.8991910260
20
24.4080980425
11
38.1201618951
21
24.1500620403
0
LINE
5
35C
100
AcDbEntity
8
CURVE
100
AcDbLine
62
7
6
CONTINUOUS
10
40.1088997172
20
28.3689937245
11
39.8879288481
21
28.6270296945
0
LINE
5
35D
100
AcDbEntity
8
CURVE
100
AcDbLine
62
7
6
CONTINUOUS
10
38.1938188339
20
24.8318030643
11
38.3411327643
21
24.6290689116
0
LINE
5
35E
100
AcDbEntity
8
CURVE
100
AcDbLine
62
7
6
CONTINUOUS
10
39.6669579790
20
28.1480228554
11
39.8142719620
21
27.9452887935
0
LINE
5
35F
100
AcDbEntity
8
CURVE
100
AcDbLine
62
7
6
CONTINUOUS
10
37.7518771155
20
24.7950929073
11
37.8991910260
21
24.4080980425
0
LINE
5
360
100
AcDbEntity
8
CURVE
100
AcDbLine
62
7
6
CONTINUOUS
10
40.3298705863
20
26.5447415274
11
40.1825566033
21
26.9317362915
0
LINE
5
361
100
AcDbEntity
8
CURVE
100
AcDbLine
62
7
6
CONTINUOUS
10
38.1201618951
20
25.0713656483
11
38.1938188339
21
24.8318030643
0
LINE
5
362
100
AcDbEntity
8
CURVE
100
AcDbLine
62
7
6
CONTINUOUS
10
39.9615857342
20
26.2684686212
11
39.8879288481
21
26.5080313606
0
LINE
5
363
100
AcDbEntity
8
CURVE
100
AcDbLine
62
7
6
CONTINUOUS
10
40.1825566033
20
28.1294311142
11
40.1088997172
21
28.3689937245
0
LINE
5
364
100
AcDbEntity
8
0
100
AcDbLine
62
7
6
CONTINUOUS
10
52.5274625618
20
11.0666066498
11
52.5274625618
21
28.3871147255
0
LINE
5
365
100
AcDbEntity
8
CURVE
100
AcDbLine
62
7
6
CONTINUOUS
10
56.4165498583
20
36.7992098484
11
56.4165498583
21
37.2598616041
0
LINE
5
366
100
AcDbEntity
8
CURVE
100
AcDbLine
62
7
6
CONTINUOUS
10
59.0682002878
20
38.5856868188
11
59.0682002878
21
38.1250350632
0
LINE
5
367
100
AcDbEntity
8
CURVE
100
AcDbLine
62
7
6
CONTINUOUS
10
77.5855591201
20
46.0938893055
11
77.7328731031
21
46.5360677015
0
LINE
5
368
100
AcDbEntity
8
CURVE
100
AcDbLine
62
7
6
CONTINUOUS
10
75.7441352283
20
46.0944811290
11
75.5968212980
21
45.7444328523
0
LINE
5
369
100
AcDbEntity
8
CURVE
100
AcDbLine
62
7
6
CONTINUOUS
10
77.2172742680
20
46.0940075817
11
77.3645882510
21
46.4440556266
0
LINE
5
36A
100
AcDbEntity
8
CURVE
100
AcDbLine
62
7
6
CONTINUOUS
10
77.2172742680
20
44.0671396635
11
77.4382451371
21
44.5461465670
0
LINE
5
36B
100
AcDbEntity
8
CURVE
100
AcDbLine
62
7
6
CONTINUOUS
10
75.7441352283
20
43.3305701436
11
76.0387630363
21
43.2936233454
0
LINE
5
36C
100
AcDbEntity
8
CURVE
100
AcDbLine
62
7
6
CONTINUOUS
10
75.5968212980
20
44.8231293411
11
75.7441352283
21
44.8046559552
0
LINE
5
36D
100
AcDbEntity
8
CURVE
100
AcDbLine
62
7
6
CONTINUOUS
10
77.2172742680
20
45.0805737194
11
76.9226465127
21
45.1175205440
0
LINE
5
36E
100
AcDbEntity
8
CURVE
100
AcDbLine
62
7
6
CONTINUOUS
10
77.3645882510
20
45.5227521154
11
77.2172742680
21
45.5412254750
0
LINE
5
36F
100
AcDbEntity
8
0
100
AcDbLine
62
7
6
CONTINUOUS
10
62.0734041078
20
33.1600854985
11
62.0734041078
21
16.9002375946
0
LINE
5
370
100
AcDbEntity
8
0
100
AcDbLine
62
7
6
CONTINUOUS
10
63.1340642796
20
33.6904155844
11
63.1340642796
21
16.3699075087
0
LINE
5
371
100
AcDbEntity
8
CURVE
100
AcDbLine
62
7
6
CONTINUOUS
10
75.3758504289
20
46.0945994315
11
75.2285365183
21
45.5602904625
0
LINE
5
372
100
AcDbEntity
8
CURVE
100
AcDbLine
62
7
6
CONTINUOUS
10
75.3021934769
20
44.2151636750
11
75.1548795598
21
43.6808548317
0
LINE
5
373
100
AcDbEntity
8
CURVE
100
AcDbLine
62
7
6
CONTINUOUS
10
77.6592160062
20
44.1959801815
11
77.8065299892
21
44.7302889931
0
LINE
5
374
100
AcDbEntity
8
CURVE
100
AcDbLine
62
7
6
CONTINUOUS
10
75.5231643329
20
42.8515632591
11
75.8914491060
21
42.7593145681
0
LINE
5
375
100
AcDbEntity
8
CURVE
100
AcDbLine
62
7
6
CONTINUOUS
10
77.3645882510
20
47.3653593959
11
76.9963033989
21
47.4576080232
0
LINE
5
376
100
AcDbEntity
8
0
100
AcDbLine
62
7
6
CONTINUOUS
10
81.8723939810
20
25.7390723595
11
80.8117338093
21
26.2694024453
0
LINE
5
377
100
AcDbEntity
8
0
100
AcDbLine
62
7
6
CONTINUOUS
10
71.2657922633
20
32.3789315011
11
80.8117338093
21
27.6059607281
0
LINE
5
378
100
AcDbEntity
8
0
100
AcDbLine
62
7
6
CONTINUOUS
10
93.8463791588
20
21.4313626082
11
92.7857189870
21
21.9616926941
0
LINE
5
379
100
AcDbEntity
8
0
100
AcDbLine
62
9
6
CONTINUOUS
10
93.7164325659
20
21.7017995084
11
92.6557723941
21
22.2321295943
0
LINE
5
37A
100
AcDbEntity
8
0
100
AcDbLine
62
9
6
CONTINUOUS
10
93.2834198640
20
22.7843312631
11
93.7164325659
21
22.5678249122
0
LINE
5
37B
100
AcDbEntity
8
0
100
AcDbLine
62
7
6
CONTINUOUS
10
71.2657922633
20
20.4357715006
11
71.2657922633
21
37.7562795762
0
LINE
5
37C
100
AcDbEntity
8
CURVE
100
AcDbLine
62
7
6
CONTINUOUS
10
75.1548795598
20
43.6808548317
11
75.1548795598
21
43.4044637784
0
LINE
5
37D
100
AcDbEntity
8
CURVE
100
AcDbLine
62
7
6
CONTINUOUS
10
75.2285365183
20
45.5602904625
11
75.2285365183
21
45.2838994091
0
LINE
5
37E
100
AcDbEntity
8
CURVE
100
AcDbLine
62
7
6
CONTINUOUS
10
75.5231643329
20
43.8649972183
11
75.5231643329
21
43.5886061649
0
LINE
5
37F
100
AcDbEntity
8
CURVE
100
AcDbLine
62
7
6
CONTINUOUS
10
75.5968212980
20
45.7444328523
11
75.5968212980
21
45.5601721501
0
LINE
5
380
100
AcDbEntity
8
CURVE
100
AcDbLine
62
7
6
CONTINUOUS
10
75.7441352283
20
45.3574380619
11
76.0387630363
21
45.2283609125
0
LINE
5
381
100
AcDbEntity
8
CURVE
100
AcDbLine
62
7
6
CONTINUOUS
10
77.6592160062
20
45.3936749396
11
77.3645882510
21
45.5227521154
0
LINE
5
382
100
AcDbEntity
8
CURVE
100
AcDbLine
62
7
6
CONTINUOUS
10
77.2172742680
20
46.8310506488
11
76.9226465127
21
46.9601278245
0
LINE
5
383
100
AcDbEntity
8
CURVE
100
AcDbLine
62
7
6
CONTINUOUS
10
77.3645882510
20
46.4440556266
11
77.3645882510
21
46.6283163288
0
LINE
5
384
100
AcDbEntity
8
CURVE
100
AcDbLine
62
7
6
CONTINUOUS
10
77.4382451371
20
44.5461465670
11
77.4382451371
21
44.8225376204
0
LINE
5
385
100
AcDbEntity
8
CURVE
100
AcDbLine
62
7
6
CONTINUOUS
10
77.7328731031
20
46.5360677015
11
77.7328731031
21
46.8124587549
0
LINE
5
386
100
AcDbEntity
8
CURVE
100
AcDbLine
62
7
6
CONTINUOUS
10
77.8065299892
20
44.7302889931
11
77.8065299892
21
45.0066800465
0
LINE
5
387
100
AcDbEntity
8
0
100
AcDbLine
62
7
6
CONTINUOUS
10
80.8117338093
20
42.5292503492
11
80.8117338093
21
26.2694024453
0
LINE
5
388
100
AcDbEntity
8
0
100
AcDbLine
62
7
6
CONTINUOUS
10
81.8723939810
20
43.0595804351
11
81.8723939810
21
25.7390723595
0
LINE
5
389
100
AcDbEntity
8
0
100
AcDbLine
62
9
6
CONTINUOUS
10
97.9944285921
20
40.4899149614
11
99.0550887639
21
39.9595848755
0
LINE
5
38A
100
AcDbEntity
8
0
100
AcDbLine
62
9
6
CONTINUOUS
10
100.4693023263
20
41.7273518284
11
101.5299624980
21
41.1970217425
0
LINE
5
38B
100
AcDbEntity
8
CURVE
100
AcDbLine
62
7
6
CONTINUOUS
10
75.3021934769
20
43.0174689168
11
75.5231643329
21
42.8515632591
0
LINE
5
38C
100
AcDbEntity
8
CURVE
100
AcDbLine
62
7
6
CONTINUOUS
10
75.3758504289
20
44.9890349599
11
75.5968212980
21
44.8231293411
0
LINE
5
38D
100
AcDbEntity
8
0
100
AcDbLine
62
7
6
CONTINUOUS
10
92.6557723941
20
59.4712219570
11
92.6557723941
21
58.6051965532
0
LINE
5
38E
100
AcDbEntity
8
0
100
AcDbLine
62
7
6
CONTINUOUS
10
92.6557723941
20
22.2321295943
11
92.6557723941
21
22.4705074948
0
LINE
5
38F
100
AcDbEntity
8
CURVE
100
AcDbLine
62
7
6
CONTINUOUS
10
77.5855591201
20
47.1994537771
11
77.3645882510
21
47.3653593959
0
LINE
5
390
100
AcDbEntity
8
CURVE
100
AcDbLine
62
7
6
CONTINUOUS
10
75.5231643329
20
43.5886061649
11
75.7441352283
21
43.3305701436
0
LINE
5
391
100
AcDbEntity
8
CURVE
100
AcDbLine
62
7
6
CONTINUOUS
10
77.4382451371
20
44.8225376204
11
77.2172742680
21
45.0805737194
0
LINE
5
392
100
AcDbEntity
8
CURVE
100
AcDbLine
62
7
6
CONTINUOUS
10
75.5968212980
20
45.5601721501
11
75.7441352283
21
45.3574380619
0
LINE
5
393
100
AcDbEntity
8
CURVE
100
AcDbLine
62
7
6
CONTINUOUS
10
77.3645882510
20
46.6283163288
11
77.2172742680
21
46.8310506488
0
LINE
5
394
100
AcDbEntity
8
CURVE
100
AcDbLine
62
7
6
CONTINUOUS
10
75.2285365183
20
45.2838994091
11
75.3758504289
21
44.9890349599
0
LINE
5
395
100
AcDbEntity
8
CURVE
100
AcDbLine
62
7
6
CONTINUOUS
10
75.1548795598
20
43.4044637784
11
75.3021934769
21
43.0174689168
0
LINE
5
396
100
AcDbEntity
8
CURVE
100
AcDbLine
62
7
6
CONTINUOUS
10
77.8065299892
20
45.0066800465
11
77.6592160062
21
45.3936749396
0
LINE
5
397
100
AcDbEntity
8
CURVE
100
AcDbLine
62
7
6
CONTINUOUS
10
77.7328731031
20
46.8124587549
11
77.5855591201
21
47.1994537771
0
LINE
5
398
100
AcDbEntity
8
0
100
AcDbLine
62
7
6
CONTINUOUS
10
93.7164325659
20
58.9408918711
11
93.7164325659
21
58.0748664673
0
LINE
5
399
100
AcDbEntity
8
0
100
AcDbLine
62
7
6
CONTINUOUS
10
93.7164325659
20
21.7017995084
11
93.7164325659
21
22.5678249122
0
LINE
5
39A
100
AcDbEntity
8
0
100
AcDbLine
62
9
6
CONTINUOUS
10
92.2815124378
20
57.2986536577
11
92.6557723941
21
57.1115236795
0
LINE
5
39B
100
AcDbEntity
8
0
100
AcDbLine
62
9
6
CONTINUOUS
10
92.3022190036
20
57.9954071560
11
93.3628791753
21
57.4650770701
0
LINE
5
39C
100
AcDbEntity
8
0
100
AcDbLine
62
7
6
CONTINUOUS
10
87.3524715352
20
61.1416715260
11
90.8880054412
21
59.3739045730
0
LINE
5
39D
100
AcDbEntity
8
0
100
AcDbLine
62
9
6
CONTINUOUS
10
92.6557723941
20
58.6051965532
11
93.7164325659
21
58.0748664673
0
LINE
5
39E
100
AcDbEntity
8
0
100
AcDbLine
62
9
6
CONTINUOUS
10
93.7164325659
20
58.9408918711
11
92.6557723941
21
59.4712219570
0
LINE
5
39F
100
AcDbEntity
8
0
100
AcDbLine
62
9
6
CONTINUOUS
10
94.0699859565
20
59.5506812683
11
93.0093257847
21
60.0810113542
0
LINE
5
3A0
100
AcDbEntity
8
0
100
AcDbLine
62
7
6
CONTINUOUS
10
106.4443546273
20
62.2737639885
11
106.4443546273
21
31.0968494523
0
LINE
5
3A1
100
AcDbEntity
8
0
100
AcDbLine
62
9
6
CONTINUOUS
10
103.6159275025
20
64.3236520413
11
102.5552673308
21
64.8539821272
0
LINE
5
3A2
100
AcDbEntity
8
0
100
AcDbLine
62
7
6
CONTINUOUS
10
105.4047818845
20
64.4372591902
11
104.3441217128
21
64.9675892760
0
SPLINE
5
3A3
100
AcDbEntity
8
0
100
AcDbSpline
62
7
6
CONTINUOUS
70
0
71
3
72
10
73
6
74
4
42
0.0000001000
43
0.0000001000
44
0.0000000001
12
1.4437163471
22
0.7218581736
32
0.0000000000
13
1.4514917354
23
-0.7340385495
33
0.0000000000
40
0.0000000000
40
0.0000000000
40
0.0000000000
40
0.0000000000
40
0.4954927392
40
0.9261928524
40
1.0000000000
40
1.0000000000
40
1.0000000000
40
1.0000000000
10
-77.0852104297
20
-42.0483868948
30
0.0000000000
10
-76.8467601072
20
-41.9291617336
30
0.0000000000
10
-76.3637405605
20
-41.7641874677
30
0.0000000000
10
-75.8063228781
20
-41.8188412972
30
0.0000000000
10
-75.5568405765
20
-41.9309074171
30
0.0000000000
10
-75.5211304216
20
-41.9489665143
30
0.0000000000
11
-77.0852104297
21
-42.0483868948
31
0.0000000000
11
-76.3204323869
21
-41.8143499243
31
0.0000000000
11
-75.6305161475
21
-41.8999262247
31
0.0000000000
11
-75.5211304216
21
-41.9489665143
31
0.0000000000
0
SPLINE
5
3A4
100
AcDbEntity
8
0
100
AcDbSpline
62
7
6
CONTINUOUS
70
0
71
3
72
10
73
6
74
4
42
0.0000001000
43
0.0000001000
44
0.0000000001
12
1.4437163471
22
0.7218581736
32
0.0000000000
13
1.4514917354
23
-0.7340385495
33
0.0000000000
40
0.0000000000
40
0.0000000000
40
0.0000000000
40
0.0000000000
40
0.4954927392
40
0.9261928524
40
1.0000000000
40
1.0000000000
40
1.0000000000
40
1.0000000000
10
101.5299624980
20
47.2591995690
30
0.0000000000
10
101.7684128205
20
47.3784247303
30
0.0000000000
10
102.2514323672
20
47.5433989962
30
0.0000000000
10
102.8088500496
20
47.4887451667
30
0.0000000000
10
103.0583323512
20
47.3766790467
30
0.0000000000
10
103.0940425061
20
47.3586199495
30
0.0000000000
11
101.5299624980
21
47.2591995690
31
0.0000000000
11
102.2947405408
21
47.4932365396
31
0.0000000000
11
102.9846567803
21
47.4076602392
31
0.0000000000
11
103.0940425061
21
47.3586199495
31
0.0000000000
0
SPLINE
5
3A5
100
AcDbEntity
8
0
100
AcDbSpline
62
7
6
CONTINUOUS
70
0
71
3
72
11
73
7
74
5
42
0.0000001000
43
0.0000001000
44
0.0000000001
12
0.0000000000
22
2.5150757395
32
0.0000000000
13
-2.2687835030
23
1.1308929814
33
0.0000000000
40
0.0000000000
40
0.0000000000
40
0.0000000000
40
0.0000000000
40
0.3355024520
40
0.6379626059
40
0.9029597178
40
1.0000000000
40
1.0000000000
40
1.0000000000
40
1.0000000000
10
106.4443546273
20
62.2737639885
30
0.0000000000
10
106.4443546273
20
62.5550353477
30
0.0000000000
10
106.3919059924
20
63.0927119553
30
0.0000000000
10
106.1190241955
20
63.8116001975
30
0.0000000000
10
105.7412590138
20
64.2415641497
30
0.0000000000
10
105.4785436238
20
64.3997797779
30
0.0000000000
10
105.4051558267
20
64.4363605025
30
0.0000000000
11
106.4443546273
21
62.2737639885
31
0.0000000000
11
106.3503735762
21
63.1123280943
31
0.0000000000
11
106.0647729505
21
63.8173899950
31
0.0000000000
11
105.6152919230
21
64.3095005546
31
0.0000000000
11
105.4051558267
21
64.4363605025
31
0.0000000000
0
SPLINE
5
3A6
100
AcDbEntity
8
0
100
AcDbSpline
62
7
6
CONTINUOUS
70
0
71
3
72
13
73
9
74
7
42
0.0000001000
43
0.0000001000
44
0.0000000001
12
5.2620471979
22
2.6310235989
32
0.0000000000
13
-0.0000000000
23
5.8831476176
33
0.0000000000
40
0.0000000000
40
0.0000000000
40
0.0000000000
40
0.0000000000
40
0.1472024546
40
0.3140537847
40
0.4885176639
40
0.6657350659
40
0.8406608986
40
1.0000000000
40
1.0000000000
40
1.0000000000
40
1.0000000000
10
103.6159275025
20
26.2185342748
30
0.0000000000
10
103.8741229237
20
26.3476319854
30
0.0000000000
10
104.3891949531
20
26.6964604037
30
0.0000000000
10
105.0630293507
20
27.3844118379
30
0.0000000000
10
105.6430285877
20
28.2252353714
30
0.0000000000
10
106.0897686666
20
29.1611215215
30
0.0000000000
10
106.3727643649
20
30.1279750424
30
0.0000000000
10
106.4443546273
20
30.7843776340
30
0.0000000000
10
106.4443546273
20
31.0968494523
30
0.0000000000
11
103.6159275025
21
26.2185342748
31
0.0000000000
11
104.3389798313
21
26.6951632494
31
0.0000000000
11
105.0312564297
21
27.3910894503
31
0.0000000000
11
105.6165628801
21
28.2342422586
31
0.0000000000
11
106.0653984524
21
29.1752806922
31
0.0000000000
11
106.3503454155
21
30.1641597917
31
0.0000000000
11
106.4443546273
21
31.0968494523
31
0.0000000000
0
SPLINE
5
3A7
100
AcDbEntity
8
0
100
AcDbSpline
62
7
6
CONTINUOUS
70
0
71
3
72
11
73
7
74
5
42
0.0000001000
43
0.0000001000
44
0.0000000001
12
0.6566099587
22
0.3283049793
32
0.0000000000
13
0.0000000000
23
0.7341122511
33
0.0000000000
40
0.0000000000
40
0.0000000000
40
0.0000000000
40
0.0000000000
40
0.2288053962
40
0.4896416176
40
0.7554518453
40
1.0000000000
40
1.0000000000
40
1.0000000000
40
1.0000000000
10
-72.1001076223
20
-61.6394832876
30
0.0000000000
10
-72.0500289884
20
-61.6144439707
30
0.0000000000
10
-71.9536550882
20
-61.5391542191
30
0.0000000000
10
-71.8424387858
20
-61.3894372219
30
0.0000000000
10
-71.7671567639
20
-61.2146342689
30
0.0000000000
10
-71.7465542317
20
-61.0895358226
30
0.0000000000
10
-71.7465542317
20
-61.0296938905
30
0.0000000000
11
-72.1001076223
21
-61.6394832876
31
0.0000000000
11
-71.9652635041
21
-61.5393304219
31
0.0000000000
11
-71.8495788023
21
-61.3867433511
31
0.0000000000
11
-71.7730068388
21
-61.2072601348
31
0.0000000000
11
-71.7465542317
21
-61.0296938905
31
0.0000000000
0
SPLINE
5
3A8
100
AcDbEntity
8
0
100
AcDbSpline
62
7
6
CONTINUOUS
70
0
71
3
72
10
73
6
74
4
42
0.0000001000
43
0.0000001000
44
0.0000000001
12
0.0000000000
22
0.3127152149
32
0.0000000000
13
-0.2843360788
23
0.1385726054
33
0.0000000000
40
0.0000000000
40
0.0000000000
40
0.0000000000
40
0.0000000000
40
0.4928510982
40
0.9047887510
40
1.0000000000
40
1.0000000000
40
1.0000000000
40
1.0000000000
10
-71.7465542317
20
-23.7906015277
30
0.0000000000
10
-71.7465542317
20
-23.7392275154
30
0.0000000000
10
-71.7592235871
20
-23.6435453162
30
0.0000000000
10
-71.8213603237
20
-23.5520442074
30
0.0000000000
10
-71.8674187385
20
-23.5249582715
30
0.0000000000
10
-71.8764427363
20
-23.5205603812
30
0.0000000000
11
-71.7465542317
21
-23.7906015277
31
0.0000000000
11
-71.7732788234
21
-23.6388141814
31
0.0000000000
11
-71.8506375633
21
-23.5358093061
31
0.0000000000
11
-71.8764427363
21
-23.5205603812
31
0.0000000000
0
SPLINE
5
3A9
100
AcDbEntity
8
0
100
AcDbSpline
62
7
6
CONTINUOUS
70
0
71
3
72
12
73
8
74
6
42
0.0000001000
43
0.0000001000
44
0.0000000001
12
2.0706761773
22
-1.0353380886
32
0.0000000000
13
0.5686360515
23
-2.2465834287
33
0.0000000000
40
0.0000000000
40
0.0000000000
40
0.0000000000
40
0.0000000000
40
0.1919900665
40
0.4021055546
40
0.6258824736
40
0.8530428647
40
1.0000000000
40
1.0000000000
40
1.0000000000
40
1.0000000000
10
90.8880054412
20
59.3739045730
30
0.0000000000
10
91.0205218602
20
59.3076463635
30
0.0000000000
10
91.2795783363
20
59.1309349124
30
0.0000000000
10
91.6180309784
20
58.7830548525
30
0.0000000000
10
91.9077471997
20
58.3602461118
30
0.0000000000
10
92.1055216435
20
57.9413993783
30
0.0000000000
10
92.1928630728
20
57.6651165381
30
0.0000000000
10
92.2207181145
20
57.5550660498
30
0.0000000000
11
90.8880054412
21
59.3739045730
31
0.0000000000
11
91.2584143902
21
59.1282341125
31
0.0000000000
11
91.6002144716
21
58.7821240179
31
0.0000000000
11
91.8943288038
21
58.3556431657
31
0.0000000000
11
92.1186276778
21
57.8799788579
31
0.0000000000
11
92.2207181145
21
57.5550660498
31
0.0000000000
0
SPLINE
5
3AA
100
AcDbEntity
8
0
100
AcDbSpline
62
7
6
CONTINUOUS
70
0
71
3
72
8
73
4
74
2
42
0.0000001000
43
0.0000001000
44
0.0000000001
12
0.0414619128
22
-0.1638089004
32
0.0000000000
13
0.0316234956
23
-0.1658151583
33
0.0000000000
40
0.0000000000
40
0.0000000000
40
0.0000000000
40
0.0000000000
40
1.0000000000
40
1.0000000000
40
1.0000000000
40
1.0000000000
10
92.2207181145
20
57.5550660498
30
0.0000000000
10
92.2345387521
20
57.5004630830
30
0.0000000000
10
92.2467706697
20
57.4454849899
30
0.0000000000
10
92.2573118349
20
57.3902132704
30
0.0000000000
11
92.2207181145
21
57.5550660498
31
0.0000000000
11
92.2573118349
21
57.3902132704
31
0.0000000000
0
SPLINE
5
3AB
100
AcDbEntity
8
0
100
AcDbSpline
62
7
6
CONTINUOUS
70
0
71
3
72
13
73
9
74
7
42
0.0000001000
43
0.0000001000
44
0.0000000001
12
-3.9042098025
22
1.9521049013
32
0.0000000000
13
-3.9042098025
23
-1.9521049013
33
0.0000000000
40
0.0000000000
40
0.0000000000
40
0.0000000000
40
0.0000000000
40
0.1505078064
40
0.3218929613
40
0.5002648810
40
0.6784300294
40
0.8493652227
40
1.0000000000
40
1.0000000000
40
1.0000000000
40
1.0000000000
10
87.3524715352
20
61.1416715260
30
0.0000000000
10
87.1566001842
20
61.2396072015
30
0.0000000000
10
86.7147874877
20
61.4039264556
30
0.0000000000
10
85.9990702528
20
61.5484360469
30
0.0000000000
10
85.2302905541
20
61.5976806695
30
0.0000000000
10
84.4621835917
20
61.5482385105
30
0.0000000000
10
83.7472560226
20
61.4038089771
30
0.0000000000
10
83.3058674395
20
61.2396898216
30
0.0000000000
10
83.1098308481
20
61.1416715260
30
0.0000000000
11
87.3524715352
21
61.1416715260
31
0.0000000000
11
86.7393517260
21
61.3776735257
31
0.0000000000
11
86.0069194951
21
61.5299923357
31
0.0000000000
11
85.2299924042
21
61.5810112423
31
0.0000000000
11
84.4539821852
21
61.5298046741
31
0.0000000000
11
83.7234847616
21
61.3778287985
31
0.0000000000
11
83.1098308481
21
61.1416715260
31
0.0000000000
0
SPLINE
5
3AC
100
AcDbEntity
8
0
100
AcDbSpline
62
7
6
CONTINUOUS
70
0
71
3
72
10
73
6
74
4
42
0.0000001000
43
0.0000001000
44
0.0000000001
12
-1.2881996889
22
-0.6440998444
32
0.0000000000
13
-0.0001309030
23
-1.4467138503
33
0.0000000000
40
0.0000000000
40
0.0000000000
40
0.0000000000
40
0.0000000000
40
0.3907793430
40
0.7215268550
40
1.0000000000
40
1.0000000000
40
1.0000000000
40
1.0000000000
10
-75.2820881377
20
-18.0542879669
30
0.0000000000
10
-75.4498887470
20
-18.1381882716
30
0.0000000000
10
-75.7470548650
20
-18.3224377805
30
0.0000000000
10
-76.0753422102
20
-18.6868497612
30
0.0000000000
10
-76.1607556040
20
-18.9806647072
30
0.0000000000
10
-76.1607677550
20
-19.1149550258
30
0.0000000000
11
-75.2820881377
21
-18.0542879669
31
0.0000000000
11
-75.7540921372
21
-18.3608478716
31
0.0000000000
11
-76.0587297572
21
-18.7270639870
31
0.0000000000
11
-76.1607677550
21
-19.1149550258
31
0.0000000000
0
SPLINE
5
3AD
100
AcDbEntity
8
0
100
AcDbSpline
62
7
6
CONTINUOUS
70
0
71
3
72
8
73
4
74
2
42
0.0000001000
43
0.0000001000
44
0.0000000001
12
0.2397508472
22
-0.1198754236
32
0.0000000000
13
0.2592499765
23
-0.0725215657
33
0.0000000000
40
0.0000000000
40
0.0000000000
40
0.0000000000
40
0.0000000000
40
1.0000000000
40
1.0000000000
40
1.0000000000
40
1.0000000000
10
-71.7465542317
20
-60.0484930300
30
0.0000000000
10
-71.6666372827
20
-60.0884515045
30
0.0000000000
10
-71.5829380072
20
-60.1221213875
30
0.0000000000
10
-71.4965213484
20
-60.1462952428
30
0.0000000000
11
-71.7465542317
21
-60.0484930300
31
0.0000000000
11
-71.4965213484
21
-60.1462952428
31
0.0000000000
0
SPLINE
5
3AE
100
AcDbEntity
8
0
100
AcDbSpline
62
7
6
CONTINUOUS
70
0
71
3
72
9
73
5
74
3
42
0.0000001000
43
0.0000001000
44
0.0000000001
12
0.3429561891
22
-0.0959372114
32
0.0000000000
13
0.3552998615
23
0.0271668859
33
0.0000000000
40
0.0000000000
40
0.0000000000
40
0.0000000000
40
0.0000000000
40
0.3463052683
40
1.0000000000
40
1.0000000000
40
1.0000000000
40
1.0000000000
10
-71.4965213484
20
-60.1462952428
30
0.0000000000
10
-71.4569321700
20
-60.1573697633
30
0.0000000000
10
-71.3409666062
20
-60.1835938923
30
0.0000000000
10
-71.2210993803
20
-60.1906284613
30
0.0000000000
10
-71.1436801644
20
-60.1847088445
30
0.0000000000
11
-71.4965213484
21
-60.1462952428
31
0.0000000000
11
-71.3761452827
21
-60.1732315185
31
0.0000000000
11
-71.1436801644
21
-60.1847088445
31
0.0000000000
0
SPLINE
5
3AF
100
AcDbEntity
8
0
100
AcDbSpline
62
7
6
CONTINUOUS
70
0
71
3
72
9
73
5
74
3
42
0.0000001000
43
0.0000001000
44
0.0000000001
12
0.3027275901
22
0.0231471126
32
0.0000000000
13
0.2726333737
23
0.1358600668
33
0.0000000000
40
0.0000000000
40
0.0000000000
40
0.0000000000
40
0.0000000000
40
0.3641793663
40
1.0000000000
40
1.0000000000
40
1.0000000000
40
1.0000000000
10
-71.1436801644
20
-60.1847088445
30
0.0000000000
10
-71.1069311171
20
-60.1818989443
30
0.0000000000
10
-71.0066018629
20
-60.1676757179
30
0.0000000000
10
-70.9099654769
20
-60.1337141617
30
0.0000000000
10
-70.8521835021
20
-60.1049199504
30
0.0000000000
11
-71.1436801644
21
-60.1847088445
31
0.0000000000
11
-71.0343452013
21
-60.1689215053
31
0.0000000000
11
-70.8521835021
21
-60.1049199504
31
0.0000000000
0
SPLINE
5
3B0
100
AcDbEntity
8
0
100
AcDbSpline
62
7
6
CONTINUOUS
70
0
71
3
72
9
73
5
74
3
42
0.0000001000
43
0.0000001000
44
0.0000000001
12
0.2031742738
22
0.1015871369
32
0.0000000000
13
0.2059995468
23
-0.1016079651
33
0.0000000000
40
0.0000000000
40
0.0000000000
40
0.0000000000
40
0.0000000000
40
0.6215569353
40
1.0000000000
40
1.0000000000
40
1.0000000000
40
1.0000000000
10
-70.6858940597
20
-59.2003256990
30
0.0000000000
10
-70.6437992667
20
-59.1792783025
30
0.0000000000
10
-70.5684961785
20
-59.1556308568
30
0.0000000000
10
-70.4902723009
20
-59.1724679678
30
0.0000000000
10
-70.4642859343
20
-59.1852855777
30
0.0000000000
11
-70.6858940597
21
-59.2003256990
31
0.0000000000
11
-70.5490605559
21
-59.1655223560
31
0.0000000000
11
-70.4642859343
21
-59.1852855777
31
0.0000000000
0
SPLINE
5
3B1
100
AcDbEntity
8
0
100
AcDbSpline
62
7
6
CONTINUOUS
70
0
71
3
72
11
73
7
74
5
42
0.0000001000
43
0.0000001000
44
0.0000000001
12
0.1414236091
22
0.6001192751
32
0.0000000000
13
0.4776109290
23
0.3964397153
33
0.0000000000
40
0.0000000000
40
0.0000000000
40
0.0000000000
40
0.0000000000
40
0.2780713885
40
0.5888404799
40
0.9025941768
40
1.0000000000
40
1.0000000000
40
1.0000000000
40
1.0000000000
10
92.2573118349
20
21.8831717153
30
0.0000000000
10
92.2704204547
20
21.9387970486
30
0.0000000000
10
92.3097940324
20
22.0538796058
30
0.0000000000
10
92.3946630260
20
22.2196216538
30
0.0000000000
10
92.4848995719
20
22.3385106087
30
0.0000000000
10
92.5476431034
20
22.3962986223
30
0.0000000000
10
92.5631504653
20
22.4091704679
30
0.0000000000
11
92.2573118349
21
21.8831717153
31
0.0000000000
11
92.3111743843
21
22.0459382610
31
0.0000000000
11
92.3991710128
21
22.2161437312
31
0.0000000000
11
92.5185516411
21
22.3683611577
31
0.0000000000
11
92.5631504653
21
22.4091704679
31
0.0000000000
0
SPLINE
5
3B2
100
AcDbEntity
8
0
100
AcDbSpline
62
7
6
CONTINUOUS
70
0
71
3
72
8
73
4
74
2
42
0.0000001000
43
0.0000001000
44
0.0000000001
12
0.0859922372
22
0.0713776339
32
0.0000000000
13
0.0992896388
23
0.0496448194
33
0.0000000000
40
0.0000000000
40
0.0000000000
40
0.0000000000
40
0.0000000000
40
1.0000000000
40
1.0000000000
40
1.0000000000
40
1.0000000000
10
92.5631504653
20
22.4091704679
30
0.0000000000
10
92.5918145444
20
22.4329630126
30
0.0000000000
10
92.6226758481
20
22.4539592549
30
0.0000000000
10
92.6557723944
20
22.4705075280
30
0.0000000000
11
92.5631504653
21
22.4091704679
31
0.0000000000
11
92.6557723944
21
22.4705075280
31
0.0000000000
0
SPLINE
5
3B3
100
AcDbEntity
8
0
100
AcDbSpline
62
7
6
CONTINUOUS
70
0
71
3
72
9
73
5
74
3
42
0.0000001000
43
0.0000001000
44
0.0000000001
12
0.2054369141
22
0.1027184570
32
0.0000000000
13
0.2089112229
23
-0.1018952414
33
0.0000000000
40
0.0000000000
40
0.0000000000
40
0.0000000000
40
0.0000000000
40
0.6061991326
40
1.0000000000
40
1.0000000000
40
1.0000000000
40
1.0000000000
10
93.3628791753
20
22.8240609187
30
0.0000000000
10
93.4043910684
20
22.8448168653
30
0.0000000000
10
93.4807349639
20
22.8691055325
30
0.0000000000
10
93.5591824410
20
22.8511814472
30
0.0000000000
10
93.5866055813
20
22.8378059691
30
0.0000000000
11
93.3628791753
21
22.8240609187
31
0.0000000000
11
93.4977232935
21
22.8587521712
31
0.0000000000
11
93.5866055813
21
22.8378059691
31
0.0000000000
0
SPLINE
5
3B4
100
AcDbEntity
8
0
100
AcDbSpline
62
7
6
CONTINUOUS
70
0
71
3
72
11
73
7
74
5
42
0.0000001000
43
0.0000001000
44
0.0000000001
12
0.0000000000
22
0.7341140818
32
0.0000000000
13
0.6566115960
23
0.3283057980
33
0.0000000000
40
0.0000000000
40
0.0000000000
40
0.0000000000
40
0.0000000000
40
0.2458763493
40
0.5132100427
40
0.7724571074
40
1.0000000000
40
1.0000000000
40
1.0000000000
40
1.0000000000
10
-71.7465542317
20
-60.1636684867
30
0.0000000000
10
-71.7465542317
20
-60.1035013899
30
0.0000000000
10
-71.7257289797
20
-59.9777047648
30
0.0000000000
10
-71.6499895573
20
-59.8027376173
30
0.0000000000
10
-71.5386761278
20
-59.6535211674
30
0.0000000000
10
-71.4428032751
20
-59.5787803065
30
0.0000000000
10
-71.3930008411
20
-59.5538790895
30
0.0000000000
11
-71.7465542317
21
-60.1636684867
31
0.0000000000
11
-71.7198296400
21
-59.9851565486
31
0.0000000000
11
-71.6424709001
21
-59.8047929334
31
0.0000000000
11
-71.5271838409
21
-59.6533682843
31
0.0000000000
11
-71.3930008411
21
-59.5538790895
31
0.0000000000
0
SPLINE
5
3B5
100
AcDbEntity
8
0
100
AcDbSpline
62
7
6
CONTINUOUS
70
0
71
3
72
10
73
6
74
4
42
0.0000001000
43
0.0000001000
44
0.0000000001
12
-1.2881996889
22
0.6440998444
32
0.0000000000
13
-0.0001309030
23
1.4467138503
33
0.0000000000
40
0.0000000000
40
0.0000000000
40
0.0000000000
40
0.0000000000
40
0.3907793430
40
0.7215268550
40
1.0000000000
40
1.0000000000
40
1.0000000000
40
1.0000000000
10
-105.3341263381
20
-43.2547069768
30
0.0000000000
10
-105.5019269475
20
-43.1708066721
30
0.0000000000
10
-105.7990930654
20
-42.9865571632
30
0.0000000000
10
-106.1273804106
20
-42.6221451825
30
0.0000000000
10
-106.2127938044
20
-42.3283302366
30
0.0000000000
10
-106.2128059554
20
-42.1940399180
30
0.0000000000
11
-105.3341263381
21
-43.2547069768
31
0.0000000000
11
-105.8061303376
21
-42.9481470722
31
0.0000000000
11
-106.1107679576
21
-42.5819309567
31
0.0000000000
11
-106.2128059554
21
-42.1940399180
31
0.0000000000
0
SPLINE
5
3B6
100
AcDbEntity
8
0
100
AcDbSpline
62
7
6
CONTINUOUS
70
0
71
3
72
8
73
4
74
2
42
0.0000001000
43
0.0000001000
44
0.0000000001
12
-0.2390043432
22
-0.1407955082
32
0.0000000000
13
-0.2162030894
23
-0.1762371658
33
0.0000000000
40
0.0000000000
40
0.0000000000
40
0.0000000000
40
0.0000000000
40
1.0000000000
40
1.0000000000
40
1.0000000000
40
1.0000000000
10
-90.5877718866
20
-30.2305608047
30
0.0000000000
10
-90.6674400010
20
-30.2774926408
30
0.0000000000
10
-90.7451858258
20
-30.3292439473
30
0.0000000000
10
-90.8172535222
20
-30.3879896692
30
0.0000000000
11
-90.5877718866
21
-30.2305608047
31
0.0000000000
11
-90.8172535222
21
-30.3879896692
31
0.0000000000
0
SPLINE
5
3B7
100
AcDbEntity
8
0
100
AcDbSpline
62
7
6
CONTINUOUS
70
0
71
3
72
9
73
5
74
3
42
0.0000001000
43
0.0000001000
44
0.0000000001
12
0.4480890396
22
0.2639655966
32
0.0000000000
13
0.0101519692
23
0.5213730301
33
0.0000000000
40
0.0000000000
40
0.0000000000
40
0.0000000000
40
0.0000000000
40
0.6024411390
40
1.0000000000
40
1.0000000000
40
1.0000000000
40
1.0000000000
10
-90.5877718866
20
-30.2305608047
30
0.0000000000
10
-90.4977894629
20
-30.1775528932
30
0.0000000000
10
-90.3531557094
20
-30.0696233153
30
0.0000000000
10
-90.2913147661
20
-29.8926441422
30
0.0000000000
10
-90.2899694310
20
-29.8235519862
30
0.0000000000
11
-90.5877718866
21
-30.2305608047
31
0.0000000000
11
-90.3535712521
21
-30.0224499202
31
0.0000000000
11
-90.2899694310
21
-29.8235519862
31
0.0000000000
0
SPLINE
5
3B8
100
AcDbEntity
8
0
100
AcDbSpline
62
7
6
CONTINUOUS
70
0
71
3
72
15
73
11
74
9
42
0.0000001000
43
0.0000001000
44
0.0000000001
12
-6.6022267274
22
3.3388332930
32
0.0000000000
13
6.5668597494
23
3.2834298747
33
0.0000000000
40
0.0000000000
40
0.0000000000
40
0.0000000000
40
0.0000000000
40
0.0758734491
40
0.1788317495
40
0.2992935939
40
0.4361167810
40
0.5831579338
40
0.7318344469
40
0.8732086974
40
1.0000000000
40
1.0000000000
40
1.0000000000
40
1.0000000000
10
97.4910087558
20
39.8601644950
30
0.0000000000
10
97.3240308512
20
39.9446074276
30
0.0000000000
10
96.9710759101
20
40.2294057584
30
0.0000000000
10
96.6438705994
20
40.9074756195
30
0.0000000000
10
96.5411159195
20
41.7944197523
30
0.0000000000
10
96.6726256286
20
42.7834465201
30
0.0000000000
10
97.0234653001
20
43.7890666174
30
0.0000000000
10
97.5617372401
20
44.7211607911
30
0.0000000000
10
98.2373273602
20
45.4940951807
30
0.0000000000
10
98.7775485301
20
45.8829925851
30
0.0000000000
10
99.0550887639
20
46.0217627020
30
0.0000000000
11
97.4910087558
21
39.8601644950
31
0.0000000000
11
97.0528738540
21
40.2079369722
31
0.0000000000
11
96.7013439720
21
40.8771434071
31
0.0000000000
11
96.5802150297
21
41.7532369216
31
0.0000000000
11
96.7013439720
21
42.7504593784
31
0.0000000000
11
97.0528738540
21
43.7711956954
31
0.0000000000
11
97.6003944817
21
44.7155290899
31
0.0000000000
11
98.2903107211
21
45.4910216297
31
0.0000000000
11
99.0550887639
21
46.0217627020
31
0.0000000000
0
SPLINE
5
3B9
100
AcDbEntity
8
0
100
AcDbSpline
62
7
6
CONTINUOUS
70
0
71
3
72
15
73
11
74
9
42
0.0000001000
43
0.0000001000
44
0.0000000001
12
-6.6022267274
22
3.3388332930
32
0.0000000000
13
6.5668597494
23
3.2834298747
33
0.0000000000
40
0.0000000000
40
0.0000000000
40
0.0000000000
40
0.0000000000
40
0.0758734491
40
0.1788317495
40
0.2992935939
40
0.4361167810
40
0.5831579338
40
0.7318344469
40
0.8732086974
40
1.0000000000
40
1.0000000000
40
1.0000000000
40
1.0000000000
10
-81.1241641719
20
-49.4474219689
30
0.0000000000
10
-81.2911420765
20
-49.3629790362
30
0.0000000000
10
-81.6440970176
20
-49.0781807055
30
0.0000000000
10
-81.9713023283
20
-48.4001108444
30
0.0000000000
10
-82.0740570082
20
-47.5131667116
30
0.0000000000
10
-81.9425472991
20
-46.5241399437
30
0.0000000000
10
-81.5917076276
20
-45.5185198464
30
0.0000000000
10
-81.0534356876
20
-44.5864256727
30
0.0000000000
10
-80.3778455675
20
-43.8134912832
30
0.0000000000
10
-79.8376243976
20
-43.4245938788
30
0.0000000000
10
-79.5600841638
20
-43.2858237619
30
0.0000000000
11
-81.1241641719
21
-49.4474219689
31
0.0000000000
11
-81.5622990737
21
-49.0996494917
31
0.0000000000
11
-81.9138289557
21
-48.4304430567
31
0.0000000000
11
-82.0349578980
21
-47.5543495422
31
0.0000000000
11
-81.9138289557
21
-46.5571270854
31
0.0000000000
11
-81.5622990737
21
-45.5363907685
31
0.0000000000
11
-81.0147784461
21
-44.5920573740
31
0.0000000000
11
-80.3248622066
21
-43.8165648341
31
0.0000000000
11
-79.5600841638
21
-43.2858237619
31
0.0000000000
0
SPLINE
5
3BA
100
AcDbEntity
8
0
100
AcDbSpline
62
7
6
CONTINUOUS
70
0
71
3
72
10
73
6
74
4
42
0.0000001000
43
0.0000001000
44
0.0000000001
12
0.7623244625
22
0.3798854521
32
0.0000000000
13
0.1937763855
23
0.8222739097
33
0.0000000000
40
0.0000000000
40
0.0000000000
40
0.0000000000
40
0.0000000000
40
0.1543896179
40
0.5531707984
40
1.0000000000
40
1.0000000000
40
1.0000000000
40
1.0000000000
10
91.7823761708
20
21.2123598860
30
0.0000000000
10
91.8216078316
20
21.2319100093
30
0.0000000000
10
91.9561254720
20
21.3138506348
30
0.0000000000
10
92.1443787889
20
21.5333577961
30
0.0000000000
10
92.2284501857
20
21.7606997171
30
0.0000000000
10
92.2573118349
20
21.8831717153
30
0.0000000000
11
91.7823761708
21
21.2123598860
31
0.0000000000
11
91.8943288038
21
21.2807248512
31
0.0000000000
11
92.1186276778
21
21.5320902849
31
0.0000000000
11
92.2573118349
21
21.8831717153
31
0.0000000000
0
SPLINE
5
3BB
100
AcDbEntity
8
0
100
AcDbSpline
62
7
6
CONTINUOUS
70
0
71
3
72
10
73
6
74
4
42
0.0000001000
43
0.0000001000
44
0.0000000001
12
1.6689820757
22
-0.8319172424
32
0.0000000000
13
1.6548349264
23
0.8274174632
33
0.0000000000
40
0.0000000000
40
0.0000000000
40
0.0000000000
40
0.0000000000
40
0.2135317059
40
0.5870643952
40
1.0000000000
40
1.0000000000
40
1.0000000000
40
1.0000000000
10
-83.4352774925
20
-66.5251625219
30
0.0000000000
10
-83.3164839626
20
-66.5843760912
30
0.0000000000
10
-82.9684906982
20
-66.7051937880
30
0.0000000000
10
-82.3365944248
20
-66.6945174461
30
0.0000000000
10
-81.8738292554
20
-66.5263441042
30
0.0000000000
10
-81.6460491683
20
-66.4124540607
30
0.0000000000
11
-83.4352774925
21
-66.5251625219
31
0.0000000000
11
-83.0602952804
21
-66.6554524851
31
0.0000000000
11
-82.3692079872
21
-66.6588961701
31
0.0000000000
11
-81.6460491683
21
-66.4124540607
31
0.0000000000
0
SPLINE
5
3BC
100
AcDbEntity
8
0
100
AcDbSpline
62
7
6
CONTINUOUS
70
0
71
3
72
9
73
5
74
3
42
0.0000001000
43
0.0000001000
44
0.0000000001
12
-0.0730630362
22
0.0354100361
32
0.0000000000
13
-0.0552575829
23
0.0583910119
33
0.0000000000
40
0.0000000000
40
0.0000000000
40
0.0000000000
40
0.0000000000
40
0.4489256040
40
1.0000000000
40
1.0000000000
40
1.0000000000
40
1.0000000000
10
92.4300123111
20
57.0990590386
30
0.0000000000
10
92.4190790219
20
57.1043578625
30
0.0000000000
10
92.3957695740
20
57.1181301036
30
0.0000000000
10
92.3757354839
20
57.1359324844
30
0.0000000000
10
92.3655851375
20
57.1466584150
30
0.0000000000
11
92.4300123111
21
57.0990590386
31
0.0000000000
11
92.3988107025
21
57.1175354968
31
0.0000000000
11
92.3655851375
21
57.1466584150
31
0.0000000000
0
SPLINE
5
3BD
100
AcDbEntity
8
0
100
AcDbSpline
62
7
6
CONTINUOUS
70
0
71
3
72
8
73
4
74
2
42
0.0000001000
43
0.0000001000
44
0.0000000001
12
-0.0659542107
22
0.0696942012
32
0.0000000000
13
-0.0440981777
23
0.0860622738
33
0.0000000000
40
0.0000000000
40
0.0000000000
40
0.0000000000
40
0.0000000000
40
1.0000000000
40
1.0000000000
40
1.0000000000
40
1.0000000000
10
92.3655851375
20
57.1466584150
30
0.0000000000
10
92.3436004006
20
57.1698898154
30
0.0000000000
10
92.3257904626
20
57.1974159516
30
0.0000000000
10
92.3110910700
20
57.2261033761
30
0.0000000000
11
92.3655851375
21
57.1466584150
31
0.0000000000
11
92.3110910700
21
57.2261033761
31
0.0000000000
0
SPLINE
5
3BE
100
AcDbEntity
8
0
100
AcDbSpline
62
7
6
CONTINUOUS
70
0
71
3
72
8
73
4
74
2
42
0.0000001000
43
0.0000001000
44
0.0000000001
12
-0.0515123597
22
0.1005318368
32
0.0000000000
13
-0.0297222266
23
0.1076687370
33
0.0000000000
40
0.0000000000
40
0.0000000000
40
0.0000000000
40
0.0000000000
40
1.0000000000
40
1.0000000000
40
1.0000000000
40
1.0000000000
10
92.3110910700
20
57.2261033761
30
0.0000000000
10
92.2939202834
20
57.2596139884
30
0.0000000000
10
92.2809939149
20
57.2947092081
30
0.0000000000
10
92.2710865061
20
57.3305987871
30
0.0000000000
11
92.3110910700
21
57.2261033761
31
0.0000000000
11
92.2710865061
21
57.3305987871
31
0.0000000000
0
SPLINE
5
3BF
100
AcDbEntity
8
0
100
AcDbSpline
62
7
6
CONTINUOUS
70
0
71
3
72
8
73
4
74
2
42
0.0000001000
43
0.0000001000
44
0.0000000001
12
-0.0162949459
22
0.0590284258
32
0.0000000000
13
-0.0114563321
23
0.0600703206
33
0.0000000000
40
0.0000000000
40
0.0000000000
40
0.0000000000
40
0.0000000000
40
1.0000000000
40
1.0000000000
40
1.0000000000
40
1.0000000000
10
92.2710865061
20
57.3305987871
30
0.0000000000
10
92.2656548574
20
57.3502749291
30
0.0000000000
10
92.2611306123
20
57.3701898302
30
0.0000000000
10
92.2573118349
20
57.3902132704
30
0.0000000000
11
92.2710865061
21
57.3305987871
31
0.0000000000
11
92.2573118349
21
57.3902132704
31
0.0000000000
0
SPLINE
5
3C0
100
AcDbEntity
8
0
100
AcDbSpline
62
7
6
CONTINUOUS
70
0
71
3
72
10
73
6
74
4
42
0.0000001000
43
0.0000001000
44
0.0000000001
12
-0.2337355743
22
0.1140031753
32
0.0000000000
13
-0.0289043493
23
0.2566595261
33
0.0000000000
40
0.0000000000
40
0.0000000000
40
0.0000000000
40
0.0000000000
40
0.1205454484
40
0.6197046715
40
1.0000000000
40
1.0000000000
40
1.0000000000
40
1.0000000000
10
-71.6167272471
20
-24.9266079884
30
0.0000000000
10
-71.6261191670
20
-24.9220271338
30
0.0000000000
10
-71.6723094174
20
-24.8946686535
30
0.0000000000
10
-71.7229874058
20
-24.8193155390
30
0.0000000000
10
-71.7398993937
20
-24.7449184863
30
0.0000000000
10
-71.7435634567
20
-24.7123830134
30
0.0000000000
11
-71.6167272471
21
-24.9266079884
31
0.0000000000
11
-71.6435296612
21
-24.9106518215
31
0.0000000000
11
-71.7201016246
21
-24.8077405688
31
0.0000000000
11
-71.7435634567
21
-24.7123830134
31
0.0000000000
0
SPLINE
5
3C1
100
AcDbEntity
8
0
100
AcDbSpline
62
7
6
CONTINUOUS
70
0
71
3
72
8
73
4
74
2
42
0.0000001000
43
0.0000001000
44
0.0000000001
12
-0.0062631869
22
0.0556146958
32
0.0000000000
13
0.0000000000
23
0.0556837804
33
0.0000000000
40
0.0000000000
40
0.0000000000
40
0.0000000000
40
0.0000000000
40
1.0000000000
40
1.0000000000
40
1.0000000000
40
1.0000000000
10
-71.7435634567
20
-24.7123830134
30
0.0000000000
10
-71.7456511856
20
-24.6938447814
30
0.0000000000
10
-71.7465542317
20
-24.6751881917
30
0.0000000000
10
-71.7465542317
20
-24.6566269315
30
0.0000000000
11
-71.7435634567
21
-24.7123830134
31
0.0000000000
11
-71.7465542317
21
-24.6566269315
31
0.0000000000
0
SPLINE
5
3C2
100
AcDbEntity
8
0
100
AcDbSpline
62
7
6
CONTINUOUS
70
0
71
3
72
9
73
5
74
3
42
0.0000001000
43
0.0000001000
44
0.0000000001
12
0.1213548234
22
-0.0591428781
32
0.0000000000
13
0.1328220073
23
0.0227101517
33
0.0000000000
40
0.0000000000
40
0.0000000000
40
0.0000000000
40
0.0000000000
40
0.6821471215
40
1.0000000000
40
1.0000000000
40
1.0000000000
40
1.0000000000
10
93.8463210704
20
21.4317583618
30
0.0000000000
10
93.8739150183
20
21.4183103138
30
0.0000000000
10
93.9195352537
20
21.4080153436
30
0.0000000000
10
93.9644001324
20
21.4119142290
30
0.0000000000
10
93.9784727516
20
21.4143203913
30
0.0000000000
11
93.8463210704
21
21.4317583618
31
0.0000000000
11
93.9358029567
21
21.4108696967
31
0.0000000000
11
93.9784727516
21
21.4143203913
31
0.0000000000
0
SPLINE
5
3C3
100
AcDbEntity
8
0
100
AcDbSpline
62
7
6
CONTINUOUS
70
0
71
3
72
8
73
4
74
2
42
0.0000001000
43
0.0000001000
44
0.0000000001
12
0.0957078963
22
0.0163643125
32
0.0000000000
13
0.0860194793
23
0.0430097397
33
0.0000000000
40
0.0000000000
40
0.0000000000
40
0.0000000000
40
0.0000000000
40
1.0000000000
40
1.0000000000
40
1.0000000000
40
1.0000000000
10
93.9784727516
20
21.4143203913
30
0.0000000000
10
94.0103753837
20
21.4197751622
30
0.0000000000
10
94.0413127967
20
21.4312269219
30
0.0000000000
10
94.0699859565
20
21.4455635018
30
0.0000000000
11
93.9784727516
21
21.4143203913
31
0.0000000000
11
94.0699859565
21
21.4455635018
31
0.0000000000
0
SPLINE
5
3C4
100
AcDbEntity
8
0
100
AcDbSpline
62
7
6
CONTINUOUS
70
0
71
3
72
8
73
4
74
2
42
0.0000001000
43
0.0000001000
44
0.0000000001
12
-0.0359683866
22
0.0291296740
32
0.0000000000
13
-0.0366592831
23
0.0280873453
33
0.0000000000
40
0.0000000000
40
0.0000000000
40
0.0000000000
40
0.0000000000
40
1.0000000000
40
1.0000000000
40
1.0000000000
40
1.0000000000
10
-96.1635460871
20
-35.1970066649
30
0.0000000000
10
-96.1755355493
20
-35.1872967736
30
0.0000000000
10
-96.1876544274
20
-35.1777638340
30
0.0000000000
10
-96.1998741885
20
-35.1684013856
30
0.0000000000
11
-96.1635460871
21
-35.1970066649
31
0.0000000000
11
-96.1998741885
21
-35.1684013856
31
0.0000000000
0
SPLINE
5
3C5
100
AcDbEntity
8
0
100
AcDbSpline
62
7
6
CONTINUOUS
70
0
71
3
72
8
73
4
74
2
42
0.0000001000
43
0.0000001000
44
0.0000000001
12
-0.0993401732
22
0.0761117378
32
0.0000000000
13
-0.1035228373
23
0.0688854984
33
0.0000000000
40
0.0000000000
40
0.0000000000
40
0.0000000000
40
0.0000000000
40
1.0000000000
40
1.0000000000
40
1.0000000000
40
1.0000000000
10
-96.1998741885
20
-35.1684013856
30
0.0000000000
10
-96.2329875795
20
-35.1430308063
30
0.0000000000
10
-96.2668417680
20
-35.1189121675
30
0.0000000000
10
-96.3013493804
20
-35.0959503347
30
0.0000000000
11
-96.1998741885
21
-35.1684013856
31
0.0000000000
11
-96.3013493804
21
-35.0959503347
31
0.0000000000
0
SPLINE
5
3C6
100
AcDbEntity
8
0
100
AcDbSpline
62
7
6
CONTINUOUS
70
0
71
3
72
8
73
4
74
2
42
0.0000001000
43
0.0000001000
44
0.0000000001
12
-0.0643935272
22
0.0428483253
32
0.0000000000
13
-0.0658473484
23
0.0402315204
33
0.0000000000
40
0.0000000000
40
0.0000000000
40
0.0000000000
40
0.0000000000
40
1.0000000000
40
1.0000000000
40
1.0000000000
40
1.0000000000
10
-96.3013493804
20
-35.0959503347
30
0.0000000000
10
-96.3228138895
20
-35.0816675596
30
0.0000000000
10
-96.3445312161
20
-35.0678323665
30
0.0000000000
10
-96.3664803322
20
-35.0544218597
30
0.0000000000
11
-96.3013493804
21
-35.0959503347
31
0.0000000000
11
-96.3664803322
21
-35.0544218597
31
0.0000000000
0
SPLINE
5
3C7
100
AcDbEntity
8
0
100
AcDbSpline
62
7
6
CONTINUOUS
70
0
71
3
72
12
73
8
74
6
42
0.0000001000
43
0.0000001000
44
0.0000000001
12
-3.1329616113
22
1.9141819958
32
0.0000000000
13
-3.3671500582
23
-1.4289580298
33
0.0000000000
40
0.0000000000
40
0.0000000000
40
0.0000000000
40
0.0000000000
40
0.1234918052
40
0.3349690342
40
0.5643799897
40
0.7924005613
40
1.0000000000
40
1.0000000000
40
1.0000000000
40
1.0000000000
10
-96.3664803322
20
-35.0544218597
30
0.0000000000
10
-96.4954453606
20
-34.9756265963
30
0.0000000000
10
-96.8669659240
20
-34.8016650242
30
0.0000000000
10
-97.5392523247
20
-34.6327403791
30
0.0000000000
10
-98.3564794605
20
-34.5751696710
30
0.0000000000
10
-99.1671583267
20
-34.6512631988
30
0.0000000000
10
-99.6831607654
20
-34.7958746928
30
0.0000000000
10
-99.9161669194
20
-34.8947583211
30
0.0000000000
11
-96.3664803322
21
-35.0544218597
31
0.0000000000
11
-96.7731162800
21
-34.8573762372
31
0.0000000000
11
-97.5209873901
21
-34.6597390254
31
0.0000000000
11
-98.3578648840
21
-34.5981169362
31
0.0000000000
11
-99.1879359205
21
-34.6795649897
31
0.0000000000
11
-99.9161669194
21
-34.8947583211
31
0.0000000000
0
SPLINE
5
3C8
100
AcDbEntity
8
0
100
AcDbSpline
62
7
6
CONTINUOUS
70
0
71
3
72
13
73
9
74
7
42
0.0000001000
43
0.0000001000
44
0.0000000001
12
0.0216584085
22
-2.3315048855
32
0.0000000000
13
2.1560877505
23
0.9150049302
33
0.0000000000
40
0.0000000000
40
0.0000000000
40
0.0000000000
40
0.0000000000
40
0.1008935186
40
0.2387575376
40
0.4137043178
40
0.6127810446
40
0.8153962953
40
1.0000000000
40
1.0000000000
40
1.0000000000
40
1.0000000000
10
-101.9852460098
20
-34.4156080328
30
0.0000000000
10
-101.9845176121
20
-34.4940192767
30
0.0000000000
10
-101.9055848515
20
-34.6813110839
30
0.0000000000
10
-101.6337198811
20
-34.8706108272
30
0.0000000000
10
-101.2535977765
20
-35.0028196150
30
0.0000000000
10
-100.8033857879
20
-35.0572259724
30
0.0000000000
10
-100.3444248476
20
-35.0289318827
30
0.0000000000
10
-100.0488408482
20
-34.9510627544
30
0.0000000000
10
-99.9161669194
20
-34.8947583211
30
0.0000000000
11
-101.9852460098
21
-34.4156080328
31
0.0000000000
11
-101.9038846620
21
-34.6383735678
31
0.0000000000
11
-101.6528973144
21
-34.8415335107
31
0.0000000000
11
-101.2683935223
21
-34.9831733111
31
0.0000000000
11
-100.8059450001
21
-35.0428219965
31
0.0000000000
11
-100.3323886886
21
-35.0118586384
31
0.0000000000
11
-99.9161669194
21
-34.8947583211
31
0.0000000000
0
SPLINE
5
3C9
100
AcDbEntity
8
0
100
AcDbSpline
62
7
6
CONTINUOUS
70
0
71
3
72
11
73
7
74
5
42
0.0000001000
43
0.0000001000
44
0.0000000001
12
-2.9606005121
22
1.0766938618
32
0.0000000000
13
-2.8968263924
23
-1.2293611104
33
0.0000000000
40
0.0000000000
40
0.0000000000
40
0.0000000000
40
0.0000000000
40
0.2269957699
40
0.4936534868
40
0.7586950796
40
1.0000000000
40
1.0000000000
40
1.0000000000
40
1.0000000000
10
-78.0903092323
20
-25.4674422857
30
0.0000000000
10
-78.3143238299
20
-25.3859739683
30
0.0000000000
10
-78.8207003094
20
-25.2621822617
30
0.0000000000
10
-79.6181497591
20
-25.2060048203
30
0.0000000000
10
-80.4288286252
20
-25.2820983480
30
0.0000000000
10
-80.9448310640
20
-25.4267098421
30
0.0000000000
10
-81.1778372179
20
-25.5255934704
30
0.0000000000
11
-78.0903092323
21
-25.4674422857
31
0.0000000000
11
-78.7826576887
21
-25.2905741747
31
0.0000000000
11
-79.6195351826
21
-25.2289520855
31
0.0000000000
11
-80.4496062191
21
-25.3104001390
31
0.0000000000
11
-81.1778372179
21
-25.5255934704
31
0.0000000000
0
SPLINE
5
3CA
100
AcDbEntity
8
0
100
AcDbSpline
62
7
6
CONTINUOUS
70
0
71
3
72
13
73
9
74
7
42
0.0000001000
43
0.0000001000
44
0.0000000001
12
0.0216584085
22
-2.3315048855
32
0.0000000000
13
2.1560877505
23
0.9150049302
33
0.0000000000
40
0.0000000000
40
0.0000000000
40
0.0000000000
40
0.0000000000
40
0.1008935186
40
0.2387575376
40
0.4137043178
40
0.6127810446
40
0.8153962953
40
1.0000000000
40
1.0000000000
40
1.0000000000
40
1.0000000000
10
-83.2469163084
20
-25.0464431821
30
0.0000000000
10
-83.2461879107
20
-25.1248544259
30
0.0000000000
10
-83.1672551501
20
-25.3121462332
30
0.0000000000
10
-82.8953901797
20
-25.5014459765
30
0.0000000000
10
-82.5152680751
20
-25.6336547643
30
0.0000000000
10
-82.0650560865
20
-25.6880611217
30
0.0000000000
10
-81.6060951461
20
-25.6597670320
30
0.0000000000
10
-81.3105111468
20
-25.5818979037
30
0.0000000000
10
-81.1778372179
20
-25.5255934704
30
0.0000000000
11
-83.2469163084
21
-25.0464431821
31
0.0000000000
11
-83.1655549606
21
-25.2692087170
31
0.0000000000
11
-82.9145676129
21
-25.4723686600
31
0.0000000000
11
-82.5300638208
21
-25.6140084604
31
0.0000000000
11
-82.0676152986
21
-25.6736571458
31
0.0000000000
11
-81.5940589871
21
-25.6426937877
31
0.0000000000
11
-81.1778372179
21
-25.5255934704
31
0.0000000000
0
SPLINE
5
3CB
100
AcDbEntity
8
0
100
AcDbSpline
62
7
6
CONTINUOUS
70
0
71
3
72
10
73
6
74
4
42
0.0000001000
43
0.0000001000
44
0.0000000001
12
0.0000000000
22
-0.3127152149
32
0.0000000000
13
0.2843360788
23
-0.1385726054
33
0.0000000000
40
0.0000000000
40
0.0000000000
40
0.0000000000
40
0.0000000000
40
0.4928510982
40
0.9047887510
40
1.0000000000
40
1.0000000000
40
1.0000000000
40
1.0000000000
10
93.7164325659
20
21.7017995084
30
0.0000000000
10
93.7164325659
20
21.6504254960
30
0.0000000000
10
93.7291019213
20
21.5547432968
30
0.0000000000
10
93.7912386579
20
21.4632421881
30
0.0000000000
10
93.8372970727
20
21.4361562521
30
0.0000000000
10
93.8463210704
20
21.4317583618
30
0.0000000000
11
93.7164325659
21
21.7017995084
31
0.0000000000
11
93.7431571576
21
21.5500121620
31
0.0000000000
11
93.8205158975
21
21.4470072867
31
0.0000000000
11
93.8463210704
21
21.4317583618
31
0.0000000000
0
SPLINE
5
3CC
100
AcDbEntity
8
0
100
AcDbSpline
62
7
6
CONTINUOUS
70
0
71
3
72
9
73
5
74
3
42
0.0000001000
43
0.0000001000
44
0.0000000001
12
-0.2087997815
22
0.1017596144
32
0.0000000000
13
-0.2053960444
23
-0.1026980222
33
0.0000000000
40
0.0000000000
40
0.0000000000
40
0.0000000000
40
0.0000000000
40
0.3964651825
40
1.0000000000
40
1.0000000000
40
1.0000000000
40
1.0000000000
10
-71.8764427363
20
-23.5205603812
30
0.0000000000
10
-71.9040366841
20
-23.5071123332
30
0.0000000000
10
-71.9825296103
20
-23.4893990898
30
0.0000000000
10
-72.0587864009
20
-23.5137049104
30
0.0000000000
10
-72.1001076223
20
-23.5343655211
30
0.0000000000
11
-71.8764427363
21
-23.5205603812
31
0.0000000000
11
-71.9659246225
21
-23.4996717161
31
0.0000000000
11
-72.1001076223
21
-23.5343655211
31
0.0000000000
0
SPLINE
5
3CD
100
AcDbEntity
8
0
100
AcDbSpline
62
7
6
CONTINUOUS
70
0
71
3
72
11
73
7
74
5
42
0.0000001000
43
0.0000001000
44
0.0000000001
12
0.1398838315
22
-0.7334691887
32
0.0000000000
13
-0.6678589893
23
-0.3339294947
33
0.0000000000
40
0.0000000000
40
0.0000000000
40
0.0000000000
40
0.0000000000
40
0.2550680363
40
0.5141884125
40
0.7712634802
40
1.0000000000
40
1.0000000000
40
1.0000000000
40
1.0000000000
10
-70.3772478380
20
-23.9270665660
30
0.0000000000
10
-70.3653545399
20
-23.9894280812
30
0.0000000000
10
-70.3653217232
20
-24.1205995622
30
0.0000000000
10
-70.4287904456
20
-24.3048641352
30
0.0000000000
10
-70.5377337341
20
-24.4576421521
30
0.0000000000
10
-70.6349728127
20
-24.5338489242
30
0.0000000000
10
-70.6858940597
20
-24.5593095476
30
0.0000000000
11
-70.3772478380
21
-23.9270665660
31
0.0000000000
11
-70.3757423598
21
-24.1175171255
31
0.0000000000
11
-70.4372774912
21
-24.3009533443
31
0.0000000000
11
-70.5492120811
21
-24.4568937900
31
0.0000000000
11
-70.6858940597
21
-24.5593095476
31
0.0000000000
0
SPLINE
5
3CE
100
AcDbEntity
8
0
100
AcDbSpline
62
7
6
CONTINUOUS
70
0
71
3
72
12
73
8
74
6
42
0.0000001000
43
0.0000001000
44
0.0000000001
12
2.2216588576
22
-1.1108294288
32
0.0000000000
13
0.4653289964
23
-2.4399137330
33
0.0000000000
40
0.0000000000
40
0.0000000000
40
0.0000000000
40
0.0000000000
40
0.1789425301
40
0.3747786884
40
0.5833478544
40
0.7950705538
40
1.0000000000
40
1.0000000000
40
1.0000000000
40
1.0000000000
10
-71.7465542317
20
-21.9433752635
30
0.0000000000
10
-71.6140378127
20
-22.0096334730
30
0.0000000000
10
-71.3549813366
20
-22.1863449241
30
0.0000000000
10
-71.0165286945
20
-22.5342249840
30
0.0000000000
10
-70.7268124732
20
-22.9570337247
30
0.0000000000
10
-70.5049189573
20
-23.4269598312
30
0.0000000000
10
-70.4090343758
20
-23.7603965093
30
0.0000000000
10
-70.3772478380
20
-23.9270665660
30
0.0000000000
11
-71.7465542317
21
-21.9433752635
31
0.0000000000
11
-71.3761452827
21
-22.1890457240
31
0.0000000000
11
-71.0343452013
21
-22.5351558186
31
0.0000000000
11
-70.7402308691
21
-22.9616366708
31
0.0000000000
11
-70.5159319951
21
-23.4373009785
31
0.0000000000
11
-70.3772478380
21
-23.9270665660
31
0.0000000000
0
SPLINE
5
3CF
100
AcDbEntity
8
0
100
AcDbSpline
62
7
6
CONTINUOUS
70
0
71
3
72
9
73
5
74
3
42
0.0000001000
43
0.0000001000
44
0.0000000001
12
-0.2075128617
22
-0.1037564309
32
0.0000000000
13
-0.2118814381
23
0.1026884421
33
0.0000000000
40
0.0000000000
40
0.0000000000
40
0.0000000000
40
0.0000000000
40
0.6105375990
40
1.0000000000
40
1.0000000000
40
1.0000000000
40
1.0000000000
10
92.6557723944
20
57.1115236794
30
0.0000000000
10
92.6135409263
20
57.0904079453
30
0.0000000000
10
92.5357695899
20
57.0658634171
30
0.0000000000
10
92.4575189290
20
57.0857279428
30
0.0000000000
10
92.4300123111
20
57.0990590386
30
0.0000000000
11
92.6557723944
21
57.1115236794
31
0.0000000000
11
92.5183976051
21
57.0769909791
31
0.0000000000
11
92.4300123111
21
57.0990590386
31
0.0000000000
0
SPLINE
5
3D0
100
AcDbEntity
8
0
100
AcDbSpline
62
7
6
CONTINUOUS
70
0
71
3
72
11
73
7
74
5
42
0.0000001000
43
0.0000001000
44
0.0000000001
12
0.0000000000
22
-0.7341140818
32
0.0000000000
13
-0.6566115960
23
-0.3283057980
33
0.0000000000
40
0.0000000000
40
0.0000000000
40
0.0000000000
40
0.0000000000
40
0.2458763493
40
0.5132100427
40
0.7724571074
40
1.0000000000
40
1.0000000000
40
1.0000000000
40
1.0000000000
10
93.7164325659
20
58.0748664673
30
0.0000000000
10
93.7164325659
20
58.0146993705
30
0.0000000000
10
93.6956073139
20
57.8889027454
30
0.0000000000
10
93.6198678915
20
57.7139355979
30
0.0000000000
10
93.5085544620
20
57.5647191481
30
0.0000000000
10
93.4126816093
20
57.4899782871
30
0.0000000000
10
93.3628791753
20
57.4650770701
30
0.0000000000
11
93.7164325659
21
58.0748664673
31
0.0000000000
11
93.6897079742
21
57.8963545293
31
0.0000000000
11
93.6123492343
21
57.7159909140
31
0.0000000000
11
93.4970621751
21
57.5645662649
31
0.0000000000
11
93.3628791753
21
57.4650770701
31
0.0000000000
0
SPLINE
5
3D1
100
AcDbEntity
8
0
100
AcDbSpline
62
7
6
CONTINUOUS
70
0
71
3
72
9
73
5
74
3
42
0.0000001000
43
0.0000001000
44
0.0000000001
12
-0.2054369141
22
-0.1027184570
32
0.0000000000
13
-0.2089112229
23
0.1018952414
33
0.0000000000
40
0.0000000000
40
0.0000000000
40
0.0000000000
40
0.0000000000
40
0.6061991326
40
1.0000000000
40
1.0000000000
40
1.0000000000
40
1.0000000000
10
-71.3930008411
20
-24.9128629381
30
0.0000000000
10
-71.4345127342
20
-24.9336188846
30
0.0000000000
10
-71.5108566297
20
-24.9579075518
30
0.0000000000
10
-71.5893041068
20
-24.9399834666
30
0.0000000000
10
-71.6167272471
20
-24.9266079884
30
0.0000000000
11
-71.3930008411
21
-24.9128629381
31
0.0000000000
11
-71.5278449593
21
-24.9475541906
31
0.0000000000
11
-71.6167272471
21
-24.9266079884
31
0.0000000000
0
SPLINE
5
3D2
100
AcDbEntity
8
0
100
AcDbSpline
62
7
6
CONTINUOUS
70
0
71
3
72
10
73
6
74
4
42
0.0000001000
43
0.0000001000
44
0.0000000001
12
-1.4437163471
22
-0.7218581736
32
0.0000000000
13
-1.4514917354
23
0.7340385495
33
0.0000000000
40
0.0000000000
40
0.0000000000
40
0.0000000000
40
0.0000000000
40
0.4954927392
40
0.9261928524
40
1.0000000000
40
1.0000000000
40
1.0000000000
40
1.0000000000
10
-79.5600841638
20
-49.3480015884
30
0.0000000000
10
-79.7985344863
20
-49.4672267496
30
0.0000000000
10
-80.2815540331
20
-49.6322010155
30
0.0000000000
10
-80.8389717155
20
-49.5775471860
30
0.0000000000
10
-81.0884540170
20
-49.4654810661
30
0.0000000000
10
-81.1241641719
20
-49.4474219689
30
0.0000000000
11
-79.5600841638
21
-49.3480015884
31
0.0000000000
11
-80.3248622066
21
-49.5820385590
31
0.0000000000
11
-81.0147784461
21
-49.4964622585
31
0.0000000000
11
-81.1241641719
21
-49.4474219689
31
0.0000000000
0
SPLINE
5
3D3
100
AcDbEntity
8
0
100
AcDbSpline
62
7
6
CONTINUOUS
70
0
71
3
72
10
73
6
74
4
42
0.0000001000
43
0.0000001000
44
0.0000000001
12
-1.4437163471
22
-0.7218581736
32
0.0000000000
13
-1.4514917354
23
0.7340385495
33
0.0000000000
40
0.0000000000
40
0.0000000000
40
0.0000000000
40
0.0000000000
40
0.4954927392
40
0.9261928524
40
1.0000000000
40
1.0000000000
40
1.0000000000
40
1.0000000000
10
99.0550887639
20
39.9595848755
30
0.0000000000
10
98.8166384414
20
39.8403597142
30
0.0000000000
10
98.3336188947
20
39.6753854483
30
0.0000000000
10
97.7762012123
20
39.7300392778
30
0.0000000000
10
97.5267189107
20
39.8421053978
30
0.0000000000
10
97.4910087558
20
39.8601644950
30
0.0000000000
11
99.0550887639
21
39.9595848755
31
0.0000000000
11
98.2903107211
21
39.7255479049
31
0.0000000000
11
97.6003944817
21
39.8111242053
31
0.0000000000
11
97.4910087558
21
39.8601644950
31
0.0000000000
0
SPLINE
5
3D4
100
AcDbEntity
8
0
100
AcDbSpline
62
7
6
CONTINUOUS
70
0
71
3
72
9
73
5
74
3
42
0.0000001000
43
0.0000001000
44
0.0000000001
12
0.0000000000
22
-1.1064226065
32
0.0000000000
13
0.3621453906
23
-1.0507306266
33
0.0000000000
40
0.0000000000
40
0.0000000000
40
0.0000000000
40
0.0000000000
40
0.7626507924
40
1.0000000000
40
1.0000000000
40
1.0000000000
40
1.0000000000
10
-84.4744762931
20
-64.3625660079
30
0.0000000000
10
-84.4744762931
20
-64.6438373671
30
0.0000000000
10
-84.4383095886
20
-65.0145999436
30
0.0000000000
10
-84.3354071526
20
-65.3712093458
30
0.0000000000
10
-84.3067555121
20
-65.4543393730
30
0.0000000000
11
-84.4744762931
21
-64.3625660079
31
0.0000000000
11
-84.3804952420
21
-65.2011301137
31
0.0000000000
11
-84.3067555121
21
-65.4543393730
31
0.0000000000
0
SPLINE
5
3D5
100
AcDbEntity
8
0
100
AcDbSpline
62
7
6
CONTINUOUS
70
0
71
3
72
10
73
6
74
4
42
0.0000001000
43
0.0000001000
44
0.0000000001
12
0.4610690672
22
-1.3377483255
32
0.0000000000
13
1.2707088456
23
-0.6333948184
33
0.0000000000
40
0.0000000000
40
0.0000000000
40
0.0000000000
40
0.0000000000
40
0.3536013620
40
0.8267397034
40
1.0000000000
40
1.0000000000
40
1.0000000000
40
1.0000000000
10
-84.3067555121
20
-65.4543393730
30
0.0000000000
10
-84.2524106287
20
-65.6120159163
30
0.0000000000
10
-84.0897868986
20
-65.9679632718
30
0.0000000000
10
-83.7713806796
20
-66.3303661690
30
0.0000000000
10
-83.5086652896
20
-66.4885817972
30
0.0000000000
10
-83.4352774925
20
-66.5251625219
30
0.0000000000
11
-84.3067555121
21
-65.4543393730
31
0.0000000000
11
-84.0948946163
21
-65.9061920144
31
0.0000000000
11
-83.6454135889
21
-66.3983025740
31
0.0000000000
11
-83.4352774925
21
-66.5251625219
31
0.0000000000
0
SPLINE
5
3D6
100
AcDbEntity
8
0
100
AcDbSpline
62
7
6
CONTINUOUS
70
0
71
3
72
11
73
7
74
5
42
0.0000001000
43
0.0000001000
44
0.0000000001
12
-0.6566099587
22
-0.3283049793
32
0.0000000000
13
0.0000000000
23
-0.7341122511
33
0.0000000000
40
0.0000000000
40
0.0000000000
40
0.0000000000
40
0.0000000000
40
0.2288053962
40
0.4896416176
40
0.7554518453
40
1.0000000000
40
1.0000000000
40
1.0000000000
40
1.0000000000
10
94.0699859565
20
59.5506812683
30
0.0000000000
10
94.0199073226
20
59.5256419513
30
0.0000000000
10
93.9235334224
20
59.4503521997
30
0.0000000000
10
93.8123171200
20
59.3006352025
30
0.0000000000
10
93.7370350981
20
59.1258322495
30
0.0000000000
10
93.7164325659
20
59.0007338032
30
0.0000000000
10
93.7164325659
20
58.9408918711
30
0.0000000000
11
94.0699859565
21
59.5506812683
31
0.0000000000
11
93.9351418383
21
59.4505284026
31
0.0000000000
11
93.8194571365
21
59.2979413317
31
0.0000000000
11
93.7428851730
21
59.1184581155
31
0.0000000000
11
93.7164325659
21
58.9408918711
31
0.0000000000
0
SPLINE
5
3D7
100
AcDbEntity
8
0
100
AcDbSpline
62
7
6
CONTINUOUS
70
0
71
3
72
15
73
11
74
9
42
0.0000001000
43
0.0000001000
44
0.0000000001
12
6.6022267274
22
-3.3388332930
32
0.0000000000
13
-6.5668597494
23
-3.2834298747
33
0.0000000000
40
0.0000000000
40
0.0000000000
40
0.0000000000
40
0.0000000000
40
0.0758734491
40
0.1788317495
40
0.2992935939
40
0.4361167810
40
0.5831579338
40
0.7318344469
40
0.8732086974
40
1.0000000000
40
1.0000000000
40
1.0000000000
40
1.0000000000
10
103.0940425061
20
47.3586199495
30
0.0000000000
10
103.2610204107
20
47.2741770169
30
0.0000000000
10
103.6139753518
20
46.9893786861
30
0.0000000000
10
103.9411806625
20
46.3113088250
30
0.0000000000
10
104.0439353424
20
45.4243646922
30
0.0000000000
10
103.9124256333
20
44.4353379244
30
0.0000000000
10
103.5615859618
20
43.4297178271
30
0.0000000000
10
103.0233140218
20
42.4976236534
30
0.0000000000
10
102.3477239017
20
41.7246892638
30
0.0000000000
10
101.8075027318
20
41.3357918594
30
0.0000000000
10
101.5299624980
20
41.1970217425
30
0.0000000000
11
103.0940425061
21
47.3586199495
31
0.0000000000
11
103.5321774079
21
47.0108474723
31
0.0000000000
11
103.8837072899
21
46.3416410374
31
0.0000000000
11
104.0048362322
21
45.4655475229
31
0.0000000000
11
103.8837072899
21
44.4683250661
31
0.0000000000
11
103.5321774079
21
43.4475887491
31
0.0000000000
11
102.9846567803
21
42.5032553546
31
0.0000000000
11
102.2947405408
21
41.7277628148
31
0.0000000000
11
101.5299624980
21
41.1970217425
31
0.0000000000
0
SPLINE
5
3D8
100
AcDbEntity
8
0
100
AcDbSpline
62
7
6
CONTINUOUS
70
0
71
3
72
10
73
6
74
4
42
0.0000001000
43
0.0000001000
44
0.0000000001
12
-0.0001309044
22
-1.4467296265
32
0.0000000000
13
1.2882137365
23
-0.6441068683
33
0.0000000000
40
0.0000000000
40
0.0000000000
40
0.0000000000
40
0.0000000000
40
0.2790201049
40
0.6089430968
40
1.0000000000
40
1.0000000000
40
1.0000000000
40
1.0000000000
10
-76.1607677550
20
-19.1149550258
30
0.0000000000
10
-76.1607799300
20
-19.2495105765
30
0.0000000000
10
-76.0751951904
20
-19.5431434287
30
0.0000000000
10
-75.7469653779
20
-19.9075061648
30
0.0000000000
10
-75.4500097625
20
-20.0916474981
30
0.0000000000
10
-75.2820881377
20
-20.1756083105
30
0.0000000000
11
-76.1607677550
21
-19.1149550258
31
0.0000000000
11
-76.0583544339
21
-19.5035326419
31
0.0000000000
11
-75.7544026828
21
-19.8687813537
31
0.0000000000
11
-75.2820881377
21
-20.1756083105
31
0.0000000000
0
SPLINE
5
3D9
100
AcDbEntity
8
0
100
AcDbSpline
62
7
6
CONTINUOUS
70
0
71
3
72
13
73
9
74
7
42
0.0000001000
43
0.0000001000
44
0.0000000001
12
-5.2620471979
22
-2.6310235989
32
0.0000000000
13
-0.0000000000
23
-5.8831476176
33
0.0000000000
40
0.0000000000
40
0.0000000000
40
0.0000000000
40
0.0000000000
40
0.1472024546
40
0.3140537847
40
0.4885176639
40
0.6657350659
40
0.8406608986
40
1.0000000000
40
1.0000000000
40
1.0000000000
40
1.0000000000
10
-81.6460491683
20
-28.3073362941
30
0.0000000000
10
-81.9042445895
20
-28.4364340047
30
0.0000000000
10
-82.4193166189
20
-28.7852624231
30
0.0000000000
10
-83.0931510165
20
-29.4732138573
30
0.0000000000
10
-83.6731502536
20
-30.3140373907
30
0.0000000000
10
-84.1198903324
20
-31.2499235408
30
0.0000000000
10
-84.4028860307
20
-32.2167770617
30
0.0000000000
10
-84.4744762931
20
-32.8731796534
30
0.0000000000
10
-84.4744762931
20
-33.1856514717
30
0.0000000000
11
-81.6460491683
21
-28.3073362941
31
0.0000000000
11
-82.3691014971
21
-28.7839652688
31
0.0000000000
11
-83.0613780955
21
-29.4798914697
31
0.0000000000
11
-83.6466845459
21
-30.3230442780
31
0.0000000000
11
-84.0955201182
21
-31.2640827116
31
0.0000000000
11
-84.3804670813
21
-32.2529618111
31
0.0000000000
11
-84.4744762931
21
-33.1856514717
31
0.0000000000
0
SPLINE
5
3DA
100
AcDbEntity
8
0
100
AcDbSpline
62
7
6
CONTINUOUS
70
0
71
3
72
15
73
11
74
9
42
0.0000001000
43
0.0000001000
44
0.0000000001
12
6.6022267274
22
-3.3388332930
32
0.0000000000
13
-6.5668597494
23
-3.2834298747
33
0.0000000000
40
0.0000000000
40
0.0000000000
40
0.0000000000
40
0.0000000000
40
0.0758734491
40
0.1788317495
40
0.2992935939
40
0.4361167810
40
0.5831579338
40
0.7318344469
40
0.8732086974
40
1.0000000000
40
1.0000000000
40
1.0000000000
40
1.0000000000
10
-75.5211304216
20
-41.9489665143
30
0.0000000000
10
-75.3541525170
20
-42.0334094470
30
0.0000000000
10
-75.0011975759
20
-42.3182077778
30
0.0000000000
10
-74.6739922652
20
-42.9962776389
30
0.0000000000
10
-74.5712375853
20
-43.8832217716
30
0.0000000000
10
-74.7027472944
20
-44.8722485395
30
0.0000000000
10
-75.0535869660
20
-45.8778686368
30
0.0000000000
10
-75.5918589059
20
-46.8099628105
30
0.0000000000
10
-76.2674490260
20
-47.5828972000
30
0.0000000000
10
-76.8076701959
20
-47.9717946044
30
0.0000000000
10
-77.0852104297
20
-48.1105647213
30
0.0000000000
11
-75.5211304216
21
-41.9489665143
31
0.0000000000
11
-75.0829955198
21
-42.2967389915
31
0.0000000000
11
-74.7314656378
21
-42.9659454265
31
0.0000000000
11
-74.6103366955
21
-43.8420389410
31
0.0000000000
11
-74.7314656378
21
-44.8392613978
31
0.0000000000
11
-75.0829955198
21
-45.8599977147
31
0.0000000000
11
-75.6305161475
21
-46.8043311092
31
0.0000000000
11
-76.3204323869
21
-47.5798236491
31
0.0000000000
11
-77.0852104297
21
-48.1105647213
31
0.0000000000
0
SPLINE
5
3DB
100
AcDbEntity
8
0
100
AcDbSpline
62
7
6
CONTINUOUS
70
0
71
3
72
9
73
5
74
3
42
0.0000001000
43
0.0000001000
44
0.0000000001
12
0.4216956316
22
0.2101415388
32
0.0000000000
13
0.2428877099
23
0.4028906075
33
0.0000000000
40
0.0000000000
40
0.0000000000
40
0.0000000000
40
0.0000000000
40
0.2790993638
40
1.0000000000
40
1.0000000000
40
1.0000000000
40
1.0000000000
10
-70.8521835021
20
-60.1049199504
30
0.0000000000
10
-70.8129518413
20
-60.0853698272
30
0.0000000000
10
-70.6784342009
20
-60.0034292017
30
0.0000000000
10
-70.5742979633
20
-59.8820042500
30
0.0000000000
10
-70.5159319951
20
-59.7851895516
30
0.0000000000
11
-70.8521835021
21
-60.1049199504
31
0.0000000000
11
-70.7402308691
21
-60.0365549852
31
0.0000000000
11
-70.5159319951
21
-59.7851895516
31
0.0000000000
0
SPLINE
5
3DC
100
AcDbEntity
8
0
100
AcDbSpline
62
7
6
CONTINUOUS
70
0
71
3
72
8
73
4
74
2
42
0.0000001000
43
0.0000001000
44
0.0000000001
12
0.1961949578
22
0.3254388861
32
0.0000000000
13
0.0865849476
23
0.3674159945
33
0.0000000000
40
0.0000000000
40
0.0000000000
40
0.0000000000
40
0.0000000000
40
1.0000000000
40
1.0000000000
40
1.0000000000
40
1.0000000000
10
-70.5159319951
20
-59.7851895516
30
0.0000000000
10
-70.4505336758
20
-59.6767099229
30
0.0000000000
10
-70.4061094872
20
-59.5565801194
30
0.0000000000
10
-70.3772478380
20
-59.4341081212
30
0.0000000000
11
-70.5159319951
21
-59.7851895516
31
0.0000000000
11
-70.3772478380
21
-59.4341081212
31
0.0000000000
0
SPLINE
5
3DD
100
AcDbEntity
8
0
100
AcDbSpline
62
7
6
CONTINUOUS
70
0
71
3
72
10
73
6
74
4
42
0.0000001000
43
0.0000001000
44
0.0000000001
12
-1.6689820757
22
0.8319172424
32
0.0000000000
13
-1.6548349264
23
-0.8274174632
33
0.0000000000
40
0.0000000000
40
0.0000000000
40
0.0000000000
40
0.0000000000
40
0.2135317059
40
0.5870643952
40
1.0000000000
40
1.0000000000
40
1.0000000000
40
1.0000000000
10
105.4051558267
20
64.4363605025
30
0.0000000000
10
105.2863622968
20
64.4955740718
30
0.0000000000
10
104.9383690324
20
64.6163917686
30
0.0000000000
10
104.3064727590
20
64.6057154268
30
0.0000000000
10
103.8437075896
20
64.4375420848
30
0.0000000000
10
103.6159275025
20
64.3236520413
30
0.0000000000
11
105.4051558267
21
64.4363605025
31
0.0000000000
11
105.0301736146
21
64.5666504657
31
0.0000000000
11
104.3390863214
21
64.5700941507
31
0.0000000000
11
103.6159275025
21
64.3236520413
31
0.0000000000
0
SPLINE
5
3DE
100
AcDbEntity
8
0
100
AcDbSpline
62
7
6
CONTINUOUS
70
0
71
3
72
9
73
5
74
3
42
0.0000001000
43
0.0000001000
44
0.0000000001
12
0.0964913926
22
-0.0475937651
32
0.0000000000
13
0.0491436810
23
-0.0971281778
33
0.0000000000
40
0.0000000000
40
0.0000000000
40
0.0000000000
40
0.0000000000
40
0.3008571456
40
1.0000000000
40
1.0000000000
40
1.0000000000
40
1.0000000000
10
-70.4642859343
20
-59.1852855777
30
0.0000000000
10
-70.4546092260
20
-59.1900585525
30
0.0000000000
10
-70.4241124547
20
-59.2088939546
30
0.0000000000
10
-70.4014585459
20
-59.2379732624
30
0.0000000000
10
-70.3900057281
20
-59.2606087529
30
0.0000000000
11
-70.4642859343
21
-59.1852855777
31
0.0000000000
11
-70.4369687797
21
-59.2023193105
31
0.0000000000
11
-70.3900057281
21
-59.2606087529
31
0.0000000000
0
SPLINE
5
3DF
100
AcDbEntity
8
0
100
AcDbSpline
62
7
6
CONTINUOUS
70
0
71
3
72
9
73
5
74
3
42
0.0000001000
43
0.0000001000
44
0.0000000001
12
0.0810098395
22
-0.1601088467
32
0.0000000000
13
-0.0402313023
23
-0.1707181717
33
0.0000000000
40
0.0000000000
40
0.0000000000
40
0.0000000000
40
0.0000000000
40
0.2219951086
40
1.0000000000
40
1.0000000000
40
1.0000000000
40
1.0000000000
10
-70.3900057281
20
-59.2606087529
30
0.0000000000
10
-70.3840111320
20
-59.2724565465
30
0.0000000000
10
-70.3624200158
20
-59.3286706485
30
0.0000000000
10
-70.3668144546
20
-59.3898349303
30
0.0000000000
10
-70.3772478380
20
-59.4341081212
30
0.0000000000
11
-70.3900057281
21
-59.2606087529
31
0.0000000000
11
-70.3757055033
21
-59.2976590118
31
0.0000000000
11
-70.3772478380
21
-59.4341081212
31
0.0000000000
0
SPLINE
5
3E0
100
AcDbEntity
8
0
100
AcDbSpline
62
7
6
CONTINUOUS
70
0
71
3
72
10
73
6
74
4
42
0.0000001000
43
0.0000001000
44
0.0000000001
12
0.2843829555
22
-0.1387061427
32
0.0000000000
13
0.0000000000
23
-0.3126621295
33
0.0000000000
40
0.0000000000
40
0.0000000000
40
0.0000000000
40
0.0000000000
40
0.0990768225
40
0.5093379350
40
1.0000000000
40
1.0000000000
40
1.0000000000
40
1.0000000000
10
93.5866055813
20
22.8378059691
30
0.0000000000
10
93.5959975012
20
22.8332251144
30
0.0000000000
10
93.6421877516
20
22.8058666341
30
0.0000000000
10
93.7038469841
20
22.7141855048
30
0.0000000000
10
93.7164325659
20
22.6189620609
30
0.0000000000
10
93.7164325659
20
22.5678249122
30
0.0000000000
11
93.5866055813
21
22.8378059691
31
0.0000000000
11
93.6134079954
21
22.8218498022
31
0.0000000000
11
93.6899799588
21
22.7189385494
31
0.0000000000
11
93.7164325659
21
22.5678249122
31
0.0000000000
0
SPLINE
5
3E1
100
AcDbEntity
8
0
100
AcDbSpline
62
7
6
CONTINUOUS
70
0
71
3
72
9
73
5
74
3
42
0.0000001000
43
0.0000001000
44
0.0000000001
12
-0.8987259504
22
-0.4493629752
32
0.0000000000
13
-1.0167661358
23
0.0247881224
33
0.0000000000
40
0.0000000000
40
0.0000000000
40
0.0000000000
40
0.0000000000
40
0.7959611794
40
1.0000000000
40
1.0000000000
40
1.0000000000
40
1.0000000000
10
97.9944285921
20
40.4899149614
30
0.0000000000
10
97.7559782696
20
40.3706898001
30
0.0000000000
10
97.4313332918
20
40.2598080206
30
0.0000000000
10
97.0916649404
20
40.2463186580
30
0.0000000000
10
97.0225116860
20
40.2480045711
30
0.0000000000
11
97.9944285921
21
40.4899149614
31
0.0000000000
11
97.2296505493
21
40.2558779908
31
0.0000000000
11
97.0225116860
21
40.2480045711
31
0.0000000000
0
SPLINE
5
3E2
100
AcDbEntity
8
0
100
AcDbSpline
62
7
6
CONTINUOUS
70
0
71
3
72
9
73
5
74
3
42
0.0000001000
43
0.0000001000
44
0.0000000001
12
-0.8987259504
22
-0.4493629752
32
0.0000000000
13
-1.0167661358
23
0.0247881224
33
0.0000000000
40
0.0000000000
40
0.0000000000
40
0.0000000000
40
0.0000000000
40
0.7959611794
40
1.0000000000
40
1.0000000000
40
1.0000000000
40
1.0000000000
10
-80.6207443356
20
-48.8176715025
30
0.0000000000
10
-80.8591946581
20
-48.9368966637
30
0.0000000000
10
-81.1838396360
20
-49.0477784433
30
0.0000000000
10
-81.5235079873
20
-49.0612678059
30
0.0000000000
10
-81.5926612417
20
-49.0595818928
30
0.0000000000
11
-80.6207443356
21
-48.8176715025
31
0.0000000000
11
-81.3855223784
21
-49.0517084731
31
0.0000000000
11
-81.5926612417
21
-49.0595818928
31
0.0000000000
0
SPLINE
5
3E3
100
AcDbEntity
8
0
100
AcDbSpline
62
7
6
CONTINUOUS
70
0
71
3
72
11
73
7
74
5
42
0.0000001000
43
0.0000001000
44
0.0000000001
12
0.0000000000
22
0.7341122511
32
0.0000000000
13
0.6566099587
23
0.3283049793
33
0.0000000000
40
0.0000000000
40
0.0000000000
40
0.0000000000
40
0.0000000000
40
0.2445481547
40
0.5103583824
40
0.7711946038
40
1.0000000000
40
1.0000000000
40
1.0000000000
40
1.0000000000
10
92.6557723941
20
59.4712219570
30
0.0000000000
10
92.6557723941
20
59.5310638891
30
0.0000000000
10
92.6763749263
20
59.6561623354
30
0.0000000000
10
92.7516569482
20
59.8309652884
30
0.0000000000
10
92.8628732506
20
59.9806822856
30
0.0000000000
10
92.9592471508
20
60.0559720372
30
0.0000000000
10
93.0093257847
20
60.0810113542
30
0.0000000000
11
92.6557723941
21
59.4712219570
31
0.0000000000
11
92.6822250012
21
59.6487882014
31
0.0000000000
11
92.7587969647
21
59.8282714176
31
0.0000000000
11
92.8744816665
21
59.9808584885
31
0.0000000000
11
93.0093257847
21
60.0810113542
31
0.0000000000
0
SPLINE
5
3E4
100
AcDbEntity
8
0
100
AcDbSpline
62
7
6
CONTINUOUS
70
0
71
3
72
9
73
5
74
3
42
0.0000001000
43
0.0000001000
44
0.0000000001
12
0.2053960444
22
0.1026980222
32
0.0000000000
13
0.2087997815
23
-0.1017596144
33
0.0000000000
40
0.0000000000
40
0.0000000000
40
0.0000000000
40
0.0000000000
40
0.6035348175
40
1.0000000000
40
1.0000000000
40
1.0000000000
40
1.0000000000
10
-73.1607677941
20
-23.0040354352
30
0.0000000000
10
-73.1194465727
20
-22.9833748245
30
0.0000000000
10
-73.0431897821
20
-22.9590690039
30
0.0000000000
10
-72.9646968559
20
-22.9767822473
30
0.0000000000
10
-72.9371029080
20
-22.9902302953
30
0.0000000000
11
-73.1607677941
21
-23.0040354352
31
0.0000000000
11
-73.0265847943
21
-22.9693416302
31
0.0000000000
11
-72.9371029080
21
-22.9902302953
31
0.0000000000
0
SPLINE
5
3E5
100
AcDbEntity
8
0
100
AcDbSpline
62
7
6
CONTINUOUS
70
0
71
3
72
13
73
9
74
7
42
0.0000001000
43
0.0000001000
44
0.0000000001
12
0.0000000000
22
5.8831476176
32
0.0000000000
13
5.2620471979
23
2.6310235989
33
0.0000000000
40
0.0000000000
40
0.0000000000
40
0.0000000000
40
0.0000000000
40
0.1593391014
40
0.3342649341
40
0.5114823361
40
0.6859462153
40
0.8527975454
40
1.0000000000
40
1.0000000000
40
1.0000000000
40
1.0000000000
10
-85.5351364649
20
-32.6553213858
30
0.0000000000
10
-85.5351364649
20
-32.3428495675
30
0.0000000000
10
-85.4635462025
20
-31.6864469758
30
0.0000000000
10
-85.1805505042
20
-30.7195934549
30
0.0000000000
10
-84.7338104253
20
-29.7837073049
30
0.0000000000
10
-84.1538111883
20
-28.9428837714
30
0.0000000000
10
-83.4799767906
20
-28.2549323372
30
0.0000000000
10
-82.9649047613
20
-27.9061039188
30
0.0000000000
10
-82.7067093401
20
-27.7770062083
30
0.0000000000
11
-85.5351364649
21
-32.6553213858
31
0.0000000000
11
-85.4411272531
21
-31.7226317252
31
0.0000000000
11
-85.1561802900
21
-30.7337526257
31
0.0000000000
11
-84.7073447177
21
-29.7927141921
31
0.0000000000
11
-84.1220382673
21
-28.9495613838
31
0.0000000000
11
-83.4297616688
21
-28.2536351829
31
0.0000000000
11
-82.7067093401
21
-27.7770062083
31
0.0000000000
0
SPLINE
5
3E6
100
AcDbEntity
8
0
100
AcDbSpline
62
7
6
CONTINUOUS
70
0
71
3
72
10
73
6
74
4
42
0.0000001000
43
0.0000001000
44
0.0000000001
12
1.6548349264
22
0.8274174632
32
0.0000000000
13
1.6689820757
23
-0.8319172424
33
0.0000000000
40
0.0000000000
40
0.0000000000
40
0.0000000000
40
0.0000000000
40
0.4129356048
40
0.7864682941
40
1.0000000000
40
1.0000000000
40
1.0000000000
40
1.0000000000
10
102.5552673308
20
64.8539821272
30
0.0000000000
10
102.7830474178
20
64.9678721707
30
0.0000000000
10
103.2458125872
20
65.1360455126
30
0.0000000000
10
103.8777088606
20
65.1467218545
30
0.0000000000
10
104.2257021250
20
65.0259041577
30
0.0000000000
10
104.3444956549
20
64.9666905884
30
0.0000000000
11
102.5552673308
21
64.8539821272
31
0.0000000000
11
103.2784261497
21
65.1004242366
31
0.0000000000
11
103.9695134428
21
65.0969805516
31
0.0000000000
11
104.3444956549
21
64.9666905884
31
0.0000000000
0
SPLINE
5
3E7
100
AcDbEntity
8
0
100
AcDbSpline
62
7
6
CONTINUOUS
70
0
71
3
72
10
73
6
74
4
42
0.0000001000
43
0.0000001000
44
0.0000000001
12
-1.2882137365
22
0.6441068683
32
0.0000000000
13
0.0001309044
23
1.4467296265
33
0.0000000000
40
0.0000000000
40
0.0000000000
40
0.0000000000
40
0.0000000000
40
0.3910569032
40
0.7209798951
40
1.0000000000
40
1.0000000000
40
1.0000000000
40
1.0000000000
10
-75.2820881377
20
-21.4746464162
30
0.0000000000
10
-75.4500097625
20
-21.3906856038
30
0.0000000000
10
-75.7469653779
20
-21.2065442705
30
0.0000000000
10
-76.0751951904
20
-20.8421815344
30
0.0000000000
10
-76.1607799300
20
-20.5485486821
30
0.0000000000
10
-76.1607677550
20
-20.4139931314
30
0.0000000000
11
-75.2820881377
21
-21.4746464162
31
0.0000000000
11
-75.7544026828
21
-21.1678194594
31
0.0000000000
11
-76.0583544339
21
-20.8025707476
31
0.0000000000
11
-76.1607677550
21
-20.4139931314
31
0.0000000000
0
SPLINE
5
3E8
100
AcDbEntity
8
0
100
AcDbSpline
62
7
6
CONTINUOUS
70
0
71
3
72
8
73
4
74
2
42
0.0000001000
43
0.0000001000
44
0.0000000001
12
0.1358140830
22
-0.0679070415
32
0.0000000000
13
0.1108528646
23
-0.1062826513
33
0.0000000000
40
0.0000000000
40
0.0000000000
40
0.0000000000
40
0.0000000000
40
1.0000000000
40
1.0000000000
40
1.0000000000
40
1.0000000000
10
-71.7465542317
20
-23.2424133691
30
0.0000000000
10
-71.7012828707
20
-23.2650490496
30
0.0000000000
10
-71.6601268205
20
-23.2957779001
30
0.0000000000
10
-71.6231758656
20
-23.3312054506
30
0.0000000000
11
-71.7465542317
21
-23.2424133691
31
0.0000000000
11
-71.6231758656
21
-23.3312054506
31
0.0000000000
0
SPLINE
5
3E9
100
AcDbEntity
8
0
100
AcDbSpline
62
7
6
CONTINUOUS
70
0
71
3
72
8
73
4
74
2
42
0.0000001000
43
0.0000001000
44
0.0000000001
12
0.0567121925
22
-0.0543740768
32
0.0000000000
13
0.0500724435
23
-0.0603893315
33
0.0000000000
40
0.0000000000
40
0.0000000000
40
0.0000000000
40
0.0000000000
40
1.0000000000
40
1.0000000000
40
1.0000000000
40
1.0000000000
10
-71.6231758656
20
-23.3312054506
30
0.0000000000
10
-71.6042718015
20
-23.3493301428
30
0.0000000000
10
-71.5864683509
20
-23.3686846415
30
0.0000000000
10
-71.5697775364
20
-23.3888144187
30
0.0000000000
11
-71.6231758656
21
-23.3312054506
31
0.0000000000
11
-71.5697775364
21
-23.3888144187
31
0.0000000000
0
SPLINE
5
3EA
100
AcDbEntity
8
0
100
AcDbSpline
62
7
6
CONTINUOUS
70
0
71
3
72
8
73
4
74
2
42
0.0000001000
43
0.0000001000
44
0.0000000001
12
0.1110315842
22
-0.1339084469
32
0.0000000000
13
0.0781426900
23
-0.1540844916
33
0.0000000000
40
0.0000000000
40
0.0000000000
40
0.0000000000
40
0.0000000000
40
1.0000000000
40
1.0000000000
40
1.0000000000
40
1.0000000000
10
-71.5697775364
20
-23.3888144187
30
0.0000000000
10
-71.5327670084
20
-23.4334505676
30
0.0000000000
10
-71.5012272524
20
-23.4818987197
30
0.0000000000
10
-71.4751796890
20
-23.5332602169
30
0.0000000000
11
-71.5697775364
21
-23.3888144187
31
0.0000000000
11
-71.4751796890
21
-23.5332602169
31
0.0000000000
0
SPLINE
5
3EB
100
AcDbEntity
8
0
100
AcDbSpline
62
7
6
CONTINUOUS
70
0
71
3
72
8
73
4
74
2
42
0.0000001000
43
0.0000001000
44
0.0000000001
12
0.0388967246
22
-0.0766979232
32
0.0000000000
13
0.0307239838
23
-0.0806964682
33
0.0000000000
40
0.0000000000
40
0.0000000000
40
0.0000000000
40
0.0000000000
40
1.0000000000
40
1.0000000000
40
1.0000000000
40
1.0000000000
10
-71.4751796890
20
-23.5332602169
30
0.0000000000
10
-71.4622141141
20
-23.5588261913
30
0.0000000000
10
-71.4506093418
20
-23.5851140063
30
0.0000000000
10
-71.4403680139
20
-23.6120128290
30
0.0000000000
11
-71.4751796890
21
-23.5332602169
31
0.0000000000
11
-71.4403680139
21
-23.6120128290
31
0.0000000000
0
SPLINE
5
3EC
100
AcDbEntity
8
0
100
AcDbSpline
62
7
6
CONTINUOUS
70
0
71
3
72
10
73
6
74
4
42
0.0000001000
43
0.0000001000
44
0.0000000001
12
-1.2882137365
22
-0.6441068683
32
0.0000000000
13
0.0001309044
23
-1.4467296265
33
0.0000000000
40
0.0000000000
40
0.0000000000
40
0.0000000000
40
0.0000000000
40
0.3910569032
40
0.7209798951
40
1.0000000000
40
1.0000000000
40
1.0000000000
40
1.0000000000
10
-105.3341263381
20
-39.8343485276
30
0.0000000000
10
-105.5020479629
20
-39.9183093400
30
0.0000000000
10
-105.7990035783
20
-40.1024506732
30
0.0000000000
10
-106.1272333909
20
-40.4668134094
30
0.0000000000
10
-106.2128181304
20
-40.7604462616
30
0.0000000000
10
-106.2128059554
20
-40.8950018123
30
0.0000000000
11
-105.3341263381
21
-39.8343485276
31
0.0000000000
11
-105.8064408832
21
-40.1411754843
31
0.0000000000
11
-106.1103926344
21
-40.5064241961
31
0.0000000000
11
-106.2128059554
21
-40.8950018123
31
0.0000000000
0
SPLINE
5
3ED
100
AcDbEntity
8
0
100
AcDbSpline
62
7
6
CONTINUOUS
70
0
71
3
72
10
73
6
74
4
42
0.0000001000
43
0.0000001000
44
0.0000000001
12
1.0697832648
22
0.5348916324
32
0.0000000000
13
-0.0170299072
23
1.2136351014
33
0.0000000000
40
0.0000000000
40
0.0000000000
40
0.0000000000
40
0.0000000000
40
0.5000697436
40
0.8909541064
40
1.0000000000
40
1.0000000000
40
1.0000000000
40
1.0000000000
10
-96.5306469123
20
-35.4326088147
30
0.0000000000
10
-96.3523248313
20
-35.3434477742
30
0.0000000000
10
-96.0490207044
20
-35.1493912520
30
0.0000000000
10
-95.8171474264
20
-34.7949163742
30
0.0000000000
10
-95.8001780954
20
-34.5935362249
30
0.0000000000
10
-95.8007971093
20
-34.5494222502
30
0.0000000000
11
-96.5306469123
21
-35.4326088147
31
0.0000000000
11
-96.0423193795
21
-35.0872505630
31
0.0000000000
11
-95.8122886993
21
-34.6802373711
31
0.0000000000
11
-95.8007971093
21
-34.5494222502
31
0.0000000000
0
SPLINE
5
3EE
100
AcDbEntity
8
0
100
AcDbSpline
62
7
6
CONTINUOUS
70
0
71
3
72
10
73
6
74
4
42
0.0000001000
43
0.0000001000
44
0.0000000001
12
-0.5360687409
22
-0.2680343705
32
0.0000000000
13
0.0055421231
23
-0.5966037245
33
0.0000000000
40
0.0000000000
40
0.0000000000
40
0.0000000000
40
0.0000000000
40
0.5549643117
40
0.9789463552
40
1.0000000000
40
1.0000000000
40
1.0000000000
40
1.0000000000
10
-101.6173943997
20
-32.6726816994
30
0.0000000000
10
-101.7165607396
20
-32.7222648694
30
0.0000000000
10
-101.8853115455
20
-32.8294991378
30
0.0000000000
10
-101.9841406630
20
-33.0239239555
30
0.0000000000
10
-101.9852849038
20
-33.1123830328
30
0.0000000000
10
-101.9852460098
20
-33.1165699271
30
0.0000000000
11
-101.6173943997
21
-32.6726816994
31
0.0000000000
11
-101.8847504891
21
-32.8705523768
31
0.0000000000
11
-101.9850807678
21
-33.1040177562
31
0.0000000000
11
-101.9852460098
21
-33.1165699271
31
0.0000000000
0
SPLINE
5
3EF
100
AcDbEntity
8
0
100
AcDbSpline
62
7
6
CONTINUOUS
70
0
71
3
72
10
73
6
74
4
42
0.0000001000
43
0.0000001000
44
0.0000000001
12
-0.5360687409
22
-0.2680343705
32
0.0000000000
13
0.0055421231
23
-0.5966037245
33
0.0000000000
40
0.0000000000
40
0.0000000000
40
0.0000000000
40
0.0000000000
40
0.5549643117
40
0.9789463552
40
1.0000000000
40
1.0000000000
40
1.0000000000
40
1.0000000000
10
-82.8790646982
20
-23.3035168487
30
0.0000000000
10
-82.9782310382
20
-23.3531000187
30
0.0000000000
10
-83.1469818441
20
-23.4603342871
30
0.0000000000
10
-83.2458109615
20
-23.6547591047
30
0.0000000000
10
-83.2469552023
20
-23.7432181821
30
0.0000000000
10
-83.2469163084
20
-23.7474050764
30
0.0000000000
11
-82.8790646982
21
-23.3035168487
31
0.0000000000
11
-83.1464207876
21
-23.5013875261
31
0.0000000000
11
-83.2467510663
21
-23.7348529055
31
0.0000000000
11
-83.2469163084
21
-23.7474050764
31
0.0000000000
0
SPLINE
5
3F0
100
AcDbEntity
8
0
100
AcDbSpline
62
7
6
CONTINUOUS
70
0
71
3
72
9
73
5
74
3
42
0.0000001000
43
0.0000001000
44
0.0000000001
12
0.2041642300
22
0.1020821150
32
0.0000000000
13
0.1466123372
23
0.1758004389
33
0.0000000000
40
0.0000000000
40
0.0000000000
40
0.0000000000
40
0.0000000000
40
0.7317995999
40
1.0000000000
40
1.0000000000
40
1.0000000000
40
1.0000000000
10
-71.7465542317
20
-24.0289794616
30
0.0000000000
10
-71.6967517978
20
-24.0040782446
30
0.0000000000
10
-71.6355132128
20
-23.9563376754
30
0.0000000000
10
-71.5840745862
20
-23.8997929064
30
0.0000000000
10
-71.5709674237
20
-23.8840763238
30
0.0000000000
11
-71.7465542317
21
-24.0289794616
31
0.0000000000
11
-71.6123712319
21
-23.9294902669
31
0.0000000000
11
-71.5709674237
21
-23.8840763238
31
0.0000000000
0
SPLINE
5
3F1
100
AcDbEntity
8
0
100
AcDbSpline
62
7
6
CONTINUOUS
70
0
71
3
72
9
73
5
74
3
42
0.0000001000
43
0.0000001000
44
0.0000000001
12
0.1249635778
22
0.1498417680
32
0.0000000000
13
0.0841928407
23
0.1758120840
33
0.0000000000
40
0.0000000000
40
0.0000000000
40
0.0000000000
40
0.0000000000
40
0.6635412542
40
1.0000000000
40
1.0000000000
40
1.0000000000
40
1.0000000000
10
-71.5709674237
20
-23.8840763238
30
0.0000000000
10
-71.5433279273
20
-23.8509342589
30
0.0000000000
10
-71.5062887405
20
-23.7972927557
30
0.0000000000
10
-71.4758595658
20
-23.7398311520
30
0.0000000000
10
-71.4664170933
20
-23.7201133142
30
0.0000000000
11
-71.5709674237
21
-23.8840763238
31
0.0000000000
11
-71.4970841727
21
-23.7780656177
31
0.0000000000
11
-71.4664170933
21
-23.7201133142
31
0.0000000000
0
SPLINE
5
3F2
100
AcDbEntity
8
0
100
AcDbSpline
62
7
6
CONTINUOUS
70
0
71
3
72
8
73
4
74
2
42
0.0000001000
43
0.0000001000
44
0.0000000001
12
0.0391236245
22
0.0816982289
32
0.0000000000
13
0.0296422916
23
0.0857174883
33
0.0000000000
40
0.0000000000
40
0.0000000000
40
0.0000000000
40
0.0000000000
40
1.0000000000
40
1.0000000000
40
1.0000000000
40
1.0000000000
10
-71.4664170933
20
-23.7201133142
30
0.0000000000
10
-71.4533758851
20
-23.6928805713
30
0.0000000000
10
-71.4418524533
20
-23.6649146267
30
0.0000000000
10
-71.4319716894
20
-23.6363421306
30
0.0000000000
11
-71.4664170933
21
-23.7201133142
31
0.0000000000
11
-71.4319716894
21
-23.6363421306
31
0.0000000000
0
SPLINE
5
3F3
100
AcDbEntity
8
0
100
AcDbSpline
62
7
6
CONTINUOUS
70
0
71
3
72
9
73
5
74
3
42
0.0000001000
43
0.0000001000
44
0.0000000001
12
0.0529580020
22
0.1531402153
32
0.0000000000
13
0.0166865512
23
0.1610349765
33
0.0000000000
40
0.0000000000
40
0.0000000000
40
0.0000000000
40
0.0000000000
40
0.2500215330
40
1.0000000000
40
1.0000000000
40
1.0000000000
40
1.0000000000
10
-71.4319716894
20
-23.6363421306
30
0.0000000000
10
-71.4275581425
20
-23.6235793468
30
0.0000000000
10
-71.4112163669
20
-23.5720485645
30
0.0000000000
10
-71.4002957683
20
-23.5187623422
30
0.0000000000
10
-71.3961242503
20
-23.4785047539
30
0.0000000000
11
-71.4319716894
21
-23.6363421306
31
0.0000000000
11
-71.4197254328
21
-23.5977020025
31
0.0000000000
11
-71.3961242503
21
-23.4785047539
31
0.0000000000
0
SPLINE
5
3F4
100
AcDbEntity
8
0
100
AcDbSpline
62
7
6
CONTINUOUS
70
0
71
3
72
8
73
4
74
2
42
0.0000001000
43
0.0000001000
44
0.0000000001
12
0.0061327290
22
0.0591844213
32
0.0000000000
13
0.0000000000
23
0.0593633666
33
0.0000000000
40
0.0000000000
40
0.0000000000
40
0.0000000000
40
0.0000000000
40
1.0000000000
40
1.0000000000
40
1.0000000000
40
1.0000000000
10
-71.3961242503
20
-23.4785047539
30
0.0000000000
10
-71.3940800072
20
-23.4587766135
30
0.0000000000
10
-71.3930008411
20
-23.4389778533
30
0.0000000000
10
-71.3930008411
20
-23.4191900644
30
0.0000000000
11
-71.3961242503
21
-23.4785047539
31
0.0000000000
11
-71.3930008411
21
-23.4191900644
31
0.0000000000
0
SPLINE
5
3F5
100
AcDbEntity
8
0
100
AcDbSpline
62
7
6
CONTINUOUS
70
0
71
3
72
11
73
7
74
5
42
0.0000001000
43
0.0000001000
44
0.0000000001
12
0.6566115960
22
0.3283057980
32
0.0000000000
13
0.0000000000
23
0.7341140818
33
0.0000000000
40
0.0000000000
40
0.0000000000
40
0.0000000000
40
0.0000000000
40
0.2275428926
40
0.4867899573
40
0.7541236507
40
1.0000000000
40
1.0000000000
40
1.0000000000
40
1.0000000000
10
92.3022190036
20
57.9954071560
30
0.0000000000
10
92.3520214375
20
58.0203083730
30
0.0000000000
10
92.4478942902
20
58.0950492340
30
0.0000000000
10
92.5592077197
20
58.2442656838
30
0.0000000000
10
92.6349471422
20
58.4192328313
30
0.0000000000
10
92.6557723941
20
58.5450294564
30
0.0000000000
10
92.6557723941
20
58.6051965532
30
0.0000000000
11
92.3022190036
21
57.9954071560
31
0.0000000000
11
92.4364020033
21
58.0948963508
31
0.0000000000
11
92.5516890625
21
58.2463209999
31
0.0000000000
11
92.6290478024
21
58.4266846151
31
0.0000000000
11
92.6557723941
21
58.6051965532
31
0.0000000000
0
SPLINE
5
3F6
100
AcDbEntity
8
0
100
AcDbSpline
62
7
6
CONTINUOUS
70
0
71
3
72
8
73
4
74
2
42
0.0000001000
43
0.0000001000
44
0.0000000001
12
0.4408415925
22
-0.5553598200
32
0.0000000000
13
0.2074893211
23
-0.6781389557
33
0.0000000000
40
0.0000000000
40
0.0000000000
40
0.0000000000
40
0.0000000000
40
1.0000000000
40
1.0000000000
40
1.0000000000
40
1.0000000000
10
102.5044847366
20
47.5010881911
30
0.0000000000
10
102.6514319341
20
47.3159682511
30
0.0000000000
10
102.7538840111
20
47.0980174419
30
0.0000000000
10
102.8230471181
20
46.8719711233
30
0.0000000000
11
102.5044847366
21
47.5010881911
31
0.0000000000
11
102.8230471181
21
46.8719711233
31
0.0000000000
0
SPLINE
5
3F7
100
AcDbEntity
8
0
100
AcDbSpline
62
7
6
CONTINUOUS
70
0
71
3
72
13
73
9
74
7
42
0.0000001000
43
0.0000001000
44
0.0000000001
12
1.7759391894
22
-5.8043158113
32
0.0000000000
13
-5.3924967315
23
-2.6962483658
33
0.0000000000
40
0.0000000000
40
0.0000000000
40
0.0000000000
40
0.0000000000
40
0.1466956915
40
0.3133158538
40
0.4923792219
40
0.6734340947
40
0.8455964384
40
1.0000000000
40
1.0000000000
40
1.0000000000
40
1.0000000000
10
102.8230471181
20
46.8719711233
30
0.0000000000
10
102.9098879939
20
46.5881484161
30
0.0000000000
10
102.9832751706
20
45.9546947781
30
0.0000000000
10
102.8517654615
20
44.9656680103
30
0.0000000000
10
102.5009257900
20
43.9600479130
30
0.0000000000
10
101.9626538500
20
43.0279537393
30
0.0000000000
10
101.2870637299
20
42.2550193497
30
0.0000000000
10
100.7468425601
20
41.8661219453
30
0.0000000000
10
100.4693023263
20
41.7273518284
30
0.0000000000
11
102.8230471181
21
46.8719711233
31
0.0000000000
11
102.9441760604
21
45.9958776088
31
0.0000000000
11
102.8230471181
21
44.9986551520
31
0.0000000000
11
102.4715172361
21
43.9779188350
31
0.0000000000
11
101.9239966085
21
43.0335854405
31
0.0000000000
11
101.2340803690
21
42.2580929007
31
0.0000000000
11
100.4693023263
21
41.7273518284
31
0.0000000000
0
SPLINE
5
3F8
100
AcDbEntity
8
0
100
AcDbSpline
62
7
6
CONTINUOUS
70
0
71
3
72
8
73
4
74
2
42
0.0000001000
43
0.0000001000
44
0.0000000001
12
0.4408415925
22
-0.5553598200
32
0.0000000000
13
0.2074893211
23
-0.6781389557
33
0.0000000000
40
0.0000000000
40
0.0000000000
40
0.0000000000
40
0.0000000000
40
1.0000000000
40
1.0000000000
40
1.0000000000
40
1.0000000000
10
-76.1106881911
20
-41.8064982728
30
0.0000000000
10
-75.9637409936
20
-41.9916182128
30
0.0000000000
10
-75.8612889166
20
-42.2095690220
30
0.0000000000
10
-75.7921258096
20
-42.4356153406
30
0.0000000000
11
-76.1106881911
21
-41.8064982728
31
0.0000000000
11
-75.7921258096
21
-42.4356153406
31
0.0000000000
0
SPLINE
5
3F9
100
AcDbEntity
8
0
100
AcDbSpline
62
7
6
CONTINUOUS
70
0
71
3
72
13
73
9
74
7
42
0.0000001000
43
0.0000001000
44
0.0000000001
12
1.7759391894
22
-5.8043158113
32
0.0000000000
13
-5.3924967315
23
-2.6962483658
33
0.0000000000
40
0.0000000000
40
0.0000000000
40
0.0000000000
40
0.0000000000
40
0.1466956915
40
0.3133158538
40
0.4923792219
40
0.6734340947
40
0.8455964384
40
1.0000000000
40
1.0000000000
40
1.0000000000
40
1.0000000000
10
-75.7921258096
20
-42.4356153406
30
0.0000000000
10
-75.7052849338
20
-42.7194380478
30
0.0000000000
10
-75.6318977571
20
-43.3528916858
30
0.0000000000
10
-75.7634074662
20
-44.3419184536
30
0.0000000000
10
-76.1142471377
20
-45.3475385509
30
0.0000000000
10
-76.6525190777
20
-46.2796327246
30
0.0000000000
10
-77.3281091978
20
-47.0525671142
30
0.0000000000
10
-77.8683303677
20
-47.4414645185
30
0.0000000000
10
-78.1458706015
20
-47.5802346354
30
0.0000000000
11
-75.7921258096
21
-42.4356153406
31
0.0000000000
11
-75.6709968673
21
-43.3117088551
31
0.0000000000
11
-75.7921258096
21
-44.3089313119
31
0.0000000000
11
-76.1436556916
21
-45.3296676288
31
0.0000000000
11
-76.6911763192
21
-46.2740010233
31
0.0000000000
11
-77.3810925587
21
-47.0494935632
31
0.0000000000
11
-78.1458706015
21
-47.5802346354
31
0.0000000000
0
SPLINE
5
3FA
100
AcDbEntity
8
0
100
AcDbSpline
62
7
6
CONTINUOUS
70
0
71
3
72
11
73
7
74
5
42
0.0000001000
43
0.0000001000
44
0.0000000001
12
-2.2687835030
22
1.1308929814
32
0.0000000000
13
0.0000000000
23
2.5150757395
33
0.0000000000
40
0.0000000000
40
0.0000000000
40
0.0000000000
40
0.0000000000
40
0.0970402822
40
0.3620373941
40
0.6644975480
40
1.0000000000
40
1.0000000000
40
1.0000000000
40
1.0000000000
10
-84.4959376643
20
-65.9948324360
30
0.0000000000
10
-84.5693254614
20
-65.9582517113
30
0.0000000000
10
-84.8320408514
20
-65.8000360832
30
0.0000000000
10
-85.2098060331
20
-65.3700721310
30
0.0000000000
10
-85.4826878300
20
-64.6511838887
30
0.0000000000
10
-85.5351364649
20
-64.1135072812
30
0.0000000000
10
-85.5351364649
20
-63.8322359220
30
0.0000000000
11
-84.4959376643
21
-65.9948324360
31
0.0000000000
11
-84.7060737606
21
-65.8679724881
31
0.0000000000
11
-85.1555547880
21
-65.3758619285
31
0.0000000000
11
-85.4411554138
21
-64.6708000278
31
0.0000000000
11
-85.5351364649
21
-63.8322359220
31
0.0000000000
0
SPLINE
5
3FB
100
AcDbEntity
8
0
100
AcDbSpline
62
7
6
CONTINUOUS
70
0
71
3
72
10
73
6
74
4
42
0.0000001000
43
0.0000001000
44
0.0000000001
12
-0.2843360788
22
0.1385726054
32
0.0000000000
13
-0.0000000000
23
0.3127152149
33
0.0000000000
40
0.0000000000
40
0.0000000000
40
0.0000000000
40
0.0000000000
40
0.0952112490
40
0.5071489018
40
1.0000000000
40
1.0000000000
40
1.0000000000
40
1.0000000000
10
92.7856608987
20
21.9620884477
30
0.0000000000
10
92.7766369009
20
21.9664863380
30
0.0000000000
10
92.7305784861
20
21.9935722739
30
0.0000000000
10
92.6684417495
20
22.0850733827
30
0.0000000000
10
92.6557723941
20
22.1807555819
30
0.0000000000
10
92.6557723941
20
22.2321295943
30
0.0000000000
11
92.7856608987
21
21.9620884477
31
0.0000000000
11
92.7598557257
21
21.9773373726
31
0.0000000000
11
92.6824969858
21
22.0803422479
31
0.0000000000
11
92.6557723941
21
22.2321295943
31
0.0000000000
0
SPLINE
5
3FC
100
AcDbEntity
8
0
100
AcDbSpline
62
7
6
CONTINUOUS
70
0
71
3
72
14
73
10
74
8
42
0.0000001000
43
0.0000001000
44
0.0000000001
12
0.0473476630
22
2.4316262234
32
0.0000000000
13
-2.1694321666
23
-1.0847160833
33
0.0000000000
40
0.0000000000
40
0.0000000000
40
0.0000000000
40
0.0000000000
40
0.0156620056
40
0.1229329479
40
0.2640819380
40
0.4394100616
40
0.6341671921
40
0.8277841823
40
1.0000000000
40
1.0000000000
40
1.0000000000
40
1.0000000000
10
-90.2899694310
20
-28.5245138805
30
0.0000000000
10
-90.2897222445
20
-28.5118191660
30
0.0000000000
10
-90.2939401513
20
-28.4125126940
30
0.0000000000
10
-90.4151705035
20
-28.2148470689
30
0.0000000000
10
-90.7132867002
20
-28.0367638227
30
0.0000000000
10
-91.1133984809
20
-27.9196059819
30
0.0000000000
10
-91.5705140347
20
-27.8827575736
30
0.0000000000
10
-92.0236031133
20
-27.9286689071
30
0.0000000000
10
-92.3093120738
20
-28.0186405365
30
0.0000000000
10
-92.4338489186
20
-28.0809089589
30
0.0000000000
11
-90.2899694310
21
-28.5245138805
31
0.0000000000
11
-90.2916445359
21
-28.4866336587
31
0.0000000000
11
-90.4109419067
21
-28.2554093976
31
0.0000000000
11
-90.6942215075
21
-28.0631575016
31
0.0000000000
11
-91.1005413934
21
-27.9376638278
31
0.0000000000
11
-91.5711768051
21
-27.8970657749
31
0.0000000000
11
-92.0381075639
21
-27.9472309142
31
0.0000000000
11
-92.4338489186
21
-28.0809089589
31
0.0000000000
0
SPLINE
5
3FD
100
AcDbEntity
8
0
100
AcDbSpline
62
7
6
CONTINUOUS
70
0
71
3
72
14
73
10
74
8
42
0.0000001000
43
0.0000001000
44
0.0000000001
12
0.0392016609
22
-4.8346026731
32
0.0000000000
13
4.3205310306
23
2.1602655153
33
0.0000000000
40
0.0000000000
40
0.0000000000
40
0.0000000000
40
0.0000000000
40
0.0842446003
40
0.1968877600
40
0.3386758480
40
0.5033031783
40
0.6781465453
40
0.8483383489
40
1.0000000000
40
1.0000000000
40
1.0000000000
40
1.0000000000
10
-91.1815679900
20
-29.7399405129
30
0.0000000000
10
-91.1804671472
20
-29.8757035695
30
0.0000000000
10
-91.0661002225
20
-30.1956389735
30
0.0000000000
10
-90.6364986714
20
-30.5544960591
30
0.0000000000
10
-90.0130701452
20
-30.8257058059
30
0.0000000000
10
-89.2489733169
20
-30.9812585594
30
0.0000000000
10
-88.4249936914
20
-31.0068517745
30
0.0000000000
10
-87.6290627234
20
-30.8993592771
30
0.0000000000
10
-87.1324143114
20
-30.7334925142
30
0.0000000000
10
-86.9139946882
20
-30.6242827026
30
0.0000000000
11
-91.1815679900
21
-29.7399405129
31
0.0000000000
11
-91.0578104781
21
-30.1291124637
31
0.0000000000
11
-90.6625360545
21
-30.5030480188
31
0.0000000000
11
-90.0404857577
21
-30.7896690645
31
0.0000000000
11
-89.2628771874
21
-30.9561607901
31
0.0000000000
11
-88.4187375753
21
-30.9834618091
31
0.0000000000
11
-87.6047111915
21
-30.8684464690
31
0.0000000000
11
-86.9139946882
21
-30.6242827026
31
0.0000000000
0
SPLINE
5
3FE
100
AcDbEntity
8
0
100
AcDbSpline
62
7
6
CONTINUOUS
70
0
71
3
72
14
73
10
74
8
42
0.0000001000
43
0.0000001000
44
0.0000000001
12
-0.0664272575
22
4.7339336928
32
0.0000000000
13
-4.2946267070
23
-1.8225624673
33
0.0000000000
40
0.0000000000
40
0.0000000000
40
0.0000000000
40
0.0000000000
40
0.0632668092
40
0.1729915445
40
0.3127843651
40
0.4785905254
40
0.6584574066
40
0.8372341743
40
1.0000000000
40
1.0000000000
40
1.0000000000
40
1.0000000000
10
-95.8007971093
20
-34.5494222502
30
0.0000000000
10
-95.8021979895
20
-34.4495886236
30
0.0000000000
10
-95.8665310915
20
-34.1739721730
30
0.0000000000
10
-96.2212670092
20
-33.8132061607
30
0.0000000000
10
-96.8016804224
20
-33.5190311328
30
0.0000000000
10
-97.5392523247
20
-33.3337022735
30
0.0000000000
10
-98.3564794605
20
-33.2761315653
30
0.0000000000
10
-99.1671583267
20
-33.3522250931
30
0.0000000000
10
-99.6831607654
20
-33.4968365872
30
0.0000000000
10
-99.9161669194
20
-33.5957202154
30
0.0000000000
11
-95.8007971093
21
-34.5494222502
31
0.0000000000
11
-95.8668907373
21
-34.2581675651
31
0.0000000000
11
-96.1998741885
21
-33.8693632799
31
0.0000000000
11
-96.7731162800
21
-33.5583381315
31
0.0000000000
11
-97.5209873901
21
-33.3607009197
31
0.0000000000
11
-98.3578648840
21
-33.2990788305
31
0.0000000000
11
-99.1879359205
21
-33.3805268840
31
0.0000000000
11
-99.9161669194
21
-33.5957202154
31
0.0000000000
0
SPLINE
5
3FF
100
AcDbEntity
8
0
100
AcDbSpline
62
7
6
CONTINUOUS
70
0
71
3
72
13
73
9
74
7
42
0.0000001000
43
0.0000001000
44
0.0000000001
12
0.0216584085
22
-2.3315048855
32
0.0000000000
13
2.1560877505
23
0.9150049302
33
0.0000000000
40
0.0000000000
40
0.0000000000
40
0.0000000000
40
0.0000000000
40
0.1008935186
40
0.2387575376
40
0.4137043178
40
0.6127810446
40
0.8153962953
40
1.0000000000
40
1.0000000000
40
1.0000000000
40
1.0000000000
10
-101.9852460098
20
-33.1165699271
30
0.0000000000
10
-101.9845176121
20
-33.1949811710
30
0.0000000000
10
-101.9055848515
20
-33.3822729783
30
0.0000000000
10
-101.6337198811
20
-33.5715727215
30
0.0000000000
10
-101.2535977765
20
-33.7037815094
30
0.0000000000
10
-100.8033857879
20
-33.7581878668
30
0.0000000000
10
-100.3444248476
20
-33.7298937770
30
0.0000000000
10
-100.0488408482
20
-33.6520246488
30
0.0000000000
10
-99.9161669194
20
-33.5957202154
30
0.0000000000
11
-101.9852460098
21
-33.1165699271
31
0.0000000000
11
-101.9038846620
21
-33.3393354621
31
0.0000000000
11
-101.6528973144
21
-33.5424954050
31
0.0000000000
11
-101.2683935223
21
-33.6841352054
31
0.0000000000
11
-100.8059450001
21
-33.7437838908
31
0.0000000000
11
-100.3323886886
21
-33.7128205327
31
0.0000000000
11
-99.9161669194
21
-33.5957202154
31
0.0000000000
0
SPLINE
5
400
100
AcDbEntity
8
0
100
AcDbSpline
62
7
6
CONTINUOUS
70
0
71
3
72
14
73
10
74
8
42
0.0000001000
43
0.0000001000
44
0.0000000001
12
-1.3714531393
22
4.3359814320
32
0.0000000000
13
-4.1037955433
23
-1.7415771477
33
0.0000000000
40
0.0000000000
40
0.0000000000
40
0.0000000000
40
0.0000000000
40
0.0197076497
40
0.1345347100
40
0.2808280559
40
0.4543443913
40
0.6425752873
40
0.8296653782
40
1.0000000000
40
1.0000000000
40
1.0000000000
40
1.0000000000
10
-77.0966081826
20
-24.9723373699
30
0.0000000000
10
-77.1056175553
20
-24.9438533689
30
0.0000000000
10
-77.1785959904
20
-24.7535560728
30
0.0000000000
10
-77.4829373078
20
-24.4440413100
30
0.0000000000
10
-78.0633507210
20
-24.1498662821
30
0.0000000000
10
-78.8009226232
20
-23.9645374227
30
0.0000000000
10
-79.6181497591
20
-23.9069667146
30
0.0000000000
10
-80.4288286252
20
-23.9830602424
30
0.0000000000
10
-80.9448310640
20
-24.1276717364
30
0.0000000000
10
-81.1778372179
20
-24.2265553647
30
0.0000000000
11
-77.0966081826
21
-24.9723373699
31
0.0000000000
11
-77.1285610359
21
-24.8890027143
31
0.0000000000
11
-77.4615444870
21
-24.5001984292
31
0.0000000000
11
-78.0347865786
21
-24.1891732808
31
0.0000000000
11
-78.7826576887
21
-23.9915360690
31
0.0000000000
11
-79.6195351826
21
-23.9299139798
31
0.0000000000
11
-80.4496062191
21
-24.0113620333
31
0.0000000000
11
-81.1778372179
21
-24.2265553647
31
0.0000000000
0
SPLINE
5
401
100
AcDbEntity
8
0
100
AcDbSpline
62
7
6
CONTINUOUS
70
0
71
3
72
13
73
9
74
7
42
0.0000001000
43
0.0000001000
44
0.0000000001
12
0.0216584085
22
-2.3315048855
32
0.0000000000
13
2.1560877505
23
0.9150049302
33
0.0000000000
40
0.0000000000
40
0.0000000000
40
0.0000000000
40
0.0000000000
40
0.1008935186
40
0.2387575376
40
0.4137043178
40
0.6127810446
40
0.8153962953
40
1.0000000000
40
1.0000000000
40
1.0000000000
40
1.0000000000
10
-83.2469163084
20
-23.7474050764
30
0.0000000000
10
-83.2461879107
20
-23.8258163203
30
0.0000000000
10
-83.1672551501
20
-24.0131081275
30
0.0000000000
10
-82.8953901797
20
-24.2024078708
30
0.0000000000
10
-82.5152680751
20
-24.3346166586
30
0.0000000000
10
-82.0650560865
20
-24.3890230160
30
0.0000000000
10
-81.6060951461
20
-24.3607289263
30
0.0000000000
10
-81.3105111468
20
-24.2828597980
30
0.0000000000
10
-81.1778372179
20
-24.2265553647
30
0.0000000000
11
-83.2469163084
21
-23.7474050764
31
0.0000000000
11
-83.1655549606
21
-23.9701706114
31
0.0000000000
11
-82.9145676129
21
-24.1733305543
31
0.0000000000
11
-82.5300638208
21
-24.3149703547
31
0.0000000000
11
-82.0676152986
21
-24.3746190401
31
0.0000000000
11
-81.5940589871
21
-24.3436556820
31
0.0000000000
11
-81.1778372179
21
-24.2265553647
31
0.0000000000
0
SPLINE
5
402
100
AcDbEntity
8
0
100
AcDbSpline
62
7
6
CONTINUOUS
70
0
71
3
72
9
73
5
74
3
42
0.0000001000
43
0.0000001000
44
0.0000000001
12
0.4480890396
22
0.2639655966
32
0.0000000000
13
0.0101519692
23
0.5213730301
33
0.0000000000
40
0.0000000000
40
0.0000000000
40
0.0000000000
40
0.0000000000
40
0.6024411390
40
1.0000000000
40
1.0000000000
40
1.0000000000
40
1.0000000000
10
-90.5877718866
20
-28.9315226991
30
0.0000000000
10
-90.4977894629
20
-28.8785147875
30
0.0000000000
10
-90.3531557094
20
-28.7705852096
30
0.0000000000
10
-90.2913147661
20
-28.5936060365
30
0.0000000000
10
-90.2899694310
20
-28.5245138805
30
0.0000000000
11
-90.5877718866
21
-28.9315226991
31
0.0000000000
11
-90.3535712521
21
-28.7234118145
31
0.0000000000
11
-90.2899694310
21
-28.5245138805
31
0.0000000000
0
SPLINE
5
403
100
AcDbEntity
8
0
100
AcDbSpline
62
7
6
CONTINUOUS
70
0
71
3
72
10
73
6
74
4
42
0.0000001000
43
0.0000001000
44
0.0000000001
12
-0.8951063708
22
-0.5272998587
32
0.0000000000
13
0.0084309300
23
-1.0397568860
33
0.0000000000
40
0.0000000000
40
0.0000000000
40
0.0000000000
40
0.0000000000
40
0.5426533940
40
0.9718276892
40
1.0000000000
40
1.0000000000
40
1.0000000000
40
1.0000000000
10
-90.5877718866
20
-28.9315226991
30
0.0000000000
10
-90.7496827234
20
-29.0269030517
30
0.0000000000
10
-91.0254267989
20
-29.2333670401
30
0.0000000000
10
-91.1789157592
20
-29.5717616326
30
0.0000000000
10
-91.1816471629
20
-29.7301763949
30
0.0000000000
10
-91.1815679900
20
-29.7399405129
30
0.0000000000
11
-90.5877718866
21
-28.9315226991
31
0.0000000000
11
-91.0181585495
21
-29.2956381985
31
0.0000000000
11
-91.1810546565
21
-29.7106737168
31
0.0000000000
11
-91.1815679900
21
-29.7399405129
31
0.0000000000
0
SPLINE
5
404
100
AcDbEntity
8
0
100
AcDbSpline
62
7
6
CONTINUOUS
70
0
71
3
72
10
73
6
74
4
42
0.0000001000
43
0.0000001000
44
0.0000000001
12
0.0001309030
22
-1.4467138503
32
0.0000000000
13
1.2881996889
23
-0.6440998444
33
0.0000000000
40
0.0000000000
40
0.0000000000
40
0.0000000000
40
0.0000000000
40
0.2784731450
40
0.6092206570
40
1.0000000000
40
1.0000000000
40
1.0000000000
40
1.0000000000
10
-106.2128059554
20
-40.8950018123
30
0.0000000000
10
-106.2127938044
20
-41.0292921309
30
0.0000000000
10
-106.1273804106
20
-41.3231070768
30
0.0000000000
10
-105.7990930654
20
-41.6875190576
30
0.0000000000
10
-105.5019269475
20
-41.8717685664
30
0.0000000000
10
-105.3341263381
20
-41.9556688711
30
0.0000000000
11
-106.2128059554
21
-40.8950018123
31
0.0000000000
11
-106.1107679576
21
-41.2828928511
31
0.0000000000
11
-105.8061303376
21
-41.6491089665
31
0.0000000000
11
-105.3341263381
21
-41.9556688711
31
0.0000000000
0
ENDSEC
0
SECTION
2
OBJECTS
0
DICTIONARY
5
C
100
AcDbDictionary
280
0
281
1
3
ACAD_GROUP
350
D
3
ACAD_MLINESTYLE
350
17
3
ACAD_LAYOUT
350
1A
3
ACAD_PLOTSETTINGS
350
19
3
ACAD_PLOTSTYLENAME
350
E
0
DICTIONARY
5
D
102
{ACAD_REACTORS
330
C
102
}
100
AcDbDictionary
280
0
281
1
0
ACDBDICTIONARYWDFLT
5
E
102
{ACAD_REACTORS
330
C
102
}
100
AcDbDictionary
281
1
3
Normal
350
F
100
AcDbDictionaryWithDefault
340
F
0
DICTIONARY
5
17
102
{ACAD_REACTORS
330
C
102
}
100
AcDbDictionary
280
0
281
1
3
Standard
350
18
0
DICTIONARY
5
19
102
{ACAD_REACTORS
330
C
102
}
100
AcDbDictionary
281
1
0
DICTIONARY
5
1A
102
{ACAD_REACTORS
330
C
102
}
100
AcDbDictionary
281
1
3
Layout1
350
1E
3
Model
350
22
0
ACDBPLACEHOLDER
5
F
102
{ACAD_REACTORS
330
E
102
}
0
MLINESTYLE
5
18
102
{ACAD_REACTORS
330
17
102
}
100
AcDbMlineStyle
2
STANDARD
70
0
3

62
256
51
90.0
52
90.0
71
2
49
0.5
62
256
6
BYLAYER
49
-0.5
62
256
6
BYLAYER
0
LAYOUT
5
1E
102
{ACAD_REACTORS
330
1A
102
}
100
AcDbPlotSettings
1

2

4

6

40
0.0
41
0.0
42
0.0
43
0.0
44
0.0
45
0.0
46
0.0
47
0.0
48
0.0
49
0.0
140
0.0
141
0.0
142
1.0
143
1.0
70
0
72
0
73
0
74
0
7

75
0
147
1.0
148
0.0
149
0.0
100
AcDbLayout
1
Layout1
70
0
71
0
10
0.0
20
0.0
11
0.0
21
0.0
12
0.0
22
0.0
32
0.0
14
0.0
24
0.0
34
0.0
15
0.0
25
0.0
35
0.0
146
0.0
13
0.0
23
0.0
33
0.0
16
0.0
26
0.0
36
0.0
17
0.0
27
0.0
37
0.0
76
0
330
1B
331
0
345
0
346
0
0
LAYOUT
5
22
102
{ACAD_REACTORS
330
1A
102
}
100
AcDbPlotSettings
1

2

4

6

40
0.0
41
0.0
42
0.0
43
0.0
44
0.0
45
0.0
46
0.0
47
0.0
48
0.0
49
0.0
140
0.0
141
0.0
142
1.0
143
1.0
70
0
72
0
73
0
74
0
7

75
0
147
1.0
148
0.0
149
0.0
100
AcDbLayout
1
Model
70
0
71
0
10
0.0
20
0.0
11
0.0
21
0.0
12
0.0
22
0.0
32
0.0
14
0.0
24
0.0
34
0.0
15
0.0
25
0.0
35
0.0
146
0.0
13
0.0
23
0.0
33
0.0
16
0.0
26
0.0
36
0.0
17
0.0
27
0.0
37
0.0
76
0
330
1F
331
0
345
0
346
0
0
ENDSEC
0
EOF
