  0
SECTION
  2
HEADER
  9
$ACADVER
  1
AC1021
  9
$DWGCODEPAGE
  3
ANSI_1252
  9
$EXTMAX
 10
297.0
 20
210.0
 30
0.0
  9
$EXTMIN
 10
0.0
 20
0.0
 30
0.0
  9
$LIMMIN
 10
0.0
 20
0.0
  9
$LIMMAX
 10
297.0
 20
210.0
  9
$VIEWCTR
 10
148.5
 20
105.0
  9
$VIEWSIZE
 40
210.0
  9
$CLAYER
  8
0
  9
$LTSCALE
 40
16.335
  9
$CELTYPE
  6
BYLAYER
  9
$DIMSCALE
 40
1.0
  9
$DIMASZ
 40
3.0
  9
$DIMEXO
 40
0.5
  9
$DIMDLI
 40
11.286
  9
$DIMEXE
 40
1.5
  9
$DIMCEN
 40
2.673
  9
$DIMLFAC
 40
1.0
  9
$DIMBLK
  1
_FILLED
  9
$DIMALT
 70
0
  9
$DIMALTF
 40
25.4
  9
$DIMTXT
 40
3.0
  9
$DIMTOL
 70
1
  9
$DIMLIM
 70
0
  9
$DIMTFAC
 40
1.0
  9
$DIMTP
 40
0.01
  9
$DIMTM
 40
0.01
  9
$DIMGAP
 40
0.625
  9
$DIMDSEP
 70
44
  9
$AUNITS
 70
0
  9
$PDMODE
 70
3
  9
$PDSIZE
 40
3.0
  9
$HANDSEED
  5
324
  9
$TILEMODE
 70
1
  9
$MEASUREMENT
 70
1
  9
$INSUNITS
 70
4
  0
ENDSEC
  0
SECTION
  2
CLASSES
  0
CLASS
  1
ACDBDICTIONARYWDFLT
  2
AcDbDictionaryWithDefault
  3
AutoCAD 2000
 90
0
 91
1
280
0
281
0
  0
CLASS
  1
ACDBPLACEHOLDER
  2
AcDbPlaceHolder
  3
AutoCAD 2000
 90
0
 91
1
280
0
281
0
  0
CLASS
  1
LAYOUT
  2
AcDbLayout
  3
AutoCAD 2000
 90
0
 91
0
280
0
281
0
  0
ENDSEC
  0
SECTION
  2
TABLES
  0
TABLE
  2
VPORT
  5
8
100
AcDbSymbolTable
 70
2
  0
VPORT
  5
1F4
100
AcDbSymbolTableRecord
100
AcDbViewportTableRecord
  2
*ACTIVE
 70
0
 10
0.0
 20
0.0
 11
1.0
 21
1.0
 12
148.5
 22
105.0
 13
0.0
 23
0.0
 14
1.0
 24
1.0
 15
0.0
 25
0.0
 16
0.0
 26
0.0
 36
1.0
 17
0.0
 27
0.0
 37
0.0
 40
210.0
 41
1.4142857143
 42
50.0
 43
0.0
 44
0.0
 50
0.0
 51
0.0
 71
0
 72
100
 73
1
 74
1
 75
0
 76
0
 77
0
 78
0
  0
ENDTAB
  0
TABLE
  2
LTYPE
  5
5
100
AcDbSymbolTable
 70
6
  0
LTYPE
  5
14
100
AcDbSymbolTableRecord
100
AcDbLinetypeTableRecord
  2
BYBLOCK
 70
0
  3

 72
65
 73
0
 40
0.0
  0
LTYPE
  5
15
100
AcDbSymbolTableRecord
100
AcDbLinetypeTableRecord
  2
BYLAYER
 70
0
  3

 72
65
 73
0
 40
0.0
  0
LTYPE
  5
16
100
AcDbSymbolTableRecord
100
AcDbLinetypeTableRecord
  2
CONTINUOUS
 70
64
  3
Solid line
 72
65
 73
0
 40
0.0
  0
LTYPE
  5
1F5
100
AcDbSymbolTableRecord
100
AcDbLinetypeTableRecord
  2
CENTER
 70
64
  3
____ _ ____ _ ____ _ ____ _ ____ _ ____ _ ____
 72
65
 73
4
 40
0.6
 49
0.375
 74
0
 49
-0.075
 74
0
 49
0.075
 74
0
 49
-0.075
 74
0
  0
LTYPE
  5
1F6
100
AcDbSymbolTableRecord
100
AcDbLinetypeTableRecord
  2
HIDDEN
 70
64
  3
- - - - - - - - - - - - - - - - - - - -
 72
65
 73
2
 40
0.2
 49
0.1
 74
0
 49
-0.1
 74
0
  0
LTYPE
  5
1F7
100
AcDbSymbolTableRecord
100
AcDbLinetypeTableRecord
  2
PHANTOM
 70
64
  3
_____ _ _ _____ _ _ _____ _ _ _____
 72
65
 73
6
 40
0.8
 49
0.45
 74
0
 49
-0.05
 74
0
 49
0.1
 74
0
 49
-0.05
 74
0
 49
0.1
 74
0
 49
-0.05
 74
0
  0
LTYPE
  5
1F8
100
AcDbSymbolTableRecord
100
AcDbLinetypeTableRecord
  2
DOT
 70
64
  3
. . . . . . . . . . . . . . . . . . . .
 72
65
 73
2
 40
0.2
 49
0.1
 74
0
 49
-0.1
 74
0
  0
LTYPE
  5
1F9
100
AcDbSymbolTableRecord
100
AcDbLinetypeTableRecord
  2
DASHED
 70
64
  3
- - - - - - - - - - - - - - - - - - - -
 72
65
 73
2
 40
0.2
 49
0.1
 74
0
 49
-0.1
 74
0
  0
ENDTAB
  0
TABLE
  2
LAYER
  5
2
100
AcDbSymbolTable
 70
36
  0
LAYER
  5
10
100
AcDbSymbolTableRecord
100
AcDbLayerTableRecord
  2
0
 70
0
 62
7
  6
CONTINUOUS
370
-3
390
F
  0
LAYER
  5
1FA
100
AcDbSymbolTableRecord
100
AcDbLayerTableRecord
  2
DEFAULT_1
 70
0
 62
7
  6
CENTER
370
-3
390
F
  0
LAYER
  5
1FB
100
AcDbSymbolTableRecord
100
AcDbLayerTableRecord
  2
DEFAULT_2
 70
0
 62
7
  6
HIDDEN
370
-3
390
F
  0
LAYER
  5
1FC
100
AcDbSymbolTableRecord
100
AcDbLayerTableRecord
  2
DEFAULT_3
 70
0
 62
7
  6
PHANTOM
370
-3
390
F
  0
LAYER
  5
1FD
100
AcDbSymbolTableRecord
100
AcDbLayerTableRecord
  2
ASSI
 70
0
 62
7
  6
CONTINUOUS
370
-3
390
F
  0
LAYER
  5
1FE
100
AcDbSymbolTableRecord
100
AcDbLayerTableRecord
  2
COORDINATE
 70
0
 62
7
  6
CONTINUOUS
370
-3
390
F
  0
LAYER
  5
1FF
100
AcDbSymbolTableRecord
100
AcDbLayerTableRecord
  2
COORD_ORIGINE
 70
0
 62
7
  6
CONTINUOUS
370
-3
390
F
  0
LAYER
  5
200
100
AcDbSymbolTableRecord
100
AcDbLayerTableRecord
  2
COPY_PUBLISH
 70
0
 62
7
  6
CONTINUOUS
370
-3
390
F
  0
LAYER
  5
201
100
AcDbSymbolTableRecord
100
AcDbLayerTableRecord
  2
COSMETICI
 70
0
 62
7
  6
CONTINUOUS
370
-3
390
F
  0
LAYER
  5
202
100
AcDbSymbolTableRecord
100
AcDbLayerTableRecord
  2
CURVE
 70
0
 62
7
  6
CONTINUOUS
370
-3
390
F
  0
LAYER
  5
203
100
AcDbSymbolTableRecord
100
AcDbLayerTableRecord
  2
DRAFT
 70
0
 62
7
  6
CONTINUOUS
370
-3
390
F
  0
LAYER
  5
204
100
AcDbSymbolTableRecord
100
AcDbLayerTableRecord
  2
IMPORT
 70
0
 62
7
  6
CONTINUOUS
370
-3
390
F
  0
LAYER
  5
205
100
AcDbSymbolTableRecord
100
AcDbLayerTableRecord
  2
IMPORT_IGES
 70
0
 62
7
  6
CONTINUOUS
370
-3
390
F
  0
LAYER
  5
206
100
AcDbSymbolTableRecord
100
AcDbLayerTableRecord
  2
NOTE
 70
0
 62
7
  6
CONTINUOUS
370
-3
390
F
  0
LAYER
  5
207
100
AcDbSymbolTableRecord
100
AcDbLayerTableRecord
  2
PIANI
 70
0
 62
7
  6
CONTINUOUS
370
-3
390
F
  0
LAYER
  5
208
100
AcDbSymbolTableRecord
100
AcDbLayerTableRecord
  2
PIANI_ORIGINE
 70
0
 62
7
  6
CONTINUOUS
370
-3
390
F
  0
LAYER
  5
209
100
AcDbSymbolTableRecord
100
AcDbLayerTableRecord
  2
PUNTI
 70
0
 62
7
  6
CONTINUOUS
370
-3
390
F
  0
LAYER
  5
20A
100
AcDbSymbolTableRecord
100
AcDbLayerTableRecord
  2
RACCORDO
 70
0
 62
7
  6
CONTINUOUS
370
-3
390
F
  0
LAYER
  5
20B
100
AcDbSymbolTableRecord
100
AcDbLayerTableRecord
  2
SIMBOLI
 70
0
 62
7
  6
CONTINUOUS
370
-3
390
F
  0
LAYER
  5
20C
100
AcDbSymbolTableRecord
100
AcDbLayerTableRecord
  2
SMUSSO
 70
0
 62
7
  6
CONTINUOUS
370
-3
390
F
  0
LAYER
  5
20D
100
AcDbSymbolTableRecord
100
AcDbLayerTableRecord
  2
SNAPLINE
 70
0
 62
7
  6
CONTINUOUS
370
-3
390
F
  0
LAYER
  5
20E
100
AcDbSymbolTableRecord
100
AcDbLayerTableRecord
  2
SUPERFICI
 70
0
 62
7
  6
CONTINUOUS
370
-3
390
F
  0
LAYER
  5
20F
100
AcDbSymbolTableRecord
100
AcDbLayerTableRecord
  2
TRASH
 70
0
 62
7
  6
CONTINUOUS
370
-3
390
F
  0
LAYER
  5
210
100
AcDbSymbolTableRecord
100
AcDbLayerTableRecord
  2
XSEC_DATUMS
 70
0
 62
7
  6
CONTINUOUS
370
-3
390
F
  0
ENDTAB
  0
TABLE
  2
STYLE
  5
3
100
AcDbSymbolTable
 70
1
  0
STYLE
  5
11
100
AcDbSymbolTableRecord
100
AcDbTextStyleTableRecord
  2
STANDARD
 70
0
 40
0.0
 41
0.8
 50
0.0
 71
0
 42
0.2
  3
txt
  4

  0
STYLE
  5
211
100
AcDbSymbolTableRecord
100
AcDbTextStyleTableRecord
  2
TEXTSTYLE_1
 70
0
 40
0.0
 41
0.8
 50
0.0
 71
0
 42
0.2
  3
gdt
  4

  0
ENDTAB
  0
TABLE
  2
VIEW
  5
6
100
AcDbSymbolTable
 70
0
  0
ENDTAB
  0
TABLE
  2
UCS
  5
7
100
AcDbSymbolTable
 70
0
  0
ENDTAB
  0
TABLE
  2
APPID
  5
9
100
AcDbSymbolTable
 70
1
  0
APPID
  5
212
100
AcDbSymbolTableRecord
100
AcDbRegAppTableRecord
  2
ACAD
 70
0
  0
ENDTAB
  0
TABLE
  2
BLOCK_RECORD
  5
1
100
AcDbSymbolTable
 70
0
  0
BLOCK_RECORD
  5
213
100
AcDbSymbolTableRecord
100
AcDbBlockTableRecord
  2
*Model_Space
  0
BLOCK_RECORD
  5
214
100
AcDbSymbolTableRecord
100
AcDbBlockTableRecord
  2
*Paper_Space
  0
ENDTAB
  0
TABLE
  2
DIMSTYLE
  5
A
100
AcDbSymbolTable
 70
1
100
AcDbDimStyleTable
 71
0
  0
DIMSTYLE
105
215
100
AcDbSymbolTableRecord
100
AcDbDimStyleTableRecord
  2
STANDARD
 70
0
  3

  4

 40
1.0
 41
3.0
 42
0.5
 43
0.38
 44
1.5
 45
0.0
 46
0.0
 47
0.01
 48
0.01
140
3.0
141
0.09
142
0.0
143
25.4
144
1.0
145
0.0
146
1.0
147
0.625
 71
1.0
 72
0.0
 73
0
 74
0
 75
0
 76
0
 77
1
 78
8
170
0
171
1
172
0
173
0
174
0
175
0
176
0
177
0
178
0
270
2
271
2
272
2
273
2
274
2
275
0
280
0
281
0
282
0
283
1
284
8
285
0
286
0
287
3
288
0
340
11
278
44
  0
ENDTAB
  0
ENDSEC
  0
SECTION
  2
BLOCKS
  0
BLOCK
  5
20
100
AcDbEntity
  8
0
100
AcDbBlockBegin
  2
*Model_Space
 70
0
 10
0.0
 20
0.0
 30
0.0
  3
*Model_Space
  1

  0
ENDBLK
  5
21
100
AcDbEntity
  8
0
100
AcDbBlockEnd
  0
BLOCK
  5
1C
100
AcDbEntity
  8
0
100
AcDbBlockBegin
  2
*Paper_Space
 70
0
 10
0.0
 20
0.0
 30
0.0
  3
*Paper_Space
  1

  0
ENDBLK
  5
1D
100
AcDbEntity
  8
0
100
AcDbBlockEnd
  0
ENDSEC
  0
SECTION
  2
ENTITIES
  0
LWPOLYLINE
  5
216
100
AcDbEntity
  8
0
100
AcDbPolyline
 62
7
  6
CONTINUOUS
 90
16
 70
0
 10
-16.7206801231
 20
70.124375128
 10
-16.6401076286
 20
70.1661101884
 10
-16.5555037281
 20
70.2006952637
 10
-16.467488456
 20
70.2278891071
 10
-16.3760338126
 20
70.2476310533
 10
-16.2811677978
 20
70.2599817676
 10
-16.1836669256
 20
70.2648401549
 10
-16.0835095697
 20
70.2621447198
 10
-15.9807173566
 20
70.2519569576
 10
-15.8761316793
 20
70.2343602591
 10
-15.7697378176
 20
70.2092938133
 10
-15.6615504917
 20
70.1768184311
 10
-15.5524552558
 20
70.1371999359
 10
-15.4427472947
 20
70.0905269354
 10
-15.3321314237
 20
70.0367108217
 10
-15.2206076427
 20
69.975751595
  0
LWPOLYLINE
  5
217
100
AcDbEntity
  8
0
100
AcDbPolyline
 62
7
  6
CONTINUOUS
 90
16
 70
0
 10
-18.8420004666
 20
68.899551348
 10
-18.9182904301
 20
68.8507334963
 10
-18.9905489874
 20
68.7947656595
 10
-19.0581121947
 20
68.7321478007
 10
-19.1209415135
 20
68.6628253381
 10
-19.1790754822
 20
68.5868528535
 10
-19.2320382522
 20
68.5048522105
 10
-19.2797873796
 20
68.4167739314
 10
-19.3223653084
 20
68.3226674939
 10
-19.3594235221
 20
68.2233031947
 10
-19.3909167162
 20
68.1186378786
 10
-19.4168901951
 20
68.0087147009
 10
-19.4371313562
 20
67.8944334243
 10
-19.4515693319
 20
67.7760939699
 10
-19.4602749898
 20
67.6533964167
 10
-19.4632483298
 20
67.5263407646
  0
LINE
  5
218
100
AcDbEntity
  8
0
100
AcDbLine
 62
7
  6
CONTINUOUS
 10
-18.8420004667
 20
68.8995513481
 11
-16.7206801231
 21
70.124375128
  0
LINE
  5
219
100
AcDbEntity
  8
0
100
AcDbLine
 62
253
  6
CONTINUOUS
 10
-17.3419279862
 20
68.750927815
 11
-15.2206076427
 21
69.975751595
  0
LWPOLYLINE
  5
21A
100
AcDbEntity
  8
0
100
AcDbPolyline
 62
7
  6
CONTINUOUS
 90
21
 70
0
 10
-53.4043738267
 20
-26.3696349033
 10
-53.4008957994
 20
-26.5653500584
 10
-53.390587043
 20
-26.7562038197
 10
-53.3734475574
 20
-26.9421961873
 10
-53.349419284
 20
-27.1236464192
 10
-53.3185602815
 20
-27.3002352573
 10
-53.2810447262
 20
-27.4710049273
 10
-53.2368655105
 20
-27.6358454362
 10
-53.186029742
 20
-27.7948667769
 10
-53.1287329195
 20
-27.9474411542
 10
-53.0648977801
 20
-28.0936390283
 10
-52.9946015867
 20
-28.2333899388
 10
-52.9182716264
 20
-28.3658547095
 10
-52.8359482554
 20
-28.4908912045
 10
-52.7475911175
 20
-28.6086415596
 10
-52.6535064322
 20
-28.7186930061
 10
-52.5535733088
 20
-28.82110706
 10
-52.447912638
 20
-28.9158222053
 10
-52.3371933112
 20
-29.0022411255
 10
-52.2215038736
 20
-29.0802423116
 10
-52.1618819164
 20
-29.116062679
  0
LINE
  5
21B
100
AcDbEntity
  8
0
100
AcDbLine
 62
7
  6
CONTINUOUS
 10
-53.4043738267
 20
-17.3884618585
 11
-53.4043738267
 21
-26.3696349033
  0
LWPOLYLINE
  5
21C
100
AcDbEntity
  8
0
100
AcDbPolyline
 62
7
  6
CONTINUOUS
 90
21
 70
0
 10
18.5487962023
 20
-69.9435220118
 10
18.6099223387
 20
-69.9774066054
 10
18.735325833
 20
-70.0385825517
 10
18.8655342382
 20
-70.091245398
 10
19.0003980441
 20
-70.1353792296
 10
19.1390654647
 20
-70.1707035127
 10
19.2814227728
 20
-70.1971443241
 10
19.4275836957
 20
-70.2147755869
 10
19.577037629
 20
-70.2235385374
 10
19.72992785
 20
-70.2233970466
 10
19.8861110816
 20
-70.2143872435
 10
20.044646888
 20
-70.196558751
 10
20.2054356116
 20
-70.1698798975
 10
20.3685769101
 20
-70.1343823546
 10
20.5334293203
 20
-70.0902107597
 10
20.7000845479
 20
-70.0373039564
 10
20.8684508871
 20
-69.9757231011
 10
21.0376117579
 20
-69.9057963008
 10
21.2072616334
 20
-69.8276329245
 10
21.3777060405
 20
-69.7411236031
 10
21.548944979
 20
-69.6462683368
  0
LWPOLYLINE
  5
21D
100
AcDbEntity
  8
0
100
AcDbPolyline
 62
7
  6
CONTINUOUS
 90
19
 70
0
 10
20.0488724986
 20
-67.3454810394
 10
20.1157661383
 20
-67.3807855793
 10
20.1854390103
 20
-67.4111089623
 10
20.2575669753
 20
-67.4363204147
 10
20.3321640355
 20
-67.456390781
 10
20.4092161886
 20
-67.4713492167
 10
20.4882848072
 20
-67.4811105695
 10
20.5693813921
 20
-67.485645198
 10
20.6524944425
 20
-67.4849827435
 10
20.7371508288
 20
-67.4791269771
 10
20.8233593533
 20
-67.4680482791
 10
20.9111112136
 20
-67.4517762692
 10
20.9999068734
 20
-67.4304035775
 10
21.0897522857
 20
-67.4039011125
 10
21.1806414973
 20
-67.3722979658
 10
21.2720571121
 20
-67.3357740414
 10
21.3638266646
 20
-67.2943893074
 10
21.4561226203
 20
-67.2480837957
 10
21.548944979
 20
-67.1968575064
  0
LWPOLYLINE
  5
21E
100
AcDbEntity
  8
0
100
AcDbPolyline
 62
7
  6
CONTINUOUS
 90
8
 70
0
 10
-27.4131438736
 20
-43.4056722306
 10
-27.2812524485
 20
-43.4753978981
 10
-27.1554938512
 20
-43.5307483995
 10
-27.0251257924
 20
-43.5779714783
 10
-26.8910594395
 20
-43.6167370834
 10
-26.7535985151
 20
-43.6469351977
 10
-26.6124392966
 20
-43.6686758383
 10
-26.4675817842
 20
-43.6819590051
  0
LWPOLYLINE
  5
21F
100
AcDbEntity
  8
0
100
AcDbPolyline
 62
7
  6
CONTINUOUS
 90
7
 70
0
 10
-25.9130529717
 20
-40.8076059458
 10
-25.8733503973
 20
-40.8293103676
 10
-25.7931455528
 20
-40.8665305844
 10
-25.7096615424
 20
-40.8968246864
 10
-25.6231497912
 20
-40.9200687581
 10
-25.5333588741
 20
-40.9363867151
 10
-25.4402887911
 20
-40.9457785574
  0
LWPOLYLINE
  5
220
100
AcDbEntity
  8
0
100
AcDbPolyline
 62
7
  6
CONTINUOUS
 90
23
 70
0
 10
-24.7665491887
 20
-43.9735482701
 10
-24.8005586688
 20
-43.9548075953
 10
-24.8370881169
 20
-43.9366646199
 10
-24.8761359654
 20
-43.9191114672
 10
-24.9176456734
 20
-43.9020909383
 10
-24.9616674033
 20
-43.8856285922
 10
-25.0083573773
 20
-43.8698297647
 10
-25.0577405985
 20
-43.8546308372
 10
-25.1097764817
 20
-43.8400214809
 10
-25.1645187756
 20
-43.8261686221
 10
-25.2220208408
 20
-43.8129914833
 10
-25.2821995755
 20
-43.8004393881
 10
-25.3448979303
 20
-43.7886999274
 10
-25.4101771156
 20
-43.7776541344
 10
-25.4779260356
 20
-43.7672206541
 10
-25.5477214121
 20
-43.7576171066
 10
-25.6195439054
 20
-43.7487141821
 10
-25.6933361746
 20
-43.7403671716
 10
-25.7686084688
 20
-43.732744594
 10
-25.8453176381
 20
-43.7256422719
 10
-25.9233953727
 20
-43.7189149634
 10
-26.0022999681
 20
-43.7127852523
 10
-26.1634291562
 20
-43.7013591207
  0
LINE
  5
221
100
AcDbEntity
  8
0
100
AcDbLine
 62
7
  6
CONTINUOUS
 10
-52.1618781005
 20
-29.1160560701
 11
-27.4131407589
 21
-43.4056668366
  0
LINE
  5
222
100
AcDbEntity
  8
0
100
AcDbLine
 62
7
  6
CONTINUOUS
 10
-6.1999373233
 20
-55.6539046364
 11
18.5488000182
 21
-69.9435154029
  0
LINE
  5
223
100
AcDbEntity
  8
0
100
AcDbLine
 62
7
  6
CONTINUOUS
 10
-24.7665491887
 20
-43.9735482701
 11
-7.3067095512
 21
-54.0546408536
  0
LINE
  5
224
100
AcDbEntity
  8
0
100
AcDbLine
 62
253
  6
CONTINUOUS
 10
-53.4043738267
 20
-26.3696349033
 11
-28.6556364852
 21
-40.6592456697
  0
LINE
  5
225
100
AcDbEntity
  8
0
100
AcDbLine
 62
253
  6
CONTINUOUS
 10
-7.4424330496
 20
-52.9074834696
 11
17.3063042919
 21
-67.197094236
  0
LINE
  5
226
100
AcDbEntity
  8
0
100
AcDbLine
 62
7
  6
CONTINUOUS
 10
-27.948529704
 20
-39.4345797095
 11
-8.1495398308
 21
-50.8662683226
  0
LINE
  5
227
100
AcDbEntity
  8
0
100
AcDbLine
 62
253
  6
CONTINUOUS
 10
19.4277271457
 20
-65.9720929146
 11
21.548944979
 21
-67.1968575064
  0
LWPOLYLINE
  5
228
100
AcDbEntity
  8
0
100
AcDbPolyline
 62
7
  6
CONTINUOUS
 90
25
 70
0
 10
-8.1495398308
 20
-50.8662683226
 10
-8.1029675643
 20
-50.8949686921
 10
-8.0569843345
 20
-50.9267482485
 10
-8.0115901412
 20
-50.961606992
 10
-7.9665961844
 20
-50.999720063
 10
-7.9221912641
 20
-51.040912321
 10
-7.8789417807
 20
-51.0846583445
 10
-7.8368625351
 20
-51.1309908467
 10
-7.7959387262
 20
-51.1798771143
 10
-7.7566923516
 20
-51.2306935859
 10
-7.7191448989
 20
-51.2834649871
 10
-7.6832748804
 20
-51.3381665924
 10
-7.6495398308
 20
-51.3941006636
 10
-7.6179670986
 20
-51.4512829885
 10
-7.5885293352
 20
-51.5096977794
 10
-7.5616020296
 20
-51.5685999353
 10
-7.5372173403
 20
-51.6279956993
 10
-7.5153431087
 20
-51.6878788282
 10
-7.4962583484
 20
-51.7474854919
 10
-7.4799987919
 20
-51.806812149
 10
-7.4665287066
 20
-51.8658623408
 10
-7.4560199081
 20
-51.9238828617
 10
-7.4485296684
 20
-51.980622643
 10
-7.4440007156
 20
-52.0363327534
 10
-7.4424330496
 20
-52.0910131928
  0
LINE
  5
229
100
AcDbEntity
  8
0
100
AcDbLine
 62
253
  6
CONTINUOUS
 10
-16.2813734148
 20
39.5621136298
 11
-17.3419279862
 21
38.9497627121
  0
LWPOLYLINE
  5
22A
100
AcDbEntity
  8
0
100
AcDbPolyline
 62
7
  6
CONTINUOUS
 90
15
 70
0
 10
5.5961292138
 20
52.6986016952
 10
5.6183432503
 20
52.7106971921
 10
5.664369967
 20
52.7314422456
 10
5.71272172
 20
52.74764543
 10
5.7633751971
 20
52.7593522847
 10
5.8158190976
 20
52.7664446397
 10
5.8700715554
 20
52.7688757586
 10
5.9261144366
 20
52.7666923778
 10
5.9833820395
 20
52.7599165367
 10
6.0418867685
 20
52.7485017218
 10
6.1016162193
 20
52.7324944466
 10
6.1619674776
 20
52.7120562897
 10
6.222739572
 20
52.6872411108
 10
6.284133474
 20
52.6579950503
 10
6.3461491835
 20
52.6243181082
  0
LWPOLYLINE
  5
22B
100
AcDbEntity
  8
0
100
AcDbPolyline
 62
7
  6
CONTINUOUS
 90
42
 70
0
 10
-17.0312877842
 20
39.6363398243
 10
-17.0090737477
 20
39.6484353212
 10
-16.963047031
 20
39.6691803748
 10
-16.9146952779
 20
39.6853835591
 10
-16.8640418009
 20
39.6970904138
 10
-16.8115979003
 20
39.7041827688
 10
-16.7573454426
 20
39.7066138877
 10
-16.7013025614
 20
39.704430507
 10
-16.6440349584
 20
39.6976546658
 10
-16.5855302295
 20
39.6862398509
 10
-16.5258007787
 20
39.6702325757
 10
-16.4654495204
 20
39.6497944188
 10
-16.4044701568
 20
39.6248805036
 10
-16.3428689856
 20
39.5955357068
 10
-16.2812678145
 20
39.5620562373
 10
-16.2196666433
 20
39.5244002184
 10
-16.1580654721
 20
39.4826095269
 10
-16.0970861085
 20
39.4371060014
 10
-16.0367348502
 20
39.387852038
 10
-15.9770053994
 20
39.3348852407
 10
-15.9185006705
 20
39.278740261
 10
-15.8612330675
 20
39.2193849097
 10
-15.8051901863
 20
39.156851376
 10
-15.7509377286
 20
39.0917708788
 10
-15.698493828
 20
39.024117622
 10
-15.647840351
 20
38.9539174017
 10
-15.5994885979
 20
38.8818788249
 10
-15.5534618812
 20
38.8079832726
 10
-15.5097368886
 20
38.7322493638
 10
-15.4687549838
 20
38.6554415633
 10
-15.4305439494
 20
38.5775489943
 10
-15.395076003
 20
38.4985825336
 10
-15.3627091609
 20
38.4193392754
 10
-15.3334748318
 20
38.3398164162
 10
-15.3073416071
 20
38.2600167594
 10
-15.2845732779
 20
38.1807458098
 10
-15.2652039243
 20
38.1020089222
 10
-15.2491994662
 20
38.0238007416
 10
-15.236721454
 20
37.9469107083
 10
-15.2278237377
 20
37.871601969
 10
-15.2224524673
 20
37.7976113769
 10
-15.2206076427
 20
37.7249389321
  0
LINE
  5
22C
100
AcDbEntity
  8
0
100
AcDbLine
 62
7
  6
CONTINUOUS
 10
-26.1634291562
 20
-43.7013591207
 11
-26.4675817842
 21
-43.6819590051
  0
LWPOLYLINE
  5
22D
100
AcDbEntity
  8
0
100
AcDbPolyline
 62
7
  6
CONTINUOUS
 90
6
 70
0
 10
-25.4402887911
 20
-40.9457785574
 10
-25.4133947451
 20
-40.9476959784
 10
-25.3841489329
 20
-40.9503560911
 10
-25.3525573033
 20
-40.9537613675
 10
-25.3186588519
 20
-40.9578737756
 10
-25.3077396072
 20
-40.9593388145
  0
LINE
  5
22E
100
AcDbEntity
  8
0
100
AcDbLine
 62
7
  6
CONTINUOUS
 10
20.4882848072
 20
-58.8272283432
 11
19.4276246355
 21
-58.2148164532
  0
LWPOLYLINE
  5
22F
100
AcDbEntity
  8
0
100
AcDbPolyline
 62
7
  6
CONTINUOUS
 90
9
 70
0
 10
-26.3260918491
 20
-40.371354993
 10
-26.3172085118
 20
-40.3885218551
 10
-26.267265256
 20
-40.469842219
 10
-26.2123638335
 20
-40.5456864207
 10
-26.153081092
 20
-40.6152575672
 10
-26.0894933546
 20
-40.6783837985
 10
-26.0215242982
 20
-40.7352369747
 10
-25.9495218009
 20
-40.7855357828
 10
-25.9130529717
 20
-40.8076059458
  0
LINE
  5
230
100
AcDbEntity
  8
DRAFT
100
AcDbLine
 62
7
  6
CONTINUOUS
 10
5.2978306665
 20
45.8675156832
 11
5.5893363021
 21
46.0417541579
  0
LINE
  5
231
100
AcDbEntity
  8
0
100
AcDbLine
 62
253
  6
CONTINUOUS
 10
6.3461491835
 20
50.1749072778
 11
8.4674695271
 21
51.3997310578
  0
LINE
  5
232
100
AcDbEntity
  8
0
100
AcDbLine
 62
253
  6
CONTINUOUS
 10
4.4723162134
 20
47.1747202957
 11
3.5530773978
 21
46.6439633244
  0
LWPOLYLINE
  5
233
100
AcDbEntity
  8
0
100
AcDbPolyline
 62
7
  6
CONTINUOUS
 90
9
 70
0
 10
3.9465343778
 20
47.5136633606
 10
3.9866445103
 20
47.5349444408
 10
4.0424743602
 20
47.5588521753
 10
4.1008990515
 20
47.5776264329
 10
4.1617417502
 20
47.5912099625
 10
4.2248185484
 20
47.5995611442
 10
4.2899374157
 20
47.6026540124
 10
4.3568990511
 20
47.6004788595
 10
4.3933959183
 20
47.5965224619
  0
LINE
  5
234
100
AcDbEntity
  8
ASSI
100
AcDbLine
 62
7
  6
CONTINUOUS
 10
4.4723162134
 20
41.6268418146
 11
4.525623182
 21
41.6537549407
  0
LWPOLYLINE
  5
235
100
AcDbEntity
  8
0
100
AcDbPolyline
 62
7
  6
CONTINUOUS
 90
16
 70
0
 10
-51.2830534832
 20
-16.1638748081
 10
-51.3945772642
 20
-16.1029155814
 10
-51.5051931352
 20
-16.0490994678
 10
-51.6149010963
 20
-16.0024264672
 10
-51.7239963322
 20
-15.962807972
 10
-51.8321836581
 20
-15.9303325898
 10
-51.9385775199
 20
-15.9052661441
 10
-52.0431631971
 20
-15.8876694455
 10
-52.1459554103
 20
-15.8774816834
 10
-52.2461127661
 20
-15.8747862483
 10
-52.3436136383
 20
-15.8796446355
 10
-52.4384796532
 20
-15.8919953499
 10
-52.5299342965
 20
-15.911737296
 10
-52.6179495686
 20
-15.9389311395
 10
-52.7025534691
 20
-15.9735162147
 10
-52.7831259636
 20
-16.0152512752
  0
LINE
  5
236
100
AcDbEntity
  8
0
100
AcDbLine
 62
7
  6
CONTINUOUS
 10
15.1849839483
 20
-54.5416865809
 11
-51.2830534832
 21
-16.1638748081
  0
LINE
  5
237
100
AcDbEntity
  8
0
100
AcDbLine
 62
7
  6
CONTINUOUS
 10
17.3063042919
 20
-53.316862801
 11
-49.1617331396
 21
-14.9390510282
  0
LWPOLYLINE
  5
238
100
AcDbEntity
  8
0
100
AcDbPolyline
 62
7
  6
CONTINUOUS
 90
31
 70
0
 10
17.3063042919
 20
-53.316862801
 10
17.4178280729
 20
-53.3846884411
 10
17.5284439439
 20
-53.4586087627
 10
17.638151905
 20
-53.5386237656
 10
17.7472471409
 20
-53.6249857142
 10
17.8554344668
 20
-53.7174423442
 10
17.9618283286
 20
-53.8152368632
 10
18.0664140059
 20
-53.9184130832
 10
18.169206219
 20
-54.0269271922
 10
18.2693635748
 20
-54.139890961
 10
18.366864447
 20
-54.2573409116
 10
18.4617304619
 20
-54.379240522
 10
18.5531851052
 20
-54.5045919979
 10
18.6412003773
 20
-54.6334236714
 10
18.7258042778
 20
-54.7657072103
 10
18.8063042919
 20
-54.9003598239
 10
18.8826667357
 20
-55.0374009569
 10
18.9549252931
 20
-55.1768111645
 10
19.0224885004
 20
-55.3174493216
 10
19.0853178192
 20
-55.4593255066
 10
19.1434517879
 20
-55.6024296411
 10
19.1964145579
 20
-55.7455903633
 10
19.2441636853
 20
-55.8888081379
 10
19.2867416141
 20
-56.0320825004
 10
19.3237998278
 20
-56.1742406958
 10
19.3552930218
 20
-56.315273563
 10
19.3812665008
 20
-56.4551902632
 10
19.4015076619
 20
-56.5928455252
 10
19.4159456376
 20
-56.727857592
 10
19.4246512955
 20
-56.8606082208
 10
19.4276246355
 20
-56.9910974113
  0
LWPOLYLINE
  5
239
100
AcDbEntity
  8
0
100
AcDbPolyline
 62
7
  6
CONTINUOUS
 90
21
 70
0
 10
-28.6556364852
 20
-40.6592456697
 10
-28.6523463463
 20
-40.8506227799
 10
-28.6424747947
 20
-41.0375253339
 10
-28.6260218304
 20
-41.2199533317
 10
-28.6029182953
 20
-41.3983118762
 10
-28.5732333475
 20
-41.5721958644
 10
-28.5371744608
 20
-41.7403899876
 10
-28.4947429736
 20
-41.9026607509
 10
-28.4459375475
 20
-42.0592416492
 10
-28.3909616412
 20
-42.2096178581
 10
-28.3298154912
 20
-42.3537896153
 10
-28.2624988612
 20
-42.4917566833
 10
-28.1892145003
 20
-42.6230035241
 10
-28.1098311465
 20
-42.7476329887
 10
-28.024480062
 20
-42.8655422263
 10
-27.9337577818
 20
-42.9759071463
 10
-27.8377360998
 20
-43.0785500858
 10
-27.7363432223
 20
-43.1736487079
 10
-27.629960303
 20
-43.2609119103
 10
-27.5185875332
 20
-43.3403399935
 10
-27.4131438736
 20
-43.4056722306
  0
LINE
  5
23A
100
AcDbEntity
  8
0
100
AcDbLine
 62
7
  6
CONTINUOUS
 10
-28.6556364852
 20
-40.6592456697
 11
-28.6556364852
 21
-39.8427753929
  0
LWPOLYLINE
  5
23B
100
AcDbEntity
  8
ASSI
100
AcDbPolyline
 62
7
  6
CONTINUOUS
 90
3
 70
0
 10
5.2515755531
 20
42.0615687994
 10
5.2807302911
 20
42.0799229817
 10
5.2978306665
 20
42.0943571215
  0
LWPOLYLINE
  5
23C
100
AcDbEntity
  8
ASSI
100
AcDbPolyline
 62
253
  6
CONTINUOUS
 90
17
 70
0
 10
4.525623182
 20
41.6537549407
 10
4.5432464838
 20
41.6643846605
 10
4.5955712992
 20
41.7061757954
 10
4.6403029576
 20
41.7588783155
 10
4.6768365402
 20
41.8217795097
 10
4.7046779929
 20
41.8940287473
 10
4.7234508079
 20
41.9746489811
 10
4.732901115
 20
42.062549961
 10
4.732901115
 20
42.1565429768
 10
4.7234508079
 20
42.2553569344
 10
4.7046779929
 20
42.3576555444
 10
4.6768365402
 20
42.4620553937
 10
4.6403029576
 20
42.5671446534
 10
4.5955712992
 20
42.6715021714
 10
4.5432464838
 20
42.7737166915
 10
4.4840361149
 20
42.8724059376
 10
4.4723162134
 20
42.8892474651
  0
LINE
  5
23D
100
AcDbEntity
  8
ASSI
100
AcDbLine
 62
7
  6
CONTINUOUS
 10
5.2516875812
 20
42.0613730242
 11
4.525623182
 21
41.6537549407
  0
LWPOLYLINE
  5
23E
100
AcDbEntity
  8
0
100
AcDbPolyline
 62
7
  6
CONTINUOUS
 90
13
 70
0
 10
-28.6556364852
 20
-39.8427753929
 10
-28.6540688192
 20
-39.7899052549
 10
-28.6495398664
 20
-39.7394250658
 10
-28.6420496267
 20
-39.6913348255
 10
-28.6315408283
 20
-39.6454496017
 10
-28.618070743
 20
-39.6019543267
 10
-28.6018111865
 20
-39.5614037979
 10
-28.5827264261
 20
-39.523835737
 10
-28.5608521946
 20
-39.4892124224
 10
-28.5364675052
 20
-39.4579754865
 10
-28.5095401996
 20
-39.4301683082
 10
-28.4801024363
 20
-39.4057475085
 10
-28.4485538642
 20
-39.3850385318
  0
LINE
  5
23F
100
AcDbEntity
  8
RACCORDO
100
AcDbLine
 62
7
  6
CONTINUOUS
 10
4.9319356211
 20
34.4178200343
 11
4.4723162134
 21
34.1524418158
  0
LINE
  5
240
100
AcDbEntity
  8
0
100
AcDbLine
 62
253
  6
CONTINUOUS
 10
-17.3419279862
 20
16.9050652387
 11
-15.2206076427
 21
18.1298890187
  0
LWPOLYLINE
  5
241
100
AcDbEntity
  8
0
100
AcDbPolyline
 62
7
  6
CONTINUOUS
 90
25
 70
0
 10
-15.2206076427
 20
-18.2036695775
 10
-15.2687475751
 20
-18.1776844853
 10
-15.3192597578
 20
-18.1537493052
 10
-15.3721441908
 20
-18.1318640375
 10
-15.4276469461
 20
-18.1119527392
 10
-15.4855219516
 20
-18.0940913532
 10
-15.5450309915
 20
-18.0785077077
 10
-15.6061949975
 20
-18.0652309801
 10
-15.6689930379
 20
-18.0542319929
 10
-15.7326241018
 20
-18.0456510421
 10
-15.7970988602
 20
-18.0395191022
 10
-15.862406642
 20
-18.0358051988
 10
-15.9277144239
 20
-18.0345567038
 10
-15.9930222057
 20
-18.0358051988
 10
-16.0583299875
 20
-18.0395191022
 10
-16.1228047459
 20
-18.0456510421
 10
-16.1864358098
 20
-18.0542319929
 10
-16.2492338502
 20
-18.0652309801
 10
-16.3103978562
 20
-18.0785077077
 10
-16.3699068961
 20
-18.0940913532
 10
-16.4277819016
 20
-18.1119527392
 10
-16.4832846569
 20
-18.1318640375
 10
-16.5361690899
 20
-18.1537493052
 10
-16.5866812726
 20
-18.1776844853
 10
-16.634821205
 20
-18.2036695775
  0
LINE
  5
242
100
AcDbEntity
  8
0
100
AcDbLine
 62
7
  6
CONTINUOUS
 10
-15.2206076427
 20
-18.2036695775
 11
38.5197127281
 21
-49.2326570352
  0
LINE
  5
243
100
AcDbEntity
  8
0
100
AcDbLine
 62
7
  6
CONTINUOUS
 10
-19.4632483298
 20
-6.7724544235
 11
-19.4632483298
 21
67.5263407646
  0
LINE
  5
244
100
AcDbEntity
  8
0
100
AcDbLine
 62
7
  6
CONTINUOUS
 10
-17.3419279862
 20
16.9050652387
 11
-17.3419279862
 21
38.9497627121
  0
LWPOLYLINE
  5
245
100
AcDbEntity
  8
0
100
AcDbPolyline
 62
7
  6
CONTINUOUS
 90
37
 70
0
 10
-19.4632483298
 20
-6.7724544235
 10
-19.4652992976
 20
-6.8808172013
 10
-19.4713486941
 20
-6.9908808033
 10
-19.4813965194
 20
-7.1026452296
 10
-19.4954770789
 20
-7.2163294272
 10
-19.5135560672
 20
-7.331714449
 10
-19.5355305677
 20
-7.4481434539
 10
-19.5614227982
 20
-7.5656223962
 10
-19.5912105409
 20
-7.6841453216
 10
-19.624724226
 20
-7.8030375261
 10
-19.6619851043
 20
-7.9223011158
 10
-19.7029719249
 20
-8.0419339846
 10
-19.7474513663
 20
-8.1612551101
 10
-19.7954433482
 20
-8.2802627141
 10
-19.846927951
 20
-8.3989585748
 10
-19.901612093
 20
-8.5166670037
 10
-19.9595140226
 20
-8.633382369
 10
-20.0206154915
 20
-8.7491103025
 10
-20.0845686734
 20
-8.863192011
 10
-20.1513898326
 20
-8.9756181053
 10
-20.2210627047
 20
-9.0863979746
 10
-20.2931906696
 20
-9.1949009929
 10
-20.3677877299
 20
-9.3011141746
 10
-20.444839883
 20
-9.4050505054
 10
-20.5239085016
 20
-9.5061183169
 10
-20.6050050865
 20
-9.6043012489
 10
-20.6881181368
 20
-9.6996156617
 10
-20.7727745231
 20
-9.7915189682
 10
-20.8589830476
 20
-9.8799917134
 10
-20.946734908
 20
-9.9650533523
 10
-21.0355305677
 20
-10.0462196626
 10
-21.12537598
 20
-10.1234684277
 10
-21.2162651916
 20
-10.1968218644
 10
-21.3076808064
 20
-10.2658624005
 10
-21.3994503589
 20
-10.3304508455
 10
-21.4917463146
 20
-10.3907263899
 10
-21.5845686734
 20
-10.4466890339
  0
LWPOLYLINE
  5
246
100
AcDbEntity
  8
0
100
AcDbPolyline
 62
7
  6
CONTINUOUS
 90
15
 70
0
 10
-17.3419279862
 20
38.9497627121
 10
-17.3400831616
 20
39.0203047997
 10
-17.3347118912
 20
39.0880927833
 10
-17.3258141749
 20
39.1531266629
 10
-17.3133361627
 20
39.2156074004
 10
-17.2973317046
 20
39.2753340339
 10
-17.277962351
 20
39.3317036776
 10
-17.2551940218
 20
39.3846823314
 10
-17.2290607971
 20
39.4343039953
 10
-17.199826468
 20
39.480067784
 10
-17.1674596259
 20
39.5219346243
 10
-17.1319916795
 20
39.5599435895
 10
-17.0937806451
 20
39.5937110137
 10
-17.0527987403
 20
39.6231939379
 10
-17.0312877842
 20
39.6363398243
  0
LINE
  5
247
100
AcDbEntity
  8
0
100
AcDbLine
 62
253
  6
CONTINUOUS
 10
25.4380322756
 20
39.1514932579
 11
26.4986895236
 21
39.7639034598
  0
LWPOLYLINE
  5
248
100
AcDbEntity
  8
0
100
AcDbPolyline
 62
7
  6
CONTINUOUS
 90
15
 70
0
 10
26.1880522453
 20
39.0772096709
 10
26.1658382088
 20
39.065114174
 10
26.1198114921
 20
39.0443691204
 10
26.0714597391
 20
39.0281659361
 10
26.020806262
 20
39.0164590814
 10
25.9683623614
 20
39.0093667264
 10
25.9141099037
 20
39.0069356075
 10
25.8580670225
 20
39.0091189883
 10
25.8007994195
 20
39.0158948294
 10
25.7422946906
 20
39.0273096443
 10
25.6825652398
 20
39.0433169195
 10
25.6222139815
 20
39.0637550764
 10
25.5614418871
 20
39.0885702553
 10
25.5000479851
 20
39.1178163158
 10
25.4380322756
 20
39.1514932579
  0
LWPOLYLINE
  5
249
100
AcDbEntity
  8
0
100
AcDbPolyline
 62
7
  6
CONTINUOUS
 90
42
 70
0
 10
-15.5312478447
 20
14.9936643465
 10
-15.5534618812
 20
14.9815688496
 10
-15.5994885979
 20
14.960823796
 10
-15.647840351
 20
14.9446206117
 10
-15.698493828
 20
14.932913757
 10
-15.7509377286
 20
14.925821402
 10
-15.8051901863
 20
14.9233902831
 10
-15.8612330675
 20
14.9255736638
 10
-15.9185006705
 20
14.932349505
 10
-15.9770053994
 20
14.9437643198
 10
-16.0367348502
 20
14.9597715951
 10
-16.0970861085
 20
14.980209752
 10
-16.1580654721
 20
15.0051236672
 10
-16.2196666433
 20
15.034468464
 10
-16.2812678145
 20
15.0679479335
 10
-16.3428689856
 20
15.1056039524
 10
-16.4044701568
 20
15.1473946439
 10
-16.4654495204
 20
15.1928981693
 10
-16.5258007787
 20
15.2421521328
 10
-16.5855302295
 20
15.2951189301
 10
-16.6440349584
 20
15.3512639098
 10
-16.7013025614
 20
15.4106192611
 10
-16.7573454426
 20
15.4731527948
 10
-16.8115979003
 20
15.538233292
 10
-16.8640418009
 20
15.6058865488
 10
-16.9146952779
 20
15.6760867691
 10
-16.963047031
 20
15.7481253458
 10
-17.0090737477
 20
15.8220208982
 10
-17.0527987403
 20
15.8977548069
 10
-17.0937806451
 20
15.9745626075
 10
-17.1319916795
 20
16.0524551764
 10
-17.1674596259
 20
16.1314216372
 10
-17.199826468
 20
16.2106648954
 10
-17.2290607971
 20
16.2901877546
 10
-17.2551940218
 20
16.3699874113
 10
-17.277962351
 20
16.449258361
 10
-17.2973317046
 20
16.5279952486
 10
-17.3133361627
 20
16.6062034292
 10
-17.3258141749
 20
16.6830934625
 10
-17.3347118912
 20
16.7584022018
 10
-17.3400831616
 20
16.8323927939
 10
-17.3419279862
 20
16.9050652387
  0
LINE
  5
24A
100
AcDbEntity
  8
0
100
AcDbLine
 62
253
  6
CONTINUOUS
 10
25.5440982927
 20
-21.3285484137
 11
27.9482613488
 21
-21.3285484137
  0
LINE
  5
24B
100
AcDbEntity
  8
0
100
AcDbLine
 62
7
  6
CONTINUOUS
 10
-15.2206076427
 20
-15.7542587471
 11
39.9337212899
 21
-47.5996770267
  0
LINE
  5
24C
100
AcDbEntity
  8
0
100
AcDbLine
 62
253
  6
CONTINUOUS
 10
49.1261094453
 20
-51.2741483667
 11
-21.5845686734
 21
-10.4466890339
  0
LINE
  5
24D
100
AcDbEntity
  8
0
100
AcDbLine
 62
7
  6
CONTINUOUS
 10
16.8666705308
 20
-32.3195329071
 11
11.2098162813
 21
-29.0533361605
  0
LWPOLYLINE
  5
24E
100
AcDbEntity
  8
0
100
AcDbPolyline
 62
7
  6
CONTINUOUS
 90
13
 70
0
 10
39.9337212899
 20
-47.5996770267
 10
39.9787258904
 20
-47.6274724204
 10
40.0201801674
 20
-47.6566375216
 10
40.058084121
 20
-47.6871723304
 10
40.0925692794
 20
-47.7192189257
 10
40.1235041143
 20
-47.7526352285
 10
40.1504940412
 20
-47.7869950023
 10
40.1734885265
 20
-47.8223103328
 10
40.1925381038
 20
-47.8585691343
 10
40.2073997891
 20
-47.8953089132
 10
40.2180199362
 20
-47.9325358306
 10
40.2244521913
 20
-47.9702437253
 10
40.2266145087
 20
-48.00795162
  0
LWPOLYLINE
  5
24F
100
AcDbEntity
  8
0
100
AcDbPolyline
 62
7
  6
CONTINUOUS
 90
12
 70
0
 10
11.2098162813
 20
-29.0533361605
 10
11.1560492315
 20
-29.0198753281
 10
11.1066141049
 20
-28.985123492
 10
11.0615083153
 20
-28.9490593673
 10
11.0205958439
 20
-28.9112898986
 10
10.9840017174
 20
-28.8721241283
 10
10.9521136832
 20
-28.8325883095
 10
10.9251640834
 20
-28.7927171401
 10
10.9029011993
 20
-28.7523599647
 10
10.8849891209
 20
-28.7122910527
 10
10.8715190681
 20
-28.6725759618
 10
10.863357476
 20
-28.6382367983
  0
LINE
  5
250
100
AcDbEntity
  8
0
100
AcDbLine
 62
253
  6
CONTINUOUS
 10
-16.634821205
 20
-18.2036695775
 11
-16.634821205
 21
-15.7542587471
  0
LINE
  5
251
100
AcDbEntity
  8
0
100
AcDbLine
 62
7
  6
CONTINUOUS
 10
-15.2206076427
 20
37.7249389321
 11
-15.2206076427
 21
15.6802414587
  0
LINE
  5
252
100
AcDbEntity
  8
0
100
AcDbLine
 62
253
  6
CONTINUOUS
 10
-15.2206076427
 20
-18.2036695775
 11
-15.2206076427
 21
-15.7542587471
  0
LWPOLYLINE
  5
253
100
AcDbEntity
  8
0
100
AcDbPolyline
 62
7
  6
CONTINUOUS
 90
15
 70
0
 10
-15.2206076427
 20
15.6802414587
 10
-15.2224524673
 20
15.6096993711
 10
-15.2278237377
 20
15.5419113875
 10
-15.236721454
 20
15.4768775079
 10
-15.2491994662
 20
15.4143967703
 10
-15.2652039243
 20
15.3546701368
 10
-15.2845732779
 20
15.2983004931
 10
-15.3073416071
 20
15.2453218394
 10
-15.3334748318
 20
15.1957001755
 10
-15.3627091609
 20
15.1499363868
 10
-15.395076003
 20
15.1080695464
 10
-15.4305439494
 20
15.0700605813
 10
-15.4687549838
 20
15.0362931571
 10
-15.5097368886
 20
15.0068102328
 10
-15.5312478447
 20
14.9936643465
  0
LINE
  5
254
100
AcDbEntity
  8
0
100
AcDbLine
 62
253
  6
CONTINUOUS
 10
-24.7665491887
 20
-43.9735482701
 11
-24.2863919369
 21
-41.5490521589
  0
LWPOLYLINE
  5
255
100
AcDbEntity
  8
0
100
AcDbPolyline
 62
7
  6
CONTINUOUS
 90
16
 70
0
 10
-52.7831259636
 20
-16.0152512752
 10
-52.859415927
 20
-16.0640691268
 10
-52.9316744844
 20
-16.1200369637
 10
-52.9992376916
 20
-16.1826548225
 10
-53.0620670104
 20
-16.2519772851
 10
-53.1202009791
 20
-16.3279497697
 10
-53.1731637492
 20
-16.4099504126
 10
-53.2209128766
 20
-16.4980286918
 10
-53.2634908054
 20
-16.5921351293
 10
-53.3005490191
 20
-16.6914994285
 10
-53.3320422131
 20
-16.7961647446
 10
-53.3580156921
 20
-16.9060879223
 10
-53.3782568532
 20
-17.0203691988
 10
-53.3926948289
 20
-17.1387086532
 10
-53.4014004867
 20
-17.2614062065
 10
-53.4043738267
 20
-17.3884618585
  0
LWPOLYLINE
  5
256
100
AcDbEntity
  8
0
100
AcDbPolyline
 62
7
  6
CONTINUOUS
 90
10
 70
0
 10
5.0708485013
 20
18.2963126429
 10
5.0536045787
 20
18.2858231546
 10
4.9875548583
 20
18.2359447134
 10
4.9294835418
 20
18.1755392107
 10
4.8796060835
 20
18.1043223665
 10
4.8377070291
 20
18.0225784608
 10
4.8049077553
 20
17.9324952686
 10
4.7815820542
 20
17.8348020483
 10
4.7673561337
 20
17.7287695414
 10
4.7622299937
 20
17.6143977479
  0
LINE
  5
257
100
AcDbEntity
  8
DRAFT
100
AcDbLine
 62
7
  6
CONTINUOUS
 10
6.2400831663
 20
20.7022925555
 11
4.4723162134
 21
19.6562564507
  0
LINE
  5
258
100
AcDbEntity
  8
0
100
AcDbLine
 62
253
  6
CONTINUOUS
 10
28.8675001643
 20
33.0892468259
 11
27.9482613488
 21
32.5584898546
  0
LINE
  5
259
100
AcDbEntity
  8
0
100
AcDbLine
 62
7
  6
CONTINUOUS
 10
-50.66180562
 20
-14.7904274951
 11
-52.7831259636
 21
-16.0152512751
  0
LINE
  5
25A
100
AcDbEntity
  8
0
100
AcDbLine
 62
253
  6
CONTINUOUS
 10
-49.1617331396
 20
-14.9390510282
 11
-51.2830534832
 21
-16.1638748081
  0
LINE
  5
25B
100
AcDbEntity
  8
DRAFT
100
AcDbLine
 62
7
  6
CONTINUOUS
 10
28.8675001643
 20
30.6548951344
 11
29.0461704615
 21
30.7544873276
  0
LWPOLYLINE
  5
25C
100
AcDbEntity
  8
0
100
AcDbPolyline
 62
7
  6
CONTINUOUS
 90
9
 70
0
 10
28.3417183288
 20
33.4281898908
 10
28.3818284612
 20
33.449470971
 10
28.4376583111
 20
33.4733787055
 10
28.4960830025
 20
33.4921529631
 10
28.5569257012
 20
33.5057364927
 10
28.6200024994
 20
33.5140876744
 10
28.6851213666
 20
33.5171805426
 10
28.752083002
 20
33.5150053897
 10
28.7885798692
 20
33.5110489921
  0
LWPOLYLINE
  5
25D
100
AcDbEntity
  8
0
100
AcDbPolyline
 62
7
  6
CONTINUOUS
 90
13
 70
0
 10
12.5636394447
 20
18.8206762567
 10
12.5973986544
 20
18.8376678867
 10
12.6332686729
 20
18.8509476937
 10
12.6708161256
 20
18.8603602377
 10
12.7100625002
 20
18.8658559796
 10
12.750986309
 20
18.8674844586
 10
12.7930655547
 20
18.8652249026
 10
12.8363150381
 20
18.8590275067
 10
12.8807199583
 20
18.8489420759
 10
12.9257139151
 20
18.8350972535
 10
12.9711081085
 20
18.8175359204
 10
13.0170913383
 20
18.7962151955
 10
13.0636636048
 20
18.771135079
  0
LINE
  5
25E
100
AcDbEntity
  8
0
100
AcDbLine
 62
253
  6
CONTINUOUS
 10
51.2474297889
 20
-47.5999137563
 11
19.4276246355
 21
-29.2275570565
  0
LINE
  5
25F
100
AcDbEntity
  8
0
100
AcDbLine
 62
253
  6
CONTINUOUS
 10
12.3565568236
 20
-25.1448111233
 11
-19.4632483298
 21
-6.7724544235
  0
LWPOLYLINE
  5
260
100
AcDbEntity
  8
0
100
AcDbPolyline
 62
7
  6
CONTINUOUS
 90
21
 70
0
 10
-7.4424330496
 20
-52.9074834696
 10
-7.4391429108
 20
-53.0988605798
 10
-7.4292713591
 20
-53.2857631338
 10
-7.4128183948
 20
-53.4681911315
 10
-7.3897148597
 20
-53.646549676
 10
-7.3600299119
 20
-53.8204336643
 10
-7.3239710252
 20
-53.9886277875
 10
-7.281539538
 20
-54.1508985508
 10
-7.2327341119
 20
-54.307479449
 10
-7.1777582056
 20
-54.4578556579
 10
-7.1166120556
 20
-54.6020274152
 10
-7.0492954256
 20
-54.7399944831
 10
-6.9760110647
 20
-54.8712413239
 10
-6.896627711
 20
-54.9958707886
 10
-6.8112766264
 20
-55.1137800261
 10
-6.7205543462
 20
-55.2241449461
 10
-6.6245326642
 20
-55.3267878857
 10
-6.5231397867
 20
-55.4218865077
 10
-6.4167568674
 20
-55.5091497101
 10
-6.3053840976
 20
-55.5885777933
 10
-6.199940438
 20
-55.6539100304
  0
LINE
  5
261
100
AcDbEntity
  8
0
100
AcDbLine
 62
7
  6
CONTINUOUS
 10
-7.4424330496
 20
-52.9074834696
 11
-7.4424330496
 21
-52.0910131928
  0
LINE
  5
262
100
AcDbEntity
  8
0
100
AcDbLine
 62
253
  6
CONTINUOUS
 10
-26.4675817842
 20
-43.6819590051
 11
-25.4402887911
 21
-40.9457785574
  0
LINE
  5
263
100
AcDbEntity
  8
DRAFT
100
AcDbLine
 62
7
  6
CONTINUOUS
 10
28.8675001643
 20
28.2316081704
 11
29.8798462595
 21
28.8161251127
  0
LINE
  5
264
100
AcDbEntity
  8
0
100
AcDbLine
 62
253
  6
CONTINUOUS
 10
13.0636294347
 20
18.7711942595
 11
12.3565568236
 21
18.3629393955
  0
LWPOLYLINE
  5
265
100
AcDbEntity
  8
0
100
AcDbPolyline
 62
7
  6
CONTINUOUS
 90
16
 70
0
 10
-50.66180562
 20
-14.7904274952
 10
-50.5812331256
 20
-14.7486924348
 10
-50.496629225
 20
-14.7141073595
 10
-50.408613953
 20
-14.686913516
 10
-50.3171593096
 20
-14.6671715699
 10
-50.2222932947
 20
-14.6548208556
 10
-50.1247924225
 20
-14.6499624683
 10
-50.0246350667
 20
-14.6526579034
 10
-49.9218428536
 20
-14.6628456655
 10
-49.8172571763
 20
-14.6804423641
 10
-49.7108633145
 20
-14.7055088099
 10
-49.6026759886
 20
-14.737984192
 10
-49.4935807527
 20
-14.7776026872
 10
-49.3838727917
 20
-14.8242756878
 10
-49.2732569206
 20
-14.8780918014
 10
-49.1617331396
 20
-14.9390510282
  0
LINE
  5
266
100
AcDbEntity
  8
0
100
AcDbLine
 62
253
  6
CONTINUOUS
 10
1.1489143418
 20
-7.2430749439
 11
3.5530773978
 21
-7.2430749439
  0
LWPOLYLINE
  5
267
100
AcDbEntity
  8
0
100
AcDbPolyline
 62
7
  6
CONTINUOUS
 90
34
 70
0
 10
1.1489143418
 20
46.6439633244
 10
1.1518509921
 20
46.7826377653
 10
1.160486665
 20
46.9170776425
 10
1.1748213602
 20
47.047282956
 10
1.1949131608
 20
47.1735294974
 10
1.2207039838
 20
47.2955414751
 10
1.2520195809
 20
47.4124915145
 10
1.2888975561
 20
47.5243450765
 10
1.3313003056
 20
47.6311367002
 10
1.3789407694
 20
47.7321426275
 10
1.4318545509
 20
47.8273234603
 10
1.4900060468
 20
47.9167185967
 10
1.5530013882
 20
47.9997224727
 10
1.6208733819
 20
48.0762915825
 10
1.693589221
 20
48.1464694319
 10
1.7706566163
 20
48.2097809743
 10
1.852105041
 20
48.2661796302
 10
1.9379050218
 20
48.3157119792
 10
2.0274758489
 20
48.3580427131
 10
2.1208431566
 20
48.3931230187
 10
2.2179813106
 20
48.4210017092
 10
2.3182326992
 20
48.4414899167
 10
2.4216184951
 20
48.4545374837
 10
2.5281175255
 20
48.4601945675
 10
2.6370086605
 20
48.4584227721
 10
2.7483081282
 20
48.4491716636
 10
2.8619997005
 20
48.4324916757
 10
2.9773135631
 20
48.4084957142
 10
3.0942607165
 20
48.3771341245
 10
3.2128301603
 20
48.3384565612
 10
3.3322190795
 20
48.2927248939
 10
3.4524330269
 20
48.239891254
 10
3.5734664498
 20
48.1800035101
 10
3.6942527414
 20
48.1136098156
  0
LWPOLYLINE
  5
268
100
AcDbEntity
  8
ASSI
100
AcDbPolyline
 62
7
  6
CONTINUOUS
 90
5
 70
0
 10
4.5046974973
 20
47.492253903
 10
4.492727041
 20
47.4323146335
 10
4.4814566004
 20
47.349938386
 10
4.4746529912
 20
47.2640736067
 10
4.4723162134
 20
47.1747202957
  0
LINE
  5
269
100
AcDbEntity
  8
0
100
AcDbLine
 62
7
  6
CONTINUOUS
 10
-21.5845686734
 20
-10.4466890339
 11
-39.2633998732
 21
-20.6542246009
  0
LINE
  5
26A
100
AcDbEntity
  8
0
100
AcDbLine
 62
253
  6
CONTINUOUS
 10
49.1261094453
 20
30.3731160422
 11
51.2474297889
 21
31.5979398222
  0
LINE
  5
26B
100
AcDbEntity
  8
RACCORDO
100
AcDbLine
 62
7
  6
CONTINUOUS
 10
18.6989199584
 20
-15.7834010052
 11
16.5991705863
 21
-14.5710320338
  0
LINE
  5
26C
100
AcDbEntity
  8
RACCORDO
100
AcDbLine
 62
7
  6
CONTINUOUS
 10
5.2978306665
 20
-7.9910216725
 11
6.2400831663
 21
-8.5350664567
  0
LINE
  5
26D
100
AcDbEntity
  8
RACCORDO
100
AcDbLine
 62
7
  6
CONTINUOUS
 10
29.0616144387
 20
-21.7119325924
 11
30.6352671173
 21
-22.6205399265
  0
LINE
  5
26E
100
AcDbEntity
  8
DRAFT
100
AcDbLine
 62
7
  6
CONTINUOUS
 10
28.8675001643
 20
-20.1988188486
 11
30.6352671173
 21
-21.2195053319
  0
LINE
  5
26F
100
AcDbEntity
  8
RACCORDO
100
AcDbLine
 62
7
  6
CONTINUOUS
 10
19.1378603997
 20
-14.3632334671
 11
14.4778771672
 21
-11.6726175519
  0
LINE
  5
270
100
AcDbEntity
  8
RACCORDO
100
AcDbLine
 62
7
  6
CONTINUOUS
 10
4.4723162134
 20
-5.8955320564
 11
5.2978306665
 21
-6.3721737555
  0
LINE
  5
271
100
AcDbEntity
  8
DRAFT
100
AcDbLine
 62
7
  6
CONTINUOUS
 10
29.6099622846
 20
-19.0625257834
 11
30.6352671173
 21
-19.6545239438
  0
LINE
  5
272
100
AcDbEntity
  8
DRAFT
100
AcDbLine
 62
7
  6
CONTINUOUS
 10
15.8690770453
 20
-11.0613063977
 11
14.4778771672
 21
-10.2580450239
  0
LINE
  5
273
100
AcDbEntity
  8
DRAFT
100
AcDbLine
 62
7
  6
CONTINUOUS
 10
28.8675001643
 20
-17.735720156
 11
29.6099622846
 21
-18.164408479
  0
LINE
  5
274
100
AcDbEntity
  8
DRAFT
100
AcDbLine
 62
7
  6
CONTINUOUS
 10
16.5745142011
 20
-10.4340943074
 11
17.9885104592
 21
-11.2503615949
  0
LINE
  5
275
100
AcDbEntity
  8
DRAFT
100
AcDbLine
 62
7
  6
CONTINUOUS
 10
16.5745142011
 20
-10.4340943074
 11
15.2096672579
 21
-9.6460487879
  0
LINE
  5
276
100
AcDbEntity
  8
DRAFT
100
AcDbLine
 62
7
  6
CONTINUOUS
 10
16.5745142011
 20
-8.9929487218
 11
15.2096672579
 21
-8.2049032024
  0
LINE
  5
277
100
AcDbEntity
  8
DRAFT
100
AcDbLine
 62
7
  6
CONTINUOUS
 10
19.4276246355
 20
-10.4340956847
 11
18.0010694183
 21
-9.6104205812
  0
LINE
  5
278
100
AcDbEntity
  8
DRAFT
100
AcDbLine
 62
7
  6
CONTINUOUS
 10
15.3851434715
 20
-8.1000177248
 11
14.4778771672
 21
-7.5761735314
  0
LINE
  5
279
100
AcDbEntity
  8
0
100
AcDbLine
 62
253
  6
CONTINUOUS
 10
11.4526323491
 20
-29.1935351148
 11
11.0206462017
 21
-28.1914898443
  0
LWPOLYLINE
  5
27A
100
AcDbEntity
  8
0
100
AcDbPolyline
 62
7
  6
CONTINUOUS
 90
22
 70
0
 10
4.7622299937
 20
17.6143977479
 10
4.7673561337
 20
17.4941064165
 10
4.7815820542
 20
17.3716461731
 10
4.8049077553
 20
17.2470170178
 10
4.8377070291
 20
17.1190580464
 10
4.8796060835
 20
16.988930163
 10
4.9294835418
 20
16.8601160802
 10
4.9875548583
 20
16.7326512768
 10
5.0536045787
 20
16.606500274
 10
5.1258649637
 20
16.485039348
 10
5.2045037303
 20
16.368395153
 10
5.2893531613
 20
16.2564410347
 10
5.3781423663
 20
16.1521733075
 10
5.4709777377
 20
16.0557995397
 10
5.567752883
 20
15.9671121629
 10
5.6658777347
 20
15.8884847855
 10
5.7653887412
 20
15.8201890746
 10
5.8662494541
 20
15.7619533631
 10
5.9657604606
 20
15.715336258
 10
6.0638853123
 20
15.6806515163
 10
6.1606604576
 20
15.657585381
 10
6.2400831663
 20
15.6483199127
  0
LWPOLYLINE
  5
27B
100
AcDbEntity
  8
ASSI
100
AcDbPolyline
 62
7
  6
CONTINUOUS
 90
33
 70
0
 10
4.4723162134
 20
-6.7123179726
 10
4.4746529912
 20
-6.804369736
 10
4.4814566004
 20
-6.8980911527
 10
4.492727041
 20
-6.9934822225
 10
4.5085325232
 20
-7.0908762646
 10
4.5288048368
 20
-7.18993996
 10
4.5533393513
 20
-7.289673351
 10
4.582179235
 20
-7.3900832206
 10
4.6152813196
 20
-7.4911627857
 10
4.6523114698
 20
-7.5918917407
 10
4.6933094697
 20
-7.6922665345
 10
4.7382355353
 20
-7.7922907181
 10
4.7866361788
 20
-7.8909546387
 10
4.8385465915
 20
-7.9882445195
 10
4.8939315822
 20
-8.0841741372
 10
4.9522320901
 20
-8.1777751702
 10
5.0134776439
 20
-8.2690240341
 10
5.0776387148
 20
-8.3579443131
 10
5.1440676555
 20
-8.4436384384
 10
5.2127874353
 20
-8.5260737349
 10
5.2837750848
 20
-8.6052828776
 10
5.3563140486
 20
-8.6804663225
 10
5.4304200386
 20
-8.7515832968
 10
5.5060773429
 20
-8.8186745734
 10
5.5825222701
 20
-8.8810629271
 10
5.6597627973
 20
-8.938700726
 10
5.7377909475
 20
-8.9916356019
 10
5.8158190976
 20
-9.0393332258
 10
5.8938472478
 20
-9.0817405539
 10
5.9718753979
 20
-9.1189106298
 10
6.0491159252
 20
-9.1504682558
 10
6.1255608524
 20
-9.1763565878
 10
6.1875858012
 20
-9.1929790482
  0
LINE
  5
27C
100
AcDbEntity
  8
0
100
AcDbLine
 62
7
  6
CONTINUOUS
 10
1.1489143418
 20
-7.2430749439
 11
1.1489143418
 21
46.6439633244
  0
LINE
  5
27D
100
AcDbEntity
  8
0
100
AcDbLine
 62
7
  6
CONTINUOUS
 10
3.5530773978
 20
-7.2430749439
 11
3.5530773978
 21
46.6439633244
  0
LINE
  5
27E
100
AcDbEntity
  8
ASSI
100
AcDbLine
 62
7
  6
CONTINUOUS
 10
4.4723162134
 20
-6.7123179726
 11
4.4723162134
 21
47.1747202957
  0
LINE
  5
27F
100
AcDbEntity
  8
DRAFT
100
AcDbLine
 62
7
  6
CONTINUOUS
 10
4.9319356211
 20
34.4178200343
 11
4.9319356211
 21
35.5071528843
  0
LINE
  5
280
100
AcDbEntity
  8
RACCORDO
100
AcDbLine
 62
7
  6
CONTINUOUS
 10
5.2978306665
 20
45.8675156832
 11
5.2978306665
 21
38.9559881544
  0
LINE
  5
281
100
AcDbEntity
  8
RACCORDO
100
AcDbLine
 62
7
  6
CONTINUOUS
 10
5.2978306665
 20
-7.9910216725
 11
5.2978306665
 21
-1.0794941437
  0
LINE
  5
282
100
AcDbEntity
  8
0
100
AcDbLine
 62
7
  6
CONTINUOUS
 10
6.2400831663
 20
43.7043862524
 11
6.2400831663
 21
-10.1826520159
  0
LWPOLYLINE
  5
283
100
AcDbEntity
  8
0
100
AcDbPolyline
 62
7
  6
CONTINUOUS
 90
67
 70
0
 10
6.2400831663
 20
-10.1826520159
 10
6.237146516
 20
-10.3213264567
 10
6.2285108432
 20
-10.4557663339
 10
6.2141761479
 20
-10.5859716475
 10
6.1940843474
 20
-10.7122181889
 10
6.1682935244
 20
-10.8342301666
 10
6.1369779272
 20
-10.9511802059
 10
6.100099952
 20
-11.063033768
 10
6.0576972026
 20
-11.1698253917
 10
6.0100567387
 20
-11.2708313189
 10
5.9571429573
 20
-11.3660121518
 10
5.8989914614
 20
-11.4554072882
 10
5.83599612
 20
-11.5384111642
 10
5.7681241263
 20
-11.614980274
 10
5.6954082871
 20
-11.6851581234
 10
5.6183408918
 20
-11.7484696658
 10
5.5368924671
 20
-11.8048683217
 10
5.4510924864
 20
-11.8544006707
 10
5.3615216592
 20
-11.8967314046
 10
5.2681543516
 20
-11.9318117101
 10
5.1710161975
 20
-11.9596904007
 10
5.0707648089
 20
-11.9801786081
 10
4.967379013
 20
-11.9932261751
 10
4.8608799826
 20
-11.998883259
 10
4.7519888476
 20
-11.9971114636
 10
4.6406893799
 20
-11.987860355
 10
4.5269978077
 20
-11.9711803672
 10
4.411683945
 20
-11.9471844057
 10
4.2947367916
 20
-11.915822816
 10
4.1761673478
 20
-11.8771452527
 10
4.0567784287
 20
-11.8314135854
 10
3.9365644812
 20
-11.7785799455
 10
3.8155310583
 20
-11.7186922015
 10
3.6944976336
 20
-11.6521558294
 10
3.5734642035
 20
-11.5789257085
 10
3.4524307716
 20
-11.4990469594
 10
3.3322168212
 20
-11.4130604192
 10
3.2128279103
 20
-11.3209246348
 10
3.0942584809
 20
-11.2226810593
 10
2.9773113434
 20
-11.1189948899
 10
2.8619974906
 20
-11.0098291662
 10
2.7483059295
 20
-10.8952208485
 10
2.6370064921
 20
-10.775946015
 10
2.5281154163
 20
-10.6519729816
 10
2.4216164642
 20
-10.5233334323
 10
2.3182307529
 20
-10.3908984972
 10
2.2179794612
 20
-10.2546424841
 10
2.1208414104
 20
-10.1145910852
 10
2.0274741812
 20
-9.9716925075
 10
1.9379033909
 20
-9.8259275175
 10
1.8521034224
 20
-9.6773153488
 10
1.7706550044
 20
-9.5268619092
 10
1.6935876039
 20
-9.3745546287
 10
1.620871754
 20
-9.2204060773
 10
1.5529997828
 20
-9.0654598732
 10
1.4900045124
 20
-8.9097104124
 10
1.4318531208
 20
-8.7531632989
 10
1.3789394697
 20
-8.5968789632
 10
1.3312991693
 20
-8.4408591363
 10
1.2888966093
 20
-8.2851020873
 10
1.2520188211
 20
-8.130663053
 10
1.2207034087
 20
-7.9775509158
 10
1.1949127682
 20
-7.8257567934
 10
1.1748211192
 20
-7.6763092759
 10
1.1604865351
 20
-7.5295512269
 10
1.1518509427
 20
-7.3851397829
 10
1.1489143418
 20
-7.2430749439
  0
LWPOLYLINE
  5
284
100
AcDbEntity
  8
0
100
AcDbPolyline
 62
7
  6
CONTINUOUS
 90
16
 70
0
 10
3.5530773978
 20
46.6439633244
 10
3.5551169686
 20
46.728232183
 10
3.5612298316
 20
46.80989332
 10
3.5713979383
 20
46.8886984298
 10
3.585591094
 20
46.9644086171
 10
3.6037666123
 20
47.0367926867
 10
3.6258690197
 20
47.1056282121
 10
3.6518312535
 20
47.1707058949
 10
3.6815746074
 20
47.2318280738
 10
3.7150079087
 20
47.2888075031
 10
3.7520293494
 20
47.3414712243
 10
3.7925263742
 20
47.3896596223
 10
3.8363748766
 20
47.433225715
 10
3.8834400555
 20
47.4720367695
 10
3.9335797453
 20
47.5059766706
 10
3.9465343778
 20
47.5136633606
  0
LWPOLYLINE
  5
285
100
AcDbEntity
  8
0
100
AcDbPolyline
 62
7
  6
CONTINUOUS
 90
16
 70
0
 10
6.2400831663
 20
-8.7945183986
 10
6.2380435955
 20
-8.8787872571
 10
6.2319307326
 20
-8.9604483942
 10
6.2217626258
 20
-9.039253504
 10
6.2075694702
 20
-9.1149636913
 10
6.1893939519
 20
-9.1873477608
 10
6.1672915445
 20
-9.2561832863
 10
6.1413293107
 20
-9.3212609691
 10
6.1115859567
 20
-9.382383148
 10
6.0781526554
 20
-9.4393625772
 10
6.0411312147
 20
-9.4920262985
 10
6.00063419
 20
-9.5402146965
 10
5.9567856875
 20
-9.5837807892
 10
5.9097205087
 20
-9.6225918437
 10
5.8595808188
 20
-9.6565317448
 10
5.8466261864
 20
-9.6642184347
  0
LWPOLYLINE
  5
286
100
AcDbEntity
  8
ASSI
100
AcDbPolyline
 62
7
  6
CONTINUOUS
 90
3
 70
0
 10
5.2515755531
 20
-2.0278261475
 10
5.2807302911
 20
-2.0094719651
 10
5.2978306665
 20
-1.9950378253
  0
LWPOLYLINE
  5
287
100
AcDbEntity
  8
ASSI
100
AcDbPolyline
 62
253
  6
CONTINUOUS
 90
17
 70
0
 10
4.525623182
 20
-2.4356400061
 10
4.5432464838
 20
-2.4250102863
 10
4.5955712992
 20
-2.3832191514
 10
4.6403029576
 20
-2.3305166313
 10
4.6768365402
 20
-2.2676154371
 10
4.7046779929
 20
-2.1953661995
 10
4.7234508079
 20
-2.1147459657
 10
4.732901115
 20
-2.0268449858
 10
4.732901115
 20
-1.93285197
 10
4.7234508079
 20
-1.8340380124
 10
4.7046779929
 20
-1.7317394024
 10
4.6768365402
 20
-1.6273395531
 10
4.6403029576
 20
-1.5222502935
 10
4.5955712992
 20
-1.4178927754
 10
4.5432464838
 20
-1.3156782553
 10
4.4840361149
 20
-1.2169890092
 10
4.4723162134
 20
-1.2001474817
  0
LINE
  5
288
100
AcDbEntity
  8
RACCORDO
100
AcDbLine
 62
7
  6
CONTINUOUS
 10
6.2400831663
 20
-0.1822929906
 11
5.5005586613
 21
-0.6243208831
  0
LINE
  5
289
100
AcDbEntity
  8
RACCORDO
100
AcDbLine
 62
253
  6
CONTINUOUS
 10
6.2400831663
 20
-0.5307468317
 11
6.0049105233
 21
-0.6713140031
  0
LINE
  5
28A
100
AcDbEntity
  8
0
100
AcDbLine
 62
253
  6
CONTINUOUS
 10
51.2474297889
 20
26.6988814319
 11
53.3687501324
 21
27.9237052118
  0
LINE
  5
28B
100
AcDbEntity
  8
0
100
AcDbLine
 62
7
  6
CONTINUOUS
 10
-32.1923320614
 20
-24.7369705342
 11
-16.634821205
 21
-15.7542587471
  0
LINE
  5
28C
100
AcDbEntity
  8
ASSI
100
AcDbLine
 62
7
  6
CONTINUOUS
 10
5.2516875812
 20
-2.0280219226
 11
4.525623182
 21
-2.4356400061
  0
LWPOLYLINE
  5
28D
100
AcDbEntity
  8
0
100
AcDbPolyline
 62
7
  6
CONTINUOUS
 90
25
 70
0
 10
-16.634821205
 20
-15.7542587471
 10
-16.5866812726
 20
-15.7282736549
 10
-16.5361690899
 20
-15.7043384749
 10
-16.4832846569
 20
-15.6824532071
 10
-16.4277819016
 20
-15.6625419088
 10
-16.3699068961
 20
-15.6446805229
 10
-16.3103978562
 20
-15.6290968773
 10
-16.2492338502
 20
-15.6158201497
 10
-16.1864358098
 20
-15.6048211625
 10
-16.1228047459
 20
-15.5962402117
 10
-16.0583299875
 20
-15.5901082719
 10
-15.9930222057
 20
-15.5863943684
 10
-15.9277144239
 20
-15.5851458734
 10
-15.862406642
 20
-15.5863943684
 10
-15.7970988602
 20
-15.5901082719
 10
-15.7326241018
 20
-15.5962402117
 10
-15.6689930379
 20
-15.6048211625
 10
-15.6061949975
 20
-15.6158201497
 10
-15.5450309915
 20
-15.6290968773
 10
-15.4855219516
 20
-15.6446805229
 10
-15.4276469461
 20
-15.6625419088
 10
-15.3721441908
 20
-15.6824532071
 10
-15.3192597578
 20
-15.7043384749
 10
-15.2687475751
 20
-15.7282736549
 10
-15.2206076427
 20
-15.7542587471
  0
LINE
  5
28E
100
AcDbEntity
  8
ASSI
100
AcDbLine
 62
7
  6
CONTINUOUS
 10
4.4723162134
 20
-2.4625531322
 11
4.525623182
 21
-2.4356400061
  0
LWPOLYLINE
  5
28F
100
AcDbEntity
  8
ASSI
100
AcDbPolyline
 62
7
  6
CONTINUOUS
 90
5
 70
0
 10
4.7551589258
 20
-0.3435499561
 10
4.6799463566
 20
-0.3049978892
 10
4.6071103525
 20
-0.2762635932
 10
4.5366509136
 20
-0.2573470681
 10
4.4723162134
 20
-0.2488458529
  0
LINE
  5
290
100
AcDbEntity
  8
DRAFT
100
AcDbLine
 62
7
  6
CONTINUOUS
 10
30.6352671173
 20
-16.4977253733
 11
28.8675001643
 21
-15.47703889
  0
LINE
  5
291
100
AcDbEntity
  8
DRAFT
100
AcDbLine
 62
7
  6
CONTINUOUS
 10
14.4778771672
 20
-6.1492784021
 11
15.5508789937
 21
-6.7688162089
  0
LINE
  5
292
100
AcDbEntity
  8
DRAFT
100
AcDbLine
 62
7
  6
CONTINUOUS
 10
16.6115391655
 20
-7.3669776426
 11
16.5868558559
 21
-7.352725809
  0
LINE
  5
293
100
AcDbEntity
  8
DRAFT
100
AcDbLine
 62
7
  6
CONTINUOUS
 10
18.0010694183
 20
-8.1692749956
 11
19.4276246355
 21
-8.9929500991
  0
LINE
  5
294
100
AcDbEntity
  8
RACCORDO
100
AcDbLine
 62
7
  6
CONTINUOUS
 10
6.0049105233
 20
-0.6713140031
 11
6.2400831663
 21
-0.8070997398
  0
LINE
  5
295
100
AcDbEntity
  8
RACCORDO
100
AcDbLine
 62
7
  6
CONTINUOUS
 10
28.8675001643
 20
-13.8718867263
 11
30.6352671173
 21
-14.8925732096
  0
LINE
  5
296
100
AcDbEntity
  8
DRAFT
100
AcDbLine
 62
7
  6
CONTINUOUS
 10
18.0134110731
 20
-6.5290520828
 11
18.8219372102
 21
-6.9958849411
  0
LINE
  5
297
100
AcDbEntity
  8
RACCORDO
100
AcDbLine
 62
7
  6
CONTINUOUS
 10
28.8675001643
 20
-12.2245378966
 11
30.6352671173
 21
-13.24522438
  0
LWPOLYLINE
  5
298
100
AcDbEntity
  8
ASSI
100
AcDbPolyline
 62
7
  6
CONTINUOUS
 90
9
 70
0
 10
5.2807302911
 20
-0.9174851395
 10
5.2280183252
 20
-0.8261853364
 10
5.1707858636
 20
-0.7394596884
 10
5.1088854072
 20
-0.6574574457
 10
5.0424644553
 20
-0.5800293581
 10
4.9736669381
 20
-0.5096746435
 10
4.9032074992
 20
-0.4472263747
 10
4.8303714951
 20
-0.3918514789
 10
4.7551589258
 20
-0.3435499561
  0
LINE
  5
299
100
AcDbEntity
  8
ASSI
100
AcDbLine
 62
7
  6
CONTINUOUS
 10
5.3055542966
 20
-0.9671048051
 11
5.2807302911
 21
-0.9174851395
  0
LWPOLYLINE
  5
29A
100
AcDbEntity
  8
0
100
AcDbPolyline
 62
7
  6
CONTINUOUS
 90
15
 70
0
 10
10.863357476
 20
-28.6382367983
 10
10.8623769141
 20
-28.6330529691
 10
10.8569245019
 20
-28.5941982083
 10
10.8551694466
 20
-28.5560723523
 10
10.8570824091
 20
-28.5185576887
 10
10.8619771505
 20
-28.4819038538
 10
10.8697860349
 20
-28.4461837236
 10
10.8805595627
 20
-28.4113045427
 10
10.8937948634
 20
-28.3772948564
 10
10.9094278387
 20
-28.3441707389
 10
10.9275083712
 20
-28.3119137191
 10
10.947708348
 20
-28.2805141158
 10
10.9699151098
 20
-28.2499729825
 10
10.9942297298
 20
-28.2202970392
 10
11.0206462017
 20
-28.1914898443
  0
LINE
  5
29B
100
AcDbEntity
  8
0
100
AcDbLine
 62
7
  6
CONTINUOUS
 10
12.3565568236
 20
-25.1448111233
 11
12.3565568236
 21
18.3629393955
  0
LWPOLYLINE
  5
29C
100
AcDbEntity
  8
0
100
AcDbPolyline
 62
7
  6
CONTINUOUS
 90
13
 70
0
 10
12.3565568236
 20
18.3629393955
 10
12.3581244896
 20
18.4158095335
 10
12.3626534424
 20
18.4662897227
 10
12.3701436821
 20
18.5143799629
 10
12.3806524806
 20
18.5602651868
 10
12.3941225658
 20
18.6037604618
 10
12.4103821224
 20
18.6443109906
 10
12.4294668827
 20
18.6818790514
 10
12.4513411142
 20
18.7165023661
 10
12.4757258036
 20
18.747739302
 10
12.5026531092
 20
18.7755464803
 10
12.5320908726
 20
18.79996728
 10
12.5636394447
 20
18.8206762567
  0
LWPOLYLINE
  5
29D
100
AcDbEntity
  8
0
100
AcDbPolyline
 62
7
  6
CONTINUOUS
 90
10
 70
0
 10
29.4660324522
 20
4.2108391731
 10
29.4487885297
 20
4.2003496848
 10
29.3827388092
 20
4.1504712436
 10
29.3246674927
 20
4.0900657408
 10
29.2747900344
 20
4.0188488967
 10
29.23289098
 20
3.937104991
 10
29.2000917062
 20
3.8470217988
 10
29.1767660051
 20
3.7493285785
 10
29.1625400846
 20
3.6432960715
 10
29.1574139446
 20
3.5289242781
  0
LINE
  5
29E
100
AcDbEntity
  8
DRAFT
100
AcDbLine
 62
7
  6
CONTINUOUS
 10
30.6352671173
 20
6.6168190857
 11
28.8675001643
 21
5.5707829809
  0
LINE
  5
29F
100
AcDbEntity
  8
0
100
AcDbLine
 62
7
  6
CONTINUOUS
 10
-30.0712167184
 20
-25.9616759494
 11
-16.634821205
 21
-18.2036695775
  0
LINE
  5
2A0
100
AcDbEntity
  8
0
100
AcDbLine
 62
253
  6
CONTINUOUS
 10
4.4723162134
 20
-6.7123179726
 11
3.5530773978
 21
-7.2430749439
  0
LINE
  5
2A1
100
AcDbEntity
  8
DRAFT
100
AcDbLine
 62
7
  6
CONTINUOUS
 10
15.5508789937
 20
-3.7864861296
 11
14.4778771672
 21
-4.4060229004
  0
LWPOLYLINE
  5
2A2
100
AcDbEntity
  8
0
100
AcDbPolyline
 62
7
  6
CONTINUOUS
 90
44
 70
0
 10
5.8466261864
 20
-9.6642184347
 10
5.8065160539
 20
-9.685499515
 10
5.750686204
 20
-9.7094072495
 10
5.6922615126
 20
-9.7281815071
 10
5.6314188139
 20
-9.7417650367
 10
5.5683420157
 20
-9.7501162184
 10
5.5032231485
 20
-9.7532090866
 10
5.4362615131
 20
-9.7510339337
 10
5.3676605014
 20
-9.7435973261
 10
5.2976284494
 20
-9.7309218089
 10
5.226379771
 20
-9.7130463273
 10
5.1541312765
 20
-9.6900256202
 10
5.0811021192
 20
-9.6619298562
 10
5.0075148547
 20
-9.6288450291
 10
4.9335947487
 20
-9.5908730261
 10
4.8595645388
 20
-9.5481288701
 10
4.7856444773
 20
-9.500739736
 10
4.7120573242
 20
-9.4488478373
 10
4.6390283199
 20
-9.3926114106
 10
4.5667799499
 20
-9.3322014107
 10
4.4955313441
 20
-9.2678007146
 10
4.4254993374
 20
-9.1996049645
 10
4.3568983485
 20
-9.1278228142
 10
4.2899367162
 20
-9.052672298
 10
4.2248178329
 20
-8.9743817165
 10
4.1617410012
 20
-8.893190922
 10
4.1008982325
 20
-8.8093475984
 10
4.0424734614
 20
-8.7231057661
 10
3.9866435856
 20
-8.6347269772
 10
3.9335788739
 20
-8.544481326
 10
3.8834392758
 20
-8.4526414214
 10
3.8363741881
 20
-8.359480743
 10
3.7925257672
 20
-8.2652795565
 10
3.7520288227
 20
-8.1703262771
 10
3.7150074553
 20
-8.0749111884
 10
3.6815742168
 20
-7.9793238687
 10
3.6518309207
 20
-7.8838548534
 10
3.6258687465
 20
-7.7887966954
 10
3.603766397
 20
-7.694437937
 10
3.5855909346
 20
-7.6010653245
 10
3.5713978359
 20
-7.5089653826
 10
3.561229781
 20
-7.4184186091
 10
3.5551169548
 20
-7.329698749
 10
3.5530773978
 20
-7.2430749439
  0
LINE
  5
2A3
100
AcDbEntity
  8
DRAFT
100
AcDbLine
 62
7
  6
CONTINUOUS
 10
14.4778771672
 20
0.8336281393
 11
15.5508789937
 21
0.2140903325
  0
LWPOLYLINE
  5
2A4
100
AcDbEntity
  8
DRAFT
100
AcDbPolyline
 62
7
  6
CONTINUOUS
 90
10
 70
0
 10
4.4723162134
 20
15.9255512065
 10
4.5562970231
 20
15.7979326711
 10
4.6952877856
 20
15.6069181773
 10
4.8408027764
 20
15.425821984
 10
4.9932489258
 20
15.2544576714
 10
5.1522193034
 20
15.0930116592
 10
5.3143026366
 20
14.9450064994
 10
5.4783618347
 20
14.8116163759
 10
5.6455339883
 20
14.6916671048
 10
5.8158190976
 20
14.5851586861
  0
LWPOLYLINE
  5
2A5
100
AcDbEntity
  8
0
100
AcDbPolyline
 62
7
  6
CONTINUOUS
 90
31
 70
0
 10
17.3063042919
 20
-58.2159211913
 10
17.3033309519
 20
-58.0854320007
 10
17.294625294
 20
-57.952681372
 10
17.2801873184
 20
-57.8176693052
 10
17.2599461572
 20
-57.6800140431
 10
17.2339726783
 20
-57.540097343
 10
17.2024794842
 20
-57.3990644758
 10
17.1654212705
 20
-57.2569062804
 10
17.1228433418
 20
-57.1136319179
 10
17.0750942144
 20
-56.9704141433
 10
17.0221314443
 20
-56.827253421
 10
16.9639974756
 20
-56.6841492866
 10
16.9011681568
 20
-56.5422731015
 10
16.8336049495
 20
-56.4016349445
 10
16.7613463922
 20
-56.2622247369
 10
16.6849839483
 20
-56.1251836038
 10
16.6044839343
 20
-55.9905309903
 10
16.5198800337
 20
-55.8582474513
 10
16.4318647617
 20
-55.7294157779
 10
16.3404101183
 20
-55.604064302
 10
16.2455441034
 20
-55.4821646915
 10
16.1480432312
 20
-55.364714741
 10
16.0478858754
 20
-55.2517509721
 10
15.9450936623
 20
-55.1432368632
 10
15.840507985
 20
-55.0400606431
 10
15.7341141233
 20
-54.9422661242
 10
15.6259267973
 20
-54.8498094942
 10
15.5168315615
 20
-54.7634475456
 10
15.4071236004
 20
-54.6834325426
 10
15.2965077293
 20
-54.6095122211
 10
15.1849839483
 20
-54.5416865809
  0
LWPOLYLINE
  5
2A6
100
AcDbEntity
  8
0
100
AcDbPolyline
 62
7
  6
CONTINUOUS
 90
19
 70
0
 10
19.4276246355
 20
-65.972270456
 10
19.4296756033
 20
-66.0782648276
 10
19.4357249998
 20
-66.1813427382
 10
19.4457728251
 20
-66.2815041877
 10
19.4598533846
 20
-66.3789285081
 10
19.4779323729
 20
-66.4734363674
 10
19.4999068734
 20
-66.56448977
 10
19.5257991038
 20
-66.6520690135
 10
19.5555868466
 20
-66.7361938003
 10
19.5891005317
 20
-66.8163852412
 10
19.6263614099
 20
-66.8926209027
 10
19.6673482306
 20
-66.9649232184
 10
19.7118276719
 20
-67.0328805999
 10
19.7598196539
 20
-67.0964682661
 10
19.8113042566
 20
-67.1557109981
 10
19.8659883986
 20
-67.2102715505
 10
19.9238903283
 20
-67.2601232188
 10
19.9849917972
 20
-67.3052927076
 10
20.0488724986
 20
-67.3454810394
  0
LWPOLYLINE
  5
2A7
100
AcDbEntity
  8
0
100
AcDbPolyline
 62
7
  6
CONTINUOUS
 90
21
 70
0
 10
17.3063042919
 20
-67.197094236
 10
17.3097823193
 20
-67.3928093911
 10
17.3200910757
 20
-67.5836631525
 10
17.3372305612
 20
-67.76965552
 10
17.3612588347
 20
-67.9511057519
 10
17.3921178372
 20
-68.12769459
 10
17.4296333925
 20
-68.29846426
 10
17.4738126082
 20
-68.4633047689
 10
17.5246483767
 20
-68.6223261097
 10
17.5819451992
 20
-68.774900487
 10
17.6457803386
 20
-68.9210983611
 10
17.716076532
 20
-69.0608492716
 10
17.7924064922
 20
-69.1933140423
 10
17.8747298633
 20
-69.3183505372
 10
17.9630870012
 20
-69.4361008923
 10
18.0571716865
 20
-69.5461523389
 10
18.1571048099
 20
-69.6485663928
 10
18.2627654807
 20
-69.7432815381
 10
18.3734848075
 20
-69.8297004583
 10
18.4891742451
 20
-69.9077016444
 10
18.5487962023
 20
-69.9435220118
  0
LINE
  5
2A8
100
AcDbEntity
  8
0
100
AcDbLine
 62
7
  6
CONTINUOUS
 10
14.4778771672
 20
-23.9199873433
 11
14.4778771672
 21
17.9545858924
  0
LINE
  5
2A9
100
AcDbEntity
  8
DRAFT
100
AcDbLine
 62
7
  6
CONTINUOUS
 10
15.2096672579
 20
-8.2049032024
 11
15.2096672579
 21
-9.6460487879
  0
LINE
  5
2AA
100
AcDbEntity
  8
DRAFT
100
AcDbLine
 62
7
  6
CONTINUOUS
 10
15.5508789937
 20
-6.7688162089
 11
15.5508789937
 21
17.3350480856
  0
LINE
  5
2AB
100
AcDbEntity
  8
DRAFT
100
AcDbLine
 62
7
  6
CONTINUOUS
 10
15.8690770453
 20
-10.0267837348
 11
15.8690770453
 21
-11.0613063977
  0
LINE
  5
2AC
100
AcDbEntity
  8
RACCORDO
100
AcDbLine
 62
7
  6
CONTINUOUS
 10
15.8920907295
 20
-12.4891667386
 11
15.8920907295
 21
-13.3463337982
  0
LINE
  5
2AD
100
AcDbEntity
  8
DRAFT
100
AcDbLine
 62
7
  6
CONTINUOUS
 10
16.5745142011
 20
-8.9929487218
 11
16.5745142011
 21
-10.4340943074
  0
LINE
  5
2AE
100
AcDbEntity
  8
DRAFT
100
AcDbLine
 62
7
  6
CONTINUOUS
 10
16.5868558559
 20
16.7368880292
 11
16.5868558559
 21
-7.352725809
  0
LINE
  5
2AF
100
AcDbEntity
  8
0
100
AcDbLine
 62
7
  6
CONTINUOUS
 10
17.3063042919
 20
-67.197094236
 11
17.3063042919
 21
-58.2159211913
  0
LINE
  5
2B0
100
AcDbEntity
  8
DRAFT
100
AcDbLine
 62
7
  6
CONTINUOUS
 10
18.0010694183
 20
-8.1692749956
 11
18.0010694183
 21
-9.6104205812
  0
LINE
  5
2B1
100
AcDbEntity
  8
DRAFT
100
AcDbLine
 62
7
  6
CONTINUOUS
 10
18.0134110731
 20
15.9132129257
 11
18.0134110731
 21
-6.5290520828
  0
LWPOLYLINE
  5
2B2
100
AcDbEntity
  8
0
100
AcDbPolyline
 62
7
  6
CONTINUOUS
 90
32
 70
0
 10
14.4778771672
 20
-23.9199873433
 10
14.4750778049
 20
-24.0988599932
 10
14.4667881046
 20
-24.2801931944
 10
14.4530080661
 20
-24.4639869467
 10
14.4337090815
 20
-24.650465706
 10
14.4089197587
 20
-24.8394050165
 10
14.378725922
 20
-25.0301315109
 10
14.3430953179
 20
-25.2227065752
 10
14.3020601999
 20
-25.4170688235
 10
14.2558031518
 20
-25.6123607307
 10
14.2043236034
 20
-25.808511379
 10
14.1476221249
 20
-26.0055916863
 10
14.0858830107
 20
-26.2029568811
 10
14.0190571505
 20
-26.4006961812
 10
13.9471936546
 20
-26.5987203689
 10
13.8706241476
 20
-26.7961170199
 10
13.7893682456
 20
-26.9927893571
 10
13.7034063325
 20
-27.1888341576
 10
13.6130111841
 20
-27.3836293288
 10
13.5181213174
 20
-27.5772630485
 10
13.4187982153
 20
-27.7696471388
 10
13.3154991027
 20
-27.9598949733
 10
13.2082547608
 20
-28.1479135696
 10
13.0970344084
 20
-28.3337959101
 10
12.9822029271
 20
-28.5169343154
 10
12.8637027869
 20
-28.6973877697
 10
12.7415915178
 20
-28.8750972888
 10
12.6164065907
 20
-29.04927824
 10
12.4881704672
 20
-29.2198672264
 10
12.3568606857
 20
-29.3869276449
 10
12.222947332
 20
-29.5498650541
 10
12.1721371763
 20
-29.6089681846
  0
LWPOLYLINE
  5
2B3
100
AcDbEntity
  8
0
100
AcDbPolyline
 62
7
  6
CONTINUOUS
 90
25
 70
0
 10
12.3565568236
 20
-25.1448111233
 10
12.3539338
 20
-25.2681029359
 10
12.3461216041
 20
-25.3936445882
 10
12.3331202359
 20
-25.5214360802
 10
12.3148424825
 20
-25.6519430025
 10
12.2913755568
 20
-25.7846997645
 10
12.2629810972
 20
-25.9183095941
 10
12.2296930022
 20
-26.0524849435
 10
12.1914773732
 20
-26.1875133605
 10
12.1484941534
 20
-26.3228607156
 10
12.1006515733
 20
-26.4587518937
 10
12.0480414024
 20
-26.5949620101
 10
11.9910988922
 20
-26.7302822806
 10
11.9297660781
 20
-26.8647007996
 10
11.8641009246
 20
-26.9982294727
 10
11.7947125765
 20
-27.1296952331
 10
11.72170535
 20
-27.2588757729
 10
11.644974929
 20
-27.3859933999
 10
11.5648175102
 20
-27.5105419707
 10
11.4810300566
 20
-27.6327742926
 10
11.3938156053
 20
-27.7524375584
 10
11.3040794634
 20
-27.8682672029
 10
11.2121234
 20
-27.9798417046
 10
11.1176456462
 20
-28.087582585
 10
11.0206462017
 20
-28.1914898443
  0
LWPOLYLINE
  5
2B4
100
AcDbEntity
  8
RACCORDO
100
AcDbPolyline
 62
7
  6
CONTINUOUS
 90
18
 70
0
 10
18.8236888794
 20
4.2265275454
 10
18.8291749052
 20
4.2580968236
 10
18.8383952877
 20
4.2869439705
 10
18.8514406578
 20
4.3133626718
 10
18.8682203846
 20
4.3370592417
 10
18.8884625746
 20
4.3571526236
 10
18.9122587307
 20
4.3734743689
 10
18.9395173501
 20
4.3861929262
 10
18.9696920302
 20
4.3949325847
 10
19.0027723258
 20
4.399594041
 10
19.0387686822
 20
4.4002765985
 10
19.0771660333
 20
4.3969024564
 10
19.1179457196
 20
4.3894396479
 10
19.1611264007
 20
4.3779201398
 10
19.2062489888
 20
4.3623620319
 10
19.2531604547
 20
4.3427713574
 10
19.3020138278
 20
4.3191420831
 10
19.3528091079
 20
4.2914742089
  0
LINE
  5
2B5
100
AcDbEntity
  8
DRAFT
100
AcDbLine
 62
7
  6
CONTINUOUS
 10
16.6115391655
 20
-7.3669776426
 11
15.2096672579
 21
-8.2049032024
  0
LINE
  5
2B6
100
AcDbEntity
  8
DRAFT
100
AcDbLine
 62
7
  6
CONTINUOUS
 10
16.5868558559
 20
-7.352725809
 11
18.0134110731
 21
-6.5290520828
  0
LINE
  5
2B7
100
AcDbEntity
  8
DRAFT
100
AcDbLine
 62
7
  6
CONTINUOUS
 10
15.2906907707
 20
-9.6928307488
 11
14.4778771672
 21
-10.1621383518
  0
LINE
  5
2B8
100
AcDbEntity
  8
DRAFT
100
AcDbLine
 62
7
  6
CONTINUOUS
 10
18.0010694183
 20
-8.1692749956
 11
16.5745142011
 21
-8.9929487218
  0
LWPOLYLINE
  5
2B9
100
AcDbEntity
  8
DRAFT
100
AcDbPolyline
 62
7
  6
CONTINUOUS
 90
4
 70
0
 10
30.2110030486
 20
0.4996852163
 10
30.3812881579
 20
0.4095526591
 10
30.5484603115
 20
0.3364557175
 10
30.6352671173
 20
0.306792616
  0
LWPOLYLINE
  5
2BA
100
AcDbEntity
  8
DRAFT
100
AcDbPolyline
 62
7
  6
CONTINUOUS
 90
4
 70
0
 10
5.8158190976
 20
14.5851586861
 10
5.9861042069
 20
14.4950261289
 10
6.1532763606
 20
14.4219291873
 10
6.2400831663
 20
14.3922660858
  0
LINE
  5
2BB
100
AcDbEntity
  8
RACCORDO
100
AcDbLine
 62
7
  6
CONTINUOUS
 10
19.4276246355
 20
4.248276661
 11
19.3528091079
 21
4.2914742089
  0
LWPOLYLINE
  5
2BC
100
AcDbEntity
  8
0
100
AcDbPolyline
 62
7
  6
CONTINUOUS
 90
14
 70
0
 10
6.2400831663
 20
17.8738877831
 10
6.1606604576
 20
17.956337668
 10
6.0638853123
 20
18.0450250448
 10
5.9657604606
 20
18.1236524222
 10
5.8662494541
 20
18.1919481331
 10
5.7653887412
 20
18.2501838446
 10
5.6658777347
 20
18.2968009497
 10
5.567752883
 20
18.3314856915
 10
5.4709777377
 20
18.3545518267
 10
5.3781423663
 20
18.3653820188
 10
5.2893531613
 20
18.3636458399
 10
5.2045037303
 20
18.3496737178
 10
5.1258649637
 20
18.3238395992
 10
5.0708485013
 20
18.2963126429
  0
LWPOLYLINE
  5
2BD
100
AcDbEntity
  8
RACCORDO
100
AcDbPolyline
 62
253
  6
CONTINUOUS
 90
15
 70
0
 10
18.8222703779
 20
4.1309575374
 10
18.8257492143
 20
4.0647677347
 10
18.8330998142
 20
3.9937266498
 10
18.8451555739
 20
3.9176139637
 10
18.8627179702
 20
3.8368719691
 10
18.8863672654
 20
3.7525969381
 10
18.9168220964
 20
3.6649832024
 10
18.9548240253
 20
3.5742414173
 10
19.0006638051
 20
3.4815087612
 10
19.0549109928
 20
3.3870452239
 10
19.1181190157
 20
3.2911567888
 10
19.1901623144
 20
3.195030007
 10
19.2713666817
 20
3.0989774748
 10
19.3620277814
 20
3.0033372922
 10
19.4276246355
 20
2.9413244686
  0
LINE
  5
2BE
100
AcDbEntity
  8
RACCORDO
100
AcDbLine
 62
253
  6
CONTINUOUS
 10
18.8217371852
 20
4.1689530175
 11
18.8222703779
 21
4.1309575374
  0
LINE
  5
2BF
100
AcDbEntity
  8
RACCORDO
100
AcDbLine
 62
7
  6
CONTINUOUS
 10
18.6989199584
 20
-15.7834010052
 11
18.6989199584
 21
-14.1097947575
  0
LINE
  5
2C0
100
AcDbEntity
  8
ASSI
100
AcDbLine
 62
7
  6
CONTINUOUS
 10
18.8217371852
 20
4.1689622396
 11
18.8217371852
 21
-7.0191841445
  0
LINE
  5
2C1
100
AcDbEntity
  8
0
100
AcDbLine
 62
7
  6
CONTINUOUS
 10
19.4276246355
 20
-65.972270456
 11
19.4276246355
 21
-56.9910974113
  0
LINE
  5
2C2
100
AcDbEntity
  8
0
100
AcDbLine
 62
7
  6
CONTINUOUS
 10
19.4276246355
 20
14.2801934623
 11
19.4276246355
 21
-29.2275570565
  0
LINE
  5
2C3
100
AcDbEntity
  8
0
100
AcDbLine
 62
253
  6
CONTINUOUS
 10
21.548944979
 20
-69.6462683368
 11
21.548944979
 21
-67.1968575064
  0
LINE
  5
2C4
100
AcDbEntity
  8
RACCORDO
100
AcDbLine
 62
7
  6
CONTINUOUS
 10
18.8217372082
 20
4.1692028402
 11
18.8217371852
 21
4.1689530175
  0
LINE
  5
2C5
100
AcDbEntity
  8
RACCORDO
100
AcDbLine
 62
7
  6
CONTINUOUS
 10
18.8219848776
 20
4.1978474679
 11
18.8217374665
 21
4.1692001089
  0
LWPOLYLINE
  5
2C6
100
AcDbEntity
  8
0
100
AcDbPolyline
 62
7
  6
CONTINUOUS
 90
25
 70
0
 10
19.4276246355
 20
-29.2275570565
 10
19.4250016119
 20
-29.3508488692
 10
19.417189416
 20
-29.4763905215
 10
19.4041880477
 20
-29.6041820135
 10
19.3859102944
 20
-29.7346889358
 10
19.3624433687
 20
-29.8674456978
 10
19.3340489091
 20
-30.0010555273
 10
19.300760814
 20
-30.1352308768
 10
19.2625451851
 20
-30.2702592937
 10
19.2195619653
 20
-30.4056066488
 10
19.1717193852
 20
-30.541497827
 10
19.1191092143
 20
-30.6777079433
 10
19.062166704
 20
-30.8130282138
 10
19.0008338899
 20
-30.9474467328
 10
18.9351687364
 20
-31.080975406
 10
18.8657803884
 20
-31.2124411664
 10
18.7927731619
 20
-31.3416217062
 10
18.7160427409
 20
-31.4687393332
 10
18.635885322
 20
-31.593287904
 10
18.5520978685
 20
-31.7155202259
 10
18.4648834171
 20
-31.8351834917
 10
18.3751472753
 20
-31.9510131362
 10
18.2831912119
 20
-32.0625876379
 10
18.188713458
 20
-32.1703285183
 10
18.0917140136
 20
-32.2742357776
  0
LINE
  5
2C7
100
AcDbEntity
  8
RACCORDO
100
AcDbLine
 62
7
  6
CONTINUOUS
 10
18.8219658897
 20
4.1978587715
 11
18.8236888794
 21
4.2265275454
  0
LWPOLYLINE
  5
2C8
100
AcDbEntity
  8
ASSI
100
AcDbPolyline
 62
7
  6
CONTINUOUS
 90
5
 70
0
 10
28.8998814483
 20
33.4067804332
 10
28.887910992
 20
33.3468411636
 10
28.8766405513
 20
33.2644649162
 10
28.8698369421
 20
33.1786001369
 10
28.8675001643
 20
33.0892468259
  0
LWPOLYLINE
  5
2C9
100
AcDbEntity
  8
ASSI
100
AcDbPolyline
 62
7
  6
CONTINUOUS
 90
17
 70
0
 10
19.4276246355
 20
-13.673337704
 10
19.3750993014
 20
-13.7282112906
 10
19.3056620306
 20
-13.8197053317
 10
19.2463033408
 20
-13.9205486268
 10
19.1994464108
 20
-14.0271810418
 10
19.165441632
 20
-14.1385675415
 10
19.1449397751
 20
-14.2516150372
 10
19.1377275925
 20
-14.3599082169
 10
19.1418007857
 20
-14.4618935622
 10
19.1554137906
 20
-14.558091426
 10
19.1767700115
 20
-14.6469600386
 10
19.2050198457
 20
-14.7303819876
 10
19.2397886418
 20
-14.8093778489
 10
19.279396139
 20
-14.8818856212
 10
19.3235355806
 20
-14.9489268795
 10
19.3734038461
 20
-15.0126933023
 10
19.4276246355
 20
-15.0713940249
  0
LINE
  5
2CA
100
AcDbEntity
  8
0
100
AcDbLine
 62
253
  6
CONTINUOUS
 10
-28.6556364852
 20
-39.8427753929
 11
-27.9485638741
 21
-39.434520529
  0
LINE
  5
2CB
100
AcDbEntity
  8
0
100
AcDbLine
 62
253
  6
CONTINUOUS
 10
-28.6556364852
 20
-40.6592456697
 11
-27.2415595899
 21
-39.8427753929
  0
LINE
  5
2CC
100
AcDbEntity
  8
0
100
AcDbLine
 62
253
  6
CONTINUOUS
 10
47.0047891017
 20
1.7967747193
 11
48.0653436732
 21
2.4091256369
  0
LINE
  5
2CD
100
AcDbEntity
  8
DRAFT
100
AcDbLine
 62
7
  6
CONTINUOUS
 10
18.6989199584
 20
-15.7834010052
 11
19.4276246355
 21
-15.362656761
  0
LINE
  5
2CE
100
AcDbEntity
  8
DRAFT
100
AcDbLine
 62
7
  6
CONTINUOUS
 10
17.9885104592
 20
-11.2503615949
 11
19.4276246355
 21
-10.4481883213
  0
LWPOLYLINE
  5
2CF
100
AcDbEntity
  8
0
100
AcDbPolyline
 62
7
  6
CONTINUOUS
 90
42
 70
0
 10
47.3154293038
 20
2.4833518315
 10
47.3376433403
 20
2.4954473284
 10
47.383670057
 20
2.5161923819
 10
47.43202181
 20
2.5323955663
 10
47.4826752871
 20
2.544102421
 10
47.5351191876
 20
2.551194776
 10
47.5893716454
 20
2.5536258949
 10
47.6454145266
 20
2.5514425141
 10
47.7026821296
 20
2.5446666729
 10
47.7611868585
 20
2.5332518581
 10
47.8209163093
 20
2.5172445829
 10
47.8812675676
 20
2.496806426
 10
47.9422469312
 20
2.4718925108
 10
48.0038481024
 20
2.442547714
 10
48.0654492735
 20
2.4090682445
 10
48.1270504447
 20
2.3714122256
 10
48.1886516159
 20
2.329621534
 10
48.2496309795
 20
2.2841180086
 10
48.3099822378
 20
2.2348640452
 10
48.3697116885
 20
2.1818972479
 10
48.4282164175
 20
2.1257522682
 10
48.4854840205
 20
2.0663969169
 10
48.5415269017
 20
2.0038633832
 10
48.5957793594
 20
1.938782886
 10
48.64822326
 20
1.8711296292
 10
48.698876737
 20
1.8009294089
 10
48.74722849
 20
1.7288908321
 10
48.7932552067
 20
1.6549952798
 10
48.8369801994
 20
1.579261371
 10
48.8779621042
 20
1.5024535704
 10
48.9161731385
 20
1.4245610015
 10
48.951641085
 20
1.3455945408
 10
48.9840079271
 20
1.2663512825
 10
49.0132422562
 20
1.1868284233
 10
49.0393754809
 20
1.1070287666
 10
49.0621438101
 20
1.027757817
 10
49.0815131637
 20
0.9490209293
 10
49.0975176218
 20
0.8708127488
 10
49.109995634
 20
0.7939227155
 10
49.1188933503
 20
0.7186139762
 10
49.1242646207
 20
0.6446233841
 10
49.1261094453
 20
0.5719509393
  0
LWPOLYLINE
  5
2D0
100
AcDbEntity
  8
0
100
AcDbPolyline
 62
7
  6
CONTINUOUS
 90
13
 70
0
 10
-28.4485538642
 20
-39.3850385318
 10
-28.4147946544
 20
-39.3680469018
 10
-28.3789246359
 20
-39.3547670948
 10
-28.3413771832
 20
-39.3453545508
 10
-28.3021308086
 20
-39.3398588088
 10
-28.2612069998
 20
-39.3382303299
 10
-28.2191277541
 20
-39.3404898859
 10
-28.1758782707
 20
-39.3466872818
 10
-28.1314733505
 20
-39.3567727125
 10
-28.0864793937
 20
-39.370617535
 10
-28.0410852004
 20
-39.3881788681
 10
-27.9951019705
 20
-39.4094995929
 10
-27.948529704
 20
-39.4345797095
  0
LWPOLYLINE
  5
2D1
100
AcDbEntity
  8
DRAFT
100
AcDbPolyline
 62
7
  6
CONTINUOUS
 90
10
 70
0
 10
30.2110030486
 20
5.3415050518
 10
30.0407179393
 20
5.431637609
 10
29.8735457856
 20
5.5047345506
 10
29.7094865876
 20
5.5607958768
 10
29.5474032543
 20
5.5999604874
 10
29.3884328767
 20
5.6220894826
 10
29.2359867273
 20
5.626766162
 10
29.0904717366
 20
5.6137070326
 10
28.9514809741
 20
5.5831955874
 10
28.8675001643
 20
5.5525559861
  0
LWPOLYLINE
  5
2D2
100
AcDbEntity
  8
DRAFT
100
AcDbPolyline
 62
7
  6
CONTINUOUS
 90
10
 70
0
 10
5.8158190976
 20
19.4269785216
 10
5.6455339883
 20
19.5171110788
 10
5.4783618347
 20
19.5902080204
 10
5.3143026366
 20
19.6462693466
 10
5.1522193034
 20
19.6854339572
 10
4.9932489258
 20
19.7075629524
 10
4.8408027764
 20
19.7122396318
 10
4.6952877856
 20
19.6991805024
 10
4.5562970231
 20
19.6686690572
 10
4.4723162134
 20
19.6380294559
  0
LINE
  5
2D3
100
AcDbEntity
  8
0
100
AcDbLine
 62
7
  6
CONTINUOUS
 10
13.0636636048
 20
18.771135079
 11
18.7205178543
 21
15.5049383324
  0
LWPOLYLINE
  5
2D4
100
AcDbEntity
  8
0
100
AcDbPolyline
 62
7
  6
CONTINUOUS
 90
25
 70
0
 10
18.7205178543
 20
15.5049383324
 10
18.7670901207
 20
15.476237963
 10
18.8130733506
 20
15.4444584065
 10
18.8584675439
 20
15.4095996631
 10
18.9034615007
 20
15.371486592
 10
18.9478664209
 20
15.330294334
 10
18.9911159044
 20
15.2865483105
 10
19.03319515
 20
15.2402158083
 10
19.0741189589
 20
15.1913295408
 10
19.1133653335
 20
15.1405130691
 10
19.1509127862
 20
15.0877416679
 10
19.1867828047
 20
15.0330400627
 10
19.2205178543
 20
14.9771059914
 10
19.2520905865
 20
14.9199236665
 10
19.2815283499
 20
14.8615088756
 10
19.3084556555
 20
14.8026067197
 10
19.3328403448
 20
14.7432109558
 10
19.3547145764
 20
14.6833278268
 10
19.3737993367
 20
14.6237211631
 10
19.3900588932
 20
14.5643945061
 10
19.4035289785
 20
14.5053443142
 10
19.4140377769
 20
14.4473237933
 10
19.4215280166
 20
14.390584012
 10
19.4260569695
 20
14.3348739016
 10
19.4276246355
 20
14.2801934623
  0
LWPOLYLINE
  5
2D5
100
AcDbEntity
  8
DRAFT
100
AcDbPolyline
 62
7
  6
CONTINUOUS
 90
4
 70
0
 10
6.2400831663
 20
19.12994161
 10
6.1532763606
 20
19.2005208318
 10
5.9861042069
 20
19.3204701029
 10
5.8158190976
 20
19.4269785216
  0
LWPOLYLINE
  5
2D6
100
AcDbEntity
  8
DRAFT
100
AcDbPolyline
 62
7
  6
CONTINUOUS
 90
4
 70
0
 10
30.6352671173
 20
5.0444681402
 10
30.5484603115
 20
5.115047362
 10
30.3812881579
 20
5.2349966331
 10
30.2110030486
 20
5.3415050518
  0
LWPOLYLINE
  5
2D7
100
AcDbEntity
  8
ASSI
100
AcDbPolyline
 62
7
  6
CONTINUOUS
 90
10
 70
0
 10
5.2978306665
 20
43.1377285827
 10
5.2807302911
 20
43.1719098073
 10
5.2280183252
 20
43.2632096104
 10
5.1707858636
 20
43.3499352584
 10
5.1088854072
 20
43.4319375011
 10
5.0424644553
 20
43.5093655887
 10
4.9736669381
 20
43.5797203033
 10
4.9032074992
 20
43.6421685721
 10
4.8303714951
 20
43.6975434679
 10
4.7551589258
 20
43.7458449907
  0
LWPOLYLINE
  5
2D8
100
AcDbEntity
  8
RACCORDO
100
AcDbPolyline
 62
253
  6
CONTINUOUS
 90
4
 70
0
 10
19.3533242975
 20
4.291176745
 10
19.374045133
 20
4.2111666642
 10
19.4028605254
 20
4.1289038122
 10
19.4276246355
 20
4.0721994754
  0
LWPOLYLINE
  5
2D9
100
AcDbEntity
  8
0
100
AcDbPolyline
 62
7
  6
CONTINUOUS
 90
22
 70
0
 10
29.1574139446
 20
3.5289242781
 10
29.1625400846
 20
3.4086329467
 10
29.1767660051
 20
3.2861727033
 10
29.2000917062
 20
3.161543548
 10
29.23289098
 20
3.0335845766
 10
29.2747900344
 20
2.9034566932
 10
29.3246674927
 20
2.7746426104
 10
29.3827388092
 20
2.647177807
 10
29.4487885297
 20
2.5210268042
 10
29.5210489147
 20
2.3995658782
 10
29.5996876812
 20
2.2829216832
 10
29.6845371122
 20
2.1709675649
 10
29.7733263172
 20
2.0666998377
 10
29.8661616886
 20
1.9703260699
 10
29.9629368339
 20
1.8816386931
 10
30.0610616856
 20
1.8030113157
 10
30.1605726921
 20
1.7347156048
 10
30.261433405
 20
1.6764798933
 10
30.3609444115
 20
1.6298627882
 10
30.4590692632
 20
1.5951780465
 10
30.5558444085
 20
1.5721119112
 10
30.6352671173
 20
1.5628464429
  0
LWPOLYLINE
  5
2DA
100
AcDbEntity
  8
ASSI
100
AcDbPolyline
 62
7
  6
CONTINUOUS
 90
33
 70
0
 10
28.8675001643
 20
-20.7977914424
 10
28.8698369421
 20
-20.8898432058
 10
28.8766405513
 20
-20.9835646225
 10
28.887910992
 20
-21.0789556923
 10
28.9037164741
 20
-21.1763497345
 10
28.9239887877
 20
-21.2754134298
 10
28.9485233022
 20
-21.3751468209
 10
28.9773631859
 20
-21.4755566904
 10
29.0104652705
 20
-21.5766362556
 10
29.0474954207
 20
-21.6773652106
 10
29.0884934207
 20
-21.7777400043
 10
29.1334194862
 20
-21.8777641879
 10
29.1818201298
 20
-21.9764281085
 10
29.2337305424
 20
-22.0737179893
 10
29.2891155331
 20
-22.169647607
 10
29.347416041
 20
-22.26324864
 10
29.4086615948
 20
-22.3544975039
 10
29.4728226657
 20
-22.443417783
 10
29.5392516064
 20
-22.5291119082
 10
29.6079713862
 20
-22.6115472047
 10
29.6789590357
 20
-22.6907563474
 10
29.7514979995
 20
-22.7659397923
 10
29.8256039896
 20
-22.8370567666
 10
29.9012612938
 20
-22.9041480432
 10
29.977706221
 20
-22.9665363969
 10
30.0549467483
 20
-23.0241741958
 10
30.1329748984
 20
-23.0771090717
 10
30.2110030486
 20
-23.1248066956
 10
30.2890311987
 20
-23.1672140237
 10
30.3670593489
 20
-23.2043840997
 10
30.4442998761
 20
-23.2359417256
 10
30.5207448033
 20
-23.2618300576
 10
30.5827697521
 20
-23.278452518
  0
LINE
  5
2DB
100
AcDbEntity
  8
0
100
AcDbLine
 62
7
  6
CONTINUOUS
 10
25.5440982927
 20
-21.3285484137
 11
25.5440982927
 21
32.5584898546
  0
LINE
  5
2DC
100
AcDbEntity
  8
0
100
AcDbLine
 62
7
  6
CONTINUOUS
 10
27.9482613488
 20
-21.3285484137
 11
27.9482613488
 21
32.5584898546
  0
LINE
  5
2DD
100
AcDbEntity
  8
ASSI
100
AcDbLine
 62
7
  6
CONTINUOUS
 10
28.8675001643
 20
-20.7977914424
 11
28.8675001643
 21
33.0892468259
  0
LINE
  5
2DE
100
AcDbEntity
  8
DRAFT
100
AcDbLine
 62
7
  6
CONTINUOUS
 10
29.6099622846
 20
-18.164408479
 11
29.6099622846
 21
-19.0625257834
  0
LINE
  5
2DF
100
AcDbEntity
  8
DRAFT
100
AcDbLine
 62
7
  6
CONTINUOUS
 10
29.8798462595
 20
30.2731333703
 11
29.8798462595
 21
28.8161251127
  0
LWPOLYLINE
  5
2E0
100
AcDbEntity
  8
0
100
AcDbPolyline
 62
7
  6
CONTINUOUS
 90
34
 70
0
 10
25.5440982927
 20
32.5584898546
 10
25.5470349431
 20
32.6971642955
 10
25.5556706159
 20
32.8316041726
 10
25.5700053112
 20
32.9618094862
 10
25.5900971117
 20
33.0880560276
 10
25.6158879347
 20
33.2100680053
 10
25.6472035319
 20
33.3270180446
 10
25.6840815071
 20
33.4388716067
 10
25.7264842565
 20
33.5456632304
 10
25.7741247204
 20
33.6466691577
 10
25.8270385018
 20
33.7418499905
 10
25.8851899977
 20
33.8312451269
 10
25.9481853391
 20
33.9142490029
 10
26.0160573328
 20
33.9908181127
 10
26.088773172
 20
34.0609959621
 10
26.1658405672
 20
34.1243075045
 10
26.2472889919
 20
34.1807061604
 10
26.3330889727
 20
34.2302385094
 10
26.4226597999
 20
34.2725692433
 10
26.5160271075
 20
34.3076495489
 10
26.6131652616
 20
34.3355282394
 10
26.7134166502
 20
34.3560164468
 10
26.816802446
 20
34.3690640138
 10
26.9233014765
 20
34.3747210977
 10
27.0321926115
 20
34.3729493023
 10
27.1434920791
 20
34.3636981938
 10
27.2571836514
 20
34.3470182059
 10
27.3724975141
 20
34.3230222444
 10
27.4894446674
 20
34.2916606547
 10
27.6080141112
 20
34.2529830914
 10
27.7274030304
 20
34.2072514241
 10
27.8476169779
 20
34.1544177842
 10
27.9686504007
 20
34.0945300403
 10
28.0894366924
 20
34.0281363457
  0
LWPOLYLINE
  5
2E1
100
AcDbEntity
  8
0
100
AcDbPolyline
 62
7
  6
CONTINUOUS
 90
16
 70
0
 10
27.9482613488
 20
32.5584898546
 10
27.9503009196
 20
32.6427587132
 10
27.9564137825
 20
32.7244198502
 10
27.9665818893
 20
32.80322496
 10
27.980775045
 20
32.8789351473
 10
27.9989505632
 20
32.9513192169
 10
28.0210529706
 20
33.0201547423
 10
28.0470152044
 20
33.0852324251
 10
28.0767585584
 20
33.146354604
 10
28.1101918597
 20
33.2033340332
 10
28.1472133004
 20
33.2559977545
 10
28.1877103251
 20
33.3041861525
 10
28.2315588276
 20
33.3477522452
 10
28.2786240064
 20
33.3865632997
 10
28.3287636963
 20
33.4205032008
 10
28.3417183288
 20
33.4281898908
  0
LINE
  5
2E2
100
AcDbEntity
  8
0
100
AcDbLine
 62
253
  6
CONTINUOUS
 10
14.4778771672
 20
-23.9199873433
 11
12.3565568236
 21
-25.1448111233
  0
LWPOLYLINE
  5
2E3
100
AcDbEntity
  8
0
100
AcDbPolyline
 62
7
  6
CONTINUOUS
 90
14
 70
0
 10
30.6352671173
 20
3.7884143132
 10
30.5558444085
 20
3.8708641982
 10
30.4590692632
 20
3.959551575
 10
30.3609444115
 20
4.0381789524
 10
30.261433405
 20
4.1064746633
 10
30.1605726921
 20
4.1647103748
 10
30.0610616856
 20
4.2113274799
 10
29.9629368339
 20
4.2460122216
 10
29.8661616886
 20
4.2690783569
 10
29.7733263172
 20
4.279908549
 10
29.6845371122
 20
4.2781723701
 10
29.5996876812
 20
4.264200248
 10
29.5210489147
 20
4.2383661294
 10
29.4660324522
 20
4.2108391731
  0
LWPOLYLINE
  5
2E4
100
AcDbEntity
  8
DRAFT
100
AcDbPolyline
 62
7
  6
CONTINUOUS
 90
10
 70
0
 10
28.8675001643
 20
1.8400777367
 10
28.9514809741
 20
1.7124592013
 10
29.0904717366
 20
1.5214447075
 10
29.2359867273
 20
1.3403485142
 10
29.3884328767
 20
1.1689842016
 10
29.5474032543
 20
1.0075381894
 10
29.7094865876
 20
0.8595330295
 10
29.8735457856
 20
0.7261429061
 10
30.0407179393
 20
0.606193635
 10
30.2110030486
 20
0.4996852163
  0
LINE
  5
2E5
100
AcDbEntity
  8
0
100
AcDbLine
 62
7
  6
CONTINUOUS
 10
30.6352671173
 20
29.6189127826
 11
30.6352671173
 21
-24.2681254857
  0
LWPOLYLINE
  5
2E6
100
AcDbEntity
  8
0
100
AcDbPolyline
 62
7
  6
CONTINUOUS
 90
67
 70
0
 10
30.6352671173
 20
-24.2681254857
 10
30.6323304669
 20
-24.4067999266
 10
30.6236947941
 20
-24.5412398037
 10
30.6093600988
 20
-24.6714451173
 10
30.5892682983
 20
-24.7976916587
 10
30.5634774753
 20
-24.9197036364
 10
30.5321618781
 20
-25.0366536757
 10
30.4952839029
 20
-25.1485072378
 10
30.4528811535
 20
-25.2552988615
 10
30.4052406896
 20
-25.3563047888
 10
30.3523269082
 20
-25.4514856216
 10
30.2941754123
 20
-25.540880758
 10
30.2311800709
 20
-25.623884634
 10
30.1633080772
 20
-25.7004537438
 10
30.090592238
 20
-25.7706315932
 10
30.0135248428
 20
-25.8339431356
 10
29.9320764181
 20
-25.8903417915
 10
29.8462764373
 20
-25.9398741405
 10
29.7567056101
 20
-25.9822048744
 10
29.6633383025
 20
-26.01728518
 10
29.5662001484
 20
-26.0451638705
 10
29.4659487598
 20
-26.0656520779
 10
29.362562964
 20
-26.0786996449
 10
29.2560639336
 20
-26.0843567288
 10
29.1471727986
 20
-26.0825849334
 10
29.0358733309
 20
-26.0733338249
 10
28.9221817586
 20
-26.056653837
 10
28.8068678959
 20
-26.0326578755
 10
28.6899207426
 20
-26.0012962858
 10
28.5713512988
 20
-25.9626187225
 10
28.4519623796
 20
-25.9168870552
 10
28.3317484321
 20
-25.8640534153
 10
28.2107150093
 20
-25.8041656714
 10
28.0896815845
 20
-25.7376292992
 10
27.9686481545
 20
-25.6643991783
 10
27.8476147225
 20
-25.5845204292
 10
27.7274007722
 20
-25.4985338891
 10
27.6080118612
 20
-25.4063981046
 10
27.4894424319
 20
-25.3081545291
 10
27.3724952944
 20
-25.2044683597
 10
27.2571814415
 20
-25.095302636
 10
27.1434898805
 20
-24.9806943183
 10
27.032190443
 20
-24.8614194848
 10
26.9232993673
 20
-24.7374464514
 10
26.8168004151
 20
-24.6088069021
 10
26.7134147038
 20
-24.476371967
 10
26.6131634122
 20
-24.3401159539
 10
26.5160253613
 20
-24.200064555
 10
26.4226581321
 20
-24.0571659773
 10
26.3330873419
 20
-23.9114009873
 10
26.2472873733
 20
-23.7627888186
 10
26.1658389553
 20
-23.612335379
 10
26.0887715548
 20
-23.4600280985
 10
26.0160557049
 20
-23.3058795471
 10
25.9481837337
 20
-23.150933343
 10
25.8851884634
 20
-22.9951838822
 10
25.8270370718
 20
-22.8386367687
 10
25.7741234207
 20
-22.682352433
 10
25.7264831202
 20
-22.5263326062
 10
25.6840805602
 20
-22.3705755571
 10
25.6472027721
 20
-22.2161365228
 10
25.6158873597
 20
-22.0630243856
 10
25.5900967191
 20
-21.9112302632
 10
25.5700050701
 20
-21.7617827457
 10
25.5556704861
 20
-21.6150246967
 10
25.5470348936
 20
-21.4706132527
 10
25.5440982927
 20
-21.3285484137
  0
LWPOLYLINE
  5
2E7
100
AcDbEntity
  8
0
100
AcDbPolyline
 62
7
  6
CONTINUOUS
 90
16
 70
0
 10
30.6352671173
 20
-22.8799918684
 10
30.6332275465
 20
-22.964260727
 10
30.6271146836
 20
-23.045921864
 10
30.6169465768
 20
-23.1247269738
 10
30.6027534211
 20
-23.2004371611
 10
30.5845779028
 20
-23.2728212306
 10
30.5624754954
 20
-23.3416567561
 10
30.5365132616
 20
-23.4067344389
 10
30.5067699077
 20
-23.4678566178
 10
30.4733366064
 20
-23.524836047
 10
30.4363151657
 20
-23.5774997683
 10
30.3958181409
 20
-23.6256881663
 10
30.3519696385
 20
-23.669254259
 10
30.3049044596
 20
-23.7080653135
 10
30.2547647698
 20
-23.7420052146
 10
30.2418101373
 20
-23.7496919046
  0
LWPOLYLINE
  5
2E8
100
AcDbEntity
  8
0
100
AcDbPolyline
 62
7
  6
CONTINUOUS
 90
25
 70
0
 10
18.0917140136
 20
-32.2742357776
 10
18.0632521623
 20
-32.301861996
 10
18.0324879761
 20
-32.3278140407
 10
17.9994274615
 20
-32.3520883531
 10
17.9641077543
 20
-32.3747580136
 10
17.9265033046
 20
-32.3957421684
 10
17.8865275984
 20
-32.4148110981
 10
17.8441781205
 20
-32.4320106234
 10
17.7994716018
 20
-32.4472973206
 10
17.7523541828
 20
-32.4603211955
 10
17.7027330536
 20
-32.4711505747
 10
17.6507181596
 20
-32.479737011
 10
17.5965659385
 20
-32.4855827062
 10
17.5401581184
 20
-32.4887201443
 10
17.4816346952
 20
-32.4891738807
 10
17.4216468565
 20
-32.4864753056
 10
17.3600265314
 20
-32.4806232046
 10
17.2969646978
 20
-32.4717149574
 10
17.2336568902
 20
-32.459472631
 10
17.1699479349
 20
-32.4438119462
 10
17.1060123821
 20
-32.4249331396
 10
17.0435427869
 20
-32.4030110987
 10
16.9831075566
 20
-32.3781371612
 10
16.9241492758
 20
-32.3503040024
 10
16.8666705308
 20
-32.3195329071
  0
LINE
  5
2E9
100
AcDbEntity
  8
DRAFT
100
AcDbLine
 62
7
  6
CONTINUOUS
 10
28.8675001643
 20
-18.5930960851
 11
29.6099622846
 21
-18.164408479
  0
LINE
  5
2EA
100
AcDbEntity
  8
RACCORDO
100
AcDbLine
 62
7
  6
CONTINUOUS
 10
30.6352671173
 20
-17.6947445251
 11
29.6099622846
 21
-18.2867436927
  0
LINE
  5
2EB
100
AcDbEntity
  8
DRAFT
100
AcDbLine
 62
7
  6
CONTINUOUS
 10
28.8675001643
 20
-19.4912133896
 11
29.6099622846
 21
-19.0625257834
  0
LINE
  5
2EC
100
AcDbEntity
  8
0
100
AcDbLine
 62
253
  6
CONTINUOUS
 10
28.8675001643
 20
-20.7977914424
 11
27.9482613488
 21
-21.3285484137
  0
LWPOLYLINE
  5
2ED
100
AcDbEntity
  8
0
100
AcDbPolyline
 62
7
  6
CONTINUOUS
 90
44
 70
0
 10
30.2418101373
 20
-23.7496919046
 10
30.2017000048
 20
-23.7709729848
 10
30.1458701549
 20
-23.7948807193
 10
30.0874454636
 20
-23.8136549769
 10
30.0266027649
 20
-23.8272385065
 10
29.9635259667
 20
-23.8355896882
 10
29.8984070994
 20
-23.8386825564
 10
29.831445464
 20
-23.8365074035
 10
29.7628444523
 20
-23.8290707959
 10
29.6928124003
 20
-23.8163952787
 10
29.621563722
 20
-23.7985197971
 10
29.5493152275
 20
-23.7754990901
 10
29.4762860701
 20
-23.747403326
 10
29.4026988056
 20
-23.7143184989
 10
29.3287786997
 20
-23.6763464959
 10
29.2547484897
 20
-23.6336023399
 10
29.1808284283
 20
-23.5862132058
 10
29.1072412751
 20
-23.5343213071
 10
29.0342122708
 20
-23.4780848804
 10
28.9619639009
 20
-23.4176748805
 10
28.890715295
 20
-23.3532741844
 10
28.8206832884
 20
-23.2850784343
 10
28.7520822995
 20
-23.213296284
 10
28.6851206672
 20
-23.1381457678
 10
28.6200017838
 20
-23.0598551863
 10
28.5569249522
 20
-22.9786643918
 10
28.4960821834
 20
-22.8948210682
 10
28.4376574123
 20
-22.8085792359
 10
28.3818275365
 20
-22.720200447
 10
28.3287628249
 20
-22.6299547958
 10
28.2786232268
 20
-22.5381148912
 10
28.231558139
 20
-22.4449542128
 10
28.1877097182
 20
-22.3507530263
 10
28.1472127736
 20
-22.2557997469
 10
28.1101914062
 20
-22.1603846582
 10
28.0767581677
 20
-22.0647973385
 10
28.0470148716
 20
-21.9693283232
 10
28.0210526974
 20
-21.8742701652
 10
27.9989503479
 20
-21.7799114069
 10
27.9807748855
 20
-21.6865387943
 10
27.9665817869
 20
-21.5944388524
 10
27.9564137319
 20
-21.5038920789
 10
27.9503009057
 20
-21.4151722188
 10
27.9482613488
 20
-21.3285484137
  0
LINE
  5
2EE
100
AcDbEntity
  8
0
100
AcDbLine
 62
253
  6
CONTINUOUS
 10
25.5440982927
 20
32.5584898546
 11
27.9482613488
 21
32.5584898546
  0
LINE
  5
2EF
100
AcDbEntity
  8
RACCORDO
100
AcDbLine
 62
253
  6
CONTINUOUS
 10
6.2400831663
 20
31.6147603277
 11
4.4723162134
 21
32.635446811
  0
LINE
  5
2F0
100
AcDbEntity
  8
RACCORDO
100
AcDbLine
 62
253
  6
CONTINUOUS
 10
6.2400831663
 20
32.4291267525
 11
4.4723162134
 21
33.4498132358
  0
LINE
  5
2F1
100
AcDbEntity
  8
DRAFT
100
AcDbLine
 62
7
  6
CONTINUOUS
 10
6.2400831663
 20
33.6625120367
 11
4.9319356211
 21
34.4178200343
  0
LINE
  5
2F2
100
AcDbEntity
  8
RACCORDO
100
AcDbLine
 62
7
  6
CONTINUOUS
 10
4.4723162134
 20
35.77253137
 11
6.2400831663
 21
34.7518448867
  0
LINE
  5
2F3
100
AcDbEntity
  8
RACCORDO
100
AcDbLine
 62
253
  6
CONTINUOUS
 10
4.4723162134
 20
35.9416163455
 11
6.2400831663
 21
34.9209298622
  0
LINE
  5
2F4
100
AcDbEntity
  8
RACCORDO
100
AcDbLine
 62
7
  6
CONTINUOUS
 10
30.6352671173
 20
23.5100307123
 11
28.8675001643
 21
24.5307171956
  0
LINE
  5
2F5
100
AcDbEntity
  8
RACCORDO
100
AcDbLine
 62
7
  6
CONTINUOUS
 10
6.2400831663
 20
37.5955041821
 11
6.0049105233
 21
37.7312899188
  0
LINE
  5
2F6
100
AcDbEntity
  8
0
100
AcDbLine
 62
253
  6
CONTINUOUS
 10
39.9337212899
 20
-48.4162262134
 11
39.9337212899
 21
-47.5996770267
  0
LINE
  5
2F7
100
AcDbEntity
  8
0
100
AcDbLine
 62
253
  6
CONTINUOUS
 10
49.1261094453
 20
-19.0230989742
 11
47.0047891017
 21
-20.2479227541
  0
LWPOLYLINE
  5
2F8
100
AcDbEntity
  8
ASSI
100
AcDbPolyline
 62
7
  6
CONTINUOUS
 90
5
 70
0
 10
4.7551589258
 20
43.7458449907
 10
4.6799463566
 20
43.7843970576
 10
4.6071103525
 20
43.8131313537
 10
4.5366509136
 20
43.8320478787
 10
4.4723162134
 20
43.8405490939
  0
LINE
  5
2F9
100
AcDbEntity
  8
DRAFT
100
AcDbLine
 62
7
  6
CONTINUOUS
 10
28.8675001643
 20
26.1358693594
 11
30.6352671173
 21
25.1151828761
  0
LINE
  5
2FA
100
AcDbEntity
  8
DRAFT
100
AcDbLine
 62
7
  6
CONTINUOUS
 10
28.8675001643
 20
27.7008507476
 11
30.6352671173
 21
26.6801642642
  0
LINE
  5
2FB
100
AcDbEntity
  8
DRAFT
100
AcDbLine
 62
7
  6
CONTINUOUS
 10
29.8798462595
 20
28.8161251127
 11
30.6352671173
 21
28.3799545771
  0
LINE
  5
2FC
100
AcDbEntity
  8
DRAFT
100
AcDbLine
 62
7
  6
CONTINUOUS
 10
30.6275192004
 20
29.8414363847
 11
28.8675001643
 21
30.857649318
  0
LINE
  5
2FD
100
AcDbEntity
  8
0
100
AcDbLine
 62
7
  6
CONTINUOUS
 10
47.0047891017
 20
-20.2479227541
 11
47.0047891017
 21
1.7967747193
  0
LWPOLYLINE
  5
2FE
100
AcDbEntity
  8
0
100
AcDbPolyline
 62
7
  6
CONTINUOUS
 90
15
 70
0
 10
47.0047891017
 20
1.7967747193
 10
47.0066339263
 20
1.8673168069
 10
47.0120051968
 20
1.9351047905
 10
47.020902913
 20
2.0001386701
 10
47.0333809253
 20
2.0626194076
 10
47.0493853834
 20
2.1223460411
 10
47.0687547369
 20
2.1787156848
 10
47.0915230662
 20
2.2316943385
 10
47.1176562909
 20
2.2813160024
 10
47.14689062
 20
2.3270797912
 10
47.179257462
 20
2.3689466315
 10
47.2147254085
 20
2.4069555967
 10
47.2529364429
 20
2.4407230209
 10
47.2939183476
 20
2.4702059451
 10
47.3154293038
 20
2.4833518315
  0
LWPOLYLINE
  5
2FF
100
AcDbEntity
  8
0
100
AcDbPolyline
 62
7
  6
CONTINUOUS
 90
13
 70
0
 10
40.2266145087
 20
-48.00795162
 10
40.2244521913
 20
-48.0456595148
 10
40.2180199362
 20
-48.0833674095
 10
40.2073997891
 20
-48.1205943269
 10
40.1925381038
 20
-48.1573341057
 10
40.1734885265
 20
-48.1935929072
 10
40.1504940412
 20
-48.2289082377
 10
40.1235041143
 20
-48.2632680116
 10
40.0925692794
 20
-48.2966843144
 10
40.058084121
 20
-48.3287309097
 10
40.0201801674
 20
-48.3592657185
 10
39.9787258904
 20
-48.3884308197
 10
39.9337212899
 20
-48.4162262134
  0
LWPOLYLINE
  5
300
100
AcDbEntity
  8
0
100
AcDbPolyline
 62
7
  6
CONTINUOUS
 90
42
 70
0
 10
48.8154692433
 20
-22.1593236464
 10
48.7932552067
 20
-22.1714191432
 10
48.74722849
 20
-22.1921641968
 10
48.698876737
 20
-22.2083673812
 10
48.64822326
 20
-22.2200742358
 10
48.5957793594
 20
-22.2271665908
 10
48.5415269017
 20
-22.2295977098
 10
48.4854840205
 20
-22.227414329
 10
48.4282164175
 20
-22.2206384878
 10
48.3697116885
 20
-22.209223673
 10
48.3099822378
 20
-22.1932163977
 10
48.2496309795
 20
-22.1727782409
 10
48.1886516159
 20
-22.1478643257
 10
48.1270504447
 20
-22.1185195288
 10
48.0654492735
 20
-22.0850400593
 10
48.0038481024
 20
-22.0473840405
 10
47.9422469312
 20
-22.0055933489
 10
47.8812675676
 20
-21.9600898235
 10
47.8209163093
 20
-21.91083586
 10
47.7611868585
 20
-21.8578690628
 10
47.7026821296
 20
-21.801724083
 10
47.6454145266
 20
-21.7423687318
 10
47.5893716454
 20
-21.6798351981
 10
47.5351191876
 20
-21.6147547009
 10
47.4826752871
 20
-21.5471014441
 10
47.43202181
 20
-21.4769012237
 10
47.383670057
 20
-21.404862647
 10
47.3376433403
 20
-21.3309670946
 10
47.2939183476
 20
-21.2552331859
 10
47.2529364429
 20
-21.1784253853
 10
47.2147254085
 20
-21.1005328164
 10
47.179257462
 20
-21.0215663557
 10
47.14689062
 20
-20.9423230974
 10
47.1176562909
 20
-20.8628002382
 10
47.0915230662
 20
-20.7830005815
 10
47.0687547369
 20
-20.7037296319
 10
47.0493853834
 20
-20.6249927442
 10
47.0333809253
 20
-20.5467845637
 10
47.020902913
 20
-20.4698945304
 10
47.0120051968
 20
-20.394585791
 10
47.0066339263
 20
-20.320595199
 10
47.0047891017
 20
-20.2479227541
  0
LINE
  5
301
100
AcDbEntity
  8
0
100
AcDbLine
 62
253
  6
CONTINUOUS
 10
1.1489143418
 20
46.6439633244
 11
3.5530773978
 21
46.6439633244
  0
LINE
  5
302
100
AcDbEntity
  8
RACCORDO
100
AcDbLine
 62
7
  6
CONTINUOUS
 10
5.2978306665
 20
45.8675156832
 11
5.8183999336
 21
45.5669455127
  0
LINE
  5
303
100
AcDbEntity
  8
RACCORDO
100
AcDbLine
 62
7
  6
CONTINUOUS
 10
28.8675001643
 20
32.2586839125
 11
30.2135838845
 21
31.4814720429
  0
LINE
  5
304
100
AcDbEntity
  8
0
100
AcDbLine
 62
7
  6
CONTINUOUS
 10
25.4380322756
 20
39.1514932579
 11
6.3461491835
 21
50.1749072778
  0
LWPOLYLINE
  5
305
100
AcDbEntity
  8
0
100
AcDbPolyline
 62
7
  6
CONTINUOUS
 90
34
 70
0
 10
3.6942527414
 20
48.1136098156
 10
3.8155333046
 20
48.040237017
 10
3.9365667366
 20
47.9603582679
 10
4.0567806869
 20
47.8743717278
 10
4.1761695979
 20
47.7822359433
 10
4.2947390272
 20
47.6839923678
 10
4.4116861647
 20
47.5803061984
 10
4.5270000176
 20
47.4711404747
 10
4.6406915786
 20
47.356532157
 10
4.7519910161
 20
47.2372573235
 10
4.8608820918
 20
47.1132842901
 10
4.9673810439
 20
46.9846447408
 10
5.0707667552
 20
46.8522098057
 10
5.1710180469
 20
46.7159537926
 10
5.2681560978
 20
46.5759023937
 10
5.361523327
 20
46.433003816
 10
5.4510941172
 20
46.287238826
 10
5.5368940858
 20
46.1386266573
 10
5.6183425037
 20
45.9881732178
 10
5.6954099042
 20
45.8358659372
 10
5.7681257542
 20
45.6817173858
 10
5.8359977254
 20
45.5267711817
 10
5.8989929957
 20
45.3710217209
 10
5.9571443873
 20
45.2144746074
 10
6.0100580384
 20
45.0581902717
 10
6.0576983389
 20
44.9021704449
 10
6.1001008989
 20
44.7464133958
 10
6.136978687
 20
44.5919743615
 10
6.1682940994
 20
44.4388622243
 10
6.19408474
 20
44.2870681019
 10
6.2141763889
 20
44.1376205844
 10
6.228510973
 20
43.9908625354
 10
6.2371465655
 20
43.8464510914
 10
6.2400831663
 20
43.7043862524
  0
LWPOLYLINE
  5
306
100
AcDbEntity
  8
0
100
AcDbPolyline
 62
7
  6
CONTINUOUS
 90
34
 70
0
 10
28.0894366924
 20
34.0281363457
 10
28.2107172555
 20
33.9547635472
 10
28.3317506875
 20
33.8748847981
 10
28.4519646379
 20
33.788898258
 10
28.5713535488
 20
33.6967624735
 10
28.6899229781
 20
33.598518898
 10
28.8068701156
 20
33.4948327286
 10
28.9221839685
 20
33.3856670049
 10
29.0358755296
 20
33.2710586872
 10
29.147174967
 20
33.1517838537
 10
29.2560660427
 20
33.0278108203
 10
29.3625649949
 20
32.899171271
 10
29.4659507062
 20
32.7667363359
 10
29.5662019979
 20
32.6304803228
 10
29.6633400487
 20
32.4904289239
 10
29.7567072779
 20
32.3475303462
 10
29.8462780681
 20
32.2017653562
 10
29.9320780367
 20
32.0531531875
 10
30.0135264547
 20
31.9026997479
 10
30.0905938552
 20
31.7503924674
 10
30.1633097051
 20
31.596243916
 10
30.2311816763
 20
31.4412977119
 10
30.2941769466
 20
31.2855482511
 10
30.3523283382
 20
31.1290011376
 10
30.4052419893
 20
30.9727168019
 10
30.4528822898
 20
30.8166969751
 10
30.4952848498
 20
30.660939926
 10
30.5321626379
 20
30.5065008917
 10
30.5634780503
 20
30.3533887545
 10
30.5892686909
 20
30.2015946321
 10
30.6093603399
 20
30.0521471146
 10
30.623694924
 20
29.9053890656
 10
30.6323305164
 20
29.7609776216
 10
30.6352671173
 20
29.6189127826
  0
LWPOLYLINE
  5
307
100
AcDbEntity
  8
0
100
AcDbPolyline
 62
7
  6
CONTINUOUS
 90
42
 70
0
 10
6.3461491835
 20
50.1749072778
 10
6.284133474
 20
50.2128445225
 10
6.222739572
 20
50.2544946012
 10
6.1619674776
 20
50.2998575136
 10
6.1016162193
 20
50.3491114771
 10
6.0418867685
 20
50.4020782744
 10
5.9833820395
 20
50.4582232541
 10
5.9261144366
 20
50.5175786054
 10
5.8700715554
 20
50.580112139
 10
5.8158190976
 20
50.6451926363
 10
5.7633751971
 20
50.7128458931
 10
5.71272172
 20
50.7830461134
 10
5.664369967
 20
50.8550846901
 10
5.6183432503
 20
50.9289802425
 10
5.5746182576
 20
51.0047141512
 10
5.5336363529
 20
51.0815219518
 10
5.4954253185
 20
51.1594145207
 10
5.459957372
 20
51.2383809814
 10
5.42759053
 20
51.3176242397
 10
5.3983562009
 20
51.3971470989
 10
5.3722229762
 20
51.4769467556
 10
5.3494546469
 20
51.5562177052
 10
5.3300852934
 20
51.6349545929
 10
5.3140808353
 20
51.7131627735
 10
5.301602823
 20
51.7900528067
 10
5.2926869731
 20
51.8656113424
 10
5.2872975689
 20
51.9398517307
 10
5.2854890117
 20
52.012024583
 10
5.2872975689
 20
52.0821089587
 10
5.2926869731
 20
52.1501257982
 10
5.301602823
 20
52.2153885338
 10
5.3140808353
 20
52.2778692713
 10
5.3300852934
 20
52.3375959048
 10
5.3494546469
 20
52.3939655485
 10
5.3722229762
 20
52.4469442022
 10
5.3983562009
 20
52.4965658662
 10
5.42759053
 20
52.5423296549
 10
5.459957372
 20
52.5841964952
 10
5.4954253185
 20
52.6222054604
 10
5.5336363529
 20
52.6559728846
 10
5.5746182576
 20
52.6854558088
 10
5.5961292138
 20
52.6986016952
  0
LWPOLYLINE
  5
308
100
AcDbEntity
  8
0
100
AcDbPolyline
 62
7
  6
CONTINUOUS
 90
31
 70
0
 10
51.2474297889
 20
26.6988814319
 10
51.2444564488
 20
26.8293706224
 10
51.235750791
 20
26.9621212511
 10
51.2213128153
 20
27.097133318
 10
51.2010716542
 20
27.23478858
 10
51.1750981752
 20
27.3747052802
 10
51.1436049812
 20
27.5157381474
 10
51.1065467675
 20
27.6578963428
 10
51.0639688387
 20
27.8011707052
 10
51.0162197113
 20
27.9443884798
 10
50.9632569412
 20
28.0875492021
 10
50.9051229726
 20
28.2306533365
 10
50.8422936538
 20
28.3725295216
 10
50.7747304465
 20
28.5131676786
 10
50.7024718891
 20
28.6525778863
 10
50.6261094453
 20
28.7896190193
 10
50.5456094312
 20
28.9242716329
 10
50.4610055307
 20
29.0565551718
 10
50.3729902586
 20
29.1853868453
 10
50.2815356153
 20
29.3107383212
 10
50.1866696004
 20
29.4326379316
 10
50.0891687282
 20
29.5500878822
 10
49.9890113724
 20
29.663051651
 10
49.8862191592
 20
29.77156576
 10
49.781633482
 20
29.87474198
 10
49.6752396202
 20
29.972536499
 10
49.5670522943
 20
30.064993129
 10
49.4579570584
 20
30.1513550775
 10
49.3482490973
 20
30.2313700805
 10
49.2376332263
 20
30.3052904021
 10
49.1261094453
 20
30.3731160422
  0
LINE
  5
309
100
AcDbEntity
  8
0
100
AcDbLine
 62
253
  6
CONTINUOUS
 10
49.1261094453
 20
-53.723559197
 11
49.1261094453
 21
-51.2741483667
  0
LINE
  5
30A
100
AcDbEntity
  8
0
100
AcDbLine
 62
7
  6
CONTINUOUS
 10
49.1261094453
 20
0.5719509393
 11
49.1261094453
 21
-21.4727465341
  0
LINE
  5
30B
100
AcDbEntity
  8
0
100
AcDbLine
 62
7
  6
CONTINUOUS
 10
51.2474297889
 20
26.6988814319
 11
51.2474297889
 21
-47.5999137563
  0
LINE
  5
30C
100
AcDbEntity
  8
0
100
AcDbLine
 62
7
  6
CONTINUOUS
 10
53.3687501324
 20
27.9237052118
 11
53.3687501324
 21
-46.3750899763
  0
LWPOLYLINE
  5
30D
100
AcDbEntity
  8
0
100
AcDbPolyline
 62
7
  6
CONTINUOUS
 90
37
 70
0
 10
51.2474297889
 20
-47.5999137563
 10
51.2453788211
 20
-47.7082765341
 10
51.2393294245
 20
-47.8183401361
 10
51.2292815993
 20
-47.9301045624
 10
51.2152010397
 20
-48.04378876
 10
51.1971220515
 20
-48.1591737818
 10
51.175147551
 20
-48.2756027867
 10
51.1492553205
 20
-48.393081729
 10
51.1194675778
 20
-48.5116046544
 10
51.0859538926
 20
-48.6304968589
 10
51.0486930144
 20
-48.7497604486
 10
51.0077061938
 20
-48.8693933174
 10
50.9632267524
 20
-48.9887144428
 10
50.9152347704
 20
-49.1077220469
 10
50.8637501677
 20
-49.2264179076
 10
50.8090660257
 20
-49.3441263365
 10
50.7511640961
 20
-49.4608417018
 10
50.6900626271
 20
-49.5765696353
 10
50.6261094453
 20
-49.6906513438
 10
50.5592882861
 20
-49.8030774381
 10
50.489615414
 20
-49.9138573073
 10
50.417487449
 20
-50.0223603257
 10
50.3428903888
 20
-50.1285735074
 10
50.2658382357
 20
-50.2325098381
 10
50.1867696171
 20
-50.3335776497
 10
50.1056730322
 20
-50.4317605817
 10
50.0225599818
 20
-50.5270749945
 10
49.9379035955
 20
-50.618978301
 10
49.8516950711
 20
-50.7074510462
 10
49.7639432107
 20
-50.792512685
 10
49.675147551
 20
-50.8736789954
 10
49.5853021387
 20
-50.9509277605
 10
49.494412927
 20
-51.0242811972
 10
49.4029973122
 20
-51.0933217333
 10
49.3112277597
 20
-51.1579101783
 10
49.2189318041
 20
-51.2181857227
 10
49.1261094453
 20
-51.2741483667
  0
LWPOLYLINE
  5
30E
100
AcDbEntity
  8
0
100
AcDbPolyline
 62
7
  6
CONTINUOUS
 90
15
 70
0
 10
49.1261094453
 20
-21.4727465341
 10
49.1242646207
 20
-21.5432886218
 10
49.1188933503
 20
-21.6110766054
 10
49.109995634
 20
-21.676110485
 10
49.0975176218
 20
-21.7385912225
 10
49.0815131637
 20
-21.798317856
 10
49.0621438101
 20
-21.8546874997
 10
49.0393754809
 20
-21.9076661534
 10
49.0132422562
 20
-21.9572878173
 10
48.9840079271
 20
-22.003051606
 10
48.951641085
 20
-22.0449184464
 10
48.9161731385
 20
-22.0829274116
 10
48.8779621042
 20
-22.1166948358
 10
48.8369801994
 20
-22.14617776
 10
48.8154692433
 20
-22.1593236464
  0
LWPOLYLINE
  5
30F
100
AcDbEntity
  8
0
100
AcDbPolyline
 62
7
  6
CONTINUOUS
 90
16
 70
0
 10
-17.3419279862
 20
68.750927815
 10
-17.4534517672
 20
68.8118870417
 10
-17.5640676383
 20
68.8657031554
 10
-17.6737755994
 20
68.9123761559
 10
-17.7828708352
 20
68.9519946512
 10
-17.8910581611
 20
68.9844700333
 10
-17.9974520229
 20
69.0095364791
 10
-18.1020377002
 20
69.0271331776
 10
-18.2048299133
 20
69.0373209398
 10
-18.3049872691
 20
69.0400163749
 10
-18.4024881413
 20
69.0351579876
 10
-18.4973541562
 20
69.0228072733
 10
-18.5888087996
 20
69.0030653272
 10
-18.6768240716
 20
68.9758714837
 10
-18.7614279722
 20
68.9412864084
 10
-18.8420004666
 20
68.899551348
  0
LINE
  5
310
100
AcDbEntity
  8
0
100
AcDbLine
 62
7
  6
CONTINUOUS
 10
6.3461491835
 20
52.6243181082
 11
25.4380322756
 21
41.6009040883
  0
LINE
  5
311
100
AcDbEntity
  8
0
100
AcDbLine
 62
7
  6
CONTINUOUS
 10
-17.3419279862
 20
68.750927815
 11
49.1261094453
 21
30.3731160422
  0
LINE
  5
312
100
AcDbEntity
  8
0
100
AcDbLine
 62
7
  6
CONTINUOUS
 10
-15.2206076427
 20
69.975751595
 11
51.2474297889
 21
31.5979398222
  0
LWPOLYLINE
  5
313
100
AcDbEntity
  8
0
100
AcDbPolyline
 62
7
  6
CONTINUOUS
 90
31
 70
0
 10
51.2474297889
 20
31.5979398222
 10
51.3589535699
 20
31.5301141821
 10
51.4695694409
 20
31.4561938605
 10
51.579277402
 20
31.3761788575
 10
51.6883726379
 20
31.2898169089
 10
51.7965599638
 20
31.1973602789
 10
51.9029538255
 20
31.09956576
 10
52.0075395028
 20
30.99638954
 10
52.1103317159
 20
30.887875431
 10
52.2104890717
 20
30.7749116621
 10
52.3079899439
 20
30.6574617116
 10
52.4028559588
 20
30.5355621012
 10
52.4943106022
 20
30.4102106253
 10
52.5823258743
 20
30.2813789518
 10
52.6669297748
 20
30.1490954129
 10
52.7474297889
 20
30.0144427993
 10
52.8237922327
 20
29.8774016663
 10
52.8960507901
 20
29.7379914586
 10
52.9636139973
 20
29.5973533016
 10
53.0264433161
 20
29.4554771165
 10
53.0845772848
 20
29.3123729821
 10
53.1375400549
 20
29.1692122598
 10
53.1852891823
 20
29.0259944852
 10
53.2278671111
 20
28.8827201228
 10
53.2649253248
 20
28.7405619273
 10
53.2964185188
 20
28.5995290602
 10
53.3223919977
 20
28.45961236
 10
53.3426331589
 20
28.321957098
 10
53.3570711346
 20
28.1869450311
 10
53.3657767924
 20
28.0541944024
 10
53.3687501324
 20
27.9237052118
  0
LWPOLYLINE
  5
314
100
AcDbEntity
  8
0
100
AcDbPolyline
 62
7
  6
CONTINUOUS
 90
42
 70
0
 10
25.4380322756
 20
41.6009040883
 10
25.5000479851
 20
41.5629668435
 10
25.5614418871
 20
41.5213167649
 10
25.6222139815
 20
41.4759538525
 10
25.6825652398
 20
41.426699889
 10
25.7422946906
 20
41.3737330917
 10
25.8007994195
 20
41.317588112
 10
25.8580670225
 20
41.2582327607
 10
25.9141099037
 20
41.195699227
 10
25.9683623614
 20
41.1306187298
 10
26.020806262
 20
41.062965473
 10
26.0714597391
 20
40.9927652527
 10
26.1198114921
 20
40.920726676
 10
26.1658382088
 20
40.8468311236
 10
26.2095632014
 20
40.7710972149
 10
26.2505451062
 20
40.6942894143
 10
26.2887561406
 20
40.6163968454
 10
26.3242240871
 20
40.5374303846
 10
26.3565909291
 20
40.4581871264
 10
26.3858252582
 20
40.3786642672
 10
26.4119584829
 20
40.2988646105
 10
26.4347268121
 20
40.2195936609
 10
26.4540961657
 20
40.1408567732
 10
26.4701006238
 20
40.0626485926
 10
26.482578636
 20
39.9857585594
 10
26.491494486
 20
39.9102000237
 10
26.4968838902
 20
39.8359596354
 10
26.4986924473
 20
39.7637867831
 10
26.4968838902
 20
39.6937024074
 10
26.491494486
 20
39.6256855678
 10
26.482578636
 20
39.5604228323
 10
26.4701006238
 20
39.4979420948
 10
26.4540961657
 20
39.4382154613
 10
26.4347268121
 20
39.3818458176
 10
26.4119584829
 20
39.3288671639
 10
26.3858252582
 20
39.2792454999
 10
26.3565909291
 20
39.2334817112
 10
26.3242240871
 20
39.1916148709
 10
26.2887561406
 20
39.1536059057
 10
26.2505451062
 20
39.1198384815
 10
26.2095632014
 20
39.0903555573
 10
26.1880522453
 20
39.0772096709
  0
LWPOLYLINE
  5
315
100
AcDbEntity
  8
0
100
AcDbPolyline
 62
7
  6
CONTINUOUS
 90
40
 70
0
 10
53.3687501324
 20
-46.3750899763
 10
53.3652721051
 20
-46.5748214702
 10
53.3549633486
 20
-46.7775795251
 10
53.3378238631
 20
-46.983364141
 10
53.3137955897
 20
-47.1925616207
 10
53.2829365872
 20
-47.4047856614
 10
53.2454210318
 20
-47.6188773543
 10
53.2012418162
 20
-47.8347349141
 10
53.1504060477
 20
-48.0524601261
 10
53.0931092251
 20
-48.2711994378
 10
53.0292740858
 20
-48.4911125308
 10
52.9589778923
 20
-48.7120397234
 10
52.8826479321
 20
-48.9326484189
 10
52.800324561
 20
-49.1527498793
 10
52.7119674232
 20
-49.3725328424
 10
52.6178827379
 20
-49.5912309252
 10
52.5179496145
 20
-49.8090452451
 10
52.4122889437
 20
-50.0257746846
 10
52.3015696168
 20
-50.2400495082
 10
52.1858801793
 20
-50.4516459569
 10
52.0651320857
 20
-50.6607877897
 10
51.9397285914
 20
-50.8667765479
 10
51.8095201861
 20
-51.0698007968
 10
51.6746563802
 20
-51.269671971
 10
51.5359889596
 20
-51.4651259156
 10
51.3936316515
 20
-51.655957378
 10
51.2474707287
 20
-51.8423716108
 10
51.0980167953
 20
-52.0237202174
 10
50.9451265743
 20
-52.2001325215
 10
50.7889433427
 20
-52.3714791994
 10
50.6304075364
 20
-52.5367238823
 10
50.4696188127
 20
-52.6957198166
 10
50.3064775142
 20
-52.8486137558
 10
50.141625104
 20
-52.994809592
 10
49.9749698765
 20
-53.1343520681
 10
49.8066035372
 20
-53.2671964412
 10
49.6374426665
 20
-53.3926123742
 10
49.4677927909
 20
-53.5103564218
 10
49.2973483839
 20
-53.6206720294
 10
49.1261094453
 20
-53.723559197
  0
LINE
  5
316
100
AcDbEntity
  8
0
100
AcDbLine
 62
253
  6
CONTINUOUS
 10
17.3063042919
 20
-53.316862801
 11
15.1849839483
 21
-54.5416865809
  0
LINE
  5
317
100
AcDbEntity
  8
0
100
AcDbLine
 62
253
  6
CONTINUOUS
 10
19.4276246355
 20
-56.9910974113
 11
17.3063042919
 21
-58.2159211913
  0
LINE
  5
318
100
AcDbEntity
  8
0
100
AcDbLine
 62
7
  6
CONTINUOUS
 10
39.9337212899
 20
-48.4162262134
 11
21.9024983696
 21
-58.8272283432
  0
LWPOLYLINE
  5
319
100
AcDbEntity
  8
0
100
AcDbPolyline
 62
7
  6
CONTINUOUS
 90
25
 70
0
 10
21.9024983696
 20
-58.8272283432
 10
21.8543584372
 20
-58.8532134355
 10
21.8038462545
 20
-58.8771486155
 10
21.7509618215
 20
-58.8990338833
 10
21.6954590662
 20
-58.9189451815
 10
21.6375840607
 20
-58.9368065675
 10
21.5780750208
 20
-58.952390213
 10
21.5169110148
 20
-58.9656669407
 10
21.4541129744
 20
-58.9766659279
 10
21.3904819105
 20
-58.9852468787
 10
21.3260071521
 20
-58.9913788185
 10
21.2606993703
 20
-58.995092722
 10
21.1953915884
 20
-58.9963412169
 10
21.1300838066
 20
-58.995092722
 10
21.0647760247
 20
-58.9913788185
 10
21.0003012664
 20
-58.9852468787
 10
20.9366702025
 20
-58.9766659279
 10
20.8738721621
 20
-58.9656669407
 10
20.8127081561
 20
-58.952390213
 10
20.7531991162
 20
-58.9368065675
 10
20.6953241106
 20
-58.9189451815
 10
20.6398213554
 20
-58.8990338833
 10
20.5869369224
 20
-58.8771486155
 10
20.5364247397
 20
-58.8532134355
 10
20.4882848072
 20
-58.8272283432
  0
LINE
  5
31A
100
AcDbEntity
  8
0
100
AcDbLine
 62
253
  6
CONTINUOUS
 10
53.3687501324
 20
-46.3750899763
 11
51.2474297889
 21
-47.5999137563
  0
LINE
  5
31B
100
AcDbEntity
  8
0
100
AcDbLine
 62
253
  6
CONTINUOUS
 10
17.3063042919
 20
-67.197094236
 11
19.4276246355
 21
-65.972270456
  0
LINE
  5
31C
100
AcDbEntity
  8
0
100
AcDbLine
 62
7
  6
CONTINUOUS
 10
21.548944979
 20
-67.1968575064
 11
49.1261094453
 21
-51.2741483667
  0
LINE
  5
31D
100
AcDbEntity
  8
0
100
AcDbLine
 62
7
  6
CONTINUOUS
 10
21.548944979
 20
-69.6462683368
 11
49.1261094453
 21
-53.723559197
  0
ELLIPSE
  5
31E
100
AcDbEntity
  8
RACCORDO
100
AcDbEllipse
 62
7
  6
CONTINUOUS
 10
16.5992244362
 20
-13.7545617594
 30
0.0
 11
-0.5000241657
 21
0.8660114513
 31
0.0
 40
0.5773756362
 41
0.7853879108
 42
2.3561080852
  0
ELLIPSE
  5
31F
100
AcDbEntity
  8
RACCORDO
100
AcDbEllipse
 62
7
  6
CONTINUOUS
 10
6.0049643732
 20
38.5477601932
 30
0.0
 11
-0.5000241657
 21
0.8660114513
 31
0.0
 40
0.5773756362
 41
0.7853879108
 42
2.3561080852
  0
ELLIPSE
  5
320
100
AcDbEntity
  8
RACCORDO
100
AcDbEllipse
 62
7
  6
CONTINUOUS
 10
6.0049643732
 20
-1.487846462
 30
0.0
 11
-0.5000622341
 21
0.866077409
 31
0.0
 40
0.5772877058
 41
-0.7854084013
 42
0.7853117731
  0
ELLIPSE
  5
321
100
AcDbEntity
  8
DRAFT
100
AcDbEllipse
 62
7
  6
CONTINUOUS
 10
22.8217371852
 20
-6.9990309559
 30
0.0
 11
3.9999605627
 21
0.0304981772
 31
0.0
 40
0.5824033911
 41
3.1371520744
 42
3.6944198094
  0
ENDSEC
  0
SECTION
  2
OBJECTS
  0
DICTIONARY
  5
C
100
AcDbDictionary
280
0
281
1
  3
ACAD_GROUP
350
D
  3
ACAD_MLINESTYLE
350
17
  3
ACAD_LAYOUT
350
1A
  3
ACAD_PLOTSETTINGS
350
19
  3
ACAD_PLOTSTYLENAME
350
E
  0
DICTIONARY
  5
D
102
{ACAD_REACTORS
330
C
102
}
100
AcDbDictionary
280
0
281
1
  0
ACDBDICTIONARYWDFLT
  5
E
102
{ACAD_REACTORS
330
C
102
}
100
AcDbDictionary
281
1
  3
Normal
350
F
100
AcDbDictionaryWithDefault
340
F
  0
DICTIONARY
  5
17
102
{ACAD_REACTORS
330
C
102
}
100
AcDbDictionary
280
0
281
1
  3
Standard
350
18
  0
DICTIONARY
  5
19
102
{ACAD_REACTORS
330
C
102
}
100
AcDbDictionary
281
1
  0
DICTIONARY
  5
1A
102
{ACAD_REACTORS
330
C
102
}
100
AcDbDictionary
281
1
  3
Model
350
322
  3
Layout1
350
323
  0
ACDBPLACEHOLDER
  5
F
102
{ACAD_REACTORS
330
E
102
}
  0
MLINESTYLE
  5
18
102
{ACAD_REACTORS
330
17
102
}
100
AcDbMlineStyle
  2
STANDARD
 70
0
  3

 62
256
 51
90.0
 52
90.0
 71
2
 49
0.5
 62
256
  6
BYLAYER
 49
-0.5
 62
256
  6
BYLAYER
  0
LAYOUT
  5
322
102
{ACAD_REACTORS
330
1A
102
}
100
AcDbPlotSettings
  1

  2
none_device
  4
ISO_A4_(297.00_x_210.00_MM)
  6

 40
0.0
 41
0.0
 42
0.0
 43
0.0
 44
297.0
 45
210.0
 46
0.0
 47
0.0
 48
0.0
 49
0.0
140
0.0
141
0.0
142
1.0
143
1.0
 70
1024
 72
1
 73
0
 74
0
  7

 75
0
147
1.0
148
0.0
149
0.0
100
AcDbLayout
  1
Model
 70
0
 71
0
 10
0.0
 20
0.0
 11
297.0
 21
210.0
 12
0.0
 22
0.0
 32
0.0
 14
0.0
 24
0.0
 34
0.0
 15
0.0
 25
0.0
 35
0.0
146
0.0
 13
0.0
 23
0.0
 33
0.0
 16
1.0
 26
0.0
 36
0.0
 17
0.0
 27
1.0
 37
0.0
 76
0
330
213
345
0
346
0
  0
LAYOUT
  5
323
102
{ACAD_REACTORS
330
1A
102
}
100
AcDbPlotSettings
  1

  2
none_device
  4
ISO_A4_(297.00_x_210.00_MM)
  6

 40
0.0
 41
0.0
 42
0.0
 43
0.0
 44
297.0
 45
210.0
 46
0.0
 47
0.0
 48
0.0
 49
0.0
140
0.0
141
0.0
142
1.0
143
1.0
 70
0
 72
1
 73
0
 74
0
  7

 75
0
147
1.0
148
0.0
149
0.0
100
AcDbLayout
  1
Layout1
 70
0
 71
1
 10
0.0
 20
0.0
 11
297.0
 21
210.0
 12
0.0
 22
0.0
 32
0.0
 14
0.0
 24
0.0
 34
0.0
 15
0.0
 25
0.0
 35
0.0
146
0.0
 13
0.0
 23
0.0
 33
0.0
 16
1.0
 26
0.0
 36
0.0
 17
0.0
 27
1.0
 37
0.0
 76
0
330
214
345
0
346
0
  0
ENDSEC
  0
EOF
