  0
SECTION
  2
HEADER
  9
$ACADVER
  1
AC1024
  9
$DWGCODEPAGE
  3
ANSI_1252
  9
$EXTMAX
 10
297.0
 20
210.0
 30
0.0
  9
$EXTMIN
 10
0.0
 20
0.0
 30
0.0
  9
$LIMMIN
 10
0.0
 20
0.0
  9
$LIMMAX
 10
297.0
 20
210.0
  9
$VIEWCTR
 10
148.5
 20
105.0
  9
$VIEWSIZE
 40
210.0
  9
$CLAYER
  8
0
  9
$LTSCALE
 40
16.335
  9
$CELTYPE
  6
BYLAYER
  9
$DIMSCALE
 40
1.0
  9
$DIMASZ
 40
3.0
  9
$DIMEXO
 40
0.5
  9
$DIMDLI
 40
11.286
  9
$DIMEXE
 40
1.5
  9
$DIMCEN
 40
2.673
  9
$DIMLFAC
 40
1.0
  9
$DIMBLK
  1
_FILLED
  9
$DIMALT
 70
0
  9
$DIMALTF
 40
0.0393700787
  9
$DIMTXT
 40
3.0
  9
$DIMTOL
 70
1
  9
$DIMLIM
 70
0
  9
$DIMTFAC
 40
1.0
  9
$DIMTP
 40
0.01
  9
$DIMTM
 40
0.01
  9
$DIMGAP
 40
0.625
  9
$DIMDSEP
 70
44
  9
$AUNITS
 70
0
  9
$PDMODE
 70
3
  9
$PDSIZE
 40
3.0
  9
$HANDSEED
  5
3AF
  9
$TILEMODE
 70
1
  9
$MEASUREMENT
 70
1
  9
$INSUNITS
 70
4
  0
ENDSEC
  0
SECTION
  2
CLASSES
  0
CLASS
  1
ACDBDICTIONARYWDFLT
  2
AcDbDictionaryWithDefault
  3
AutoCAD 2000
 90
0
 91
1
280
0
281
0
  0
CLASS
  1
ACDBPLACEHOLDER
  2
AcDbPlaceHolder
  3
AutoCAD 2000
 90
0
 91
1
280
0
281
0
  0
CLASS
  1
LAYOUT
  2
AcDbLayout
  3
AutoCAD 2000
 90
0
 91
0
280
0
281
0
  0
ENDSEC
  0
SECTION
  2
TABLES
  0
TABLE
  2
VPORT
  5
8
100
AcDbSymbolTable
 70
2
  0
VPORT
  5
1F4
100
AcDbSymbolTableRecord
100
AcDbViewportTableRecord
  2
*ACTIVE
 70
0
 10
0.0
 20
0.0
 11
1.0
 21
1.0
 12
148.5
 22
105.0
 13
0.0
 23
0.0
 14
1.0
 24
1.0
 15
0.0
 25
0.0
 16
0.0
 26
0.0
 36
1.0
 17
0.0
 27
0.0
 37
0.0
 40
210.0
 41
1.4142857143
 42
50.0
 43
0.0
 44
0.0
 50
0.0
 51
0.0
 71
0
 72
100
 73
1
 74
1
 75
0
 76
0
 77
0
 78
0
  0
ENDTAB
  0
TABLE
  2
LTYPE
  5
5
100
AcDbSymbolTable
 70
6
  0
LTYPE
  5
14
100
AcDbSymbolTableRecord
100
AcDbLinetypeTableRecord
  2
BYBLOCK
 70
0
  3

 72
65
 73
0
 40
0.0
  0
LTYPE
  5
15
100
AcDbSymbolTableRecord
100
AcDbLinetypeTableRecord
  2
BYLAYER
 70
0
  3

 72
65
 73
0
 40
0.0
  0
LTYPE
  5
16
100
AcDbSymbolTableRecord
100
AcDbLinetypeTableRecord
  2
CONTINUOUS
 70
64
  3
Solid line
 72
65
 73
0
 40
0.0
  0
LTYPE
  5
1F5
100
AcDbSymbolTableRecord
100
AcDbLinetypeTableRecord
  2
CENTER
 70
64
  3
____ _ ____ _ ____ _ ____ _ ____ _ ____ _ ____
 72
65
 73
4
 40
0.6
 49
0.375
 74
0
 49
-0.075
 74
0
 49
0.075
 74
0
 49
-0.075
 74
0
  0
LTYPE
  5
1F6
100
AcDbSymbolTableRecord
100
AcDbLinetypeTableRecord
  2
HIDDEN
 70
64
  3
- - - - - - - - - - - - - - - - - - - -
 72
65
 73
2
 40
0.2
 49
0.1
 74
0
 49
-0.1
 74
0
  0
LTYPE
  5
1F7
100
AcDbSymbolTableRecord
100
AcDbLinetypeTableRecord
  2
PHANTOM
 70
64
  3
_____ _ _ _____ _ _ _____ _ _ _____
 72
65
 73
6
 40
0.8
 49
0.45
 74
0
 49
-0.05
 74
0
 49
0.1
 74
0
 49
-0.05
 74
0
 49
0.1
 74
0
 49
-0.05
 74
0
  0
LTYPE
  5
1F8
100
AcDbSymbolTableRecord
100
AcDbLinetypeTableRecord
  2
DOT
 70
64
  3
. . . . . . . . . . . . . . . . . . . .
 72
65
 73
2
 40
0.2
 49
0.1
 74
0
 49
-0.1
 74
0
  0
LTYPE
  5
1F9
100
AcDbSymbolTableRecord
100
AcDbLinetypeTableRecord
  2
DASHED
 70
64
  3
- - - - - - - - - - - - - - - - - - - -
 72
65
 73
2
 40
0.2
 49
0.1
 74
0
 49
-0.1
 74
0
  0
ENDTAB
  0
TABLE
  2
LAYER
  5
2
100
AcDbSymbolTable
 70
36
  0
LAYER
  5
10
100
AcDbSymbolTableRecord
100
AcDbLayerTableRecord
  2
0
 70
0
 62
7
  6
CONTINUOUS
370
-3
390
F
  0
LAYER
  5
1FA
100
AcDbSymbolTableRecord
100
AcDbLayerTableRecord
  2
DEFAULT_1
 70
0
 62
7
  6
CENTER
370
-3
390
F
  0
LAYER
  5
1FB
100
AcDbSymbolTableRecord
100
AcDbLayerTableRecord
  2
DEFAULT_2
 70
0
 62
7
  6
HIDDEN
370
-3
390
F
  0
LAYER
  5
1FC
100
AcDbSymbolTableRecord
100
AcDbLayerTableRecord
  2
DEFAULT_3
 70
0
 62
7
  6
PHANTOM
370
-3
390
F
  0
LAYER
  5
1FD
100
AcDbSymbolTableRecord
100
AcDbLayerTableRecord
  2
ANGOLARE
 70
0
 62
7
  6
CONTINUOUS
370
-3
390
F
  0
LAYER
  5
1FE
100
AcDbSymbolTableRecord
100
AcDbLayerTableRecord
  2
ANGOLARE_1
 70
0
 62
7
  6
CONTINUOUS
370
-3
390
F
  0
LAYER
  5
1FF
100
AcDbSymbolTableRecord
100
AcDbLayerTableRecord
  2
ANGOLARE_2
 70
0
 62
7
  6
CONTINUOUS
370
-3
390
F
  0
LAYER
  5
200
100
AcDbSymbolTableRecord
100
AcDbLayerTableRecord
  2
ANGOLARE_3
 70
0
 62
7
  6
CONTINUOUS
370
-3
390
F
  0
LAYER
  5
201
100
AcDbSymbolTableRecord
100
AcDbLayerTableRecord
  2
ANGOLARE_DI_FISSAGGIO
 70
0
 62
7
  6
CONTINUOUS
370
-3
390
F
  0
LAYER
  5
202
100
AcDbSymbolTableRecord
100
AcDbLayerTableRecord
  2
ANGOLARE_DI_FISSAGGIO_1
 70
0
 62
7
  6
CONTINUOUS
370
-3
390
F
  0
LAYER
  5
203
100
AcDbSymbolTableRecord
100
AcDbLayerTableRecord
  2
ANGOLARE_DI_FISSAGGIO_2
 70
0
 62
7
  6
CONTINUOUS
370
-3
390
F
  0
LAYER
  5
204
100
AcDbSymbolTableRecord
100
AcDbLayerTableRecord
  2
ANGOLARE_DI_FISSAGGIO_3
 70
0
 62
7
  6
CONTINUOUS
370
-3
390
F
  0
LAYER
  5
205
100
AcDbSymbolTableRecord
100
AcDbLayerTableRecord
  2
ANTIAPERTURA
 70
0
 62
7
  6
CONTINUOUS
370
-3
390
F
  0
LAYER
  5
206
100
AcDbSymbolTableRecord
100
AcDbLayerTableRecord
  2
ASSI
 70
0
 62
7
  6
CONTINUOUS
370
-3
390
F
  0
LAYER
  5
207
100
AcDbSymbolTableRecord
100
AcDbLayerTableRecord
  2
BASE-PRIME-GRANDE-112993
 70
0
 62
7
  6
CONTINUOUS
370
-3
390
F
  0
LAYER
  5
208
100
AcDbSymbolTableRecord
100
AcDbLayerTableRecord
  2
BASE-PRIME-GRANDE-112994
 70
0
 62
7
  6
CONTINUOUS
370
-3
390
F
  0
LAYER
  5
209
100
AcDbSymbolTableRecord
100
AcDbLayerTableRecord
  2
CENTRALE-VIMAR
 70
0
 62
7
  6
CONTINUOUS
370
-3
390
F
  0
LAYER
  5
20A
100
AcDbSymbolTableRecord
100
AcDbLayerTableRecord
  2
COLONNINAM3X20
 70
0
 62
7
  6
CONTINUOUS
370
-3
390
F
  0
LAYER
  5
20B
100
AcDbSymbolTableRecord
100
AcDbLayerTableRecord
  2
COLONNINAM3X20_1
 70
0
 62
7
  6
CONTINUOUS
370
-3
390
F
  0
LAYER
  5
20C
100
AcDbSymbolTableRecord
100
AcDbLayerTableRecord
  2
COLONNINAM3X20_2
 70
0
 62
7
  6
CONTINUOUS
370
-3
390
F
  0
LAYER
  5
20D
100
AcDbSymbolTableRecord
100
AcDbLayerTableRecord
  2
COLONNINAM3X20_3
 70
0
 62
7
  6
CONTINUOUS
370
-3
390
F
  0
LAYER
  5
20E
100
AcDbSymbolTableRecord
100
AcDbLayerTableRecord
  2
COLONNINAM3X20_4
 70
0
 62
7
  6
CONTINUOUS
370
-3
390
F
  0
LAYER
  5
20F
100
AcDbSymbolTableRecord
100
AcDbLayerTableRecord
  2
COLONNINAM3X20_5
 70
0
 62
7
  6
CONTINUOUS
370
-3
390
F
  0
LAYER
  5
210
100
AcDbSymbolTableRecord
100
AcDbLayerTableRecord
  2
COLONNINAM3X20_6
 70
0
 62
7
  6
CONTINUOUS
370
-3
390
F
  0
LAYER
  5
211
100
AcDbSymbolTableRecord
100
AcDbLayerTableRecord
  2
COLONNINAM3X20_7
 70
0
 62
7
  6
CONTINUOUS
370
-3
390
F
  0
LAYER
  5
212
100
AcDbSymbolTableRecord
100
AcDbLayerTableRecord
  2
COLOR22
 70
0
 62
7
  6
CONTINUOUS
370
-3
390
F
  0
LAYER
  5
213
100
AcDbSymbolTableRecord
100
AcDbLayerTableRecord
  2
COLOR63
 70
0
 62
7
  6
CONTINUOUS
370
-3
390
F
  0
LAYER
  5
214
100
AcDbSymbolTableRecord
100
AcDbLayerTableRecord
  2
COLOR64
 70
0
 62
7
  6
CONTINUOUS
370
-3
390
F
  0
LAYER
  5
215
100
AcDbSymbolTableRecord
100
AcDbLayerTableRecord
  2
COLOR65
 70
0
 62
7
  6
CONTINUOUS
370
-3
390
F
  0
LAYER
  5
216
100
AcDbSymbolTableRecord
100
AcDbLayerTableRecord
  2
COLOR66
 70
0
 62
7
  6
CONTINUOUS
370
-3
390
F
  0
LAYER
  5
217
100
AcDbSymbolTableRecord
100
AcDbLayerTableRecord
  2
COLOR67
 70
0
 62
7
  6
CONTINUOUS
370
-3
390
F
  0
LAYER
  5
218
100
AcDbSymbolTableRecord
100
AcDbLayerTableRecord
  2
COLOR68
 70
0
 62
7
  6
CONTINUOUS
370
-3
390
F
  0
LAYER
  5
219
100
AcDbSymbolTableRecord
100
AcDbLayerTableRecord
  2
COLOR69
 70
0
 62
7
  6
CONTINUOUS
370
-3
390
F
  0
LAYER
  5
21A
100
AcDbSymbolTableRecord
100
AcDbLayerTableRecord
  2
COLOR70
 70
0
 62
7
  6
CONTINUOUS
370
-3
390
F
  0
LAYER
  5
21B
100
AcDbSymbolTableRecord
100
AcDbLayerTableRecord
  2
COLOR71
 70
0
 62
7
  6
CONTINUOUS
370
-3
390
F
  0
LAYER
  5
21C
100
AcDbSymbolTableRecord
100
AcDbLayerTableRecord
  2
COLOR72
 70
0
 62
7
  6
CONTINUOUS
370
-3
390
F
  0
LAYER
  5
21D
100
AcDbSymbolTableRecord
100
AcDbLayerTableRecord
  2
COLOR73
 70
0
 62
7
  6
CONTINUOUS
370
-3
390
F
  0
LAYER
  5
21E
100
AcDbSymbolTableRecord
100
AcDbLayerTableRecord
  2
COLOR74
 70
0
 62
7
  6
CONTINUOUS
370
-3
390
F
  0
LAYER
  5
21F
100
AcDbSymbolTableRecord
100
AcDbLayerTableRecord
  2
COLOR75
 70
0
 62
7
  6
CONTINUOUS
370
-3
390
F
  0
LAYER
  5
220
100
AcDbSymbolTableRecord
100
AcDbLayerTableRecord
  2
COLOR76
 70
0
 62
7
  6
CONTINUOUS
370
-3
390
F
  0
LAYER
  5
221
100
AcDbSymbolTableRecord
100
AcDbLayerTableRecord
  2
COLOR77
 70
0
 62
7
  6
CONTINUOUS
370
-3
390
F
  0
LAYER
  5
222
100
AcDbSymbolTableRecord
100
AcDbLayerTableRecord
  2
COLOR78
 70
0
 62
7
  6
CONTINUOUS
370
-3
390
F
  0
LAYER
  5
223
100
AcDbSymbolTableRecord
100
AcDbLayerTableRecord
  2
COLOR79
 70
0
 62
7
  6
CONTINUOUS
370
-3
390
F
  0
LAYER
  5
224
100
AcDbSymbolTableRecord
100
AcDbLayerTableRecord
  2
COLOR80
 70
0
 62
7
  6
CONTINUOUS
370
-3
390
F
  0
LAYER
  5
225
100
AcDbSymbolTableRecord
100
AcDbLayerTableRecord
  2
COLOR81
 70
0
 62
7
  6
CONTINUOUS
370
-3
390
F
  0
LAYER
  5
226
100
AcDbSymbolTableRecord
100
AcDbLayerTableRecord
  2
COLOR82
 70
0
 62
7
  6
CONTINUOUS
370
-3
390
F
  0
LAYER
  5
227
100
AcDbSymbolTableRecord
100
AcDbLayerTableRecord
  2
COORDINATE
 70
0
 62
7
  6
CONTINUOUS
370
-3
390
F
  0
LAYER
  5
228
100
AcDbSymbolTableRecord
100
AcDbLayerTableRecord
  2
COPY_PUBLISH
 70
0
 62
7
  6
CONTINUOUS
370
-3
390
F
  0
LAYER
  5
229
100
AcDbSymbolTableRecord
100
AcDbLayerTableRecord
  2
COSMETICI
 70
0
 62
7
  6
CONTINUOUS
370
-3
390
F
  0
LAYER
  5
22A
100
AcDbSymbolTableRecord
100
AcDbLayerTableRecord
  2
COVER-PRIME-GRANDE
 70
0
 62
7
  6
CONTINUOUS
370
-3
390
F
  0
LAYER
  5
22B
100
AcDbSymbolTableRecord
100
AcDbLayerTableRecord
  2
COVER-SPRING-GRANDE-NEW
 70
0
 62
7
  6
CONTINUOUS
370
-3
390
F
  0
LAYER
  5
22C
100
AcDbSymbolTableRecord
100
AcDbLayerTableRecord
  2
CURVE
 70
0
 62
7
  6
CONTINUOUS
370
-3
390
F
  0
LAYER
  5
22D
100
AcDbSymbolTableRecord
100
AcDbLayerTableRecord
  2
DRAFT
 70
0
 62
7
  6
CONTINUOUS
370
-3
390
F
  0
LAYER
  5
22E
100
AcDbSymbolTableRecord
100
AcDbLayerTableRecord
  2
FASTON_MASCHIO
 70
0
 62
7
  6
CONTINUOUS
370
-3
390
F
  0
LAYER
  5
22F
100
AcDbSymbolTableRecord
100
AcDbLayerTableRecord
  2
IMPORT_IGES
 70
0
 62
7
  6
CONTINUOUS
370
-3
390
F
  0
LAYER
  5
230
100
AcDbSymbolTableRecord
100
AcDbLayerTableRecord
  2
INSERTOM3
 70
0
 62
7
  6
CONTINUOUS
370
-3
390
F
  0
LAYER
  5
231
100
AcDbSymbolTableRecord
100
AcDbLayerTableRecord
  2
INSERTOM3_1
 70
0
 62
7
  6
CONTINUOUS
370
-3
390
F
  0
LAYER
  5
232
100
AcDbSymbolTableRecord
100
AcDbLayerTableRecord
  2
INSERTOM3_10
 70
0
 62
7
  6
CONTINUOUS
370
-3
390
F
  0
LAYER
  5
233
100
AcDbSymbolTableRecord
100
AcDbLayerTableRecord
  2
INSERTOM3_2
 70
0
 62
7
  6
CONTINUOUS
370
-3
390
F
  0
LAYER
  5
234
100
AcDbSymbolTableRecord
100
AcDbLayerTableRecord
  2
INSERTOM3_3
 70
0
 62
7
  6
CONTINUOUS
370
-3
390
F
  0
LAYER
  5
235
100
AcDbSymbolTableRecord
100
AcDbLayerTableRecord
  2
INSERTOM3_4
 70
0
 62
7
  6
CONTINUOUS
370
-3
390
F
  0
LAYER
  5
236
100
AcDbSymbolTableRecord
100
AcDbLayerTableRecord
  2
INSERTOM3_5
 70
0
 62
7
  6
CONTINUOUS
370
-3
390
F
  0
LAYER
  5
237
100
AcDbSymbolTableRecord
100
AcDbLayerTableRecord
  2
INSERTOM3_6
 70
0
 62
7
  6
CONTINUOUS
370
-3
390
F
  0
LAYER
  5
238
100
AcDbSymbolTableRecord
100
AcDbLayerTableRecord
  2
INSERTOM3_7
 70
0
 62
7
  6
CONTINUOUS
370
-3
390
F
  0
LAYER
  5
239
100
AcDbSymbolTableRecord
100
AcDbLayerTableRecord
  2
INSERTOM3_8
 70
0
 62
7
  6
CONTINUOUS
370
-3
390
F
  0
LAYER
  5
23A
100
AcDbSymbolTableRecord
100
AcDbLayerTableRecord
  2
INSERTOM3_9
 70
0
 62
7
  6
CONTINUOUS
370
-3
390
F
  0
LAYER
  5
23B
100
AcDbSymbolTableRecord
100
AcDbLayerTableRecord
  2
INSERTOM4
 70
0
 62
7
  6
CONTINUOUS
370
-3
390
F
  0
LAYER
  5
23C
100
AcDbSymbolTableRecord
100
AcDbLayerTableRecord
  2
INSERTOM4_1
 70
0
 62
7
  6
CONTINUOUS
370
-3
390
F
  0
LAYER
  5
23D
100
AcDbSymbolTableRecord
100
AcDbLayerTableRecord
  2
INSERTOM4_2
 70
0
 62
7
  6
CONTINUOUS
370
-3
390
F
  0
LAYER
  5
23E
100
AcDbSymbolTableRecord
100
AcDbLayerTableRecord
  2
INSERTOM4_3
 70
0
 62
7
  6
CONTINUOUS
370
-3
390
F
  0
LAYER
  5
23F
100
AcDbSymbolTableRecord
100
AcDbLayerTableRecord
  2
INTFCLR_3
 70
0
 62
7
  6
CONTINUOUS
370
-3
390
F
  0
LAYER
  5
240
100
AcDbSymbolTableRecord
100
AcDbLayerTableRecord
  2
LIVELLO_1
 70
0
 62
7
  6
CONTINUOUS
370
-3
390
F
  0
LAYER
  5
241
100
AcDbSymbolTableRecord
100
AcDbLayerTableRecord
  2
LIVELLO_2
 70
0
 62
7
  6
CONTINUOUS
370
-3
390
F
  0
LAYER
  5
242
100
AcDbSymbolTableRecord
100
AcDbLayerTableRecord
  2
NOTE
 70
0
 62
7
  6
CONTINUOUS
370
-3
390
F
  0
LAYER
  5
243
100
AcDbSymbolTableRecord
100
AcDbLayerTableRecord
  2
PERM3X10
 70
0
 62
7
  6
CONTINUOUS
370
-3
390
F
  0
LAYER
  5
244
100
AcDbSymbolTableRecord
100
AcDbLayerTableRecord
  2
PERM3X10_1
 70
0
 62
7
  6
CONTINUOUS
370
-3
390
F
  0
LAYER
  5
245
100
AcDbSymbolTableRecord
100
AcDbLayerTableRecord
  2
PERM3X15
 70
0
 62
7
  6
CONTINUOUS
370
-3
390
F
  0
LAYER
  5
246
100
AcDbSymbolTableRecord
100
AcDbLayerTableRecord
  2
PIANI
 70
0
 62
7
  6
CONTINUOUS
370
-3
390
F
  0
LAYER
  5
247
100
AcDbSymbolTableRecord
100
AcDbLayerTableRecord
  2
PUNTI
 70
0
 62
7
  6
CONTINUOUS
370
-3
390
F
  0
LAYER
  5
248
100
AcDbSymbolTableRecord
100
AcDbLayerTableRecord
  2
RACCORDO
 70
0
 62
7
  6
CONTINUOUS
370
-3
390
F
  0
LAYER
  5
249
100
AcDbSymbolTableRecord
100
AcDbLayerTableRecord
  2
RINFORZO_BATTERIA
 70
0
 62
7
  6
CONTINUOUS
370
-3
390
F
  0
LAYER
  5
24A
100
AcDbSymbolTableRecord
100
AcDbLayerTableRecord
  2
SIMBOLI
 70
0
 62
7
  6
CONTINUOUS
370
-3
390
F
  0
LAYER
  5
24B
100
AcDbSymbolTableRecord
100
AcDbLayerTableRecord
  2
SMUSSO
 70
0
 62
7
  6
CONTINUOUS
370
-3
390
F
  0
LAYER
  5
24C
100
AcDbSymbolTableRecord
100
AcDbLayerTableRecord
  2
SUPERFICI
 70
0
 62
7
  6
CONTINUOUS
370
-3
390
F
  0
LAYER
  5
24D
100
AcDbSymbolTableRecord
100
AcDbLayerTableRecord
  2
TRASH
 70
0
 62
7
  6
CONTINUOUS
370
-3
390
F
  0
LAYER
  5
24E
100
AcDbSymbolTableRecord
100
AcDbLayerTableRecord
  2
VITEM3X6-113004
 70
0
 62
7
  6
CONTINUOUS
370
-3
390
F
  0
LAYER
  5
24F
100
AcDbSymbolTableRecord
100
AcDbLayerTableRecord
  2
VITEM3X6-TESTA-LARGA
 70
0
 62
7
  6
CONTINUOUS
370
-3
390
F
  0
LAYER
  5
250
100
AcDbSymbolTableRecord
100
AcDbLayerTableRecord
  2
VITEM3X6-TESTA-LARGA_1
 70
0
 62
7
  6
CONTINUOUS
370
-3
390
F
  0
LAYER
  5
251
100
AcDbSymbolTableRecord
100
AcDbLayerTableRecord
  2
WHITE
 70
0
 62
7
  6
CONTINUOUS
370
-3
390
F
  0
LAYER
  5
252
100
AcDbSymbolTableRecord
100
AcDbLayerTableRecord
  2
___SHELL
 70
0
 62
7
  6
CONTINUOUS
370
-3
390
F
  0
ENDTAB
  0
TABLE
  2
STYLE
  5
3
100
AcDbSymbolTable
 70
1
  0
STYLE
  5
11
100
AcDbSymbolTableRecord
100
AcDbTextStyleTableRecord
  2
STANDARD
 70
0
 40
0.0
 41
0.8
 50
0.0
 71
0
 42
0.2
  3
txt
  4

  0
STYLE
  5
253
100
AcDbSymbolTableRecord
100
AcDbTextStyleTableRecord
  2
TEXTSTYLE_1
 70
0
 40
0.0
 41
0.8
 50
0.0
 71
0
 42
0.2
  3
gdt
  4

  0
ENDTAB
  0
TABLE
  2
VIEW
  5
6
100
AcDbSymbolTable
 70
0
  0
ENDTAB
  0
TABLE
  2
UCS
  5
7
100
AcDbSymbolTable
 70
0
  0
ENDTAB
  0
TABLE
  2
APPID
  5
9
100
AcDbSymbolTable
 70
1
  0
APPID
  5
254
100
AcDbSymbolTableRecord
100
AcDbRegAppTableRecord
  2
ACAD
 70
0
  0
ENDTAB
  0
TABLE
  2
BLOCK_RECORD
  5
1
100
AcDbSymbolTable
 70
0
  0
BLOCK_RECORD
  5
255
100
AcDbSymbolTableRecord
100
AcDbBlockTableRecord
  2
*Model_Space
  0
BLOCK_RECORD
  5
256
100
AcDbSymbolTableRecord
100
AcDbBlockTableRecord
  2
*Paper_Space
  0
BLOCK_RECORD
  5
257
100
AcDbSymbolTableRecord
100
AcDbBlockTableRecord
  2
_FILLED
  0
ENDTAB
  0
TABLE
  2
DIMSTYLE
  5
A
100
AcDbSymbolTable
 70
1
100
AcDbDimStyleTable
 71
0
  0
DIMSTYLE
105
258
100
AcDbSymbolTableRecord
100
AcDbDimStyleTableRecord
  2
STANDARD
 70
0
  3

  4

 40
1.0
 41
3.0
 42
0.5
 43
0.38
 44
1.5
 45
0.0
 46
0.0
 47
0.01
 48
0.01
140
3.0
141
0.09
142
0.0
143
25.4
144
1.0
145
0.0
146
1.0
147
0.625
 71
1
 72
0
 73
0
 74
0
 75
0
 76
0
 77
1
 78
8
 79
2
170
0
171
1
172
0
173
0
174
0
175
0
176
0
177
0
178
0
270
2
179
2
271
2
272
2
273
2
274
2
275
0
280
0
281
0
282
0
283
1
284
8
285
0
286
0
287
3
288
0
340
11
278
44
341
257
342
257
343
257
344
257
  0
ENDTAB
  0
ENDSEC
  0
SECTION
  2
BLOCKS
  0
BLOCK
  5
20
100
AcDbEntity
  8
0
100
AcDbBlockBegin
  2
*Model_Space
 70
0
 10
0.0
 20
0.0
 30
0.0
  3
*Model_Space
  1

  0
ENDBLK
  5
21
100
AcDbEntity
  8
0
100
AcDbBlockEnd
  0
BLOCK
  5
1C
100
AcDbEntity
  8
0
100
AcDbBlockBegin
  2
*Paper_Space
 70
0
 10
0.0
 20
0.0
 30
0.0
  3
*Paper_Space
  1

  0
ENDBLK
  5
1D
100
AcDbEntity
  8
0
100
AcDbBlockEnd
  0
BLOCK
  5
259
100
AcDbEntity
  8
0
100
AcDbBlockBegin
  2
_FILLED
 70
64
 10
0.0
 20
0.0
  3
_FILLED
  1

  0
SOLID
  5
25A
100
AcDbEntity
  8
0
  6
BYBLOCK
 62
0
100
AcDbTrace
 10
0.0
 20
0.0
 11
-1.0
 21
0.1333333333
 12
-1.0
 22
-0.1333333333
 13
-1.0
 23
-0.1333333333
  0
ENDBLK
  5
25B
100
AcDbEntity
  8
0
  6
BYBLOCK
 62
0
100
AcDbBlockEnd
  0
ENDSEC
  0
SECTION
  2
ENTITIES
  0
LWPOLYLINE
  5
25C
100
AcDbEntity
  8
IMPORT_IGES
100
AcDbPolyline
 62
7
  6
CONTINUOUS
 90
10
 70
0
 10
-161.5623517306
 20
249.1443335815
 10
-161.5242854797
 20
249.1904978803
 10
-161.4831351929
 20
249.2356586809
 10
-161.4389008702
 20
249.2798159835
 10
-161.3914605418
 20
249.3230717881
 10
-161.3409361775
 20
249.3653240946
 10
-161.2876936862
 20
249.4062669023
 10
-161.2318550373
 20
249.4457982107
 10
-161.1732982614
 20
249.4840200203
 10
-161.1120233584
 20
249.520932331
  0
LWPOLYLINE
  5
25D
100
AcDbEntity
  8
IMPORT_IGES
100
AcDbPolyline
 62
7
  6
CONTINUOUS
 90
3
 70
0
 10
-161.5807077675
 20
248.012700623
 10
-161.5770836186
 20
248.0157404646
 10
-161.5730900148
 20
248.0182289818
  0
LWPOLYLINE
  5
25E
100
AcDbEntity
  8
IMPORT_IGES
100
AcDbPolyline
 62
7
  6
CONTINUOUS
 90
44
 70
0
 10
-161.4602584359
 20
248.0974640063
 10
-161.4549000522
 20
248.1016872431
 10
-161.4493793844
 20
248.1060833841
 10
-161.4436948108
 20
248.1106540407
 10
-161.4378313341
 20
248.1154290422
 10
-161.4317877076
 20
248.1204059573
 10
-161.4255617117
 20
248.1255870012
 10
-161.4191363097
 20
248.131008937
 10
-161.4125096802
 20
248.1366687026
 10
-161.405679222
 20
248.1425689936
 10
-161.398625956
 20
248.1487551464
 10
-161.3913471374
 20
248.1552234022
 10
-161.3838398196
 20
248.1619769159
 10
-161.3760836933
 20
248.1690712855
 10
-161.3680759597
 20
248.1765006338
 10
-161.3598120583
 20
248.1842698604
 10
-161.3512676322
 20
248.1924505434
 10
-161.3424373023
 20
248.2010361857
 10
-161.3333167602
 20
248.210031705
 10
-161.3238813334
 20
248.2195254915
 10
-161.3141233573
 20
248.2295092579
 10
-161.3040376961
 20
248.2399887492
 10
-161.293600899
 20
248.2510728948
 10
-161.2828093374
 20
248.2627420034
 10
-161.2716497821
 20
248.2750116993
 10
-161.2600804796
 20
248.2880429707
 10
-161.2480785631
 20
248.3018281004
 10
-161.235643257
 20
248.3163680133
 10
-161.2227607262
 20
248.331835163
 10
-161.2093588233
 20
248.3482857375
 10
-161.1954772489
 20
248.3656522892
 10
-161.18126829
 20
248.3839207205
 10
-161.1666485779
 20
248.4032035387
 10
-161.1516684731
 20
248.4233731233
 10
-161.1366916064
 20
248.4440575417
 10
-161.1217813897
 20
248.4652014543
 10
-161.1068625943
 20
248.4868486874
 10
-161.0921059712
 20
248.5087806714
 10
-161.077561257
 20
248.5309236745
 10
-161.0631779872
 20
248.5533428446
 10
-161.0489823421
 20
248.5760299638
 10
-161.0349829217
 20
248.5989792614
 10
-161.0211703938
 20
248.6221872525
 10
-161.0075444592
 20
248.6456491606
  0
LWPOLYLINE
  5
25F
100
AcDbEntity
  8
IMPORT_IGES
100
AcDbPolyline
 62
7
  6
CONTINUOUS
 90
3
 70
0
 10
-161.4754096363
 20
248.0857661128
 10
-161.4705055208
 20
248.0895166094
 10
-161.4602584359
 20
248.0974640063
  0
LWPOLYLINE
  5
260
100
AcDbEntity
  8
IMPORT_IGES
100
AcDbPolyline
 62
7
  6
CONTINUOUS
 90
3
 70
0
 10
-161.4892876762
 20
248.0753521073
 10
-161.4847942443
 20
248.0786944746
 10
-161.4754096363
 20
248.0857661128
  0
LINE
  5
261
100
AcDbEntity
  8
IMPORT_IGES
100
AcDbLine
 62
7
  6
CONTINUOUS
 10
-161.4978911728
 20
248.0690390723
 11
-161.4892876762
 21
248.0753521073
  0
LINE
  5
262
100
AcDbEntity
  8
IMPORT_IGES
100
AcDbLine
 62
7
  6
CONTINUOUS
 10
-161.5060170954
 20
248.063173574
 11
-161.4978911728
 21
248.0690390723
  0
LINE
  5
263
100
AcDbEntity
  8
IMPORT_IGES
100
AcDbLine
 62
7
  6
CONTINUOUS
 10
-161.5136967458
 20
248.0577145942
 11
-161.5060170954
 21
248.063173574
  0
LINE
  5
264
100
AcDbEntity
  8
IMPORT_IGES
100
AcDbLine
 62
7
  6
CONTINUOUS
 10
-161.5209520538
 20
248.0526357801
 11
-161.5136967458
 21
248.0577145942
  0
LINE
  5
265
100
AcDbEntity
  8
IMPORT_IGES
100
AcDbLine
 62
7
  6
CONTINUOUS
 10
-161.5278126106
 20
248.0478999923
 11
-161.5209520538
 21
248.0526357801
  0
LINE
  5
266
100
AcDbEntity
  8
IMPORT_IGES
100
AcDbLine
 62
7
  6
CONTINUOUS
 10
-161.5343043933
 20
248.0434769721
 11
-161.5278126106
 21
248.0478999923
  0
LINE
  5
267
100
AcDbEntity
  8
IMPORT_IGES
100
AcDbLine
 62
7
  6
CONTINUOUS
 10
-161.5404449285
 20
248.0393475276
 11
-161.5343043933
 21
248.0434769721
  0
LINE
  5
268
100
AcDbEntity
  8
IMPORT_IGES
100
AcDbLine
 62
7
  6
CONTINUOUS
 10
-161.5462575781
 20
248.0354849393
 11
-161.5404449285
 21
248.0393475276
  0
LINE
  5
269
100
AcDbEntity
  8
IMPORT_IGES
100
AcDbLine
 62
7
  6
CONTINUOUS
 10
-161.5517643025
 20
248.0318662639
 11
-161.5462575781
 21
248.0354849393
  0
LINE
  5
26A
100
AcDbEntity
  8
IMPORT_IGES
100
AcDbLine
 62
7
  6
CONTINUOUS
 10
-161.5569785344
 20
248.0284777129
 11
-161.5517643025
 21
248.0318662639
  0
LINE
  5
26B
100
AcDbEntity
  8
IMPORT_IGES
100
AcDbLine
 62
7
  6
CONTINUOUS
 10
-161.561918049
 20
248.0253002823
 11
-161.5569785344
 21
248.0284777129
  0
LINE
  5
26C
100
AcDbEntity
  8
IMPORT_IGES
100
AcDbLine
 62
7
  6
CONTINUOUS
 10
-161.5665919284
 20
248.022322223
 11
-161.561918049
 21
248.0253002823
  0
LINE
  5
26D
100
AcDbEntity
  8
IMPORT_IGES
100
AcDbLine
 62
7
  6
CONTINUOUS
 10
-161.5730900148
 20
248.0182289818
 11
-161.5665919284
 21
248.022322223
  0
LWPOLYLINE
  5
26E
100
AcDbEntity
  8
IMPORT_IGES
100
AcDbPolyline
 62
7
  6
CONTINUOUS
 90
10
 70
0
 10
-160.2620810074
 20
250.0115835425
 10
-160.3246833983
 20
249.9739049051
 10
-160.3870607118
 20
249.9334775914
 10
-160.449212948
 20
249.8903016012
 10
-160.511288339
 20
249.8442602474
 10
-160.5731386527
 20
249.7954702172
 10
-160.6343191929
 20
249.7442815725
 10
-160.6946817275
 20
249.6908110007
 10
-160.7543744886
 20
249.6349418145
 10
-160.8133974763
 20
249.5766740137
  0
LINE
  5
26F
100
AcDbEntity
  8
IMPORT_IGES
100
AcDbLine
 62
7
  6
CONTINUOUS
 10
-161.1120233584
 20
249.520932331
 11
-151.7767996332
 21
254.9108786625
  0
LINE
  5
270
100
AcDbEntity
  8
IMPORT_IGES
100
AcDbLine
 62
7
  6
CONTINUOUS
 10
-149.9037483937
 20
253.8294023516
 11
-100.3169556333
 21
282.460195023
  0
LWPOLYLINE
  5
271
100
AcDbEntity
  8
IMPORT_IGES
100
AcDbPolyline
 62
7
  6
CONTINUOUS
 90
10
 70
0
 10
-99.539138174
 20
282.0110929703
 10
-99.4841208559
 20
282.0416139472
 10
-99.4293501256
 20
282.0695514227
 10
-99.3748259834
 20
282.0949053968
 10
-99.3204666396
 20
282.1177064277
 10
-99.2663538837
 20
282.1379239572
 10
-99.2127330843
 20
282.1554663112
 10
-99.1596860309
 20
282.1703029314
 10
-99.107130934
 20
282.1824643761
 10
-99.0550677936
 20
282.1919506452
  0
LWPOLYLINE
  5
272
100
AcDbEntity
  8
IMPORT_IGES
100
AcDbPolyline
 62
7
  6
CONTINUOUS
 90
10
 70
0
 10
103.4007734416
 20
-282.0278204543
 10
103.4807272013
 20
-282.0058414782
 10
103.5589429632
 20
-281.9820818183
 10
103.6354207273
 20
-281.9565414748
 10
103.710337152
 20
-281.9291500237
 10
103.7835155788
 20
-281.899977889
 10
103.8544260332
 20
-281.8692363418
 10
103.9228918568
 20
-281.8369958058
 10
103.9890897079
 20
-281.8031858573
 10
104.0530195865
 20
-281.7678064962
  0
LWPOLYLINE
  5
273
100
AcDbEntity
  8
IMPORT_IGES
100
AcDbPolyline
 62
7
  6
CONTINUOUS
 90
7
 70
0
 10
101.6645053495
 20
-281.9257823339
 10
101.6514421428
 20
-281.9275418933
 10
101.6395229992
 20
-281.9307254225
 10
101.6287976162
 20
-281.9352765117
 10
101.6192065415
 20
-281.941116943
 10
101.6109241746
 20
-281.9481895912
 10
101.6098204798
 20
-281.9493539749
  0
LWPOLYLINE
  5
274
100
AcDbEntity
  8
IMPORT_IGES
100
AcDbPolyline
 62
7
  6
CONTINUOUS
 90
45
 70
0
 10
102.4973853
 20
-281.7304310148
 10
102.5243099652
 20
-281.7305183298
 10
102.551380096
 20
-281.7309027461
 10
102.5785914909
 20
-281.7315811203
 10
102.605987578
 20
-281.7325532404
 10
102.6335160499
 20
-281.7338123836
 10
102.6610291952
 20
-281.7353487709
 10
102.6885239102
 20
-281.7371629935
 10
102.7159946166
 20
-281.7392545517
 10
102.7432907031
 20
-281.7416183638
 10
102.7703996471
 20
-281.7442602063
 10
102.7973267492
 20
-281.7471810211
 10
102.8239494283
 20
-281.7503742172
 10
102.8502595707
 20
-281.7538493673
 10
102.8762603081
 20
-281.7576085572
 10
102.9018474624
 20
-281.7616385724
 10
102.927017426
 20
-281.7659517726
 10
102.9517715506
 20
-281.770551186
 10
102.9760147909
 20
-281.7754134381
 10
102.9997476251
 20
-281.7805519896
 10
103.0229703152
 20
-281.7859715984
 10
103.045589323
 20
-281.791639215
 10
103.0676112875
 20
-281.7975725288
 10
103.0890333945
 20
-281.8037741809
 10
103.1097499499
 20
-281.8101918093
 10
103.1297529035
 20
-281.816840529
 10
103.1490573849
 20
-281.8237275246
 10
103.1675942714
 20
-281.830791009
 10
103.1853571098
 20
-281.8380447448
 10
103.2023615223
 20
-281.8454969714
 10
103.2185725767
 20
-281.8530786326
 10
103.2339792621
 20
-281.8607972379
 10
103.2486026512
 20
-281.8686654593
 10
103.2624561727
 20
-281.8766216722
 10
103.2755339324
 20
-281.8846699654
 10
103.287851356
 20
-281.8928231424
 10
103.2994533601
 20
-281.9010313929
 10
103.3103390639
 20
-281.9092971912
 10
103.3205175411
 20
-281.9176313134
 10
103.3300478144
 20
-281.9259948636
 10
103.3389292937
 20
-281.9343867405
 10
103.3471691634
 20
-281.9428179879
 10
103.3548371984
 20
-281.9512664496
 10
103.3619384824
 20
-281.9597344608
 10
103.3679218355
 20
-281.9674827324
  0
LWPOLYLINE
  5
275
100
AcDbEntity
  8
IMPORT_IGES
100
AcDbPolyline
 62
7
  6
CONTINUOUS
 90
10
 70
0
 10
-161.5931304315
 20
248.0220249235
 10
-161.596989828
 20
248.0169335779
 10
-161.6010791147
 20
248.0121889503
 10
-161.6053878301
 20
248.0077932841
 10
-161.6099020947
 20
248.0037232802
 10
-161.6146127155
 20
248.0000069828
 10
-161.6195147603
 20
247.9967238596
 10
-161.6245960293
 20
247.9938788698
 10
-161.6298400752
 20
247.9914724134
 10
-161.6352338466
 20
247.9895773109
  0
LWPOLYLINE
  5
276
100
AcDbEntity
  8
IMPORT_IGES
100
AcDbPolyline
 62
7
  6
CONTINUOUS
 90
13
 70
0
 10
89.4597147001
 20
-267.7196240977
 10
89.4406215826
 20
-267.7191522729
 10
89.3778175009
 20
-267.7142039298
 10
89.3140458775
 20
-267.7058468317
 10
89.2492506847
 20
-267.6940679881
 10
89.1834879503
 20
-267.6788803895
 10
89.1170793365
 20
-267.6603382996
 10
89.0500272527
 20
-267.6384242873
 10
88.9823292894
 20
-267.6131557837
 10
88.9142998803
 20
-267.5846393468
 10
88.8460438365
 20
-267.5529104957
 10
88.7774563468
 20
-267.5179337113
 10
88.7085374112
 20
-267.4797089934
  0
LWPOLYLINE
  5
277
100
AcDbEntity
  8
IMPORT_IGES
100
AcDbPolyline
 62
7
  6
CONTINUOUS
 90
28
 70
0
 10
-67.3610558261
 20
250.3442823135
 10
-67.2588137433
 20
250.404272749
 10
-67.0923689154
 20
250.506291973
 10
-66.9316848763
 20
250.6103306936
 10
-66.7770116964
 20
250.7161557176
 10
-66.6282978411
 20
250.8237262144
 10
-66.4852617702
 20
250.9331969132
 10
-66.3479311198
 20
251.0445248372
 10
-66.2165418243
 20
251.1574924082
 10
-66.0911748818
 20
251.271993748
 10
-65.9720900036
 20
251.3877392866
 10
-65.8592271407
 20
251.5047280201
 10
-65.7522647352
 20
251.6232865182
 10
-65.6513109892
 20
251.7433368783
 10
-65.5565690085
 20
251.8646759607
 10
-65.4679749094
 20
251.9874454199
 10
-65.385692623
 20
252.1115111931
 10
-65.3098851964
 20
252.2367202856
 10
-65.2405615269
 20
252.3631858423
 10
-65.1779393395
 20
252.4906661803
 10
-65.1221095117
 20
252.6191413538
 10
-65.0730058804
 20
252.7490769134
 10
-65.0308436107
 20
252.8803931546
 10
-64.9958386089
 20
253.0129935112
 10
-64.9680941391
 20
253.1473655754
 10
-64.947878193
 20
253.2836636648
 10
-64.9355275666
 20
253.4216919631
 10
-64.9313425086
 20
253.5614538046
  0
LINE
  5
278
100
AcDbEntity
  8
IMPORT_IGES
100
AcDbLine
 62
7
  6
CONTINUOUS
 10
102.3567006547
 20
-282.3672481044
 11
102.2107343165
 21
-282.3291993612
  0
LINE
  5
279
100
AcDbEntity
  8
IMPORT_IGES
100
AcDbLine
 62
7
  6
CONTINUOUS
 10
102.3949835617
 20
-282.3774112425
 11
102.3567006547
 21
-282.3672481044
  0
LINE
  5
27A
100
AcDbEntity
  8
IMPORT_IGES
100
AcDbLine
 62
7
  6
CONTINUOUS
 10
102.2107343165
 20
-282.3291993612
 11
102.1669729113
 21
-282.3175140219
  0
LWPOLYLINE
  5
27B
100
AcDbEntity
  8
IMPORT_IGES
100
AcDbPolyline
 62
7
  6
CONTINUOUS
 90
22
 70
0
 10
102.1669729113
 20
-282.3175140219
 10
102.1231220211
 20
-282.305454943
 10
102.1012362974
 20
-282.2992632206
 10
102.0794908483
 20
-282.2929771454
 10
102.0578969324
 20
-282.2865851682
 10
102.0364586971
 20
-282.2800712983
 10
102.0152780976
 20
-282.2734550595
 10
101.9943648945
 20
-282.266727258
 10
101.9737237685
 20
-282.2598746845
 10
101.9534465874
 20
-282.252917064
 10
101.9335390792
 20
-282.2458470445
 10
101.9140081215
 20
-282.2386558885
 10
101.8949441048
 20
-282.2313685514
 10
101.8763480382
 20
-282.2239800625
 10
101.8582283844
 20
-282.2164873159
 10
101.8406823751
 20
-282.2089270794
 10
101.8237119836
 20
-282.2013002409
 10
101.8073196468
 20
-282.1936083045
 10
101.7915981898
 20
-282.1858987411
 10
101.7765770884
 20
-282.1781934599
 10
101.7622252946
 20
-282.1704835309
 10
101.7485421838
 20
-282.1627748896
  0
LWPOLYLINE
  5
27C
100
AcDbEntity
  8
IMPORT_IGES
100
AcDbPolyline
 62
7
  6
CONTINUOUS
 90
16
 70
0
 10
-161.6050022835
 20
248.9342818569
 10
-161.6007099088
 20
248.9513063761
 10
-161.5966325725
 20
248.9678780273
 10
-161.5927595217
 20
248.9839933366
 10
-161.5891011876
 20
248.9996452723
 10
-161.5856642546
 20
249.0148446479
 10
-161.5824299101
 20
249.0296142602
 10
-161.5794036385
 20
249.0439558942
 10
-161.5765922464
 20
249.0578706309
 10
-161.5739768754
 20
249.0713797622
 10
-161.5715620413
 20
249.0844790638
 10
-161.5693518675
 20
249.0971748614
 10
-161.5673253697
 20
249.1095039131
 10
-161.5654772973
 20
249.1214789098
 10
-161.5638186003
 20
249.1330885911
 10
-161.5623517305
 20
249.1443335815
  0
LINE
  5
27D
100
AcDbEntity
  8
IMPORT_IGES
100
AcDbLine
 62
7
  6
CONTINUOUS
 10
-161.6141897049
 20
248.8988565433
 11
-161.6050022835
 21
248.9342818569
  0
LINE
  5
27E
100
AcDbEntity
  8
IMPORT_IGES
100
AcDbLine
 62
7
  6
CONTINUOUS
 10
-161.6869489368
 20
248.6313343873
 11
-161.6752706101
 21
248.675348546
  0
LINE
  5
27F
100
AcDbEntity
  8
IMPORT_IGES
100
AcDbLine
 62
7
  6
CONTINUOUS
 10
-161.6241478732
 20
248.8616331843
 11
-161.6141897049
 21
248.8988565433
  0
LINE
  5
280
100
AcDbEntity
  8
IMPORT_IGES
100
AcDbLine
 62
7
  6
CONTINUOUS
 10
-161.6752706101
 20
248.675348546
 11
-161.6575826238
 21
248.7401451678
  0
LWPOLYLINE
  5
281
100
AcDbEntity
  8
IMPORT_IGES
100
AcDbPolyline
 62
7
  6
CONTINUOUS
 90
3
 70
0
 10
-161.6575826238
 20
248.7401451678
 10
-161.6459920406
 20
248.7820555851
 10
-161.6241478732
 20
248.8616331843
  0
LWPOLYLINE
  5
282
100
AcDbEntity
  8
IMPORT_IGES
100
AcDbPolyline
 62
7
  6
CONTINUOUS
 90
18
 70
0
 10
102.6518006225
 20
-282.460195023
 10
102.641297183
 20
-282.4558299485
 10
102.63039284
 20
-282.4514527739
 10
102.6190882738
 20
-282.447061082
 10
102.6074004867
 20
-282.4426518678
 10
102.595314072
 20
-282.4382225402
 10
102.582781349
 20
-282.4337704495
 10
102.5697989925
 20
-282.4292886618
 10
102.5563728077
 20
-282.4247756477
 10
102.5424692751
 20
-282.4202353245
 10
102.5280914218
 20
-282.41566137
 10
102.513239875
 20
-282.4110480577
 10
102.4978781652
 20
-282.4063981391
 10
102.4819996358
 20
-282.4017001101
 10
102.4656162558
 20
-282.3969486589
 10
102.4487203187
 20
-282.3921533477
 10
102.4313074058
 20
-282.3873009923
 10
102.3949835617
 20
-282.3774112425
  0
LWPOLYLINE
  5
283
100
AcDbEntity
  8
IMPORT_IGES
100
AcDbPolyline
 62
7
  6
CONTINUOUS
 90
20
 70
0
 10
20.7735487403
 20
-200.6482186845
 10
20.7741262476
 20
-200.6481368848
 10
20.7777860145
 20
-200.6477721334
 10
20.7844296335
 20
-200.6474563226
 10
20.7938152214
 20
-200.6474721505
 10
20.8058258238
 20
-200.6480462748
 10
20.8203594781
 20
-200.6493752939
 10
20.8372440991
 20
-200.6516209066
 10
20.8563772948
 20
-200.6549267827
 10
20.8776644411
 20
-200.659421159
 10
20.9010636513
 20
-200.6652321808
 10
20.9265089178
 20
-200.6724756496
 10
20.9538971251
 20
-200.681247199
 10
20.9832051393
 20
-200.6916603248
 10
21.0143730085
 20
-200.7038135406
 10
21.0472987043
 20
-200.717782278
 10
21.081934907
 20
-200.7336583158
 10
21.1182172091
 20
-200.7515231062
 10
21.1560446432
 20
-200.7714347928
 10
21.1953241844
 20
-200.7934481554
  0
LWPOLYLINE
  5
284
100
AcDbEntity
  8
LIVELLO_1
100
AcDbPolyline
 62
7
  6
CONTINUOUS
 90
75
 70
0
 10
65.9558049758
 20
-234.7628825562
 10
65.9959110738
 20
-234.7781434629
 10
66.03497988
 20
-234.7893819678
 10
66.073039282
 20
-234.7968007501
 10
66.1101171674
 20
-234.8006024889
 10
66.1462414237
 20
-234.8009898633
 10
66.1814399385
 20
-234.7981655523
 10
66.2157405994
 20
-234.7923322351
 10
66.249171294
 20
-234.7836925908
 10
66.2817599099
 20
-234.7724492984
 10
66.3135343346
 20
-234.7588050371
 10
66.3445224558
 20
-234.742962486
 10
66.374752161
 20
-234.7251243241
 10
66.4042513377
 20
-234.7054932305
 10
66.4330478737
 20
-234.6842718844
 10
66.4611696564
 20
-234.6616629649
 10
66.4886445735
 20
-234.637869151
 10
66.5155005125
 20
-234.6130931218
 10
66.541765361
 20
-234.5875375565
 10
66.5674670065
 20
-234.5614051342
 10
66.5926333368
 20
-234.5348985338
 10
66.637084356
 20
-234.4861455668
 10
66.6797705152
 20
-234.4365888514
 10
66.7206057001
 20
-234.3859920164
 10
66.7595037966
 20
-234.3341186908
 10
66.7963786905
 20
-234.2807325036
 10
66.8311442677
 20
-234.2255970835
 10
66.8637144139
 20
-234.1684760597
 10
66.8940030151
 20
-234.1091330609
 10
66.921923957
 20
-234.0473317161
 10
66.9473911255
 20
-233.9828356542
 10
66.9717698693
 20
-233.9109142884
 10
66.9933058917
 20
-233.8358568829
 10
67.0120439111
 20
-233.7578595696
 10
67.028028646
 20
-233.6771184801
 10
67.041304815
 20
-233.5938297464
 10
67.0519171364
 20
-233.5081895001
 10
67.0599103288
 20
-233.4203938731
 10
67.0653291106
 20
-233.3306389971
 10
67.0682182003
 20
-233.239121004
 10
67.0686223164
 20
-233.1460360255
 10
67.0665861773
 20
-233.0515801934
 10
67.0621545015
 20
-232.9559496395
 10
67.0554513753
 20
-232.8604823618
 10
67.0464031569
 20
-232.7641305018
 10
67.0349596219
 20
-232.6669647763
 10
67.0210705459
 20
-232.5690559024
 10
67.0046857047
 20
-232.4704745969
 10
66.985754874
 20
-232.3712915767
 10
66.9642278292
 20
-232.2715775587
 10
66.9400543462
 20
-232.1714032599
 10
66.9131842005
 20
-232.0708393971
 10
66.8835671678
 20
-231.9699566873
 10
66.8499947219
 20
-231.8653096205
 10
66.8134940456
 20
-231.7605109168
 10
66.7741320416
 20
-231.6556746361
 10
66.7319756126
 20
-231.550914838
 10
66.6870916614
 20
-231.4463455824
 10
66.6395470907
 20
-231.3420809288
 10
66.5894088031
 20
-231.2382349371
 10
66.5367437015
 20
-231.1349216669
 10
66.492209523
 20
-231.0515944847
 10
66.4461009316
 20
-230.968856689
 10
66.3984624995
 20
-230.8868719885
 10
66.3493387989
 20
-230.8058040921
 10
66.2987744021
 20
-230.7258167087
 10
66.2468138811
 20
-230.647073547
 10
66.1935018083
 20
-230.5697383159
 10
66.1388827558
 20
-230.4939747242
 10
66.0830012959
 20
-230.4199464808
 10
66.0259020008
 20
-230.3478172943
 10
65.9676294426
 20
-230.2777508737
 10
65.9082281936
 20
-230.2099109278
 10
65.8477428261
 20
-230.1444611653
 10
65.7862179121
 20
-230.0815652952
  0
LWPOLYLINE
  5
285
100
AcDbEntity
  8
IMPORT_IGES
100
AcDbPolyline
 62
7
  6
CONTINUOUS
 90
23
 70
0
 10
87.8600092737
 20
-267.9696385054
 10
87.9227640488
 20
-268.003699158
 10
87.9859089426
 20
-268.0356327248
 10
88.049443955
 20
-268.0654392058
 10
88.1135341081
 20
-268.0934549221
 10
88.1780143799
 20
-268.1193435525
 10
88.2423897041
 20
-268.142096134
 10
88.3066380569
 20
-268.1613951511
 10
88.3707814621
 20
-268.1775581192
 10
88.4343909258
 20
-268.1905286214
 10
88.4977964233
 20
-268.2002897234
 10
88.5606679792
 20
-268.2068583596
 10
88.6215866739
 20
-268.2102289159
 10
88.6798667522
 20
-268.2104121721
 10
88.7361939691
 20
-268.2073973485
 10
88.7912066703
 20
-268.2011464915
 10
88.8450588126
 20
-268.1914438783
 10
88.8975964391
 20
-268.1785052316
 10
88.9489960253
 20
-268.1629397665
 10
88.9995050811
 20
-268.1452125099
 10
89.0488760966
 20
-268.1248584349
 10
89.0965430169
 20
-268.1010916752
 10
89.1100953426
 20
-268.0934766283
  0
LINE
  5
286
100
AcDbEntity
  8
IMPORT_IGES
100
AcDbLine
 62
7
  6
CONTINUOUS
 10
-161.0074605993
 20
-130.4507519918
 11
101.7483505228
 21
-282.16266423
  0
LINE
  5
287
100
AcDbEntity
  8
IMPORT_IGES
100
AcDbLine
 62
250
  6
CONTINUOUS
 10
-161.1120233584
 20
-129.6464048727
 11
100.9417497493
 21
-280.95296916
  0
LWPOLYLINE
  5
288
100
AcDbEntity
  8
IMPORT_IGES
100
AcDbPolyline
 62
7
  6
CONTINUOUS
 90
3
 70
0
 10
-161.5919271054
 20
-129.924816973
 10
-161.5799755476
 20
-129.9361568258
 10
-161.5677193377
 20
-129.9479429393
  0
LWPOLYLINE
  5
289
100
AcDbEntity
  8
IMPORT_IGES
100
AcDbPolyline
 62
7
  6
CONTINUOUS
 90
21
 70
0
 10
-161.3176944805
 20
-130.1983773195
 10
-161.3014089317
 20
-130.2142069964
 10
-161.2851150779
 20
-130.2298642614
 10
-161.2688140424
 20
-130.2453289529
 10
-161.2524889565
 20
-130.2605946518
 10
-161.2362036337
 20
-130.2755867961
 10
-161.2199525753
 20
-130.2902945713
 10
-161.2037291108
 20
-130.3047051213
 10
-161.1875994415
 20
-130.3187460673
 10
-161.1715618521
 20
-130.3324076482
 10
-161.155610751
 20
-130.3456811663
 10
-161.1398113203
 20
-130.3585023677
 10
-161.1241605042
 20
-130.3708675156
 10
-161.108659313
 20
-130.3827684903
 10
-161.0933844765
 20
-130.3941424514
 10
-161.0783388558
 20
-130.4049874676
 10
-161.063523765
 20
-130.4153027643
 10
-161.049019284
 20
-130.4250361558
 10
-161.0348564979
 20
-130.4341743428
 10
-161.0210144585
 20
-130.4427380176
 10
-161.0075512862
 20
-130.4506996304
  0
LINE
  5
28A
100
AcDbEntity
  8
IMPORT_IGES
100
AcDbLine
 62
7
  6
CONTINUOUS
 10
-161.5677193377
 20
-129.9479429393
 11
-161.5422452363
 21
-129.9728290745
  0
LINE
  5
28B
100
AcDbEntity
  8
IMPORT_IGES
100
AcDbLine
 62
7
  6
CONTINUOUS
 10
-161.349990843
 20
-130.1665175437
 11
-161.3176944805
 21
-130.1983773195
  0
LINE
  5
28C
100
AcDbEntity
  8
IMPORT_IGES
100
AcDbLine
 62
7
  6
CONTINUOUS
 10
-161.5422452363
 20
-129.9728290745
 11
-161.5154958236
 21
-129.9993802146
  0
LINE
  5
28D
100
AcDbEntity
  8
IMPORT_IGES
100
AcDbLine
 62
7
  6
CONTINUOUS
 10
-161.3818927998
 20
-130.1345731535
 11
-161.349990843
 21
-130.1665175437
  0
LINE
  5
28E
100
AcDbEntity
  8
IMPORT_IGES
100
AcDbLine
 62
7
  6
CONTINUOUS
 10
-161.5154958236
 20
-129.9993802146
 11
-161.4875777801
 21
-130.0274406022
  0
LINE
  5
28F
100
AcDbEntity
  8
IMPORT_IGES
100
AcDbLine
 62
7
  6
CONTINUOUS
 10
-161.4875777801
 20
-130.0274406022
 11
-161.3818927998
 21
-130.1345731535
  0
LINE
  5
290
100
AcDbEntity
  8
IMPORT_IGES
100
AcDbLine
 62
7
  6
CONTINUOUS
 10
-161.5918748007
 20
-129.910503919
 11
-161.5936919215
 21
-129.9052699176
  0
LWPOLYLINE
  5
291
100
AcDbEntity
  8
LIVELLO_1
100
AcDbPolyline
 62
7
  6
CONTINUOUS
 90
57
 70
0
 10
63.3174733022
 20
-230.0018463344
 10
63.4112498784
 20
-230.0383853215
 10
63.5053035801
 20
-230.0768811282
 10
63.599591701
 20
-230.1173089361
 10
63.6940715347
 20
-230.1596439268
 10
63.7887003748
 20
-230.2038612817
 10
63.8834355149
 20
-230.2499361825
 10
63.9782342486
 20
-230.2978438105
 10
64.0348092326
 20
-230.3273138746
 10
64.0913921676
 20
-230.3575647483
 10
64.1479835689
 20
-230.388733663
 10
64.2045839521
 20
-230.4209578506
 10
64.2611938327
 20
-230.4543745426
 10
64.3178137262
 20
-230.4891209707
 10
64.374444148
 20
-230.5253343667
 10
64.4310856136
 20
-230.5631519621
 10
64.4877386385
 20
-230.6027109886
 10
64.5444037383
 20
-230.6441486779
 10
64.6010814284
 20
-230.6876022618
 10
64.6393951391
 20
-230.718182342
 10
64.6776513796
 20
-230.7497400533
 10
64.7157866901
 20
-230.7822689555
 10
64.7537376103
 20
-230.8157626087
 10
64.7914406802
 20
-230.8502145731
 10
64.8288324399
 20
-230.8856184087
 10
64.8658494292
 20
-230.9219676755
 10
64.9024281882
 20
-230.9592559335
 10
64.9385052568
 20
-230.997476743
 10
64.9740171749
 20
-231.0366236638
 10
65.0089004826
 20
-231.076690256
 10
65.0430917197
 20
-231.1176700798
 10
65.0765274263
 20
-231.1595566951
 10
65.1091441423
 20
-231.202343662
 10
65.1408784077
 20
-231.2460245407
 10
65.1716667624
 20
-231.290592891
 10
65.2014457464
 20
-231.3360422732
 10
65.2301518996
 20
-231.3823662472
 10
65.2577217621
 20
-231.4295583731
 10
65.2839130201
 20
-231.4772459359
 10
65.3089008854
 20
-231.5256765349
 10
65.3326644745
 20
-231.5747438778
 10
65.3551829039
 20
-231.6243416726
 10
65.3764352899
 20
-231.674363627
 10
65.3964007492
 20
-231.7247034489
 10
65.4150583982
 20
-231.7752548461
 10
65.4323873533
 20
-231.8259115266
 10
65.4483667311
 20
-231.876567198
 10
65.4629756481
 20
-231.9271155683
 10
65.4761932206
 20
-231.9774503453
 10
65.4879985653
 20
-232.0274652369
 10
65.4983707985
 20
-232.0770539508
 10
65.5072890368
 20
-232.126110195
 10
65.5147323966
 20
-232.1745276772
 10
65.5206799945
 20
-232.2222001053
 10
65.5251109469
 20
-232.2690211872
 10
65.5280043702
 20
-232.3148846307
 10
65.5293393811
 20
-232.3596841436
  0
LINE
  5
292
100
AcDbEntity
  8
LIVELLO_1
100
AcDbLine
 62
7
  6
CONTINUOUS
 10
61.9858527106
 20
-227.750067467
 11
61.7375689602
 21
-227.6479925064
  0
LWPOLYLINE
  5
293
100
AcDbEntity
  8
IMPORT_IGES
100
AcDbPolyline
 62
7
  6
CONTINUOUS
 90
23
 70
0
 10
87.8600092737
 20
-263.8872871215
 10
87.7972544986
 20
-263.8532264689
 10
87.7341096049
 20
-263.8212929021
 10
87.6705745925
 20
-263.7914864211
 10
87.6064844393
 20
-263.7634707048
 10
87.5420041675
 20
-263.7375820744
 10
87.4776288433
 20
-263.7148294929
 10
87.4133804906
 20
-263.6955304758
 10
87.3492370854
 20
-263.6793675077
 10
87.2856276216
 20
-263.6663970054
 10
87.2222221242
 20
-263.6566359034
 10
87.1593505682
 20
-263.6500672673
 10
87.0984318735
 20
-263.646696711
 10
87.0401517952
 20
-263.6465134547
 10
86.9838245783
 20
-263.6495282783
 10
86.9288118771
 20
-263.6557791353
 10
86.8749597349
 20
-263.6654817486
 10
86.8224221083
 20
-263.6784203953
 10
86.7710225221
 20
-263.6939858604
 10
86.7205134663
 20
-263.7117131169
 10
86.6711424509
 20
-263.7320671919
 10
86.6234755305
 20
-263.7558339516
 10
86.6099232049
 20
-263.7634489986
  0
LWPOLYLINE
  5
294
100
AcDbEntity
  8
IMPORT_IGES
100
AcDbPolyline
 62
250
  6
CONTINUOUS
 90
46
 70
0
 10
81.8498666573
 20
-253.6703437131
 10
81.924496914
 20
-253.7116247336
 10
81.9995049306
 20
-253.7499033851
 10
82.0748907069
 20
-253.7851796676
 10
82.1507971408
 20
-253.8174838881
 10
82.2270813345
 20
-253.8467857396
 10
82.3033145948
 20
-253.8729943014
 10
82.3794849283
 20
-253.8961208189
 10
82.4556043283
 20
-253.9161540467
 10
82.5312800821
 20
-253.9329693283
 10
82.6069126609
 20
-253.9465531817
 10
82.6821015934
 20
-253.9569190888
 10
82.7552527527
 20
-253.9639828384
 10
82.8255495203
 20
-253.9676829188
 10
82.8938085149
 20
-253.9680808417
 10
82.9608854656
 20
-253.9652769306
 10
83.0271299154
 20
-253.9593796622
 10
83.0921923214
 20
-253.9502805598
 10
83.1558797845
 20
-253.9377545168
 10
83.2182491613
 20
-253.9218222544
 10
83.2792435952
 20
-253.9024630515
 10
83.3384996175
 20
-253.8793896385
 10
83.395994868
 20
-253.8525191698
 10
83.4517517069
 20
-253.8219344911
 10
83.5054737459
 20
-253.7875968697
 10
83.5571128309
 20
-253.7493649871
 10
83.606717116
 20
-253.7073801618
 10
83.6541346761
 20
-253.6620276171
 10
83.6993563552
 20
-253.6132813235
 10
83.7423913094
 20
-253.5611673106
 10
83.7831150817
 20
-253.5061488903
 10
83.8213561055
 20
-253.4486836589
 10
83.8572859476
 20
-253.3883140202
 10
83.8912948515
 20
-253.3241304973
 10
83.9238079769
 20
-253.255251137
 10
83.9544001643
 20
-253.1825578925
 10
83.9821861789
 20
-253.1077871477
 10
84.0068978997
 20
-253.0312909558
 10
84.0288034477
 20
-252.9527172635
 10
84.0478219513
 20
-252.8727462947
 10
84.0639413811
 20
-252.7913814357
 10
84.0771737666
 20
-252.7086193001
 10
84.0874743242
 20
-252.6251299523
 10
84.094828126
 20
-252.5411367471
 10
84.0992501
 20
-252.4564163297
 10
84.1007402462
 20
-252.3709687001
  0
LINE
  5
295
100
AcDbEntity
  8
IMPORT_IGES
100
AcDbLine
 62
250
  6
CONTINUOUS
 10
81.8498666573
 20
-253.6703437131
 11
20.9468250391
 21
-218.5056907772
  0
LINE
  5
296
100
AcDbEntity
  8
IMPORT_IGES
100
AcDbLine
 62
7
  6
CONTINUOUS
 10
21.6539318203
 20
-217.1313555242
 11
82.5569734385
 21
-252.2960084602
  0
LINE
  5
297
100
AcDbEntity
  8
LIVELLO_1
100
AcDbLine
 62
7
  6
CONTINUOUS
 10
61.2623042712
 20
-236.3446149175
 11
59.5338139484
 21
-235.3466062683
  0
LINE
  5
298
100
AcDbEntity
  8
LIVELLO_1
100
AcDbLine
 62
7
  6
CONTINUOUS
 10
56.4210932972
 20
-233.5493603758
 11
54.798134534
 21
-232.6122843264
  0
LINE
  5
299
100
AcDbEntity
  8
0
100
AcDbLine
 62
7
  6
CONTINUOUS
 10
54.4042435778
 20
-232.3848566249
 11
52.7994799111
 21
-231.4582861961
  0
LINE
  5
29A
100
AcDbEntity
  8
0
100
AcDbLine
 62
7
  6
CONTINUOUS
 10
50.510975209
 20
-230.1369322628
 11
50.2812785572
 21
-230.0043082948
  0
LINE
  5
29B
100
AcDbEntity
  8
0
100
AcDbLine
 62
7
  6
CONTINUOUS
 10
48.0019810123
 20
-228.6882704587
 11
46.432336074
 21
-227.7819771437
  0
LINE
  5
29C
100
AcDbEntity
  8
0
100
AcDbLine
 62
7
  6
CONTINUOUS
 10
40.6861930722
 20
-224.4642261905
 11
39.2413708803
 21
-223.6300039647
  0
LINE
  5
29D
100
AcDbEntity
  8
0
100
AcDbLine
 62
7
  6
CONTINUOUS
 10
43.8220631475
 20
-226.2748382703
 11
45.4631731635
 21
-227.2223946256
  0
LINE
  5
29E
100
AcDbEntity
  8
LIVELLO_1
100
AcDbLine
 62
7
  6
CONTINUOUS
 10
61.7375689602
 20
-236.6190267925
 11
63.3714009376
 21
-237.5623808995
  0
LINE
  5
29F
100
AcDbEntity
  8
LIVELLO_1
100
AcDbLine
 62
7
  6
CONTINUOUS
 10
65.8842960562
 20
-239.0132950471
 11
67.4620520217
 21
-239.9242715676
  0
LINE
  5
2A0
100
AcDbEntity
  8
LIVELLO_1
100
AcDbLine
 62
7
  6
CONTINUOUS
 10
59.107785629
 20
-233.2892238831
 11
56.8736469982
 21
-231.999260238
  0
LINE
  5
2A1
100
AcDbEntity
  8
LIVELLO_1
100
AcDbLine
 62
7
  6
CONTINUOUS
 10
57.2101905179
 20
-230.7905153352
 11
58.7806684846
 21
-231.6972896305
  0
LINE
  5
2A2
100
AcDbEntity
  8
LIVELLO_1
100
AcDbLine
 62
7
  6
CONTINUOUS
 10
63.3714009376
 20
-234.0097992802
 11
64.2508598303
 21
-234.5175878226
  0
LWPOLYLINE
  5
2A3
100
AcDbEntity
  8
IMPORT_IGES
100
AcDbPolyline
 62
7
  6
CONTINUOUS
 90
53
 70
0
 10
88.7085374112
 20
-267.4797089934
 10
88.639879494
 20
-267.4385202825
 10
88.5715071369
 20
-267.3944472344
 10
88.5034203401
 20
-267.3474898492
 10
88.4355087604
 20
-267.2975632621
 10
88.367882741
 20
-267.2447523378
 10
88.3008733105
 20
-267.1893116709
 10
88.2344775706
 20
-267.1312176552
 10
88.1686984197
 20
-267.0704938969
 10
88.1038755819
 20
-267.007465808
 10
88.0400664154
 20
-266.9421834035
 10
87.9772135619
 20
-266.8745966685
 10
87.9154846707
 20
-266.8048809701
 10
87.854824656
 20
-266.7329631962
 10
87.7952886036
 20
-266.6589164589
 10
87.73720942
 20
-266.5831354617
 10
87.6806113495
 20
-266.5056273937
 10
87.6254701479
 20
-266.4263850658
 10
87.5720459889
 20
-266.3457816143
 10
87.5203367955
 20
-266.2637858933
 10
87.4703446447
 20
-266.1804290487
 10
87.4223359416
 20
-266.096177654
 10
87.3763545514
 20
-266.0110924698
 10
87.3323566089
 20
-265.9251127356
 10
87.290476923
 20
-265.838522743
 10
87.2507118226
 20
-265.7513139266
 10
87.2130649788
 20
-265.6634948519
 10
87.1776822142
 20
-265.5753755065
 10
87.1445502945
 20
-265.486891281
 10
87.1136824539
 20
-265.3981067848
 10
87.0852642172
 20
-265.3095258344
 10
87.059322379
 20
-265.2211804935
 10
87.0358301448
 20
-265.1330386984
 10
87.0148926563
 20
-265.0455080749
 10
86.9965228111
 20
-264.9585931085
 10
86.9807077116
 20
-264.8722893136
 10
86.9675138071
 20
-264.7869908586
 10
86.9569536529
 20
-264.7027070833
 10
86.9490146937
 20
-264.619428648
 10
86.9437257116
 20
-264.5375217017
 10
86.9410978585
 20
-264.4569928542
 10
86.9411199826
 20
-264.3778354957
 10
86.9437874107
 20
-264.3003959459
 10
86.949110987
 20
-264.2246820449
 10
86.9570798674
 20
-264.1506859527
 10
86.9676568457
 20
-264.0787304684
 10
86.9808521621
 20
-264.0088247401
 10
86.9966555764
 20
-263.9409596198
 10
87.0149991621
 20
-263.8754304627
 10
87.0358925976
 20
-263.8122466824
 10
87.0593262045
 20
-263.7513988652
 10
87.0852030209
 20
-263.6931541259
 10
87.1085807918
 20
-263.6472582381
  0
LWPOLYLINE
  5
2A4
100
AcDbEntity
  8
IMPORT_IGES
100
AcDbPolyline
 62
250
  6
CONTINUOUS
 90
18
 70
0
 10
84.1007402462
 20
-252.3709687001
 10
84.0622928542
 20
-252.3477148757
 10
84.0256703721
 20
-252.3233973953
 10
83.9909659765
 20
-252.2980618566
 10
83.9581056355
 20
-252.271617978
 10
83.9273627678
 20
-252.2442470735
 10
83.8992433848
 20
-252.2164449056
 10
83.8740119072
 20
-252.1886428746
 10
83.8512854568
 20
-252.1606005719
 10
83.8306187329
 20
-252.1318028652
 10
83.8119472791
 20
-252.1020366117
 10
83.7955494507
 20
-252.0716055904
 10
83.7815823397
 20
-252.0407463805
 10
83.7701132048
 20
-252.0096204917
 10
83.7611252161
 20
-251.9781979283
 10
83.7546253652
 20
-251.9464346812
 10
83.7506586897
 20
-251.9143820104
 10
83.7492683836
 20
-251.8810391881
  0
LINE
  5
2A5
100
AcDbEntity
  8
IMPORT_IGES
100
AcDbLine
 62
7
  6
CONTINUOUS
 10
-161.5936919215
 20
-129.9052699176
 11
-161.5981187978
 21
-129.890599161
  0
LINE
  5
2A6
100
AcDbEntity
  8
IMPORT_IGES
100
AcDbLine
 62
7
  6
CONTINUOUS
 10
-161.5981187978
 20
-129.890599161
 11
-161.6156991373
 21
-129.8317658587
  0
LINE
  5
2A7
100
AcDbEntity
  8
IMPORT_IGES
100
AcDbLine
 62
7
  6
CONTINUOUS
 10
-161.6156991373
 20
-129.8317658587
 11
-161.6300592531
 21
-129.7828938192
  0
LINE
  5
2A8
100
AcDbEntity
  8
IMPORT_IGES
100
AcDbLine
 62
7
  6
CONTINUOUS
 10
-161.6300592531
 20
-129.7828938192
 11
-161.6416820741
 21
-129.7426627186
  0
LINE
  5
2A9
100
AcDbEntity
  8
IMPORT_IGES
100
AcDbLine
 62
7
  6
CONTINUOUS
 10
-161.6416820741
 20
-129.7426627186
 11
-161.6528398024
 21
-129.7033449994
  0
LINE
  5
2AA
100
AcDbEntity
  8
IMPORT_IGES
100
AcDbLine
 62
7
  6
CONTINUOUS
 10
-161.6528398024
 20
-129.7033449994
 11
-161.6628281753
 21
-129.6674300849
  0
LINE
  5
2AB
100
AcDbEntity
  8
IMPORT_IGES
100
AcDbLine
 62
7
  6
CONTINUOUS
 10
-161.6628281753
 20
-129.6674300849
 11
-161.6709854511
 21
-129.6375019267
  0
LINE
  5
2AC
100
AcDbEntity
  8
IMPORT_IGES
100
AcDbLine
 62
7
  6
CONTINUOUS
 10
-161.6709854511
 20
-129.6375019267
 11
-161.6767520224
 21
-129.6159696097
  0
LINE
  5
2AD
100
AcDbEntity
  8
IMPORT_IGES
100
AcDbLine
 62
7
  6
CONTINUOUS
 10
-161.6767520224
 20
-129.6159696097
 11
-161.6827732354
 21
-129.5930841736
  0
LINE
  5
2AE
100
AcDbEntity
  8
IMPORT_IGES
100
AcDbLine
 62
7
  6
CONTINUOUS
 10
-161.6827732354
 20
-129.5930841736
 11
-161.6890494196
 21
-129.5687321694
  0
LINE
  5
2AF
100
AcDbEntity
  8
IMPORT_IGES
100
AcDbLine
 62
7
  6
CONTINUOUS
 10
-161.6890494196
 20
-129.5687321694
 11
-161.6955781534
 21
-129.5427995292
  0
LWPOLYLINE
  5
2B0
100
AcDbEntity
  8
IMPORT_IGES
100
AcDbPolyline
 62
7
  6
CONTINUOUS
 90
3
 70
0
 10
-161.6955781534
 20
-129.5427995292
 10
-161.7023202736
 20
-129.5152089449
 10
-161.7057632147
 20
-129.5007597405
  0
LWPOLYLINE
  5
2B1
100
AcDbEntity
  8
IMPORT_IGES
100
AcDbPolyline
 62
7
  6
CONTINUOUS
 90
20
 70
0
 10
-161.7057632147
 20
-129.5007597405
 10
-161.7127589642
 20
-129.4704748371
 10
-161.7163083525
 20
-129.4545664889
 10
-161.7198639416
 20
-129.4381540932
 10
-161.7234303999
 20
-129.421218971
 10
-161.7269935215
 20
-129.4036860132
 10
-161.7305090893
 20
-129.3856265931
 10
-161.7339333287
 20
-129.3672418281
 10
-161.7372553491
 20
-129.3484417353
 10
-161.7404234384
 20
-129.3293143266
 10
-161.7433507575
 20
-129.3103296364
 10
-161.7460150526
 20
-129.2915737361
 10
-161.7484108805
 20
-129.2729629004
 10
-161.7505032355
 20
-129.2547145145
 10
-161.7522815956
 20
-129.2368920869
 10
-161.7537479565
 20
-129.2194361913
 10
-161.7548964463
 20
-129.2023804486
 10
-161.7557222915
 20
-129.185737545
 10
-161.7562211513
 20
-129.1694992111
 10
-161.7563884398
 20
-129.153667749
  0
LINE
  5
2B2
100
AcDbEntity
  8
IMPORT_IGES
100
AcDbLine
 62
7
  6
CONTINUOUS
 10
-161.7563884398
 20
248.2131996646
 11
-161.7563884398
 21
-129.1535095425
  0
LINE
  5
2B3
100
AcDbEntity
  8
IMPORT_IGES
100
AcDbLine
 62
250
  6
CONTINUOUS
 10
-161.1120233584
 20
-129.6464048727
 11
-161.1120233584
 21
246.9096867841
  0
LWPOLYLINE
  5
2B4
100
AcDbEntity
  8
IMPORT_IGES
100
AcDbPolyline
 62
7
  6
CONTINUOUS
 90
22
 70
0
 10
-161.7563884398
 20
248.2133047418
 10
-161.7562204173
 20
248.2291900445
 10
-161.7557148568
 20
248.2455927133
 10
-161.7548695341
 20
248.2625103098
 10
-161.7536808314
 20
248.2799603757
 10
-161.7521473395
 20
248.297920372
 10
-161.7502734813
 20
248.316327796
 10
-161.7480603078
 20
248.3351804059
 10
-161.745509236
 20
248.3544756124
 10
-161.7426320514
 20
248.3741507085
 10
-161.7394335013
 20
248.3942073835
 10
-161.7359185157
 20
248.4146397362
 10
-161.7321061607
 20
248.4353742232
 10
-161.7280034866
 20
248.4564190604
 10
-161.7236198827
 20
248.4777628511
 10
-161.718985609
 20
248.4993034724
 10
-161.7141123265
 20
248.521047924
 10
-161.7090128341
 20
248.542987624
 10
-161.703727534
 20
248.5649982319
 10
-161.6982732436
 20
248.5870829497
 10
-161.6926651364
 20
248.6092390017
 10
-161.6869489368
 20
248.6313343873
  0
LWPOLYLINE
  5
2B5
100
AcDbEntity
  8
IMPORT_IGES
100
AcDbPolyline
 62
250
  6
CONTINUOUS
 90
46
 70
0
 10
20.9468250391
 20
-200.244163922
 10
20.8721947823
 20
-200.2028829016
 10
20.7971867658
 20
-200.1646042501
 10
20.7218009894
 20
-200.1293279675
 10
20.6458945555
 20
-200.0970237471
 10
20.5696103618
 20
-200.0677218956
 10
20.4933771015
 20
-200.0415133338
 10
20.4172067681
 20
-200.0183868163
 10
20.341087368
 20
-199.9983535885
 10
20.2654116142
 20
-199.9815383069
 10
20.1897790355
 20
-199.9679544535
 10
20.114590103
 20
-199.9575885463
 10
20.0414389436
 20
-199.9505247968
 10
19.971142176
 20
-199.9468247163
 10
19.9028831815
 20
-199.9464267935
 10
19.8358062307
 20
-199.9492307046
 10
19.769561781
 20
-199.955127973
 10
19.7044993749
 20
-199.9642270754
 10
19.6408119118
 20
-199.9767531183
 10
19.578442535
 20
-199.9926853808
 10
19.5174481011
 20
-200.0120445837
 10
19.4581920788
 20
-200.0351179967
 10
19.4006968283
 20
-200.0619884654
 10
19.3449399895
 20
-200.0925731441
 10
19.2912179504
 20
-200.1269107655
 10
19.2395788655
 20
-200.1651426481
 10
19.1899745804
 20
-200.2071274735
 10
19.1425570202
 20
-200.2524800181
 10
19.0973353411
 20
-200.3012263117
 10
19.054300387
 20
-200.3533403247
 10
19.0135766146
 20
-200.4083587449
 10
18.9753355908
 20
-200.4658239763
 10
18.9394057488
 20
-200.5261936151
 10
18.9053968448
 20
-200.5903771379
 10
18.8728837194
 20
-200.6592564983
 10
18.842291532
 20
-200.7319497427
 10
18.8145055174
 20
-200.8067204875
 10
18.7897937967
 20
-200.8832166794
 10
18.7678882486
 20
-200.9617903717
 10
18.748869745
 20
-201.0417613406
 10
18.7327503152
 20
-201.1231261996
 10
18.7195179297
 20
-201.2058883352
 10
18.7092173722
 20
-201.289377683
 10
18.7018635703
 20
-201.3733708881
 10
18.6974415963
 20
-201.4580913055
 10
18.6959514502
 20
-201.5435389351
  0
LINE
  5
2B6
100
AcDbEntity
  8
LIVELLO_1
100
AcDbLine
 62
7
  6
CONTINUOUS
 10
64.2551553858
 20
-233.0339321334
 11
63.3174733022
 21
-232.4925262502
  0
LINE
  5
2B7
100
AcDbEntity
  8
0
100
AcDbLine
 62
7
  6
CONTINUOUS
 10
45.4631731635
 20
-218.1445930486
 11
43.8220631475
 21
-217.1970366933
  0
LINE
  5
2B8
100
AcDbEntity
  8
0
100
AcDbLine
 62
7
  6
CONTINUOUS
 10
36.7486426614
 20
-213.1129323554
 11
38.5314990556
 21
-214.142331293
  0
LINE
  5
2B9
100
AcDbEntity
  8
0
100
AcDbLine
 62
7
  6
CONTINUOUS
 10
41.5739822501
 20
-215.8990229582
 11
43.213206991
 21
-216.8454907793
  0
LINE
  5
2BA
100
AcDbEntity
  8
0
100
AcDbLine
 62
7
  6
CONTINUOUS
 10
47.1417694626
 20
-219.113793514
 11
48.7816518577
 21
-220.0606410564
  0
LINE
  5
2BB
100
AcDbEntity
  8
0
100
AcDbLine
 62
7
  6
CONTINUOUS
 10
52.0455014188
 20
-221.9451468873
 11
53.6690739924
 21
-222.8825773432
  0
LINE
  5
2BC
100
AcDbEntity
  8
LIVELLO_1
100
AcDbLine
 62
7
  6
CONTINUOUS
 10
57.2641181532
 20
-224.9583107851
 11
58.8513443775
 21
-225.8747553144
  0
LINE
  5
2BD
100
AcDbEntity
  8
IMPORT_IGES
100
AcDbLine
 62
7
  6
CONTINUOUS
 10
21.1953241843
 20
-200.7934481554
 11
82.0983658025
 21
-235.9581010914
  0
LINE
  5
2BE
100
AcDbEntity
  8
IMPORT_IGES
100
AcDbLine
 62
250
  6
CONTINUOUS
 10
20.9468250391
 20
-200.244163922
 11
81.8498666573
 21
-235.408816858
  0
LWPOLYLINE
  5
2BF
100
AcDbEntity
  8
LIVELLO_1
100
AcDbPolyline
 62
7
  6
CONTINUOUS
 90
48
 70
0
 10
64.2508598303
 20
-234.5175878226
 10
64.2749950716
 20
-234.5318170937
 10
64.2991303057
 20
-234.5466688918
 10
64.3232459605
 20
-234.5621840573
 10
64.3473224641
 20
-234.5784034306
 10
64.3713402446
 20
-234.5953678522
 10
64.3952797302
 20
-234.6131181625
 10
64.4191213488
 20
-234.631695202
 10
64.4439277181
 20
-234.6520364553
 10
64.4685920759
 20
-234.6732945786
 10
64.4931008255
 20
-234.6954377912
 10
64.5174403697
 20
-234.718434312
 10
64.5415971118
 20
-234.7422523603
 10
64.5655574546
 20
-234.7668601551
 10
64.5893078013
 20
-234.7922259156
 10
64.612834555
 20
-234.8183178608
 10
64.6361241185
 20
-234.8451042098
 10
64.6591628951
 20
-234.8725531818
 10
64.6819372877
 20
-234.9006329959
 10
64.7044336994
 20
-234.9293118711
 10
64.7266385333
 20
-234.9585580267
 10
64.7485381923
 20
-234.9883396816
 10
64.7701190795
 20
-235.0186250551
 10
64.791367598
 20
-235.0493823661
 10
64.8122701508
 20
-235.0805798339
 10
64.8328131409
 20
-235.1121856775
 10
64.8529829715
 20
-235.1441681161
 10
64.8727660455
 20
-235.1764953687
 10
64.892148766
 20
-235.2091356544
 10
64.9111175361
 20
-235.2420571924
 10
64.9296587587
 20
-235.2752282018
 10
64.9477588369
 20
-235.3086169016
 10
64.9654041739
 20
-235.3421915111
 10
64.9825811725
 20
-235.3759202492
 10
64.9992762359
 20
-235.4097713352
 10
65.0154757671
 20
-235.443712988
 10
65.0311661692
 20
-235.4777134269
 10
65.0463338451
 20
-235.5117408709
 10
65.060965198
 20
-235.5457635392
 10
65.0750466309
 20
-235.5797496508
 10
65.0885645468
 20
-235.6136674248
 10
65.1015053488
 20
-235.6474850804
 10
65.1138554399
 20
-235.6811708367
 10
65.1256012232
 20
-235.7146929127
 10
65.1367291017
 20
-235.7480195277
 10
65.1472254785
 20
-235.7811189006
 10
65.1570767566
 20
-235.8139592507
 10
65.166269339
 20
-235.846508797
  0
LWPOLYLINE
  5
2C0
100
AcDbEntity
  8
IMPORT_IGES
100
AcDbPolyline
 62
7
  6
CONTINUOUS
 90
49
 70
0
 10
82.0983658026
 20
-235.9581010914
 10
82.1409461914
 20
-235.9834536891
 10
82.1848715913
 20
-236.0111867296
 10
82.2300386516
 20
-236.0413399007
 10
82.2763449013
 20
-236.0739474753
 10
82.3236713866
 20
-236.1090256335
 10
82.3718906619
 20
-236.1465760455
 10
82.4209129918
 20
-236.1866230843
 10
82.4706007598
 20
-236.2291464093
 10
82.5207620741
 20
-236.2740658801
 10
82.5712534056
 20
-236.3213285447
 10
82.6219875016
 20
-236.3709260201
 10
82.6728634104
 20
-236.4228333938
 10
82.7237954096
 20
-236.4770378726
 10
82.7746380567
 20
-236.5334574924
 10
82.8252079017
 20
-236.5919528054
 10
82.8753958866
 20
-236.652455023
 10
82.9250886861
 20
-236.7148827216
 10
82.9741073215
 20
-236.7790582544
 10
83.0223352828
 20
-236.8448670423
 10
83.0696859153
 20
-236.9122261517
 10
83.1160360608
 20
-236.9809918172
 10
83.1613019534
 20
-237.0510668641
 10
83.205383915
 20
-237.1223210751
 10
83.2481469078
 20
-237.1945507615
 10
83.2895123271
 20
-237.2676285488
 10
83.3294069798
 20
-237.3414265132
 10
83.3677196051
 20
-237.4157302684
 10
83.4043848724
 20
-237.4903928903
 10
83.4393540989
 20
-237.565289451
 10
83.4725558264
 20
-237.6402320358
 10
83.5039571759
 20
-237.7151022428
 10
83.5335132241
 20
-237.789740956
 10
83.5611525334
 20
-237.8638951156
 10
83.5868570938
 20
-237.9374220699
 10
83.6106186349
 20
-238.0101912033
 10
83.6324031619
 20
-238.0819666409
 10
83.6522103725
 20
-238.1525823167
 10
83.670067607
 20
-238.221948905
 10
83.6859969628
 20
-238.2899444905
 10
83.7000356867
 20
-238.3564962465
 10
83.7122057751
 20
-238.4214381212
 10
83.7225254607
 20
-238.4845110495
 10
83.7310495058
 20
-238.545586127
 10
83.7378470932
 20
-238.6045950486
 10
83.7429831167
 20
-238.6613776563
 10
83.7465380101
 20
-238.7158271548
 10
83.7486019941
 20
-238.7678942025
 10
83.7492683835
 20
-238.8175147595
  0
LWPOLYLINE
  5
2C1
100
AcDbEntity
  8
IMPORT_IGES
100
AcDbPolyline
 62
250
  6
CONTINUOUS
 90
18
 70
0
 10
84.1007402462
 20
-239.3074442714
 10
84.0622928542
 20
-239.284190447
 10
84.0256703721
 20
-239.2598729666
 10
83.9909659765
 20
-239.2345374279
 10
83.9581056355
 20
-239.2080935493
 10
83.9273627678
 20
-239.1807226448
 10
83.8992433848
 20
-239.1529204769
 10
83.8740119072
 20
-239.125118446
 10
83.8512854568
 20
-239.0970761432
 10
83.8306187329
 20
-239.0682784365
 10
83.8119472791
 20
-239.038512183
 10
83.7955494507
 20
-239.0080811617
 10
83.7815823397
 20
-238.9772219518
 10
83.7701132048
 20
-238.9460960631
 10
83.7611252161
 20
-238.9146734996
 10
83.7546253652
 20
-238.8829102526
 10
83.7506586897
 20
-238.8508575817
 10
83.7492683836
 20
-238.8175147595
  0
LWPOLYLINE
  5
2C2
100
AcDbEntity
  8
IMPORT_IGES
100
AcDbPolyline
 62
7
  6
CONTINUOUS
 90
5
 70
0
 10
-161.5918060583
 20
-129.9219722585
 10
-161.5913130738
 20
-129.9189458646
 10
-161.5911432822
 20
-129.9160166038
 10
-161.5912971635
 20
-129.9131845898
 10
-161.5918748007
 20
-129.910503919
  0
LINE
  5
2C3
100
AcDbEntity
  8
IMPORT_IGES
100
AcDbLine
 62
7
  6
CONTINUOUS
 10
-35.8704522365
 20
234.5771560209
 11
-35.7958760049
 21
234.738169318
  0
LINE
  5
2C4
100
AcDbEntity
  8
IMPORT_IGES
100
AcDbLine
 62
7
  6
CONTINUOUS
 10
160.8170486116
 20
-244.9519437577
 11
160.1099418304
 21
-244.5436691644
  0
LINE
  5
2C5
100
AcDbEntity
  8
IMPORT_IGES
100
AcDbLine
 62
7
  6
CONTINUOUS
 10
161.1706020022
 20
-244.8294534887
 11
161.0998981575
 21
-244.7886299749
  0
LINE
  5
2C6
100
AcDbEntity
  8
IMPORT_IGES
100
AcDbLine
 62
250
  6
CONTINUOUS
 10
160.0445320418
 20
-244.1792748065
 11
160.1099418304
 21
-244.2170415987
  0
LWPOLYLINE
  5
2C7
100
AcDbEntity
  8
IMPORT_IGES
100
AcDbPolyline
 62
250
  6
CONTINUOUS
 90
78
 70
0
 10
-64.0080777726
 20
253.6640134346
 10
-64.0459022988
 20
253.5064920435
 10
-64.0912530073
 20
253.3495207051
 10
-64.1440199213
 20
253.1934622881
 10
-64.2041882493
 20
253.0383677666
 10
-64.2717727826
 20
252.8841861665
 10
-64.3467079186
 20
252.7311274335
 10
-64.4290591271
 20
252.5790990684
 10
-64.5187609381
 20
252.4281935704
 10
-64.6155513387
 20
252.2788983834
 10
-64.7194325277
 20
252.1312618963
 10
-64.8304023062
 20
251.9852357202
 10
-64.9481920647
 20
251.8411621319
 10
-65.0728155623
 20
251.6990493328
 10
-65.2042590399
 20
251.5588891215
 10
-65.3422126104
 20
251.4209991716
 10
-65.4866905817
 20
251.2853852736
 10
-65.637678646
 20
251.1520416369
 10
-65.7948239931
 20
251.0212685635
 10
-65.9581382448
 20
250.8930733367
 10
-66.1276097793
 20
250.7674486733
 10
-66.3028509211
 20
250.6446730257
 10
-66.4838731923
 20
250.5247529627
 10
-66.6706650707
 20
250.4076819155
 10
-66.8628043143
 20
250.2937186306
 10
-67.0603020169
 20
250.182869765
 10
-67.2631470846
 20
250.0751286617
 10
-67.4708839938
 20
249.9707340963
 10
-67.6835230213
 20
249.8696931472
 10
-67.9010538904
 20
249.771998736
 10
-68.1229902471
 20
249.6778684032
 10
-68.3493416279
 20
249.5873096022
 10
-68.5800984964
 20
249.5003148795
 10
-68.8147458892
 20
249.4170794156
 10
-69.0532922303
 20
249.3376111361
 10
-69.2957290958
 20
249.2619021155
 10
-69.5415162505
 20
249.1901237579
 10
-69.79066714
 20
249.1222833062
 10
-70.0431683187
 20
249.0583735175
 10
-70.2984392146
 20
248.9985440682
 10
-70.5565615368
 20
248.9427956658
 10
-70.8174535761
 20
248.8911276028
 10
-71.0802896342
 20
248.843687433
 10
-71.3449067659
 20
248.8005120387
 10
-71.6114679162
 20
248.7615645376
 10
-71.8796362213
 20
248.7268818371
 10
-72.1494997693
 20
248.6964538593
 10
-72.420970472
 20
248.6702906821
 10
-72.6934472008
 20
248.6484594467
 10
-72.9669403671
 20
248.6309693513
 10
-73.2414395594
 20
248.6178111978
 10
-73.5163124151
 20
248.6090245335
 10
-73.7915782613
 20
248.6046212187
 10
-74.0672177708
 20
248.6045893931
 10
-74.3425405997
 20
248.6089330232
 10
-74.6175191228
 20
248.6176629108
 10
-74.8921809653
 20
248.630768254
 10
-75.1659186591
 20
248.6482206137
 10
-75.4387044393
 20
248.6700243344
 10
-75.7105660708
 20
248.6961750714
 10
-75.9809793805
 20
248.7266313521
 10
-76.2500180648
 20
248.7614135683
 10
-76.5176084272
 20
248.800501328
 10
-76.7830052049
 20
248.8437919825
 10
-77.0461552426
 20
248.8912911677
 10
-77.3071116955
 20
248.9429932477
 10
-77.5652887665
 20
248.9987786652
 10
-77.8207246328
 20
249.0586715284
 10
-78.0733811171
 20
249.1226477293
 10
-78.3225578904
 20
249.1905153868
 10
-78.5681169338
 20
249.2622413033
 10
-78.8101962663
 20
249.3378586765
 10
-79.0485096156
 20
249.4172752184
 10
-79.2831567639
 20
249.5005278498
 10
-79.5140379291
 20
249.58757965
 10
-79.7405674919
 20
249.678227569
 10
-79.9627272706
 20
249.7724798244
 10
-80.1805354469
 20
249.8703281986
  0
LINE
  5
2C8
100
AcDbEntity
  8
IMPORT_IGES
100
AcDbLine
 62
250
  6
CONTINUOUS
 10
-35.6702089984
 20
235.0640759369
 11
-35.7111983108
 21
234.9469444028
  0
LWPOLYLINE
  5
2C9
100
AcDbEntity
  8
IMPORT_IGES
100
AcDbPolyline
 62
250
  6
CONTINUOUS
 90
3
 70
0
 10
-35.7111983108
 20
234.9469444028
 10
-35.7811398443
 20
234.7676370384
 10
-35.8065718749
 20
234.7097366665
  0
LWPOLYLINE
  5
2CA
100
AcDbEntity
  8
IMPORT_IGES
100
AcDbPolyline
 62
7
  6
CONTINUOUS
 90
3
 70
0
 10
-35.7958760049
 20
234.738169318
 10
-35.7290792975
 20
234.9005128958
 10
-35.6702089984
 20
235.0640759369
  0
LWPOLYLINE
  5
2CB
100
AcDbEntity
  8
LIVELLO_1
100
AcDbPolyline
 62
7
  6
CONTINUOUS
 90
32
 70
0
 10
65.7862179121
 20
-230.0815652952
 10
65.7031251483
 20
-230.0002698125
 10
65.619279515
 20
-229.9210337161
 10
65.5347999771
 20
-229.8437370976
 10
65.4498054996
 20
-229.7682600486
 10
65.3644150473
 20
-229.6944826606
 10
65.2424807432
 20
-229.5922966279
 10
65.120019885
 20
-229.4932118328
 10
64.9970661426
 20
-229.397134625
 10
64.8736531859
 20
-229.3039713546
 10
64.7498146846
 20
-229.2136283712
 10
64.6255843088
 20
-229.1260120248
 10
64.5009957281
 20
-229.0410286652
 10
64.3760826126
 20
-228.9585846423
 10
64.250878632
 20
-228.8785863059
 10
64.1254174563
 20
-228.8009400058
 10
63.9997327553
 20
-228.7255520919
 10
63.8738581989
 20
-228.652328914
 10
63.7478274569
 20
-228.581176822
 10
63.6216741992
 20
-228.5120021658
 10
63.4954320957
 20
-228.4447112951
 10
63.3691348163
 20
-228.3792105599
 10
63.2428160307
 20
-228.3154063099
 10
63.1165094089
 20
-228.2532048951
 10
62.9902486208
 20
-228.1925126652
 10
62.8640673361
 20
-228.1332359702
 10
62.7379992249
 20
-228.0752811598
 10
62.6120779568
 20
-228.0185545839
 10
62.4863372019
 20
-227.9629625924
 10
62.36081063
 20
-227.9084115351
 10
62.2355319109
 20
-227.8548077619
 10
61.9858527106
 20
-227.750067467
  0
LINE
  5
2CC
100
AcDbEntity
  8
IMPORT_IGES
100
AcDbLine
 62
7
  6
CONTINUOUS
 10
101.5765802925
 20
-281.8292396955
 11
101.6657104172
 21
-281.9250866774
  0
LWPOLYLINE
  5
2CD
100
AcDbEntity
  8
IMPORT_IGES
100
AcDbPolyline
 62
7
  6
CONTINUOUS
 90
36
 70
0
 10
-35.7183576743
 20
234.9432352
 10
-35.6739992441
 20
235.1234080109
 10
-35.6380513249
 20
235.3041103184
 10
-35.6105338268
 20
235.4853568103
 10
-35.5914268396
 20
235.6671327987
 10
-35.5807830606
 20
235.8490040734
 10
-35.5786292248
 20
236.0309737121
 10
-35.5849385973
 20
236.2130386371
 10
-35.5996836699
 20
236.3947554047
 10
-35.6228820154
 20
236.5760969738
 10
-35.654516061
 20
236.7570903855
 10
-35.6945055807
 20
236.9373733196
 10
-35.742848253
 20
237.1169161981
 10
-35.7995463994
 20
237.295748599
 10
-35.8645267573
 20
237.4735969363
 10
-35.9378331866
 20
237.6505296672
 10
-36.0194218274
 20
237.8264783344
 10
-36.1090878383
 20
238.0009639804
 10
-36.206839098
 20
238.1739486537
 10
-36.3126677277
 20
238.3454703058
 10
-36.4263452493
 20
238.5151638324
 10
-36.5479218197
 20
238.6830581006
 10
-36.6773472819
 20
238.8491242434
 10
-36.8142426869
 20
239.0129105555
 10
-36.9585400488
 20
239.1743246906
 10
-37.1103073534
 20
239.3334589951
 10
-37.2693696097
 20
239.4901388032
 10
-37.4357928179
 20
239.6444242895
 10
-37.6095109777
 20
239.7962552794
 10
-37.7901510966
 20
239.9452765827
 10
-37.9777304301
 20
240.0914802626
 10
-38.1722317227
 20
240.234874256
 10
-38.3732302147
 20
240.3751271831
 10
-38.5805843196
 20
240.5121285838
 10
-38.794435624
 20
240.6459889181
 10
-39.0147841279
 20
240.776708186
  0
LINE
  5
2CE
100
AcDbEntity
  8
IMPORT_IGES
100
AcDbLine
 62
7
  6
CONTINUOUS
 10
-35.735470631
 20
234.8849793166
 11
-35.7183576743
 21
234.9432352
  0
LWPOLYLINE
  5
2CF
100
AcDbEntity
  8
IMPORT_IGES
100
AcDbPolyline
 62
7
  6
CONTINUOUS
 90
4
 70
0
 10
101.3221084947
 20
-281.5235450386
 10
101.4047899221
 20
-281.6284602031
 10
101.4896067941
 20
-281.7303642041
 10
101.5765802925
 20
-281.8292396955
  0
LINE
  5
2D0
100
AcDbEntity
  8
IMPORT_IGES
100
AcDbLine
 62
7
  6
CONTINUOUS
 10
103.3054065249
 20
-281.905551786
 11
103.4007734416
 21
-282.0278204543
  0
LINE
  5
2D1
100
AcDbEntity
  8
IMPORT_IGES
100
AcDbLine
 62
7
  6
CONTINUOUS
 10
101.2415836937
 20
-281.4156013645
 11
101.3228481682
 21
-281.5252632429
  0
LWPOLYLINE
  5
2D2
100
AcDbEntity
  8
IMPORT_IGES
100
AcDbPolyline
 62
7
  6
CONTINUOUS
 90
28
 70
0
 10
-82.9313425086
 20
253.5614538046
 10
-82.9271849849
 20
253.4221524452
 10
-82.9149023231
 20
253.2844668371
 10
-82.8947732075
 20
253.1483935721
 10
-82.8670608987
 20
253.013905475
 10
-82.8320396435
 20
252.8810709371
 10
-82.7900259852
 20
252.7500697179
 10
-82.741432079
 20
252.6212519365
 10
-82.6864882371
 20
252.4944374332
 10
-82.6251644992
 20
252.3690523847
 10
-82.557682953
 20
252.2452147983
 10
-82.4842767347
 20
252.123044248
 10
-82.4047287031
 20
252.0019879012
 10
-82.3191363838
 20
251.8821080872
 10
-82.2277063883
 20
251.7636079265
 10
-82.1302139639
 20
251.6461543977
 10
-82.0267159161
 20
251.5298268763
 10
-81.9173810784
 20
251.4148201421
 10
-81.8020399866
 20
251.3009785465
 10
-81.6807425375
 20
251.1883992763
 10
-81.553633363
 20
251.0772582349
 10
-81.420616508
 20
250.9675191335
 10
-81.2817507861
 20
250.8592895719
 10
-81.1371703924
 20
250.7527278526
 10
-80.9868536151
 20
250.6478722576
 10
-80.8308545721
 20
250.5448202882
 10
-80.6693258357
 20
250.4437282149
 10
-80.5023861604
 20
250.3447193258
  0
LWPOLYLINE
  5
2D3
100
AcDbEntity
  8
IMPORT_IGES
100
AcDbPolyline
 62
7
  6
CONTINUOUS
 90
37
 70
0
 10
152.1057276773
 20
-81.7041152708
 10
151.9291291235
 20
-81.6882014767
 10
151.7501668956
 20
-81.6796084098
 10
151.5689599787
 20
-81.6782298945
 10
151.3854616915
 20
-81.6839731588
 10
151.1999517628
 20
-81.6967460365
 10
151.0125561989
 20
-81.716455185
 10
150.8229651446
 20
-81.7430785824
 10
150.6313648375
 20
-81.7765602959
 10
150.437948058
 20
-81.8168344484
 10
150.242368266
 20
-81.8639648198
 10
150.0446372261
 20
-81.9179715368
 10
149.8450933484
 20
-81.9787824027
 10
149.643851919
 20
-82.0463750941
 10
149.4412291616
 20
-82.1206502691
 10
149.2372657587
 20
-82.2015975008
 10
149.0316425152
 20
-82.2893742106
 10
148.8243285276
 20
-82.3840531873
 10
148.6156904422
 20
-82.4855245272
 10
148.4059896277
 20
-82.5937038294
 10
148.1954478361
 20
-82.708511294
 10
147.9841866106
 20
-82.8299134198
 10
147.7723101631
 20
-82.957886507
 10
147.5600237533
 20
-83.0923425358
 10
147.3474621549
 20
-83.2332305698
 10
147.1346168226
 20
-83.3805986791
 10
146.9215136117
 20
-83.5344843784
 10
146.7084663547
 20
-83.6947153229
 10
146.4958917194
 20
-83.8610136619
 10
146.2841076654
 20
-84.0331468127
 10
146.0731263838
 20
-84.2111197825
 10
145.8629009217
 20
-84.3950027534
 10
145.6535004809
 20
-84.5847792654
 10
145.4451876561
 20
-84.7802545988
 10
145.2382026815
 20
-84.9812374383
 10
145.0327072833
 20
-85.1876002582
 10
144.8765487439
 20
-85.3490805612
  0
LINE
  5
2D4
100
AcDbEntity
  8
IMPORT_IGES
100
AcDbLine
 62
250
  6
CONTINUOUS
 10
152.0757918027
 20
-81.6991599752
 11
152.1381533838
 21
-81.7060253531
  0
LWPOLYLINE
  5
2D5
100
AcDbEntity
  8
IMPORT_IGES
100
AcDbPolyline
 62
7
  6
CONTINUOUS
 90
8
 70
0
 10
103.3679218355
 20
-281.9674827324
 10
103.3745015566
 20
-281.9767236163
 10
103.3800270765
 20
-281.9852221302
 10
103.3850504726
 20
-281.9937301329
 10
103.3896299203
 20
-282.0022430098
 10
103.393785562
 20
-282.0107602192
 10
103.3974997112
 20
-282.0192855654
 10
103.4007734416
 20
-282.0278204543
  0
LINE
  5
2D6
100
AcDbEntity
  8
IMPORT_IGES
100
AcDbLine
 62
7
  6
CONTINUOUS
 10
101.1632790642
 20
-281.3045771433
 11
101.2424248432
 21
-281.4172949824
  0
LINE
  5
2D7
100
AcDbEntity
  8
IMPORT_IGES
100
AcDbLine
 62
7
  6
CONTINUOUS
 10
101.0872157878
 20
-281.1904550293
 11
101.1640945636
 21
-281.3060905905
  0
LINE
  5
2D8
100
AcDbEntity
  8
IMPORT_IGES
100
AcDbLine
 62
7
  6
CONTINUOUS
 10
-161.570526305
 20
247.9521255594
 11
-161.5876195514
 21
248.0092862447
  0
LWPOLYLINE
  5
2D9
100
AcDbEntity
  8
IMPORT_IGES
100
AcDbPolyline
 62
7
  6
CONTINUOUS
 90
29
 70
0
 10
-64.931342509
 20
253.5614038359
 10
-64.9333112662
 20
253.6701302759
 10
-64.9422421209
 20
253.8170229968
 10
-64.9583720483
 20
253.9638300259
 10
-64.981665246
 20
254.1102062173
 10
-65.0121301956
 20
254.2561357069
 10
-65.0497584156
 20
254.4016343589
 10
-65.094488659
 20
254.5464046207
 10
-65.1463548523
 20
254.6904878789
 10
-65.205323069
 20
254.833842747
 10
-65.2712302837
 20
254.9760475127
 10
-65.3440870616
 20
255.1170717193
 10
-65.4238828375
 20
255.2569458236
 10
-65.5104228901
 20
255.3953394836
 10
-65.6037480154
 20
255.5322744039
 10
-65.7038174175
 20
255.6677288799
 10
-65.8103139868
 20
255.8013074561
 10
-65.9231834513
 20
255.9329325126
 10
-66.0424800831
 20
256.0626816693
 10
-66.1680495889
 20
256.190392331
 10
-66.299953645
 20
256.316120682
 10
-66.4381305752
 20
256.4398105379
 10
-66.5822410578
 20
256.5611307505
 10
-66.7322997053
 20
256.680071014
 10
-66.8882919053
 20
256.7966416341
 10
-67.0498344985
 20
256.9105423804
 10
-67.2167997651
 20
257.0216731757
 10
-67.3893154249
 20
257.1301340971
 10
-67.5673814779
 20
257.2359251445
  0
LWPOLYLINE
  5
2DA
100
AcDbEntity
  8
IMPORT_IGES
100
AcDbPolyline
 62
250
  6
CONTINUOUS
 90
3
 70
0
 10
152.1381533838
 20
-81.7060253531
 10
152.328398879
 20
-81.7350905627
 10
152.4508556401
 20
-81.7582551736
  0
LWPOLYLINE
  5
2DB
100
AcDbEntity
  8
IMPORT_IGES
100
AcDbPolyline
 62
7
  6
CONTINUOUS
 90
3
 70
0
 10
152.4508556401
 20
-81.7582551736
 10
152.2796951445
 20
-81.7274381969
 10
152.1057276773
 20
-81.7041152708
  0
LWPOLYLINE
  5
2DC
100
AcDbEntity
  8
IMPORT_IGES
100
AcDbPolyline
 62
250
  6
CONTINUOUS
 90
38
 70
0
 10
152.4508556401
 20
-81.7582551736
 10
152.5153458761
 20
-81.7719078955
 10
152.6988595966
 20
-81.8164508082
 10
152.8788077374
 20
-81.8686871879
 10
153.0550605656
 20
-81.928579375
 10
153.2274910128
 20
-81.9960841905
 10
153.3959747663
 20
-82.0711529673
 10
153.5603903585
 20
-82.1537315849
 10
153.7206192548
 20
-82.2437605086
 10
153.8765459392
 20
-82.3411748327
 10
154.028057997
 20
-82.4459043267
 10
154.1750461966
 20
-82.5578734866
 10
154.3174045675
 20
-82.6770015887
 10
154.4550304773
 20
-82.8032027482
 10
154.5878247052
 20
-82.9363859811
 10
154.715691514
 20
-83.0764552698
 10
154.8385387188
 20
-83.2233096319
 10
154.9562777536
 20
-83.3768431936
 10
155.0688237349
 20
-83.5369452657
 10
155.1760955235
 20
-83.7035004234
 10
155.2780157823
 20
-83.8763885898
 10
155.3745110323
 20
-84.055485122
 10
155.4655117059
 20
-84.2406609013
 10
155.5509521967
 20
-84.4317824263
 10
155.6307709067
 20
-84.6287119089
 10
155.7049102911
 20
-84.8313073737
 10
155.7733168995
 20
-85.0394227609
 10
155.8359414146
 20
-85.2529080305
 10
155.8927386874
 20
-85.4716092716
 10
155.9436677703
 20
-85.6953688128
 10
155.9886919463
 20
-85.9240253356
 10
156.0277787555
 20
-86.1574139915
 10
156.0609000183
 20
-86.3953665201
 10
156.0880318563
 20
-86.6377113709
 10
156.1091547088
 20
-86.8842738266
 10
156.1242533474
 20
-87.1348761293
 10
156.1333168869
 20
-87.3893376086
 10
156.1363387929
 20
-87.6474748119
  0
LINE
  5
2DD
100
AcDbEntity
  8
IMPORT_IGES
100
AcDbLine
 62
7
  6
CONTINUOUS
 10
100.9417497493
 20
-280.95296916
 11
101.0134800814
 21
-281.0734228296
  0
LWPOLYLINE
  5
2DE
100
AcDbEntity
  8
IMPORT_IGES
100
AcDbPolyline
 62
7
  6
CONTINUOUS
 90
3
 70
0
 10
100.9417497493
 20
-280.95296916
 10
101.0133726828
 20
-281.0732523682
 10
101.0872157878
 20
-281.1904550293
  0
LWPOLYLINE
  5
2DF
100
AcDbEntity
  8
IMPORT_IGES
100
AcDbPolyline
 62
7
  6
CONTINUOUS
 90
45
 70
0
 10
-160.7774524562
 20
249.5176343986
 10
-160.7736713447
 20
249.5084362399
 10
-160.7698721575
 20
249.4980208905
 10
-160.7663812574
 20
249.4871460824
 10
-160.7631976154
 20
249.475803183
 10
-160.760372542
 20
249.4639436774
 10
-160.7579006087
 20
249.4515585485
 10
-160.7557820748
 20
249.4386464423
 10
-160.7540759621
 20
249.4251688174
 10
-160.7527766632
 20
249.4111141732
 10
-160.751882577
 20
249.3964806169
 10
-160.7514577627
 20
249.3812424166
 10
-160.7514978814
 20
249.3653798935
 10
-160.7519975126
 20
249.3488961761
 10
-160.7530181292
 20
249.3317984481
 10
-160.7545584947
 20
249.3140622898
 10
-160.7566073455
 20
249.2956931532
 10
-160.7592105347
 20
249.2767427346
 10
-160.7623687488
 20
249.2571896229
 10
-160.7660664577
 20
249.237035621
 10
-160.7703253546
 20
249.2163684148
 10
-160.7751476945
 20
249.1951662853
 10
-160.7805148359
 20
249.1734327647
 10
-160.7864184009
 20
249.1512962987
 10
-160.79285684
 20
249.1287530473
 10
-160.7998154655
 20
249.1057927424
 10
-160.8072684143
 20
249.0825381596
 10
-160.8152134002
 20
249.0589866653
 10
-160.8236374032
 20
249.0351314218
 10
-160.8325012102
 20
249.0110930767
 10
-160.841801
 20
248.9868762329
 10
-160.8515272402
 20
248.9624718418
 10
-160.8616351999
 20
248.9379840431
 10
-160.8721196961
 20
248.913421286
 10
-160.8829749499
 20
248.8887751133
 10
-160.8941582414
 20
248.8641275716
 10
-160.9056666863
 20
248.839482099
 10
-160.9174945038
 20
248.8148385923
 10
-160.92959745
 20
248.7902764658
 10
-160.9419680918
 20
248.7657993112
 10
-160.9546080271
 20
248.7414097516
 10
-160.9674894346
 20
248.717188019
 10
-160.980602694
 20
248.6931640553
 10
-160.993954831
 20
248.6693164012
 10
-161.0075444592
 20
248.6456491606
  0
LINE
  5
2E0
100
AcDbEntity
  8
IMPORT_IGES
100
AcDbLine
 62
7
  6
CONTINUOUS
 10
-160.8133974763
 20
249.5766740137
 11
-160.7550015467
 21
249.4324805746
  0
LWPOLYLINE
  5
2E1
100
AcDbEntity
  8
IMPORT_IGES
100
AcDbPolyline
 62
7
  6
CONTINUOUS
 90
22
 70
0
 10
86.6099232049
 20
97.850095961
 10
86.5777437548
 20
97.8300521685
 10
86.5337160743
 20
97.7989806444
 10
86.4912653952
 20
97.7651487543
 10
86.4501597669
 20
97.7288556034
 10
86.4106311401
 20
97.6898020865
 10
86.3732482737
 20
97.6477432069
 10
86.3382911421
 20
97.6028086924
 10
86.3054797708
 20
97.5548688152
 10
86.2745429949
 20
97.5032893944
 10
86.2451074141
 20
97.4473791891
 10
86.2175464286
 20
97.3878294403
 10
86.1927090743
 20
97.3260796897
 10
86.170821726
 20
97.2623721291
 10
86.151658009
 20
97.1964645668
 10
86.1353878345
 20
97.1290699695
 10
86.1223133465
 20
97.0600234727
 10
86.1121324011
 20
96.9894899409
 10
86.1041084779
 20
96.9186769347
 10
86.09799607
 20
96.8479869741
 10
86.0940406843
 20
96.777017539
 10
86.0922423208
 20
96.7057686294
  0
LWPOLYLINE
  5
2E2
100
AcDbEntity
  8
IMPORT_IGES
100
AcDbPolyline
 62
7
  6
CONTINUOUS
 90
22
 70
0
 10
89.1100953426
 20
93.5200683312
 10
89.1422747926
 20
93.5401121237
 10
89.1863024732
 20
93.5711836478
 10
89.2287531522
 20
93.6050155378
 10
89.2698587806
 20
93.6413086887
 10
89.3093874073
 20
93.6803622056
 10
89.3467702738
 20
93.7224210853
 10
89.3817274054
 20
93.7673555997
 10
89.4145387766
 20
93.8152954769
 10
89.4454755525
 20
93.8668748978
 10
89.4749111334
 20
93.922785103
 10
89.5024721189
 20
93.9823348518
 10
89.5273094731
 20
94.0440846024
 10
89.5491968214
 20
94.107792163
 10
89.5683605385
 20
94.1736997253
 10
89.584630713
 20
94.2410943226
 10
89.597705201
 20
94.3101408194
 10
89.6078861464
 20
94.3806743512
 10
89.6159100696
 20
94.4514873575
 10
89.6220224775
 20
94.5221773181
 10
89.6259778632
 20
94.5931467532
 10
89.6277762267
 20
94.6643956628
  0
LWPOLYLINE
  5
2E3
100
AcDbEntity
  8
IMPORT_IGES
100
AcDbPolyline
 62
7
  6
CONTINUOUS
 90
10
 70
0
 10
161.1706020022
 20
130.5824391486
 10
161.2245407955
 20
130.6148281853
 10
161.2761188569
 20
130.6482955255
 10
161.3253361863
 20
130.6828411691
 10
161.3722601395
 20
130.7185206743
 10
161.4168233607
 20
130.7552784829
 10
161.4588237828
 20
130.7929479207
 10
161.4981940501
 20
130.8314734293
 10
161.5350015183
 20
130.8709105671
 10
161.5692461873
 20
130.911259334
  0
LINE
  5
2E4
100
AcDbEntity
  8
IMPORT_IGES
100
AcDbLine
 62
7
  6
CONTINUOUS
 10
161.5621399109
 20
131.7721653485
 11
161.1221795032
 21
131.5085149971
  0
LINE
  5
2E5
100
AcDbEntity
  8
IMPORT_IGES
100
AcDbLine
 62
7
  6
CONTINUOUS
 10
161.1706020022
 20
131.480556453
 11
111.5838092418
 21
102.8497637817
  0
LINE
  5
2E6
100
AcDbEntity
  8
IMPORT_IGES
100
AcDbLine
 62
7
  6
CONTINUOUS
 10
103.2030772355
 20
97.890103167
 11
111.6883586098
 21
102.7893982869
  0
LINE
  5
2E7
100
AcDbEntity
  8
IMPORT_IGES
100
AcDbLine
 62
7
  6
CONTINUOUS
 10
161.1706020022
 20
130.6640861762
 11
111.6883586098
 21
102.0936589996
  0
LINE
  5
2E8
100
AcDbEntity
  8
IMPORT_IGES
100
AcDbLine
 62
7
  6
CONTINUOUS
 10
160.8170486116
 20
130.3783018519
 11
161.1706020022
 21
130.5824391486
  0
LINE
  5
2E9
100
AcDbEntity
  8
IMPORT_IGES
100
AcDbLine
 62
7
  6
CONTINUOUS
 10
102.8946133927
 20
96.7321268302
 11
111.6883586098
 21
101.8096339548
  0
LINE
  5
2EA
100
AcDbEntity
  8
IMPORT_IGES
100
AcDbLine
 62
7
  6
CONTINUOUS
 10
160.1099418304
 20
129.1536358916
 11
159.9844587505
 21
129.081183534
  0
LINE
  5
2EB
100
AcDbEntity
  8
IMPORT_IGES
100
AcDbLine
 62
7
  6
CONTINUOUS
 10
112.5383009608
 20
101.317254953
 11
104.0530195865
 21
96.4179598331
  0
LINE
  5
2EC
100
AcDbEntity
  8
IMPORT_IGES
100
AcDbLine
 62
7
  6
CONTINUOUS
 10
160.8170486116
 20
128.7453612983
 11
160.1099418304
 21
128.337086705
  0
LINE
  5
2ED
100
AcDbEntity
  8
IMPORT_IGES
100
AcDbLine
 62
250
  6
CONTINUOUS
 10
112.5383009608
 20
100.8698174795
 11
160.1099418304
 21
128.337086705
  0
LINE
  5
2EE
100
AcDbEntity
  8
IMPORT_IGES
100
AcDbLine
 62
7
  6
CONTINUOUS
 10
102.3118853006
 20
96.3932566799
 11
100.9417497493
 21
95.6031224969
  0
LINE
  5
2EF
100
AcDbEntity
  8
IMPORT_IGES
100
AcDbLine
 62
7
  6
CONTINUOUS
 10
111.6897728233
 20
101.807184465
 11
102.8959256081
 21
96.7298471961
  0
LINE
  5
2F0
100
AcDbEntity
  8
IMPORT_IGES
100
AcDbLine
 62
7
  6
CONTINUOUS
 10
161.6188134994
 20
131.6740038138
 11
161.1706020022
 21
131.4247969311
  0
LWPOLYLINE
  5
2F1
100
AcDbEntity
  8
IMPORT_IGES
100
AcDbPolyline
 62
7
  6
CONTINUOUS
 90
10
 70
0
 10
104.0530195865
 20
96.4179598331
 10
103.9890897079
 20
96.3825804721
 10
103.9228918568
 20
96.3487705236
 10
103.8544260332
 20
96.3165299875
 10
103.7835155788
 20
96.2857884403
 10
103.710337152
 20
96.2566163056
 10
103.6354207273
 20
96.2292248546
 10
103.5589429632
 20
96.203684511
 10
103.4807272013
 20
96.1799248511
 10
103.4007734416
 20
96.157945875
  0
LWPOLYLINE
  5
2F2
100
AcDbEntity
  8
IMPORT_IGES
100
AcDbPolyline
 62
7
  6
CONTINUOUS
 90
3
 70
0
 10
152.5006652997
 20
-81.7913112789
 10
152.3225692292
 20
-81.7396446927
 10
152.2630896137
 20
-81.7252119786
  0
LWPOLYLINE
  5
2F3
100
AcDbEntity
  8
IMPORT_IGES
100
AcDbPolyline
 62
250
  6
CONTINUOUS
 90
92
 70
0
 10
-83.8168504944
 20
253.5067208489
 10
-83.8546277147
 20
253.6641076095
 10
-83.8848854209
 20
253.8220489254
 10
-83.9076252388
 20
253.9805292056
 10
-83.9227933615
 20
254.1392296444
 10
-83.9303748771
 20
254.2981766871
 10
-83.9303846975
 20
254.4573438884
 10
-83.9228137515
 20
254.6163331072
 10
-83.9076408209
 20
254.7751356534
 10
-83.884887124
 20
254.9337602171
 10
-83.8546072446
 20
255.0918347281
 10
-83.8167827185
 20
255.2493561192
 10
-83.7714320099
 20
255.4063274576
 10
-83.718665096
 20
255.5623858746
 10
-83.658496768
 20
255.7174803961
 10
-83.5909122346
 20
255.8716619962
 10
-83.5159770987
 20
256.0247207292
 10
-83.4336258902
 20
256.1767490943
 10
-83.3439240791
 20
256.3276545923
 10
-83.2471336785
 20
256.4769497793
 10
-83.1432524895
 20
256.6245862664
 10
-83.032282711
 20
256.7706124425
 10
-82.9144929525
 20
256.9146860307
 10
-82.7898694549
 20
257.0567988299
 10
-82.6584259774
 20
257.1969590412
 10
-82.5204724068
 20
257.3348489911
 10
-82.3759944356
 20
257.4704628891
 10
-82.2250063713
 20
257.6038065258
 10
-82.0678610242
 20
257.7345795992
 10
-81.9045467725
 20
257.862774826
 10
-81.7350752379
 20
257.9883994894
 10
-81.5598340962
 20
258.111175137
 10
-81.378811825
 20
258.2310952
 10
-81.1920199465
 20
258.3481662472
 10
-80.9998807029
 20
258.4621295321
 10
-80.8023830004
 20
258.5729783977
 10
-80.5995379327
 20
258.680719501
 10
-80.3918010235
 20
258.7851140664
 10
-80.1791619959
 20
258.8861550155
 10
-79.9616311268
 20
258.9838494267
 10
-79.7396947701
 20
259.0779797595
 10
-79.5133433893
 20
259.1685385605
 10
-79.2825865209
 20
259.2555332832
 10
-79.0479391281
 20
259.3387687471
 10
-78.809392787
 20
259.4182370266
 10
-78.5669559215
 20
259.4939460472
 10
-78.3211687668
 20
259.5657244048
 10
-78.0720178773
 20
259.6335648565
 10
-77.8195166986
 20
259.6974746452
 10
-77.5642458026
 20
259.7573040945
 10
-77.3061234805
 20
259.8130524969
 10
-77.0452314411
 20
259.8647205599
 10
-76.7823953831
 20
259.9121607297
 10
-76.5177782514
 20
259.955336124
 10
-76.251217101
 20
259.9942836251
 10
-75.983048796
 20
260.0289663256
 10
-75.713185248
 20
260.0593943034
 10
-75.4417145453
 20
260.0855574806
 10
-75.1692378165
 20
260.107388716
 10
-74.8957446502
 20
260.1248788114
 10
-74.6212454578
 20
260.1380369649
 10
-74.3463726021
 20
260.1468236292
 10
-74.071106756
 20
260.151226944
 10
-73.7954672464
 20
260.1512587696
 10
-73.5201444175
 20
260.1469151395
 10
-73.2451658944
 20
260.1381852519
 10
-72.9705040519
 20
260.1250799087
 10
-72.6967663581
 20
260.107627549
 10
-72.4239805779
 20
260.0858238283
 10
-72.1521189464
 20
260.0596730913
 10
-71.8817056368
 20
260.0292168106
 10
-71.6126669525
 20
259.9944345944
 10
-71.3450765901
 20
259.9553468347
 10
-71.0796798124
 20
259.9120561802
 10
-70.8165297747
 20
259.864556995
 10
-70.5555733217
 20
259.812854915
 10
-70.2973962507
 20
259.7570694975
 10
-70.0419603845
 20
259.6971766343
 10
-69.7893039002
 20
259.6332004334
 10
-69.5401271269
 20
259.5653327759
 10
-69.2945680834
 20
259.4936068594
 10
-69.0524887509
 20
259.4179894862
 10
-68.8141754017
 20
259.3385729443
 10
-68.5795282533
 20
259.2553203129
 10
-68.3486470882
 20
259.1682685127
 10
-68.1221175254
 20
259.0776205937
 10
-67.8999577467
 20
258.9833683383
 10
-67.6821495703
 20
258.8855199641
 10
-67.4692240698
 20
258.7843031743
 10
-67.2613582696
 20
258.67979387
 10
-67.0583751453
 20
258.5719161501
 10
-66.8602746968
 20
258.4606700146
  0
LWPOLYLINE
  5
2F4
100
AcDbEntity
  8
IMPORT_IGES
100
AcDbPolyline
 62
7
  6
CONTINUOUS
 90
10
 70
0
 10
102.651789977
 20
97.4552232883
 10
102.7107999823
 20
97.5134779112
 10
102.7704830066
 20
97.5693372141
 10
102.8308390501
 20
97.622801197
 10
102.8920174266
 20
97.6739876453
 10
102.9538688221
 20
97.7227787737
 10
103.015945295
 20
97.7688212257
 10
103.0780975312
 20
97.8119972158
 10
103.1404748447
 20
97.8524245296
 10
103.2030772355
 20
97.890103167
  0
LWPOLYLINE
  5
2F5
100
AcDbEntity
  8
IMPORT_IGES
100
AcDbPolyline
 62
7
  6
CONTINUOUS
 90
18
 70
0
 10
-161.1120233584
 20
246.9096867841
 10
-161.146357212
 20
246.9701445639
 10
-161.1798378685
 20
247.0309013177
 10
-161.212465328
 20
247.0919570454
 10
-161.2442607258
 20
247.1533621612
 10
-161.2752029265
 20
247.2150662509
 10
-161.305228524
 20
247.2769180725
 10
-161.3343323496
 20
247.3389171425
 10
-161.3625195719
 20
247.4010639443
 10
-161.3897422901
 20
247.4632086856
 10
-161.4159951042
 20
247.5253495233
 10
-161.4412834141
 20
247.5874883005
 10
-161.4655755189
 20
247.6494807544
 10
-161.4889617732
 20
247.7116042757
 10
-161.5113518224
 20
247.7735814737
 10
-161.5324429013
 20
247.8344359131
 10
-161.5521340883
 20
247.8938421155
 10
-161.570526305
 20
247.9521255594
  0
LINE
  5
2F6
100
AcDbEntity
  8
0
100
AcDbLine
 62
7
  6
CONTINUOUS
 10
50.2812785572
 20
-230.0043082948
 11
48.3562811923
 21
-222.9657102497
  0
LINE
  5
2F7
100
AcDbEntity
  8
0
100
AcDbLine
 62
7
  6
CONTINUOUS
 10
48.7816518577
 20
-220.0606410564
 11
50.4045667772
 21
-226.0383836591
  0
LWPOLYLINE
  5
2F8
100
AcDbEntity
  8
LIVELLO_1
100
AcDbPolyline
 62
7
  6
CONTINUOUS
 90
7
 70
0
 10
65.166269339
 20
-235.846508797
 10
65.2128942007
 20
-236.0193044975
 10
65.25779699
 20
-236.1917883355
 10
65.3011309476
 20
-236.3639870879
 10
65.3430493143
 20
-236.5359275319
 10
65.3837053307
 20
-236.7076364445
 10
65.4232522376
 20
-236.8791406027
  0
LINE
  5
2F9
100
AcDbEntity
  8
0
100
AcDbLine
 62
7
  6
CONTINUOUS
 10
39.2413708803
 20
-223.6300039647
 11
36.7486426614
 21
-213.1129323554
  0
LINE
  5
2FA
100
AcDbEntity
  8
IMPORT_IGES
100
AcDbLine
 62
7
  6
CONTINUOUS
 10
-58.9675574913
 20
235.2160213813
 11
-58.9275679716
 21
235.0357384472
  0
LINE
  5
2FB
100
AcDbEntity
  8
0
100
AcDbLine
 62
7
  6
CONTINUOUS
 10
38.5314990556
 20
-214.142331293
 11
40.0300296649
 21
-221.256513389
  0
LWPOLYLINE
  5
2FC
100
AcDbEntity
  8
IMPORT_IGES
100
AcDbPolyline
 62
250
  6
CONTINUOUS
 90
18
 70
0
 10
20.9468250391
 20
-200.244163922
 10
20.9477384484
 20
-200.2890850051
 10
20.9504854063
 20
-200.3329573952
 10
20.9550730152
 20
-200.3756776043
 10
20.9615424399
 20
-200.4173548782
 10
20.9698733775
 20
-200.4576617898
 10
20.9798895186
 20
-200.495912287
 10
20.9913494937
 20
-200.5316617162
 10
21.0042700505
 20
-200.5653618411
 10
21.0188746273
 20
-200.5976558193
 10
21.0353155714
 20
-200.6287060228
 10
21.0534689968
 20
-200.6581195286
 10
21.0732085793
 20
-200.6856420243
 10
21.0944280857
 20
-200.7111345229
 10
21.1171450763
 20
-200.7346265945
 10
21.1414011576
 20
-200.7561341846
 10
21.1671744587
 20
-200.7755926642
 10
21.1953241843
 20
-200.7934481555
  0
LWPOLYLINE
  5
2FD
100
AcDbEntity
  8
IMPORT_IGES
100
AcDbPolyline
 62
250
  6
CONTINUOUS
 90
46
 70
0
 10
18.6959514502
 20
-214.6070633638
 10
18.6975186208
 20
-214.6941410499
 10
18.7018749011
 20
-214.7832653184
 10
18.7090202911
 20
-214.8744361693
 10
18.7189999993
 20
-214.9678447041
 10
18.7317688172
 20
-215.0632998213
 10
18.7471911196
 20
-215.1602282163
 10
18.7652511703
 20
-215.2586069548
 10
18.7859647056
 20
-215.358458971
 10
18.8092433092
 20
-215.4592797636
 10
18.8352989123
 20
-215.5616541082
 10
18.8639195839
 20
-215.664997229
 10
18.8943811148
 20
-215.7670502971
 10
18.9263284287
 20
-215.8666653762
 10
18.9601166021
 20
-215.9649904025
 10
18.9960866554
 20
-216.0632103564
 10
19.0343194303
 20
-216.161775519
 10
19.0747340851
 20
-216.2602356091
 10
19.1174291151
 20
-216.3584247632
 10
19.1624150059
 20
-216.4564146856
 10
19.209681272
 20
-216.5541336719
 10
19.2592949522
 20
-216.6512007456
 10
19.311316614
 20
-216.747625059
 10
19.3656856899
 20
-216.8433974597
 10
19.422287516
 20
-216.9381095137
 10
19.4812204022
 20
-217.0317623818
 10
19.5423860385
 20
-217.1243549031
 10
19.6053748311
 20
-217.2154751608
 10
19.6702047446
 20
-217.3051229553
 10
19.7368578144
 20
-217.3932984863
 10
19.8048705532
 20
-217.4795904363
 10
19.8737608666
 20
-217.563522348
 10
19.944010849
 20
-217.6455706788
 10
20.0166032965
 20
-217.7267534828
 10
20.092514628
 20
-217.8081254481
 10
20.1707684245
 20
-217.8886318867
 10
20.2494182252
 20
-217.9661267882
 10
20.3280250595
 20
-218.0400471072
 10
20.4070278979
 20
-218.1109558892
 10
20.4857971906
 20
-218.1783962605
 10
20.5643239895
 20
-218.2423491646
 10
20.6426172426
 20
-218.3028336581
 10
20.7200742447
 20
-218.3594500366
 10
20.7964940939
 20
-218.4120650652
 10
20.872077692
 20
-218.4608119787
 10
20.9468250391
 20
-218.5056907772
  0
LWPOLYLINE
  5
2FE
100
AcDbEntity
  8
IMPORT_IGES
100
AcDbPolyline
 62
7
  6
CONTINUOUS
 90
40
 70
0
 10
20.2397182579
 20
-214.681865784
 10
20.2408012684
 20
-214.747287175
 10
20.2441649365
 20
-214.8140049375
 10
20.2498092622
 20
-214.8820190714
 10
20.2577379947
 20
-214.9514901573
 10
20.2679473848
 20
-215.0222576146
 10
20.2804261851
 20
-215.0938397024
 10
20.295198906
 20
-215.166231952
 10
20.312241037
 20
-215.2394388321
 10
20.3314677992
 20
-215.3129920081
 10
20.3530404577
 20
-215.3872059153
 10
20.3767977474
 20
-215.4617661183
 10
20.4021710946
 20
-215.5352609761
 10
20.428967961
 20
-215.6070827441
 10
20.457380885
 20
-215.677839167
 10
20.4874189084
 20
-215.747941837
 10
20.5190536709
 20
-215.8174620931
 10
20.5523135328
 20
-215.8863285963
 10
20.5872926173
 20
-215.9547389221
 10
20.6240340918
 20
-216.0228264562
 10
20.6624947888
 20
-216.0904578129
 10
20.7026393294
 20
-216.1574304094
 10
20.744472276
 20
-216.2237602459
 10
20.7879890661
 20
-216.2894313223
 10
20.8331406336
 20
-216.3541930558
 10
20.8797589944
 20
-216.4178847709
 10
20.9280121326
 20
-216.4806671432
 10
20.9783549349
 20
-216.5427716167
 10
21.0313762202
 20
-216.6048331167
 10
21.0864871697
 20
-216.666216718
 10
21.1423762135
 20
-216.7252490884
 10
21.1988151408
 20
-216.7815236377
 10
21.2560321623
 20
-216.8354469562
 10
21.3134003402
 20
-216.8865654834
 10
21.3709180284
 20
-216.9348063057
 10
21.428586873
 20
-216.9802423366
 10
21.4857848744
 20
-217.0226387559
 10
21.5423046995
 20
-217.0619172903
 10
21.5983536815
 20
-217.0981562131
 10
21.6539318203
 20
-217.1313555242
  0
LINE
  5
2FF
100
AcDbEntity
  8
IMPORT_IGES
100
AcDbLine
 62
250
  6
CONTINUOUS
 10
18.6959514502
 20
-214.6070633638
 11
18.6959514502
 21
-201.5435389351
  0
LINE
  5
300
100
AcDbEntity
  8
IMPORT_IGES
100
AcDbLine
 62
7
  6
CONTINUOUS
 10
20.2397182579
 20
-201.6183413553
 11
20.2397182579
 21
-214.681865784
  0
LWPOLYLINE
  5
301
100
AcDbEntity
  8
IMPORT_IGES
100
AcDbPolyline
 62
7
  6
CONTINUOUS
 90
94
 70
0
 10
140.796466461
 20
-101.8848064468
 10
140.9325525943
 20
-102.009579025
 10
141.0734357229
 20
-102.1274776868
 10
141.2188469886
 20
-102.2382511958
 10
141.3688251784
 20
-102.3419009898
 10
141.5233315053
 20
-102.4384256311
 10
141.6819807503
 20
-102.5275695695
 10
141.8447849265
 20
-102.6093051015
 10
142.0117320208
 20
-102.6836599308
 10
142.1824007748
 20
-102.7504616183
 10
142.3567751857
 20
-102.8096813463
 10
142.5348712562
 20
-102.8613479326
 10
142.7163157365
 20
-102.9053753912
 10
142.9010840856
 20
-102.9417515279
 10
143.0892008446
 20
-102.970488537
 10
143.2803663873
 20
-102.9915370158
 10
143.4746387672
 20
-103.0048895742
 10
143.6719599308
 20
-103.0105536024
 10
143.8718560917
 20
-103.0085018685
 10
144.0743239527
 20
-102.998712292
 10
144.2793668109
 20
-102.9812069534
 10
144.4865207717
 20
-102.956024863
 10
144.6957832993
 20
-102.9231489552
 10
144.9071569293
 20
-102.8825962957
 10
145.1201853744
 20
-102.8344570911
 10
145.3348584693
 20
-102.7787210581
 10
145.5511863791
 20
-102.7153984802
 10
145.7687433122
 20
-102.6446104138
 10
145.987558737
 20
-102.5663316994
 10
146.2076031851
 20
-102.4805874966
 10
146.4283624592
 20
-102.387574341
 10
146.6498271481
 20
-102.2872784589
 10
146.872006663
 20
-102.1797136241
 10
147.0944150395
 20
-102.0651176931
 10
147.3170495694
 20
-101.943477034
 10
147.5399129609
 20
-101.8148052787
 10
147.7625273742
 20
-101.6793811802
 10
147.984889733
 20
-101.5371926404
 10
148.2070031137
 20
-101.3882517574
 10
148.4283989054
 20
-101.2328735778
 10
148.6490885057
 20
-101.0710338045
 10
148.8690605171
 20
-100.9027567347
 10
149.0878121362
 20
-100.7284303066
 10
149.3053214511
 20
-100.5480572162
 10
149.5216103738
 20
-100.3616347675
 10
149.7362418366
 20
-100.1695428106
 10
149.9492244305
 20
-99.971759494
 10
150.1605495645
 20
-99.7683066692
 10
150.3697543981
 20
-99.5596297415
 10
150.5768291594
 20
-99.3457228879
 10
150.7817836204
 20
-99.1265919314
 10
150.9841842566
 20
-98.9026997463
 10
151.1840373364
 20
-98.6740213403
 10
151.3813365915
 20
-98.4405817057
 10
151.5756296919
 20
-98.2029186935
 10
151.7668813623
 20
-97.9610619671
 10
151.9551268779
 20
-97.7149818631
 10
152.1400197348
 20
-97.4651272418
 10
152.3215757876
 20
-97.2114634798
 10
152.4997791817
 20
-96.9540252006
 10
152.6742358481
 20
-96.6933651354
 10
152.8449485512
 20
-96.4294555067
 10
153.0119145267
 20
-96.162324092
 10
153.1747314131
 20
-95.8926069541
 10
153.3333885082
 20
-95.6202917599
 10
153.4878965141
 20
-95.3453908426
 10
153.6378851763
 20
-95.0685772647
 10
153.7833222915
 20
-94.789886513
 10
153.9242400629
 20
-94.5092831007
 10
154.0603648454
 20
-94.2273336294
 10
154.1916721858
 20
-93.9440831332
 10
154.3181865372
 20
-93.6594865779
 10
154.4397076136
 20
-93.3739754625
 10
154.556272767
 20
-93.0874344483
 10
154.6678446454
 20
-92.7999788739
 10
154.7741109069
 20
-92.5123862547
 10
154.8750347472
 20
-92.2247112397
 10
154.9706529706
 20
-91.9368991799
 10
155.060763647
 20
-91.6495636437
 10
155.1453666959
 20
-91.3626468561
 10
155.2244621977
 20
-91.0762065921
 10
155.2978484642
 20
-90.7910297447
 10
155.3654795189
 20
-90.5072744482
 10
155.4274013383
 20
-90.2247825683
 10
155.4835501626
 20
-89.9438665962
 10
155.5339451009
 20
-89.6644172253
 10
155.5785670442
 20
-89.3865437621
 10
155.6172949048
 20
-89.1108866173
 10
155.6501131818
 20
-88.8374527146
 10
155.6770373762
 20
-88.5662351302
 10
155.6979929027
 20
-88.2978535036
 10
155.7129548999
 20
-88.0325143813
 10
155.7219482293
 20
-87.7700112167
 10
155.7249728909
 20
-87.51034401
  0
LWPOLYLINE
  5
302
100
AcDbEntity
  8
IMPORT_IGES
100
AcDbPolyline
 62
7
  6
CONTINUOUS
 90
3
 70
0
 10
-58.9518645539
 20
235.0640759369
 10
-58.8965082978
 20
234.90965811
 10
-58.8342187737
 20
234.7566361915
  0
LWPOLYLINE
  5
303
100
AcDbEntity
  8
IMPORT_IGES
100
AcDbPolyline
 62
250
  6
CONTINUOUS
 90
96
 70
0
 10
-58.9518645539
 20
235.0640759369
 10
-59.0000931038
 20
235.2177765555
 10
-59.049046186
 20
235.3993888974
 10
-59.0895368129
 20
235.5816946288
 10
-59.1215357932
 20
235.7645623174
 10
-59.1450200573
 20
235.9478601257
 10
-59.1599726744
 20
236.131455906
 10
-59.1663828644
 20
236.3152172961
 10
-59.164246006
 20
236.4990118141
 10
-59.1535636398
 20
236.6827069543
 10
-59.134343467
 20
236.8661702827
 10
-59.1065993444
 20
237.0492695324
 10
-59.0703512741
 20
237.231872699
 10
-59.0256253887
 20
237.4138481356
 10
-58.9724539333
 20
237.5950646482
 10
-58.9108752414
 20
237.7753915895
 10
-58.840933708
 20
237.954698954
 10
-58.762679757
 20
238.1328574707
 10
-58.6761698051
 20
238.3097386975
 10
-58.5814662213
 20
238.4852151125
 10
-58.4786372816
 20
238.6591602072
 10
-58.36775712
 20
238.8314485766
 10
-58.2489056748
 20
239.0019560105
 10
-58.1221686316
 20
239.1705595823
 10
-57.9876373606
 20
239.3371377383
 10
-57.8454088514
 20
239.5015703848
 10
-57.6955856429
 20
239.663738975
 10
-57.5382757494
 20
239.8235265943
 10
-57.3735925826
 20
239.9808180446
 10
-57.2016548699
 20
240.1354999275
 10
-57.022586569
 20
240.2874607261
 10
-56.8365167781
 20
240.4365908848
 10
-56.6435796433
 20
240.5827828892
 10
-56.4439142616
 20
240.7259313429
 10
-56.2376645806
 20
240.8659330437
 10
-56.024979295
 20
241.0026870583
 10
-55.8060117391
 20
241.1360947945
 10
-55.5809197763
 20
241.2660600727
 10
-55.3498656856
 20
241.3924891952
 10
-55.1130160441
 20
241.5152910135
 10
-54.8705416074
 20
241.6343769944
 10
-54.622617186
 20
241.7496612834
 10
-54.3694215198
 20
241.861060767
 10
-54.1111371488
 20
241.9684951323
 10
-53.8479502818
 20
242.071886925
 10
-53.5800506619
 20
242.1711616054
 10
-53.3076314299
 20
242.2662476019
 10
-53.030888985
 20
242.3570763629
 10
-52.7500228433
 20
242.4435824057
 10
-52.4652354936
 20
242.5257033644
 10
-52.1767322518
 20
242.6033800342
 10
-51.8847211129
 20
242.6765564146
 10
-51.5894126007
 20
242.7451797494
 10
-51.2910196163
 20
242.8092005651
 10
-50.9897572846
 20
242.8685727061
 10
-50.6858427989
 20
242.9232533685
 10
-50.3794952649
 20
242.9732031305
 10
-50.0709355421
 20
243.0183859811
 10
-49.760386085
 20
243.0587693459
 10
-49.4480707826
 20
243.0943241108
 10
-49.134214797
 20
243.1250246428
 10
-48.819044401
 20
243.1508488084
 10
-48.5027868148
 20
243.17177799
 10
-48.1856700429
 20
243.1877970986
 10
-47.8679227088
 20
243.1988945855
 10
-47.5497738907
 20
243.2050624499
 10
-47.2314529564
 20
243.2062962452
 10
-46.9131893977
 20
243.2025950818
 10
-46.5952126648
 20
243.1939616281
 10
-46.2777520016
 20
243.1804021083
 10
-45.9610362794
 20
243.1619262981
 10
-45.645293833
 20
243.1385475176
 10
-45.330752295
 20
243.1102826215
 10
-45.0176384325
 20
243.0771519872
 10
-44.7061779833
 20
243.0391795002
 10
-44.3965954931
 20
242.9963925364
 10
-44.0891141538
 20
242.948821943
 10
-43.7839556424
 20
242.8965020156
 10
-43.4813399613
 20
242.8394704741
 10
-43.1814852797
 20
242.7777684351
 10
-42.8846077762
 20
242.7114403822
 10
-42.590921483
 20
242.6405341343
 10
-42.3006381317
 20
242.565100811
 10
-42.0139670006
 20
242.4851947955
 10
-41.7311147636
 20
242.4008736955
 10
-41.4522853416
 20
242.312198302
 10
-41.1776797551
 20
242.219232545
 10
-40.9074959796
 20
242.1220434476
 10
-40.6419288027
 20
242.0207010779
 10
-40.3811696835
 20
241.915278498
 10
-40.125406615
 20
241.8058517118
 10
-39.8748239881
 20
241.69249961
 10
-39.6296024592
 20
241.5753039131
 10
-39.3899188193
 20
241.4543491128
 10
-39.155945867
 20
241.3297224107
 10
-38.927852284
 20
241.2015136559
  0
LINE
  5
304
100
AcDbEntity
  8
IMPORT_IGES
100
AcDbLine
 62
7
  6
CONTINUOUS
 10
-58.9275679716
 20
235.0357384472
 11
-58.887977687
 21
234.8887016097
  0
LWPOLYLINE
  5
305
100
AcDbEntity
  8
LIVELLO_1
100
AcDbPolyline
 62
7
  6
CONTINUOUS
 90
42
 70
0
 10
66.7988190901
 20
-236.674173838
 10
66.787190672
 20
-236.625526841
 10
66.775269404
 20
-236.5766824673
 10
66.7630434559
 20
-236.5276688085
 10
66.7505009971
 20
-236.4785139559
 10
66.7376301973
 20
-236.4292460013
 10
66.724419226
 20
-236.3798930359
 10
66.7108562529
 20
-236.3304831514
 10
66.6969294475
 20
-236.2810444391
 10
66.6826269795
 20
-236.2316049906
 10
66.6679370184
 20
-236.1821928974
 10
66.6528477339
 20
-236.1328362509
 10
66.6373472955
 20
-236.0835631427
 10
66.6214238728
 20
-236.0344016642
 10
66.6050656354
 20
-235.9853799069
 10
66.5882607529
 20
-235.9365259624
 10
66.570997395
 20
-235.887867922
 10
66.5532637311
 20
-235.8394338773
 10
66.535047931
 20
-235.7912519199
 10
66.5163381641
 20
-235.743350141
 10
66.4971226002
 20
-235.6957566323
 10
66.4773894087
 20
-235.6484994853
 10
66.4571267593
 20
-235.6016067914
 10
66.4363228215
 20
-235.5551066421
 10
66.414965765
 20
-235.5090271289
 10
66.3930437594
 20
-235.4633963433
 10
66.3705449742
 20
-235.4182423768
 10
66.3474575791
 20
-235.3735933209
 10
66.3237697437
 20
-235.329477267
 10
66.2994696374
 20
-235.2859223067
 10
66.27454543
 20
-235.2429565314
 10
66.2489852911
 20
-235.2006080327
 10
66.2227773901
 20
-235.1589049019
 10
66.1959098968
 20
-235.1178752307
 10
66.1683709807
 20
-235.0775471104
 10
66.1401488114
 20
-235.0379486326
 10
66.1112315585
 20
-234.9991078888
 10
66.0816073916
 20
-234.9610529705
 10
66.0512644802
 20
-234.9238119691
 10
66.0201909941
 20
-234.8874129761
 10
65.9883751028
 20
-234.8518840831
 10
65.9558049758
 20
-234.8172533814
  0
LINE
  5
306
100
AcDbEntity
  8
LIVELLO_1
100
AcDbLine
 62
7
  6
CONTINUOUS
 10
58.8513443775
 20
-225.8747553144
 11
61.2623042712
 21
-236.3446149175
  0
LINE
  5
307
100
AcDbEntity
  8
LIVELLO_1
100
AcDbLine
 62
7
  6
CONTINUOUS
 10
66.8212446985
 20
-236.7707633362
 11
66.7988190901
 21
-236.674173838
  0
LINE
  5
308
100
AcDbEntity
  8
LIVELLO_1
100
AcDbLine
 62
7
  6
CONTINUOUS
 10
66.8426408725
 20
-236.86622623
 11
66.8212446985
 21
-236.7707633362
  0
LINE
  5
309
100
AcDbEntity
  8
LIVELLO_1
100
AcDbLine
 62
7
  6
CONTINUOUS
 10
65.4232522376
 20
-236.8791406027
 11
65.4996316859
 21
-237.2216417647
  0
LINE
  5
30A
100
AcDbEntity
  8
LIVELLO_1
100
AcDbLine
 62
7
  6
CONTINUOUS
 10
66.8631022553
 20
-236.9603377875
 11
66.8426408725
 21
-236.86622623
  0
LINE
  5
30B
100
AcDbEntity
  8
LIVELLO_1
100
AcDbLine
 62
7
  6
CONTINUOUS
 10
65.7545491936
 20
-238.4178823006
 11
65.8842960562
 21
-239.0132950471
  0
LINE
  5
30C
100
AcDbEntity
  8
LIVELLO_1
100
AcDbLine
 62
7
  6
CONTINUOUS
 10
65.4996316859
 20
-237.2216417647
 11
65.573413585
 21
-237.5636452342
  0
LINE
  5
30D
100
AcDbEntity
  8
LIVELLO_1
100
AcDbLine
 62
7
  6
CONTINUOUS
 10
65.573413585
 20
-237.5636452342
 11
65.7545491936
 21
-238.4178823006
  0
LINE
  5
30E
100
AcDbEntity
  8
LIVELLO_1
100
AcDbLine
 62
7
  6
CONTINUOUS
 10
66.8922486282
 20
-237.0984797671
 11
66.8631022553
 21
-236.9603377875
  0
LINE
  5
30F
100
AcDbEntity
  8
LIVELLO_1
100
AcDbLine
 62
7
  6
CONTINUOUS
 10
59.5338139484
 20
-235.3466062683
 11
59.107785629
 21
-233.2892238831
  0
LINE
  5
310
100
AcDbEntity
  8
LIVELLO_1
100
AcDbLine
 62
7
  6
CONTINUOUS
 10
67.0536820805
 20
-237.8876780442
 11
66.8922486282
 21
-237.0984797671
  0
LINE
  5
311
100
AcDbEntity
  8
LIVELLO_1
100
AcDbLine
 62
7
  6
CONTINUOUS
 10
67.4620520217
 20
-239.9242715676
 11
67.3873354326
 21
-239.5572296874
  0
LINE
  5
312
100
AcDbEntity
  8
LIVELLO_1
100
AcDbLine
 62
7
  6
CONTINUOUS
 10
67.3873354326
 20
-239.5572296874
 11
67.0536820805
 21
-237.8876780442
  0
LINE
  5
313
100
AcDbEntity
  8
LIVELLO_1
100
AcDbLine
 62
7
  6
CONTINUOUS
 10
58.7806684846
 20
-231.6972896305
 11
58.0266899923
 21
-227.8927832213
  0
LINE
  5
314
100
AcDbEntity
  8
0
100
AcDbLine
 62
7
  6
CONTINUOUS
 10
53.6690739924
 20
-222.8825773432
 11
54.4042435778
 21
-232.3848566249
  0
LINE
  5
315
100
AcDbEntity
  8
0
100
AcDbLine
 62
7
  6
CONTINUOUS
 10
52.7994799111
 20
-231.4582861961
 11
52.4618841449
 21
-225.3619512384
  0
LINE
  5
316
100
AcDbEntity
  8
0
100
AcDbLine
 62
7
  6
CONTINUOUS
 10
43.8220631475
 20
-217.1970366933
 11
43.8220631475
 21
-226.2748382703
  0
LINE
  5
317
100
AcDbEntity
  8
0
100
AcDbLine
 62
7
  6
CONTINUOUS
 10
45.4631731635
 20
-227.2223946256
 11
45.4631731635
 21
-218.1445930486
  0
LWPOLYLINE
  5
318
100
AcDbEntity
  8
IMPORT_IGES
100
AcDbPolyline
 62
7
  6
CONTINUOUS
 90
13
 70
0
 10
102.3484088341
 20
96.5872876175
 10
102.3414744812
 20
96.57471973
 10
102.3351202627
 20
96.5613513793
 10
102.3293569383
 20
96.5471805199
 10
102.3241236876
 20
96.5320518776
 10
102.3195072397
 20
96.5161165049
 10
102.3157273914
 20
96.499838051
 10
102.3128468696
 20
96.4834322698
 10
102.3107975683
 20
96.466693976
 10
102.3095934832
 20
96.4494596008
 10
102.3092426592
 20
96.4316762118
 10
102.3097431638
 20
96.4134028694
 10
102.3110976367
 20
96.3946428618
  0
LWPOLYLINE
  5
319
100
AcDbEntity
  8
IMPORT_IGES
100
AcDbPolyline
 62
7
  6
CONTINUOUS
 90
52
 70
0
 10
101.7484946744
 20
96.9336041831
 10
101.7623348906
 20
96.9570086686
 10
101.7767919398
 20
96.980123744
 10
101.7918648222
 20
97.0029451097
 10
101.8075705378
 20
97.0254915418
 10
101.8238902727
 20
97.0477353179
 10
101.8407676892
 20
97.0696034385
 10
101.8582003204
 20
97.0910949194
 10
101.8761852157
 20
97.1122042111
 10
101.8946621794
 20
97.1328539085
 10
101.9136303009
 20
97.1530410969
 10
101.9330820048
 20
97.1727651669
 10
101.9529440704
 20
97.1919550181
 10
101.9732200874
 20
97.2106144617
 10
101.9938954918
 20
97.2287396608
 10
102.0148667152
 20
97.24625152
 10
102.0361339895
 20
97.2631521832
 10
102.0576834829
 20
97.2794441935
 10
102.079387315
 20
97.295053221
 10
102.1012398504
 20
97.3099793777
 10
102.1232310982
 20
97.3242324247
 10
102.1452238823
 20
97.337756713
 10
102.1672091787
 20
97.3505521663
 10
102.1891795501
 20
97.3626333194
 10
102.2109982554
 20
97.373970027
 10
102.2326519828
 20
97.384561705
 10
102.2541379717
 20
97.3944266768
 10
102.2753342951
 20
97.4035656373
 10
102.296228167
 20
97.411980567
 10
102.3168178353
 20
97.4196885682
 10
102.336997704
 20
97.4267142675
 10
102.3567428014
 20
97.433057725
 10
102.3760656446
 20
97.4387377287
 10
102.3949173402
 20
97.4438068923
 10
102.4132808437
 20
97.4482698786
 10
102.4311634345
 20
97.4521385533
 10
102.4485536105
 20
97.4554751543
 10
102.4654434133
 20
97.4582859432
 10
102.4818335228
 20
97.4605781754
 10
102.4977263042
 20
97.4624141098
 10
102.5131104522
 20
97.4637997107
 10
102.5279919892
 20
97.4647396265
 10
102.5424000617
 20
97.4652926933
 10
102.5563334731
 20
97.46546501
 10
102.5697897564
 20
97.4652583244
 10
102.5827967778
 20
97.4647236878
 10
102.5953486209
 20
97.4638666818
 10
102.6074487022
 20
97.4626873703
 10
102.6191393457
 20
97.4612275461
 10
102.6304341666
 20
97.4595023007
 10
102.6413179388
 20
97.4575003335
 10
102.651789977
 20
97.4552232883
  0
LINE
  5
31A
100
AcDbEntity
  8
IMPORT_IGES
100
AcDbLine
 62
7
  6
CONTINUOUS
 10
-161.5919253638
 20
-129.924818618
 11
-161.1120233584
 21
-129.6464048727
  0
LINE
  5
31B
100
AcDbEntity
  8
IMPORT_IGES
100
AcDbLine
 62
7
  6
CONTINUOUS
 10
-161.1120233584
 20
-129.6464048727
 11
-161.588810818
 21
-129.9202539945
  0
LINE
  5
31C
100
AcDbEntity
  8
IMPORT_IGES
100
AcDbLine
 62
7
  6
CONTINUOUS
 10
140.6894350128
 20
-101.7774790928
 11
140.796466461
 21
-101.8848064468
  0
LINE
  5
31D
100
AcDbEntity
  8
IMPORT_IGES
100
AcDbLine
 62
250
  6
CONTINUOUS
 10
140.8094025326
 20
-101.9205444017
 11
140.7906170876
 21
-101.8991856736
  0
LINE
  5
31E
100
AcDbEntity
  8
IMPORT_IGES
100
AcDbLine
 62
250
  6
CONTINUOUS
 10
140.7906170876
 20
-101.8991856736
 11
140.6677698828
 21
-101.7523313115
  0
LWPOLYLINE
  5
31F
100
AcDbEntity
  8
IMPORT_IGES
100
AcDbPolyline
 62
7
  6
CONTINUOUS
 90
8
 70
0
 10
-160.8134067948
 20
249.5766793952
 10
-160.807649141
 20
249.5694901553
 10
-160.8021119283
 20
249.5619282374
 10
-160.7967944752
 20
249.5539920093
 10
-160.791680507
 20
249.5456935217
 10
-160.7867847094
 20
249.537016991
 10
-160.7821525856
 20
249.5279184688
 10
-160.7774524562
 20
249.5176343986
  0
LINE
  5
320
100
AcDbEntity
  8
IMPORT_IGES
100
AcDbLine
 62
7
  6
CONTINUOUS
 10
-58.8342187737
 20
234.7566361915
 11
-58.7651631735
 21
234.6050993487
  0
LINE
  5
321
100
AcDbEntity
  8
IMPORT_IGES
100
AcDbLine
 62
250
  6
CONTINUOUS
 10
-58.8028423986
 20
234.6784061259
 11
-58.8769468193
 21
234.8571551757
  0
LWPOLYLINE
  5
322
100
AcDbEntity
  8
IMPORT_IGES
100
AcDbPolyline
 62
250
  6
CONTINUOUS
 90
3
 70
0
 10
-58.8769468193
 20
234.8571551757
 10
-58.9427128589
 20
235.0369885356
 10
-58.9518645539
 20
235.0640759369
  0
LWPOLYLINE
  5
323
100
AcDbEntity
  8
LIVELLO_1
100
AcDbPolyline
 62
7
  6
CONTINUOUS
 90
59
 70
0
 10
65.5293393811
 20
-232.3596841436
 10
65.5294465783
 20
-232.3991417665
 10
65.5286845997
 20
-232.4384028244
 10
65.5270530825
 20
-232.477412689
 10
65.5245516638
 20
-232.5161167324
 10
65.5211799805
 20
-232.5544603263
 10
65.5169376698
 20
-232.5923888427
 10
65.5118243687
 20
-232.6298476534
 10
65.5058397143
 20
-232.6667821303
 10
65.4989833436
 20
-232.7031376453
 10
65.4912548938
 20
-232.7388595703
 10
65.4826540018
 20
-232.7738932771
 10
65.4731803048
 20
-232.8081841376
 10
65.4628334398
 20
-232.8416775238
 10
65.4516130439
 20
-232.8743188074
 10
65.4395187542
 20
-232.9060533603
 10
65.4265502076
 20
-232.9368265545
 10
65.4127070414
 20
-232.9665837618
 10
65.3979888925
 20
-232.9952703541
 10
65.382395398
 20
-233.0228317032
 10
65.365926195
 20
-233.0492131811
 10
65.3485809205
 20
-233.0743601596
 10
65.3303592117
 20
-233.0982180106
 10
65.3112607055
 20
-233.120732106
 10
65.2912850391
 20
-233.1418478176
 10
65.2704318495
 20
-233.1615105174
 10
65.2487007737
 20
-233.1796655772
 10
65.2260914489
 20
-233.1962583688
 10
65.2026035122
 20
-233.2112342643
 10
65.1782366005
 20
-233.2245386354
 10
65.1529903509
 20
-233.236116854
 10
65.127223904
 20
-233.2458131189
 10
65.1006413
 20
-233.2538253123
 10
65.0732828726
 20
-233.2602031591
 10
65.0451889552
 20
-233.2649963843
 10
65.0163998816
 20
-233.2682547129
 10
64.9869559853
 20
-233.2700278696
 10
64.9568976001
 20
-233.2703655796
 10
64.9262650594
 20
-233.2693175677
 10
64.8950986969
 20
-233.2669335588
 10
64.8634388463
 20
-233.263263278
 10
64.8313258411
 20
-233.25835645
 10
64.7988000151
 20
-233.2522627999
 10
64.7659017017
 20
-233.2450320526
 10
64.7326712346
 20
-233.236713933
 10
64.6991489475
 20
-233.2273581661
 10
64.6653751739
 20
-233.2170144768
 10
64.6313902475
 20
-233.20573259
 10
64.5972345019
 20
-233.1935622306
 10
64.5629482707
 20
-233.1805531237
 10
64.5285718875
 20
-233.1667549941
 10
64.494145686
 20
-233.1522175668
 10
64.4597099998
 20
-233.1369905666
 10
64.4253051624
 20
-233.1211237186
 10
64.3909715076
 20
-233.1046667477
 10
64.3567493689
 20
-233.0876693788
 10
64.32267908
 20
-233.0701813368
 10
64.2888009744
 20
-233.0522523467
 10
64.2551553858
 20
-233.0339321334
  0
LINE
  5
324
100
AcDbEntity
  8
LIVELLO_1
100
AcDbLine
 62
7
  6
CONTINUOUS
 10
61.7375689602
 20
-227.6479925064
 11
61.7375689602
 21
-236.6190267925
  0
LINE
  5
325
100
AcDbEntity
  8
LIVELLO_1
100
AcDbLine
 62
7
  6
CONTINUOUS
 10
63.3174733022
 20
-232.4925262502
 11
63.3174733022
 21
-230.0018463344
  0
LINE
  5
326
100
AcDbEntity
  8
LIVELLO_1
100
AcDbLine
 62
7
  6
CONTINUOUS
 10
63.3714009376
 20
-237.5623808995
 11
63.3714009376
 21
-234.0097992802
  0
LINE
  5
327
100
AcDbEntity
  8
0
100
AcDbLine
 62
7
  6
CONTINUOUS
 10
48.3562811923
 20
-222.9657102497
 11
48.0019810123
 21
-228.6882704587
  0
LINE
  5
328
100
AcDbEntity
  8
0
100
AcDbLine
 62
7
  6
CONTINUOUS
 10
46.432336074
 20
-227.7819771437
 11
47.1417694626
 21
-219.113793514
  0
LWPOLYLINE
  5
329
100
AcDbEntity
  8
IMPORT_IGES
100
AcDbPolyline
 62
7
  6
CONTINUOUS
 90
5
 70
0
 10
-161.5906055816
 20
248.0182219629
 10
-161.5877380128
 20
248.0151796684
 10
-161.5851162011
 20
248.0131888404
 10
-161.5827404847
 20
248.0122494469
 10
-161.5807077675
 20
248.012700623
  0
LWPOLYLINE
  5
32A
100
AcDbEntity
  8
IMPORT_IGES
100
AcDbPolyline
 62
7
  6
CONTINUOUS
 90
3
 70
0
 10
140.6021535452
 20
-101.6651683662
 10
140.7034539148
 20
-101.7955181234
 10
140.8094025326
 20
-101.9205444017
  0
LINE
  5
32B
100
AcDbEntity
  8
IMPORT_IGES
100
AcDbLine
 62
250
  6
CONTINUOUS
 10
140.6677698828
 20
-101.7523313115
 11
140.550030848
 21
-101.5987977498
  0
LINE
  5
32C
100
AcDbEntity
  8
IMPORT_IGES
100
AcDbLine
 62
7
  6
CONTINUOUS
 10
140.5054974088
 20
-101.5296805769
 11
140.6021535452
 21
-101.6651683662
  0
LWPOLYLINE
  5
32D
100
AcDbEntity
  8
IMPORT_IGES
100
AcDbPolyline
 62
7
  6
CONTINUOUS
 90
22
 70
0
 10
-58.7651631735
 20
234.6050993487
 10
-58.6895948211
 20
234.455289957
 10
-58.6076316456
 20
234.3071555558
 10
-58.5191867529
 20
234.1603532437
 10
-58.4243839986
 20
234.0149706068
 10
-58.3233801553
 20
233.8711348189
 10
-58.2160334225
 20
233.7285736552
 10
-58.102423268
 20
233.5873654312
 10
-57.9826922834
 20
233.4476582795
 10
-57.8567108791
 20
233.3092923061
 10
-57.7245354031
 20
233.172345652
 10
-57.5863006142
 20
233.0369705992
 10
-57.4419406876
 20
232.9031222279
 10
-57.2915360807
 20
232.7709049146
 10
-57.1351958119
 20
232.640440804
 10
-56.9728612222
 20
232.5117132835
 10
-56.8045953169
 20
232.384812811
 10
-56.6305235026
 20
232.2598712808
 10
-56.4506572141
 20
232.1369343728
 10
-56.2650631171
 20
232.0160884923
 10
-56.0738767406
 20
231.8974601087
 10
-55.87720981
 20
231.7811527596
  0
LWPOLYLINE
  5
32E
100
AcDbEntity
  8
IMPORT_IGES
100
AcDbPolyline
 62
7
  6
CONTINUOUS
 90
43
 70
0
 10
86.0922423208
 20
-264.9077763301
 10
86.0941244001
 20
-264.9813236573
 10
86.0980437274
 20
-265.0564977216
 10
86.1040003025
 20
-265.1332985229
 10
86.1117853725
 20
-265.2117960749
 10
86.1216076903
 20
-265.2919203641
 10
86.1340935149
 20
-265.3734613496
 10
86.1495068185
 20
-265.4565460153
 10
86.1675836288
 20
-265.5410473775
 10
86.1881582882
 20
-265.6263744437
 10
86.2114104663
 20
-265.7130119633
 10
86.2371604934
 20
-265.800475187
 10
86.2647037032
 20
-265.8867188745
 10
86.2936878489
 20
-265.9707478267
 10
86.3244651773
 20
-266.0535572427
 10
86.3573877617
 20
-266.1360874796
 10
86.3927194154
 20
-266.218668628
 10
86.4301963252
 20
-266.3009705973
 10
86.4693791246
 20
-266.3829434724
 10
86.5099888424
 20
-266.4647119696
 10
86.5523044499
 20
-266.5461513725
 10
86.5967234943
 20
-266.6268376174
 10
86.6435456213
 20
-266.7066769316
 10
86.6924711853
 20
-266.7857630877
 10
86.7429987964
 20
-266.8639533399
 10
86.7949854002
 20
-266.9414329154
 10
86.8485740511
 20
-267.0180165869
 10
86.9036925225
 20
-267.0930059269
 10
86.9600884623
 20
-267.165931954
 10
87.0180142226
 20
-267.2372636495
 10
87.0781546333
 20
-267.3077095299
 10
87.1412950642
 20
-267.3781542094
 10
87.2066501456
 20
-267.4477130738
 10
87.2725485985
 20
-267.514440797
 10
87.3386674736
 20
-267.5778895255
 10
87.4053297204
 20
-267.6385071128
 10
87.4718329075
 20
-267.6956917936
 10
87.5381687301
 20
-267.7490898981
 10
87.604345493
 20
-267.7990550961
 10
87.6696856805
 20
-267.8460466314
 10
87.7339634537
 20
-267.8902175854
 10
87.7974046515
 20
-267.9314148767
 10
87.8600092737
 20
-267.9696385054
  0
LWPOLYLINE
  5
32F
100
AcDbEntity
  8
IMPORT_IGES
100
AcDbPolyline
 62
7
  6
CONTINUOUS
 90
43
 70
0
 10
89.6277762267
 20
-266.9491492968
 10
89.6258941473
 20
-266.8756019696
 10
89.6219748201
 20
-266.8004279053
 10
89.616018245
 20
-266.723627104
 10
89.608233175
 20
-266.6451295519
 10
89.5984108571
 20
-266.5650052628
 10
89.5859250325
 20
-266.4834642773
 10
89.570511729
 20
-266.4003796115
 10
89.5524349186
 20
-266.3158782494
 10
89.5318602592
 20
-266.2305511832
 10
89.5086080812
 20
-266.1439136636
 10
89.482858054
 20
-266.0564504399
 10
89.4553148443
 20
-265.9702067524
 10
89.4263306986
 20
-265.8861778001
 10
89.3955533702
 20
-265.8033683841
 10
89.3626307858
 20
-265.7208381473
 10
89.3272991321
 20
-265.6382569988
 10
89.2898222223
 20
-265.5559550295
 10
89.2506394228
 20
-265.4739821544
 10
89.210029705
 20
-265.3922136573
 10
89.1677140976
 20
-265.3107742543
 10
89.1232950532
 20
-265.2300880095
 10
89.0764729262
 20
-265.1502486953
 10
89.0275473622
 20
-265.0711625392
 10
88.9770197511
 20
-264.992972287
 10
88.9250331473
 20
-264.9154927115
 10
88.8714444964
 20
-264.8389090399
 10
88.816326025
 20
-264.7639196999
 10
88.7599300852
 20
-264.6909936729
 10
88.7020043249
 20
-264.6196619774
 10
88.6418639142
 20
-264.549216097
 10
88.5787234833
 20
-264.4787714175
 10
88.5133684019
 20
-264.4092125531
 10
88.447469949
 20
-264.3424848299
 10
88.3813510739
 20
-264.2790361014
 10
88.3146888271
 20
-264.218418514
 10
88.24818564
 20
-264.1612338332
 10
88.1818498174
 20
-264.1078357288
 10
88.1156730545
 20
-264.0578705308
 10
88.050332867
 20
-264.0108789955
 10
87.9860550937
 20
-263.9667080415
 10
87.922613896
 20
-263.9255107502
 10
87.8600092737
 20
-263.8872871215
  0
LWPOLYLINE
  5
330
100
AcDbEntity
  8
IMPORT_IGES
100
AcDbPolyline
 62
7
  6
CONTINUOUS
 90
43
 70
0
 10
86.0922423208
 20
96.7057686294
 10
86.0941244001
 20
96.6322213022
 10
86.0980437274
 20
96.557047238
 10
86.1040003025
 20
96.4802464366
 10
86.1117853725
 20
96.4017488846
 10
86.1216076903
 20
96.3216245955
 10
86.1340935149
 20
96.2400836099
 10
86.1495068185
 20
96.1569989442
 10
86.1675836288
 20
96.0724975821
 10
86.1881582882
 20
95.9871705159
 10
86.2114104663
 20
95.9005329962
 10
86.2371604934
 20
95.8130697725
 10
86.2647037032
 20
95.726826085
 10
86.2936878489
 20
95.6427971328
 10
86.3244651772
 20
95.5599877168
 10
86.3573877616
 20
95.4774574799
 10
86.3927194154
 20
95.3948763315
 10
86.4301963252
 20
95.3125743622
 10
86.4693791246
 20
95.2306014871
 10
86.5099888424
 20
95.1488329899
 10
86.5523044499
 20
95.067393587
 10
86.5967234942
 20
94.9867073421
 10
86.6435456213
 20
94.9068680279
 10
86.6924711853
 20
94.8277818718
 10
86.7429987964
 20
94.7495916197
 10
86.7949854001
 20
94.6721120442
 10
86.8485740511
 20
94.5955283726
 10
86.9036925225
 20
94.5205390326
 10
86.9600884622
 20
94.4476130055
 10
87.0180142225
 20
94.37628131
 10
87.0781546333
 20
94.3058354296
 10
87.1412950642
 20
94.2353907501
 10
87.2066501455
 20
94.1658318857
 10
87.2725485984
 20
94.0991041625
 10
87.3386674736
 20
94.035655434
 10
87.4053297203
 20
93.9750378467
 10
87.4718329075
 20
93.9178531659
 10
87.53816873
 20
93.8644550614
 10
87.604345493
 20
93.8144898635
 10
87.6696856804
 20
93.7674983281
 10
87.7339634537
 20
93.7233273742
 10
87.7974046515
 20
93.6821300828
 10
87.8600092737
 20
93.6439064541
  0
LWPOLYLINE
  5
331
100
AcDbEntity
  8
IMPORT_IGES
100
AcDbPolyline
 62
250
  6
CONTINUOUS
 90
18
 70
0
 10
81.8498666573
 20
-235.408816858
 10
81.8507800666
 20
-235.4537379411
 10
81.8535270245
 20
-235.4976103311
 10
81.8581146334
 20
-235.5403305403
 10
81.8645840581
 20
-235.5820078142
 10
81.8729149957
 20
-235.6223147257
 10
81.8829311368
 20
-235.6605652229
 10
81.8943911119
 20
-235.6963146522
 10
81.9073116687
 20
-235.730014777
 10
81.9219162455
 20
-235.7623087552
 10
81.9383571896
 20
-235.7933589587
 10
81.956510615
 20
-235.8227724645
 10
81.9762501975
 20
-235.8502949603
 10
81.9974697038
 20
-235.8757874589
 10
82.0201866945
 20
-235.8992795305
 10
82.0444427757
 20
-235.9207871205
 10
82.0702160769
 20
-235.9402456002
 10
82.0983658025
 20
-235.9581010914
  0
LWPOLYLINE
  5
332
100
AcDbEntity
  8
IMPORT_IGES
100
AcDbPolyline
 62
250
  6
CONTINUOUS
 90
46
 70
0
 10
84.1007402462
 20
-239.3074442714
 10
84.0991730756
 20
-239.2203665853
 10
84.0948167952
 20
-239.1312423168
 10
84.0876714052
 20
-239.0400714659
 10
84.077691697
 20
-238.9466629311
 10
84.0649228791
 20
-238.8512078139
 10
84.0495005767
 20
-238.7542794189
 10
84.031440526
 20
-238.6559006804
 10
84.0107269907
 20
-238.5560486641
 10
83.9874483871
 20
-238.4552278716
 10
83.961392784
 20
-238.352853527
 10
83.9327721125
 20
-238.2495104062
 10
83.9023105815
 20
-238.147457338
 10
83.8703632676
 20
-238.047842259
 10
83.8365750942
 20
-237.9495172327
 10
83.8006050409
 20
-237.8512972788
 10
83.762372266
 20
-237.7527321162
 10
83.7219576113
 20
-237.6542720261
 10
83.6792625812
 20
-237.556082872
 10
83.6342766904
 20
-237.4580929496
 10
83.5870104243
 20
-237.3603739633
 10
83.5373967441
 20
-237.2633068896
 10
83.4853750823
 20
-237.1668825762
 10
83.4310060064
 20
-237.0711101754
 10
83.3744041803
 20
-236.9763981215
 10
83.3154712942
 20
-236.8827452534
 10
83.2543056578
 20
-236.7901527321
 10
83.1913168652
 20
-236.6990324743
 10
83.1264869517
 20
-236.6093846798
 10
83.0598338819
 20
-236.5212091489
 10
82.9918211431
 20
-236.4349171989
 10
82.9229308297
 20
-236.3509852872
 10
82.8526808473
 20
-236.2689369564
 10
82.7800883999
 20
-236.1877541524
 10
82.7041770684
 20
-236.1063821871
 10
82.6259232718
 20
-236.0258757485
 10
82.5472734712
 20
-235.9483808469
 10
82.4686666368
 20
-235.874460528
 10
82.3896637984
 20
-235.803551746
 10
82.3108945057
 20
-235.7361113747
 10
82.2323677069
 20
-235.6721584705
 10
82.1540744537
 20
-235.611673977
 10
82.0766174516
 20
-235.5550575986
 10
82.0001976024
 20
-235.50244257
 10
81.9246140043
 20
-235.4536956565
 10
81.8498666573
 20
-235.408816858
  0
LINE
  5
333
100
AcDbEntity
  8
IMPORT_IGES
100
AcDbLine
 62
7
  6
CONTINUOUS
 10
83.7492683836
 20
-238.8175147594
 11
83.7492683836
 21
-251.8810391881
  0
LINE
  5
334
100
AcDbEntity
  8
IMPORT_IGES
100
AcDbLine
 62
250
  6
CONTINUOUS
 10
84.1007402462
 20
-239.3074442714
 11
84.1007402462
 21
-252.3709687001
  0
LWPOLYLINE
  5
335
100
AcDbEntity
  8
IMPORT_IGES
100
AcDbPolyline
 62
7
  6
CONTINUOUS
 90
17
 70
0
 10
83.7492683835
 20
-251.8810391882
 10
83.7486851396
 20
-251.926301207
 10
83.7469968395
 20
-251.9692172855
 10
83.7442999004
 20
-252.0097348443
 10
83.740696966
 20
-252.0478025876
 10
83.7362936535
 20
-252.0833996093
 10
83.7311984114
 20
-252.1165153722
 10
83.7255323207
 20
-252.147097581
 10
83.7194129277
 20
-252.1751548534
 10
83.7129519871
 20
-252.2007321956
 10
83.7062861679
 20
-252.2237929591
 10
83.6995500131
 20
-252.2443447562
 10
83.6928734045
 20
-252.2624289992
 10
83.6864157805
 20
-252.2780301224
 10
83.6803493411
 20
-252.2911427742
 10
83.6748879213
 20
-252.3017228348
 10
83.6713189393
 20
-252.3080016076
  0
LWPOLYLINE
  5
336
100
AcDbEntity
  8
IMPORT_IGES
100
AcDbPolyline
 62
7
  6
CONTINUOUS
 90
52
 70
0
 10
103.4007766339
 20
96.157956324
 10
103.3975018205
 20
96.1477189589
 10
103.3937869977
 20
96.1372727059
 10
103.3896310928
 20
96.12661897
 10
103.3850519175
 20
96.1157671007
 10
103.3800292068
 20
96.1047110076
 10
103.3745044134
 20
96.0934294355
 10
103.3684763654
 20
96.0819192218
 10
103.361942625
 20
96.0701884771
 10
103.3548421112
 20
96.0582337607
 10
103.3471750136
 20
96.0460584588
 10
103.3389361894
 20
96.033666265
 10
103.3300557496
 20
96.0210554171
 10
103.320526398
 20
96.0082224418
 10
103.3103488364
 20
95.9951807547
 10
103.2994642639
 20
95.9819554043
 10
103.2878638337
 20
95.9685463967
 10
103.2755482039
 20
95.9549669692
 10
103.2624720035
 20
95.9412635577
 10
103.2486193606
 20
95.92743475
 10
103.2339966102
 20
95.913498858
 10
103.2185912039
 20
95.8995331564
 10
103.2023827778
 20
95.8855387923
 10
103.1853816482
 20
95.8715347746
 10
103.167621518
 20
95.8576254875
 10
103.1490863773
 20
95.8438197974
 10
103.1297830552
 20
95.8301308588
 10
103.1097805792
 20
95.8166684934
 10
103.0890634397
 20
95.8034434004
 10
103.0676400527
 20
95.7904672075
 10
103.0456171448
 20
95.777848642
 10
103.0229979763
 20
95.765606836
 10
102.9997754694
 20
95.7537429706
 10
102.9760428732
 20
95.7423355742
 10
102.9517997544
 20
95.7313978978
 10
102.9270458054
 20
95.7209349089
 10
102.9018762937
 20
95.7110093321
 10
102.8762902275
 20
95.7016330113
 10
102.8502908589
 20
95.692809474
 10
102.8239815116
 20
95.6845851462
 10
102.7973589217
 20
95.676968527
 10
102.7704313277
 20
95.6699628017
 10
102.7433208339
 20
95.6636018474
 10
102.7160215593
 20
95.6578902252
 10
102.6885465984
 20
95.6528301468
 10
102.661047818
 20
95.6484462057
 10
102.6335312179
 20
95.6447372167
 10
102.6059994856
 20
95.6417044417
 10
102.5786003361
 20
95.6393697824
 10
102.5513860792
 20
95.6377370729
 10
102.5243132877
 20
95.6367955349
 10
102.4973861647
 20
95.6365420202
  0
LWPOLYLINE
  5
337
100
AcDbEntity
  8
IMPORT_IGES
100
AcDbPolyline
 62
7
  6
CONTINUOUS
 90
43
 70
0
 10
89.6277762267
 20
94.6643956628
 10
89.6258941473
 20
94.7379429899
 10
89.6219748201
 20
94.8131170542
 10
89.616018245
 20
94.8899178556
 10
89.608233175
 20
94.9684154076
 10
89.5984108571
 20
95.0485396967
 10
89.5859250325
 20
95.1300806822
 10
89.570511729
 20
95.213165348
 10
89.5524349186
 20
95.2976667101
 10
89.5318602592
 20
95.3829937763
 10
89.5086080812
 20
95.4696312959
 10
89.482858054
 20
95.5570945196
 10
89.4553148443
 20
95.6433382071
 10
89.4263306986
 20
95.7273671594
 10
89.3955533702
 20
95.8101765754
 10
89.3626307858
 20
95.8927068122
 10
89.3272991321
 20
95.9752879607
 10
89.2898222223
 20
96.05758993
 10
89.2506394228
 20
96.1395628051
 10
89.210029705
 20
96.2213313022
 10
89.1677140976
 20
96.3027707052
 10
89.1232950532
 20
96.38345695
 10
89.0764729262
 20
96.4632962642
 10
89.0275473622
 20
96.5423824203
 10
88.9770197511
 20
96.6205726725
 10
88.9250331473
 20
96.698052248
 10
88.8714444964
 20
96.7746359196
 10
88.8163260249
 20
96.8496252596
 10
88.7599300852
 20
96.9225512867
 10
88.7020043249
 20
96.9938829822
 10
88.6418639141
 20
97.0643288626
 10
88.5787234832
 20
97.1347735421
 10
88.5133684019
 20
97.2043324065
 10
88.447469949
 20
97.2710601297
 10
88.3813510738
 20
97.3345088582
 10
88.3146888271
 20
97.3951264455
 10
88.2481856399
 20
97.4523111263
 10
88.1818498174
 20
97.5057092308
 10
88.1156730544
 20
97.5556744287
 10
88.050332867
 20
97.6026659641
 10
87.9860550937
 20
97.646836918
 10
87.922613896
 20
97.6880342094
 10
87.8600092737
 20
97.7262578381
  0
LINE
  5
338
100
AcDbEntity
  8
IMPORT_IGES
100
AcDbLine
 62
250
  6
CONTINUOUS
 10
100.9417497493
 20
-280.95296916
 11
100.9417497493
 21
95.6031224969
  0
LINE
  5
339
100
AcDbEntity
  8
IMPORT_IGES
100
AcDbLine
 62
250
  6
CONTINUOUS
 10
104.0530195865
 20
-281.7678064962
 11
104.0530195865
 21
96.4179598331
  0
LINE
  5
33A
100
AcDbEntity
  8
0
100
AcDbLine
 62
7
  6
CONTINUOUS
 10
40.0300296649
 20
-221.256513389
 11
41.5739822501
 21
-215.8990229582
  0
LINE
  5
33B
100
AcDbEntity
  8
0
100
AcDbLine
 62
7
  6
CONTINUOUS
 10
43.213206991
 20
-216.8454907793
 11
40.6861930722
 21
-224.4642261905
  0
LWPOLYLINE
  5
33C
100
AcDbEntity
  8
IMPORT_IGES
100
AcDbPolyline
 62
7
  6
CONTINUOUS
 90
10
 70
0
 10
160.8768549233
 20
132.1105161806
 10
160.8247917828
 20
132.1010299115
 10
160.7722366859
 20
132.0888684668
 10
160.7191896326
 20
132.0740318465
 10
160.6655688332
 20
132.0564894926
 10
160.6114560773
 20
132.036271963
 10
160.5570967335
 20
132.0134709322
 10
160.5025725913
 20
131.988116958
 10
160.4478018611
 20
131.9601794825
 10
160.3927845429
 20
131.9296585057
  0
LWPOLYLINE
  5
33D
100
AcDbEntity
  8
IMPORT_IGES
100
AcDbPolyline
 62
7
  6
CONTINUOUS
 90
46
 70
0
 10
102.4973847138
 20
96.3292540605
 10
102.5062990985
 20
96.3293906394
 10
102.5152980126
 20
96.3298375654
 10
102.5243806963
 20
96.3305961616
 10
102.5335478016
 20
96.3316622977
 10
102.5427970286
 20
96.3330427905
 10
102.5521231303
 20
96.3347553255
 10
102.5615268279
 20
96.3368002685
 10
102.5710055013
 20
96.3391798435
 10
102.5805488496
 20
96.3419143089
 10
102.5901554769
 20
96.3450032651
 10
102.5998246683
 20
96.3484493965
 10
102.609547126
 20
96.3522772995
 10
102.6193231241
 20
96.3564864607
 10
102.6291500899
 20
96.3610794262
 10
102.6390144715
 20
96.3660850301
 10
102.6489146191
 20
96.3715017072
 10
102.6588497823
 20
96.3773325958
 10
102.6688078129
 20
96.3836131774
 10
102.678787958
 20
96.3903423779
 10
102.6887885129
 20
96.397522446
 10
102.6987959897
 20
96.4051934316
 10
102.7088143122
 20
96.4133566536
 10
102.7188371048
 20
96.4220115528
 10
102.7288356677
 20
96.4311946462
 10
102.7388201404
 20
96.4409154286
 10
102.7487782337
 20
96.4511642171
 10
102.7586482744
 20
96.4619471801
 10
102.7684329196
 20
96.4732681707
 10
102.778128474
 20
96.4851208856
 10
102.7876648753
 20
96.4974939673
 10
102.7970490385
 20
96.5103983808
 10
102.8062745075
 20
96.5238184416
 10
102.8152526913
 20
96.5377001583
 10
102.8239859194
 20
96.552050613
 10
102.8324744083
 20
96.566855372
 10
102.8406281907
 20
96.5820254045
 10
102.8484481375
 20
96.5975682058
 10
102.8559379601
 20
96.6134669607
 10
102.8630136438
 20
96.6295938437
 10
102.8696717331
 20
96.6459446956
 10
102.8759217658
 20
96.6625134521
 10
102.8817004521
 20
96.679167922
 10
102.886989071
 20
96.6958605292
 10
102.8918128444
 20
96.7126291693
 10
102.8961746716
 20
96.7294696986
  0
LWPOLYLINE
  5
33E
100
AcDbEntity
  8
IMPORT_IGES
100
AcDbPolyline
 62
7
  6
CONTINUOUS
 90
40
 70
0
 10
102.4973861647
 20
95.6365420202
 10
102.4705034756
 20
95.63679508
 10
102.4434832953
 20
95.6377327464
 10
102.4163297969
 20
95.6393579874
 10
102.3890014292
 20
95.641681482
 10
102.3615485389
 20
95.6446991006
 10
102.3341130538
 20
95.6483885987
 10
102.3066986893
 20
95.6527480199
 10
102.2793103233
 20
95.6577791257
 10
102.2520908548
 20
95.6634592229
 10
102.2250505323
 20
95.6697865935
 10
102.1981863193
 20
95.6767565252
 10
102.1716199372
 20
95.684336289
 10
102.145357908
 20
95.6925235403
 10
102.1193987316
 20
95.701309279
 10
102.0938505556
 20
95.7106461267
 10
102.0687202047
 20
95.7205292151
 10
102.0440031114
 20
95.7309481025
 10
102.0197886666
 20
95.7418432472
 10
101.9960688096
 20
95.7532141145
 10
101.9728510211
 20
95.7650434463
 10
101.95024609
 20
95.777243019
 10
101.9282598474
 20
95.7898039816
 10
101.906882431
 20
95.8027143928
 10
101.8861991023
 20
95.8158781848
 10
101.8662065236
 20
95.8292914015
 10
101.8469012242
 20
95.8429362272
 10
101.8283665205
 20
95.8566934497
 10
101.8106188495
 20
95.8705421913
 10
101.7936325248
 20
95.8844811503
 10
101.7774266149
 20
95.8984194699
 10
101.7620051254
 20
95.9123431061
 10
101.7473542498
 20
95.9262463187
 10
101.7334661826
 20
95.9400511496
 10
101.7203420524
 20
95.9537468776
 10
101.7079713241
 20
95.9673274816
 10
101.6963290017
 20
95.9807230233
 10
101.6854040264
 20
95.9939057827
 10
101.6751991404
 20
96.0068900158
 10
101.6657104173
 20
96.0196696256
  0
LWPOLYLINE
  5
33F
100
AcDbEntity
  8
IMPORT_IGES
100
AcDbPolyline
 62
7
  6
CONTINUOUS
 90
13
 70
0
 10
89.4597147001
 20
93.8939208618
 10
89.4406215826
 20
93.8943926866
 10
89.3778175009
 20
93.8993410297
 10
89.3140458775
 20
93.9076981279
 10
89.2492506847
 20
93.9194769714
 10
89.1834879503
 20
93.9346645701
 10
89.1170793364
 20
93.9532066599
 10
89.0500272527
 20
93.9751206723
 10
88.9823292894
 20
94.0003891758
 10
88.9142998803
 20
94.0289056127
 10
88.8460438365
 20
94.0606344638
 10
88.7774563467
 20
94.0956112483
 10
88.7085374112
 20
94.1338359661
  0
LINE
  5
340
100
AcDbEntity
  8
IMPORT_IGES
100
AcDbLine
 62
7
  6
CONTINUOUS
 10
111.6883586098
 20
102.7893982869
 11
111.6883586098
 21
101.8096339548
  0
LINE
  5
341
100
AcDbEntity
  8
IMPORT_IGES
100
AcDbLine
 62
7
  6
CONTINUOUS
 10
112.5383009608
 20
-276.8685113763
 11
112.5383009608
 21
101.317254953
  0
LINE
  5
342
100
AcDbEntity
  8
IMPORT_IGES
100
AcDbLine
 62
7
  6
CONTINUOUS
 10
160.770398965
 20
131.711628671
 11
160.8768549233
 21
132.1105161806
  0
LINE
  5
343
100
AcDbEntity
  8
LIVELLO_1
100
AcDbLine
 62
7
  6
CONTINUOUS
 10
58.0266899923
 20
-227.8927832213
 11
57.2101905179
 21
-230.7905153352
  0
LINE
  5
344
100
AcDbEntity
  8
LIVELLO_1
100
AcDbLine
 62
7
  6
CONTINUOUS
 10
56.8736469982
 20
-231.999260238
 11
56.4210932972
 21
-233.5493603758
  0
LWPOLYLINE
  5
345
100
AcDbEntity
  8
IMPORT_IGES
100
AcDbPolyline
 62
7
  6
CONTINUOUS
 90
21
 70
0
 10
160.8363127935
 20
132.2224724405
 10
160.8354836767
 20
132.2198410284
 10
160.8341395043
 20
132.2143836504
 10
160.8332663544
 20
132.2087833387
 10
160.8328647193
 20
132.2030533032
 10
160.8328904691
 20
132.1972403482
 10
160.8333509608
 20
132.1913599515
 10
160.8342477103
 20
132.1854222381
 10
160.8355273378
 20
132.1794650011
 10
160.8371927711
 20
132.1735038479
 10
160.8392480108
 20
132.1675444765
 10
160.8416405998
 20
132.1616079616
 10
160.8443710754
 20
132.1557052003
 10
160.847443986
 20
132.1498418015
 10
160.8508121976
 20
132.1440288101
 10
160.8544745333
 20
132.1382744287
 10
160.8584357937
 20
132.1325827783
 10
160.8626572468
 20
132.1269569577
 10
160.8671267574
 20
132.1214007427
 10
160.8718589526
 20
132.115919172
 10
160.8768549233
 20
132.1105161806
  0
LINE
  5
346
100
AcDbEntity
  8
LIVELLO_1
100
AcDbLine
 62
7
  6
CONTINUOUS
 10
54.798134534
 20
-232.6122843264
 11
57.2641181532
 21
-224.9583107851
  0
LINE
  5
347
100
AcDbEntity
  8
0
100
AcDbLine
 62
7
  6
CONTINUOUS
 10
50.4045667772
 20
-226.0383836591
 11
52.0455014188
 21
-221.9451468873
  0
LWPOLYLINE
  5
348
100
AcDbEntity
  8
IMPORT_IGES
100
AcDbPolyline
 62
7
  6
CONTINUOUS
 90
44
 70
0
 10
102.860686773
 20
96.7413796618
 10
102.8435844638
 20
96.7451481658
 10
102.8262791662
 20
96.748473634
 10
102.808820395
 20
96.7513483338
 10
102.7913511965
 20
96.7537603654
 10
102.7738711602
 20
96.7556981058
 10
102.7563864708
 20
96.7571628684
 10
102.7390493893
 20
96.7581639575
 10
102.721874715
 20
96.7586897275
 10
102.704853367
 20
96.7587432932
 10
102.6881006397
 20
96.7583586816
 10
102.6716294247
 20
96.7575292496
 10
102.6554319085
 20
96.7562557597
 10
102.6395909142
 20
96.7545861371
 10
102.6241222114
 20
96.7525182778
 10
102.6090140089
 20
96.7500513206
 10
102.5943063656
 20
96.7472375355
 10
102.580004638
 20
96.7440762174
 10
102.5661063736
 20
96.7405673807
 10
102.5526385629
 20
96.7367664376
 10
102.5396109355
 20
96.7326770661
 10
102.5270153154
 20
96.728296996
 10
102.5148506536
 20
96.7236742853
 10
102.5031193328
 20
96.7188120965
 10
102.4918195505
 20
96.7137098209
 10
102.480943076
 20
96.708410887
 10
102.4704967031
 20
96.7029224734
 10
102.4604732598
 20
96.6972407718
 10
102.4508430371
 20
96.6913932296
 10
102.4416056132
 20
96.6853844501
 10
102.4327607564
 20
96.6792131409
 10
102.4242789127
 20
96.6728979518
 10
102.4161592546
 20
96.6664430727
 10
102.4084018327
 20
96.6598474123
 10
102.4009784576
 20
96.6531215839
 10
102.3938854393
 20
96.6462661156
 10
102.3871257769
 20
96.6392832219
 10
102.3806813492
 20
96.6321859483
 10
102.3745520539
 20
96.6249797585
 10
102.3687371172
 20
96.6176618146
 10
102.3632175044
 20
96.610232586
 10
102.3579867082
 20
96.6026929428
 10
102.3530506019
 20
96.5950442552
 10
102.3484088341
 20
96.5872876175
  0
LWPOLYLINE
  5
349
100
AcDbEntity
  8
IMPORT_IGES
100
AcDbPolyline
 62
7
  6
CONTINUOUS
 90
3
 70
0
 10
102.8944136
 20
96.7325259715
 10
102.8776305255
 20
96.7371707496
 10
102.860686773
 20
96.7413796618
  0
LWPOLYLINE
  5
34A
100
AcDbEntity
  8
IMPORT_IGES
100
AcDbPolyline
 62
7
  6
CONTINUOUS
 90
23
 70
0
 10
87.8600092737
 20
93.6439064541
 10
87.9227640488
 20
93.6098458015
 10
87.9859089426
 20
93.5779122347
 10
88.049443955
 20
93.5481057537
 10
88.1135341081
 20
93.5200900375
 10
88.1780143799
 20
93.494201407
 10
88.2423897042
 20
93.4714488255
 10
88.3066380569
 20
93.4521498084
 10
88.3707814621
 20
93.4359868403
 10
88.4343909258
 20
93.4230163381
 10
88.4977964233
 20
93.413255236
 10
88.5606679793
 20
93.4066865999
 10
88.621586674
 20
93.4033160436
 10
88.6798667522
 20
93.4031327873
 10
88.7361939691
 20
93.4061476109
 10
88.7912066703
 20
93.412398468
 10
88.8450588126
 20
93.4221010812
 10
88.8975964391
 20
93.4350397279
 10
88.9489960253
 20
93.450605193
 10
88.9995050811
 20
93.4683324496
 10
89.0488760966
 20
93.4886865246
 10
89.0965430169
 20
93.5124532843
 10
89.1100953426
 20
93.5200683312
  0
LWPOLYLINE
  5
34B
100
AcDbEntity
  8
IMPORT_IGES
100
AcDbPolyline
 62
7
  6
CONTINUOUS
 90
23
 70
0
 10
87.8600092737
 20
97.7262578381
 10
87.7972544986
 20
97.7603184907
 10
87.7341096049
 20
97.7922520575
 10
87.6705745925
 20
97.8220585384
 10
87.6064844394
 20
97.8500742547
 10
87.5420041676
 20
97.8759628851
 10
87.4776288433
 20
97.8987154666
 10
87.4133804906
 20
97.9180144837
 10
87.3492370854
 20
97.9341774518
 10
87.2856276217
 20
97.947147954
 10
87.2222221242
 20
97.9569090561
 10
87.1593505682
 20
97.9634776922
 10
87.0984318735
 20
97.9668482485
 10
87.0401517953
 20
97.9670315048
 10
86.9838245784
 20
97.9640166812
 10
86.9288118772
 20
97.9577658242
 10
86.8749597349
 20
97.9480632109
 10
86.8224221083
 20
97.9351245642
 10
86.7710225222
 20
97.9195590991
 10
86.7205134663
 20
97.9018318426
 10
86.6711424509
 20
97.8814777676
 10
86.6234755306
 20
97.8577110079
 10
86.6099232049
 20
97.850095961
  0
LWPOLYLINE
  5
34C
100
AcDbEntity
  8
IMPORT_IGES
100
AcDbPolyline
 62
7
  6
CONTINUOUS
 90
53
 70
0
 10
88.7085374112
 20
94.1338359661
 10
88.639879494
 20
94.1750246771
 10
88.5715071369
 20
94.2190977251
 10
88.5034203401
 20
94.2660551103
 10
88.4355087604
 20
94.3159816975
 10
88.367882741
 20
94.3687926217
 10
88.3008733105
 20
94.4242332887
 10
88.2344775706
 20
94.4823273043
 10
88.1686984197
 20
94.5430510626
 10
88.1038755819
 20
94.6060791516
 10
88.0400664154
 20
94.671361556
 10
87.9772135619
 20
94.7389482911
 10
87.9154846707
 20
94.8086639895
 10
87.854824656
 20
94.8805817634
 10
87.7952886036
 20
94.9546285006
 10
87.73720942
 20
95.0304094978
 10
87.6806113495
 20
95.1079175658
 10
87.6254701479
 20
95.1871598937
 10
87.5720459889
 20
95.2677633453
 10
87.5203367955
 20
95.3497590663
 10
87.4703446447
 20
95.4331159109
 10
87.4223359416
 20
95.5173673056
 10
87.3763545514
 20
95.6024524897
 10
87.3323566089
 20
95.688432224
 10
87.290476923
 20
95.7750222166
 10
87.2507118226
 20
95.8622310329
 10
87.2130649788
 20
95.9500501076
 10
87.1776822142
 20
96.038169453
 10
87.1445502945
 20
96.1266536786
 10
87.1136824539
 20
96.2154381748
 10
87.0852642172
 20
96.3040191251
 10
87.059322379
 20
96.392364466
 10
87.0358301448
 20
96.4805062611
 10
87.0148926563
 20
96.5680368847
 10
86.9965228111
 20
96.6549518511
 10
86.9807077116
 20
96.741255646
 10
86.9675138071
 20
96.8265541009
 10
86.9569536529
 20
96.9108378762
 10
86.9490146937
 20
96.9941163116
 10
86.9437257116
 20
97.0760232579
 10
86.9410978585
 20
97.1565521054
 10
86.9411199826
 20
97.2357094639
 10
86.9437874107
 20
97.3131490136
 10
86.949110987
 20
97.3888629146
 10
86.9570798674
 20
97.4628590069
 10
86.9676568457
 20
97.5348144912
 10
86.9808521621
 20
97.6047202194
 10
86.9966555764
 20
97.6725853397
 10
87.0149991621
 20
97.7381144968
 10
87.0358925976
 20
97.8012982771
 10
87.0593262045
 20
97.8621460943
 10
87.0852030209
 20
97.9203908337
 10
87.1085807918
 20
97.9662867214
  0
LWPOLYLINE
  5
34D
100
AcDbEntity
  8
IMPORT_IGES
100
AcDbPolyline
 62
7
  6
CONTINUOUS
 90
40
 70
0
 10
101.6645053495
 20
96.0217568642
 10
101.6581658148
 20
96.0364040701
 10
101.652011577
 20
96.0517623211
 10
101.6460498096
 20
96.0678319625
 10
101.6402672742
 20
96.0846172795
 10
101.6346928546
 20
96.1021144445
 10
101.6293978389
 20
96.1203115154
 10
101.6243926216
 20
96.1392131459
 10
101.6196857725
 20
96.1588144518
 10
101.6153468833
 20
96.1790889683
 10
101.6113875558
 20
96.2000436407
 10
101.6078180488
 20
96.221670131
 10
101.6047064642
 20
96.2439186984
 10
101.6020667529
 20
96.2668096691
 10
101.5999089691
 20
96.2903196528
 10
101.5982943861
 20
96.3143329053
 10
101.5972400966
 20
96.3388500106
 10
101.5967520994
 20
96.3638653453
 10
101.5968723378
 20
96.3892534947
 10
101.5976171007
 20
96.4150228724
 10
101.598990955
 20
96.4411580276
 10
101.6010140634
 20
96.4674976651
 10
101.6036987834
 20
96.4940276253
 10
101.6070484851
 20
96.520753592
 10
101.6110648931
 20
96.5475443157
 10
101.6157586111
 20
96.5743962881
 10
101.6211301353
 20
96.601303571
 10
101.6271610402
 20
96.6281319361
 10
101.6338550602
 20
96.6548646896
 10
101.6412138413
 20
96.6815090742
 10
101.6492111741
 20
96.7079677513
 10
101.6578498342
 20
96.7342360898
 10
101.6671282471
 20
96.760309657
 10
101.677009638
 20
96.786092638
 10
101.6874899109
 20
96.811576674
 10
101.6985700026
 20
96.8367623163
 10
101.7102170272
 20
96.8615686011
 10
101.7224171609
 20
96.8859668143
 10
101.7351774451
 20
96.9099796712
 10
101.7484946744
 20
96.9336041831
  0
LINE
  5
34E
100
AcDbEntity
  8
IMPORT_IGES
100
AcDbLine
 62
7
  6
CONTINUOUS
 10
102.9351007581
 20
96.7556125753
 11
102.651789977
 21
97.4552232883
  0
LWPOLYLINE
  5
34F
100
AcDbEntity
  8
IMPORT_IGES
100
AcDbPolyline
 62
7
  6
CONTINUOUS
 90
35
 70
0
 10
155.7249728909
 20
-87.51034401
 10
155.7219687022
 20
-87.2546199481
 10
155.7130018004
 20
-87.0028645173
 10
155.6980721855
 20
-86.7550777175
 10
155.6771586102
 20
-86.5110688831
 10
155.6502823218
 20
-86.2710286797
 10
155.6175070622
 20
-86.035529105
 10
155.5788142912
 20
-85.8045825309
 10
155.534222549
 20
-85.5781765854
 10
155.4838511983
 20
-85.3568461498
 10
155.4277169839
 20
-85.1406820825
 10
155.365803161
 20
-84.929593525
 10
155.2981788574
 20
-84.7238427833
 10
155.2247986598
 20
-84.5233318629
 10
155.1457079815
 20
-84.3281587583
 10
155.0611121898
 20
-84.1388797592
 10
154.9710115627
 20
-83.95555431
 10
154.8754058222
 20
-83.7781229663
 10
154.7744995018
 20
-83.6069636852
 10
154.6682564992
 20
-83.4420650838
 10
154.5567129167
 20
-83.283438545
 10
154.4401815939
 20
-83.1314961745
 10
154.3187032293
 20
-82.9863120915
 10
154.1922371245
 20
-82.8478121768
 10
154.0609740243
 20
-82.7161861784
 10
153.924887891
 20
-82.5914136002
 10
153.7840047624
 20
-82.4735149384
 10
153.6385934967
 20
-82.3627414294
 10
153.4886153069
 20
-82.2590916354
 10
153.3341089801
 20
-82.1625669942
 10
153.1754597351
 20
-82.0734230557
 10
153.0126555588
 20
-81.9916875237
 10
152.8457084645
 20
-81.9173326944
 10
152.6750397105
 20
-81.850531007
 10
152.5006652997
 20
-81.7913112789
  0
LWPOLYLINE
  5
350
100
AcDbEntity
  8
IMPORT_IGES
100
AcDbPolyline
 62
7
  6
CONTINUOUS
 90
22
 70
0
 10
139.5039444049
 20
-97.616859865
 10
139.5063259481
 20
-97.845147998
 10
139.5134526601
 20
-98.0699059296
 10
139.5252940114
 20
-98.2909830312
 10
139.5418128416
 20
-98.5082118383
 10
139.5629701844
 20
-98.7214730066
 10
139.5887293168
 20
-98.9306864978
 10
139.6190365427
 20
-99.1356629161
 10
139.6538468694
 20
-99.3363173692
 10
139.6931454891
 20
-99.5327086506
 10
139.7368815748
 20
-99.7246822466
 10
139.7850048568
 20
-99.9121147349
 10
139.8375203603
 20
-100.0950817169
 10
139.8943635037
 20
-100.2733905086
 10
139.9554946019
 20
-100.4469530815
 10
140.0209856658
 20
-100.6159578643
 10
140.0907792874
 20
-100.7802076841
 10
140.1648469628
 20
-100.9395949583
 10
140.243351344
 20
-101.0943756032
 10
140.3262638651
 20
-101.2443577509
 10
140.4135664719
 20
-101.3893840313
 10
140.5054974088
 20
-101.5296805769
  0
LWPOLYLINE
  5
351
100
AcDbEntity
  8
IMPORT_IGES
100
AcDbPolyline
 62
250
  6
CONTINUOUS
 90
121
 70
0
 10
139.2110511861
 20
-98.0251344583
 10
139.2141707994
 20
-97.7490464732
 10
139.2234851213
 20
-97.4699128946
 10
139.2389941518
 20
-97.1877337223
 10
139.2607187169
 20
-96.902291619
 10
139.2886379906
 20
-96.6138039221
 10
139.3226894949
 20
-96.3229226438
 10
139.3628917657
 20
-96.0296375013
 10
139.4092262672
 20
-95.7339587775
 10
139.461574913
 20
-95.4365693331
 10
139.5199210373
 20
-95.1375816814
 10
139.584281306
 20
-94.8368833092
 10
139.6545876305
 20
-94.5348195374
 10
139.7308847244
 20
-94.2312385051
 10
139.8131278741
 20
-93.9262920732
 10
139.9011148504
 20
-93.6207811454
 10
139.9948460834
 20
-93.3147640733
 10
140.0943211429
 20
-93.0081825052
 10
140.1993365096
 20
-92.7016622904
 10
140.30992724
 20
-92.3951515835
 10
140.4260582776
 20
-92.0887022298
 10
140.5474209339
 20
-91.7830956147
 10
140.673977269
 20
-91.4784495017
 10
140.8057652228
 20
-91.1746461273
 10
140.9425899265
 20
-90.8721135855
 10
141.0844721508
 20
-90.5708107853
 10
141.2313911251
 20
-90.2707788176
 10
141.3830896685
 20
-89.9725690499
 10
141.5396098801
 20
-89.6761260857
 10
141.7009096609
 20
-89.3815053216
 10
141.8666055328
 20
-89.0894243145
 10
142.0367070865
 20
-88.7999004445
 10
142.2112047314
 20
-88.5129163316
 10
142.3896862177
 20
-88.2291373932
 10
142.5721428673
 20
-87.948601227
 10
142.7585833584
 20
-87.6712702352
 10
142.9486214758
 20
-87.3976970424
 10
143.142225268
 20
-87.1279343647
 10
143.3394266865
 20
-86.861929486
 10
143.5399353702
 20
-86.6000768812
 10
143.7438131325
 20
-86.3423092523
 10
143.9509981601
 20
-86.0886938975
 10
144.1610146526
 20
-85.8398271856
 10
144.3738598589
 20
-85.5957350277
 10
144.58953653
 20
-85.3563915128
 10
144.8075771187
 20
-85.1223152776
 10
145.0279796445
 20
-84.8935263342
 10
145.2507460878
 20
-84.6700046704
 10
145.4754148427
 20
-84.4522088862
 10
145.7019630168
 20
-84.240171525
 10
145.9304135024
 20
-84.0338600433
 10
146.1603733702
 20
-83.8336354105
 10
146.3918933691
 20
-83.6394688642
 10
146.6249227503
 20
-83.4513891668
 10
146.8589163378
 20
-83.2698435741
 10
147.0938585074
 20
-83.0948639368
 10
147.3297648834
 20
-82.9264184043
 10
147.5661371619
 20
-82.7648586811
 10
147.8029719267
 20
-82.6102026704
 10
148.040272594
 20
-82.4624324691
 10
148.2775511094
 20
-82.321846072
 10
148.5148020314
 20
-82.1884604588
 10
148.7520308016
 20
-82.0622586499
 10
148.9887656904
 20
-81.9434877009
 10
149.2250073327
 20
-81.8321605218
 10
149.4607550937
 20
-81.7282642026
 10
149.6955353388
 20
-81.632007069
 10
149.9293665044
 20
-81.5433993748
 10
150.1622301543
 20
-81.4624308663
 10
150.3935973453
 20
-81.3892791072
 10
150.6234247452
 20
-81.3239711079
 10
150.8517556863
 20
-81.2664798581
 10
151.0781912226
 20
-81.2169018906
 10
151.3027528216
 20
-81.1752441297
 10
151.5254190158
 20
-81.1414996511
 10
151.7457264565
 20
-81.115744215
 10
151.9636685887
 20
-81.0979947149
 10
152.1792519675
 20
-81.0882342574
 10
152.3920329098
 20
-81.0864879215
 10
152.6020185778
 20
-81.0927754387
 10
152.8092018092
 20
-81.1070770776
 10
153.0131174349
 20
-81.1293587234
 10
153.2137232007
 20
-81.1596296394
 10
153.4110613608
 20
-81.1978805624
 10
153.6047935083
 20
-81.2440495877
 10
153.7949408625
 20
-81.2981555132
 10
153.9814822042
 20
-81.3601795409
 10
154.1640154688
 20
-81.4300033724
 10
154.3425377256
 20
-81.5076499617
 10
154.5170519053
 20
-81.5930963547
 10
154.6871647353
 20
-81.6861553916
 10
154.8528682013
 20
-81.7868527247
 10
155.0141703175
 20
-81.8951627017
 10
155.1707018539
 20
-82.0108212049
 10
155.3224272773
 20
-82.1338250527
 10
155.4693821209
 20
-82.2641774269
 10
155.6113037535
 20
-82.4016237551
 10
155.7481726267
 20
-82.546150436
 10
155.880008289
 20
-82.6977710709
 10
156.0066067551
 20
-82.8562718921
 10
156.128002722
 20
-83.0217248301
 10
156.2441614928
 20
-83.1940579544
 10
156.354774991
 20
-83.3728417059
 10
156.4598075183
 20
-83.5580640107
 10
156.559294773
 20
-83.7497369427
 10
156.6530357738
 20
-83.9474671644
 10
156.7410297018
 20
-84.1513118496
 10
156.823277376
 20
-84.3612138245
 10
156.8995802727
 20
-84.5766082302
 10
156.9698931261
 20
-84.7973876169
 10
157.034261202
 20
-85.0236594345
 10
157.0926217735
 20
-85.2551811734
 10
157.1449938794
 20
-85.4920425145
 10
157.1913584808
 20
-85.7341537769
 10
157.2315957344
 20
-85.9810034093
 10
157.2656901251
 20
-86.2326011418
 10
157.2936571679
 20
-86.4889372442
 10
157.3154235641
 20
-86.7494709746
 10
157.3309648808
 20
-87.0140220855
 10
157.3403055508
 20
-87.2827708242
 10
157.3434455741
 20
-87.5557171909
  0
LINE
  5
352
100
AcDbEntity
  8
0
100
AcDbLine
 62
7
  6
CONTINUOUS
 10
52.4618841449
 20
-225.3619512384
 11
50.510975209
 21
-230.1369322628
  0
LWPOLYLINE
  5
353
100
AcDbEntity
  8
IMPORT_IGES
100
AcDbPolyline
 62
7
  6
CONTINUOUS
 90
30
 70
0
 10
161.6459068797
 20
130.8201984931
 10
161.6516917163
 20
130.8193381683
 10
161.6574238941
 20
130.8190656332
 10
161.663198364
 20
130.8193681064
 10
161.6689936874
 20
130.8202416626
 10
161.6747701047
 20
130.8217182763
 10
161.6805128253
 20
130.8238065036
 10
161.6862014577
 20
130.8265012213
 10
161.6917921804
 20
130.8298128326
 10
161.6972733208
 20
130.8337521417
 10
161.7026245393
 20
130.8383099902
 10
161.7077964997
 20
130.8434654247
 10
161.7127733124
 20
130.8492188631
 10
161.7175479152
 20
130.8555691807
 10
161.7220919924
 20
130.8624918508
 10
161.7263941675
 20
130.8699830976
 10
161.7304481406
 20
130.8780445526
 10
161.7342378538
 20
130.8866591025
 10
161.7377589046
 20
130.8958354973
 10
161.7410001691
 20
130.9055619653
 10
161.7439413765
 20
130.9157899779
 10
161.7465799956
 20
130.9265259168
 10
161.7489118638
 20
130.9377592667
 10
161.7509236817
 20
130.9494154924
 10
161.7526173632
 20
130.9615094794
 10
161.7539950376
 20
130.9740216052
 10
161.7550539184
 20
130.9868251843
 10
161.7557999942
 20
130.9998763769
 10
161.7562424874
 20
131.0132143639
 10
161.7563884398
 20
131.0268369857
  0
LINE
  5
354
100
AcDbEntity
  8
IMPORT_IGES
100
AcDbLine
 62
250
  6
CONTINUOUS
 10
100.9417497493
 20
95.6031224969
 11
-161.1120233584
 21
246.9096867841
  0
LINE
  5
355
100
AcDbEntity
  8
IMPORT_IGES
100
AcDbLine
 62
250
  6
CONTINUOUS
 10
103.2030772355
 20
97.890103167
 11
-160.2620810074
 21
250.0115835425
  0
LINE
  5
356
100
AcDbEntity
  8
IMPORT_IGES
100
AcDbLine
 62
7
  6
CONTINUOUS
 10
112.5383009608
 20
101.317254953
 11
111.6897728233
 21
101.807184465
  0
LINE
  5
357
100
AcDbEntity
  8
IMPORT_IGES
100
AcDbLine
 62
7
  6
CONTINUOUS
 10
111.6883586098
 20
102.7893982869
 11
-151.7767996332
 21
254.9108786625
  0
LWPOLYLINE
  5
358
100
AcDbEntity
  8
IMPORT_IGES
100
AcDbPolyline
 62
7
  6
CONTINUOUS
 90
13
 70
0
 10
102.3118870931
 20
96.3932543934
 10
102.3276697071
 20
96.3825930055
 10
102.3434282719
 20
96.3729472709
 10
102.3591582377
 20
96.3643156999
 10
102.3748170667
 20
96.3567346885
 10
102.3904383447
 20
96.3501640561
 10
102.406132474
 20
96.3444905125
 10
102.4220987874
 20
96.3396677414
 10
102.438130945
 20
96.3357487586
 10
102.4537297505
 20
96.3327586534
 10
102.468725153
 20
96.3306918697
 10
102.4832779765
 20
96.3295274325
 10
102.4973847138
 20
96.3292540605
  0
LINE
  5
359
100
AcDbEntity
  8
IMPORT_IGES
100
AcDbLine
 62
7
  6
CONTINUOUS
 10
103.4007734416
 20
96.157945875
 11
102.936516516
 21
96.7531636634
  0
LINE
  5
35A
100
AcDbEntity
  8
IMPORT_IGES
100
AcDbLine
 62
7
  6
CONTINUOUS
 10
160.1099418304
 20
-244.5436691644
 11
160.1099418304
 21
-243.7272777975
  0
LINE
  5
35B
100
AcDbEntity
  8
IMPORT_IGES
100
AcDbLine
 62
7
  6
CONTINUOUS
 10
160.1099418304
 20
130.0516742863
 11
160.1099418304
 21
129.1536358916
  0
LINE
  5
35C
100
AcDbEntity
  8
IMPORT_IGES
100
AcDbLine
 62
7
  6
CONTINUOUS
 10
160.8170486116
 20
-244.9519437577
 11
160.8170486116
 21
-243.3190032041
  0
LINE
  5
35D
100
AcDbEntity
  8
IMPORT_IGES
100
AcDbLine
 62
7
  6
CONTINUOUS
 10
160.8170486116
 20
130.3783018519
 11
160.8170486116
 21
128.7453612983
  0
LINE
  5
35E
100
AcDbEntity
  8
IMPORT_IGES
100
AcDbLine
 62
250
  6
CONTINUOUS
 10
161.1706020022
 20
130.5824391486
 11
161.1706020022
 21
-244.747806461
  0
LINE
  5
35F
100
AcDbEntity
  8
IMPORT_IGES
100
AcDbLine
 62
7
  6
CONTINUOUS
 10
161.1706020022
 20
130.6640861762
 11
161.1706020022
 21
131.480556453
  0
LINE
  5
360
100
AcDbEntity
  8
IMPORT_IGES
100
AcDbLine
 62
7
  6
CONTINUOUS
 10
161.1706020022
 20
-244.8294534887
 11
161.1706020022
 21
-245.6459237655
  0
LINE
  5
361
100
AcDbEntity
  8
IMPORT_IGES
100
AcDbLine
 62
7
  6
CONTINUOUS
 10
161.7563884398
 20
131.0271510803
 11
161.7563884398
 21
-243.5594200195
  0
LWPOLYLINE
  5
362
100
AcDbEntity
  8
IMPORT_IGES
100
AcDbPolyline
 62
250
  6
CONTINUOUS
 90
121
 70
0
 10
157.3434455741
 20
-87.5557171909
 10
157.3403259608
 20
-87.831805176
 10
157.3310116389
 20
-88.1109387546
 10
157.3155026083
 20
-88.3931179269
 10
157.2937780432
 20
-88.6785600302
 10
157.2658587696
 20
-88.9670477271
 10
157.2318072653
 20
-89.2579290054
 10
157.1916049944
 20
-89.5512141479
 10
157.145270493
 20
-89.8468928717
 10
157.0929218472
 20
-90.1442823161
 10
157.0345757229
 20
-90.4432699678
 10
156.9702154542
 20
-90.7439683401
 10
156.8999091297
 20
-91.0460321119
 10
156.8236120358
 20
-91.3496131442
 10
156.7413688861
 20
-91.654559576
 10
156.6533819097
 20
-91.9600705038
 10
156.5596506768
 20
-92.2660875759
 10
156.4601756173
 20
-92.572669144
 10
156.3551602506
 20
-92.8791893588
 10
156.2445695202
 20
-93.1857000657
 10
156.1284384826
 20
-93.4921494194
 10
156.0070758263
 20
-93.7977560346
 10
155.8805194912
 20
-94.1024021475
 10
155.7487315374
 20
-94.4062055219
 10
155.6119068337
 20
-94.7087380637
 10
155.4700246094
 20
-95.010040864
 10
155.3231056351
 20
-95.3100728316
 10
155.1714070916
 20
-95.6082825993
 10
155.01488688
 20
-95.9047255635
 10
154.8535870993
 20
-96.1993463276
 10
154.6878912274
 20
-96.4914273347
 10
154.5177896737
 20
-96.7809512047
 10
154.3432920288
 20
-97.0679353176
 10
154.1648105425
 20
-97.351714256
 10
153.9823538928
 20
-97.6322504222
 10
153.7959134017
 20
-97.909581414
 10
153.6058752844
 20
-98.1831546069
 10
153.4122714922
 20
-98.4529172845
 10
153.2150700737
 20
-98.7189221632
 10
153.01456139
 20
-98.980774768
 10
152.8106836277
 20
-99.2385423969
 10
152.6034986001
 20
-99.4921577518
 10
152.3934821076
 20
-99.7410244636
 10
152.1806369013
 20
-99.9851166215
 10
151.9649602302
 20
-100.2244601364
 10
151.7469196415
 20
-100.4585363717
 10
151.5265171157
 20
-100.6873253151
 10
151.3037506724
 20
-100.9108469788
 10
151.0790819175
 20
-101.1286427631
 10
150.8525337434
 20
-101.3406801242
 10
150.6240832578
 20
-101.5469916059
 10
150.39412339
 20
-101.7472162387
 10
150.162603391
 20
-101.941382785
 10
149.9295740099
 20
-102.1294624824
 10
149.6955804224
 20
-102.3110080751
 10
149.4606382528
 20
-102.4859877124
 10
149.2247318768
 20
-102.6544332449
 10
148.9883595982
 20
-102.8159929681
 10
148.7515248335
 20
-102.9706489788
 10
148.5142241662
 20
-103.1184191801
 10
148.2769456508
 20
-103.2590055772
 10
148.0396947287
 20
-103.3923911904
 10
147.8024659586
 20
-103.5185929993
 10
147.5657310698
 20
-103.6373639484
 10
147.3294894274
 20
-103.7486911274
 10
147.0937416665
 20
-103.8525874466
 10
146.8589614213
 20
-103.9488445802
 10
146.6251302557
 20
-104.0374522744
 10
146.3922666059
 20
-104.1184207829
 10
146.1608994149
 20
-104.191572542
 10
145.931072015
 20
-104.2568805413
 10
145.7027410739
 20
-104.3143717911
 10
145.4763055376
 20
-104.3639497586
 10
145.2517439386
 20
-104.4056075196
 10
145.0290777444
 20
-104.4393519981
 10
144.8087703037
 20
-104.4651074342
 10
144.5908281715
 20
-104.4828569343
 10
144.3752447927
 20
-104.4926173918
 10
144.1624638504
 20
-104.4943637277
 10
143.9524781824
 20
-104.4880762105
 10
143.745294951
 20
-104.4737745717
 10
143.5413793252
 20
-104.4514929258
 10
143.3407735595
 20
-104.4212220098
 10
143.1434353994
 20
-104.3829710868
 10
142.9497032519
 20
-104.3368020615
 10
142.7595558977
 20
-104.2826961361
 10
142.573014556
 20
-104.2206721083
 10
142.3904812914
 20
-104.1508482768
 10
142.2119590345
 20
-104.0732016876
 10
142.0374448549
 20
-103.9877552945
 10
141.8673320249
 20
-103.8946962576
 10
141.7016285589
 20
-103.7939989245
 10
141.5403264426
 20
-103.6856889475
 10
141.3837949063
 20
-103.5700304443
 10
141.2320694828
 20
-103.4470265965
 10
141.0851146393
 20
-103.3166742223
 10
140.9431930067
 20
-103.1792278941
 10
140.8063241335
 20
-103.0347012133
 10
140.6744884712
 20
-102.8830805783
 10
140.5478900051
 20
-102.7245797571
 10
140.4264940381
 20
-102.5591268191
 10
140.3103352674
 20
-102.3867936948
 10
140.1997217691
 20
-102.2080099433
 10
140.0946892419
 20
-102.0227876385
 10
139.9952019872
 20
-101.8311147065
 10
139.9014609863
 20
-101.6333844848
 10
139.8134670584
 20
-101.4295397996
 10
139.7312193841
 20
-101.2196378248
 10
139.6549164875
 20
-101.004243419
 10
139.5846036341
 20
-100.7834640323
 10
139.5202355582
 20
-100.5571922148
 10
139.4618749867
 20
-100.3256704758
 10
139.4095028808
 20
-100.0888091347
 10
139.3631382794
 20
-99.8466978723
 10
139.3229010258
 20
-99.5998482399
 10
139.2888066351
 20
-99.3482505074
 10
139.2608395922
 20
-99.091914405
 10
139.239073196
 20
-98.8313806746
 10
139.2235318794
 20
-98.5668295638
 10
139.2141912094
 20
-98.298080825
 10
139.2110511861
 20
-98.0251344583
  0
LWPOLYLINE
  5
363
100
AcDbEntity
  8
IMPORT_IGES
100
AcDbPolyline
 62
250
  6
CONTINUOUS
 90
96
 70
0
 10
156.1363387929
 20
-87.6474748119
 10
156.1333168869
 20
-87.9091016365
 10
156.1242533474
 20
-88.1740294641
 10
156.1091547088
 20
-88.4420672962
 10
156.0880318563
 20
-88.7130218925
 10
156.0609000183
 20
-88.9866979096
 10
156.0277787555
 20
-89.2628980424
 10
155.9886919463
 20
-89.5414231657
 10
155.9436677703
 20
-89.8220724784
 10
155.8927386874
 20
-90.104643648
 10
155.8359414146
 20
-90.3889329561
 10
155.7733168995
 20
-90.6747354459
 10
155.7049102911
 20
-90.9618450698
 10
155.6307709067
 20
-91.2500548374
 10
155.5509521967
 20
-91.5391569656
 10
155.4655117059
 20
-91.8289430276
 10
155.3745110323
 20
-92.1192041038
 10
155.2780157823
 20
-92.4097309321
 10
155.1760955235
 20
-92.7003140585
 10
155.0688237349
 20
-92.9907439889
 10
154.9562777536
 20
-93.2808113392
 10
154.8385387188
 20
-93.570306987
 10
154.715691514
 20
-93.8590222219
 10
154.5878247052
 20
-94.1467488962
 10
154.4550304773
 20
-94.433279575
 10
154.3174045675
 20
-94.7184076854
 10
154.1750461966
 20
-95.0019276659
 10
154.028057997
 20
-95.2836351142
 10
153.8765459392
 20
-95.5633269349
 10
153.7206192548
 20
-95.8408014856
 10
153.5603903585
 20
-96.1158587226
 10
153.3959747663
 20
-96.3883003448
 10
153.2274910128
 20
-96.6579299368
 10
153.0550605656
 20
-96.9245531107
 10
152.8788077374
 20
-97.187977646
 10
152.6988595966
 20
-97.448013628
 10
152.5153458761
 20
-97.7044735852
 10
152.328398879
 20
-97.9571726243
 10
152.1381533838
 20
-98.2059285631
 10
151.9447465469
 20
-98.4505620624
 10
151.7483178039
 20
-98.6908967551
 10
151.5490087692
 20
-98.926759373
 10
151.3469631334
 20
-99.1579798724
 10
151.1423265604
 20
-99.3843915559
 10
150.9352465818
 20
-99.6058311934
 10
150.7258724907
 20
-99.822139139
 10
150.5143552343
 20
-100.0331594468
 10
150.3008473048
 20
-100.2387399828
 10
150.0855026297
 20
-100.4387325347
 10
149.8684764606
 20
-100.6329929191
 10
149.6499252612
 20
-100.8213810849
 10
149.4300065949
 20
-101.0037612147
 10
149.2088790109
 20
-101.1800018225
 10
148.98670193
 20
-101.3499758486
 10
148.7636355294
 20
-101.5135607511
 10
148.5398406279
 20
-101.6706385943
 10
148.315478569
 20
-101.8210961339
 10
148.0907111055
 20
-101.9648248983
 10
147.8657002822
 20
-102.1017212669
 10
147.6406083194
 20
-102.2316865452
 10
147.4155974961
 20
-102.3546270352
 10
147.1908300326
 20
-102.4704541037
 10
146.9664679737
 20
-102.5790842459
 10
146.7426730722
 20
-102.6804391453
 10
146.5196066716
 20
-102.7744457308
 10
146.2974295907
 20
-102.8610362287
 10
146.0763020067
 20
-102.9401482121
 10
145.8563833404
 20
-103.0117246457
 10
145.637832141
 20
-103.0757139268
 10
145.4208059719
 20
-103.1320699226
 10
145.2054612967
 20
-103.1807520037
 10
144.9919533673
 20
-103.2217250729
 10
144.7804361109
 20
-103.2549595909
 10
144.5710620198
 20
-103.2804315975
 10
144.3639820412
 20
-103.2981227287
 10
144.1593454682
 20
-103.3080202303
 10
143.9572998324
 20
-103.3101169667
 10
143.7579907977
 20
-103.3044114262
 10
143.5615620547
 20
-103.2909077222
 10
143.3681552178
 20
-103.2696155902
 10
143.1779097226
 20
-103.2405503806
 10
142.9909627255
 20
-103.2037330478
 10
142.807449005
 20
-103.1591901351
 10
142.6275008642
 20
-103.1069537554
 10
142.451248036
 20
-103.0470615683
 10
142.2788175887
 20
-102.9795567528
 10
142.1103338353
 20
-102.904487976
 10
141.9459182431
 20
-102.8219093584
 10
141.7856893468
 20
-102.7318804347
 10
141.6297626624
 20
-102.6344661106
 10
141.4782506045
 20
-102.5297366166
 10
141.331262405
 20
-102.4177674568
 10
141.1889040341
 20
-102.2986393547
 10
141.0512781243
 20
-102.1724381951
 10
140.9184838964
 20
-102.0392549622
 10
140.8094025326
 20
-101.9205444017
  0
LWPOLYLINE
  5
364
100
AcDbEntity
  8
IMPORT_IGES
100
AcDbPolyline
 62
7
  6
CONTINUOUS
 90
21
 70
0
 10
160.1099418304
 20
-243.7272777975
 10
160.1087748011
 20
-243.7925999151
 10
160.1053320445
 20
-243.85627581
 10
160.0996135607
 20
-243.9183054822
 10
160.0916017464
 20
-243.9787821934
 10
160.0813142049
 20
-244.0376126819
 10
160.0688037459
 20
-244.0945171627
 10
160.0540602399
 20
-244.149486261
 10
160.0370938165
 20
-244.2025293515
 10
160.0179876748
 20
-244.2533947737
 10
159.9967337582
 20
-244.3020706179
 10
159.9733401234
 20
-244.3485687938
 10
159.947914139
 20
-244.3926733697
 10
159.9204429874
 20
-244.4343784535
 10
159.8909394862
 20
-244.4736899374
 10
159.8595494566
 20
-244.5104095658
 10
159.8262636531
 20
-244.5445228315
 10
159.7910913212
 20
-244.5760442419
 10
159.7542060192
 20
-244.6048190632
 10
159.7156001795
 20
-244.6308328577
 10
159.695776391
 20
-244.6427516337
  0
LWPOLYLINE
  5
365
100
AcDbEntity
  8
IMPORT_IGES
100
AcDbPolyline
 62
7
  6
CONTINUOUS
 90
15
 70
0
 10
101.5996361358
 20
-281.9659395415
 10
101.5967415772
 20
-281.9764716754
 10
101.5957262698
 20
-281.9879103255
 10
101.5966392128
 20
-282.0001621084
 10
101.5995361902
 20
-282.0131653962
 10
101.6044806167
 20
-282.0268175114
 10
101.6115696324
 20
-282.0411261142
 10
101.6208178661
 20
-282.0558973236
 10
101.6321229341
 20
-282.0707782433
 10
101.6452668277
 20
-282.0855058222
 10
101.6604755545
 20
-282.1002843973
 10
101.6783060622
 20
-282.1154649235
 10
101.6989880037
 20
-282.131076122
 10
101.7223861269
 20
-282.1468808465
 10
101.7485421838
 20
-282.1627748896
  0
LINE
  5
366
100
AcDbEntity
  8
IMPORT_IGES
100
AcDbLine
 62
7
  6
CONTINUOUS
 10
102.6517924355
 20
-282.4601896932
 11
102.8468135698
 21
-281.7533942056
  0
LWPOLYLINE
  5
367
100
AcDbEntity
  8
IMPORT_IGES
100
AcDbPolyline
 62
7
  6
CONTINUOUS
 90
17
 70
0
 10
140.1324200428
 20
-93.5656924878
 10
140.1225000683
 20
-93.5996896279
 10
140.0428456223
 20
-93.882380175
 10
139.9685580825
 20
-94.1639704991
 10
139.899732751
 20
-94.4440312005
 10
139.836423505
 20
-94.7222271642
 10
139.778616811
 20
-94.9984885856
 10
139.726297483
 20
-95.2727821699
 10
139.6794724153
 20
-95.5449866806
 10
139.638173057
 20
-95.8148186848
 10
139.60241922
 20
-96.0819978542
 10
139.5722070715
 20
-96.3463605904
 10
139.5475354538
 20
-96.6076805136
 10
139.5284044119
 20
-96.865588592
 10
139.5147882965
 20
-97.1198422603
 10
139.5066481173
 20
-97.3703236482
 10
139.5039444049
 20
-97.616859865
  0
LWPOLYLINE
  5
368
100
AcDbEntity
  8
IMPORT_IGES
100
AcDbPolyline
 62
7
  6
CONTINUOUS
 90
34
 70
0
 10
144.8765811219
 20
-85.3490466554
 10
144.685462528
 20
-85.552303012
 10
144.4961215247
 20
-85.7599461909
 10
144.3086863733
 20
-85.9718509906
 10
144.1232884006
 20
-86.1878835307
 10
143.9400488278
 20
-86.4079164831
 10
143.7590784429
 20
-86.6318310147
 10
143.5804905229
 20
-86.8595017712
 10
143.4044149204
 20
-87.0907774117
 10
143.2309835465
 20
-87.3254969389
 10
143.0603122965
 20
-87.5635143389
 10
142.8925151939
 20
-87.8046807906
 10
142.7277163579
 20
-88.0488266162
 10
142.5660245876
 20
-88.2957978272
 10
142.4075463989
 20
-88.5454382165
 10
142.2523972689
 20
-88.7975707784
 10
142.1006780616
 20
-89.0520348467
 10
141.9524870704
 20
-89.308667991
 10
141.8079304501
 20
-89.567287035
 10
141.6671003663
 20
-89.8277258911
 10
141.5300861581
 20
-90.0898171495
 10
141.396984007
 20
-90.3533725906
 10
141.2678766558
 20
-90.6182219657
 10
141.1428437789
 20
-90.8841941609
 10
141.0219709361
 20
-91.1510970494
 10
140.9053307819
 20
-91.4187574325
 10
140.7929926181
 20
-91.6870018465
 10
140.6850306632
 20
-91.9556355894
 10
140.5815068506
 20
-92.2244837285
 10
140.4824794481
 20
-92.4933718262
 10
140.3880105798
 20
-92.7621041526
 10
140.2981530877
 20
-93.0304984503
 10
140.2129512389
 20
-93.2983872266
 10
140.1324480872
 20
-93.5655967285
  0
LINE
  5
369
100
AcDbEntity
  8
IMPORT_IGES
100
AcDbLine
 62
7
  6
CONTINUOUS
 10
161.5692461873
 20
130.911259334
 11
161.1706020022
 21
131.0185100714
  0
LWPOLYLINE
  5
36A
100
AcDbEntity
  8
IMPORT_IGES
100
AcDbPolyline
 62
7
  6
CONTINUOUS
 90
17
 70
0
 10
-55.87720981
 20
231.7811527596
 10
-55.6627925449
 20
231.6604602457
 10
-55.4423592024
 20
231.5425408815
 10
-55.216045718
 20
231.4275105919
 10
-54.9839537687
 20
231.3154635356
 10
-54.7462727515
 20
231.2065313587
 10
-54.503284412
 20
231.1008753192
 10
-54.255183108
 20
230.9986049103
 10
-54.0021124143
 20
230.8998026772
 10
-53.7442893202
 20
230.8045747681
 10
-53.4819762616
 20
230.7130343556
 10
-53.2152778521
 20
230.6252329344
 10
-52.9441677408
 20
230.5411841604
 10
-52.6686953859
 20
230.460934208
 10
-52.389174878
 20
230.3846042001
 10
-52.1059761653
 20
230.3123152478
 10
-52.0512085304
 20
230.2989063377
  0
LWPOLYLINE
  5
36B
100
AcDbEntity
  8
IMPORT_IGES
100
AcDbPolyline
 62
250
  6
CONTINUOUS
 90
121
 70
0
 10
-56.3772339701
 20
231.7316115819
 10
-56.6116613112
 20
231.8705694418
 10
-56.8394339364
 20
232.0128384464
 10
-57.0605518457
 20
232.1584185957
 10
-57.2751720251
 20
232.3074245806
 10
-57.4831374886
 20
232.4597417103
 10
-57.6839772789
 20
232.6150259117
 10
-57.8776724967
 20
232.7732876776
 10
-58.0642420413
 20
232.9345165152
 10
-58.243271654
 20
233.0983368738
 10
-58.4146888917
 20
233.2646876804
 10
-58.5785661975
 20
233.4336300079
 10
-58.734706641
 20
233.6049715243
 10
-58.8831746693
 20
233.7788010747
 10
-59.0239058354
 20
233.9550298141
 10
-59.1565098676
 20
234.1331988751
 10
-59.2809355853
 20
234.3132792034
 10
-59.3972341691
 20
234.4952998535
 10
-59.5051688892
 20
234.6788891213
 10
-59.6047320601
 20
234.8640830517
 10
-59.6959313671
 20
235.0508455999
 10
-59.7785531369
 20
235.2386969277
 10
-59.8525522914
 20
235.4275671956
 10
-59.9179739085
 20
235.617526243
 10
-59.9747395486
 20
235.8083037504
 10
-60.0228536416
 20
235.9999262609
 10
-60.0623117575
 20
236.1923672314
 10
-60.0930221664
 20
236.3852767121
 10
-60.114969694
 20
236.5786945565
 10
-60.1281695147
 20
236.7725809112
 10
-60.132575421
 20
236.9664662659
 10
-60.1281579749
 20
237.1603446983
 10
-60.1149466145
 20
237.3542221308
 10
-60.0929834474
 20
237.54764682
 10
-60.0622489298
 20
237.7405974603
 10
-60.0227626054
 20
237.9330953573
 10
-59.9746252137
 20
238.1247526851
 10
-59.9178390281
 20
238.3155338596
 10
-59.8524017752
 20
238.5054744649
 10
-59.7784073738
 20
238.694293427
 10
-59.695821385
 20
238.8820422416
 10
-59.6046782478
 20
239.068669413
 10
-59.5051751984
 20
239.2537393807
 10
-59.3972939235
 20
239.4372383937
 10
-59.2810527365
 20
239.6191802028
 10
-59.1567038139
 20
239.7991704998
 10
-59.024232795
 20
239.9771987059
 10
-58.8836540406
 20
240.1532753999
 10
-58.7352628101
 20
240.3270380098
 10
-58.5790652586
 20
240.498463654
 10
-58.415055231
 20
240.6675752141
 10
-58.2435095216
 20
240.8340787627
 10
-58.0643769143
 20
240.9980033318
 10
-57.8777086252
 20
241.1593198894
 10
-57.6839350969
 20
241.3176474123
 10
-57.4830521823
 20
241.4729654635
 10
-57.2750640285
 20
241.62529448
 10
-57.0604135204
 20
241.7743147492
 10
-56.8390902776
 20
241.9200163325
 10
-56.6111046806
 20
242.0624091685
 10
-56.376930755
 20
242.2012033609
 10
-56.1365619581
 20
242.3363888479
 10
-55.8900048327
 20
242.4679756913
 10
-55.6377530325
 20
242.5957041789
 10
-55.3797944242
 20
242.7195680384
 10
-55.1161411411
 20
242.8395735422
 10
-54.8473232366
 20
242.9554797953
 10
-54.5733041749
 20
243.0672869922
 10
-54.2941204917
 20
243.1749949384
 10
-54.0104118473
 20
243.2783621556
 10
-53.7222198499
 20
243.3773626288
 10
-53.4295028913
 20
243.472022373
 10
-53.1327758072
 20
243.562177955
 10
-52.8320003986
 20
243.6478321093
 10
-52.5272148644
 20
243.7289821014
 10
-52.2190486377
 20
243.8054562948
 10
-51.9074969208
 20
243.8772443494
 10
-51.5925645114
 20
243.9443566053
 10
-51.2748952354
 20
244.0066524454
 10
-50.9544612612
 20
244.0641240705
 10
-50.6312904205
 20
244.1167792798
 10
-50.306110035
 20
244.1645008539
 10
-49.9789754654
 20
244.2072719634
 10
-49.649831351
 20
244.2451094376
 10
-49.3192389309
 20
244.2779465454
 10
-48.9871500954
 20
244.3057800123
 10
-48.6536129543
 20
244.3286131128
 10
-48.3193330767
 20
244.3463889396
 10
-47.9842949794
 20
244.3590951686
 10
-47.6485141456
 20
244.3667441238
 10
-47.3127425938
 20
244.36931587
 10
-46.9769701292
 20
244.3667952662
 10
-46.6412069467
 20
244.3591974534
 10
-46.306235649
 20
244.3465479189
 10
-45.9721122931
 20
244.3288379966
 10
-45.638780822
 20
244.3060763526
 10
-45.3068556681
 20
244.2783144727
 10
-44.9763779348
 20
244.2455535153
 10
-44.6473065187
 20
244.2077923221
 10
-44.3201325418
 20
244.1650789037
 10
-43.9947416614
 20
244.1173873072
 10
-43.6712482202
 20
244.0647434855
 10
-43.3504863689
 20
244.0072733077
 10
-43.0325201133
 20
243.9449725065
 10
-42.7172854476
 20
243.8778453493
 10
-42.4054245044
 20
243.8060305074
 10
-42.096888997
 20
243.7294991547
 10
-41.7917272123
 20
243.6482801173
 10
-41.4907261432
 20
243.5625985449
 10
-41.1940467478
 20
243.472495101
 10
-40.9015280682
 20
243.3779291221
 10
-40.6134742237
 20
243.2790037675
 10
-40.329778987
 20
243.1756796885
 10
-40.0505485854
 20
243.0679962338
 10
-39.7764058209
 20
242.9561746091
 10
-39.5073655396
 20
242.8402054704
 10
-39.2434128953
 20
242.7200981617
 10
-38.9851261511
 20
242.5961019215
 10
-38.7326980613
 20
242.468299829
 10
-38.4859358717
 20
242.3366088049
 10
-38.2448395821
 20
242.2010288492
  0
LWPOLYLINE
  5
36C
100
AcDbEntity
  8
IMPORT_IGES
100
AcDbPolyline
 62
250
  6
CONTINUOUS
 90
24
 70
0
 10
-81.0024103205
 20
250.2951781481
 10
-81.1947442091
 20
250.4093429872
 10
-81.3813115805
 20
250.5263586221
 10
-81.5621124347
 20
250.6462250531
 10
-81.7372882085
 20
250.7690463608
 10
-81.9066974651
 20
250.8947184645
 10
-82.0699158944
 20
251.0229291213
 10
-82.2269274286
 20
251.1536903665
 10
-82.3777481356
 20
251.2869901648
 10
-82.5220019088
 20
251.4224801667
 10
-82.6596220739
 20
251.5601035387
 10
-82.7906753052
 20
251.6999171143
 10
-82.9149855186
 20
251.8417430453
 10
-83.0326069696
 20
251.9856605128
 10
-83.1434854028
 20
252.1315903356
 10
-83.2472819673
 20
252.2791171217
 10
-83.3439527254
 20
252.4282189636
 10
-83.4335416149
 20
252.5789177687
 10
-83.5158415982
 20
252.7308638672
 10
-83.5908404287
 20
252.8840861346
 10
-83.658550353
 20
253.0385556954
 10
-83.7188010735
 20
253.1938362529
 10
-83.7715553859
 20
253.3498730525
 10
-83.8168504944
 20
253.5067208489
  0
LWPOLYLINE
  5
36D
100
AcDbEntity
  8
IMPORT_IGES
100
AcDbPolyline
 62
250
  6
CONTINUOUS
 90
31
 70
0
 10
21.6539318202
 20
-217.1313555242
 10
21.6152737817
 20
-217.1622908656
 10
21.5769128166
 20
-217.1951438627
 10
21.5389349793
 20
-217.2298563504
 10
21.5012335447
 20
-217.2665589861
 10
21.4640947427
 20
-217.3050068642
 10
21.4281619658
 20
-217.3444964587
 10
21.3938937013
 20
-217.3843909062
 10
21.3608987044
 20
-217.4250120798
 10
21.328554829
 20
-217.4671022809
 10
21.2966736951
 20
-217.5109854498
 10
21.2656312703
 20
-217.5562260527
 10
21.2356859527
 20
-217.6024765302
 10
21.2069911022
 20
-217.649493999
 10
21.1795157361
 20
-217.697322959
 10
21.1532326582
 20
-217.7460331436
 10
21.1282041959
 20
-217.7955507897
 10
21.1045140526
 20
-217.8457545339
 10
21.0821873661
 20
-217.8966470756
 10
21.0612298427
 20
-217.9483084213
 10
21.0418023751
 20
-218.0004427793
 10
21.0241260904
 20
-218.0524821947
 10
21.0083379659
 20
-218.1039307567
 10
20.9943246965
 20
-218.1550554873
 10
20.9819520069
 20
-218.2064231814
 10
20.9712052
 20
-218.2584402645
 10
20.9623101196
 20
-218.310425482
 10
20.9554549447
 20
-218.3613282977
 10
20.9506350416
 20
-218.4107485845
 10
20.9477708115
 20
-218.4588985293
 10
20.9468250391
 20
-218.5056907772
  0
LWPOLYLINE
  5
36E
100
AcDbEntity
  8
IMPORT_IGES
100
AcDbPolyline
 62
7
  6
CONTINUOUS
 90
22
 70
0
 10
20.7253598087
 20
-200.667135517
 10
20.6847648874
 20
-200.6861205518
 10
20.6454247346
 20
-200.7078151975
 10
20.6074971063
 20
-200.7322696895
 10
20.5709704271
 20
-200.7594826124
 10
20.5358562723
 20
-200.7894553817
 10
20.5023471246
 20
-200.8222424795
 10
20.4704981374
 20
-200.8576817856
 10
20.4402541573
 20
-200.8959354201
 10
20.4116422068
 20
-200.9375442267
 10
20.3844068445
 20
-200.9830406042
 10
20.3588035117
 20
-201.0318921537
 10
20.3356255548
 20
-201.0830425217
 10
20.3151109865
 20
-201.1363656273
 10
20.297021794
 20
-201.1919875514
 10
20.2814372859
 20
-201.2492301836
 10
20.2684197859
 20
-201.3081276081
 10
20.2579069702
 20
-201.3686457407
 10
20.2497911759
 20
-201.4300042181
 10
20.2440365152
 20
-201.4919429191
 10
20.2406788759
 20
-201.5547219648
 10
20.2397182579
 20
-201.6183413553
  0
LWPOLYLINE
  5
36F
100
AcDbEntity
  8
IMPORT_IGES
100
AcDbPolyline
 62
250
  6
CONTINUOUS
 90
31
 70
0
 10
20.2397182579
 20
-201.6183413553
 10
20.1935994521
 20
-201.6363542688
 10
20.1459683766
 20
-201.6531509637
 10
20.0969184285
 20
-201.668685993
 10
20.0462830942
 20
-201.6829864572
 10
19.994417576
 20
-201.6959269147
 10
19.9422528301
 20
-201.7073019143
 10
19.8905696358
 20
-201.7170328184
 10
19.8388936301
 20
-201.7252975359
 10
19.7862708976
 20
-201.7322637262
 10
19.7323267079
 20
-201.7379325614
 10
19.6776262219
 20
-201.7421962005
 10
19.6225996313
 20
-201.7450046388
 10
19.5675339585
 20
-201.7463465036
 10
19.5123751743
 20
-201.746226377
 10
19.4570492891
 20
-201.7446329438
 10
19.4016513464
 20
-201.7415491068
 10
19.346328301
 20
-201.7369630574
 10
19.2910903827
 20
-201.7308516736
 10
19.2358711546
 20
-201.7231700061
 10
19.1810072266
 20
-201.7139266144
 10
19.1271010308
 20
-201.703213983
 10
19.0746505343
 20
-201.691161454
 10
19.0233678349
 20
-201.6777336384
 10
18.9726949268
 20
-201.6627634082
 10
18.922272476
 20
-201.6460602602
 10
18.8728033962
 20
-201.6277692495
 10
18.8252915883
 20
-201.6082527112
 10
18.780081267
 20
-201.5877147416
 10
18.7369488715
 20
-201.5661181781
 10
18.6959514502
 20
-201.5435389351
  0
LWPOLYLINE
  5
370
100
AcDbEntity
  8
IMPORT_IGES
100
AcDbPolyline
 62
7
  6
CONTINUOUS
 90
3
 70
0
 10
20.7755043733
 20
-200.6479995337
 10
20.7671155648
 20
-200.6508557007
 10
20.7253598087
 20
-200.667135517
  0
LINE
  5
371
100
AcDbEntity
  8
IMPORT_IGES
100
AcDbLine
 62
250
  6
CONTINUOUS
 10
-80.1805354469
 20
249.8703281986
 11
-80.3934609474
 21
249.9715449884
  0
LWPOLYLINE
  5
372
100
AcDbEntity
  8
IMPORT_IGES
100
AcDbPolyline
 62
250
  6
CONTINUOUS
 90
5
 70
0
 10
-55.378660657
 20
231.2125422694
 10
-55.6369474012
 20
231.3365385096
 10
-55.889375491
 20
231.4643406021
 10
-56.1361376806
 20
231.5960316262
 10
-56.3772339701
 20
231.7316115819
  0
LWPOLYLINE
  5
373
100
AcDbEntity
  8
IMPORT_IGES
100
AcDbPolyline
 62
250
  6
CONTINUOUS
 90
4
 70
0
 10
-80.3934609474
 20
249.9715449884
 10
-80.6013267476
 20
250.0760542927
 10
-80.804309872
 20
250.1839320126
 10
-81.0024103205
 20
250.2951781481
  0
LWPOLYLINE
  5
374
100
AcDbEntity
  8
IMPORT_IGES
100
AcDbPolyline
 62
7
  6
CONTINUOUS
 90
31
 70
0
 10
161.0687208623
 20
132.2158740449
 10
161.0566117743
 20
132.2226334362
 10
161.0447227392
 20
132.2289197843
 10
161.0330507155
 20
132.2347351473
 10
161.02158958
 20
132.2400825247
 10
161.0103319843
 20
132.2449647495
 10
160.9992886042
 20
132.2493762077
 10
160.9884806808
 20
132.2533078621
 10
160.9779021149
 20
132.25676199
 10
160.9675635162
 20
132.2597357877
 10
160.9575133955
 20
132.2622170073
 10
160.947762197
 20
132.2642068938
 10
160.9383074778
 20
132.2657111768
 10
160.9291810258
 20
132.2667299013
 10
160.9203910918
 20
132.2672681706
 10
160.9119390377
 20
132.2673324061
 10
160.9038479036
 20
132.2669284055
 10
160.8961178539
 20
132.2660613461
 10
160.8887587428
 20
132.2647400006
 10
160.8818100628
 20
132.2629804513
 10
160.8752813471
 20
132.2607898017
 10
160.8691750689
 20
132.2581816361
 10
160.8635227257
 20
132.2551886935
 10
160.8583396072
 20
132.2518236466
 10
160.8536239582
 20
132.2481011108
 10
160.8493836486
 20
132.2440624769
 10
160.8456319257
 20
132.2397220467
 10
160.8423688899
 20
132.2350955443
 10
160.8395836488
 20
132.2302299115
 10
160.8372886126
 20
132.2251398409
 10
160.8363127935
 20
132.2224724405
  0
LWPOLYLINE
  5
375
100
AcDbEntity
  8
IMPORT_IGES
100
AcDbPolyline
 62
7
  6
CONTINUOUS
 90
85
 70
0
 10
-67.5673814779
 20
257.2359251445
 10
-67.7502425526
 20
257.338549667
 10
-67.9377802629
 20
257.4380071495
 10
-68.1299946089
 20
257.5342975919
 10
-68.3270618875
 20
257.6275003255
 10
-68.5288058018
 20
257.717536019
 10
-68.7346974609
 20
257.8041666787
 10
-68.9447573574
 20
257.8873828349
 10
-69.1589649987
 20
257.9671939573
 10
-69.3767300155
 20
258.0433904609
 10
-69.5979564676
 20
258.1159351939
 10
-69.8227402952
 20
258.1848653082
 10
-70.0507789501
 20
258.2500826739
 10
-70.2822062431
 20
258.3116168367
 10
-70.5168883635
 20
258.3694382511
 10
-70.7541213308
 20
258.42336015
 10
-70.9938678874
 20
258.4733577011
 10
-71.2361652909
 20
258.5194557369
 10
-71.480421334
 20
258.5615419879
 10
-71.7266853484
 20
258.5996088879
 10
-71.9749080024
 20
258.6336640032
 10
-72.2243490933
 20
258.6636177631
 10
-72.4749148922
 20
258.6894497388
 10
-72.7266991281
 20
258.7111803592
 10
-72.9792427851
 20
258.72878134
 10
-73.2325747446
 20
258.7422514137
 10
-73.4866661251
 20
258.7515918479
 10
-73.7409712661
 20
258.7567781605
 10
-73.9955319497
 20
258.7578009881
 10
-74.2503063937
 20
258.7546696941
 10
-74.504623591
 20
258.7473878861
 10
-74.7584681668
 20
258.7359435968
 10
-75.0118554958
 20
258.7203487936
 10
-75.2641606955
 20
258.7006429864
 10
-75.5153774522
 20
258.6768158184
 10
-75.7655120795
 20
258.6488776466
 10
-76.0139586358
 20
258.6168990514
 10
-76.2606474188
 20
258.5808859824
 10
-76.5056481306
 20
258.5408324901
 10
-76.7485639361
 20
258.4967913061
 10
-76.9895210026
 20
258.4487277749
 10
-77.2283931627
 20
258.3966765521
 10
-77.4644050786
 20
258.3407943354
 10
-77.6974855868
 20
258.2810799005
 10
-77.9277058509
 20
258.2175344718
 10
-78.1545040233
 20
258.1503184203
 10
-78.3778684928
 20
258.0794233143
 10
-78.5978108707
 20
258.0048575856
 10
-78.8138041431
 20
257.9268069006
 10
-79.0258363003
 20
257.8452637745
 10
-79.2339193519
 20
257.7602356922
 10
-79.4375623136
 20
257.6719307747
 10
-79.6367519652
 20
257.5803429864
 10
-79.8315015268
 20
257.485478363
 10
-80.021359674
 20
257.3875631322
 10
-80.2063151209
 20
257.2865910227
 10
-80.3863791533
 20
257.1825683058
 10
-80.5611343043
 20
257.0757400228
 10
-80.7305692478
 20
256.9660999897
 10
-80.8946953097
 20
256.8536543904
 10
-81.0531290013
 20
256.7386668178
 10
-81.2058585634
 20
256.621131078
 10
-81.3528957552
 20
256.501053365
 10
-81.493892365
 20
256.3787158534
 10
-81.6288353913
 20
256.2541128615
 10
-81.7577378357
 20
256.127250071
 10
-81.8802904916
 20
255.9984267016
 10
-81.9964798855
 20
255.8676365476
 10
-82.1063194908
 20
255.7348858147
 10
-82.2095405218
 20
255.6004923393
 10
-82.3061420282
 20
255.4644156311
 10
-82.3961249603
 20
255.3266961805
 10
-82.4792233828
 20
255.1877732948
 10
-82.5553787625
 20
255.047720119
 10
-82.6246496327
 20
254.9064635082
 10
-82.6869456584
 20
254.764223335
 10
-82.7422787031
 20
254.6209596579
 10
-82.7906369032
 20
254.4767124183
 10
-82.8318943332
 20
254.3318213131
 10
-82.866034838
 20
254.1862831142
 10
-82.8930745726
 20
254.0401010498
 10
-82.9129360772
 20
253.8936245013
 10
-82.9256004794
 20
253.746843204
 10
-82.9310866515
 20
253.5997674227
 10
-82.9313425082
 20
253.5615037732
  0
LWPOLYLINE
  5
376
100
AcDbEntity
  8
IMPORT_IGES
100
AcDbPolyline
 62
7
  6
CONTINUOUS
 90
58
 70
0
 10
-80.5017751814
 20
250.3443665883
 10
-80.3259739619
 20
250.2456233861
 10
-80.1447148453
 20
250.1492469762
 10
-79.9581295396
 20
250.0553564956
 10
-79.7663285669
 20
249.9640549063
 10
-79.5694876437
 20
249.8754703028
 10
-79.3678486818
 20
249.7897488473
 10
-79.1616448291
 20
249.7070188283
 10
-78.9509756944
 20
249.6273472972
 10
-78.7358815874
 20
249.5507814053
 10
-78.5164837472
 20
249.4774001281
 10
-78.2930017704
 20
249.407310922
 10
-78.0656175268
 20
249.3406015532
 10
-77.8344833204
 20
249.277346646
 10
-77.5998154631
 20
249.2176338641
 10
-77.3618973108
 20
249.1615589271
 10
-77.1209674019
 20
249.1091967142
 10
-76.8771867651
 20
249.0605996962
 10
-76.6307263091
 20
249.0158202578
 10
-76.3817457721
 20
248.9749067127
 10
-76.1304991808
 20
248.9379190531
 10
-75.8773017629
 20
248.9049171392
 10
-75.6224117619
 20
248.8759434798
 10
-75.3660045104
 20
248.8510259622
 10
-75.1082736426
 20
248.8301921653
 10
-74.8494078968
 20
248.8134666385
 10
-74.5896598159
 20
248.8008741628
 10
-74.3293197725
 20
248.7924340787
 10
-74.068629969
 20
248.7881566337
 10
-73.8077960846
 20
248.7880468108
 10
-73.5470545173
 20
248.7921056884
 10
-73.286611935
 20
248.8003303806
 10
-73.0267101843
 20
248.8127127954
 10
-72.7676380062
 20
248.8292359288
 10
-72.5096476429
 20
248.8498773308
 10
-72.2529301285
 20
248.8746145283
 10
-71.9976817342
 20
248.9034218938
 10
-71.7440787438
 20
248.9362736079
 10
-71.4923816675
 20
248.9731291142
 10
-71.2429106186
 20
249.0139300367
 10
-70.9959244018
 20
249.0586176033
 10
-70.7515821586
 20
249.107145538
 10
-70.5100520496
 20
249.1594641565
 10
-70.2715001893
 20
249.2155221146
 10
-70.0361655913
 20
249.2752467085
 10
-69.804322954
 20
249.3385471383
 10
-69.5761813717
 20
249.4053410596
 10
-69.3519085136
 20
249.4755526682
 10
-69.1317113431
 20
249.5490886933
 10
-68.9157963844
 20
249.6258482739
 10
-68.7043052701
 20
249.7057473616
 10
-68.4973487222
 20
249.7887114726
 10
-68.2950263287
 20
249.8746704264
 10
-68.0975693673
 20
249.9634935521
 10
-67.9052785056
 20
250.0550026346
 10
-67.7183426467
 20
250.149054309
 10
-67.5368449445
 20
250.2455502161
 10
-67.3609098358
 20
250.3443665883
  0
LWPOLYLINE
  5
377
100
AcDbEntity
  8
IMPORT_IGES
100
AcDbPolyline
 62
7
  6
CONTINUOUS
 90
93
 70
0
 10
-39.0147841279
 20
240.776708186
 10
-39.2407612249
 20
240.9037153679
 10
-39.4722456337
 20
241.0270168109
 10
-39.7092373542
 20
241.1466125151
 10
-39.9519333852
 20
241.2625916891
 10
-40.2001367279
 20
241.3748651243
 10
-40.453256386
 20
241.4831651943
 10
-40.7113094559
 20
241.5874803606
 10
-40.9742788413
 20
241.6878221618
 10
-41.2415222567
 20
241.7839575873
 10
-41.5129358956
 20
241.8758460371
 10
-41.7886235646
 20
241.9635281113
 10
-42.0682543977
 20
242.0468925989
 10
-42.3519813852
 20
242.1259753927
 10
-42.6396515369
 20
242.2007406001
 10
-42.930475015
 20
242.2709693317
 10
-43.2243999207
 20
242.3366319428
 10
-43.521478153
 20
242.3977580782
 10
-43.8210755708
 20
242.4542177829
 10
-44.1232561873
 20
242.5060063274
 10
-44.4279559895
 20
242.5531284412
 10
-44.7343487969
 20
242.5954683576
 10
-45.042309369
 20
242.6330007618
 10
-45.3519629463
 20
242.6657509686
 10
-45.6628590705
 20
242.6936791564
 10
-45.9750545503
 20
242.7167880581
 10
-46.2884925768
 20
242.7350749408
 10
-46.6025522658
 20
242.7484917843
 10
-46.9172930445
 20
242.7570281111
 10
-47.2326554857
 20
242.7606943988
 10
-47.5478404221
 20
242.7594740595
 10
-47.8628418814
 20
242.7533497723
 10
-48.177665836
 20
242.7423388581
 10
-48.4915310366
 20
242.7264766921
 10
-48.8043885204
 20
242.7057534835
 10
-49.1162872502
 20
242.680179023
 10
-49.4265928649
 20
242.649818058
 10
-49.7352579906
 20
242.6146715749
 10
-50.0423300012
 20
242.5747385874
 10
-50.3473166578
 20
242.5300808835
 10
-50.6502986429
 20
242.4806780098
 10
-50.951195274
 20
242.4265504197
 10
-51.2492722642
 20
242.3678212621
 10
-51.5445055445
 20
242.3044804472
 10
-51.836919184
 20
242.2365380647
 10
-52.125851103
 20
242.1641475322
 10
-52.4112827181
 20
242.087301048
 10
-52.6932326128
 20
242.0060064138
 10
-52.9710944576
 20
241.9204404519
 10
-53.2448440981
 20
241.8306009545
 10
-53.5145056888
 20
241.7364901295
 10
-53.7795453628
 20
241.6382914224
 10
-54.0399855347
 20
241.5359837458
 10
-54.2958037901
 20
241.4295881873
 10
-54.5463990183
 20
241.3193514552
 10
-54.7917451737
 20
241.2052693788
 10
-55.0318683019
 20
241.0873461289
 10
-55.2662454296
 20
240.9658409267
 10
-55.4948606882
 20
240.8407477372
 10
-55.7177299462
 20
240.7120725953
 10
-55.9343778357
 20
240.580092827
 10
-56.1447892646
 20
240.4448032708
 10
-56.348979325
 20
240.306209088
 10
-56.5465179254
 20
240.1646030894
 10
-56.73740112
 20
240.0199698349
 10
-56.9216328546
 20
239.8723247646
 10
-57.098794875
 20
239.7220070083
 10
-57.2688566473
 20
239.5690242394
 10
-57.4318487055
 20
239.4133687846
 10
-57.5874443975
 20
239.2553567538
 10
-57.7356376855
 20
239.0949747401
 10
-57.8764346074
 20
238.9322361505
 10
-58.0095266247
 20
238.7674973153
 10
-58.1348940358
 20
238.6007581434
 10
-58.2525565424
 20
238.4320187259
 10
-58.3622647107
 20
238.261635666
 10
-58.464006299
 20
238.0895946569
 10
-58.557793549
 20
237.9159100053
 10
-58.6434137514
 20
237.7409812349
 10
-58.7208396819
 20
237.5648333617
 10
-58.7900985649
 20
237.3874413698
 10
-58.8510593645
 20
237.2091297349
 10
-58.903715878
 20
237.0298765669
 10
-58.9480743081
 20
236.8497037559
 10
-58.9840222273
 20
236.6690014484
 10
-59.0115397255
 20
236.4877549565
 10
-59.0306467127
 20
236.3059789681
 10
-59.0412904917
 20
236.1241076934
 10
-59.0434443274
 20
235.9421380547
 10
-59.037134955
 20
235.7600731297
 10
-59.0223898824
 20
235.5783563621
 10
-58.9991915369
 20
235.397014793
 10
-58.9675574913
 20
235.2160213813
  0
LINE
  5
378
100
AcDbEntity
  8
IMPORT_IGES
100
AcDbLine
 62
7
  6
CONTINUOUS
 10
160.8170486116
 20
128.7453612983
 11
160.1099418304
 21
129.1536358916
  0
LINE
  5
379
100
AcDbEntity
  8
IMPORT_IGES
100
AcDbLine
 62
7
  6
CONTINUOUS
 10
160.8170486116
 20
130.3783018519
 11
160.7463447669
 21
130.4191253657
  0
LINE
  5
37A
100
AcDbEntity
  8
IMPORT_IGES
100
AcDbLine
 62
7
  6
CONTINUOUS
 10
-100.3169556333
 20
282.460195023
 11
-99.539138174
 21
282.0110929703
  0
LINE
  5
37B
100
AcDbEntity
  8
IMPORT_IGES
100
AcDbLine
 62
250
  6
CONTINUOUS
 10
-99.539138174
 20
282.0110929703
 11
160.3927845429
 21
131.9296585057
  0
LINE
  5
37C
100
AcDbEntity
  8
IMPORT_IGES
100
AcDbLine
 62
7
  6
CONTINUOUS
 10
160.3927845429
 20
131.9296585057
 11
161.1706020022
 21
131.480556453
  0
LINE
  5
37D
100
AcDbEntity
  8
IMPORT_IGES
100
AcDbLine
 62
7
  6
CONTINUOUS
 10
-98.2191333577
 20
281.9254315273
 11
161.0708019828
 21
132.2146774554
  0
LWPOLYLINE
  5
37E
100
AcDbEntity
  8
IMPORT_IGES
100
AcDbPolyline
 62
250
  6
CONTINUOUS
 90
117
 70
0
 10
-38.2448395821
 20
242.2010288492
 10
-38.0104122411
 20
242.0620709893
 10
-37.7826396159
 20
241.9198019847
 10
-37.5615217065
 20
241.7742218354
 10
-37.3469015272
 20
241.6252158505
 10
-37.1389360637
 20
241.4728987208
 10
-36.9380962733
 20
241.3176145194
 10
-36.7444010556
 20
241.1593527536
 10
-36.5578315109
 20
240.9981239159
 10
-36.3788018983
 20
240.8343035573
 10
-36.2073846605
 20
240.6679527508
 10
-36.0435073548
 20
240.4990104233
 10
-35.8873669113
 20
240.3276689068
 10
-35.7388988829
 20
240.1538393564
 10
-35.5981677169
 20
239.9776106171
 10
-35.4655636847
 20
239.799441556
 10
-35.3411379669
 20
239.6193612277
 10
-35.2248393831
 20
239.4373405777
 10
-35.1169046631
 20
239.2537513098
 10
-35.0173414922
 20
239.0685573794
 10
-34.9261421851
 20
238.8817948312
 10
-34.8435204154
 20
238.6939435034
 10
-34.7695212609
 20
238.5050732355
 10
-34.7040996438
 20
238.3151141881
 10
-34.6473340037
 20
238.1243366807
 10
-34.5992199107
 20
237.9327141702
 10
-34.5597617948
 20
237.7402731997
 10
-34.5290513859
 20
237.547363719
 10
-34.5071038582
 20
237.3539458746
 10
-34.4939040376
 20
237.1600595199
 10
-34.4894981312
 20
236.9661741652
 10
-34.4939155774
 20
236.7722957328
 10
-34.5071269378
 20
236.5784183003
 10
-34.5290901048
 20
236.3849936111
 10
-34.5598246225
 20
236.1920429709
 10
-34.5993109468
 20
235.9995450738
 10
-34.6474483385
 20
235.807887746
 10
-34.7042345241
 20
235.6171065715
 10
-34.7696717771
 20
235.4271659663
 10
-34.8436661784
 20
235.2383470041
 10
-34.9262521673
 20
235.0505981895
 10
-35.0173953045
 20
234.8639710181
 10
-35.1168983538
 20
234.6789010504
 10
-35.2247796288
 20
234.4954020375
 10
-35.3410208158
 20
234.3134602283
 10
-35.4653697384
 20
234.1334699313
 10
-35.5978407573
 20
233.9554417252
 10
-35.7384195117
 20
233.7793650312
 10
-35.8868107422
 20
233.6056024213
 10
-36.0430082937
 20
233.4341767771
 10
-36.2070183213
 20
233.265065217
 10
-36.3785640307
 20
233.0985616684
 10
-36.557696638
 20
232.9346370993
 10
-36.7443649271
 20
232.7733205417
 10
-36.9381384553
 20
232.6149930188
 10
-37.13902137
 20
232.4596749676
 10
-37.3470095238
 20
232.3073459511
 10
-37.5616600319
 20
232.1583256819
 10
-37.7829832746
 20
232.0126240986
 10
-38.0109688717
 20
231.8702312626
 10
-38.2451427973
 20
231.7314370703
 10
-38.4855115941
 20
231.5962515832
 10
-38.7320687195
 20
231.4646647399
 10
-38.9843205198
 20
231.3369362523
 10
-39.242279128
 20
231.2130723927
 10
-39.5059324111
 20
231.0930668889
 10
-39.7747503157
 20
230.9771606358
 10
-40.0487693774
 20
230.8653534389
 10
-40.3279530606
 20
230.7576454927
 10
-40.611661705
 20
230.6542782755
 10
-40.8998537024
 20
230.5552778023
 10
-41.192570661
 20
230.4606180582
 10
-41.489297745
 20
230.3704624761
 10
-41.7900731537
 20
230.2848083218
 10
-42.0948586878
 20
230.2036583297
 10
-42.4030249145
 20
230.1271841363
 10
-42.7145766315
 20
230.0553960817
 10
-43.0295090409
 20
229.9882838258
 10
-43.3471783168
 20
229.9259879858
 10
-43.6676122911
 20
229.8685163607
 10
-43.9907831318
 20
229.8158611513
 10
-44.3159635173
 20
229.7681395772
 10
-44.6430980869
 20
229.7253684678
 10
-44.9722422013
 20
229.6875309935
 10
-45.3028346213
 20
229.6546938857
 10
-45.6349234569
 20
229.6268604188
 10
-45.968460598
 20
229.6040273183
 10
-46.3027404756
 20
229.5862514915
 10
-46.6377785729
 20
229.5735452625
 10
-46.9735594067
 20
229.5658963073
 10
-47.3093309585
 20
229.5633245611
 10
-47.645103423
 20
229.5658451649
 10
-47.9808666056
 20
229.5734429777
 10
-48.3158379033
 20
229.5860925122
 10
-48.6499612592
 20
229.6038024345
 10
-48.9832927303
 20
229.6265640786
 10
-49.3152178842
 20
229.6543259584
 10
-49.6456956175
 20
229.6870869158
 10
-49.9747670336
 20
229.724848109
 10
-50.3019410105
 20
229.7675615274
 10
-50.6273318909
 20
229.8152531239
 10
-50.9508253321
 20
229.8678969456
 10
-51.2715871834
 20
229.9253671234
 10
-51.589553439
 20
229.9876679246
 10
-51.9047881047
 20
230.0547950818
 10
-52.2166490479
 20
230.1266099237
 10
-52.5251845552
 20
230.2031412764
 10
-52.83034634
 20
230.2843603138
 10
-53.131347409
 20
230.3700418862
 10
-53.4280268044
 20
230.4601453301
 10
-53.7205454841
 20
230.554711309
 10
-54.0085993285
 20
230.6536366636
 10
-54.2922945653
 20
230.7569607427
 10
-54.5715249668
 20
230.8646441974
 10
-54.8456677314
 20
230.976465822
 10
-55.1147080127
 20
231.0924349607
 10
-55.378660657
 20
231.2125422694
  0
LWPOLYLINE
  5
37F
100
AcDbEntity
  8
IMPORT_IGES
100
AcDbPolyline
 62
250
  6
CONTINUOUS
 90
38
 70
0
 10
-38.927852284
 20
241.2015136559
 10
-38.7058025131
 20
241.0698152798
 10
-38.4899566398
 20
240.9347222295
 10
-38.2804702772
 20
240.7963318998
 10
-38.0774944532
 20
240.6547440623
 10
-37.8811755022
 20
240.5100607941
 10
-37.6916549594
 20
240.3623864038
 10
-37.5090694585
 20
240.2118273565
 10
-37.3335506336
 20
240.0584921968
 10
-37.165225024
 20
239.9024914711
 10
-37.0042139832
 20
239.7439376471
 10
-36.8506335912
 20
239.5829450334
 10
-36.704594571
 20
239.4196296967
 10
-36.5662022087
 20
239.2541093784
 10
-36.4355562774
 20
239.0865034095
 10
-36.3127509658
 20
238.9169326245
 10
-36.1978748095
 20
238.7455192748
 10
-36.091010628
 20
238.5723869396
 10
-35.9922354644
 20
238.3976604381
 10
-35.9016205302
 20
238.2214657381
 10
-35.8192311536
 20
238.0439298665
 10
-35.745126733
 20
237.8651808166
 10
-35.6793606933
 20
237.6853474568
 10
-35.6219804485
 20
237.5045594368
 10
-35.5730273663
 20
237.3229470949
 10
-35.5325367393
 20
237.1406413635
 10
-35.5005377591
 20
236.9577736749
 10
-35.4770534949
 20
236.7744758667
 10
-35.4621008779
 20
236.5908800863
 10
-35.4556906878
 20
236.4071186962
 10
-35.4578275462
 20
236.2233241783
 10
-35.4685099125
 20
236.0396290381
 10
-35.4877300853
 20
235.8561657097
 10
-35.5154742078
 20
235.6730664599
 10
-35.5517222782
 20
235.4904632934
 10
-35.5964481636
 20
235.3084878567
 10
-35.649619619
 20
235.1272713441
 10
-35.6702089984
 20
235.0640759369
  0
LWPOLYLINE
  5
380
100
AcDbEntity
  8
IMPORT_IGES
100
AcDbPolyline
 62
250
  6
CONTINUOUS
 90
34
 70
0
 10
-66.8602746968
 20
258.4606700146
 10
-66.6679408082
 20
258.3465051755
 10
-66.4813734368
 20
258.2294895406
 10
-66.3005725825
 20
258.1096231096
 10
-66.1253968088
 20
257.9868018019
 10
-65.9559875522
 20
257.8611296982
 10
-65.7927691229
 20
257.7329190414
 10
-65.6357575886
 20
257.6021577962
 10
-65.4849368816
 20
257.4688579979
 10
-65.3406831085
 20
257.333367996
 10
-65.2030629433
 20
257.195744624
 10
-65.0720097121
 20
257.0559310483
 10
-64.9476994987
 20
256.9141051174
 10
-64.8300780476
 20
256.7701876499
 10
-64.7191996145
 20
256.6242578271
 10
-64.61540305
 20
256.476731041
 10
-64.5187322918
 20
256.3276291991
 10
-64.4291434023
 20
256.176930394
 10
-64.346843419
 20
256.0249842955
 10
-64.2718445886
 20
255.8717620281
 10
-64.2041346643
 20
255.7172924673
 10
-64.1438839438
 20
255.5620119097
 10
-64.0911296314
 20
255.4059751102
 10
-64.0458345228
 20
255.2491273138
 10
-64.0080573025
 20
255.0917405532
 10
-63.9777995963
 20
254.9337992373
 10
-63.9550597784
 20
254.7753189571
 10
-63.9398916557
 20
254.6166185183
 10
-63.9323101402
 20
254.4576714756
 10
-63.9323003198
 20
254.2985042743
 10
-63.9398712657
 20
254.1395150555
 10
-63.9550441964
 20
253.9807125093
 10
-63.9777978933
 20
253.8220879456
 10
-64.0080777726
 20
253.6640134346
  0
LWPOLYLINE
  5
381
100
AcDbEntity
  8
IMPORT_IGES
100
AcDbPolyline
 62
7
  6
CONTINUOUS
 90
20
 70
0
 10
161.5692461873
 20
130.911259334
 10
161.5714878297
 20
130.9040434521
 10
161.5739405314
 20
130.8970284841
 10
161.5765999894
 20
130.8902155429
 10
161.5794532747
 20
130.8835939325
 10
161.5825036296
 20
130.8771767998
 10
161.5857697843
 20
130.8710013068
 10
161.589245624
 20
130.8650643453
 10
161.5929234789
 20
130.8593723535
 10
161.5968176516
 20
130.8539772875
 10
161.6009204024
 20
130.848878146
 10
161.6052208193
 20
130.8440801711
 10
161.609726073
 20
130.8396451695
 10
161.6144283553
 20
130.8355730164
 10
161.6193111978
 20
130.831868942
 10
161.6243666821
 20
130.8286031303
 10
161.6295846614
 20
130.8257799619
 10
161.6349458281
 20
130.8234006339
 10
161.6404275103
 20
130.8215305772
 10
161.6459068797
 20
130.8201984931
  0
LINE
  5
382
100
AcDbEntity
  8
IMPORT_IGES
100
AcDbLine
 62
7
  6
CONTINUOUS
 10
161.6188134994
 20
131.6740038138
 11
161.6738761902
 21
131.475809751
  0
LWPOLYLINE
  5
383
100
AcDbEntity
  8
IMPORT_IGES
100
AcDbPolyline
 62
7
  6
CONTINUOUS
 90
14
 70
0
 10
161.6738761902
 20
131.475809751
 10
161.6844040489
 20
131.4370580171
 10
161.6945688048
 20
131.3986766295
 10
161.7042736112
 20
131.360702325
 10
161.7133664592
 20
131.3234328069
 10
161.7217705084
 20
131.2869309542
 10
161.7294328659
 20
131.2511407169
 10
161.7362643308
 20
131.2161872488
 10
161.7422092159
 20
131.1820439687
 10
161.7472007038
 20
131.1487543465
 10
161.751158646
 20
131.1165528478
 10
161.754034671
 20
131.0855271049
 10
161.7557926693
 20
131.0556167278
 10
161.7563884398
 20
131.0268374306
  0
LWPOLYLINE
  5
384
100
AcDbEntity
  8
IMPORT_IGES
100
AcDbPolyline
 62
7
  6
CONTINUOUS
 90
10
 70
0
 10
161.5692461873
 20
-244.4189862757
 10
161.5735016035
 20
-244.3948283854
 10
161.5784951521
 20
-244.3694790788
 10
161.5841954247
 20
-244.34293037
 10
161.5905472021
 20
-244.3150934619
 10
161.5975281673
 20
-244.2860383654
 10
161.605145016
 20
-244.2559930706
 10
161.6133717097
 20
-244.2249055581
 10
161.6221132002
 20
-244.1928019079
 10
161.6312633574
 20
-244.1600262325
  0
LWPOLYLINE
  5
385
100
AcDbEntity
  8
IMPORT_IGES
100
AcDbPolyline
 62
250
  6
CONTINUOUS
 90
31
 70
0
 10
20.2397182579
 20
-214.681865784
 10
20.1935994521
 20
-214.6998786974
 10
20.1459683766
 20
-214.7166753924
 10
20.0969184285
 20
-214.7322104217
 10
20.0462830942
 20
-214.7465108859
 10
19.994417576
 20
-214.7594513434
 10
19.9422528301
 20
-214.770826343
 10
19.8905696358
 20
-214.7805572471
 10
19.8388936301
 20
-214.7888219645
 10
19.7862708976
 20
-214.7957881549
 10
19.7323267079
 20
-214.8014569901
 10
19.6776262219
 20
-214.8057206291
 10
19.6225996313
 20
-214.8085290675
 10
19.5675339585
 20
-214.8098709323
 10
19.5123751743
 20
-214.8097508057
 10
19.4570492891
 20
-214.8081573725
 10
19.4016513464
 20
-214.8050735355
 10
19.346328301
 20
-214.8004874861
 10
19.2910903827
 20
-214.7943761023
 10
19.2358711546
 20
-214.7866944348
 10
19.1810072266
 20
-214.777451043
 10
19.1271010308
 20
-214.7667384117
 10
19.0746505343
 20
-214.7546858827
 10
19.0233678349
 20
-214.7412580671
 10
18.9726949268
 20
-214.7262878369
 10
18.922272476
 20
-214.7095846889
 10
18.8728033962
 20
-214.6912936782
 10
18.8252915883
 20
-214.6717771399
 10
18.780081267
 20
-214.6512391703
 10
18.7369488715
 20
-214.6296426068
 10
18.6959514502
 20
-214.6070633638
  0
LWPOLYLINE
  5
386
100
AcDbEntity
  8
IMPORT_IGES
100
AcDbPolyline
 62
7
  6
CONTINUOUS
 90
34
 70
0
 10
-52.0510682882
 20
230.2988722362
 10
-51.7796757773
 20
230.2350947914
 10
-51.5053804839
 20
230.1750448832
 10
-51.2283545502
 20
230.1187708207
 10
-50.9487791433
 20
230.0663192337
 10
-50.666824719
 20
230.0177312938
 10
-50.3826491845
 20
229.9730434001
 10
-50.0964173288
 20
229.9322908526
 10
-49.8083246501
 20
229.8955103062
 10
-49.5185760025
 20
229.8627353796
 10
-49.2273553171
 20
229.8339933367
 10
-48.934848014
 20
229.8093084266
 10
-48.6412625536
 20
229.7887032175
 10
-48.3467862098
 20
229.7721948744
 10
-48.0516070341
 20
229.7597974862
 10
-47.7559355029
 20
229.7515225106
 10
-47.459960698
 20
229.7473769367
 10
-47.1638719428
 20
229.7473646552
 10
-46.8678803937
 20
229.7514860035
 10
-46.5721754766
 20
229.7597377614
 10
-46.2769463502
 20
229.7721136101
 10
-45.9824035542
 20
229.7886027662
 10
-45.6887354115
 20
229.8091918033
 10
-45.3961294628
 20
229.8338642153
 10
-45.1047943285
 20
229.862598105
 10
-44.8149158522
 20
229.8953698687
 10
-44.5266784372
 20
229.9321528769
 10
-44.2402872769
 20
229.972914161
 10
-43.9559243731
 20
230.01762
 10
-43.6737694754
 20
230.0662337557
 10
-43.3940226421
 20
230.118711509
 10
-43.1168676742
 20
230.1750080427
 10
-42.8424713532
 20
230.2350780947
 10
-42.5710052641
 20
230.2988722362
  0
LINE
  5
387
100
AcDbEntity
  8
IMPORT_IGES
100
AcDbLine
 62
7
  6
CONTINUOUS
 10
-160.8526351294
 20
248.9597878413
 11
-161.5623517306
 21
249.1443335815
  0
LWPOLYLINE
  5
388
100
AcDbEntity
  8
IMPORT_IGES
100
AcDbPolyline
 62
7
  6
CONTINUOUS
 90
23
 70
0
 10
161.3792475973
 20
131.9588933486
 10
161.364200986
 20
131.9738439947
 10
161.3491518174
 20
131.9886463562
 10
161.3341019714
 20
132.0032826389
 10
161.3190355443
 20
132.0177474983
 10
161.3040297998
 20
132.0319528923
 10
161.2890928563
 20
132.0458790681
 10
161.2742075189
 20
132.059527601
 10
161.2594170051
 20
132.0728473248
 10
161.2447170778
 20
132.0858324026
 10
161.2301059122
 20
132.0984733965
 10
161.2156337693
 20
132.1107182599
 10
161.2012979208
 20
132.1225639833
 10
161.1870990397
 20
132.1340031182
 10
161.1730967331
 20
132.1449830038
 10
161.1593079928
 20
132.155490681
 10
161.1457190987
 20
132.1655362515
 10
161.1323467774
 20
132.1751064554
 10
161.1192061067
 20
132.1841922013
 10
161.1062870791
 20
132.192802654
 10
161.093568877
 20
132.2009520586
 10
161.0810429185
 20
132.2086451335
 10
161.0708038228
 20
132.214676393
  0
LINE
  5
389
100
AcDbEntity
  8
IMPORT_IGES
100
AcDbLine
 62
7
  6
CONTINUOUS
 10
161.4090372811
 20
131.9289096825
 11
161.3792475973
 21
131.9588933486
  0
LINE
  5
38A
100
AcDbEntity
  8
IMPORT_IGES
100
AcDbLine
 62
7
  6
CONTINUOUS
 10
161.5621399109
 20
131.7721653485
 11
161.5360474186
 21
131.7986554649
  0
LINE
  5
38B
100
AcDbEntity
  8
IMPORT_IGES
100
AcDbLine
 62
7
  6
CONTINUOUS
 10
161.4384083381
 20
131.8989744174
 11
161.4090372811
 21
131.9289096825
  0
LINE
  5
38C
100
AcDbEntity
  8
IMPORT_IGES
100
AcDbLine
 62
7
  6
CONTINUOUS
 10
161.5360474186
 20
131.7986554649
 11
161.4384083381
 21
131.8989744174
  0
LWPOLYLINE
  5
38D
100
AcDbEntity
  8
IMPORT_IGES
100
AcDbPolyline
 62
7
  6
CONTINUOUS
 90
22
 70
0
 10
159.6595767468
 20
129.7916391313
 10
159.6754449953
 20
129.7655684384
 10
159.7157569889
 20
129.6957381469
 10
159.7543522217
 20
129.6251478031
 10
159.7912223395
 20
129.5537938017
 10
159.8263756967
 20
129.4816797481
 10
159.8596427202
 20
129.4091554537
 10
159.8910148175
 20
129.3362169148
 10
159.9205005813
 20
129.2628681351
 10
159.9479562161
 20
129.1894709367
 10
159.973369634
 20
129.1160331051
 10
159.996752923
 20
129.0425468549
 10
160.0179985514
 20
128.9693506511
 10
160.0370986445
 20
128.8964416349
 10
160.054061077
 20
128.8238226651
 10
160.0688019424
 20
128.7518407839
 10
160.0813112193
 20
128.6804981807
 10
160.0915989289
 20
128.6097926661
 10
160.0996112291
 20
128.5400647139
 10
160.1053301724
 20
128.4714278153
 10
160.1087737061
 20
128.403768479
 10
160.1099418304
 20
128.337086705
  0
LWPOLYLINE
  5
38E
100
AcDbEntity
  8
IMPORT_IGES
100
AcDbPolyline
 62
7
  6
CONTINUOUS
 90
15
 70
0
 10
161.6702003766
 20
-244.0232206787
 10
161.679927843
 20
-243.9882621025
 10
161.6894236845
 20
-243.953300823
 10
161.6986054011
 20
-243.9183419567
 10
161.7074110789
 20
-243.8833727713
 10
161.7157404996
 20
-243.8486517147
 10
161.7235230731
 20
-243.8141722328
 10
161.7306792166
 20
-243.7799423704
 10
161.7371080698
 20
-243.7462465118
 10
161.7427433778
 20
-243.7130815306
 10
161.7475085615
 20
-243.680463287
 10
161.7513122928
 20
-243.6487091263
 10
161.7540940999
 20
-243.6179333251
 10
161.7558052322
 20
-243.5880459756
 10
161.7563884398
 20
-243.5590623659
  0
LINE
  5
38F
100
AcDbEntity
  8
IMPORT_IGES
100
AcDbLine
 62
7
  6
CONTINUOUS
 10
161.6312633574
 20
-244.1600262325
 11
161.6702003766
 21
-244.0232206787
  0
LWPOLYLINE
  5
390
100
AcDbEntity
  8
IMPORT_IGES
100
AcDbPolyline
 62
7
  6
CONTINUOUS
 90
36
 70
0
 10
-42.571008894
 20
230.2988713535
 10
-42.3791061888
 20
230.3466607411
 10
-42.0969319455
 20
230.42110403
 10
-41.8185928068
 20
230.4995640607
 10
-41.544295338
 20
230.5819640484
 10
-41.2743468131
 20
230.6681883509
 10
-41.0090628485
 20
230.7581042757
 10
-40.7484823997
 20
230.8516653825
 10
-40.4925048115
 20
230.9488857807
 10
-40.2411246164
 20
231.049759003
 10
-39.9947190628
 20
231.1541238445
 10
-39.7537573004
 20
231.261753781
 10
-39.5185502753
 20
231.3724642053
 10
-39.2890820094
 20
231.4862147841
 10
-39.065323439
 20
231.6029825349
 10
-38.8473977727
 20
231.7226715954
 10
-38.6354786614
 20
231.8451527249
 10
-38.4296304767
 20
231.9703546375
 10
-38.2299403926
 20
232.0981937267
 10
-38.0366007386
 20
232.2285135027
 10
-37.849829747
 20
232.3611228233
 10
-37.6699097405
 20
232.4957587775
 10
-37.4967658791
 20
232.6324106504
 10
-37.3301146327
 20
232.7712670503
 10
-37.1699849262
 20
232.9122993183
 10
-37.0166269466
 20
233.0552793386
 10
-36.8701365345
 20
233.2001002324
 10
-36.7307413277
 20
233.3465075483
 10
-36.5984341553
 20
233.4944743374
 10
-36.4730112545
 20
233.6442352905
 10
-36.3546231092
 20
233.7956510064
 10
-36.243403833
 20
233.9485881222
 10
-36.139227453
 20
234.103299563
 10
-36.0422282579
 20
234.2597208502
 10
-35.9526166732
 20
234.4176531785
 10
-35.8704522365
 20
234.5771560209
  0
LWPOLYLINE
  5
391
100
AcDbEntity
  8
IMPORT_IGES
100
AcDbPolyline
 62
7
  6
CONTINUOUS
 90
14
 70
0
 10
-99.0550677936
 20
282.1919506452
 10
-99.0431963556
 20
282.1876143483
 10
-99.0309216639
 20
282.1832760559
 10
-99.018244809
 20
282.1789318342
 10
-99.0051772206
 20
282.1745748041
 10
-98.9917099602
 20
282.1702030328
 10
-98.977813887
 20
282.1658189485
 10
-98.9634875345
 20
282.1614148099
 10
-98.9487359915
 20
282.156986039
 10
-98.9335405142
 20
282.1525379861
 10
-98.9178980531
 20
282.1480606602
 10
-98.9018167414
 20
282.143547552
 10
-98.885295303
 20
282.1390071381
 10
-98.850918818
 20
282.1297954457
  0
LWPOLYLINE
  5
392
100
AcDbEntity
  8
IMPORT_IGES
100
AcDbPolyline
 62
7
  6
CONTINUOUS
 90
3
 70
0
 10
101.6098204798
 20
-281.9493539749
 10
101.6043468504
 20
-281.9564715015
 10
101.5996361358
 20
-281.9659395415
  0
LWPOLYLINE
  5
393
100
AcDbEntity
  8
IMPORT_IGES
100
AcDbPolyline
 62
7
  6
CONTINUOUS
 90
4
 70
0
 10
83.6693656637
 20
-252.31367088
 10
83.6644206576
 20
-252.3180541484
 10
83.6464028739
 20
-252.3333023556
 10
83.6279870876
 20
-252.3478487927
  0
LWPOLYLINE
  5
394
100
AcDbEntity
  8
IMPORT_IGES
100
AcDbPolyline
 62
250
  6
CONTINUOUS
 90
31
 70
0
 10
82.5569734384
 20
-252.2960084602
 10
82.5183153999
 20
-252.3269438016
 10
82.4799544348
 20
-252.3597967987
 10
82.4419765975
 20
-252.3945092863
 10
82.4042751629
 20
-252.431211922
 10
82.3671363609
 20
-252.4696598001
 10
82.3312035839
 20
-252.5091493946
 10
82.2969353195
 20
-252.5490438422
 10
82.2639403225
 20
-252.5896650158
 10
82.2315964472
 20
-252.6317552169
 10
82.1997153133
 20
-252.6756383857
 10
82.1686728885
 20
-252.7208789886
 10
82.1387275709
 20
-252.7671294662
 10
82.1100327204
 20
-252.8141469349
 10
82.0825573543
 20
-252.8619758949
 10
82.0562742764
 20
-252.9106860796
 10
82.0312458141
 20
-252.9602037257
 10
82.0075556708
 20
-253.0104074699
 10
81.9852289843
 20
-253.0613000116
 10
81.9642714609
 20
-253.1129613573
 10
81.9448439933
 20
-253.1650957152
 10
81.9271677086
 20
-253.2171351306
 10
81.9113795841
 20
-253.2685836927
 10
81.8973663147
 20
-253.3197084233
 10
81.8849936251
 20
-253.3710761174
 10
81.8742468182
 20
-253.4230932005
 10
81.8653517378
 20
-253.475078418
 10
81.8584965629
 20
-253.5259812337
 10
81.8536766598
 20
-253.5754015205
 10
81.8508124297
 20
-253.6235514653
 10
81.8498666573
 20
-253.6703437131
  0
LWPOLYLINE
  5
395
100
AcDbEntity
  8
IMPORT_IGES
100
AcDbPolyline
 62
7
  6
CONTINUOUS
 90
42
 70
0
 10
83.6279870876
 20
-252.3478487927
 10
83.6091640078
 20
-252.3616789567
 10
83.5898503149
 20
-252.3748484481
 10
83.5700473598
 20
-252.3873750499
 10
83.5497537915
 20
-252.3992409791
 10
83.5288822373
 20
-252.4104484874
 10
83.5073898434
 20
-252.4210239383
 10
83.4853194637
 20
-252.4309409682
 10
83.4627122862
 20
-252.440122738
 10
83.4395251905
 20
-252.4485697187
 10
83.415801297
 20
-252.4562814393
 10
83.3917111558
 20
-252.4631796466
 10
83.3672919164
 20
-252.469240115
 10
83.3425064293
 20
-252.4744870701
 10
83.3174137951
 20
-252.4789149357
 10
83.2920347306
 20
-252.4825202852
 10
83.2663485191
 20
-252.4853065452
 10
83.2403521113
 20
-252.4872784199
 10
83.2140379433
 20
-252.4884387198
 10
83.187413579
 20
-252.4887846344
 10
83.1604986604
 20
-252.4883124368
 10
83.1332869641
 20
-252.4870215719
 10
83.1057847134
 20
-252.4849125947
 10
83.0780302209
 20
-252.4819834438
 10
83.0500064501
 20
-252.4782280029
 10
83.0217304375
 20
-252.4736523883
 10
82.993291604
 20
-252.4682728879
 10
82.9646853851
 20
-252.4620815028
 10
82.9359163454
 20
-252.4550862319
 10
82.9070875999
 20
-252.4473273586
 10
82.8782274035
 20
-252.4388099076
 10
82.8493075013
 20
-252.4295288542
 10
82.8203462435
 20
-252.4195094087
 10
82.7913584318
 20
-252.4087603639
 10
82.7623292645
 20
-252.3972729269
 10
82.7332326866
 20
-252.3850459295
 10
82.7040678669
 20
-252.3720842557
 10
82.6748356366
 20
-252.3583830215
 10
82.6455124347
 20
-252.3439264068
 10
82.6160904076
 20
-252.3287091384
 10
82.5865774088
 20
-252.3127364895
 10
82.5569734385
 20
-252.2960084602
  0
LINE
  5
396
100
AcDbEntity
  8
IMPORT_IGES
100
AcDbLine
 62
7
  6
CONTINUOUS
 10
-98.8149243318
 20
282.1204237533
 11
-98.6586822427
 21
282.08075216
  0
LINE
  5
397
100
AcDbEntity
  8
IMPORT_IGES
100
AcDbLine
 62
7
  6
CONTINUOUS
 10
-98.6586822427
 20
282.08075216
 11
-98.6179361615
 21
282.0701570767
  0
LINE
  5
398
100
AcDbEntity
  8
IMPORT_IGES
100
AcDbLine
 62
7
  6
CONTINUOUS
 10
-98.850918818
 20
282.1297954457
 11
-98.8149243318
 21
282.1204237533
  0
LWPOLYLINE
  5
399
100
AcDbEntity
  8
IMPORT_IGES
100
AcDbPolyline
 62
7
  6
CONTINUOUS
 90
23
 70
0
 10
-98.6179361615
 20
282.0701570767
 10
-98.577191162
 20
282.0592456643
 10
-98.5568750625
 20
282.0536496492
 10
-98.536733097
 20
282.0479811245
 10
-98.5167801846
 20
282.0422337402
 10
-98.4970134665
 20
282.0363930279
 10
-98.4775356724
 20
282.0304792736
 10
-98.4583707358
 20
282.0244918904
 10
-98.4395047989
 20
282.0184173929
 10
-98.4209819547
 20
282.0122616849
 10
-98.402802654
 20
282.0060177586
 10
-98.3849760505
 20
281.999681127
 10
-98.3675576633
 20
281.9932653442
 10
-98.3505466099
 20
281.9867655804
 10
-98.3339517369
 20
281.9801797758
 10
-98.3178405406
 20
281.9735312237
 10
-98.3022309639
 20
281.9668270151
 10
-98.2871095493
 20
281.9600606395
 10
-98.2724944855
 20
281.9532393965
 10
-98.2583956922
 20
281.9463684875
 10
-98.2448065332
 20
281.9394455755
 10
-98.2317200541
 20
281.9324672499
 10
-98.2191333577
 20
281.9254315273
  0
LWPOLYLINE
  5
39A
100
AcDbEntity
  8
IMPORT_IGES
100
AcDbPolyline
 62
7
  6
CONTINUOUS
 90
10
 70
0
 10
161.5692461873
 20
-244.4189862757
 10
161.5350015183
 20
-244.4593350425
 10
161.4981940501
 20
-244.4987721803
 10
161.4588237828
 20
-244.5372976889
 10
161.4168233607
 20
-244.5749671267
 10
161.3722601395
 20
-244.6117249353
 10
161.3253361863
 20
-244.6474044405
 10
161.2761188569
 20
-244.6819500841
 10
161.2245407955
 20
-244.7154174243
 10
161.1706020022
 20
-244.747806461
  0
LWPOLYLINE
  5
39B
100
AcDbEntity
  8
IMPORT_IGES
100
AcDbPolyline
 62
7
  6
CONTINUOUS
 90
40
 70
0
 10
101.6657090609
 20
-281.9250879053
 10
101.6751878107
 20
-281.9167604766
 10
101.6853847129
 20
-281.9084959026
 10
101.6963037034
 20
-281.9002880735
 10
101.7079428683
 20
-281.892105921
 10
101.7203124654
 20
-281.8839670109
 10
101.7334350411
 20
-281.8759373302
 10
101.7473203331
 20
-281.8680098859
 10
101.7619679997
 20
-281.8601749466
 10
101.7773857562
 20
-281.8524934503
 10
101.7935868132
 20
-281.8449556041
 10
101.8105677489
 20
-281.8375514406
 10
101.8283111881
 20
-281.8303411699
 10
101.8468435792
 20
-281.8233117741
 10
101.8661477474
 20
-281.8164540525
 10
101.8861398286
 20
-281.8098349322
 10
101.9068236583
 20
-281.8034508232
 10
101.9282022232
 20
-281.7972835183
 10
101.9501886229
 20
-281.7913804092
 10
101.9727915183
 20
-281.7857355433
 10
101.9960062584
 20
-281.7803341324
 10
102.0197239913
 20
-281.7752135172
 10
102.0439379208
 20
-281.7703710699
 10
102.0686554418
 20
-281.7657915816
 10
102.0937870877
 20
-281.7614970818
 10
102.1193376594
 20
-281.757483992
 10
102.1453001108
 20
-281.7537405414
 10
102.1715655294
 20
-281.7502802901
 10
102.1981346605
 20
-281.7471016872
 10
102.2250017334
 20
-281.744194944
 10
102.2520465239
 20
-281.7415659135
 10
102.2792734027
 20
-281.7392135902
 10
102.306670799
 20
-281.7371324602
 10
102.3340933228
 20
-281.7353271814
 10
102.3615354977
 20
-281.7337978958
 10
102.3889941936
 20
-281.7325443136
 10
102.4163267578
 20
-281.7315765417
 10
102.4434825985
 20
-281.7309012651
 10
102.4705035041
 20
-281.730518422
 10
102.4973853
 20
-281.7304310148
  0
LWPOLYLINE
  5
39C
100
AcDbEntity
  8
IMPORT_IGES
100
AcDbPolyline
 62
7
  6
CONTINUOUS
 90
22
 70
0
 10
86.6099232049
 20
-263.7634489986
 10
86.5777437548
 20
-263.783492791
 10
86.5337160743
 20
-263.8145643151
 10
86.4912653952
 20
-263.8483962052
 10
86.4501597669
 20
-263.8846893561
 10
86.4106311401
 20
-263.923742873
 10
86.3732482737
 20
-263.9658017526
 10
86.3382911421
 20
-264.0107362671
 10
86.3054797708
 20
-264.0586761443
 10
86.2745429949
 20
-264.1102555651
 10
86.2451074141
 20
-264.1661657704
 10
86.2175464286
 20
-264.2257155192
 10
86.1927090743
 20
-264.2874652698
 10
86.170821726
 20
-264.3511728304
 10
86.151658009
 20
-264.4170803927
 10
86.1353878345
 20
-264.48447499
 10
86.1223133465
 20
-264.5535214868
 10
86.1121324011
 20
-264.6240550186
 10
86.1041084779
 20
-264.6948680249
 10
86.09799607
 20
-264.7655579855
 10
86.0940406843
 20
-264.8365274206
 10
86.0922423208
 20
-264.9077763301
  0
LWPOLYLINE
  5
39D
100
AcDbEntity
  8
IMPORT_IGES
100
AcDbPolyline
 62
7
  6
CONTINUOUS
 90
22
 70
0
 10
89.1100953426
 20
-268.0934766283
 10
89.1422747926
 20
-268.0734328358
 10
89.1863024732
 20
-268.0423613118
 10
89.2287531522
 20
-268.0085294217
 10
89.2698587805
 20
-267.9722362708
 10
89.3093874073
 20
-267.9331827539
 10
89.3467702738
 20
-267.8911238742
 10
89.3817274054
 20
-267.8461893598
 10
89.4145387766
 20
-267.7982494826
 10
89.4454755525
 20
-267.7466700618
 10
89.4749111334
 20
-267.6907598565
 10
89.5024721189
 20
-267.6312101077
 10
89.5273094731
 20
-267.5694603571
 10
89.5491968214
 20
-267.5057527965
 10
89.5683605385
 20
-267.4398452342
 10
89.584630713
 20
-267.3724506369
 10
89.597705201
 20
-267.3034041401
 10
89.6078861464
 20
-267.2328706083
 10
89.6159100696
 20
-267.162057602
 10
89.6220224775
 20
-267.0913676414
 10
89.6259778632
 20
-267.0203982063
 10
89.6277762267
 20
-266.9491492968
  0
LINE
  5
39E
100
AcDbEntity
  8
IMPORT_IGES
100
AcDbLine
 62
7
  6
CONTINUOUS
 10
-161.6352338466
 20
247.9895773109
 11
-161.6411430398
 21
247.9881231918
  0
LINE
  5
39F
100
AcDbEntity
  8
IMPORT_IGES
100
AcDbLine
 62
7
  6
CONTINUOUS
 10
-161.5589962804
 20
248.0271762137
 11
-161.5931304315
 21
248.0220249235
  0
LWPOLYLINE
  5
3A0
100
AcDbEntity
  8
IMPORT_IGES
100
AcDbPolyline
 62
7
  6
CONTINUOUS
 90
30
 70
0
 10
-161.6411430398
 20
247.9881231918
 10
-161.6464082463
 20
247.987337224
 10
-161.6521463813
 20
247.9870581867
 10
-161.6579650246
 20
247.9873705284
 10
-161.6638380772
 20
247.9882707896
 10
-161.6697236826
 20
247.9898055516
 10
-161.6756042413
 20
247.9919843902
 10
-161.6814583505
 20
247.9948018755
 10
-161.6872421724
 20
247.9982811241
 10
-161.6929406567
 20
248.0024322561
 10
-161.6985314747
 20
248.0072476526
 10
-161.7039660943
 20
248.0127225691
 10
-161.7092277629
 20
248.0188616016
 10
-161.7143023006
 20
248.0256604556
 10
-161.7191527145
 20
248.0330997588
 10
-161.7237673143
 20
248.0411850061
 10
-161.7281329587
 20
248.049909183
 10
-161.7322185381
 20
248.0592330468
 10
-161.7360144597
 20
248.0691553706
 10
-161.7395140602
 20
248.0796742083
 10
-161.7426984549
 20
248.0907483889
 10
-161.7455629144
 20
248.1023783866
 10
-161.7481025168
 20
248.1145595414
 10
-161.7503052112
 20
248.127242428
 10
-161.7521695787
 20
248.1404214971
 10
-161.7536950154
 20
248.1540974818
 10
-161.75487747
 20
248.1682300663
 10
-161.75571839
 20
248.1828041226
 10
-161.7562213066
 20
248.197829821
 10
-161.7563884398
 20
248.2133042239
  0
LINE
  5
3A1
100
AcDbEntity
  8
IMPORT_IGES
100
AcDbLine
 62
7
  6
CONTINUOUS
 10
160.8170486116
 20
-243.3190032041
 11
160.1099418304
 21
-243.7272777975
  0
LINE
  5
3A2
100
AcDbEntity
  8
IMPORT_IGES
100
AcDbLine
 62
250
  6
CONTINUOUS
 10
160.1099418304
 20
-243.7272777975
 11
112.5383009608
 21
-271.1945470229
  0
LINE
  5
3A3
100
AcDbEntity
  8
IMPORT_IGES
100
AcDbLine
 62
7
  6
CONTINUOUS
 10
112.5383009608
 20
-271.8708869251
 11
159.6957765883
 21
-244.6427515197
  0
LINE
  5
3A4
100
AcDbEntity
  8
IMPORT_IGES
100
AcDbLine
 62
7
  6
CONTINUOUS
 10
161.1706020022
 20
-244.747806461
 11
160.8170486116
 21
-244.9519437577
  0
LINE
  5
3A5
100
AcDbEntity
  8
IMPORT_IGES
100
AcDbLine
 62
7
  6
CONTINUOUS
 10
112.5383009608
 20
-272.9091346042
 11
161.1706020022
 21
-244.8294534887
  0
LINE
  5
3A6
100
AcDbEntity
  8
IMPORT_IGES
100
AcDbLine
 62
7
  6
CONTINUOUS
 10
112.5383009608
 20
-273.725604881
 11
161.1706020022
 21
-245.6459237655
  0
LINE
  5
3A7
100
AcDbEntity
  8
IMPORT_IGES
100
AcDbLine
 62
7
  6
CONTINUOUS
 10
103.2030772355
 20
-282.2584577078
 11
104.0490639922
 21
-281.7699955571
  0
LINE
  5
3A8
100
AcDbEntity
  8
IMPORT_IGES
100
AcDbLine
 62
7
  6
CONTINUOUS
 10
112.5383009608
 20
-276.8685113763
 11
104.0530195865
 21
-281.7678064962
  0
LWPOLYLINE
  5
3A9
100
AcDbEntity
  8
IMPORT_IGES
100
AcDbPolyline
 62
7
  6
CONTINUOUS
 90
10
 70
0
 10
103.2030772355
 20
-282.2584577077
 10
103.1404748447
 20
-282.2930707421
 10
103.0780975312
 20
-282.3246751864
 10
103.015945295
 20
-282.3532710408
 10
102.9538687311
 20
-282.3789129749
 10
102.8920172444
 20
-282.401546319
 10
102.8308390501
 20
-282.4210070638
 10
102.770483553
 20
-282.4372405396
 10
102.7108013481
 20
-282.450301416
 10
102.6517924355
 20
-282.4601896932
  0
ELLIPSE
  5
3AA
100
AcDbEntity
  8
IMPORT_IGES
100
AcDbEllipse
 62
7
  6
CONTINUOUS
 10
-159.5563884398
 20
247.8078908895
 30
0.0
 11
-1.5563772369
 21
2.690417231
 31
0.0
 40
0.5779372166
 41
1.1725923851
 42
1.5703190326
  0
ELLIPSE
  5
3AB
100
AcDbEntity
  8
IMPORT_IGES
100
AcDbEllipse
 62
7
  6
CONTINUOUS
 10
159.7563884398
 20
130.6641650861
 30
0.0
 11
1.9018358117
 21
1.210696575
 31
0.0
 40
0.045394931
 41
-0.7617051857
 42
-0.3493777484
  0
ELLIPSE
  5
3AC
100
AcDbEntity
  8
IMPORT_IGES
100
AcDbEllipse
 62
7
  6
CONTINUOUS
 10
159.7563884398
 20
130.6641650861
 30
0.0
 11
1.9994388918
 21
1.0416430398
 31
0.0
 40
0.0454782689
 41
0.3493824496
 42
0.7617098869
  0
ENDSEC
  0
SECTION
  2
OBJECTS
  0
DICTIONARY
  5
C
100
AcDbDictionary
280
0
281
1
  3
ACAD_GROUP
350
D
  3
ACAD_MLINESTYLE
350
17
  3
ACAD_LAYOUT
350
1A
  3
ACAD_PLOTSETTINGS
350
19
  3
ACAD_PLOTSTYLENAME
350
E
  0
DICTIONARY
  5
D
102
{ACAD_REACTORS
330
C
102
}
100
AcDbDictionary
280
0
281
1
  0
ACDBDICTIONARYWDFLT
  5
E
102
{ACAD_REACTORS
330
C
102
}
100
AcDbDictionary
281
1
  3
Normal
350
F
100
AcDbDictionaryWithDefault
340
F
  0
DICTIONARY
  5
17
102
{ACAD_REACTORS
330
C
102
}
100
AcDbDictionary
280
0
281
1
  3
Standard
350
18
  0
DICTIONARY
  5
19
102
{ACAD_REACTORS
330
C
102
}
100
AcDbDictionary
281
1
  0
DICTIONARY
  5
1A
102
{ACAD_REACTORS
330
C
102
}
100
AcDbDictionary
281
1
  3
Model
350
3AD
  3
Layout1
350
3AE
  0
ACDBPLACEHOLDER
  5
F
102
{ACAD_REACTORS
330
E
102
}
  0
MLINESTYLE
  5
18
102
{ACAD_REACTORS
330
17
102
}
100
AcDbMlineStyle
  2
STANDARD
 70
0
  3

 62
256
 51
90.0
 52
90.0
 71
2
 49
0.5
 62
256
  6
BYLAYER
 49
-0.5
 62
256
  6
BYLAYER
  0
LAYOUT
  5
3AD
102
{ACAD_REACTORS
330
1A
102
}
100
AcDbPlotSettings
  1

  2
none_device
  4
ISO_A4_(297.00_x_210.00_MM)
  6

 40
0.0
 41
0.0
 42
0.0
 43
0.0
 44
297.0
 45
210.0
 46
0.0
 47
0.0
 48
0.0
 49
0.0
140
0.0
141
0.0
142
1.0
143
1.0
 70
1024
 72
1
 73
0
 74
0
  7

 75
0
147
1.0
148
0.0
149
0.0
100
AcDbLayout
  1
Model
 70
0
 71
0
 10
0.0
 20
0.0
 11
297.0
 21
210.0
 12
0.0
 22
0.0
 32
0.0
 14
0.0
 24
0.0
 34
0.0
 15
0.0
 25
0.0
 35
0.0
146
0.0
 13
0.0
 23
0.0
 33
0.0
 16
1.0
 26
0.0
 36
0.0
 17
0.0
 27
1.0
 37
0.0
 76
0
330
255
345
0
346
0
  0
LAYOUT
  5
3AE
102
{ACAD_REACTORS
330
1A
102
}
100
AcDbPlotSettings
  1

  2
none_device
  4
ISO_A4_(297.00_x_210.00_MM)
  6

 40
0.0
 41
0.0
 42
0.0
 43
0.0
 44
297.0
 45
210.0
 46
0.0
 47
0.0
 48
0.0
 49
0.0
140
0.0
141
0.0
142
1.0
143
1.0
 70
0
 72
1
 73
0
 74
0
  7

 75
0
147
1.0
148
0.0
149
0.0
100
AcDbLayout
  1
Layout1
 70
0
 71
1
 10
0.0
 20
0.0
 11
297.0
 21
210.0
 12
0.0
 22
0.0
 32
0.0
 14
0.0
 24
0.0
 34
0.0
 15
0.0
 25
0.0
 35
0.0
146
0.0
 13
0.0
 23
0.0
 33
0.0
 16
1.0
 26
0.0
 36
0.0
 17
0.0
 27
1.0
 37
0.0
 76
0
330
256
345
0
346
0
  0
ENDSEC
  0
EOF
