  0
SECTION
  2
HEADER
  9
$ACADVER
  1
AC1024
  9
$DWGCODEPAGE
  3
ANSI_1252
  9
$EXTMAX
 10
420.0
 20
297.0
 30
0.0
  9
$EXTMIN
 10
0.0
 20
0.0
 30
0.0
  9
$LIMMIN
 10
0.0
 20
0.0
  9
$LIMMAX
 10
420.0
 20
297.0
  9
$VIEWCTR
 10
210.0
 20
148.5
  9
$VIEWSIZE
 40
297.0
  9
$CLAYER
  8
0
  9
$LTSCALE
 40
23.1
  9
$CELTYPE
  6
BYLAYER
  9
$DIMSCALE
 40
1.0
  9
$DIMASZ
 40
3.0
  9
$DIMEXO
 40
0.5
  9
$DIMDLI
 40
15.96
  9
$DIMEXE
 40
1.5
  9
$DIMCEN
 40
3.78
  9
$DIMLFAC
 40
1.0
  9
$DIMBLK
  1
_FILLED
  9
$DIMALT
 70
0
  9
$DIMALTF
 40
0.0393700787
  9
$DIMTXT
 40
3.0
  9
$DIMTOL
 70
1
  9
$DIMLIM
 70
0
  9
$DIMTFAC
 40
1.0
  9
$DIMTP
 40
0.01
  9
$DIMTM
 40
0.01
  9
$DIMGAP
 40
0.625
  9
$DIMDSEP
 70
44
  9
$AUNITS
 70
0
  9
$PDMODE
 70
3
  9
$PDSIZE
 40
3.0
  9
$HANDSEED
  5
352
  9
$TILEMODE
 70
1
  9
$MEASUREMENT
 70
1
  9
$INSUNITS
 70
4
  0
ENDSEC
  0
SECTION
  2
CLASSES
  0
CLASS
  1
ACDBDICTIONARYWDFLT
  2
AcDbDictionaryWithDefault
  3
AutoCAD 2000
 90
0
 91
1
280
0
281
0
  0
CLASS
  1
ACDBPLACEHOLDER
  2
AcDbPlaceHolder
  3
AutoCAD 2000
 90
0
 91
1
280
0
281
0
  0
CLASS
  1
LAYOUT
  2
AcDbLayout
  3
AutoCAD 2000
 90
0
 91
0
280
0
281
0
  0
ENDSEC
  0
SECTION
  2
TABLES
  0
TABLE
  2
VPORT
  5
8
100
AcDbSymbolTable
 70
2
  0
VPORT
  5
1F4
100
AcDbSymbolTableRecord
100
AcDbViewportTableRecord
  2
*ACTIVE
 70
0
 10
0.0
 20
0.0
 11
1.0
 21
1.0
 12
210.0
 22
148.5
 13
0.0
 23
0.0
 14
1.0
 24
1.0
 15
0.0
 25
0.0
 16
0.0
 26
0.0
 36
1.0
 17
0.0
 27
0.0
 37
0.0
 40
297.0
 41
1.4141414141
 42
50.0
 43
0.0
 44
0.0
 50
0.0
 51
0.0
 71
0
 72
100
 73
1
 74
1
 75
0
 76
0
 77
0
 78
0
  0
ENDTAB
  0
TABLE
  2
LTYPE
  5
5
100
AcDbSymbolTable
 70
6
  0
LTYPE
  5
14
100
AcDbSymbolTableRecord
100
AcDbLinetypeTableRecord
  2
BYBLOCK
 70
0
  3

 72
65
 73
0
 40
0.0
  0
LTYPE
  5
15
100
AcDbSymbolTableRecord
100
AcDbLinetypeTableRecord
  2
BYLAYER
 70
0
  3

 72
65
 73
0
 40
0.0
  0
LTYPE
  5
16
100
AcDbSymbolTableRecord
100
AcDbLinetypeTableRecord
  2
CONTINUOUS
 70
64
  3
Solid line
 72
65
 73
0
 40
0.0
  0
LTYPE
  5
1F5
100
AcDbSymbolTableRecord
100
AcDbLinetypeTableRecord
  2
CENTER
 70
64
  3
____ _ ____ _ ____ _ ____ _ ____ _ ____ _ ____
 72
65
 73
4
 40
0.6
 49
0.375
 74
0
 49
-0.075
 74
0
 49
0.075
 74
0
 49
-0.075
 74
0
  0
LTYPE
  5
1F6
100
AcDbSymbolTableRecord
100
AcDbLinetypeTableRecord
  2
HIDDEN
 70
64
  3
- - - - - - - - - - - - - - - - - - - -
 72
65
 73
2
 40
0.2
 49
0.1
 74
0
 49
-0.1
 74
0
  0
LTYPE
  5
1F7
100
AcDbSymbolTableRecord
100
AcDbLinetypeTableRecord
  2
PHANTOM
 70
64
  3
_____ _ _ _____ _ _ _____ _ _ _____
 72
65
 73
6
 40
0.8
 49
0.45
 74
0
 49
-0.05
 74
0
 49
0.1
 74
0
 49
-0.05
 74
0
 49
0.1
 74
0
 49
-0.05
 74
0
  0
LTYPE
  5
1F8
100
AcDbSymbolTableRecord
100
AcDbLinetypeTableRecord
  2
DOT
 70
64
  3
. . . . . . . . . . . . . . . . . . . .
 72
65
 73
2
 40
0.2
 49
0.1
 74
0
 49
-0.1
 74
0
  0
LTYPE
  5
1F9
100
AcDbSymbolTableRecord
100
AcDbLinetypeTableRecord
  2
DASHED
 70
64
  3
- - - - - - - - - - - - - - - - - - - -
 72
65
 73
2
 40
0.2
 49
0.1
 74
0
 49
-0.1
 74
0
  0
ENDTAB
  0
TABLE
  2
LAYER
  5
2
100
AcDbSymbolTable
 70
36
  0
LAYER
  5
10
100
AcDbSymbolTableRecord
100
AcDbLayerTableRecord
  2
0
 70
0
 62
7
  6
CONTINUOUS
370
-3
390
F
  0
LAYER
  5
1FA
100
AcDbSymbolTableRecord
100
AcDbLayerTableRecord
  2
DEFAULT_1
 70
0
 62
7
  6
CENTER
370
-3
390
F
  0
LAYER
  5
1FB
100
AcDbSymbolTableRecord
100
AcDbLayerTableRecord
  2
DEFAULT_2
 70
0
 62
7
  6
HIDDEN
370
-3
390
F
  0
LAYER
  5
1FC
100
AcDbSymbolTableRecord
100
AcDbLayerTableRecord
  2
DEFAULT_3
 70
0
 62
7
  6
PHANTOM
370
-3
390
F
  0
LAYER
  5
1FD
100
AcDbSymbolTableRecord
100
AcDbLayerTableRecord
  2
03822_IN248_IB200
 70
0
 62
7
  6
CONTINUOUS
370
-3
390
F
  0
LAYER
  5
1FE
100
AcDbSymbolTableRecord
100
AcDbLayerTableRecord
  2
ASSI
 70
0
 62
7
  6
CONTINUOUS
370
-3
390
F
  0
LAYER
  5
1FF
100
AcDbSymbolTableRecord
100
AcDbLayerTableRecord
  2
BOARD
 70
0
 62
7
  6
CONTINUOUS
370
-3
390
F
  0
LAYER
  5
200
100
AcDbSymbolTableRecord
100
AcDbLayerTableRecord
  2
COLOR88
 70
0
 62
7
  6
CONTINUOUS
370
-3
390
F
  0
LAYER
  5
201
100
AcDbSymbolTableRecord
100
AcDbLayerTableRecord
  2
COORDINATE
 70
0
 62
7
  6
CONTINUOUS
370
-3
390
F
  0
LAYER
  5
202
100
AcDbSymbolTableRecord
100
AcDbLayerTableRecord
  2
COPY_PUBLISH
 70
0
 62
7
  6
CONTINUOUS
370
-3
390
F
  0
LAYER
  5
203
100
AcDbSymbolTableRecord
100
AcDbLayerTableRecord
  2
COSMETICI
 70
0
 62
7
  6
CONTINUOUS
370
-3
390
F
  0
LAYER
  5
204
100
AcDbSymbolTableRecord
100
AcDbLayerTableRecord
  2
CURVE
 70
0
 62
7
  6
CONTINUOUS
370
-3
390
F
  0
LAYER
  5
205
100
AcDbSymbolTableRecord
100
AcDbLayerTableRecord
  2
DRAFT
 70
0
 62
7
  6
CONTINUOUS
370
-3
390
F
  0
LAYER
  5
206
100
AcDbSymbolTableRecord
100
AcDbLayerTableRecord
  2
GUSCIO-INF_IB200P
 70
0
 62
7
  6
CONTINUOUS
370
-3
390
F
  0
LAYER
  5
207
100
AcDbSymbolTableRecord
100
AcDbLayerTableRecord
  2
GUSCIO-SUP_IB200P
 70
0
 62
7
  6
CONTINUOUS
370
-3
390
F
  0
LAYER
  5
208
100
AcDbSymbolTableRecord
100
AcDbLayerTableRecord
  2
IMPORT_IGES
 70
0
 62
7
  6
CONTINUOUS
370
-3
390
F
  0
LAYER
  5
209
100
AcDbSymbolTableRecord
100
AcDbLayerTableRecord
  2
IN248-R1_0_VIMAR_2
 70
0
 62
7
  6
CONTINUOUS
370
-3
390
F
  0
LAYER
  5
20A
100
AcDbSymbolTableRecord
100
AcDbLayerTableRecord
  2
INTF_YELLOW
 70
0
 62
7
  6
CONTINUOUS
370
-3
390
F
  0
LAYER
  5
20B
100
AcDbSymbolTableRecord
100
AcDbLayerTableRecord
  2
NOTE
 70
0
 62
7
  6
CONTINUOUS
370
-3
390
F
  0
LAYER
  5
20C
100
AcDbSymbolTableRecord
100
AcDbLayerTableRecord
  2
PIANI
 70
0
 62
7
  6
CONTINUOUS
370
-3
390
F
  0
LAYER
  5
20D
100
AcDbSymbolTableRecord
100
AcDbLayerTableRecord
  2
PUNTI
 70
0
 62
7
  6
CONTINUOUS
370
-3
390
F
  0
LAYER
  5
20E
100
AcDbSymbolTableRecord
100
AcDbLayerTableRecord
  2
RACCORDO
 70
0
 62
7
  6
CONTINUOUS
370
-3
390
F
  0
LAYER
  5
20F
100
AcDbSymbolTableRecord
100
AcDbLayerTableRecord
  2
SIMBOLI
 70
0
 62
7
  6
CONTINUOUS
370
-3
390
F
  0
LAYER
  5
210
100
AcDbSymbolTableRecord
100
AcDbLayerTableRecord
  2
SMUSSO
 70
0
 62
7
  6
CONTINUOUS
370
-3
390
F
  0
LAYER
  5
211
100
AcDbSymbolTableRecord
100
AcDbLayerTableRecord
  2
SUPERFICI
 70
0
 62
7
  6
CONTINUOUS
370
-3
390
F
  0
LAYER
  5
212
100
AcDbSymbolTableRecord
100
AcDbLayerTableRecord
  2
TOP_SILK
 70
0
 62
7
  6
CONTINUOUS
370
-3
390
F
  0
LAYER
  5
213
100
AcDbSymbolTableRecord
100
AcDbLayerTableRecord
  2
TRASH
 70
0
 62
7
  6
CONTINUOUS
370
-3
390
F
  0
LAYER
  5
214
100
AcDbSymbolTableRecord
100
AcDbLayerTableRecord
  2
WHITE
 70
0
 62
7
  6
CONTINUOUS
370
-3
390
F
  0
LAYER
  5
215
100
AcDbSymbolTableRecord
100
AcDbLayerTableRecord
  2
___SHELL
 70
0
 62
7
  6
CONTINUOUS
370
-3
390
F
  0
ENDTAB
  0
TABLE
  2
STYLE
  5
3
100
AcDbSymbolTable
 70
1
  0
STYLE
  5
11
100
AcDbSymbolTableRecord
100
AcDbTextStyleTableRecord
  2
STANDARD
 70
0
 40
0.0
 41
0.8
 50
0.0
 71
0
 42
0.2
  3
txt
  4

  0
STYLE
  5
216
100
AcDbSymbolTableRecord
100
AcDbTextStyleTableRecord
  2
TEXTSTYLE_1
 70
0
 40
0.0
 41
0.8
 50
0.0
 71
0
 42
0.2
  3
gdt
  4

  0
ENDTAB
  0
TABLE
  2
VIEW
  5
6
100
AcDbSymbolTable
 70
0
  0
ENDTAB
  0
TABLE
  2
UCS
  5
7
100
AcDbSymbolTable
 70
0
  0
ENDTAB
  0
TABLE
  2
APPID
  5
9
100
AcDbSymbolTable
 70
1
  0
APPID
  5
217
100
AcDbSymbolTableRecord
100
AcDbRegAppTableRecord
  2
ACAD
 70
0
  0
ENDTAB
  0
TABLE
  2
BLOCK_RECORD
  5
1
100
AcDbSymbolTable
 70
0
  0
BLOCK_RECORD
  5
218
100
AcDbSymbolTableRecord
100
AcDbBlockTableRecord
  2
*Model_Space
  0
BLOCK_RECORD
  5
219
100
AcDbSymbolTableRecord
100
AcDbBlockTableRecord
  2
*Paper_Space
  0
BLOCK_RECORD
  5
21A
100
AcDbSymbolTableRecord
100
AcDbBlockTableRecord
  2
_FILLED
  0
ENDTAB
  0
TABLE
  2
DIMSTYLE
  5
A
100
AcDbSymbolTable
 70
1
100
AcDbDimStyleTable
 71
0
  0
DIMSTYLE
105
21B
100
AcDbSymbolTableRecord
100
AcDbDimStyleTableRecord
  2
STANDARD
 70
0
  3

  4

 40
1.0
 41
3.0
 42
0.5
 43
0.38
 44
1.5
 45
0.0
 46
0.0
 47
0.01
 48
0.01
140
3.0
141
0.09
142
0.0
143
25.4
144
1.0
145
0.0
146
1.0
147
0.625
 71
1
 72
0
 73
0
 74
0
 75
0
 76
0
 77
1
 78
8
 79
2
170
0
171
1
172
0
173
0
174
0
175
0
176
0
177
0
178
0
270
2
179
2
271
2
272
2
273
2
274
2
275
0
280
0
281
0
282
0
283
1
284
8
285
0
286
0
287
3
288
0
340
11
278
44
341
21A
342
21A
343
21A
344
21A
  0
ENDTAB
  0
ENDSEC
  0
SECTION
  2
BLOCKS
  0
BLOCK
  5
20
100
AcDbEntity
  8
0
100
AcDbBlockBegin
  2
*Model_Space
 70
0
 10
0.0
 20
0.0
 30
0.0
  3
*Model_Space
  1

  0
ENDBLK
  5
21
100
AcDbEntity
  8
0
100
AcDbBlockEnd
  0
BLOCK
  5
1C
100
AcDbEntity
  8
0
100
AcDbBlockBegin
  2
*Paper_Space
 70
0
 10
0.0
 20
0.0
 30
0.0
  3
*Paper_Space
  1

  0
ENDBLK
  5
1D
100
AcDbEntity
  8
0
100
AcDbBlockEnd
  0
BLOCK
  5
21C
100
AcDbEntity
  8
0
100
AcDbBlockBegin
  2
_FILLED
 70
64
 10
0.0
 20
0.0
  3
_FILLED
  1

  0
SOLID
  5
21D
100
AcDbEntity
  8
0
  6
BYBLOCK
 62
0
100
AcDbTrace
 10
0.0
 20
0.0
 11
-1.0
 21
0.3166666667
 12
-1.0
 22
-0.3166666667
 13
-1.0
 23
-0.3166666667
  0
ENDBLK
  5
21E
100
AcDbEntity
  8
0
  6
BYBLOCK
 62
0
100
AcDbBlockEnd
  0
ENDSEC
  0
SECTION
  2
ENTITIES
  0
LWPOLYLINE
  5
21F
100
AcDbEntity
  8
IMPORT_IGES
100
AcDbPolyline
 62
250
  6
CONTINUOUS
 90
16
 70
0
 10
-51.5417865754
 20
48.1965211594
 10
-51.5544513915
 20
48.1860415783
 10
-51.5668606543
 20
48.1743637163
 10
-51.5789050523
 20
48.1615731714
 10
-51.5905146571
 20
48.1477185191
 10
-51.6015402565
 20
48.1329508458
 10
-51.6117772994
 20
48.1175499499
 10
-51.6210624468
 20
48.101821895
 10
-51.6294390665
 20
48.0857580398
 10
-51.6369947083
 20
48.0691680494
 10
-51.6436851467
 20
48.052018051
 10
-51.6493297084
 20
48.0346173036
 10
-51.6537960548
 20
48.0172858556
 10
-51.6570219601
 20
48.0002368682
 10
-51.6589798501
 20
47.9835767942
 10
-51.6596376413
 20
47.9674652399
  0
LWPOLYLINE
  5
220
100
AcDbEntity
  8
IMPORT_IGES
100
AcDbPolyline
 62
7
  6
CONTINUOUS
 90
28
 70
0
 10
-50.6174884824
 20
52.6012361349
 10
-50.6784919844
 20
52.5627536981
 10
-50.7392206715
 20
52.5203831663
 10
-50.799473504
 20
52.4742670727
 10
-50.8590501284
 20
52.4245611596
 10
-50.9177547979
 20
52.3714311648
 10
-50.9753968464
 20
52.3150516469
 10
-51.0317858826
 20
52.2556105225
 10
-51.0867359865
 20
52.1933055069
 10
-51.1400691581
 20
52.1283397869
 10
-51.1916096472
 20
52.0609283983
 10
-51.2411871636
 20
51.991295054
 10
-51.2886403154
 20
51.9196671621
 10
-51.3338123047
 20
51.8462818287
 10
-51.3765541056
 20
51.7713816078
 10
-51.4167266386
 20
51.69521023
 10
-51.4541969903
 20
51.6180192269
 10
-51.4888409873
 20
51.5400638813
 10
-51.5205452315
 20
51.4615983419
 10
-51.5492041291
 20
51.3828823679
 10
-51.5747224261
 20
51.3041758446
 10
-51.5970162929
 20
51.2257344275
 10
-51.6160107362
 20
51.1478176361
 10
-51.6316415612
 20
51.0706836999
 10
-51.6438562823
 20
50.9945841675
 10
-51.6526126806
 20
50.9197703184
 10
-51.6578795762
 20
50.8464921538
 10
-51.6596375818
 20
50.7749934195
  0
LINE
  5
221
100
AcDbEntity
  8
IMPORT_IGES
100
AcDbLine
 62
7
  6
CONTINUOUS
 10
-43.7198059195
 20
57.4052444373
 11
-51.3879257781
 21
52.6631640925
  0
LINE
  5
222
100
AcDbEntity
  8
IMPORT_IGES
100
AcDbLine
 62
250
  6
CONTINUOUS
 10
-50.6174875513
 20
52.6012356068
 11
-42.9568926227
 21
57.3386613151
  0
LWPOLYLINE
  5
223
100
AcDbEntity
  8
IMPORT_IGES
100
AcDbPolyline
 62
7
  6
CONTINUOUS
 90
12
 70
0
 10
-43.0482296256
 20
57.9354926947
 10
-43.0829226021
 20
57.9149971382
 10
-43.1238749457
 20
57.8855372367
 10
-43.162061531
 20
57.8517974148
 10
-43.1975093566
 20
57.8138197695
 10
-43.2298614086
 20
57.7719834795
 10
-43.2590870185
 20
57.7262504667
 10
-43.2852168548
 20
57.6766588093
 10
-43.3079859088
 20
57.6237019207
 10
-43.3273611959
 20
57.567346156
 10
-43.3433757006
 20
57.50762516
 10
-43.3493396891
 20
57.477779647
  0
LWPOLYLINE
  5
224
100
AcDbEntity
  8
IMPORT_IGES
100
AcDbPolyline
 62
250
  6
CONTINUOUS
 90
15
 70
0
 10
-51.3879257694
 20
52.6631640979
 10
-51.3527854494
 20
52.682982482
 10
-51.3066170701
 20
52.7037802872
 10
-51.2580551848
 20
52.7201256123
 10
-51.2072640482
 20
52.7319631712
 10
-51.1544154556
 20
52.7392529247
 10
-51.0996881593
 20
52.7419702163
 10
-51.0432672694
 20
52.7401058548
 10
-50.9853436287
 20
52.7336661472
 10
-50.9261131453
 20
52.722672874
 10
-50.8657761712
 20
52.7071632208
 10
-50.8045368325
 20
52.6871896633
 10
-50.7426022801
 20
52.662819776
 10
-50.6801819865
 20
52.6341359934
 10
-50.6174870806
 20
52.6012353445
  0
LINE
  5
225
100
AcDbEntity
  8
IMPORT_IGES
100
AcDbLine
 62
7
  6
CONTINUOUS
 10
-35.4673980808
 20
62.0122517854
 11
-43.0482440011
 21
57.9355181753
  0
LINE
  5
226
100
AcDbEntity
  8
IMPORT_IGES
100
AcDbLine
 62
250
  6
CONTINUOUS
 10
-42.3114988148
 20
57.8538259143
 11
-34.7384471181
 21
61.926369076
  0
LINE
  5
227
100
AcDbEntity
  8
IMPORT_IGES
100
AcDbLine
 62
7
  6
CONTINUOUS
 10
-42.3650958649
 20
56.9969632947
 11
-42.3269625183
 21
57.0174701744
  0
LWPOLYLINE
  5
228
100
AcDbEntity
  8
IMPORT_IGES
100
AcDbPolyline
 62
7
  6
CONTINUOUS
 90
3
 70
0
 10
-35.4124880997
 20
62.0376330379
 10
-35.4584546179
 20
62.0169453895
 10
-35.4673980808
 20
62.0122517854
  0
LWPOLYLINE
  5
229
100
AcDbEntity
  8
IMPORT_IGES
100
AcDbPolyline
 62
7
  6
CONTINUOUS
 90
15
 70
0
 10
-52.3789064281
 20
44.2216964714
 10
-52.4373704883
 20
44.1833799759
 10
-52.49171929
 20
44.1434798706
 10
-52.5419528332
 20
44.1019961554
 10
-52.5882066737
 20
44.0587813888
 10
-52.6303452557
 20
44.0139830124
 10
-52.6679619119
 20
43.9680433509
 10
-52.7010128482
 20
43.9209518583
 10
-52.7295418587
 20
43.8727190806
 10
-52.7532736576
 20
43.8238189809
 10
-52.7721618192
 20
43.7742450441
 10
-52.7862527693
 20
43.7240037852
 10
-52.7954104993
 20
43.6735887119
 10
-52.7995871312
 20
43.6229982846
 10
-52.7998831127
 20
43.6053194928
  0
LINE
  5
22A
100
AcDbEntity
  8
IMPORT_IGES
100
AcDbLine
 62
7
  6
CONTINUOUS
 10
-52.09897741
 20
44.3948150075
 11
-52.378911729
 21
44.2216994256
  0
LWPOLYLINE
  5
22B
100
AcDbEntity
  8
IMPORT_IGES
100
AcDbPolyline
 62
250
  6
CONTINUOUS
 90
24
 70
0
 10
-51.8943532917
 20
49.4459571614
 10
-51.9163022008
 20
49.3246094199
 10
-51.9270591162
 20
49.2637418241
 10
-51.9373277026
 20
49.2023987097
 10
-51.9469859422
 20
49.1411900946
 10
-51.9555311935
 20
49.0811744223
 10
-51.9628126452
 20
49.0223148331
 10
-51.968535743
 20
48.9647732822
 10
-51.9718190401
 20
48.9097456568
 10
-51.9721995425
 20
48.8578406353
 10
-51.9696233796
 20
48.8082115501
 10
-51.9638135263
 20
48.7598033698
 10
-51.9544971283
 20
48.7122682278
 10
-51.9416949173
 20
48.6657608519
 10
-51.9256444007
 20
48.6200363453
 10
-51.9070923716
 20
48.575394637
 10
-51.8851430331
 20
48.5313464059
 10
-51.8575985552
 20
48.4864830928
 10
-51.8246699463
 20
48.4400744981
 10
-51.7860629275
 20
48.3926926733
 10
-51.7388063089
 20
48.3447684806
 10
-51.6818726258
 20
48.2962827117
 10
-51.6162063601
 20
48.2469035972
 10
-51.5417866512
 20
48.196521205
  0
LWPOLYLINE
  5
22C
100
AcDbEntity
  8
IMPORT_IGES
100
AcDbPolyline
 62
250
  6
CONTINUOUS
 90
24
 70
0
 10
-51.8943532917
 20
47.4047814696
 10
-51.9163022008
 20
47.2834337281
 10
-51.9270591162
 20
47.2225661323
 10
-51.9373277025
 20
47.1612230179
 10
-51.9469859422
 20
47.1000144027
 10
-51.9555311934
 20
47.0399987304
 10
-51.9628126452
 20
46.9811391412
 10
-51.968535743
 20
46.9235975903
 10
-51.97181904
 20
46.8685699649
 10
-51.9721995425
 20
46.8166649434
 10
-51.9696233796
 20
46.7670358582
 10
-51.9638135263
 20
46.7186276779
 10
-51.9544971284
 20
46.6710925359
 10
-51.9416949173
 20
46.6245851599
 10
-51.9256444007
 20
46.5788606533
 10
-51.9070923716
 20
46.534218945
 10
-51.8851430332
 20
46.4901707139
 10
-51.8575985552
 20
46.4453074008
 10
-51.8246699463
 20
46.3988988061
 10
-51.7860629275
 20
46.3515169813
 10
-51.7388063089
 20
46.3035927886
 10
-51.6818726258
 20
46.2551070197
 10
-51.6162063601
 20
46.2057279052
 10
-51.5417866512
 20
46.155345513
  0
LWPOLYLINE
  5
22D
100
AcDbEntity
  8
IMPORT_IGES
100
AcDbPolyline
 62
7
  6
CONTINUOUS
 90
9
 70
0
 10
-52.0215246744
 20
49.2230665978
 10
-52.0366275887
 20
49.1549523661
 10
-52.0513316963
 20
49.0850892749
 10
-52.0651816199
 20
49.0134343819
 10
-52.0775359072
 20
48.9404878535
 10
-52.0877044002
 20
48.8665951895
 10
-52.094948931
 20
48.7917058757
 10
-52.0985625969
 20
48.7164382573
 10
-52.0988610224
 20
48.6889685868
  0
LWPOLYLINE
  5
22E
100
AcDbEntity
  8
IMPORT_IGES
100
AcDbPolyline
 62
7
  6
CONTINUOUS
 90
9
 70
0
 10
-52.0215246744
 20
47.181890906
 10
-52.0366275887
 20
47.1137766742
 10
-52.0513316963
 20
47.0439135831
 10
-52.0651816199
 20
46.97225869
 10
-52.0775359072
 20
46.8993121616
 10
-52.0877044001
 20
46.8254194977
 10
-52.094948931
 20
46.7505301839
 10
-52.0985625969
 20
46.6752625655
 10
-52.0988610224
 20
46.6477928948
  0
LWPOLYLINE
  5
22F
100
AcDbEntity
  8
IMPORT_IGES
100
AcDbPolyline
 62
7
  6
CONTINUOUS
 90
9
 70
0
 10
-52.0215246746
 20
45.140715213
 10
-52.0366275889
 20
45.0726009812
 10
-52.0513316965
 20
45.00273789
 10
-52.0651816201
 20
44.9310829969
 10
-52.0775359074
 20
44.8581364684
 10
-52.0877044003
 20
44.7842438044
 10
-52.0949489311
 20
44.7093544906
 10
-52.0985625969
 20
44.6340868722
 10
-52.0988610225
 20
44.6066171303
  0
LINE
  5
230
100
AcDbEntity
  8
IMPORT_IGES
100
AcDbLine
 62
7
  6
CONTINUOUS
 10
-51.9771782659
 20
49.4185141629
 11
-52.0215246744
 21
49.2230665978
  0
LINE
  5
231
100
AcDbEntity
  8
IMPORT_IGES
100
AcDbLine
 62
7
  6
CONTINUOUS
 10
-51.9771782659
 20
47.377338471
 11
-52.0215246744
 21
47.181890906
  0
LINE
  5
232
100
AcDbEntity
  8
IMPORT_IGES
100
AcDbLine
 62
7
  6
CONTINUOUS
 10
-51.977178266
 20
45.3361627782
 11
-52.0215246746
 21
45.140715213
  0
LWPOLYLINE
  5
233
100
AcDbEntity
  8
IMPORT_IGES
100
AcDbPolyline
 62
250
  6
CONTINUOUS
 90
11
 70
0
 10
-51.8539662122
 20
-8.8086099088
 10
-51.8513853425
 20
-8.8328336572
 10
-51.8484274802
 20
-8.8841674652
 10
-51.8477626955
 20
-8.9393841751
 10
-51.849458143
 20
-8.9961741603
 10
-51.8533800076
 20
-9.0533312478
 10
-51.8592731966
 20
-9.1113894858
 10
-51.8666602127
 20
-9.1704579677
 10
-51.8754569873
 20
-9.230410656
 10
-51.8854698526
 20
-9.2908659711
 10
-51.8960411472
 20
-9.3515760268
  0
LWPOLYLINE
  5
234
100
AcDbEntity
  8
IMPORT_IGES
100
AcDbPolyline
 62
250
  6
CONTINUOUS
 90
11
 70
0
 10
-51.8539662122
 20
-6.7674342169
 10
-51.8513853425
 20
-6.7916579651
 10
-51.8484274802
 20
-6.8429917731
 10
-51.8477626955
 20
-6.8982084831
 10
-51.849458143
 20
-6.9549984682
 10
-51.8533800076
 20
-7.0121555557
 10
-51.8592731966
 20
-7.0702137937
 10
-51.8666602127
 20
-7.1292822756
 10
-51.8754569873
 20
-7.1892349639
 10
-51.8854698525
 20
-7.2496902791
 10
-51.8960411472
 20
-7.3104003348
  0
LWPOLYLINE
  5
235
100
AcDbEntity
  8
IMPORT_IGES
100
AcDbPolyline
 62
250
  6
CONTINUOUS
 90
11
 70
0
 10
-51.8539662122
 20
-4.7262585248
 10
-51.8513853425
 20
-4.750482273
 10
-51.8484274802
 20
-4.801816081
 10
-51.8477626955
 20
-4.857032791
 10
-51.849458143
 20
-4.9138227761
 10
-51.8533800076
 20
-4.9709798636
 10
-51.8592731966
 20
-5.0290381016
 10
-51.8666602126
 20
-5.0881065835
 10
-51.8754569873
 20
-5.1480592718
 10
-51.8854698525
 20
-5.208514587
 10
-51.8960411472
 20
-5.2692246427
  0
LINE
  5
236
100
AcDbEntity
  8
IMPORT_IGES
100
AcDbLine
 62
250
  6
CONTINUOUS
 10
-52.0988685036
 20
-8.3874964367
 11
-52.0980330361
 21
-8.4047413047
  0
LINE
  5
237
100
AcDbEntity
  8
IMPORT_IGES
100
AcDbLine
 62
250
  6
CONTINUOUS
 10
-52.0988685036
 20
-6.3463207448
 11
-52.0980330361
 21
-6.3635656127
  0
LINE
  5
238
100
AcDbEntity
  8
IMPORT_IGES
100
AcDbLine
 62
250
  6
CONTINUOUS
 10
-52.0988685228
 20
-4.3051445604
 11
-52.0980330374
 21
-4.3223899029
  0
LWPOLYLINE
  5
239
100
AcDbEntity
  8
IMPORT_IGES
100
AcDbPolyline
 62
7
  6
CONTINUOUS
 90
14
 70
0
 10
-51.9091470765
 20
45.9480399529
 10
-51.907556145
 20
45.9269562407
 10
-51.906004222
 20
45.8913683635
 10
-51.9055442782
 20
45.8531665142
 10
-51.9063149689
 20
45.8123870386
 10
-51.9084096723
 20
45.7689717054
 10
-51.9118984669
 20
45.7230530234
 10
-51.9168461721
 20
45.6746519019
 10
-51.9233141432
 20
45.6237807034
 10
-51.9313241043
 20
45.5705869769
 10
-51.940823596
 20
45.5151255819
 10
-51.9517190651
 20
45.4574700932
 10
-51.9638815531
 20
45.3977851157
 10
-51.977178266
 20
45.3361627782
  0
LWPOLYLINE
  5
23A
100
AcDbEntity
  8
IMPORT_IGES
100
AcDbPolyline
 62
7
  6
CONTINUOUS
 90
14
 70
0
 10
-51.909143393
 20
-8.7554662786
 10
-51.9075182174
 20
-8.7771969677
 10
-51.9059888622
 20
-8.8127068241
 10
-51.9055460627
 20
-8.8508477983
 10
-51.9063307513
 20
-8.8915993692
 10
-51.9084389299
 20
-8.9350113243
 10
-51.9119414718
 20
-8.9809379776
 10
-51.9169042222
 20
-9.0293609194
 10
-51.9233893094
 20
-9.0802676618
 10
-51.9314155723
 20
-9.1334901037
 10
-51.9409282459
 20
-9.1889653837
 10
-51.9518343404
 20
-9.2466270286
 10
-51.9640047493
 20
-9.3063112384
 10
-51.9773059946
 20
-9.3679236492
  0
LWPOLYLINE
  5
23B
100
AcDbEntity
  8
IMPORT_IGES
100
AcDbPolyline
 62
7
  6
CONTINUOUS
 90
14
 70
0
 10
-51.909143393
 20
-6.7142905866
 10
-51.9075182174
 20
-6.7360212757
 10
-51.9059888622
 20
-6.7715311321
 10
-51.9055460626
 20
-6.8096721063
 10
-51.9063307513
 20
-6.8504236773
 10
-51.9084389299
 20
-6.8938356323
 10
-51.9119414718
 20
-6.9397622856
 10
-51.9169042222
 20
-6.9881852274
 10
-51.9233893094
 20
-7.0390919698
 10
-51.9314155723
 20
-7.0923144117
 10
-51.9409282459
 20
-7.1477896917
 10
-51.9518343404
 20
-7.2054513367
 10
-51.9640047493
 20
-7.2651355464
 10
-51.9773059946
 20
-7.3267479572
  0
LWPOLYLINE
  5
23C
100
AcDbEntity
  8
IMPORT_IGES
100
AcDbPolyline
 62
7
  6
CONTINUOUS
 90
14
 70
0
 10
-51.909143393
 20
-4.6731148945
 10
-51.9075182165
 20
-4.6948455988
 10
-51.9059888617
 20
-4.7303554555
 10
-51.9055460627
 20
-4.7684964305
 10
-51.9063307519
 20
-4.8092480032
 10
-51.9084389311
 20
-4.8526599605
 10
-51.9119414739
 20
-4.8985866165
 10
-51.9169042252
 20
-4.9470095615
 10
-51.9233893135
 20
-4.9979163075
 10
-51.9314155777
 20
-5.051138753
 10
-51.9409282526
 20
-5.1066140365
 10
-51.9518343483
 20
-5.1642756849
 10
-51.9640047585
 20
-5.2239598981
 10
-51.977306005
 20
-5.2855723122
  0
LWPOLYLINE
  5
23D
100
AcDbEntity
  8
IMPORT_IGES
100
AcDbPolyline
 62
250
  6
CONTINUOUS
 90
10
 70
0
 10
-51.6596375783
 20
-8.8862734032
 10
-51.6590440852
 20
-8.9008751661
 10
-51.6572590643
 20
-8.9147227787
 10
-51.6542833922
 20
-8.9276885843
 10
-51.6501123048
 20
-8.9396888865
 10
-51.6447762781
 20
-8.9505605517
 10
-51.6383792157
 20
-8.9601036529
 10
-51.631074625
 20
-8.968185529
 10
-51.6228836736
 20
-8.9748649809
 10
-51.6182210541
 20
-8.9778207755
  0
LWPOLYLINE
  5
23E
100
AcDbEntity
  8
IMPORT_IGES
100
AcDbPolyline
 62
250
  6
CONTINUOUS
 90
10
 70
0
 10
-51.6596375783
 20
-6.8450977113
 10
-51.6590440852
 20
-6.8596994741
 10
-51.6572590643
 20
-6.8735470867
 10
-51.6542833922
 20
-6.8865128924
 10
-51.6501123048
 20
-6.8985131946
 10
-51.6447762781
 20
-6.9093848597
 10
-51.6383792157
 20
-6.9189279609
 10
-51.631074625
 20
-6.927009837
 10
-51.6228836736
 20
-6.9336892889
 10
-51.6182210541
 20
-6.9366450835
  0
LWPOLYLINE
  5
23F
100
AcDbEntity
  8
IMPORT_IGES
100
AcDbPolyline
 62
250
  6
CONTINUOUS
 90
10
 70
0
 10
-51.6596375783
 20
-4.8039220193
 10
-51.6590440852
 20
-4.8185237821
 10
-51.6572590643
 20
-4.8323713947
 10
-51.6542833922
 20
-4.8453372004
 10
-51.6501123048
 20
-4.8573375026
 10
-51.6447762781
 20
-4.8682091678
 10
-51.6383792157
 20
-4.877752269
 10
-51.631074625
 20
-4.8858341451
 10
-51.6228836736
 20
-4.8925135969
 10
-51.6182210541
 20
-4.8954693915
  0
LWPOLYLINE
  5
240
100
AcDbEntity
  8
IMPORT_IGES
100
AcDbPolyline
 62
250
  6
CONTINUOUS
 90
10
 70
0
 10
-51.6596375783
 20
45.8172351419
 10
-51.6590440853
 20
45.8026333815
 10
-51.6572590649
 20
45.7887857702
 10
-51.6542833933
 20
45.7758199648
 10
-51.6501123062
 20
45.763819662
 10
-51.6447762793
 20
45.7529479955
 10
-51.6383792162
 20
45.7434048929
 10
-51.631074624
 20
45.7353230152
 10
-51.6228836704
 20
45.728643562
 10
-51.6182210541
 20
45.7256877696
  0
LWPOLYLINE
  5
241
100
AcDbEntity
  8
IMPORT_IGES
100
AcDbPolyline
 62
250
  6
CONTINUOUS
 90
10
 70
0
 10
-51.6596375783
 20
47.8584108338
 10
-51.6590440853
 20
47.8438090735
 10
-51.6572590649
 20
47.8299614622
 10
-51.6542833933
 20
47.8169956568
 10
-51.6501123062
 20
47.8049953539
 10
-51.6447762793
 20
47.7941236875
 10
-51.6383792162
 20
47.7845805848
 10
-51.631074624
 20
47.7764987072
 10
-51.6228836704
 20
47.769819254
 10
-51.6182210541
 20
47.7668634616
  0
LWPOLYLINE
  5
242
100
AcDbEntity
  8
IMPORT_IGES
100
AcDbPolyline
 62
250
  6
CONTINUOUS
 90
10
 70
0
 10
-51.6596375783
 20
49.8995865258
 10
-51.6590440853
 20
49.8849847655
 10
-51.6572590649
 20
49.8711371542
 10
-51.6542833933
 20
49.8581713488
 10
-51.6501123062
 20
49.8461710459
 10
-51.6447762793
 20
49.8352993795
 10
-51.6383792162
 20
49.8257562768
 10
-51.631074624
 20
49.8176743991
 10
-51.6228836704
 20
49.810994946
 10
-51.6182210541
 20
49.8080391536
  0
LWPOLYLINE
  5
243
100
AcDbEntity
  8
IMPORT_IGES
100
AcDbPolyline
 62
7
  6
CONTINUOUS
 90
27
 70
0
 10
-52.0988601225
 20
46.3215252366
 10
-52.098022858
 20
46.2986376313
 10
-52.09571377
 20
46.2773192682
 10
-52.0920373337
 20
46.2561247366
 10
-52.087058915
 20
46.2349694341
 10
-52.0808807829
 20
46.2139926923
 10
-52.0735150204
 20
46.1930245095
 10
-52.0650309093
 20
46.1720951827
 10
-52.0554653942
 20
46.1511699201
 10
-52.0447372555
 20
46.1300247289
 10
-52.0328448824
 20
46.1086666955
 10
-52.0198019171
 20
46.087141925
 10
-52.0055154975
 20
46.0653442477
 10
-51.990014972
 20
46.0433819899
 10
-51.9732610095
 20
46.0212664976
 10
-51.9550088658
 20
45.9987697619
 10
-51.9352580218
 20
45.9759822322
 10
-51.9139229731
 20
45.9528926139
 10
-51.8905336102
 20
45.9291273066
 10
-51.8649501227
 20
45.9047253285
 10
-51.8371082917
 20
45.8798100773
 10
-51.8065513784
 20
45.8541889308
 10
-51.7730625648
 20
45.8279396184
 10
-51.7365969179
 20
45.8012782269
 10
-51.6969151464
 20
45.7742409326
 10
-51.6538668198
 20
45.7469381032
 10
-51.6181843551
 20
45.7257251652
  0
LWPOLYLINE
  5
244
100
AcDbEntity
  8
IMPORT_IGES
100
AcDbPolyline
 62
7
  6
CONTINUOUS
 90
27
 70
0
 10
-52.0988601225
 20
48.3627009301
 10
-52.098022858
 20
48.339813323
 10
-52.09571377
 20
48.3184949599
 10
-52.0920373336
 20
48.2973004283
 10
-52.0870589149
 20
48.2761451257
 10
-52.0808807828
 20
48.255168384
 10
-52.0735150203
 20
48.2342002012
 10
-52.0650309092
 20
48.2132708743
 10
-52.0554653941
 20
48.1923456118
 10
-52.0447372554
 20
48.1712004206
 10
-52.0328448822
 20
48.1498423872
 10
-52.0198019169
 20
48.1283176167
 10
-52.0055154973
 20
48.1065199394
 10
-51.9900149718
 20
48.0845576816
 10
-51.9732610093
 20
48.0624421893
 10
-51.9550088656
 20
48.0399454536
 10
-51.9352580216
 20
48.0171579239
 10
-51.9139229729
 20
47.9940683057
 10
-51.8905336101
 20
47.9703029984
 10
-51.8649501225
 20
47.9459010203
 10
-51.8371082916
 20
47.9209857692
 10
-51.8065513784
 20
47.8953646228
 10
-51.7730625649
 20
47.8691153104
 10
-51.736596918
 20
47.8424539189
 10
-51.6969151465
 20
47.8154166246
 10
-51.6538668199
 20
47.7881137953
 10
-51.6181843551
 20
47.7669008572
  0
LWPOLYLINE
  5
245
100
AcDbEntity
  8
IMPORT_IGES
100
AcDbPolyline
 62
7
  6
CONTINUOUS
 90
27
 70
0
 10
-52.0988601225
 20
50.4038766221
 10
-52.098022858
 20
50.380989015
 10
-52.09571377
 20
50.359670652
 10
-52.0920373336
 20
50.3384761203
 10
-52.0870589149
 20
50.3173208178
 10
-52.0808807829
 20
50.296344076
 10
-52.0735150203
 20
50.2753758933
 10
-52.0650309092
 20
50.2544465664
 10
-52.0554653941
 20
50.2335213038
 10
-52.0447372554
 20
50.2123761126
 10
-52.0328448822
 20
50.1910180792
 10
-52.0198019169
 20
50.1694933087
 10
-52.0055154974
 20
50.1476956314
 10
-51.9900149718
 20
50.1257333736
 10
-51.9732610093
 20
50.1036178814
 10
-51.9550088656
 20
50.0811211456
 10
-51.9352580217
 20
50.058333616
 10
-51.9139229729
 20
50.0352439977
 10
-51.8905336101
 20
50.0114786904
 10
-51.8649501226
 20
49.9870767123
 10
-51.8371082917
 20
49.9621614612
 10
-51.8065513784
 20
49.9365403148
 10
-51.7730625649
 20
49.9102910024
 10
-51.736596918
 20
49.8836296109
 10
-51.6969151465
 20
49.8565923166
 10
-51.6538668199
 20
49.8292894872
 10
-51.6181843551
 20
49.8080765492
  0
LWPOLYLINE
  5
246
100
AcDbEntity
  8
IMPORT_IGES
100
AcDbPolyline
 62
7
  6
CONTINUOUS
 90
27
 70
0
 10
-52.0988603551
 20
-8.3819516296
 10
-52.0980330361
 20
-8.4047413047
 10
-52.0957400398
 20
-8.4260083313
 10
-52.0920856299
 20
-8.4471511687
 10
-52.0871346844
 20
-8.4682550973
 10
-52.0809891699
 20
-8.4891803146
 10
-52.0736597196
 20
-8.5101005503
 10
-52.0652146493
 20
-8.5309857818
 10
-52.0556899908
 20
-8.5518712164
 10
-52.0450014796
 20
-8.5729858077
 10
-52.0331457493
 20
-8.594323315
 10
-52.0201348301
 20
-8.6158380466
 10
-52.0058713933
 20
-8.6376409976
 10
-51.9903813379
 20
-8.6596255444
 10
-51.9736239919
 20
-8.6817788784
 10
-51.955352419
 20
-8.704328694
 10
-51.9355633216
 20
-8.7271845159
 10
-51.9141693343
 20
-8.7503567192
 10
-51.8906994366
 20
-8.7742170931
 10
-51.8649999063
 20
-8.7987364179
 10
-51.8370147993
 20
-8.823778865
 10
-51.8063251251
 20
-8.8495027927
 10
-51.7727147296
 20
-8.875832382
 10
-51.7361447427
 20
-8.9025498972
 10
-51.6964336981
 20
-8.929584642
 10
-51.6534597558
 20
-8.9568198101
 10
-51.6181846459
 20
-8.9777834884
  0
LWPOLYLINE
  5
247
100
AcDbEntity
  8
IMPORT_IGES
100
AcDbPolyline
 62
7
  6
CONTINUOUS
 90
27
 70
0
 10
-52.0988603551
 20
-6.3407759376
 10
-52.0980330361
 20
-6.3635656127
 10
-52.0957400398
 20
-6.3848326393
 10
-52.0920856299
 20
-6.4059754768
 10
-52.0871346844
 20
-6.4270794054
 10
-52.0809891699
 20
-6.4480046227
 10
-52.0736597196
 20
-6.4689248583
 10
-52.0652146493
 20
-6.4898100898
 10
-52.0556899908
 20
-6.5106955245
 10
-52.0450014796
 20
-6.5318101157
 10
-52.0331457493
 20
-6.5531476231
 10
-52.0201348301
 20
-6.5746623546
 10
-52.0058713933
 20
-6.5964653057
 10
-51.9903813379
 20
-6.6184498524
 10
-51.9736239919
 20
-6.6406031864
 10
-51.955352419
 20
-6.663153002
 10
-51.9355633216
 20
-6.6860088239
 10
-51.9141693343
 20
-6.7091810272
 10
-51.8906994366
 20
-6.7330414011
 10
-51.8649999063
 20
-6.757560726
 10
-51.8370147993
 20
-6.782603173
 10
-51.8063251251
 20
-6.8083271008
 10
-51.7727147296
 20
-6.8346566901
 10
-51.7361447426
 20
-6.8613742052
 10
-51.6964336981
 20
-6.88840895
 10
-51.6534597558
 20
-6.9156441181
 10
-51.6181846459
 20
-6.9366077964
  0
LWPOLYLINE
  5
248
100
AcDbEntity
  8
IMPORT_IGES
100
AcDbPolyline
 62
7
  6
CONTINUOUS
 90
27
 70
0
 10
-52.0988603551
 20
-4.2996002442
 10
-52.0980330374
 20
-4.3223899029
 10
-52.0957400423
 20
-4.3436569294
 10
-52.0920856336
 20
-4.3647997666
 10
-52.0871346893
 20
-4.385903695
 10
-52.080989176
 20
-4.4068289119
 10
-52.0736597268
 20
-4.4277491473
 10
-52.0652146576
 20
-4.4486343786
 10
-52.0556900001
 20
-4.469519813
 10
-52.04500149
 20
-4.4906344042
 10
-52.0331457606
 20
-4.5119719116
 10
-52.0201348422
 20
-4.5334866435
 10
-52.005871406
 20
-4.5552895951
 10
-51.9903813508
 20
-4.5772741427
 10
-51.9736240048
 20
-4.5994274779
 10
-51.9553524316
 20
-4.621977295
 10
-51.9355633334
 20
-4.6448331187
 10
-51.914169345
 20
-4.6680053239
 10
-51.8906994457
 20
-4.6918657001
 10
-51.8649999131
 20
-4.7163850277
 10
-51.8370148032
 20
-4.7414274776
 10
-51.8063251262
 20
-4.7671514079
 10
-51.7727147281
 20
-4.7934809992
 10
-51.7361447387
 20
-4.820198516
 10
-51.6964336929
 20
-4.8472332615
 10
-51.653459751
 20
-4.8744684291
 10
-51.6181846459
 20
-4.8954321044
  0
LWPOLYLINE
  5
249
100
AcDbEntity
  8
IMPORT_IGES
100
AcDbPolyline
 62
250
  6
CONTINUOUS
 90
15
 70
0
 10
-52.09897741
 20
-11.0813897221
 10
-52.0979234776
 20
-11.1138504346
 10
-52.0922109127
 20
-11.1635609181
 10
-52.0815573716
 20
-11.212999439
 10
-52.0659981056
 20
-11.2620024643
 10
-52.0455844838
 20
-11.3104080965
 10
-52.0203838523
 20
-11.3580563765
 10
-51.9904796142
 20
-11.4047893935
 10
-51.9559709833
 20
-11.4504520884
 10
-51.916972394
 20
-11.4948931738
 10
-51.8736127947
 20
-11.5379658252
 10
-51.8260354665
 20
-11.5795277355
 10
-51.7743977401
 20
-11.6194414387
 10
-51.7188705458
 20
-11.6575747878
 10
-51.6596376103
 20
-11.6938015957
  0
LWPOLYLINE
  5
24A
100
AcDbEntity
  8
IMPORT_IGES
100
AcDbPolyline
 62
7
  6
CONTINUOUS
 90
15
 70
0
 10
-52.7998831127
 20
43.6053194928
 10
-52.7988305431
 20
43.5722340428
 10
-52.7931483611
 20
43.5217941134
 10
-52.782492724
 20
43.4716814483
 10
-52.7669114929
 20
43.4218930956
 10
-52.7465558771
 20
43.3729183265
 10
-52.7213795878
 20
43.3247651045
 10
-52.6914289136
 20
43.2774254661
 10
-52.6569939301
 20
43.2313647922
 10
-52.6180310557
 20
43.1865952139
 10
-52.5745838718
 20
43.1431045999
 10
-52.5270731985
 20
43.1013219379
 10
-52.475639309
 20
43.0613902235
 10
-52.42014193
 20
43.023166461
 10
-52.3605810615
 20
42.9866506504
  0
LINE
  5
24B
100
AcDbEntity
  8
IMPORT_IGES
100
AcDbLine
 62
250
  6
CONTINUOUS
 10
-52.09897741
 20
46.3215405846
 11
-52.098867998
 21
46.3159806777
  0
LINE
  5
24C
100
AcDbEntity
  8
IMPORT_IGES
100
AcDbLine
 62
250
  6
CONTINUOUS
 10
-52.09897741
 20
48.3627162769
 11
-52.0988679962
 21
48.357156322
  0
LINE
  5
24D
100
AcDbEntity
  8
IMPORT_IGES
100
AcDbLine
 62
250
  6
CONTINUOUS
 10
-52.09897741
 20
50.4038919688
 11
-52.0988679962
 21
50.3983320151
  0
LINE
  5
24E
100
AcDbEntity
  8
IMPORT_IGES
100
AcDbLine
 62
250
  6
CONTINUOUS
 10
-52.09897741
 20
-8.3819486797
 11
-52.0988685036
 21
-8.3874964367
  0
LINE
  5
24F
100
AcDbEntity
  8
IMPORT_IGES
100
AcDbLine
 62
250
  6
CONTINUOUS
 10
-52.09897741
 20
-6.3407729877
 11
-52.0988685036
 21
-6.3463207448
  0
LINE
  5
250
100
AcDbEntity
  8
IMPORT_IGES
100
AcDbLine
 62
250
  6
CONTINUOUS
 10
-52.09897741
 20
-4.2995972973
 11
-52.0988685228
 21
-4.3051445604
  0
LINE
  5
251
100
AcDbEntity
  8
IMPORT_IGES
100
AcDbLine
 62
7
  6
CONTINUOUS
 10
-52.7999128938
 20
-3.3064300659
 11
-52.7999128938
 21
43.6053191937
  0
LINE
  5
252
100
AcDbEntity
  8
IMPORT_IGES
100
AcDbLine
 62
250
  6
CONTINUOUS
 10
-52.3605790933
 20
-3.9125771982
 11
-52.3605810613
 21
42.9866506399
  0
LINE
  5
253
100
AcDbEntity
  8
IMPORT_IGES
100
AcDbLine
 62
7
  6
CONTINUOUS
 10
-52.09897741
 20
-11.0813897221
 11
-52.09897741
 21
-10.0973702318
  0
LINE
  5
254
100
AcDbEntity
  8
IMPORT_IGES
100
AcDbLine
 62
7
  6
CONTINUOUS
 10
-52.09897741
 20
-8.3819486797
 11
-52.09897741
 21
-8.0561945398
  0
LINE
  5
255
100
AcDbEntity
  8
IMPORT_IGES
100
AcDbLine
 62
7
  6
CONTINUOUS
 10
-52.09897741
 20
-6.3407729877
 11
-52.09897741
 21
-6.0150188467
  0
LINE
  5
256
100
AcDbEntity
  8
IMPORT_IGES
100
AcDbLine
 62
7
  6
CONTINUOUS
 10
-52.09897741
 20
-4.2995972973
 11
-52.09897741
 21
-4.0636227315
  0
LINE
  5
257
100
AcDbEntity
  8
IMPORT_IGES
100
AcDbLine
 62
7
  6
CONTINUOUS
 10
-52.09897741
 20
43.6160081943
 11
-52.09897741
 21
44.6061624639
  0
LINE
  5
258
100
AcDbEntity
  8
IMPORT_IGES
100
AcDbLine
 62
7
  6
CONTINUOUS
 10
-52.09897741
 20
46.3215405846
 11
-52.09897741
 21
46.6473381665
  0
LINE
  5
259
100
AcDbEntity
  8
IMPORT_IGES
100
AcDbLine
 62
7
  6
CONTINUOUS
 10
-52.09897741
 20
48.3627162769
 11
-52.09897741
 21
48.6885138585
  0
LINE
  5
25A
100
AcDbEntity
  8
IMPORT_IGES
100
AcDbLine
 62
7
  6
CONTINUOUS
 10
-52.09897741
 20
50.4038919688
 11
-52.09897741
 21
51.3874052952
  0
LINE
  5
25B
100
AcDbEntity
  8
IMPORT_IGES
100
AcDbLine
 62
250
  6
CONTINUOUS
 10
-51.6596401087
 20
-4.3172905831
 11
-51.6596389607
 21
-4.8039212024
  0
LINE
  5
25C
100
AcDbEntity
  8
IMPORT_IGES
100
AcDbLine
 62
250
  6
CONTINUOUS
 10
-51.6596375763
 20
-8.8862734013
 11
-51.659637609
 21
-8.7772190155
  0
LINE
  5
25D
100
AcDbEntity
  8
IMPORT_IGES
100
AcDbLine
 62
250
  6
CONTINUOUS
 10
-51.6596375763
 20
-6.8450977094
 11
-51.659637609
 21
-6.7360433235
  0
LINE
  5
25E
100
AcDbEntity
  8
IMPORT_IGES
100
AcDbLine
 62
250
  6
CONTINUOUS
 10
-51.6596376103
 20
-10.8183947067
 11
-51.6596376103
 21
-11.6938015957
  0
LINE
  5
25F
100
AcDbEntity
  8
IMPORT_IGES
100
AcDbLine
 62
250
  6
CONTINUOUS
 10
-51.6596392221
 20
42.9973359815
 11
-51.6596392221
 21
43.885114769
  0
LINE
  5
260
100
AcDbEntity
  8
IMPORT_IGES
100
AcDbLine
 62
250
  6
CONTINUOUS
 10
-51.6596376087
 20
45.8172351629
 11
-51.6596376087
 21
45.9262895295
  0
LINE
  5
261
100
AcDbEntity
  8
IMPORT_IGES
100
AcDbLine
 62
250
  6
CONTINUOUS
 10
-51.6596376087
 20
47.8584108548
 11
-51.6596376087
 21
47.9674652214
  0
LINE
  5
262
100
AcDbEntity
  8
IMPORT_IGES
100
AcDbLine
 62
250
  6
CONTINUOUS
 10
-51.6596375794
 20
49.8995865296
 11
-51.6596375805
 21
50.7749934064
  0
LWPOLYLINE
  5
263
100
AcDbEntity
  8
IMPORT_IGES
100
AcDbPolyline
 62
250
  6
CONTINUOUS
 90
16
 70
0
 10
-51.6596376413
 20
45.9262895479
 10
-51.6590109703
 20
45.9420073539
 10
-51.6571580453
 20
45.9581659366
 10
-51.6541269616
 20
45.9746113233
 10
-51.6499986305
 20
45.9911089135
 10
-51.6448250518
 20
46.0075973675
 10
-51.6385737844
 20
46.0241933656
 10
-51.631240291
 20
46.0408362886
 10
-51.6228954934
 20
46.0573020489
 10
-51.6135841535
 20
46.073458276
 10
-51.6033604744
 20
46.0891656533
 10
-51.5923047157
 20
46.1042590128
 10
-51.5805170088
 20
46.118567977
 10
-51.5680992723
 20
46.1319413655
 10
-51.5551514206
 20
46.1442452257
 10
-51.5417865754
 20
46.1553454674
  0
LWPOLYLINE
  5
264
100
AcDbEntity
  8
IMPORT_IGES
100
AcDbPolyline
 62
250
  6
CONTINUOUS
 90
16
 70
0
 10
-51.6596390229
 20
43.885114638
 10
-51.6590117386
 20
43.9008320961
 10
-51.6571583529
 20
43.9169904181
 10
-51.6541269616
 20
43.9334356313
 10
-51.6499985278
 20
43.9499331637
 10
-51.6448250004
 20
43.9664216466
 10
-51.6385737844
 20
43.9830176736
 10
-51.631240291
 20
43.9996605966
 10
-51.6228954934
 20
44.0161263569
 10
-51.6135841535
 20
44.032282584
 10
-51.6033604744
 20
44.0479899613
 10
-51.5923047157
 20
44.0630833209
 10
-51.5805170088
 20
44.077392285
 10
-51.5680992723
 20
44.0907656735
 10
-51.5551514206
 20
44.1030695338
 10
-51.5417865754
 20
44.1141697754
  0
LWPOLYLINE
  5
265
100
AcDbEntity
  8
IMPORT_IGES
100
AcDbPolyline
 62
250
  6
CONTINUOUS
 90
16
 70
0
 10
-51.659637642
 20
-10.8183946888
 10
-51.6590109711
 20
-10.8026768828
 10
-51.6571580461
 20
-10.7865183001
 10
-51.6541269624
 20
-10.7700729133
 10
-51.6499986313
 20
-10.7535753231
 10
-51.6448250526
 20
-10.7370868691
 10
-51.6385737852
 20
-10.7204908711
 10
-51.6312402918
 20
-10.7038479481
 10
-51.6228954942
 20
-10.6873821878
 10
-51.6135841543
 20
-10.6712259607
 10
-51.6033604752
 20
-10.6555185834
 10
-51.5923047164
 20
-10.6404252238
 10
-51.5805170096
 20
-10.6261162596
 10
-51.568099273
 20
-10.6127428711
 10
-51.5551514213
 20
-10.6004390109
 10
-51.5417865762
 20
-10.5893387692
  0
LWPOLYLINE
  5
266
100
AcDbEntity
  8
IMPORT_IGES
100
AcDbPolyline
 62
250
  6
CONTINUOUS
 90
24
 70
0
 10
-51.8960411472
 20
-5.2692246427
 10
-51.9179729069
 20
-5.3904645228
 10
-51.9286745981
 20
-5.4507897426
 10
-51.9388058641
 20
-5.5109864944
 10
-51.9482214579
 20
-5.5706756854
 10
-51.9564517512
 20
-5.6291658675
 10
-51.9633715822
 20
-5.6864084503
 10
-51.9686771724
 20
-5.7423530013
 10
-51.9715402409
 20
-5.7964173344
 10
-51.9716074821
 20
-5.8482940303
 10
-51.9688013016
 20
-5.8984517565
 10
-51.9627059051
 20
-5.9475292078
 10
-51.9529465554
 20
-5.9959298813
 10
-51.9396498104
 20
-6.043430552
 10
-51.9231904625
 20
-6.0897289914
 10
-51.9043443423
 20
-6.1343037353
 10
-51.882166431
 20
-6.1779164247
 10
-51.8544726855
 20
-6.2221838986
 10
-51.8213970949
 20
-6.2678528008
 10
-51.782722027
 20
-6.3143480371
 10
-51.7357299301
 20
-6.3613857263
 10
-51.6794818108
 20
-6.4090181223
 10
-51.6148405333
 20
-6.4575176932
 10
-51.5417866215
 20
-6.5069873578
  0
LWPOLYLINE
  5
267
100
AcDbEntity
  8
IMPORT_IGES
100
AcDbPolyline
 62
250
  6
CONTINUOUS
 90
24
 70
0
 10
-51.8960411472
 20
-7.3104003348
 10
-51.9179729069
 20
-7.4316402149
 10
-51.9286745981
 20
-7.4919654346
 10
-51.9388058641
 20
-7.5521621865
 10
-51.9482214579
 20
-7.6118513775
 10
-51.9564517512
 20
-7.6703415596
 10
-51.9633715822
 20
-7.7275841424
 10
-51.9686771724
 20
-7.7835286934
 10
-51.9715402409
 20
-7.8375930264
 10
-51.9716074821
 20
-7.8894697224
 10
-51.9688013016
 20
-7.9396274486
 10
-51.9627059051
 20
-7.9887048998
 10
-51.9529465554
 20
-8.0371055733
 10
-51.9396498104
 20
-8.084606244
 10
-51.9231904625
 20
-8.1309046834
 10
-51.9043443423
 20
-8.1754794273
 10
-51.882166431
 20
-8.2190921167
 10
-51.8544726855
 20
-8.2633595906
 10
-51.8213970948
 20
-8.3090284928
 10
-51.782722027
 20
-8.3555237291
 10
-51.7357299301
 20
-8.4025614183
 10
-51.6794818108
 20
-8.4501938143
 10
-51.6148405333
 20
-8.4986933852
 10
-51.5417866215
 20
-8.5481630498
  0
LWPOLYLINE
  5
268
100
AcDbEntity
  8
IMPORT_IGES
100
AcDbPolyline
 62
250
  6
CONTINUOUS
 90
24
 70
0
 10
-51.8960411472
 20
-9.3515760268
 10
-51.9179729069
 20
-9.4728159069
 10
-51.9286745981
 20
-9.5331411267
 10
-51.9388058641
 20
-9.5933378785
 10
-51.9482214579
 20
-9.6530270695
 10
-51.9564517512
 20
-9.7115172516
 10
-51.9633715822
 20
-9.7687598344
 10
-51.9686771724
 20
-9.8247043854
 10
-51.9715402409
 20
-9.8787687185
 10
-51.9716074821
 20
-9.9306454144
 10
-51.9688013016
 20
-9.9808031406
 10
-51.9627059051
 20
-10.0298805919
 10
-51.9529465554
 20
-10.0782812653
 10
-51.9396498104
 20
-10.125781936
 10
-51.9231904625
 20
-10.1720803754
 10
-51.9043443423
 20
-10.2166551193
 10
-51.882166431
 20
-10.2602678087
 10
-51.8544726855
 20
-10.3045352826
 10
-51.8213970948
 20
-10.3502041848
 10
-51.782722027
 20
-10.3966994211
 10
-51.73572993
 20
-10.4437371103
 10
-51.6794818108
 20
-10.4913695063
 10
-51.6148405333
 20
-10.5398690772
 10
-51.5417866215
 20
-10.5893387418
  0
LWPOLYLINE
  5
269
100
AcDbEntity
  8
IMPORT_IGES
100
AcDbPolyline
 62
7
  6
CONTINUOUS
 90
9
 70
0
 10
-52.0216434874
 20
-5.4809671391
 10
-52.0367380441
 20
-5.5490646351
 10
-52.0514314942
 20
-5.6189117733
 10
-52.0652688892
 20
-5.6905540444
 10
-52.0776081014
 20
-5.7634889171
 10
-52.0877578981
 20
-5.8373643695
 10
-52.0949806327
 20
-5.9122311979
 10
-52.0985708413
 20
-5.9874717251
 10
-52.0988605725
 20
-6.0147434765
  0
LWPOLYLINE
  5
26A
100
AcDbEntity
  8
IMPORT_IGES
100
AcDbPolyline
 62
7
  6
CONTINUOUS
 90
9
 70
0
 10
-52.0216434745
 20
-7.5221427739
 10
-52.036738031
 20
-7.5902402664
 10
-52.0514314811
 20
-7.6600874008
 10
-52.0652688767
 20
-7.7317296679
 10
-52.0776080902
 20
-7.8046645365
 10
-52.0877578891
 20
-7.8785399855
 10
-52.0949806269
 20
-7.9534068111
 10
-52.0985708396
 20
-8.028647336
 10
-52.0988605725
 20
-8.0559191837
  0
LWPOLYLINE
  5
26B
100
AcDbEntity
  8
IMPORT_IGES
100
AcDbPolyline
 62
7
  6
CONTINUOUS
 90
9
 70
0
 10
-52.0216434745
 20
-9.5633184659
 10
-52.036738031
 20
-9.6314159584
 10
-52.0514314811
 20
-9.7012630928
 10
-52.0652688767
 20
-9.7729053599
 10
-52.0776080902
 20
-9.8458402285
 10
-52.0877578891
 20
-9.9197156775
 10
-52.0949806269
 20
-9.9945825031
 10
-52.0985708396
 20
-10.069823028
 10
-52.0988605725
 20
-10.0970948757
  0
LINE
  5
26C
100
AcDbEntity
  8
IMPORT_IGES
100
AcDbLine
 62
7
  6
CONTINUOUS
 10
-51.977306005
 20
-5.2855723122
 11
-52.0216434874
 21
-5.4809671391
  0
LINE
  5
26D
100
AcDbEntity
  8
IMPORT_IGES
100
AcDbLine
 62
7
  6
CONTINUOUS
 10
-51.9773059946
 20
-7.3267479572
 11
-52.0216434745
 21
-7.5221427739
  0
LINE
  5
26E
100
AcDbEntity
  8
IMPORT_IGES
100
AcDbLine
 62
7
  6
CONTINUOUS
 10
-51.9773059946
 20
-9.3679236492
 11
-52.0216434745
 21
-9.5633184659
  0
LWPOLYLINE
  5
26F
100
AcDbEntity
  8
IMPORT_IGES
100
AcDbPolyline
 62
250
  6
CONTINUOUS
 90
7
 70
0
 10
35.047900535
 20
-58.7870679154
 10
35.2131142436
 20
-58.828982708
 10
35.2916642894
 20
-58.8499639884
 10
35.3674875726
 20
-58.8712479289
 10
35.4416563335
 20
-58.8937276224
 10
35.5149668051
 20
-58.9178235955
 10
35.586292279
 20
-58.9433392138
  0
LWPOLYLINE
  5
270
100
AcDbEntity
  8
IMPORT_IGES
100
AcDbPolyline
 62
250
  6
CONTINUOUS
 90
6
 70
0
 10
34.6064485791
 20
-60.5708419424
 10
34.5319049779
 20
-60.5498948655
 10
34.4598913393
 20
-60.525073069
 10
34.3906581383
 20
-60.4964386931
 10
34.324442008
 20
-60.4641037713
 10
34.2614739314
 20
-60.4281676672
  0
LWPOLYLINE
  5
271
100
AcDbEntity
  8
IMPORT_IGES
100
AcDbPolyline
 62
250
  6
CONTINUOUS
 90
3
 70
0
 10
-51.9999975749
 20
-8.4539727916
 10
-52.0307488241
 20
-8.3936788499
 10
-52.0552638104
 20
-8.3323023466
  0
LWPOLYLINE
  5
272
100
AcDbEntity
  8
IMPORT_IGES
100
AcDbPolyline
 62
250
  6
CONTINUOUS
 90
3
 70
0
 10
-51.999997606
 20
-6.4127970406
 10
-52.0307488583
 20
-6.3525030819
 10
-52.0552638422
 20
-6.2911265665
  0
LWPOLYLINE
  5
273
100
AcDbEntity
  8
IMPORT_IGES
100
AcDbPolyline
 62
250
  6
CONTINUOUS
 90
6
 70
0
 10
-52.0552638104
 20
-8.3323023466
 10
-52.0737319004
 20
-8.27105244
 10
-52.0868545531
 20
-8.2092245933
 10
-52.0950263719
 20
-8.1460355713
 10
-52.0986724321
 20
-8.0818073566
 10
-52.09897741
 20
-8.0561945398
  0
LWPOLYLINE
  5
274
100
AcDbEntity
  8
IMPORT_IGES
100
AcDbPolyline
 62
250
  6
CONTINUOUS
 90
6
 70
0
 10
-52.0552638422
 20
-6.2911265665
 10
-52.0737319254
 20
-6.229876655
 10
-52.0868545696
 20
-6.1680488088
 10
-52.0950263803
 20
-6.104859793
 10
-52.098672434
 20
-6.0406315903
 10
-52.09897741
 20
-6.0150188467
  0
LWPOLYLINE
  5
275
100
AcDbEntity
  8
IMPORT_IGES
100
AcDbPolyline
 62
250
  6
CONTINUOUS
 90
14
 70
0
 10
-52.0963846327
 20
-8.4109937287
 10
-52.0902972459
 20
-8.4380222754
 10
-52.0799718322
 20
-8.4689325216
 10
-52.065030562
 20
-8.5030876274
 10
-52.045353291
 20
-8.5390081048
 10
-52.0206447496
 20
-8.5763752994
 10
-51.9907182999
 20
-8.6151201799
 10
-51.9561220996
 20
-8.6541928146
 10
-51.9172335394
 20
-8.6931479048
 10
-51.87394616
 20
-8.7321395361
 10
-51.8263917923
 20
-8.7710823403
 10
-51.7747153995
 20
-8.8098540479
 10
-51.7190733433
 20
-8.8482955397
 10
-51.659637609
 20
-8.8862733821
  0
LWPOLYLINE
  5
276
100
AcDbEntity
  8
IMPORT_IGES
100
AcDbPolyline
 62
250
  6
CONTINUOUS
 90
14
 70
0
 10
-52.0963846326
 20
-6.3698180367
 10
-52.0902972459
 20
-6.3968465835
 10
-52.0799718321
 20
-6.4277568297
 10
-52.065030562
 20
-6.4619119354
 10
-52.045353291
 20
-6.4978324128
 10
-52.0206447496
 20
-6.5351996075
 10
-51.9907182999
 20
-6.573944488
 10
-51.9561220996
 20
-6.6130171226
 10
-51.9172335394
 20
-6.6519722128
 10
-51.87394616
 20
-6.6909638441
 10
-51.8263917923
 20
-6.7299066484
 10
-51.7747153995
 20
-6.768678356
 10
-51.7190733433
 20
-6.8071198477
 10
-51.659637609
 20
-6.8450976902
  0
LWPOLYLINE
  5
277
100
AcDbEntity
  8
IMPORT_IGES
100
AcDbPolyline
 62
250
  6
CONTINUOUS
 90
14
 70
0
 10
-52.0963847247
 20
-4.3286418064
 10
-52.0902974136
 20
-4.3556703044
 10
-52.0799720928
 20
-4.386580477
 10
-52.0650309316
 20
-4.4207355083
 10
-52.0453537577
 20
-4.4566559603
 10
-52.0206452526
 20
-4.4940232259
 10
-51.9907187858
 20
-4.5327682194
 10
-51.9561225864
 20
-4.5718409098
 10
-51.9172340637
 20
-4.6107960077
 10
-51.8739467763
 20
-4.6497875981
 10
-51.8263926903
 20
-4.6887302189
 10
-51.7747168555
 20
-4.727501588
 10
-51.7190756369
 20
-4.7659426435
 10
-51.659641055
 20
-4.8039199771
  0
LINE
  5
278
100
AcDbEntity
  8
IMPORT_IGES
100
AcDbLine
 62
250
  6
CONTINUOUS
 10
-52.098867998
 20
46.3159806777
 11
-52.098022858
 21
46.2986376313
  0
LINE
  5
279
100
AcDbEntity
  8
IMPORT_IGES
100
AcDbLine
 62
250
  6
CONTINUOUS
 10
-52.0988679962
 20
48.357156322
 11
-52.098022858
 21
48.339813323
  0
LINE
  5
27A
100
AcDbEntity
  8
IMPORT_IGES
100
AcDbLine
 62
250
  6
CONTINUOUS
 10
-52.0988679962
 20
50.3983320151
 11
-52.098022858
 21
50.380989015
  0
LWPOLYLINE
  5
27B
100
AcDbEntity
  8
IMPORT_IGES
100
AcDbPolyline
 62
7
  6
CONTINUOUS
 90
14
 70
0
 10
-51.9091470765
 20
47.9892156449
 10
-51.907556145
 20
47.968131933
 10
-51.906004222
 20
47.9325440558
 10
-51.9055442782
 20
47.8943422064
 10
-51.9063149689
 20
47.8535627309
 10
-51.9084096723
 20
47.8101473977
 10
-51.9118984669
 20
47.7642287157
 10
-51.9168461721
 20
47.7158275943
 10
-51.9233141431
 20
47.6649563959
 10
-51.9313241042
 20
47.6117626694
 10
-51.9408235959
 20
47.5563012745
 10
-51.9517190649
 20
47.4986457858
 10
-51.963881553
 20
47.4389608084
 10
-51.9771782659
 20
47.377338471
  0
LWPOLYLINE
  5
27C
100
AcDbEntity
  8
IMPORT_IGES
100
AcDbPolyline
 62
7
  6
CONTINUOUS
 90
14
 70
0
 10
-51.9091470765
 20
50.0303913368
 10
-51.907556145
 20
50.0093076249
 10
-51.906004222
 20
49.9737197477
 10
-51.9055442782
 20
49.9355178984
 10
-51.9063149689
 20
49.8947384229
 10
-51.9084096723
 20
49.8513230897
 10
-51.9118984669
 20
49.8054044077
 10
-51.9168461721
 20
49.7570032863
 10
-51.9233141431
 20
49.7061320879
 10
-51.9313241042
 20
49.6529383614
 10
-51.9408235959
 20
49.5974769665
 10
-51.951719065
 20
49.5398214777
 10
-51.963881553
 20
49.4801365003
 10
-51.9771782659
 20
49.4185141629
  0
LWPOLYLINE
  5
27D
100
AcDbEntity
  8
IMPORT_IGES
100
AcDbPolyline
 62
250
  6
CONTINUOUS
 90
7
 70
0
 10
35.0479005346
 20
-56.7458922233
 10
35.2131142432
 20
-56.7878070159
 10
35.2916642891
 20
-56.8087882964
 10
35.3674875725
 20
-56.8300722368
 10
35.4416563333
 20
-56.8525519304
 10
35.514966805
 20
-56.8766479035
 10
35.586292279
 20
-56.9021635218
  0
LWPOLYLINE
  5
27E
100
AcDbEntity
  8
IMPORT_IGES
100
AcDbPolyline
 62
250
  6
CONTINUOUS
 90
7
 70
0
 10
35.0479006583
 20
-54.704716568
 10
35.2131141754
 20
-54.7466312952
 10
35.2916641551
 20
-54.7676125563
 10
35.3674873837
 20
-54.7888964822
 10
35.4416561116
 20
-54.8113761678
 10
35.5149665823
 20
-54.83547214
 10
35.5862920766
 20
-54.8609877598
  0
LWPOLYLINE
  5
27F
100
AcDbEntity
  8
IMPORT_IGES
100
AcDbPolyline
 62
250
  6
CONTINUOUS
 90
6
 70
0
 10
34.6064485753
 20
-58.5296662493
 10
34.5319049724
 20
-58.5087191716
 10
34.4598913364
 20
-58.4838973758
 10
34.3906581431
 20
-58.4552630032
 10
34.3244420234
 20
-58.4229280871
 10
34.2614739596
 20
-58.3869919914
  0
LWPOLYLINE
  5
280
100
AcDbEntity
  8
IMPORT_IGES
100
AcDbPolyline
 62
250
  6
CONTINUOUS
 90
6
 70
0
 10
34.6064485937
 20
-56.4884905618
 10
34.5319049764
 20
-56.4675434806
 10
34.4598913314
 20
-56.4427216819
 10
34.3906581356
 20
-56.4140873082
 10
34.3244420177
 20
-56.3817523926
 10
34.2614739596
 20
-56.3458162995
  0
LWPOLYLINE
  5
281
100
AcDbEntity
  8
IMPORT_IGES
100
AcDbPolyline
 62
7
  6
CONTINUOUS
 90
10
 70
0
 10
35.1251402869
 20
-58.8922315111
 10
35.1857845064
 20
-58.9101280704
 10
35.2441977278
 20
-58.928019244
 10
35.3000726444
 20
-58.9460718098
 10
35.3530687072
 20
-58.9643963109
 10
35.402934498
 20
-58.9830853801
 10
35.4491800263
 20
-59.0020630618
 10
35.492008413
 20
-59.0214489204
 10
35.5320572104
 20
-59.0416092802
 10
35.5689513347
 20
-59.0624583941
  0
LWPOLYLINE
  5
282
100
AcDbEntity
  8
IMPORT_IGES
100
AcDbPolyline
 62
7
  6
CONTINUOUS
 90
10
 70
0
 10
35.1251402869
 20
-56.8510558191
 10
35.1857845064
 20
-56.8689523784
 10
35.2441977278
 20
-56.886843552
 10
35.3000726444
 20
-56.9048961178
 10
35.3530687072
 20
-56.9232206189
 10
35.402934498
 20
-56.9419096882
 10
35.4491800263
 20
-56.9608873698
 10
35.492008413
 20
-56.9802732284
 10
35.5320572104
 20
-57.0004335883
 10
35.5689513347
 20
-57.0212827021
  0
LWPOLYLINE
  5
283
100
AcDbEntity
  8
IMPORT_IGES
100
AcDbPolyline
 62
250
  6
CONTINUOUS
 90
35
 70
0
 10
-51.8540384752
 20
45.8949606532
 10
-51.8529434334
 20
45.88589952
 10
-51.8491478237
 20
45.8336578299
 10
-51.8476271917
 20
45.7774416879
 10
-51.848682186
 20
45.7197564959
 10
-51.8522048742
 20
45.6619049176
 10
-51.8578198384
 20
45.603341879
 10
-51.8650503126
 20
45.5439975103
 10
-51.8737996551
 20
45.4841627183
 10
-51.8837995125
 20
45.424089572
 10
-51.8943532917
 20
45.3636057775
 10
-51.9052301137
 20
45.3029261235
 10
-51.9163022008
 20
45.2422580361
 10
-51.9270591162
 20
45.1813904403
 10
-51.9373277025
 20
45.1200473259
 10
-51.9469859422
 20
45.0588387107
 10
-51.9555311934
 20
44.9988230384
 10
-51.9628126452
 20
44.9399634492
 10
-51.968535743
 20
44.8824218983
 10
-51.97181904
 20
44.827394273
 10
-51.9721995425
 20
44.7754892514
 10
-51.9696233796
 20
44.7258601662
 10
-51.9638135263
 20
44.6774519859
 10
-51.9544971284
 20
44.6299168439
 10
-51.9416949173
 20
44.5834094679
 10
-51.9256444007
 20
44.5376849614
 10
-51.9070923716
 20
44.493043253
 10
-51.8851430332
 20
44.4489950219
 10
-51.8575985552
 20
44.4041317089
 10
-51.8246699463
 20
44.3577231141
 10
-51.7860629275
 20
44.3103412894
 10
-51.7388063089
 20
44.2624170967
 10
-51.6818726258
 20
44.2139313278
 10
-51.6162063601
 20
44.1645522133
 10
-51.5417866512
 20
44.114169821
  0
LWPOLYLINE
  5
284
100
AcDbEntity
  8
IMPORT_IGES
100
AcDbPolyline
 62
250
  6
CONTINUOUS
 90
11
 70
0
 10
-51.8540384752
 20
47.9361363452
 10
-51.8529434334
 20
47.9270752121
 10
-51.8491478238
 20
47.8748335219
 10
-51.8476271917
 20
47.81861738
 10
-51.848682186
 20
47.760932188
 10
-51.8522048742
 20
47.7030806096
 10
-51.8578198384
 20
47.644517571
 10
-51.8650503126
 20
47.5851732024
 10
-51.8737996551
 20
47.5253384104
 10
-51.8837995124
 20
47.465265264
 10
-51.8943532917
 20
47.4047814696
  0
LWPOLYLINE
  5
285
100
AcDbEntity
  8
IMPORT_IGES
100
AcDbPolyline
 62
250
  6
CONTINUOUS
 90
11
 70
0
 10
-51.8540384752
 20
49.9773120371
 10
-51.8529434334
 20
49.968250904
 10
-51.8491478237
 20
49.9160092138
 10
-51.8476271917
 20
49.8597930719
 10
-51.848682186
 20
49.8021078799
 10
-51.8522048742
 20
49.7442563015
 10
-51.8578198384
 20
49.6856932629
 10
-51.8650503126
 20
49.6263488942
 10
-51.8737996551
 20
49.5665141022
 10
-51.8837995125
 20
49.5064409559
 10
-51.8943532917
 20
49.4459571614
  0
LINE
  5
286
100
AcDbEntity
  8
IMPORT_IGES
100
AcDbLine
 62
7
  6
CONTINUOUS
 10
-42.639938041
 20
57.1556546465
 11
-42.639938041
 21
57.1981783187
  0
LWPOLYLINE
  5
287
100
AcDbEntity
  8
IMPORT_IGES
100
AcDbPolyline
 62
7
  6
CONTINUOUS
 90
10
 70
0
 10
35.1251402869
 20
-54.8098801271
 10
35.1857845064
 20
-54.8277766864
 10
35.2441977278
 20
-54.84566786
 10
35.3000726444
 20
-54.8637204259
 10
35.3530687072
 20
-54.8820449269
 10
35.402934498
 20
-54.9007339962
 10
35.4491800263
 20
-54.9197116778
 10
35.492008413
 20
-54.9390975364
 10
35.5320572104
 20
-54.9592578963
 10
35.5689513347
 20
-54.9801070101
  0
LWPOLYLINE
  5
288
100
AcDbEntity
  8
IMPORT_IGES
100
AcDbPolyline
 62
7
  6
CONTINUOUS
 90
12
 70
0
 10
44.2211767577
 20
-57.4574956015
 10
44.2499034615
 20
-57.4672203779
 10
44.3096337233
 20
-57.4832161062
 10
44.368129964
 20
-57.4946187126
 10
44.4253795344
 20
-57.5013828837
 10
44.4813950838
 20
-57.503553933
 10
44.5356167786
 20
-57.5011146661
 10
44.5880269731
 20
-57.494019484
 10
44.6386433131
 20
-57.4823139857
 10
44.6869589023
 20
-57.4661177729
 10
44.7329507789
 20
-57.4453864168
 10
44.7681166859
 20
-57.4255509836
  0
LWPOLYLINE
  5
289
100
AcDbEntity
  8
IMPORT_IGES
100
AcDbPolyline
 62
250
  6
CONTINUOUS
 90
45
 70
0
 10
35.586292279
 20
-58.9433392138
 10
35.6538898249
 20
-58.9702681827
 10
35.7178722531
 20
-58.9990038965
 10
35.778045529
 20
-59.0296641534
 10
35.8323708502
 20
-59.0620961596
 10
35.8799968631
 20
-59.0966828558
 10
35.9220575267
 20
-59.1337427723
 10
35.9595677005
 20
-59.1730735686
 10
35.9929467948
 20
-59.2150129208
 10
36.0220113631
 20
-59.2595889648
 10
36.0468406284
 20
-59.3060532866
 10
36.0676778278
 20
-59.3544393649
 10
36.0844865579
 20
-59.4049509386
 10
36.0969202157
 20
-59.4570726488
 10
36.1049414444
 20
-59.5107090694
 10
36.1087088932
 20
-59.5660745341
 10
36.1081453953
 20
-59.6230908975
 10
36.1031490937
 20
-59.6819815925
 10
36.0937871218
 20
-59.7424902493
 10
36.0801994285
 20
-59.8037834876
 10
36.0621436329
 20
-59.8659843387
 10
36.0396860381
 20
-59.9287882387
 10
36.013422783
 20
-59.990706247
 10
35.9836469766
 20
-60.0512258491
 10
35.9498644998
 20
-60.1105991258
 10
35.9114860601
 20
-60.1684549284
 10
35.8681620037
 20
-60.2246780263
 10
35.8199918198
 20
-60.2789264986
 10
35.7670604528
 20
-60.3304394337
 10
35.7084334538
 20
-60.3791072232
 10
35.6448952959
 20
-60.4244076622
 10
35.5792455116
 20
-60.4651415422
 10
35.51223057
 20
-60.5009504274
 10
35.4433117361
 20
-60.5319668451
 10
35.3734877065
 20
-60.5580038891
 10
35.3040170045
 20
-60.5785679846
 10
35.2339392935
 20
-60.59410233
 10
35.1609628924
 20
-60.6056993614
 10
35.0840816485
 20
-60.6132237663
 10
35.0047976576
 20
-60.6162264828
 10
34.9246288886
 20
-60.6152387347
 10
34.8437271431
 20
-60.6103200006
 10
34.7626119866
 20
-60.601132527
 10
34.6832576626
 20
-60.5879033056
 10
34.6064485791
 20
-60.5708419424
  0
LWPOLYLINE
  5
28A
100
AcDbEntity
  8
IMPORT_IGES
100
AcDbPolyline
 62
250
  6
CONTINUOUS
 90
45
 70
0
 10
35.586292279
 20
-56.9021635218
 10
35.653889825
 20
-56.9290924907
 10
35.7178722532
 20
-56.9578282045
 10
35.7780455291
 20
-56.9884884615
 10
35.8323708505
 20
-57.0209204677
 10
35.8799968633
 20
-57.0555071639
 10
35.9220575269
 20
-57.0925670805
 10
35.9595677007
 20
-57.1318978768
 10
35.992946795
 20
-57.1738372291
 10
36.0220113633
 20
-57.2184132731
 10
36.0468406285
 20
-57.2648775948
 10
36.0676778279
 20
-57.3132636731
 10
36.0844865579
 20
-57.3637752468
 10
36.0969202157
 20
-57.415896957
 10
36.1049414444
 20
-57.4695333775
 10
36.1087088932
 20
-57.5248988423
 10
36.1081453953
 20
-57.5819152057
 10
36.1031490936
 20
-57.6408059007
 10
36.0937871218
 20
-57.7013145576
 10
36.0801994285
 20
-57.7626077959
 10
36.0621436327
 20
-57.8248086471
 10
36.0396860379
 20
-57.8876125472
 10
36.0134227826
 20
-57.9495305556
 10
35.9836469762
 20
-58.0100501578
 10
35.9498644993
 20
-58.0694234346
 10
35.9114860594
 20
-58.1272792373
 10
35.8681620029
 20
-58.1835023353
 10
35.8199918189
 20
-58.2377508077
 10
35.7670604516
 20
-58.2892637429
 10
35.7084334522
 20
-58.3379315325
 10
35.6448952937
 20
-58.3832319717
 10
35.5792455089
 20
-58.4239658516
 10
35.512230567
 20
-58.4597747368
 10
35.4433117327
 20
-58.4907911544
 10
35.3734877028
 20
-58.5168281983
 10
35.3040170008
 20
-58.5373922936
 10
35.2339392899
 20
-58.5529266388
 10
35.1609628888
 20
-58.5645236699
 10
35.0840816447
 20
-58.5720480746
 10
35.0047976536
 20
-58.5750507909
 10
34.9246288847
 20
-58.5740630426
 10
34.8437271397
 20
-58.5691443083
 10
34.7626119838
 20
-58.5599568347
 10
34.6832576603
 20
-58.5467276132
 10
34.6064485753
 20
-58.5296662493
  0
LWPOLYLINE
  5
28B
100
AcDbEntity
  8
IMPORT_IGES
100
AcDbPolyline
 62
250
  6
CONTINUOUS
 90
45
 70
0
 10
35.5862920766
 20
-54.8609877598
 10
35.6538896435
 20
-54.8879167274
 10
35.7178720868
 20
-54.916652436
 10
35.778045378
 20
-54.9473126853
 10
35.8323707132
 20
-54.9797446828
 10
35.8799967372
 20
-55.014331369
 10
35.9220574106
 20
-55.0513912747
 10
35.9595675951
 20
-55.090722062
 10
35.9929467016
 20
-55.132661407
 10
36.0220112829
 20
-55.1772374455
 10
36.0468405617
 20
-55.2237017654
 10
36.0676777759
 20
-55.2720878466
 10
36.0844865214
 20
-55.3225994271
 10
36.0969201927
 20
-55.3747211459
 10
36.1049414323
 20
-55.4283575776
 10
36.1087088902
 20
-55.4837230556
 10
36.1081453991
 20
-55.5407394325
 10
36.1031491015
 20
-55.5996301414
 10
36.0937871315
 20
-55.6601388123
 10
36.080199439
 20
-55.7214320627
 10
36.062143643
 20
-55.7836329235
 10
36.039686047
 20
-55.8464368311
 10
36.0134227916
 20
-55.9083548441
 10
35.9836469863
 20
-55.9688744473
 10
35.9498645116
 20
-56.0282477223
 10
35.9114860766
 20
-56.086103521
 10
35.8681620282
 20
-56.1423266131
 10
35.8199918552
 20
-56.196575078
 10
35.7670605021
 20
-56.2480880055
 10
35.7084335222
 20
-56.2967557869
 10
35.6448953865
 20
-56.3420562184
 10
35.5792456215
 20
-56.382790095
 10
35.5122306935
 20
-56.4185989825
 10
35.4433118697
 20
-56.4496154063
 10
35.3734878479
 20
-56.4756524579
 10
35.304017154
 20
-56.4962165619
 10
35.2339394488
 20
-56.5117509172
 10
35.1609630442
 20
-56.5233479586
 10
35.0840817819
 20
-56.5308723728
 10
35.0047977639
 20
-56.5338750968
 10
34.9246289702
 20
-56.5328873538
 10
34.8437272063
 20
-56.5279686224
 10
34.7626120337
 20
-56.5187811498
 10
34.6832576946
 20
-56.5055519278
 10
34.6064485937
 20
-56.4884905618
  0
LWPOLYLINE
  5
28C
100
AcDbEntity
  8
IMPORT_IGES
100
AcDbPolyline
 62
250
  6
CONTINUOUS
 90
9
 70
0
 10
34.3921161636
 20
-58.5613832317
 10
34.4635230103
 20
-58.5933859725
 10
34.5389246657
 20
-58.6247062512
 10
34.6180346372
 20
-58.6551315111
 10
34.7002586595
 20
-58.6844569589
 10
34.7862070242
 20
-58.7127663861
 10
34.874765058
 20
-58.7396379088
 10
34.9624843342
 20
-58.764487555
 10
35.047900535
 20
-58.7870679154
  0
LWPOLYLINE
  5
28D
100
AcDbEntity
  8
IMPORT_IGES
100
AcDbPolyline
 62
250
  6
CONTINUOUS
 90
9
 70
0
 10
34.3921161636
 20
-56.5202075397
 10
34.4635230103
 20
-56.5522102805
 10
34.5389246657
 20
-56.5835305592
 10
34.6180346371
 20
-56.6139558191
 10
34.7002586594
 20
-56.6432812668
 10
34.786207024
 20
-56.671590694
 10
34.8747650577
 20
-56.6984622167
 10
34.9624843338
 20
-56.723311863
 10
35.0479005346
 20
-56.7458922233
  0
LINE
  5
28E
100
AcDbEntity
  8
IMPORT_IGES
100
AcDbLine
 62
250
  6
CONTINUOUS
 10
34.3247268359
 20
-58.5288733816
 11
34.3921161636
 21
-58.5613832317
  0
LWPOLYLINE
  5
28F
100
AcDbEntity
  8
IMPORT_IGES
100
AcDbPolyline
 62
250
  6
CONTINUOUS
 90
46
 70
0
 10
34.3793251886
 20
-60.1991118547
 10
34.4640550988
 20
-60.2405022798
 10
34.5453287873
 20
-60.2761915258
 10
34.6231275347
 20
-60.3060811862
 10
34.6972820963
 20
-60.3293461058
 10
34.7678901295
 20
-60.3465068439
 10
34.8353377637
 20
-60.3595366292
 10
34.8989185107
 20
-60.3685695292
 10
34.9592594206
 20
-60.3733056146
 10
35.0187593666
 20
-60.3751626028
 10
35.0782453645
 20
-60.37461604
 10
35.1367580158
 20
-60.3710152364
 10
35.1940018597
 20
-60.3640934505
 10
35.2498994369
 20
-60.3537331224
 10
35.3043216628
 20
-60.3398924653
 10
35.3568773429
 20
-60.3224300846
 10
35.4071747845
 20
-60.3011453744
 10
35.4553213384
 20
-60.2761510696
 10
35.5016596358
 20
-60.2478044704
 10
35.5461311994
 20
-60.2161656892
 10
35.5884279658
 20
-60.1811956676
 10
35.6285075481
 20
-60.1431413474
 10
35.6661605694
 20
-60.1021427243
 10
35.7011630365
 20
-60.0582292183
 10
35.7334305916
 20
-60.0115231108
 10
35.7627865175
 20
-59.9619989306
 10
35.788864511
 20
-59.9100260669
 10
35.8113357997
 20
-59.8563646595
 10
35.8298602167
 20
-59.8014288474
 10
35.8443680615
 20
-59.7453207947
 10
35.8549799086
 20
-59.6883740375
 10
35.8615479597
 20
-59.6301484994
 10
35.8636756379
 20
-59.5718258689
 10
35.8614907223
 20
-59.5160113602
 10
35.8554522515
 20
-59.4636802753
 10
35.8455845373
 20
-59.414056741
 10
35.831739455
 20
-59.3668811346
 10
35.8141662421
 20
-59.3222446562
 10
35.7929806563
 20
-59.2801775939
 10
35.7677966127
 20
-59.2403283704
 10
35.7387547888
 20
-59.2026972422
 10
35.706073164
 20
-59.1672919996
 10
35.669450101
 20
-59.1337810095
 10
35.628688329
 20
-59.1019021845
 10
35.5842802938
 20
-59.0719107588
 10
35.5688762697
 20
-59.0624357678
  0
LWPOLYLINE
  5
290
100
AcDbEntity
  8
IMPORT_IGES
100
AcDbPolyline
 62
250
  6
CONTINUOUS
 90
28
 70
0
 10
34.2614739314
 20
-61.303574543
 10
34.3242164525
 20
-61.337774829
 10
34.3902611304
 20
-61.3698355485
 10
34.4593894381
 20
-61.3996506048
 10
34.5313728603
 20
-61.4271214104
 10
34.6059730148
 20
-61.452156962
 10
34.682942367
 20
-61.4746742145
 10
34.7620255687
 20
-61.4945985741
 10
34.8429614765
 20
-61.5118643553
 10
34.9254834115
 20
-61.5264146736
 10
35.009318992
 20
-61.5382014103
 10
35.0941902096
 20
-61.547185389
 10
35.1798154777
 20
-61.553336785
 10
35.2659111386
 20
-61.556635258
 10
35.3521926229
 20
-61.5570699431
 10
35.4383746261
 20
-61.5546394144
 10
35.524171881
 20
-61.5493517243
 10
35.6093005923
 20
-61.5412243699
 10
35.6934795551
 20
-61.5302841754
 10
35.7764306494
 20
-61.5165672146
 10
35.8578789124
 20
-61.5001188829
 10
35.9375539836
 20
-61.4809937766
 10
36.0151918132
 20
-61.4592553496
 10
36.0905359884
 20
-61.4349754709
 10
36.1633377048
 20
-61.4082343354
 10
36.2333562035
 20
-61.37912035
 10
36.300359621
 20
-61.3477298954
 10
36.3641262305
 20
-61.3141668305
  0
LWPOLYLINE
  5
291
100
AcDbEntity
  8
IMPORT_IGES
100
AcDbPolyline
 62
250
  6
CONTINUOUS
 90
15
 70
0
 10
-51.3490136502
 20
-12.3804069038
 10
-51.3765648289
 20
-12.3632849427
 10
-51.4167578863
 20
-12.333485315
 10
-51.4542456076
 20
-12.299541315
 10
-51.4889032036
 20
-12.2615656016
 10
-51.5206149687
 20
-12.2196850933
 10
-51.5492757964
 20
-12.1740392626
 10
-51.5747914852
 20
-12.1247788685
 10
-51.5970779953
 20
-12.0720666608
 10
-51.6160617604
 20
-12.0160770187
 10
-51.6316800263
 20
-11.9569954722
 10
-51.6438812487
 20
-11.8950176158
 10
-51.6526251905
 20
-11.8303486166
 10
-51.6578830553
 20
-11.7632025352
 10
-51.6596375818
 20
-11.6938016121
  0
LWPOLYLINE
  5
292
100
AcDbEntity
  8
IMPORT_IGES
100
AcDbPolyline
 62
250
  6
CONTINUOUS
 90
14
 70
0
 10
-52.0963823995
 20
46.2924881976
 10
-52.0902935701
 20
46.2654651915
 10
-52.0799673126
 20
46.23456158
 10
-52.0650257199
 20
46.2004137941
 10
-52.0453486169
 20
46.164498907
 10
-52.0206408159
 20
46.1271344857
 10
-51.9907155507
 20
46.0883906021
 10
-51.9561203402
 20
46.0493180203
 10
-51.9172316532
 20
46.0103618825
 10
-51.8739432626
 20
45.9713684252
 10
-51.8263882623
 20
45.9324245116
 10
-51.7747122948
 20
45.8936528142
 10
-51.7190713793
 20
45.8552119093
 10
-51.6596376087
 20
45.8172351629
  0
LWPOLYLINE
  5
293
100
AcDbEntity
  8
IMPORT_IGES
100
AcDbPolyline
 62
250
  6
CONTINUOUS
 90
14
 70
0
 10
-52.0963823902
 20
48.3336638329
 10
-52.0902935533
 20
48.3066408228
 10
-52.0799672906
 20
48.2757372154
 10
-52.065025696
 20
48.2415894383
 10
-52.0453485934
 20
48.20567456
 10
-52.0206407935
 20
48.1683101461
 10
-51.9907155307
 20
48.1295662698
 10
-51.956120324
 20
48.0904936951
 10
-51.9172316432
 20
48.0515375651
 10
-51.8739432601
 20
48.0125441153
 10
-51.8263882658
 20
47.9736002063
 10
-51.7747123008
 20
47.9348285101
 10
-51.7190713843
 20
47.8963876042
 10
-51.6596376087
 20
47.8584108548
  0
LWPOLYLINE
  5
294
100
AcDbEntity
  8
IMPORT_IGES
100
AcDbPolyline
 62
250
  6
CONTINUOUS
 90
14
 70
0
 10
-52.0963823904
 20
50.3748395261
 10
-52.0902935537
 20
50.3478165161
 10
-52.0799672912
 20
50.3169129089
 10
-52.0650256969
 20
50.282765132
 10
-52.0453485945
 20
50.2468502537
 10
-52.0206407947
 20
50.2094858397
 10
-51.9907155318
 20
50.1707419631
 10
-51.9561203251
 20
50.1316693883
 10
-51.9172316453
 20
50.0927132593
 10
-51.8739432635
 20
50.0537198104
 10
-51.8263882678
 20
50.0147759
 10
-51.774712297
 20
49.9760041994
 10
-51.7190713707
 20
49.9375632874
 10
-51.6596375805
 20
49.8995865306
  0
LWPOLYLINE
  5
295
100
AcDbEntity
  8
IMPORT_IGES
100
AcDbPolyline
 62
250
  6
CONTINUOUS
 90
9
 70
0
 10
34.3921172444
 20
-54.4790323431
 10
34.4635238879
 20
-54.5110349469
 10
34.5389252669
 20
-54.5423550875
 10
34.6180349257
 20
-54.5727802274
 10
34.7002587253
 20
-54.602105609
 10
34.7862070632
 20
-54.6304150374
 10
34.8747651867
 20
-54.6572865856
 10
34.9624845156
 20
-54.6821362359
 10
35.0479006583
 20
-54.704716568
  0
LINE
  5
296
100
AcDbEntity
  8
IMPORT_IGES
100
AcDbLine
 62
250
  6
CONTINUOUS
 10
34.3247268359
 20
-56.4876976896
 11
34.3921161636
 21
-56.5202075397
  0
LINE
  5
297
100
AcDbEntity
  8
IMPORT_IGES
100
AcDbLine
 62
250
  6
CONTINUOUS
 10
34.3247280848
 20
-54.4465226403
 11
34.3921172444
 21
-54.4790323431
  0
LWPOLYLINE
  5
298
100
AcDbEntity
  8
IMPORT_IGES
100
AcDbPolyline
 62
250
  6
CONTINUOUS
 90
46
 70
0
 10
34.3793251886
 20
-58.1579361628
 10
34.4640550988
 20
-58.1993265879
 10
34.5453287873
 20
-58.2350158338
 10
34.6231275347
 20
-58.2649054942
 10
34.6972820963
 20
-58.2881704138
 10
34.7678901295
 20
-58.3053311519
 10
34.8353377637
 20
-58.3183609373
 10
34.8989185107
 20
-58.3273938373
 10
34.9592594206
 20
-58.3321299226
 10
35.0187593666
 20
-58.3339869108
 10
35.0782453645
 20
-58.333440348
 10
35.1367580158
 20
-58.3298395444
 10
35.1940018597
 20
-58.3229177585
 10
35.2498994369
 20
-58.3125574304
 10
35.3043216628
 20
-58.2987167733
 10
35.3568773429
 20
-58.2812543926
 10
35.4071747845
 20
-58.2599696824
 10
35.4553213384
 20
-58.2349753777
 10
35.5016596358
 20
-58.2066287785
 10
35.5461311994
 20
-58.1749899972
 10
35.5884279657
 20
-58.1400199756
 10
35.628507548
 20
-58.1019656555
 10
35.6661605694
 20
-58.0609670323
 10
35.7011630365
 20
-58.0170535263
 10
35.7334305915
 20
-57.9703474189
 10
35.7627865175
 20
-57.9208232387
 10
35.7888645109
 20
-57.868850375
 10
35.8113357997
 20
-57.8151889676
 10
35.8298602167
 20
-57.7602531555
 10
35.8443680615
 20
-57.7041451028
 10
35.8549799085
 20
-57.6471983456
 10
35.8615479597
 20
-57.5889728076
 10
35.8636756379
 20
-57.530650177
 10
35.8614907223
 20
-57.4748356684
 10
35.8554522515
 20
-57.4225045835
 10
35.8455845374
 20
-57.3728810492
 10
35.8317394551
 20
-57.3257054427
 10
35.8141662421
 20
-57.2810689644
 10
35.7929806564
 20
-57.239001902
 10
35.7677966128
 20
-57.1991526785
 10
35.7387547889
 20
-57.1615215504
 10
35.7060731641
 20
-57.1261163078
 10
35.6694501011
 20
-57.0926053177
 10
35.6286883291
 20
-57.0607264926
 10
35.5842802939
 20
-57.0307350669
 10
35.5688762697
 20
-57.0212600759
  0
LWPOLYLINE
  5
299
100
AcDbEntity
  8
IMPORT_IGES
100
AcDbPolyline
 62
250
  6
CONTINUOUS
 90
46
 70
0
 10
34.3793251886
 20
-56.1167604708
 10
34.4640550989
 20
-56.1581508959
 10
34.5453287873
 20
-56.1938401418
 10
34.6231275347
 20
-56.2237298022
 10
34.6972820963
 20
-56.2469947219
 10
34.7678901295
 20
-56.26415546
 10
34.8353377637
 20
-56.2771852453
 10
34.8989185107
 20
-56.2862181453
 10
34.9592594206
 20
-56.2909542306
 10
35.0187593667
 20
-56.2928112189
 10
35.0782453646
 20
-56.292264656
 10
35.1367580159
 20
-56.2886638524
 10
35.1940018598
 20
-56.2817420665
 10
35.249899437
 20
-56.2713817384
 10
35.304321663
 20
-56.2575410813
 10
35.3568773431
 20
-56.2400787006
 10
35.4071747846
 20
-56.2187939904
 10
35.4553213385
 20
-56.1937996856
 10
35.501659636
 20
-56.1654530864
 10
35.5461311995
 20
-56.1338143052
 10
35.5884279659
 20
-56.0988442835
 10
35.6285075482
 20
-56.0607899634
 10
35.6661605695
 20
-56.0197913402
 10
35.7011630366
 20
-55.9758778342
 10
35.7334305916
 20
-55.9291717268
 10
35.7627865176
 20
-55.8796475466
 10
35.788864511
 20
-55.8276746828
 10
35.8113357998
 20
-55.7740132755
 10
35.8298602168
 20
-55.7190774634
 10
35.8443680615
 20
-55.6629694106
 10
35.8549799086
 20
-55.6060226535
 10
35.8615479597
 20
-55.5477971154
 10
35.8636756379
 20
-55.4894744849
 10
35.8614907223
 20
-55.4336599763
 10
35.8554522515
 20
-55.3813288914
 10
35.8455845373
 20
-55.3317053571
 10
35.831739455
 20
-55.2845297507
 10
35.8141662421
 20
-55.2398932723
 10
35.7929806564
 20
-55.19782621
 10
35.7677966127
 20
-55.1579769865
 10
35.7387547889
 20
-55.1203458583
 10
35.7060731641
 20
-55.0849406157
 10
35.6694501011
 20
-55.0514296257
 10
35.6286883291
 20
-55.0195508006
 10
35.5842802939
 20
-54.9895593749
 10
35.5688762697
 20
-54.9800843839
  0
LINE
  5
29A
100
AcDbEntity
  8
IMPORT_IGES
100
AcDbLine
 62
250
  6
CONTINUOUS
 10
34.2614739922
 20
-58.4960463768
 11
34.3247268359
 21
-58.5288733816
  0
LINE
  5
29B
100
AcDbEntity
  8
IMPORT_IGES
100
AcDbLine
 62
250
  6
CONTINUOUS
 10
34.2614739922
 20
-56.4548706848
 11
34.3247268359
 21
-56.4876976896
  0
LINE
  5
29C
100
AcDbEntity
  8
IMPORT_IGES
100
AcDbLine
 62
250
  6
CONTINUOUS
 10
34.2614753738
 20
-54.4136957906
 11
34.3247280848
 21
-54.4465226403
  0
LWPOLYLINE
  5
29D
100
AcDbEntity
  8
IMPORT_IGES
100
AcDbPolyline
 62
7
  6
CONTINUOUS
 90
11
 70
0
 10
34.3029155562
 20
-58.5875498663
 10
34.375974435
 20
-58.6274312044
 10
34.4460264462
 20
-58.6618645666
 10
34.516465716
 20
-58.6932657385
 10
34.5869004199
 20
-58.7219230953
 10
34.6572762123
 20
-58.7483039188
 10
34.7272164534
 20
-58.7726793932
 10
34.7963638291
 20
-58.7952843333
 10
34.8647842088
 20
-58.8164585556
 10
34.9321322276
 20
-58.836471772
 10
35.1251402869
 20
-58.8922315111
  0
LWPOLYLINE
  5
29E
100
AcDbEntity
  8
IMPORT_IGES
100
AcDbPolyline
 62
7
  6
CONTINUOUS
 90
11
 70
0
 10
34.3029152393
 20
-56.5463739914
 10
34.375974435
 20
-56.5862555124
 10
34.4460264462
 20
-56.6206888746
 10
34.516465716
 20
-56.6520900465
 10
34.5869004199
 20
-56.6807474033
 10
34.6572762123
 20
-56.7071282268
 10
34.7272164534
 20
-56.7315037012
 10
34.7963638291
 20
-56.7541086413
 10
34.8647842088
 20
-56.7752828636
 10
34.9321322276
 20
-56.7952960801
 10
35.1251402869
 20
-56.8510558191
  0
LINE
  5
29F
100
AcDbEntity
  8
IMPORT_IGES
100
AcDbLine
 62
7
  6
CONTINUOUS
 10
34.5720978642
 20
-61.9901798479
 11
-51.3490136502
 21
-12.3804069039
  0
LINE
  5
2A0
100
AcDbEntity
  8
IMPORT_IGES
100
AcDbLine
 62
250
  6
CONTINUOUS
 10
-51.6596376103
 20
-11.6938015957
 11
34.2614739314
 21
-61.303574543
  0
LINE
  5
2A1
100
AcDbEntity
  8
IMPORT_IGES
100
AcDbLine
 62
250
  6
CONTINUOUS
 10
34.2614739303
 20
-60.4281676662
 11
-51.6596376103
 21
-10.8183947067
  0
LINE
  5
2A2
100
AcDbEntity
  8
IMPORT_IGES
100
AcDbLine
 62
250
  6
CONTINUOUS
 10
34.3793251886
 20
-60.1991118547
 11
-51.5417866215
 21
-10.5893387418
  0
LINE
  5
2A3
100
AcDbEntity
  8
IMPORT_IGES
100
AcDbLine
 62
7
  6
CONTINUOUS
 10
34.3028905835
 20
-58.5875937906
 11
-51.6182210541
 21
-8.9778207755
  0
LINE
  5
2A4
100
AcDbEntity
  8
IMPORT_IGES
100
AcDbLine
 62
250
  6
CONTINUOUS
 10
-51.6596375763
 20
-8.8862734013
 11
34.2614739596
 21
-58.496046358
  0
LINE
  5
2A5
100
AcDbEntity
  8
IMPORT_IGES
100
AcDbLine
 62
250
  6
CONTINUOUS
 10
34.2614739596
 20
-58.3869919914
 11
-51.659637609
 21
-8.7772190155
  0
LINE
  5
2A6
100
AcDbEntity
  8
IMPORT_IGES
100
AcDbLine
 62
250
  6
CONTINUOUS
 10
34.3793251886
 20
-58.1579361628
 11
-51.5417866215
 21
-8.5481630498
  0
LWPOLYLINE
  5
2A7
100
AcDbEntity
  8
IMPORT_IGES
100
AcDbPolyline
 62
250
  6
CONTINUOUS
 90
15
 70
0
 10
-51.659637642
 20
-10.8183946884
 10
-51.7193077967
 20
-10.7835213662
 10
-51.775841548
 20
-10.7447546681
 10
-51.8289083414
 20
-10.7021624184
 10
-51.8782531442
 20
-10.6557850553
 10
-51.9234552479
 20
-10.6057591852
 10
-51.9640070611
 20
-10.5523432943
 10
-51.9999975749
 20
-10.4951484836
 10
-52.0307488241
 20
-10.4348545419
 10
-52.0552638104
 20
-10.3734780386
 10
-52.0737319004
 20
-10.312228132
 10
-52.0868545531
 20
-10.2504002853
 10
-52.0950263719
 20
-10.1872112633
 10
-52.0986724321
 20
-10.1229830486
 10
-52.09897741
 20
-10.0973702318
  0
LWPOLYLINE
  5
2A8
100
AcDbEntity
  8
IMPORT_IGES
100
AcDbPolyline
 62
250
  6
CONTINUOUS
 90
8
 70
0
 10
-51.659637609
 20
-8.7772190155
 10
-51.7193077793
 20
-8.7423456855
 10
-51.7758415414
 20
-8.703578981
 10
-51.8289083413
 20
-8.6609867266
 10
-51.8782531459
 20
-8.6146093618
 10
-51.9234552486
 20
-8.5645834924
 10
-51.964007061
 20
-8.5111676024
 10
-51.9999975749
 20
-8.4539727916
  0
LWPOLYLINE
  5
2A9
100
AcDbEntity
  8
IMPORT_IGES
100
AcDbPolyline
 62
250
  6
CONTINUOUS
 90
10
 70
0
 10
34.3028905835
 20
-58.5875937906
 10
34.3000493208
 20
-58.5858572865
 10
34.2916727011
 20
-58.5794665418
 10
34.2841170594
 20
-58.5716016171
 10
34.2774266259
 20
-58.5621775664
 10
34.2717820692
 20
-58.5512950145
 10
34.2673157129
 20
-58.5391211971
 10
34.2640897777
 20
-58.5257974216
 10
34.2621318429
 20
-58.5113982957
 10
34.2614739922
 20
-58.4960463765
  0
LWPOLYLINE
  5
2AA
100
AcDbEntity
  8
IMPORT_IGES
100
AcDbPolyline
 62
7
  6
CONTINUOUS
 90
15
 70
0
 10
34.5720020611
 20
-61.9901245182
 10
34.5445574081
 20
-61.9730650414
 10
34.5043848752
 20
-61.9432838977
 10
34.4669145235
 20
-61.9093627174
 10
34.4322705266
 20
-61.8714133912
 10
34.4005662825
 20
-61.8295591181
 10
34.371907385
 20
-61.7839377207
 10
34.346389088
 20
-61.7346990872
 10
34.3240952213
 20
-61.6820020687
 10
34.3051007781
 20
-61.6260195845
 10
34.2894699532
 20
-61.5669357335
 10
34.2772552321
 20
-61.5049414546
 10
34.2684988336
 20
-61.4402392736
 10
34.2632319379
 20
-61.3730431861
 10
34.2614739324
 20
-61.3035745498
  0
LWPOLYLINE
  5
2AB
100
AcDbEntity
  8
IMPORT_IGES
100
AcDbPolyline
 62
250
  6
CONTINUOUS
 90
6
 70
0
 10
-52.0552232829
 20
46.3710791203
 10
-52.073696349
 20
46.4323116076
 10
-52.0868278539
 20
46.4941302439
 10
-52.0950103875
 20
46.5573122663
 10
-52.0986679082
 20
46.6215355522
 10
-52.09897741
 20
46.6473381665
  0
LWPOLYLINE
  5
2AC
100
AcDbEntity
  8
IMPORT_IGES
100
AcDbPolyline
 62
250
  6
CONTINUOUS
 90
6
 70
0
 10
-52.055223283
 20
48.4122548125
 10
-52.0736963491
 20
48.4734872998
 10
-52.086827854
 20
48.5353059361
 10
-52.0950103875
 20
48.5984879585
 10
-52.0986679082
 20
48.6627112443
 10
-52.09897741
 20
48.6885138585
  0
LWPOLYLINE
  5
2AD
100
AcDbEntity
  8
IMPORT_IGES
100
AcDbPolyline
 62
250
  6
CONTINUOUS
 90
16
 70
0
 10
-51.5417865762
 20
-6.5069873853
 10
-51.5544513915
 20
-6.5174669656
 10
-51.5668606535
 20
-6.5291448269
 10
-51.578905051
 20
-6.5419353708
 10
-51.5905146553
 20
-6.5557900223
 10
-51.6015402544
 20
-6.5705576947
 10
-51.611777297
 20
-6.5859585897
 10
-51.6210624443
 20
-6.6016866437
 10
-51.6294390641
 20
-6.6177504982
 10
-51.6369947061
 20
-6.6343404882
 10
-51.6436851451
 20
-6.6514904868
 10
-51.6493297074
 20
-6.6688912347
 10
-51.6537960544
 20
-6.6862226836
 10
-51.6570219603
 20
-6.7032716726
 10
-51.6589798506
 20
-6.7199317485
 10
-51.6596376417
 20
-6.736043305
  0
LWPOLYLINE
  5
2AE
100
AcDbEntity
  8
IMPORT_IGES
100
AcDbPolyline
 62
7
  6
CONTINUOUS
 90
11
 70
0
 10
34.3029152393
 20
-54.5051982995
 10
34.3759744351
 20
-54.5450798204
 10
34.4460264462
 20
-54.5795131826
 10
34.516465716
 20
-54.6109143545
 10
34.5869004199
 20
-54.6395717114
 10
34.6572762123
 20
-54.6659525348
 10
34.7272164534
 20
-54.6903280092
 10
34.7963638291
 20
-54.7129329493
 10
34.8647842088
 20
-54.7341071717
 10
34.9321322276
 20
-54.7541203881
 10
35.1251402869
 20
-54.8098801271
  0
LINE
  5
2AF
100
AcDbEntity
  8
IMPORT_IGES
100
AcDbLine
 62
7
  6
CONTINUOUS
 10
34.3028905835
 20
-56.5464180986
 11
-51.6182210541
 21
-6.9366450835
  0
LINE
  5
2B0
100
AcDbEntity
  8
IMPORT_IGES
100
AcDbLine
 62
250
  6
CONTINUOUS
 10
34.2614739596
 20
-56.4548706661
 11
-51.6596375763
 21
-6.8450977094
  0
LINE
  5
2B1
100
AcDbEntity
  8
IMPORT_IGES
100
AcDbLine
 62
250
  6
CONTINUOUS
 10
34.2614739596
 20
-56.3458162995
 11
-51.659637609
 21
-6.7360433235
  0
LINE
  5
2B2
100
AcDbEntity
  8
IMPORT_IGES
100
AcDbLine
 62
250
  6
CONTINUOUS
 10
34.3793251886
 20
-56.1167604708
 11
-51.5417866215
 21
-6.5069873578
  0
LINE
  5
2B3
100
AcDbEntity
  8
IMPORT_IGES
100
AcDbLine
 62
7
  6
CONTINUOUS
 10
34.3028905835
 20
-54.5052424066
 11
-51.6182210541
 21
-4.8954693915
  0
LINE
  5
2B4
100
AcDbEntity
  8
IMPORT_IGES
100
AcDbLine
 62
250
  6
CONTINUOUS
 10
-51.6596389607
 20
-4.8039212024
 11
34.261475573
 21
-54.4136959056
  0
LINE
  5
2B5
100
AcDbEntity
  8
IMPORT_IGES
100
AcDbLine
 62
7
  6
CONTINUOUS
 10
34.2553086647
 20
-53.9235052376
 11
-52.3605790933
 21
-3.9125771982
  0
LINE
  5
2B6
100
AcDbEntity
  8
IMPORT_IGES
100
AcDbLine
 62
7
  6
CONTINUOUS
 10
44.333657484
 20
-56.7033454355
 11
44.2968973031
 21
-56.6821205678
  0
LWPOLYLINE
  5
2B7
100
AcDbEntity
  8
IMPORT_IGES
100
AcDbPolyline
 62
250
  6
CONTINUOUS
 90
8
 70
0
 10
-51.6596376417
 20
-6.7360433046
 10
-51.7193077907
 20
-6.7011699832
 10
-51.7758415418
 20
-6.6624032833
 10
-51.8289083393
 20
-6.6198110287
 10
-51.8782531506
 20
-6.5734336562
 10
-51.9234552645
 20
-6.5234077727
 10
-51.9640070859
 20
-6.4699918674
 10
-51.999997606
 20
-6.4127970406
  0
LWPOLYLINE
  5
2B8
100
AcDbEntity
  8
IMPORT_IGES
100
AcDbPolyline
 62
7
  6
CONTINUOUS
 90
15
 70
0
 10
-52.3605853092
 20
-3.9125795287
 10
-52.420143042
 20
-3.8761361368
 10
-52.4756382473
 20
-3.838123873
 10
-52.5270709252
 20
-3.7985427372
 10
-52.5745817191
 20
-3.757251852
 10
-52.6180299855
 20
-3.714392095
 10
-52.6569937938
 20
-3.6703860982
 10
-52.6914291811
 20
-3.6252230102
 10
-52.7213801104
 20
-3.5789136826
 10
-52.7465565397
 20
-3.5319133025
 10
-52.766912176
 20
-3.4842150992
 10
-52.7824933124
 20
-3.4358258433
 10
-52.7931487862
 20
-3.387221034
 10
-52.7988307334
 20
-3.3383987718
 10
-52.799883109
 20
-3.306430367
  0
LWPOLYLINE
  5
2B9
100
AcDbEntity
  8
IMPORT_IGES
100
AcDbPolyline
 62
250
  6
CONTINUOUS
 90
16
 70
0
 10
-51.5417865762
 20
-8.5481630773
 10
-51.5544513915
 20
-8.5586426576
 10
-51.5668606535
 20
-8.5703205188
 10
-51.578905051
 20
-8.5831110628
 10
-51.5905146553
 20
-8.5969657143
 10
-51.6015402544
 20
-8.6117333867
 10
-51.611777297
 20
-8.6271342816
 10
-51.6210624443
 20
-8.6428623357
 10
-51.6294390641
 20
-8.6589261902
 10
-51.6369947061
 20
-8.6755161802
 10
-51.6436851451
 20
-8.6926661788
 10
-51.6493297074
 20
-8.7100669267
 10
-51.6537960544
 20
-8.7273983756
 10
-51.6570219603
 20
-8.7444473645
 10
-51.6589798506
 20
-8.7611074405
 10
-51.6596376417
 20
-8.7772189969
  0
LWPOLYLINE
  5
2BA
100
AcDbEntity
  8
IMPORT_IGES
100
AcDbPolyline
 62
250
  6
CONTINUOUS
 90
3
 70
0
 10
-51.9999706878
 20
46.2494797978
 10
-52.0307109522
 20
46.3097345759
 10
-52.0552232829
 20
46.3710791203
  0
LWPOLYLINE
  5
2BB
100
AcDbEntity
  8
IMPORT_IGES
100
AcDbPolyline
 62
250
  6
CONTINUOUS
 90
3
 70
0
 10
-51.9999706879
 20
48.29065549
 10
-52.0307109523
 20
48.3509102681
 10
-52.055223283
 20
48.4122548125
  0
LWPOLYLINE
  5
2BC
100
AcDbEntity
  8
IMPORT_IGES
100
AcDbPolyline
 62
7
  6
CONTINUOUS
 90
62
 70
0
 10
-16.123703027
 20
-1.3856819317
 10
-16.1183456374
 20
-1.7058815143
 10
-16.1024252415
 20
-2.030860884
 10
-16.0759418391
 20
-2.3606200408
 10
-16.0388220666
 20
-2.6957111413
 10
-15.9911392876
 20
-3.0355820289
 10
-15.9331135938
 20
-3.3785762338
 10
-15.8646692297
 20
-3.724750177
 10
-15.7858819506
 20
-4.0740474375
 10
-15.6971991147
 20
-4.4246422822
 10
-15.5986791749
 20
-4.776236653
 10
-15.4902636783
 20
-5.129128608
 10
-15.3722246231
 20
-5.4823865874
 10
-15.2444186301
 20
-5.8363481712
 10
-15.1069890787
 20
-6.1906757795
 10
-14.9606381044
 20
-6.5434251133
 10
-14.805342753
 20
-6.8944964341
 10
-14.6411259788
 20
-7.2439894803
 10
-14.4687587804
 20
-7.5902591687
 10
-14.2881368323
 20
-7.9333762599
 10
-14.0993644601
 20
-8.2732699932
 10
-13.9035256387
 20
-8.6080830032
 10
-13.7007446993
 20
-8.9375396439
 10
-13.4908973107
 20
-9.2619155613
 10
-13.2746944555
 20
-9.5801803278
 10
-13.0521102181
 20
-9.8923685934
 10
-12.823170514
 20
-10.1984457081
 10
-12.5886640712
 20
-10.4972772945
 10
-12.3483958904
 20
-10.7890347859
 10
-12.1025609709
 20
-11.073546749
 10
-11.8525330382
 20
-11.3491645061
 10
-11.5983693168
 20
-11.6157314941
 10
-11.3400125822
 20
-11.873404276
 10
-11.0786648866
 20
-12.1210038633
 10
-10.8143161187
 20
-12.3584765023
 10
-10.5469763898
 20
-12.5858759466
 10
-10.2778780859
 20
-12.8021844681
 10
-10.0070287052
 20
-13.0073398106
 10
-9.7344207496
 20
-13.2014042303
 10
-9.4612641114
 20
-13.3835467681
 10
-9.1875594308
 20
-13.5537157224
 10
-8.9133060677
 20
-13.7119627948
 10
-8.6397119938
 20
-13.8576121314
 10
-8.3667826052
 20
-13.9906106953
 10
-8.094512506
 20
-14.1110115235
 10
-7.8240934798
 20
-14.2182978735
 10
-7.5555364475
 20
-14.3124161724
 10
-7.2888304883
 20
-14.3934199931
 10
-7.0251346234
 20
-14.4609533115
 10
-6.764461999
 20
-14.5149637947
 10
-6.5067994689
 20
-14.5555037757
 10
-6.2532666167
 20
-14.5823742293
 10
-6.003797282
 20
-14.5955005633
 10
-5.7584576251
 20
-14.59495737
 10
-5.5185657097
 20
-14.5807694015
 10
-5.2842804088
 20
-14.5528826123
 10
-5.0554428493
 20
-14.5113510478
 10
-4.8328944764
 20
-14.4563615966
 10
-4.6166579828
 20
-14.3879053449
 10
-4.4067106757
 20
-14.3059912063
 10
-4.2038259214
 20
-14.2108328105
 10
-4.0522619585
 20
-14.1284663896
  0
LWPOLYLINE
  5
2BD
100
AcDbEntity
  8
IMPORT_IGES
100
AcDbPolyline
 62
7
  6
CONTINUOUS
 90
19
 70
0
 10
-15.7701496364
 20
-1.181544635
 10
-15.7647922468
 20
-0.8675316316
 10
-15.7488718509
 20
-0.5609367361
 10
-15.7223884485
 20
-0.2617599485
 10
-15.685268676
 20
0.0304661691
 10
-15.637585897
 20
0.3152741788
 10
-15.5795602032
 20
0.5912617669
 10
-15.5111158391
 20
0.8583978741
 10
-15.43232856
 20
1.1167135596
 10
-15.3436457241
 20
1.3648996882
 10
-15.2451257843
 20
1.6027257021
 10
-15.1367102877
 20
1.8304221591
 10
-15.0186712325
 20
2.0473715963
 10
-14.8908652395
 20
2.2537460231
 10
-14.7534356881
 20
2.4493734301
 10
-14.6070847138
 20
2.6331203272
 10
-14.4517893624
 20
2.8048604688
 10
-14.2875725882
 20
2.9647201005
 10
-14.1152053898
 20
3.1119444687
  0
LINE
  5
2BE
100
AcDbEntity
  8
IMPORT_IGES
100
AcDbLine
 62
7
  6
CONTINUOUS
 10
45.4192721258
 20
-49.1942769675
 11
45.0657187352
 21
-48.9901396708
  0
LWPOLYLINE
  5
2BF
100
AcDbEntity
  8
IMPORT_IGES
100
AcDbPolyline
 62
7
  6
CONTINUOUS
 90
3
 70
0
 10
-14.1152053898
 20
3.1119444687
 10
-13.9345834417
 20
3.2464838616
 10
-13.8669714498
 20
3.2901458707
  0
LWPOLYLINE
  5
2C0
100
AcDbEntity
  8
IMPORT_IGES
100
AcDbPolyline
 62
7
  6
CONTINUOUS
 90
22
 70
0
 10
-14.0530084718
 20
3.1916106597
 10
-14.0973737593
 20
3.1654405302
 10
-14.286240457
 20
3.0436597226
 10
-14.466950089
 20
2.9092499793
 10
-14.6393943742
 20
2.7621614585
 10
-14.8036815936
 20
2.6024440021
 10
-14.9590420777
 20
2.4308624574
 10
-15.1054502214
 20
2.2472941715
 10
-15.2429316299
 20
2.0518617974
 10
-15.3707934486
 20
1.8456981408
 10
-15.4888893662
 20
1.6289931626
 10
-15.5973656942
 20
1.401556902
 10
-15.6959685125
 20
1.163952283
 10
-15.7847648017
 20
0.9159598739
 10
-15.8636875813
 20
0.6577991064
 10
-15.9322819894
 20
0.3906912005
 10
-15.9904830677
 20
0.1146090897
 10
-16.0383557746
 20
-0.1704201595
 10
-16.0756401227
 20
-0.4630941282
 10
-16.1022494496
 20
-0.7629786766
 10
-16.1182704177
 20
-1.0705079444
 10
-16.123703027
 20
-1.3856819317
  0
LWPOLYLINE
  5
2C1
100
AcDbEntity
  8
IMPORT_IGES
100
AcDbPolyline
 62
7
  6
CONTINUOUS
 90
62
 70
0
 10
-1.9815674033
 20
-9.5511737982
 10
-1.9869247929
 20
-9.2309742157
 10
-2.0028451888
 20
-8.905994846
 10
-2.0293285912
 20
-8.5762356892
 10
-2.0664483637
 20
-8.2411445886
 10
-2.1141311427
 20
-7.901273701
 10
-2.1721568365
 20
-7.5582794962
 10
-2.2406012006
 20
-7.2121055529
 10
-2.3193884797
 20
-6.8628082924
 10
-2.4080713156
 20
-6.5122134478
 10
-2.5065912553
 20
-6.1606190769
 10
-2.615006752
 20
-5.807727122
 10
-2.7330458072
 20
-5.4544691425
 10
-2.8608518001
 20
-5.1005075587
 10
-2.9982813516
 20
-4.7461799504
 10
-3.1446323259
 20
-4.3934306166
 10
-3.2999276773
 20
-4.0423592958
 10
-3.4641444515
 20
-3.6928662496
 10
-3.6365116499
 20
-3.3465965612
 10
-3.817133598
 20
-3.0034794701
 10
-4.0059059702
 20
-2.6635857368
 10
-4.2017447916
 20
-2.3287727268
 10
-4.404525731
 20
-1.9993160861
 10
-4.6143731195
 20
-1.6749401687
 10
-4.8305759748
 20
-1.3566754021
 10
-5.0531602122
 20
-1.0444871365
 10
-5.2820999163
 20
-0.7384100218
 10
-5.5166063591
 20
-0.4395784355
 10
-5.7568745399
 20
-0.147820944
 10
-6.0027094594
 20
0.1366910191
 10
-6.2527373921
 20
0.4123087762
 10
-6.5069011135
 20
0.6788757642
 10
-6.7652578481
 20
0.9365485461
 10
-7.0266055437
 20
1.1841481334
 10
-7.2909543116
 20
1.4216207724
 10
-7.5582940405
 20
1.6490202167
 10
-7.8273923443
 20
1.8653287382
 10
-8.0982417251
 20
2.0704840807
 10
-8.3708496807
 20
2.2645485004
 10
-8.6440063189
 20
2.4466910382
 10
-8.9177109995
 20
2.6168599924
 10
-9.1919643626
 20
2.7751070648
 10
-9.4655584365
 20
2.9207564015
 10
-9.738487825
 20
3.0537549654
 10
-10.0107579243
 20
3.1741557936
 10
-10.2811769505
 20
3.2814421436
 10
-10.5497339828
 20
3.3755604425
 10
-10.816439942
 20
3.4565642632
 10
-11.0801358069
 20
3.5240975816
 10
-11.3408084313
 20
3.5781080648
 10
-11.5984709614
 20
3.6186480457
 10
-11.8520038136
 20
3.6455184994
 10
-12.1014731483
 20
3.6586448334
 10
-12.3468128052
 20
3.6581016401
 10
-12.5867047205
 20
3.6439136716
 10
-12.8209900215
 20
3.6160268824
 10
-13.049827581
 20
3.5744953179
 10
-13.2723759539
 20
3.5195058667
 10
-13.4886124475
 20
3.4510496149
 10
-13.6985597546
 20
3.3691354764
 10
-13.9014445089
 20
3.2739770806
 10
-14.0530084718
 20
3.1916106597
  0
LWPOLYLINE
  5
2C2
100
AcDbEntity
  8
IMPORT_IGES
100
AcDbPolyline
 62
250
  6
CONTINUOUS
 90
7
 70
0
 10
35.0480919191
 20
-4.0836139991
 10
35.2133339272
 20
-4.1255173479
 10
35.2918878646
 20
-4.1464946774
 10
35.3677084886
 20
-4.1677762938
 10
35.4418733345
 20
-4.1902580171
 10
35.5151839748
 20
-4.2143641444
 10
35.5865084084
 20
-4.2398941151
  0
LWPOLYLINE
  5
2C3
100
AcDbEntity
  8
IMPORT_IGES
100
AcDbPolyline
 62
250
  6
CONTINUOUS
 90
6
 70
0
 10
34.6064531195
 20
-5.8673315267
 10
34.5319108114
 20
-5.8463862721
 10
34.4598976348
 20
-5.8215658686
 10
34.3906634338
 20
-5.7929320057
 10
34.3244457059
 20
-5.7605969767
 10
34.2614755449
 20
-5.7246600849
  0
LWPOLYLINE
  5
2C4
100
AcDbEntity
  8
IMPORT_IGES
100
AcDbPolyline
 62
250
  6
CONTINUOUS
 90
6
 70
0
 10
34.6064520679
 20
-3.8261555495
 10
34.5319096512
 20
-3.8052101851
 10
34.4598963564
 20
-3.7803896588
 10
34.3906620544
 20
-3.751755668
 10
34.3244442227
 20
-3.7194204964
 10
34.2614739599
 20
-3.6834834464
  0
LWPOLYLINE
  5
2C5
100
AcDbEntity
  8
IMPORT_IGES
100
AcDbPolyline
 62
7
  6
CONTINUOUS
 90
10
 70
0
 10
35.1228143421
 20
-4.1880456639
 10
35.1833673302
 20
-4.2058951725
 10
35.2417159174
 20
-4.2237324989
 10
35.2975585888
 20
-4.2417258648
 10
35.3505505567
 20
-4.2599846925
 10
35.4004282411
 20
-4.278597495
 10
35.4467031164
 20
-4.2974911067
 10
35.4895769665
 20
-4.3167849825
 10
35.5296761616
 20
-4.3368368136
 10
35.568942544
 20
-4.3589444153
  0
LWPOLYLINE
  5
2C6
100
AcDbEntity
  8
IMPORT_IGES
100
AcDbPolyline
 62
7
  6
CONTINUOUS
 90
22
 70
0
 10
-4.0522619585
 20
-14.1284663896
 10
-4.0078966709
 20
-14.1022962601
 10
-3.8190299733
 20
-13.9805154525
 10
-3.6383203413
 20
-13.8461057093
 10
-3.4658760561
 20
-13.6990171885
 10
-3.3015888367
 20
-13.539299732
 10
-3.1462283526
 20
-13.3677181873
 10
-2.9998202089
 20
-13.1841499015
 10
-2.8623388004
 20
-12.9887175273
 10
-2.7344769817
 20
-12.7825538708
 10
-2.6163810641
 20
-12.5658488925
 10
-2.5079047361
 20
-12.3384126319
 10
-2.4093019178
 20
-12.100808013
 10
-2.3205056286
 20
-11.8528156038
 10
-2.241582849
 20
-11.5946548364
 10
-2.1729884409
 20
-11.3275469304
 10
-2.1147873625
 20
-11.0514648197
 10
-2.0669146557
 20
-10.7664355704
 10
-2.0296303076
 20
-10.4737616018
 10
-2.0030209807
 20
-10.1738770534
 10
-1.9870000126
 20
-9.8663477855
 10
-1.9815674033
 20
-9.5511737982
  0
LINE
  5
2C7
100
AcDbEntity
  8
IMPORT_IGES
100
AcDbLine
 62
7
  6
CONTINUOUS
 10
-3.8842944031
 20
-14.0225978052
 11
-4.0509723404
 21
-14.1009226705
  0
LWPOLYLINE
  5
2C8
100
AcDbEntity
  8
IMPORT_IGES
100
AcDbPolyline
 62
250
  6
CONTINUOUS
 90
7
 70
0
 10
35.0480917849
 20
-2.0424382771
 10
35.2133338118
 20
-2.0843416314
 10
35.2918877738
 20
-2.1053189624
 10
35.3677084308
 20
-2.1266005793
 10
35.4418733069
 20
-2.1490823062
 10
35.5151839699
 20
-2.1731884434
 10
35.5865084233
 20
-2.1987184278
  0
LWPOLYLINE
  5
2C9
100
AcDbEntity
  8
IMPORT_IGES
100
AcDbPolyline
 62
250
  6
CONTINUOUS
 90
7
 70
0
 10
35.0480917849
 20
-0.0012625851
 10
35.2133338118
 20
-0.0431659394
 10
35.2918877738
 20
-0.0641432705
 10
35.3677084308
 20
-0.0854248873
 10
35.4418733069
 20
-0.1079066142
 10
35.5151839699
 20
-0.1320127514
 10
35.5865084233
 20
-0.1575427358
  0
LWPOLYLINE
  5
2CA
100
AcDbEntity
  8
IMPORT_IGES
100
AcDbPolyline
 62
250
  6
CONTINUOUS
 90
6
 70
0
 10
34.606452068
 20
-1.7849798575
 10
34.5319096512
 20
-1.7640344931
 10
34.4598963564
 20
-1.7392139668
 10
34.3906620544
 20
-1.710579976
 10
34.3244442227
 20
-1.6782448044
 10
34.2614739599
 20
-1.6423077544
  0
LWPOLYLINE
  5
2CB
100
AcDbEntity
  8
IMPORT_IGES
100
AcDbPolyline
 62
7
  6
CONTINUOUS
 90
10
 70
0
 10
35.1228143418
 20
-2.1468699718
 10
35.18336733
 20
-2.1647194804
 10
35.2417159171
 20
-2.1825568069
 10
35.2975585886
 20
-2.2005501728
 10
35.3505505565
 20
-2.2188090004
 10
35.400428241
 20
-2.2374218029
 10
35.4467031163
 20
-2.2563154146
 10
35.4895769665
 20
-2.2756092905
 10
35.5296761615
 20
-2.2956611216
 10
35.568942544
 20
-2.3177687233
  0
LWPOLYLINE
  5
2CC
100
AcDbEntity
  8
IMPORT_IGES
100
AcDbPolyline
 62
7
  6
CONTINUOUS
 90
10
 70
0
 10
35.1228143418
 20
-0.1056942798
 10
35.18336733
 20
-0.1235437884
 10
35.2417159171
 20
-0.1413811149
 10
35.2975585886
 20
-0.1593744808
 10
35.3505505565
 20
-0.1776333085
 10
35.400428241
 20
-0.1962461109
 10
35.4467031163
 20
-0.2151397227
 10
35.4895769665
 20
-0.2344335985
 10
35.5296761615
 20
-0.2544854296
 10
35.568942544
 20
-0.2765930314
  0
LWPOLYLINE
  5
2CD
100
AcDbEntity
  8
IMPORT_IGES
100
AcDbPolyline
 62
250
  6
CONTINUOUS
 90
45
 70
0
 10
35.5865084084
 20
-4.2398941151
 10
35.6540933027
 20
-4.2668332284
 10
35.7180431429
 20
-4.2955735095
 10
35.7781733787
 20
-4.3262361539
 10
35.8324612998
 20
-4.3586665989
 10
35.8800606302
 20
-4.393244027
 10
35.9220998329
 20
-4.4302894564
 10
35.9595933353
 20
-4.4696070516
 10
35.9929615166
 20
-4.511535107
 10
36.022019585
 20
-4.5561005687
 10
36.0468430081
 20
-4.6025590651
 10
36.0676737733
 20
-4.6509466883
 10
36.0844766735
 20
-4.7014644916
 10
36.0969051356
 20
-4.7535933527
 10
36.1049210467
 20
-4.8072386645
 10
36.1086837383
 20
-4.8626138711
 10
36.108118221
 20
-4.9196344949
 10
36.1031232112
 20
-4.9785209967
 10
36.0937652897
 20
-5.039019997
 10
36.0801849388
 20
-5.1003007702
 10
36.0621413016
 20
-5.1624865272
 10
36.0396994233
 20
-5.2252727978
 10
36.0134517296
 20
-5.2871731044
 10
35.9836892025
 20
-5.3476753333
 10
35.9499198394
 20
-5.4070312184
 10
35.9115569566
 20
-5.4648709411
 10
35.8682553271
 20
-5.5210768082
 10
35.8201102815
 20
-5.5753099487
 10
35.7671961662
 20
-5.626818587
 10
35.7085738563
 20
-5.6754983888
 10
35.645031669
 20
-5.7208206659
 10
35.5793710586
 20
-5.7615771173
 10
35.5123349095
 20
-5.7974082421
 10
35.4433878768
 20
-5.8284463707
 10
35.3735414656
 20
-5.8544979835
 10
35.3040606533
 20
-5.8750665109
 10
35.233978936
 20
-5.8905994563
 10
35.1609986123
 20
-5.9021941453
 10
35.0841115225
 20
-5.9097159039
 10
35.0048218421
 20
-5.9127149012
 10
34.9246476759
 20
-5.9117246543
 10
34.8437403909
 20
-5.9068058599
 10
34.7626200806
 20
-5.8976195501
 10
34.6832624664
 20
-5.8843915397
 10
34.6064531195
 20
-5.8673315267
  0
LWPOLYLINE
  5
2CE
100
AcDbEntity
  8
IMPORT_IGES
100
AcDbPolyline
 62
250
  6
CONTINUOUS
 90
45
 70
0
 10
35.5865084233
 20
-2.1987184278
 10
35.6540933379
 20
-2.2256575561
 10
35.718043203
 20
-2.254397854
 10
35.7781734638
 20
-2.2850605165
 10
35.8324614027
 20
-2.3174909763
 10
35.8800607418
 20
-2.3520684157
 10
35.9220999465
 20
-2.3891138545
 10
35.9595934432
 20
-2.4284314551
 10
35.9929616078
 20
-2.4703595113
 10
36.0220196525
 20
-2.5149249706
 10
36.0468430541
 20
-2.561383463
 10
36.067673802
 20
-2.60977108
 10
36.0844766868
 20
-2.6602888752
 10
36.0969051382
 20
-2.7124177296
 10
36.1049210464
 20
-2.7660630349
 10
36.1086837394
 20
-2.8214382361
 10
36.1081182206
 20
-2.8784588627
 10
36.1031232056
 20
-2.9373453778
 10
36.0937652761
 20
-2.9978443995
 10
36.0801849086
 20
-3.0591252005
 10
36.062141242
 20
-3.1213109928
 10
36.0396993252
 20
-3.1840973043
 10
36.0134515911
 20
-3.2459976527
 10
35.9836890263
 20
-3.3064999229
 10
35.9499196234
 20
-3.3658558497
 10
35.911556691
 20
-3.4236956122
 10
35.8682550102
 20
-3.4799015106
 10
35.8201099031
 20
-3.5341346792
 10
35.7671956818
 20
-3.5856433554
 10
35.7085731875
 20
-3.6343232157
 10
35.6450307682
 20
-3.6796455521
 10
35.5793699431
 20
-3.7204020329
 10
35.51233361
 20
-3.7562331512
 10
35.4433864139
 20
-3.7872712465
 10
35.3735398919
 20
-3.8133227995
 10
35.3040590574
 20
-3.8338912369
 10
35.2339773718
 20
-3.8494240759
 10
35.16099706
 20
-3.8610186657
 10
35.0841099009
 20
-3.8685403371
 10
35.0048201345
 20
-3.8715392466
 10
34.9246459779
 20
-3.8705489128
 10
34.843738896
 20
-3.865630051
 10
34.762618872
 20
-3.8564436987
 10
34.683261432
 20
-3.8432156429
 10
34.6064520679
 20
-3.8261555495
  0
LWPOLYLINE
  5
2CF
100
AcDbEntity
  8
IMPORT_IGES
100
AcDbPolyline
 62
250
  6
CONTINUOUS
 90
9
 70
0
 10
34.3920852803
 20
-3.8578592083
 10
34.4634898771
 20
-3.8898634474
 10
34.5389013296
 20
-3.9211902679
 10
34.6180329663
 20
-3.9516256702
 10
34.7002868692
 20
-3.9809633162
 10
34.7862773974
 20
-4.009288765
 10
34.8748863882
 20
-4.0361763907
 10
34.9626486009
 20
-4.0610347489
 10
35.0480919191
 20
-4.0836139991
  0
LINE
  5
2D0
100
AcDbEntity
  8
IMPORT_IGES
100
AcDbLine
 62
250
  6
CONTINUOUS
 10
34.3247074966
 20
-3.8253537169
 11
34.3920852803
 21
-3.8578592083
  0
LWPOLYLINE
  5
2D1
100
AcDbEntity
  8
IMPORT_IGES
100
AcDbPolyline
 62
250
  6
CONTINUOUS
 90
46
 70
0
 10
34.3793251221
 20
-5.4956032721
 10
34.4590924226
 20
-5.5354415
 10
34.5370004732
 20
-5.5701496883
 10
34.6130308358
 20
-5.599628257
 10
34.6873290606
 20
-5.6231916833
 10
34.7596745594
 20
-5.6411965012
 10
34.829502874
 20
-5.6551559897
 10
34.8961124168
 20
-5.6651913071
 10
34.9601138856
 20
-5.6709812566
 10
35.022924553
 20
-5.673482417
 10
35.0850744181
 20
-5.6730284032
 10
35.1458841919
 20
-5.6690883164
 10
35.2049423526
 20
-5.6613346975
 10
35.2616894118
 20
-5.6496444397
 10
35.3164563328
 20
-5.6339742106
 10
35.3701124791
 20
-5.6140845789
 10
35.4229901923
 20
-5.5894475142
 10
35.4743075317
 20
-5.5603888621
 10
35.5232758529
 20
-5.5280140961
 10
35.5697581346
 20
-5.492435718
 10
35.6135098161
 20
-5.4536529858
 10
35.6537490562
 20
-5.4127562138
 10
35.6899501154
 20
-5.37041207
 10
35.7224751056
 20
-5.326257849
 10
35.751893431
 20
-5.2798834532
 10
35.7781010057
 20
-5.2311438253
 10
35.8008004838
 20
-5.1805252537
 10
35.8201946849
 20
-5.1285811647
 10
35.8360996083
 20
-5.0757707413
 10
35.8483637626
 20
-5.0220947677
 10
35.8571772523
 20
-4.9674725198
 10
35.8624421351
 20
-4.9113910018
 10
35.8636565212
 20
-4.8550892822
 10
35.8607073429
 20
-4.8009810457
 10
35.8539500711
 20
-4.7499899577
 10
35.8434181427
 20
-4.7014153767
 10
35.828878174
 20
-4.6550072609
 10
35.8104541289
 20
-4.6107715328
 10
35.7882997799
 20
-4.5688891639
 10
35.7622422221
 20
-4.5293281486
 10
35.7324621268
 20
-4.4921036338
 10
35.6991639287
 20
-4.4571720077
 10
35.662250738
 20
-4.424339024
 10
35.6217071963
 20
-4.3934012711
 10
35.5779134839
 20
-4.3644344665
 10
35.568855939
 20
-4.3589151126
  0
LWPOLYLINE
  5
2D2
100
AcDbEntity
  8
IMPORT_IGES
100
AcDbPolyline
 62
7
  6
CONTINUOUS
 90
28
 70
0
 10
34.2553044578
 20
-7.0242822183
 10
34.3184854355
 20
-7.0586335941
 10
34.3845040349
 20
-7.0905697821
 10
34.4533602561
 20
-7.1200907823
 10
34.525299926
 20
-7.1472767406
 10
34.6000772176
 20
-7.1720475112
 10
34.6769546502
 20
-7.1941626565
 10
34.7559521327
 20
-7.2135961492
 10
34.8370497561
 20
-7.2303740166
 10
34.9194503123
 20
-7.2443339031
 10
35.003166558
 20
-7.2554484847
 10
35.0881857365
 20
-7.2637450853
 10
35.1736723688
 20
-7.2691433216
 10
35.2596306527
 20
-7.271615033
 10
35.3460563904
 20
-7.2711883802
 10
35.4321015089
 20
-7.2678674617
 10
35.5177625596
 20
-7.2616241849
 10
35.603042991
 20
-7.2524866424
 10
35.6871050762
 20
-7.2405432107
 10
35.7699369222
 20
-7.2257667367
 10
35.8515504219
 20
-7.2081843735
 10
35.9311435271
 20
-7.1879659572
 10
36.0086973387
 20
-7.165085837
 10
36.0842307559
 20
-7.1395696637
 10
36.1569984271
 20
-7.1116642254
 10
36.226751902
 20
-7.0814517848
 10
36.293739631
 20
-7.0488500791
 10
36.3579616141
 20
-7.0138591085
  0
LINE
  5
2D3
100
AcDbEntity
  8
IMPORT_IGES
100
AcDbLine
 62
7
  6
CONTINUOUS
 10
-52.3605810613
 20
42.9866506399
 11
34.255308663
 21
-7.0242785348
  0
LINE
  5
2D4
100
AcDbEntity
  8
IMPORT_IGES
100
AcDbLine
 62
7
  6
CONTINUOUS
 10
34.2614755448
 20
-6.6124388404
 11
-51.6596392221
 21
42.9973359815
  0
LWPOLYLINE
  5
2D5
100
AcDbEntity
  8
IMPORT_IGES
100
AcDbPolyline
 62
7
  6
CONTINUOUS
 90
15
 70
0
 10
-51.6596427989
 20
42.9973319246
 10
-51.7192010034
 20
43.0338481408
 10
-51.7746966915
 20
43.0720723178
 10
-51.826129863
 20
43.1120044556
 10
-51.8736411634
 20
43.1537875516
 10
-51.9170899472
 20
43.1972786084
 10
-51.956054278
 20
43.2420486345
 10
-51.9904901929
 20
43.2881097689
 10
-52.0204416549
 20
43.3354498724
 10
-52.0456186162
 20
43.3836035361
 10
-52.0659747838
 20
43.4325787209
 10
-52.0815564509
 20
43.4823674659
 10
-52.0922124491
 20
43.5324804791
 10
-52.0978949146
 20
43.5829207091
 10
-52.0989476259
 20
43.6160084935
  0
LWPOLYLINE
  5
2D6
100
AcDbEntity
  8
IMPORT_IGES
100
AcDbPolyline
 62
250
  6
CONTINUOUS
 90
28
 70
0
 10
35.3036218855
 20
2.9914638636
 10
35.2426789666
 20
2.9530210266
 10
35.1819982598
 20
2.9106891179
 10
35.1217805409
 20
2.8646080929
 10
35.062225134
 20
2.8149304423
 10
35.003529033
 20
2.7618203282
 10
34.9458862673
 20
2.7054529764
 10
34.8894876057
 20
2.6460146743
 10
34.8345197373
 20
2.5837020436
 10
34.7811644612
 20
2.5187209578
 10
34.7295979543
 20
2.4512856721
 10
34.6799914701
 20
2.3816198201
 10
34.6325104439
 20
2.3099556576
 10
34.5873125665
 20
2.2365314135
 10
34.5445466856
 20
2.1615891257
 10
34.5043536282
 20
2.0853755628
 10
34.4668659068
 20
2.0081416818
 10
34.4322083109
 20
1.9301442453
 10
34.4004965457
 20
1.8516437855
 10
34.3718357181
 20
1.7729011494
 10
34.3463200292
 20
1.6941758775
 10
34.3240335192
 20
1.6157277666
 10
34.3050497541
 20
1.5378161483
 10
34.2894314881
 20
1.4606990198
 10
34.2772302657
 20
1.3846314977
 10
34.2684863239
 20
1.3098652137
 10
34.2632284592
 20
1.2366474819
 10
34.2614739327
 20
1.1652204755
  0
LINE
  5
2D7
100
AcDbEntity
  8
IMPORT_IGES
100
AcDbLine
 62
250
  6
CONTINUOUS
 10
43.2363922548
 20
7.5717388718
 11
35.3036218865
 21
2.9914638642
  0
LINE
  5
2D8
100
AcDbEntity
  8
IMPORT_IGES
100
AcDbLine
 62
250
  6
CONTINUOUS
 10
51.3184308639
 20
12.2382062752
 11
44.0052177999
 21
8.0156355435
  0
LINE
  5
2D9
100
AcDbEntity
  8
IMPORT_IGES
100
AcDbLine
 62
7
  6
CONTINUOUS
 10
44.3336499215
 20
6.9807273955
 11
43.9854325297
 21
6.7796703473
  0
LWPOLYLINE
  5
2DA
100
AcDbEntity
  8
IMPORT_IGES
100
AcDbPolyline
 62
250
  6
CONTINUOUS
 90
28
 70
0
 10
36.3641272863
 20
1.1546288246
 10
36.3003608474
 20
1.1210657742
 10
36.2333574089
 20
1.0896752374
 10
36.1633386711
 20
1.060561093
 10
36.0905361042
 20
1.0338196159
 10
36.0151907954
 20
1.0095393882
 10
35.9375527199
 20
0.9878009361
 10
35.8578794083
 20
0.9686762643
 10
35.7764339773
 20
0.9522284305
 10
35.6934848462
 20
0.9385116363
 10
35.6093058549
 20
0.9275712507
 10
35.5241761128
 20
0.9194436325
 10
35.4383779979
 20
0.9141557582
 10
35.3521957055
 20
0.9117251107
 10
35.2659141234
 20
0.9121596923
 10
35.1798185873
 20
0.9154580557
 10
35.094194074
 20
0.9216092768
 10
35.0093238125
 20
0.930593002
 10
34.9254881995
 20
0.9423795713
 10
34.8429642747
 20
0.9569301002
 10
34.7620255295
 20
0.9741964325
 10
34.6829405173
 20
0.9941212834
 10
34.6059712584
 20
1.0166385801
 10
34.5313720442
 20
1.0416738693
 10
34.4593893415
 20
1.0691444224
 10
34.3902612335
 20
1.0989593984
 10
34.3242165907
 20
1.1310201045
 10
34.2614739612
 20
1.1652204591
  0
LWPOLYLINE
  5
2DB
100
AcDbEntity
  8
IMPORT_IGES
100
AcDbPolyline
 62
7
  6
CONTINUOUS
 90
15
 70
0
 10
51.3184320248
 20
12.2382056151
 10
51.3794355267
 20
12.2701684932
 10
51.4401642138
 20
12.2979259271
 10
51.5004170463
 20
12.3213882942
 10
51.5599936708
 20
12.3404799736
 10
51.6186983402
 20
12.3551406596
 10
51.6763403888
 20
12.3653247345
 10
51.7327294249
 20
12.3710002556
 10
51.7876795288
 20
12.3721502427
 10
51.8410127004
 20
12.3687723325
 10
51.8925531895
 20
12.3608786087
 10
51.9421307059
 20
12.3484961376
 10
51.9895838577
 20
12.331665956
 10
52.0347558471
 20
12.3104441036
 10
52.0498553587
 20
12.3020746307
  0
LWPOLYLINE
  5
2DC
100
AcDbEntity
  8
IMPORT_IGES
100
AcDbPolyline
 62
7
  6
CONTINUOUS
 90
60
 70
0
 10
-4.0509723404
 20
-14.1009226705
 10
-4.260819729
 20
-14.1829720836
 10
-4.4770225843
 20
-14.2515712122
 10
-4.6996068216
 20
-14.3067247798
 10
-4.9285465257
 20
-14.3484280628
 10
-5.1630529685
 20
-14.3764574871
 10
-5.4033211493
 20
-14.3907593059
 10
-5.6491560688
 20
-14.391387266
 10
-5.8991840015
 20
-14.3782790335
 10
-6.1533477229
 20
-14.3513441269
 10
-6.4117044575
 20
-14.3106730277
 10
-6.6730521531
 20
-14.256474847
 10
-6.937400921
 20
-14.188684155
 10
-7.20474065
 20
-14.1073663814
 10
-7.4738389538
 20
-14.0129269269
 10
-7.7446883345
 20
-13.9053121935
 10
-8.0172962901
 20
-13.7845757793
 10
-8.2904529283
 20
-13.6512838782
 10
-8.5641576089
 20
-13.505385528
 10
-8.8384109721
 20
-13.346931691
 10
-9.1120050459
 20
-13.176641449
 10
-9.3849344345
 20
-12.9944679963
 10
-9.6572045337
 20
-12.8004581385
 10
-9.9276235599
 20
-12.5954713754
 10
-10.1961805922
 20
-12.379466745
 10
-10.4628865514
 20
-12.1524852091
 10
-10.7265824163
 20
-11.9155091526
 10
-10.9872550407
 20
-11.6685014231
 10
-11.2449175708
 20
-11.4114991729
 10
-11.4984504231
 20
-11.1455962438
 10
-11.7479197577
 20
-10.8706416433
 10
-11.9932594146
 20
-10.5867863639
 10
-12.23315133
 20
-10.2955772246
 10
-12.4674366309
 20
-9.9971436424
 10
-12.6962741904
 20
-9.6913562003
 10
-12.9188225633
 20
-9.3793734663
 10
-13.1350590569
 20
-9.061212732
 10
-13.345006364
 20
-8.7368567057
 10
-13.5478911183
 20
-8.4074120811
 10
-13.7438203688
 20
-8.0726213435
 10
-13.9326870665
 20
-7.7327420074
 10
-14.1133966984
 20
-7.3896533108
 10
-14.2858409836
 20
-7.043430452
 10
-14.450128203
 20
-6.6939982326
 10
-14.6054886871
 20
-6.3430102951
 10
-14.7518968308
 20
-5.9903735547
 10
-14.8893782393
 20
-5.6361810962
 10
-15.017240058
 20
-5.2823658163
 10
-15.1353359756
 20
-4.9292866326
 10
-15.2438123036
 20
-4.5765846275
 10
-15.3424151219
 20
-4.2251159456
 10
-15.4312114111
 20
-3.8745838074
 10
-15.5101341907
 20
-3.5252849923
 10
-15.5787285988
 20
-3.1789659833
 10
-15.6369296772
 20
-2.8356747261
 10
-15.684802384
 20
-2.4953632749
 10
-15.7220867321
 20
-2.1596342757
 10
-15.748696059
 20
-1.8290219436
 10
-15.7647170271
 20
-1.5029920633
 10
-15.7701496364
 20
-1.181544635
  0
LWPOLYLINE
  5
2DD
100
AcDbEntity
  8
IMPORT_IGES
100
AcDbPolyline
 62
250
  6
CONTINUOUS
 90
45
 70
0
 10
35.5865084233
 20
-0.1575427358
 10
35.6540933379
 20
-0.1844818641
 10
35.718043203
 20
-0.213222162
 10
35.7781734638
 20
-0.2438848244
 10
35.8324614027
 20
-0.2763152843
 10
35.8800607418
 20
-0.3108927237
 10
35.9220999465
 20
-0.3479381625
 10
35.9595934432
 20
-0.3872557631
 10
35.9929616078
 20
-0.4291838193
 10
36.0220196525
 20
-0.4737492786
 10
36.0468430541
 20
-0.520207771
 10
36.067673802
 20
-0.568595388
 10
36.0844766868
 20
-0.6191131832
 10
36.0969051383
 20
-0.6712420376
 10
36.1049210464
 20
-0.7248873429
 10
36.1086837394
 20
-0.7802625442
 10
36.1081182206
 20
-0.8372831707
 10
36.1031232056
 20
-0.8961696859
 10
36.0937652761
 20
-0.9566687076
 10
36.0801849086
 20
-1.0179495086
 10
36.062141242
 20
-1.0801353008
 10
36.0396993252
 20
-1.1429216124
 10
36.013451591
 20
-1.2048219608
 10
35.9836890262
 20
-1.265324231
 10
35.9499196233
 20
-1.3246801578
 10
35.911556691
 20
-1.3825199203
 10
35.8682550102
 20
-1.4387258186
 10
35.820109903
 20
-1.4929589873
 10
35.7671956818
 20
-1.5444676635
 10
35.7085731874
 20
-1.5931475238
 10
35.6450307682
 20
-1.6384698601
 10
35.579369943
 20
-1.6792263409
 10
35.5123336099
 20
-1.7150574592
 10
35.4433864139
 20
-1.7460955545
 10
35.3735398919
 20
-1.7721471075
 10
35.3040590574
 20
-1.792715545
 10
35.2339773718
 20
-1.8082483839
 10
35.16099706
 20
-1.8198429737
 10
35.0841099009
 20
-1.8273646451
 10
35.0048201345
 20
-1.8303635546
 10
34.9246459778
 20
-1.8293732208
 10
34.843738896
 20
-1.824454359
 10
34.762618872
 20
-1.8152680067
 10
34.6832614321
 20
-1.8020399509
 10
34.606452068
 20
-1.7849798575
  0
LWPOLYLINE
  5
2DE
100
AcDbEntity
  8
IMPORT_IGES
100
AcDbPolyline
 62
250
  6
CONTINUOUS
 90
9
 70
0
 10
34.3920852799
 20
-1.8166835106
 10
34.4634898799
 20
-1.848687749
 10
34.538901322
 20
-1.880014564
 10
34.6180329364
 20
-1.9104499586
 10
34.7002868147
 20
-1.9397875985
 10
34.7862773163
 20
-1.9681130429
 10
34.8748862785
 20
-1.9950006662
 10
34.9626484719
 20
-2.0198590249
 10
35.0480917849
 20
-2.0424382771
  0
LWPOLYLINE
  5
2DF
100
AcDbEntity
  8
IMPORT_IGES
100
AcDbPolyline
 62
250
  6
CONTINUOUS
 90
9
 70
0
 10
34.3920852882
 20
0.2244921776
 10
34.4634898801
 20
0.1924879429
 10
34.5389013193
 20
0.1611611289
 10
34.6180329349
 20
0.1307257338
 10
34.7002868148
 20
0.1013880935
 10
34.7862773163
 20
0.073062649
 10
34.8748862786
 20
0.0461750258
 10
34.9626484719
 20
0.0213166671
 10
35.0480917849
 20
-0.0012625851
  0
LINE
  5
2E0
100
AcDbEntity
  8
IMPORT_IGES
100
AcDbLine
 62
250
  6
CONTINUOUS
 10
34.3247074838
 20
-1.7841780154
 11
34.3920852799
 21
-1.8166835106
  0
LINE
  5
2E1
100
AcDbEntity
  8
IMPORT_IGES
100
AcDbLine
 62
250
  6
CONTINUOUS
 10
34.3247075033
 20
0.2569976666
 11
34.3920852882
 21
0.2244921776
  0
LWPOLYLINE
  5
2E2
100
AcDbEntity
  8
IMPORT_IGES
100
AcDbPolyline
 62
250
  6
CONTINUOUS
 90
46
 70
0
 10
34.3793251221
 20
-3.4544275801
 10
34.4590924227
 20
-3.494265808
 10
34.5370004732
 20
-3.5289739964
 10
34.6130308359
 20
-3.5584525651
 10
34.6873290607
 20
-3.5820159914
 10
34.7596745595
 20
-3.6000208092
 10
34.8295028742
 20
-3.6139802978
 10
34.8961124171
 20
-3.6240156151
 10
34.9601138858
 20
-3.6298055646
 10
35.0229245533
 20
-3.632306725
 10
35.0850744185
 20
-3.6318527112
 10
35.1458841923
 20
-3.6279126244
 10
35.204942353
 20
-3.6201590054
 10
35.2616894122
 20
-3.6084687476
 10
35.3164563332
 20
-3.5927985185
 10
35.3701124796
 20
-3.5729088868
 10
35.4229901928
 20
-3.548271822
 10
35.4743075322
 20
-3.5192131698
 10
35.5232758534
 20
-3.4868384038
 10
35.5697581351
 20
-3.4512600256
 10
35.6135098165
 20
-3.4124772934
 10
35.6537490567
 20
-3.3715805213
 10
35.6899501158
 20
-3.3292363775
 10
35.722475106
 20
-3.2850821565
 10
35.7518934313
 20
-3.2387077606
 10
35.7781010059
 20
-3.1899681327
 10
35.800800484
 20
-3.1393495612
 10
35.8201946851
 20
-3.0874054721
 10
35.8360996084
 20
-3.0345950488
 10
35.8483637627
 20
-2.9809190752
 10
35.8571772523
 20
-2.9262968273
 10
35.8624421351
 20
-2.8702153094
 10
35.8636565212
 20
-2.8139135898
 10
35.8607073429
 20
-2.7598053533
 10
35.8539500711
 20
-2.7088142654
 10
35.8434181426
 20
-2.6602396844
 10
35.8288781739
 20
-2.6138315686
 10
35.8104541287
 20
-2.5695958405
 10
35.7882997798
 20
-2.5277134717
 10
35.7622422219
 20
-2.4881524564
 10
35.7324621265
 20
-2.4509279416
 10
35.6991639285
 20
-2.4159963155
 10
35.6622507377
 20
-2.3831633318
 10
35.621707196
 20
-2.3522255789
 10
35.5779134836
 20
-2.3232587744
 10
35.568855939
 20
-2.3177394206
  0
LWPOLYLINE
  5
2E3
100
AcDbEntity
  8
IMPORT_IGES
100
AcDbPolyline
 62
250
  6
CONTINUOUS
 90
46
 70
0
 10
34.3793251221
 20
-1.4132518881
 10
34.4590924227
 20
-1.453090116
 10
34.5370004732
 20
-1.4877983044
 10
34.6130308359
 20
-1.5172768731
 10
34.6873290606
 20
-1.5408402994
 10
34.7596745595
 20
-1.5588451172
 10
34.8295028741
 20
-1.5728046058
 10
34.8961124169
 20
-1.5828399231
 10
34.9601138857
 20
-1.5886298726
 10
35.0229245531
 20
-1.591131033
 10
35.0850744183
 20
-1.5906770192
 10
35.1458841921
 20
-1.5867369325
 10
35.2049423529
 20
-1.5789833135
 10
35.261689412
 20
-1.5672930557
 10
35.3164563331
 20
-1.5516228266
 10
35.3701124794
 20
-1.5317331949
 10
35.4229901926
 20
-1.5070961301
 10
35.474307532
 20
-1.478037478
 10
35.5232758532
 20
-1.4456627119
 10
35.5697581349
 20
-1.4100843338
 10
35.6135098163
 20
-1.3713016016
 10
35.6537490565
 20
-1.3304048296
 10
35.6899501156
 20
-1.2880606858
 10
35.7224751058
 20
-1.2439064647
 10
35.7518934312
 20
-1.1975320689
 10
35.7781010058
 20
-1.148792441
 10
35.800800484
 20
-1.0981738694
 10
35.820194685
 20
-1.0462297804
 10
35.8360996083
 20
-0.993419357
 10
35.8483637627
 20
-0.9397433834
 10
35.8571772523
 20
-0.8851211355
 10
35.8624421351
 20
-0.8290396176
 10
35.8636565212
 20
-0.772737898
 10
35.8607073429
 20
-0.7186296615
 10
35.8539500711
 20
-0.6676385735
 10
35.8434181426
 20
-0.6190639925
 10
35.828878174
 20
-0.5726558768
 10
35.8104541288
 20
-0.5284201486
 10
35.7882997798
 20
-0.4865377798
 10
35.762242222
 20
-0.4469767645
 10
35.7324621266
 20
-0.4097522497
 10
35.6991639286
 20
-0.3748206237
 10
35.6622507378
 20
-0.34198764
 10
35.6217071961
 20
-0.311049887
 10
35.5779134838
 20
-0.2820830825
 10
35.568855939
 20
-0.2765637287
  0
LINE
  5
2E4
100
AcDbEntity
  8
IMPORT_IGES
100
AcDbLine
 62
250
  6
CONTINUOUS
 10
34.2614739926
 20
-3.792537832
 11
34.3247074966
 21
-3.8253537169
  0
LINE
  5
2E5
100
AcDbEntity
  8
IMPORT_IGES
100
AcDbLine
 62
250
  6
CONTINUOUS
 10
34.2614739599
 20
-1.7513621211
 11
34.3247074838
 21
-1.7841780154
  0
LINE
  5
2E6
100
AcDbEntity
  8
IMPORT_IGES
100
AcDbLine
 62
250
  6
CONTINUOUS
 10
34.2614739929
 20
0.2898135518
 11
34.3247075033
 21
0.2569976666
  0
LWPOLYLINE
  5
2E7
100
AcDbEntity
  8
IMPORT_IGES
100
AcDbPolyline
 62
7
  6
CONTINUOUS
 90
11
 70
0
 10
34.3029153723
 20
-3.8840412806
 10
34.3756056482
 20
-3.9237322034
 10
34.4454465064
 20
-3.9580847846
 10
34.515676496
 20
-3.9894215019
 10
34.5859064335
 20
-4.018026784
 10
34.6560810277
 20
-4.0443638648
 10
34.7258258794
 20
-4.0687020135
 10
34.7947862811
 20
-4.0912746522
 10
34.8630278335
 20
-4.1124186013
 10
34.9302083284
 20
-4.1323999575
 10
35.1228143421
 20
-4.1880456639
  0
LWPOLYLINE
  5
2E8
100
AcDbEntity
  8
IMPORT_IGES
100
AcDbPolyline
 62
7
  6
CONTINUOUS
 90
11
 70
0
 10
34.3029153723
 20
-1.8428655886
 10
34.3756056475
 20
-1.8825565111
 10
34.4454465058
 20
-1.9169090924
 10
34.5156764954
 20
-1.9482458097
 10
34.585906433
 20
-1.9768510918
 10
34.6560810272
 20
-2.0031881726
 10
34.7258258789
 20
-2.0275263213
 10
34.7947862806
 20
-2.0500989601
 10
34.863027833
 20
-2.0712429091
 10
34.930208328
 20
-2.0912242654
 10
35.1228143418
 20
-2.1468699718
  0
LWPOLYLINE
  5
2E9
100
AcDbEntity
  8
IMPORT_IGES
100
AcDbPolyline
 62
7
  6
CONTINUOUS
 90
11
 70
0
 10
34.3029150562
 20
0.1983102858
 10
34.3756056475
 20
0.1586191809
 10
34.4454465058
 20
0.1242665996
 10
34.5156764954
 20
0.0929298823
 10
34.585906433
 20
0.0643246002
 10
34.6560810272
 20
0.0379875194
 10
34.7258258788
 20
0.0136493706
 10
34.7947862806
 20
-0.0089232681
 10
34.863027833
 20
-0.0300672172
 10
34.930208328
 20
-0.0500485734
 10
35.1228143418
 20
-0.1056942798
  0
LINE
  5
2EA
100
AcDbEntity
  8
IMPORT_IGES
100
AcDbLine
 62
250
  6
CONTINUOUS
 10
-51.6596392221
 20
43.885114769
 11
34.2614753116
 21
-5.7246599342
  0
LINE
  5
2EB
100
AcDbEntity
  8
IMPORT_IGES
100
AcDbLine
 62
250
  6
CONTINUOUS
 10
34.3793251221
 20
-5.4956032721
 11
-51.5417866512
 21
44.114169821
  0
LINE
  5
2EC
100
AcDbEntity
  8
IMPORT_IGES
100
AcDbLine
 62
7
  6
CONTINUOUS
 10
34.3028905843
 20
-3.8840852459
 11
-51.6182210541
 21
45.7256877696
  0
LINE
  5
2ED
100
AcDbEntity
  8
IMPORT_IGES
100
AcDbLine
 62
250
  6
CONTINUOUS
 10
-51.6596376087
 20
45.8172351629
 11
34.2614739599
 21
-3.7925378131
  0
LINE
  5
2EE
100
AcDbEntity
  8
IMPORT_IGES
100
AcDbLine
 62
250
  6
CONTINUOUS
 10
-51.6596376087
 20
45.9262895295
 11
34.2614739272
 21
-3.6834834272
  0
LINE
  5
2EF
100
AcDbEntity
  8
IMPORT_IGES
100
AcDbLine
 62
250
  6
CONTINUOUS
 10
34.3793251221
 20
-3.4544275801
 11
-51.5417866512
 21
46.155345513
  0
LINE
  5
2F0
100
AcDbEntity
  8
IMPORT_IGES
100
AcDbLine
 62
7
  6
CONTINUOUS
 10
34.3028905843
 20
-1.8429095539
 11
-51.6182210541
 21
47.7668634616
  0
LINE
  5
2F1
100
AcDbEntity
  8
IMPORT_IGES
100
AcDbLine
 62
250
  6
CONTINUOUS
 10
-51.6596376087
 20
47.8584108548
 11
34.2614739599
 21
-1.7513621211
  0
LINE
  5
2F2
100
AcDbEntity
  8
IMPORT_IGES
100
AcDbLine
 62
250
  6
CONTINUOUS
 10
34.2614739272
 20
-1.6423077353
 11
-51.6596376087
 21
47.9674652214
  0
LINE
  5
2F3
100
AcDbEntity
  8
IMPORT_IGES
100
AcDbLine
 62
250
  6
CONTINUOUS
 10
34.3793251221
 20
-1.4132518881
 11
-51.5417866512
 21
48.196521205
  0
LWPOLYLINE
  5
2F4
100
AcDbEntity
  8
IMPORT_IGES
100
AcDbPolyline
 62
250
  6
CONTINUOUS
 90
15
 70
0
 10
-51.6596390229
 20
43.885114654
 10
-51.71932612
 20
43.9200002445
 10
-51.7758668016
 20
43.9587737225
 10
-51.8289320824
 20
44.0013663993
 10
-51.8782678058
 20
44.0477365227
 10
-51.9234563062
 20
44.0977473143
 10
-51.9639942644
 20
44.1511415783
 10
-51.9999707028
 20
44.2083041552
 10
-52.0307109926
 20
44.268558996
 10
-52.0552233278
 20
44.3299035722
 10
-52.073696372
 20
44.3911360105
 10
-52.0868278569
 20
44.4529545634
 10
-52.0950103826
 20
44.5161365092
 10
-52.0986679055
 20
44.5803597363
 10
-52.09897741
 20
44.6061624639
  0
LWPOLYLINE
  5
2F5
100
AcDbEntity
  8
IMPORT_IGES
100
AcDbPolyline
 62
250
  6
CONTINUOUS
 90
8
 70
0
 10
-51.6596376413
 20
45.9262895482
 10
-51.7193250081
 20
45.9611752147
 10
-51.7758659475
 20
45.9999487882
 10
-51.8289314696
 20
46.0425415799
 10
-51.8782674376
 20
46.0889118597
 10
-51.9234561527
 20
46.1389228279
 10
-51.9639942343
 20
46.1923172154
 10
-51.9999706878
 20
46.2494797978
  0
LWPOLYLINE
  5
2F6
100
AcDbEntity
  8
IMPORT_IGES
100
AcDbPolyline
 62
250
  6
CONTINUOUS
 90
8
 70
0
 10
-51.6596376413
 20
47.9674652402
 10
-51.7193250081
 20
48.0023509067
 10
-51.7758659475
 20
48.0411244802
 10
-51.8289314697
 20
48.0837172719
 10
-51.8782674377
 20
48.1300875518
 10
-51.9234561528
 20
48.18009852
 10
-51.9639942344
 20
48.2334929075
 10
-51.9999706879
 20
48.29065549
  0
LWPOLYLINE
  5
2F7
100
AcDbEntity
  8
IMPORT_IGES
100
AcDbPolyline
 62
250
  6
CONTINUOUS
 90
10
 70
0
 10
34.3028905843
 20
-3.8840852459
 10
34.3000493249
 20
-3.8823487439
 10
34.2916727052
 20
-3.875958
 10
34.2841170631
 20
-3.868093076
 10
34.2774266292
 20
-3.8586690258
 10
34.2717820718
 20
-3.8477864741
 10
34.2673157149
 20
-3.8356126564
 10
34.264089779
 20
-3.8222888801
 10
34.2621318437
 20
-3.8078897528
 10
34.2614739926
 20
-3.7925378317
  0
LWPOLYLINE
  5
2F8
100
AcDbEntity
  8
IMPORT_IGES
100
AcDbPolyline
 62
250
  6
CONTINUOUS
 90
10
 70
0
 10
34.3028905843
 20
-1.8429095539
 10
34.3000493249
 20
-1.841173052
 10
34.2916727052
 20
-1.834782308
 10
34.2841170631
 20
-1.8269173841
 10
34.2774266292
 20
-1.8174933338
 10
34.2717820718
 20
-1.8066107821
 10
34.2673157149
 20
-1.7944369644
 10
34.264089779
 20
-1.7811131881
 10
34.2621318437
 20
-1.7667140608
 10
34.2614739926
 20
-1.7513621397
  0
LWPOLYLINE
  5
2F9
100
AcDbEntity
  8
IMPORT_IGES
100
AcDbPolyline
 62
250
  6
CONTINUOUS
 90
15
 70
0
 10
-51.6596375805
 20
50.7749934064
 10
-51.7188704227
 20
50.8112201446
 10
-51.7743976583
 20
50.8493535087
 10
-51.8260355344
 20
50.889267324
 10
-51.873613301
 20
50.9308296491
 10
-51.9169733484
 20
50.9739028447
 10
-51.9559718547
 20
51.0183439856
 10
-51.9904796299
 20
51.0640056364
 10
-52.0203829089
 20
51.1107370167
 10
-52.0455831709
 20
51.1583841493
 10
-52.0659970777
 20
51.2067897646
 10
-52.0815567776
 20
51.2557933438
 10
-52.0922106164
 20
51.3052323019
 10
-52.0979233657
 20
51.3549428578
 10
-52.09897741
 20
51.387405288
  0
LINE
  5
2FA
100
AcDbEntity
  8
IMPORT_IGES
100
AcDbLine
 62
250
  6
CONTINUOUS
 10
36.3641244732
 20
1.154627284
 11
44.2968988703
 21
5.734889362
  0
LINE
  5
2FB
100
AcDbEntity
  8
IMPORT_IGES
100
AcDbLine
 62
250
  6
CONTINUOUS
 10
45.0657187352
 20
6.1787966942
 11
52.3789306529
 21
10.4013681118
  0
LINE
  5
2FC
100
AcDbEntity
  8
IMPORT_IGES
100
AcDbLine
 62
7
  6
CONTINUOUS
 10
34.3028905843
 20
0.1982661381
 11
-51.6182210541
 21
49.8080391536
  0
LINE
  5
2FD
100
AcDbEntity
  8
IMPORT_IGES
100
AcDbLine
 62
250
  6
CONTINUOUS
 10
-51.6596375794
 20
49.8995865296
 11
34.2614739612
 21
0.2898135701
  0
LINE
  5
2FE
100
AcDbEntity
  8
IMPORT_IGES
100
AcDbLine
 62
250
  6
CONTINUOUS
 10
34.2614739612
 20
1.1652204591
 11
-51.6596375805
 21
50.7749934064
  0
LINE
  5
2FF
100
AcDbEntity
  8
IMPORT_IGES
100
AcDbLine
 62
250
  6
CONTINUOUS
 10
-50.6174875513
 20
52.6012356068
 11
35.3036218865
 21
2.9914638642
  0
LINE
  5
300
100
AcDbEntity
  8
IMPORT_IGES
100
AcDbLine
 62
7
  6
CONTINUOUS
 10
44.6504523707
 20
-2.2258947508
 11
44.2968989801
 21
-2.0217574542
  0
LINE
  5
301
100
AcDbEntity
  8
IMPORT_IGES
100
AcDbLine
 62
7
  6
CONTINUOUS
 10
45.4192721258
 20
-1.7819947467
 11
45.0657187352
 21
-1.5778574501
  0
LWPOLYLINE
  5
302
100
AcDbEntity
  8
IMPORT_IGES
100
AcDbPolyline
 62
7
  6
CONTINUOUS
 90
28
 70
0
 10
35.303618482
 20
2.9914659009
 10
35.3642829982
 20
2.9531354242
 10
35.4247929167
 20
2.9108299058
 10
35.4849433986
 20
2.8646949427
 10
35.5445298311
 20
2.8148899915
 10
35.603352119
 20
2.7615848445
 10
35.661215192
 20
2.7049583479
 10
35.7179237248
 20
2.6452033753
 10
35.7732864735
 20
2.5825232004
 10
35.8271201099
 20
2.5171267683
 10
35.879243281
 20
2.4492353522
 10
35.929479933
 20
2.3790792648
 10
35.9776629024
 20
2.3068926887
 10
36.0236294427
 20
2.2329198796
 10
36.0672245371
 20
2.157410756
 10
36.1083031965
 20
2.0806164571
 10
36.1467265049
 20
2.0027961931
 10
36.1823643161
 20
1.9242130342
 10
36.215097418
 20
1.8451288363
 10
36.2448143958
 20
1.7658112166
 10
36.2714143142
 20
1.6865278586
 10
36.2948079026
 20
1.6075419899
 10
36.314914647
 20
1.5291208339
 10
36.3316653126
 20
1.4515299858
 10
36.3450028999
 20
1.3750278487
 10
36.3548805243
 20
1.299872612
 10
36.3612622899
 20
1.2263211668
 10
36.3641245289
 20
1.1546236908
  0
LINE
  5
303
100
AcDbEntity
  8
IMPORT_IGES
100
AcDbLine
 62
7
  6
CONTINUOUS
 10
44.2968989252
 20
-2.0217574848
 11
36.3641272863
 21
-6.602025222
  0
LINE
  5
304
100
AcDbEntity
  8
IMPORT_IGES
100
AcDbLine
 62
7
  6
CONTINUOUS
 10
45.0657187352
 20
-1.5778574501
 11
48.9050988556
 21
0.6389601244
  0
LINE
  5
305
100
AcDbEntity
  8
IMPORT_IGES
100
AcDbLine
 62
7
  6
CONTINUOUS
 10
44.6504523707
 20
-2.2258947509
 11
36.3579616141
 21
-7.0138591085
  0
LINE
  5
306
100
AcDbEntity
  8
IMPORT_IGES
100
AcDbLine
 62
7
  6
CONTINUOUS
 10
49.2586522462
 20
0.4348228277
 11
45.4192721258
 21
-1.7819947467
  0
LWPOLYLINE
  5
307
100
AcDbEntity
  8
IMPORT_IGES
100
AcDbPolyline
 62
7
  6
CONTINUOUS
 90
28
 70
0
 10
36.3641272863
 20
-6.602025222
 10
36.2999038264
 20
-6.6370165742
 10
36.2329146747
 20
-6.6696185423
 10
36.1631598312
 20
-6.6998311261
 10
36.0903908274
 20
-6.7277365795
 10
36.0148561317
 20
-6.7532526487
 10
35.9373011504
 20
-6.7761325728
 10
35.8577069908
 20
-6.796350699
 10
35.7760925455
 20
-6.8139326801
 10
35.6932598988
 20
-6.8287087138
 10
35.6091971645
 20
-6.8406516459
 10
35.5239162288
 20
-6.8497886306
 10
35.4382548343
 20
-6.8560313282
 10
35.3522095391
 20
-6.8593516463
 10
35.265783785
 20
-6.8597776775
 10
35.1798256405
 20
-6.8573053597
 10
35.0943393096
 20
-6.8519065335
 10
35.0093205883
 20
-6.8436093585
 10
34.9256049319
 20
-6.8324942513
 10
34.8432051029
 20
-6.8185338899
 10
34.7621083389
 20
-6.8017555963
 10
34.6831118085
 20
-6.7823217534
 10
34.6062351642
 20
-6.7602064127
 10
34.5314587535
 20
-6.7354355226
 10
34.4595207884
 20
-6.708249311
 10
34.3906673394
 20
-6.6787278538
 10
34.324652336
 20
-6.6467910752
 10
34.2614757781
 20
-6.6124389751
  0
LWPOLYLINE
  5
308
100
AcDbEntity
  8
IMPORT_IGES
100
AcDbPolyline
 62
7
  6
CONTINUOUS
 90
15
 70
0
 10
48.9050987668
 20
0.6389540552
 10
48.9653705706
 20
0.6716672597
 10
49.024979642
 20
0.7000112683
 10
49.083925981
 20
0.723986081
 10
49.1423983413
 20
0.7436392578
 10
49.2002079691
 20
0.7589232387
 10
49.2567886034
 20
0.7696953433
 10
49.3121279174
 20
0.7759121196
 10
49.3662382379
 20
0.7776170195
 10
49.4185902836
 20
0.7747977192
 10
49.469167086
 20
0.7674104071
 10
49.5179856137
 20
0.7554988947
 10
49.5645674912
 20
0.7391822921
 10
49.608890888
 20
0.7184179176
 10
49.6238514355
 20
0.7101232406
  0
LWPOLYLINE
  5
309
100
AcDbEntity
  8
IMPORT_IGES
100
AcDbPolyline
 62
7
  6
CONTINUOUS
 90
15
 70
0
 10
49.2586522462
 20
0.4348228277
 10
49.3189754728
 20
0.467558067
 10
49.3786240623
 20
0.4959169958
 10
49.4375980144
 20
0.5198996141
 10
49.4960847141
 20
0.5395514442
 10
49.5538967766
 20
0.5548269639
 10
49.6104720475
 20
0.5655896061
 10
49.6657982197
 20
0.5717962511
 10
49.7198876003
 20
0.5734900186
 10
49.7722149562
 20
0.5706637008
 10
49.8227627685
 20
0.5632746881
 10
49.871548556
 20
0.55136559
 10
49.918099642
 20
0.5350570276
 10
49.9623950428
 20
0.5143075644
 10
49.9774046874
 20
0.5059856992
  0
LINE
  5
30A
100
AcDbEntity
  8
IMPORT_IGES
100
AcDbLine
 62
250
  6
CONTINUOUS
 10
48.9050988556
 20
0.6389601244
 11
49.2586522462
 21
0.4348228277
  0
LINE
  5
30B
100
AcDbEntity
  8
IMPORT_IGES
100
AcDbLine
 62
7
  6
CONTINUOUS
 10
49.97741946
 20
0.5060118913
 11
49.6238660694
 21
0.710149188
  0
LWPOLYLINE
  5
30C
100
AcDbEntity
  8
IMPORT_IGES
100
AcDbPolyline
 62
7
  6
CONTINUOUS
 90
15
 70
0
 10
49.9774046874
 20
0.5059856992
 10
50.0044557421
 20
0.4891586368
 10
50.0438720135
 20
0.4598551743
 10
50.0806189231
 20
0.4263581009
 10
50.1147214049
 20
0.3887064925
 10
50.1458445348
 20
0.3472625064
 10
50.1739606762
 20
0.3019895774
 10
50.1990974657
 20
0.2529242706
 10
50.2210028887
 20
0.2005384391
 10
50.2396465014
 20
0.1448000256
 10
50.2550587475
 20
0.0857410874
 10
50.2670789438
 20
0.0239296487
 10
50.2756535292
 20
-0.0404449491
 10
50.2808360646
 20
-0.1075720474
 10
50.2826265502
 20
-0.1774516462
  0
LWPOLYLINE
  5
30D
100
AcDbEntity
  8
IMPORT_IGES
100
AcDbPolyline
 62
250
  6
CONTINUOUS
 90
10
 70
0
 10
34.2614739922
 20
-56.4548706845
 10
34.2621007227
 20
-56.4698647922
 10
34.2639536925
 20
-56.4838836376
 10
34.266984806
 20
-56.4968287877
 10
34.2711131471
 20
-56.5085590789
 10
34.2762867208
 20
-56.5190732167
 10
34.2825379832
 20
-56.5284504108
 10
34.2898714766
 20
-56.5366247994
 10
34.2982162743
 20
-56.5434541966
 10
34.3028905835
 20
-56.5464180986
  0
LWPOLYLINE
  5
30E
100
AcDbEntity
  8
IMPORT_IGES
100
AcDbPolyline
 62
250
  6
CONTINUOUS
 90
10
 70
0
 10
34.2614753738
 20
-54.4136957746
 10
34.2621014896
 20
-54.4286895352
 10
34.263953999
 20
-54.4427081198
 10
34.266984806
 20
-54.4556530957
 10
34.2711130451
 20
-54.4673833287
 10
34.2762866699
 20
-54.4778974956
 10
34.2825379832
 20
-54.4872747188
 10
34.2898714766
 20
-54.4954491074
 10
34.2982162743
 20
-54.5022785046
 10
34.3028905835
 20
-54.5052424066
  0
LWPOLYLINE
  5
30F
100
AcDbEntity
  8
IMPORT_IGES
100
AcDbPolyline
 62
7
  6
CONTINUOUS
 90
15
 70
0
 10
-42.9568926227
 20
57.338661315
 10
-43.0190244193
 20
57.3723918415
 10
-43.0805082919
 20
57.4016737608
 10
-43.1413442405
 20
57.426507073
 10
-43.2017303187
 20
57.4469404809
 10
-43.2614684729
 20
57.4629252815
 10
-43.3199645423
 20
57.4743153665
 10
-43.3772058529
 20
57.4810659695
 10
-43.4332050786
 20
57.4832218569
 10
-43.4874060811
 20
57.4807712184
 10
-43.539790552
 20
57.4736696385
 10
-43.5903767997
 20
57.4619615328
 10
-43.6386636102
 20
57.4457683382
 10
-43.6846289
 20
57.4250468567
 10
-43.7197883965
 20
57.4052147752
  0
LWPOLYLINE
  5
310
100
AcDbEntity
  8
IMPORT_IGES
100
AcDbPolyline
 62
7
  6
CONTINUOUS
 90
15
 70
0
 10
-42.3114988092
 20
57.8538233749
 10
-42.373574751
 20
57.8875281885
 10
-42.4350144521
 20
57.9167929614
 10
-42.4958179126
 20
57.9416176938
 10
-42.5561843927
 20
57.9620534118
 10
-42.6159146321
 20
57.9780490892
 10
-42.6744108504
 20
57.9894516471
 10
-42.7316603987
 20
57.9962157907
 10
-42.7876759258
 20
57.9983868148
 10
-42.8418975975
 20
57.9959475254
 10
-42.8943077671
 20
57.988852324
 10
-42.9449240812
 20
57.977146809
 10
-42.9932396456
 20
57.9609505827
 10
-43.0392314987
 20
57.9402192162
 10
-43.0482296256
 20
57.9354926947
  0
LINE
  5
311
100
AcDbEntity
  8
IMPORT_IGES
100
AcDbLine
 62
7
  6
CONTINUOUS
 10
43.236391997
 20
7.5714492981
 11
-42.9568926227
 21
57.338661315
  0
LINE
  5
312
100
AcDbEntity
  8
IMPORT_IGES
100
AcDbLine
 62
7
  6
CONTINUOUS
 10
-42.639938041
 20
57.1981783187
 11
44.333657484
 21
6.9807142978
  0
LINE
  5
313
100
AcDbEntity
  8
IMPORT_IGES
100
AcDbLine
 62
7
  6
CONTINUOUS
 10
44.0052177999
 20
8.0156355435
 11
-42.3114988148
 21
57.8538259143
  0
LWPOLYLINE
  5
314
100
AcDbEntity
  8
IMPORT_IGES
100
AcDbPolyline
 62
7
  6
CONTINUOUS
 90
28
 70
0
 10
44.0052177999
 20
8.0156355435
 10
44.0673496144
 20
7.9776178481
 10
44.128833506
 20
7.9358997488
 10
44.1896694748
 20
7.8904812454
 10
44.2500555745
 20
7.8411823335
 10
44.3097937514
 20
7.7881830176
 10
44.3682898439
 20
7.7320233115
 10
44.4255311778
 20
7.6726730847
 10
44.4815304275
 20
7.6101624676
 10
44.5357314537
 20
7.5451218654
 10
44.5881159482
 20
7.4775280043
 10
44.6387022193
 20
7.4074041581
 10
44.6869890527
 20
7.3354505533
 10
44.7329543647
 20
7.2616494935
 10
44.776620239
 20
7.1860186752
 10
44.8175517121
 20
7.1093114142
 10
44.8557224201
 20
7.0315174259
 10
44.891158727
 20
6.9526469949
 10
44.9235047609
 20
6.8734842919
 10
44.9527312134
 20
6.7940250901
 10
44.978867393
 20
6.7142736161
 10
45.0016453528
 20
6.635026721
 10
45.0210327426
 20
6.556288439
 10
45.0370619128
 20
6.4780547358
 10
45.049561967
 20
6.4011103591
 10
45.0584759401
 20
6.3257168912
 10
45.0638607974
 20
6.2516127498
 10
45.0657165387
 20
6.1787979349
  0
LWPOLYLINE
  5
315
100
AcDbEntity
  8
IMPORT_IGES
100
AcDbPolyline
 62
250
  6
CONTINUOUS
 90
10
 70
0
 10
34.2614739929
 20
0.2898135522
 10
34.2621007235
 20
0.2748194445
 10
34.2639536933
 20
0.260800599
 10
34.2669848068
 20
0.2478554489
 10
34.2711131479
 20
0.2361251578
 10
34.2762867216
 20
0.2256110199
 10
34.282537984
 20
0.2162338258
 10
34.2898714774
 20
0.2080594372
 10
34.298216275
 20
0.2012300401
 10
34.3028905843
 20
0.1982661381
  0
LINE
  5
316
100
AcDbEntity
  8
IMPORT_IGES
100
AcDbLine
 62
250
  6
CONTINUOUS
 10
34.2553086647
 20
-53.9235052376
 11
34.255308663
 21
-7.0242785348
  0
LINE
  5
317
100
AcDbEntity
  8
IMPORT_IGES
100
AcDbLine
 62
250
  6
CONTINUOUS
 10
34.2614739272
 20
-1.6423077353
 11
34.2614739599
 21
-1.7513621211
  0
LINE
  5
318
100
AcDbEntity
  8
IMPORT_IGES
100
AcDbLine
 62
250
  6
CONTINUOUS
 10
34.2614739272
 20
-3.6834834272
 11
34.2614739599
 21
-3.7925378131
  0
LINE
  5
319
100
AcDbEntity
  8
IMPORT_IGES
100
AcDbLine
 62
250
  6
CONTINUOUS
 10
34.2614753116
 20
-5.7246599342
 11
34.2614755448
 21
-6.6124388404
  0
LINE
  5
31A
100
AcDbEntity
  8
IMPORT_IGES
100
AcDbLine
 62
250
  6
CONTINUOUS
 10
34.2614739596
 20
-56.3458162995
 11
34.2614739596
 21
-56.4548706661
  0
LINE
  5
31B
100
AcDbEntity
  8
IMPORT_IGES
100
AcDbLine
 62
250
  6
CONTINUOUS
 10
34.2614739596
 20
-58.3869919914
 11
34.2614739596
 21
-58.496046358
  0
LINE
  5
31C
100
AcDbEntity
  8
IMPORT_IGES
100
AcDbLine
 62
250
  6
CONTINUOUS
 10
34.2614739612
 20
0.2898135701
 11
34.2614739612
 21
1.1652204591
  0
LINE
  5
31D
100
AcDbEntity
  8
IMPORT_IGES
100
AcDbLine
 62
250
  6
CONTINUOUS
 10
34.2614739303
 20
-60.4281676662
 11
34.2614739314
 21
-61.303574543
  0
LINE
  5
31E
100
AcDbEntity
  8
IMPORT_IGES
100
AcDbLine
 62
250
  6
CONTINUOUS
 10
34.261475573
 20
-54.4136959056
 11
34.261475573
 21
-53.9235052376
  0
LINE
  5
31F
100
AcDbEntity
  8
IMPORT_IGES
100
AcDbLine
 62
250
  6
CONTINUOUS
 10
36.3579616141
 20
-7.0138591085
 11
36.3579616139
 21
-53.9550947281
  0
LINE
  5
320
100
AcDbEntity
  8
IMPORT_IGES
100
AcDbLine
 62
250
  6
CONTINUOUS
 10
36.3641244732
 20
1.154627284
 11
36.3641272863
 21
-6.602025222
  0
LINE
  5
321
100
AcDbEntity
  8
IMPORT_IGES
100
AcDbLine
 62
250
  6
CONTINUOUS
 10
36.3641251758
 20
-61.3141674186
 11
36.3641271771
 21
-53.9550947298
  0
LWPOLYLINE
  5
322
100
AcDbEntity
  8
IMPORT_IGES
100
AcDbPolyline
 62
250
  6
CONTINUOUS
 90
16
 70
0
 10
34.2614739292
 20
-1.6423077334
 10
34.2620674223
 20
-1.6270206195
 10
34.2638524433
 20
-1.6111117095
 10
34.2668281153
 20
-1.5947096724
 10
34.2709992027
 20
-1.577892703
 10
34.2763352294
 20
-1.5608591279
 10
34.2827322918
 20
-1.5439288594
 10
34.2900368825
 20
-1.5274118251
 10
34.298227834
 20
-1.5112736678
 10
34.3074099182
 20
-1.4953310413
 10
34.3176412633
 20
-1.4795909067
 10
34.3287770234
 20
-1.464376812
 10
34.3406311993
 20
-1.4499875171
 10
34.3530628114
 20
-1.4366048866
 10
34.3659991482
 20
-1.4243174636
 10
34.3793250622
 20
-1.4132518557
  0
LWPOLYLINE
  5
323
100
AcDbEntity
  8
IMPORT_IGES
100
AcDbPolyline
 62
250
  6
CONTINUOUS
 90
16
 70
0
 10
34.2614739292
 20
-3.6834834254
 10
34.2620674223
 20
-3.6681963115
 10
34.2638524433
 20
-3.6522874015
 10
34.2668281153
 20
-3.6358853643
 10
34.2709992027
 20
-3.619068395
 10
34.2763352294
 20
-3.6020348199
 10
34.2827322918
 20
-3.5851045513
 10
34.2900368825
 20
-3.5685875171
 10
34.298227834
 20
-3.5524493598
 10
34.3074099182
 20
-3.5365067333
 10
34.3176412633
 20
-3.5207665987
 10
34.3287770234
 20
-3.505552504
 10
34.3406311993
 20
-3.4911632091
 10
34.3530628114
 20
-3.4777805785
 10
34.3659991482
 20
-3.4654931555
 10
34.3793250622
 20
-3.4544275477
  0
LWPOLYLINE
  5
324
100
AcDbEntity
  8
IMPORT_IGES
100
AcDbPolyline
 62
250
  6
CONTINUOUS
 90
16
 70
0
 10
34.2614739292
 20
-5.7246591173
 10
34.2620674223
 20
-5.7093720035
 10
34.2638524433
 20
-5.6934630935
 10
34.2668281153
 20
-5.6770610563
 10
34.2709992027
 20
-5.660244087
 10
34.2763352294
 20
-5.6432105119
 10
34.2827322918
 20
-5.6262802433
 10
34.2900368825
 20
-5.609763209
 10
34.298227834
 20
-5.5936250517
 10
34.3074099182
 20
-5.5776824253
 10
34.3176412633
 20
-5.5619422907
 10
34.3287770234
 20
-5.546728196
 10
34.3406311993
 20
-5.5323389011
 10
34.3530628114
 20
-5.5189562705
 10
34.3659991482
 20
-5.5066688475
 10
34.3793250622
 20
-5.4956032397
  0
LWPOLYLINE
  5
325
100
AcDbEntity
  8
IMPORT_IGES
100
AcDbPolyline
 62
250
  6
CONTINUOUS
 90
16
 70
0
 10
34.2614739292
 20
-56.3458162785
 10
34.2620674221
 20
-56.3305291674
 10
34.2638524425
 20
-56.3146202592
 10
34.2668281141
 20
-56.2982182229
 10
34.2709992012
 20
-56.2814012531
 10
34.2763352281
 20
-56.2643676765
 10
34.2827322912
 20
-56.2474374058
 10
34.2900368834
 20
-56.2309203682
 10
34.2982278371
 20
-56.2147822071
 10
34.3074099233
 20
-56.1988395779
 10
34.31764127
 20
-56.183099442
 10
34.3287770312
 20
-56.1678853471
 10
34.340631207
 20
-56.1534960532
 10
34.3530628178
 20
-56.140113425
 10
34.365999152
 20
-56.1278260052
 10
34.3793250621
 20
-56.1167604008
  0
LWPOLYLINE
  5
326
100
AcDbEntity
  8
IMPORT_IGES
100
AcDbPolyline
 62
250
  6
CONTINUOUS
 90
16
 70
0
 10
34.2614739292
 20
-58.3869919704
 10
34.2620674221
 20
-58.3717048593
 10
34.2638524425
 20
-58.3557959512
 10
34.2668281141
 20
-58.3393939148
 10
34.2709992012
 20
-58.3225769451
 10
34.2763352281
 20
-58.3055433685
 10
34.2827322912
 20
-58.2886130977
 10
34.2900368834
 20
-58.2720960602
 10
34.2982278371
 20
-58.255957899
 10
34.3074099233
 20
-58.2400152699
 10
34.31764127
 20
-58.224275134
 10
34.3287770312
 20
-58.209061039
 10
34.340631207
 20
-58.1946717452
 10
34.3530628178
 20
-58.181289117
 10
34.365999152
 20
-58.1690016971
 10
34.3793250621
 20
-58.1579360928
  0
LWPOLYLINE
  5
327
100
AcDbEntity
  8
IMPORT_IGES
100
AcDbPolyline
 62
250
  6
CONTINUOUS
 90
16
 70
0
 10
34.2614739292
 20
-60.4281676624
 10
34.2620674221
 20
-60.4128805513
 10
34.2638524425
 20
-60.3969716431
 10
34.2668281141
 20
-60.3805696068
 10
34.2709992012
 20
-60.3637526371
 10
34.2763352281
 20
-60.3467190605
 10
34.2827322912
 20
-60.3297887897
 10
34.2900368834
 20
-60.3132717522
 10
34.2982278371
 20
-60.297133591
 10
34.3074099233
 20
-60.2811909619
 10
34.31764127
 20
-60.265450826
 10
34.3287770312
 20
-60.250236731
 10
34.340631207
 20
-60.2358474372
 10
34.3530628178
 20
-60.222464809
 10
34.365999152
 20
-60.2101773891
 10
34.3793250621
 20
-60.1991117848
  0
LINE
  5
328
100
AcDbEntity
  8
IMPORT_IGES
100
AcDbLine
 62
250
  6
CONTINUOUS
 10
-34.0069228644
 20
61.9901798479
 11
-34.0221365879
 21
61.9986146866
  0
LWPOLYLINE
  5
329
100
AcDbEntity
  8
IMPORT_IGES
100
AcDbPolyline
 62
7
  6
CONTINUOUS
 90
13
 70
0
 10
-34.7384462184
 20
61.9263685302
 10
-34.7991097034
 20
61.9605057234
 10
-34.8596188418
 20
61.9903361186
 10
-34.9197687996
 20
62.0157611521
 10
-34.9793550462
 20
62.0366969199
 10
-35.038177396
 20
62.0530756592
 10
-35.0960405279
 20
62.0648451025
 10
-35.1527490377
 20
62.0719672978
 10
-35.2081117632
 20
62.0744200658
 10
-35.2619453762
 20
62.0721967205
 10
-35.314068524
 20
62.0653057547
 10
-35.364305153
 20
62.0537714793
 10
-35.4124880997
 20
62.0376330379
  0
LINE
  5
32A
100
AcDbEntity
  8
IMPORT_IGES
100
AcDbLine
 62
250
  6
CONTINUOUS
 10
-34.7384471181
 20
61.926369076
 11
51.3184308639
 21
12.2382062752
  0
LINE
  5
32B
100
AcDbEntity
  8
IMPORT_IGES
100
AcDbLine
 62
7
  6
CONTINUOUS
 10
52.0499571926
 20
12.302015849
 11
-34.0069228644
 21
61.9901798479
  0
LWPOLYLINE
  5
32C
100
AcDbEntity
  8
IMPORT_IGES
100
AcDbPolyline
 62
250
  6
CONTINUOUS
 90
28
 70
0
 10
51.3184296813
 20
12.2382069227
 10
51.3811226988
 20
12.2011225847
 10
51.4435410563
 20
12.1599860266
 10
51.5054736461
 20
12.114936383
 10
51.5667106404
 20
12.0661263252
 10
51.6270453019
 20
12.0137206802
 10
51.6862746244
 20
11.9578956633
 10
51.7441987222
 20
11.8988393776
 10
51.8006210716
 20
11.8367518876
 10
51.8553502797
 20
11.7718436168
 10
51.9082012565
 20
11.7043339379
 10
51.9589950824
 20
11.6344512482
 10
52.0075592439
 20
11.5624328574
 10
52.053729151
 20
11.4885229787
 10
52.0973490419
 20
11.4129711003
 10
52.1382717805
 20
11.3360320622
 10
52.1763592031
 20
11.2579654466
 10
52.2114820751
 20
11.1790359478
 10
52.2435210698
 20
11.0995117793
 10
52.2723678418
 20
11.0196621482
 10
52.297924994
 20
10.9397569697
 10
52.3201060123
 20
10.860067179
 10
52.3388359194
 20
10.7808629581
 10
52.3540517603
 20
10.702411489
 10
52.3657024363
 20
10.6249767578
 10
52.3737485972
 20
10.5488202247
 10
52.3781629732
 20
10.4741998883
 10
52.3789306529
 20
10.4013681118
  0
LWPOLYLINE
  5
32D
100
AcDbEntity
  8
IMPORT_IGES
100
AcDbPolyline
 62
250
  6
CONTINUOUS
 90
14
 70
0
 10
-34.0221365879
 20
61.9986146866
 10
-34.0673319404
 20
62.0198446364
 10
-34.1148098844
 20
62.0366783572
 10
-34.1644129833
 20
62.0490598688
 10
-34.2159764047
 20
62.0569480418
 10
-34.2693289166
 20
62.0603168707
 10
-34.3242944725
 20
62.0591554225
 10
-34.3806921599
 20
62.05346751
 10
-34.4383359393
 20
62.0432717116
 10
-34.4970345909
 20
62.0286016691
 10
-34.5565933011
 20
62.0095060153
 10
-34.6168147833
 20
61.9860480329
 10
-34.6774999629
 20
61.9583052962
 10
-34.7384480322
 20
61.926369614
  0
LWPOLYLINE
  5
32E
100
AcDbEntity
  8
IMPORT_IGES
100
AcDbPolyline
 62
7
  6
CONTINUOUS
 90
28
 70
0
 10
44.2968989792
 20
5.7348894237
 10
44.294886981
 20
5.8077512061
 10
44.2893753631
 20
5.8818832881
 10
44.2803641256
 20
5.9572856696
 10
44.2678036327
 20
6.0342148664
 10
44.2517435202
 20
6.1124143628
 10
44.2323326953
 20
6.1911146112
 10
44.2095317146
 20
6.2703237914
 10
44.1833800214
 20
6.3500337236
 10
44.1541448526
 20
6.4294503217
 10
44.1217970475
 20
6.5085693724
 10
44.0863657668
 20
6.587395089
 10
44.048205729
 20
6.6651460248
 10
44.007290697
 20
6.7418119503
 10
43.963646908
 20
6.8174030951
 10
43.9177077922
 20
6.8911687014
 10
43.8694513651
 20
6.9630911722
 10
43.8188996111
 20
7.0331881045
 10
43.7665519142
 20
7.1007615319
 10
43.7123900375
 20
7.1657883156
 10
43.6564322177
 20
7.2282915943
 10
43.5992325496
 20
7.2876428176
 10
43.5407783946
 20
7.34381212
 10
43.4810823912
 20
7.396829367
 10
43.4207365487
 20
7.4461556037
 10
43.3599382038
 20
7.4916111787
 10
43.2984900199
 20
7.5333757435
 10
43.236391997
 20
7.5714492981
  0
LINE
  5
32F
100
AcDbEntity
  8
IMPORT_IGES
100
AcDbLine
 62
7
  6
CONTINUOUS
 10
44.2968989801
 20
-2.0217574542
 11
44.2968989792
 21
5.7348894237
  0
LINE
  5
330
100
AcDbEntity
  8
IMPORT_IGES
100
AcDbLine
 62
7
  6
CONTINUOUS
 10
44.2968972201
 20
-57.0481773585
 11
44.2968988907
 21
-49.6857911748
  0
LINE
  5
331
100
AcDbEntity
  8
IMPORT_IGES
100
AcDbLine
 62
7
  6
CONTINUOUS
 10
44.333657484
 20
6.9807142978
 11
44.333657484
 21
-2.0429813536
  0
LINE
  5
332
100
AcDbEntity
  8
IMPORT_IGES
100
AcDbLine
 62
7
  6
CONTINUOUS
 10
44.333657484
 20
-49.6660235929
 11
44.333657484
 21
-56.7033454355
  0
LINE
  5
333
100
AcDbEntity
  8
IMPORT_IGES
100
AcDbLine
 62
7
  6
CONTINUOUS
 10
44.6504523707
 20
-49.4956615547
 11
44.6504523707
 21
-2.2258947508
  0
LINE
  5
334
100
AcDbEntity
  8
IMPORT_IGES
100
AcDbLine
 62
7
  6
CONTINUOUS
 10
45.0657165387
 20
6.1787979349
 11
45.0657187352
 21
-1.57785745
  0
LINE
  5
335
100
AcDbEntity
  8
IMPORT_IGES
100
AcDbLine
 62
7
  6
CONTINUOUS
 10
45.0657187352
 20
-48.9901396708
 11
45.0657187352
 21
-56.7467938156
  0
LINE
  5
336
100
AcDbEntity
  8
IMPORT_IGES
100
AcDbLine
 62
7
  6
CONTINUOUS
 10
45.4192721258
 20
-1.7819947467
 11
45.4192721258
 21
-49.1942769675
  0
LINE
  5
337
100
AcDbEntity
  8
IMPORT_IGES
100
AcDbLine
 62
7
  6
CONTINUOUS
 10
50.2826265502
 20
-0.1774516462
 11
50.2826265498
 21
-44.9832038553
  0
LINE
  5
338
100
AcDbEntity
  8
IMPORT_IGES
100
AcDbLine
 62
250
  6
CONTINUOUS
 10
52.3789306529
 20
10.4013681118
 11
52.3789306529
 21
-52.2241938785
  0
LINE
  5
339
100
AcDbEntity
  8
IMPORT_IGES
100
AcDbLine
 62
7
  6
CONTINUOUS
 10
52.7999209524
 20
11.0029986673
 11
52.7999209524
 21
-51.622563323
  0
LWPOLYLINE
  5
33A
100
AcDbEntity
  8
IMPORT_IGES
100
AcDbPolyline
 62
250
  6
CONTINUOUS
 90
15
 70
0
 10
52.7999209524
 20
11.0029986673
 10
52.7996198189
 20
10.9856452216
 10
52.7954104998
 20
10.9358849463
 10
52.7862527747
 20
10.8863468008
 10
52.7721769456
 20
10.8371946496
 10
52.7532294718
 20
10.7885908653
 10
52.7294728364
 20
10.7406960395
 10
52.700985658
 20
10.6936689208
 10
52.6678624787
 20
10.647665591
 10
52.6302131742
 20
10.6028384912
 10
52.5881622239
 20
10.5593356906
 10
52.5418485532
 20
10.517300881
 10
52.4914252956
 20
10.4768730815
 10
52.4370593687
 20
10.4381861522
 10
52.3789306529
 20
10.4013681118
  0
LINE
  5
33B
100
AcDbEntity
  8
IMPORT_IGES
100
AcDbLine
 62
7
  6
CONTINUOUS
 10
45.4192721258
 20
-49.1942769675
 11
49.2586594886
 21
-46.8199422303
  0
LINE
  5
33C
100
AcDbEntity
  8
IMPORT_IGES
100
AcDbLine
 62
7
  6
CONTINUOUS
 10
44.6504523707
 20
-49.4956615547
 11
36.3579616139
 21
-53.9550947281
  0
LWPOLYLINE
  5
33D
100
AcDbEntity
  8
IMPORT_IGES
100
AcDbPolyline
 62
7
  6
CONTINUOUS
 90
28
 70
0
 10
49.258663019
 20
-46.8199340293
 10
49.3189342353
 20
-46.7805736064
 10
49.3785427017
 20
-46.7376365759
 10
49.4374884181
 20
-46.6911229379
 10
49.4959601325
 20
-46.6408545432
 10
49.5537690969
 20
-46.587009541
 10
49.610349067
 20
-46.5301223783
 10
49.6656877163
 20
-46.4701643445
 10
49.7197973713
 20
-46.4071641504
 10
49.7721487668
 20
-46.3417423745
 10
49.8227249348
 20
-46.2738754977
 10
49.8715428434
 20
-46.2035870393
 10
49.918124132
 20
-46.1315681355
 10
49.9624469706
 20
-46.0578022104
 10
50.0045331892
 20
-45.9823058401
 10
50.0439699165
 20
-45.9058198886
 10
50.0807315751
 20
-45.8283344449
 10
50.1148437424
 20
-45.7498594201
 10
50.14597028
 20
-45.6711654119
 10
50.1740821785
 20
-45.5922504092
 10
50.1992084473
 20
-45.5131164232
 10
50.2210999756
 20
-45.4345400843
 10
50.2397253865
 20
-45.3565262714
 10
50.2551160569
 20
-45.2790701056
 10
50.2671170065
 20
-45.2029335817
 10
50.2756765751
 20
-45.1283706977
 10
50.2808464229
 20
-45.0551274556
 10
50.2826265498
 20
-44.9832038553
  0
LINE
  5
33E
100
AcDbEntity
  8
IMPORT_IGES
100
AcDbLine
 62
7
  6
CONTINUOUS
 10
44.333657484
 20
-56.4235755541
 11
44.2968973566
 21
-56.4463085683
  0
LINE
  5
33F
100
AcDbEntity
  8
IMPORT_IGES
100
AcDbLine
 62
250
  6
CONTINUOUS
 10
44.2968989801
 20
-57.0481784023
 11
36.3641251758
 21
-61.3141674186
  0
LWPOLYLINE
  5
340
100
AcDbEntity
  8
IMPORT_IGES
100
AcDbPolyline
 62
7
  6
CONTINUOUS
 90
14
 70
0
 10
52.0973385178
 20
-52.8929664964
 10
52.138240364
 20
-52.8635067141
 10
52.1763106352
 20
-52.8298528844
 10
52.2114203651
 20
-52.7921184692
 10
52.2434520761
 20
-52.7504286628
 10
52.2722966918
 20
-52.7049237734
 10
52.297856186
 20
-52.6557566067
 10
52.3200446904
 20
-52.6030892674
 10
52.3387858378
 20
-52.5470983898
 10
52.3540147996
 20
-52.4879721667
 10
52.3656791872
 20
-52.4259058759
 10
52.3737375985
 20
-52.3611067536
 10
52.3781604377
 20
-52.293793868
 10
52.3789306529
 20
-52.2241938785
  0
LWPOLYLINE
  5
341
100
AcDbEntity
  8
IMPORT_IGES
100
AcDbPolyline
 62
250
  6
CONTINUOUS
 90
15
 70
0
 10
52.3789306529
 20
-52.2241938785
 10
52.4370592945
 20
-52.187375888
 10
52.4914252835
 20
-52.1486889179
 10
52.5418487113
 20
-52.1082609745
 10
52.5881628382
 20
-52.0662257051
 10
52.630214248
 20
-52.0227223091
 10
52.6678634771
 20
-51.9778951179
 10
52.7009858199
 20
-51.931892825
 10
52.7294720665
 20
-51.8848673496
 10
52.7532283444
 20
-51.8369736726
 10
52.7721760794
 20
-51.7883699048
 10
52.7862523017
 20
-51.7392171985
 10
52.7954102913
 20
-51.6896785932
 10
52.79961977
 20
-51.639918178
 10
52.7999209524
 20
-51.622563323
  0
LINE
  5
342
100
AcDbEntity
  8
IMPORT_IGES
100
AcDbLine
 62
7
  6
CONTINUOUS
 10
52.0888693206
 20
-52.898322106
 11
52.0973385178
 21
-52.8929664964
  0
LWPOLYLINE
  5
343
100
AcDbEntity
  8
IMPORT_IGES
100
AcDbPolyline
 62
7
  6
CONTINUOUS
 90
15
 70
0
 10
44.7681166859
 20
-57.4255509836
 10
44.7766419047
 20
-57.4201643463
 10
44.8175942695
 20
-57.3907044493
 10
44.8557808747
 20
-57.3569646286
 10
44.8912287189
 20
-57.3189869814
 10
44.9235807873
 20
-57.2771506883
 10
44.9528064109
 20
-57.2314176718
 10
44.9789362587
 20
-57.1818260093
 10
45.0017053227
 20
-57.1288691138
 10
45.0210806187
 20
-57.0725133396
 10
45.0370951309
 20
-57.0127923323
 10
45.0495828041
 20
-56.9503004413
 10
45.0584882868
 20
-56.8852357831
 10
45.0638669304
 20
-56.8174002412
 10
45.0657187352
 20
-56.7467938156
  0
LINE
  5
344
100
AcDbEntity
  8
IMPORT_IGES
100
AcDbLine
 62
250
  6
CONTINUOUS
 10
52.3789306529
 20
-52.2241938785
 11
45.0657187352
 21
-56.7467938156
  0
LINE
  5
345
100
AcDbEntity
  8
IMPORT_IGES
100
AcDbLine
 62
7
  6
CONTINUOUS
 10
52.0888693206
 20
-52.898322106
 11
44.7681315552
 21
-57.4255761535
  0
LWPOLYLINE
  5
346
100
AcDbEntity
  8
IMPORT_IGES
100
AcDbPolyline
 62
250
  6
CONTINUOUS
 90
15
 70
0
 10
36.0325711171
 20
-62.0122528414
 10
36.067232828
 20
-61.9917733277
 10
36.108333249
 20
-61.9621926735
 10
36.1467741267
 20
-61.9283126622
 10
36.1824255005
 20
-61.8902478769
 10
36.2151668271
 20
-61.848127035
 10
36.2448876315
 20
-61.8020921469
 10
36.2714870444
 20
-61.752299326
 10
36.2948744785
 20
-61.6989185474
 10
36.3149707298
 20
-61.6421317673
 10
36.3317086009
 20
-61.5821303506
 10
36.3450321685
 20
-61.5191156388
 10
36.3548964741
 20
-61.4533001072
 10
36.3612679922
 20
-61.3849069344
 10
36.3641251756
 20
-61.3141674292
  0
LWPOLYLINE
  5
347
100
AcDbEntity
  8
IMPORT_IGES
100
AcDbPolyline
 62
7
  6
CONTINUOUS
 90
15
 70
0
 10
43.9731271709
 20
-57.7420406008
 10
44.0078009314
 20
-57.7215574349
 10
44.0487324245
 20
-57.6921167956
 10
44.0869031495
 20
-57.6584013621
 10
44.1223394703
 20
-57.6204518638
 10
44.1546855147
 20
-57.5786415199
 10
44.1839119743
 20
-57.5329322591
 10
44.2100481573
 20
-57.4833621527
 10
44.2328261169
 20
-57.4304186343
 10
44.2522135026
 20
-57.3740683811
 10
44.2682426648
 20
-57.3143447158
 10
44.2807427073
 20
-57.2518350407
 10
44.2896566646
 20
-57.1867351565
 10
44.2950415022
 20
-57.1188492624
 10
44.2968972201
 20
-57.0481773585
  0
LINE
  5
348
100
AcDbEntity
  8
IMPORT_IGES
100
AcDbLine
 62
7
  6
CONTINUOUS
 10
43.9731436889
 20
-57.7420698792
 11
36.0325711169
 21
-62.0122528415
  0
ARC
  5
349
100
AcDbEntity
  8
IMPORT_IGES
100
AcDbCircle
 62
7
  6
CONTINUOUS
 10
-34.7569591046
 20
60.6911626661
 40
1.5
100
AcDbArc
 50
59.9984015662
 51
118.2726412469
  0
ARC
  5
34A
100
AcDbEntity
  8
IMPORT_IGES
100
AcDbCircle
 62
7
  6
CONTINUOUS
 10
51.2999209524
 20
-51.622563323
 40
1.5
100
AcDbArc
 50
301.7306055282
 51
359.999999999
  0
ARC
  5
34B
100
AcDbEntity
  8
IMPORT_IGES
100
AcDbCircle
 62
7
  6
CONTINUOUS
 10
51.2999209524
 20
11.0029986673
 40
1.5
100
AcDbArc
 50
0.0000000001
 51
60.0029171048
  0
ARC
  5
34C
100
AcDbEntity
  8
IMPORT_IGES
100
AcDbCircle
 62
7
  6
CONTINUOUS
 10
-50.59897741
 20
51.3874053095
 40
1.5
100
AcDbArc
 50
121.7332676887
 51
180.0000008198
  0
ARC
  5
34D
100
AcDbEntity
  8
IMPORT_IGES
100
AcDbCircle
 62
7
  6
CONTINUOUS
 10
35.3221341044
 20
-60.6911626661
 40
1.5
100
AcDbArc
 50
239.994150613
 51
298.2697979372
  0
ARC
  5
34E
100
AcDbEntity
  8
IMPORT_IGES
100
AcDbCircle
 62
7
  6
CONTINUOUS
 10
-50.59897741
 20
-11.0813897221
 40
1.5
100
AcDbArc
 50
180.0000000001
 51
239.9984015643
  0
ELLIPSE
  5
34F
100
AcDbEntity
  8
IMPORT_IGES
100
AcDbEllipse
 62
7
  6
CONTINUOUS
 10
35.3159628071
 20
-53.3324671863
 30
0.0
 11
1.4999467257
 21
-0.0222874377
 31
0.0
 40
0.5672251703
 41
-2.347760707
 42
-0.7944129318
  0
ENDSEC
  0
SECTION
  2
OBJECTS
  0
DICTIONARY
  5
C
100
AcDbDictionary
280
0
281
1
  3
ACAD_GROUP
350
D
  3
ACAD_MLINESTYLE
350
17
  3
ACAD_LAYOUT
350
1A
  3
ACAD_PLOTSETTINGS
350
19
  3
ACAD_PLOTSTYLENAME
350
E
  0
DICTIONARY
  5
D
102
{ACAD_REACTORS
330
C
102
}
100
AcDbDictionary
280
0
281
1
  0
ACDBDICTIONARYWDFLT
  5
E
102
{ACAD_REACTORS
330
C
102
}
100
AcDbDictionary
281
1
  3
Normal
350
F
100
AcDbDictionaryWithDefault
340
F
  0
DICTIONARY
  5
17
102
{ACAD_REACTORS
330
C
102
}
100
AcDbDictionary
280
0
281
1
  3
Standard
350
18
  0
DICTIONARY
  5
19
102
{ACAD_REACTORS
330
C
102
}
100
AcDbDictionary
281
1
  0
DICTIONARY
  5
1A
102
{ACAD_REACTORS
330
C
102
}
100
AcDbDictionary
281
1
  3
Model
350
350
  3
Layout1
350
351
  0
ACDBPLACEHOLDER
  5
F
102
{ACAD_REACTORS
330
E
102
}
  0
MLINESTYLE
  5
18
102
{ACAD_REACTORS
330
17
102
}
100
AcDbMlineStyle
  2
STANDARD
 70
0
  3

 62
256
 51
90.0
 52
90.0
 71
2
 49
0.5
 62
256
  6
BYLAYER
 49
-0.5
 62
256
  6
BYLAYER
  0
LAYOUT
  5
350
102
{ACAD_REACTORS
330
1A
102
}
100
AcDbPlotSettings
  1

  2
none_device
  4
ISO_A3_(420.00_x_297.00_MM)
  6

 40
0.0
 41
0.0
 42
0.0
 43
0.0
 44
420.0
 45
297.0
 46
0.0
 47
0.0
 48
0.0
 49
0.0
140
0.0
141
0.0
142
1.0
143
1.0
 70
1024
 72
1
 73
0
 74
0
  7

 75
0
147
1.0
148
0.0
149
0.0
100
AcDbLayout
  1
Model
 70
0
 71
0
 10
0.0
 20
0.0
 11
420.0
 21
297.0
 12
0.0
 22
0.0
 32
0.0
 14
0.0
 24
0.0
 34
0.0
 15
0.0
 25
0.0
 35
0.0
146
0.0
 13
0.0
 23
0.0
 33
0.0
 16
1.0
 26
0.0
 36
0.0
 17
0.0
 27
1.0
 37
0.0
 76
0
330
218
345
0
346
0
  0
LAYOUT
  5
351
102
{ACAD_REACTORS
330
1A
102
}
100
AcDbPlotSettings
  1

  2
none_device
  4
ISO_A3_(420.00_x_297.00_MM)
  6

 40
0.0
 41
0.0
 42
0.0
 43
0.0
 44
420.0
 45
297.0
 46
0.0
 47
0.0
 48
0.0
 49
0.0
140
0.0
141
0.0
142
1.0
143
1.0
 70
0
 72
1
 73
0
 74
0
  7

 75
0
147
1.0
148
0.0
149
0.0
100
AcDbLayout
  1
Layout1
 70
0
 71
1
 10
0.0
 20
0.0
 11
420.0
 21
297.0
 12
0.0
 22
0.0
 32
0.0
 14
0.0
 24
0.0
 34
0.0
 15
0.0
 25
0.0
 35
0.0
146
0.0
 13
0.0
 23
0.0
 33
0.0
 16
1.0
 26
0.0
 36
0.0
 17
0.0
 27
1.0
 37
0.0
 76
0
330
219
345
0
346
0
  0
ENDSEC
  0
EOF
