  0
SECTION
  2
HEADER
  9
$ACADVER
  1
AC1024
  9
$DWGCODEPAGE
  3
ANSI_1252
  9
$EXTMAX
 10
297.0
 20
210.0
 30
0.0
  9
$EXTMIN
 10
0.0
 20
0.0
 30
0.0
  9
$LIMMIN
 10
0.0
 20
0.0
  9
$LIMMAX
 10
297.0
 20
210.0
  9
$VIEWCTR
 10
148.5
 20
105.0
  9
$VIEWSIZE
 40
210.0
  9
$CLAYER
  8
0
  9
$LTSCALE
 40
16.335
  9
$CELTYPE
  6
BYLAYER
  9
$DIMSCALE
 40
1.0
  9
$DIMASZ
 40
3.0
  9
$DIMEXO
 40
0.5
  9
$DIMDLI
 40
11.286
  9
$DIMEXE
 40
1.5
  9
$DIMCEN
 40
2.673
  9
$DIMLFAC
 40
1.0
  9
$DIMBLK
  1
_FILLED
  9
$DIMALT
 70
0
  9
$DIMALTF
 40
0.0393700787
  9
$DIMTXT
 40
3.0
  9
$DIMTOL
 70
1
  9
$DIMLIM
 70
0
  9
$DIMTFAC
 40
1.0
  9
$DIMTP
 40
0.01
  9
$DIMTM
 40
0.01
  9
$DIMGAP
 40
0.625
  9
$DIMDSEP
 70
44
  9
$AUNITS
 70
0
  9
$PDMODE
 70
3
  9
$PDSIZE
 40
3.0
  9
$HANDSEED
  5
375
  9
$TILEMODE
 70
1
  9
$MEASUREMENT
 70
1
  9
$INSUNITS
 70
4
  0
ENDSEC
  0
SECTION
  2
CLASSES
  0
CLASS
  1
ACDBDICTIONARYWDFLT
  2
AcDbDictionaryWithDefault
  3
AutoCAD 2000
 90
0
 91
1
280
0
281
0
  0
CLASS
  1
ACDBPLACEHOLDER
  2
AcDbPlaceHolder
  3
AutoCAD 2000
 90
0
 91
1
280
0
281
0
  0
CLASS
  1
LAYOUT
  2
AcDbLayout
  3
AutoCAD 2000
 90
0
 91
0
280
0
281
0
  0
ENDSEC
  0
SECTION
  2
TABLES
  0
TABLE
  2
VPORT
  5
8
100
AcDbSymbolTable
 70
2
  0
VPORT
  5
1F4
100
AcDbSymbolTableRecord
100
AcDbViewportTableRecord
  2
*ACTIVE
 70
0
 10
0.0
 20
0.0
 11
1.0
 21
1.0
 12
148.5
 22
105.0
 13
0.0
 23
0.0
 14
1.0
 24
1.0
 15
0.0
 25
0.0
 16
0.0
 26
0.0
 36
1.0
 17
0.0
 27
0.0
 37
0.0
 40
210.0
 41
1.4142857143
 42
50.0
 43
0.0
 44
0.0
 50
0.0
 51
0.0
 71
0
 72
100
 73
1
 74
1
 75
0
 76
0
 77
0
 78
0
  0
ENDTAB
  0
TABLE
  2
LTYPE
  5
5
100
AcDbSymbolTable
 70
6
  0
LTYPE
  5
14
100
AcDbSymbolTableRecord
100
AcDbLinetypeTableRecord
  2
BYBLOCK
 70
0
  3

 72
65
 73
0
 40
0.0
  0
LTYPE
  5
15
100
AcDbSymbolTableRecord
100
AcDbLinetypeTableRecord
  2
BYLAYER
 70
0
  3

 72
65
 73
0
 40
0.0
  0
LTYPE
  5
16
100
AcDbSymbolTableRecord
100
AcDbLinetypeTableRecord
  2
CONTINUOUS
 70
64
  3
Solid line
 72
65
 73
0
 40
0.0
  0
LTYPE
  5
1F5
100
AcDbSymbolTableRecord
100
AcDbLinetypeTableRecord
  2
CENTER
 70
64
  3
____ _ ____ _ ____ _ ____ _ ____ _ ____ _ ____
 72
65
 73
4
 40
0.6
 49
0.375
 74
0
 49
-0.075
 74
0
 49
0.075
 74
0
 49
-0.075
 74
0
  0
LTYPE
  5
1F6
100
AcDbSymbolTableRecord
100
AcDbLinetypeTableRecord
  2
HIDDEN
 70
64
  3
- - - - - - - - - - - - - - - - - - - -
 72
65
 73
2
 40
0.2
 49
0.1
 74
0
 49
-0.1
 74
0
  0
LTYPE
  5
1F7
100
AcDbSymbolTableRecord
100
AcDbLinetypeTableRecord
  2
PHANTOM
 70
64
  3
_____ _ _ _____ _ _ _____ _ _ _____
 72
65
 73
6
 40
0.8
 49
0.45
 74
0
 49
-0.05
 74
0
 49
0.1
 74
0
 49
-0.05
 74
0
 49
0.1
 74
0
 49
-0.05
 74
0
  0
LTYPE
  5
1F8
100
AcDbSymbolTableRecord
100
AcDbLinetypeTableRecord
  2
DOT
 70
64
  3
. . . . . . . . . . . . . . . . . . . .
 72
65
 73
2
 40
0.2
 49
0.1
 74
0
 49
-0.1
 74
0
  0
LTYPE
  5
1F9
100
AcDbSymbolTableRecord
100
AcDbLinetypeTableRecord
  2
DASHED
 70
64
  3
- - - - - - - - - - - - - - - - - - - -
 72
65
 73
2
 40
0.2
 49
0.1
 74
0
 49
-0.1
 74
0
  0
ENDTAB
  0
TABLE
  2
LAYER
  5
2
100
AcDbSymbolTable
 70
36
  0
LAYER
  5
10
100
AcDbSymbolTableRecord
100
AcDbLayerTableRecord
  2
0
 70
0
 62
7
  6
CONTINUOUS
370
-3
390
F
  0
LAYER
  5
1FA
100
AcDbSymbolTableRecord
100
AcDbLayerTableRecord
  2
DEFAULT_1
 70
0
 62
7
  6
CENTER
370
-3
390
F
  0
LAYER
  5
1FB
100
AcDbSymbolTableRecord
100
AcDbLayerTableRecord
  2
DEFAULT_2
 70
0
 62
7
  6
HIDDEN
370
-3
390
F
  0
LAYER
  5
1FC
100
AcDbSymbolTableRecord
100
AcDbLayerTableRecord
  2
DEFAULT_3
 70
0
 62
7
  6
PHANTOM
370
-3
390
F
  0
LAYER
  5
1FD
100
AcDbSymbolTableRecord
100
AcDbLayerTableRecord
  2
ASSI
 70
0
 62
7
  6
CONTINUOUS
370
-3
390
F
  0
LAYER
  5
1FE
100
AcDbSymbolTableRecord
100
AcDbLayerTableRecord
  2
COORDINATE
 70
0
 62
7
  6
CONTINUOUS
370
-3
390
F
  0
LAYER
  5
1FF
100
AcDbSymbolTableRecord
100
AcDbLayerTableRecord
  2
COPY_PUBLISH
 70
0
 62
7
  6
CONTINUOUS
370
-3
390
F
  0
LAYER
  5
200
100
AcDbSymbolTableRecord
100
AcDbLayerTableRecord
  2
COSMETICI
 70
0
 62
7
  6
CONTINUOUS
370
-3
390
F
  0
LAYER
  5
201
100
AcDbSymbolTableRecord
100
AcDbLayerTableRecord
  2
CURVE
 70
0
 62
7
  6
CONTINUOUS
370
-3
390
F
  0
LAYER
  5
202
100
AcDbSymbolTableRecord
100
AcDbLayerTableRecord
  2
DRAFT
 70
0
 62
7
  6
CONTINUOUS
370
-3
390
F
  0
LAYER
  5
203
100
AcDbSymbolTableRecord
100
AcDbLayerTableRecord
  2
IMPORT_IGES
 70
0
 62
7
  6
CONTINUOUS
370
-3
390
F
  0
LAYER
  5
204
100
AcDbSymbolTableRecord
100
AcDbLayerTableRecord
  2
NOTE
 70
0
 62
7
  6
CONTINUOUS
370
-3
390
F
  0
LAYER
  5
205
100
AcDbSymbolTableRecord
100
AcDbLayerTableRecord
  2
PIANI
 70
0
 62
7
  6
CONTINUOUS
370
-3
390
F
  0
LAYER
  5
206
100
AcDbSymbolTableRecord
100
AcDbLayerTableRecord
  2
PUNTI
 70
0
 62
7
  6
CONTINUOUS
370
-3
390
F
  0
LAYER
  5
207
100
AcDbSymbolTableRecord
100
AcDbLayerTableRecord
  2
RACCORDO
 70
0
 62
7
  6
CONTINUOUS
370
-3
390
F
  0
LAYER
  5
208
100
AcDbSymbolTableRecord
100
AcDbLayerTableRecord
  2
SIMBOLI
 70
0
 62
7
  6
CONTINUOUS
370
-3
390
F
  0
LAYER
  5
209
100
AcDbSymbolTableRecord
100
AcDbLayerTableRecord
  2
SMUSSO
 70
0
 62
7
  6
CONTINUOUS
370
-3
390
F
  0
LAYER
  5
20A
100
AcDbSymbolTableRecord
100
AcDbLayerTableRecord
  2
SUPERFICI
 70
0
 62
7
  6
CONTINUOUS
370
-3
390
F
  0
LAYER
  5
20B
100
AcDbSymbolTableRecord
100
AcDbLayerTableRecord
  2
TRASH
 70
0
 62
7
  6
CONTINUOUS
370
-3
390
F
  0
ENDTAB
  0
TABLE
  2
STYLE
  5
3
100
AcDbSymbolTable
 70
1
  0
STYLE
  5
11
100
AcDbSymbolTableRecord
100
AcDbTextStyleTableRecord
  2
STANDARD
 70
0
 40
0.0
 41
0.8
 50
0.0
 71
0
 42
0.2
  3
txt
  4

  0
STYLE
  5
20C
100
AcDbSymbolTableRecord
100
AcDbTextStyleTableRecord
  2
TEXTSTYLE_1
 70
0
 40
0.0
 41
0.8
 50
0.0
 71
0
 42
0.2
  3
gdt
  4

  0
ENDTAB
  0
TABLE
  2
VIEW
  5
6
100
AcDbSymbolTable
 70
0
  0
ENDTAB
  0
TABLE
  2
UCS
  5
7
100
AcDbSymbolTable
 70
0
  0
ENDTAB
  0
TABLE
  2
APPID
  5
9
100
AcDbSymbolTable
 70
1
  0
APPID
  5
20D
100
AcDbSymbolTableRecord
100
AcDbRegAppTableRecord
  2
ACAD
 70
0
  0
ENDTAB
  0
TABLE
  2
BLOCK_RECORD
  5
1
100
AcDbSymbolTable
 70
0
  0
BLOCK_RECORD
  5
20E
100
AcDbSymbolTableRecord
100
AcDbBlockTableRecord
  2
*Model_Space
  0
BLOCK_RECORD
  5
20F
100
AcDbSymbolTableRecord
100
AcDbBlockTableRecord
  2
*Paper_Space
  0
BLOCK_RECORD
  5
210
100
AcDbSymbolTableRecord
100
AcDbBlockTableRecord
  2
_FILLED
  0
ENDTAB
  0
TABLE
  2
DIMSTYLE
  5
A
100
AcDbSymbolTable
 70
1
100
AcDbDimStyleTable
 71
0
  0
DIMSTYLE
105
211
100
AcDbSymbolTableRecord
100
AcDbDimStyleTableRecord
  2
STANDARD
 70
0
  3

  4

 40
1.0
 41
3.0
 42
0.5
 43
0.38
 44
1.5
 45
0.0
 46
0.0
 47
0.01
 48
0.01
140
3.0
141
0.09
142
0.0
143
25.4
144
1.0
145
0.0
146
1.0
147
0.625
 71
1
 72
0
 73
0
 74
0
 75
0
 76
0
 77
1
 78
8
 79
2
170
0
171
1
172
0
173
0
174
0
175
0
176
0
177
0
178
0
270
2
179
2
271
2
272
2
273
2
274
2
275
0
280
0
281
0
282
0
283
1
284
8
285
0
286
0
287
3
288
0
340
11
278
44
341
210
342
210
343
210
344
210
  0
ENDTAB
  0
ENDSEC
  0
SECTION
  2
BLOCKS
  0
BLOCK
  5
20
100
AcDbEntity
  8
0
100
AcDbBlockBegin
  2
*Model_Space
 70
0
 10
0.0
 20
0.0
 30
0.0
  3
*Model_Space
  1

  0
ENDBLK
  5
21
100
AcDbEntity
  8
0
100
AcDbBlockEnd
  0
BLOCK
  5
1C
100
AcDbEntity
  8
0
100
AcDbBlockBegin
  2
*Paper_Space
 70
0
 10
0.0
 20
0.0
 30
0.0
  3
*Paper_Space
  1

  0
ENDBLK
  5
1D
100
AcDbEntity
  8
0
100
AcDbBlockEnd
  0
BLOCK
  5
212
100
AcDbEntity
  8
0
100
AcDbBlockBegin
  2
_FILLED
 70
64
 10
0.0
 20
0.0
  3
_FILLED
  1

  0
SOLID
  5
213
100
AcDbEntity
  8
0
  6
BYBLOCK
 62
0
100
AcDbTrace
 10
0.0
 20
0.0
 11
-1.0
 21
0.3166666667
 12
-1.0
 22
-0.3166666667
 13
-1.0
 23
-0.3166666667
  0
ENDBLK
  5
214
100
AcDbEntity
  8
0
  6
BYBLOCK
 62
0
100
AcDbBlockEnd
  0
ENDSEC
  0
SECTION
  2
ENTITIES
  0
LINE
  5
215
100
AcDbEntity
  8
IMPORT_IGES
100
AcDbLine
 62
7
  6
CONTINUOUS
 10
-67.2956223965
 20
62.0658911102
 11
-59.6042198899
 21
66.7949521806
  0
LINE
  5
216
100
AcDbEntity
  8
IMPORT_IGES
100
AcDbLine
 62
250
  6
CONTINUOUS
 10
-67.2955626301
 20
62.0659278518
 11
-67.2956223965
 21
62.0658911102
  0
LINE
  5
217
100
AcDbEntity
  8
IMPORT_IGES
100
AcDbLine
 62
250
  6
CONTINUOUS
 10
-58.8446837345
 20
66.7263805787
 11
-66.5285368792
 21
62.0019612357
  0
LINE
  5
218
100
AcDbEntity
  8
IMPORT_IGES
100
AcDbLine
 62
7
  6
CONTINUOUS
 10
-58.8765084762
 20
67.2669278359
 11
-58.8633373478
 21
67.2742475787
  0
LINE
  5
219
100
AcDbEntity
  8
IMPORT_IGES
100
AcDbLine
 62
7
  6
CONTINUOUS
 10
-58.8633464504
 20
67.274263728
 11
-51.2825005301
 21
71.3509973381
  0
LINE
  5
21A
100
AcDbEntity
  8
IMPORT_IGES
100
AcDbLine
 62
250
  6
CONTINUOUS
 10
-50.5535504815
 20
71.2651151667
 11
-58.1266031135
 21
67.1925725348
  0
LINE
  5
21B
100
AcDbEntity
  8
IMPORT_IGES
100
AcDbLine
 62
7
  6
CONTINUOUS
 10
-58.2185404476
 20
66.4003717108
 11
-58.2522947743
 21
66.3823281157
  0
LWPOLYLINE
  5
21C
100
AcDbEntity
  8
IMPORT_IGES
100
AcDbPolyline
 62
250
  6
CONTINUOUS
 90
16
 70
0
 10
-50.5535504815
 20
71.2651151667
 10
-50.4986892169
 20
71.2940440761
 10
-50.4440246175
 20
71.31958463
 10
-50.3897032049
 20
71.3416683704
 10
-50.3358705806
 20
71.3602361044
 10
-50.2826710362
 20
71.3752380638
 10
-50.2302471662
 20
71.3866340375
 10
-50.1787394863
 20
71.3943934802
 10
-50.1282860562
 20
71.3984955936
 10
-50.0790221098
 20
71.3989293827
 10
-50.031079693
 20
71.3956936845
 10
-49.9845873093
 20
71.3887971721
 10
-49.9396695756
 20
71.3782583307
 10
-49.8964468882
 20
71.3641054082
 10
-49.8550351
 20
71.3463763398
 10
-49.8220253137
 20
71.3289254006
  0
LWPOLYLINE
  5
21D
100
AcDbEntity
  8
IMPORT_IGES
100
AcDbPolyline
 62
250
  6
CONTINUOUS
 90
16
 70
0
 10
-51.2825005301
 20
71.3509973381
 10
-51.2554228414
 20
71.3645186982
 10
-51.2133148392
 20
71.3817171174
 10
-51.169449888
 20
71.3952117515
 10
-51.1239481724
 20
71.4049656278
 10
-51.0769343618
 20
71.4109520226
 10
-51.0285372716
 20
71.4131545349
 10
-50.9788895043
 20
71.4115671317
 10
-50.9281270887
 20
71.4061941639
 10
-50.8763891113
 20
71.3970503552
 10
-50.8238173279
 20
71.3841607607
 10
-50.7705557786
 20
71.3675606987
 10
-50.7167503969
 20
71.3472956548
 10
-50.6625486037
 20
71.3234211561
 10
-50.6080989037
 20
71.2960026181
 10
-50.5535504815
 20
71.2651151667
  0
LWPOLYLINE
  5
21E
100
AcDbEntity
  8
IMPORT_IGES
100
AcDbPolyline
 62
7
  6
CONTINUOUS
 90
9
 70
0
 10
-67.9388368018
 20
58.5921497311
 10
-67.9537143219
 20
58.5243913191
 10
-67.9678037284
 20
58.4558927254
 10
-67.9806752995
 20
58.3866981138
 10
-67.9918563102
 20
58.3169386483
 10
-68.0007521969
 20
58.2474607446
 10
-68.0068635642
 20
58.1785150626
 10
-68.0097829424
 20
58.1102512607
 10
-68.0099603185
 20
58.0807068894
  0
LINE
  5
21F
100
AcDbEntity
  8
IMPORT_IGES
100
AcDbLine
 62
7
  6
CONTINUOUS
 10
-67.8943822873
 20
58.7861950339
 11
-67.9388368018
 21
58.5921497311
  0
LINE
  5
220
100
AcDbEntity
  8
IMPORT_IGES
100
AcDbLine
 62
7
  6
CONTINUOUS
 10
-67.8943822873
 20
56.7450193418
 11
-67.9388368018
 21
56.550974039
  0
LINE
  5
221
100
AcDbEntity
  8
IMPORT_IGES
100
AcDbLine
 62
7
  6
CONTINUOUS
 10
-68.8913459491
 20
53.2451586161
 11
-68.0099715345
 21
53.7870719315
  0
LINE
  5
222
100
AcDbEntity
  8
IMPORT_IGES
100
AcDbLine
 62
7
  6
CONTINUOUS
 10
-68.9614211915
 20
52.7891729672
 11
-68.0099715345
 21
53.3741720658
  0
LWPOLYLINE
  5
223
100
AcDbEntity
  8
IMPORT_IGES
100
AcDbPolyline
 62
250
  6
CONTINUOUS
 90
10
 70
0
 10
-67.7813508999
 20
58.9775164989
 10
-67.7740182829
 20
59.0251221356
 10
-67.7675955182
 20
59.0754454004
 10
-67.7623994162
 20
59.1269359844
 10
-67.7586788525
 20
59.1783335132
 10
-67.7565893902
 20
59.2296479861
 10
-67.7563914962
 20
59.2803318288
 10
-67.7580924422
 20
59.3284508466
 10
-67.7615264657
 20
59.3738020666
 10
-67.761743381
 20
59.3755975018
  0
LWPOLYLINE
  5
224
100
AcDbEntity
  8
IMPORT_IGES
100
AcDbPolyline
 62
250
  6
CONTINUOUS
 90
10
 70
0
 10
-67.7813508999
 20
56.9363408074
 10
-67.7740182829
 20
56.9839464442
 10
-67.7675955183
 20
57.0342697089
 10
-67.7623994162
 20
57.0857602929
 10
-67.7586788525
 20
57.1371578215
 10
-67.7565893902
 20
57.1884722944
 10
-67.7563914962
 20
57.2391561371
 10
-67.7580924422
 20
57.2872751548
 10
-67.7615264656
 20
57.3326263748
 10
-67.7617433809
 20
57.3344218098
  0
LWPOLYLINE
  5
225
100
AcDbEntity
  8
IMPORT_IGES
100
AcDbPolyline
 62
250
  6
CONTINUOUS
 90
10
 70
0
 10
-67.7842524507
 20
54.8773860427
 10
-67.7767218592
 20
54.9242894798
 10
-67.7699797508
 20
54.9736547765
 10
-67.7643065879
 20
55.0240707333
 10
-67.7599774939
 20
55.0747519783
 10
-67.7572143723
 20
55.1258279079
 10
-67.7562727544
 20
55.1766371652
 10
-67.7571687401
 20
55.2253191262
 10
-67.7597740101
 20
55.2717228139
 10
-67.761932852
 20
55.2933950109
  0
LWPOLYLINE
  5
226
100
AcDbEntity
  8
IMPORT_IGES
100
AcDbPolyline
 62
250
  6
CONTINUOUS
 90
3
 70
0
 10
-67.8062434228
 20
58.8353350966
 10
-67.7974767716
 20
58.8842880743
 10
-67.7813508999
 20
58.9775164989
  0
LWPOLYLINE
  5
227
100
AcDbEntity
  8
IMPORT_IGES
100
AcDbPolyline
 62
250
  6
CONTINUOUS
 90
3
 70
0
 10
-67.8062434228
 20
56.7941594047
 10
-67.7974767716
 20
56.8431123825
 10
-67.7813508999
 20
56.9363408074
  0
LINE
  5
228
100
AcDbEntity
  8
IMPORT_IGES
100
AcDbLine
 62
250
  6
CONTINUOUS
 10
-67.8094055608
 20
54.7356326579
 11
-67.7842524507
 21
54.8773860427
  0
LWPOLYLINE
  5
229
100
AcDbEntity
  8
IMPORT_IGES
100
AcDbPolyline
 62
7
  6
CONTINUOUS
 90
9
 70
0
 10
-67.9383651204
 20
54.5120087494
 10
-67.9533514054
 20
54.4437357086
 10
-67.967555697
 20
54.3748511838
 10
-67.9805144067
 20
54.3054816919
 10
-67.9917295124
 20
54.2356972798
 10
-68.0006717949
 20
54.1658643721
 10
-68.006809477
 20
54.0966338166
 10
-68.0097426675
 20
54.0284065223
 10
-68.0099333197
 20
53.9977963027
  0
LWPOLYLINE
  5
22A
100
AcDbEntity
  8
IMPORT_IGES
100
AcDbPolyline
 62
7
  6
CONTINUOUS
 90
9
 70
0
 10
-67.9388368018
 20
56.550974039
 10
-67.953714322
 20
56.4832156271
 10
-67.9678037284
 20
56.4147170333
 10
-67.9806752996
 20
56.3455224217
 10
-67.9918563102
 20
56.2757629562
 10
-68.0007521969
 20
56.2062850525
 10
-68.0068635642
 20
56.1373393705
 10
-68.0097829424
 20
56.0690755686
 10
-68.0099603185
 20
56.0395311975
  0
LINE
  5
22B
100
AcDbEntity
  8
IMPORT_IGES
100
AcDbLine
 62
7
  6
CONTINUOUS
 10
-67.893883883
 20
54.7062003002
 11
-67.9383651204
 21
54.5120087494
  0
LWPOLYLINE
  5
22C
100
AcDbEntity
  8
IMPORT_IGES
100
AcDbPolyline
 62
7
  6
CONTINUOUS
 90
14
 70
0
 10
-67.8177873331
 20
4.7257754036
 10
-67.8172379486
 20
4.7195402558
 10
-67.8152466551
 20
4.6821073013
 10
-67.8145124307
 20
4.6419439563
 10
-67.8151871099
 20
4.5993179244
 10
-67.817342533
 20
4.5540510127
 10
-67.8210625664
 20
4.5060070909
 10
-67.8264166581
 20
4.4550115955
 10
-67.8334047477
 20
4.4012201087
 10
-67.8419803483
 20
4.3449406053
 10
-67.8521800365
 20
4.2859400505
 10
-67.8639545233
 20
4.2244279413
 10
-67.8769986454
 20
4.161495668
 10
-67.8910247127
 20
4.0977645145
  0
LWPOLYLINE
  5
22D
100
AcDbEntity
  8
IMPORT_IGES
100
AcDbPolyline
 62
250
  6
CONTINUOUS
 90
16
 70
0
 10
-68.0084473446
 20
-0.7551557722
 10
-68.0041640876
 20
-0.8058055364
 10
-67.996573687
 20
-0.8574677298
 10
-67.9852726635
 20
-0.9098438495
 10
-67.9693931869
 20
-0.9641262804
 10
-67.9487126008
 20
-1.0187884686
 10
-67.9248654579
 20
-1.0695651071
 10
-67.8996557334
 20
-1.1141189118
 10
-67.872543752
 20
-1.1548175536
 10
-67.8420568087
 20
-1.1945033231
 10
-67.8075452635
 20
-1.2337009526
 10
-67.7694060469
 20
-1.2716063605
 10
-67.7271369906
 20
-1.3088940886
 10
-67.6804427807
 20
-1.3456453236
 10
-67.6293426299
 20
-1.3813850882
 10
-67.5737414359
 20
-1.4159002493
  0
LWPOLYLINE
  5
22E
100
AcDbEntity
  8
IMPORT_IGES
100
AcDbPolyline
 62
250
  6
CONTINUOUS
 90
5
 70
0
 10
-68.0084473446
 20
1.2860199193
 10
-68.0041640875
 20
1.2353701552
 10
-67.996573687
 20
1.1837079619
 10
-67.9852726634
 20
1.1313318421
 10
-67.9693931868
 20
1.0770494112
  0
LWPOLYLINE
  5
22F
100
AcDbEntity
  8
IMPORT_IGES
100
AcDbPolyline
 62
250
  6
CONTINUOUS
 90
5
 70
0
 10
-68.0086647592
 20
3.3312452218
 10
-68.00465116
 20
3.280927628
 10
-67.9973986771
 20
3.229545717
 10
-67.986448764
 20
3.177224333
 10
-67.9708636994
 20
3.1226765363
  0
LWPOLYLINE
  5
230
100
AcDbEntity
  8
IMPORT_IGES
100
AcDbPolyline
 62
7
  6
CONTINUOUS
 90
15
 70
0
 10
-67.8180341637
 20
0.6438346786
 10
-67.8164153136
 20
0.6223138631
 10
-67.8149303507
 20
0.5881443872
 10
-67.8145115688
 20
0.5517147645
 10
-67.8152946953
 20
0.5129624327
 10
-67.8173366147
 20
0.4718592275
 10
-67.8206703076
 20
0.428429062
 10
-67.8253184933
 20
0.3827094338
 10
-67.8312992485
 20
0.3347064964
 10
-67.8386202507
 20
0.2844503821
 10
-67.8472660053
 20
0.2319857346
 10
-67.8572175587
 20
0.1772817071
 10
-67.8684354502
 20
0.1203745968
 10
-67.8808513387
 20
0.0613833798
 10
-67.8943822873
 20
0.0003351048
  0
LWPOLYLINE
  5
231
100
AcDbEntity
  8
IMPORT_IGES
100
AcDbPolyline
 62
7
  6
CONTINUOUS
 90
15
 70
0
 10
-67.8180341637
 20
2.6850103705
 10
-67.8164153136
 20
2.6634895551
 10
-67.8149303507
 20
2.6293200792
 10
-67.8145115688
 20
2.5928904565
 10
-67.8152946953
 20
2.5541381247
 10
-67.8173366147
 20
2.5130349195
 10
-67.8206703076
 20
2.469604754
 10
-67.8253184933
 20
2.4238851258
 10
-67.8312992485
 20
2.3758821884
 10
-67.8386202507
 20
2.3256260741
 10
-67.8472660053
 20
2.2731614266
 10
-67.8572175587
 20
2.2184573992
 10
-67.8684354502
 20
2.1615502889
 10
-67.8808513387
 20
2.1025590718
 10
-67.8943822873
 20
2.0415107968
  0
LINE
  5
232
100
AcDbEntity
  8
IMPORT_IGES
100
AcDbLine
 62
250
  6
CONTINUOUS
 10
-68.0094854681
 20
5.0909100183
 11
-68.0099715345
 21
5.1030144422
  0
LWPOLYLINE
  5
233
100
AcDbEntity
  8
IMPORT_IGES
100
AcDbPolyline
 62
7
  6
CONTINUOUS
 90
21
 70
0
 10
-68.0095247083
 20
55.726594196
 10
-68.0084442523
 20
55.6984770324
 10
-68.0048821569
 20
55.6706560534
 10
-67.9991043457
 20
55.6430755054
 10
-67.9914211605
 20
55.6160326686
 10
-67.9819656581
 20
55.5892779578
 10
-67.9704919394
 20
55.5619703616
 10
-67.9568714825
 20
55.5339627417
 10
-67.9411562821
 20
55.5055207691
 10
-67.9232178858
 20
55.4765678103
 10
-67.9030563355
 20
55.4472982995
 10
-67.8806187217
 20
55.4177943157
 10
-67.8556378582
 20
55.3878169314
 10
-67.8281845624
 20
55.357583027
 10
-67.7980944733
 20
55.327055253
 10
-67.7645259642
 20
55.295634262
 10
-67.727364216
 20
55.2635436783
 10
-67.6863042982
 20
55.2308537386
 10
-67.6399218693
 20
55.1969024024
 10
-67.5874581109
 20
55.1617895543
 10
-67.5324345712
 20
55.1282636975
  0
LWPOLYLINE
  5
234
100
AcDbEntity
  8
IMPORT_IGES
100
AcDbPolyline
 62
7
  6
CONTINUOUS
 90
21
 70
0
 10
-68.0098918586
 20
1.0214785963
 10
-68.0089224504
 20
0.9952039422
 10
-68.0054309297
 20
0.967086849
 10
-67.9996266988
 20
0.9391697185
 10
-67.9917825369
 20
0.9117426534
 10
-67.9820381047
 20
0.8845835512
 10
-67.9702545737
 20
0.8570281737
 10
-67.9564162797
 20
0.8290315348
 10
-67.9405897079
 20
0.8007637037
 10
-67.9225944399
 20
0.7720099838
 10
-67.9024077777
 20
0.7429079122
 10
-67.8799907558
 20
0.7135569497
 10
-67.8550483346
 20
0.68370441
 10
-67.8276066734
 20
0.6535351104
 10
-67.7974806726
 20
0.623006521
 10
-67.7638647874
 20
0.5915679111
 10
-67.7266692095
 20
0.5594757612
 10
-67.6855933254
 20
0.5268071453
 10
-67.6392199939
 20
0.4929018897
 10
-67.5867919094
 20
0.4578549042
 10
-67.5324332778
 20
0.4247542924
  0
LWPOLYLINE
  5
235
100
AcDbEntity
  8
IMPORT_IGES
100
AcDbPolyline
 62
7
  6
CONTINUOUS
 90
21
 70
0
 10
-68.0098918586
 20
3.0626542882
 10
-68.0089224504
 20
3.0363796342
 10
-68.0054309297
 20
3.0082625409
 10
-67.9996266988
 20
2.9803454105
 10
-67.9917825369
 20
2.9529183454
 10
-67.9820381047
 20
2.9257592432
 10
-67.9702545737
 20
2.8982038656
 10
-67.9564162797
 20
2.8702072267
 10
-67.9405897079
 20
2.8419393957
 10
-67.9225944398
 20
2.8131856757
 10
-67.9024077777
 20
2.7840836041
 10
-67.8799907558
 20
2.7547326417
 10
-67.8550483346
 20
2.724880102
 10
-67.8276066734
 20
2.6947108023
 10
-67.7974806726
 20
2.664182213
 10
-67.7638647874
 20
2.632743603
 10
-67.7266692095
 20
2.6006514531
 10
-67.6855933254
 20
2.5679828372
 10
-67.6392199938
 20
2.5340775817
 10
-67.5867919094
 20
2.4990305962
 10
-67.5324332778
 20
2.4659299844
  0
LWPOLYLINE
  5
236
100
AcDbEntity
  8
IMPORT_IGES
100
AcDbPolyline
 62
7
  6
CONTINUOUS
 90
21
 70
0
 10
-68.0098918586
 20
57.7661628334
 10
-68.0089224504
 20
57.7398881794
 10
-68.0054309297
 20
57.7117710861
 10
-67.9996266988
 20
57.6838539556
 10
-67.9917825369
 20
57.6564268905
 10
-67.9820381047
 20
57.6292677883
 10
-67.9702545737
 20
57.6017124108
 10
-67.9564162798
 20
57.5737157719
 10
-67.9405897079
 20
57.5454479408
 10
-67.9225944399
 20
57.5166942209
 10
-67.9024077777
 20
57.4875921493
 10
-67.8799907558
 20
57.4582411868
 10
-67.8550483346
 20
57.4283886471
 10
-67.8276066734
 20
57.3982193475
 10
-67.7974806726
 20
57.3676907581
 10
-67.7638647874
 20
57.3362521482
 10
-67.7266692095
 20
57.3041599983
 10
-67.6855933254
 20
57.2714913824
 10
-67.6392199939
 20
57.2375861268
 10
-67.5867919094
 20
57.2025391413
 10
-67.5324332778
 20
57.1694385295
  0
LWPOLYLINE
  5
237
100
AcDbEntity
  8
IMPORT_IGES
100
AcDbPolyline
 62
7
  6
CONTINUOUS
 90
21
 70
0
 10
-68.0098918586
 20
59.8073385253
 10
-68.0089224504
 20
59.7810638713
 10
-68.0054309297
 20
59.752946778
 10
-67.9996266988
 20
59.7250296476
 10
-67.9917825369
 20
59.6976025825
 10
-67.9820381047
 20
59.6704434803
 10
-67.9702545737
 20
59.6428881027
 10
-67.9564162797
 20
59.6148914639
 10
-67.9405897079
 20
59.5866236328
 10
-67.9225944398
 20
59.5578699128
 10
-67.9024077777
 20
59.5287678412
 10
-67.8799907558
 20
59.4994168788
 10
-67.8550483346
 20
59.4695643391
 10
-67.8276066734
 20
59.4393950394
 10
-67.7974806726
 20
59.4088664501
 10
-67.7638647874
 20
59.3774278401
 10
-67.7266692095
 20
59.3453356902
 10
-67.6855933254
 20
59.3126670743
 10
-67.6392199938
 20
59.2787618188
 10
-67.5867919094
 20
59.2437148333
 10
-67.5324332778
 20
59.2106142215
  0
LINE
  5
238
100
AcDbEntity
  8
IMPORT_IGES
100
AcDbLine
 62
250
  6
CONTINUOUS
 10
-68.0099536993
 20
-0.7053135585
 11
-68.0084473446
 21
-0.7551557722
  0
LINE
  5
239
100
AcDbEntity
  8
IMPORT_IGES
100
AcDbLine
 62
250
  6
CONTINUOUS
 10
-68.0099536993
 20
1.3358621333
 11
-68.0084473446
 21
1.2860199193
  0
LINE
  5
23A
100
AcDbEntity
  8
IMPORT_IGES
100
AcDbLine
 62
250
  6
CONTINUOUS
 10
-68.0099536993
 20
56.0393706786
 11
-68.0084473446
 21
55.9895284647
  0
LINE
  5
23B
100
AcDbEntity
  8
IMPORT_IGES
100
AcDbLine
 62
250
  6
CONTINUOUS
 10
-68.0099536993
 20
58.0805463706
 11
-68.0084473446
 21
58.0307041564
  0
LINE
  5
23C
100
AcDbEntity
  8
IMPORT_IGES
100
AcDbLine
 62
250
  6
CONTINUOUS
 10
-68.0099488245
 20
3.3762310699
 11
-68.0086647592
 21
3.3312452218
  0
LINE
  5
23D
100
AcDbEntity
  8
IMPORT_IGES
100
AcDbLine
 62
250
  6
CONTINUOUS
 10
-68.0099507521
 20
53.9976913217
 11
-68.0086884229
 21
53.9528616798
  0
LWPOLYLINE
  5
23E
100
AcDbEntity
  8
IMPORT_IGES
100
AcDbPolyline
 62
7
  6
CONTINUOUS
 90
21
 70
0
 10
-68.0098771389
 20
5.1038223334
 10
-68.0095143798
 20
5.0869989894
 10
-68.0070778626
 20
5.0605710412
 10
-68.0024680692
 20
5.0339637751
 10
-67.9958160323
 20
5.0073314011
 10
-67.9871645994
 20
4.980534839
 10
-67.9763656097
 20
4.9530895703
 10
-67.9633314077
 20
4.924883986
 10
-67.9480565982
 20
4.8960423541
 10
-67.9304547644
 20
4.8665607168
 10
-67.9105098957
 20
4.8365926426
 10
-67.8881342406
 20
4.8062005545
 10
-67.8631475196
 20
4.7753419059
 10
-67.8357768474
 20
4.7444283678
 10
-67.8058080458
 20
4.7133543225
 10
-67.7721888749
 20
4.6813036549
 10
-67.7346466927
 20
4.6483872377
 10
-67.6929028346
 20
4.6147374347
 10
-67.6455230364
 20
4.5797084629
 10
-67.5917082613
 20
4.5434020985
 10
-67.5324621844
 20
4.5071392835
  0
LWPOLYLINE
  5
23F
100
AcDbEntity
  8
IMPORT_IGES
100
AcDbPolyline
 62
250
  6
CONTINUOUS
 90
17
 70
0
 10
-68.0099715345
 20
60.788098982
 10
-68.0099463876
 20
60.7830840099
 10
-68.0074866173
 20
60.7382674773
 10
-68.0010129483
 20
60.6935845117
 10
-67.9905427323
 20
60.6491548801
 10
-67.9761040335
 20
60.6050976705
 10
-67.957735553
 20
60.5615309726
 10
-67.9354865251
 20
60.5185715615
 10
-67.9094165856
 20
60.4763345844
 10
-67.8795956115
 20
60.4349332521
 10
-67.8461035343
 20
60.3944785356
 10
-67.8090301251
 20
60.3550788686
 10
-67.7684747546
 20
60.3168398571
 10
-67.7245461262
 20
60.2798639957
 10
-67.677361985
 20
60.2442503935
 10
-67.6270488022
 20
60.2100945083
 10
-67.5737414359
 20
60.1774878907
  0
LINE
  5
240
100
AcDbEntity
  8
IMPORT_IGES
100
AcDbLine
 62
7
  6
CONTINUOUS
 10
-68.9614211915
 20
5.8899462474
 11
-68.9614211915
 21
52.7891729672
  0
LINE
  5
241
100
AcDbEntity
  8
IMPORT_IGES
100
AcDbLine
 62
7
  6
CONTINUOUS
 10
-68.8913459491
 20
52.8322587504
 11
-68.8913459491
 21
53.2451586161
  0
LINE
  5
242
100
AcDbEntity
  8
IMPORT_IGES
100
AcDbLine
 62
7
  6
CONTINUOUS
 10
-68.0099715345
 20
-1.6806960497
 11
-68.0099715345
 21
-0.6990897739
  0
LINE
  5
243
100
AcDbEntity
  8
IMPORT_IGES
100
AcDbLine
 62
7
  6
CONTINUOUS
 10
-68.0099715345
 20
1.0206585987
 11
-68.0099715345
 21
1.342085918
  0
LINE
  5
244
100
AcDbEntity
  8
IMPORT_IGES
100
AcDbLine
 62
7
  6
CONTINUOUS
 10
-68.0099715345
 20
3.0618342906
 11
-68.0099715345
 21
3.3832506911
  0
LINE
  5
245
100
AcDbEntity
  8
IMPORT_IGES
100
AcDbLine
 62
7
  6
CONTINUOUS
 10
-68.0099715345
 20
5.1030144422
 11
-68.0099715345
 21
5.3373556019
  0
LINE
  5
246
100
AcDbEntity
  8
IMPORT_IGES
100
AcDbLine
 62
7
  6
CONTINUOUS
 10
-68.0099715345
 20
53.0166575484
 11
-68.0099715345
 21
54.004406662
  0
LINE
  5
247
100
AcDbEntity
  8
IMPORT_IGES
100
AcDbLine
 62
7
  6
CONTINUOUS
 10
-68.0099715345
 20
55.7241692315
 11
-68.0099715345
 21
56.0455944632
  0
LINE
  5
248
100
AcDbEntity
  8
IMPORT_IGES
100
AcDbLine
 62
7
  6
CONTINUOUS
 10
-68.0099715345
 20
57.7653428358
 11
-68.0099715345
 21
58.0867701552
  0
LINE
  5
249
100
AcDbEntity
  8
IMPORT_IGES
100
AcDbLine
 62
7
  6
CONTINUOUS
 10
-68.0099715345
 20
59.8065185277
 11
-68.0099715345
 21
60.788098982
  0
LINE
  5
24A
100
AcDbEntity
  8
IMPORT_IGES
100
AcDbLine
 62
250
  6
CONTINUOUS
 10
-67.5737414359
 20
-2.291307141
 11
-67.5737414359
 21
-1.4159002528
  0
LINE
  5
24B
100
AcDbEntity
  8
IMPORT_IGES
100
AcDbLine
 62
250
  6
CONTINUOUS
 10
-67.5737414359
 20
0.5162210717
 11
-67.5737414359
 21
0.6252754427
  0
LINE
  5
24C
100
AcDbEntity
  8
IMPORT_IGES
100
AcDbLine
 62
250
  6
CONTINUOUS
 10
-67.5737414359
 20
2.5573967637
 11
-67.5737414359
 21
2.6664511346
  0
LINE
  5
24D
100
AcDbEntity
  8
IMPORT_IGES
100
AcDbLine
 62
250
  6
CONTINUOUS
 10
-67.5737414359
 20
4.5985745247
 11
-67.5737414359
 21
5.0839983486
  0
LINE
  5
24E
100
AcDbEntity
  8
IMPORT_IGES
100
AcDbLine
 62
250
  6
CONTINUOUS
 10
-67.5737414359
 20
52.3998295056
 11
-67.5737414359
 21
53.2876082929
  0
LINE
  5
24F
100
AcDbEntity
  8
IMPORT_IGES
100
AcDbLine
 62
250
  6
CONTINUOUS
 10
-67.5737414359
 20
55.219729615
 11
-67.5737414359
 21
55.328783986
  0
LINE
  5
250
100
AcDbEntity
  8
IMPORT_IGES
100
AcDbLine
 62
250
  6
CONTINUOUS
 10
-67.5737414359
 20
57.260905307
 11
-67.5737414359
 21
57.369959678
  0
LINE
  5
251
100
AcDbEntity
  8
IMPORT_IGES
100
AcDbLine
 62
250
  6
CONTINUOUS
 10
-67.5737414359
 20
59.3020810025
 11
-67.5737414359
 21
60.1774878907
  0
LINE
  5
252
100
AcDbEntity
  8
IMPORT_IGES
100
AcDbLine
 62
7
  6
CONTINUOUS
 10
-68.0096179187
 20
3.4119174455
 11
-68.0099042549
 21
3.37641602
  0
LWPOLYLINE
  5
253
100
AcDbEntity
  8
IMPORT_IGES
100
AcDbPolyline
 62
250
  6
CONTINUOUS
 90
31
 70
0
 10
-67.5737414359
 20
60.1774878907
 10
-67.5723157859
 20
60.2416908133
 10
-67.5680426572
 20
60.3073583136
 10
-67.5609335034
 20
60.3743143781
 10
-67.5510073798
 20
60.4423795396
 10
-67.5382908919
 20
60.5113713581
 10
-67.5228181247
 20
60.5811049098
 10
-67.504630551
 20
60.6513932828
 10
-67.4837769203
 20
60.7220480781
 10
-67.4603131281
 20
60.7928799144
 10
-67.4343020661
 20
60.863698936
 10
-67.4058134537
 20
60.9343153215
 10
-67.3749236509
 20
61.0045397928
 10
-67.3417154539
 20
61.074184122
 10
-67.3062778731
 20
61.1430616363
 10
-67.2687058944
 20
61.2109877184
 10
-67.2291002248
 20
61.277780301
 10
-67.1875670221
 20
61.3432603551
 10
-67.1442176109
 20
61.4072523697
 10
-67.0991681838
 20
61.4695848224
 10
-67.0525394899
 20
61.530090639
 10
-67.0044565116
 20
61.5886076412
 10
-66.9550481292
 20
61.6449789818
 10
-66.9044467756
 20
61.6990535645
 10
-66.8527880813
 20
61.7506864493
 10
-66.8002105108
 20
61.7997392408
 10
-66.7468549917
 20
61.8460804592
 10
-66.6928645365
 20
61.8895858928
 10
-66.6383838599
 20
61.9301389307
 10
-66.5835589905
 20
61.9676308758
 10
-66.5285368792
 20
62.0019612357
  0
LWPOLYLINE
  5
254
100
AcDbEntity
  8
IMPORT_IGES
100
AcDbPolyline
 62
250
  6
CONTINUOUS
 90
16
 70
0
 10
-67.5737485525
 20
53.2876253893
 10
-67.5731316501
 20
53.303159778
 10
-67.5712892733
 20
53.319281773
 10
-67.5682337343
 20
53.3358528977
 10
-67.5639871014
 20
53.3527340438
 10
-67.5585832468
 20
53.3697747817
 10
-67.5520702001
 20
53.3868144678
 10
-67.5445062643
 20
53.4036985354
 10
-67.535954896
 20
53.4202847098
 10
-67.5264872471
 20
53.4364319358
 10
-67.5161815898
 20
53.4520026547
 10
-67.5051295604
 20
53.4668538306
 10
-67.4934342095
 20
53.4808444149
 10
-67.481200877
 20
53.4938488062
 10
-67.4685347887
 20
53.5057562042
 10
-67.4555472004
 20
53.5164622228
  0
LWPOLYLINE
  5
255
100
AcDbEntity
  8
IMPORT_IGES
100
AcDbPolyline
 62
250
  6
CONTINUOUS
 90
16
 70
0
 10
-67.5737414359
 20
57.3699596798
 10
-67.5731128976
 20
57.3856764032
 10
-67.5712545175
 20
57.401831826
 10
-67.5682145322
 20
57.4182720572
 10
-67.5640740924
 20
57.4347626351
 10
-67.5588853479
 20
57.451242307
 10
-67.552615755
 20
57.4678276932
 10
-67.5452607606
 20
57.4844581653
 10
-67.536891497
 20
57.5009097577
 10
-67.5275528573
 20
57.517050176
 10
-67.5172992036
 20
57.5327401954
 10
-67.5062110307
 20
57.5478147845
 10
-67.4943887637
 20
57.5621037354
 10
-67.4819346197
 20
57.5754560409
 10
-67.4689488064
 20
57.5877379182
 10
-67.4555447771
 20
57.5988154688
  0
LWPOLYLINE
  5
256
100
AcDbEntity
  8
IMPORT_IGES
100
AcDbPolyline
 62
250
  6
CONTINUOUS
 90
16
 70
0
 10
-67.5737414359
 20
55.3287839878
 10
-67.5731128976
 20
55.3445007113
 10
-67.5712545175
 20
55.360656134
 10
-67.5682145322
 20
55.3770963652
 10
-67.5640740924
 20
55.3935869432
 10
-67.5588853479
 20
55.410066615
 10
-67.552615755
 20
55.4266520012
 10
-67.5452607606
 20
55.4432824733
 10
-67.536891497
 20
55.4597340658
 10
-67.5275528573
 20
55.475874484
 10
-67.5172992036
 20
55.4915645034
 10
-67.5062110307
 20
55.5066390925
 10
-67.4943887637
 20
55.5209280434
 10
-67.4819346197
 20
55.5342803489
 10
-67.4689488064
 20
55.5465622262
 10
-67.4555447771
 20
55.5576397769
  0
LWPOLYLINE
  5
257
100
AcDbEntity
  8
IMPORT_IGES
100
AcDbPolyline
 62
250
  6
CONTINUOUS
 90
16
 70
0
 10
-67.5737414359
 20
2.6664511346
 10
-67.5731128976
 20
2.6821678581
 10
-67.5712545175
 20
2.6983232809
 10
-67.5682145322
 20
2.714763512
 10
-67.5640740924
 20
2.73125409
 10
-67.5588853479
 20
2.7477337619
 10
-67.552615755
 20
2.764319148
 10
-67.5452607606
 20
2.7809496202
 10
-67.536891497
 20
2.7974012126
 10
-67.5275528573
 20
2.8135416309
 10
-67.5172992036
 20
2.8292316503
 10
-67.5062110306
 20
2.8443062393
 10
-67.4943887637
 20
2.8585951902
 10
-67.4819346197
 20
2.8719474958
 10
-67.4689488064
 20
2.884229373
 10
-67.4555447771
 20
2.8953069237
  0
LWPOLYLINE
  5
258
100
AcDbEntity
  8
IMPORT_IGES
100
AcDbPolyline
 62
250
  6
CONTINUOUS
 90
16
 70
0
 10
-67.5737414359
 20
0.6252754427
 10
-67.5731128976
 20
0.6409921661
 10
-67.5712545175
 20
0.6571475889
 10
-67.5682145322
 20
0.6735878201
 10
-67.5640740924
 20
0.690078398
 10
-67.5588853479
 20
0.7065580699
 10
-67.552615755
 20
0.7231434561
 10
-67.5452607606
 20
0.7397739282
 10
-67.536891497
 20
0.7562255207
 10
-67.5275528573
 20
0.7723659389
 10
-67.5172992036
 20
0.7880559583
 10
-67.5062110306
 20
0.8031305474
 10
-67.4943887637
 20
0.8174194983
 10
-67.4819346197
 20
0.8307718038
 10
-67.4689488064
 20
0.8430536811
 10
-67.4555447771
 20
0.8541312317
  0
LWPOLYLINE
  5
259
100
AcDbEntity
  8
IMPORT_IGES
100
AcDbPolyline
 62
250
  6
CONTINUOUS
 90
16
 70
0
 10
-67.5737414359
 20
-1.4159002493
 10
-67.5731128976
 20
-1.4001835258
 10
-67.5712545175
 20
-1.3840281031
 10
-67.5682145322
 20
-1.3675878719
 10
-67.5640740924
 20
-1.3510972939
 10
-67.5588853479
 20
-1.3346176221
 10
-67.552615755
 20
-1.3180322359
 10
-67.5452607606
 20
-1.3014017638
 10
-67.536891497
 20
-1.2849501713
 10
-67.5275528573
 20
-1.2688097531
 10
-67.5172992036
 20
-1.2531197336
 10
-67.5062110306
 20
-1.2380451446
 10
-67.4943887637
 20
-1.2237561937
 10
-67.4819346197
 20
-1.2104038882
 10
-67.4689488064
 20
-1.1981220109
 10
-67.4555447771
 20
-1.1870444602
  0
LWPOLYLINE
  5
25A
100
AcDbEntity
  8
IMPORT_IGES
100
AcDbPolyline
 62
250
  6
CONTINUOUS
 90
10
 70
0
 10
-67.7813508999
 20
2.2328322621
 10
-67.7740182829
 20
2.2804378989
 10
-67.7675955182
 20
2.3307611637
 10
-67.7623994162
 20
2.3822517477
 10
-67.7586788525
 20
2.4336492764
 10
-67.7565893902
 20
2.4849637493
 10
-67.7563914962
 20
2.5356475919
 10
-67.7580924422
 20
2.5837666097
 10
-67.7615264657
 20
2.6291178297
 10
-67.761743381
 20
2.6309132647
  0
LWPOLYLINE
  5
25B
100
AcDbEntity
  8
IMPORT_IGES
100
AcDbPolyline
 62
250
  6
CONTINUOUS
 90
10
 70
0
 10
-67.7813508999
 20
0.19165657
 10
-67.7740182829
 20
0.2392622068
 10
-67.7675955183
 20
0.2895854716
 10
-67.7623994162
 20
0.3410760556
 10
-67.7586788525
 20
0.3924735842
 10
-67.7565893902
 20
0.4437880571
 10
-67.7563914962
 20
0.4944718998
 10
-67.7580924422
 20
0.5425909176
 10
-67.7615264656
 20
0.5879421376
 10
-67.761743381
 20
0.5897375727
  0
LWPOLYLINE
  5
25C
100
AcDbEntity
  8
IMPORT_IGES
100
AcDbPolyline
 62
250
  6
CONTINUOUS
 90
10
 70
0
 10
-67.783343286
 20
4.2617394536
 10
-67.7759177498
 20
4.3085284198
 10
-67.7693290279
 20
4.3576737296
 10
-67.7638327855
 20
4.4077760293
 10
-67.7596807808
 20
4.4580664111
 10
-67.7570809384
 20
4.5086527782
 10
-67.7562765462
 20
4.5589102547
 10
-67.7572791891
 20
4.6070773533
 10
-67.7599713494
 20
4.6530239842
 10
-67.7619396723
 20
4.6723173092
  0
LWPOLYLINE
  5
25D
100
AcDbEntity
  8
IMPORT_IGES
100
AcDbPolyline
 62
250
  6
CONTINUOUS
 90
3
 70
0
 10
-67.8084144973
 20
4.1198350828
 10
-67.7995647309
 20
4.169224611
 10
-67.783343286
 20
4.2617394536
  0
LWPOLYLINE
  5
25E
100
AcDbEntity
  8
IMPORT_IGES
100
AcDbPolyline
 62
250
  6
CONTINUOUS
 90
3
 70
0
 10
-67.8062434228
 20
2.0906508594
 10
-67.7974767716
 20
2.1396038373
 10
-67.7813508999
 20
2.2328322621
  0
LWPOLYLINE
  5
25F
100
AcDbEntity
  8
IMPORT_IGES
100
AcDbPolyline
 62
250
  6
CONTINUOUS
 90
3
 70
0
 10
-67.8062434228
 20
0.0494751675
 10
-67.7974767716
 20
0.0984281453
 10
-67.7813508999
 20
0.19165657
  0
LWPOLYLINE
  5
260
100
AcDbEntity
  8
IMPORT_IGES
100
AcDbPolyline
 62
7
  6
CONTINUOUS
 90
9
 70
0
 10
-67.9388368018
 20
1.847465494
 10
-67.9537143219
 20
1.7797070821
 10
-67.9678037284
 20
1.7112084884
 10
-67.9806752995
 20
1.6420138767
 10
-67.9918563101
 20
1.5722544113
 10
-68.0007521969
 20
1.5027765076
 10
-68.0068635641
 20
1.4338308255
 10
-68.0097829424
 20
1.3655670237
 10
-68.0099603185
 20
1.3360226522
  0
LWPOLYLINE
  5
261
100
AcDbEntity
  8
IMPORT_IGES
100
AcDbPolyline
 62
7
  6
CONTINUOUS
 90
9
 70
0
 10
-67.9388368018
 20
-0.193710198
 10
-67.953714322
 20
-0.26146861
 10
-67.9678037284
 20
-0.3299672037
 10
-67.9806752995
 20
-0.3991618154
 10
-67.9918563102
 20
-0.4689212808
 10
-68.0007521969
 20
-0.5383991845
 10
-68.0068635642
 20
-0.6073448666
 10
-68.0097829424
 20
-0.6756086684
 10
-68.0099603185
 20
-0.7051530396
  0
LWPOLYLINE
  5
262
100
AcDbEntity
  8
IMPORT_IGES
100
AcDbPolyline
 62
7
  6
CONTINUOUS
 90
8
 70
0
 10
-67.9364235574
 20
3.899874363
 10
-67.9514561228
 20
3.8318667443
 10
-67.965776048
 20
3.7629562163
 10
-67.979022613
 20
3.6928433643
 10
-67.9906401939
 20
3.6219264749
 10
-67.9999416367
 20
3.5512321551
 10
-68.0063893905
 20
3.4811710577
 10
-68.0096179187
 20
3.4119174455
  0
LINE
  5
263
100
AcDbEntity
  8
IMPORT_IGES
100
AcDbLine
 62
7
  6
CONTINUOUS
 10
-67.8943822873
 20
2.0415107968
 11
-67.9388368018
 21
1.847465494
  0
LINE
  5
264
100
AcDbEntity
  8
IMPORT_IGES
100
AcDbLine
 62
7
  6
CONTINUOUS
 10
-67.8943822873
 20
0.0003351048
 11
-67.9388368018
 21
-0.193710198
  0
LINE
  5
265
100
AcDbEntity
  8
IMPORT_IGES
100
AcDbLine
 62
7
  6
CONTINUOUS
 10
-67.8910247127
 20
4.0977645145
 11
-67.9364235574
 21
3.899874363
  0
LWPOLYLINE
  5
266
100
AcDbEntity
  8
IMPORT_IGES
100
AcDbPolyline
 62
250
  6
CONTINUOUS
 90
5
 70
0
 10
-68.0084473446
 20
55.9895284647
 10
-68.0041640875
 20
55.9388787005
 10
-67.996573687
 20
55.8872165071
 10
-67.9852726635
 20
55.8348403874
 10
-67.9693931869
 20
55.7805579565
  0
LWPOLYLINE
  5
267
100
AcDbEntity
  8
IMPORT_IGES
100
AcDbPolyline
 62
250
  6
CONTINUOUS
 90
5
 70
0
 10
-68.0084473446
 20
58.0307041564
 10
-68.0041640875
 20
57.9800543923
 10
-67.996573687
 20
57.9283921989
 10
-67.9852726634
 20
57.8760160792
 10
-67.9693931868
 20
57.8217336482
  0
LWPOLYLINE
  5
268
100
AcDbEntity
  8
IMPORT_IGES
100
AcDbPolyline
 62
250
  6
CONTINUOUS
 90
16
 70
0
 10
-68.0086884229
 20
53.9528616798
 10
-68.004692843
 20
53.9024632494
 10
-67.9974617954
 20
53.851065345
 10
-67.9865383999
 20
53.798746634
 10
-67.9709857327
 20
53.7442036078
 10
-67.9505472159
 20
53.6890809694
 10
-67.9268361513
 20
53.6377735212
 10
-67.9016250921
 20
53.5926238858
 10
-67.8743787517
 20
53.5512730637
 10
-67.8437072904
 20
53.5110065599
 10
-67.8090029575
 20
53.4713516865
 10
-67.7706379407
 20
53.4330611569
 10
-67.7281072316
 20
53.3954283037
 10
-67.6811160199
 20
53.3583625527
 10
-67.6296908324
 20
53.3223511116
 10
-67.5737414359
 20
53.2876081277
  0
LWPOLYLINE
  5
269
100
AcDbEntity
  8
IMPORT_IGES
100
AcDbPolyline
 62
7
  6
CONTINUOUS
 90
15
 70
0
 10
-67.8180341637
 20
57.3885189157
 10
-67.8164153136
 20
57.3669981002
 10
-67.8149303507
 20
57.3328286243
 10
-67.8145115688
 20
57.2963990016
 10
-67.8152946953
 20
57.2576466698
 10
-67.8173366147
 20
57.2165434646
 10
-67.8206703076
 20
57.1731132991
 10
-67.8253184933
 20
57.1273936709
 10
-67.8312992485
 20
57.0793907335
 10
-67.8386202507
 20
57.0291346192
 10
-67.8472660053
 20
56.9766699716
 10
-67.8572175587
 20
56.9219659442
 10
-67.8684354502
 20
56.8650588339
 10
-67.8808513387
 20
56.8060676169
 10
-67.8943822873
 20
56.7450193418
  0
LWPOLYLINE
  5
26A
100
AcDbEntity
  8
IMPORT_IGES
100
AcDbPolyline
 62
7
  6
CONTINUOUS
 90
15
 70
0
 10
-67.8180341637
 20
59.4296946077
 10
-67.8164153136
 20
59.4081737922
 10
-67.8149303507
 20
59.3740043163
 10
-67.8145115688
 20
59.3375746936
 10
-67.8152946953
 20
59.2988223618
 10
-67.8173366147
 20
59.2577191566
 10
-67.8206703076
 20
59.2142889911
 10
-67.8253184933
 20
59.1685693629
 10
-67.8312992485
 20
59.1205664255
 10
-67.8386202507
 20
59.0703103112
 10
-67.8472660053
 20
59.0178456637
 10
-67.8572175587
 20
58.9631416363
 10
-67.8684354502
 20
58.906234526
 10
-67.8808513387
 20
58.8472433089
 10
-67.8943822873
 20
58.7861950339
  0
LWPOLYLINE
  5
26B
100
AcDbEntity
  8
IMPORT_IGES
100
AcDbPolyline
 62
7
  6
CONTINUOUS
 90
15
 70
0
 10
-67.8178421953
 20
55.3470902218
 10
-67.816348449
 20
55.3265870206
 10
-67.8149105401
 20
55.2924770086
 10
-67.8144977765
 20
55.256072961
 10
-67.8152578905
 20
55.2173566098
 10
-67.8172650111
 20
55.1763251949
 10
-67.8205532376
 20
55.1329903944
 10
-67.8251505911
 20
55.0873650092
 10
-67.8310815277
 20
55.0394497869
 10
-67.8383588823
 20
54.9892943728
 10
-67.8469700256
 20
54.9369609905
 10
-67.8568865503
 20
54.8824347362
 10
-67.8680612345
 20
54.8257446592
 10
-67.8804210949
 20
54.7669846594
 10
-67.893883883
 20
54.7062003002
  0
LWPOLYLINE
  5
26C
100
AcDbEntity
  8
IMPORT_IGES
100
AcDbPolyline
 62
250
  6
CONTINUOUS
 90
3
 70
0
 10
-67.9693931868
 20
1.0770494112
 10
-67.9487126006
 20
1.022387223
 10
-67.9248654577
 20
0.9716105846
  0
LWPOLYLINE
  5
26D
100
AcDbEntity
  8
IMPORT_IGES
100
AcDbPolyline
 62
250
  6
CONTINUOUS
 90
3
 70
0
 10
-67.9708636994
 20
3.1226765363
 10
-67.9503813588
 20
3.0675316112
 10
-67.9266102635
 20
3.0161825259
  0
LINE
  5
26E
100
AcDbEntity
  8
IMPORT_IGES
100
AcDbLine
 62
250
  6
CONTINUOUS
 10
-68.0063619771
 20
55.6889511785
 11
-68.0094400945
 21
55.7114878605
  0
LINE
  5
26F
100
AcDbEntity
  8
IMPORT_IGES
100
AcDbLine
 62
7
  6
CONTINUOUS
 10
-58.4517106892
 20
66.5350012859
 11
-58.4517106892
 21
66.4981465074
  0
LWPOLYLINE
  5
270
100
AcDbEntity
  8
IMPORT_IGES
100
AcDbPolyline
 62
250
  6
CONTINUOUS
 90
8
 70
0
 10
50.8840078388
 20
-68.1217272269
 10
51.0861819449
 20
-68.1745234161
 10
51.1474081317
 20
-68.1908652815
 10
51.2058527704
 20
-68.2071895219
 10
51.2645971866
 20
-68.2248896517
 10
51.3253031794
 20
-68.2444920156
 10
51.386104926
 20
-68.2653478848
 10
51.444818236
 20
-68.2870226992
  0
LWPOLYLINE
  5
271
100
AcDbEntity
  8
IMPORT_IGES
100
AcDbPolyline
 62
250
  6
CONTINUOUS
 90
7
 70
0
 10
50.4839557756
 20
-69.9133021848
 10
50.422653783
 20
-69.8969672106
 10
50.3596294907
 20
-69.8773055069
 10
50.2963232905
 20
-69.854381322
 10
50.2334547319
 20
-69.8281666276
 10
50.1711265103
 20
-69.7984465616
 10
50.1098187249
 20
-69.7651124239
  0
LWPOLYLINE
  5
272
100
AcDbEntity
  8
IMPORT_IGES
100
AcDbPolyline
 62
250
  6
CONTINUOUS
 90
7
 70
0
 10
50.4839557758
 20
-67.8721264929
 10
50.4226537831
 20
-67.8557915187
 10
50.3596294908
 20
-67.8361298149
 10
50.2963232906
 20
-67.81320563
 10
50.2334547319
 20
-67.7869909357
 10
50.1711265103
 20
-67.7572708696
 10
50.1098187249
 20
-67.723936732
  0
LWPOLYLINE
  5
273
100
AcDbEntity
  8
IMPORT_IGES
100
AcDbPolyline
 62
250
  6
CONTINUOUS
 90
10
 70
0
 10
-67.9248654577
 20
0.9716105846
 10
-67.8996557332
 20
0.9270567799
 10
-67.8725437519
 20
0.8863581381
 10
-67.8420568087
 20
0.8466723688
 10
-67.8075452634
 20
0.8074747393
 10
-67.7694060469
 20
0.7695693314
 10
-67.7271369906
 20
0.7322816033
 10
-67.6804427807
 20
0.6955303684
 10
-67.6293426299
 20
0.6597906038
 10
-67.5737414359
 20
0.6252754427
  0
LWPOLYLINE
  5
274
100
AcDbEntity
  8
IMPORT_IGES
100
AcDbPolyline
 62
250
  6
CONTINUOUS
 90
10
 70
0
 10
-67.9266102635
 20
3.0161825259
 10
-67.9013111352
 20
2.9709600228
 10
-67.8739503246
 20
2.9295197712
 10
-67.8431600892
 20
2.8891839262
 10
-67.8083172362
 20
2.8494628678
 10
-67.769813258
 20
2.8111268128
 10
-67.7272454839
 20
2.7735481796
 10
-67.6803789673
 20
2.7366521189
 10
-67.6292335075
 20
2.7008863996
 10
-67.5737414359
 20
2.6664511346
  0
LWPOLYLINE
  5
275
100
AcDbEntity
  8
IMPORT_IGES
100
AcDbPolyline
 62
250
  6
CONTINUOUS
 90
8
 70
0
 10
50.8840078383
 20
-66.0805515348
 10
51.0861819444
 20
-66.1333477241
 10
51.1474081313
 20
-66.1496895894
 10
51.2058527699
 20
-66.1660138298
 10
51.2645971861
 20
-66.1837139595
 10
51.3253031789
 20
-66.2033163235
 10
51.3861049254
 20
-66.2241721926
 10
51.4448182355
 20
-66.245847007
  0
LWPOLYLINE
  5
276
100
AcDbEntity
  8
IMPORT_IGES
100
AcDbPolyline
 62
250
  6
CONTINUOUS
 90
8
 70
0
 10
50.8840078383
 20
-64.0393758428
 10
51.0861819444
 20
-64.0921720321
 10
51.1474081313
 20
-64.1085138974
 10
51.20585277
 20
-64.1248381378
 10
51.2645971862
 20
-64.1425382676
 10
51.325303179
 20
-64.1621406316
 10
51.3861049257
 20
-64.1829965007
 10
51.4448182357
 20
-64.2046713152
  0
LWPOLYLINE
  5
277
100
AcDbEntity
  8
IMPORT_IGES
100
AcDbPolyline
 62
250
  6
CONTINUOUS
 90
7
 70
0
 10
50.4839557755
 20
-65.8309508008
 10
50.4226537829
 20
-65.8146158266
 10
50.3596294907
 20
-65.7949541229
 10
50.2963232905
 20
-65.772029938
 10
50.2334547319
 20
-65.7458152437
 10
50.1711265103
 20
-65.7160951777
 10
50.1098187249
 20
-65.68276104
  0
LWPOLYLINE
  5
278
100
AcDbEntity
  8
IMPORT_IGES
100
AcDbPolyline
 62
7
  6
CONTINUOUS
 90
11
 70
0
 10
50.9967366968
 20
-68.2377826795
 10
51.0503386882
 20
-68.2538651521
 10
51.1020399126
 20
-68.2699671868
 10
51.1516315559
 20
-68.2862016951
 10
51.1988895263
 20
-68.30264709
 10
51.2436508407
 20
-68.3193725335
 10
51.2858067134
 20
-68.3364316207
 10
51.3249907481
 20
-68.3537084977
 10
51.3614272806
 20
-68.3713099767
 10
51.3957676011
 20
-68.389610211
 10
51.4056659278
 20
-68.3952568915
  0
LWPOLYLINE
  5
279
100
AcDbEntity
  8
IMPORT_IGES
100
AcDbPolyline
 62
7
  6
CONTINUOUS
 90
11
 70
0
 10
50.9967366969
 20
-66.1966069875
 10
51.0503386882
 20
-66.2126894601
 10
51.1020399127
 20
-66.2287914948
 10
51.151631556
 20
-66.2450260031
 10
51.1988895264
 20
-66.261471398
 10
51.2436508407
 20
-66.2781968415
 10
51.2858067134
 20
-66.2952559288
 10
51.3249907481
 20
-66.3125328058
 10
51.3614272806
 20
-66.3301342848
 10
51.3957676011
 20
-66.3484345191
 10
51.4056659278
 20
-66.3540811996
  0
LWPOLYLINE
  5
27A
100
AcDbEntity
  8
IMPORT_IGES
100
AcDbPolyline
 62
7
  6
CONTINUOUS
 90
11
 70
0
 10
50.9967366969
 20
-64.1554312955
 10
51.0503386882
 20
-64.1715137681
 10
51.1020399127
 20
-64.1876158028
 10
51.151631556
 20
-64.2038503111
 10
51.1988895263
 20
-64.220295706
 10
51.2436508407
 20
-64.2370211495
 10
51.2858067134
 20
-64.2540802368
 10
51.3249907481
 20
-64.2713571138
 10
51.3614272806
 20
-64.2889585928
 10
51.3957676011
 20
-64.3072588271
 10
51.4056659278
 20
-64.3129055076
  0
LWPOLYLINE
  5
27B
100
AcDbEntity
  8
IMPORT_IGES
100
AcDbPolyline
 62
250
  6
CONTINUOUS
 90
4
 70
0
 10
50.6523264547
 20
-68.0566292738
 10
50.7255861205
 20
-68.0786223516
 10
50.8062411852
 20
-68.1011263791
 10
50.8840078388
 20
-68.1217272269
  0
LWPOLYLINE
  5
27C
100
AcDbEntity
  8
IMPORT_IGES
100
AcDbPolyline
 62
250
  6
CONTINUOUS
 90
4
 70
0
 10
50.6523264542
 20
-66.0154535817
 10
50.72558612
 20
-66.0374466594
 10
50.8062411847
 20
-66.059950687
 10
50.8840078383
 20
-66.0805515348
  0
LWPOLYLINE
  5
27D
100
AcDbEntity
  8
IMPORT_IGES
100
AcDbPolyline
 62
250
  6
CONTINUOUS
 90
4
 70
0
 10
50.6523264544
 20
-63.9742778897
 10
50.7255861201
 20
-63.9962709675
 10
50.8062411847
 20
-64.018774995
 10
50.8840078383
 20
-64.0393758428
  0
LWPOLYLINE
  5
27E
100
AcDbEntity
  8
IMPORT_IGES
100
AcDbPolyline
 62
250
  6
CONTINUOUS
 90
52
 70
0
 10
51.444818236
 20
-68.2870226992
 10
51.5013362472
 20
-68.3096398711
 10
51.5556647706
 20
-68.3333312679
 10
51.605894066
 20
-68.3579401967
 10
51.6512312766
 20
-68.3835618681
 10
51.6925919851
 20
-68.410563239
 10
51.7306853318
 20
-68.4392575218
 10
51.7656980504
 20
-68.4698734252
 10
51.7975671416
 20
-68.5024468896
 10
51.8266074073
 20
-68.5369407843
 10
51.8530915528
 20
-68.5735514257
 10
51.8768671525
 20
-68.6122616076
 10
51.8976141039
 20
-68.6527013746
 10
51.9154245594
 20
-68.6949605828
 10
51.9303330765
 20
-68.7390943359
 10
51.941943632
 20
-68.7846841541
 10
51.9502514201
 20
-68.8317349537
 10
51.9553485745
 20
-68.880328532
 10
51.9569761819
 20
-68.9301512666
 10
51.9549633182
 20
-68.981271278
 10
51.9494789727
 20
-69.0336186073
 10
51.9407527898
 20
-69.0866518331
 10
51.9286900397
 20
-69.1404292616
 10
51.9132938233
 20
-69.1948012708
 10
51.8949317511
 20
-69.2489033637
 10
51.8735659541
 20
-69.3026312274
 10
51.849102221
 20
-69.3559367852
 10
51.8218333185
 20
-69.4080420558
 10
51.7919014175
 20
-69.4586390378
 10
51.7590381035
 20
-69.5078447189
 10
51.7229227033
 20
-69.5555041748
 10
51.6835692088
 20
-69.6013543544
 10
51.6408355184
 20
-69.6453749632
 10
51.5941522423
 20
-69.6877186239
 10
51.5425259522
 20
-69.7286378349
 10
51.4868380973
 20
-69.7674072218
 10
51.4294033686
 20
-69.8028102301
 10
51.3704581053
 20
-69.8346466785
 10
51.3098963395
 20
-69.8629307407
 10
51.2496224698
 20
-69.8870435724
 10
51.1914917269
 20
-69.9063648467
 10
51.1338474102
 20
-69.921659383
 10
51.0733466595
 20
-69.9342850772
 10
51.00896893
 20
-69.9444270526
 10
50.9420099311
 20
-69.9514330041
 10
50.872651751
 20
-69.9551647201
 10
50.7985789483
 20
-69.9551699467
 10
50.7226763417
 20
-69.9513129099
 10
50.6526534766
 20
-69.944607722
 10
50.5936047452
 20
-69.936257782
 10
50.5400697803
 20
-69.9261318255
 10
50.4839557756
 20
-69.9133021848
  0
LWPOLYLINE
  5
27F
100
AcDbEntity
  8
IMPORT_IGES
100
AcDbPolyline
 62
250
  6
CONTINUOUS
 90
52
 70
0
 10
51.4448182355
 20
-66.245847007
 10
51.5013362467
 20
-66.2684641789
 10
51.5556647701
 20
-66.2921555757
 10
51.6058940655
 20
-66.3167645045
 10
51.6512312762
 20
-66.3423861758
 10
51.6925919848
 20
-66.3693875468
 10
51.7306853315
 20
-66.3980818296
 10
51.7656980501
 20
-66.428697733
 10
51.7975671413
 20
-66.4612711973
 10
51.826607407
 20
-66.495765092
 10
51.8530915526
 20
-66.5323757333
 10
51.8768671523
 20
-66.5710859152
 10
51.8976141037
 20
-66.6115256823
 10
51.9154245593
 20
-66.6537848904
 10
51.9303330763
 20
-66.6979186435
 10
51.9419436319
 20
-66.7435084617
 10
51.9502514201
 20
-66.7905592613
 10
51.9553485745
 20
-66.8391528396
 10
51.9569761819
 20
-66.8889755742
 10
51.9549633182
 20
-66.9400955856
 10
51.9494789728
 20
-66.9924429149
 10
51.9407527899
 20
-67.0454761406
 10
51.9286900398
 20
-67.0992535691
 10
51.9132938235
 20
-67.1536255783
 10
51.8949317513
 20
-67.2077276712
 10
51.8735659543
 20
-67.2614555349
 10
51.8491022212
 20
-67.3147610927
 10
51.8218333187
 20
-67.3668663634
 10
51.7919014178
 20
-67.4174633453
 10
51.7590381038
 20
-67.4666690265
 10
51.7229227036
 20
-67.5143284825
 10
51.6835692092
 20
-67.560178662
 10
51.6408355187
 20
-67.6041992708
 10
51.5941522427
 20
-67.6465429316
 10
51.5425259526
 20
-67.6874621427
 10
51.4868380978
 20
-67.7262315295
 10
51.4294033691
 20
-67.7616345379
 10
51.3704581058
 20
-67.7934709862
 10
51.30989634
 20
-67.8217550485
 10
51.2496224702
 20
-67.8458678802
 10
51.1914917274
 20
-67.8651891546
 10
51.1338474107
 20
-67.8804836909
 10
51.07334666
 20
-67.8931093852
 10
51.0089689305
 20
-67.9032513606
 10
50.9420099317
 20
-67.9102573121
 10
50.8726517516
 20
-67.9139890281
 10
50.7985789489
 20
-67.9139942547
 10
50.7226763423
 20
-67.9101372179
 10
50.6526534771
 20
-67.9034320301
 10
50.5936047456
 20
-67.8950820901
 10
50.5400697806
 20
-67.8849561336
 10
50.4839557758
 20
-67.8721264929
  0
LWPOLYLINE
  5
280
100
AcDbEntity
  8
IMPORT_IGES
100
AcDbPolyline
 62
250
  6
CONTINUOUS
 90
52
 70
0
 10
51.4448182357
 20
-64.2046713152
 10
51.501336247
 20
-64.227288487
 10
51.5556647704
 20
-64.2509798838
 10
51.6058940658
 20
-64.2755888126
 10
51.6512312765
 20
-64.3012104841
 10
51.692591985
 20
-64.328211855
 10
51.7306853318
 20
-64.3569061378
 10
51.7656980504
 20
-64.3875220412
 10
51.7975671415
 20
-64.4200955055
 10
51.8266074072
 20
-64.4545894003
 10
51.8530915528
 20
-64.4912000416
 10
51.8768671524
 20
-64.5299102235
 10
51.8976141038
 20
-64.5703499905
 10
51.9154245594
 20
-64.6126091987
 10
51.9303330764
 20
-64.6567429518
 10
51.941943632
 20
-64.70233277
 10
51.9502514201
 20
-64.7493835697
 10
51.9553485745
 20
-64.7979771479
 10
51.9569761819
 20
-64.8477998826
 10
51.9549633182
 20
-64.898919894
 10
51.9494789727
 20
-64.9512672233
 10
51.9407527899
 20
-65.0043004491
 10
51.9286900397
 20
-65.0580778776
 10
51.9132938233
 20
-65.1124498868
 10
51.8949317511
 20
-65.1665519797
 10
51.8735659542
 20
-65.2202798434
 10
51.849102221
 20
-65.2735854012
 10
51.8218333185
 20
-65.3256906718
 10
51.7919014175
 20
-65.3762876537
 10
51.7590381035
 20
-65.4254933348
 10
51.7229227034
 20
-65.4731527908
 10
51.6835692089
 20
-65.5190029704
 10
51.6408355185
 20
-65.5630235791
 10
51.5941522424
 20
-65.6053672399
 10
51.5425259522
 20
-65.6462864509
 10
51.4868380974
 20
-65.6850558378
 10
51.4294033686
 20
-65.7204588461
 10
51.3704581053
 20
-65.7522952945
 10
51.3098963395
 20
-65.7805793568
 10
51.2496224696
 20
-65.8046921884
 10
51.1914917268
 20
-65.8240134628
 10
51.13384741
 20
-65.8393079991
 10
51.0733466593
 20
-65.8519336933
 10
51.0089689297
 20
-65.8620756687
 10
50.9420099308
 20
-65.8690816201
 10
50.8726517507
 20
-65.8728133361
 10
50.7985789479
 20
-65.8728185627
 10
50.7226763413
 20
-65.8689615259
 10
50.6526534762
 20
-65.862256338
 10
50.5936047449
 20
-65.853906398
 10
50.5400697801
 20
-65.8437804415
 10
50.4839557755
 20
-65.8309508008
  0
LWPOLYLINE
  5
281
100
AcDbEntity
  8
IMPORT_IGES
100
AcDbPolyline
 62
250
  6
CONTINUOUS
 90
7
 70
0
 10
50.2319162905
 20
-67.8982750501
 10
50.2946083703
 20
-67.9275144166
 10
50.3584985239
 20
-67.9548501071
 10
50.4226423678
 20
-67.9800834796
 10
50.4847163894
 20
-68.0026565873
 10
50.5403213448
 20
-68.0212940211
 10
50.6523264547
 20
-68.0566292738
  0
LWPOLYLINE
  5
282
100
AcDbEntity
  8
IMPORT_IGES
100
AcDbPolyline
 62
250
  6
CONTINUOUS
 90
16
 70
0
 10
-67.2687058944
 20
-2.9746220564
 10
-67.3062778731
 20
-2.9498291121
 10
-67.3417154539
 20
-2.9216344181
 10
-67.3749236509
 20
-2.8901135466
 10
-67.4058134537
 20
-2.8553509853
 10
-67.4343020661
 20
-2.8174399107
 10
-67.4603131281
 20
-2.7764819388
 10
-67.4837769203
 20
-2.7325868522
 10
-67.504630551
 20
-2.685872306
 10
-67.5228181247
 20
-2.6364635127
 10
-67.5382908919
 20
-2.5844929062
 10
-67.5510073798
 20
-2.5300997871
 10
-67.5609335035
 20
-2.4734299494
 10
-67.5680426572
 20
-2.4146352892
 10
-67.5723157859
 20
-2.3538733983
 10
-67.5737414359
 20
-2.291307141
  0
LWPOLYLINE
  5
283
100
AcDbEntity
  8
IMPORT_IGES
100
AcDbPolyline
 62
250
  6
CONTINUOUS
 90
9
 70
0
 10
-67.5348582811
 20
0.4262193884
 10
-67.5434388997
 20
0.4327359823
 10
-67.5511149029
 20
0.4407276526
 10
-67.5578028376
 20
0.4501625874
 10
-67.5634143509
 20
0.4609803209
 10
-67.5678697763
 20
0.4730938205
 10
-67.5711070714
 20
0.4864072746
 10
-67.5730776224
 20
0.5008221233
 10
-67.5737414359
 20
0.5162210699
  0
LWPOLYLINE
  5
284
100
AcDbEntity
  8
IMPORT_IGES
100
AcDbPolyline
 62
250
  6
CONTINUOUS
 90
9
 70
0
 10
-67.5348582811
 20
2.4673950804
 10
-67.5434388997
 20
2.4739116743
 10
-67.5511149029
 20
2.4819033446
 10
-67.5578028376
 20
2.4913382794
 10
-67.5634143509
 20
2.5021560129
 10
-67.5678697763
 20
2.5142695125
 10
-67.5711070714
 20
2.5275829666
 10
-67.5730776224
 20
2.5419978153
 10
-67.5737414359
 20
2.5573967619
  0
LWPOLYLINE
  5
285
100
AcDbEntity
  8
IMPORT_IGES
100
AcDbPolyline
 62
250
  6
CONTINUOUS
 90
3
 70
0
 10
-67.9693931869
 20
55.7805579565
 10
-67.9487126007
 20
55.7258957682
 10
-67.9248654578
 20
55.6751191298
  0
LWPOLYLINE
  5
286
100
AcDbEntity
  8
IMPORT_IGES
100
AcDbPolyline
 62
250
  6
CONTINUOUS
 90
3
 70
0
 10
-67.9693931868
 20
57.8217336482
 10
-67.9487126006
 20
57.76707146
 10
-67.9248654577
 20
57.7162948216
  0
LWPOLYLINE
  5
287
100
AcDbEntity
  8
IMPORT_IGES
100
AcDbPolyline
 62
250
  6
CONTINUOUS
 90
7
 70
0
 10
50.2319162905
 20
-65.8570993581
 10
50.2946083703
 20
-65.8863387246
 10
50.3584985238
 20
-65.9136744151
 10
50.4226423678
 20
-65.9389077876
 10
50.4847163893
 20
-65.9614808953
 10
50.5403213446
 20
-65.9801183291
 10
50.6523264542
 20
-66.0154535817
  0
LWPOLYLINE
  5
288
100
AcDbEntity
  8
IMPORT_IGES
100
AcDbPolyline
 62
250
  6
CONTINUOUS
 90
7
 70
0
 10
50.2319162906
 20
-63.8159236661
 10
50.2946083704
 20
-63.8451630326
 10
50.3584985239
 20
-63.8724987231
 10
50.4226423678
 20
-63.8977320956
 10
50.4847163893
 20
-63.9203052034
 10
50.5403213447
 20
-63.9389426371
 10
50.6523264544
 20
-63.9742778897
  0
LINE
  5
289
100
AcDbEntity
  8
IMPORT_IGES
100
AcDbLine
 62
250
  6
CONTINUOUS
 10
50.170181911
 20
-67.8667902163
 11
50.2319162905
 21
-67.8982750501
  0
LINE
  5
28A
100
AcDbEntity
  8
IMPORT_IGES
100
AcDbLine
 62
250
  6
CONTINUOUS
 10
50.170181911
 20
-65.8256145243
 11
50.2319162905
 21
-65.8570993581
  0
LINE
  5
28B
100
AcDbEntity
  8
IMPORT_IGES
100
AcDbLine
 62
250
  6
CONTINUOUS
 10
50.1701819111
 20
-63.7844388324
 11
50.2319162906
 21
-63.8159236661
  0
LWPOLYLINE
  5
28C
100
AcDbEntity
  8
IMPORT_IGES
100
AcDbPolyline
 62
250
  6
CONTINUOUS
 90
49
 70
0
 10
50.2280139584
 20
-69.5362558017
 10
50.2941773025
 20
-69.5714890171
 10
50.3601044187
 20
-69.6029167318
 10
50.4257846261
 20
-69.6304778434
 10
50.4913422803
 20
-69.6538345069
 10
50.5566068413
 20
-69.6731001894
 10
50.6211202461
 20
-69.6888873741
 10
50.6845997958
 20
-69.7011232155
 10
50.7472429776
 20
-69.7096275069
 10
50.8093121298
 20
-69.7149006634
 10
50.8710075972
 20
-69.7169521938
 10
50.9319854929
 20
-69.715524401
 10
50.9916930309
 20
-69.7107707551
 10
51.0495368319
 20
-69.7028533929
 10
51.1059280619
 20
-69.6914628143
 10
51.1617760307
 20
-69.6760242928
 10
51.2176931801
 20
-69.6560830195
 10
51.2726501122
 20
-69.6318339652
 10
51.3250797918
 20
-69.6037101757
 10
51.374458862
 20
-69.5715303209
 10
51.4209100673
 20
-69.5355114977
 10
51.4639687879
 20
-69.496841276
 10
51.5035625478
 20
-69.4553975051
 10
51.539473275
 20
-69.4115513948
 10
51.5712840345
 20
-69.3673482106
 10
51.5986681299
 20
-69.3237581769
 10
51.6221281944
 20
-69.2801407028
 10
51.6425935183
 20
-69.2361429387
 10
51.6599173447
 20
-69.1924915243
 10
51.6742703156
 20
-69.1486980119
 10
51.6866752936
 20
-69.1026429422
 10
51.6972424667
 20
-69.0533869451
 10
51.7050919556
 20
-69.0023944744
 10
51.7096381659
 20
-68.9512005886
 10
51.7106580874
 20
-68.8997920325
 10
51.708058353
 20
-68.848732595
 10
51.7019820062
 20
-68.8001616023
 10
51.692754253
 20
-68.7545910829
 10
51.6805000108
 20
-68.7115573801
 10
51.6654695662
 20
-68.6714266355
 10
51.6483612413
 20
-68.6348267415
 10
51.6290767568
 20
-68.6008535974
 10
51.6064910983
 20
-68.5677323081
 10
51.5799465175
 20
-68.534817277
 10
51.5500387415
 20
-68.5030987536
 10
51.5174323678
 20
-68.4733249007
 10
51.482277468
 20
-68.4454210769
 10
51.4447478776
 20
-68.4192952031
 10
51.4057820297
 20
-68.3953085443
  0
LWPOLYLINE
  5
28D
100
AcDbEntity
  8
IMPORT_IGES
100
AcDbPolyline
 62
250
  6
CONTINUOUS
 90
49
 70
0
 10
50.2280139584
 20
-67.4950801097
 10
50.2941773025
 20
-67.5303133251
 10
50.3601044188
 20
-67.5617410398
 10
50.4257846261
 20
-67.5893021515
 10
50.4913422803
 20
-67.6126588149
 10
50.5566068413
 20
-67.6319244974
 10
50.6211202461
 20
-67.6477116821
 10
50.6845997957
 20
-67.6599475235
 10
50.7472429775
 20
-67.6684518149
 10
50.8093121297
 20
-67.6737249714
 10
50.8710075971
 20
-67.6757765018
 10
50.9319854928
 20
-67.674348709
 10
50.9916930307
 20
-67.6695950631
 10
51.0495368317
 20
-67.661677701
 10
51.1059280617
 20
-67.6502871224
 10
51.1617760304
 20
-67.6348486009
 10
51.2176931798
 20
-67.6149073276
 10
51.272650112
 20
-67.5906582734
 10
51.3250797916
 20
-67.5625344839
 10
51.3744588618
 20
-67.530354629
 10
51.4209100672
 20
-67.4943358059
 10
51.4639687878
 20
-67.4556655842
 10
51.5035625477
 20
-67.4142218133
 10
51.5394732749
 20
-67.370375703
 10
51.5712840344
 20
-67.3261725187
 10
51.5986681298
 20
-67.2825824851
 10
51.6221281943
 20
-67.2389650111
 10
51.6425935182
 20
-67.194967247
 10
51.6599173446
 20
-67.1513158326
 10
51.6742703155
 20
-67.1075223203
 10
51.6866752935
 20
-67.0614672506
 10
51.6972424666
 20
-67.0122112534
 10
51.7050919555
 20
-66.9612187826
 10
51.7096381659
 20
-66.9100248969
 10
51.7106580874
 20
-66.8586163407
 10
51.7080583531
 20
-66.8075569032
 10
51.7019820062
 20
-66.7589859105
 10
51.6927542531
 20
-66.7134153911
 10
51.6805000109
 20
-66.6703816883
 10
51.6654695662
 20
-66.6302509436
 10
51.6483612414
 20
-66.5936510496
 10
51.6290767567
 20
-66.5596779053
 10
51.6064910982
 20
-66.526556616
 10
51.5799465174
 20
-66.4936415849
 10
51.5500387413
 20
-66.4619230615
 10
51.5174323675
 20
-66.4321492085
 10
51.4822774677
 20
-66.4042453847
 10
51.4447478773
 20
-66.3781195109
 10
51.4057820294
 20
-66.3541328522
  0
LWPOLYLINE
  5
28E
100
AcDbEntity
  8
IMPORT_IGES
100
AcDbPolyline
 62
250
  6
CONTINUOUS
 90
49
 70
0
 10
50.2280139584
 20
-65.4539044177
 10
50.2941773025
 20
-65.4891376332
 10
50.3601044188
 20
-65.5205653478
 10
50.4257846261
 20
-65.5481264595
 10
50.4913422803
 20
-65.571483123
 10
50.5566068413
 20
-65.5907488054
 10
50.6211202461
 20
-65.6065359902
 10
50.6845997958
 20
-65.6187718315
 10
50.7472429776
 20
-65.6272761229
 10
50.8093121298
 20
-65.6325492794
 10
50.8710075972
 20
-65.6346008098
 10
50.9319854929
 20
-65.633173017
 10
50.9916930308
 20
-65.6284193711
 10
51.0495368319
 20
-65.6205020089
 10
51.1059280619
 20
-65.6091114304
 10
51.1617760306
 20
-65.5936729089
 10
51.21769318
 20
-65.5737316356
 10
51.2726501122
 20
-65.5494825813
 10
51.3250797917
 20
-65.5213587918
 10
51.374458862
 20
-65.4891789369
 10
51.4209100673
 20
-65.4531601137
 10
51.4639687879
 20
-65.4144898921
 10
51.5035625478
 20
-65.3730461211
 10
51.539473275
 20
-65.3292000109
 10
51.5712840345
 20
-65.2849968266
 10
51.5986681299
 20
-65.2414067929
 10
51.6221281944
 20
-65.1977893189
 10
51.6425935182
 20
-65.1537915548
 10
51.6599173446
 20
-65.1101401404
 10
51.6742703156
 20
-65.0663466281
 10
51.6866752935
 20
-65.0202915584
 10
51.6972424667
 20
-64.9710355612
 10
51.7050919555
 20
-64.9200430905
 10
51.7096381659
 20
-64.8688492047
 10
51.7106580874
 20
-64.8174406486
 10
51.7080583531
 20
-64.7663812111
 10
51.7019820062
 20
-64.7178102183
 10
51.692754253
 20
-64.672239699
 10
51.6805000109
 20
-64.6292059962
 10
51.6654695662
 20
-64.5890752515
 10
51.6483612413
 20
-64.5524753576
 10
51.6290767568
 20
-64.5185022134
 10
51.6064910983
 20
-64.4853809241
 10
51.5799465175
 20
-64.452465893
 10
51.5500387414
 20
-64.4207473696
 10
51.5174323677
 20
-64.3909735167
 10
51.4822774679
 20
-64.3630696929
 10
51.4447478775
 20
-64.3369438191
 10
51.4057820296
 20
-64.3129571603
  0
LWPOLYLINE
  5
28F
100
AcDbEntity
  8
IMPORT_IGES
100
AcDbPolyline
 62
7
  6
CONTINUOUS
 90
12
 70
0
 10
50.1512270306
 20
-67.9244753392
 10
50.209411559
 20
-67.9567734273
 10
50.2716357825
 20
-67.9883646106
 10
50.3342970624
 20
-68.0174913793
 10
50.397098279
 20
-68.0443156272
 10
50.459978952
 20
-68.0691684052
 10
50.5226505013
 20
-68.0922609335
 10
50.5848379877
 20
-68.1137786482
 10
50.6465745872
 20
-68.1339783626
 10
50.7076413133
 20
-68.1530104522
 10
50.7677647274
 20
-68.1710648744
 10
50.9967366968
 20
-68.2377826795
  0
LWPOLYLINE
  5
290
100
AcDbEntity
  8
IMPORT_IGES
100
AcDbPolyline
 62
7
  6
CONTINUOUS
 90
12
 70
0
 10
50.1512270306
 20
-65.8832996472
 10
50.209411559
 20
-65.9155977353
 10
50.2716357825
 20
-65.9471889186
 10
50.3342970624
 20
-65.9763156873
 10
50.397098279
 20
-66.0031399352
 10
50.459978952
 20
-66.0279927132
 10
50.5226505014
 20
-66.0510852415
 10
50.5848379877
 20
-66.0726029562
 10
50.6465745872
 20
-66.0928026707
 10
50.7076413133
 20
-66.1118347602
 10
50.7677647274
 20
-66.1298891824
 10
50.9967366969
 20
-66.1966069875
  0
LINE
  5
291
100
AcDbEntity
  8
IMPORT_IGES
100
AcDbLine
 62
250
  6
CONTINUOUS
 10
50.1098187249
 20
-67.8329910928
 11
50.170181911
 21
-67.8667902163
  0
LINE
  5
292
100
AcDbEntity
  8
IMPORT_IGES
100
AcDbLine
 62
250
  6
CONTINUOUS
 10
50.1098187249
 20
-65.7918154008
 11
50.170181911
 21
-65.8256145243
  0
LINE
  5
293
100
AcDbEntity
  8
IMPORT_IGES
100
AcDbLine
 62
7
  6
CONTINUOUS
 10
50.4202466895
 20
-71.3270111162
 11
-67.2633134713
 21
-2.977798947
  0
LINE
  5
294
100
AcDbEntity
  8
IMPORT_IGES
100
AcDbLine
 62
250
  6
CONTINUOUS
 10
50.1098187248
 20
-70.6405193102
 11
-67.5737414359
 21
-2.291307141
  0
LINE
  5
295
100
AcDbEntity
  8
IMPORT_IGES
100
AcDbLine
 62
250
  6
CONTINUOUS
 10
-67.5737414359
 20
-1.4159002528
 11
50.1098187227
 21
-69.7651124191
  0
LINE
  5
296
100
AcDbEntity
  8
IMPORT_IGES
100
AcDbLine
 62
250
  6
CONTINUOUS
 10
50.2280153415
 20
-69.536256605
 11
-67.4555447771
 21
-1.1870444602
  0
LINE
  5
297
100
AcDbEntity
  8
IMPORT_IGES
100
AcDbLine
 62
7
  6
CONTINUOUS
 10
50.1512092464
 20
-67.9245234134
 11
-67.532230591
 21
0.4246188734
  0
LINE
  5
298
100
AcDbEntity
  8
IMPORT_IGES
100
AcDbLine
 62
250
  6
CONTINUOUS
 10
50.1098186994
 20
-67.8329910816
 11
-67.5737414359
 21
0.5162210717
  0
LINE
  5
299
100
AcDbEntity
  8
IMPORT_IGES
100
AcDbLine
 62
250
  6
CONTINUOUS
 10
-67.5737414359
 20
0.6252754427
 11
50.1098187227
 21
-67.7239367271
  0
LINE
  5
29A
100
AcDbEntity
  8
IMPORT_IGES
100
AcDbLine
 62
7
  6
CONTINUOUS
 10
51.4057820297
 20
-68.3953085443
 11
51.4056733303
 21
-68.3952454186
  0
LINE
  5
29B
100
AcDbEntity
  8
IMPORT_IGES
100
AcDbLine
 62
250
  6
CONTINUOUS
 10
50.2280153415
 20
-67.495080913
 11
-67.4555447771
 21
0.8541312317
  0
LINE
  5
29C
100
AcDbEntity
  8
IMPORT_IGES
100
AcDbLine
 62
250
  6
CONTINUOUS
 10
50.4201506279
 20
-71.3269553106
 11
50.4202466895
 21
-71.3270111162
  0
LINE
  5
29D
100
AcDbEntity
  8
IMPORT_IGES
100
AcDbLine
 62
250
  6
CONTINUOUS
 10
-67.2633134713
 20
-2.977798947
 11
-67.2687058944
 21
-2.9746220564
  0
LWPOLYLINE
  5
29E
100
AcDbEntity
  8
IMPORT_IGES
100
AcDbPolyline
 62
250
  6
CONTINUOUS
 90
16
 70
0
 10
-67.5737414359
 20
0.5162210699
 10
-67.6294498387
 20
0.5499639503
 10
-67.6809342594
 20
0.5842675695
 10
-67.7282319719
 20
0.6189431767
 10
-67.7712808695
 20
0.6538864416
 10
-67.8102980015
 20
0.6888441228
 10
-67.8456822696
 20
0.7234479116
 10
-67.8770181921
 20
0.7570646369
 10
-67.9048718203
 20
0.7900563613
 10
-67.9305340914
 20
0.8237092721
 10
-67.9545393896
 20
0.8596203734
 10
-67.974955919
 20
0.896206714
 10
-67.9900310125
 20
0.9298985033
 10
-68.0001142632
 20
0.9593847613
 10
-68.0063889188
 20
0.985594656
 10
-68.0093814499
 20
1.0076445749
  0
LWPOLYLINE
  5
29F
100
AcDbEntity
  8
IMPORT_IGES
100
AcDbPolyline
 62
250
  6
CONTINUOUS
 90
16
 70
0
 10
-67.5737414359
 20
2.5573967619
 10
-67.6294498387
 20
2.5911396423
 10
-67.6809342594
 20
2.6254432615
 10
-67.728231972
 20
2.6601188687
 10
-67.7712808695
 20
2.6950621336
 10
-67.8102980015
 20
2.7300198149
 10
-67.8456822697
 20
2.7646236036
 10
-67.8770181922
 20
2.798240329
 10
-67.9048718204
 20
2.8312320534
 10
-67.9305340915
 20
2.8648849643
 10
-67.9545393897
 20
2.9007960655
 10
-67.974955919
 20
2.9373824062
 10
-67.9900310125
 20
2.9710741954
 10
-68.0001142633
 20
3.0005604534
 10
-68.0063889188
 20
3.0267703481
 10
-68.0093814499
 20
3.048820267
  0
LWPOLYLINE
  5
2A0
100
AcDbEntity
  8
IMPORT_IGES
100
AcDbPolyline
 62
250
  6
CONTINUOUS
 90
17
 70
0
 10
-67.5737414359
 20
-2.291307141
 10
-67.6270488022
 20
-2.2587005233
 10
-67.677361985
 20
-2.2245446382
 10
-67.7245461262
 20
-2.188931036
 10
-67.7684747546
 20
-2.1519551746
 10
-67.8090301251
 20
-2.113716163
 10
-67.8461035343
 20
-2.0743164961
 10
-67.8795956115
 20
-2.0338617796
 10
-67.9094165856
 20
-1.9924604473
 10
-67.9354865251
 20
-1.9502234702
 10
-67.957735553
 20
-1.907264059
 10
-67.9761040335
 20
-1.8636973612
 10
-67.9905427323
 20
-1.8196401516
 10
-68.0010129483
 20
-1.77521052
 10
-68.0074866173
 20
-1.7305275544
 10
-68.0099463876
 20
-1.6857110217
 10
-68.0099715345
 20
-1.6806960497
  0
LWPOLYLINE
  5
2A1
100
AcDbEntity
  8
IMPORT_IGES
100
AcDbPolyline
 62
250
  6
CONTINUOUS
 90
24
 70
0
 10
-67.4555448165
 20
-1.1870444374
 10
-67.514660797
 20
-1.1504919401
 10
-67.5689150967
 20
-1.1128584067
 10
-67.6183177608
 20
-1.0740854922
 10
-67.662741673
 20
-1.0340135925
 10
-67.7023598346
 20
-0.9925746168
 10
-67.7376436036
 20
-0.9498149845
 10
-67.7686911934
 20
-0.9052754257
 10
-67.7955207021
 20
-0.8590518362
 10
-67.8184810635
 20
-0.81208834
 10
-67.8376204662
 20
-0.7642885558
 10
-67.8530555722
 20
-0.715490184
 10
-67.8652016693
 20
-0.6666949298
 10
-67.8741026761
 20
-0.6182268318
 10
-67.879869024
 20
-0.5697028183
 10
-67.8829803092
 20
-0.5211712401
 10
-67.883563092
 20
-0.4730470542
 10
-67.8816558171
 20
-0.4249344431
 10
-67.8776517982
 20
-0.3756455398
 10
-67.8716444192
 20
-0.3247788246
 10
-67.8638914039
 20
-0.2727027301
 10
-67.8550893251
 20
-0.2193707258
 10
-67.8452650351
 20
-0.1639278869
 10
-67.8062434228
 20
0.0494751675
  0
LWPOLYLINE
  5
2A2
100
AcDbEntity
  8
IMPORT_IGES
100
AcDbPolyline
 62
250
  6
CONTINUOUS
 90
24
 70
0
 10
-67.4555448165
 20
0.8541312546
 10
-67.514660797
 20
0.8906837519
 10
-67.5689150966
 20
0.9283172853
 10
-67.6183177608
 20
0.9670901998
 10
-67.662741673
 20
1.0071620995
 10
-67.7023598346
 20
1.0486010752
 10
-67.7376436037
 20
1.0913607076
 10
-67.7686911934
 20
1.1359002663
 10
-67.7955207022
 20
1.1821238558
 10
-67.8184810635
 20
1.229087352
 10
-67.8376204663
 20
1.2768871362
 10
-67.8530555722
 20
1.325685508
 10
-67.8652016693
 20
1.3744807622
 10
-67.8741026762
 20
1.4229488602
 10
-67.879869024
 20
1.4714728737
 10
-67.8829803092
 20
1.5200044518
 10
-67.883563092
 20
1.5681286378
 10
-67.8816558171
 20
1.616241249
 10
-67.8776517981
 20
1.6655301523
 10
-67.8716444192
 20
1.7163968675
 10
-67.8638914039
 20
1.7684729619
 10
-67.8550893251
 20
1.8218049662
 10
-67.8452650351
 20
1.877247805
 10
-67.8062434228
 20
2.0906508594
  0
LWPOLYLINE
  5
2A3
100
AcDbEntity
  8
IMPORT_IGES
100
AcDbPolyline
 62
250
  6
CONTINUOUS
 90
24
 70
0
 10
-67.4555448167
 20
2.8953069467
 10
-67.5144312684
 20
2.9317762154
 10
-67.5684008002
 20
2.9691708757
 10
-67.6174630206
 20
3.007546743
 10
-67.6614405218
 20
3.0470411413
 10
-67.7005541511
 20
3.0877329568
 10
-67.7354208387
 20
3.1296187967
 10
-67.7661582792
 20
3.1731097166
 10
-67.7927552908
 20
3.2181308439
 10
-67.8156335902
 20
3.2638905898
 10
-67.834872261
 20
3.3104980229
 10
-67.850544857
 20
3.3580924847
 10
-67.8630348759
 20
3.4057910476
 10
-67.8724050748
 20
3.4533147056
 10
-67.8787433078
 20
3.5010162284
 10
-67.8824433565
 20
3.5488671943
 10
-67.8836317272
 20
3.5965316447
 10
-67.8823537767
 20
3.6443498722
 10
-67.8789234773
 20
3.6933245974
 10
-67.873436632
 20
3.743717088
 10
-67.8661336061
 20
3.7953044224
 10
-67.8576122766
 20
3.8483828209
 10
-67.8478648845
 20
3.9039584584
 10
-67.8084144973
 20
4.1198350828
  0
LWPOLYLINE
  5
2A4
100
AcDbEntity
  8
IMPORT_IGES
100
AcDbPolyline
 62
7
  6
CONTINUOUS
 90
12
 70
0
 10
50.1512270306
 20
-63.8421239552
 10
50.209411559
 20
-63.8744220434
 10
50.2716357825
 20
-63.9060132267
 10
50.3342970624
 20
-63.9351399954
 10
50.397098279
 20
-63.9619642432
 10
50.459978952
 20
-63.9868170212
 10
50.5226505013
 20
-64.0099095495
 10
50.5848379877
 20
-64.0314272642
 10
50.6465745872
 20
-64.0516269787
 10
50.7076413133
 20
-64.0706590682
 10
50.7677647274
 20
-64.0887134904
 10
50.9967366969
 20
-64.1554312955
  0
LINE
  5
2A5
100
AcDbEntity
  8
IMPORT_IGES
100
AcDbLine
 62
250
  6
CONTINUOUS
 10
50.1098187249
 20
-63.7506397089
 11
50.1701819111
 21
-63.7844388324
  0
LINE
  5
2A6
100
AcDbEntity
  8
IMPORT_IGES
100
AcDbLine
 62
7
  6
CONTINUOUS
 10
60.2255052844
 20
-65.6860460319
 11
60.4918850372
 21
-65.8398503626
  0
LINE
  5
2A7
100
AcDbEntity
  8
IMPORT_IGES
100
AcDbLine
 62
7
  6
CONTINUOUS
 10
50.1512092464
 20
-65.8833477214
 11
-67.532230591
 21
2.4657945654
  0
LINE
  5
2A8
100
AcDbEntity
  8
IMPORT_IGES
100
AcDbLine
 62
250
  6
CONTINUOUS
 10
50.1098186994
 20
-65.7918153897
 11
-67.5737414359
 21
2.5573967637
  0
LINE
  5
2A9
100
AcDbEntity
  8
IMPORT_IGES
100
AcDbLine
 62
250
  6
CONTINUOUS
 10
-67.5737414359
 20
2.6664511346
 11
50.1098187227
 21
-65.6827610351
  0
LINE
  5
2AA
100
AcDbEntity
  8
IMPORT_IGES
100
AcDbLine
 62
250
  6
CONTINUOUS
 10
50.2280153415
 20
-65.453905221
 11
-67.4555447771
 21
2.8953069237
  0
LINE
  5
2AB
100
AcDbEntity
  8
IMPORT_IGES
100
AcDbLine
 62
7
  6
CONTINUOUS
 10
50.1512107001
 20
-63.8421732238
 11
-67.5323550869
 21
4.5070422131
  0
LINE
  5
2AC
100
AcDbEntity
  8
IMPORT_IGES
100
AcDbLine
 62
250
  6
CONTINUOUS
 10
-67.5737414359
 20
4.5985745247
 11
50.1098186995
 21
-63.7506396977
  0
LINE
  5
2AD
100
AcDbEntity
  8
IMPORT_IGES
100
AcDbLine
 62
7
  6
CONTINUOUS
 10
50.1015981868
 20
-63.2604394298
 11
-68.9614211915
 21
5.8899462474
  0
LWPOLYLINE
  5
2AE
100
AcDbEntity
  8
IMPORT_IGES
100
AcDbPolyline
 62
250
  6
CONTINUOUS
 90
16
 70
0
 10
-67.5737414359
 20
4.5985726256
 10
-67.6304059546
 20
4.6329146639
 10
-67.6825332963
 20
4.6677299532
 10
-67.7301961873
 20
4.7028053879
 10
-67.7733254838
 20
4.7379774298
 10
-67.8122303259
 20
4.773010491
 10
-67.8474635807
 20
4.8076432575
 10
-67.8786710612
 20
4.8412876296
 10
-67.906363551
 20
4.8742587568
 10
-67.9317933515
 20
4.9078194585
 10
-67.9554831199
 20
4.9435225386
 10
-67.9755811836
 20
4.9798168936
 10
-67.9904125306
 20
5.0132283342
 10
-68.0003301346
 20
5.0424813521
 10
-68.0064893354
 20
5.0684782142
 10
-68.0094854681
 20
5.0909100183
  0
LWPOLYLINE
  5
2AF
100
AcDbEntity
  8
IMPORT_IGES
100
AcDbPolyline
 62
250
  6
CONTINUOUS
 90
10
 70
0
 10
-67.5324519888
 20
4.5070986009
 10
-67.5357297098
 20
4.5091381642
 10
-67.5443044772
 20
4.5158704402
 10
-67.5518999909
 20
4.5240437181
 10
-67.5584496904
 20
4.5335920127
 10
-67.5638918078
 20
4.5444315322
 10
-67.5681746654
 20
4.5564609796
 10
-67.5712606499
 20
4.5695713756
 10
-67.5731239546
 20
4.5836498061
 10
-67.5737486203
 20
4.5985724472
  0
LWPOLYLINE
  5
2B0
100
AcDbEntity
  8
IMPORT_IGES
100
AcDbPolyline
 62
250
  6
CONTINUOUS
 90
10
 70
0
 10
-67.9248654578
 20
55.6751191298
 10
-67.8996557333
 20
55.6305653251
 10
-67.8725437519
 20
55.5898666833
 10
-67.8420568087
 20
55.550180914
 10
-67.8075452634
 20
55.5109832844
 10
-67.7694060469
 20
55.4730778766
 10
-67.7271369906
 20
55.4357901485
 10
-67.6804427807
 20
55.3990389135
 10
-67.6293426299
 20
55.3632991489
 10
-67.5737414359
 20
55.3287839878
  0
LWPOLYLINE
  5
2B1
100
AcDbEntity
  8
IMPORT_IGES
100
AcDbPolyline
 62
250
  6
CONTINUOUS
 90
10
 70
0
 10
-67.9248654577
 20
57.7162948216
 10
-67.8996557332
 20
57.6717410169
 10
-67.8725437518
 20
57.6310423752
 10
-67.8420568086
 20
57.5913566059
 10
-67.8075452634
 20
57.5521589763
 10
-67.7694060469
 20
57.5142535685
 10
-67.7271369906
 20
57.4769658404
 10
-67.6804427807
 20
57.4402146055
 10
-67.6293426299
 20
57.4044748408
 10
-67.5737414359
 20
57.3699596798
  0
LWPOLYLINE
  5
2B2
100
AcDbEntity
  8
IMPORT_IGES
100
AcDbPolyline
 62
7
  6
CONTINUOUS
 90
7
 70
0
 10
66.2109251994
 20
-33.9029320857
 10
66.1350603923
 20
-33.8920601883
 10
66.0615737206
 20
-33.876234634
 10
65.9904651843
 20
-33.8554554227
 10
65.9216126832
 20
-33.8296661781
 10
65.8551383175
 20
-33.7989232766
 10
65.8230876633
 20
-33.7818549048
  0
LINE
  5
2B3
100
AcDbEntity
  8
IMPORT_IGES
100
AcDbLine
 62
7
  6
CONTINUOUS
 10
61.5808833363
 20
-58.3138194373
 11
61.2272760896
 21
-58.1095266072
  0
LWPOLYLINE
  5
2B4
100
AcDbEntity
  8
IMPORT_IGES
100
AcDbPolyline
 62
7
  6
CONTINUOUS
 90
67
 70
0
 10
-15.6610310991
 20
-1.2071944079
 10
-15.6567050418
 20
-1.4951463521
 10
-15.6438324661
 20
-1.7870875692
 10
-15.6224133718
 20
-2.0830180591
 10
-15.5923979558
 20
-2.3833420329
 10
-15.5538360213
 20
-2.6876552796
 10
-15.5068769783
 20
-2.9947451657
 10
-15.4514745069
 20
-3.304638614
 10
-15.387674927
 20
-3.6173087018
 10
-15.3157666081
 20
-3.9314620283
 10
-15.2357879224
 20
-4.2468905616
 10
-15.1477004977
 20
-4.5638023336
 10
-15.0516775871
 20
-4.8815280392
 10
-14.9476170199
 20
-5.2003326998
 10
-14.8356209669
 20
-5.5199512941
 10
-14.7161691933
 20
-5.8389194522
 10
-14.5892548537
 20
-6.1571424567
 10
-14.4548847935
 20
-6.4747150251
 10
-14.3135593136
 20
-6.7904569406
 10
-14.165200835
 20
-7.1044428939
 10
-14.0098869367
 20
-7.4165981943
 10
-13.8483506572
 20
-7.7255185532
 10
-13.6806829478
 20
-8.0309868827
 10
-13.5067928571
 20
-8.3332202708
 10
-13.3271405692
 20
-8.6314656925
 10
-13.1416640163
 20
-8.9258101299
 10
-12.9504252663
 20
-9.216166601
 10
-12.7540707066
 20
-9.5015211346
 10
-12.5525324682
 20
-9.7819179663
 10
-12.3458784203
 20
-10.0573128605
 10
-12.1349585577
 20
-10.3265591398
 10
-11.9197779585
 20
-10.5895942281
 10
-11.7003315446
 20
-10.8464807015
 10
-11.4774540772
 20
-11.0962596108
 10
-11.2511591887
 20
-11.3388779961
 10
-11.0214332467
 20
-11.5743888172
 10
-10.7890701143
 20
-11.8019920041
 10
-10.5540602532
 20
-12.0216666213
 10
-10.3164132017
 20
-12.2334336042
 10
-10.0769514387
 20
-12.4365556894
 10
-9.8356478733
 20
-12.6310202672
 10
-9.5925295963
 20
-12.8168399473
 10
-9.3485003598
 20
-12.9933152947
 10
-9.1035566124
 20
-13.1604092856
 10
-8.8577019054
 20
-13.3181589438
 10
-8.6118506452
 20
-13.4659759055
 10
-8.366006414
 20
-13.6038197101
 10
-8.1201656297
 20
-13.7317308182
 10
-7.8752319515
 20
-13.8492422476
 10
-7.6312086607
 20
-13.9563146832
 10
-7.3880924762
 20
-14.0529874401
 10
-7.1467772136
 20
-14.1389114811
 10
-6.9072781726
 20
-14.2140453507
 10
-6.6695800536
 20
-14.2784305044
 10
-6.4345307733
 20
-14.3318422725
 10
-6.2021397145
 20
-14.3742437407
 10
-5.9723974946
 20
-14.4056718234
 10
-5.7461238825
 20
-14.4260125937
 10
-5.5233311903
 20
-14.4352292333
 10
-5.3040071059
 20
-14.4333585606
 10
-5.0889344624
 20
-14.4203971039
 10
-4.8781133818
 20
-14.3963022062
 10
-4.6715437421
 20
-14.3611165245
 10
-4.4700080105
 20
-14.3149645576
 10
-4.2735329705
 20
-14.2578048595
 10
-4.0820918386
 20
-14.1896788762
 10
-3.8963867321
 20
-14.1108354447
  0
LWPOLYLINE
  5
2B5
100
AcDbEntity
  8
IMPORT_IGES
100
AcDbPolyline
 62
7
  6
CONTINUOUS
 90
24
 70
0
 10
-16.0156210662
 20
-1.4107314383
 10
-16.0112950089
 20
-1.1278045393
 10
-15.9984224331
 20
-0.8508158001
 10
-15.9770033389
 20
-0.5797652206
 10
-15.9469879228
 20
-0.3143064401
 10
-15.9084259884
 20
-0.0547858194
 10
-15.8614669453
 20
0.1977575594
 10
-15.806064474
 20
0.4432968146
 10
-15.7422648941
 20
0.681858828
 10
-15.6703565752
 20
0.9124851616
 10
-15.5903778895
 20
1.1350123559
 10
-15.5022904648
 20
1.3496038705
 10
-15.4062675542
 20
1.5557916471
 10
-15.302206987
 20
1.7537220281
 10
-15.190210934
 20
1.943248671
 10
-15.0707591603
 20
2.1234644901
 10
-14.9438448208
 20
2.2942668164
 10
-14.8094747606
 20
2.4557583189
 10
-14.6681492807
 20
2.6073399185
 10
-14.5197908021
 20
2.7489961917
 10
-14.3644769038
 20
2.8807425621
 10
-14.2029406242
 20
3.0020262209
 10
-14.0352729148
 20
3.1127357272
 10
-13.9435858127
 20
3.167333247
  0
LWPOLYLINE
  5
2B6
100
AcDbEntity
  8
IMPORT_IGES
100
AcDbPolyline
 62
7
  6
CONTINUOUS
 90
4
 70
0
 10
65.6542531413
 20
-33.661766718
 10
65.7019038204
 20
-33.6756911155
 10
65.7753904921
 20
-33.6915166698
 10
65.8512552992
 20
-33.7023885672
  0
LWPOLYLINE
  5
2B7
100
AcDbEntity
  8
IMPORT_IGES
100
AcDbPolyline
 62
7
  6
CONTINUOUS
 90
22
 70
0
 10
-13.8471218753
 20
3.2064283636
 10
-14.0088120457
 20
3.0851420916
 10
-14.1642287353
 20
2.9534055122
 10
-14.3126575975
 20
2.8117894497
 10
-14.4540179427
 20
2.6602871087
 10
-14.5883904605
 20
2.4989052846
 10
-14.7153028736
 20
2.3282351889
 10
-14.8347522246
 20
2.1481789446
 10
-14.9467414709
 20
1.9588344286
 10
-15.0508072061
 20
1.7610864822
 10
-15.1468510091
 20
1.5550865958
 10
-15.2349713011
 20
1.3406832789
 10
-15.3149999396
 20
1.1183069025
 10
-15.3869800413
 20
0.8877981977
 10
-15.4508684896
 20
0.6493164332
 10
-15.5063677919
 20
0.403769786
 10
-15.5534367637
 20
0.1511327642
 10
-15.5921165894
 20
-0.1085691405
 10
-15.6222333298
 20
-0.3743512753
 10
-15.643729005
 20
-0.6458854226
 10
-15.6566615948
 20
-0.9234998002
 10
-15.6610310991
 20
-1.2071944079
  0
LINE
  5
2B8
100
AcDbEntity
  8
IMPORT_IGES
100
AcDbLine
 62
7
  6
CONTINUOUS
 10
-13.762231414
 20
3.2624144295
 11
-13.8471218753
 21
3.2064283636
  0
LWPOLYLINE
  5
2B9
100
AcDbEntity
  8
IMPORT_IGES
100
AcDbPolyline
 62
7
  6
CONTINUOUS
 90
69
 70
0
 10
-13.9435858127
 20
3.167333247
 10
-13.8613828242
 20
3.212982522
 10
-13.6817305363
 20
3.3025481192
 10
-13.4962539834
 20
3.3814474044
 10
-13.3050152333
 20
3.4496654921
 10
-13.1086606737
 20
3.5069392395
 10
-12.9071224353
 20
3.5532340471
 10
-12.7004683873
 20
3.5885845146
 10
-12.4895485247
 20
3.6128312983
 10
-12.2743679255
 20
3.6259177208
 10
-12.0549215117
 20
3.6279004595
 10
-11.8320440443
 20
3.6187902037
 10
-11.6057491558
 20
3.5985498291
 10
-11.3760232138
 20
3.5672164601
 10
-11.1436600814
 20
3.5249121593
 10
-10.9086502202
 20
3.4716049115
 10
-10.6710031688
 20
3.4073267319
 10
-10.4315414058
 20
3.3322957289
 10
-10.1902378403
 20
3.2464678246
 10
-9.9471195634
 20
3.1498870969
 10
-9.7030903269
 20
3.0429038875
 10
-9.4581465795
 20
2.9254770474
 10
-9.2122918725
 20
2.7976477258
 10
-8.9664406123
 20
2.6598897113
 10
-8.7205963811
 20
2.5121667044
 10
-8.4747555967
 20
2.3545150048
 10
-8.2298219185
 20
2.1875172994
 10
-7.9857986278
 20
2.0111380847
 10
-7.7426824433
 20
1.8254128642
 10
-7.5013671807
 20
1.631030836
 10
-7.2618681397
 20
1.4279683161
 10
-7.0241700206
 20
1.2162489884
 10
-6.7891207404
 20
0.9966331034
 10
-6.5567296816
 20
0.7690946452
 10
-6.3269874617
 20
0.5336596297
 10
-6.1007138496
 20
0.2911663542
 10
-5.8779211573
 20
0.0415923017
 10
-5.658597073
 20
-0.2150400107
 10
-5.4435244295
 20
-0.4778247345
 10
-5.2327033489
 20
-0.746804385
 10
-5.0261337092
 20
-1.0219364469
 10
-4.8245979776
 20
-1.302187526
 10
-4.6281229375
 20
-1.5875679574
 10
-4.4366818056
 20
-1.878067406
 10
-4.2509766992
 20
-2.172621472
 10
-4.0710625056
 20
-2.471172501
 10
-3.8968843375
 20
-2.7737781475
 10
-3.7289796502
 20
-3.0795469753
 10
-3.5672894798
 20
-3.3886487033
 10
-3.4118727902
 20
-3.7009136128
 10
-3.263443928
 20
-4.0149411111
 10
-3.1220835828
 20
-4.3306442668
 10
-2.9877110649
 20
-4.6481100115
 10
-2.8607986519
 20
-4.9661985476
 10
-2.7413493008
 20
-5.2850043169
 10
-2.6293600546
 20
-5.6044328777
 10
-2.5252943193
 20
-5.9230611069
 10
-2.4292505164
 20
-6.2406231905
 10
-2.3411302244
 20
-6.5573849425
 10
-2.2611015859
 20
-6.8727206819
 10
-2.1891214841
 20
-7.1868397608
 10
-2.1252330359
 20
-7.4995328272
 10
-2.0697337336
 20
-7.8095461438
 10
-2.0226647618
 20
-8.1168573638
 10
-1.983984936
 20
-8.421488834
 10
-1.9538681957
 20
-8.722253858
 10
-1.9323725205
 20
-9.0187568704
 10
-1.9194399307
 20
-9.3113934366
 10
-1.9150704264
 20
-9.6001635567
  0
LWPOLYLINE
  5
2BA
100
AcDbEntity
  8
IMPORT_IGES
100
AcDbPolyline
 62
7
  6
CONTINUOUS
 90
24
 70
0
 10
-1.9150704264
 20
-9.6001635567
 10
-1.9193964837
 20
-9.8830904557
 10
-1.9322690594
 20
-10.1600791949
 10
-1.9536881537
 20
-10.4311297744
 10
-1.9837035697
 20
-10.6965885549
 10
-2.0222655042
 20
-10.9561091756
 10
-2.0692245472
 20
-11.2086525543
 10
-2.1246270186
 20
-11.4541918096
 10
-2.1884265985
 20
-11.6927538229
 10
-2.2603349174
 20
-11.9233801566
 10
-2.3403136031
 20
-12.1459073509
 10
-2.4284010278
 20
-12.3604988655
 10
-2.5244239384
 20
-12.5666866421
 10
-2.6284845055
 20
-12.764617023
 10
-2.7404805586
 20
-12.954143666
 10
-2.8599323322
 20
-13.1343594851
 10
-2.9868466718
 20
-13.3051618114
 10
-3.121216732
 20
-13.4666533139
 10
-3.2625422119
 20
-13.6182349135
 10
-3.4109006905
 20
-13.7598911867
 10
-3.5662145888
 20
-13.8916375571
 10
-3.7277508683
 20
-14.0129212158
 10
-3.8954185777
 20
-14.1236307222
 10
-3.9871056799
 20
-14.1782282419
  0
LWPOLYLINE
  5
2BB
100
AcDbEntity
  8
IMPORT_IGES
100
AcDbPolyline
 62
250
  6
CONTINUOUS
 90
8
 70
0
 10
50.8840302875
 20
-13.4182053582
 10
51.086227832
 20
-13.4710056963
 10
51.1474531054
 20
-13.4873470577
 10
51.2058924013
 20
-13.5036702907
 10
51.2646269811
 20
-13.5213686335
 10
51.3253161041
 20
-13.5409675188
 10
51.3860966929
 20
-13.5618198893
 10
51.4447923525
 20
-13.5834942205
  0
LWPOLYLINE
  5
2BC
100
AcDbEntity
  8
IMPORT_IGES
100
AcDbPolyline
 62
250
  6
CONTINUOUS
 90
7
 70
0
 10
50.4840370973
 20
-15.2098006198
 10
50.4227100732
 20
-15.1934653341
 10
50.3596675404
 20
-15.1738033563
 10
50.2963470149
 20
-15.1508782395
 10
50.2334670618
 20
-15.1246618106
 10
50.1711310287
 20
-15.0949398335
 10
50.1098187249
 20
-15.0616038788
  0
LWPOLYLINE
  5
2BD
100
AcDbEntity
  8
IMPORT_IGES
100
AcDbPolyline
 62
250
  6
CONTINUOUS
 90
7
 70
0
 10
50.4840370973
 20
-13.1686249278
 10
50.4227100732
 20
-13.1522896421
 10
50.3596675404
 20
-13.1326276644
 10
50.296347015
 20
-13.1097025475
 10
50.2334670618
 20
-13.0834861187
 10
50.1711310287
 20
-13.0537641415
 10
50.1098187249
 20
-13.0204281868
  0
LWPOLYLINE
  5
2BE
100
AcDbEntity
  8
IMPORT_IGES
100
AcDbPolyline
 62
250
  6
CONTINUOUS
 90
8
 70
0
 10
50.8840302862
 20
-11.3770296659
 10
51.0862278308
 20
-11.4298300041
 10
51.1474531042
 20
-11.4461713654
 10
51.2058924001
 20
-11.4624945984
 10
51.2646269799
 20
-11.4801929412
 10
51.3253161029
 20
-11.4997918265
 10
51.3860966918
 20
-11.5206441969
 10
51.4447923514
 20
-11.5423185281
  0
LWPOLYLINE
  5
2BF
100
AcDbEntity
  8
IMPORT_IGES
100
AcDbPolyline
 62
250
  6
CONTINUOUS
 90
8
 70
0
 10
50.8840302866
 20
-9.335853974
 10
51.0862278312
 20
-9.3886543122
 10
51.1474531046
 20
-9.4049956735
 10
51.2058924005
 20
-9.4213189066
 10
51.2646269803
 20
-9.4390172493
 10
51.3253161033
 20
-9.4586161346
 10
51.3860966922
 20
-9.479468505
 10
51.4447923518
 20
-9.5011428363
  0
LWPOLYLINE
  5
2C0
100
AcDbEntity
  8
IMPORT_IGES
100
AcDbPolyline
 62
250
  6
CONTINUOUS
 90
7
 70
0
 10
50.4840370973
 20
-11.1274492358
 10
50.4227100732
 20
-11.1111139502
 10
50.3596675404
 20
-11.0914519724
 10
50.296347015
 20
-11.0685268555
 10
50.2334670618
 20
-11.0423104267
 10
50.1711310287
 20
-11.0125884495
 10
50.1098187249
 20
-10.9792524948
  0
LWPOLYLINE
  5
2C1
100
AcDbEntity
  8
IMPORT_IGES
100
AcDbPolyline
 62
7
  6
CONTINUOUS
 90
12
 70
0
 10
50.9531760511
 20
-13.5214891948
 10
51.0088482286
 20
-13.5378668238
 10
51.0628119714
 20
-13.5541784959
 10
51.1147580768
 20
-13.5705376813
 10
51.1644865934
 20
-13.5870606127
 10
51.211749639
 20
-13.603816296
 10
51.2564075707
 20
-13.6208789102
 10
51.2984240365
 20
-13.6383218435
 10
51.3374376711
 20
-13.6560285184
 10
51.3736526043
 20
-13.6741042944
 10
51.40773135
 20
-13.6929499691
 10
51.4144133277
 20
-13.6968966042
  0
LWPOLYLINE
  5
2C2
100
AcDbEntity
  8
IMPORT_IGES
100
AcDbPolyline
 62
7
  6
CONTINUOUS
 90
12
 70
0
 10
50.9531760511
 20
-11.4803135028
 10
51.0088482286
 20
-11.4966911318
 10
51.0628119714
 20
-11.5130028039
 10
51.1147580768
 20
-11.5293619893
 10
51.1644865934
 20
-11.5458849207
 10
51.211749639
 20
-11.5626406041
 10
51.2564075708
 20
-11.5797032182
 10
51.2984240365
 20
-11.5971461515
 10
51.3374376711
 20
-11.6148528264
 10
51.3736526043
 20
-11.6329286024
 10
51.40773135
 20
-11.6517742772
 10
51.4144133278
 20
-11.6557209122
  0
LWPOLYLINE
  5
2C3
100
AcDbEntity
  8
IMPORT_IGES
100
AcDbPolyline
 62
7
  6
CONTINUOUS
 90
12
 70
0
 10
50.9531760511
 20
-9.4391378108
 10
51.0088482286
 20
-9.4555154398
 10
51.0628119714
 20
-9.4718271119
 10
51.1147580768
 20
-9.4881862973
 10
51.1644865934
 20
-9.5047092287
 10
51.211749639
 20
-9.5214649121
 10
51.2564075708
 20
-9.5385275262
 10
51.2984240365
 20
-9.5559704595
 10
51.3374376711
 20
-9.5736771344
 10
51.3736526043
 20
-9.5917529105
 10
51.40773135
 20
-9.6105985852
 10
51.4144133278
 20
-9.6145452203
  0
LWPOLYLINE
  5
2C4
100
AcDbEntity
  8
IMPORT_IGES
100
AcDbPolyline
 62
250
  6
CONTINUOUS
 90
4
 70
0
 10
50.652317442
 20
-13.3531025185
 10
50.7255844726
 20
-13.3750967294
 10
50.8062519459
 20
-13.3976028132
 10
50.8840302875
 20
-13.4182053582
  0
LWPOLYLINE
  5
2C5
100
AcDbEntity
  8
IMPORT_IGES
100
AcDbPolyline
 62
250
  6
CONTINUOUS
 90
4
 70
0
 10
50.652317441
 20
-11.3119268262
 10
50.7255844714
 20
-11.333921037
 10
50.8062519446
 20
-11.3564271208
 10
50.8840302862
 20
-11.3770296659
  0
LWPOLYLINE
  5
2C6
100
AcDbEntity
  8
IMPORT_IGES
100
AcDbPolyline
 62
250
  6
CONTINUOUS
 90
4
 70
0
 10
50.6523174413
 20
-9.2707511343
 10
50.7255844718
 20
-9.2927453452
 10
50.806251945
 20
-9.3152514289
 10
50.8840302866
 20
-9.335853974
  0
LWPOLYLINE
  5
2C7
100
AcDbEntity
  8
IMPORT_IGES
100
AcDbPolyline
 62
250
  6
CONTINUOUS
 90
52
 70
0
 10
51.4447923525
 20
-13.5834942205
 10
51.5012972328
 20
-13.6061142332
 10
51.5556160952
 20
-13.629810921
 10
51.6058435905
 20
-13.6544279739
 10
51.6511904894
 20
-13.6800616087
 10
51.6925681889
 20
-13.7070767833
 10
51.7306785569
 20
-13.7357827354
 10
51.7657074081
 20
-13.7664077264
 10
51.7975926658
 20
-13.7989882679
 10
51.8266449801
 20
-13.8334853006
 10
51.8531354607
 20
-13.8700940699
 10
51.8769135694
 20
-13.908798817
 10
51.8976603664
 20
-13.9492315267
 10
51.9154679439
 20
-13.9914819198
 10
51.930371051
 20
-14.0356053611
 10
51.9419751234
 20
-14.081185812
 10
51.9502753494
 20
-14.1282279633
 10
51.9553638459
 20
-14.1768138078
 10
51.9569830798
 20
-14.2266327376
 10
51.954962325
 20
-14.277753897
 10
51.9494702912
 20
-14.3301062259
 10
51.9407372838
 20
-14.3831481274
 10
51.9286678693
 20
-14.4369406741
 10
51.913265817
 20
-14.4913314375
 10
51.8949015373
 20
-14.5454474647
 10
51.8735367375
 20
-14.5991841668
 10
51.8490778096
 20
-14.6524939259
 10
51.8218220716
 20
-14.7045916476
 10
51.7919167366
 20
-14.7551636539
 10
51.7590889947
 20
-14.8043334734
 10
51.7230084028
 20
-14.8519572252
 10
51.683689965
 20
-14.8977707184
 10
51.6409904793
 20
-14.9417549705
 10
51.5943268668
 20
-14.9840762297
 10
51.5426952635
 20
-15.0249933729
 10
51.4869863655
 20
-15.0637725263
 10
51.4295308184
 20
-15.099188656
 10
51.3705661759
 20
-15.1310424803
 10
51.3099854521
 20
-15.1593473452
 10
51.249706331
 20
-15.1834754079
 10
51.1915941865
 20
-15.2028030516
 10
51.1339823448
 20
-15.2181007338
 10
51.0735110411
 20
-15.2307306708
 10
51.0091553433
 20
-15.2408783927
 10
50.9422150374
 20
-15.2478907608
 10
50.8728680661
 20
-15.2516306626
 10
50.7987996189
 20
-15.2516463732
 10
50.7228939597
 20
-15.2478005217
 10
50.6528553751
 20
-15.2411042486
 10
50.5937712438
 20
-15.2327580811
 10
50.5401900151
 20
-15.2226316686
 10
50.4840370973
 20
-15.2098006198
  0
LINE
  5
2C8
100
AcDbEntity
  8
IMPORT_IGES
100
AcDbLine
 62
7
  6
CONTINUOUS
 10
66.2109251994
 20
-33.9029320857
 11
65.8512552992
 21
-33.7023885672
  0
LINE
  5
2C9
100
AcDbEntity
  8
IMPORT_IGES
100
AcDbLine
 62
250
  6
CONTINUOUS
 10
66.0669266109
 20
-31.7443752389
 11
66.7159449071
 21
-32.106252651
  0
LINE
  5
2CA
100
AcDbEntity
  8
IMPORT_IGES
100
AcDbLine
 62
7
  6
CONTINUOUS
 10
68.5221384787
 20
-32.2915461706
 11
68.3833472097
 21
-32.2114098313
  0
LINE
  5
2CB
100
AcDbEntity
  8
IMPORT_IGES
100
AcDbLine
 62
7
  6
CONTINUOUS
 10
67.7750848834
 20
-30.7581060606
 11
68.3833472097
 21
-31.1093091044
  0
LWPOLYLINE
  5
2CC
100
AcDbEntity
  8
IMPORT_IGES
100
AcDbPolyline
 62
7
  6
CONTINUOUS
 90
20
 70
0
 10
65.8230876633
 20
-33.7818549048
 10
65.7914083881
 20
-33.763395847
 10
65.7304380516
 20
-33.7230574515
 10
65.6722121514
 20
-33.6779345281
 10
65.6170515183
 20
-33.6282755192
 10
65.564973085
 20
-33.5740553607
 10
65.5159599188
 20
-33.5152991167
 10
65.4702820517
 20
-33.4523304229
 10
65.4279579113
 20
-33.3851260054
 10
65.3889690699
 20
-33.313709138
 10
65.3535302774
 20
-33.2384732774
 10
65.3216611492
 20
-33.1593973274
 10
65.2933420699
 20
-33.0765023843
 10
65.2687289422
 20
-32.9902451928
 10
65.2478422436
 20
-32.9006071853
 10
65.2306614968
 20
-32.8076069294
 10
65.2172811726
 20
-32.7117568726
 10
65.2077327614
 20
-32.6132278306
 10
65.2019847729
 20
-32.5118489876
 10
65.200037207
 20
-32.4076203438
  0
LWPOLYLINE
  5
2CD
100
AcDbEntity
  8
IMPORT_IGES
100
AcDbPolyline
 62
7
  6
CONTINUOUS
 90
15
 70
0
 10
66.1315427243
 20
-32.1745694648
 10
66.1096099818
 20
-32.1613433359
 10
66.0774367505
 20
-32.1381149556
 10
66.0474333613
 20
-32.1114444792
 10
66.0195790966
 20
-32.0813646976
 10
65.9941536409
 20
-32.048171329
 10
65.9711800254
 20
-32.0118336846
 10
65.9506352189
 20
-31.9723824532
 10
65.9327298117
 20
-31.9302054184
 10
65.9174892255
 20
-31.8852756656
 10
65.9048880386
 20
-31.8376201094
 10
65.8950605764
 20
-31.7877072781
 10
65.8880516138
 20
-31.7356933476
 10
65.8838163759
 20
-31.681422142
 10
65.8823548625
 20
-31.6248936612
  0
LWPOLYLINE
  5
2CE
100
AcDbEntity
  8
IMPORT_IGES
100
AcDbPolyline
 62
250
  6
CONTINUOUS
 90
9
 70
0
 10
-67.5348582811
 20
55.1297279335
 10
-67.5434388997
 20
55.1362445274
 10
-67.5511149029
 20
55.1442361977
 10
-67.5578028376
 20
55.1536711326
 10
-67.5634143509
 20
55.1644888661
 10
-67.5678697763
 20
55.1766023656
 10
-67.5711070714
 20
55.1899158198
 10
-67.5730776224
 20
55.2043306684
 10
-67.5737414359
 20
55.219729615
  0
LWPOLYLINE
  5
2CF
100
AcDbEntity
  8
IMPORT_IGES
100
AcDbPolyline
 62
250
  6
CONTINUOUS
 90
9
 70
0
 10
-67.5348582811
 20
57.1709036255
 10
-67.5434388997
 20
57.1774202194
 10
-67.5511149029
 20
57.1854118897
 10
-67.5578028376
 20
57.1948468245
 10
-67.5634143509
 20
57.205664558
 10
-67.5678697763
 20
57.2177780576
 10
-67.5711070714
 20
57.2310915117
 10
-67.5730776224
 20
57.2455063604
 10
-67.5737414359
 20
57.260905307
  0
LWPOLYLINE
  5
2D0
100
AcDbEntity
  8
IMPORT_IGES
100
AcDbPolyline
 62
250
  6
CONTINUOUS
 90
9
 70
0
 10
-67.5348582811
 20
59.2120793175
 10
-67.5434388997
 20
59.2185959114
 10
-67.5511149029
 20
59.2265875817
 10
-67.5578028376
 20
59.2360225165
 10
-67.5634143509
 20
59.24684025
 10
-67.5678697763
 20
59.2589537496
 10
-67.5711070714
 20
59.2722672037
 10
-67.5730776224
 20
59.2866820524
 10
-67.5737414359
 20
59.302080999
  0
LWPOLYLINE
  5
2D1
100
AcDbEntity
  8
IMPORT_IGES
100
AcDbPolyline
 62
7
  6
CONTINUOUS
 90
69
 70
0
 10
-3.9871056799
 20
-14.1782282419
 10
-4.0693086684
 20
-14.223877517
 10
-4.2489609563
 20
-14.3134431142
 10
-4.4344375091
 20
-14.3923423994
 10
-4.6256762592
 20
-14.460560487
 10
-4.8220308189
 20
-14.5178342345
 10
-5.0235690573
 20
-14.5641290421
 10
-5.2302231052
 20
-14.5994795096
 10
-5.4411429678
 20
-14.6237262933
 10
-5.656323567
 20
-14.6368127157
 10
-5.8757699809
 20
-14.6387954544
 10
-6.0986474483
 20
-14.6296851987
 10
-6.3249423367
 20
-14.6094448241
 10
-6.5546682788
 20
-14.578111455
 10
-6.7870314111
 20
-14.5358071542
 10
-7.0220412723
 20
-14.4824999065
 10
-7.2596883238
 20
-14.4182217269
 10
-7.4991500868
 20
-14.3431907239
 10
-7.7404536522
 20
-14.2573628196
 10
-7.9835719292
 20
-14.1607820918
 10
-8.2276011657
 20
-14.0537988824
 10
-8.4725449131
 20
-13.9363720424
 10
-8.7183996201
 20
-13.8085427208
 10
-8.9642508803
 20
-13.6707847062
 10
-9.2100951114
 20
-13.5230616994
 10
-9.4559358958
 20
-13.3654099998
 10
-9.700869574
 20
-13.1984122944
 10
-9.9448928648
 20
-13.0220330796
 10
-10.1880090493
 20
-12.8363078592
 10
-10.4293243119
 20
-12.641925831
 10
-10.6688233529
 20
-12.4388633111
 10
-10.9065214719
 20
-12.2271439834
 10
-11.1415707522
 20
-12.0075280984
 10
-11.3739618109
 20
-11.7799896402
 10
-11.6037040309
 20
-11.5445546247
 10
-11.829977643
 20
-11.3020613492
 10
-12.0527703352
 20
-11.0524872967
 10
-12.2720944196
 20
-10.7958549843
 10
-12.487167063
 20
-10.5330702605
 10
-12.6979881437
 20
-10.26409061
 10
-12.9045577834
 20
-9.9889585481
 10
-13.106093515
 20
-9.708707469
 10
-13.302568555
 20
-9.4233270376
 10
-13.4940096869
 20
-9.132827589
 10
-13.6797147933
 20
-8.838273523
 10
-13.8596289869
 20
-8.539722494
 10
-14.0338071551
 20
-8.2371168475
 10
-14.2017118424
 20
-7.9313480197
 10
-14.3634020128
 20
-7.6222462916
 10
-14.5188187023
 20
-7.3099813822
 10
-14.6672475646
 20
-6.9959538839
 10
-14.8086079098
 20
-6.6802507282
 10
-14.9429804276
 20
-6.3627849835
 10
-15.0698928406
 20
-6.0446964474
 10
-15.1893421917
 20
-5.7258906781
 10
-15.301331438
 20
-5.4064621173
 10
-15.4053971732
 20
-5.0878338881
 10
-15.5014409762
 20
-4.7702718045
 10
-15.5895612682
 20
-4.4535100525
 10
-15.6695899067
 20
-4.1381743131
 10
-15.7415700084
 20
-3.8240552342
 10
-15.8054584567
 20
-3.5113621678
 10
-15.8609577589
 20
-3.2013488512
 10
-15.9080267308
 20
-2.8940376312
 10
-15.9467065565
 20
-2.589406161
 10
-15.9768232969
 20
-2.2886411369
 10
-15.9983189721
 20
-1.9921381246
 10
-16.0112515618
 20
-1.6995015583
 10
-16.0156210662
 20
-1.4107314383
  0
LINE
  5
2D2
100
AcDbEntity
  8
IMPORT_IGES
100
AcDbLine
 62
7
  6
CONTINUOUS
 10
-3.8963867321
 20
-14.1108354447
 11
-3.8136920237
 21
-14.069667401
  0
LWPOLYLINE
  5
2D3
100
AcDbEntity
  8
IMPORT_IGES
100
AcDbPolyline
 62
250
  6
CONTINUOUS
 90
52
 70
0
 10
51.4447923514
 20
-11.5423185281
 10
51.5012972317
 20
-11.5649385408
 10
51.5556160942
 20
-11.5886352286
 10
51.6058435896
 20
-11.6132522814
 10
51.6511904886
 20
-11.6388859162
 10
51.6925681882
 20
-11.6659010909
 10
51.7306785563
 20
-11.6946070429
 10
51.7657074075
 20
-11.7252320339
 10
51.7975926653
 20
-11.7578125754
 10
51.8266449797
 20
-11.792309608
 10
51.8531354603
 20
-11.8289183773
 10
51.8769135691
 20
-11.8676231244
 10
51.8976603661
 20
-11.9080558341
 10
51.9154679437
 20
-11.9503062272
 10
51.9303710508
 20
-11.9944296685
 10
51.9419751232
 20
-12.0400101194
 10
51.9502753493
 20
-12.0870522707
 10
51.9553638459
 20
-12.1356381152
 10
51.9569830798
 20
-12.185457045
 10
51.954962325
 20
-12.2365782044
 10
51.9494702913
 20
-12.2889305333
 10
51.9407372839
 20
-12.3419724349
 10
51.9286678694
 20
-12.3957649816
 10
51.9132658172
 20
-12.450155745
 10
51.8949015374
 20
-12.5042717723
 10
51.8735367377
 20
-12.5580084744
 10
51.8490778099
 20
-12.6113182334
 10
51.8218220718
 20
-12.6634159551
 10
51.7919167369
 20
-12.7139879614
 10
51.759088995
 20
-12.7631577809
 10
51.7230084032
 20
-12.8107815328
 10
51.6836899654
 20
-12.856595026
 10
51.6409904797
 20
-12.9005792781
 10
51.5943268673
 20
-12.9429005373
 10
51.542695264
 20
-12.9838176805
 10
51.4869863659
 20
-13.022596834
 10
51.4295308188
 20
-13.0580129638
 10
51.3705661763
 20
-13.0898667881
 10
51.3099854524
 20
-13.1181716531
 10
51.2497063312
 20
-13.1422997159
 10
51.1915941866
 20
-13.1616273596
 10
51.1339823449
 20
-13.1769250418
 10
51.0735110411
 20
-13.1895549788
 10
51.0091553433
 20
-13.1997027008
 10
50.9422150374
 20
-13.2067150688
 10
50.8728680661
 20
-13.2104549707
 10
50.7987996188
 20
-13.2104706812
 10
50.7228939596
 20
-13.2066248297
 10
50.652855375
 20
-13.1999285566
 10
50.5937712437
 20
-13.1915823891
 10
50.5401900151
 20
-13.1814559766
 10
50.4840370973
 20
-13.1686249278
  0
LWPOLYLINE
  5
2D4
100
AcDbEntity
  8
IMPORT_IGES
100
AcDbPolyline
 62
250
  6
CONTINUOUS
 90
52
 70
0
 10
51.4447923518
 20
-9.5011428363
 10
51.5012972321
 20
-9.523762849
 10
51.5556160946
 20
-9.5474595367
 10
51.60584359
 20
-9.5720765896
 10
51.6511904889
 20
-9.5977102244
 10
51.6925681885
 20
-9.6247253991
 10
51.7306785566
 20
-9.6534313512
 10
51.7657074077
 20
-9.6840563421
 10
51.7975926655
 20
-9.7166368836
 10
51.8266449798
 20
-9.7511339163
 10
51.8531354604
 20
-9.7877426856
 10
51.8769135692
 20
-9.8264474326
 10
51.8976603663
 20
-9.8668801423
 10
51.9154679437
 20
-9.9091305355
 10
51.9303710509
 20
-9.9532539768
 10
51.9419751233
 20
-9.9988344277
 10
51.9502753494
 20
-10.045876579
 10
51.9553638459
 20
-10.0944624235
 10
51.9569830798
 20
-10.1442813533
 10
51.954962325
 20
-10.1954025127
 10
51.9494702913
 20
-10.2477548416
 10
51.9407372839
 20
-10.3007967431
 10
51.9286678694
 20
-10.3545892898
 10
51.9132658171
 20
-10.4089800532
 10
51.8949015374
 20
-10.4630960805
 10
51.8735367376
 20
-10.5168327826
 10
51.8490778098
 20
-10.5701425417
 10
51.8218220717
 20
-10.6222402634
 10
51.7919167368
 20
-10.6728122696
 10
51.7590889949
 20
-10.7219820892
 10
51.723008403
 20
-10.769605841
 10
51.6836899652
 20
-10.8154193342
 10
51.6409904795
 20
-10.8594035863
 10
51.5943268671
 20
-10.9017248455
 10
51.5426952638
 20
-10.9426419887
 10
51.4869863657
 20
-10.9814211422
 10
51.4295308185
 20
-11.0168372719
 10
51.3705661761
 20
-11.0486910963
 10
51.3099854522
 20
-11.0769959612
 10
51.249706331
 20
-11.1011240239
 10
51.1915941865
 20
-11.1204516677
 10
51.1339823447
 20
-11.1357493498
 10
51.073511041
 20
-11.1483792869
 10
51.0091553432
 20
-11.1585270088
 10
50.9422150373
 20
-11.1655393769
 10
50.872868066
 20
-11.1692792787
 10
50.7987996187
 20
-11.1692949892
 10
50.7228939595
 20
-11.1654491377
 10
50.652855375
 20
-11.1587528646
 10
50.5937712437
 20
-11.1504066971
 10
50.540190015
 20
-11.1402802846
 10
50.4840370973
 20
-11.1274492358
  0
LWPOLYLINE
  5
2D5
100
AcDbEntity
  8
IMPORT_IGES
100
AcDbPolyline
 62
250
  6
CONTINUOUS
 90
7
 70
0
 10
50.2318953458
 20
-13.1947533467
 10
50.2945840801
 20
-13.2239905853
 10
50.3584799111
 20
-13.2513277053
 10
50.422635924
 20
-13.2765641017
 10
50.4847184867
 20
-13.2991381607
 10
50.5403213498
 20
-13.3177728465
 10
50.652317442
 20
-13.3531025185
  0
LWPOLYLINE
  5
2D6
100
AcDbEntity
  8
IMPORT_IGES
100
AcDbPolyline
 62
250
  6
CONTINUOUS
 90
7
 70
0
 10
50.2318953458
 20
-11.1535776548
 10
50.2945840801
 20
-11.1828148934
 10
50.3584799111
 20
-11.2101520133
 10
50.4226359239
 20
-11.2353884096
 10
50.4847184864
 20
-11.2579624686
 10
50.5403213493
 20
-11.2765971543
 10
50.652317441
 20
-11.3119268262
  0
LWPOLYLINE
  5
2D7
100
AcDbEntity
  8
IMPORT_IGES
100
AcDbPolyline
 62
250
  6
CONTINUOUS
 90
7
 70
0
 10
50.2318953458
 20
-9.1124019628
 10
50.2945840801
 20
-9.1416392014
 10
50.3584799111
 20
-9.1689763213
 10
50.4226359239
 20
-9.1942127177
 10
50.4847184865
 20
-9.2167867766
 10
50.5403213495
 20
-9.2354214624
 10
50.6523174413
 20
-9.2707511343
  0
LINE
  5
2D8
100
AcDbEntity
  8
IMPORT_IGES
100
AcDbLine
 62
250
  6
CONTINUOUS
 10
50.1701693372
 20
-13.1632734475
 11
50.2318953458
 21
-13.1947533467
  0
LINE
  5
2D9
100
AcDbEntity
  8
IMPORT_IGES
100
AcDbLine
 62
250
  6
CONTINUOUS
 10
50.1701693373
 20
-11.1220977556
 11
50.2318953458
 21
-11.1535776548
  0
LWPOLYLINE
  5
2DA
100
AcDbEntity
  8
IMPORT_IGES
100
AcDbPolyline
 62
7
  6
CONTINUOUS
 90
12
 70
0
 10
50.1512275552
 20
-13.2209671644
 10
50.2110827579
 20
-13.2541513794
 10
50.2742722524
 20
-13.2861335819
 10
50.3378956782
 20
-13.3155804836
 10
50.4016452104
 20
-13.3426671963
 10
50.4654626199
 20
-13.3677430975
 10
50.529049065
 20
-13.3910266229
 10
50.5921193449
 20
-13.4127089829
 10
50.6547127872
 20
-13.4330561555
 10
50.7166022728
 20
-13.4522295713
 10
50.777493721
 20
-13.470431108
 10
50.9531760511
 20
-13.5214891948
  0
LINE
  5
2DB
100
AcDbEntity
  8
IMPORT_IGES
100
AcDbLine
 62
250
  6
CONTINUOUS
 10
50.1098187249
 20
-13.1294825477
 11
50.1701693372
 21
-13.1632734475
  0
LINE
  5
2DC
100
AcDbEntity
  8
IMPORT_IGES
100
AcDbLine
 62
7
  6
CONTINUOUS
 10
-68.5401547694
 20
53.0481887495
 11
-68.8913459491
 21
53.2451586161
  0
LINE
  5
2DD
100
AcDbEntity
  8
IMPORT_IGES
100
AcDbLine
 62
7
  6
CONTINUOUS
 10
50.1016003914
 20
-16.3612139904
 11
-68.9614211915
 21
52.7891729672
  0
LINE
  5
2DE
100
AcDbEntity
  8
IMPORT_IGES
100
AcDbLine
 62
7
  6
CONTINUOUS
 10
50.1098187249
 20
-15.9493826636
 11
-67.5737414359
 21
52.3998295056
  0
LINE
  5
2DF
100
AcDbEntity
  8
IMPORT_IGES
100
AcDbLine
 62
250
  6
CONTINUOUS
 10
50.1098187228
 20
-15.0616038739
 11
-67.5737414359
 21
53.2876082929
  0
LINE
  5
2E0
100
AcDbEntity
  8
IMPORT_IGES
100
AcDbLine
 62
250
  6
CONTINUOUS
 10
-67.4555472004
 20
53.5164622228
 11
50.2280124375
 21
-14.8327502917
  0
LINE
  5
2E1
100
AcDbEntity
  8
IMPORT_IGES
100
AcDbLine
 62
7
  6
CONTINUOUS
 10
50.1512092472
 20
-13.2210148688
 11
-67.5322318025
 21
55.1281281222
  0
LINE
  5
2E2
100
AcDbEntity
  8
IMPORT_IGES
100
AcDbLine
 62
250
  6
CONTINUOUS
 10
50.1098186999
 20
-13.1294825368
 11
-67.5737414359
 21
55.219729615
  0
LINE
  5
2E3
100
AcDbEntity
  8
IMPORT_IGES
100
AcDbLine
 62
250
  6
CONTINUOUS
 10
-67.5737414359
 20
55.328783986
 11
50.1098187227
 21
-13.0204281819
  0
LWPOLYLINE
  5
2E4
100
AcDbEntity
  8
IMPORT_IGES
100
AcDbPolyline
 62
250
  6
CONTINUOUS
 90
15
 70
0
 10
-67.5737414359
 20
55.219729615
 10
-67.6295964734
 20
55.2535654205
 10
-67.6811961758
 20
55.2879588857
 10
-67.7285798726
 20
55.322719016
 10
-67.7716908346
 20
55.3577426433
 10
-67.8107452032
 20
55.3927717125
 10
-67.8461367672
 20
55.4274263332
 10
-67.8774638161
 20
55.4610737905
 10
-67.9052868577
 20
55.4940725421
 10
-67.9308746804
 20
55.5276882524
 10
-67.9547572394
 20
55.5634863404
 10
-67.9750510772
 20
55.5999080868
 10
-67.990046706
 20
55.6334496808
 10
-68.0000963804
 20
55.6628290818
 10
-68.0063619771
 20
55.6889511785
  0
LWPOLYLINE
  5
2E5
100
AcDbEntity
  8
IMPORT_IGES
100
AcDbPolyline
 62
250
  6
CONTINUOUS
 90
16
 70
0
 10
-67.5737414359
 20
57.260905307
 10
-67.6294498388
 20
57.2946481875
 10
-67.6809342594
 20
57.3289518066
 10
-67.728231972
 20
57.3636274138
 10
-67.7712808695
 20
57.3985706787
 10
-67.8102980015
 20
57.43352836
 10
-67.8456822695
 20
57.4681321487
 10
-67.877018192
 20
57.501748874
 10
-67.9048718202
 20
57.5347405983
 10
-67.9305340913
 20
57.5683935091
 10
-67.9545393895
 20
57.6043046103
 10
-67.9749559189
 20
57.640890951
 10
-67.9900310125
 20
57.6745827403
 10
-68.0001142632
 20
57.7040689983
 10
-68.0063889187
 20
57.7302788931
 10
-68.0093814499
 20
57.752328812
  0
LWPOLYLINE
  5
2E6
100
AcDbEntity
  8
IMPORT_IGES
100
AcDbPolyline
 62
250
  6
CONTINUOUS
 90
24
 70
0
 10
-67.4555448164
 20
55.5576397997
 10
-67.514660797
 20
55.594192297
 10
-67.5689150966
 20
55.6318258304
 10
-67.6183177608
 20
55.6705987449
 10
-67.662741673
 20
55.7106706446
 10
-67.7023598346
 20
55.7521096203
 10
-67.7376436037
 20
55.7948692527
 10
-67.7686911934
 20
55.8394088114
 10
-67.7955207022
 20
55.8856324009
 10
-67.8184810635
 20
55.9325958971
 10
-67.8376204663
 20
55.9803956814
 10
-67.8530555722
 20
56.0291940532
 10
-67.8652016693
 20
56.0779893074
 10
-67.8741026762
 20
56.1264574054
 10
-67.879869024
 20
56.1749814189
 10
-67.8829803092
 20
56.2235129971
 10
-67.883563092
 20
56.271637183
 10
-67.8816558171
 20
56.3197497942
 10
-67.8776517981
 20
56.3690386975
 10
-67.8716444191
 20
56.4199054127
 10
-67.8638914039
 20
56.4719815072
 10
-67.8550893251
 20
56.5253135115
 10
-67.8452650351
 20
56.5807563503
 10
-67.8062434228
 20
56.7941594047
  0
LWPOLYLINE
  5
2E7
100
AcDbEntity
  8
IMPORT_IGES
100
AcDbPolyline
 62
250
  6
CONTINUOUS
 90
24
 70
0
 10
-67.4555448164
 20
57.5988154917
 10
-67.514660797
 20
57.635367989
 10
-67.5689150966
 20
57.6730015224
 10
-67.6183177608
 20
57.7117744369
 10
-67.662741673
 20
57.7518463366
 10
-67.7023598346
 20
57.7932853123
 10
-67.7376436036
 20
57.8360449446
 10
-67.7686911934
 20
57.8805845034
 10
-67.7955207021
 20
57.9268080929
 10
-67.8184810635
 20
57.9737715891
 10
-67.8376204663
 20
58.0215713734
 10
-67.8530555722
 20
58.0703697451
 10
-67.8652016693
 20
58.1191649994
 10
-67.8741026762
 20
58.1676330974
 10
-67.879869024
 20
58.2161571108
 10
-67.8829803092
 20
58.264688689
 10
-67.883563092
 20
58.312812875
 10
-67.8816558171
 20
58.3609254861
 10
-67.8776517981
 20
58.4102143894
 10
-67.8716444191
 20
58.4610811047
 10
-67.8638914039
 20
58.5131571992
 10
-67.8550893251
 20
58.5664892034
 10
-67.8452650351
 20
58.6219320423
 10
-67.8062434228
 20
58.8353350966
  0
LWPOLYLINE
  5
2E8
100
AcDbEntity
  8
IMPORT_IGES
100
AcDbPolyline
 62
250
  6
CONTINUOUS
 90
24
 70
0
 10
-67.4555154036
 20
53.5164437556
 10
-67.5141358267
 20
53.552705379
 10
-67.5679247078
 20
53.5899470727
 10
-67.6168915862
 20
53.6282242996
 10
-67.6608838207
 20
53.6676791022
 10
-67.7000973041
 20
53.7083850244
 10
-67.7350745716
 20
53.7503245949
 10
-67.7659217544
 20
53.7939203776
 10
-67.7926402875
 20
53.8390903384
 10
-67.8156139545
 20
53.8850012312
 10
-67.8349062877
 20
53.9317679142
 10
-67.8506080584
 20
53.9795268268
 10
-67.8631119796
 20
54.0273347105
 10
-67.8724699202
 20
54.0748961982
 10
-67.8787778117
 20
54.1225739229
 10
-67.8824631125
 20
54.1703118243
 10
-67.8836425797
 20
54.2177619386
 10
-67.8823620959
 20
54.265266923
 10
-67.8789801191
 20
54.3138197464
 10
-67.8736043114
 20
54.3636443316
 10
-67.8664417733
 20
54.4145451265
 10
-67.8580689164
 20
54.4669093662
 10
-67.84848406
 20
54.5217187164
 10
-67.8094055608
 20
54.7356326579
  0
LINE
  5
2E9
100
AcDbEntity
  8
IMPORT_IGES
100
AcDbLine
 62
250
  6
CONTINUOUS
 10
50.1701693373
 20
-9.0809220636
 11
50.2318953458
 21
-9.1124019628
  0
LWPOLYLINE
  5
2EA
100
AcDbEntity
  8
IMPORT_IGES
100
AcDbPolyline
 62
250
  6
CONTINUOUS
 90
31
 70
0
 10
50.1098187249
 20
-8.1717242785
 10
50.1659773912
 20
-8.2026942308
 10
50.2248368313
 20
-8.2319445067
 10
50.28623928
 20
-8.2593967045
 10
50.3500201558
 20
-8.2849772422
 10
50.4160085021
 20
-8.3086175543
 10
50.4840274456
 20
-8.330254276
 10
50.5538946702
 20
-8.3498294128
 10
50.6254229057
 20
-8.367290496
 10
50.6984204296
 20
-8.3825907235
 10
50.7726915815
 20
-8.3956890849
 10
50.8480372869
 20
-8.4065504717
 10
50.9242555913
 20
-8.4151457714
 10
51.0011422012
 20
-8.4214519454
 10
51.0784910318
 20
-8.4254520907
 10
51.1560947594
 20
-8.4271354854
 10
51.2337453771
 20
-8.4264976176
 10
51.3112347523
 20
-8.4235401968
 10
51.3883551846
 20
-8.41827115
 10
51.4648999624
 20
-8.4107046003
 10
51.5406639172
 20
-8.4008608289
 10
51.6154439733
 20
-8.3887662207
 10
51.6890396924
 20
-8.3744531938
 10
51.7612538105
 20
-8.3579601125
 10
51.8318927667
 20
-8.3393311842
 10
51.900766969
 20
-8.3186164227
 10
51.9676920768
 20
-8.2958712852
 10
52.0324894196
 20
-8.2711564494
 10
52.0949854681
 20
-8.2445379936
 10
52.1550123761
 20
-8.2160872943
 10
52.212409153
 20
-8.1858805548
  0
LWPOLYLINE
  5
2EB
100
AcDbEntity
  8
IMPORT_IGES
100
AcDbPolyline
 62
7
  6
CONTINUOUS
 90
12
 70
0
 10
50.1512275552
 20
-11.1797914724
 10
50.2110827579
 20
-11.2129756874
 10
50.2742722524
 20
-11.2449578899
 10
50.3378956782
 20
-11.2744047916
 10
50.4016452104
 20
-11.3014915043
 10
50.4654626199
 20
-11.3265674055
 10
50.529049065
 20
-11.3498509309
 10
50.5921193449
 20
-11.3715332909
 10
50.6547127872
 20
-11.3918804635
 10
50.7166022728
 20
-11.4110538793
 10
50.777493721
 20
-11.429255416
 10
50.9531760511
 20
-11.4803135028
  0
LWPOLYLINE
  5
2EC
100
AcDbEntity
  8
IMPORT_IGES
100
AcDbPolyline
 62
7
  6
CONTINUOUS
 90
12
 70
0
 10
50.1512275552
 20
-9.1386157805
 10
50.2110827579
 20
-9.1717999955
 10
50.2742722524
 20
-9.2037821979
 10
50.3378956782
 20
-9.2332290997
 10
50.4016452104
 20
-9.2603158123
 10
50.4654626199
 20
-9.2853917136
 10
50.529049065
 20
-9.3086752389
 10
50.5921193449
 20
-9.3303575989
 10
50.6547127872
 20
-9.3507047715
 10
50.7166022728
 20
-9.3698781873
 10
50.777493721
 20
-9.388079724
 10
50.9531760511
 20
-9.4391378108
  0
LINE
  5
2ED
100
AcDbEntity
  8
IMPORT_IGES
100
AcDbLine
 62
250
  6
CONTINUOUS
 10
50.1098187249
 20
-11.0883068557
 11
50.1701693373
 21
-11.1220977556
  0
LINE
  5
2EE
100
AcDbEntity
  8
IMPORT_IGES
100
AcDbLine
 62
250
  6
CONTINUOUS
 10
50.1098187249
 20
-9.0471311638
 11
50.1701693373
 21
-9.0809220636
  0
LINE
  5
2EF
100
AcDbEntity
  8
IMPORT_IGES
100
AcDbLine
 62
250
  6
CONTINUOUS
 10
50.2280153413
 20
-12.7915723678
 11
-67.4555447771
 21
55.5576397769
  0
LINE
  5
2F0
100
AcDbEntity
  8
IMPORT_IGES
100
AcDbLine
 62
7
  6
CONTINUOUS
 10
50.1512092472
 20
-11.1798391768
 11
-67.532230591
 21
57.1693031105
  0
LINE
  5
2F1
100
AcDbEntity
  8
IMPORT_IGES
100
AcDbLine
 62
250
  6
CONTINUOUS
 10
50.1098186999
 20
-11.0883068448
 11
-67.5737414359
 21
57.260905307
  0
LINE
  5
2F2
100
AcDbEntity
  8
IMPORT_IGES
100
AcDbLine
 62
250
  6
CONTINUOUS
 10
-67.5737414359
 20
57.369959678
 11
50.1098187227
 21
-10.97925249
  0
LINE
  5
2F3
100
AcDbEntity
  8
IMPORT_IGES
100
AcDbLine
 62
250
  6
CONTINUOUS
 10
50.2280153413
 20
-10.7503966758
 11
-67.4555447771
 21
57.5988154688
  0
LINE
  5
2F4
100
AcDbEntity
  8
IMPORT_IGES
100
AcDbLine
 62
7
  6
CONTINUOUS
 10
50.1512092472
 20
-9.1386634848
 11
-67.532230591
 21
59.2104788025
  0
LINE
  5
2F5
100
AcDbEntity
  8
IMPORT_IGES
100
AcDbLine
 62
250
  6
CONTINUOUS
 10
50.1098187
 20
-9.0471311529
 11
-67.5737414359
 21
59.3020810025
  0
LINE
  5
2F6
100
AcDbEntity
  8
IMPORT_IGES
100
AcDbLine
 62
250
  6
CONTINUOUS
 10
-67.5737414359
 20
60.1774878907
 11
50.1098187248
 21
-8.1717242785
  0
LINE
  5
2F7
100
AcDbEntity
  8
IMPORT_IGES
100
AcDbLine
 62
250
  6
CONTINUOUS
 10
51.1550232816
 20
-6.3472509335
 11
-66.5285368792
 21
62.0019612357
  0
LINE
  5
2F8
100
AcDbEntity
  8
IMPORT_IGES
100
AcDbLine
 62
7
  6
CONTINUOUS
 10
60.5201533749
 20
-11.5804702922
 11
60.1676396089
 21
-11.3757344892
  0
LWPOLYLINE
  5
2F9
100
AcDbEntity
  8
IMPORT_IGES
100
AcDbPolyline
 62
250
  6
CONTINUOUS
 90
16
 70
0
 10
-67.5737414359
 20
59.302080999
 10
-67.6294498387
 20
59.3358238794
 10
-67.6809342594
 20
59.3701274986
 10
-67.728231972
 20
59.4048031058
 10
-67.7712808695
 20
59.4397463707
 10
-67.8102980015
 20
59.474704052
 10
-67.8456822697
 20
59.5093078407
 10
-67.8770181922
 20
59.5429245661
 10
-67.9048718204
 20
59.5759162905
 10
-67.9305340915
 20
59.6095692014
 10
-67.9545393897
 20
59.6454803026
 10
-67.974955919
 20
59.6820666433
 10
-67.9900310125
 20
59.7157584325
 10
-68.0001142633
 20
59.7452446905
 10
-68.0063889188
 20
59.7714545852
 10
-68.0093814499
 20
59.7935045041
  0
LWPOLYLINE
  5
2FA
100
AcDbEntity
  8
IMPORT_IGES
100
AcDbPolyline
 62
250
  6
CONTINUOUS
 90
96
 70
0
 10
51.4144035354
 20
-13.6968969381
 10
51.4356477586
 20
-13.7100214368
 10
51.4546272601
 20
-13.7225100887
 10
51.4732157903
 20
-13.7355382239
 10
51.4913471266
 20
-13.7491099017
 10
51.5089509837
 20
-13.7632106741
 10
51.526003252
 20
-13.777862851
 10
51.5424745339
 20
-13.7930830496
 10
51.55829718
 20
-13.8088305413
 10
51.5734557028
 20
-13.8251124236
 10
51.5879230806
 20
-13.8419365945
 10
51.6016253506
 20
-13.8592473139
 10
51.614526963
 20
-13.8770257934
 10
51.6266300326
 20
-13.8952887732
 10
51.6379234994
 20
-13.9140249039
 10
51.6483616771
 20
-13.9331951679
 10
51.6579613908
 20
-13.9528272813
 10
51.6668027543
 20
-13.9730113594
 10
51.6748874682
 20
-13.9937758692
 10
51.6821742569
 20
-14.0150866118
 10
51.6886760268
 20
-14.0369410829
 10
51.6943976929
 20
-14.0593746572
 10
51.6992984725
 20
-14.0823367562
 10
51.7033351993
 20
-14.10568471
 10
51.7064935639
 20
-14.1293666043
 10
51.7087791999
 20
-14.1533947237
 10
51.7101935403
 20
-14.1777114542
 10
51.7107366044
 20
-14.2022555913
 10
51.7104103662
 20
-14.2270415554
 10
51.7092175524
 20
-14.2521257638
 10
51.707153404
 20
-14.2775374137
 10
51.7042120289
 20
-14.3032066392
 10
51.7003945597
 20
-14.3290412363
 10
51.6956860991
 20
-14.3550860181
 10
51.6901036069
 20
-14.3812479088
 10
51.6837230831
 20
-14.4072178112
 10
51.6765949404
 20
-14.4329225143
 10
51.6687211173
 20
-14.4583737552
 10
51.6601357702
 20
-14.4833824093
 10
51.6509204823
 20
-14.5078530409
 10
51.6410648426
 20
-14.5318265866
 10
51.6304677301
 20
-14.5553202522
 10
51.619150357
 20
-14.5782840463
 10
51.6071446673
 20
-14.6007270955
 10
51.5943495587
 20
-14.6227585302
 10
51.5807779729
 20
-14.6443349568
 10
51.5664499408
 20
-14.6654662657
 10
51.5512536621
 20
-14.6863415563
 10
51.535171619
 20
-14.7069994422
 10
51.5182288263
 20
-14.7273667454
 10
51.5003628485
 20
-14.7474626964
 10
51.4815020864
 20
-14.7673555095
 10
51.4617206568
 20
-14.7869383804
 10
51.441184382
 20
-14.8059713199
 10
51.4198874453
 20
-14.8244400729
 10
51.397866719
 20
-14.8423311338
 10
51.3753762523
 20
-14.8594179856
 10
51.3524322935
 20
-14.8756967925
 10
51.3290710614
 20
-14.8911639514
 10
51.3055986588
 20
-14.9056106614
 10
51.2821081585
 20
-14.9189932387
 10
51.2585736271
 20
-14.9313760346
 10
51.2351335771
 20
-14.9427257899
 10
51.2119422936
 20
-14.9530116627
 10
51.1889047657
 20
-14.9622991723
 10
51.1657798106
 20
-14.9706977849
 10
51.1426406176
 20
-14.9782226938
 10
51.1194507354
 20
-14.9848844459
 10
51.0957916948
 20
-14.9907723692
 10
51.0717499826
 20
-14.9958947735
 10
51.0472590976
 20
-15.0002558477
 10
51.0216578393
 20
-15.0039200269
 10
50.9948216562
 20
-15.0069345447
 10
50.9668787005
 20
-15.0092402588
 10
50.9375392565
 20
-15.0107289624
 10
50.906523105
 20
-15.011388894
 10
50.8741127746
 20
-15.0112147956
 10
50.8408671934
 20
-15.0101186539
 10
50.80678768
 20
-15.0080871535
 10
50.7718866869
 20
-15.0051452591
 10
50.7367483635
 20
-15.001286184
 10
50.7014225011
 20
-14.9965547747
 10
50.6658768479
 20
-14.9909399667
 10
50.6305780527
 20
-14.9843725762
 10
50.5956630008
 20
-14.9768672558
 10
50.5610124089
 20
-14.9684618585
 10
50.5267104144
 20
-14.9591330332
 10
50.4928566792
 20
-14.9489201153
 10
50.4593632418
 20
-14.9378297081
 10
50.4260317659
 20
-14.9257882011
 10
50.3928420287
 20
-14.9128344821
 10
50.3598206836
 20
-14.8989610144
 10
50.3268388006
 20
-14.884021874
 10
50.293854566
 20
-14.8679752437
 10
50.2609131347
 20
-14.8508821938
 10
50.2280153898
 20
-14.8327480879
  0
LWPOLYLINE
  5
2FB
100
AcDbEntity
  8
IMPORT_IGES
100
AcDbPolyline
 62
250
  6
CONTINUOUS
 90
96
 70
0
 10
51.4144035354
 20
-11.6557212461
 10
51.4356477585
 20
-11.6688457448
 10
51.4546272601
 20
-11.6813343967
 10
51.4732157903
 20
-11.6943625319
 10
51.4913471266
 20
-11.7079342097
 10
51.5089509837
 20
-11.7220349821
 10
51.526003252
 20
-11.736687159
 10
51.5424745339
 20
-11.7519073576
 10
51.5582971799
 20
-11.7676548493
 10
51.5734557028
 20
-11.7839367316
 10
51.5879230806
 20
-11.8007609025
 10
51.6016253506
 20
-11.8180716219
 10
51.6145269629
 20
-11.8358501014
 10
51.6266300326
 20
-11.8541130812
 10
51.6379234993
 20
-11.8728492119
 10
51.6483616771
 20
-11.8920194759
 10
51.6579613908
 20
-11.9116515893
 10
51.6668027543
 20
-11.9318356674
 10
51.6748874682
 20
-11.9526001772
 10
51.6821742569
 20
-11.9739109198
 10
51.6886760268
 20
-11.9957653909
 10
51.6943976929
 20
-12.0181989651
 10
51.6992984725
 20
-12.0411610642
 10
51.7033351993
 20
-12.064509018
 10
51.7064935639
 20
-12.0881909123
 10
51.7087791999
 20
-12.1122190317
 10
51.7101935403
 20
-12.1365357622
 10
51.7107366044
 20
-12.1610798993
 10
51.7104103662
 20
-12.1858658634
 10
51.7092175524
 20
-12.2109500718
 10
51.707153404
 20
-12.2363617217
 10
51.7042120289
 20
-12.2620309472
 10
51.7003945597
 20
-12.2878655443
 10
51.6956860991
 20
-12.3139103261
 10
51.6901036069
 20
-12.3400722168
 10
51.6837230831
 20
-12.3660421192
 10
51.6765949404
 20
-12.3917468223
 10
51.6687211173
 20
-12.4171980633
 10
51.6601357702
 20
-12.4422067173
 10
51.6509204823
 20
-12.4666773489
 10
51.6410648426
 20
-12.4906508946
 10
51.6304677301
 20
-12.5141445602
 10
51.619150357
 20
-12.5371083543
 10
51.6071446673
 20
-12.5595514035
 10
51.5943495587
 20
-12.5815828382
 10
51.5807779729
 20
-12.6031592648
 10
51.5664499408
 20
-12.6242905738
 10
51.5512536621
 20
-12.6451658643
 10
51.535171619
 20
-12.6658237502
 10
51.5182288263
 20
-12.6861910534
 10
51.5003628485
 20
-12.7062870044
 10
51.4815020864
 20
-12.7261798175
 10
51.4617206568
 20
-12.7457626884
 10
51.441184382
 20
-12.7647956279
 10
51.4198874453
 20
-12.7832643809
 10
51.397866719
 20
-12.8011554419
 10
51.3753762523
 20
-12.8182422936
 10
51.3524322935
 20
-12.8345211005
 10
51.3290710614
 20
-12.8499882595
 10
51.3055986588
 20
-12.8644349695
 10
51.2821081585
 20
-12.8778175467
 10
51.2585736271
 20
-12.8902003426
 10
51.2351335771
 20
-12.9015500979
 10
51.2119422936
 20
-12.9118359707
 10
51.1889047657
 20
-12.9211234803
 10
51.1657798106
 20
-12.9295220929
 10
51.1426406176
 20
-12.9370470018
 10
51.1194507355
 20
-12.9437087539
 10
51.0957916948
 20
-12.9495966772
 10
51.0717499827
 20
-12.9547190815
 10
51.0472590976
 20
-12.9590801557
 10
51.0216578393
 20
-12.9627443349
 10
50.9948216562
 20
-12.9657588527
 10
50.9668787005
 20
-12.9680645668
 10
50.9375392565
 20
-12.9695532704
 10
50.906523105
 20
-12.970213202
 10
50.8741127746
 20
-12.9700391037
 10
50.8408671934
 20
-12.9689429619
 10
50.80678768
 20
-12.9669114615
 10
50.7718866869
 20
-12.9639695671
 10
50.7367483635
 20
-12.960110492
 10
50.7014225011
 20
-12.9553790827
 10
50.665876848
 20
-12.9497642747
 10
50.6305780527
 20
-12.9431968842
 10
50.5956630008
 20
-12.9356915638
 10
50.5610124089
 20
-12.9272861665
 10
50.5267104144
 20
-12.9179573412
 10
50.4928566792
 20
-12.9077444233
 10
50.4593632418
 20
-12.8966540161
 10
50.4260317659
 20
-12.8846125091
 10
50.3928420288
 20
-12.8716587902
 10
50.3598206836
 20
-12.8577853224
 10
50.3268388007
 20
-12.842846182
 10
50.293854566
 20
-12.8267995517
 10
50.2609131347
 20
-12.8097065018
 10
50.2280153898
 20
-12.7915723959
  0
LWPOLYLINE
  5
2FC
100
AcDbEntity
  8
IMPORT_IGES
100
AcDbPolyline
 62
250
  6
CONTINUOUS
 90
96
 70
0
 10
51.4144035355
 20
-9.6145455542
 10
51.4356477573
 20
-9.627670052
 10
51.4546272589
 20
-9.640158704
 10
51.4732157892
 20
-9.6531868391
 10
51.4913471255
 20
-9.6667585169
 10
51.5089509826
 20
-9.6808592893
 10
51.526003251
 20
-9.6955114661
 10
51.542474533
 20
-9.7107316647
 10
51.5582971791
 20
-9.7264791564
 10
51.5734557019
 20
-9.7427610387
 10
51.5879230798
 20
-9.7595852096
 10
51.6016253498
 20
-9.7768959289
 10
51.6145269622
 20
-9.7946744084
 10
51.6266300319
 20
-9.8129373881
 10
51.6379234987
 20
-9.8316735188
 10
51.6483616765
 20
-9.8508437827
 10
51.6579613902
 20
-9.8704758962
 10
51.6668027538
 20
-9.8906599743
 10
51.6748874677
 20
-9.911424484
 10
51.6821742565
 20
-9.9327352266
 10
51.6886760264
 20
-9.9545896977
 10
51.6943976927
 20
-9.977023272
 10
51.6992984723
 20
-9.999985371
 10
51.7033351992
 20
-10.0233333248
 10
51.7064935637
 20
-10.0470152192
 10
51.7087791998
 20
-10.0710433386
 10
51.7101935402
 20
-10.0953600691
 10
51.7107366044
 20
-10.1199042061
 10
51.7104103663
 20
-10.1446901702
 10
51.7092175525
 20
-10.1697743786
 10
51.7071534041
 20
-10.1951860286
 10
51.704212029
 20
-10.220855254
 10
51.7003945599
 20
-10.2466898512
 10
51.6956860994
 20
-10.2727346329
 10
51.6901036071
 20
-10.2988965236
 10
51.6837230834
 20
-10.3248664261
 10
51.6765949408
 20
-10.3505711292
 10
51.6687211177
 20
-10.3760223701
 10
51.6601357706
 20
-10.4010310243
 10
51.6509204828
 20
-10.4255016558
 10
51.6410648431
 20
-10.4494752016
 10
51.6304677306
 20
-10.4729688672
 10
51.6191503575
 20
-10.4959326613
 10
51.6071446678
 20
-10.5183757105
 10
51.5943495593
 20
-10.5404071453
 10
51.5807779734
 20
-10.5619835719
 10
51.5664499413
 20
-10.5831148809
 10
51.5512536626
 20
-10.6039901715
 10
51.5351716196
 20
-10.6246480575
 10
51.5182288268
 20
-10.6450153608
 10
51.500362849
 20
-10.6651113118
 10
51.481502087
 20
-10.6850041249
 10
51.4617206573
 20
-10.7045869959
 10
51.4411843826
 20
-10.7236199354
 10
51.4198874458
 20
-10.7420886884
 10
51.3978667196
 20
-10.7599797494
 10
51.3753762529
 20
-10.7770666013
 10
51.3524322941
 20
-10.7933454081
 10
51.329071062
 20
-10.8088125671
 10
51.3055986595
 20
-10.8232592771
 10
51.2821081592
 20
-10.8366418544
 10
51.2585736278
 20
-10.8490246503
 10
51.2351335778
 20
-10.8603744056
 10
51.2119422944
 20
-10.8706602784
 10
51.1889047665
 20
-10.8799477881
 10
51.1657798113
 20
-10.8883464007
 10
51.1426406184
 20
-10.8958713096
 10
51.1194507362
 20
-10.9025330618
 10
51.0957916956
 20
-10.9084209851
 10
51.0717499834
 20
-10.9135433894
 10
51.0472590984
 20
-10.9179044636
 10
51.02165784
 20
-10.9215686428
 10
50.9948216568
 20
-10.9245831607
 10
50.9668787011
 20
-10.9268888748
 10
50.9375392571
 20
-10.9283775784
 10
50.9065231056
 20
-10.92903751
 10
50.8741127752
 20
-10.9288634117
 10
50.8408671939
 20
-10.9277672699
 10
50.8067876804
 20
-10.9257357696
 10
50.7718866873
 20
-10.9227938751
 10
50.7367483639
 20
-10.9189348001
 10
50.7014225014
 20
-10.9142033908
 10
50.6658768483
 20
-10.9085885828
 10
50.630578053
 20
-10.9020211923
 10
50.5956630011
 20
-10.8945158719
 10
50.5610124091
 20
-10.8861104746
 10
50.5267104146
 20
-10.8767816493
 10
50.4928566793
 20
-10.8665687314
 10
50.4593632419
 20
-10.8554783242
 10
50.426031766
 20
-10.8434368171
 10
50.3928420288
 20
-10.8304830982
 10
50.3598206836
 20
-10.8166096304
 10
50.3268388007
 20
-10.80167049
 10
50.293854566
 20
-10.7856238597
 10
50.2609131347
 20
-10.7685308098
 10
50.2280153898
 20
-10.7503967039
  0
LWPOLYLINE
  5
2FD
100
AcDbEntity
  8
IMPORT_IGES
100
AcDbPolyline
 62
7
  6
CONTINUOUS
 90
16
 70
0
 10
65.8993394011
 20
-8.7539243121
 10
65.8736332609
 20
-8.740605952
 10
65.8329871583
 20
-8.7232655988
 10
65.7906771272
 20
-8.709532909
 10
65.7466906462
 20
-8.6994343335
 10
65.7010402368
 20
-8.6929434215
 10
65.6540796425
 20
-8.6901188378
 10
65.6057985822
 20
-8.6909875762
 10
65.5562073369
 20
-8.6955226431
 10
65.5056904941
 20
-8.703701722
 10
65.4542402698
 20
-8.7155474761
 10
65.401864448
 20
-8.7310372422
 10
65.3489709668
 20
-8.7500807143
 10
65.2956958058
 20
-8.7726477904
 10
65.2419029854
 20
-8.7987685724
 10
65.1875925057
 20
-8.8284430604
  0
LWPOLYLINE
  5
2FE
100
AcDbEntity
  8
IMPORT_IGES
100
AcDbPolyline
 62
250
  6
CONTINUOUS
 90
17
 70
0
 10
-66.5285368792
 20
62.0019612357
 10
-66.5848107984
 20
62.0318553295
 10
-66.6408796839
 20
62.0583417125
 10
-66.6965899147
 20
62.0813478129
 10
-66.7517888532
 20
62.1008105944
 10
-66.80632526
 20
62.1166767284
 10
-66.8600497086
 20
62.1289027399
 10
-66.9128150007
 20
62.1374551291
 10
-66.9644765657
 20
62.1423104612
 10
-67.0148928534
 20
62.1434554309
 10
-67.0639257293
 20
62.1408868996
 10
-67.1114408489
 20
62.1346119031
 10
-67.1573080232
 20
62.1246476334
 10
-67.2014015814
 20
62.1110213905
 10
-67.2436007126
 20
62.0937705078
 10
-67.2837897932
 20
62.0729422513
 10
-67.2955626301
 20
62.0659278518
  0
LINE
  5
2FF
100
AcDbEntity
  8
IMPORT_IGES
100
AcDbLine
 62
7
  6
CONTINUOUS
 10
64.8279207479
 20
-8.6280198282
 11
65.187590648
 21
-8.8285633467
  0
LINE
  5
300
100
AcDbEntity
  8
IMPORT_IGES
100
AcDbLine
 62
7
  6
CONTINUOUS
 10
65.5397053529
 20
-8.5534007819
 11
65.8993752531
 21
-8.7539443004
  0
LINE
  5
301
100
AcDbEntity
  8
IMPORT_IGES
100
AcDbLine
 62
7
  6
CONTINUOUS
 10
61.2272760896
 20
-10.7069490451
 11
61.5808833363
 21
-10.9109929999
  0
LWPOLYLINE
  5
302
100
AcDbEntity
  8
IMPORT_IGES
100
AcDbPolyline
 62
250
  6
CONTINUOUS
 90
31
 70
0
 10
51.1550232816
 20
-6.3472509335
 10
51.1000011703
 20
-6.3815812933
 10
51.0451763008
 20
-6.4190732384
 10
50.9906956242
 20
-6.4596262764
 10
50.9367051691
 20
-6.50313171
 10
50.8833496499
 20
-6.5494729284
 10
50.8307720795
 20
-6.5985257199
 10
50.7791133851
 20
-6.6501586047
 10
50.7285120315
 20
-6.7042331874
 10
50.6791036491
 20
-6.760604528
 10
50.6310206709
 20
-6.8191215302
 10
50.584391977
 20
-6.8796273468
 10
50.5393425498
 20
-6.9419597995
 10
50.4959931386
 20
-7.0059518141
 10
50.454459936
 20
-7.0714318682
 10
50.4148542663
 20
-7.1382244508
 10
50.3772822876
 20
-7.2061505329
 10
50.3418447069
 20
-7.2750280472
 10
50.3086365099
 20
-7.3446723764
 10
50.2777467071
 20
-7.4148968476
 10
50.2492580946
 20
-7.4855132332
 10
50.2232470326
 20
-7.5563322548
 10
50.1997832404
 20
-7.6271640911
 10
50.1789296097
 20
-7.6978188864
 10
50.160742036
 20
-7.7681072594
 10
50.1452692689
 20
-7.8378408111
 10
50.132552781
 20
-7.9068326296
 10
50.1226266573
 20
-7.9748977911
 10
50.1155175035
 20
-8.0418538556
 10
50.1112443749
 20
-8.1075213559
 10
50.1098187249
 20
-8.1717242785
  0
LINE
  5
303
100
AcDbEntity
  8
IMPORT_IGES
100
AcDbLine
 62
250
  6
CONTINUOUS
 10
60.1667774615
 20
-1.108542845
 11
67.4799893793
 21
3.1140285588
  0
LINE
  5
304
100
AcDbEntity
  8
IMPORT_IGES
100
AcDbLine
 62
250
  6
CONTINUOUS
 10
68.5404880074
 20
1.2771910555
 11
61.2272760896
 21
-2.9453803483
  0
LINE
  5
305
100
AcDbEntity
  8
IMPORT_IGES
100
AcDbLine
 62
250
  6
CONTINUOUS
 10
51.1550232816
 20
-6.3472509335
 11
59.11025477
 21
-1.7804449052
  0
LINE
  5
306
100
AcDbEntity
  8
IMPORT_IGES
100
AcDbLine
 62
250
  6
CONTINUOUS
 10
60.1676396089
 20
-3.6190856693
 11
52.2124035109
 21
-8.1858836822
  0
LINE
  5
307
100
AcDbEntity
  8
IMPORT_IGES
100
AcDbLine
 62
7
  6
CONTINUOUS
 10
60.4918850372
 20
-2.2111576764
 11
59.8586601705
 21
-2.5745964081
  0
LINE
  5
308
100
AcDbEntity
  8
IMPORT_IGES
100
AcDbLine
 62
7
  6
CONTINUOUS
 10
59.2898035092
 20
-1.4474733644
 11
59.30236318
 21
-1.4404747046
  0
LINE
  5
309
100
AcDbEntity
  8
IMPORT_IGES
100
AcDbLine
 62
7
  6
CONTINUOUS
 10
59.2898035092
 20
-1.4474733644
 11
-58.4517106892
 21
66.5350012859
  0
LINE
  5
30A
100
AcDbEntity
  8
IMPORT_IGES
100
AcDbLine
 62
7
  6
CONTINUOUS
 10
59.2898035092
 20
-1.4332229081
 11
60.4918850372
 21
-2.1272897168
  0
LINE
  5
30B
100
AcDbEntity
  8
IMPORT_IGES
100
AcDbLine
 62
7
  6
CONTINUOUS
 10
-58.1266031135
 20
67.1925725348
 11
60.1667774615
 21
-1.108542845
  0
LINE
  5
30C
100
AcDbEntity
  8
IMPORT_IGES
100
AcDbLine
 62
7
  6
CONTINUOUS
 10
59.11025477
 20
-1.7804449052
 11
-58.8446837345
 21
66.7263805787
  0
LWPOLYLINE
  5
30D
100
AcDbEntity
  8
IMPORT_IGES
100
AcDbPolyline
 62
250
  6
CONTINUOUS
 90
16
 70
0
 10
68.5404880074
 20
1.2771910555
 10
68.5929699662
 20
1.3102410434
 10
68.6424191055
 20
1.3448150393
 10
68.6887028831
 20
1.380820372
 10
68.7316972412
 20
1.4181605336
 10
68.7712869391
 20
1.4567354386
 10
68.8073658614
 20
1.4964416919
 10
68.8398373033
 20
1.537172866
 10
68.8686142292
 20
1.5788197862
 10
68.8936195062
 20
1.621270823
 10
68.9147861107
 20
1.664412192
 10
68.9320573085
 20
1.7081282582
 10
68.9453868063
 20
1.7523018462
 10
68.9547388761
 20
1.7968145544
 10
68.9600884507
 20
1.841547072
 10
68.9614783069
 20
1.8788216109
  0
LINE
  5
30E
100
AcDbEntity
  8
IMPORT_IGES
100
AcDbLine
 62
7
  6
CONTINUOUS
 10
61.2272760896
 20
-10.7069490451
 11
64.8279225766
 21
-8.6278995587
  0
LINE
  5
30F
100
AcDbEntity
  8
IMPORT_IGES
100
AcDbLine
 62
7
  6
CONTINUOUS
 10
61.5808833363
 20
-10.9109929999
 11
65.187590648
 21
-8.8285633467
  0
LINE
  5
310
100
AcDbEntity
  8
IMPORT_IGES
100
AcDbLine
 62
7
  6
CONTINUOUS
 10
52.212414795
 20
-15.9425313625
 11
60.1676396089
 21
-11.3757344892
  0
LINE
  5
311
100
AcDbEntity
  8
IMPORT_IGES
100
AcDbLine
 62
7
  6
CONTINUOUS
 10
52.2041831842
 20
-16.3543575869
 11
60.5201533749
 21
-11.5804702922
  0
LWPOLYLINE
  5
312
100
AcDbEntity
  8
IMPORT_IGES
100
AcDbPolyline
 62
7
  6
CONTINUOUS
 90
16
 70
0
 10
64.8279225766
 20
-8.6278995587
 10
64.8822330691
 20
-8.5982250632
 10
64.9360258991
 20
-8.5721042756
 10
64.9893010666
 20
-8.5495371958
 10
65.04219455
 20
-8.5304937225
 10
65.0945703707
 20
-8.515003957
 10
65.1460205939
 20
-8.5031582035
 10
65.1965374368
 20
-8.4949791246
 10
65.246128682
 20
-8.4904440577
 10
65.2944097423
 20
-8.4895753193
 10
65.3413703366
 20
-8.492399903
 10
65.387020746
 20
-8.498890815
 10
65.431007227
 20
-8.5089893905
 10
65.4733172581
 20
-8.5227220803
 10
65.5139633607
 20
-8.5400624335
 10
65.5396694982
 20
-8.5533807921
  0
LWPOLYLINE
  5
313
100
AcDbEntity
  8
IMPORT_IGES
100
AcDbPolyline
 62
250
  6
CONTINUOUS
 90
16
 70
0
 10
68.2115145471
 20
3.1778387926
 10
68.1785047608
 20
3.1952897319
 10
68.1370929726
 20
3.2130188003
 10
68.0938702852
 20
3.2271717227
 10
68.0489525515
 20
3.2377105642
 10
68.0024601677
 20
3.2446070766
 10
67.9545177509
 20
3.2478427747
 10
67.9052538046
 20
3.2474089857
 10
67.8548003745
 20
3.2433068723
 10
67.8032926945
 20
3.2355474296
 10
67.7508688246
 20
3.2241514558
 10
67.6976692802
 20
3.2091494965
 10
67.6438366559
 20
3.1905817625
 10
67.5895152433
 20
3.1684980221
 10
67.5348506439
 20
3.1429574682
 10
67.4799893793
 20
3.1140285588
  0
LINE
  5
314
100
AcDbEntity
  8
IMPORT_IGES
100
AcDbLine
 62
250
  6
CONTINUOUS
 10
-50.5535504815
 20
71.2651151667
 11
67.4799893793
 21
3.1140285588
  0
LINE
  5
315
100
AcDbEntity
  8
IMPORT_IGES
100
AcDbLine
 62
7
  6
CONTINUOUS
 10
-49.8220253137
 20
71.3289254006
 11
68.2115145471
 21
3.1778387926
  0
LWPOLYLINE
  5
316
100
AcDbEntity
  8
IMPORT_IGES
100
AcDbPolyline
 62
250
  6
CONTINUOUS
 90
31
 70
0
 10
67.4799893793
 20
3.1140285588
 10
67.5364237064
 20
3.0808359617
 10
67.5926527091
 20
3.0443500036
 10
67.6485223276
 20
3.0046706482
 10
67.7038794876
 20
2.9619066081
 10
67.7585725163
 20
2.9161750491
 10
67.812451558
 20
2.8676012705
 10
67.8653689909
 20
2.8163183562
 10
67.9171798274
 20
2.7624668129
 10
67.9677421084
 20
2.7061941892
 10
68.0169172994
 20
2.6476546637
 10
68.064570666
 20
2.5870086262
 10
68.1105716403
 20
2.5244222428
 10
68.1547941851
 20
2.4600669917
 10
68.1971171359
 20
2.3941191977
 10
68.2374245299
 20
2.326759554
 10
68.2756059301
 20
2.2581726175
 10
68.3115567241
 20
2.1885463075
 10
68.3451784092
 20
2.1180713965
 10
68.3763788667
 20
2.046940977
 10
68.4050726118
 20
1.9753499372
 10
68.4311810263
 20
1.9034944325
 10
68.4546325775
 20
1.831571338
 10
68.4753630125
 20
1.7597777134
 10
68.4933155326
 20
1.6883102686
 10
68.5084409521
 20
1.6173648149
 10
68.5206978311
 20
1.5471357327
 10
68.5300525888
 20
1.4778154445
 10
68.5364795968
 20
1.409593879
 10
68.5399612486
 20
1.3426579513
 10
68.5404880074
 20
1.2771910555
  0
LWPOLYLINE
  5
317
100
AcDbEntity
  8
IMPORT_IGES
100
AcDbPolyline
 62
250
  6
CONTINUOUS
 90
10
 70
0
 10
50.1098188511
 20
-67.8329911726
 10
50.1104336883
 20
-67.8478262689
 10
50.112275115
 20
-67.8618393316
 10
50.115330483
 20
-67.8749061863
 10
50.1195774594
 20
-67.8869126223
 10
50.1249817242
 20
-67.8977481345
 10
50.1314949454
 20
-67.9073093765
 10
50.1390588133
 20
-67.9155092885
 10
50.1476099321
 20
-67.9222778837
 10
50.1512092464
 20
-67.9245234134
  0
LWPOLYLINE
  5
318
100
AcDbEntity
  8
IMPORT_IGES
100
AcDbPolyline
 62
250
  6
CONTINUOUS
 90
10
 70
0
 10
50.1098188511
 20
-65.7918154806
 10
50.1104336883
 20
-65.8066505768
 10
50.1122751149
 20
-65.8206636395
 10
50.1153304829
 20
-65.8337304941
 10
50.1195774593
 20
-65.84573693
 10
50.124981724
 20
-65.8565724422
 10
50.1314949452
 20
-65.8661336842
 10
50.139058813
 20
-65.8743335962
 10
50.1476099317
 20
-65.8811021915
 10
50.1512092464
 20
-65.8833477214
  0
LWPOLYLINE
  5
319
100
AcDbEntity
  8
IMPORT_IGES
100
AcDbPolyline
 62
250
  6
CONTINUOUS
 90
10
 70
0
 10
50.1098226531
 20
-63.7506461761
 10
50.1104374554
 20
-63.7654804306
 10
50.1122787776
 20
-63.7794926982
 10
50.1153339722
 20
-63.7925588115
 10
50.1195807076
 20
-63.8045645663
 10
50.1249846657
 20
-63.8153994637
 10
50.1314975174
 20
-63.8249601633
 10
50.1390609561
 20
-63.83315961
 10
50.1476115897
 20
-63.8399278213
 10
50.1512107001
 20
-63.8421732238
  0
LWPOLYLINE
  5
31A
100
AcDbEntity
  8
IMPORT_IGES
100
AcDbPolyline
 62
250
  6
CONTINUOUS
 90
10
 70
0
 10
50.1098188519
 20
-13.129482628
 10
50.1104336893
 20
-13.144317726
 10
50.1122751163
 20
-13.15833079
 10
50.1153304849
 20
-13.1713976453
 10
50.1195774618
 20
-13.1834040815
 10
50.1249817271
 20
-13.1942395935
 10
50.1314949487
 20
-13.203800835
 10
50.1390588167
 20
-13.2120007462
 10
50.1476099352
 20
-13.2187693406
 10
50.1512092472
 20
-13.2210148688
  0
LWPOLYLINE
  5
31B
100
AcDbEntity
  8
IMPORT_IGES
100
AcDbPolyline
 62
250
  6
CONTINUOUS
 90
10
 70
0
 10
50.1098188519
 20
-11.088306936
 10
50.1104336893
 20
-11.1031420341
 10
50.1122751163
 20
-11.117155098
 10
50.1153304849
 20
-11.1302219534
 10
50.1195774618
 20
-11.1422283895
 10
50.1249817271
 20
-11.1530639016
 10
50.1314949487
 20
-11.1626251431
 10
50.1390588167
 20
-11.1708250542
 10
50.1476099352
 20
-11.1775936486
 10
50.1512092472
 20
-11.1798391768
  0
LWPOLYLINE
  5
31C
100
AcDbEntity
  8
IMPORT_IGES
100
AcDbPolyline
 62
250
  6
CONTINUOUS
 90
10
 70
0
 10
50.1098188519
 20
-9.047131244
 10
50.1104336893
 20
-9.061966342
 10
50.1122751163
 20
-9.0759794059
 10
50.1153304848
 20
-9.0890462612
 10
50.1195774617
 20
-9.1010526973
 10
50.1249817269
 20
-9.1118882093
 10
50.1314949485
 20
-9.1214494508
 10
50.1390588164
 20
-9.1296493619
 10
50.1476099348
 20
-9.1364179564
 10
50.1512092472
 20
-9.1386634848
  0
LWPOLYLINE
  5
31D
100
AcDbEntity
  8
IMPORT_IGES
100
AcDbPolyline
 62
250
  6
CONTINUOUS
 90
31
 70
0
 10
52.2124035109
 20
-8.1858836822
 10
52.2099924057
 20
-8.1215015925
 10
52.204741698
 20
-8.0555840988
 10
52.1966657715
 20
-7.9883118048
 10
52.1857867506
 20
-7.9198690247
 10
52.1721344401
 20
-7.8504432831
 10
52.1557462445
 20
-7.780224801
 10
52.1366670635
 20
-7.7094059672
 10
52.1149491699
 20
-7.6381808157
 10
52.0906520678
 20
-7.5667444988
 10
52.0638423272
 20
-7.4952927426
 10
52.0345934022
 20
-7.4240213158
 10
52.0029854325
 20
-7.3531254981
 10
51.9691050192
 20
-7.282799535
 10
51.9330449899
 20
-7.2132361108
 10
51.8949041469
 20
-7.1446258256
 10
51.8547869913
 20
-7.0771566628
 10
51.812803439
 20
-7.0110134793
 10
51.7690685227
 20
-6.9463775037
 10
51.723702071
 20
-6.8834258298
 10
51.6768283824
 20
-6.822330937
 10
51.6285758886
 20
-6.7632602208
 10
51.5790767959
 20
-6.7063755267
 10
51.5284667257
 20
-6.6518327103
 10
51.476884347
 20
-6.5997812141
 10
51.4244710708
 20
-6.5503637249
 10
51.3713704236
 20
-6.5037155557
 10
51.3177276484
 20
-6.4599643212
 10
51.2636896316
 20
-6.4192298735
 10
51.2094045096
 20
-6.3816239305
 10
51.1550210179
 20
-6.3472495713
  0
LWPOLYLINE
  5
31E
100
AcDbEntity
  8
IMPORT_IGES
100
AcDbPolyline
 62
250
  6
CONTINUOUS
 90
17
 70
0
 10
50.1098187249
 20
-70.6405193102
 10
50.1112443737
 20
-70.7030855424
 10
50.1155174992
 20
-70.7638474136
 10
50.1226266485
 20
-70.822642059
 10
50.1325527668
 20
-70.879311887
 10
50.1452692491
 20
-70.9337050008
 10
50.1607420106
 20
-70.9856756054
 10
50.1789295791
 20
-71.0350843999
 10
50.1997832054
 20
-71.0817989499
 10
50.2232469941
 20
-71.1256940421
 10
50.2492580538
 20
-71.1666520208
 10
50.2777466652
 20
-71.2045631033
 10
50.3086364682
 20
-71.2393256727
 10
50.3418446666
 20
-71.2708465523
 10
50.3772822502
 20
-71.2990412542
 10
50.4148542327
 20
-71.3238342055
 10
50.4201506279
 20
-71.3269553106
  0
LINE
  5
31F
100
AcDbEntity
  8
IMPORT_IGES
100
AcDbLine
 62
250
  6
CONTINUOUS
 10
50.1016003914
 20
-16.3612139904
 11
50.1016003908
 21
-63.2604407099
  0
LINE
  5
320
100
AcDbEntity
  8
IMPORT_IGES
100
AcDbLine
 62
250
  6
CONTINUOUS
 10
50.1098187228
 20
-15.0616038739
 11
50.1098297425
 21
-15.9493890625
  0
LINE
  5
321
100
AcDbEntity
  8
IMPORT_IGES
100
AcDbLine
 62
250
  6
CONTINUOUS
 10
50.1098187248
 20
-8.1717242785
 11
50.1098187
 21
-9.0471311529
  0
LINE
  5
322
100
AcDbEntity
  8
IMPORT_IGES
100
AcDbLine
 62
250
  6
CONTINUOUS
 10
50.1098187227
 20
-69.7651124191
 11
50.1098187248
 21
-70.6405193102
  0
LINE
  5
323
100
AcDbEntity
  8
IMPORT_IGES
100
AcDbLine
 62
250
  6
CONTINUOUS
 10
50.1098187227
 20
-10.97925249
 11
50.1098186999
 21
-11.0883068448
  0
LINE
  5
324
100
AcDbEntity
  8
IMPORT_IGES
100
AcDbLine
 62
250
  6
CONTINUOUS
 10
50.1098187227
 20
-13.0204281819
 11
50.1098186999
 21
-13.1294825368
  0
LINE
  5
325
100
AcDbEntity
  8
IMPORT_IGES
100
AcDbLine
 62
250
  6
CONTINUOUS
 10
50.1098187227
 20
-65.6827610351
 11
50.1098186994
 21
-65.7918153897
  0
LINE
  5
326
100
AcDbEntity
  8
IMPORT_IGES
100
AcDbLine
 62
250
  6
CONTINUOUS
 10
50.1098187227
 20
-67.7239367271
 11
50.1098186994
 21
-67.8329910816
  0
LINE
  5
327
100
AcDbEntity
  8
IMPORT_IGES
100
AcDbLine
 62
250
  6
CONTINUOUS
 10
50.109824741
 20
-63.2649739213
 11
50.1098186995
 21
-63.7506396977
  0
LINE
  5
328
100
AcDbEntity
  8
IMPORT_IGES
100
AcDbLine
 62
250
  6
CONTINUOUS
 10
52.2041854433
 20
-63.2955919096
 11
52.2041854411
 21
-16.3543562913
  0
LINE
  5
329
100
AcDbEntity
  8
IMPORT_IGES
100
AcDbLine
 62
250
  6
CONTINUOUS
 10
52.212414795
 20
-15.9425313625
 11
52.2124035109
 21
-8.1858836822
  0
LINE
  5
32A
100
AcDbEntity
  8
IMPORT_IGES
100
AcDbLine
 62
250
  6
CONTINUOUS
 10
52.2124035109
 20
-70.6546787139
 11
52.2124142146
 21
-63.2955931283
  0
LWPOLYLINE
  5
32B
100
AcDbEntity
  8
IMPORT_IGES
100
AcDbPolyline
 62
250
  6
CONTINUOUS
 90
16
 70
0
 10
50.1098186826
 20
-10.9792524649
 10
50.110438963
 20
-10.9636414676
 10
50.112294379
 20
-10.9474549208
 10
50.1153687022
 20
-10.9308343992
 10
50.1196350433
 20
-10.9139252734
 10
50.1250560869
 20
-10.8968754381
 10
50.1315844182
 20
-10.8798340187
 10
50.1391629375
 20
-10.8629500671
 10
50.1477253597
 20
-10.846371258
 10
50.157196794
 20
-10.8302425968
 10
50.167494399
 20
-10.8147051521
 10
50.1785281074
 20
-10.7998948213
 10
50.190201413
 20
-10.7859411426
 10
50.2024122157
 20
-10.772966161
 10
50.2150537146
 20
-10.7610833613
 10
50.2280153413
 20
-10.7503966758
  0
LWPOLYLINE
  5
32C
100
AcDbEntity
  8
IMPORT_IGES
100
AcDbPolyline
 62
250
  6
CONTINUOUS
 90
16
 70
0
 10
50.1098186826
 20
-13.0204281569
 10
50.110438963
 20
-13.0048171596
 10
50.112294379
 20
-12.9886306128
 10
50.1153687022
 20
-12.9720100912
 10
50.1196350433
 20
-12.9551009654
 10
50.1250560869
 20
-12.9380511301
 10
50.1315844182
 20
-12.9210097107
 10
50.1391629375
 20
-12.9041257591
 10
50.1477253597
 20
-12.88754695
 10
50.157196794
 20
-12.8714182888
 10
50.167494399
 20
-12.8558808441
 10
50.1785281074
 20
-12.8410705133
 10
50.190201413
 20
-12.8271168345
 10
50.2024122157
 20
-12.814141853
 10
50.2150537146
 20
-12.8022590533
 10
50.2280153413
 20
-12.7915723678
  0
LWPOLYLINE
  5
32D
100
AcDbEntity
  8
IMPORT_IGES
100
AcDbPolyline
 62
250
  6
CONTINUOUS
 90
16
 70
0
 10
50.1098224846
 20
-15.0615930967
 10
50.1104427298
 20
-15.0459829851
 10
50.1122980405
 20
-15.0297973566
 10
50.1153721893
 20
-15.013177778
 10
50.1196382884
 20
-14.9962696115
 10
50.1250590244
 20
-14.9792207435
 10
50.1315869854
 20
-14.962180291
 10
50.1391650747
 20
-14.9452972973
 10
50.1477270111
 20
-14.9287194288
 10
50.157197908
 20
-14.9125916827
 10
50.1674949288
 20
-14.8970551194
 10
50.1785280112
 20
-14.8822456289
 10
50.1902006545
 20
-14.8682927418
 10
50.2024107644
 20
-14.8553184964
 10
50.2150515461
 20
-14.8434363709
 10
50.2280124375
 20
-14.8327502917
  0
LWPOLYLINE
  5
32E
100
AcDbEntity
  8
IMPORT_IGES
100
AcDbPolyline
 62
250
  6
CONTINUOUS
 90
16
 70
0
 10
50.1098186827
 20
-65.6827610101
 10
50.1104389631
 20
-65.6671500128
 10
50.1122943791
 20
-65.650963466
 10
50.1153687023
 20
-65.6343429444
 10
50.1196350434
 20
-65.6174338186
 10
50.1250560871
 20
-65.6003839833
 10
50.1315844184
 20
-65.5833425639
 10
50.1391629377
 20
-65.5664586123
 10
50.1477253599
 20
-65.5498798031
 10
50.1571967941
 20
-65.533751142
 10
50.1674943992
 20
-65.5182136973
 10
50.1785281075
 20
-65.5034033665
 10
50.1902014131
 20
-65.4894496877
 10
50.2024122159
 20
-65.4764747061
 10
50.2150537147
 20
-65.4645919065
 10
50.2280153415
 20
-65.453905221
  0
LWPOLYLINE
  5
32F
100
AcDbEntity
  8
IMPORT_IGES
100
AcDbPolyline
 62
250
  6
CONTINUOUS
 90
16
 70
0
 10
50.1098186827
 20
-67.7239367021
 10
50.1104389631
 20
-67.7083257048
 10
50.1122943791
 20
-67.692139158
 10
50.1153687023
 20
-67.6755186364
 10
50.1196350434
 20
-67.6586095106
 10
50.1250560871
 20
-67.6415596752
 10
50.1315844184
 20
-67.6245182559
 10
50.1391629377
 20
-67.6076343043
 10
50.1477253599
 20
-67.5910554951
 10
50.1571967941
 20
-67.574926834
 10
50.1674943992
 20
-67.5593893892
 10
50.1785281075
 20
-67.5445790584
 10
50.1902014131
 20
-67.5306253797
 10
50.2024122159
 20
-67.5176503981
 10
50.2150537147
 20
-67.5057675985
 10
50.2280153415
 20
-67.495080913
  0
LWPOLYLINE
  5
330
100
AcDbEntity
  8
IMPORT_IGES
100
AcDbPolyline
 62
250
  6
CONTINUOUS
 90
16
 70
0
 10
50.1098186827
 20
-69.765112394
 10
50.1104389631
 20
-69.7495013968
 10
50.1122943791
 20
-69.73331485
 10
50.1153687023
 20
-69.7166943284
 10
50.1196350434
 20
-69.6997852026
 10
50.1250560871
 20
-69.6827353672
 10
50.1315844184
 20
-69.6656939478
 10
50.1391629377
 20
-69.6488099963
 10
50.1477253599
 20
-69.6322311871
 10
50.1571967941
 20
-69.616102526
 10
50.1674943992
 20
-69.6005650812
 10
50.1785281075
 20
-69.5857547504
 10
50.1902014131
 20
-69.5718010717
 10
50.2024122159
 20
-69.5588260901
 10
50.2150537147
 20
-69.5469432905
 10
50.2280153415
 20
-69.536256605
  0
LINE
  5
331
100
AcDbEntity
  8
IMPORT_IGES
100
AcDbLine
 62
7
  6
CONTINUOUS
 10
59.2898035092
 20
-1.4332229081
 11
59.2898035092
 21
-1.4474733644
  0
LINE
  5
332
100
AcDbEntity
  8
IMPORT_IGES
100
AcDbLine
 62
7
  6
CONTINUOUS
 10
60.1676396089
 20
-66.4021501297
 11
60.1676396089
 21
-59.0386756253
  0
LINE
  5
333
100
AcDbEntity
  8
IMPORT_IGES
100
AcDbLine
 62
7
  6
CONTINUOUS
 10
60.1676396089
 20
-11.3757344892
 11
60.1676396089
 21
-3.6190856693
  0
LINE
  5
334
100
AcDbEntity
  8
IMPORT_IGES
100
AcDbLine
 62
7
  6
CONTINUOUS
 10
60.4918850372
 20
-65.8398503626
 11
60.4918850372
 21
-58.86534812
  0
LINE
  5
335
100
AcDbEntity
  8
IMPORT_IGES
100
AcDbLine
 62
7
  6
CONTINUOUS
 10
60.4918850372
 20
-11.5640523778
 11
60.4918850372
 21
-2.1272897168
  0
LINE
  5
336
100
AcDbEntity
  8
IMPORT_IGES
100
AcDbLine
 62
7
  6
CONTINUOUS
 10
68.5404880075
 20
-26.5655912633
 11
68.3833472097
 21
-26.6595460959
  0
LINE
  5
337
100
AcDbEntity
  8
IMPORT_IGES
100
AcDbLine
 62
7
  6
CONTINUOUS
 10
68.3833472097
 20
-29.1497804401
 11
66.7159449071
 21
-30.1467239867
  0
LINE
  5
338
100
AcDbEntity
  8
IMPORT_IGES
100
AcDbLine
 62
7
  6
CONTINUOUS
 10
65.8933439487
 20
-31.4616778697
 11
65.9265273235
 21
-31.442630389
  0
LWPOLYLINE
  5
339
100
AcDbEntity
  8
IMPORT_IGES
100
AcDbPolyline
 62
7
  6
CONTINUOUS
 90
17
 70
0
 10
66.2109251994
 20
-9.4413118982
 10
66.2094737775
 20
-9.37822066
 10
66.2052659622
 20
-9.3173485281
 10
66.1983017534
 20
-9.2586955027
 10
66.1885442742
 20
-9.2021299838
 10
66.1760304015
 20
-9.1477835713
 10
66.1608707667
 20
-9.0960510645
 10
66.1430456842
 20
-9.0469459831
 10
66.1225748395
 20
-9.0004548072
 10
66.0996279213
 20
-8.956931777
 10
66.0741870107
 20
-8.9163993122
 10
66.0462700266
 20
-8.8788349929
 10
66.0161004145
 20
-8.8445257991
 10
65.9836618162
 20
-8.8134958842
 10
65.9489705899
 20
-8.7857210947
 10
65.9122992558
 20
-8.7614159505
 10
65.8993394011
 20
-8.7539243121
  0
LINE
  5
33A
100
AcDbEntity
  8
IMPORT_IGES
100
AcDbLine
 62
7
  6
CONTINUOUS
 10
60.5201533749
 20
-58.850237096
 11
60.5201533749
 21
-11.5804702922
  0
LINE
  5
33B
100
AcDbEntity
  8
IMPORT_IGES
100
AcDbLine
 62
7
  6
CONTINUOUS
 10
61.2272760896
 20
-65.8709708852
 11
61.2272760896
 21
-58.1095266072
  0
LINE
  5
33C
100
AcDbEntity
  8
IMPORT_IGES
100
AcDbLine
 62
7
  6
CONTINUOUS
 10
61.2272760896
 20
-10.7069490451
 11
61.2272760896
 21
-2.9453803483
  0
LINE
  5
33D
100
AcDbEntity
  8
IMPORT_IGES
100
AcDbLine
 62
7
  6
CONTINUOUS
 10
61.5808833363
 20
-58.3138194373
 11
61.5808833363
 21
-10.9109929999
  0
LINE
  5
33E
100
AcDbEntity
  8
IMPORT_IGES
100
AcDbLine
 62
7
  6
CONTINUOUS
 10
65.9265273235
 20
-31.8117786188
 11
65.9265273235
 21
-31.442630389
  0
LINE
  5
33F
100
AcDbEntity
  8
IMPORT_IGES
100
AcDbLine
 62
7
  6
CONTINUOUS
 10
65.9340153743
 20
-31.8088765844
 11
65.9340153743
 21
-31.2547783504
  0
LINE
  5
340
100
AcDbEntity
  8
IMPORT_IGES
100
AcDbLine
 62
7
  6
CONTINUOUS
 10
66.2109251994
 20
-9.441215469
 11
66.2109251994
 21
-29.7034842422
  0
LINE
  5
341
100
AcDbEntity
  8
IMPORT_IGES
100
AcDbLine
 62
7
  6
CONTINUOUS
 10
66.2109251994
 20
-33.9029320857
 11
66.2109251994
 21
-54.246959546
  0
LINE
  5
342
100
AcDbEntity
  8
IMPORT_IGES
100
AcDbLine
 62
7
  6
CONTINUOUS
 10
65.9265273235
 20
-31.442630389
 11
65.9273459466
 21
-31.2816529192
  0
LWPOLYLINE
  5
343
100
AcDbEntity
  8
IMPORT_IGES
100
AcDbPolyline
 62
7
  6
CONTINUOUS
 90
25
 70
0
 10
65.200037207
 20
-32.4076203438
 10
65.2019847729
 20
-32.3010627919
 10
65.2077327614
 20
-32.1928104787
 10
65.2172811726
 20
-32.0828634041
 10
65.2306614968
 20
-31.9710130961
 10
65.2478422436
 20
-31.8574680267
 10
65.2687289422
 20
-31.7428536121
 10
65.2933420699
 20
-31.627163933
 10
65.3216611492
 20
-31.5104049087
 10
65.3535302774
 20
-31.3932197135
 10
65.3889690699
 20
-31.2756059871
 10
65.4279579113
 20
-31.1575660898
 10
65.4702820517
 20
-31.0397502768
 10
65.5159599188
 20
-30.9221597862
 10
65.564973085
 20
-30.80479338
 10
65.6170515183
 20
-30.6882975992
 10
65.6722121514
 20
-30.5726772597
 10
65.7304380516
 20
-30.4579275457
 10
65.7914083881
 20
-30.3446805506
 10
65.8551383175
 20
-30.2329445879
 10
65.9216126832
 20
-30.122711344
 10
65.9904651843
 20
-30.0145879722
 10
66.0615737206
 20
-29.9087768569
 10
66.1350603923
 20
-29.8050756135
 10
66.2109251994
 20
-29.7034842422
  0
LWPOLYLINE
  5
344
100
AcDbEntity
  8
IMPORT_IGES
100
AcDbPolyline
 62
7
  6
CONTINUOUS
 90
28
 70
0
 10
65.8823548625
 20
-31.6248936612
 10
65.8838162633
 20
-31.5666191686
 10
65.8880512839
 20
-31.5072850227
 10
65.8950599243
 20
-31.4468912236
 10
65.9048869388
 20
-31.3852280704
 10
65.9174875731
 20
-31.3225052641
 10
65.9327275645
 20
-31.2593519068
 10
65.9506323352
 20
-31.1957645056
 10
65.971176463
 20
-31.1317465534
 10
65.9941494183
 20
-31.0679376314
 10
66.0195742349
 20
-31.0043408784
 10
66.0474278791
 20
-30.9409531555
 10
66.0774307204
 20
-30.8784046272
 10
66.1096034803
 20
-30.8167033013
 10
66.1439254373
 20
-30.7558411699
 10
66.180054796
 20
-30.6964243736
 10
66.218008916
 20
-30.6384668835
 10
66.2577704377
 20
-30.5819547284
 10
66.2989454869
 20
-30.5274521351
 10
66.3415484578
 20
-30.4749775674
 10
66.3855649561
 20
-30.4245125614
 10
66.4305579258
 20
-30.3765659525
 10
66.4765373341
 20
-30.3311616609
 10
66.5234932137
 20
-30.2882757664
 10
66.5709586066
 20
-30.2483453442
 10
66.6187778602
 20
-30.2115160861
 10
66.667106627
 20
-30.1776423003
 10
66.7159449071
 20
-30.1467239867
  0
LWPOLYLINE
  5
345
100
AcDbEntity
  8
IMPORT_IGES
100
AcDbPolyline
 62
7
  6
CONTINUOUS
 90
16
 70
0
 10
68.5404880075
 20
-33.505588616
 10
68.5933486749
 20
-33.4722520367
 10
68.6428835083
 20
-33.4376021319
 10
68.6890925077
 20
-33.4016389016
 10
68.7320738221
 20
-33.3642589146
 10
68.7717293025
 20
-33.3255656022
 10
68.807764502
 20
-33.2858692574
 10
68.8401519772
 20
-33.2451632653
 10
68.8689191715
 20
-33.2034542408
 10
68.8938539685
 20
-33.1610723217
 10
68.9149278124
 20
-33.1180131138
 10
68.9321692591
 20
-33.0742810112
 10
68.94545186
 20
-33.0302193343
 10
68.9547464064
 20
-32.9858259505
 10
68.960082107
 20
-32.9411029923
 10
68.9614783062
 20
-32.9039834696
  0
LINE
  5
346
100
AcDbEntity
  8
IMPORT_IGES
100
AcDbLine
 62
7
  6
CONTINUOUS
 10
66.7159449071
 20
-32.106252651
 11
68.3833472097
 21
-31.1093091044
  0
LINE
  5
347
100
AcDbEntity
  8
IMPORT_IGES
100
AcDbLine
 62
7
  6
CONTINUOUS
 10
68.3833472097
 20
-33.5995434487
 11
68.5404880075
 21
-33.505588616
  0
LINE
  5
348
100
AcDbEntity
  8
IMPORT_IGES
100
AcDbLine
 62
7
  6
CONTINUOUS
 10
66.0669266109
 20
-31.7443752389
 11
67.7750848834
 21
-30.7581060606
  0
LWPOLYLINE
  5
349
100
AcDbEntity
  8
IMPORT_IGES
100
AcDbPolyline
 62
7
  6
CONTINUOUS
 90
15
 70
0
 10
66.7159449071
 20
-32.106252651
 10
66.6671079925
 20
-32.133734686
 10
66.6187804561
 20
-32.1576521744
 10
66.5709622979
 20
-32.1780051161
 10
66.5234978694
 20
-32.1948339716
 10
66.4765428192
 20
-32.2080982805
 10
66.4305640921
 20
-32.2176766617
 10
66.3855716488
 20
-32.2235332796
 10
66.3415555286
 20
-32.2257039699
 10
66.2989527954
 20
-32.2241748581
 10
66.2577778369
 20
-32.2189102689
 10
66.2180162652
 20
-32.2099458775
 10
66.1800619807
 20
-32.1973748354
 10
66.1439323377
 20
-32.1811624111
 10
66.1315427243
 20
-32.1745694648
  0
LWPOLYLINE
  5
34A
100
AcDbEntity
  8
IMPORT_IGES
100
AcDbPolyline
 62
7
  6
CONTINUOUS
 90
17
 70
0
 10
68.9614783062
 20
-32.9039834696
 10
68.9614201396
 20
-32.8964001775
 10
68.9587311008
 20
-32.8517176542
 10
68.952044394
 20
-32.8070552744
 10
68.9414094063
 20
-32.7627623112
 10
68.9267969978
 20
-32.7188411912
 10
68.9082363084
 20
-32.6752894879
 10
68.8858641447
 20
-32.632449195
 10
68.8596520879
 20
-32.5903249939
 10
68.8296285569
 20
-32.5489122032
 10
68.7960156145
 20
-32.5085387729
 10
68.7587860215
 20
-32.4692115936
 10
68.7179670171
 20
-32.4309237747
 10
68.6738623825
 20
-32.3939825951
 10
68.6265733781
 20
-32.358490481
 10
68.5759987435
 20
-32.3243450061
 10
68.5221384787
 20
-32.2915461706
  0
LINE
  5
34B
100
AcDbEntity
  8
IMPORT_IGES
100
AcDbLine
 62
7
  6
CONTINUOUS
 10
67.1372768893
 20
-31.1263684028
 11
67.1372768893
 21
-29.8948086571
  0
LINE
  5
34C
100
AcDbEntity
  8
IMPORT_IGES
100
AcDbLine
 62
7
  6
CONTINUOUS
 10
68.3833472097
 20
-29.1497804401
 11
68.3833472097
 21
-26.6595460959
  0
LINE
  5
34D
100
AcDbEntity
  8
IMPORT_IGES
100
AcDbLine
 62
7
  6
CONTINUOUS
 10
68.3833472097
 20
-31.1093091044
 11
68.3833472097
 21
-33.5995434487
  0
LINE
  5
34E
100
AcDbEntity
  8
IMPORT_IGES
100
AcDbLine
 62
250
  6
CONTINUOUS
 10
68.5404880074
 20
1.2771910555
 11
68.5404880074
 21
-26.5655912633
  0
LINE
  5
34F
100
AcDbEntity
  8
IMPORT_IGES
100
AcDbLine
 62
250
  6
CONTINUOUS
 10
68.5404880074
 20
-33.5055886161
 11
68.5404880074
 21
-61.3483709348
  0
LINE
  5
350
100
AcDbEntity
  8
IMPORT_IGES
100
AcDbLine
 62
7
  6
CONTINUOUS
 10
68.9614783069
 20
-60.7467403794
 11
68.9614783069
 21
-32.9039580606
  0
LINE
  5
351
100
AcDbEntity
  8
IMPORT_IGES
100
AcDbLine
 62
7
  6
CONTINUOUS
 10
68.9614783069
 20
-25.9639607078
 11
68.9614783069
 21
1.8788216109
  0
LWPOLYLINE
  5
352
100
AcDbEntity
  8
IMPORT_IGES
100
AcDbPolyline
 62
250
  6
CONTINUOUS
 90
16
 70
0
 10
68.5404880074
 20
-61.3483709348
 10
68.5399612485
 20
-61.4110517507
 10
68.5364795965
 20
-61.4719124633
 10
68.5300525882
 20
-61.5307863212
 10
68.52069783
 20
-61.5875120176
 10
68.5084409504
 20
-61.6419341285
 10
68.4933155302
 20
-61.6939035396
 10
68.4753630094
 20
-61.7432778598
 10
68.4546325737
 20
-61.7899218084
 10
68.4311810216
 20
-61.8337075825
 10
68.4050726064
 20
-61.8745152133
 10
68.3763788604
 20
-61.9122328921
 10
68.3451784022
 20
-61.9467572735
 10
68.3115567165
 20
-61.9779937644
 10
68.2756059218
 20
-62.0058567802
 10
68.250426675
 20
-62.0224991623
  0
LWPOLYLINE
  5
353
100
AcDbEntity
  8
IMPORT_IGES
100
AcDbPolyline
 62
250
  6
CONTINUOUS
 90
16
 70
0
 10
68.9614783069
 20
-60.7467403794
 10
68.9600884507
 20
-60.7840149183
 10
68.9547388761
 20
-60.8287474359
 10
68.9453868063
 20
-60.8732601441
 10
68.9320573085
 20
-60.9174337321
 10
68.9147861107
 20
-60.9611497983
 10
68.8936195062
 20
-61.0042911673
 10
68.8686142292
 20
-61.0467422041
 10
68.8398373033
 20
-61.0883891243
 10
68.8073658614
 20
-61.1291202984
 10
68.7712869391
 20
-61.1688265517
 10
68.7316972412
 20
-61.2074014567
 10
68.6887028831
 20
-61.2447416183
 10
68.6424191055
 20
-61.2807469509
 10
68.5929699662
 20
-61.3153209468
 10
68.5404880074
 20
-61.3483709348
  0
LWPOLYLINE
  5
354
100
AcDbEntity
  8
IMPORT_IGES
100
AcDbPolyline
 62
7
  6
CONTINUOUS
 90
16
 70
0
 10
68.9614783062
 20
-25.9639861169
 10
68.960082107
 20
-26.0011056396
 10
68.9547464064
 20
-26.0458285978
 10
68.94545186
 20
-26.0902219816
 10
68.9321692591
 20
-26.1342836585
 10
68.9149278124
 20
-26.178015761
 10
68.8938539685
 20
-26.2210749689
 10
68.8689191715
 20
-26.263456888
 10
68.8401519772
 20
-26.3051659125
 10
68.807764502
 20
-26.3458719046
 10
68.7717293025
 20
-26.3855682495
 10
68.7320738221
 20
-26.4242615619
 10
68.6890925077
 20
-26.4616415488
 10
68.6428835083
 20
-26.4976047792
 10
68.5933486749
 20
-26.532254684
 10
68.5404880075
 20
-26.5655912633
  0
LWPOLYLINE
  5
355
100
AcDbEntity
  8
IMPORT_IGES
100
AcDbPolyline
 62
7
  6
CONTINUOUS
 90
31
 70
0
 10
65.1877590796
 20
-56.0832282751
 10
65.2419757459
 20
-56.0480007161
 10
65.2956948462
 20
-56.0098375014
 10
65.3489163804
 20
-55.9687386309
 10
65.4017826752
 20
-55.9245715716
 10
65.454151404
 20
-55.8774688565
 10
65.5055955868
 20
-55.8278280853
 10
65.5561011461
 20
-55.7756359366
 10
65.6056821594
 20
-55.7209057317
 10
65.6539538793
 20
-55.6640750348
 10
65.7009060246
 20
-55.6051291305
 10
65.7465488764
 20
-55.5440827341
 10
65.790528531
 20
-55.4814175549
 10
65.8328324647
 20
-55.4171221015
 10
65.8734732012
 20
-55.3512078653
 10
65.9121344085
 20
-55.2841910288
 10
65.948801529
 20
-55.2160634835
 10
65.9834891203
 20
-55.1468333379
 10
66.0159245237
 20
-55.0770411009
 10
66.0460913741
 20
-55.0066821725
 10
66.0740060366
 20
-54.9357611526
 10
66.0994449473
 20
-54.86483235
 10
66.1223901786
 20
-54.7938947674
 10
66.1428596582
 20
-54.722949402
 10
66.1606836045
 20
-54.6525535541
 10
66.1758352875
 20
-54.5828273795
 10
66.1883414373
 20
-54.5136507224
 10
66.1981124625
 20
-54.4452204161
 10
66.2051184994
 20
-54.3776020719
 10
66.2093894117
 20
-54.3107300785
 10
66.2109251994
 20
-54.244604436
  0
LINE
  5
356
100
AcDbEntity
  8
IMPORT_IGES
100
AcDbLine
 62
7
  6
CONTINUOUS
 10
61.5808833363
 20
-58.3138194373
 11
65.1877590796
 21
-56.0832282751
  0
LINE
  5
357
100
AcDbEntity
  8
IMPORT_IGES
100
AcDbLine
 62
7
  6
CONTINUOUS
 10
60.5201533749
 20
-58.850237096
 11
52.2041831859
 21
-63.2955931163
  0
LINE
  5
358
100
AcDbEntity
  8
IMPORT_IGES
100
AcDbLine
 62
250
  6
CONTINUOUS
 10
52.2124035109
 20
-70.6546787139
 11
60.1676396089
 21
-66.4021501297
  0
LWPOLYLINE
  5
359
100
AcDbEntity
  8
IMPORT_IGES
100
AcDbPolyline
 62
250
  6
CONTINUOUS
 90
31
 70
0
 10
52.2124091519
 20
-70.654675587
 10
52.1550123755
 20
-70.6848823263
 10
52.0949854678
 20
-70.7133330254
 10
52.0324894196
 20
-70.7399514811
 10
51.9676920769
 20
-70.7646663168
 10
51.9007669691
 20
-70.7874114543
 10
51.8318927667
 20
-70.8081262159
 10
51.7612538105
 20
-70.8267551441
 10
51.6890396924
 20
-70.8432482255
 10
51.6154439733
 20
-70.8575612524
 10
51.5406639172
 20
-70.8696558606
 10
51.4648999624
 20
-70.879499632
 10
51.3883551846
 20
-70.8870661817
 10
51.3112347523
 20
-70.8923352284
 10
51.2337453771
 20
-70.8952926492
 10
51.1560947594
 20
-70.8959305171
 10
51.0784910318
 20
-70.8942471223
 10
51.0011422012
 20
-70.890246977
 10
50.9242555913
 20
-70.8839408031
 10
50.8480372869
 20
-70.8753455034
 10
50.7726915815
 20
-70.8644841166
 10
50.6984204296
 20
-70.8513857552
 10
50.6254229057
 20
-70.8360855277
 10
50.5538946702
 20
-70.8186244444
 10
50.4840274456
 20
-70.7990493076
 10
50.4160085021
 20
-70.7774125859
 10
50.3500201558
 20
-70.7537722738
 10
50.28623928
 20
-70.7281917362
 10
50.2248368313
 20
-70.7007395384
 10
50.1659773912
 20
-70.6714892625
 10
50.1098187249
 20
-70.6405193102
  0
LINE
  5
35A
100
AcDbEntity
  8
IMPORT_IGES
100
AcDbLine
 62
250
  6
CONTINUOUS
 10
61.2272760896
 20
-65.8709708852
 11
68.5404880074
 21
-61.3483709348
  0
LINE
  5
35B
100
AcDbEntity
  8
IMPORT_IGES
100
AcDbLine
 62
7
  6
CONTINUOUS
 10
68.250426675
 20
-62.0224991623
 11
60.9296889096
 21
-66.5497532098
  0
LINE
  5
35C
100
AcDbEntity
  8
IMPORT_IGES
100
AcDbLine
 62
7
  6
CONTINUOUS
 10
60.1676396089
 20
-65.7216247593
 11
60.4918850372
 21
-65.5222623633
  0
LINE
  5
35D
100
AcDbEntity
  8
IMPORT_IGES
100
AcDbLine
 62
7
  6
CONTINUOUS
 10
60.1381526986
 20
-66.6722280556
 11
60.1235804061
 21
-66.680455968
  0
LWPOLYLINE
  5
35E
100
AcDbEntity
  8
IMPORT_IGES
100
AcDbPolyline
 62
250
  6
CONTINUOUS
 90
17
 70
0
 10
51.8807304187
 20
-71.3527651595
 10
51.8949041514
 20
-71.344888411
 10
51.9330449616
 20
-71.3204985853
 10
51.9691049618
 20
-71.2925727125
 10
52.0029853523
 20
-71.2611873058
 10
52.0345933054
 20
-71.2264283571
 10
52.0638422194
 20
-71.1883911013
 10
52.0906519562
 20
-71.1471797555
 10
52.1149490607
 20
-71.1029072333
 10
52.1366669619
 20
-71.0556948355
 10
52.1557461558
 20
-71.005671918
 10
52.1721343678
 20
-70.9529755369
 10
52.1857866963
 20
-70.8977500733
 10
52.196665736
 20
-70.8401468376
 10
52.2047416795
 20
-70.7803236552
 10
52.2099923999
 20
-70.7184444337
 10
52.2124035109
 20
-70.6546787139
  0
LINE
  5
35F
100
AcDbEntity
  8
IMPORT_IGES
100
AcDbLine
 62
7
  6
CONTINUOUS
 10
59.8384964636
 20
-67.0988894971
 11
51.8807304187
 21
-71.3527651595
  0
ARC
  5
360
100
AcDbEntity
  8
IMPORT_IGES
100
AcDbCircle
 62
7
  6
CONTINUOUS
 10
-66.5099715345
 20
60.788098982
 40
1.5
100
AcDbArc
 50
121.5826117755
 51
180.0
  0
ARC
  5
361
100
AcDbEntity
  8
IMPORT_IGES
100
AcDbCircle
 62
7
  6
CONTINUOUS
 10
51.1735886262
 20
-70.0299082189
 40
1.5
100
AcDbArc
 50
239.848246187
 51
298.1270221029
  0
ARC
  5
362
100
AcDbEntity
  8
IMPORT_IGES
100
AcDbCircle
 62
7
  6
CONTINUOUS
 10
-66.5099715345
 20
-1.6806960497
 40
1.5
100
AcDbArc
 50
180.0
 51
239.8524897024
  0
ARC
  5
363
100
AcDbEntity
  8
IMPORT_IGES
100
AcDbCircle
 62
7
  6
CONTINUOUS
 10
67.4614783069
 20
1.8788216109
 40
1.5
100
AcDbArc
 50
0.0
 51
59.9984015652
  0
ARC
  5
364
100
AcDbEntity
  8
IMPORT_IGES
100
AcDbCircle
 62
7
  6
CONTINUOUS
 10
-50.5720615539
 20
70.0299082189
 40
1.5
100
AcDbArc
 50
59.9984015652
 51
118.2725520676
  0
ARC
  5
365
100
AcDbEntity
  8
IMPORT_IGES
100
AcDbCircle
 62
7
  6
CONTINUOUS
 10
67.4614783069
 20
-60.7467403794
 40
1.5
100
AcDbArc
 50
301.7305911344
 51
360.0
  0
ELLIPSE
  5
366
100
AcDbEntity
  8
IMPORT_IGES
100
AcDbEllipse
 62
7
  6
CONTINUOUS
 10
66.0669266109
 20
-30.7646109068
 30
0.0
 11
0.6002117814
 21
1.039213753
 31
0.0
 40
0.5773316475
 41
-2.5520933909
 42
-2.3559938597
  0
ELLIPSE
  5
367
100
AcDbEntity
  8
IMPORT_IGES
100
AcDbEllipse
 62
7
  6
CONTINUOUS
 10
-58.1262800015
 20
65.9674940018
 30
0.0
 11
-0.7502646928
 21
1.2994129242
 31
0.0
 40
0.5771558487
 41
-0.000048292
 42
0.5461194891
  0
ELLIPSE
  5
368
100
AcDbEntity
  8
IMPORT_IGES
100
AcDbEllipse
 62
7
  6
CONTINUOUS
 10
59.0910381984
 20
-65.7975839895
 30
0.0
 11
-0.7661682801
 21
1.2907589429
 31
0.0
 40
0.5651286833
 41
-3.1669084567
 42
-2.6000374699
  0
ELLIPSE
  5
369
100
AcDbEntity
  8
IMPORT_IGES
100
AcDbEllipse
 62
7
  6
CONTINUOUS
 10
51.1653592744
 20
-62.6712005321
 30
0.0
 11
1.4999464021
 21
-0.0223538756
 31
0.0
 40
0.5672542954
 41
-2.3506686968
 42
-0.7973256544
  0
ELLIPSE
  5
36A
100
AcDbEntity
  8
IMPORT_IGES
100
AcDbEllipse
 62
7
  6
CONTINUOUS
 10
59.1099372177
 20
-3.0051524468
 30
0.0
 11
-0.7467344259
 21
1.300918022
 31
0.0
 40
0.5758093805
 41
-2.3546258656
 42
-0.7841319462
  0
ELLIPSE
  5
36B
100
AcDbEntity
  8
IMPORT_IGES
100
AcDbEllipse
 62
7
  6
CONTINUOUS
 10
-58.8443615726
 20
65.5013014987
 30
0.0
 11
-0.7469638368
 21
1.3013132138
 31
0.0
 40
0.5754587212
 41
-0.7838312557
 42
0.0173703497
  0
ELLIPSE
  5
36C
100
AcDbEntity
  8
IMPORT_IGES
100
AcDbEllipse
 62
7
  6
CONTINUOUS
 10
59.1099372177
 20
-65.7874813957
 30
0.0
 11
-0.7469638368
 21
1.3013132138
 31
0.0
 40
0.5754587212
 41
-2.591612427
 42
-2.354932169
  0
ELLIPSE
  5
36D
100
AcDbEntity
  8
IMPORT_IGES
100
AcDbEllipse
 62
7
  6
CONTINUOUS
 10
-58.1262800015
 20
65.9674940018
 30
0.0
 11
-0.7502646928
 21
1.2994129242
 31
0.0
 40
0.5771558487
 41
-0.7852941622
 42
-0.0174471293
  0
ELLIPSE
  5
36E
100
AcDbEntity
  8
IMPORT_IGES
100
AcDbEllipse
 62
7
  6
CONTINUOUS
 10
60.1664543496
 20
-65.2580926222
 30
0.0
 11
-0.7502646928
 21
1.2994129242
 31
0.0
 40
0.5771558487
 41
2.3562984914
 42
3.9267902317
  0
ELLIPSE
  5
36F
100
AcDbEntity
  8
IMPORT_IGES
100
AcDbEllipse
 62
7
  6
CONTINUOUS
 10
51.1653592744
 20
-15.7292191873
 30
0.0
 11
1.4999383962
 21
0.0231455682
 31
0.0
 40
0.5873435943
 41
-2.3681937444
 42
-0.8148423695
  0
ELLIPSE
  5
370
100
AcDbEntity
  8
IMPORT_IGES
100
AcDbEllipse
 62
7
  6
CONTINUOUS
 10
51.1735886262
 20
-15.3173942597
 30
0.0
 11
1.4999383962
 21
0.0231455682
 31
0.0
 40
0.5873435943
 41
-2.3681937444
 42
-0.814842368
  0
ELLIPSE
  5
371
100
AcDbEntity
  8
IMPORT_IGES
100
AcDbEllipse
 62
7
  6
CONTINUOUS
 10
60.1664543496
 20
-2.3332482563
 30
0.0
 11
-0.7500362733
 21
1.2990171626
 31
0.0
 40
0.5775075436
 41
-2.3560905478
 42
-0.7855988075
  0
ELLIPSE
  5
372
100
AcDbEntity
  8
IMPORT_IGES
100
AcDbEllipse
 62
7
  6
CONTINUOUS
 10
-66.5099715345
 20
53.0318179095
 30
0.0
 11
1.4999383962
 21
0.0231455682
 31
0.0
 40
0.5873435943
 41
3.1325295954
 42
3.9149915627
  0
ENDSEC
  0
SECTION
  2
OBJECTS
  0
DICTIONARY
  5
C
100
AcDbDictionary
280
0
281
1
  3
ACAD_GROUP
350
D
  3
ACAD_MLINESTYLE
350
17
  3
ACAD_LAYOUT
350
1A
  3
ACAD_PLOTSETTINGS
350
19
  3
ACAD_PLOTSTYLENAME
350
E
  0
DICTIONARY
  5
D
102
{ACAD_REACTORS
330
C
102
}
100
AcDbDictionary
280
0
281
1
  0
ACDBDICTIONARYWDFLT
  5
E
102
{ACAD_REACTORS
330
C
102
}
100
AcDbDictionary
281
1
  3
Normal
350
F
100
AcDbDictionaryWithDefault
340
F
  0
DICTIONARY
  5
17
102
{ACAD_REACTORS
330
C
102
}
100
AcDbDictionary
280
0
281
1
  3
Standard
350
18
  0
DICTIONARY
  5
19
102
{ACAD_REACTORS
330
C
102
}
100
AcDbDictionary
281
1
  0
DICTIONARY
  5
1A
102
{ACAD_REACTORS
330
C
102
}
100
AcDbDictionary
281
1
  3
Model
350
373
  3
Layout1
350
374
  0
ACDBPLACEHOLDER
  5
F
102
{ACAD_REACTORS
330
E
102
}
  0
MLINESTYLE
  5
18
102
{ACAD_REACTORS
330
17
102
}
100
AcDbMlineStyle
  2
STANDARD
 70
0
  3

 62
256
 51
90.0
 52
90.0
 71
2
 49
0.5
 62
256
  6
BYLAYER
 49
-0.5
 62
256
  6
BYLAYER
  0
LAYOUT
  5
373
102
{ACAD_REACTORS
330
1A
102
}
100
AcDbPlotSettings
  1

  2
none_device
  4
ISO_A4_(297.00_x_210.00_MM)
  6

 40
0.0
 41
0.0
 42
0.0
 43
0.0
 44
297.0
 45
210.0
 46
0.0
 47
0.0
 48
0.0
 49
0.0
140
0.0
141
0.0
142
1.0
143
1.0
 70
1024
 72
1
 73
0
 74
0
  7

 75
0
147
1.0
148
0.0
149
0.0
100
AcDbLayout
  1
Model
 70
0
 71
0
 10
0.0
 20
0.0
 11
297.0
 21
210.0
 12
0.0
 22
0.0
 32
0.0
 14
0.0
 24
0.0
 34
0.0
 15
0.0
 25
0.0
 35
0.0
146
0.0
 13
0.0
 23
0.0
 33
0.0
 16
1.0
 26
0.0
 36
0.0
 17
0.0
 27
1.0
 37
0.0
 76
0
330
20E
345
0
346
0
  0
LAYOUT
  5
374
102
{ACAD_REACTORS
330
1A
102
}
100
AcDbPlotSettings
  1

  2
none_device
  4
ISO_A4_(297.00_x_210.00_MM)
  6

 40
0.0
 41
0.0
 42
0.0
 43
0.0
 44
297.0
 45
210.0
 46
0.0
 47
0.0
 48
0.0
 49
0.0
140
0.0
141
0.0
142
1.0
143
1.0
 70
0
 72
1
 73
0
 74
0
  7

 75
0
147
1.0
148
0.0
149
0.0
100
AcDbLayout
  1
Layout1
 70
0
 71
1
 10
0.0
 20
0.0
 11
297.0
 21
210.0
 12
0.0
 22
0.0
 32
0.0
 14
0.0
 24
0.0
 34
0.0
 15
0.0
 25
0.0
 35
0.0
146
0.0
 13
0.0
 23
0.0
 33
0.0
 16
1.0
 26
0.0
 36
0.0
 17
0.0
 27
1.0
 37
0.0
 76
0
330
20F
345
0
346
0
  0
ENDSEC
  0
EOF
