  0
SECTION
  2
HEADER
  9
$ACADVER
  1
AC1024
  9
$DWGCODEPAGE
  3
ANSI_1252
  9
$EXTMAX
 10
297.0
 20
210.0
 30
0.0
  9
$EXTMIN
 10
0.0
 20
0.0
 30
0.0
  9
$LIMMIN
 10
0.0
 20
0.0
  9
$LIMMAX
 10
297.0
 20
210.0
  9
$VIEWCTR
 10
148.5
 20
105.0
  9
$VIEWSIZE
 40
210.0
  9
$CLAYER
  8
0
  9
$LTSCALE
 40
16.335
  9
$CELTYPE
  6
BYLAYER
  9
$DIMSCALE
 40
1.0
  9
$DIMASZ
 40
3.0
  9
$DIMEXO
 40
0.5
  9
$DIMDLI
 40
11.286
  9
$DIMEXE
 40
1.5
  9
$DIMCEN
 40
2.673
  9
$DIMLFAC
 40
1.0
  9
$DIMBLK
  1
_FILLED
  9
$DIMALT
 70
0
  9
$DIMALTF
 40
0.0393700787
  9
$DIMTXT
 40
3.0
  9
$DIMTOL
 70
1
  9
$DIMLIM
 70
0
  9
$DIMTFAC
 40
1.0
  9
$DIMTP
 40
0.01
  9
$DIMTM
 40
0.01
  9
$DIMGAP
 40
0.625
  9
$DIMDSEP
 70
44
  9
$AUNITS
 70
0
  9
$PDMODE
 70
3
  9
$PDSIZE
 40
3.0
  9
$HANDSEED
  5
2F2
  9
$TILEMODE
 70
1
  9
$MEASUREMENT
 70
1
  9
$INSUNITS
 70
4
  0
ENDSEC
  0
SECTION
  2
CLASSES
  0
CLASS
  1
ACDBDICTIONARYWDFLT
  2
AcDbDictionaryWithDefault
  3
AutoCAD 2000
 90
0
 91
1
280
0
281
0
  0
CLASS
  1
ACDBPLACEHOLDER
  2
AcDbPlaceHolder
  3
AutoCAD 2000
 90
0
 91
1
280
0
281
0
  0
CLASS
  1
LAYOUT
  2
AcDbLayout
  3
AutoCAD 2000
 90
0
 91
0
280
0
281
0
  0
ENDSEC
  0
SECTION
  2
TABLES
  0
TABLE
  2
VPORT
  5
8
100
AcDbSymbolTable
 70
2
  0
VPORT
  5
1F4
100
AcDbSymbolTableRecord
100
AcDbViewportTableRecord
  2
*ACTIVE
 70
0
 10
0.0
 20
0.0
 11
1.0
 21
1.0
 12
148.5
 22
105.0
 13
0.0
 23
0.0
 14
1.0
 24
1.0
 15
0.0
 25
0.0
 16
0.0
 26
0.0
 36
1.0
 17
0.0
 27
0.0
 37
0.0
 40
210.0
 41
1.4142857143
 42
50.0
 43
0.0
 44
0.0
 50
0.0
 51
0.0
 71
0
 72
100
 73
1
 74
1
 75
0
 76
0
 77
0
 78
0
  0
ENDTAB
  0
TABLE
  2
LTYPE
  5
5
100
AcDbSymbolTable
 70
6
  0
LTYPE
  5
14
100
AcDbSymbolTableRecord
100
AcDbLinetypeTableRecord
  2
BYBLOCK
 70
0
  3

 72
65
 73
0
 40
0.0
  0
LTYPE
  5
15
100
AcDbSymbolTableRecord
100
AcDbLinetypeTableRecord
  2
BYLAYER
 70
0
  3

 72
65
 73
0
 40
0.0
  0
LTYPE
  5
16
100
AcDbSymbolTableRecord
100
AcDbLinetypeTableRecord
  2
CONTINUOUS
 70
64
  3
Solid line
 72
65
 73
0
 40
0.0
  0
LTYPE
  5
1F5
100
AcDbSymbolTableRecord
100
AcDbLinetypeTableRecord
  2
CENTER
 70
64
  3
____ _ ____ _ ____ _ ____ _ ____ _ ____ _ ____
 72
65
 73
4
 40
0.6
 49
0.375
 74
0
 49
-0.075
 74
0
 49
0.075
 74
0
 49
-0.075
 74
0
  0
LTYPE
  5
1F6
100
AcDbSymbolTableRecord
100
AcDbLinetypeTableRecord
  2
HIDDEN
 70
64
  3
- - - - - - - - - - - - - - - - - - - -
 72
65
 73
2
 40
0.2
 49
0.1
 74
0
 49
-0.1
 74
0
  0
LTYPE
  5
1F7
100
AcDbSymbolTableRecord
100
AcDbLinetypeTableRecord
  2
PHANTOM
 70
64
  3
_____ _ _ _____ _ _ _____ _ _ _____
 72
65
 73
6
 40
0.8
 49
0.45
 74
0
 49
-0.05
 74
0
 49
0.1
 74
0
 49
-0.05
 74
0
 49
0.1
 74
0
 49
-0.05
 74
0
  0
LTYPE
  5
1F8
100
AcDbSymbolTableRecord
100
AcDbLinetypeTableRecord
  2
DOT
 70
64
  3
. . . . . . . . . . . . . . . . . . . .
 72
65
 73
2
 40
0.2
 49
0.1
 74
0
 49
-0.1
 74
0
  0
LTYPE
  5
1F9
100
AcDbSymbolTableRecord
100
AcDbLinetypeTableRecord
  2
DASHED
 70
64
  3
- - - - - - - - - - - - - - - - - - - -
 72
65
 73
2
 40
0.2
 49
0.1
 74
0
 49
-0.1
 74
0
  0
ENDTAB
  0
TABLE
  2
LAYER
  5
2
100
AcDbSymbolTable
 70
36
  0
LAYER
  5
10
100
AcDbSymbolTableRecord
100
AcDbLayerTableRecord
  2
0
 70
0
 62
7
  6
CONTINUOUS
370
-3
390
F
  0
LAYER
  5
1FA
100
AcDbSymbolTableRecord
100
AcDbLayerTableRecord
  2
DEFAULT_1
 70
0
 62
7
  6
CENTER
370
-3
390
F
  0
LAYER
  5
1FB
100
AcDbSymbolTableRecord
100
AcDbLayerTableRecord
  2
DEFAULT_2
 70
0
 62
7
  6
HIDDEN
370
-3
390
F
  0
LAYER
  5
1FC
100
AcDbSymbolTableRecord
100
AcDbLayerTableRecord
  2
DEFAULT_3
 70
0
 62
7
  6
PHANTOM
370
-3
390
F
  0
LAYER
  5
1FD
100
AcDbSymbolTableRecord
100
AcDbLayerTableRecord
  2
ASSI
 70
0
 62
7
  6
CONTINUOUS
370
-3
390
F
  0
LAYER
  5
1FE
100
AcDbSymbolTableRecord
100
AcDbLayerTableRecord
  2
COORDINATE
 70
0
 62
7
  6
CONTINUOUS
370
-3
390
F
  0
LAYER
  5
1FF
100
AcDbSymbolTableRecord
100
AcDbLayerTableRecord
  2
COPY_PUBLISH
 70
0
 62
7
  6
CONTINUOUS
370
-3
390
F
  0
LAYER
  5
200
100
AcDbSymbolTableRecord
100
AcDbLayerTableRecord
  2
COSMETICI
 70
0
 62
7
  6
CONTINUOUS
370
-3
390
F
  0
LAYER
  5
201
100
AcDbSymbolTableRecord
100
AcDbLayerTableRecord
  2
CURVE
 70
0
 62
7
  6
CONTINUOUS
370
-3
390
F
  0
LAYER
  5
202
100
AcDbSymbolTableRecord
100
AcDbLayerTableRecord
  2
DRAFT
 70
0
 62
7
  6
CONTINUOUS
370
-3
390
F
  0
LAYER
  5
203
100
AcDbSymbolTableRecord
100
AcDbLayerTableRecord
  2
IMPORT_IGES
 70
0
 62
7
  6
CONTINUOUS
370
-3
390
F
  0
LAYER
  5
204
100
AcDbSymbolTableRecord
100
AcDbLayerTableRecord
  2
NOTE
 70
0
 62
7
  6
CONTINUOUS
370
-3
390
F
  0
LAYER
  5
205
100
AcDbSymbolTableRecord
100
AcDbLayerTableRecord
  2
PIANI
 70
0
 62
7
  6
CONTINUOUS
370
-3
390
F
  0
LAYER
  5
206
100
AcDbSymbolTableRecord
100
AcDbLayerTableRecord
  2
PUNTI
 70
0
 62
7
  6
CONTINUOUS
370
-3
390
F
  0
LAYER
  5
207
100
AcDbSymbolTableRecord
100
AcDbLayerTableRecord
  2
RACCORDO
 70
0
 62
7
  6
CONTINUOUS
370
-3
390
F
  0
LAYER
  5
208
100
AcDbSymbolTableRecord
100
AcDbLayerTableRecord
  2
SIMBOLI
 70
0
 62
7
  6
CONTINUOUS
370
-3
390
F
  0
LAYER
  5
209
100
AcDbSymbolTableRecord
100
AcDbLayerTableRecord
  2
SMUSSO
 70
0
 62
7
  6
CONTINUOUS
370
-3
390
F
  0
LAYER
  5
20A
100
AcDbSymbolTableRecord
100
AcDbLayerTableRecord
  2
SUPERFICI
 70
0
 62
7
  6
CONTINUOUS
370
-3
390
F
  0
LAYER
  5
20B
100
AcDbSymbolTableRecord
100
AcDbLayerTableRecord
  2
TRASH
 70
0
 62
7
  6
CONTINUOUS
370
-3
390
F
  0
ENDTAB
  0
TABLE
  2
STYLE
  5
3
100
AcDbSymbolTable
 70
1
  0
STYLE
  5
11
100
AcDbSymbolTableRecord
100
AcDbTextStyleTableRecord
  2
STANDARD
 70
0
 40
0.0
 41
0.8
 50
0.0
 71
0
 42
0.2
  3
txt
  4

  0
STYLE
  5
20C
100
AcDbSymbolTableRecord
100
AcDbTextStyleTableRecord
  2
TEXTSTYLE_1
 70
0
 40
0.0
 41
0.8
 50
0.0
 71
0
 42
0.2
  3
gdt
  4

  0
ENDTAB
  0
TABLE
  2
VIEW
  5
6
100
AcDbSymbolTable
 70
0
  0
ENDTAB
  0
TABLE
  2
UCS
  5
7
100
AcDbSymbolTable
 70
0
  0
ENDTAB
  0
TABLE
  2
APPID
  5
9
100
AcDbSymbolTable
 70
1
  0
APPID
  5
20D
100
AcDbSymbolTableRecord
100
AcDbRegAppTableRecord
  2
ACAD
 70
0
  0
ENDTAB
  0
TABLE
  2
BLOCK_RECORD
  5
1
100
AcDbSymbolTable
 70
0
  0
BLOCK_RECORD
  5
20E
100
AcDbSymbolTableRecord
100
AcDbBlockTableRecord
  2
*Model_Space
  0
BLOCK_RECORD
  5
20F
100
AcDbSymbolTableRecord
100
AcDbBlockTableRecord
  2
*Paper_Space
  0
BLOCK_RECORD
  5
210
100
AcDbSymbolTableRecord
100
AcDbBlockTableRecord
  2
_FILLED
  0
ENDTAB
  0
TABLE
  2
DIMSTYLE
  5
A
100
AcDbSymbolTable
 70
1
100
AcDbDimStyleTable
 71
0
  0
DIMSTYLE
105
211
100
AcDbSymbolTableRecord
100
AcDbDimStyleTableRecord
  2
STANDARD
 70
0
  3

  4

 40
1.0
 41
3.0
 42
0.5
 43
0.38
 44
1.5
 45
0.0
 46
0.0
 47
0.01
 48
0.01
140
3.0
141
0.09
142
0.0
143
25.4
144
1.0
145
0.0
146
1.0
147
0.625
 71
1
 72
0
 73
0
 74
0
 75
0
 76
0
 77
1
 78
8
 79
2
170
0
171
1
172
0
173
0
174
0
175
0
176
0
177
0
178
0
270
2
179
2
271
2
272
2
273
2
274
2
275
0
280
0
281
0
282
0
283
1
284
8
285
0
286
0
287
3
288
0
340
11
278
44
341
210
342
210
343
210
344
210
  0
ENDTAB
  0
ENDSEC
  0
SECTION
  2
BLOCKS
  0
BLOCK
  5
20
100
AcDbEntity
  8
0
100
AcDbBlockBegin
  2
*Model_Space
 70
0
 10
0.0
 20
0.0
 30
0.0
  3
*Model_Space
  1

  0
ENDBLK
  5
21
100
AcDbEntity
  8
0
100
AcDbBlockEnd
  0
BLOCK
  5
1C
100
AcDbEntity
  8
0
100
AcDbBlockBegin
  2
*Paper_Space
 70
0
 10
0.0
 20
0.0
 30
0.0
  3
*Paper_Space
  1

  0
ENDBLK
  5
1D
100
AcDbEntity
  8
0
100
AcDbBlockEnd
  0
BLOCK
  5
212
100
AcDbEntity
  8
0
100
AcDbBlockBegin
  2
_FILLED
 70
64
 10
0.0
 20
0.0
  3
_FILLED
  1

  0
SOLID
  5
213
100
AcDbEntity
  8
0
  6
BYBLOCK
 62
0
100
AcDbTrace
 10
0.0
 20
0.0
 11
-1.0
 21
0.3166666667
 12
-1.0
 22
-0.3166666667
 13
-1.0
 23
-0.3166666667
  0
ENDBLK
  5
214
100
AcDbEntity
  8
0
  6
BYBLOCK
 62
0
100
AcDbBlockEnd
  0
ENDSEC
  0
SECTION
  2
ENTITIES
  0
LWPOLYLINE
  5
215
100
AcDbEntity
  8
IMPORT_IGES
100
AcDbPolyline
 62
7
  6
CONTINUOUS
 90
22
 70
0
 10
-50.1998388237
 20
72.0842302323
 10
-50.2921159504
 20
72.0251334755
 10
-50.4054740335
 20
71.9432585862
 10
-50.5149528501
 20
71.8533586421
 10
-50.6204046867
 20
71.7553404071
 10
-50.7214524453
 20
71.6493247152
 10
-50.817546532
 20
71.5357214688
 10
-50.908479287
 20
71.4146594497
 10
-50.9940772562
 20
71.2862354269
 10
-51.0739493046
 20
71.1509396739
 10
-51.1479630388
 20
71.0089456991
 10
-51.2159983674
 20
70.8604098284
 10
-51.2777827524
 20
70.7058979711
 10
-51.3332472966
 20
70.5456062042
 10
-51.3823207353
 20
70.3797361869
 10
-51.4248271924
 20
70.2089546931
 10
-51.460755636
 20
70.0334710369
 10
-51.4900864502
 20
69.8535279547
 10
-51.5127437755
 20
69.6699337362
 10
-51.5287619933
 20
69.4831475565
 10
-51.5382177722
 20
69.2932209504
 10
-51.5411607367
 20
69.1005079416
  0
LINE
  5
216
100
AcDbEntity
  8
IMPORT_IGES
100
AcDbLine
 62
7
  6
CONTINUOUS
 10
-50.2049348435
 20
72.0811318583
 11
-40.4840337158
 21
77.9745627596
  0
LINE
  5
217
100
AcDbEntity
  8
IMPORT_IGES
100
AcDbLine
 62
7
  6
CONTINUOUS
 10
-50.1766521675
 20
72.0980760847
 11
-50.1998388237
 21
72.0842302323
  0
LINE
  5
218
100
AcDbEntity
  8
IMPORT_IGES
100
AcDbLine
 62
250
  6
CONTINUOUS
 10
-50.1356397252
 20
72.1215106379
 11
-50.1766521675
 21
72.0980760847
  0
LWPOLYLINE
  5
219
100
AcDbEntity
  8
IMPORT_IGES
100
AcDbPolyline
 62
7
  6
CONTINUOUS
 90
21
 70
0
 10
-40.4839861318
 20
77.9745916066
 10
-40.3754399737
 20
78.0362419948
 10
-40.2366586596
 20
78.1039548915
 10
-40.0928195598
 20
78.1621423582
 10
-39.9439473893
 20
78.2108505929
 10
-39.7907672769
 20
78.2498466966
 10
-39.6332569273
 20
78.2790829258
 10
-39.4714386359
 20
78.2986070241
 10
-39.3061044184
 20
78.3083293235
 10
-39.1372510118
 20
78.3082050367
 10
-38.9648816791
 20
78.298278951
 10
-38.7897982261
 20
78.2785957609
 10
-38.6119827572
 20
78.2491128241
 10
-38.431453168
 20
78.2098727828
 10
-38.249064951
 20
78.1610482584
 10
-38.0648079482
 20
78.1025954753
 10
-37.8786923176
 20
78.034558209
 10
-37.6916040263
 20
77.9572404071
 10
-37.5038383966
 20
77.8707433856
 10
-37.3151001063
 20
77.7749658285
 10
-37.1253891553
 20
77.6699077358
  0
LWPOLYLINE
  5
21A
100
AcDbEntity
  8
IMPORT_IGES
100
AcDbPolyline
 62
7
  6
CONTINUOUS
 90
13
 70
0
 10
-48.7558621353
 20
69.46465304
 10
-48.8203006313
 20
69.3797975735
 10
-48.8797943308
 20
69.2884038198
 10
-48.9339393148
 20
69.1910792046
 10
-48.9827007275
 20
69.0877843714
 10
-49.0261134246
 20
68.9785586766
 10
-49.0638780549
 20
68.8641276161
 10
-49.0959577534
 20
68.7444561365
 10
-49.122389385
 20
68.6195792911
 10
-49.142984194
 20
68.4903277358
 10
-49.1576792617
 20
68.3569783557
 10
-49.1665375067
 20
68.2192542655
 10
-49.1695589291
 20
68.0771554654
  0
LWPOLYLINE
  5
21B
100
AcDbEntity
  8
IMPORT_IGES
100
AcDbPolyline
 62
7
  6
CONTINUOUS
 90
3
 70
0
 10
-48.6217846666
 20
69.605306636
 10
-48.6864463695
 20
69.542927245
 10
-48.7558621353
 20
69.46465304
  0
LWPOLYLINE
  5
21C
100
AcDbEntity
  8
IMPORT_IGES
100
AcDbPolyline
 62
7
  6
CONTINUOUS
 90
16
 70
0
 10
-48.1419759665
 20
68.2132388034
 10
-48.1980958006
 20
68.1773611883
 10
-48.2511316144
 20
68.1363114265
 10
-48.3008948114
 20
68.0902234091
 10
-48.3472471912
 20
68.0392208739
 10
-48.3900614342
 20
67.9834401274
 10
-48.4292290517
 20
67.9230184662
 10
-48.4646390312
 20
67.858116687
 10
-48.4961918003
 20
67.7889073708
 10
-48.5238075401
 20
67.7155597785
 10
-48.5474049587
 20
67.6382687303
 10
-48.5669144036
 20
67.5572399578
 10
-48.5822859134
 20
67.4726721202
 10
-48.5934726924
 20
67.3847843313
 10
-48.6004335785
 20
67.2938175327
 10
-48.6031422827
 20
67.20001607
  0
LINE
  5
21D
100
AcDbEntity
  8
IMPORT_IGES
100
AcDbLine
 62
250
  6
CONTINUOUS
 10
-46.9625066212
 20
71.791815016
 11
-37.1253891553
 21
77.6699077358
  0
LINE
  5
21E
100
AcDbEntity
  8
IMPORT_IGES
100
AcDbLine
 62
7
  6
CONTINUOUS
 10
-33.4908603
 20
75.5713763261
 11
-38.0432878408
 21
72.8511088008
  0
LINE
  5
21F
100
AcDbEntity
  8
IMPORT_IGES
100
AcDbLine
 62
250
  6
CONTINUOUS
 10
-49.632643991
 20
67.8097759545
 11
-49.1695589291
 21
68.0771554654
  0
LINE
  5
220
100
AcDbEntity
  8
IMPORT_IGES
100
AcDbLine
 62
7
  6
CONTINUOUS
 10
-47.6693696593
 20
68.4861157621
 11
-48.1419718238
 21
68.2132411954
  0
LINE
  5
221
100
AcDbEntity
  8
IMPORT_IGES
100
AcDbLine
 62
250
  6
CONTINUOUS
 10
-47.0417252685
 20
68.1013843884
 11
-46.5649143807
 21
68.3766890192
  0
LINE
  5
222
100
AcDbEntity
  8
IMPORT_IGES
100
AcDbLine
 62
7
  6
CONTINUOUS
 10
-33.3494389388
 20
75.3732778346
 11
-37.6692631067
 21
72.8790655002
  0
LWPOLYLINE
  5
223
100
AcDbEntity
  8
IMPORT_IGES
100
AcDbPolyline
 62
7
  6
CONTINUOUS
 90
18
 70
0
 10
-48.8662504705
 20
69.4979389792
 10
-48.8218338831
 20
69.5223774061
 10
-48.7301537738
 20
69.5656861026
 10
-48.6346297091
 20
69.601618012
 10
-48.5354786258
 20
69.6300905579
 10
-48.4329243223
 20
69.6510366603
 10
-48.3271975446
 20
69.6644075771
 10
-48.2185375017
 20
69.6701707919
 10
-48.1071906356
 20
69.6683067362
 10
-47.9934074708
 20
69.6588168066
 10
-47.8774457312
 20
69.6417188165
 10
-47.7595704393
 20
69.617041035
 10
-47.6400474737
 20
69.584835014
 10
-47.519148054
 20
69.5451688572
 10
-47.3971507726
 20
69.4981187441
 10
-47.274333935
 20
69.4437824213
 10
-47.1509751606
 20
69.3822803234
 10
-47.0273552863
 20
69.3137463343
  0
LWPOLYLINE
  5
224
100
AcDbEntity
  8
IMPORT_IGES
100
AcDbPolyline
 62
7
  6
CONTINUOUS
 90
16
 70
0
 10
-47.6693698783
 20
68.4861156356
 10
-47.6101703783
 20
68.5167870209
 10
-47.5480156882
 20
68.5422161205
 10
-47.4833461252
 20
68.5622252843
 10
-47.4161423093
 20
68.5767738481
 10
-47.3464236205
 20
68.585902476
 10
-47.2747429112
 20
68.5895259767
 10
-47.2010843852
 20
68.5876028657
 10
-47.1254638387
 20
68.5801746275
 10
-47.0484815118
 20
68.5672805239
 10
-46.9701254944
 20
68.5488789104
 10
-46.8904076966
 20
68.5250114317
 10
-46.8099640893
 20
68.4958422835
 10
-46.7290066626
 20
68.4614261981
 10
-46.6473234264
 20
68.4217084433
 10
-46.5649143807
 20
68.3766890192
  0
LWPOLYLINE
  5
225
100
AcDbEntity
  8
IMPORT_IGES
100
AcDbPolyline
 62
250
  6
CONTINUOUS
 90
10
 70
0
 10
35.6974454753
 20
-78.1232271897
 10
35.8273530658
 20
-78.0873261755
 10
35.9532158602
 20
-78.0438544846
 10
36.0750398218
 20
-77.9928085149
 10
36.1929905893
 20
-77.9340918067
 10
36.3069086806
 20
-77.8677971886
 10
36.4163083981
 20
-77.7942073829
 10
36.5210312042
 20
-77.7134143797
 10
36.6212447926
 20
-77.625320125
 10
36.7169577772
 20
-77.5299190215
  0
LINE
  5
226
100
AcDbEntity
  8
IMPORT_IGES
100
AcDbLine
 62
250
  6
CONTINUOUS
 10
-25.7280394004
 20
70.9727772597
 11
-21.4384367397
 21
73.1031892934
  0
LINE
  5
227
100
AcDbEntity
  8
IMPORT_IGES
100
AcDbLine
 62
7
  6
CONTINUOUS
 10
-23.1091226417
 20
73.3240574099
 11
-26.8032080331
 21
71.5935661532
  0
LWPOLYLINE
  5
228
100
AcDbEntity
  8
IMPORT_IGES
100
AcDbPolyline
 62
250
  6
CONTINUOUS
 90
10
 70
0
 10
-21.4384367397
 20
73.1031892934
 10
-21.4208624352
 20
73.1110643033
 10
-21.4035130999
 20
73.1171271323
 10
-21.3865093033
 20
73.1213356467
 10
-21.3699692138
 20
73.1236605993
 10
-21.354007777
 20
73.1240858328
 10
-21.3387359172
 20
73.1226083921
 10
-21.3242597667
 20
73.1192385446
 10
-21.3106799278
 20
73.1139997092
 10
-21.3032270743
 20
73.1101043721
  0
LWPOLYLINE
  5
229
100
AcDbEntity
  8
IMPORT_IGES
100
AcDbPolyline
 62
250
  6
CONTINUOUS
 90
17
 70
0
 10
-23.1091226417
 20
73.3240574099
 10
-23.0681707727
 20
73.3423043725
 10
-22.976832135
 20
73.3766461516
 10
-22.8820085369
 20
73.403858882
 10
-22.7839147843
 20
73.4238809182
 10
-22.6827730913
 20
73.4366669037
 10
-22.5788125762
 20
73.4421878741
 10
-22.4722687431
 20
73.4404313228
 10
-22.3633829479
 20
73.4314012288
 10
-22.2524018521
 20
73.4151180483
 10
-22.1395768635
 20
73.3916186678
 10
-22.025163567
 20
73.3609563211
 10
-21.9094211456
 20
73.3232004681
 10
-21.792611793
 20
73.2784366381
 10
-21.6750001199
 20
73.2267662355
 10
-21.5568525548
 20
73.1683063104
 10
-21.4384367397
 20
73.1031892934
  0
LWPOLYLINE
  5
22A
100
AcDbEntity
  8
IMPORT_IGES
100
AcDbPolyline
 62
7
  6
CONTINUOUS
 90
19
 70
0
 10
-23.1091226417
 20
73.3240574099
 10
-23.0272405609
 20
73.359250496
 10
-22.9423500043
 20
73.3894552739
 10
-22.8545849807
 20
73.4145173189
 10
-22.7641181813
 20
73.4342884785
 10
-22.671064449
 20
73.448649189
 10
-22.5754610159
 20
73.4574898628
 10
-22.4773377303
 20
73.4606873347
 10
-22.3769300457
 20
73.4581150338
 10
-22.2745687771
 20
73.4496889612
 10
-22.1703253592
 20
73.4353330399
 10
-22.0644006842
 20
73.4149914694
 10
-21.9573290811
 20
73.3887183011
 10
-21.8492679637
 20
73.3565329854
 10
-21.7403513722
 20
73.3184526562
 10
-21.6310975578
 20
73.2746593966
 10
-21.5217858281
 20
73.2252997872
 10
-21.4124452949
 20
73.1704173598
 10
-21.3032270743
 20
73.1101043721
  0
LINE
  5
22B
100
AcDbEntity
  8
IMPORT_IGES
100
AcDbLine
 62
7
  6
CONTINUOUS
 10
-37.7465804685
 20
72.6797936826
 11
-37.6692631067
 21
72.8790655002
  0
LWPOLYLINE
  5
22C
100
AcDbEntity
  8
IMPORT_IGES
100
AcDbPolyline
 62
250
  6
CONTINUOUS
 90
25
 70
0
 10
-50.6837850374
 20
-27.0660507857
 10
-50.5787903682
 20
-27.2896742807
 10
-50.4686595588
 20
-27.5105293854
 10
-50.3533910792
 20
-27.7286152425
 10
-50.2327718669
 20
-27.9442463531
 10
-50.1070122207
 20
-28.1571067832
 10
-49.9767484121
 20
-28.3662514933
 10
-49.841952905
 20
-28.571626425
 10
-49.7026621566
 20
-28.7732900329
 10
-49.5596127228
 20
-28.9704683083
 10
-49.4127438151
 20
-29.1632282411
 10
-49.2621277658
 20
-29.351508775
 10
-49.1087021796
 20
-29.5343447645
 10
-48.9526148741
 20
-29.7115772524
 10
-48.7937311091
 20
-29.8833721893
 10
-48.6325630854
 20
-30.0492512559
 10
-48.4690517121
 20
-30.2092990571
 10
-48.3032606748
 20
-30.3634340088
 10
-48.1358860033
 20
-30.5109284639
 10
-47.9669317211
 20
-30.6517799769
 10
-47.7963957565
 20
-30.7859922451
 10
-47.6249649245
 20
-30.9128468147
 10
-47.452868846
 20
-31.0321047097
 10
-47.2798784383
 20
-31.1440054568
 10
-47.1059931766
 20
-31.2485488581
  0
LWPOLYLINE
  5
22D
100
AcDbEntity
  8
IMPORT_IGES
100
AcDbPolyline
 62
7
  6
CONTINUOUS
 90
31
 70
0
 10
-48.6014640285
 20
-25.2503172615
 10
-48.5988714185
 20
-25.3460361623
 10
-48.5920205974
 20
-25.4439389177
 10
-48.580937844
 20
-25.5437508383
 10
-48.5656643673
 20
-25.6451886806
 10
-48.546246894
 20
-25.7479740872
 10
-48.5227351995
 20
-25.8518350634
 10
-48.4951989116
 20
-25.9564846374
 10
-48.463719321
 20
-26.0616349412
 10
-48.4283760931
 20
-26.1670113495
 10
-48.3892687885
 20
-26.2723248614
 10
-48.3465084056
 20
-26.3772879313
 10
-48.3002032766
 20
-26.4816291112
 10
-48.2504807181
 20
-26.5850632305
 10
-48.1974789101
 20
-26.6873087995
 10
-48.1413329637
 20
-26.7881031108
 10
-48.0821953625
 20
-26.8871705734
 10
-48.0202285161
 20
-26.9842413253
 10
-47.9555917477
 20
-27.0790666312
 10
-47.888459729
 20
-27.1713860556
 10
-47.8190157609
 20
-27.2609467328
 10
-47.7474401435
 20
-27.3475187458
 10
-47.6739263888
 20
-27.4308621581
 10
-47.5986750045
 20
-27.5107462186
 10
-47.5218834043
 20
-27.5869642535
 10
-47.4437602391
 20
-27.6593018809
 10
-47.3645192383
 20
-27.7275552804
 10
-47.28437052
 20
-27.7915449931
 10
-47.2035316136
 20
-27.8510912216
 10
-47.1222274153
 20
-27.9060167085
 10
-47.0406826954
 20
-27.956161299
  0
LWPOLYLINE
  5
22E
100
AcDbEntity
  8
IMPORT_IGES
100
AcDbPolyline
 62
7
  6
CONTINUOUS
 90
34
 70
0
 10
-49.1695589291
 20
-24.374146869
 10
-49.1665373785
 20
-24.519737135
 10
-49.1576788658
 20
-24.6676928056
 10
-49.1429833909
 20
-24.818013881
 10
-49.122388015
 20
-24.971049922
 10
-49.0959556769
 20
-25.1264513677
 10
-49.0638751937
 20
-25.2831695355
 10
-49.0261097001
 20
-25.4412119367
 10
-48.9826960614
 20
-25.6005710601
 10
-48.9339336904
 20
-25.7601756892
 10
-48.8797877323
 20
-25.9200267114
 10
-48.8202930419
 20
-26.0801232392
 10
-48.7558535965
 20
-26.2393913942
 10
-48.6864369249
 20
-26.3978256947
 10
-48.6120754984
 20
-26.5554316224
 10
-48.5332707074
 20
-26.7111517444
 10
-48.449993551
 20
-26.8649732764
 10
-48.3622730302
 20
-27.0169090027
 10
-48.2706975386
 20
-27.1659398436
 10
-48.1752415065
 20
-27.3120470723
 10
-48.0759305037
 20
-27.4552494156
 10
-47.9734296329
 20
-27.5945839734
 10
-47.8677179142
 20
-27.7300253636
 10
-47.7588163275
 20
-27.8615989683
 10
-47.6474529149
 20
-27.9884180348
 10
-47.5336110209
 20
-28.1104519329
 10
-47.4173073011
 20
-28.2277312927
 10
-47.2993197633
 20
-28.3394612523
 10
-47.179636484
 20
-28.4456061293
 10
-47.0582693868
 20
-28.5462016061
 10
-46.936032251
 20
-28.6405598672
 10
-46.8131963361
 20
-28.7284516407
 10
-46.6894903827
 20
-28.8101061986
 10
-46.5649143905
 20
-28.8855235408
  0
LWPOLYLINE
  5
22F
100
AcDbEntity
  8
IMPORT_IGES
100
AcDbPolyline
 62
250
  6
CONTINUOUS
 90
16
 70
0
 10
-51.4911362799
 20
-23.663934709
 10
-51.4878406513
 20
-23.8754263686
 10
-51.4771766122
 20
-24.0901202616
 10
-51.4591321385
 20
-24.3080090926
 10
-51.4336405219
 20
-24.5294661434
 10
-51.4007460686
 20
-24.7541044576
 10
-51.3606056077
 20
-24.9807776594
 10
-51.3131745838
 20
-25.2094914751
 10
-51.2584823305
 20
-25.4402304698
 10
-51.1968005583
 20
-25.6718187673
 10
-51.1280899347
 20
-25.904258195
 10
-51.0523821763
 20
-26.1375415162
 10
-50.9700599043
 20
-26.3704817128
 10
-50.8812513208
 20
-26.6026831498
 10
-50.785828292
 20
-26.8345404911
 10
-50.6837914912
 20
-27.0660536431
  0
LWPOLYLINE
  5
230
100
AcDbEntity
  8
IMPORT_IGES
100
AcDbPolyline
 62
7
  6
CONTINUOUS
 90
40
 70
0
 10
-51.548937414
 20
-23.5832556434
 10
-51.5475368504
 20
-23.7304887181
 10
-51.5391860572
 20
-23.9484353846
 10
-51.5233768494
 20
-24.1696468002
 10
-51.5001289315
 20
-24.3939387222
 10
-51.4694735048
 20
-24.6209767919
 10
-51.43147855
 20
-24.8502633859
 10
-51.3861977773
 20
-25.0814917485
 10
-51.333672509
 20
-25.3144156247
 10
-51.2739870646
 20
-25.5486099753
 10
-51.2072161748
 20
-25.7837339144
 10
-51.1334255416
 20
-26.0195361921
 10
-51.0527635046
 20
-26.2556445045
 10
-50.9654192458
 20
-26.4915946728
 10
-50.8715466298
 20
-26.7270188213
 10
-50.7712414954
 20
-26.9616654436
 10
-50.664629208
 20
-27.1951770244
 10
-50.5518922182
 20
-27.4270645451
 10
-50.433201297
 20
-27.6568730834
 10
-50.3087108787
 20
-27.8841807055
 10
-50.1785828752
 20
-28.1085549312
 10
-50.0430454435
 20
-28.3295891224
 10
-49.9023440467
 20
-28.5469904276
 10
-49.7567285964
 20
-28.7604638055
 10
-49.6064821383
 20
-28.9696682256
 10
-49.4518204209
 20
-29.1743572255
 10
-49.2930296635
 20
-29.3741872266
 10
-49.1305114223
 20
-29.5686875027
 10
-48.9644877287
 20
-29.7576194519
 10
-48.7952546247
 20
-29.9406563452
 10
-48.6233455083
 20
-30.1172407568
 10
-48.4490222306
 20
-30.2871286771
 10
-48.2725532858
 20
-30.450067764
 10
-48.0944980015
 20
-30.6055588402
 10
-47.9150967363
 20
-30.7534154231
 10
-47.7346268147
 20
-30.8934185055
 10
-47.5537075072
 20
-31.0251122097
 10
-47.372708475
 20
-31.1482746692
 10
-47.1917447215
 20
-31.2628631958
 10
-47.0645720221
 20
-31.3382744936
  0
LWPOLYLINE
  5
231
100
AcDbEntity
  8
IMPORT_IGES
100
AcDbPolyline
 62
250
  6
CONTINUOUS
 90
4
 70
0
 10
-51.4545285661
 20
62.08019441
 10
-51.468690774
 20
64.4794778814
 10
-51.4790119056
 20
66.7924378203
 10
-51.4843021071
 20
69.0198710871
  0
LWPOLYLINE
  5
232
100
AcDbEntity
  8
IMPORT_IGES
100
AcDbPolyline
 62
250
  6
CONTINUOUS
 90
4
 70
0
 10
-51.3922121255
 20
51.5849892042
 10
-51.4060766729
 20
54.352949799
 10
-51.4214233842
 20
57.0242919933
 10
-51.4545285661
 20
62.08019441
  0
LWPOLYLINE
  5
233
100
AcDbEntity
  8
IMPORT_IGES
100
AcDbPolyline
 62
7
  6
CONTINUOUS
 90
16
 70
0
 10
-51.5411607352
 20
69.1005069628
 10
-51.5184560775
 20
63.7055172511
 10
-51.4800263198
 20
58.1603006444
 10
-51.4459027164
 20
52.5097977141
 10
-51.419240459
 20
46.7494134028
 10
-51.3973979361
 20
40.8822205524
 10
-51.3804693166
 20
34.9096543632
 10
-51.3696794806
 20
28.8312899253
 10
-51.3663813065
 20
22.646381963
 10
-51.3716550724
 20
16.3538802498
 10
-51.3851717391
 20
9.9530474378
 10
-51.406222882
 20
3.4437458235
 10
-51.4340820766
 20
-3.1725113378
 10
-51.4698481605
 20
-9.8942457073
 10
-51.5150414082
 20
-16.7218540768
 10
-51.5489374546
 20
-23.5832721618
  0
LINE
  5
234
100
AcDbEntity
  8
IMPORT_IGES
100
AcDbLine
 62
250
  6
CONTINUOUS
 10
-51.3679761582
 20
45.7354218146
 11
-51.3922121255
 21
51.5849892042
  0
LINE
  5
235
100
AcDbEntity
  8
IMPORT_IGES
100
AcDbLine
 62
7
  6
CONTINUOUS
 10
-49.6345630872
 20
-24.642634442
 11
-49.6366428705
 21
-4.8900653143
  0
LINE
  5
236
100
AcDbEntity
  8
IMPORT_IGES
100
AcDbLine
 62
7
  6
CONTINUOUS
 10
-49.1695589291
 20
-24.374146869
 11
-49.1695589291
 21
68.0771554654
  0
LINE
  5
237
100
AcDbEntity
  8
IMPORT_IGES
100
AcDbLine
 62
7
  6
CONTINUOUS
 10
-49.6366428705
 20
-4.8900653143
 11
-49.6367183074
 21
50.5806906699
  0
LWPOLYLINE
  5
238
100
AcDbEntity
  8
IMPORT_IGES
100
AcDbPolyline
 62
7
  6
CONTINUOUS
 90
3
 70
0
 10
-49.6367183074
 20
50.5806906699
 10
-49.6346019072
 20
62.1365987956
 10
-49.632643991
 20
67.8097759545
  0
LWPOLYLINE
  5
239
100
AcDbEntity
  8
IMPORT_IGES
100
AcDbPolyline
 62
250
  6
CONTINUOUS
 90
11
 70
0
 10
-51.3499607926
 20
6.2431345219
 10
-51.3397904517
 20
9.8674596106
 10
-51.3315862906
 20
13.5745738885
 10
-51.3256663015
 20
17.4024280902
 10
-51.3225313847
 20
21.3125282706
 10
-51.3225338796
 20
25.1502966066
 10
-51.3254299764
 20
28.8876915478
 10
-51.3308324473
 20
32.5531757593
 10
-51.3382224836
 20
36.0773707541
 10
-51.347074784
 20
39.4290726672
 10
-51.3679761582
 20
45.7354218146
  0
LWPOLYLINE
  5
23A
100
AcDbEntity
  8
IMPORT_IGES
100
AcDbPolyline
 62
250
  6
CONTINUOUS
 90
3
 70
0
 10
-51.4916414265
 20
-23.6641907785
 10
-51.483574308
 20
-21.119428692
 10
-51.4705727209
 20
-18.4791288085
  0
LINE
  5
23B
100
AcDbEntity
  8
IMPORT_IGES
100
AcDbLine
 62
250
  6
CONTINUOUS
 10
-51.3743428204
 20
-0.6175775616
 11
-51.3499607926
 21
6.2431345219
  0
LWPOLYLINE
  5
23C
100
AcDbEntity
  8
IMPORT_IGES
100
AcDbPolyline
 62
250
  6
CONTINUOUS
 90
3
 70
0
 10
-51.4187481016
 20
-10.0051014443
 10
-51.4027213055
 20
-6.9825786025
 10
-51.3743428204
 20
-0.6175775616
  0
LINE
  5
23D
100
AcDbEntity
  8
IMPORT_IGES
100
AcDbLine
 62
250
  6
CONTINUOUS
 10
-51.4705727209
 20
-18.4791288085
 11
-51.4187481016
 21
-10.0051014443
  0
LWPOLYLINE
  5
23E
100
AcDbEntity
  8
IMPORT_IGES
100
AcDbPolyline
 62
7
  6
CONTINUOUS
 90
18
 70
0
 10
-49.632643991
 20
67.8097759545
 10
-49.6292208092
 20
67.9516468474
 10
-49.6199304367
 20
68.0897223817
 10
-49.6047973458
 20
68.2236924284
 10
-49.5838633614
 20
68.3532521301
 10
-49.5571756728
 20
68.4781158573
 10
-49.5247856552
 20
68.5980169863
 10
-49.4867684171
 20
68.7126874775
 10
-49.4432137588
 20
68.8218704297
 10
-49.3942122937
 20
68.925332271
 10
-49.3398756869
 20
69.0228419248
 10
-49.2803297404
 20
69.114180717
 10
-49.2157024801
 20
69.1991520173
 10
-49.1461397458
 20
69.2775660303
 10
-49.0718010294
 20
69.3492461861
 10
-48.9928499312
 20
69.414035892
 10
-48.9094642998
 20
69.4717897892
 10
-48.8662504705
 20
69.4979389792
  0
LWPOLYLINE
  5
23F
100
AcDbEntity
  8
IMPORT_IGES
100
AcDbPolyline
 62
250
  6
CONTINUOUS
 90
19
 70
0
 10
-47.1012343431
 20
71.5503335725
 10
-47.1005600217
 20
71.5646753652
 10
-47.0988585981
 20
71.5794832061
 10
-47.096161494
 20
71.594569019
 10
-47.0925666865
 20
71.6095926314
 10
-47.088136113
 20
71.624504259
 10
-47.0827964916
 20
71.6395852397
 10
-47.076545895
 20
71.6547680959
 10
-47.0694680016
 20
71.6698076693
 10
-47.0615287374
 20
71.6847374377
 10
-47.0527757567
 20
71.6994122722
 10
-47.0433045783
 20
71.7136383281
 10
-47.0331349599
 20
71.7273573166
 10
-47.0224024477
 20
71.740365354
 10
-47.0112002218
 20
71.7525462292
 10
-46.9994816724
 20
71.7639277264
 10
-46.9873266741
 20
71.7743884371
 10
-46.9749482891
 20
71.7837221361
 10
-46.962506621
 20
71.7918150162
  0
LWPOLYLINE
  5
240
100
AcDbEntity
  8
IMPORT_IGES
100
AcDbPolyline
 62
7
  6
CONTINUOUS
 90
16
 70
0
 10
33.0273010407
 20
-74.1861485162
 10
33.1098244669
 20
-74.2307477171
 10
33.1920281773
 20
-74.2702420421
 10
33.2736874087
 20
-74.3045320833
 10
33.354573051
 20
-74.3335329244
 10
33.4344718003
 20
-74.3571756238
 10
33.5131862032
 20
-74.3754043839
 10
33.5905032763
 20
-74.3881766425
 10
33.6662136283
 20
-74.3954653896
 10
33.7401302783
 20
-74.3972553989
 10
33.81205397
 20
-74.3935466013
 10
33.8817899382
 20
-74.3843547218
 10
33.9491645555
 20
-74.3697053298
 10
34.0139960911
 20
-74.3496405276
 10
34.0761082934
 20
-74.3242181038
 10
34.1353975209
 20
-74.2934728702
  0
LWPOLYLINE
  5
241
100
AcDbEntity
  8
IMPORT_IGES
100
AcDbPolyline
 62
7
  6
CONTINUOUS
 90
15
 70
0
 10
33.502841505
 20
-75.1156423102
 10
33.6274195146
 20
-75.1840832179
 10
33.7511273277
 20
-75.2452819589
 10
33.8739649442
 20
-75.2992385331
 10
33.9962036299
 20
-75.3460368927
 10
34.1175721191
 20
-75.3855930855
 10
34.2372566144
 20
-75.4176552552
 10
34.3552451865
 20
-75.442173947
 10
34.4715497646
 20
-75.4591986158
 10
34.5853923392
 20
-75.4686257695
 10
34.6967562495
 20
-75.4704055428
 10
34.8056581562
 20
-75.464587801
 10
34.9113700315
 20
-75.4512186478
 10
35.0138708908
 20
-75.4302484736
 10
35.0988242574
 20
-75.4058502807
  0
LWPOLYLINE
  5
242
100
AcDbEntity
  8
IMPORT_IGES
100
AcDbPolyline
 62
7
  6
CONTINUOUS
 90
7
 70
0
 10
14.8433898668
 20
-64.8819401993
 10
14.8415817717
 20
-64.8809447845
 10
14.839815885
 20
-64.8799249852
 10
14.8380922066
 20
-64.8788808015
 10
14.8364107365
 20
-64.8778122333
 10
14.8347714747
 20
-64.8767192807
 10
14.8331744213
 20
-64.8756019436
  0
LWPOLYLINE
  5
243
100
AcDbEntity
  8
IMPORT_IGES
100
AcDbPolyline
 62
250
  6
CONTINUOUS
 90
16
 70
0
 10
33.1590229436
 20
-77.5930760153
 10
33.3402915078
 20
-77.6935037974
 10
33.5205996487
 20
-77.7848575644
 10
33.6999497127
 20
-77.8671357412
 10
33.8786469254
 20
-77.9404465484
 10
34.0563898521
 20
-78.0046791925
 10
34.2322697925
 20
-78.0595042678
 10
34.4062777881
 20
-78.1048729272
 10
34.578424581
 20
-78.1408327764
 10
34.7478299492
 20
-78.167199811
 10
34.9144803672
 20
-78.1839242638
 10
35.0783913262
 20
-78.1910546126
 10
35.2387255656
 20
-78.1885546228
 10
35.3952048999
 20
-78.176411662
 10
35.5481107648
 20
-78.1546363329
 10
35.6974454753
 20
-78.1232271886
  0
LWPOLYLINE
  5
244
100
AcDbEntity
  8
IMPORT_IGES
100
AcDbPolyline
 62
7
  6
CONTINUOUS
 90
22
 70
0
 10
33.2004246623
 20
-77.6828279385
 10
33.365811717
 20
-77.7750057763
 10
33.5383950115
 20
-77.8637880122
 10
33.7107412817
 20
-77.9448567615
 10
33.8828209852
 20
-78.0181569901
 10
34.054329306
 20
-78.0835080886
 10
34.2247010102
 20
-78.1406700657
 10
34.393758888
 20
-78.1895769016
 10
34.5613488974
 20
-78.2301675316
 10
34.7269622049
 20
-78.2623159177
 10
34.8904134957
 20
-78.2860002828
 10
35.0515571218
 20
-78.3012074904
 10
35.2099370025
 20
-78.3079475963
 10
35.3653022071
 20
-78.306302297
 10
35.5174763831
 20
-78.2963568333
 10
35.6661099532
 20
-78.2782167206
 10
35.8109912407
 20
-78.2519940165
 10
35.9519048689
 20
-78.2178073145
 10
36.0885121478
 20
-78.1758251637
 10
36.2205721171
 20
-78.126220363
 10
36.3479324468
 20
-78.0691457964
 10
36.4452346313
 20
-78.0188152813
  0
LWPOLYLINE
  5
245
100
AcDbEntity
  8
IMPORT_IGES
100
AcDbPolyline
 62
7
  6
CONTINUOUS
 90
14
 70
0
 10
-33.519072524
 20
-39.0443889666
 10
-28.9945500522
 20
-41.6169461929
 10
-24.4730020941
 20
-44.1910774153
 10
-19.9559762695
 20
-46.7660897367
 10
-15.4498678223
 20
-49.3410095352
 10
-10.9605288713
 20
-51.9152537496
 10
-6.4909475588
 20
-54.4898756615
 10
-2.0380070381
 20
-57.0683810154
 10
2.4045952839
 20
-59.6523670982
 10
6.8386272824
 20
-62.2400258834
 10
11.2631604977
 20
-64.8280097384
 10
15.6765211906
 20
-67.4126954274
 10
20.0774792054
 20
-69.993418988
 10
28.85245573
 20
-75.1499610744
  0
LINE
  5
246
100
AcDbEntity
  8
IMPORT_IGES
100
AcDbLine
 62
250
  6
CONTINUOUS
 10
-43.3417602048
 20
-33.4029376335
 11
-27.9148449683
 21
-42.1778813107
  0
LWPOLYLINE
  5
247
100
AcDbEntity
  8
IMPORT_IGES
100
AcDbPolyline
 62
250
  6
CONTINUOUS
 90
12
 70
0
 10
-27.9148449683
 20
-42.1778813107
 10
-22.8431821115
 20
-45.0681300321
 10
-20.1683873977
 20
-46.5945625001
 10
-17.3784721943
 20
-48.189129275
 10
-14.4900518482
 20
-49.8430742485
 10
-11.530659581
 20
-51.5408213073
 10
-8.4682220294
 20
-53.3021356806
 10
-5.3369577064
 20
-55.1097847151
 10
-2.2625468941
 20
-56.8913542892
 10
0.7336887891
 20
-58.6321764113
 10
3.6752898482
 20
-60.3446811717
 10
6.5053697171
 20
-61.9954584039
  0
LWPOLYLINE
  5
248
100
AcDbEntity
  8
IMPORT_IGES
100
AcDbPolyline
 62
7
  6
CONTINUOUS
 90
3
 70
0
 10
-47.0645878545
 20
-31.3382653687
 10
-42.5896890119
 20
-33.8985340734
 10
-33.519072524
 20
-39.0443889666
  0
LWPOLYLINE
  5
249
100
AcDbEntity
  8
IMPORT_IGES
100
AcDbPolyline
 62
250
  6
CONTINUOUS
 90
3
 70
0
 10
-47.1059931766
 20
-31.2485488581
 10
-45.2626248631
 20
-32.3082017391
 10
-43.3417602048
 20
-33.4029376335
  0
LINE
  5
24A
100
AcDbEntity
  8
IMPORT_IGES
100
AcDbLine
 62
7
  6
CONTINUOUS
 10
28.85245573
 20
-75.1499610744
 11
33.2004236357
 21
-77.6828273447
  0
LINE
  5
24B
100
AcDbEntity
  8
IMPORT_IGES
100
AcDbLine
 62
250
  6
CONTINUOUS
 10
6.5053697171
 20
-61.9954584039
 11
11.7824270466
 21
-65.0798123999
  0
LINE
  5
24C
100
AcDbEntity
  8
IMPORT_IGES
100
AcDbLine
 62
250
  6
CONTINUOUS
 10
11.7824270466
 20
-65.0798123999
 11
16.6784617999
 21
-67.946513182
  0
LINE
  5
24D
100
AcDbEntity
  8
IMPORT_IGES
100
AcDbLine
 62
250
  6
CONTINUOUS
 10
16.6784617999
 20
-67.946513182
 11
27.4998380565
 21
-74.2888114222
  0
LWPOLYLINE
  5
24E
100
AcDbEntity
  8
IMPORT_IGES
100
AcDbPolyline
 62
250
  6
CONTINUOUS
 90
4
 70
0
 10
27.4998380565
 20
-74.2888114222
 10
29.4510841396
 20
-75.4334755959
 10
31.3356668351
 20
-76.5360308269
 10
33.1590229436
 20
-77.5930760153
  0
LWPOLYLINE
  5
24F
100
AcDbEntity
  8
IMPORT_IGES
100
AcDbPolyline
 62
7
  6
CONTINUOUS
 90
34
 70
0
 10
-47.0285566323
 20
-29.1532247604
 10
-47.1502107688
 20
-29.0791834176
 10
-47.2719541104
 20
-28.9985111075
 10
-47.393513795
 20
-28.9113371702
 10
-47.5146363616
 20
-28.8177933934
 10
-47.6350210616
 20
-28.7180547341
 10
-47.754322491
 20
-28.6123487906
 10
-47.8722518228
 20
-28.5008896775
 10
-47.9885422291
 20
-28.3838868825
 10
-48.1028850918
 20
-28.2615961226
 10
-48.2149986923
 20
-28.1342794522
 10
-48.3246216817
 20
-28.002193343
 10
-48.4314813131
 20
-27.8656091489
 10
-48.5353894525
 20
-27.7247147455
 10
-48.6360080311
 20
-27.5799142509
 10
-48.7328699624
 20
-27.4318446697
 10
-48.825684313
 20
-27.280971558
 10
-48.9143176175
 20
-27.1275339686
 10
-48.9985749089
 20
-26.9718599252
 10
-49.0783151125
 20
-26.8142049019
 10
-49.1533000537
 20
-26.6550387608
 10
-49.2232298626
 20
-26.4950233976
 10
-49.2879321524
 20
-26.3346366133
 10
-49.3473391807
 20
-26.1741484706
 10
-49.401353363
 20
-26.0139126874
 10
-49.4498861006
 20
-25.8542765417
 10
-49.4928566774
 20
-25.6956157699
 10
-49.5302014307
 20
-25.538318775
 10
-49.5618735154
 20
-25.382719201
 10
-49.5878385031
 20
-25.2291677847
 10
-49.6080819062
 20
-25.0780643269
 10
-49.6226066506
 20
-24.9297496309
 10
-49.631424995
 20
-24.7845075093
 10
-49.6345630872
 20
-24.642634442
  0
LWPOLYLINE
  5
250
100
AcDbEntity
  8
IMPORT_IGES
100
AcDbPolyline
 62
250
  6
CONTINUOUS
 90
10
 70
0
 10
-47.1059932472
 20
-31.2485489399
 10
-47.1053390755
 20
-31.2621394792
 10
-47.1036545169
 20
-31.2750069342
 10
-47.1009709091
 20
-31.286998833
 10
-47.0973863528
 20
-31.2978872133
 10
-47.0929631212
 20
-31.3076940848
 10
-47.0876278689
 20
-31.3166171045
 10
-47.0813784871
 20
-31.3245863247
 10
-47.0742987976
 20
-31.3314526448
 10
-47.0663545965
 20
-31.3372100709
  0
LWPOLYLINE
  5
251
100
AcDbEntity
  8
IMPORT_IGES
100
AcDbPolyline
 62
7
  6
CONTINUOUS
 90
13
 70
0
 10
-48.6031422827
 20
67.20001607
 10
-48.6351606103
 20
59.0130716179
 10
-48.6612172574
 20
50.9960580175
 10
-48.6813122241
 20
43.1489752688
 10
-48.6954197428
 20
35.52156516
 10
-48.703565581
 20
28.0640859029
 10
-48.7058270411
 20
20.6273121322
 10
-48.7020180995
 20
13.2113522551
 10
-48.6923247797
 20
5.8160978644
 10
-48.6773824557
 20
-1.7080016264
 10
-48.6574029186
 20
-9.4107964127
 10
-48.6321743773
 20
-17.242436299
 10
-48.6014640285
 20
-25.2503172615
  0
LWPOLYLINE
  5
252
100
AcDbEntity
  8
IMPORT_IGES
100
AcDbPolyline
 62
7
  6
CONTINUOUS
 90
7
 70
0
 10
-28.8225374496
 20
-39.6693255098
 10
-28.824462451
 20
-39.668408454
 10
-28.8263453912
 20
-39.6674671279
 10
-28.8281862701
 20
-39.6665015316
 10
-28.8299850878
 20
-39.6655116651
 10
-28.8317418442
 20
-39.6644975284
 10
-28.8334565394
 20
-39.6634591214
  0
LWPOLYLINE
  5
253
100
AcDbEntity
  8
IMPORT_IGES
100
AcDbPolyline
 62
250
  6
CONTINUOUS
 90
5
 70
0
 10
-0.5541001466
 20
-53.2993116078
 10
5.7005234386
 20
-56.8693195958
 10
12.1558901988
 20
-60.5376238853
 10
18.9105190908
 20
-64.3648063974
 10
34.5898440531
 20
-73.2364898387
  0
LWPOLYLINE
  5
254
100
AcDbEntity
  8
IMPORT_IGES
100
AcDbPolyline
 62
7
  6
CONTINUOUS
 90
3
 70
0
 10
21.2139858336
 20
-67.4303556847
 10
27.0019195268
 20
-70.741535628
 10
33.0273010407
 20
-74.1861485162
  0
LINE
  5
255
100
AcDbEntity
  8
IMPORT_IGES
100
AcDbLine
 62
250
  6
CONTINUOUS
 10
-6.9088991694
 20
-49.6482297954
 11
-0.5541001466
 21
-53.2993116078
  0
LINE
  5
256
100
AcDbEntity
  8
IMPORT_IGES
100
AcDbLine
 62
250
  6
CONTINUOUS
 10
32.1933536214
 20
-74.930223249
 11
36.7169577495
 21
-77.5299190056
  0
LINE
  5
257
100
AcDbEntity
  8
IMPORT_IGES
100
AcDbLine
 62
250
  6
CONTINUOUS
 10
-43.3165853657
 20
-31.3305870769
 11
-28.8334565391
 21
-39.6634591212
  0
LINE
  5
258
100
AcDbEntity
  8
IMPORT_IGES
100
AcDbLine
 62
7
  6
CONTINUOUS
 10
33.0391551772
 20
-75.3833689846
 11
29.1106435381
 21
-73.1198269645
  0
LINE
  5
259
100
AcDbEntity
  8
IMPORT_IGES
100
AcDbLine
 62
7
  6
CONTINUOUS
 10
29.1106435381
 20
-73.1198269645
 11
25.117355851
 21
-70.815682576
  0
LINE
  5
25A
100
AcDbEntity
  8
IMPORT_IGES
100
AcDbLine
 62
7
  6
CONTINUOUS
 10
33.502841505
 20
-75.1156423102
 11
-46.5649143905
 21
-28.8855235408
  0
LINE
  5
25B
100
AcDbEntity
  8
IMPORT_IGES
100
AcDbLine
 62
7
  6
CONTINUOUS
 10
-28.8334565394
 20
-39.6634591214
 11
-41.1343280822
 21
-32.5624998733
  0
LINE
  5
25C
100
AcDbEntity
  8
IMPORT_IGES
100
AcDbLine
 62
7
  6
CONTINUOUS
 10
14.8331744213
 20
-64.8756019436
 11
-28.8225374496
 21
-39.6693255098
  0
LINE
  5
25D
100
AcDbEntity
  8
IMPORT_IGES
100
AcDbLine
 62
7
  6
CONTINUOUS
 10
25.117355851
 20
-70.815682576
 11
14.8433898668
 21
-64.8819401993
  0
LWPOLYLINE
  5
25E
100
AcDbEntity
  8
IMPORT_IGES
100
AcDbPolyline
 62
7
  6
CONTINUOUS
 90
3
 70
0
 10
-41.1343280822
 20
-32.5624998733
 10
-45.0830027728
 20
-30.279311527
 10
-47.0285566323
 20
-29.1532247604
  0
LWPOLYLINE
  5
25F
100
AcDbEntity
  8
IMPORT_IGES
100
AcDbPolyline
 62
250
  6
CONTINUOUS
 90
3
 70
0
 10
14.8433898661
 20
-64.8819401997
 10
28.7115168117
 20
-72.9172492541
 10
32.1933536214
 20
-74.930223249
  0
LINE
  5
260
100
AcDbEntity
  8
IMPORT_IGES
100
AcDbLine
 62
250
  6
CONTINUOUS
 10
-13.428230661
 20
-45.8697904518
 11
-6.9088991694
 21
-49.6482297954
  0
LWPOLYLINE
  5
261
100
AcDbEntity
  8
IMPORT_IGES
100
AcDbPolyline
 62
250
  6
CONTINUOUS
 90
3
 70
0
 10
-50.6837914912
 20
-27.0660536431
 10
-46.9913231284
 20
-29.2078741322
 10
-43.3165853657
 20
-31.3305870769
  0
LWPOLYLINE
  5
262
100
AcDbEntity
  8
IMPORT_IGES
100
AcDbPolyline
 62
7
  6
CONTINUOUS
 90
9
 70
0
 10
-24.548882357
 20
-41.0598320608
 10
-19.490291962
 20
-44.0016828762
 10
-14.4978103284
 20
-46.8986565363
 10
-9.5706037854
 20
-49.7501923904
 10
-4.7095060037
 20
-52.5568510893
 10
0.2281048355
 20
-55.4009960348
 10
5.2430785654
 20
-58.2820651059
 10
10.3345653529
 20
-61.2006204236
 10
21.2139858336
 20
-67.4303556847
  0
LWPOLYLINE
  5
263
100
AcDbEntity
  8
IMPORT_IGES
100
AcDbPolyline
 62
7
  6
CONTINUOUS
 90
4
 70
0
 10
-47.0406826954
 20
-27.956161299
 10
-41.0887916524
 20
-31.4271403512
 10
-35.3481322022
 20
-34.7725607983
 10
-24.548882357
 20
-41.0598320608
  0
LWPOLYLINE
  5
264
100
AcDbEntity
  8
IMPORT_IGES
100
AcDbPolyline
 62
250
  6
CONTINUOUS
 90
6
 70
0
 10
-48.6016592946
 20
-25.202943871
 10
-41.1419350632
 20
-29.600368521
 10
-33.8942064587
 20
-33.8700796047
 10
-26.854367455
 20
-38.012665373
 10
-20.0444530779
 20
-42.0074441212
 10
-13.428230661
 20
-45.8697904518
  0
LWPOLYLINE
  5
265
100
AcDbEntity
  8
IMPORT_IGES
100
AcDbPolyline
 62
250
  6
CONTINUOUS
 90
11
 70
0
 10
-51.4916413983
 20
-23.6641907951
 10
-51.5031265837
 20
-23.6568337363
 10
-51.5134691623
 20
-23.6489453481
 10
-51.5225518827
 20
-23.6406292682
 10
-51.530225132
 20
-23.6320849635
 10
-51.5365392929
 20
-23.6233554883
 10
-51.5416299854
 20
-23.6142780299
 10
-51.5454352154
 20
-23.6048857338
 10
-51.5478669763
 20
-23.5953261132
 10
-51.5489028971
 20
-23.5855725179
 10
-51.5489374546
 20
-23.5832721618
  0
LWPOLYLINE
  5
266
100
AcDbEntity
  8
IMPORT_IGES
100
AcDbPolyline
 62
250
  6
CONTINUOUS
 90
10
 70
0
 10
33.2004236357
 20
-77.6828273447
 10
33.1927747664
 20
-77.6776696543
 10
33.1852461995
 20
-77.6708620906
 10
33.1785291826
 20
-77.6627754615
 10
33.172705855
 20
-77.6534573476
 10
33.1678694346
 20
-77.6430304235
 10
33.1640697118
 20
-77.6316212407
 10
33.161332588
 20
-77.6193796657
 10
33.1596585907
 20
-77.6064732404
 10
33.1590229441
 20
-77.5930760668
  0
LINE
  5
267
100
AcDbEntity
  8
IMPORT_IGES
100
AcDbLine
 62
7
  6
CONTINUOUS
 10
-33.4908603
 20
75.5713763261
 11
-33.4908603
 21
75.2916229131
  0
LINE
  5
268
100
AcDbEntity
  8
IMPORT_IGES
100
AcDbLine
 62
7
  6
CONTINUOUS
 10
34.953400233
 20
30.7037359704
 11
39.5058277739
 21
33.4240034957
  0
LINE
  5
269
100
AcDbEntity
  8
IMPORT_IGES
100
AcDbLine
 62
7
  6
CONTINUOUS
 10
35.0445822498
 20
30.8950025099
 11
39.3644064176
 21
33.3892148443
  0
LINE
  5
26A
100
AcDbEntity
  8
IMPORT_IGES
100
AcDbLine
 62
250
  6
CONTINUOUS
 10
48.9868785975
 20
32.4404948542
 11
44.5661715869
 21
30.2449704297
  0
LWPOLYLINE
  5
26B
100
AcDbEntity
  8
IMPORT_IGES
100
AcDbPolyline
 62
250
  6
CONTINUOUS
 90
19
 70
0
 10
33.3026424977
 20
25.4470228333
 10
33.2905458101
 20
25.4392144513
 10
33.2785654173
 20
25.4302854835
 10
33.2668485739
 20
25.4203578737
 10
33.255640778
 20
25.4096876794
 10
33.2449537883
 20
25.3983534273
 10
33.2345805618
 20
25.3861499889
 10
33.2245805718
 20
25.3731096572
 10
33.2151241226
 20
25.3594282244
 10
33.2061994481
 20
25.3450594315
 10
33.1979082977
 20
25.3301175388
 10
33.1903704149
 20
25.3147826396
 10
33.1836263522
 20
25.2991011572
 10
33.1777842747
 20
25.2832927803
 10
33.1728977562
 20
25.2674964432
 10
33.1689663203
 20
25.2516579239
 10
33.1660548062
 20
25.2359073168
 10
33.1642341065
 20
25.220532343
 10
33.1635217778
 20
25.2057284465
  0
LINE
  5
26C
100
AcDbEntity
  8
IMPORT_IGES
100
AcDbLine
 62
250
  6
CONTINUOUS
 10
43.1403566292
 20
31.325472086
 11
33.3026424975
 21
25.4470228332
  0
LINE
  5
26D
100
AcDbEntity
  8
IMPORT_IGES
100
AcDbLine
 62
250
  6
CONTINUOUS
 10
-49.1695589291
 20
-24.374146869
 11
-49.6345630872
 21
-24.642634442
  0
LINE
  5
26E
100
AcDbEntity
  8
IMPORT_IGES
100
AcDbLine
 62
250
  6
CONTINUOUS
 10
33.502841505
 20
22.1465702555
 11
33.0261340243
 21
21.8713253306
  0
LINE
  5
26F
100
AcDbEntity
  8
IMPORT_IGES
100
AcDbLine
 62
250
  6
CONTINUOUS
 10
34.5883490722
 20
19.166309102
 11
35.0647016598
 21
19.441349116
  0
LINE
  5
270
100
AcDbEntity
  8
IMPORT_IGES
100
AcDbLine
 62
250
  6
CONTINUOUS
 10
47.4759581172
 20
25.4734243008
 11
51.4755513008
 21
28.1299872932
  0
LINE
  5
271
100
AcDbEntity
  8
IMPORT_IGES
100
AcDbLine
 62
250
  6
CONTINUOUS
 10
-47.0285566323
 20
-29.1532247604
 11
-46.5649143905
 21
-28.8855235408
  0
LINE
  5
272
100
AcDbEntity
  8
IMPORT_IGES
100
AcDbLine
 62
250
  6
CONTINUOUS
 10
37.8213759082
 20
17.6166530158
 11
47.8324213296
 21
23.1985776408
  0
LWPOLYLINE
  5
273
100
AcDbEntity
  8
IMPORT_IGES
100
AcDbPolyline
 62
250
  6
CONTINUOUS
 90
19
 70
0
 10
37.8213759082
 20
17.6166530158
 10
37.808560484
 20
17.6100733813
 10
37.7948320205
 20
17.6041553823
 10
37.7803699794
 20
17.5989657164
 10
37.7655193106
 20
17.5945891466
 10
37.7503540016
 20
17.5909965387
 10
37.7345925024
 20
17.5881109823
 10
37.718292549
 20
17.5859679024
 10
37.7017091759
 20
17.5846170005
 10
37.6847964019
 20
17.5840712421
 10
37.6677042457
 20
17.5843616791
 10
37.6506487937
 20
17.5855019986
 10
37.6336906018
 20
17.5875041338
 10
37.6170743187
 20
17.5903518832
 10
37.6009471911
 20
17.5940221347
 10
37.5852619365
 20
17.5985416538
 10
37.5701638276
 20
17.6039015361
 10
37.5559378133
 20
17.6100191467
 10
37.5427620922
 20
17.6168117989
  0
LWPOLYLINE
  5
274
100
AcDbEntity
  8
IMPORT_IGES
100
AcDbPolyline
 62
250
  6
CONTINUOUS
 90
10
 70
0
 10
51.4755513008
 20
28.1299872932
 10
51.4911577821
 20
28.1412706728
 10
51.5050823444
 20
28.1532653826
 10
51.5172282188
 20
28.165888065
 10
51.5275109972
 20
28.1790509984
 10
51.5358592192
 20
28.1926627068
 10
51.5422148686
 20
28.2066285953
 10
51.5465337768
 20
28.2208516076
 10
51.5487859293
 20
28.2352329006
 10
51.5491384267
 20
28.2436273715
  0
LINE
  5
275
100
AcDbEntity
  8
IMPORT_IGES
100
AcDbLine
 62
7
  6
CONTINUOUS
 10
35.0445822498
 20
30.8950025099
 11
34.9754930686
 21
30.7169373717
  0
LWPOLYLINE
  5
276
100
AcDbEntity
  8
IMPORT_IGES
100
AcDbPolyline
 62
250
  6
CONTINUOUS
 90
11
 70
0
 10
-51.4843021071
 20
69.0198710871
 10
-51.4957253816
 20
69.0272379726
 10
-51.5060078654
 20
69.0351375723
 10
-51.5150335854
 20
69.0434665494
 10
-51.5226547367
 20
69.0520259748
 10
-51.5289214284
 20
69.060772851
 10
-51.5339676565
 20
69.06986949
 10
-51.5377319591
 20
69.0792827418
 10
-51.5401274803
 20
69.08886544
 10
-51.5411319667
 20
69.0986442708
 10
-51.5411607352
 20
69.1005069628
  0
LWPOLYLINE
  5
277
100
AcDbEntity
  8
IMPORT_IGES
100
AcDbPolyline
 62
250
  6
CONTINUOUS
 90
25
 70
0
 10
37.5427605814
 20
17.6168112337
 10
37.5387932981
 20
17.8213487563
 10
37.5279929723
 20
18.0284540826
 10
37.5103641109
 20
18.2381295178
 10
37.4858503882
 20
18.4506385484
 10
37.4545165612
 20
18.6657219675
 10
37.4165476539
 20
18.8825974035
 10
37.3719412904
 20
19.1012730946
 10
37.320705988
 20
19.3217437735
 10
37.2630415913
 20
19.5432059407
 10
37.1989090479
 20
19.7657009251
 10
37.1283527466
 20
19.9891899349
 10
37.0516963178
 20
20.2127485174
 10
36.968884866
 20
20.4364891911
 10
36.8799782391
 20
20.6603018136
 10
36.7854704611
 20
20.8829269921
 10
36.6853718172
 20
21.1043302922
 10
36.5796775629
 20
21.3245488113
 10
36.4688571293
 20
21.5424293186
 10
36.3528812916
 20
21.7579186507
 10
36.2317834091
 20
21.9710718368
 10
36.1061230709
 20
22.180896073
 10
35.9760853549
 20
22.3870596905
 10
35.8414823748
 20
22.5898929243
 10
35.7023123983
 20
22.7893948619
  0
LWPOLYLINE
  5
278
100
AcDbEntity
  8
IMPORT_IGES
100
AcDbPolyline
 62
7
  6
CONTINUOUS
 90
31
 70
0
 10
34.5883490722
 20
19.166309102
 10
34.5867442202
 20
19.2625978663
 10
34.5807910975
 20
19.361018522
 10
34.570515973
 20
19.4612963875
 10
34.555955543
 20
19.563145634
 10
34.5371610265
 20
19.6662905015
 10
34.514195699
 20
19.7704667751
 10
34.4871298901
 20
19.875387893
 10
34.4560441751
 20
19.980765581
 10
34.4210295988
 20
20.0863317662
 10
34.3821869553
 20
20.1917981612
 10
34.3396260013
 20
20.2968765059
 10
34.2934627395
 20
20.4012997618
 10
34.2438260596
 20
20.5047836655
 10
34.1908525651
 20
20.6070458164
 10
34.1346803153
 20
20.7078251897
 10
34.0754634859
 20
20.8068471698
 10
34.0133627946
 20
20.9038409155
 10
33.9485354389
 20
20.9985564434
 10
33.8811576711
 20
21.0907342299
 10
33.8114112144
 20
21.1801204953
 10
33.7394695082
 20
21.2664813388
 10
33.6655273124
 20
21.3495775459
 10
33.5897838913
 20
21.4291776458
 10
33.5124260621
 20
21.5050688218
 10
33.4336631984
 20
21.5770371155
 10
33.3537083112
 20
21.6448782925
 10
33.2727587617
 20
21.7084055028
 10
33.1910278279
 20
21.7674364934
 10
33.108744659
 20
21.8217964839
 10
33.0261340243
 20
21.8713253306
  0
LWPOLYLINE
  5
279
100
AcDbEntity
  8
IMPORT_IGES
100
AcDbPolyline
 62
250
  6
CONTINUOUS
 90
76
 70
0
 10
37.8213759082
 20
17.6166530158
 10
37.8202226454
 20
17.7268990227
 10
37.8170674623
 20
17.8382463478
 10
37.8119117976
 20
17.9506456477
 10
37.8047569576
 20
18.0640531788
 10
37.7956069394
 20
18.1784127393
 10
37.7844695432
 20
18.2936551732
 10
37.7713506944
 20
18.4097291811
 10
37.756257253
 20
18.5265827849
 10
37.7392017491
 20
18.6441444636
 10
37.7201946304
 20
18.7623562846
 10
37.6992456101
 20
18.8811704978
 10
37.6763686473
 20
19.000530089
 10
37.6515788592
 20
19.1203687644
 10
37.6248870149
 20
19.2406460396
 10
37.5963003972
 20
19.3613437694
 10
37.5658334943
 20
19.4824035876
 10
37.5334991133
 20
19.6037772602
 10
37.4992993137
 20
19.7254624126
 10
37.4632462215
 20
19.8474096678
 10
37.4253550872
 20
19.9695616343
 10
37.3856298858
 20
20.0919041355
 10
37.3440765046
 20
20.214407358
 10
37.3007174964
 20
20.3369933452
 10
37.2555828457
 20
20.4595755257
 10
37.2086799584
 20
20.5821273665
 10
37.1600377225
 20
20.7045666749
 10
37.1097259196
 20
20.8267238473
 10
37.0577745981
 20
20.9485347188
 10
37.0042053441
 20
21.0699566229
 10
36.9490845459
 20
21.1908539254
 10
36.8924515638
 20
21.3111568468
 10
36.8343291611
 20
21.4308326471
 10
36.7747641039
 20
21.5498032287
 10
36.7138077807
 20
21.6679844736
 10
36.6514762458
 20
21.7853629664
 10
36.5877621211
 20
21.9019668453
 10
36.5227180926
 20
22.0177111322
 10
36.4563557367
 20
22.1325848807
 10
36.3885972151
 20
22.2467230439
 10
36.319450737
 20
22.3601047567
 10
36.2489609438
 20
22.4726486161
 10
36.1770959373
 20
22.5843928847
 10
36.1038591251
 20
22.6953177331
 10
36.0292982404
 20
22.8053364055
 10
35.9534463198
 20
22.914384795
 10
35.8763191621
 20
23.0224277543
 10
35.7979580404
 20
23.1293949829
 10
35.7184376756
 20
23.2351723082
 10
35.6377831479
 20
23.3397195196
 10
35.5560348481
 20
23.4429772608
 10
35.4732959877
 20
23.544808956
 10
35.3896236834
 20
23.645145829
 10
35.3050353503
 20
23.743968322
 10
35.2195782533
 20
23.8412188902
 10
35.1333028434
 20
23.9368422174
 10
35.0462359238
 20
24.0308105517
 10
34.9583894868
 20
24.1231080247
 10
34.8697881701
 20
24.2137075606
 10
34.7804848345
 20
24.3025538081
 10
34.6905340491
 20
24.3895891988
 10
34.59996713
 20
24.4747838882
 10
34.5088329888
 20
24.5580922155
 10
34.417214158
 20
24.6394378955
 10
34.325140755
 20
24.7187979536
 10
34.2326655142
 20
24.7961306311
 10
34.1399069178
 20
24.8713407618
 10
34.0469040627
 20
24.9444065766
 10
33.9537026952
 20
25.0153020477
 10
33.8604329779
 20
25.0839384584
 10
33.7671397307
 20
25.150299398
 10
33.6738627749
 20
25.2143731496
 10
33.5807254271
 20
25.2760917322
 10
33.4877962942
 20
25.3354321432
 10
33.39508872
 20
25.3924099555
 10
33.3026424975
 20
25.4470228332
  0
LINE
  5
27A
100
AcDbEntity
  8
IMPORT_IGES
100
AcDbLine
 62
7
  6
CONTINUOUS
 10
35.6364727684
 20
-56.2452002166
 11
35.6389622155
 21
-56.4834329094
  0
LWPOLYLINE
  5
27B
100
AcDbEntity
  8
IMPORT_IGES
100
AcDbPolyline
 62
250
  6
CONTINUOUS
 90
4
 70
0
 10
37.5794321028
 20
10.6499601461
 10
37.6185588159
 20
5.5703440913
 10
37.636753621
 20
2.8891342488
 10
37.6532890914
 20
0.1126041957
  0
LINE
  5
27C
100
AcDbEntity
  8
IMPORT_IGES
100
AcDbLine
 62
250
  6
CONTINUOUS
 10
37.8572119039
 20
10.2586380559
 11
37.8844177567
 21
6.5848731635
  0
LINE
  5
27D
100
AcDbEntity
  8
IMPORT_IGES
100
AcDbLine
 62
250
  6
CONTINUOUS
 10
35.6898723599
 20
-76.9389962754
 11
35.6974454753
 21
-78.1232271897
  0
LINE
  5
27E
100
AcDbEntity
  8
IMPORT_IGES
100
AcDbLine
 62
250
  6
CONTINUOUS
 10
37.8844177567
 20
6.5848731635
 11
37.9080372016
 21
2.9090829044
  0
LINE
  5
27F
100
AcDbEntity
  8
IMPORT_IGES
100
AcDbLine
 62
250
  6
CONTINUOUS
 10
37.9080372016
 20
2.9090829044
 11
37.9283132832
 21
-0.7621993206
  0
LINE
  5
280
100
AcDbEntity
  8
IMPORT_IGES
100
AcDbLine
 62
250
  6
CONTINUOUS
 10
35.6732158017
 20
-73.5973121556
 11
35.6898723599
 21
-76.9389962754
  0
LINE
  5
281
100
AcDbEntity
  8
IMPORT_IGES
100
AcDbLine
 62
250
  6
CONTINUOUS
 10
37.6532890914
 20
0.1126041957
 11
37.6823118253
 21
-5.7410822802
  0
LINE
  5
282
100
AcDbEntity
  8
IMPORT_IGES
100
AcDbLine
 62
250
  6
CONTINUOUS
 10
37.9283132832
 20
-0.7621993206
 11
37.9531843002
 21
-6.3330002697
  0
LWPOLYLINE
  5
283
100
AcDbEntity
  8
IMPORT_IGES
100
AcDbPolyline
 62
7
  6
CONTINUOUS
 90
13
 70
0
 10
34.5901139221
 20
-73.2839742415
 10
34.5594140966
 20
-65.2768922896
 10
34.5341735927
 20
-57.4460869622
 10
34.5141617042
 20
-49.7440957646
 10
34.4991481133
 20
-42.2208497349
 10
34.4893631377
 20
-34.826417835
 10
34.4854977303
 20
-27.4110069498
 10
34.4877692106
 20
-19.9744899604
 10
34.4959602591
 20
-12.5169939857
 10
34.5101098701
 20
-4.8891072679
 10
34.5302310417
 20
2.9589741123
 10
34.5563107757
 20
10.9774462356
 10
34.5883490722
 20
19.166309102
  0
LWPOLYLINE
  5
284
100
AcDbEntity
  8
IMPORT_IGES
100
AcDbPolyline
 62
250
  6
CONTINUOUS
 90
16
 70
0
 10
37.6823118253
 20
-5.7410822802
 10
37.7071688143
 20
-12.017852094
 10
37.7176115331
 20
-15.3366669681
 10
37.7262681085
 20
-18.7990929934
 10
37.732619083
 20
-22.3887659722
 10
37.7361309339
 20
-26.0755113029
 10
37.7362980727
 20
-29.9021099857
 10
37.7327243475
 20
-33.8262298933
 10
37.7257453298
 20
-37.6896786815
 10
37.7158602118
 20
-41.4668632158
 10
37.7034237107
 20
-45.1829492529
 10
37.689152439
 20
-48.7555940076
 10
37.6736916176
 20
-52.1483455712
 10
37.6571909553
 20
-55.3972716254
 10
37.6394135352
 20
-58.5289248985
 10
37.6202187515
 20
-61.5458727711
  0
LWPOLYLINE
  5
285
100
AcDbEntity
  8
IMPORT_IGES
100
AcDbPolyline
 62
250
  6
CONTINUOUS
 90
5
 70
0
 10
37.8213759082
 20
17.6166530158
 10
37.8275334319
 20
15.7755679289
 10
37.835430736
 20
13.9354648866
 10
37.8450678205
 20
12.0963438889
 10
37.8572119039
 20
10.2586380559
  0
LINE
  5
286
100
AcDbEntity
  8
IMPORT_IGES
100
AcDbLine
 62
250
  6
CONTINUOUS
 10
37.9531843002
 20
-6.3330002697
 11
37.9737229874
 21
-12.0405299016
  0
LWPOLYLINE
  5
287
100
AcDbEntity
  8
IMPORT_IGES
100
AcDbPolyline
 62
250
  6
CONTINUOUS
 90
4
 70
0
 10
37.5427620922
 20
17.6168117989
 10
37.5498424313
 20
15.3811435936
 10
37.5625075211
 20
13.0591077274
 10
37.5794321028
 20
10.6499601461
  0
LINE
  5
288
100
AcDbEntity
  8
IMPORT_IGES
100
AcDbLine
 62
250
  6
CONTINUOUS
 10
35.6637053315
 20
-70.2579442306
 11
35.6732158017
 21
-73.5973121556
  0
LINE
  5
289
100
AcDbEntity
  8
IMPORT_IGES
100
AcDbLine
 62
7
  6
CONTINUOUS
 10
35.6389622155
 20
-56.4834329094
 11
35.6400142405
 21
-56.7222404592
  0
LINE
  5
28A
100
AcDbEntity
  8
IMPORT_IGES
100
AcDbLine
 62
250
  6
CONTINUOUS
 10
37.9737229874
 20
-12.0405299016
 11
37.984652371
 21
-15.8385723699
  0
LINE
  5
28B
100
AcDbEntity
  8
IMPORT_IGES
100
AcDbLine
 62
250
  6
CONTINUOUS
 10
37.984652371
 20
-15.8385723699
 11
37.9930091214
 21
-19.6380547957
  0
LINE
  5
28C
100
AcDbEntity
  8
IMPORT_IGES
100
AcDbLine
 62
250
  6
CONTINUOUS
 10
35.6396288435
 20
-56.9616228659
 11
35.6637053315
 21
-70.2579442306
  0
LINE
  5
28D
100
AcDbEntity
  8
IMPORT_IGES
100
AcDbLine
 62
250
  6
CONTINUOUS
 10
37.9930091214
 20
-19.6380547957
 11
37.998495458
 21
-23.4327463528
  0
LINE
  5
28E
100
AcDbEntity
  8
IMPORT_IGES
100
AcDbLine
 62
7
  6
CONTINUOUS
 10
35.6378363927
 20
-68.3958698258
 11
35.6424507513
 21
-73.8805494134
  0
LINE
  5
28F
100
AcDbEntity
  8
IMPORT_IGES
100
AcDbLine
 62
250
  6
CONTINUOUS
 10
37.998495458
 20
-23.4327463528
 11
38.0009214087
 21
-27.2419375951
  0
LINE
  5
290
100
AcDbEntity
  8
IMPORT_IGES
100
AcDbLine
 62
7
  6
CONTINUOUS
 10
35.0647016598
 20
19.441349116
 11
35.0647016598
 21
-73.0099532298
  0
LWPOLYLINE
  5
291
100
AcDbEntity
  8
IMPORT_IGES
100
AcDbPolyline
 62
7
  6
CONTINUOUS
 90
3
 70
0
 10
35.6411025984
 20
-43.3223731983
 10
35.6382683277
 20
-52.97956577
 10
35.6364727684
 20
-56.2452002166
  0
LINE
  5
292
100
AcDbEntity
  8
IMPORT_IGES
100
AcDbLine
 62
250
  6
CONTINUOUS
 10
38.0009214087
 20
-27.2419375951
 11
37.9999612555
 21
-31.1553421196
  0
LINE
  5
293
100
AcDbEntity
  8
IMPORT_IGES
100
AcDbLine
 62
7
  6
CONTINUOUS
 10
35.6396681071
 20
14.9613540979
 11
35.6411025984
 21
-43.3223731983
  0
LINE
  5
294
100
AcDbEntity
  8
IMPORT_IGES
100
AcDbLine
 62
250
  6
CONTINUOUS
 10
37.9999612555
 20
-31.1553421196
 11
37.9956215132
 21
-35.0834196391
  0
LINE
  5
295
100
AcDbEntity
  8
IMPORT_IGES
100
AcDbLine
 62
7
  6
CONTINUOUS
 10
35.6444445108
 20
18.5719041041
 11
35.6396681071
 21
14.9613540979
  0
LINE
  5
296
100
AcDbEntity
  8
IMPORT_IGES
100
AcDbLine
 62
250
  6
CONTINUOUS
 10
35.6654375004
 20
15.7009529159
 11
35.6399571107
 21
1.7732787038
  0
LINE
  5
297
100
AcDbEntity
  8
IMPORT_IGES
100
AcDbLine
 62
250
  6
CONTINUOUS
 10
37.9956215132
 20
-35.0834196391
 11
37.9879988435
 21
-39.0069283156
  0
LINE
  5
298
100
AcDbEntity
  8
IMPORT_IGES
100
AcDbLine
 62
250
  6
CONTINUOUS
 10
37.9879988435
 20
-39.0069283156
 11
37.9774357376
 21
-42.932068745
  0
LINE
  5
299
100
AcDbEntity
  8
IMPORT_IGES
100
AcDbLine
 62
7
  6
CONTINUOUS
 10
35.6400142405
 20
-56.7222404592
 11
35.6378363927
 21
-68.3958698258
  0
LINE
  5
29A
100
AcDbEntity
  8
IMPORT_IGES
100
AcDbLine
 62
250
  6
CONTINUOUS
 10
37.9774357376
 20
-42.932068745
 11
37.9642720006
 21
-46.8522531236
  0
LINE
  5
29B
100
AcDbEntity
  8
IMPORT_IGES
100
AcDbLine
 62
250
  6
CONTINUOUS
 10
35.6798833891
 20
19.2336700809
 11
35.6654375004
 21
15.7009529159
  0
LINE
  5
29C
100
AcDbEntity
  8
IMPORT_IGES
100
AcDbLine
 62
250
  6
CONTINUOUS
 10
37.9642720006
 20
-46.8522531236
 11
37.9397282504
 21
-52.7959278054
  0
LINE
  5
29D
100
AcDbEntity
  8
IMPORT_IGES
100
AcDbLine
 62
250
  6
CONTINUOUS
 10
37.9397282504
 20
-52.7959278054
 11
37.919906403
 21
-56.8540731176
  0
LWPOLYLINE
  5
29E
100
AcDbEntity
  8
IMPORT_IGES
100
AcDbPolyline
 62
250
  6
CONTINUOUS
 90
3
 70
0
 10
37.5591433287
 20
-69.9545192966
 10
37.5437614857
 20
-72.5614465743
 10
37.5338616468
 20
-75.0668335458
  0
LINE
  5
29F
100
AcDbEntity
  8
IMPORT_IGES
100
AcDbLine
 62
250
  6
CONTINUOUS
 10
37.919906403
 20
-56.8540731176
 11
37.8967721341
 21
-60.9012528029
  0
LINE
  5
2A0
100
AcDbEntity
  8
IMPORT_IGES
100
AcDbLine
 62
250
  6
CONTINUOUS
 10
35.7023123983
 20
22.7893948619
 11
35.6798833891
 21
19.2336700809
  0
LWPOLYLINE
  5
2A1
100
AcDbEntity
  8
IMPORT_IGES
100
AcDbPolyline
 62
250
  6
CONTINUOUS
 90
8
 70
0
 10
32.7825875673
 20
0.1305260001
 10
32.7100623863
 20
-10.3484452532
 10
32.6722369815
 20
-20.388457078
 10
32.6701472671
 20
-30.1637112581
 10
32.7042464395
 20
-40.1940525001
 10
32.7741591562
 20
-50.6507943305
 10
32.8730412236
 20
-61.3612214335
 10
33.0064385945
 20
-74.1742405207
  0
LWPOLYLINE
  5
2A2
100
AcDbEntity
  8
IMPORT_IGES
100
AcDbPolyline
 62
250
  6
CONTINUOUS
 90
6
 70
0
 10
37.8967721341
 20
-60.9012528029
 10
37.8701013905
 20
-64.9503836889
 10
37.8553937178
 20
-66.9757066454
 10
37.8421124592
 20
-69.000242787
 10
37.8309633666
 20
-71.0236027378
 10
37.8129444233
 20
-75.0679621947
  0
LINE
  5
2A3
100
AcDbEntity
  8
IMPORT_IGES
100
AcDbLine
 62
250
  6
CONTINUOUS
 10
37.6202187515
 20
-61.5458727711
 11
37.5591433287
 21
-69.9545192966
  0
LWPOLYLINE
  5
2A4
100
AcDbEntity
  8
IMPORT_IGES
100
AcDbPolyline
 62
250
  6
CONTINUOUS
 90
3
 70
0
 10
33.005117458
 20
21.8832723017
 10
32.8830005491
 20
10.873897133
 10
32.7825875673
 20
0.1305260001
  0
LWPOLYLINE
  5
2A5
100
AcDbEntity
  8
IMPORT_IGES
100
AcDbPolyline
 62
7
  6
CONTINUOUS
 90
18
 70
0
 10
35.6424507513
 20
-73.8805494134
 10
35.6398926101
 20
-74.0196864451
 10
35.6315632367
 20
-74.1555633186
 10
35.6174382259
 20
-74.2878508695
 10
35.5974983569
 20
-74.4162470302
 10
35.5717514249
 20
-74.5404073351
 10
35.5402417597
 20
-74.6599534545
 10
35.5030122513
 20
-74.774574182
 10
35.4601090653
 20
-74.8839905537
 10
35.4116136932
 20
-74.9878955971
 10
35.3576142211
 20
-75.0860123931
 10
35.2982001035
 20
-75.1780933202
 10
35.2334783237
 20
-75.2638950196
 10
35.1635194214
 20
-75.3432386952
 10
35.0885024418
 20
-75.415839671
 10
35.0087481554
 20
-75.481360518
 10
34.9245149199
 20
-75.5396141039
 10
34.8828080798
 20
-75.5648145778
  0
LWPOLYLINE
  5
2A6
100
AcDbEntity
  8
IMPORT_IGES
100
AcDbPolyline
 62
7
  6
CONTINUOUS
 90
16
 70
0
 10
35.0647016598
 20
-73.0099532298
 10
35.0624823756
 20
-73.1038265462
 10
35.0560345031
 20
-73.1944202631
 10
35.0453580422
 20
-73.2817343803
 10
35.0303943884
 20
-73.3659798378
 10
35.0112021462
 20
-73.4469456956
 10
34.9879571294
 20
-73.5239991343
 10
34.960629227
 20
-73.597109016
 10
34.9292485499
 20
-73.6663064786
 10
34.8940812443
 20
-73.7310521161
 10
34.8550992813
 20
-73.7913115058
 10
34.8123306897
 20
-73.8471190705
 10
34.7661257027
 20
-73.8980386721
 10
34.7164587941
 20
-73.9440331945
 10
34.66335549
 20
-73.9851397539
 10
34.6072969957
 20
-74.0210040277
  0
LWPOLYLINE
  5
2A7
100
AcDbEntity
  8
IMPORT_IGES
100
AcDbPolyline
 62
7
  6
CONTINUOUS
 90
16
 70
0
 10
-47.0417252685
 20
68.1013843884
 10
-47.1231872084
 20
68.1465962215
 10
-47.204416289
 20
68.1866531179
 10
-47.285187748
 20
68.2214556593
 10
-47.3652767517
 20
68.2509164568
 10
-47.4444657184
 20
68.2749690192
 10
-47.5225443619
 20
68.2935649271
 10
-47.599298971
 20
68.3066620294
 10
-47.6745208785
 20
68.3142328924
 10
-47.7480124503
 20
68.3162684245
 10
-47.8195731787
 20
68.3127692742
 10
-47.8890095459
 20
68.3037504426
 10
-47.9561410211
 20
68.2892414778
 10
-48.0207842904
 20
68.2692853943
 10
-48.0827646828
 20
68.2439390676
 10
-48.1419759665
 20
68.2132388034
  0
LWPOLYLINE
  5
2A8
100
AcDbEntity
  8
IMPORT_IGES
100
AcDbPolyline
 62
7
  6
CONTINUOUS
 90
3
 70
0
 10
33.0261340243
 20
21.8713253306
 10
26.0043940804
 20
25.8839857888
 10
19.1296368334
 20
29.8180247408
  0
LINE
  5
2A9
100
AcDbEntity
  8
IMPORT_IGES
100
AcDbLine
 62
7
  6
CONTINUOUS
 10
19.1296368334
 20
29.8180247408
 11
9.1131413643
 21
35.559728536
  0
LWPOLYLINE
  5
2AA
100
AcDbEntity
  8
IMPORT_IGES
100
AcDbPolyline
 62
7
  6
CONTINUOUS
 90
10
 70
0
 10
9.1131413643
 20
35.559728536
 10
5.7975631932
 20
37.4615164069
 10
-0.6597532
 20
41.170969121
 10
-7.1097285165
 20
44.8875491459
 10
-13.5493468558
 20
48.6129977188
 10
-19.9816241183
 20
52.3455736025
 10
-26.534233292
 20
56.1538435373
 10
-33.2497320397
 20
60.0606631033
 10
-40.0855626985
 20
64.0431767203
 10
-47.0417252685
 20
68.1013843884
  0
LINE
  5
2AB
100
AcDbEntity
  8
IMPORT_IGES
100
AcDbLine
 62
7
  6
CONTINUOUS
 10
-46.5649143807
 20
68.3766890192
 11
33.502841505
 21
22.1465702555
  0
LINE
  5
2AC
100
AcDbEntity
  8
IMPORT_IGES
100
AcDbLine
 62
7
  6
CONTINUOUS
 10
16.7589487398
 20
32.4803253972
 11
33.0402381094
 21
23.0835337509
  0
LINE
  5
2AD
100
AcDbEntity
  8
IMPORT_IGES
100
AcDbLine
 62
7
  6
CONTINUOUS
 10
-4.736683765
 20
44.894720015
 11
16.7589487398
 21
32.4803253972
  0
LWPOLYLINE
  5
2AE
100
AcDbEntity
  8
IMPORT_IGES
100
AcDbPolyline
 62
7
  6
CONTINUOUS
 90
4
 70
0
 10
-47.0273552863
 20
69.3137463343
 10
-41.7941847937
 20
66.2900454358
 10
-36.5456602353
 20
63.2582469389
 10
-4.736683765
 20
44.894720015
  0
LWPOLYLINE
  5
2AF
100
AcDbEntity
  8
IMPORT_IGES
100
AcDbPolyline
 62
7
  6
CONTINUOUS
 90
34
 70
0
 10
33.0402381094
 20
23.0835337509
 10
33.1648595312
 20
23.0087428338
 10
33.289118444
 20
22.9272813089
 10
33.4127340007
 20
22.8393396207
 10
33.5354210599
 20
22.7451221687
 10
33.6569088223
 20
22.6448483892
 10
33.7769412301
 20
22.5387511716
 10
33.8952483632
 20
22.4270752258
 10
34.0115630366
 20
22.3100764576
 10
34.1256388563
 20
22.1880212125
 10
34.2372196807
 20
22.0611885837
 10
34.346053405
 20
21.9298672183
 10
34.4519074743
 20
21.7943520174
 10
34.5545443915
 20
21.6549508258
 10
34.6537317101
 20
21.5119797801
 10
34.7492544026
 20
21.3657579036
 10
34.8408974728
 20
21.2166169572
 10
34.9284532637
 20
21.064893738
 10
35.0117296657
 20
20.9109236969
 10
35.0905388762
 20
20.7550550817
 10
35.1647011305
 20
20.5976399768
 10
35.234050021
 20
20.4390254533
 10
35.2984280582
 20
20.2795708908
 10
35.3576874356
 20
20.1196358615
 10
35.4116913687
 20
19.959570491
 10
35.4603160805
 20
19.7997374566
 10
35.5034479217
 20
19.6404980362
 10
35.5409815101
 20
19.4821998746
 10
35.5728290858
 20
19.3252023907
 10
35.598913544
 20
19.1698615083
 10
35.6191626865
 20
19.0165161065
 10
35.6335223976
 20
18.865510603
 10
35.6419578228
 20
18.7171938143
 10
35.6444445108
 20
18.5719041041
  0
LWPOLYLINE
  5
2B0
100
AcDbEntity
  8
IMPORT_IGES
100
AcDbPolyline
 62
7
  6
CONTINUOUS
 90
31
 70
0
 10
33.502841505
 20
22.1465702555
 10
33.5852505503
 20
22.0964257795
 10
33.666933786
 20
22.0418177809
 10
33.7478912121
 20
21.9827462597
 10
33.8283348189
 20
21.9190211469
 10
33.9080526162
 20
21.8508325115
 10
33.9864086331
 20
21.7787505606
 10
34.0633909595
 20
21.7027474031
 10
34.1390115056
 20
21.6228509301
 10
34.2126700311
 20
21.5397150222
 10
34.28435074
 20
21.4533164357
 10
34.3540694282
 20
21.3636784142
 10
34.4212732438
 20
21.2715245688
 10
34.4859428063
 20
21.1768366153
 10
34.5480974961
 20
21.079632838
 10
34.6072426018
 20
20.9806917004
 10
34.66335549
 20
20.8800001368
 10
34.7164587941
 20
20.7775712129
 10
34.7661257027
 20
20.6742225894
 10
34.8123306897
 20
20.5699466269
 10
34.8550992813
 20
20.4647509648
 10
34.8940812443
 20
20.3594761813
 10
34.9292485499
 20
20.2541202208
 10
34.960629227
 20
20.1486851389
 10
34.9879571294
 20
20.0440176806
 10
35.0112021462
 20
19.940121479
 10
35.0303943884
 20
19.836992901
 10
35.0453580422
 20
19.7354677912
 10
35.0560345031
 20
19.6358247646
 10
35.0624823756
 20
19.5377852062
 10
35.0647016598
 20
19.441349116
  0
LINE
  5
2B1
100
AcDbEntity
  8
IMPORT_IGES
100
AcDbLine
 62
7
  6
CONTINUOUS
 10
39.3644064176
 20
33.3892148443
 11
39.3644064176
 21
33.3394982687
  0
LWPOLYLINE
  5
2B2
100
AcDbEntity
  8
IMPORT_IGES
100
AcDbPolyline
 62
250
  6
CONTINUOUS
 90
40
 70
0
 10
-47.1012342868
 20
71.550332527
 10
-47.282274403
 20
71.6499375776
 10
-47.4617563719
 20
71.7403761548
 10
-47.6396757183
 20
71.8216505141
 10
-47.81619659
 20
71.8937528906
 10
-47.9911449398
 20
71.956696092
 10
-48.1640099491
 20
72.0105127531
 10
-48.3347912157
 20
72.0552200255
 10
-48.5034797767
 20
72.0908055916
 10
-48.6695528341
 20
72.1172574548
 10
-48.8331405736
 20
72.1345321504
 10
-48.9941025753
 20
72.1426784604
 10
-49.1515115252
 20
72.1418220885
 10
-49.3052148313
 20
72.1319599141
 10
-49.4553543331
 20
72.1131008709
 10
-49.601445574
 20
72.0853881887
 10
-49.7435251723
 20
72.0488780231
 10
-49.8815485709
 20
72.0035185259
 10
-50.0149117846
 20
71.9492897537
 10
-50.1436236051
 20
71.8861001885
 10
-50.2676710997
 20
71.8140436324
 10
-50.3864208752
 20
71.7333764164
 10
-50.4998198296
 20
71.6439811918
 10
-50.6079242574
 20
71.545973408
 10
-50.7102686664
 20
71.4399565191
 10
-50.8068304771
 20
71.325930867
 10
-50.8976386291
 20
71.2038926738
 10
-50.9823074887
 20
71.0744378918
 10
-51.0608604132
 20
70.9374772935
 10
-51.1332789513
 20
70.7930976768
 10
-51.1991168204
 20
70.6421579967
 10
-51.2583300467
 20
70.4846761526
 10
-51.3109688645
 20
70.3206311994
 10
-51.3567305993
 20
70.1508226574
 10
-51.3955994192
 20
69.9752394699
 10
-51.4275989609
 20
69.7938888851
 10
-51.4524881119
 20
69.6075966572
 10
-51.4701906071
 20
69.4166359785
 10
-51.4807937732
 20
69.2207281344
 10
-51.4843034422
 20
69.0198701956
  0
LWPOLYLINE
  5
2B3
100
AcDbEntity
  8
IMPORT_IGES
100
AcDbPolyline
 62
250
  6
CONTINUOUS
 90
38
 70
0
 10
-46.9625066212
 20
71.791815016
 10
-47.0577009859
 20
71.8454532025
 10
-47.1528618432
 20
71.8967528732
 10
-47.2479471781
 20
71.94569141
 10
-47.3429211437
 20
71.9922492908
 10
-47.4377356771
 20
72.0364036716
 10
-47.5323306271
 20
72.0781297446
 10
-47.6266645687
 20
72.1174103947
 10
-47.7206958704
 20
72.1542295048
 10
-47.8143645705
 20
72.188567896
 10
-47.9076257183
 20
72.2204116489
 10
-48.0004428108
 20
72.249750895
 10
-48.09276916
 20
72.2765758027
 10
-48.1845548668
 20
72.3008750017
 10
-48.2757702894
 20
72.3226437932
 10
-48.3663991839
 20
72.3418822108
 10
-48.4563982266
 20
72.3585819645
 10
-48.5457320587
 20
72.3727374029
 10
-48.6343955303
 20
72.3843489087
 10
-48.7223519277
 20
72.3934093294
 10
-48.8095591777
 20
72.3999119155
 10
-48.8960028977
 20
72.4038537715
 10
-48.9816601625
 20
72.4052284645
 10
-49.0664747769
 20
72.4040295684
 10
-49.1503828063
 20
72.4002555734
 10
-49.2333648639
 20
72.3939038138
 10
-49.3153643171
 20
72.3849749597
 10
-49.3962655465
 20
72.373483665
 10
-49.4760277963
 20
72.3594410914
 10
-49.554625113
 20
72.3428571675
 10
-49.6319702245
 20
72.3237589828
 10
-49.7080221856
 20
72.3021683497
 10
-49.7827642122
 20
72.2781018439
 10
-49.8561496245
 20
72.2515873042
 10
-49.9281310892
 20
72.2226567762
 10
-49.998705193
 20
72.1913267824
 10
-50.0678907265
 20
72.1576003251
 10
-50.1356397252
 20
72.1215106379
  0
LINE
  5
2B4
100
AcDbEntity
  8
IMPORT_IGES
100
AcDbLine
 62
250
  6
CONTINUOUS
 10
-40.1827901642
 20
67.9264009082
 11
-36.7812424318
 21
66.0007836667
  0
LINE
  5
2B5
100
AcDbEntity
  8
IMPORT_IGES
100
AcDbLine
 62
250
  6
CONTINUOUS
 10
-37.0573807006
 20
65.8441709339
 11
-32.5426755366
 21
63.2859170504
  0
LINE
  5
2B6
100
AcDbEntity
  8
IMPORT_IGES
100
AcDbLine
 62
250
  6
CONTINUOUS
 10
-36.7812424318
 20
66.0007836667
 11
-31.6851342133
 21
63.1085899614
  0
LINE
  5
2B7
100
AcDbEntity
  8
IMPORT_IGES
100
AcDbLine
 62
250
  6
CONTINUOUS
 10
-32.5426755366
 20
63.2859170504
 11
-27.7394571301
 21
60.5575837042
  0
LWPOLYLINE
  5
2B8
100
AcDbEntity
  8
IMPORT_IGES
100
AcDbPolyline
 62
250
  6
CONTINUOUS
 90
11
 70
0
 10
-27.7394571301
 20
60.5575837042
 10
-22.6264264871
 20
57.6490807238
 10
-19.9299445
 20
56.1129073915
 10
-17.1146808714
 20
54.5064688696
 10
-14.2007952723
 20
52.8401863152
 10
-11.2258148648
 20
51.134372795
 10
-8.161537999
 20
49.3715704733
 10
-5.0382636842
 20
47.5678252586
 10
-1.9798065156
 20
45.7946913102
 10
0.9894038942
 20
44.0677092869
 10
3.8958790338
 20
42.3727342402
  0
LINE
  5
2B9
100
AcDbEntity
  8
IMPORT_IGES
100
AcDbLine
 62
250
  6
CONTINUOUS
 10
-31.6851342133
 20
63.1085899614
 11
-26.5947341753
 21
60.212932646
  0
LINE
  5
2BA
100
AcDbEntity
  8
IMPORT_IGES
100
AcDbLine
 62
250
  6
CONTINUOUS
 10
-26.5947341753
 20
60.212932646
 11
-21.5325231663
 21
57.3292332109
  0
LINE
  5
2BB
100
AcDbEntity
  8
IMPORT_IGES
100
AcDbLine
 62
250
  6
CONTINUOUS
 10
-21.5325231663
 20
57.3292332109
 11
-18.160494962
 21
55.4050941768
  0
LINE
  5
2BC
100
AcDbEntity
  8
IMPORT_IGES
100
AcDbLine
 62
250
  6
CONTINUOUS
 10
-18.160494962
 20
55.4050941768
 11
-14.7920504244
 21
53.4788038219
  0
LWPOLYLINE
  5
2BD
100
AcDbEntity
  8
IMPORT_IGES
100
AcDbPolyline
 62
250
  6
CONTINUOUS
 90
5
 70
0
 10
-46.9625066212
 20
71.791815016
 10
-45.2710508157
 20
70.8233549061
 10
-43.5774263865
 20
69.8562100836
 10
-41.8816333335
 20
68.8903805484
 10
-40.1827901642
 20
67.9264009082
  0
LWPOLYLINE
  5
2BE
100
AcDbEntity
  8
IMPORT_IGES
100
AcDbPolyline
 62
250
  6
CONTINUOUS
 90
5
 70
0
 10
-47.1012343545
 20
71.5503325502
 10
-45.2394856712
 20
70.4833681906
 10
-43.302796869
 20
69.3800354249
 10
-41.2922893755
 20
68.2396102972
 10
-37.0573807006
 20
65.8441709339
  0
LINE
  5
2BF
100
AcDbEntity
  8
IMPORT_IGES
100
AcDbLine
 62
250
  6
CONTINUOUS
 10
-14.7920504244
 20
53.4788038219
 11
-11.4279721323
 21
51.5498944871
  0
LWPOLYLINE
  5
2C0
100
AcDbEntity
  8
IMPORT_IGES
100
AcDbPolyline
 62
250
  6
CONTINUOUS
 90
3
 70
0
 10
-11.4279721323
 20
51.5498944871
 10
-8.0677897396
 20
49.6165097986
 10
-6.3926753161
 20
48.6500462652
  0
LINE
  5
2C1
100
AcDbEntity
  8
IMPORT_IGES
100
AcDbLine
 62
7
  6
CONTINUOUS
 10
-38.0432878408
 20
72.8511088008
 11
34.953400233
 21
30.7037359704
  0
LINE
  5
2C2
100
AcDbEntity
  8
IMPORT_IGES
100
AcDbLine
 62
7
  6
CONTINUOUS
 10
35.0445822498
 20
30.8950025099
 11
-37.6692631067
 21
72.8790655002
  0
LINE
  5
2C3
100
AcDbEntity
  8
IMPORT_IGES
100
AcDbLine
 62
250
  6
CONTINUOUS
 10
-6.3926753161
 20
48.6500462652
 11
-3.0591763792
 21
46.721007606
  0
LINE
  5
2C4
100
AcDbEntity
  8
IMPORT_IGES
100
AcDbLine
 62
250
  6
CONTINUOUS
 10
-3.0591763792
 20
46.721007606
 11
0.2668462885
 21
44.7896360724
  0
LINE
  5
2C5
100
AcDbEntity
  8
IMPORT_IGES
100
AcDbLine
 62
250
  6
CONTINUOUS
 10
0.2668462885
 20
44.7896360724
 11
3.588720482
 21
42.8547181982
  0
LINE
  5
2C6
100
AcDbEntity
  8
IMPORT_IGES
100
AcDbLine
 62
250
  6
CONTINUOUS
 10
3.588720482
 20
42.8547181982
 11
6.906783677
 21
40.9175308022
  0
LINE
  5
2C7
100
AcDbEntity
  8
IMPORT_IGES
100
AcDbLine
 62
250
  6
CONTINUOUS
 10
3.8958790338
 20
42.3727342402
 11
8.587647667
 21
39.6291975231
  0
LINE
  5
2C8
100
AcDbEntity
  8
IMPORT_IGES
100
AcDbLine
 62
250
  6
CONTINUOUS
 10
6.906783677
 20
40.9175308022
 11
11.8809737717
 21
38.0079047794
  0
LINE
  5
2C9
100
AcDbEntity
  8
IMPORT_IGES
100
AcDbLine
 62
250
  6
CONTINUOUS
 10
8.587647667
 20
39.6291975231
 11
14.3958341621
 21
36.2255893067
  0
LINE
  5
2CA
100
AcDbEntity
  8
IMPORT_IGES
100
AcDbLine
 62
250
  6
CONTINUOUS
 10
11.8809737717
 20
38.0079047794
 11
18.478817918
 21
34.1417340055
  0
LWPOLYLINE
  5
2CB
100
AcDbEntity
  8
IMPORT_IGES
100
AcDbPolyline
 62
250
  6
CONTINUOUS
 90
3
 70
0
 10
14.3958341621
 20
36.2255893067
 10
19.0788484295
 20
33.4768931855
 10
21.3003714342
 20
32.1706786867
  0
LWPOLYLINE
  5
2CC
100
AcDbEntity
  8
IMPORT_IGES
100
AcDbPolyline
 62
250
  6
CONTINUOUS
 90
4
 70
0
 10
27.5265861616
 20
28.501978147
 10
29.4689823511
 20
27.3605733157
 10
31.3475908348
 20
26.2615941838
 10
33.1635217784
 20
25.2057284995
  0
LINE
  5
2CD
100
AcDbEntity
  8
IMPORT_IGES
100
AcDbLine
 62
250
  6
CONTINUOUS
 10
18.478817918
 20
34.1417340055
 11
23.4160229013
 21
31.2411015983
  0
LWPOLYLINE
  5
2CE
100
AcDbEntity
  8
IMPORT_IGES
100
AcDbPolyline
 62
250
  6
CONTINUOUS
 90
6
 70
0
 10
23.4160229013
 20
31.2411015983
 10
26.7034076349
 20
29.3049341289
 10
28.3491382354
 20
28.3380517508
 10
29.9980408863
 20
27.3730397861
 10
31.6492089737
 20
26.4093634802
 10
33.3026424975
 20
25.4470228332
  0
LINE
  5
2CF
100
AcDbEntity
  8
IMPORT_IGES
100
AcDbLine
 62
250
  6
CONTINUOUS
 10
21.3003714342
 20
32.1706786867
 11
27.5265861616
 21
28.501978147
  0
LWPOLYLINE
  5
2D0
100
AcDbEntity
  8
IMPORT_IGES
100
AcDbPolyline
 62
250
  6
CONTINUOUS
 90
16
 70
0
 10
35.702311488
 20
22.7893947824
 10
35.5505531885
 20
22.9962236
 10
35.3955351143
 20
23.1972418168
 10
35.2372534403
 20
23.3924470882
 10
35.0753723457
 20
23.582148101
 10
34.9102206857
 20
23.7660317874
 10
34.7427907517
 20
23.9431627184
 10
34.5731374961
 20
24.1134624121
 10
34.4011972379
 20
24.2770040678
 10
34.2277824538
 20
24.4330788694
 10
34.0529428727
 20
24.5816485106
 10
33.8766184659
 20
24.7227452404
 10
33.6994553309
 20
24.8557652322
 10
33.5216642757
 20
24.980504638
 10
33.3430216373
 20
25.0971599778
 10
33.1635206677
 20
25.2057274155
  0
LINE
  5
2D1
100
AcDbEntity
  8
IMPORT_IGES
100
AcDbLine
 62
7
  6
CONTINUOUS
 10
47.8324213296
 20
23.1985776408
 11
47.8324213296
 21
-69.4813363711
  0
LWPOLYLINE
  5
2D2
100
AcDbEntity
  8
IMPORT_IGES
100
AcDbPolyline
 62
7
  6
CONTINUOUS
 90
21
 70
0
 10
47.8324213296
 20
-69.4813363711
 10
47.8285450529
 20
-69.6981244116
 10
47.817117078
 20
-69.9094379305
 10
47.7981374049
 20
-70.1152769276
 10
47.771546877
 20
-70.3159488632
 10
47.7374046509
 20
-70.5111462772
 10
47.6958881971
 20
-70.6999467889
 10
47.6469644579
 20
-70.8823197462
 10
47.5906664911
 20
-71.0582958013
 10
47.5272709399
 20
-71.2270445304
 10
47.4567494451
 20
-71.3885292142
 10
47.379130366
 20
-71.542786572
 10
47.2947754225
 20
-71.6890963379
 10
47.203645787
 20
-71.8274340008
 10
47.1057802872
 20
-71.9578240718
 10
47.0016571262
 20
-72.0796198177
 10
46.8912445031
 20
-72.1927767992
 10
46.7745742187
 20
-72.2973394557
 10
46.652219879
 20
-72.3927943722
 10
46.524155691
 20
-72.479094241
 10
46.4171566768
 20
-72.5418644778
  0
LINE
  5
2D3
100
AcDbEntity
  8
IMPORT_IGES
100
AcDbLine
 62
7
  6
CONTINUOUS
 10
39.3644064176
 20
33.3892148443
 11
-33.3494389388
 21
75.3732778346
  0
LINE
  5
2D4
100
AcDbEntity
  8
IMPORT_IGES
100
AcDbLine
 62
7
  6
CONTINUOUS
 10
-37.1253891553
 20
77.6699077358
 11
-33.4908603
 21
75.5713763261
  0
LINE
  5
2D5
100
AcDbEntity
  8
IMPORT_IGES
100
AcDbLine
 62
7
  6
CONTINUOUS
 10
39.5058277739
 20
33.4240034957
 11
43.1403566292
 21
31.325472086
  0
LWPOLYLINE
  5
2D6
100
AcDbEntity
  8
IMPORT_IGES
100
AcDbPolyline
 62
7
  6
CONTINUOUS
 90
40
 70
0
 10
43.1403566292
 20
31.325472086
 10
43.3300449537
 20
31.2114726301
 10
43.5187682647
 20
31.0893106919
 10
43.706526562
 20
30.9589862716
 10
43.8936157039
 20
30.820260238
 10
44.0797398322
 20
30.6733717222
 10
44.2640113724
 20
30.5190381172
 10
44.4464203085
 20
30.3572270357
 10
44.6269766564
 20
30.187970865
 10
44.80482289
 20
30.0120841598
 10
44.9799413893
 20
29.8295443485
 10
45.1523497741
 20
29.6403740028
 10
45.3212433784
 20
29.4454553917
 10
45.48662039
 20
29.2447447288
 10
45.6484826209
 20
29.0382858005
 10
45.8060308413
 20
28.8270922359
 10
45.9592424662
 20
28.6111403557
 10
46.1081400805
 20
28.3904538393
 10
46.2519922089
 20
28.1661173528
 10
46.390770778
 20
27.9381173235
 10
46.5245038611
 20
27.7064673241
 10
46.6525442025
 20
27.4722927401
 10
46.7748641512
 20
27.2355809997
 10
46.8914913581
 20
26.9963446746
 10
47.001861521
 20
26.7557468659
 10
47.1059444402
 20
26.5137792665
 10
47.2037703154
 20
26.2704501836
 10
47.2948654433
 20
26.026947639
 10
47.3791926672
 20
25.7832893184
 10
47.4567891438
 20
25.5394575362
 10
47.5272926392
 20
25.2965872572
 10
47.5906751715
 20
25.0546739744
 10
47.6469647225
 20
24.8137221949
 10
47.695883004
 20
24.5748804048
 10
47.7373971834
 20
24.3381558317
 10
47.7715400932
 20
24.1035412481
 10
47.7981319419
 20
23.8721634569
 10
47.817112799
 20
23.6443980591
 10
47.8285425949
 20
23.4198694537
 10
47.8324213296
 20
23.1985776408
  0
LINE
  5
2D7
100
AcDbEntity
  8
IMPORT_IGES
100
AcDbLine
 62
250
  6
CONTINUOUS
 10
51.4755513008
 20
28.1299872932
 11
51.4755513008
 21
-53.1875424441
  0
LINE
  5
2D8
100
AcDbEntity
  8
IMPORT_IGES
100
AcDbLine
 62
7
  6
CONTINUOUS
 10
51.5491384267
 20
28.2436273715
 11
51.5491384267
 21
-53.0739023658
  0
LWPOLYLINE
  5
2D9
100
AcDbEntity
  8
IMPORT_IGES
100
AcDbPolyline
 62
7
  6
CONTINUOUS
 90
19
 70
0
 10
51.5491384267
 20
-53.0739023658
 10
51.5467538941
 20
-53.1987534535
 10
51.5395996776
 20
-53.3209462008
 10
51.5276766443
 20
-53.4403060963
 10
51.5109684775
 20
-53.5567794263
 10
51.4894923078
 20
-53.6700647886
 10
51.4633475327
 20
-53.7796536597
 10
51.4325864715
 20
-53.8854272213
 10
51.3972734762
 20
-53.9872363487
 10
51.3576249029
 20
-54.0846052957
 10
51.3137899977
 20
-54.1773864523
 10
51.2658692602
 20
-54.2655580227
 10
51.2140901672
 20
-54.3488910449
 10
51.1586787748
 20
-54.4272405003
 10
51.0997526806
 20
-54.5006418899
 10
51.0374051607
 20
-54.569133382
 10
50.9717855842
 20
-54.6326743088
 10
50.9031092828
 20
-54.6911756257
 10
50.8315726294
 20
-54.7445911513
  0
LWPOLYLINE
  5
2DA
100
AcDbEntity
  8
IMPORT_IGES
100
AcDbPolyline
 62
250
  6
CONTINUOUS
 90
17
 70
0
 10
51.4755513008
 20
-53.1875424441
 10
51.4727324787
 20
-53.3226452919
 10
51.4642823981
 20
-53.4541869833
 10
51.450220201
 20
-53.5818695341
 10
51.4305777429
 20
-53.705403702
 10
51.4053995203
 20
-53.8245096426
 10
51.3747425699
 20
-53.9389175426
 10
51.3386763396
 20
-54.0483682312
 10
51.297282531
 20
-54.1526137675
 10
51.2506549144
 20
-54.2514180019
 10
51.1988991163
 20
-54.3445571108
 10
51.1421323802
 20
-54.4318201043
 10
51.0804833012
 20
-54.5130093037
 10
51.0140915341
 20
-54.5879407893
 10
50.9431074777
 20
-54.6564448171
 10
50.8676919337
 20
-54.7183662036
 10
50.8315726294
 20
-54.7445911513
  0
LWPOLYLINE
  5
2DB
100
AcDbEntity
  8
IMPORT_IGES
100
AcDbPolyline
 62
250
  6
CONTINUOUS
 90
10
 70
0
 10
51.5491384267
 20
-53.0739023658
 10
51.5487859293
 20
-53.0822968367
 10
51.5465337768
 20
-53.0966781297
 10
51.5422148686
 20
-53.110901142
 10
51.5358592192
 20
-53.1248670305
 10
51.5275109972
 20
-53.1384787389
 10
51.5172282188
 20
-53.1516416723
 10
51.5050823444
 20
-53.1642643547
 10
51.4911577821
 20
-53.1762590645
 10
51.4755513008
 20
-53.1875424441
  0
LWPOLYLINE
  5
2DC
100
AcDbEntity
  8
IMPORT_IGES
100
AcDbPolyline
 62
250
  6
CONTINUOUS
 90
10
 70
0
 10
49.1220882629
 20
32.4474099329
 10
49.1146354094
 20
32.45130527
 10
49.1010555705
 20
32.4565441054
 10
49.08657942
 20
32.4599139528
 10
49.0713075602
 20
32.4613913936
 10
49.0553461234
 20
32.4609661601
 10
49.0388060339
 20
32.4586412075
 10
49.0218022373
 20
32.4544326931
 10
49.004452902
 20
32.4483698641
 10
48.9868785975
 20
32.4404948542
  0
LINE
  5
2DD
100
AcDbEntity
  8
IMPORT_IGES
100
AcDbLine
 62
250
  6
CONTINUOUS
 10
-21.4384367397
 20
73.1031892934
 11
48.9868785975
 21
32.4404948542
  0
LINE
  5
2DE
100
AcDbEntity
  8
IMPORT_IGES
100
AcDbLine
 62
7
  6
CONTINUOUS
 10
-21.3032270743
 20
73.1101043721
 11
49.1220882629
 21
32.4474099329
  0
LINE
  5
2DF
100
AcDbEntity
  8
IMPORT_IGES
100
AcDbLine
 62
250
  6
CONTINUOUS
 10
48.9868785975
 20
32.4404948542
 11
49.1052944126
 21
32.3688682562
  0
LWPOLYLINE
  5
2E0
100
AcDbEntity
  8
IMPORT_IGES
100
AcDbPolyline
 62
7
  6
CONTINUOUS
 90
34
 70
0
 10
49.1220882629
 20
32.4474099329
 10
49.2408991493
 20
32.3755441782
 10
49.3588780971
 20
32.2976708247
 10
49.4758129224
 20
32.2139834815
 10
49.5915342153
 20
32.1246492025
 10
49.7057975752
 20
32.0298976169
 10
49.8182783277
 20
31.9300478745
 10
49.9287269643
 20
31.8253820417
 10
50.0369923415
 20
31.7161003421
 10
50.1428931196
 20
31.6024335849
 10
50.2462286884
 20
31.4846407417
 10
50.3468138396
 20
31.362973609
 10
50.4444859362
 20
31.2376634252
 10
50.5390585881
 20
31.1089784215
 10
50.6303537126
 20
30.977187166
 10
50.7182201061
 20
30.8425279199
 10
50.8024856665
 20
30.7052780869
 10
50.8829843928
 20
30.5657183551
 10
50.9595760617
 20
30.4240949957
 10
51.0321041397
 20
30.2806927076
 10
51.100417509
 20
30.1358007333
 10
51.1643881332
 20
29.98967169
 10
51.2238767441
 20
29.842593437
 10
51.2787481989
 20
29.6948615777
 10
51.3288865837
 20
29.5467357048
 10
51.3741715709
 20
29.3984999511
 10
51.4144840439
 20
29.2504561696
 10
51.449718577
 20
29.1028805384
 10
51.4797756229
 20
28.9560417135
 10
51.5045523892
 20
28.8102514858
 10
51.5239542262
 20
28.6658325326
 10
51.537900508
 20
28.5230737974
 10
51.5463182291
 20
28.3822446459
 10
51.5491384267
 20
28.2436273715
  0
LWPOLYLINE
  5
2E1
100
AcDbEntity
  8
IMPORT_IGES
100
AcDbPolyline
 62
250
  6
CONTINUOUS
 90
33
 70
0
 10
49.1052944126
 20
32.3688682562
 10
49.2234419778
 20
32.2908943345
 10
49.3410536508
 20
32.2067497251
 10
49.4578630034
 20
32.1166250426
 10
49.5736054249
 20
32.0207244485
 10
49.6880187214
 20
31.9192651883
 10
49.8008437099
 20
31.8124771
 10
49.9118248058
 20
31.700602093
 10
50.0207106009
 20
31.5838936
 10
50.1272544341
 20
31.4626160034
 10
50.2312149492
 20
31.337044036
 10
50.3323566422
 20
31.2074621586
 10
50.4304503947
 20
31.0741639159
 10
50.5252739928
 20
30.9374512712
 10
50.6166126305
 20
30.7976339227
 10
50.7042593965
 20
30.6550286016
 10
50.7880157426
 20
30.5099583549
 10
50.8676919337
 20
30.3627518133
 10
50.9431074777
 20
30.213742447
 10
51.0140915341
 20
30.0632678101
 10
51.0804833012
 20
29.9116687761
 10
51.1421323802
 20
29.7592887655
 10
51.1988991163
 20
29.6064729681
 10
51.2506549144
 20
29.4535675608
 10
51.297282531
 20
29.3009189236
 10
51.3386763396
 20
29.1488728547
 10
51.3747425699
 20
28.9977737873
 10
51.4053995203
 20
28.8479640095
 10
51.4305777429
 20
28.6997828885
 10
51.450220201
 20
28.5535661023
 10
51.4642823981
 20
28.4096448789
 10
51.4727324787
 20
28.2683452462
 10
51.4755513008
 20
28.1299872932
  0
LINE
  5
2E2
100
AcDbEntity
  8
IMPORT_IGES
100
AcDbLine
 62
7
  6
CONTINUOUS
 10
50.8315726294
 20
-54.7445911513
 11
47.8324213296
 21
-56.8370222132
  0
LINE
  5
2E3
100
AcDbEntity
  8
IMPORT_IGES
100
AcDbLine
 62
250
  6
CONTINUOUS
 10
51.4755513008
 20
-53.1875424441
 11
47.8324213296
 21
-55.6073396119
  0
LWPOLYLINE
  5
2E4
100
AcDbEntity
  8
IMPORT_IGES
100
AcDbPolyline
 62
250
  6
CONTINUOUS
 90
16
 70
0
 10
36.7169577495
 20
-77.5299190056
 10
36.8191615709
 20
-77.4139410732
 10
36.9147790383
 20
-77.290302955
 10
37.0038107885
 20
-77.1590043
 10
37.0863584802
 20
-77.0197226008
 10
37.1623203515
 20
-76.8727805263
 10
37.2313892803
 20
-76.7191471653
 10
37.2935258935
 20
-76.5588733055
 10
37.348761574
 20
-76.3919133262
 10
37.3968912605
 20
-76.2190942997
 10
37.437904774
 20
-76.040482453
 10
37.4717974541
 20
-75.8560210447
 10
37.4983691555
 20
-75.6663548293
 10
37.5175457749
 20
-75.4717034247
 10
37.5293803773
 20
-75.2718605914
 10
37.5338616172
 20
-75.066833529
  0
LWPOLYLINE
  5
2E5
100
AcDbEntity
  8
IMPORT_IGES
100
AcDbPolyline
 62
7
  6
CONTINUOUS
 90
16
 70
0
 10
34.1353975209
 20
-74.2934728702
 10
34.1915418254
 20
-74.2575811848
 10
34.2445482437
 20
-74.2165484769
 10
34.2942248177
 20
-74.1705105747
 10
34.340434922
 20
-74.1195903027
 10
34.3830496592
 20
-74.0639248738
 10
34.4219528803
 20
-74.0036559979
 10
34.4570348084
 20
-73.9389437521
 10
34.4881946285
 20
-73.8699614276
 10
34.5153411406
 20
-73.7968848393
 10
34.5383937564
 20
-73.7199083933
 10
34.5572821074
 20
-73.6392382245
 10
34.5719427156
 20
-73.5550807675
 10
34.5823242719
 20
-73.4676577229
 10
34.5883901071
 20
-73.3772074337
 10
34.5901139221
 20
-73.2839742415
  0
LINE
  5
2E6
100
AcDbEntity
  8
IMPORT_IGES
100
AcDbLine
 62
250
  6
CONTINUOUS
 10
35.0647016598
 20
-73.0099532298
 11
34.5901139221
 21
-73.2839742415
  0
LINE
  5
2E7
100
AcDbEntity
  8
IMPORT_IGES
100
AcDbLine
 62
7
  6
CONTINUOUS
 10
34.6072967767
 20
-74.0210041542
 11
34.135397533
 21
-74.2934728632
  0
LINE
  5
2E8
100
AcDbEntity
  8
IMPORT_IGES
100
AcDbLine
 62
250
  6
CONTINUOUS
 10
33.502841505
 20
-75.1156423102
 11
33.0391551772
 21
-75.3833689846
  0
LWPOLYLINE
  5
2E9
100
AcDbEntity
  8
IMPORT_IGES
100
AcDbPolyline
 62
250
  6
CONTINUOUS
 90
38
 70
0
 10
36.5232778955
 20
-77.9738165529
 10
36.5880285455
 20
-77.933093483
 10
36.6514297451
 20
-77.8899602813
 10
36.7134333495
 20
-77.8444413518
 10
36.7740581174
 20
-77.7965117026
 10
36.8332884934
 20
-77.7461662153
 10
36.8910732817
 20
-77.6934304964
 10
36.9473752833
 20
-77.6383223961
 10
37.0021719265
 20
-77.5808469464
 10
37.0554229712
 20
-77.5210287164
 10
37.1070687572
 20
-77.4589211974
 10
37.1570869917
 20
-77.3945402696
 10
37.2054464464
 20
-77.3279147156
 10
37.252082294
 20
-77.259128515
 10
37.2969635688
 20
-77.1882296568
 10
37.3400819801
 20
-77.1152335177
 10
37.3814130245
 20
-77.0401829635
 10
37.4209340275
 20
-76.9631231053
 10
37.4586343264
 20
-76.8840787581
 10
37.4945078181
 20
-76.8030627896
 10
37.5285433365
 20
-76.7200970539
 10
37.56071938
 20
-76.6352302896
 10
37.5910150763
 20
-76.5485163902
 10
37.6194202299
 20
-76.4599854736
 10
37.6459197196
 20
-76.3696854095
 10
37.6704904024
 20
-76.2777014833
 10
37.6931274663
 20
-76.1840655006
 10
37.7138210406
 20
-76.0888328144
 10
37.7325494595
 20
-75.9921316008
 10
37.7493134811
 20
-75.8940073388
 10
37.7641133357
 20
-75.7945130613
 10
37.7769385492
 20
-75.6937971648
 10
37.7877974078
 20
-75.5919161809
 10
37.7966995607
 20
-75.4889216467
 10
37.8036487797
 20
-75.384962266
 10
37.8086597758
 20
-75.2801271239
 10
37.811752368
 20
-75.1744416815
 10
37.8129444233
 20
-75.0679621947
  0
LINE
  5
2EA
100
AcDbEntity
  8
IMPORT_IGES
100
AcDbLine
 62
250
  6
CONTINUOUS
 10
36.4688691992
 20
-78.005631494
 11
36.5232778955
 21
-77.9738165529
  0
LINE
  5
2EB
100
AcDbEntity
  8
IMPORT_IGES
100
AcDbLine
 62
7
  6
CONTINUOUS
 10
36.447741267
 20
-78.0174362895
 11
36.4688691992
 21
-78.005631494
  0
LINE
  5
2EC
100
AcDbEntity
  8
IMPORT_IGES
100
AcDbLine
 62
250
  6
CONTINUOUS
 10
47.8324213296
 20
-69.4813363711
 11
37.8129444233
 21
-75.0679621947
  0
LINE
  5
2ED
100
AcDbEntity
  8
IMPORT_IGES
100
AcDbLine
 62
7
  6
CONTINUOUS
 10
36.4452346313
 20
-78.0188152813
 11
46.4171088108
 21
-72.5418907679
  0
LWPOLYLINE
  5
2EE
100
AcDbEntity
  8
IMPORT_IGES
100
AcDbPolyline
 62
7
  6
CONTINUOUS
 90
18
 70
0
 10
34.8828080798
 20
-75.5648145778
 10
34.835942394
 20
-75.5905273407
 10
34.7432179099
 20
-75.6340010923
 10
34.6464928128
 20
-75.6699608877
 10
34.5460542995
 20
-75.6982965108
 10
34.4423244998
 20
-75.7189201702
 10
34.3356332237
 20
-75.7318256469
 10
34.2261782787
 20
-75.7370465446
 10
34.1142094243
 20
-75.7346219425
 10
33.9999853975
 20
-75.7246012094
 10
33.8837889703
 20
-75.707052164
 10
33.7659100782
 20
-75.6820694712
 10
33.6466164234
 20
-75.6497555729
 10
33.5261923747
 20
-75.6102329872
 10
33.4049558103
 20
-75.5636634744
 10
33.2831963018
 20
-75.5102159397
 10
33.1611728124
 20
-75.4500557722
 10
33.0391551772
 20
-75.3833689846
  0
LWPOLYLINE
  5
2EF
100
AcDbEntity
  8
IMPORT_IGES
100
AcDbPolyline
 62
250
  6
CONTINUOUS
 90
19
 70
0
 10
37.8129444236
 20
-75.0679621946
 10
37.8001007783
 20
-75.0744947082
 10
37.7863403135
 20
-75.0803632129
 10
37.7718437565
 20
-75.0855013204
 10
37.7569585286
 20
-75.0898250724
 10
37.7417591658
 20
-75.0933639758
 10
37.72596201
 20
-75.096194339
 10
37.7096249847
 20
-75.0982808209
 10
37.6930048934
 20
-75.0995743727
 10
37.6760555583
 20
-75.1000618078
 10
37.6589280531
 20
-75.09971247
 10
37.6418398283
 20
-75.098513368
 10
37.6248518555
 20
-75.0964527278
 10
37.6082104816
 20
-75.0935477024
 10
37.5920636911
 20
-75.0898220082
 10
37.5763637073
 20
-75.085248508
 10
37.561256825
 20
-75.0798366198
 10
37.5470297758
 20
-75.0736703912
 10
37.5338616172
 20
-75.066833529
  0
ENDSEC
  0
SECTION
  2
OBJECTS
  0
DICTIONARY
  5
C
100
AcDbDictionary
280
0
281
1
  3
ACAD_GROUP
350
D
  3
ACAD_MLINESTYLE
350
17
  3
ACAD_LAYOUT
350
1A
  3
ACAD_PLOTSETTINGS
350
19
  3
ACAD_PLOTSTYLENAME
350
E
  0
DICTIONARY
  5
D
102
{ACAD_REACTORS
330
C
102
}
100
AcDbDictionary
280
0
281
1
  0
ACDBDICTIONARYWDFLT
  5
E
102
{ACAD_REACTORS
330
C
102
}
100
AcDbDictionary
281
1
  3
Normal
350
F
100
AcDbDictionaryWithDefault
340
F
  0
DICTIONARY
  5
17
102
{ACAD_REACTORS
330
C
102
}
100
AcDbDictionary
280
0
281
1
  3
Standard
350
18
  0
DICTIONARY
  5
19
102
{ACAD_REACTORS
330
C
102
}
100
AcDbDictionary
281
1
  0
DICTIONARY
  5
1A
102
{ACAD_REACTORS
330
C
102
}
100
AcDbDictionary
281
1
  3
Model
350
2F0
  3
Layout1
350
2F1
  0
ACDBPLACEHOLDER
  5
F
102
{ACAD_REACTORS
330
E
102
}
  0
MLINESTYLE
  5
18
102
{ACAD_REACTORS
330
17
102
}
100
AcDbMlineStyle
  2
STANDARD
 70
0
  3

 62
256
 51
90.0
 52
90.0
 71
2
 49
0.5
 62
256
  6
BYLAYER
 49
-0.5
 62
256
  6
BYLAYER
  0
LAYOUT
  5
2F0
102
{ACAD_REACTORS
330
1A
102
}
100
AcDbPlotSettings
  1

  2
none_device
  4
ISO_A4_(297.00_x_210.00_MM)
  6

 40
0.0
 41
0.0
 42
0.0
 43
0.0
 44
297.0
 45
210.0
 46
0.0
 47
0.0
 48
0.0
 49
0.0
140
0.0
141
0.0
142
1.0
143
1.0
 70
1024
 72
1
 73
0
 74
0
  7

 75
0
147
1.0
148
0.0
149
0.0
100
AcDbLayout
  1
Model
 70
0
 71
0
 10
0.0
 20
0.0
 11
297.0
 21
210.0
 12
0.0
 22
0.0
 32
0.0
 14
0.0
 24
0.0
 34
0.0
 15
0.0
 25
0.0
 35
0.0
146
0.0
 13
0.0
 23
0.0
 33
0.0
 16
1.0
 26
0.0
 36
0.0
 17
0.0
 27
1.0
 37
0.0
 76
0
330
20E
345
0
346
0
  0
LAYOUT
  5
2F1
102
{ACAD_REACTORS
330
1A
102
}
100
AcDbPlotSettings
  1

  2
none_device
  4
ISO_A4_(297.00_x_210.00_MM)
  6

 40
0.0
 41
0.0
 42
0.0
 43
0.0
 44
297.0
 45
210.0
 46
0.0
 47
0.0
 48
0.0
 49
0.0
140
0.0
141
0.0
142
1.0
143
1.0
 70
0
 72
1
 73
0
 74
0
  7

 75
0
147
1.0
148
0.0
149
0.0
100
AcDbLayout
  1
Layout1
 70
0
 71
1
 10
0.0
 20
0.0
 11
297.0
 21
210.0
 12
0.0
 22
0.0
 32
0.0
 14
0.0
 24
0.0
 34
0.0
 15
0.0
 25
0.0
 35
0.0
146
0.0
 13
0.0
 23
0.0
 33
0.0
 16
1.0
 26
0.0
 36
0.0
 17
0.0
 27
1.0
 37
0.0
 76
0
330
20F
345
0
346
0
  0
ENDSEC
  0
EOF
