  0
SECTION
  2
HEADER
  9
$ACADVER
  1
AC1024
  9
$DWGCODEPAGE
  3
ANSI_1252
  9
$EXTMAX
 10
297.0
 20
210.0
 30
0.0
  9
$EXTMIN
 10
0.0
 20
0.0
 30
0.0
  9
$LIMMIN
 10
0.0
 20
0.0
  9
$LIMMAX
 10
297.0
 20
210.0
  9
$VIEWCTR
 10
148.5
 20
105.0
  9
$VIEWSIZE
 40
210.0
  9
$CLAYER
  8
0
  9
$LTSCALE
 40
16.335
  9
$CELTYPE
  6
BYLAYER
  9
$DIMSCALE
 40
1.0
  9
$DIMASZ
 40
3.0
  9
$DIMEXO
 40
0.5
  9
$DIMDLI
 40
11.286
  9
$DIMEXE
 40
1.5
  9
$DIMCEN
 40
2.673
  9
$DIMLFAC
 40
1.0
  9
$DIMBLK
  1
_FILLED
  9
$DIMALT
 70
0
  9
$DIMALTF
 40
0.0393700787
  9
$DIMTXT
 40
3.0
  9
$DIMTOL
 70
1
  9
$DIMLIM
 70
0
  9
$DIMTFAC
 40
1.0
  9
$DIMTP
 40
0.01
  9
$DIMTM
 40
0.01
  9
$DIMGAP
 40
0.625
  9
$DIMDSEP
 70
44
  9
$AUNITS
 70
0
  9
$PDMODE
 70
3
  9
$PDSIZE
 40
3.0
  9
$HANDSEED
  5
423
  9
$TILEMODE
 70
1
  9
$MEASUREMENT
 70
1
  9
$INSUNITS
 70
4
  0
ENDSEC
  0
SECTION
  2
CLASSES
  0
CLASS
  1
ACDBDICTIONARYWDFLT
  2
AcDbDictionaryWithDefault
  3
AutoCAD 2000
 90
0
 91
1
280
0
281
0
  0
CLASS
  1
ACDBPLACEHOLDER
  2
AcDbPlaceHolder
  3
AutoCAD 2000
 90
0
 91
1
280
0
281
0
  0
CLASS
  1
LAYOUT
  2
AcDbLayout
  3
AutoCAD 2000
 90
0
 91
0
280
0
281
0
  0
ENDSEC
  0
SECTION
  2
TABLES
  0
TABLE
  2
VPORT
  5
8
100
AcDbSymbolTable
 70
2
  0
VPORT
  5
1F4
100
AcDbSymbolTableRecord
100
AcDbViewportTableRecord
  2
*ACTIVE
 70
0
 10
0.0
 20
0.0
 11
1.0
 21
1.0
 12
148.5
 22
105.0
 13
0.0
 23
0.0
 14
1.0
 24
1.0
 15
0.0
 25
0.0
 16
0.0
 26
0.0
 36
1.0
 17
0.0
 27
0.0
 37
0.0
 40
210.0
 41
1.4142857143
 42
50.0
 43
0.0
 44
0.0
 50
0.0
 51
0.0
 71
0
 72
100
 73
1
 74
1
 75
0
 76
0
 77
0
 78
0
  0
ENDTAB
  0
TABLE
  2
LTYPE
  5
5
100
AcDbSymbolTable
 70
6
  0
LTYPE
  5
14
100
AcDbSymbolTableRecord
100
AcDbLinetypeTableRecord
  2
BYBLOCK
 70
0
  3

 72
65
 73
0
 40
0.0
  0
LTYPE
  5
15
100
AcDbSymbolTableRecord
100
AcDbLinetypeTableRecord
  2
BYLAYER
 70
0
  3

 72
65
 73
0
 40
0.0
  0
LTYPE
  5
16
100
AcDbSymbolTableRecord
100
AcDbLinetypeTableRecord
  2
CONTINUOUS
 70
64
  3
Solid line
 72
65
 73
0
 40
0.0
  0
LTYPE
  5
1F5
100
AcDbSymbolTableRecord
100
AcDbLinetypeTableRecord
  2
CENTER
 70
64
  3
____ _ ____ _ ____ _ ____ _ ____ _ ____ _ ____
 72
65
 73
4
 40
0.6
 49
0.375
 74
0
 49
-0.075
 74
0
 49
0.075
 74
0
 49
-0.075
 74
0
  0
LTYPE
  5
1F6
100
AcDbSymbolTableRecord
100
AcDbLinetypeTableRecord
  2
HIDDEN
 70
64
  3
- - - - - - - - - - - - - - - - - - - -
 72
65
 73
2
 40
0.2
 49
0.1
 74
0
 49
-0.1
 74
0
  0
LTYPE
  5
1F7
100
AcDbSymbolTableRecord
100
AcDbLinetypeTableRecord
  2
PHANTOM
 70
64
  3
_____ _ _ _____ _ _ _____ _ _ _____
 72
65
 73
6
 40
0.8
 49
0.45
 74
0
 49
-0.05
 74
0
 49
0.1
 74
0
 49
-0.05
 74
0
 49
0.1
 74
0
 49
-0.05
 74
0
  0
LTYPE
  5
1F8
100
AcDbSymbolTableRecord
100
AcDbLinetypeTableRecord
  2
DOT
 70
64
  3
. . . . . . . . . . . . . . . . . . . .
 72
65
 73
2
 40
0.2
 49
0.1
 74
0
 49
-0.1
 74
0
  0
LTYPE
  5
1F9
100
AcDbSymbolTableRecord
100
AcDbLinetypeTableRecord
  2
DASHED
 70
64
  3
- - - - - - - - - - - - - - - - - - - -
 72
65
 73
2
 40
0.2
 49
0.1
 74
0
 49
-0.1
 74
0
  0
ENDTAB
  0
TABLE
  2
LAYER
  5
2
100
AcDbSymbolTable
 70
36
  0
LAYER
  5
10
100
AcDbSymbolTableRecord
100
AcDbLayerTableRecord
  2
0
 70
0
 62
7
  6
CONTINUOUS
370
-3
390
F
  0
LAYER
  5
1FA
100
AcDbSymbolTableRecord
100
AcDbLayerTableRecord
  2
DEFAULT_1
 70
0
 62
7
  6
CENTER
370
-3
390
F
  0
LAYER
  5
1FB
100
AcDbSymbolTableRecord
100
AcDbLayerTableRecord
  2
DEFAULT_2
 70
0
 62
7
  6
HIDDEN
370
-3
390
F
  0
LAYER
  5
1FC
100
AcDbSymbolTableRecord
100
AcDbLayerTableRecord
  2
DEFAULT_3
 70
0
 62
7
  6
PHANTOM
370
-3
390
F
  0
LAYER
  5
1FD
100
AcDbSymbolTableRecord
100
AcDbLayerTableRecord
  2
ASSI
 70
0
 62
7
  6
CONTINUOUS
370
-3
390
F
  0
LAYER
  5
1FE
100
AcDbSymbolTableRecord
100
AcDbLayerTableRecord
  2
BASE_V3-H1_1
 70
0
 62
7
  6
CONTINUOUS
370
-3
390
F
  0
LAYER
  5
1FF
100
AcDbSymbolTableRecord
100
AcDbLayerTableRecord
  2
BASE_V3-H2_1
 70
0
 62
7
  6
CONTINUOUS
370
-3
390
F
  0
LAYER
  5
200
100
AcDbSymbolTableRecord
100
AcDbLayerTableRecord
  2
BASE_V3-H3_1
 70
0
 62
7
  6
CONTINUOUS
370
-3
390
F
  0
LAYER
  5
201
100
AcDbSymbolTableRecord
100
AcDbLayerTableRecord
  2
BATTERY_AA_2_1
 70
0
 62
7
  6
CONTINUOUS
370
-3
390
F
  0
LAYER
  5
202
100
AcDbSymbolTableRecord
100
AcDbLayerTableRecord
  2
BATTERY_AA_CLIP_2_002
 70
0
 62
7
  6
CONTINUOUS
370
-3
390
F
  0
LAYER
  5
203
100
AcDbSymbolTableRecord
100
AcDbLayerTableRecord
  2
BATTERY_AA_CLIP_2_002_1
 70
0
 62
7
  6
CONTINUOUS
370
-3
390
F
  0
LAYER
  5
204
100
AcDbSymbolTableRecord
100
AcDbLayerTableRecord
  2
COLOR41
 70
0
 62
7
  6
CONTINUOUS
370
-3
390
F
  0
LAYER
  5
205
100
AcDbSymbolTableRecord
100
AcDbLayerTableRecord
  2
COLOR47
 70
0
 62
7
  6
CONTINUOUS
370
-3
390
F
  0
LAYER
  5
206
100
AcDbSymbolTableRecord
100
AcDbLayerTableRecord
  2
COLOR48
 70
0
 62
7
  6
CONTINUOUS
370
-3
390
F
  0
LAYER
  5
207
100
AcDbSymbolTableRecord
100
AcDbLayerTableRecord
  2
COLOR49
 70
0
 62
7
  6
CONTINUOUS
370
-3
390
F
  0
LAYER
  5
208
100
AcDbSymbolTableRecord
100
AcDbLayerTableRecord
  2
COLOR5
 70
0
 62
7
  6
CONTINUOUS
370
-3
390
F
  0
LAYER
  5
209
100
AcDbSymbolTableRecord
100
AcDbLayerTableRecord
  2
COLOR50
 70
0
 62
7
  6
CONTINUOUS
370
-3
390
F
  0
LAYER
  5
20A
100
AcDbSymbolTableRecord
100
AcDbLayerTableRecord
  2
COLOR51
 70
0
 62
7
  6
CONTINUOUS
370
-3
390
F
  0
LAYER
  5
20B
100
AcDbSymbolTableRecord
100
AcDbLayerTableRecord
  2
COLOR52
 70
0
 62
7
  6
CONTINUOUS
370
-3
390
F
  0
LAYER
  5
20C
100
AcDbSymbolTableRecord
100
AcDbLayerTableRecord
  2
COLOR55
 70
0
 62
7
  6
CONTINUOUS
370
-3
390
F
  0
LAYER
  5
20D
100
AcDbSymbolTableRecord
100
AcDbLayerTableRecord
  2
COLOR56
 70
0
 62
7
  6
CONTINUOUS
370
-3
390
F
  0
LAYER
  5
20E
100
AcDbSymbolTableRecord
100
AcDbLayerTableRecord
  2
COLOR58
 70
0
 62
7
  6
CONTINUOUS
370
-3
390
F
  0
LAYER
  5
20F
100
AcDbSymbolTableRecord
100
AcDbLayerTableRecord
  2
COLOR59
 70
0
 62
7
  6
CONTINUOUS
370
-3
390
F
  0
LAYER
  5
210
100
AcDbSymbolTableRecord
100
AcDbLayerTableRecord
  2
COLOR60
 70
0
 62
7
  6
CONTINUOUS
370
-3
390
F
  0
LAYER
  5
211
100
AcDbSymbolTableRecord
100
AcDbLayerTableRecord
  2
COLOR61
 70
0
 62
7
  6
CONTINUOUS
370
-3
390
F
  0
LAYER
  5
212
100
AcDbSymbolTableRecord
100
AcDbLayerTableRecord
  2
COLOR62
 70
0
 62
7
  6
CONTINUOUS
370
-3
390
F
  0
LAYER
  5
213
100
AcDbSymbolTableRecord
100
AcDbLayerTableRecord
  2
COLOR63
 70
0
 62
7
  6
CONTINUOUS
370
-3
390
F
  0
LAYER
  5
214
100
AcDbSymbolTableRecord
100
AcDbLayerTableRecord
  2
COLOR64
 70
0
 62
7
  6
CONTINUOUS
370
-3
390
F
  0
LAYER
  5
215
100
AcDbSymbolTableRecord
100
AcDbLayerTableRecord
  2
COLOR65
 70
0
 62
7
  6
CONTINUOUS
370
-3
390
F
  0
LAYER
  5
216
100
AcDbSymbolTableRecord
100
AcDbLayerTableRecord
  2
COLOR67
 70
0
 62
7
  6
CONTINUOUS
370
-3
390
F
  0
LAYER
  5
217
100
AcDbSymbolTableRecord
100
AcDbLayerTableRecord
  2
COLOR68
 70
0
 62
7
  6
CONTINUOUS
370
-3
390
F
  0
LAYER
  5
218
100
AcDbSymbolTableRecord
100
AcDbLayerTableRecord
  2
COLOR69
 70
0
 62
7
  6
CONTINUOUS
370
-3
390
F
  0
LAYER
  5
219
100
AcDbSymbolTableRecord
100
AcDbLayerTableRecord
  2
COLOR70
 70
0
 62
7
  6
CONTINUOUS
370
-3
390
F
  0
LAYER
  5
21A
100
AcDbSymbolTableRecord
100
AcDbLayerTableRecord
  2
COLOR71
 70
0
 62
7
  6
CONTINUOUS
370
-3
390
F
  0
LAYER
  5
21B
100
AcDbSymbolTableRecord
100
AcDbLayerTableRecord
  2
COLOR72
 70
0
 62
7
  6
CONTINUOUS
370
-3
390
F
  0
LAYER
  5
21C
100
AcDbSymbolTableRecord
100
AcDbLayerTableRecord
  2
COLOR73
 70
0
 62
7
  6
CONTINUOUS
370
-3
390
F
  0
LAYER
  5
21D
100
AcDbSymbolTableRecord
100
AcDbLayerTableRecord
  2
COLOR74
 70
0
 62
7
  6
CONTINUOUS
370
-3
390
F
  0
LAYER
  5
21E
100
AcDbSymbolTableRecord
100
AcDbLayerTableRecord
  2
COLOR76
 70
0
 62
7
  6
CONTINUOUS
370
-3
390
F
  0
LAYER
  5
21F
100
AcDbSymbolTableRecord
100
AcDbLayerTableRecord
  2
COLOR77
 70
0
 62
7
  6
CONTINUOUS
370
-3
390
F
  0
LAYER
  5
220
100
AcDbSymbolTableRecord
100
AcDbLayerTableRecord
  2
COLOR78
 70
0
 62
7
  6
CONTINUOUS
370
-3
390
F
  0
LAYER
  5
221
100
AcDbSymbolTableRecord
100
AcDbLayerTableRecord
  2
COORDINATE
 70
0
 62
7
  6
CONTINUOUS
370
-3
390
F
  0
LAYER
  5
222
100
AcDbSymbolTableRecord
100
AcDbLayerTableRecord
  2
COPY_PUBLISH
 70
0
 62
7
  6
CONTINUOUS
370
-3
390
F
  0
LAYER
  5
223
100
AcDbSymbolTableRecord
100
AcDbLayerTableRecord
  2
COSMETICI
 70
0
 62
7
  6
CONTINUOUS
370
-3
390
F
  0
LAYER
  5
224
100
AcDbSymbolTableRecord
100
AcDbLayerTableRecord
  2
COVER_V3_1
 70
0
 62
7
  6
CONTINUOUS
370
-3
390
F
  0
LAYER
  5
225
100
AcDbSymbolTableRecord
100
AcDbLayerTableRecord
  2
CURVE
 70
0
 62
7
  6
CONTINUOUS
370
-3
390
F
  0
LAYER
  5
226
100
AcDbSymbolTableRecord
100
AcDbLayerTableRecord
  2
DRAFT
 70
0
 62
7
  6
CONTINUOUS
370
-3
390
F
  0
LAYER
  5
227
100
AcDbSymbolTableRecord
100
AcDbLayerTableRecord
  2
IMPORT_IGES
 70
0
 62
7
  6
CONTINUOUS
370
-3
390
F
  0
LAYER
  5
228
100
AcDbSymbolTableRecord
100
AcDbLayerTableRecord
  2
INTF_GREEN
 70
0
 62
7
  6
CONTINUOUS
370
-3
390
F
  0
LAYER
  5
229
100
AcDbSymbolTableRecord
100
AcDbLayerTableRecord
  2
MAGNETE_TONDO_1
 70
0
 62
7
  6
CONTINUOUS
370
-3
390
F
  0
LAYER
  5
22A
100
AcDbSymbolTableRecord
100
AcDbLayerTableRecord
  2
MB_PCB_LUNGO_2_1
 70
0
 62
7
  6
CONTINUOUS
370
-3
390
F
  0
LAYER
  5
22B
100
AcDbSymbolTableRecord
100
AcDbLayerTableRecord
  2
MB_PCB_LUNGO_ASM_2_ASM
 70
0
 62
7
  6
CONTINUOUS
370
-3
390
F
  0
LAYER
  5
22C
100
AcDbSymbolTableRecord
100
AcDbLayerTableRecord
  2
MC300-ASM_PCB_ASM_3_ASM
 70
0
 62
7
  6
CONTINUOUS
370
-3
390
F
  0
LAYER
  5
22D
100
AcDbSymbolTableRecord
100
AcDbLayerTableRecord
  2
MC300-BASE_33
 70
0
 62
7
  6
CONTINUOUS
370
-3
390
F
  0
LAYER
  5
22E
100
AcDbSymbolTableRecord
100
AcDbLayerTableRecord
  2
MC300-COVER_25_2
 70
0
 62
7
  6
CONTINUOUS
370
-3
390
F
  0
LAYER
  5
22F
100
AcDbSymbolTableRecord
100
AcDbLayerTableRecord
  2
MC300-TEST_BUTTON_1_1
 70
0
 62
7
  6
CONTINUOUS
370
-3
390
F
  0
LAYER
  5
230
100
AcDbSymbolTableRecord
100
AcDbLayerTableRecord
  2
MC300_ASM
 70
0
 62
7
  6
CONTINUOUS
370
-3
390
F
  0
LAYER
  5
231
100
AcDbSymbolTableRecord
100
AcDbLayerTableRecord
  2
MC300_ASM_18_ASM
 70
0
 62
7
  6
CONTINUOUS
370
-3
390
F
  0
LAYER
  5
232
100
AcDbSymbolTableRecord
100
AcDbLayerTableRecord
  2
MC300_MAGNATIC_CONTACT-V3_ASM_6
 70
0
 62
7
  6
CONTINUOUS
370
-3
390
F
  0
LAYER
  5
233
100
AcDbSymbolTableRecord
100
AcDbLayerTableRecord
  2
NOTE
 70
0
 62
7
  6
CONTINUOUS
370
-3
390
F
  0
LAYER
  5
234
100
AcDbSymbolTableRecord
100
AcDbLayerTableRecord
  2
PCB_MC300_LUNGO_ASM_4_ASM
 70
0
 62
7
  6
CONTINUOUS
370
-3
390
F
  0
LAYER
  5
235
100
AcDbSymbolTableRecord
100
AcDbLayerTableRecord
  2
PIANI
 70
0
 62
7
  6
CONTINUOUS
370
-3
390
F
  0
LAYER
  5
236
100
AcDbSymbolTableRecord
100
AcDbLayerTableRecord
  2
PUNTI
 70
0
 62
7
  6
CONTINUOUS
370
-3
390
F
  0
LAYER
  5
237
100
AcDbSymbolTableRecord
100
AcDbLayerTableRecord
  2
RACCORDO
 70
0
 62
7
  6
CONTINUOUS
370
-3
390
F
  0
LAYER
  5
238
100
AcDbSymbolTableRecord
100
AcDbLayerTableRecord
  2
REED_SWITCH_MD-SM10_2_002
 70
0
 62
7
  6
CONTINUOUS
370
-3
390
F
  0
LAYER
  5
239
100
AcDbSymbolTableRecord
100
AcDbLayerTableRecord
  2
REED_SWITCH_MD-SM10_2_002_1
 70
0
 62
7
  6
CONTINUOUS
370
-3
390
F
  0
LAYER
  5
23A
100
AcDbSymbolTableRecord
100
AcDbLayerTableRecord
  2
SCREW_2_2X4_5_2_005
 70
0
 62
7
  6
CONTINUOUS
370
-3
390
F
  0
LAYER
  5
23B
100
AcDbSymbolTableRecord
100
AcDbLayerTableRecord
  2
SCREW_2_2X4_5_2_005_1
 70
0
 62
7
  6
CONTINUOUS
370
-3
390
F
  0
LAYER
  5
23C
100
AcDbSymbolTableRecord
100
AcDbLayerTableRecord
  2
SCREW_2_2X4_5_2_005_2
 70
0
 62
7
  6
CONTINUOUS
370
-3
390
F
  0
LAYER
  5
23D
100
AcDbSymbolTableRecord
100
AcDbLayerTableRecord
  2
SCREW_2_2X4_5_2_005_3
 70
0
 62
7
  6
CONTINUOUS
370
-3
390
F
  0
LAYER
  5
23E
100
AcDbSymbolTableRecord
100
AcDbLayerTableRecord
  2
SCREW_2_2X4_5_2_005_4
 70
0
 62
7
  6
CONTINUOUS
370
-3
390
F
  0
LAYER
  5
23F
100
AcDbSymbolTableRecord
100
AcDbLayerTableRecord
  2
SCREW_2_2X6_5_1_1
 70
0
 62
7
  6
CONTINUOUS
370
-3
390
F
  0
LAYER
  5
240
100
AcDbSymbolTableRecord
100
AcDbLayerTableRecord
  2
SIMBOLI
 70
0
 62
7
  6
CONTINUOUS
370
-3
390
F
  0
LAYER
  5
241
100
AcDbSymbolTableRecord
100
AcDbLayerTableRecord
  2
SMUSSO
 70
0
 62
7
  6
CONTINUOUS
370
-3
390
F
  0
LAYER
  5
242
100
AcDbSymbolTableRecord
100
AcDbLayerTableRecord
  2
SNAPLINE
 70
0
 62
7
  6
CONTINUOUS
370
-3
390
F
  0
LAYER
  5
243
100
AcDbSymbolTableRecord
100
AcDbLayerTableRecord
  2
STRIP_F_04_2_1_1
 70
0
 62
7
  6
CONTINUOUS
370
-3
390
F
  0
LAYER
  5
244
100
AcDbSymbolTableRecord
100
AcDbLayerTableRecord
  2
STRIP_F_04_2_2_1
 70
0
 62
7
  6
CONTINUOUS
370
-3
390
F
  0
LAYER
  5
245
100
AcDbSymbolTableRecord
100
AcDbLayerTableRecord
  2
STRIP_F_04_2_3_1
 70
0
 62
7
  6
CONTINUOUS
370
-3
390
F
  0
LAYER
  5
246
100
AcDbSymbolTableRecord
100
AcDbLayerTableRecord
  2
STRIP_F_04_2_4_1
 70
0
 62
7
  6
CONTINUOUS
370
-3
390
F
  0
LAYER
  5
247
100
AcDbSymbolTableRecord
100
AcDbLayerTableRecord
  2
STRIP_F_04_2_5_1
 70
0
 62
7
  6
CONTINUOUS
370
-3
390
F
  0
LAYER
  5
248
100
AcDbSymbolTableRecord
100
AcDbLayerTableRecord
  2
STRIP_F_04_2_ASM_ASM_1_ASM
 70
0
 62
7
  6
CONTINUOUS
370
-3
390
F
  0
LAYER
  5
249
100
AcDbSymbolTableRecord
100
AcDbLayerTableRecord
  2
STRIP_M_04_ASM_1_ASM_ASM_1_ASM
 70
0
 62
7
  6
CONTINUOUS
370
-3
390
F
  0
LAYER
  5
24A
100
AcDbSymbolTableRecord
100
AcDbLayerTableRecord
  2
SUPERFICI
 70
0
 62
7
  6
CONTINUOUS
370
-3
390
F
  0
LAYER
  5
24B
100
AcDbSymbolTableRecord
100
AcDbLayerTableRecord
  2
SWITCH_SKQYAB_2_1
 70
0
 62
7
  6
CONTINUOUS
370
-3
390
F
  0
LAYER
  5
24C
100
AcDbSymbolTableRecord
100
AcDbLayerTableRecord
  2
TB_PCB_2_3
 70
0
 62
7
  6
CONTINUOUS
370
-3
390
F
  0
LAYER
  5
24D
100
AcDbSymbolTableRecord
100
AcDbLayerTableRecord
  2
TB_PCB_ASM_2_ASM
 70
0
 62
7
  6
CONTINUOUS
370
-3
390
F
  0
LAYER
  5
24E
100
AcDbSymbolTableRecord
100
AcDbLayerTableRecord
  2
TERMINAL_BLOCK_3P_2_1
 70
0
 62
7
  6
CONTINUOUS
370
-3
390
F
  0
LAYER
  5
24F
100
AcDbSymbolTableRecord
100
AcDbLayerTableRecord
  2
TRASH
 70
0
 62
7
  6
CONTINUOUS
370
-3
390
F
  0
LAYER
  5
250
100
AcDbSymbolTableRecord
100
AcDbLayerTableRecord
  2
USER_LIBRARY-STRIPM04_352-71792
 70
0
 62
7
  6
CONTINUOUS
370
-3
390
F
  0
LAYER
  5
251
100
AcDbSymbolTableRecord
100
AcDbLayerTableRecord
  2
USER_LIBRARY-STRIPM04_352-72164
 70
0
 62
7
  6
CONTINUOUS
370
-3
390
F
  0
LAYER
  5
252
100
AcDbSymbolTableRecord
100
AcDbLayerTableRecord
  2
USER_LIBRARY-STRIPM04_352-72192
 70
0
 62
7
  6
CONTINUOUS
370
-3
390
F
  0
LAYER
  5
253
100
AcDbSymbolTableRecord
100
AcDbLayerTableRecord
  2
USER_LIBRARY-STRIPM04_352-72220
 70
0
 62
7
  6
CONTINUOUS
370
-3
390
F
  0
LAYER
  5
254
100
AcDbSymbolTableRecord
100
AcDbLayerTableRecord
  2
USER_LIBRARY-STRIPM04_352-72904
 70
0
 62
7
  6
CONTINUOUS
370
-3
390
F
  0
LAYER
  5
255
100
AcDbSymbolTableRecord
100
AcDbLayerTableRecord
  2
USER_LIBRARY-STRIPM04_352-72932
 70
0
 62
7
  6
CONTINUOUS
370
-3
390
F
  0
LAYER
  5
256
100
AcDbSymbolTableRecord
100
AcDbLayerTableRecord
  2
USER_LIBRARY-STRIPM04_352-72960
 70
0
 62
7
  6
CONTINUOUS
370
-3
390
F
  0
LAYER
  5
257
100
AcDbSymbolTableRecord
100
AcDbLayerTableRecord
  2
USER_LIBRARY-STRIPM04_352-72988
 70
0
 62
7
  6
CONTINUOUS
370
-3
390
F
  0
LAYER
  5
258
100
AcDbSymbolTableRecord
100
AcDbLayerTableRecord
  2
USER_LIBRARY-STRIPM04_EXTRUDED0
 70
0
 62
7
  6
CONTINUOUS
370
-3
390
F
  0
LAYER
  5
259
100
AcDbSymbolTableRecord
100
AcDbLayerTableRecord
  2
USER_LIBRARY-STRIPM04_EXTRUDED_
 70
0
 62
7
  6
CONTINUOUS
370
-3
390
F
  0
LAYER
  5
25A
100
AcDbSymbolTableRecord
100
AcDbLayerTableRecord
  2
USER_LIBRARY-STRIPM04_EXTRUDE_1
 70
0
 62
7
  6
CONTINUOUS
370
-3
390
F
  0
LAYER
  5
25B
100
AcDbSymbolTableRecord
100
AcDbLayerTableRecord
  2
USER_LIBRARY-STRIPM04_EXTRUDE_2
 70
0
 62
7
  6
CONTINUOUS
370
-3
390
F
  0
LAYER
  5
25C
100
AcDbSymbolTableRecord
100
AcDbLayerTableRecord
  2
USER_LIBRARY-STRIPM04_EXTRUDE_3
 70
0
 62
7
  6
CONTINUOUS
370
-3
390
F
  0
LAYER
  5
25D
100
AcDbSymbolTableRecord
100
AcDbLayerTableRecord
  2
USER_LIBRARY-STRIPM04_EXTRUDE_4
 70
0
 62
7
  6
CONTINUOUS
370
-3
390
F
  0
LAYER
  5
25E
100
AcDbSymbolTableRecord
100
AcDbLayerTableRecord
  2
USER_LIBRARY-STRIPM04_EXTRUDE_5
 70
0
 62
7
  6
CONTINUOUS
370
-3
390
F
  0
LAYER
  5
25F
100
AcDbSymbolTableRecord
100
AcDbLayerTableRecord
  2
USER_LIBRARY-STRIPM04_EXTRUDE_6
 70
0
 62
7
  6
CONTINUOUS
370
-3
390
F
  0
LAYER
  5
260
100
AcDbSymbolTableRecord
100
AcDbLayerTableRecord
  2
___SHELL
 70
0
 62
7
  6
CONTINUOUS
370
-3
390
F
  0
ENDTAB
  0
TABLE
  2
STYLE
  5
3
100
AcDbSymbolTable
 70
1
  0
STYLE
  5
11
100
AcDbSymbolTableRecord
100
AcDbTextStyleTableRecord
  2
STANDARD
 70
0
 40
0.0
 41
0.8
 50
0.0
 71
0
 42
0.2
  3
txt
  4

  0
STYLE
  5
261
100
AcDbSymbolTableRecord
100
AcDbTextStyleTableRecord
  2
TEXTSTYLE_1
 70
0
 40
0.0
 41
0.8
 50
0.0
 71
0
 42
0.2
  3
gdt
  4

  0
ENDTAB
  0
TABLE
  2
VIEW
  5
6
100
AcDbSymbolTable
 70
0
  0
ENDTAB
  0
TABLE
  2
UCS
  5
7
100
AcDbSymbolTable
 70
0
  0
ENDTAB
  0
TABLE
  2
APPID
  5
9
100
AcDbSymbolTable
 70
1
  0
APPID
  5
262
100
AcDbSymbolTableRecord
100
AcDbRegAppTableRecord
  2
ACAD
 70
0
  0
ENDTAB
  0
TABLE
  2
BLOCK_RECORD
  5
1
100
AcDbSymbolTable
 70
0
  0
BLOCK_RECORD
  5
263
100
AcDbSymbolTableRecord
100
AcDbBlockTableRecord
  2
*Model_Space
  0
BLOCK_RECORD
  5
264
100
AcDbSymbolTableRecord
100
AcDbBlockTableRecord
  2
*Paper_Space
  0
BLOCK_RECORD
  5
265
100
AcDbSymbolTableRecord
100
AcDbBlockTableRecord
  2
_FILLED
  0
ENDTAB
  0
TABLE
  2
DIMSTYLE
  5
A
100
AcDbSymbolTable
 70
1
100
AcDbDimStyleTable
 71
0
  0
DIMSTYLE
105
266
100
AcDbSymbolTableRecord
100
AcDbDimStyleTableRecord
  2
STANDARD
 70
0
  3

  4

 40
1.0
 41
3.0
 42
0.5
 43
0.38
 44
1.5
 45
0.0
 46
0.0
 47
0.01
 48
0.01
140
3.0
141
0.09
142
0.0
143
25.4
144
1.0
145
0.0
146
1.0
147
0.625
 71
1
 72
0
 73
0
 74
0
 75
0
 76
0
 77
1
 78
8
 79
2
170
0
171
1
172
0
173
0
174
0
175
0
176
0
177
0
178
0
270
2
179
2
271
2
272
2
273
2
274
2
275
0
280
0
281
0
282
0
283
1
284
8
285
0
286
0
287
3
288
0
340
11
278
44
341
265
342
265
343
265
344
265
  0
ENDTAB
  0
ENDSEC
  0
SECTION
  2
BLOCKS
  0
BLOCK
  5
20
100
AcDbEntity
  8
0
100
AcDbBlockBegin
  2
*Model_Space
 70
0
 10
0.0
 20
0.0
 30
0.0
  3
*Model_Space
  1

  0
ENDBLK
  5
21
100
AcDbEntity
  8
0
100
AcDbBlockEnd
  0
BLOCK
  5
1C
100
AcDbEntity
  8
0
100
AcDbBlockBegin
  2
*Paper_Space
 70
0
 10
0.0
 20
0.0
 30
0.0
  3
*Paper_Space
  1

  0
ENDBLK
  5
1D
100
AcDbEntity
  8
0
100
AcDbBlockEnd
  0
BLOCK
  5
267
100
AcDbEntity
  8
0
100
AcDbBlockBegin
  2
_FILLED
 70
64
 10
0.0
 20
0.0
  3
_FILLED
  1

  0
SOLID
  5
268
100
AcDbEntity
  8
0
  6
BYBLOCK
 62
0
100
AcDbTrace
 10
0.0
 20
0.0
 11
-1.0
 21
0.3166666667
 12
-1.0
 22
-0.3166666667
 13
-1.0
 23
-0.3166666667
  0
ENDBLK
  5
269
100
AcDbEntity
  8
0
  6
BYBLOCK
 62
0
100
AcDbBlockEnd
  0
ENDSEC
  0
SECTION
  2
ENTITIES
  0
LWPOLYLINE
  5
26A
100
AcDbEntity
  8
IMPORT_IGES
100
AcDbPolyline
 62
7
  6
CONTINUOUS
 90
12
 70
0
 10
5.3669342799
 20
53.5938575274
 10
5.3975925059
 20
53.6079109092
 10
5.4362261968
 20
53.620647995
 10
5.4768868479
 20
53.6289209385
 10
5.5193519634
 20
53.6326827752
 10
5.5634188087
 20
53.6319115766
 10
5.6089009354
 20
53.6266044637
 10
5.6555511393
 20
53.6167861567
 10
5.7030626941
 20
53.6025252885
 10
5.7511747629
 20
53.5839206945
 10
5.7996785719
 20
53.5610780345
 10
5.8483389952
 20
53.5341279685
  0
LWPOLYLINE
  5
26B
100
AcDbEntity
  8
IMPORT_IGES
100
AcDbPolyline
 62
250
  6
CONTINUOUS
 90
11
 70
0
 10
0.6409342716
 20
51.1253513291
 10
0.6784650069
 20
51.1420211922
 10
0.7200424715
 20
51.1544218653
 10
0.7641877734
 20
51.1616645961
 10
0.810442888
 20
51.1635750171
 10
0.8584813105
 20
51.1601011813
 10
0.9081072412
 20
51.151220058
 10
0.9589988731
 20
51.1369476708
 10
1.010848644
 20
51.1173379377
 10
1.0633684418
 20
51.0924679522
 10
1.1162487332
 20
51.0624506347
  0
LWPOLYLINE
  5
26C
100
AcDbEntity
  8
IMPORT_IGES
100
AcDbPolyline
 62
7
  6
CONTINUOUS
 90
7
 70
0
 10
16.9966196565
 20
-47.5947272082
 10
17.0131095497
 20
-47.5959450552
 10
17.0597102216
 20
-47.5943553425
 10
17.1045857596
 20
-47.5876850917
 10
17.1470055002
 20
-47.5760534983
 10
17.1869302761
 20
-47.5593822757
 10
17.2146665697
 20
-47.5439932119
  0
LINE
  5
26D
100
AcDbEntity
  8
IMPORT_IGES
100
AcDbLine
 62
7
  6
CONTINUOUS
 10
3.3741661261
 20
-52.7116394428
 11
3.3415328735
 21
-52.69912607
  0
LINE
  5
26E
100
AcDbEntity
  8
IMPORT_IGES
100
AcDbLine
 62
7
  6
CONTINUOUS
 10
3.3415328735
 20
-52.69912607
 11
3.3118408413
 21
-52.6875347249
  0
LINE
  5
26F
100
AcDbEntity
  8
IMPORT_IGES
100
AcDbLine
 62
7
  6
CONTINUOUS
 10
3.3118408413
 20
-52.6875347249
 11
3.2957270366
 21
-52.6811448352
  0
LINE
  5
270
100
AcDbEntity
  8
IMPORT_IGES
100
AcDbLine
 62
7
  6
CONTINUOUS
 10
3.2957270366
 20
-52.6811448352
 11
3.2796771696
 21
-52.6746887543
  0
LWPOLYLINE
  5
271
100
AcDbEntity
  8
IMPORT_IGES
100
AcDbPolyline
 62
7
  6
CONTINUOUS
 90
3
 70
0
 10
3.2796771696
 20
-52.6746887543
 10
3.2636983781
 20
-52.6681787189
 10
3.255735408
 20
-52.6649027991
  0
LWPOLYLINE
  5
272
100
AcDbEntity
  8
IMPORT_IGES
100
AcDbPolyline
 62
7
  6
CONTINUOUS
 90
25
 70
0
 10
3.3833663409
 20
-53.0900915003
 10
3.5298208272
 20
-53.1508319671
 10
3.6796368809
 20
-53.2056449793
 10
3.8323980047
 20
-53.2546003373
 10
3.9878108355
 20
-53.2977921181
 10
4.1454912676
 20
-53.3352704593
 10
4.3048868928
 20
-53.3670486656
 10
4.4655178784
 20
-53.393170345
 10
4.6271635467
 20
-53.413716873
 10
4.7895936075
 20
-53.4287437648
 10
4.9524303273
 20
-53.4382792186
 10
5.1153782789
 20
-53.4423523412
 10
5.278312174
 20
-53.4409780118
 10
5.4409039428
 20
-53.4341508208
 10
5.6028211188
 20
-53.4218607022
 10
5.7639436947
 20
-53.4040656494
 10
5.9240654392
 20
-53.3807019667
 10
6.0827210962
 20
-53.3517315838
 10
6.2394536924
 20
-53.3171245155
 10
6.3940178919
 20
-53.2767998973
 10
6.5459915845
 20
-53.2307064346
 10
6.6947620456
 20
-53.1788631508
 10
6.8399519284
 20
-53.1212260214
 10
6.9813172877
 20
-53.0576791573
 10
7.1184855722
 20
-52.988132842
  0
LWPOLYLINE
  5
273
100
AcDbEntity
  8
IMPORT_IGES
100
AcDbPolyline
 62
7
  6
CONTINUOUS
 90
10
 70
0
 10
3.255735408
 20
-52.6649027991
 10
3.2472304187
 20
-52.6613584512
 10
3.2388060429
 20
-52.6577173066
 10
3.2304619425
 20
-52.6539797436
 10
3.2221985916
 20
-52.6501297555
 10
3.2140148334
 20
-52.6461840972
 10
3.2059078983
 20
-52.6421922707
 10
3.1978766544
 20
-52.6381710025
 10
3.1899215882
 20
-52.6341042593
 10
3.1820423738
 20
-52.6299923835
  0
LINE
  5
274
100
AcDbEntity
  8
IMPORT_IGES
100
AcDbLine
 62
7
  6
CONTINUOUS
 10
-0.9854318764
 20
50.236449445
 11
-10.3769642584
 21
44.428584944
  0
LINE
  5
275
100
AcDbEntity
  8
IMPORT_IGES
100
AcDbLine
 62
250
  6
CONTINUOUS
 10
-9.8631936611
 20
44.3873789576
 11
-0.4768226216
 21
50.1920604495
  0
LWPOLYLINE
  5
276
100
AcDbEntity
  8
IMPORT_IGES
100
AcDbPolyline
 62
7
  6
CONTINUOUS
 90
7
 70
0
 10
-0.6144069877
 20
50.4506132622
 10
-0.6415721955
 20
50.434305533
 10
-0.675972532
 20
50.4080678566
 10
-0.7072558343
 20
50.3771500088
 10
-0.7354703442
 20
50.341625049
 10
-0.7601476033
 20
50.3020662062
 10
-0.7673574377
 20
50.2871376634
  0
LWPOLYLINE
  5
277
100
AcDbEntity
  8
IMPORT_IGES
100
AcDbPolyline
 62
7
  6
CONTINUOUS
 90
12
 70
0
 10
-0.9854048803
 20
50.2364037404
 10
-0.9576734995
 20
50.2517903661
 10
-0.9177480953
 20
50.2684625677
 10
-0.8753276917
 20
50.2800948766
 10
-0.8304514504
 20
50.2867656017
 10
-0.7838501308
 20
50.288355641
 10
-0.7354952635
 20
50.284784657
 10
-0.6854153181
 20
50.2761329873
 10
-0.6344264624
 20
50.2625225417
 10
-0.5828007527
 20
50.2439939571
 10
-0.5302661328
 20
50.2205065967
 10
-0.4768226028
 20
50.1920604605
  0
LINE
  5
278
100
AcDbEntity
  8
IMPORT_IGES
100
AcDbLine
 62
7
  6
CONTINUOUS
 10
-0.6144330783
 20
50.4506595007
 11
0.6061862607
 21
51.1070244968
  0
LINE
  5
279
100
AcDbEntity
  8
IMPORT_IGES
100
AcDbLine
 62
250
  6
CONTINUOUS
 10
-0.1232649686
 20
50.396195337
 11
1.0886077332
 21
51.0478720575
  0
LINE
  5
27A
100
AcDbEntity
  8
IMPORT_IGES
100
AcDbLine
 62
7
  6
CONTINUOUS
 10
0.6061862607
 20
51.1070244968
 11
0.6293391057
 21
51.1192755667
  0
LINE
  5
27B
100
AcDbEntity
  8
IMPORT_IGES
100
AcDbLine
 62
250
  6
CONTINUOUS
 10
1.0886077332
 20
51.0478720575
 11
1.1070073635
 21
51.057607972
  0
LINE
  5
27C
100
AcDbEntity
  8
IMPORT_IGES
100
AcDbLine
 62
7
  6
CONTINUOUS
 10
5.3668530043
 20
53.5938150896
 11
0.6293391057
 21
51.1192755667
  0
LINE
  5
27D
100
AcDbEntity
  8
IMPORT_IGES
100
AcDbLine
 62
250
  6
CONTINUOUS
 10
1.1070073635
 20
51.057607972
 11
5.8483389952
 21
53.5341279685
  0
LWPOLYLINE
  5
27E
100
AcDbEntity
  8
IMPORT_IGES
100
AcDbPolyline
 62
250
  6
CONTINUOUS
 90
10
 70
0
 10
5.8483317482
 20
53.5341239301
 10
5.8788306893
 20
53.5495917712
 10
5.9090398344
 20
53.5618642359
 10
5.9387343783
 20
53.5708546035
 10
5.9676911948
 20
53.5765005724
 10
5.9956987777
 20
53.5787660065
 10
6.0225578885
 20
53.5776381016
 10
6.0480701096
 20
53.5731274782
 10
6.0720464325
 20
53.5652700979
 10
6.0921427647
 20
53.5553997128
  0
LWPOLYLINE
  5
27F
100
AcDbEntity
  8
IMPORT_IGES
100
AcDbPolyline
 62
7
  6
CONTINUOUS
 90
22
 70
0
 10
-10.0332167636
 20
42.7064482732
 10
-10.0924416433
 20
42.67719139
 10
-10.1512377304
 20
42.643630186
 10
-10.2092803312
 20
42.6059573252
 10
-10.2662454334
 20
42.5643907725
 10
-10.3218247574
 20
42.5191637876
 10
-10.3757263892
 20
42.4705209395
 10
-10.4276551657
 20
42.4187336395
 10
-10.4773265612
 20
42.3640901954
 10
-10.5244790829
 20
42.3068816832
 10
-10.5688539602
 20
42.247423859
 10
-10.6102077919
 20
42.1860447656
 10
-10.6483216798
 20
42.1230692995
 10
-10.6829847187
 20
42.0588437547
 10
-10.7140049424
 20
41.9937214176
 10
-10.7412157163
 20
41.9280466587
 10
-10.7644633084
 20
41.8621812253
 10
-10.7836157199
 20
41.7964882204
 10
-10.7985661045
 20
41.7313162694
 10
-10.8092256271
 20
41.6670219139
 10
-10.8155270962
 20
41.6039673274
 10
-10.8174285558
 20
41.54250397
  0
LWPOLYLINE
  5
280
100
AcDbEntity
  8
IMPORT_IGES
100
AcDbPolyline
 62
250
  6
CONTINUOUS
 90
3
 70
0
 10
0.588914333
 20
51.0977807967
 10
0.6304681109
 20
51.1165921863
 10
0.6726682647
 20
51.1293299864
  0
LWPOLYLINE
  5
281
100
AcDbEntity
  8
IMPORT_IGES
100
AcDbPolyline
 62
7
  6
CONTINUOUS
 90
19
 70
0
 10
-15.1884704417
 20
-41.1148083423
 10
-15.1180325489
 20
-41.153375836
 10
-15.0216198962
 20
-41.1996898202
 10
-14.9218094483
 20
-41.2403872566
 10
-14.8190546741
 20
-41.2751888868
 10
-14.7134480357
 20
-41.3039807423
 10
-14.6046609936
 20
-41.3267039368
 10
-14.4928658226
 20
-41.3431200226
 10
-14.3784020526
 20
-41.352986335
 10
-14.2611113589
 20
-41.3561021113
 10
-14.141069632
 20
-41.3522053841
 10
-14.0186868992
 20
-41.3410538937
 10
-13.8942273778
 20
-41.3224356333
 10
-13.7676258375
 20
-41.2960812428
 10
-13.6393862112
 20
-41.2618320145
 10
-13.5105447556
 20
-41.2197931316
 10
-13.3815465031
 20
-41.1700251721
 10
-13.2522990958
 20
-41.1123937248
 10
-13.1229872991
 20
-41.0468424242
  0
LWPOLYLINE
  5
282
100
AcDbEntity
  8
IMPORT_IGES
100
AcDbPolyline
 62
7
  6
CONTINUOUS
 90
10
 70
0
 10
-4.2916036302
 20
-48.8653274237
 10
-3.5058050986
 20
-49.3121653477
 10
-2.7084177437
 20
-49.7520743203
 10
-1.8996251884
 20
-50.1849544031
 10
-1.0796140432
 20
-50.6106792627
 10
-0.2485726454
 20
-51.0291802606
 10
0.5933090389
 20
-51.4404464389
 10
1.4458378091
 20
-51.8444124669
 10
2.3088172204
 20
-52.240958699
 10
3.1820488849
 20
-52.6299952368
  0
LINE
  5
283
100
AcDbEntity
  8
IMPORT_IGES
100
AcDbLine
 62
7
  6
CONTINUOUS
 10
-15.1882816884
 20
-41.114922868
 11
-22.2764068577
 21
-37.0223282304
  0
LINE
  5
284
100
AcDbEntity
  8
IMPORT_IGES
100
AcDbLine
 62
250
  6
CONTINUOUS
 10
-22.9104601458
 20
-35.9046228081
 11
-15.8376550383
 21
-39.9883736499
  0
LWPOLYLINE
  5
285
100
AcDbEntity
  8
IMPORT_IGES
100
AcDbPolyline
 62
7
  6
CONTINUOUS
 90
14
 70
0
 10
-15.1884742268
 20
-41.1148116726
 10
-15.2191483749
 20
-41.0964161205
 10
-15.3001375995
 20
-41.0408394559
 10
-15.3763667378
 20
-40.9778666789
 10
-15.4476230338
 20
-40.9076707953
 10
-15.5137109919
 20
-40.8304429415
 10
-15.5744506014
 20
-40.746392669
 10
-15.6296720474
 20
-40.6557481334
 10
-15.6792227564
 20
-40.5587560399
 10
-15.7229664786
 20
-40.4556803918
 10
-15.7607793889
 20
-40.3468001413
 10
-15.7925547846
 20
-40.2324112505
 10
-15.818204224
 20
-40.1128267446
 10
-15.8376550383
 20
-39.9883736499
  0
LWPOLYLINE
  5
286
100
AcDbEntity
  8
IMPORT_IGES
100
AcDbPolyline
 62
7
  6
CONTINUOUS
 90
16
 70
0
 10
-22.2761106534
 20
-37.0224939761
 10
-22.3492166837
 20
-36.977820668
 10
-22.4406503464
 20
-36.9144517344
 10
-22.5285734888
 20
-36.8446487116
 10
-22.6124343114
 20
-36.768698058
 10
-22.6920412038
 20
-36.6866287275
 10
-22.7674859636
 20
-36.5980808326
 10
-22.8384057704
 20
-36.5030953933
 10
-22.9043592195
 20
-36.4018617821
 10
-22.9652271107
 20
-36.2940629716
 10
-23.0206963865
 20
-36.1795673181
 10
-23.0702569789
 20
-36.0586643295
 10
-23.1135081749
 20
-35.9315445183
 10
-23.1501139005
 20
-35.7982988193
 10
-23.1797540454
 20
-35.6589809933
 10
-23.2020973427
 20
-35.5137080118
  0
LWPOLYLINE
  5
287
100
AcDbEntity
  8
IMPORT_IGES
100
AcDbPolyline
 62
250
  6
CONTINUOUS
 90
11
 70
0
 10
-22.9104955293
 20
-35.9046004501
 10
-22.9610523876
 20
-35.8727424666
 10
-23.0071006558
 20
-35.838513491
 10
-23.0484952697
 20
-35.8021623307
 10
-23.0850124174
 20
-35.7640694631
 10
-23.1167170469
 20
-35.7243712221
 10
-23.1438098082
 20
-35.6828975716
 10
-23.1661754961
 20
-35.6397587423
 10
-23.1836132693
 20
-35.5952615993
 10
-23.1960445199
 20
-35.549479254
 10
-23.2020915219
 20
-35.5137021145
  0
LWPOLYLINE
  5
288
100
AcDbEntity
  8
IMPORT_IGES
100
AcDbPolyline
 62
7
  6
CONTINUOUS
 90
3
 70
0
 10
-22.3856142974
 20
-36.949774958
 10
-22.3065390521
 20
-37.0042458328
 10
-22.2764068577
 20
-37.0223282304
  0
LWPOLYLINE
  5
289
100
AcDbEntity
  8
IMPORT_IGES
100
AcDbPolyline
 62
7
  6
CONTINUOUS
 90
13
 70
0
 10
-10.6247352854
 20
-44.9998369794
 10
-9.6060627657
 20
-45.7538783772
 10
-8.5584243691
 20
-46.4945509206
 10
-7.4823798511
 20
-47.2214870826
 10
-6.378467871
 20
-47.9343495737
 10
-5.2472662237
 20
-48.632789975
 10
-4.0893982885
 20
-49.3164486885
 10
-2.9054687877
 20
-49.9849944361
 10
-1.696074453
 20
-50.6381144271
 10
-0.4618538929
 20
-51.2754867764
 10
0.7965528526
 20
-51.8968034891
 10
2.0785089187
 20
-52.5017713569
 10
3.3833600463
 20
-53.0901013593
  0
LWPOLYLINE
  5
28A
100
AcDbEntity
  8
IMPORT_IGES
100
AcDbPolyline
 62
7
  6
CONTINUOUS
 90
10
 70
0
 10
12.0452471869
 20
49.9560943989
 10
12.0761690539
 20
49.9716847317
 10
12.1063436325
 20
49.983939222
 10
12.1357709228
 20
49.9928578699
 10
12.1646509794
 20
49.9984489305
 10
12.1927837477
 20
50.0007041487
 10
12.2195690634
 20
49.9995987589
 10
12.2449774275
 20
49.9950653879
 10
12.2690383392
 20
49.9871714089
 10
12.289063704
 20
49.977375226
  0
LWPOLYLINE
  5
28B
100
AcDbEntity
  8
IMPORT_IGES
100
AcDbPolyline
 62
250
  6
CONTINUOUS
 90
5
 70
0
 10
12.5107816752
 20
48.1492614311
 10
12.4257918047
 20
48.1144834673
 10
12.337012024
 20
48.0830066528
 10
12.244486858
 20
48.0547964663
 10
12.1493466146
 20
48.0302081867
  0
LWPOLYLINE
  5
28C
100
AcDbEntity
  8
IMPORT_IGES
100
AcDbPolyline
 62
7
  6
CONTINUOUS
 90
10
 70
0
 10
-10.8174611307
 20
-44.5469225007
 10
-10.8383261935
 20
-44.5314938303
 10
-10.8590573013
 20
-44.5157606566
 10
-10.8796443246
 20
-44.4997217013
 10
-10.9000771418
 20
-44.48338771
 10
-10.920345167
 20
-44.4667456433
 10
-10.9404373766
 20
-44.4497586898
 10
-10.9603429301
 20
-44.4324140142
 10
-10.9800511463
 20
-44.4147227501
 10
-10.9995510491
 20
-44.3966841981
  0
LWPOLYLINE
  5
28D
100
AcDbEntity
  8
IMPORT_IGES
100
AcDbPolyline
 62
7
  6
CONTINUOUS
 90
10
 70
0
 10
-10.81745772
 20
-44.5460953958
 10
-10.1435726387
 20
-45.0507864366
 10
-9.456510562
 20
-45.5495461933
 10
-8.756427648
 20
-46.0422597749
 10
-8.0434833548
 20
-46.5288131175
 10
-7.3178395449
 20
-47.0090946351
 10
-6.5796603974
 20
-47.4829952196
 10
-5.8291135436
 20
-47.9504061126
 10
-5.0663700792
 20
-48.4112189561
 10
-4.2916036302
 20
-48.8653274237
  0
LWPOLYLINE
  5
28E
100
AcDbEntity
  8
IMPORT_IGES
100
AcDbPolyline
 62
7
  6
CONTINUOUS
 90
10
 70
0
 10
-10.9995510491
 20
-44.3966841981
 10
-11.009865857
 20
-44.3869081991
 10
-11.0200747082
 20
-44.377097265
 10
-11.0301772082
 20
-44.3672517771
 10
-11.0401729622
 20
-44.3573717762
 10
-11.0500615882
 20
-44.3474579877
 10
-11.0598427166
 20
-44.3375118212
 10
-11.0695159731
 20
-44.3275340045
 10
-11.079080979
 20
-44.3175245841
 10
-11.0885373644
 20
-44.307483949
  0
LINE
  5
28F
100
AcDbEntity
  8
IMPORT_IGES
100
AcDbLine
 62
7
  6
CONTINUOUS
 10
-0.0524524798
 20
43.7160290077
 11
5.2508483791
 21
46.8849750204
  0
LINE
  5
290
100
AcDbEntity
  8
IMPORT_IGES
100
AcDbLine
 62
7
  6
CONTINUOUS
 10
5.2508483791
 20
46.0685047436
 11
0.6424574422
 21
43.314796728
  0
LINE
  5
291
100
AcDbEntity
  8
IMPORT_IGES
100
AcDbLine
 62
7
  6
CONTINUOUS
 10
6.1700871946
 20
46.3542180491
 11
0.8667863357
 21
43.1852720364
  0
LINE
  5
292
100
AcDbEntity
  8
IMPORT_IGES
100
AcDbLine
 62
7
  6
CONTINUOUS
 10
10.4127278818
 20
49.2119981646
 11
10.9784133067
 21
49.5386178393
  0
LINE
  5
293
100
AcDbEntity
  8
IMPORT_IGES
100
AcDbLine
 62
7
  6
CONTINUOUS
 10
10.4127278818
 20
48.5587588153
 11
10.9784133067
 21
48.88537849
  0
LINE
  5
294
100
AcDbEntity
  8
IMPORT_IGES
100
AcDbLine
 62
7
  6
CONTINUOUS
 10
11.5440987317
 20
49.2119981646
 11
12.1097841566
 21
49.5386178393
  0
LINE
  5
295
100
AcDbEntity
  8
IMPORT_IGES
100
AcDbLine
 62
7
  6
CONTINUOUS
 10
12.6754695816
 20
49.2119981646
 11
12.1097841566
 21
48.88537849
  0
LINE
  5
296
100
AcDbEntity
  8
IMPORT_IGES
100
AcDbLine
 62
7
  6
CONTINUOUS
 10
11.5440987317
 20
48.5587588153
 11
10.9784133067
 21
48.2321391406
  0
LINE
  5
297
100
AcDbEntity
  8
IMPORT_IGES
100
AcDbLine
 62
7
  6
CONTINUOUS
 10
11.6854517543
 20
48.4771433516
 11
12.1097841566
 21
48.7221475625
  0
LINE
  5
298
100
AcDbEntity
  8
IMPORT_IGES
100
AcDbLine
 62
7
  6
CONTINUOUS
 10
8.6831597222
 20
46.7399486108
 11
7.092592514
 21
45.8215750394
  0
LINE
  5
299
100
AcDbEntity
  8
IMPORT_IGES
100
AcDbLine
 62
7
  6
CONTINUOUS
 10
12.6754695816
 20
48.5587588153
 11
12.1097841566
 21
48.2321391406
  0
LINE
  5
29A
100
AcDbEntity
  8
IMPORT_IGES
100
AcDbLine
 62
7
  6
CONTINUOUS
 10
6.2407978732
 20
46.7216651833
 11
7.8671434695
 21
47.6279182018
  0
LINE
  5
29B
100
AcDbEntity
  8
IMPORT_IGES
100
AcDbLine
 62
7
  6
CONTINUOUS
 10
11.9085550675
 20
49.8799250742
 11
12.0452471869
 21
49.9560943989
  0
LINE
  5
29C
100
AcDbEntity
  8
IMPORT_IGES
100
AcDbLine
 62
7
  6
CONTINUOUS
 10
9.9618550034
 20
46.8732199596
 11
9.7409764396
 21
46.7501391915
  0
LINE
  5
29D
100
AcDbEntity
  8
IMPORT_IGES
100
AcDbLine
 62
7
  6
CONTINUOUS
 10
10.0945298302
 20
46.5460018949
 11
10.3154083939
 21
46.6690826629
  0
LINE
  5
29E
100
AcDbEntity
  8
IMPORT_IGES
100
AcDbLine
 62
7
  6
CONTINUOUS
 10
10.5131961073
 20
46.575147791
 11
10.0945298302
 21
46.3418532328
  0
LINE
  5
29F
100
AcDbEntity
  8
IMPORT_IGES
100
AcDbLine
 62
7
  6
CONTINUOUS
 10
13.7361297533
 20
47.6088891861
 11
13.6020435402
 21
47.5341719577
  0
LWPOLYLINE
  5
2A0
100
AcDbEntity
  8
IMPORT_IGES
100
AcDbPolyline
 62
7
  6
CONTINUOUS
 90
10
 70
0
 10
-11.0885373644
 20
-44.307483949
 10
-11.0974126707
 20
-44.2979456344
 10
-11.1061894612
 20
-44.2883794436
 10
-11.1148674302
 20
-44.2787857128
 10
-11.1234462712
 20
-44.2691647307
 10
-11.1319256898
 20
-44.2595168841
 10
-11.140305403
 20
-44.2498426574
 10
-11.1485851226
 20
-44.2401424393
 10
-11.1567645556
 20
-44.2304165225
 10
-11.1648434168
 20
-44.2206652489
  0
LWPOLYLINE
  5
2A1
100
AcDbEntity
  8
IMPORT_IGES
100
AcDbPolyline
 62
7
  6
CONTINUOUS
 90
10
 70
0
 10
-11.1648434168
 20
-44.2206652489
 10
-11.2296056413
 20
-44.1363596282
 10
-11.2868654906
 20
-44.0503465576
 10
-11.3364807388
 20
-43.9628464879
 10
-11.3783280737
 20
-43.874087447
 10
-11.4123051377
 20
-43.7842930784
 10
-11.4383297065
 20
-43.6936819303
 10
-11.4563378478
 20
-43.6024863514
 10
-11.4662859144
 20
-43.5109395247
 10
-11.4684443143
 20
-43.4440154258
  0
LINE
  5
2A2
100
AcDbEntity
  8
IMPORT_IGES
100
AcDbLine
 62
7
  6
CONTINUOUS
 10
4.4023202417
 20
41.1438990698
 11
9.7056211006
 21
44.3128450824
  0
LINE
  5
2A3
100
AcDbEntity
  8
IMPORT_IGES
100
AcDbLine
 62
7
  6
CONTINUOUS
 10
10.6248599161
 20
43.7820881111
 11
5.3215590572
 21
40.6131420985
  0
LINE
  5
2A4
100
AcDbEntity
  8
IMPORT_IGES
100
AcDbLine
 62
7
  6
CONTINUOUS
 10
15.1503433157
 20
47.2077437084
 11
14.7967899251
 21
47.0036064117
  0
LINE
  5
2A5
100
AcDbEntity
  8
IMPORT_IGES
100
AcDbLine
 62
7
  6
CONTINUOUS
 10
10.3420172038
 20
43.6150061971
 11
9.7056211006
 21
43.247559063
  0
LINE
  5
2A6
100
AcDbEntity
  8
IMPORT_IGES
100
AcDbLine
 62
7
  6
CONTINUOUS
 10
16.1464631008
 20
47.5880998536
 11
14.9382112813
 21
46.9148223774
  0
LINE
  5
2A7
100
AcDbEntity
  8
IMPORT_IGES
100
AcDbLine
 62
7
  6
CONTINUOUS
 10
11.9683628004
 20
45.2599255605
 11
10.342017204
 21
44.3536725419
  0
LWPOLYLINE
  5
2A8
100
AcDbEntity
  8
IMPORT_IGES
100
AcDbPolyline
 62
250
  6
CONTINUOUS
 90
25
 70
0
 10
6.6325101815
 20
34.8628070721
 10
6.5356640127
 20
34.8101301923
 10
6.4345915141
 20
34.7611660977
 10
6.3292926855
 20
34.7159147884
 10
6.2193715217
 20
34.6742496354
 10
6.1052240279
 20
34.6362972676
 10
5.9880382201
 20
34.6024375721
 10
5.8677879163
 20
34.5727124872
 10
5.7444992983
 20
34.5470800746
 10
5.6194389272
 20
34.5257944066
 10
5.4925897424
 20
34.5088982814
 10
5.3639688045
 20
34.4963489008
 10
5.234893857
 20
34.4882719419
 10
5.1053604338
 20
34.4847114933
 10
4.975373001
 20
34.4856234663
 10
4.8462626997
 20
34.4910012722
 10
4.7180378048
 20
34.5008888455
 10
4.5906900415
 20
34.5152422517
 10
4.4655257266
 20
34.5339230984
 10
4.3425643558
 20
34.5569742037
 10
4.2217864333
 20
34.5843527496
 10
4.1044397883
 20
34.615791889
 10
3.9909403639
 20
34.651202673
 10
3.8808722171
 20
34.6906740506
 10
3.7742353478
 20
34.7342060218
  0
LINE
  5
2A9
100
AcDbEntity
  8
IMPORT_IGES
100
AcDbLine
 62
250
  6
CONTINUOUS
 10
-22.9104631509
 20
-19.7399277792
 11
-15.8376536927
 21
-23.8236817263
  0
LWPOLYLINE
  5
2AA
100
AcDbEntity
  8
IMPORT_IGES
100
AcDbPolyline
 62
250
  6
CONTINUOUS
 90
13
 70
0
 10
-22.910468242
 20
-19.7399299917
 10
-22.9609869363
 20
-19.7089916611
 10
-23.0070167206
 20
-19.6768723094
 10
-23.0484093008
 20
-19.6437782111
 10
-23.0849415128
 20
-19.6100223428
 10
-23.1166689784
 20
-19.5757015693
 10
-23.1437788101
 20
-19.5406714959
 10
-23.1661534193
 20
-19.5050370244
 10
-23.1835981809
 20
-19.4690520258
 10
-23.1960370684
 20
-19.4327776576
 10
-23.2033312502
 20
-19.3964105328
 10
-23.2053712037
 20
-19.3601383056
 10
-23.2039763292
 20
-19.337945654
  0
LWPOLYLINE
  5
2AB
100
AcDbEntity
  8
IMPORT_IGES
100
AcDbPolyline
 62
7
  6
CONTINUOUS
 90
12
 70
0
 10
-22.9104601458
 20
-35.9046228081
 10
-22.8914656361
 20
-36.0288134129
 10
-22.8664156385
 20
-36.1480527122
 10
-22.8353828131
 20
-36.2620136627
 10
-22.7984584449
 20
-36.3703816214
 10
-22.755746372
 20
-36.472862202
 10
-22.7073618791
 20
-36.5691812544
 10
-22.6534423474
 20
-36.6590741185
 10
-22.5941392714
 20
-36.7422947833
 10
-22.5296106379
 20
-36.8186219547
 10
-22.4600374729
 20
-36.8878455262
 10
-22.3856142974
 20
-36.949774958
  0
LWPOLYLINE
  5
2AC
100
AcDbEntity
  8
IMPORT_IGES
100
AcDbPolyline
 62
7
  6
CONTINUOUS
 90
10
 70
0
 10
-22.9104647492
 20
-35.9046219659
 10
-22.9949464456
 20
-35.1943412414
 10
-23.0710756204
 20
-34.4778537934
 10
-23.1388394335
 20
-33.7552787812
 10
-23.1982264603
 20
-33.0267367384
 10
-23.249226698
 20
-32.292348426
 10
-23.2918315214
 20
-31.552234782
 10
-23.3260336994
 20
-30.8065184182
 10
-23.3518274422
 20
-30.0553236304
 10
-23.3692083747
 20
-29.29877523
  0
LWPOLYLINE
  5
2AD
100
AcDbEntity
  8
IMPORT_IGES
100
AcDbPolyline
 62
7
  6
CONTINUOUS
 90
13
 70
0
 10
-23.2020948377
 20
-35.5136756695
 10
-23.3457379216
 20
-34.2545067719
 10
-23.4633181067
 20
-32.9769593926
 10
-23.5547999487
 20
-31.6816786038
 10
-23.6201607046
 20
-30.3692995053
 10
-23.659387561
 20
-29.0404966534
 10
-23.6724808152
 20
-27.6959896732
 10
-23.6594559601
 20
-26.3364678761
 10
-23.6203405025
 20
-24.9626044042
 10
-23.5551750109
 20
-23.5751132096
 10
-23.4640127979
 20
-22.1747025455
 10
-23.3469183932
 20
-20.7620705265
 10
-23.2039705986
 20
-19.3379461169
  0
LINE
  5
2AE
100
AcDbEntity
  8
IMPORT_IGES
100
AcDbLine
 62
7
  6
CONTINUOUS
 10
-23.3749564307
 20
-28.9017878469
 11
-23.3692083747
 21
-29.29877523
  0
LINE
  5
2AF
100
AcDbEntity
  8
IMPORT_IGES
100
AcDbLine
 62
7
  6
CONTINUOUS
 10
-23.3784614552
 20
-28.503366841
 11
-23.3749564307
 21
-28.9017878469
  0
LINE
  5
2B0
100
AcDbEntity
  8
IMPORT_IGES
100
AcDbLine
 62
7
  6
CONTINUOUS
 10
-23.3796333963
 20
-28.1035833666
 11
-23.3784614552
 21
-28.503366841
  0
LINE
  5
2B1
100
AcDbEntity
  8
IMPORT_IGES
100
AcDbLine
 62
7
  6
CONTINUOUS
 10
-23.378686667
 20
-27.7441174055
 11
-23.3796333963
 21
-28.1035833666
  0
LINE
  5
2B2
100
AcDbEntity
  8
IMPORT_IGES
100
AcDbLine
 62
7
  6
CONTINUOUS
 10
-23.3758800421
 20
-27.3835759588
 11
-23.378686667
 21
-27.7441174055
  0
LWPOLYLINE
  5
2B3
100
AcDbEntity
  8
IMPORT_IGES
100
AcDbPolyline
 62
7
  6
CONTINUOUS
 90
22
 70
0
 10
3.7742333512
 20
34.7342044561
 10
3.7293539698
 20
34.6967509579
 10
3.684815985
 20
34.6550534781
 10
3.6408646526
 20
34.6093489048
 10
3.5977448873
 20
34.5598990241
 10
3.5556891703
 20
34.506979206
 10
3.5149170863
 20
34.4508744122
 10
3.4756511093
 20
34.3918963666
 10
3.4381060615
 20
34.330371675
 10
3.4024790421
 20
34.2666268077
 10
3.3689650853
 20
34.2010124821
 10
3.3377475634
 20
34.1338895722
 10
3.3089912591
 20
34.065612468
 10
3.2828549129
 20
33.99655582
 10
3.2594829312
 20
33.9270986893
 10
3.23900053
 20
33.8576078028
 10
3.22152317
 20
33.7884654613
 10
3.2071498809
 20
33.7200523751
 10
3.1959606627
 20
33.652731411
 10
3.1880219015
 20
33.5868708836
 10
3.1833836318
 20
33.5228417862
 10
3.1820768195
 20
33.4610010129
  0
LINE
  5
2B4
100
AcDbEntity
  8
IMPORT_IGES
100
AcDbLine
 62
7
  6
CONTINUOUS
 10
18.6029111255
 20
40.1420264843
 11
18.5919674891
 21
40.1353734878
  0
LWPOLYLINE
  5
2B5
100
AcDbEntity
  8
IMPORT_IGES
100
AcDbPolyline
 62
7
  6
CONTINUOUS
 90
5
 70
0
 10
18.5919674891
 20
40.1353734878
 10
18.5865012543
 20
40.1320744265
 10
18.5810386847
 20
40.1288294249
 10
18.5755799372
 20
40.1256205542
 10
18.5701250883
 20
40.1224477876
  0
LINE
  5
2B6
100
AcDbEntity
  8
IMPORT_IGES
100
AcDbLine
 62
250
  6
CONTINUOUS
 10
18.6193550668
 20
40.1518215335
 11
23.0553532846
 21
42.7885777708
  0
LWPOLYLINE
  5
2B7
100
AcDbEntity
  8
IMPORT_IGES
100
AcDbPolyline
 62
7
  6
CONTINUOUS
 90
3
 70
0
 10
18.6193547511
 20
40.1518213393
 10
18.6138699243
 20
40.1485738092
 10
18.6029111255
 20
40.1420264843
  0
LINE
  5
2B8
100
AcDbEntity
  8
IMPORT_IGES
100
AcDbLine
 62
250
  6
CONTINUOUS
 10
22.3433886576
 20
44.0100726203
 11
17.8894477236
 21
41.3625476445
  0
LINE
  5
2B9
100
AcDbEntity
  8
IMPORT_IGES
100
AcDbLine
 62
250
  6
CONTINUOUS
 10
17.8894477236
 20
41.3625476445
 11
17.8719301823
 21
41.3523016371
  0
LINE
  5
2BA
100
AcDbEntity
  8
IMPORT_IGES
100
AcDbLine
 62
250
  6
CONTINUOUS
 10
17.8719301823
 20
41.3523016371
 11
16.7060768612
 21
40.6791442783
  0
LINE
  5
2BB
100
AcDbEntity
  8
IMPORT_IGES
100
AcDbLine
 62
250
  6
CONTINUOUS
 10
16.3525267681
 20
40.4750050247
 11
6.6325101815
 21
34.8628070721
  0
LINE
  5
2BC
100
AcDbEntity
  8
IMPORT_IGES
100
AcDbLine
 62
250
  6
CONTINUOUS
 10
7.3395119509
 20
33.6381295957
 11
17.0595317162
 21
39.2504145375
  0
LINE
  5
2BD
100
AcDbEntity
  8
IMPORT_IGES
100
AcDbLine
 62
250
  6
CONTINUOUS
 10
17.4130850193
 20
39.4545709624
 11
18.5701249078
 21
40.1224476796
  0
LWPOLYLINE
  5
2BE
100
AcDbEntity
  8
IMPORT_IGES
100
AcDbPolyline
 62
7
  6
CONTINUOUS
 90
25
 70
0
 10
7.3395115701
 20
33.6381227902
 10
7.2209050652
 20
33.573805459
 10
7.0969868446
 20
33.5130170495
 10
6.968072594
 20
33.4559063968
 10
6.8344923935
 20
33.4026100089
 10
6.6965841266
 20
33.3532603581
 10
6.5546920091
 20
33.307986139
 10
6.4091757896
 20
33.2668971716
 10
6.2604043515
 20
33.2300925803
 10
6.1087481731
 20
33.197670193
 10
5.9545912442
 20
33.1697080027
 10
5.7983232425
 20
33.1462723723
 10
5.6403318575
 20
33.1274280359
 10
5.4810163722
 20
33.1132194772
 10
5.3207794244
 20
33.1036791122
 10
5.1600183828
 20
33.098837441
 10
4.9991391674
 20
33.0987045403
 10
4.838548853
 20
33.103278129
 10
4.6786470968
 20
33.1125537163
 10
4.5198384913
 20
33.1265066156
 10
4.3625250084
 20
33.1450997248
 10
4.2070987748
 20
33.1682934956
 10
4.0539518195
 20
33.1960315654
 10
3.9034748405
 20
33.2282402787
 10
3.7560499127
 20
33.2648376389
  0
LWPOLYLINE
  5
2BF
100
AcDbEntity
  8
IMPORT_IGES
100
AcDbPolyline
 62
250
  6
CONTINUOUS
 90
12
 70
0
 10
-20.7345373111
 20
-16.1955367563
 10
-20.7883659431
 20
-16.1677913494
 10
-20.8417941393
 20
-16.1447575606
 10
-20.8945230861
 20
-16.1265566384
 10
-20.946254915
 20
-16.1132833684
 10
-20.9967059659
 20
-16.1050020424
 10
-21.0456072858
 20
-16.1017500952
 10
-21.0926874474
 20
-16.1035407202
 10
-21.1376854205
 20
-16.1103591584
 10
-21.1803612917
 20
-16.1221655868
 10
-21.2204778578
 20
-16.1388925703
 10
-21.2481585117
 20
-16.1542522243
  0
LINE
  5
2C0
100
AcDbEntity
  8
IMPORT_IGES
100
AcDbLine
 62
250
  6
CONTINUOUS
 10
-20.7345436484
 20
-16.1955332871
 11
-13.6089612278
 21
-20.3097552722
  0
LWPOLYLINE
  5
2C1
100
AcDbEntity
  8
IMPORT_IGES
100
AcDbPolyline
 62
250
  6
CONTINUOUS
 90
22
 70
0
 10
-13.6089669531
 20
-20.3097519114
 10
-13.556809138
 20
-20.3432195998
 10
-13.5053120789
 20
-20.3807236265
 10
-13.4547520291
 20
-20.4219488809
 10
-13.4055525773
 20
-20.4664135341
 10
-13.3577829393
 20
-20.5139185733
 10
-13.3111956757
 20
-20.5646628066
 10
-13.2659404439
 20
-20.6185188789
 10
-13.2223707833
 20
-20.675102053
 10
-13.1805896609
 20
-20.7343247037
 10
-13.1408614019
 20
-20.7958845582
 10
-13.1034221101
 20
-20.8594926017
 10
-13.0683748126
 20
-20.9250957164
 10
-13.0358899097
 20
-20.9925794466
 10
-13.0063498386
 20
-21.0613747964
 10
-12.9801440912
 20
-21.1307200208
 10
-12.9574896996
 20
-21.2001067638
 10
-12.938510294
 20
-21.2692343478
 10
-12.9233642561
 20
-21.3376348998
 10
-12.9121704178
 20
-21.4048794917
 10
-12.9050175468
 20
-21.4705787509
 10
-12.9019760198
 20
-21.5343290782
  0
LINE
  5
2C2
100
AcDbEntity
  8
IMPORT_IGES
100
AcDbLine
 62
7
  6
CONTINUOUS
 10
-23.3711992189
 20
-27.0219774626
 11
-23.3758800421
 21
-27.3835759588
  0
LWPOLYLINE
  5
2C3
100
AcDbEntity
  8
IMPORT_IGES
100
AcDbPolyline
 62
7
  6
CONTINUOUS
 90
10
 70
0
 10
-23.3711992189
 20
-27.0219774626
 10
-23.3548646178
 20
-26.231126255
 10
-23.3297978566
 20
-25.4353876729
 10
-23.2960033493
 20
-24.6348987358
 10
-23.2534844268
 20
-23.8297991537
 10
-23.2022511772
 20
-23.020225646
 10
-23.142320404
 20
-22.2063118978
 10
-23.0737051887
 20
-21.3881960898
 10
-22.9964149292
 20
-20.5660208944
 10
-22.9104631509
 20
-19.7399277792
  0
LWPOLYLINE
  5
2C4
100
AcDbEntity
  8
IMPORT_IGES
100
AcDbPolyline
 62
7
  6
CONTINUOUS
 90
25
 70
0
 10
-23.2039757067
 20
-19.3379399447
 10
-23.1833409083
 20
-19.180725426
 10
-23.155894668
 20
-19.0235807536
 10
-23.1219039261
 20
-18.8668147603
 10
-23.0815969375
 20
-18.7106345108
 10
-23.0352092284
 20
-18.5553474317
 10
-22.9830285044
 20
-18.4014249583
 10
-22.9253324802
 20
-18.2492607845
 10
-22.862301996
 20
-18.0990053032
 10
-22.7941002028
 20
-17.950829946
 10
-22.7209403957
 20
-17.8050477028
 10
-22.6429955043
 20
-17.6618998335
 10
-22.5603409595
 20
-17.5214871861
 10
-22.4731361138
 20
-17.3840965641
 10
-22.3815384725
 20
-17.2500208823
 10
-22.285571515
 20
-17.1193848475
 10
-22.1852832138
 20
-16.9923989295
 10
-22.0808731796
 20
-16.8694850261
 10
-21.9725436406
 20
-16.7510535767
 10
-21.8603472208
 20
-16.637357521
 10
-21.7444504837
 20
-16.5287880561
 10
-21.6251758067
 20
-16.4258660022
 10
-21.5026734992
 20
-16.3289401352
 10
-21.3769652172
 20
-16.2382798684
 10
-21.2481585117
 20
-16.1542522243
  0
LWPOLYLINE
  5
2C5
100
AcDbEntity
  8
IMPORT_IGES
100
AcDbPolyline
 62
250
  6
CONTINUOUS
 90
10
 70
0
 10
23.055353298
 20
42.788577779
 10
23.083287061
 20
42.8073131715
 10
23.1083314612
 20
42.827348563
 10
23.1303074179
 20
42.8485354052
 10
23.1490572571
 20
42.8707148427
 10
23.1644507906
 20
42.8937254763
 10
23.1763832576
 20
42.9174052372
 10
23.1847700493
 20
42.9415813417
 10
23.1895523647
 20
42.9660766812
 10
23.1907607259
 20
42.9860998673
  0
LINE
  5
2C6
100
AcDbEntity
  8
IMPORT_IGES
100
AcDbLine
 62
7
  6
CONTINUOUS
 10
-11.4684443154
 20
-18.1307889972
 11
-17.5250020918
 21
-14.6338084436
  0
LINE
  5
2C7
100
AcDbEntity
  8
IMPORT_IGES
100
AcDbLine
 62
7
  6
CONTINUOUS
 10
-17.415671482
 20
-14.6138544946
 11
-15.6088057883
 21
-15.6571161008
  0
LINE
  5
2C8
100
AcDbEntity
  8
IMPORT_IGES
100
AcDbLine
 62
7
  6
CONTINUOUS
 10
-11.4684443154
 20
-18.0477089243
 11
-12.7803786636
 21
-17.2902144741
  0
LINE
  5
2C9
100
AcDbEntity
  8
IMPORT_IGES
100
AcDbLine
 62
7
  6
CONTINUOUS
 10
-14.9016990071
 20
-15.2345899658
 11
-12.0732718824
 21
-16.8676883391
  0
LWPOLYLINE
  5
2CA
100
AcDbEntity
  8
IMPORT_IGES
100
AcDbPolyline
 62
7
  6
CONTINUOUS
 90
10
 70
0
 10
-16.3148542662
 20
-33.2478704098
 10
-16.297854811
 20
-34.0194758127
 10
-16.2718360413
 20
-34.7857191121
 10
-16.2368023711
 20
-35.5464683855
 10
-16.1927623919
 20
-36.301590885
 10
-16.1397209295
 20
-37.0509584227
 10
-16.0776790108
 20
-37.7944473724
 10
-16.0066444677
 20
-38.53193155
 10
-15.9266319657
 20
-39.2632822569
 10
-15.8376550383
 20
-39.9883736499
  0
LINE
  5
2CB
100
AcDbEntity
  8
IMPORT_IGES
100
AcDbLine
 62
7
  6
CONTINUOUS
 10
-16.3148542662
 20
-33.2478704098
 11
-16.3195350099
 21
-32.8916809089
  0
LINE
  5
2CC
100
AcDbEntity
  8
IMPORT_IGES
100
AcDbLine
 62
7
  6
CONTINUOUS
 10
-16.3195350099
 20
-32.8916809089
 11
-16.3223415942
 21
-32.5343842033
  0
LINE
  5
2CD
100
AcDbEntity
  8
IMPORT_IGES
100
AcDbLine
 62
7
  6
CONTINUOUS
 10
-16.3223415942
 20
-32.5343842033
 11
-16.3232595417
 21
-32.1759986292
  0
LINE
  5
2CE
100
AcDbEntity
  8
IMPORT_IGES
100
AcDbLine
 62
7
  6
CONTINUOUS
 10
-17.415671482
 20
-14.6969345675
 11
-17.415671482
 21
-14.6138544946
  0
LINE
  5
2CF
100
AcDbEntity
  8
IMPORT_IGES
100
AcDbLine
 62
7
  6
CONTINUOUS
 10
-15.6088057883
 20
-15.6571161008
 11
-15.6088057883
 21
-15.7401961736
  0
LINE
  5
2D0
100
AcDbEntity
  8
IMPORT_IGES
100
AcDbLine
 62
7
  6
CONTINUOUS
 10
-16.3232595417
 20
-32.1759986292
 11
-16.3220875997
 21
-31.7748582048
  0
LINE
  5
2D1
100
AcDbEntity
  8
IMPORT_IGES
100
AcDbLine
 62
7
  6
CONTINUOUS
 10
-16.3220875997
 20
-31.7748582048
 11
-16.318582532
 21
-31.3723860385
  0
LINE
  5
2D2
100
AcDbEntity
  8
IMPORT_IGES
100
AcDbLine
 62
7
  6
CONTINUOUS
 10
-16.318582532
 20
-31.3723860385
 11
-16.3126545469
 21
-30.9686534368
  0
LINE
  5
2D3
100
AcDbEntity
  8
IMPORT_IGES
100
AcDbLine
 62
7
  6
CONTINUOUS
 10
-14.5872443582
 20
-12.9237499551
 11
-14.6764689275
 21
-12.8722328059
  0
LWPOLYLINE
  5
2D4
100
AcDbEntity
  8
IMPORT_IGES
100
AcDbPolyline
 62
250
  6
CONTINUOUS
 90
13
 70
0
 10
-14.4424643697
 20
-39.8885230385
 10
-14.5887693618
 20
-38.646644569
 10
-14.7084906396
 20
-37.3878798377
 10
-14.8016282031
 20
-36.1122288446
 10
-14.8682030632
 20
-34.81901537
 10
-14.9081942089
 20
-33.5089156336
 10
-14.9215386082
 20
-32.1839582947
 10
-14.9081944604
 20
-30.8441200117
 10
-14.868203566
 20
-29.4894241262
 10
-14.801628295
 20
-28.1219693216
 10
-14.7084894373
 20
-26.7424551593
 10
-14.5887662029
 20
-25.3501820779
 10
-14.4424585918
 20
-23.9451500775
  0
LWPOLYLINE
  5
2D5
100
AcDbEntity
  8
IMPORT_IGES
100
AcDbPolyline
 62
7
  6
CONTINUOUS
 90
11
 70
0
 10
-10.8174424275
 20
-44.546908486
 10
-10.8154577167
 20
-44.6073035628
 10
-10.8090949747
 20
-44.6648830117
 10
-10.7985156932
 20
-44.7193989908
 10
-10.7839627409
 20
-44.7704488649
 10
-10.7656018797
 20
-44.8180550397
 10
-10.7433719029
 20
-44.8625488316
 10
-10.7172995246
 20
-44.9037903163
 10
-10.6875588382
 20
-44.9414293826
 10
-10.6541711691
 20
-44.9753633958
 10
-10.6247364728
 20
-44.9998232823
  0
LWPOLYLINE
  5
2D6
100
AcDbEntity
  8
IMPORT_IGES
100
AcDbPolyline
 62
7
  6
CONTINUOUS
 90
16
 70
0
 10
-11.4684416045
 20
-43.4440141296
 10
-11.4663154292
 20
-43.5288828195
 10
-11.4571629164
 20
-43.6397722431
 10
-11.4406808972
 20
-43.750838662
 10
-11.4168415603
 20
-43.8614607073
 10
-11.3855742141
 20
-43.9714578797
 10
-11.3466130788
 20
-44.0810897188
 10
-11.29981226
 20
-44.1900213598
 10
-11.2451150887
 20
-44.2977756305
 10
-11.1821873879
 20
-44.4044077915
 10
-11.1107586156
 20
-44.5097124251
 10
-11.0308245205
 20
-44.6131028124
 10
-10.9423497948
 20
-44.7141364978
 10
-10.8452452201
 20
-44.812476815
 10
-10.7393973776
 20
-44.9078195134
 10
-10.6247364728
 20
-44.9998232823
  0
LINE
  5
2D7
100
AcDbEntity
  8
IMPORT_IGES
100
AcDbLine
 62
7
  6
CONTINUOUS
 10
-14.9016990071
 20
-15.2345899658
 11
-14.9016990071
 21
-16.1484707669
  0
LINE
  5
2D8
100
AcDbEntity
  8
IMPORT_IGES
100
AcDbLine
 62
7
  6
CONTINUOUS
 10
-14.6764689275
 20
-12.9770653998
 11
-14.6764689275
 21
-12.8722328059
  0
LINE
  5
2D9
100
AcDbEntity
  8
IMPORT_IGES
100
AcDbLine
 62
7
  6
CONTINUOUS
 10
-12.7803786636
 20
-17.2902144741
 11
-12.7803786636
 21
-17.3732945469
  0
LINE
  5
2DA
100
AcDbEntity
  8
IMPORT_IGES
100
AcDbLine
 62
7
  6
CONTINUOUS
 10
-11.4684443143
 20
-43.4440154258
 11
-11.4684443154
 21
42.6737563003
  0
LWPOLYLINE
  5
2DB
100
AcDbEntity
  8
IMPORT_IGES
100
AcDbPolyline
 62
7
  6
CONTINUOUS
 90
19
 70
0
 10
-11.468440513
 20
42.6729994408
 10
-11.4666449436
 20
42.7536105184
 10
-11.4585752174
 20
42.8602942149
 10
-11.4439395266
 20
42.9671124962
 10
-11.4227227867
 20
43.0735326248
 10
-11.3948726384
 20
43.1794174539
 10
-11.3601738986
 20
43.2850222701
 10
-11.3185062826
 20
43.3900783409
 10
-11.2698294281
 20
43.494170114
 10
-11.2138901352
 20
43.5973346912
 10
-11.1504994904
 20
43.6993751238
 10
-11.0796527231
 20
43.79981488
 10
-11.0012979968
 20
43.8983193543
 10
-10.9151694094
 20
43.9948101207
 10
-10.8213814935
 20
44.0887710641
 10
-10.7205430312
 20
44.1793573944
 10
-10.6129288196
 20
44.2662138299
 10
-10.4983764324
 20
44.3493527767
 10
-10.3769316516
 20
44.4285844228
  0
LWPOLYLINE
  5
2DC
100
AcDbEntity
  8
IMPORT_IGES
100
AcDbPolyline
 62
7
  6
CONTINUOUS
 90
10
 70
0
 10
-15.8376536927
 20
-23.8236817263
 10
-15.9251107756
 20
-24.633236936
 10
-16.003923032
 20
-25.4391848101
 10
-16.074077622
 20
-26.2413913621
 10
-16.1355630572
 20
-27.0397228291
 10
-16.1883693987
 20
-27.8340469366
 10
-16.2324882125
 20
-28.6242328977
 10
-16.267912331
 20
-29.4101497878
 10
-16.2946359009
 20
-30.1916665886
 10
-16.3126545469
 20
-30.9686534368
  0
LWPOLYLINE
  5
2DD
100
AcDbEntity
  8
IMPORT_IGES
100
AcDbPolyline
 62
7
  6
CONTINUOUS
 90
28
 70
0
 10
-15.8376536927
 20
-23.8236817263
 10
-15.8182053889
 20
-23.677293179
 10
-15.7925578197
 20
-23.5287805739
 10
-15.7607836127
 20
-23.3785548438
 10
-15.7229709475
 20
-23.2270343917
 10
-15.6792266977
 20
-23.0746351459
 10
-15.6296753581
 20
-22.9217693061
 10
-15.5744534439
 20
-22.7688595391
 10
-15.513713322
 20
-22.6163274364
 10
-15.4476248262
 20
-22.4645835717
 10
-15.376367989
 20
-22.3140465219
 10
-15.3001383248
 20
-22.1651320285
 10
-15.219148602
 20
-22.0182416472
 10
-15.1336192191
 20
-21.8737815328
 10
-15.0437834332
 20
-21.7321501084
 10
-14.9498907211
 20
-21.5937279189
 10
-14.8521957286
 20
-21.4588977777
 10
-14.750964537
 20
-21.3280327787
 10
-14.6464784136
 20
-21.2014850373
 10
-14.5390213086
 20
-21.0796062003
 10
-14.4288849337
 20
-20.9627337357
 10
-14.3163736767
 20
-20.8511806618
 10
-14.201792646
 20
-20.7452578241
 10
-14.0854534914
 20
-20.6452608478
 10
-13.9676784916
 20
-20.5514585576
 10
-13.8487897952
 20
-20.4641109012
 10
-13.7291087755
 20
-20.3834673044
 10
-13.6089612278
 20
-20.3097552722
  0
LINE
  5
2DE
100
AcDbEntity
  8
IMPORT_IGES
100
AcDbLine
 62
250
  6
CONTINUOUS
 10
-10.8174562068
 20
41.5432429706
 11
-10.8174611307
 21
-44.5469225007
  0
LWPOLYLINE
  5
2DF
100
AcDbEntity
  8
IMPORT_IGES
100
AcDbPolyline
 62
250
  6
CONTINUOUS
 90
25
 70
0
 10
-14.4424585918
 20
-23.9451500775
 10
-14.4268290951
 20
-23.8310412938
 10
-14.4059679706
 20
-23.7159918459
 10
-14.3798752183
 20
-23.6000017337
 10
-14.3484196326
 20
-23.4826662764
 10
-14.3117324192
 20
-23.3643901548
 10
-14.2702071947
 20
-23.2463874119
 10
-14.2237973756
 20
-23.1286626822
 10
-14.1725495454
 20
-23.0112113311
 10
-14.1169970711
 20
-22.8952334978
 10
-14.0570977975
 20
-22.7807439998
 10
-13.9928938797
 20
-22.6677280196
 10
-13.9250451498
 20
-22.5573412442
 10
-13.8535156907
 20
-22.4496095945
 10
-13.7783414195
 20
-22.3445071495
 10
-13.7002899196
 20
-22.243111834
 10
-13.6193326882
 20
-22.1454598226
 10
-13.5354982281
 20
-22.0515149407
 10
-13.4496396314
 20
-21.962246588
 10
-13.3617342726
 20
-21.8776985507
 10
-13.2718047773
 20
-21.7978270427
 10
-13.1807721142
 20
-21.7234701054
 10
-13.0889432729
 20
-21.6549070859
 10
-12.9960112637
 20
-21.5918586371
 10
-12.9019760868
 20
-21.534324759
  0
LINE
  5
2E0
100
AcDbEntity
  8
IMPORT_IGES
100
AcDbLine
 62
7
  6
CONTINUOUS
 10
-5.1013940811
 20
6.3146083516
 11
-4.1181869591
 21
6.9226383843
  0
LINE
  5
2E1
100
AcDbEntity
  8
IMPORT_IGES
100
AcDbLine
 62
250
  6
CONTINUOUS
 10
-4.5902748603
 20
6.2717703614
 11
-3.8096573225
 21
6.7545135197
  0
LWPOLYLINE
  5
2E2
100
AcDbEntity
  8
IMPORT_IGES
100
AcDbPolyline
 62
7
  6
CONTINUOUS
 90
44
 70
0
 10
-4.550747519
 20
6.9207965235
 10
-4.5600155124
 20
6.9152572429
 10
-4.5756599605
 20
6.905011029
 10
-4.5901736258
 20
6.8944140332
 10
-4.6036155579
 20
6.8835669638
 10
-4.6161539315
 20
6.8724646209
 10
-4.6278467177
 20
6.8611684558
 10
-4.6387139778
 20
6.8497699149
 10
-4.6488505224
 20
6.8382773865
 10
-4.6582921518
 20
6.8267500215
 10
-4.6670710949
 20
6.8152461135
 10
-4.6752657791
 20
6.8037534254
 10
-4.6829081485
 20
6.7923127825
 10
-4.6900222489
 20
6.780970905
 10
-4.6966649039
 20
6.769709218
 10
-4.7028614018
 20
6.7585568339
 10
-4.7086320812
 20
6.7475501602
 10
-4.7140187514
 20
6.7366706883
 10
-4.7190408059
 20
6.7259422305
 10
-4.7237165245
 20
6.715391001
 10
-4.7280802091
 20
6.7049943105
 10
-4.7321480091
 20
6.6947696197
 10
-4.7359346477
 20
6.6847377097
 10
-4.7394675907
 20
6.6748750386
 10
-4.7427601573
 20
6.6651946245
 10
-4.7458243488
 20
6.6557128861
 10
-4.7486819429
 20
6.6464070492
 10
-4.7513437966
 20
6.637287222
 10
-4.7538198913
 20
6.6283661415
 10
-4.7561277485
 20
6.6196217323
 10
-4.7582761448
 20
6.6110618119
 10
-4.7602734733
 20
6.6026963911
 10
-4.7621343229
 20
6.5945042185
 10
-4.7638661542
 20
6.5864911592
 10
-4.7654756803
 20
6.5786653398
 10
-4.7669744738
 20
6.5710070163
 10
-4.7683692451
 20
6.5635204112
 10
-4.7696650127
 20
6.5562123446
 10
-4.770869284
 20
6.5490655189
 10
-4.7719873295
 20
6.5420833591
 10
-4.7730236055
 20
6.5352711997
 10
-4.7739831597
 20
6.5286134836
 10
-4.7748697962
 20
6.5221131804
 10
-4.7756519348
 20
6.5160521812
  0
LINE
  5
2E3
100
AcDbEntity
  8
IMPORT_IGES
100
AcDbLine
 62
7
  6
CONTINUOUS
 10
-5.1013940811
 20
6.3146083516
 11
-5.0927338214
 21
6.3197844317
  0
LINE
  5
2E4
100
AcDbEntity
  8
IMPORT_IGES
100
AcDbLine
 62
7
  6
CONTINUOUS
 10
-5.0927338214
 20
6.3197844317
 11
-5.0589545149
 21
6.3368150305
  0
LINE
  5
2E5
100
AcDbEntity
  8
IMPORT_IGES
100
AcDbLine
 62
7
  6
CONTINUOUS
 10
-5.0589545149
 20
6.3368150305
 11
-5.0231413264
 21
6.3500886555
  0
LWPOLYLINE
  5
2E6
100
AcDbEntity
  8
IMPORT_IGES
100
AcDbPolyline
 62
250
  6
CONTINUOUS
 90
10
 70
0
 10
-4.2179495885
 20
-0.4970115489
 10
-4.2156661239
 20
-0.5291443566
 10
-4.2110109453
 20
-0.5595751704
 10
-4.2040162103
 20
-0.5880989264
 10
-4.1947299921
 20
-0.6145230181
 10
-4.1832156467
 20
-0.6386702679
 10
-4.169550866
 20
-0.6603795705
 10
-4.1538278103
 20
-0.6795049266
 10
-4.13615299
 20
-0.6959169745
 10
-4.116645891
 20
-0.7095051573
  0
LWPOLYLINE
  5
2E7
100
AcDbEntity
  8
IMPORT_IGES
100
AcDbPolyline
 62
7
  6
CONTINUOUS
 90
5
 70
0
 10
-6.2245802453
 20
6.3964284339
 10
-6.2247454305
 20
6.4001755617
 10
-6.2248460501
 20
6.4040127146
 10
-6.2248821046
 20
6.4079398925
 10
-6.2248354435
 20
6.4119457217
  0
LWPOLYLINE
  5
2E8
100
AcDbEntity
  8
IMPORT_IGES
100
AcDbPolyline
 62
250
  6
CONTINUOUS
 90
10
 70
0
 10
-4.9376691798
 20
-0.0663898364
 10
-4.9363284012
 20
-0.1010983283
 10
-4.9323805682
 20
-0.1336531746
 10
-4.9259399899
 20
-0.1638752702
 10
-4.9171923806
 20
-0.1914654411
 10
-4.9062497866
 20
-0.2164779597
 10
-4.8930201639
 20
-0.2391860184
 10
-4.8774783257
 20
-0.2594801983
 10
-4.859757415
 20
-0.2770548242
 10
-4.8411173681
 20
-0.2908656099
  0
LINE
  5
2E9
100
AcDbEntity
  8
IMPORT_IGES
100
AcDbLine
 62
250
  6
CONTINUOUS
 10
-4.2180527767
 20
-0.4936154512
 11
-4.2179495885
 21
-0.4970115489
  0
LINE
  5
2EA
100
AcDbEntity
  8
IMPORT_IGES
100
AcDbLine
 62
250
  6
CONTINUOUS
 10
-5.4375907521
 20
0.7477134506
 11
-5.4376067113
 21
0.7500201159
  0
LWPOLYLINE
  5
2EB
100
AcDbEntity
  8
IMPORT_IGES
100
AcDbPolyline
 62
7
  6
CONTINUOUS
 90
69
 70
0
 10
-6.2245794938
 20
1.4261938829
 10
-6.2243615591
 20
1.3763504444
 10
-6.2227162868
 20
1.3247708522
 10
-6.2196435237
 20
1.2714551884
 10
-6.2151593323
 20
1.2162391501
 10
-6.2092469481
 20
1.1592874158
 10
-6.2018567578
 20
1.1010936569
 10
-6.1929565443
 20
1.0416304377
 10
-6.182576944
 20
0.9809260409
 10
-6.1707624229
 20
0.9195578238
 10
-6.1574777332
 20
0.8575022028
 10
-6.142755764
 20
0.7947840281
 10
-6.126743159
 20
0.732053323
 10
-6.1094557694
 20
0.6694370937
 10
-6.0908749788
 20
0.6068098234
 10
-6.0710958271
 20
0.5444426998
 10
-6.0501838987
 20
0.4825217507
 10
-6.0280705382
 20
0.4208626092
 10
-6.0046492567
 20
0.359180964
 10
-5.9797886343
 20
0.2971872088
 10
-5.95361593
 20
0.2351732086
 10
-5.926412839
 20
0.1737267717
 10
-5.8979914072
 20
0.1125871887
 10
-5.8685357602
 20
0.0520172618
 10
-5.8388876742
 20
-0.0066109941
 10
-5.8091262092
 20
-0.0630179864
 10
-5.779171767
 20
-0.1174829909
 10
-5.749630867
 20
-0.1694737778
 10
-5.7206537685
 20
-0.218726271
 10
-5.6920920236
 20
-0.265505511
 10
-5.6641055108
 20
-0.3100737174
 10
-5.6367366187
 20
-0.3524063734
 10
-5.6099450942
 20
-0.3925291446
 10
-5.5837671651
 20
-0.4307796957
 10
-5.5582155904
 20
-0.467175197
 10
-5.5332796805
 20
-0.5016995982
 10
-5.5089605109
 20
-0.5346407471
 10
-5.4852688638
 20
-0.5660095847
 10
-5.4621958685
 20
-0.5957962097
 10
-5.4397130396
 20
-0.6242571636
 10
-5.4178225981
 20
-0.6514093078
 10
-5.3965239943
 20
-0.6772366935
 10
-5.3757844648
 20
-0.701946581
 10
-5.3556049428
 20
-0.7255533951
 10
-5.3359859449
 20
-0.7480435057
 10
-5.3168939659
 20
-0.7695820269
 10
-5.2983319164
 20
-0.7901772137
 10
-5.2802981379
 20
-0.8098214997
 10
-5.2627521563
 20
-0.8286562048
 10
-5.2456938113
 20
-0.846690168
 10
-5.2291243212
 20
-0.8639151337
 10
-5.2130051716
 20
-0.8804467203
 10
-5.1973365388
 20
-0.8962912315
 10
-5.18211914
 20
-0.9114428577
 10
-5.1673151773
 20
-0.925998994
 10
-5.1529237559
 20
-0.939965504
 10
-5.1389465203
 20
-0.9533369397
 10
-5.1253493996
 20
-0.9661936837
 10
-5.1121320818
 20
-0.978539867
 10
-5.0992955098
 20
-0.9903717091
 10
-5.0868074269
 20
-1.001757687
 10
-5.0746673793
 20
-1.0127012322
 10
-5.0628763503
 20
-1.0231992077
 10
-5.0514041788
 20
-1.0333102047
 10
-5.0402500586
 20
-1.0430374476
 10
-5.0294152395
 20
-1.0523779591
 10
-5.018872596
 20
-1.0613809999
 10
-5.008621729
 20
-1.0700489385
 10
-4.9889722276
 20
-1.0864154715
  0
LINE
  5
2EC
100
AcDbEntity
  8
IMPORT_IGES
100
AcDbLine
 62
7
  6
CONTINUOUS
 10
-6.2245787898
 20
1.4262482025
 11
-6.2245814752
 21
6.3964274247
  0
LINE
  5
2ED
100
AcDbEntity
  8
IMPORT_IGES
100
AcDbLine
 62
7
  6
CONTINUOUS
 10
-5.4376067113
 20
5.6630964229
 11
-5.4376067113
 21
0.7500201159
  0
LINE
  5
2EE
100
AcDbEntity
  8
IMPORT_IGES
100
AcDbLine
 62
250
  6
CONTINUOUS
 10
-5.2911606135
 20
0.5458690068
 11
-5.2911606069
 21
5.4589741877
  0
LINE
  5
2EF
100
AcDbEntity
  8
IMPORT_IGES
100
AcDbLine
 62
250
  6
CONTINUOUS
 10
-3.8647112121
 20
4.6354036406
 11
-3.8647111869
 21
-0.2777456503
  0
LINE
  5
2F0
100
AcDbEntity
  8
IMPORT_IGES
100
AcDbLine
 62
250
  6
CONTINUOUS
 10
-4.9376744748
 20
5.6630329184
 11
-4.9376577471
 21
5.6663877281
  0
LWPOLYLINE
  5
2F1
100
AcDbEntity
  8
IMPORT_IGES
100
AcDbPolyline
 62
250
  6
CONTINUOUS
 90
7
 70
0
 10
-4.2181586421
 20
-0.481826761
 10
-4.218175596
 20
-0.4834961019
 10
-4.2181815394
 20
-0.4851707253
 10
-4.2181764086
 20
-0.4868505652
 10
-4.218158655
 20
-0.4885364372
 10
-4.2181296994
 20
-0.4902273912
 10
-4.2180527767
 20
-0.4936154512
  0
LINE
  5
2F2
100
AcDbEntity
  8
IMPORT_IGES
100
AcDbLine
 62
250
  6
CONTINUOUS
 10
-4.9376577471
 20
5.6663877281
 11
-4.9376201125
 21
5.6697580291
  0
LWPOLYLINE
  5
2F3
100
AcDbEntity
  8
IMPORT_IGES
100
AcDbPolyline
 62
7
  6
CONTINUOUS
 90
22
 70
0
 10
-5.2911606069
 20
5.4589741877
 10
-5.2907157467
 20
5.4856949989
 10
-5.288073565
 20
5.5117777079
 10
-5.2832340616
 20
5.5372223148
 10
-5.2760726988
 20
5.5624853183
 10
-5.2667140144
 20
5.5871102196
 10
-5.2555316219
 20
5.6097275226
 10
-5.2425007065
 20
5.6300249641
 10
-5.227646083
 20
5.6483148073
 10
-5.2114158099
 20
5.6641643453
 10
-5.1939646565
 20
5.6774160265
 10
-5.1751378535
 20
5.6882274025
 10
-5.1549191509
 20
5.6966384216
 10
-5.1331383998
 20
5.7027246059
 10
-5.1099657492
 20
5.7064104332
 10
-5.0858953962
 20
5.7075092855
 10
-5.0605711638
 20
5.7058245038
 10
-5.034349229
 20
5.7015527471
 10
-5.0087923199
 20
5.6950973743
 10
-4.9844213458
 20
5.6865928385
 10
-4.9607153975
 20
5.6759046865
 10
-4.9376744748
 20
5.6630329185
  0
LWPOLYLINE
  5
2F4
100
AcDbEntity
  8
IMPORT_IGES
100
AcDbPolyline
 62
7
  6
CONTINUOUS
 90
22
 70
0
 10
-3.8647111869
 20
-0.2777456503
 10
-3.8651568111
 20
-0.3044730681
 10
-3.8678002773
 20
-0.3305612297
 10
-3.8726415857
 20
-0.3560101351
 10
-3.879805406
 20
-0.3812762582
 10
-3.8891670683
 20
-0.4059031251
 10
-3.9003525632
 20
-0.4285213141
 10
-3.9133868652
 20
-0.4488184105
 10
-3.9282449997
 20
-0.4671068289
 10
-3.9444780328
 20
-0.4829543917
 10
-3.9619306686
 20
-0.4962036395
 10
-3.9807582031
 20
-0.5070120316
 10
-4.0009775894
 20
-0.5154197684
 10
-4.0227596438
 20
-0.5215020244
 10
-4.04593355
 20
-0.5251836252
 10
-4.0700038127
 20
-0.5262792478
 10
-4.0953274606
 20
-0.5245919353
 10
-4.121547465
 20
-0.5203186445
 10
-4.1470972435
 20
-0.5138649234
 10
-4.1714546022
 20
-0.5053659546
 10
-4.195141735
 20
-0.4946865555
 10
-4.2181586421
 20
-0.481826726
  0
LINE
  5
2F5
100
AcDbEntity
  8
IMPORT_IGES
100
AcDbLine
 62
250
  6
CONTINUOUS
 10
-4.9376201125
 20
5.6697580291
 11
-4.9375608962
 21
5.6731431441
  0
LWPOLYLINE
  5
2F6
100
AcDbEntity
  8
IMPORT_IGES
100
AcDbPolyline
 62
7
  6
CONTINUOUS
 90
4
 70
0
 10
-6.2242326279
 20
6.4337005682
 10
-6.2238706292
 20
6.4536535668
 10
-6.2237553093
 20
6.4589885108
 10
-6.2236123345
 20
6.4644531451
  0
LWPOLYLINE
  5
2F7
100
AcDbEntity
  8
IMPORT_IGES
100
AcDbPolyline
 62
250
  6
CONTINUOUS
 90
3
 70
0
 10
-4.9375608962
 20
5.6731431441
 10
-4.9374774144
 20
5.6765410319
 10
-4.9374267435
 20
5.6782448075
  0
LINE
  5
2F8
100
AcDbEntity
  8
IMPORT_IGES
100
AcDbLine
 62
7
  6
CONTINUOUS
 10
-6.2248354435
 20
6.4119457217
 11
-6.2242326279
 21
6.4337005682
  0
LWPOLYLINE
  5
2F9
100
AcDbEntity
  8
IMPORT_IGES
100
AcDbPolyline
 62
7
  6
CONTINUOUS
 90
15
 70
0
 10
-5.4375899677
 20
5.6631118794
 10
-5.4352738351
 20
5.7295339631
 10
-5.4284861146
 20
5.7933203505
 10
-5.4174827247
 20
5.8543124921
 10
-5.402569591
 20
5.9122470835
 10
-5.3839921217
 20
5.9671806581
 10
-5.3618650824
 20
6.0193643739
 10
-5.3364585938
 20
6.0685667742
 10
-5.3080038957
 20
6.1147051723
 10
-5.2764392946
 20
6.1580791987
 10
-5.2419936497
 20
6.1984670114
 10
-5.2048942876
 20
6.2357039787
 10
-5.1649441177
 20
6.2699964551
 10
-5.1223130958
 20
6.3011237875
 10
-5.1014032801
 20
6.3146007985
  0
LINE
  5
2FA
100
AcDbEntity
  8
IMPORT_IGES
100
AcDbLine
 62
7
  6
CONTINUOUS
 10
-6.2236123345
 20
6.4644531451
 11
-6.2232340723
 21
6.4757592118
  0
LWPOLYLINE
  5
2FB
100
AcDbEntity
  8
IMPORT_IGES
100
AcDbPolyline
 62
250
  6
CONTINUOUS
 90
19
 70
0
 10
-4.2182024074
 20
5.2476181838
 10
-4.2168679651
 20
5.2838715764
 10
-4.2129248904
 20
5.3209827269
 10
-4.2064874909
 20
5.3586405302
 10
-4.1977409512
 20
5.3963316353
 10
-4.1867978439
 20
5.4339806473
 10
-4.173567708
 20
5.4719662084
 10
-4.1580258839
 20
5.5102077053
 10
-4.1403049853
 20
5.5482459927
 10
-4.1204479513
 20
5.585888896
 10
-4.0985070404
 20
5.6229167449
 10
-4.0746408441
 20
5.6589507192
 10
-4.0490862466
 20
5.6935629508
 10
-4.0220708566
 20
5.7264097882
 10
-3.9937379957
 20
5.7572836926
 10
-3.9642329992
 20
5.785974736
 10
-3.9337492505
 20
5.8122311712
 10
-3.9025342627
 20
5.8357770656
 10
-3.870829497
 20
5.8563716254
  0
LINE
  5
2FC
100
AcDbEntity
  8
IMPORT_IGES
100
AcDbLine
 62
7
  6
CONTINUOUS
 10
-6.2232340723
 20
6.4757592118
 11
-6.2227386258
 21
6.487611911
  0
LINE
  5
2FD
100
AcDbEntity
  8
IMPORT_IGES
100
AcDbLine
 62
7
  6
CONTINUOUS
 10
-6.2227386258
 20
6.487611911
 11
-6.2221226336
 21
6.5000402719
  0
LINE
  5
2FE
100
AcDbEntity
  8
IMPORT_IGES
100
AcDbLine
 62
7
  6
CONTINUOUS
 10
-6.2221226336
 20
6.5000402719
 11
-6.2213839706
 21
6.5131044233
  0
LINE
  5
2FF
100
AcDbEntity
  8
IMPORT_IGES
100
AcDbLine
 62
7
  6
CONTINUOUS
 10
-6.2213839706
 20
6.5131044233
 11
-6.2205126336
 21
6.5268578436
  0
LWPOLYLINE
  5
300
100
AcDbEntity
  8
IMPORT_IGES
100
AcDbPolyline
 62
250
  6
CONTINUOUS
 90
10
 70
0
 10
-4.9374267435
 20
5.6782448075
 10
-4.9351570307
 20
5.7130404938
 10
-4.9305114477
 20
5.748875872
 10
-4.9235221305
 20
5.7855081319
 10
-4.9142372491
 20
5.8226882939
 10
-4.9027201945
 20
5.8601655737
 10
-4.8890486292
 20
5.8976891269
 10
-4.8733148565
 20
5.9350060637
 10
-4.8556257017
 20
5.9718631256
 10
-4.8361009541
 20
6.0080111011
  0
LINE
  5
301
100
AcDbEntity
  8
IMPORT_IGES
100
AcDbLine
 62
7
  6
CONTINUOUS
 10
-6.2205126336
 20
6.5268578436
 11
-6.2194975801
 21
6.5413289311
  0
LINE
  5
302
100
AcDbEntity
  8
IMPORT_IGES
100
AcDbLine
 62
7
  6
CONTINUOUS
 10
-6.2194975801
 20
6.5413289311
 11
-6.2183155465
 21
6.5565495861
  0
LWPOLYLINE
  5
303
100
AcDbEntity
  8
IMPORT_IGES
100
AcDbPolyline
 62
7
  6
CONTINUOUS
 90
82
 70
0
 10
-6.2183155465
 20
6.5565495861
 10
-6.2169375078
 20
6.5725449906
 10
-6.2161715102
 20
6.5808365114
 10
-6.2153416632
 20
6.5893389161
 10
-6.214448879
 20
6.5980521792
 10
-6.2134922382
 20
6.6069763299
 10
-6.2124567582
 20
6.6161258881
 10
-6.2113429296
 20
6.6255010661
 10
-6.2101502508
 20
6.6351016575
 10
-6.2088622482
 20
6.6449415557
 10
-6.2074797794
 20
6.6550200969
 10
-6.2060019702
 20
6.6653379537
 10
-6.2044097456
 20
6.6759110264
 10
-6.2027049068
 20
6.6867365394
 10
-6.2008856281
 20
6.6978172813
 10
-6.1989273883
 20
6.7091775015
 10
-6.1968319597
 20
6.7208187347
 10
-6.1945975333
 20
6.7327394658
 10
-6.1921942063
 20
6.7449593738
 10
-6.1896237389
 20
6.7574820217
 10
-6.1868843164
 20
6.7703038757
 10
-6.1839406605
 20
6.7834339767
 10
-6.1807958345
 20
6.7968711769
 10
-6.1774466946
 20
6.8106166673
 10
-6.1738486314
 20
6.8246830076
 10
-6.1700050598
 20
6.8390709715
 10
-6.1659124449
 20
6.8537798496
 10
-6.1615157235
 20
6.8688199943
 10
-6.1568187266
 20
6.8841944491
 10
-6.1518174442
 20
6.8999002664
 10
-6.1464450054
 20
6.9159388362
 10
-6.1407084586
 20
6.9323091339
 10
-6.1346004895
 20
6.9490123269
 10
-6.1280326129
 20
6.9660531302
 10
-6.1210126417
 20
6.9834362277
 10
-6.1135323603
 20
7.0011571519
 10
-6.1054791312
 20
7.0192069505
 10
-6.0968623549
 20
7.0375943358
 10
-6.0876720165
 20
7.0563109262
 10
-6.0777661837
 20
7.07532222
 10
-6.0671569881
 20
7.0946406406
 10
-6.0558313565
 20
7.1142542724
 10
-6.0436092834
 20
7.134092249
 10
-6.0305048997
 20
7.1541706431
 10
-6.0165026218
 20
7.1744741668
 10
-6.001377461
 20
7.1948851346
 10
-5.9851535841
 20
7.2154185496
 10
-5.9678045843
 20
7.2360606215
 10
-5.9490289534
 20
7.256650832
 10
-5.9288266546
 20
7.2772412764
 10
-5.907194176
 20
7.297781786
 10
-5.8838238436
 20
7.317958965
 10
-5.8586258823
 20
7.3378561307
 10
-5.8316846189
 20
7.3573929341
 10
-5.8029527484
 20
7.3760109088
 10
-5.7722500126
 20
7.3937363214
 10
-5.7397497503
 20
7.4105466946
 10
-5.7059356825
 20
7.4258101086
 10
-5.6707989192
 20
7.4394126645
 10
-5.6343427381
 20
7.4514713645
 10
-5.5970711225
 20
7.4616995479
 10
-5.5591347041
 20
7.4700135851
 10
-5.5203794097
 20
7.4764990423
 10
-5.4808533935
 20
7.4811223843
 10
-5.4405918585
 20
7.4838728091
 10
-5.3995560302
 20
7.4847631449
 10
-5.3576830152
 20
7.4837953514
 10
-5.3148821747
 20
7.4809676814
 10
-5.2712398428
 20
7.4762843353
 10
-5.2269589257
 20
7.4697560101
 10
-5.1819860688
 20
7.4613591449
 10
-5.1363713123
 20
7.4511192261
 10
-5.0904741841
 20
7.4391196757
 10
-5.0442518446
 20
7.4253160592
 10
-4.9977457825
 20
7.4097536548
 10
-4.9514443971
 20
7.3926491237
 10
-4.9053454111
 20
7.3739590284
 10
-4.8594525607
 20
7.3537260733
 10
-4.8142660108
 20
7.3322945853
 10
-4.7699544546
 20
7.3097782519
 10
-4.7263535846
 20
7.2860609837
 10
-4.7069360366
 20
7.2749790042
  0
LWPOLYLINE
  5
304
100
AcDbEntity
  8
IMPORT_IGES
100
AcDbPolyline
 62
7
  6
CONTINUOUS
 90
3
 70
0
 10
-4.1710196478
 20
6.8899658571
 10
-4.1681299491
 20
6.9084918936
 10
-4.1613608334
 20
6.9379941432
  0
LWPOLYLINE
  5
305
100
AcDbEntity
  8
IMPORT_IGES
100
AcDbPolyline
 62
250
  6
CONTINUOUS
 90
10
 70
0
 10
-4.8361009541
 20
6.0080111011
 10
-4.813815433
 20
6.0448634954
 10
-4.7898234013
 20
6.0803979473
 10
-4.7643028105
 20
6.1143504074
 10
-4.7374437525
 20
6.1464677179
 10
-4.7094448593
 20
6.1765120156
 10
-4.6805115526
 20
6.204261933
 10
-4.6508576606
 20
6.2295110657
 10
-4.6207041009
 20
6.2520701019
 10
-4.5902748603
 20
6.2717703614
  0
LINE
  5
306
100
AcDbEntity
  8
IMPORT_IGES
100
AcDbLine
 62
250
  6
CONTINUOUS
 10
-3.2065132458
 20
6.2399399689
 11
-3.8708295127
 21
5.856371616
  0
LINE
  5
307
100
AcDbEntity
  8
IMPORT_IGES
100
AcDbLine
 62
250
  6
CONTINUOUS
 10
-3.1638289867
 20
4.6318096438
 11
-2.4679705373
 21
5.0335860003
  0
LWPOLYLINE
  5
308
100
AcDbEntity
  8
IMPORT_IGES
100
AcDbPolyline
 62
250
  6
CONTINUOUS
 90
10
 70
0
 10
-3.1638289867
 20
4.6318096438
 10
-3.196129888
 20
4.6152941996
 10
-3.2307191926
 20
4.6004704125
 10
-3.2673295097
 20
4.587440028
 10
-3.3056118937
 20
4.5763084213
 10
-3.3453394177
 20
4.5671239697
 10
-3.3864334392
 20
4.5599122877
 10
-3.428676789
 20
4.5547418288
 10
-3.47169167
 20
4.5516883403
 10
-3.5151598671
 20
4.5507980789
  0
LWPOLYLINE
  5
309
100
AcDbEntity
  8
IMPORT_IGES
100
AcDbPolyline
 62
7
  6
CONTINUOUS
 90
78
 70
0
 10
-3.9037730394
 20
-1.7515914845
 10
-3.8598106513
 20
-1.7763100445
 10
-3.8151075039
 20
-1.7997317759
 10
-3.7696618472
 20
-1.8218556122
 10
-3.7233236454
 20
-1.8427814736
 10
-3.6762390981
 20
-1.8624070971
 10
-3.6288519469
 20
-1.8804288084
 10
-3.5811540993
 20
-1.8968143506
 10
-3.5331523234
 20
-1.9115951048
 10
-3.4853150756
 20
-1.9245642882
 10
-3.4376374041
 20
-1.9356852979
 10
-3.3901254305
 20
-1.9449953417
 10
-3.343266745
 20
-1.9523998567
 10
-3.2971525798
 20
-1.9578621178
 10
-3.251695488
 20
-1.9614210328
 10
-3.2071168198
 20
-1.9630965582
 10
-3.1635507667
 20
-1.962895694
 10
-3.1208678267
 20
-1.9608141917
 10
-3.078893872
 20
-1.956855178
 10
-3.0375047264
 20
-1.9509902568
 10
-2.9968277866
 20
-1.9432497121
 10
-2.9570662683
 20
-1.933724687
 10
-2.9181213971
 20
-1.9223277026
 10
-2.8800958598
 20
-1.9091485651
 10
-2.8434964585
 20
-1.8945451976
 10
-2.8083918874
 20
-1.8784585015
 10
-2.7747191478
 20
-1.8609510138
 10
-2.7427889076
 20
-1.8425639756
 10
-2.7127254172
 20
-1.8233228567
 10
-2.684410403
 20
-1.8032058247
 10
-2.6577909624
 20
-1.7826833056
 10
-2.6329186976
 20
-1.7617926081
 10
-2.6097467318
 20
-1.7404993139
 10
-2.5880738753
 20
-1.7191659131
 10
-2.5679291031
 20
-1.6978504836
 10
-2.5492867991
 20
-1.67649701
 10
-2.5318631742
 20
-1.6552964053
 10
-2.515655381
 20
-1.6342859914
 10
-2.5006684369
 20
-1.6134297828
 10
-2.4866297333
 20
-1.5928083526
 10
-2.4735145223
 20
-1.5724258659
 10
-2.4613488995
 20
-1.5522789893
 10
-2.4499361066
 20
-1.5324367927
 10
-2.4392601222
 20
-1.5129079197
 10
-2.4293378371
 20
-1.4936842642
 10
-2.4200216125
 20
-1.4748096184
 10
-2.4113023791
 20
-1.4562950733
 10
-2.4031897774
 20
-1.4381298917
 10
-2.3955640766
 20
-1.4203250256
 10
-2.3884167929
 20
-1.4028853552
 10
-2.381756785
 20
-1.3858062327
 10
-2.3754902333
 20
-1.3690842549
 10
-2.3696102109
 20
-1.3527208387
 10
-2.3641238934
 20
-1.3367147213
 10
-2.3589585487
 20
-1.3210584395
 10
-2.354108328
 20
-1.3057546028
 10
-2.3495792471
 20
-1.2908007052
 10
-2.3453163298
 20
-1.2761815837
 10
-2.3413134054
 20
-1.2618992231
 10
-2.3375767585
 20
-1.2479517094
 10
-2.3340700697
 20
-1.2343180154
 10
-2.3307916891
 20
-1.2209969133
 10
-2.3277433479
 20
-1.2079896813
 10
-2.3248937819
 20
-1.195279042
 10
-2.3222422289
 20
-1.1828644986
 10
-2.3197895081
 20
-1.1707465832
 10
-2.3175067157
 20
-1.1589095547
 10
-2.3153929981
 20
-1.1473534981
 10
-2.3134492477
 20
-1.1360783525
 10
-2.3116491708
 20
-1.1250681534
 10
-2.3099918261
 20
-1.1143227662
 10
-2.3084781807
 20
-1.1038423414
 10
-2.3070847972
 20
-1.0936113382
 10
-2.3058141708
 20
-1.0836277206
 10
-2.3046638232
 20
-1.0738935348
 10
-2.3036028518
 20
-1.0643993605
 10
-2.3026341339
 20
-1.055143267
 10
-2.300925331
 20
-1.0373475093
  0
LINE
  5
30A
100
AcDbEntity
  8
IMPORT_IGES
100
AcDbLine
 62
7
  6
CONTINUOUS
 10
-3.9037730394
 20
-1.7515914845
 11
-4.2083870542
 21
-1.5773292016
  0
LINE
  5
30B
100
AcDbEntity
  8
IMPORT_IGES
100
AcDbLine
 62
7
  6
CONTINUOUS
 10
-4.2083870542
 20
-1.5773292016
 11
-4.4680215052
 21
-1.4271675441
  0
LINE
  5
30C
100
AcDbEntity
  8
IMPORT_IGES
100
AcDbLine
 62
7
  6
CONTINUOUS
 10
-4.4680215052
 20
-1.4271675441
 11
-4.6833607868
 21
-1.3014682099
  0
LINE
  5
30D
100
AcDbEntity
  8
IMPORT_IGES
100
AcDbLine
 62
7
  6
CONTINUOUS
 10
-4.7339291551
 20
-1.2709389818
 11
-4.7219872035
 21
-1.2780824876
  0
LWPOLYLINE
  5
30E
100
AcDbEntity
  8
IMPORT_IGES
100
AcDbPolyline
 62
7
  6
CONTINUOUS
 90
6
 70
0
 10
-4.7219872035
 20
-1.2780824876
 10
-4.7197954056
 20
-1.2794126223
 10
-4.7176615228
 20
-1.2807252948
 10
-4.715588122
 20
-1.2820168449
 10
-4.7135759654
 20
-1.2832922613
 10
-4.7116258363
 20
-1.2845609466
  0
LWPOLYLINE
  5
30F
100
AcDbEntity
  8
IMPORT_IGES
100
AcDbPolyline
 62
7
  6
CONTINUOUS
 90
4
 70
0
 10
-4.7448302338
 20
-1.264208567
 10
-4.7419839103
 20
-1.2659952478
 10
-4.7392196304
 20
-1.2677090555
 10
-4.7339291551
 20
-1.2709389818
  0
LINE
  5
310
100
AcDbEntity
  8
IMPORT_IGES
100
AcDbLine
 62
7
  6
CONTINUOUS
 10
-4.7507676164
 20
-1.2604318089
 11
-4.7448302338
 21
-1.264208567
  0
LINE
  5
311
100
AcDbEntity
  8
IMPORT_IGES
100
AcDbLine
 62
7
  6
CONTINUOUS
 10
-4.7602961469
 20
-1.2542772705
 11
-4.7507676164
 21
-1.2604318089
  0
LINE
  5
312
100
AcDbEntity
  8
IMPORT_IGES
100
AcDbLine
 62
7
  6
CONTINUOUS
 10
-4.777987015
 20
-1.2427425588
 11
-4.7602961469
 21
-1.2542772705
  0
LINE
  5
313
100
AcDbEntity
  8
IMPORT_IGES
100
AcDbLine
 62
7
  6
CONTINUOUS
 10
-4.7897942931
 20
-1.2349451949
 11
-4.777987015
 21
-1.2427425588
  0
LWPOLYLINE
  5
314
100
AcDbEntity
  8
IMPORT_IGES
100
AcDbPolyline
 62
7
  6
CONTINUOUS
 90
18
 70
0
 10
-4.7116258363
 20
-1.2845609466
 10
-4.7044290084
 20
-1.2893521823
 10
-4.7027769111
 20
-1.2904072529
 10
-4.7011824481
 20
-1.2913633712
 10
-4.6996454362
 20
-1.292231505
 10
-4.6981630417
 20
-1.2929958816
 10
-4.6967391361
 20
-1.2936254827
 10
-4.6953698575
 20
-1.2941513321
 10
-4.6940407713
 20
-1.2946507197
 10
-4.6927548684
 20
-1.2951141
 10
-4.6915091642
 20
-1.2955510221
 10
-4.6902802571
 20
-1.2960674157
 10
-4.6890548664
 20
-1.296682975
 10
-4.6878462747
 20
-1.2973780068
 10
-4.6866709244
 20
-1.2981993601
 10
-4.6855342982
 20
-1.2991626521
 10
-4.6844309183
 20
-1.3002522683
 10
-4.6833607868
 20
-1.3014682099
  0
LINE
  5
315
100
AcDbEntity
  8
IMPORT_IGES
100
AcDbLine
 62
7
  6
CONTINUOUS
 10
-4.7982120526
 20
-1.2293172193
 11
-4.7897942931
 21
-1.2349451949
  0
LINE
  5
316
100
AcDbEntity
  8
IMPORT_IGES
100
AcDbLine
 62
7
  6
CONTINUOUS
 10
-4.8070911893
 20
-1.2233168366
 11
-4.7982120526
 21
-1.2293172193
  0
LINE
  5
317
100
AcDbEntity
  8
IMPORT_IGES
100
AcDbLine
 62
7
  6
CONTINUOUS
 10
-4.8164610383
 20
-1.2169136803
 11
-4.8070911893
 21
-1.2233168366
  0
LINE
  5
318
100
AcDbEntity
  8
IMPORT_IGES
100
AcDbLine
 62
7
  6
CONTINUOUS
 10
-4.8263543475
 20
-1.210072194
 11
-4.8164610383
 21
-1.2169136803
  0
LINE
  5
319
100
AcDbEntity
  8
IMPORT_IGES
100
AcDbLine
 62
7
  6
CONTINUOUS
 10
-4.8367936463
 20
-1.2027672986
 11
-4.8263543475
 21
-1.210072194
  0
LINE
  5
31A
100
AcDbEntity
  8
IMPORT_IGES
100
AcDbLine
 62
7
  6
CONTINUOUS
 10
-4.8478139813
 20
-1.1949598013
 11
-4.8367936463
 21
-1.2027672986
  0
LINE
  5
31B
100
AcDbEntity
  8
IMPORT_IGES
100
AcDbLine
 62
7
  6
CONTINUOUS
 10
-4.8594543717
 20
-1.1866042091
 11
-4.8478139813
 21
-1.1949598013
  0
LINE
  5
31C
100
AcDbEntity
  8
IMPORT_IGES
100
AcDbLine
 62
7
  6
CONTINUOUS
 10
-4.87174167
 20
-1.1776684395
 11
-4.8594543717
 21
-1.1866042091
  0
LINE
  5
31D
100
AcDbEntity
  8
IMPORT_IGES
100
AcDbLine
 62
7
  6
CONTINUOUS
 10
-4.8847175887
 20
-1.1681025187
 11
-4.87174167
 21
-1.1776684395
  0
LINE
  5
31E
100
AcDbEntity
  8
IMPORT_IGES
100
AcDbLine
 62
7
  6
CONTINUOUS
 10
-4.8984292939
 20
-1.1578473518
 11
-4.8847175887
 21
-1.1681025187
  0
LINE
  5
31F
100
AcDbEntity
  8
IMPORT_IGES
100
AcDbLine
 62
7
  6
CONTINUOUS
 10
-4.9129093636
 20
-1.1468602391
 11
-4.8984292939
 21
-1.1578473518
  0
LINE
  5
320
100
AcDbEntity
  8
IMPORT_IGES
100
AcDbLine
 62
7
  6
CONTINUOUS
 10
-4.928208793
 20
-1.1350733518
 11
-4.9129093636
 21
-1.1468602391
  0
LWPOLYLINE
  5
321
100
AcDbEntity
  8
IMPORT_IGES
100
AcDbPolyline
 62
7
  6
CONTINUOUS
 90
3
 70
0
 10
-4.9528088173
 20
-1.115730452
 10
-4.9443850337
 20
-1.1224050863
 10
-4.928208793
 20
-1.1350733518
  0
LWPOLYLINE
  5
322
100
AcDbEntity
  8
IMPORT_IGES
100
AcDbPolyline
 62
7
  6
CONTINUOUS
 90
4
 70
0
 10
-4.9889722276
 20
-1.0864154715
 10
-4.9795474737
 20
-1.094158732
 10
-4.9703901684
 20
-1.1016073483
 10
-4.9528088173
 20
-1.115730452
  0
LINE
  5
323
100
AcDbEntity
  8
IMPORT_IGES
100
AcDbLine
 62
7
  6
CONTINUOUS
 10
-2.2920388379
 20
-0.8952028577
 11
-2.2930527798
 21
-0.8858108585
  0
LWPOLYLINE
  5
324
100
AcDbEntity
  8
IMPORT_IGES
100
AcDbPolyline
 62
7
  6
CONTINUOUS
 90
5
 70
0
 10
-2.2930527798
 20
-0.8858108585
 10
-2.2939113813
 20
-0.8770613216
 10
-2.2942191733
 20
-0.8729404624
 10
-2.2944150046
 20
-0.8689887296
 10
-2.2944375992
 20
-0.8683813011
  0
LWPOLYLINE
  5
325
100
AcDbEntity
  8
IMPORT_IGES
100
AcDbPolyline
 62
7
  6
CONTINUOUS
 90
5
 70
0
 10
-2.2909188066
 20
-0.9114677503
 10
-2.2909651623
 20
-0.9102736471
 10
-2.2912403423
 20
-0.9051257837
 10
-2.2915922557
 20
-0.9001044333
 10
-2.2920388379
 20
-0.8952028577
  0
LINE
  5
326
100
AcDbEntity
  8
IMPORT_IGES
100
AcDbLine
 62
7
  6
CONTINUOUS
 10
-2.3180264252
 20
-0.0133235934
 11
-2.2905322993
 21
-0.8452350566
  0
LINE
  5
327
100
AcDbEntity
  8
IMPORT_IGES
100
AcDbLine
 62
7
  6
CONTINUOUS
 10
-2.321815044
 20
-0.0291595776
 11
-2.2944454902
 21
-0.8683774288
  0
LWPOLYLINE
  5
328
100
AcDbEntity
  8
IMPORT_IGES
100
AcDbPolyline
 62
7
  6
CONTINUOUS
 90
3
 70
0
 10
-2.2914431218
 20
4.199856132
 10
-2.2907493257
 20
4.1740384595
 10
-2.2905314442
 20
4.1250093505
  0
LWPOLYLINE
  5
329
100
AcDbEntity
  8
IMPORT_IGES
100
AcDbPolyline
 62
7
  6
CONTINUOUS
 90
9
 70
0
 10
-2.2944375992
 20
-0.8683813011
 10
-2.2945056703
 20
-0.8652118421
 10
-2.2944390643
 20
-0.8616436671
 10
-2.2942015888
 20
-0.8582750231
 10
-2.2938068391
 20
-0.8551150899
 10
-2.2932434965
 20
-0.8522252753
 10
-2.2925077842
 20
-0.849626046
 10
-2.2916034675
 20
-0.8472969282
 10
-2.2905305385
 20
-0.8452379168
  0
LWPOLYLINE
  5
32A
100
AcDbEntity
  8
IMPORT_IGES
100
AcDbPolyline
 62
7
  6
CONTINUOUS
 90
7
 70
0
 10
-2.3218258258
 20
-0.0291663942
 10
-2.3218280708
 20
-0.0280255271
 10
-2.321689628
 20
-0.0257700361
 10
-2.3213742838
 20
-0.0234164038
 10
-2.3208530885
 20
-0.0209913847
 10
-2.3201160839
 20
-0.018504084
 10
-2.3191725848
 20
-0.0159457921
  0
LINE
  5
32B
100
AcDbEntity
  8
IMPORT_IGES
100
AcDbLine
 62
250
  6
CONTINUOUS
 10
-3.1638289867
 20
4.6318096438
 11
-3.1638290435
 21
-0.281260648
  0
LINE
  5
32C
100
AcDbEntity
  8
IMPORT_IGES
100
AcDbLine
 62
7
  6
CONTINUOUS
 10
-2.3180264252
 20
-0.0133235934
 11
-2.3180264252
 21
4.4673074055
  0
LINE
  5
32D
100
AcDbEntity
  8
IMPORT_IGES
100
AcDbLine
 62
7
  6
CONTINUOUS
 10
-2.2905322388
 20
4.124951512
 11
-2.2905322993
 21
-0.8452350566
  0
LWPOLYLINE
  5
32E
100
AcDbEntity
  8
IMPORT_IGES
100
AcDbPolyline
 62
7
  6
CONTINUOUS
 90
10
 70
0
 10
-3.1638290435
 20
-0.281260648
 10
-3.1657378593
 20
-0.3340060678
 10
-3.1706426314
 20
-0.3847604534
 10
-3.1785203114
 20
-0.4333059793
 10
-3.1893340095
 20
-0.4794334163
 10
-3.2030368719
 20
-0.5229460354
 10
-3.2195725242
 20
-0.5636602257
 10
-3.2388694381
 20
-0.6014017835
 10
-3.260843434
 20
-0.6360085989
 10
-3.285402052
 20
-0.6673340463
  0
LINE
  5
32F
100
AcDbEntity
  8
IMPORT_IGES
100
AcDbLine
 62
7
  6
CONTINUOUS
 10
-2.3245594874
 20
-0.1243177407
 11
-2.322543497
 21
-0.1009684712
  0
LINE
  5
330
100
AcDbEntity
  8
IMPORT_IGES
100
AcDbLine
 62
7
  6
CONTINUOUS
 10
-2.300925331
 20
-1.0373475093
 11
-2.296008894
 21
-0.9823636704
  0
LWPOLYLINE
  5
331
100
AcDbEntity
  8
IMPORT_IGES
100
AcDbPolyline
 62
7
  6
CONTINUOUS
 90
4
 70
0
 10
-2.322543497
 20
-0.1009684712
 10
-2.3217303436
 20
-0.0923394372
 10
-2.3213053905
 20
-0.0881681464
 10
-2.3208561942
 20
-0.0840876753
  0
LINE
  5
332
100
AcDbEntity
  8
IMPORT_IGES
100
AcDbLine
 62
7
  6
CONTINUOUS
 10
-2.296008894
 20
-0.9823636704
 11
-2.2946958871
 21
-0.9686410695
  0
LWPOLYLINE
  5
333
100
AcDbEntity
  8
IMPORT_IGES
100
AcDbPolyline
 62
7
  6
CONTINUOUS
 90
10
 70
0
 10
-2.2946958871
 20
-0.9686410695
 10
-2.2933440616
 20
-0.955776508
 10
-2.2927230774
 20
-0.9496073038
 10
-2.2921541277
 20
-0.9435917615
 10
-2.2916399757
 20
-0.937735246
 10
-2.2912434357
 20
-0.9320047713
 10
-2.2909805402
 20
-0.9263929885
 10
-2.2908352608
 20
-0.9209072492
 10
-2.2908223208
 20
-0.9155366179
 10
-2.2909188066
 20
-0.9114677503
  0
LINE
  5
334
100
AcDbEntity
  8
IMPORT_IGES
100
AcDbLine
 62
7
  6
CONTINUOUS
 10
-2.3208561942
 20
-0.0840876753
 11
-2.3199242513
 21
-0.076214205
  0
LWPOLYLINE
  5
335
100
AcDbEntity
  8
IMPORT_IGES
100
AcDbPolyline
 62
7
  6
CONTINUOUS
 90
7
 70
0
 10
-2.3199242513
 20
-0.076214205
 10
-2.3189545211
 20
-0.0687135535
 10
-2.3185437117
 20
-0.0651426454
 10
-2.3182143158
 20
-0.0617008297
 10
-2.3179576453
 20
-0.0583902907
 10
-2.317826563
 20
-0.0552464909
 10
-2.3178389986
 20
-0.0522765341
  0
LINE
  5
336
100
AcDbEntity
  8
IMPORT_IGES
100
AcDbLine
 62
7
  6
CONTINUOUS
 10
-2.3191725848
 20
-0.0159457921
 11
-2.3180223087
 21
-0.0133166818
  0
LINE
  5
337
100
AcDbEntity
  8
IMPORT_IGES
100
AcDbLine
 62
7
  6
CONTINUOUS
 10
-3.9037730401
 20
-1.7515914841
 11
-3.3049685069
 21
-0.7036851371
  0
LINE
  5
338
100
AcDbEntity
  8
IMPORT_IGES
100
AcDbLine
 62
7
  6
CONTINUOUS
 10
-4.2823644774
 20
-0.6138395293
 11
-4.6833607863
 21
-1.301468209
  0
LWPOLYLINE
  5
339
100
AcDbEntity
  8
IMPORT_IGES
100
AcDbPolyline
 62
7
  6
CONTINUOUS
 90
4
 70
0
 10
-3.285402052
 20
-0.6673340463
 10
-3.3124403791
 20
-0.69524442
 10
-3.3418413759
 20
-0.7196196652
 10
-3.3734788898
 20
-0.7403554942
  0
LWPOLYLINE
  5
33A
100
AcDbEntity
  8
IMPORT_IGES
100
AcDbPolyline
 62
7
  6
CONTINUOUS
 90
52
 70
0
 10
-2.5819754648
 20
-0.5714273301
 10
-2.5783172391
 20
-0.569291852
 10
-2.560925816
 20
-0.5584819786
 10
-2.5447091949
 20
-0.5473625419
 10
-2.5296037114
 20
-0.5360238923
 10
-2.5154889531
 20
-0.5244943835
 10
-2.5023285759
 20
-0.5128545171
 10
-2.4900804082
 20
-0.5011775954
 10
-2.4786302665
 20
-0.4894521148
 10
-2.4679402805
 20
-0.4777276052
 10
-2.4579850435
 20
-0.4660657694
 10
-2.4486814127
 20
-0.4544520903
 10
-2.4400031095
 20
-0.4429273132
 10
-2.4319237611
 20
-0.4315345074
 10
-2.4243688863
 20
-0.4202486078
 10
-2.4173151621
 20
-0.4090999673
 10
-2.4107422517
 20
-0.3981219482
 10
-2.4045871358
 20
-0.3872837743
 10
-2.3988284039
 20
-0.3766064964
 10
-2.3934516264
 20
-0.366117544
 10
-2.3884098918
 20
-0.3557880757
 10
-2.3836860182
 20
-0.3456339608
 10
-2.379267771
 20
-0.3356764927
 10
-2.3751201066
 20
-0.325889331
 10
-2.3712292997
 20
-0.3162848182
 10
-2.3675848696
 20
-0.306879339
 10
-2.3641601568
 20
-0.2976484213
 10
-2.3609440464
 20
-0.2886015236
 10
-2.3579277169
 20
-0.2797515283
 10
-2.3550907526
 20
-0.2710759375
 10
-2.3524228406
 20
-0.2625814422
 10
-2.3499178337
 20
-0.2542788413
 10
-2.3475638161
 20
-0.2461493907
 10
-2.3453516226
 20
-0.2381977482
 10
-2.3432768217
 20
-0.2304330092
 10
-2.341336416
 20
-0.2228412331
 10
-2.3395256866
 20
-0.21542744
 10
-2.3378380989
 20
-0.208197482
 10
-2.3362693865
 20
-0.2011372481
 10
-2.3348157352
 20
-0.1942507594
 10
-2.3334715943
 20
-0.1875426578
 10
-2.3322312476
 20
-0.1809986819
 10
-2.3310913223
 20
-0.1746219974
 10
-2.3300473611
 20
-0.1684163896
 10
-2.3290929487
 20
-0.1623676894
 10
-2.3282254019
 20
-0.1564785755
 10
-2.3274408397
 20
-0.1507519743
 10
-2.32673181
 20
-0.1451734275
 10
-2.3261008748
 20
-0.1397482579
 10
-2.3255399606
 20
-0.1344756791
 10
-2.325026313
 20
-0.1293315269
 10
-2.3245594874
 20
-0.1243177407
  0
LINE
  5
33B
100
AcDbEntity
  8
IMPORT_IGES
100
AcDbLine
 62
7
  6
CONTINUOUS
 10
-3.3734788898
 20
-0.7403554942
 11
-3.3821462617
 21
-0.7451888056
  0
LINE
  5
33C
100
AcDbEntity
  8
IMPORT_IGES
100
AcDbLine
 62
250
  6
CONTINUOUS
 10
-2.3180264252
 20
0.1735878604
 11
-3.1638290435
 21
-0.281260648
  0
LINE
  5
33D
100
AcDbEntity
  8
IMPORT_IGES
100
AcDbLine
 62
7
  6
CONTINUOUS
 10
-3.38226403
 20
-0.7452521681
 11
-2.3321481486
 21
-0.1805338301
  0
LWPOLYLINE
  5
33E
100
AcDbEntity
  8
IMPORT_IGES
100
AcDbPolyline
 62
7
  6
CONTINUOUS
 90
14
 70
0
 10
-3.382146403
 20
-0.7451873305
 10
-3.4190783066
 20
-0.7636079574
 10
-3.4689798703
 20
-0.7842011951
 10
-3.5208924458
 20
-0.8008651498
 10
-3.5748544961
 20
-0.8134714652
 10
-3.6305058803
 20
-0.8217767422
 10
-3.6875796771
 20
-0.825599476
 10
-3.7463191446
 20
-0.8247544823
 10
-3.8067353955
 20
-0.8189438913
 10
-3.8681572486
 20
-0.8079464372
 10
-3.9299325795
 20
-0.791685177
 10
-3.9917238877
 20
-0.7701083114
 10
-4.0533851606
 20
-0.7431165861
 10
-4.1146458602
 20
-0.7106574873
  0
LWPOLYLINE
  5
33F
100
AcDbEntity
  8
IMPORT_IGES
100
AcDbPolyline
 62
7
  6
CONTINUOUS
 90
3
 70
0
 10
-2.3487028633
 20
-0.250083018
 10
-2.4014250043
 20
-0.2338824382
 10
-2.4188348664
 20
-0.2271511417
  0
LWPOLYLINE
  5
340
100
AcDbEntity
  8
IMPORT_IGES
100
AcDbPolyline
 62
7
  6
CONTINUOUS
 90
20
 70
0
 10
-3.0788230748
 20
-0.5820714421
 10
-3.0545303176
 20
-0.5912943425
 10
-3.0243035057
 20
-0.6014603479
 10
-2.9941431337
 20
-0.6102670426
 10
-2.9640581205
 20
-0.6177118138
 10
-2.9342312364
 20
-0.6237354768
 10
-2.9047522977
 20
-0.6283169241
 10
-2.8756009573
 20
-0.6314773194
 10
-2.8467916334
 20
-0.6332368783
 10
-2.8182938747
 20
-0.6335866184
 10
-2.7902122501
 20
-0.6325183951
 10
-2.7627579985
 20
-0.6300691963
 10
-2.7358529256
 20
-0.6262479158
 10
-2.7096328899
 20
-0.6210732688
 10
-2.684587819
 20
-0.6146968335
 10
-2.6607675778
 20
-0.6072379726
 10
-2.6380900424
 20
-0.5987790161
 10
-2.6167883105
 20
-0.5895314266
 10
-2.5969120646
 20
-0.5796739994
 10
-2.5819754648
 20
-0.5714273301
  0
LWPOLYLINE
  5
341
100
AcDbEntity
  8
IMPORT_IGES
100
AcDbPolyline
 62
250
  6
CONTINUOUS
 90
19
 70
0
 10
-3.8647116527
 20
-0.2777390521
 10
-3.8326470845
 20
-0.2947044345
 10
-3.7985354635
 20
-0.3098411981
 10
-3.7627033735
 20
-0.3230927792
 10
-3.7256879903
 20
-0.3343634775
 10
-3.6876108914
 20
-0.343712484
 10
-3.6480989241
 20
-0.3512489624
 10
-3.6072095752
 20
-0.3569106352
 10
-3.5654067907
 20
-0.3605833759
 10
-3.5228784712
 20
-0.3622082784
 10
-3.4798409895
 20
-0.3617207592
 10
-3.4367017121
 20
-0.3590687482
 10
-3.3939496255
 20
-0.354243459
 10
-3.3519961446
 20
-0.347270378
 10
-3.3110926606
 20
-0.3381696644
 10
-3.2714936371
 20
-0.3269616365
 10
-3.233513781
 20
-0.3136877049
 10
-3.1975158111
 20
-0.2984244572
 10
-3.1638289867
 20
-0.2812606164
  0
LINE
  5
342
100
AcDbEntity
  8
IMPORT_IGES
100
AcDbLine
 62
7
  6
CONTINUOUS
 10
-4.8341210401
 20
-0.2952622051
 11
-4.1146685554
 21
-0.7106650529
  0
LINE
  5
343
100
AcDbEntity
  8
IMPORT_IGES
100
AcDbLine
 62
250
  6
CONTINUOUS
 10
-4.2181586421
 20
-0.481826726
 11
-4.9376756034
 21
-0.0663866852
  0
LINE
  5
344
100
AcDbEntity
  8
IMPORT_IGES
100
AcDbLine
 62
250
  6
CONTINUOUS
 10
-5.2911606102
 20
0.5458690049
 11
-5.2941032782
 21
0.5475879912
  0
LINE
  5
345
100
AcDbEntity
  8
IMPORT_IGES
100
AcDbLine
 62
250
  6
CONTINUOUS
 10
-4.116645891
 20
-0.7095051573
 11
-4.1146685554
 21
-0.7106650529
  0
LINE
  5
346
100
AcDbEntity
  8
IMPORT_IGES
100
AcDbLine
 62
250
  6
CONTINUOUS
 10
-5.2941032782
 20
0.5475879912
 11
-5.2970196677
 21
0.5493167936
  0
LWPOLYLINE
  5
347
100
AcDbEntity
  8
IMPORT_IGES
100
AcDbPolyline
 62
7
  6
CONTINUOUS
 90
22
 70
0
 10
-4.9376756034
 20
-0.0663866852
 10
-4.9610378646
 20
-0.0523842705
 10
-4.984946717
 20
-0.0355290874
 10
-5.0094021607
 20
-0.015821136
 10
-5.0348619515
 20
0.0071476843
 10
-5.0608683336
 20
0.0329692729
 10
-5.0860480391
 20
0.0604193286
 10
-5.1101429234
 20
0.089377432
 10
-5.1334111312
 20
0.1199640024
 10
-5.1552538284
 20
0.1513159969
 10
-5.1754571617
 20
0.1831312505
 10
-5.1942349845
 20
0.2157119282
 10
-5.211630022
 20
0.2491014807
 10
-5.2277927975
 20
0.2835833182
 10
-5.2425727879
 20
0.3188740306
 10
-5.2555611488
 20
0.3541668387
 10
-5.2667656282
 20
0.3898774507
 10
-5.2761784782
 20
0.4255901585
 10
-5.2833676106
 20
0.4592510583
 10
-5.2881889959
 20
0.4901755157
 10
-5.2907866635
 20
0.5190481652
 10
-5.2911606135
 20
0.5458690068
  0
LINE
  5
348
100
AcDbEntity
  8
IMPORT_IGES
100
AcDbLine
 62
250
  6
CONTINUOUS
 10
-5.2970196677
 20
0.5493167936
 11
-5.299910034
 21
0.5510563374
  0
LINE
  5
349
100
AcDbEntity
  8
IMPORT_IGES
100
AcDbLine
 62
250
  6
CONTINUOUS
 10
-4.8399003711
 20
-0.2917673074
 11
-4.8341210401
 21
-0.2952622051
  0
LWPOLYLINE
  5
34A
100
AcDbEntity
  8
IMPORT_IGES
100
AcDbPolyline
 62
250
  6
CONTINUOUS
 90
3
 70
0
 10
-5.299910034
 20
0.5510563374
 10
-5.3027758787
 20
0.5528107587
 10
-5.3041994322
 20
0.5536932463
  0
LWPOLYLINE
  5
34B
100
AcDbEntity
  8
IMPORT_IGES
100
AcDbPolyline
 62
7
  6
CONTINUOUS
 90
19
 70
0
 10
-4.834086884
 20
-0.2952610916
 10
-4.8931499971
 20
-0.2583346398
 10
-4.9497186215
 20
-0.2174006595
 10
-5.0037873372
 20
-0.1727349015
 10
-5.055609471
 20
-0.124305022
 10
-5.1049361083
 20
-0.0724532479
 10
-5.1510550274
 20
-0.0181378971
 10
-5.1937845276
 20
0.0381033644
 10
-5.2333865248
 20
0.0963565444
 10
-5.2698256317
 20
0.1564241196
 10
-5.3030631756
 20
0.2181648575
 10
-5.3330191162
 20
0.2814326321
 10
-5.3595624794
 20
0.3460330734
 10
-5.3826510468
 20
0.4121068843
 10
-5.4020236111
 20
0.4793302965
 10
-5.4173349932
 20
0.546881662
 10
-5.4284478312
 20
0.6144646509
 10
-5.4352664756
 20
0.6822308514
 10
-5.4375888131
 20
0.750048131
  0
LWPOLYLINE
  5
34C
100
AcDbEntity
  8
IMPORT_IGES
100
AcDbPolyline
 62
250
  6
CONTINUOUS
 90
10
 70
0
 10
-5.3041994322
 20
0.5536932463
 10
-5.330887982
 20
0.5717423562
 10
-5.3549166536
 20
0.5909943096
 10
-5.3761239095
 20
0.6113187028
 10
-5.3943669598
 20
0.6325775063
 10
-5.4095240199
 20
0.6546273067
 10
-5.4214943941
 20
0.6773204489
 10
-5.4301977054
 20
0.7005041611
 10
-5.4355751631
 20
0.7240214236
 10
-5.4375907521
 20
0.7477134506
  0
LWPOLYLINE
  5
34D
100
AcDbEntity
  8
IMPORT_IGES
100
AcDbPolyline
 62
7
  6
CONTINUOUS
 90
13
 70
0
 10
-3.373503055
 20
5.3271475785
 10
-3.3418619073
 20
5.2699160884
 10
-3.3124574857
 20
5.2117153322
 10
-3.2854159737
 20
5.1527942246
 10
-3.2608544373
 20
5.0934045634
 10
-3.2388778179
 20
5.0338003291
 10
-3.2195786037
 20
4.9742365948
 10
-3.2030410218
 20
4.9149678751
 10
-3.1893365784
 20
4.8562472716
 10
-3.1785216084
 20
4.7983258342
 10
-3.1706430065
 20
4.7414510621
 10
-3.1657377361
 20
4.685865775
 10
-3.1638288938
 20
4.6318073513
  0
LWPOLYLINE
  5
34E
100
AcDbEntity
  8
IMPORT_IGES
100
AcDbPolyline
 62
7
  6
CONTINUOUS
 90
13
 70
0
 10
3.1820620253
 20
-52.6292318538
 10
3.1832894151
 20
-52.6890137975
 10
3.1878227666
 20
-52.7454736061
 10
3.19555448
 20
-52.7983768898
 10
3.206320792
 20
-52.8473633695
 10
3.2200061802
 20
-52.8924419022
 10
3.2366445646
 20
-52.933869346
 10
3.256208551
 20
-52.9714938913
 10
3.2785740868
 20
-53.0050054277
 10
3.30372336
 20
-53.0343004466
 10
3.3315529818
 20
-53.059155189
 10
3.3619559993
 20
-53.0793799102
 10
3.3833600463
 20
-53.0901013593
  0
LINE
  5
34F
100
AcDbEntity
  8
IMPORT_IGES
100
AcDbLine
 62
250
  6
CONTINUOUS
 10
3.1820466844
 20
33.4593451116
 11
3.1820488849
 21
-52.6299952368
  0
LWPOLYLINE
  5
350
100
AcDbEntity
  8
IMPORT_IGES
100
AcDbPolyline
 62
7
  6
CONTINUOUS
 90
28
 70
0
 10
-20.7345461696
 20
-16.1955318043
 10
-20.8518289155
 20
-16.2708994491
 10
-20.9686719767
 20
-16.353183181
 10
-21.0847495498
 20
-16.4421554732
 10
-21.1997327292
 20
-16.5375712295
 10
-21.3133068868
 20
-16.6391661306
 10
-21.4251723189
 20
-16.7466582774
 10
-21.5350177861
 20
-16.8597517813
 10
-21.6425377689
 20
-16.9781360189
 10
-21.7474492248
 20
-17.1014856252
 10
-21.8494610151
 20
-17.2294627896
 10
-21.9482886268
 20
-17.361716175
 10
-22.0436704366
 20
-17.4978822984
 10
-22.1353411106
 20
-17.6375876257
 10
-22.2230452772
 20
-17.7804497601
 10
-22.3065508989
 20
-17.9260780765
 10
-22.3856256016
 20
-18.0740736454
 10
-22.4600481351
 20
-18.224030808
 10
-22.5296205708
 20
-18.3755394348
 10
-22.5941484062
 20
-18.5281832094
 10
-22.6534506375
 20
-18.6815441347
 10
-22.707369298
 20
-18.8352047985
 10
-22.7557528865
 20
-18.9887429265
 10
-22.7984640809
 20
-19.1417365583
 10
-22.8353876876
 20
-19.2937687363
 10
-22.8664198811
 20
-19.4444219418
 10
-22.8914693423
 20
-19.5932793582
 10
-22.9104634024
 20
-19.739930043
  0
LINE
  5
351
100
AcDbEntity
  8
IMPORT_IGES
100
AcDbLine
 62
7
  6
CONTINUOUS
 10
-11.4684443154
 20
-10.1063216355
 11
-21.2481720947
 21
-16.1542519933
  0
LINE
  5
352
100
AcDbEntity
  8
IMPORT_IGES
100
AcDbLine
 62
250
  6
CONTINUOUS
 10
-20.7345436484
 20
-16.1955332871
 11
-11.4684443154
 21
-10.4652553314
  0
LINE
  5
353
100
AcDbEntity
  8
IMPORT_IGES
100
AcDbLine
 62
7
  6
CONTINUOUS
 10
-14.6764689275
 20
-12.8722328059
 11
-17.5250020918
 21
-14.6338084436
  0
LINE
  5
354
100
AcDbEntity
  8
IMPORT_IGES
100
AcDbLine
 62
7
  6
CONTINUOUS
 10
-14.5872443577
 20
-12.9237499549
 11
-17.415671482
 21
-14.6138544946
  0
LINE
  5
355
100
AcDbEntity
  8
IMPORT_IGES
100
AcDbLine
 62
250
  6
CONTINUOUS
 10
-5.4376067113
 20
1.417606858
 11
-6.2245787898
 21
1.4262482025
  0
LWPOLYLINE
  5
356
100
AcDbEntity
  8
IMPORT_IGES
100
AcDbPolyline
 62
250
  6
CONTINUOUS
 90
10
 70
0
 10
-3.5151598671
 20
4.5507980789
 10
-3.5558037529
 20
4.5519437557
 10
-3.5962668625
 20
4.5550049442
 10
-3.6362759518
 20
4.5599775735
 10
-3.6755670675
 20
4.566846087
 10
-3.71385649
 20
4.5755793785
 10
-3.7508459067
 20
4.5861260135
 10
-3.7862653391
 20
4.5984220171
 10
-3.8198718121
 20
4.6123958413
 10
-3.8514225484
 20
4.6279614651
  0
LWPOLYLINE
  5
357
100
AcDbEntity
  8
IMPORT_IGES
100
AcDbPolyline
 62
7
  6
CONTINUOUS
 90
22
 70
0
 10
-4.0366513844
 20
6.8860058723
 10
-4.0594790654
 20
6.8973088081
 10
-4.088811747
 20
6.9105879165
 10
-4.1179787935
 20
6.9225614661
 10
-4.1468999236
 20
6.9332479665
 10
-4.1755275615
 20
6.9426437674
 10
-4.203834522
 20
6.9507259326
 10
-4.2317714939
 20
6.9574862353
 10
-4.2592877513
 20
6.9629240331
 10
-4.2863617178
 20
6.9670259908
 10
-4.3129887147
 20
6.9697686235
 10
-4.3391259902
 20
6.9711508238
 10
-4.3647473444
 20
6.9711712031
 10
-4.3898730533
 20
6.9698064842
 10
-4.4146322052
 20
6.9670267918
 10
-4.4388212939
 20
6.9628482592
 10
-4.4619930578
 20
6.957389365
 10
-4.4841711745
 20
6.9507199808
 10
-4.5053367369
 20
6.9429200922
 10
-4.5250553878
 20
6.9342754823
 10
-4.5432001637
 20
6.925033445
 10
-4.550747519
 20
6.9207965235
  0
LINE
  5
358
100
AcDbEntity
  8
IMPORT_IGES
100
AcDbLine
 62
250
  6
CONTINUOUS
 10
-3.8514225484
 20
4.6279614651
 11
-3.8544514402
 21
4.6295966108
  0
LWPOLYLINE
  5
359
100
AcDbEntity
  8
IMPORT_IGES
100
AcDbPolyline
 62
250
  6
CONTINUOUS
 90
7
 70
0
 10
-3.8544514402
 20
4.6295966108
 10
-3.8574368521
 20
4.6312351772
 10
-3.8589133386
 20
4.6320554054
 10
-3.8603789863
 20
4.6328819002
 10
-3.8618338093
 20
4.633716323
 10
-3.8632778642
 20
4.6345569144
 10
-3.8647111869
 20
4.635403626
  0
LINE
  5
35A
100
AcDbEntity
  8
IMPORT_IGES
100
AcDbLine
 62
7
  6
CONTINUOUS
 10
-4.2079335443
 20
6.9849584154
 11
-3.9029781992
 21
6.8104910328
  0
LINE
  5
35B
100
AcDbEntity
  8
IMPORT_IGES
100
AcDbLine
 62
7
  6
CONTINUOUS
 10
-3.8846101645
 20
6.7999182212
 11
-3.876240869
 21
6.7951152825
  0
LINE
  5
35C
100
AcDbEntity
  8
IMPORT_IGES
100
AcDbLine
 62
250
  6
CONTINUOUS
 10
-4.9376744748
 20
5.6630329185
 11
-4.2181961707
 21
5.2476151627
  0
LINE
  5
35D
100
AcDbEntity
  8
IMPORT_IGES
100
AcDbLine
 62
250
  6
CONTINUOUS
 10
-4.5902748603
 20
6.2717703614
 11
-3.8708295127
 21
5.856371616
  0
LINE
  5
35E
100
AcDbEntity
  8
IMPORT_IGES
100
AcDbLine
 62
7
  6
CONTINUOUS
 10
-3.8969246975
 20
6.8070207802
 11
-3.9017196314
 21
6.8097893332
  0
LINE
  5
35F
100
AcDbEntity
  8
IMPORT_IGES
100
AcDbLine
 62
7
  6
CONTINUOUS
 10
-3.8858589248
 20
6.8006413458
 11
-3.8846101645
 21
6.7999182212
  0
LINE
  5
360
100
AcDbEntity
  8
IMPORT_IGES
100
AcDbLine
 62
7
  6
CONTINUOUS
 10
-4.4680683555
 20
7.1354082762
 11
-4.2079335443
 21
6.9849584154
  0
LINE
  5
361
100
AcDbEntity
  8
IMPORT_IGES
100
AcDbLine
 62
7
  6
CONTINUOUS
 10
-3.876240869
 20
6.7951152825
 11
-3.8714078701
 21
6.7923039929
  0
LINE
  5
362
100
AcDbEntity
  8
IMPORT_IGES
100
AcDbLine
 62
7
  6
CONTINUOUS
 10
-4.6834653856
 20
7.2611416915
 11
-4.4680683555
 21
7.1354082762
  0
LINE
  5
363
100
AcDbEntity
  8
IMPORT_IGES
100
AcDbLine
 62
7
  6
CONTINUOUS
 10
-4.7069360366
 20
7.2749790042
 11
-4.6834653856
 21
7.2611416915
  0
LINE
  5
364
100
AcDbEntity
  8
IMPORT_IGES
100
AcDbLine
 62
7
  6
CONTINUOUS
 10
-3.8714078701
 20
6.7923039929
 11
-3.8660463959
 21
6.7891421323
  0
LWPOLYLINE
  5
365
100
AcDbEntity
  8
IMPORT_IGES
100
AcDbPolyline
 62
7
  6
CONTINUOUS
 90
3
 70
0
 10
-3.889548192
 20
6.8028127364
 10
-3.8883098455
 20
6.8020754108
 10
-3.8870830083
 20
6.8013541216
  0
LINE
  5
366
100
AcDbEntity
  8
IMPORT_IGES
100
AcDbLine
 62
7
  6
CONTINUOUS
 10
-3.8660463959
 20
6.7891421323
 11
-3.8601820966
 21
6.7856413479
  0
LWPOLYLINE
  5
367
100
AcDbEntity
  8
IMPORT_IGES
100
AcDbPolyline
 62
7
  6
CONTINUOUS
 90
22
 70
0
 10
-4.2181961707
 20
5.2476151627
 10
-4.1948297564
 20
5.2336099833
 10
-4.170916834
 20
5.216751312
 10
-4.1464574037
 20
5.1970391488
 10
-4.1209934451
 20
5.1740650492
 10
-4.0949829785
 20
5.1482374577
 10
-4.0698000642
 20
5.1207817082
 10
-4.0457030591
 20
5.0918181719
 10
-4.0224336064
 20
5.0612264775
 10
-4.0005906961
 20
5.029870845
 10
-3.9803884887
 20
4.9980543085
 10
-3.9616128237
 20
4.9654738339
 10
-3.9442202102
 20
4.9320845392
 10
-3.9280600035
 20
4.8976020603
 10
-3.9132828482
 20
4.8623107613
 10
-3.9002971869
 20
4.827018852
 10
-3.8890951028
 20
4.7913093417
 10
-3.8796845127
 20
4.7555992211
 10
-3.8724976093
 20
4.7219476725
 10
-3.8676784568
 20
4.6910410899
 10
-3.8650829911
 20
4.6621930793
 10
-3.8647112121
 20
4.6354036406
  0
LWPOLYLINE
  5
368
100
AcDbEntity
  8
IMPORT_IGES
100
AcDbPolyline
 62
7
  6
CONTINUOUS
 90
3
 70
0
 10
-3.8957939876
 20
6.8065863197
 10
-3.8945438842
 20
6.8058353526
 10
-3.8932871379
 20
6.8050698839
  0
LINE
  5
369
100
AcDbEntity
  8
IMPORT_IGES
100
AcDbLine
 62
7
  6
CONTINUOUS
 10
-3.8920343049
 20
6.8043092244
 11
-3.8907892915
 21
6.803558576
  0
LINE
  5
36A
100
AcDbEntity
  8
IMPORT_IGES
100
AcDbLine
 62
7
  6
CONTINUOUS
 10
-3.8601820966
 20
6.7856413479
 11
-3.8515440851
 21
6.7804260479
  0
LINE
  5
36B
100
AcDbEntity
  8
IMPORT_IGES
100
AcDbLine
 62
7
  6
CONTINUOUS
 10
-3.8515440851
 20
6.7804260479
 11
-3.8392609117
 21
6.7729335137
  0
LINE
  5
36C
100
AcDbEntity
  8
IMPORT_IGES
100
AcDbLine
 62
7
  6
CONTINUOUS
 10
-3.8392609117
 20
6.7729335137
 11
-3.828106723
 21
6.7660575611
  0
LWPOLYLINE
  5
36D
100
AcDbEntity
  8
IMPORT_IGES
100
AcDbPolyline
 62
7
  6
CONTINUOUS
 90
13
 70
0
 10
-3.8708295127
 20
5.856371616
 10
-3.8249704168
 20
5.8276891776
 10
-3.7792870885
 20
5.7956489124
 10
-3.7339735174
 20
5.7603894399
 10
-3.6892214071
 20
5.7220640421
 10
-3.645221698
 20
5.6808370644
 10
-3.6021638221
 20
5.6368829715
 10
-3.5602312538
 20
5.5903902855
 10
-3.5196021964
 20
5.5415590971
 10
-3.4804512782
 20
5.4905969972
 10
-3.4429459549
 20
5.4377218126
 10
-3.4072457304
 20
5.3831607777
 10
-3.373503055
 20
5.3271475785
  0
LINE
  5
36E
100
AcDbEntity
  8
IMPORT_IGES
100
AcDbLine
 62
7
  6
CONTINUOUS
 10
-3.828106723
 20
6.7660575611
 11
-3.8156811102
 21
6.7583085388
  0
LWPOLYLINE
  5
36F
100
AcDbEntity
  8
IMPORT_IGES
100
AcDbPolyline
 62
250
  6
CONTINUOUS
 90
11
 70
0
 10
-5.2911601059
 20
5.4589676968
 10
-5.3205491516
 20
5.4774775442
 10
-5.346769636
 20
5.4971702872
 10
-5.3697235924
 20
5.5178573617
 10
-5.3892447673
 20
5.5392289283
 10
-5.405436179
 20
5.5612144727
 10
-5.4184884065
 20
5.584028495
 10
-5.4282940941
 20
5.6076374855
 10
-5.4346550743
 20
5.6317738857
 10
-5.4374693244
 20
5.656329204
 10
-5.4376067113
 20
5.6630964229
  0
LINE
  5
370
100
AcDbEntity
  8
IMPORT_IGES
100
AcDbLine
 62
7
  6
CONTINUOUS
 10
-3.8156811102
 20
6.7583085388
 11
-3.8054643579
 21
6.7518588944
  0
LINE
  5
371
100
AcDbEntity
  8
IMPORT_IGES
100
AcDbLine
 62
7
  6
CONTINUOUS
 10
-3.8054643579
 20
6.7518588944
 11
-3.7943990114
 21
6.7447873301
  0
LINE
  5
372
100
AcDbEntity
  8
IMPORT_IGES
100
AcDbLine
 62
7
  6
CONTINUOUS
 10
-3.7943990114
 20
6.7447873301
 11
-3.7823959707
 21
6.737011917
  0
LINE
  5
373
100
AcDbEntity
  8
IMPORT_IGES
100
AcDbLine
 62
7
  6
CONTINUOUS
 10
-3.7823959707
 20
6.737011917
 11
-3.7693897813
 21
6.7284657473
  0
LINE
  5
374
100
AcDbEntity
  8
IMPORT_IGES
100
AcDbLine
 62
7
  6
CONTINUOUS
 10
-3.7693897813
 20
6.7284657473
 11
-3.7601214708
 21
6.7222998854
  0
LINE
  5
375
100
AcDbEntity
  8
IMPORT_IGES
100
AcDbLine
 62
7
  6
CONTINUOUS
 10
-3.7601214708
 20
6.7222998854
 11
-3.7503478924
 21
6.7157327251
  0
LINE
  5
376
100
AcDbEntity
  8
IMPORT_IGES
100
AcDbLine
 62
7
  6
CONTINUOUS
 10
-3.7503478924
 20
6.7157327251
 11
-3.740037155
 21
6.7087327679
  0
LINE
  5
377
100
AcDbEntity
  8
IMPORT_IGES
100
AcDbLine
 62
7
  6
CONTINUOUS
 10
-3.740037155
 20
6.7087327679
 11
-3.7291525629
 21
6.7012611291
  0
LINE
  5
378
100
AcDbEntity
  8
IMPORT_IGES
100
AcDbLine
 62
7
  6
CONTINUOUS
 10
-3.7291525629
 20
6.7012611291
 11
-3.7176685891
 21
6.6932902133
  0
LINE
  5
379
100
AcDbEntity
  8
IMPORT_IGES
100
AcDbLine
 62
7
  6
CONTINUOUS
 10
-3.7176685891
 20
6.6932902133
 11
-3.7055457009
 21
6.6847760681
  0
LINE
  5
37A
100
AcDbEntity
  8
IMPORT_IGES
100
AcDbLine
 62
7
  6
CONTINUOUS
 10
-3.7055457009
 20
6.6847760681
 11
-3.6927397058
 21
6.6756667407
  0
LINE
  5
37B
100
AcDbEntity
  8
IMPORT_IGES
100
AcDbLine
 62
7
  6
CONTINUOUS
 10
-3.6927397058
 20
6.6756667407
 11
-3.6792198185
 21
6.6659257894
  0
LINE
  5
37C
100
AcDbEntity
  8
IMPORT_IGES
100
AcDbLine
 62
7
  6
CONTINUOUS
 10
-3.6792198185
 20
6.6659257894
 11
-3.6649385534
 21
6.6554959608
  0
LINE
  5
37D
100
AcDbEntity
  8
IMPORT_IGES
100
AcDbLine
 62
7
  6
CONTINUOUS
 10
-3.6649385534
 20
6.6554959608
 11
-3.6498427241
 21
6.644309793
  0
LINE
  5
37E
100
AcDbEntity
  8
IMPORT_IGES
100
AcDbLine
 62
7
  6
CONTINUOUS
 10
-3.6498427241
 20
6.644309793
 11
-3.6338951144
 21
6.6323194803
  0
LINE
  5
37F
100
AcDbEntity
  8
IMPORT_IGES
100
AcDbLine
 62
7
  6
CONTINUOUS
 10
-3.6338951144
 20
6.6323194803
 11
-3.6170381242
 21
6.6194494562
  0
LWPOLYLINE
  5
380
100
AcDbEntity
  8
IMPORT_IGES
100
AcDbPolyline
 62
7
  6
CONTINUOUS
 90
3
 70
0
 10
-3.6170381242
 20
6.6194494562
 10
-3.5992082365
 20
6.6056101916
 10
-3.5899204725
 20
6.5983163528
  0
LWPOLYLINE
  5
381
100
AcDbEntity
  8
IMPORT_IGES
100
AcDbPolyline
 62
7
  6
CONTINUOUS
 90
4
 70
0
 10
-3.5899204725
 20
6.5983163528
 10
-3.5705232299
 20
6.5828716374
 10
-3.560413457
 20
6.5747209361
 10
-3.5499994171
 20
6.5662396467
  0
LWPOLYLINE
  5
382
100
AcDbEntity
  8
IMPORT_IGES
100
AcDbPolyline
 62
7
  6
CONTINUOUS
 90
65
 70
0
 10
-3.5499994171
 20
6.5662396467
 10
-3.528255136
 20
6.5482869599
 10
-3.5169004167
 20
6.5387690427
 10
-3.5052171265
 20
6.5288785487
 10
-3.4932031506
 20
6.518611919
 10
-3.4808270822
 20
6.5079121192
 10
-3.4680895623
 20
6.4967827533
 10
-3.4549894506
 20
6.4852205163
 10
-3.4414926126
 20
6.4731580437
 10
-3.4275996737
 20
6.4605997715
 10
-3.4133094135
 20
6.4475416207
 10
-3.3985848629
 20
6.4339034938
 10
-3.3834265711
 20
6.4196908842
 10
-3.3678332807
 20
6.4048987245
 10
-3.3517652345
 20
6.3894311223
 10
-3.335222695
 20
6.3732948222
 10
-3.3182045578
 20
6.3564835873
 10
-3.3006689256
 20
6.3388821074
 10
-3.2826160092
 20
6.3204992195
 10
-3.2640446004
 20
6.3013266896
 10
-3.2449105687
 20
6.2812236635
 10
-3.225211712
 20
6.2601993232
 10
-3.2049490528
 20
6.2382452021
 10
-3.1840831861
 20
6.2151940416
 10
-3.1626165184
 20
6.1910647044
 10
-3.1405452754
 20
6.1658391601
 10
-3.1178206516
 20
6.1392948895
 10
-3.0944390286
 20
6.1114485097
 10
-3.0704024147
 20
6.0822843866
 10
-3.0456703024
 20
6.0515317117
 10
-3.0202332679
 20
6.0192066802
 10
-2.9940988765
 20
5.9852942358
 10
-2.9672519954
 20
5.9494767601
 10
-2.93967838
 20
5.9117750782
 10
-2.9113902208
 20
5.8721696297
 10
-2.8824120185
 20
5.8302822307
 10
-2.8527180252
 20
5.7861314907
 10
-2.8223318524
 20
5.7397001234
 10
-2.791352206
 20
5.6905560025
 10
-2.7594882269
 20
5.6381999553
 10
-2.727028535
 20
5.5831325495
 10
-2.6949428603
 20
5.5264201655
 10
-2.6632422237
 20
5.4678868722
 10
-2.63191697
 20
5.407707789
 10
-2.6019090237
 20
5.3474739005
 10
-2.5735434727
 20
5.2877317169
 10
-2.5464996974
 20
5.2279319962
 10
-2.5207524307
 20
5.1680212477
 10
-2.4963165269
 20
5.1080438269
 10
-2.4731806125
 20
5.0479532409
 10
-2.4512798208
 20
4.9875598827
 10
-2.4305522371
 20
4.9266856168
 10
-2.411062517
 20
4.8655068888
 10
-2.3929355709
 20
4.8043660105
 10
-2.3761697109
 20
4.7431876889
 10
-2.3607691238
 20
4.6820456698
 10
-2.3468676156
 20
4.6215057698
 10
-2.3344949552
 20
4.561568716
 10
-2.3236234473
 20
4.5022324936
 10
-2.3143006573
 20
4.4440588328
 10
-2.3065607728
 20
4.3870689471
 10
-2.3003709935
 20
4.3312407597
 10
-2.2956782239
 20
4.2770711757
 10
-2.2924649634
 20
4.2247257069
 10
-2.2914431218
 20
4.199856132
  0
LINE
  5
383
100
AcDbEntity
  8
IMPORT_IGES
100
AcDbLine
 62
7
  6
CONTINUOUS
 10
5.2508483791
 20
46.8849750204
 11
5.2508483791
 21
46.0685047436
  0
LINE
  5
384
100
AcDbEntity
  8
IMPORT_IGES
100
AcDbLine
 62
7
  6
CONTINUOUS
 10
6.2407978732
 20
46.3133905895
 11
6.2407978732
 21
46.7216651833
  0
LINE
  5
385
100
AcDbEntity
  8
IMPORT_IGES
100
AcDbLine
 62
250
  6
CONTINUOUS
 10
7.3395119509
 20
33.6381295957
 11
7.3395123946
 21
-52.522556682
  0
LINE
  5
386
100
AcDbEntity
  8
IMPORT_IGES
100
AcDbLine
 62
7
  6
CONTINUOUS
 10
7.8671434695
 20
47.6279182018
 11
7.8671434695
 21
47.2196830634
  0
LINE
  5
387
100
AcDbEntity
  8
IMPORT_IGES
100
AcDbLine
 62
7
  6
CONTINUOUS
 10
-15.6088057883
 20
-15.6571161008
 11
-14.9016990071
 21
-15.2345899658
  0
LWPOLYLINE
  5
388
100
AcDbEntity
  8
IMPORT_IGES
100
AcDbPolyline
 62
7
  6
CONTINUOUS
 90
11
 70
0
 10
-5.0231413264
 20
6.3500886555
 10
-4.9854476795
 20
6.3595481963
 10
-4.9460360952
 20
6.3651523229
 10
-4.9050748608
 20
6.3668770341
 10
-4.8627372343
 20
6.3647155775
 10
-4.8192058068
 20
6.3586761311
 10
-4.7746671795
 20
6.3487838687
 10
-4.7293083812
 20
6.3350817262
 10
-4.6833231732
 20
6.3176274365
 10
-4.6369113064
 20
6.2964936618
 10
-4.5902729922
 20
6.2717693385
  0
LINE
  5
389
100
AcDbEntity
  8
IMPORT_IGES
100
AcDbLine
 62
7
  6
CONTINUOUS
 10
-4.991129338
 20
6.3827977228
 11
-6.2245814752
 21
6.3964274247
  0
LWPOLYLINE
  5
38A
100
AcDbEntity
  8
IMPORT_IGES
100
AcDbPolyline
 62
7
  6
CONTINUOUS
 90
14
 70
0
 10
20.4080844
 20
-3.9375969564
 10
20.4498237292
 20
-3.9571485908
 10
20.527460642
 20
-3.9843395402
 10
20.6088250161
 20
-4.0041887776
 10
20.6931195389
 20
-4.0164979055
 10
20.7803724827
 20
-4.0211939073
 10
20.8705555752
 20
-4.0183497996
 10
20.9627866865
 20
-4.0079862352
 10
21.057086794
 20
-3.9900301725
 10
21.1534349204
 20
-3.964554653
 10
21.2508860044
 20
-3.9317994545
 10
21.3491250255
 20
-3.8918445027
 10
21.4484670041
 20
-3.8446098719
 10
21.5489119403
 20
-3.7900955619
  0
LWPOLYLINE
  5
38B
100
AcDbEntity
  8
IMPORT_IGES
100
AcDbPolyline
 62
7
  6
CONTINUOUS
 90
7
 70
0
 10
-3.9029781992
 20
6.8104910328
 10
-3.9018407154
 20
6.8099481489
 10
-3.9006792797
 20
6.8093621031
 10
-3.8994938908
 20
6.8087328963
 10
-3.898278775
 20
6.8080509774
 10
-3.8970397023
 20
6.8073258996
 10
-3.8968227537
 20
6.8071973395
  0
LINE
  5
38C
100
AcDbEntity
  8
IMPORT_IGES
100
AcDbLine
 62
250
  6
CONTINUOUS
 10
21.5489116098
 20
-3.7900953777
 11
21.6454118801
 21
-3.8457050475
  0
LWPOLYLINE
  5
38D
100
AcDbEntity
  8
IMPORT_IGES
100
AcDbPolyline
 62
7
  6
CONTINUOUS
 90
15
 70
0
 10
20.4648141874
 20
-3.9744271951
 10
20.4202596749
 20
-3.9466809416
 10
20.3554893726
 20
-3.8983557523
 10
20.2951128279
 20
-3.8429966205
 10
20.239088079
 20
-3.7806715532
 10
20.1879670045
 20
-3.7119912097
 10
20.1417974031
 20
-3.6368939624
 10
20.1005314761
 20
-3.5554414388
 10
20.0645777059
 20
-3.4684291817
 10
20.0339874464
 20
-3.3758023609
 10
20.0087093437
 20
-3.2776158065
 10
19.9889978183
 20
-3.1748295511
 10
19.9749376771
 20
-3.0677636057
 10
19.9664441131
 20
-2.9560979594
 10
19.9635171264
 20
-2.8398326121
  0
LWPOLYLINE
  5
38E
100
AcDbEntity
  8
IMPORT_IGES
100
AcDbPolyline
 62
250
  6
CONTINUOUS
 90
22
 70
0
 10
7.3395091076
 20
33.6381759763
 10
7.3366244603
 20
33.6999464047
 10
7.3298598376
 20
33.7636671089
 10
7.31925952
 20
33.8289777163
 10
7.3048903638
 20
33.895504939
 10
7.2868382627
 20
33.9628795369
 10
7.2652048689
 20
34.0307389523
 10
7.2401143963
 20
34.0987039503
 10
7.2117102676
 20
34.1663950093
 10
7.1801469362
 20
34.233449352
 10
7.1456014325
 20
34.2994932404
 10
7.1082673486
 20
34.3641587307
 10
7.0683448399
 20
34.4270991656
 10
7.0260557604
 20
34.4879628814
 10
6.9816352343
 20
34.5464097025
 10
6.9353201808
 20
34.6021245405
 10
6.8873675022
 20
34.6547934439
 10
6.8380435567
 20
34.7041191215
 10
6.7876116312
 20
34.7498321482
 10
6.7363485998
 20
34.7916734706
 10
6.6845442742
 20
34.8293985398
 10
6.6324886139
 20
34.8627887901
  0
LWPOLYLINE
  5
38F
100
AcDbEntity
  8
IMPORT_IGES
100
AcDbPolyline
 62
7
  6
CONTINUOUS
 90
13
 70
0
 10
9.4440987317
 20
47.8239671313
 10
9.447043447
 20
47.7459921768
 10
9.45597923
 20
47.6675637282
 10
9.4710336052
 20
47.5890302501
 10
9.4922466606
 20
47.510911793
 10
9.5197004496
 20
47.4333897422
 10
9.5536617838
 20
47.3563027971
 10
9.5943414921
 20
47.2798442648
 10
9.6417720517
 20
47.2045171085
 10
9.6960823102
 20
47.130583441
 10
9.7576235257
 20
47.0580633451
 10
9.8262738374
 20
46.9875586871
 10
9.901311127
 20
46.9200374349
  0
LINE
  5
390
100
AcDbEntity
  8
IMPORT_IGES
100
AcDbLine
 62
7
  6
CONTINUOUS
 10
9.4440987317
 20
47.8239671301
 11
9.4440987317
 21
48.4771433516
  0
LINE
  5
391
100
AcDbEntity
  8
IMPORT_IGES
100
AcDbLine
 62
250
  6
CONTINUOUS
 10
9.4440987351
 20
48.4770734628
 11
9.4440987317
 21
48.4771433516
  0
LINE
  5
392
100
AcDbEntity
  8
IMPORT_IGES
100
AcDbLine
 62
7
  6
CONTINUOUS
 10
9.7056211006
 20
43.247559063
 11
9.7056211006
 21
44.3128450824
  0
LINE
  5
393
100
AcDbEntity
  8
IMPORT_IGES
100
AcDbLine
 62
7
  6
CONTINUOUS
 10
9.7409764396
 20
46.5459905295
 11
9.7409764396
 21
46.7501391915
  0
LINE
  5
394
100
AcDbEntity
  8
IMPORT_IGES
100
AcDbLine
 62
7
  6
CONTINUOUS
 10
10.0945298302
 20
46.5460018949
 11
10.0945298302
 21
46.3418532328
  0
LINE
  5
395
100
AcDbEntity
  8
IMPORT_IGES
100
AcDbLine
 62
7
  6
CONTINUOUS
 10
10.342017204
 20
44.3536725419
 11
10.3420172038
 21
43.6130776572
  0
LINE
  5
396
100
AcDbEntity
  8
IMPORT_IGES
100
AcDbLine
 62
7
  6
CONTINUOUS
 10
10.9784133067
 20
49.5386178393
 11
10.9784133067
 21
48.2321391406
  0
LINE
  5
397
100
AcDbEntity
  8
IMPORT_IGES
100
AcDbLine
 62
7
  6
CONTINUOUS
 10
11.5440987317
 20
49.2119981646
 11
11.5440987317
 21
48.5587588153
  0
LWPOLYLINE
  5
398
100
AcDbEntity
  8
IMPORT_IGES
100
AcDbPolyline
 62
250
  6
CONTINUOUS
 90
12
 70
0
 10
7.3395102417
 20
-52.5226343278
 10
7.3366178579
 20
-52.5832548544
 10
7.3298979634
 20
-52.6407151437
 10
7.3194852031
 20
-52.6947679406
 10
7.3055846327
 20
-52.7450331024
 10
7.288334203
 20
-52.7915132792
 10
7.2676863753
 20
-52.8344755401
 10
7.2436769511
 20
-52.8737630741
 10
7.2164620281
 20
-52.9090492829
 10
7.1860659844
 20
-52.9402260557
 10
7.1526184253
 20
-52.967057292
 10
7.1184908496
 20
-52.9881489109
  0
LWPOLYLINE
  5
399
100
AcDbEntity
  8
IMPORT_IGES
100
AcDbPolyline
 62
250
  6
CONTINUOUS
 90
39
 70
0
 10
13.6435630126
 20
47.7965808615
 10
13.6365996679
 20
47.7215889368
 10
13.6217053032
 20
47.6473668385
 10
13.5990547978
 20
47.5741807659
 10
13.5688538265
 20
47.5023012579
 10
13.5313380048
 20
47.4319894688
 10
13.4870582658
 20
47.3638982716
 10
13.436081911
 20
47.2978154868
 10
13.3775750632
 20
47.2327819827
 10
13.3103840399
 20
47.1681209918
 10
13.2353940097
 20
47.1052367783
 10
13.1551023387
 20
47.0461708375
 10
13.0718830122
 20
46.9920731681
 10
12.9848156497
 20
46.9418039616
 10
12.8915503147
 20
46.8939655986
 10
12.7901687966
 20
46.8479757384
 10
12.6827264081
 20
46.8051560211
 10
12.5728271935
 20
46.7669036412
 10
12.4630818446
 20
46.7337180012
 10
12.3521960285
 20
46.7048211926
 10
12.2380749977
 20
46.6795745459
 10
12.1202382397
 20
46.6579784549
 10
11.9998635612
 20
46.6403540273
 10
11.8771640106
 20
46.6268008226
 10
11.752571638
 20
46.6174429592
 10
11.6264931441
 20
46.6123870923
 10
11.4991216834
 20
46.6117315805
 10
11.3709732064
 20
46.6155808827
 10
11.2424866739
 20
46.6240245311
 10
11.1137770743
 20
46.6371832847
 10
10.9847852387
 20
46.6552504004
 10
10.8567083307
 20
46.6782502035
 10
10.7315092243
 20
46.7059060877
 10
10.6100083097
 20
46.7380065834
 10
10.4923580552
 20
46.7744803846
 10
10.3793752888
 20
46.8150381982
 10
10.2715745154
 20
46.8594220335
 10
10.1692088241
 20
46.907451549
 10
10.0726229233
 20
46.958895224
  0
LINE
  5
39A
100
AcDbEntity
  8
IMPORT_IGES
100
AcDbLine
 62
7
  6
CONTINUOUS
 10
21.645446734
 20
1.3756385167
 11
23.0553533115
 21
2.2724222047
  0
LINE
  5
39B
100
AcDbEntity
  8
IMPORT_IGES
100
AcDbLine
 62
7
  6
CONTINUOUS
 10
-12.0732718824
 20
-16.8676883391
 11
-12.7803786636
 21
-17.2902144741
  0
LINE
  5
39C
100
AcDbEntity
  8
IMPORT_IGES
100
AcDbLine
 62
250
  6
CONTINUOUS
 10
-11.4684443154
 20
-19.0738460458
 11
-13.6089612278
 21
-20.3097552722
  0
LWPOLYLINE
  5
39D
100
AcDbEntity
  8
IMPORT_IGES
100
AcDbPolyline
 62
7
  6
CONTINUOUS
 90
15
 70
0
 10
13.6440987282
 20
48.4772129283
 10
13.6424639096
 20
48.5352559732
 10
13.6340931118
 20
48.6207194585
 10
13.6185043826
 20
48.7062079902
 10
13.5956238598
 20
48.7912434507
 10
13.5650669136
 20
48.8762656733
 10
13.5263567311
 20
48.9613207397
 10
13.4794964355
 20
49.0453796182
 10
13.424790134
 20
49.1273759643
 10
13.3624187508
 20
49.2067957101
 10
13.2923009958
 20
49.2835196451
 10
13.2144743388
 20
49.3572570939
 10
13.1289505664
 20
49.4277500736
 10
13.0357509229
 20
49.4947290247
 10
12.9349992475
 20
49.557858179
  0
LINE
  5
39E
100
AcDbEntity
  8
IMPORT_IGES
100
AcDbLine
 62
7
  6
CONTINUOUS
 10
12.1097841566
 20
49.5386178393
 11
12.1097841566
 21
48.2321391406
  0
LINE
  5
39F
100
AcDbEntity
  8
IMPORT_IGES
100
AcDbLine
 62
7
  6
CONTINUOUS
 10
13.6440987317
 20
47.8239671301
 11
13.6440987317
 21
48.4771433516
  0
LINE
  5
3A0
100
AcDbEntity
  8
IMPORT_IGES
100
AcDbLine
 62
7
  6
CONTINUOUS
 10
14.7967899251
 20
47.0036064117
 11
14.7967899251
 21
46.9964772961
  0
LINE
  5
3A1
100
AcDbEntity
  8
IMPORT_IGES
100
AcDbLine
 62
250
  6
CONTINUOUS
 10
13.6440987317
 20
47.8239671301
 11
13.6435630126
 21
47.7965808615
  0
LWPOLYLINE
  5
3A2
100
AcDbEntity
  8
IMPORT_IGES
100
AcDbPolyline
 62
250
  6
CONTINUOUS
 90
40
 70
0
 10
13.6440987317
 20
48.4771433516
 10
13.6431770063
 20
48.4412226263
 10
13.6352873092
 20
48.3661852634
 10
13.6194610244
 20
48.2919546101
 10
13.595877629
 20
48.2187965852
 10
13.5647476786
 20
48.1469817911
 10
13.5263135277
 20
48.0767741627
 10
13.4811369471
 20
48.0088244688
 10
13.4292850326
 20
47.9429202629
 10
13.3699167979
 20
47.8781088245
 10
13.3018807958
 20
47.8137248466
 10
13.2260767876
 20
47.7511604448
 10
13.145006862
 20
47.6924287161
 10
13.0610492667
 20
47.6386659965
 10
12.9732738177
 20
47.5887433577
 10
12.8793083501
 20
47.5412740905
 10
12.7772155467
 20
47.495682662
 10
12.6690749323
 20
47.4532889115
 10
12.5585361931
 20
47.4154854804
 10
12.4482287086
 20
47.3827619547
 10
12.3368411224
 20
47.3543422711
 10
12.2222725562
 20
47.3295967982
 10
12.1040468312
 20
47.3085279314
 10
11.9833450216
 20
47.2914500082
 10
11.8603752718
 20
47.2784601103
 10
11.7355716649
 20
47.2696802162
 10
11.6093439617
 20
47.2652150272
 10
11.4818818875
 20
47.2651619375
 10
11.3537092986
 20
47.2696231003
 10
11.2252618803
 20
47.2786862544
 10
11.0966356552
 20
47.2924747238
 10
10.9677594121
 20
47.3111875971
 10
10.8398512455
 20
47.3348445223
 10
10.714901962
 20
47.363154663
 10
10.5937390722
 20
47.3958989434
 10
10.4765061561
 20
47.4330061478
 10
10.3640182667
 20
47.4741812513
 10
10.2567871777
 20
47.5191621937
 10
10.1550632218
 20
47.5677662748
 10
10.0591878493
 20
47.6197589928
  0
LINE
  5
3A3
100
AcDbEntity
  8
IMPORT_IGES
100
AcDbLine
 62
7
  6
CONTINUOUS
 10
23.0553533107
 20
-3.0075955841
 11
21.6454118801
 21
-3.8457050475
  0
LINE
  5
3A4
100
AcDbEntity
  8
IMPORT_IGES
100
AcDbLine
 62
250
  6
CONTINUOUS
 10
-12.9019760868
 20
-21.534324759
 11
-11.4684443154
 21
-20.7066259947
  0
LINE
  5
3A5
100
AcDbEntity
  8
IMPORT_IGES
100
AcDbLine
 62
7
  6
CONTINUOUS
 10
23.1881815014
 20
-2.8435986125
 11
21.5489119403
 21
-3.7900955619
  0
LWPOLYLINE
  5
3A6
100
AcDbEntity
  8
IMPORT_IGES
100
AcDbPolyline
 62
7
  6
CONTINUOUS
 90
15
 70
0
 10
21.6454133559
 20
-3.8456993909
 10
21.5463974168
 20
-3.9010813012
 10
21.4484731934
 20
-3.9491689413
 10
21.3516406857
 20
-3.9899623112
 10
21.2555902251
 20
-4.0235428192
 10
21.1606314803
 20
-4.049829057
 10
21.0676934567
 20
-4.0685767992
 10
20.9767962145
 20
-4.0797135083
 10
20.8879196936
 20
-4.0833117219
 10
20.8019327194
 20
-4.0793448266
 10
20.7188634054
 20
-4.0677397732
 10
20.6386836382
 20
-4.0485696111
 10
20.5621779028
 20
-4.0220268745
 10
20.4893817729
 20
-3.9880401953
 10
20.4648141874
 20
-3.9744271951
  0
LINE
  5
3A7
100
AcDbEntity
  8
IMPORT_IGES
100
AcDbLine
 62
250
  6
CONTINUOUS
 10
9.4550770725
 20
47.7001467848
 11
9.4457520282
 21
47.7758630529
  0
LWPOLYLINE
  5
3A8
100
AcDbEntity
  8
IMPORT_IGES
100
AcDbPolyline
 62
7
  6
CONTINUOUS
 90
22
 70
0
 10
17.4130850145
 20
39.4545709607
 10
17.4109971045
 20
39.517484347
 10
17.4050693654
 20
39.5815653034
 10
17.3953017971
 20
39.6468138299
 10
17.3815935508
 20
39.7136022337
 10
17.3640454753
 20
39.7815582077
 10
17.3429601174
 20
39.8495648302
 10
17.3182821432
 20
39.9176211992
 10
17.2900668866
 20
39.9857282169
 10
17.2587828963
 20
40.0527716675
 10
17.2243819377
 20
40.1187341837
 10
17.1869122454
 20
40.1836331329
 10
17.1469870722
 20
40.2464064024
 10
17.1045672675
 20
40.3070208941
 10
17.0596919819
 20
40.3655097061
 10
17.0130919201
 20
40.4209100196
 10
16.9647386436
 20
40.473174359
 10
16.9146605909
 20
40.5223501998
 10
16.8636737823
 20
40.5676171502
 10
16.8120502246
 20
40.6087017463
 10
16.7595179109
 20
40.6458774519
 10
16.7060768414
 20
40.6791442671
  0
LWPOLYLINE
  5
3A9
100
AcDbEntity
  8
IMPORT_IGES
100
AcDbPolyline
 62
250
  6
CONTINUOUS
 90
22
 70
0
 10
18.6193536586
 20
40.1516871792
 10
18.6181942009
 20
40.2145967425
 10
18.6129927679
 20
40.2788253317
 10
18.6038807215
 20
40.3439745517
 10
18.5910579923
 20
40.4094341304
 10
18.5746668769
 20
40.4750472853
 10
18.5546664379
 20
40.5411312562
 10
18.5310888654
 20
40.6074906748
 10
18.5040852223
 20
40.67362442
 10
18.4736773752
 20
40.7393981654
 10
18.4399918039
 20
40.8044302911
 10
18.4031587886
 20
40.8683708627
 10
18.3631688112
 20
40.9311018149
 10
18.3200303171
 20
40.9924152633
 10
18.2740459977
 20
41.0516966031
 10
18.2256898091
 20
41.1082334307
 10
18.1753018098
 20
41.1615889578
 10
18.1230862962
 20
41.211509078
 10
18.0693807233
 20
41.2576291149
 10
18.0145087144
 20
41.2996385602
 10
17.9587741479
 20
41.337272733
 10
17.9025044661
 20
41.3702767902
  0
LINE
  5
3AA
100
AcDbEntity
  8
IMPORT_IGES
100
AcDbLine
 62
7
  6
CONTINUOUS
 10
17.0595317162
 20
39.2504145375
 11
17.0595317162
 21
-47.2955788505
  0
LINE
  5
3AB
100
AcDbEntity
  8
IMPORT_IGES
100
AcDbLine
 62
7
  6
CONTINUOUS
 10
17.4130849649
 20
-47.0914723186
 11
17.4130850193
 21
39.4545709624
  0
LINE
  5
3AC
100
AcDbEntity
  8
IMPORT_IGES
100
AcDbLine
 62
250
  6
CONTINUOUS
 10
18.5701249078
 20
40.1224476796
 11
18.5701249078
 21
-46.3757085576
  0
LINE
  5
3AD
100
AcDbEntity
  8
IMPORT_IGES
100
AcDbLine
 62
250
  6
CONTINUOUS
 10
18.6193550668
 20
-46.3455489177
 11
18.6193550668
 21
40.1518215335
  0
LWPOLYLINE
  5
3AE
100
AcDbEntity
  8
IMPORT_IGES
100
AcDbPolyline
 62
250
  6
CONTINUOUS
 90
8
 70
0
 10
18.5701234251
 20
-46.3757591137
 10
18.569019615
 20
-46.4353586933
 10
18.5639252248
 20
-46.4918916311
 10
18.5549698045
 20
-46.5451135669
 10
18.5423505251
 20
-46.5946487818
 10
18.5262078896
 20
-46.6404985541
 10
18.5065016236
 20
-46.6829259851
 10
18.4832633712
 20
-46.721776632
  0
LWPOLYLINE
  5
3AF
100
AcDbEntity
  8
IMPORT_IGES
100
AcDbPolyline
 62
250
  6
CONTINUOUS
 90
12
 70
0
 10
18.6193553787
 20
-46.3454322034
 10
18.6181884078
 20
-46.4050007051
 10
18.6129805023
 20
-46.4615376671
 10
18.6038628857
 20
-46.5147979801
 10
18.5910352782
 20
-46.5644050462
 10
18.5746398503
 20
-46.6103585893
 10
18.5546358515
 20
-46.6529208494
 10
18.5310557002
 20
-46.6919371004
 10
18.5040503731
 20
-46.7270843579
 10
18.4736415965
 20
-46.7582563252
 10
18.4399557374
 20
-46.7852190009
 10
18.4268619913
 20
-46.7939766473
  0
LWPOLYLINE
  5
3B0
100
AcDbEntity
  8
IMPORT_IGES
100
AcDbPolyline
 62
7
  6
CONTINUOUS
 90
12
 70
0
 10
17.0595316243
 20
-47.2955789011
 10
17.0574478524
 20
-47.3560865616
 10
17.0515238375
 20
-47.4133276623
 10
17.0417595796
 20
-47.4673022031
 10
17.0280542276
 20
-47.5182661013
 10
17.0105086325
 20
-47.5659634397
 10
16.9894253476
 20
-47.6096264662
 10
16.9647490328
 20
-47.6491903469
 10
16.9365350282
 20
-47.6847199157
 10
16.9052519069
 20
-47.7156419225
 10
16.8708514351
 20
-47.7418832936
 10
16.8436686731
 20
-47.758202727
  0
LWPOLYLINE
  5
3B1
100
AcDbEntity
  8
IMPORT_IGES
100
AcDbPolyline
 62
250
  6
CONTINUOUS
 90
22
 70
0
 10
-14.4424823044
 20
-23.9453547618
 10
-14.4971717737
 20
-23.9654331823
 10
-14.5553444799
 20
-23.983111256
 10
-14.6166758778
 20
-23.998295878
 10
-14.6808202528
 20
-24.0109070255
 10
-14.7474264872
 20
-24.0208810059
 10
-14.8161417314
 20
-24.0281688421
 10
-14.8865887099
 20
-24.0327332762
 10
-14.9583810817
 20
-24.0345519597
 10
-15.0311414052
 20
-24.0336171218
 10
-15.1044724355
 20
-24.0299347259
 10
-15.1779739245
 20
-24.0235257184
 10
-15.2512603175
 20
-24.0144237465
 10
-15.3239316219
 20
-24.002677634
 10
-15.3955910499
 20
-23.9883506475
 10
-15.4658617785
 20
-23.9715163908
 10
-15.5343583646
 20
-23.9522645212
 10
-15.6007047606
 20
-23.9306979741
 10
-15.6645495279
 20
-23.9069271651
 10
-15.7255431478
 20
-23.8810768781
 10
-15.7833417226
 20
-23.8532872483
 10
-15.837622733
 20
-23.8237077953
  0
LINE
  5
3B2
100
AcDbEntity
  8
IMPORT_IGES
100
AcDbLine
 62
7
  6
CONTINUOUS
 10
19.96351775
 20
-2.8398329463
 11
19.9635176962
 21
-1.6998378721
  0
LINE
  5
3B3
100
AcDbEntity
  8
IMPORT_IGES
100
AcDbLine
 62
250
  6
CONTINUOUS
 10
23.0553535051
 20
-43.5237941246
 11
23.0553533181
 21
-3.0075955796
  0
LINE
  5
3B4
100
AcDbEntity
  8
IMPORT_IGES
100
AcDbLine
 62
250
  6
CONTINUOUS
 10
23.055353298
 20
2.2724221964
 11
23.0553532846
 21
42.7885777708
  0
LINE
  5
3B5
100
AcDbEntity
  8
IMPORT_IGES
100
AcDbLine
 62
7
  6
CONTINUOUS
 10
23.1881815014
 20
2.4449701366
 11
23.1881815014
 21
-2.8435986125
  0
LINE
  5
3B6
100
AcDbEntity
  8
IMPORT_IGES
100
AcDbLine
 62
7
  6
CONTINUOUS
 10
23.1907607294
 20
-43.3261915901
 11
23.1907607294
 21
-2.8143131947
  0
LINE
  5
3B7
100
AcDbEntity
  8
IMPORT_IGES
100
AcDbLine
 62
7
  6
CONTINUOUS
 10
23.1907607294
 20
2.4449701366
 11
23.1907607294
 21
42.9861342841
  0
LWPOLYLINE
  5
3B8
100
AcDbEntity
  8
IMPORT_IGES
100
AcDbPolyline
 62
7
  6
CONTINUOUS
 90
28
 70
0
 10
19.9635101214
 20
-1.6998418756
 10
19.9664392412
 20
-1.5799708418
 10
19.974934461
 20
-1.4578500889
 10
19.9889957808
 20
-1.3334796169
 10
20.0087077468
 20
-1.2064351689
 10
20.0339858128
 20
-1.0771410019
 10
20.0645763405
 20
-0.946869886
 10
20.100530961
 20
-0.815613294
 10
20.1417980431
 20
-0.6833797531
 10
20.1879690558
 20
-0.5514676166
 10
20.2390918116
 20
-0.4198797009
 10
20.295118498
 20
-0.2886131895
 10
20.3554971462
 20
-0.1589579859
 10
20.4202697291
 20
-0.0309304719
 10
20.4893942738
 20
0.0954857344
 10
20.5621928928
 20
0.2190498755
 10
20.6387011645
 20
0.3397343384
 10
20.7188835105
 20
0.4575667361
 10
20.8019553089
 20
0.5713891512
 10
20.8879446741
 20
0.6811631074
 10
20.9768234916
 20
0.7869270809
 10
21.0677227963
 20
0.8876385836
 10
21.1606626435
 20
0.9832495009
 10
21.2556229779
 20
1.0738079473
 10
21.351674668
 20
1.1584157777
 10
21.4485080032
 20
1.2367736105
 10
21.5464326941
 20
1.3091808274
 10
21.6454487407
 20
1.3756374284
  0
LWPOLYLINE
  5
3B9
100
AcDbEntity
  8
IMPORT_IGES
100
AcDbPolyline
 62
7
  6
CONTINUOUS
 90
3
 70
0
 10
-10.943509305
 20
41.6498786094
 10
-10.9446197251
 20
41.6508689235
 10
-10.9457273143
 20
41.651853754
  0
LINE
  5
3BA
100
AcDbEntity
  8
IMPORT_IGES
100
AcDbLine
 62
7
  6
CONTINUOUS
 10
-10.9490331431
 20
41.6547753203
 11
-10.950128805
 21
41.6557603546
  0
LINE
  5
3BB
100
AcDbEntity
  8
IMPORT_IGES
100
AcDbLine
 62
7
  6
CONTINUOUS
 10
-10.9512213355
 20
41.6567509738
 11
-10.9523107404
 21
41.6577471755
  0
LWPOLYLINE
  5
3BC
100
AcDbEntity
  8
IMPORT_IGES
100
AcDbPolyline
 62
7
  6
CONTINUOUS
 90
12
 70
0
 10
-10.9523107404
 20
41.6577471755
 10
-11.0457017238
 20
41.7467017
 10
-11.1303600751
 20
41.8386054468
 10
-11.2060246172
 20
41.9331706835
 10
-11.272461516
 20
42.0301030047
 10
-11.3294685858
 20
42.1290986957
 10
-11.3768742117
 20
42.2298460153
 10
-11.4145332141
 20
42.3320324775
 10
-11.4423310132
 20
42.4353400899
 10
-11.460184672
 20
42.5394431625
 10
-11.4680401987
 20
42.6440195804
 10
-11.4684440534
 20
42.6729990589
  0
LWPOLYLINE
  5
3BD
100
AcDbEntity
  8
IMPORT_IGES
100
AcDbPolyline
 62
7
  6
CONTINUOUS
 90
19
 70
0
 10
23.1907389681
 20
42.9860998748
 10
23.1882890151
 20
43.0557050957
 10
23.1811210617
 20
43.12515997
 10
23.1694712129
 20
43.1943156347
 10
23.1534380994
 20
43.2634076814
 10
23.1331936569
 20
43.3320493934
 10
23.1092117922
 20
43.3991447123
 10
23.0818673376
 20
43.4642674322
 10
23.0512167536
 20
43.5276874105
 10
23.0174134338
 20
43.5892752148
 10
22.9805603623
 20
43.6489267397
 10
22.9407440822
 20
43.7064995954
 10
22.8980674772
 20
43.7617831301
 10
22.8523875652
 20
43.8148111366
 10
22.8038541748
 20
43.8651954926
 10
22.7530064262
 20
43.9122263831
 10
22.7000323311
 20
43.9556366785
 10
22.6447527664
 20
43.995419357
 10
22.587177723
 20
44.0313352873
  0
LWPOLYLINE
  5
3BE
100
AcDbEntity
  8
IMPORT_IGES
100
AcDbPolyline
 62
7
  6
CONTINUOUS
 90
11
 70
0
 10
23.055353691
 20
-43.5237940089
 10
23.0538160567
 20
-43.583491
 10
23.0482596239
 20
-43.6405659603
 10
23.0387204294
 20
-43.6947044961
 10
23.0252575721
 20
-43.7456060209
 10
23.0079518568
 20
-43.792995694
 10
22.9869023655
 20
-43.8366232302
 10
22.9622308868
 20
-43.8762484152
 10
22.9340776222
 20
-43.9116546442
 10
22.9025948578
 20
-43.9426554479
 10
22.867960895
 20
-43.9690783166
  0
LWPOLYLINE
  5
3BF
100
AcDbEntity
  8
IMPORT_IGES
100
AcDbPolyline
 62
7
  6
CONTINUOUS
 90
15
 70
0
 10
23.1907386556
 20
-43.326235142
 10
23.1884187563
 20
-43.3926496476
 10
23.1816275302
 20
-43.4564307746
 10
23.1706209071
 20
-43.517417605
 10
23.1557048695
 20
-43.5753467294
 10
23.1371248291
 20
-43.6302747599
 10
23.114995436
 20
-43.6824530972
 10
23.0895867645
 20
-43.7316503148
 10
23.0611300559
 20
-43.7777836405
 10
23.0295634966
 20
-43.8211527432
 10
22.9951158742
 20
-43.8615357872
 10
22.9580145272
 20
-43.8987680412
 10
22.9180623676
 20
-43.9330557271
 10
22.8754293333
 20
-43.9641781577
 10
22.8621222759
 20
-43.9728803785
  0
LWPOLYLINE
  5
3C0
100
AcDbEntity
  8
IMPORT_IGES
100
AcDbPolyline
 62
250
  6
CONTINUOUS
 90
10
 70
0
 10
23.1907607237
 20
-43.326235145
 10
23.1895514721
 20
-43.3462588736
 10
23.1847679793
 20
-43.3707571446
 10
23.1763800558
 20
-43.3949356277
 10
23.1644466419
 20
-43.418616181
 10
23.1490524828
 20
-43.4416270987
 10
23.1303025887
 20
-43.4638093222
 10
23.1083273666
 20
-43.4850025175
 10
23.0832846042
 20
-43.5050469326
 10
23.0553535051
 20
-43.5237941246
  0
LWPOLYLINE
  5
3C1
100
AcDbEntity
  8
IMPORT_IGES
100
AcDbPolyline
 62
250
  6
CONTINUOUS
 90
22
 70
0
 10
-14.4424914137
 20
-39.8883149328
 10
-14.497182688
 20
-39.9248190017
 10
-14.5553573318
 20
-39.9588236571
 10
-14.6166907805
 20
-39.9901464381
 10
-14.6808372647
 20
-40.0186181205
 10
-14.7474456742
 20
-40.0440898582
 10
-14.8161632408
 20
-40.0664317297
 10
-14.8866127324
 20
-40.0855246971
 10
-14.9584077196
 20
-40.1012675543
 10
-15.0311706431
 20
-40.1135797812
 10
-15.1045042018
 20
-40.1223952896
 10
-15.1780081228
 20
-40.1276670959
 10
-15.2512967724
 20
-40.1293675187
 10
-15.3239700897
 20
-40.1274861676
 10
-15.3956312695
 20
-40.1220322012
 10
-15.4659034844
 20
-40.1130319749
 10
-15.5344012825
 20
-40.1005313346
 10
-15.6007485334
 20
-40.0845953126
 10
-15.6645936891
 20
-40.0653033021
 10
-15.7255871768
 20
-40.0427539158
 10
-15.7833850914
 20
-40.0170669529
 10
-15.8376648884
 20
-39.9883784886
  0
LINE
  5
3C2
100
AcDbEntity
  8
IMPORT_IGES
100
AcDbLine
 62
7
  6
CONTINUOUS
 10
-10.8655625459
 20
41.5843826463
 11
-10.8829938811
 21
41.5985139465
  0
LWPOLYLINE
  5
3C3
100
AcDbEntity
  8
IMPORT_IGES
100
AcDbPolyline
 62
250
  6
CONTINUOUS
 90
25
 70
0
 10
-10.033218351
 20
42.7064553813
 10
-10.1091520315
 20
42.768340603
 10
-10.1782316784
 20
42.8323105332
 10
-10.2404572918
 20
42.898365172
 10
-10.2959874274
 20
42.9667473029
 10
-10.3446635295
 20
43.0372141423
 10
-10.3860099302
 20
43.1090373398
 10
-10.4199540026
 20
43.1822290929
 10
-10.4465683737
 20
43.256777204
 10
-10.465595257
 20
43.3319167304
 10
-10.4769599934
 20
43.4076532715
 10
-10.4807372419
 20
43.4839812278
 10
-10.476893193
 20
43.5601188588
 10
-10.4653527139
 20
43.6360642825
 10
-10.4461909374
 20
43.7118193808
 10
-10.4195994517
 20
43.7866080589
 10
-10.3855051121
 20
43.8604210154
 10
-10.3439810634
 20
43.9332675517
 10
-10.2954383288
 20
44.0043994767
 10
-10.2398071718
 20
44.0738010546
 10
-10.1771573291
 20
44.1414880212
 10
-10.1081090333
 20
44.2067593932
 10
-10.0328690289
 20
44.2693815093
 10
-9.9512305715
 20
44.3295880308
 10
-9.8631936611
 20
44.3873789576
  0
LINE
  5
3C4
100
AcDbEntity
  8
IMPORT_IGES
100
AcDbLine
 62
7
  6
CONTINUOUS
 10
-10.8829938811
 20
41.5985139465
 11
-10.8942072106
 21
41.6077379783
  0
LINE
  5
3C5
100
AcDbEntity
  8
IMPORT_IGES
100
AcDbLine
 62
7
  6
CONTINUOUS
 10
-10.8942072106
 20
41.6077379783
 11
-10.9053226586
 21
41.6170137889
  0
LWPOLYLINE
  5
3C6
100
AcDbEntity
  8
IMPORT_IGES
100
AcDbPolyline
 62
7
  6
CONTINUOUS
 90
3
 70
0
 10
-10.9053226586
 20
41.6170137889
 10
-10.9163398301
 20
41.6263147754
 10
-10.9218114329
 20
41.6309762422
  0
LWPOLYLINE
  5
3C7
100
AcDbEntity
  8
IMPORT_IGES
100
AcDbPolyline
 62
7
  6
CONTINUOUS
 90
4
 70
0
 10
-10.847339112
 20
41.5691671087
 10
-10.8533896004
 20
41.574299826
 10
-10.8594644704
 20
41.5793664649
 10
-10.8655625459
 20
41.5843826463
  0
LINE
  5
3C8
100
AcDbEntity
  8
IMPORT_IGES
100
AcDbLine
 62
7
  6
CONTINUOUS
 10
-10.9218114329
 20
41.6309762422
 11
-10.9308635637
 21
41.638810835
  0
LINE
  5
3C9
100
AcDbEntity
  8
IMPORT_IGES
100
AcDbLine
 62
7
  6
CONTINUOUS
 10
-10.8293341
 20
41.5536163945
 11
-10.847339112
 21
41.5691671087
  0
LINE
  5
3CA
100
AcDbEntity
  8
IMPORT_IGES
100
AcDbLine
 62
7
  6
CONTINUOUS
 10
-10.9308635637
 20
41.638810835
 11
-10.9423960493
 21
41.6488828139
  0
LINE
  5
3CB
100
AcDbEntity
  8
IMPORT_IGES
100
AcDbLine
 62
7
  6
CONTINUOUS
 10
-10.8174562068
 20
41.5432429706
 11
-10.8293341
 21
41.5536163945
  0
LINE
  5
3CC
100
AcDbEntity
  8
IMPORT_IGES
100
AcDbLine
 62
7
  6
CONTINUOUS
 10
-10.946832186
 20
41.6528294048
 11
-10.9479342359
 21
41.6537995674
  0
LWPOLYLINE
  5
3CD
100
AcDbEntity
  8
IMPORT_IGES
100
AcDbPolyline
 62
250
  6
CONTINUOUS
 90
12
 70
0
 10
-13.1229872991
 20
-41.0468424242
 10
-13.0958983644
 20
-41.0305824817
 10
-13.0613557023
 20
-41.00420969
 10
-13.0297947246
 20
-40.973160174
 10
-13.0013924359
 20
-40.9376056133
 10
-12.9763032142
 20
-40.897733784
 10
-12.9546732148
 20
-40.8537647922
 10
-12.9366239188
 20
-40.8059387981
 10
-12.9222487696
 20
-40.7545030181
 10
-12.9116309929
 20
-40.699733823
 10
-12.9048402632
 20
-40.6419380561
 10
-12.9019209381
 20
-40.5814351316
  0
LINE
  5
3CE
100
AcDbEntity
  8
IMPORT_IGES
100
AcDbLine
 62
250
  6
CONTINUOUS
 10
-11.4684443154
 20
-39.81056034
 11
-12.9019210055
 21
-40.5814395573
  0
LINE
  5
3CF
100
AcDbEntity
  8
IMPORT_IGES
100
AcDbLine
 62
7
  6
CONTINUOUS
 10
-11.4684443154
 20
-40.1570912969
 11
-13.1230006966
 21
-41.0468581751
  0
LWPOLYLINE
  5
3D0
100
AcDbEntity
  8
IMPORT_IGES
100
AcDbPolyline
 62
250
  6
CONTINUOUS
 90
25
 70
0
 10
-12.9019210055
 20
-40.5814395573
 10
-12.9959182805
 20
-40.6287589865
 10
-13.0888244508
 20
-40.6693389211
 10
-13.1806395165
 20
-40.7031793609
 10
-13.2716745716
 20
-40.7303454637
 10
-13.361618522
 20
-40.7507720718
 10
-13.4495380851
 20
-40.7642637125
 10
-13.5354065911
 20
-40.7707491689
 10
-13.6192507099
 20
-40.7702996579
 10
-13.7002171684
 20
-40.7629333573
 10
-13.7782774431
 20
-40.7485822869
 10
-13.8534600576
 20
-40.7273144268
 10
-13.9249973102
 20
-40.6993518954
 10
-13.9928532629
 20
-40.6646287049
 10
-14.0570638537
 20
-40.6232108432
 10
-14.1169691947
 20
-40.5755183924
 10
-14.1725271113
 20
-40.5214895184
 10
-14.223779778
 20
-40.4611860553
 10
-14.2701938314
 20
-40.3952135872
 10
-14.3117224527
 20
-40.3235153753
 10
-14.3484124606
 20
-40.2461481584
 10
-14.379870947
 20
-40.1638877363
 10
-14.4059669427
 20
-40.0769927089
 10
-14.4268314169
 20
-39.9852044763
 10
-14.4424643697
 20
-39.8885230385
  0
LWPOLYLINE
  5
3D1
100
AcDbEntity
  8
IMPORT_IGES
100
AcDbPolyline
 62
7
  6
CONTINUOUS
 90
10
 70
0
 10
-4.2985835089
 20
37.2272911631
 10
-5.0724797077
 20
37.6810055857
 10
-5.8343753807
 20
38.1414102168
 10
-6.5840974406
 20
38.6083990346
 10
-7.3214751817
 20
39.0818360862
 10
-8.0463416327
 20
39.5616408331
 10
-8.7585335197
 20
40.0477882147
 10
-9.4578895836
 20
40.5401948928
 10
-10.1442506907
 20
41.0387192407
 10
-10.8174611307
 20
41.5432467165
  0
LINE
  5
3D2
100
AcDbEntity
  8
IMPORT_IGES
100
AcDbLine
 62
7
  6
CONTINUOUS
 10
3.7219677939
 20
33.2740183424
 11
3.7560499127
 21
33.2648376389
  0
LINE
  5
3D3
100
AcDbEntity
  8
IMPORT_IGES
100
AcDbLine
 62
7
  6
CONTINUOUS
 10
3.6880799869
 20
33.283440023
 11
3.7219677939
 21
33.2740183424
  0
LINE
  5
3D4
100
AcDbEntity
  8
IMPORT_IGES
100
AcDbLine
 62
7
  6
CONTINUOUS
 10
3.6543911833
 20
33.2931011923
 11
3.6880799869
 21
33.283440023
  0
LWPOLYLINE
  5
3D5
100
AcDbEntity
  8
IMPORT_IGES
100
AcDbPolyline
 62
7
  6
CONTINUOUS
 90
3
 70
0
 10
3.6042411808
 20
33.3080379114
 10
3.6209059736
 20
33.3029998899
 10
3.6543911833
 20
33.2931011923
  0
LWPOLYLINE
  5
3D6
100
AcDbEntity
  8
IMPORT_IGES
100
AcDbPolyline
 62
7
  6
CONTINUOUS
 90
9
 70
0
 10
3.4659235758
 20
33.3530135463
 10
3.4829969615
 20
33.347167344
 10
3.5001334748
 20
33.3413844366
 10
3.5173324461
 20
33.3356647061
 10
3.5345932179
 20
33.3300087187
 10
3.5519151454
 20
33.3244177252
 10
3.5692975668
 20
33.3188922876
 10
3.5867398032
 20
33.3134322784
 10
3.6042411808
 20
33.3080379114
  0
LWPOLYLINE
  5
3D7
100
AcDbEntity
  8
IMPORT_IGES
100
AcDbPolyline
 62
7
  6
CONTINUOUS
 90
10
 70
0
 10
3.4659235758
 20
33.3530135463
 10
3.4174196341
 20
33.3700096519
 10
3.3863891483
 20
33.3811425204
 10
3.3558214279
 20
33.3923152031
 10
3.325715271
 20
33.4035095374
 10
3.2960691734
 20
33.4147314846
 10
3.2668813387
 20
33.4260111349
 10
3.2381499457
 20
33.4373546158
 10
3.209873148
 20
33.4487440884
 10
3.182048885
 20
33.4601738191
  0
LWPOLYLINE
  5
3D8
100
AcDbEntity
  8
IMPORT_IGES
100
AcDbPolyline
 62
7
  6
CONTINUOUS
 90
10
 70
0
 10
3.1820466844
 20
33.4593451116
 10
2.3079526003
 20
33.8484378848
 10
1.4441311379
 20
34.2451388879
 10
0.5907812815
 20
34.6493579574
 10
-0.2519000146
 20
35.0610030241
 10
-1.0837188929
 20
35.4799806308
 10
-1.9044845944
 20
35.9061959823
 10
-2.7140081589
 20
36.3395522908
 10
-3.512102514
 20
36.7799507675
 10
-4.2985835089
 20
37.2272911631
  0
LWPOLYLINE
  5
3D9
100
AcDbEntity
  8
IMPORT_IGES
100
AcDbPolyline
 62
7
  6
CONTINUOUS
 90
13
 70
0
 10
3.7742353478
 20
34.7342060218
 10
2.4849154939
 20
35.3104802134
 10
1.2198312918
 20
35.9033168557
 10
-0.0210172586
 20
36.512715949
 10
-1.2382405053
 20
37.1390063273
 10
-2.4312281002
 20
37.7818591565
 10
-3.5981489993
 20
38.4402879337
 10
-4.7389629785
 20
39.1143166806
 10
-5.8537102619
 20
39.8039213754
 10
-6.940680478
 20
40.5080434497
 10
-7.9993035029
 20
41.2263300474
 10
-9.0301494606
 20
41.9591340246
 10
-10.033218351
 20
42.7064553813
  0
LWPOLYLINE
  5
3DA
100
AcDbEntity
  8
IMPORT_IGES
100
AcDbPolyline
 62
250
  6
CONTINUOUS
 90
12
 70
0
 10
-9.8633598524
 20
44.3872869874
 10
-9.9171910295
 20
44.4150339421
 10
-9.9706216606
 20
44.4380692311
 10
-10.0233528543
 20
44.4562714435
 10
-10.0750866576
 20
44.4695457859
 10
-10.1255392818
 20
44.4778276194
 10
-10.1744416552
 20
44.4810790138
 10
-10.2215222539
 20
44.4792867212
 10
-10.2665200257
 20
44.4724656688
 10
-10.3091950992
 20
44.4606556848
 10
-10.3493102258
 20
44.4439242433
 10
-10.3769409062
 20
44.428599384
  0
LINE
  5
3DB
100
AcDbEntity
  8
IMPORT_IGES
100
AcDbLine
 62
7
  6
CONTINUOUS
 10
5.3215590572
 20
40.6131420985
 11
4.4023202417
 21
41.1438990698
  0
LINE
  5
3DC
100
AcDbEntity
  8
IMPORT_IGES
100
AcDbLine
 62
7
  6
CONTINUOUS
 10
0.8667863357
 20
43.1852720364
 11
-0.0524524798
 21
43.7160290077
  0
LINE
  5
3DD
100
AcDbEntity
  8
IMPORT_IGES
100
AcDbLine
 62
7
  6
CONTINUOUS
 10
1.9236638376
 20
44.0803716042
 11
2.1479801436
 21
43.9508393909
  0
LWPOLYLINE
  5
3DE
100
AcDbEntity
  8
IMPORT_IGES
100
AcDbPolyline
 62
250
  6
CONTINUOUS
 90
4
 70
0
 10
18.4832633712
 20
-46.721776632
 10
18.4566420747
 20
-46.7567278583
 10
18.4266592802
 20
-46.7876731246
 10
18.3934397375
 20
-46.8143790551
  0
LINE
  5
3DF
100
AcDbEntity
  8
IMPORT_IGES
100
AcDbLine
 62
7
  6
CONTINUOUS
 10
5.2508483791
 20
46.3134728473
 11
5.6836732461
 21
46.0635651927
  0
LINE
  5
3E0
100
AcDbEntity
  8
IMPORT_IGES
100
AcDbLine
 62
7
  6
CONTINUOUS
 10
6.1700871946
 20
46.3542180491
 11
9.7056211006
 21
44.3128450824
  0
LINE
  5
3E1
100
AcDbEntity
  8
IMPORT_IGES
100
AcDbLine
 62
7
  6
CONTINUOUS
 10
16.3525267941
 20
40.4750050392
 11
10.6248599161
 21
43.7820881106
  0
LINE
  5
3E2
100
AcDbEntity
  8
IMPORT_IGES
100
AcDbLine
 62
7
  6
CONTINUOUS
 10
5.2508483791
 20
46.8849750204
 11
-0.4768226028
 21
50.1920604605
  0
LWPOLYLINE
  5
3E3
100
AcDbEntity
  8
IMPORT_IGES
100
AcDbPolyline
 62
7
  6
CONTINUOUS
 90
22
 70
0
 10
16.3525267941
 20
40.4750050392
 10
16.4059697424
 20
40.4417366208
 10
16.4585037186
 20
40.4045592223
 10
16.5101287227
 20
40.3634728436
 10
16.5611167708
 20
40.318203973
 10
16.6111958468
 20
40.2690261222
 10
16.6595499017
 20
40.216759827
 10
16.7061504842
 20
40.1613576195
 10
16.7510260457
 20
40.1028669675
 10
16.7934458908
 20
40.0422508102
 10
16.8333708563
 20
39.9794760621
 10
16.8708401054
 20
39.9145758085
 10
16.9052404331
 20
39.8486122445
 10
16.9365235937
 20
39.7815680196
 10
16.9647378328
 20
39.7134604843
 10
16.9894146818
 20
39.645403885
 10
17.0104988002
 20
39.5773973393
 10
17.0280455286
 20
39.5094417297
 10
17.0417524198
 20
39.4426539502
 10
17.0515186584
 20
39.377406299
 10
17.0574450599
 20
39.3133264779
 10
17.0595316243
 20
39.2504144869
  0
LINE
  5
3E4
100
AcDbEntity
  8
IMPORT_IGES
100
AcDbLine
 62
7
  6
CONTINUOUS
 10
9.901311127
 20
46.9200374349
 11
9.9609665815
 21
46.8727249018
  0
LWPOLYLINE
  5
3E5
100
AcDbEntity
  8
IMPORT_IGES
100
AcDbPolyline
 62
250
  6
CONTINUOUS
 90
12
 70
0
 10
12.1493466146
 20
48.0302081867
 10
12.0515450749
 20
48.0092817609
 10
11.9511284578
 20
47.9919772422
 10
11.8493657269
 20
47.9785300697
 10
11.7461764048
 20
47.9689964109
 10
11.641640969
 20
47.9633200983
 10
11.5372698158
 20
47.9615680686
 10
11.4332622928
 20
47.9637721295
 10
11.3294190524
 20
47.9699004733
 10
11.2266524486
 20
47.9799246129
 10
11.1247624651
 20
47.9939025879
 10
11.0239491181
 20
48.0117763586
  0
LWPOLYLINE
  5
3E6
100
AcDbEntity
  8
IMPORT_IGES
100
AcDbPolyline
 62
7
  6
CONTINUOUS
 90
37
 70
0
 10
10.3654538869
 20
46.6348366339
 10
10.3948927769
 20
46.6220020063
 10
10.5096868601
 20
46.5763462106
 10
10.6273284331
 20
46.5361712215
 10
10.7475399577
 20
46.5013230836
 10
10.8703838451
 20
46.4716207333
 10
10.9954368713
 20
46.4470645926
 10
11.122289739
 20
46.4276544028
 10
11.2510108509
 20
46.4133491027
 10
11.3814488553
 20
46.4041976783
 10
11.512917427
 20
46.4002958079
 10
11.6446571958
 20
46.4016938246
 10
11.7763118276
 20
46.4084176508
 10
11.9073401784
 20
46.4204854867
 10
12.0367261705
 20
46.4378252527
 10
12.1639439826
 20
46.4603624887
 10
12.2886868207
 20
46.4880563556
 10
12.4103568966
 20
46.5207991851
 10
12.5286894813
 20
46.5585586894
 10
12.6432182732
 20
46.6012478106
 10
12.7531889065
 20
46.6486278703
 10
12.859090135
 20
46.7010162869
 10
12.959809137
 20
46.75800328
 10
13.0526850174
 20
46.8178859238
 10
13.1365862012
 20
46.8792718998
 10
13.213152658
 20
46.9426870498
 10
13.2840036617
 20
47.0092151728
 10
13.34925574
 20
47.0790217465
 10
13.4084626089
 20
47.1517090713
 10
13.4618846673
 20
47.2277718687
 10
13.5093421062
 20
47.3073818824
 10
13.550259029
 20
47.3900783914
 10
13.5841646787
 20
47.475343124
 10
13.6107560833
 20
47.5628398207
 10
13.6297517726
 20
47.6521602455
 10
13.6408843241
 20
47.7425007124
 10
13.6440986689
 20
47.8242636196
  0
LWPOLYLINE
  5
3E7
100
AcDbEntity
  8
IMPORT_IGES
100
AcDbPolyline
 62
7
  6
CONTINUOUS
 90
4
 70
0
 10
10.365453003
 20
46.6348349713
 10
10.3517331232
 20
46.6417216866
 10
10.332860451
 20
46.6540580976
 10
10.3154083939
 20
46.6690826629
  0
LWPOLYLINE
  5
3E8
100
AcDbEntity
  8
IMPORT_IGES
100
AcDbPolyline
 62
7
  6
CONTINUOUS
 90
12
 70
0
 10
-0.1232649949
 20
50.3961953213
 10
-0.1767070949
 20
50.4246410794
 10
-0.2292402658
 20
50.4481283574
 10
-0.2808645076
 20
50.4666571554
 10
-0.3318518245
 20
50.4802680794
 10
-0.3819302122
 20
50.4889205233
 10
-0.430283658
 20
50.4924926689
 10
-0.4768837126
 20
50.4909041987
 10
-0.5217588252
 20
50.4842354303
 10
-0.5641783301
 20
50.4726054984
 10
-0.6041030667
 20
50.4559360974
 10
-0.6144069877
 20
50.4506132622
  0
LWPOLYLINE
  5
3E9
100
AcDbEntity
  8
IMPORT_IGES
100
AcDbPolyline
 62
7
  6
CONTINUOUS
 90
7
 70
0
 10
10.1402299629
 20
46.7575669483
 10
10.1681815965
 20
46.7420182454
 10
10.1966311387
 20
46.7267900714
 10
10.2255785896
 20
46.7118824261
 10
10.2550239491
 20
46.6972953096
 10
10.2849672172
 20
46.6830287218
 10
10.3154083939
 20
46.6690826629
  0
LINE
  5
3EA
100
AcDbEntity
  8
IMPORT_IGES
100
AcDbLine
 62
250
  6
CONTINUOUS
 10
10.0726229233
 20
46.958895224
 11
10.0591878493
 21
46.9665827714
  0
LINE
  5
3EB
100
AcDbEntity
  8
IMPORT_IGES
100
AcDbLine
 62
7
  6
CONTINUOUS
 10
16.7060768612
 20
40.6791442783
 11
10.3420172137
 21
44.3536725474
  0
LINE
  5
3EC
100
AcDbEntity
  8
IMPORT_IGES
100
AcDbLine
 62
7
  6
CONTINUOUS
 10
6.2407978731
 20
46.7216651832
 11
-0.1232649686
 21
50.396195337
  0
LINE
  5
3ED
100
AcDbEntity
  8
IMPORT_IGES
100
AcDbLine
 62
7
  6
CONTINUOUS
 10
8.2913429207
 20
46.9661787214
 11
11.6010046043
 21
45.0552215451
  0
LINE
  5
3EE
100
AcDbEntity
  8
IMPORT_IGES
100
AcDbLine
 62
7
  6
CONTINUOUS
 10
7.8671434695
 20
47.2196830634
 11
11.6085638698
 21
45.0594338153
  0
LINE
  5
3EF
100
AcDbEntity
  8
IMPORT_IGES
100
AcDbLine
 62
7
  6
CONTINUOUS
 10
7.8671434695
 20
47.6279182018
 11
9.7409764396
 21
46.5459905295
  0
LINE
  5
3F0
100
AcDbEntity
  8
IMPORT_IGES
100
AcDbLine
 62
7
  6
CONTINUOUS
 10
10.0945298302
 20
46.3418532328
 11
11.9683628004
 21
45.2599255605
  0
LINE
  5
3F1
100
AcDbEntity
  8
IMPORT_IGES
100
AcDbLine
 62
7
  6
CONTINUOUS
 10
9.7409764396
 20
46.7501391915
 11
10.0945298302
 21
46.5460018949
  0
LINE
  5
3F2
100
AcDbEntity
  8
IMPORT_IGES
100
AcDbLine
 62
7
  6
CONTINUOUS
 10
10.9784133067
 20
48.2321391406
 11
10.4127278818
 21
48.5587588153
  0
LINE
  5
3F3
100
AcDbEntity
  8
IMPORT_IGES
100
AcDbLine
 62
250
  6
CONTINUOUS
 10
10.0591611331
 20
47.6197744184
 11
10.0497758219
 21
47.6252279465
  0
LINE
  5
3F4
100
AcDbEntity
  8
IMPORT_IGES
100
AcDbLine
 62
7
  6
CONTINUOUS
 10
7.8671434695
 20
47.2196830634
 11
8.2913429207
 21
46.9661787214
  0
LWPOLYLINE
  5
3F5
100
AcDbEntity
  8
IMPORT_IGES
100
AcDbPolyline
 62
250
  6
CONTINUOUS
 90
22
 70
0
 10
17.8631251096
 20
41.34720424
 10
17.9170734264
 20
41.3147636542
 10
17.9701979738
 20
41.278191472
 10
18.0222172823
 20
41.2377998651
 10
18.0726995511
 20
41.1940659205
 10
18.1215781599
 20
41.1471903373
 10
18.1691083095
 20
41.096979192
 10
18.2151363244
 20
41.0435578014
 10
18.2593012361
 20
40.9873066535
 10
18.3014971807
 20
40.9283117781
 10
18.3414548488
 20
40.8668727783
 10
18.378934302
 20
40.8032766065
 10
18.4138285509
 20
40.7375741043
 10
18.4459614544
 20
40.6698764951
 10
18.474947494
 20
40.6007513638
 10
18.5003997807
 20
40.5309623983
 10
18.5221052075
 20
40.4610203661
 10
18.539942988
 20
40.3912278583
 10
18.553761331
 20
40.322057102
 10
18.5634486362
 20
40.2539414413
 10
18.568923409
 20
40.1872744283
 10
18.5701241824
 20
40.1224648827
  0
LWPOLYLINE
  5
3F6
100
AcDbEntity
  8
IMPORT_IGES
100
AcDbPolyline
 62
250
  6
CONTINUOUS
 90
12
 70
0
 10
10.0591611331
 20
46.966598197
 10
9.9742606935
 20
47.0185978054
 10
9.8937799697
 20
47.0741526415
 10
9.8182355031
 20
47.1331751769
 10
9.7480583231
 20
47.1956382742
 10
9.6838776205
 20
47.2613246204
 10
9.6264237763
 20
47.3297953788
 10
9.5759750116
 20
47.4010573071
 10
9.5331279395
 20
47.4746613253
 10
9.4986629833
 20
47.5493633266
 10
9.4727014146
 20
47.6245274735
 10
9.4550770725
 20
47.7001467848
  0
LWPOLYLINE
  5
3F7
100
AcDbEntity
  8
IMPORT_IGES
100
AcDbPolyline
 62
250
  6
CONTINUOUS
 90
14
 70
0
 10
10.0497758219
 20
47.6252279465
 10
9.9653964446
 20
47.6775713398
 10
9.885478685
 20
47.7334603278
 10
9.8105398048
 20
47.7928056016
 10
9.7410118753
 20
47.8555788945
 10
9.6775240767
 20
47.9215600634
 10
9.6208047984
 20
47.9903059184
 10
9.5711342495
 20
48.0618210564
 10
9.5291047799
 20
48.135654235
 10
9.4954834148
 20
48.2105583097
 10
9.4703847765
 20
48.2858978117
 10
9.4536445264
 20
48.3616641035
 10
9.4452217852
 20
48.4374941758
 10
9.4440987351
 20
48.4770734628
  0
LWPOLYLINE
  5
3F8
100
AcDbEntity
  8
IMPORT_IGES
100
AcDbPolyline
 62
250
  6
CONTINUOUS
 90
49
 70
0
 10
10.405624081
 20
48.2362667034
 10
10.3341458398
 20
48.2809551206
 10
10.2683461305
 20
48.327844958
 10
10.208224953
 20
48.3769362156
 10
10.1535578182
 20
48.4284715476
 10
10.1045692152
 20
48.4822082998
 10
10.061932612
 20
48.537418509
 10
10.0257512502
 20
48.5941410852
 10
9.9959218882
 20
48.6523371184
 10
9.9728082684
 20
48.7111619155
 10
9.9564996192
 20
48.7705033803
 10
9.9469067124
 20
48.830473609
 10
9.9441256059
 20
48.8905641965
 10
9.9482169492
 20
48.9509082177
 10
9.9591200929
 20
49.0113725977
 10
9.976749147
 20
49.0710497071
 10
10.0012228943
 20
49.1299002285
 10
10.0324225521
 20
49.1879634793
 10
10.0699058817
 20
49.2444497822
 10
10.1137554671
 20
49.2993208731
 10
10.1638887243
 20
49.3526150163
 10
10.2196156638
 20
49.4036573271
 10
10.2809902261
 20
49.4524081116
 10
10.3479584705
 20
49.4989070638
 10
10.4196685854
 20
49.5425983813
 10
10.4961688469
 20
49.583449732
 10
10.577410979
 20
49.621493448
 10
10.6623983415
 20
49.6562707229
 10
10.7511754596
 20
49.6877470414
 10
10.8436978082
 20
49.7159569188
 10
10.9388351728
 20
49.7405450946
 10
11.0366337801
 20
49.7614716261
 10
11.1370474035
 20
49.7787764559
 10
11.2388071484
 20
49.7922241509
 10
11.3419934551
 20
49.8017585487
 10
11.4465258833
 20
49.8074358116
 10
11.5508942182
 20
49.8091889936
 10
11.6548991549
 20
49.8069862913
 10
11.7587399981
 20
49.800859508
 10
11.8615044474
 20
49.7908371083
 10
11.9633925167
 20
49.7768610546
 10
12.064204192
 20
49.7589893845
 10
12.1624271311
 20
49.7374246748
 10
12.2579960926
 20
49.7121000204
 10
12.3509763179
 20
49.6830823265
 10
12.4400511881
 20
49.650774885
 10
12.5247818301
 20
49.6153121266
 10
12.605607117
 20
49.5765596206
 10
12.6825270488
 20
49.534517367
  0
LWPOLYLINE
  5
3F9
100
AcDbEntity
  8
IMPORT_IGES
100
AcDbPolyline
 62
7
  6
CONTINUOUS
 90
5
 70
0
 10
10.0182708398
 20
46.8331791751
 10
10.0476196893
 20
46.8137174507
 10
10.0777291597
 20
46.7946281714
 10
10.1085992509
 20
46.7759113372
 10
10.1402299629
 20
46.7575669483
  0
LWPOLYLINE
  5
3FA
100
AcDbEntity
  8
IMPORT_IGES
100
AcDbPolyline
 62
7
  6
CONTINUOUS
 90
3
 70
0
 10
9.9618550034
 20
46.8732199596
 10
9.9896826112
 20
46.8530133448
 10
10.0182708398
 20
46.8331791751
  0
LINE
  5
3FB
100
AcDbEntity
  8
IMPORT_IGES
100
AcDbLine
 62
7
  6
CONTINUOUS
 10
15.1503433157
 20
47.2077437084
 11
15.2646441636
 21
47.096721468
  0
LINE
  5
3FC
100
AcDbEntity
  8
IMPORT_IGES
100
AcDbLine
 62
250
  6
CONTINUOUS
 10
18.3934397375
 20
-46.8143790551
 11
18.3767526206
 21
-46.8254041574
  0
LWPOLYLINE
  5
3FD
100
AcDbEntity
  8
IMPORT_IGES
100
AcDbPolyline
 62
7
  6
CONTINUOUS
 90
12
 70
0
 10
17.2146665697
 20
-47.5439932119
 10
17.2243992545
 20
-47.5377497106
 10
17.2587992749
 20
-47.5115098586
 10
17.2900821148
 20
-47.4805896636
 10
17.3182959966
 20
-47.4450621817
 10
17.3429724264
 20
-47.4055006371
 10
17.3640560732
 20
-47.3618401867
 10
17.381602268
 20
-47.3141456736
 10
17.3953085097
 20
-47.2631848518
 10
17.4050739646
 20
-47.2092136393
 10
17.4109994665
 20
-47.1519761181
 10
17.4130850152
 20
-47.0914722881
  0
LINE
  5
3FE
100
AcDbEntity
  8
IMPORT_IGES
100
AcDbLine
 62
250
  6
CONTINUOUS
 10
23.0553535051
 20
-43.5237941246
 11
18.6193550668
 21
-46.3455489177
  0
LINE
  5
3FF
100
AcDbEntity
  8
IMPORT_IGES
100
AcDbLine
 62
7
  6
CONTINUOUS
 10
18.4102279655
 20
-46.8045077337
 11
22.8621236187
 21
-43.9728813151
  0
LINE
  5
400
100
AcDbEntity
  8
IMPORT_IGES
100
AcDbLine
 62
7
  6
CONTINUOUS
 10
18.3879415303
 20
-46.8184634296
 11
18.4102279655
 21
-46.8045077337
  0
LINE
  5
401
100
AcDbEntity
  8
IMPORT_IGES
100
AcDbLine
 62
250
  6
CONTINUOUS
 10
18.5701249078
 20
-46.3757085576
 11
17.4130849649
 21
-47.0914723186
  0
LINE
  5
402
100
AcDbEntity
  8
IMPORT_IGES
100
AcDbLine
 62
7
  6
CONTINUOUS
 10
18.3879415303
 20
-46.8184634296
 11
17.2146935622
 21
-47.5440389104
  0
LWPOLYLINE
  5
403
100
AcDbEntity
  8
IMPORT_IGES
100
AcDbPolyline
 62
7
  6
CONTINUOUS
 90
3
 70
0
 10
18.6028442701
 20
-46.3558302976
 10
18.6083367807
 20
-46.3524398882
 10
18.6193550668
 20
-46.3455489177
  0
LINE
  5
404
100
AcDbEntity
  8
IMPORT_IGES
100
AcDbLine
 62
7
  6
CONTINUOUS
 10
18.5701247273
 20
-46.3757086655
 11
18.6028442701
 21
-46.3558302976
  0
LINE
  5
405
100
AcDbEntity
  8
IMPORT_IGES
100
AcDbLine
 62
250
  6
CONTINUOUS
 10
17.0595317162
 20
-47.2955788505
 11
7.3395123946
 21
-52.522556682
  0
LINE
  5
406
100
AcDbEntity
  8
IMPORT_IGES
100
AcDbLine
 62
7
  6
CONTINUOUS
 10
16.8436947641
 20
-47.7582489661
 11
7.1184753445
 21
-52.9881572496
  0
LWPOLYLINE
  5
407
100
AcDbEntity
  8
IMPORT_IGES
100
AcDbPolyline
 62
7
  6
CONTINUOUS
 90
25
 70
0
 10
7.3395119508
 20
-52.5225569294
 10
7.2071035814
 20
-52.5906518825
 10
7.068157443
 20
-52.6543520455
 10
6.9231128357
 20
-52.7134545356
 10
6.7724306591
 20
-52.7677648954
 10
6.616583586
 20
-52.8171164329
 10
6.4560536321
 20
-52.8613698097
 10
6.2913453555
 20
-52.9003832151
 10
6.1229762906
 20
-52.934030923
 10
5.95146569
 20
-52.9622208021
 10
5.7773515739
 20
-52.9848610071
 10
5.6011793693
 20
-53.0018765991
 10
5.4234905196
 20
-53.0132251502
 10
5.244841375
 20
-53.0188671514
 10
5.0657913879
 20
-53.0187801703
 10
4.8868908007
 20
-53.0129723691
 10
4.7086995533
 20
-53.0014575599
 10
4.5317762578
 20
-52.984266499
 10
4.3566662864
 20
-52.9614579301
 10
4.1839189615
 20
-52.9330988452
 10
4.0140763994
 20
-52.8992725236
 10
3.8476632625
 20
-52.8600868271
 10
3.6852002509
 20
-52.8156614903
 10
3.5272018864
 20
-52.7661287372
 10
3.3741661261
 20
-52.7116394428
  0
LINE
  5
408
100
AcDbEntity
  8
IMPORT_IGES
100
AcDbLine
 62
250
  6
CONTINUOUS
 10
0.6726682647
 20
51.1293299864
 11
0.7174769613
 21
51.1369294592
  0
LWPOLYLINE
  5
409
100
AcDbEntity
  8
IMPORT_IGES
100
AcDbPolyline
 62
250
  6
CONTINUOUS
 90
8
 70
0
 10
0.7174769613
 20
51.1369294592
 10
0.7644292641
 20
51.1392124635
 10
0.8131937191
 20
51.1361243691
 10
0.8635714768
 20
51.12764053
 10
0.9152356941
 20
51.1137743911
 10
0.9678740251
 20
51.0945774372
 10
1.0211939174
 20
51.0701244812
 10
1.0748810321
 20
51.0405260157
  0
LWPOLYLINE
  5
40A
100
AcDbEntity
  8
IMPORT_IGES
100
AcDbPolyline
 62
250
  6
CONTINUOUS
 90
8
 70
0
 10
11.0239491181
 20
48.0117763586
 10
10.9257248101
 20
48.0333433189
 10
10.830154768
 20
48.0586703831
 10
10.7371737649
 20
48.0876906369
 10
10.6480985225
 20
48.1200007307
 10
10.563367948
 20
48.1554662148
 10
10.4825431341
 20
48.194221539
 10
10.405624081
 20
48.2362667034
  0
LWPOLYLINE
  5
40B
100
AcDbEntity
  8
IMPORT_IGES
100
AcDbPolyline
 62
7
  6
CONTINUOUS
 90
10
 70
0
 10
16.3902829581
 20
47.609382629
 10
16.3702667177
 20
47.6191750015
 10
16.3462061008
 20
47.6270704445
 10
16.3207976359
 20
47.6316051165
 10
16.2940119099
 20
47.632711709
 10
16.2658783357
 20
47.6304575304
 10
16.2369966901
 20
47.6248668306
 10
16.2075668985
 20
47.6159476929
 10
16.1773890354
 20
47.6036920338
 10
16.1464631008
 20
47.5880998536
  0
LWPOLYLINE
  5
40C
100
AcDbEntity
  8
IMPORT_IGES
100
AcDbPolyline
 62
250
  6
CONTINUOUS
 90
10
 70
0
 10
22.5871941607
 20
44.0313637567
 10
22.5671256909
 20
44.0412162449
 10
22.5431418176
 20
44.0490757672
 10
22.5176230754
 20
44.053587878
 10
22.490758379
 20
44.0547168065
 10
22.4627463415
 20
44.0524519654
 10
22.4337868991
 20
44.0468059901
 10
22.4040918068
 20
44.0378150799
 10
22.3738839762
 20
44.0255417818
 10
22.3433881974
 20
44.0100729516
  0
LWPOLYLINE
  5
40D
100
AcDbEntity
  8
IMPORT_IGES
100
AcDbPolyline
 62
7
  6
CONTINUOUS
 90
15
 70
0
 10
6.0921283733
 20
53.555374776
 10
6.0334554911
 20
53.5865860013
 10
5.974819838
 20
53.6126116766
 10
5.916495918
 20
53.6335888298
 10
5.858864465
 20
53.6496507836
 10
5.8019993759
 20
53.6610382653
 10
5.7457411478
 20
53.6679762098
 10
5.69042546
 20
53.670582898
 10
5.6362393475
 20
53.6690173713
 10
5.5828926018
 20
53.6633761957
 10
5.5306918835
 20
53.6537467808
 10
5.4798932591
 20
53.6402437791
 10
5.4302191871
 20
53.6227997748
 10
5.3819457125
 20
53.6014516827
 10
5.3669357297
 20
53.5938554831
  0
LWPOLYLINE
  5
40E
100
AcDbEntity
  8
IMPORT_IGES
100
AcDbPolyline
 62
7
  6
CONTINUOUS
 90
39
 70
0
 10
12.9349992162
 20
49.5578581973
 10
12.8310698124
 20
49.6146573906
 10
12.7225056486
 20
49.666379572
 10
12.6097190292
 20
49.713015135
 10
12.4929809549
 20
49.7545948361
 10
12.3727611131
 20
49.7910610919
 10
12.2498326572
 20
49.8222967447
 10
12.1246984431
 20
49.8482984168
 10
11.9977096256
 20
49.8690942674
 10
11.8695293077
 20
49.8846660596
 10
11.7407344346
 20
49.8950386703
 10
11.6116177263
 20
49.9002662668
 10
11.4824552994
 20
49.9003823293
 10
11.3536797234
 20
49.8954082139
 10
11.2256961399
 20
49.8853668889
 10
11.0987333884
 20
49.8702571849
 10
10.973160753
 20
49.8500744246
 10
10.8494339803
 20
49.8248262739
 10
10.727873595
 20
49.7944906767
 10
10.6085621511
 20
49.7589490068
 10
10.492255306
 20
49.7182606937
 10
10.3801347886
 20
49.6727348333
 10
10.2724031154
 20
49.6223775582
 10
10.1694955068
 20
49.5672853958
 10
10.072634788
 20
49.5080897019
 10
9.982123746
 20
49.4450547694
 10
9.8979412735
 20
49.3782222046
 10
9.8205664732
 20
49.3080392842
 10
9.7498607981
 20
49.2344408343
 10
9.686194505
 20
49.1578549323
 10
9.6304822968
 20
49.0797224617
 10
9.5830671535
 20
49.001389045
 10
9.5430681173
 20
48.9223711277
 10
9.5096669297
 20
48.8414599893
 10
9.4828581547
 20
48.7584420508
 10
9.4630000155
 20
48.67420073
 10
9.450181111
 20
48.5891560519
 10
9.4444497378
 20
48.5040758655
 10
9.4440987351
 20
48.4770739886
  0
LINE
  5
40F
100
AcDbEntity
  8
IMPORT_IGES
100
AcDbLine
 62
7
  6
CONTINUOUS
 10
10.9784133067
 20
48.7221475625
 11
11.402745709
 21
48.4771433516
  0
LINE
  5
410
100
AcDbEntity
  8
IMPORT_IGES
100
AcDbLine
 62
7
  6
CONTINUOUS
 10
12.1097841566
 20
48.2321391406
 11
11.5440987317
 21
48.5587588153
  0
LINE
  5
411
100
AcDbEntity
  8
IMPORT_IGES
100
AcDbLine
 62
7
  6
CONTINUOUS
 10
10.9784133067
 20
48.88537849
 11
10.4127278818
 21
49.2119981646
  0
LINE
  5
412
100
AcDbEntity
  8
IMPORT_IGES
100
AcDbLine
 62
7
  6
CONTINUOUS
 10
14.9382112813
 20
46.9148223774
 11
13.7361297533
 21
47.6088891861
  0
LINE
  5
413
100
AcDbEntity
  8
IMPORT_IGES
100
AcDbLine
 62
7
  6
CONTINUOUS
 10
13.6326599976
 20
47.6757604419
 11
14.7967899251
 21
47.0036064117
  0
LINE
  5
414
100
AcDbEntity
  8
IMPORT_IGES
100
AcDbLine
 62
7
  6
CONTINUOUS
 10
10.9784133067
 20
49.5386178393
 11
11.5440987317
 21
49.2119981646
  0
LINE
  5
415
100
AcDbEntity
  8
IMPORT_IGES
100
AcDbLine
 62
7
  6
CONTINUOUS
 10
12.1097841566
 20
48.88537849
 11
12.6754695816
 21
48.5587588153
  0
LINE
  5
416
100
AcDbEntity
  8
IMPORT_IGES
100
AcDbLine
 62
7
  6
CONTINUOUS
 10
13.6440987317
 20
48.0774304536
 11
15.1503433157
 21
47.2077437084
  0
LINE
  5
417
100
AcDbEntity
  8
IMPORT_IGES
100
AcDbLine
 62
7
  6
CONTINUOUS
 10
12.1097841566
 20
49.5386178393
 11
12.6754695816
 21
49.2119981646
  0
LINE
  5
418
100
AcDbEntity
  8
IMPORT_IGES
100
AcDbLine
 62
250
  6
CONTINUOUS
 10
12.0452544339
 20
49.9560984372
 11
5.8483389952
 21
53.5341279685
  0
LINE
  5
419
100
AcDbEntity
  8
IMPORT_IGES
100
AcDbLine
 62
250
  6
CONTINUOUS
 10
22.3433886576
 20
44.0100726203
 11
16.1464630958
 21
47.5880998508
  0
LINE
  5
41A
100
AcDbEntity
  8
IMPORT_IGES
100
AcDbLine
 62
7
  6
CONTINUOUS
 10
6.0921481644
 20
53.5553965952
 11
12.2890855586
 21
49.9773626097
  0
LINE
  5
41B
100
AcDbEntity
  8
IMPORT_IGES
100
AcDbLine
 62
7
  6
CONTINUOUS
 10
16.3903048894
 20
47.6093699684
 11
22.58724443
 21
44.0313347435
  0
LWPOLYLINE
  5
41C
100
AcDbEntity
  8
IMPORT_IGES
100
AcDbPolyline
 62
7
  6
CONTINUOUS
 90
10
 70
0
 10
12.289063704
 20
49.977375226
 10
12.2912401313
 20
49.9760941761
 10
12.3115458085
 20
49.961770317
 10
12.3299923663
 20
49.944263204
 10
12.3461791244
 20
49.9239403088
 10
12.3600619914
 20
49.9007430947
 10
12.3716850588
 20
49.8747300983
 10
12.3807799208
 20
49.8464444005
 10
12.3872571089
 20
49.8160670281
 10
12.3909488011
 20
49.7855442248
  0
LWPOLYLINE
  5
41D
100
AcDbEntity
  8
IMPORT_IGES
100
AcDbPolyline
 62
7
  6
CONTINUOUS
 90
22
 70
0
 10
22.3433911009
 20
44.0100712204
 10
22.3971853445
 20
43.9776875264
 10
22.4506169931
 20
43.9409073251
 10
22.5033832558
 20
43.899941691
 10
22.5551790344
 20
43.8550262823
 10
22.6057201339
 20
43.806415721
 10
22.6547438043
 20
43.7543793586
 10
22.7019758623
 20
43.6992096874
 10
22.7471510021
 20
43.6412155495
 10
22.7900334249
 20
43.580712248
 10
22.8303837596
 20
43.5180371272
 10
22.867975189
 20
43.4535387109
 10
22.9026091763
 20
43.3875642912
 10
22.934091602
 20
43.3204811781
 10
22.9622441692
 20
43.2526620413
 10
22.986914575
 20
43.1844705891
 10
23.007962647
 20
43.1162879097
 10
23.0252666265
 20
43.0484943423
 10
23.0387274477
 20
42.9814536354
 10
23.048264354
 20
42.9155377129
 10
23.0538183128
 20
42.8511241261
 10
23.0553533477
 20
42.7885778089
  0
LWPOLYLINE
  5
41E
100
AcDbEntity
  8
IMPORT_IGES
100
AcDbPolyline
 62
250
  6
CONTINUOUS
 90
27
 70
0
 10
12.6825270488
 20
49.534517367
 10
12.7540102809
 20
49.4898294472
 10
12.8198148303
 20
49.4429398678
 10
12.8799406972
 20
49.3938486286
 10
12.9346124064
 20
49.3423130558
 10
12.983605433
 20
49.2885758232
 10
13.026246202
 20
49.2333649526
 10
13.0624314557
 20
49.1766415414
 10
13.0922644518
 20
49.1184444922
 10
13.1153813887
 20
49.0596185338
 10
13.1316930337
 20
49.000275762
 10
13.1412886196
 20
48.940304081
 10
13.1440720431
 20
48.8802119322
 10
13.1399826446
 20
48.8198662153
 10
13.1290810838
 20
48.7594000306
 10
13.1114532365
 20
48.6997211205
 10
13.0869803095
 20
48.6408688258
 10
13.0557810961
 20
48.5828038058
 10
13.0182978521
 20
48.5263157807
 10
12.9744479858
 20
48.4714430114
 10
12.9243140889
 20
48.4181472371
 10
12.8685861916
 20
48.367103395
 10
12.8072103432
 20
48.31835118
 10
12.7402404944
 20
48.2718508972
 10
12.6685285279
 20
48.2281583993
 10
12.5920261604
 20
48.1873060227
 10
12.5107816752
 20
48.1492614311
  0
ELLIPSE
  5
41F
100
AcDbEntity
  8
IMPORT_IGES
100
AcDbEllipse
 62
7
  6
CONTINUOUS
 10
22.6907607294
 20
2.4697539948
 30
0.0
 11
0.499979581
 21
0.0076930498
 31
0.0
 40
0.5873737521
 41
-0.7627033765
 42
-0.1106534287
  0
ELLIPSE
  5
420
100
AcDbEntity
  8
IMPORT_IGES
100
AcDbEllipse
 62
7
  6
CONTINUOUS
 10
22.6907607294
 20
-2.8098116351
 30
0.0
 11
0.4999822419
 21
-0.0074291459
 31
0.0
 40
0.5672251703
 41
-0.745237768
 42
-0.0931878178
  0
ENDSEC
  0
SECTION
  2
OBJECTS
  0
DICTIONARY
  5
C
100
AcDbDictionary
280
0
281
1
  3
ACAD_GROUP
350
D
  3
ACAD_MLINESTYLE
350
17
  3
ACAD_LAYOUT
350
1A
  3
ACAD_PLOTSETTINGS
350
19
  3
ACAD_PLOTSTYLENAME
350
E
  0
DICTIONARY
  5
D
102
{ACAD_REACTORS
330
C
102
}
100
AcDbDictionary
280
0
281
1
  0
ACDBDICTIONARYWDFLT
  5
E
102
{ACAD_REACTORS
330
C
102
}
100
AcDbDictionary
281
1
  3
Normal
350
F
100
AcDbDictionaryWithDefault
340
F
  0
DICTIONARY
  5
17
102
{ACAD_REACTORS
330
C
102
}
100
AcDbDictionary
280
0
281
1
  3
Standard
350
18
  0
DICTIONARY
  5
19
102
{ACAD_REACTORS
330
C
102
}
100
AcDbDictionary
281
1
  0
DICTIONARY
  5
1A
102
{ACAD_REACTORS
330
C
102
}
100
AcDbDictionary
281
1
  3
Model
350
421
  3
Layout1
350
422
  0
ACDBPLACEHOLDER
  5
F
102
{ACAD_REACTORS
330
E
102
}
  0
MLINESTYLE
  5
18
102
{ACAD_REACTORS
330
17
102
}
100
AcDbMlineStyle
  2
STANDARD
 70
0
  3

 62
256
 51
90.0
 52
90.0
 71
2
 49
0.5
 62
256
  6
BYLAYER
 49
-0.5
 62
256
  6
BYLAYER
  0
LAYOUT
  5
421
102
{ACAD_REACTORS
330
1A
102
}
100
AcDbPlotSettings
  1

  2
none_device
  4
ISO_A4_(297.00_x_210.00_MM)
  6

 40
0.0
 41
0.0
 42
0.0
 43
0.0
 44
297.0
 45
210.0
 46
0.0
 47
0.0
 48
0.0
 49
0.0
140
0.0
141
0.0
142
1.0
143
1.0
 70
1024
 72
1
 73
0
 74
0
  7

 75
0
147
1.0
148
0.0
149
0.0
100
AcDbLayout
  1
Model
 70
0
 71
0
 10
0.0
 20
0.0
 11
297.0
 21
210.0
 12
0.0
 22
0.0
 32
0.0
 14
0.0
 24
0.0
 34
0.0
 15
0.0
 25
0.0
 35
0.0
146
0.0
 13
0.0
 23
0.0
 33
0.0
 16
1.0
 26
0.0
 36
0.0
 17
0.0
 27
1.0
 37
0.0
 76
0
330
263
345
0
346
0
  0
LAYOUT
  5
422
102
{ACAD_REACTORS
330
1A
102
}
100
AcDbPlotSettings
  1

  2
none_device
  4
ISO_A4_(297.00_x_210.00_MM)
  6

 40
0.0
 41
0.0
 42
0.0
 43
0.0
 44
297.0
 45
210.0
 46
0.0
 47
0.0
 48
0.0
 49
0.0
140
0.0
141
0.0
142
1.0
143
1.0
 70
0
 72
1
 73
0
 74
0
  7

 75
0
147
1.0
148
0.0
149
0.0
100
AcDbLayout
  1
Layout1
 70
0
 71
1
 10
0.0
 20
0.0
 11
297.0
 21
210.0
 12
0.0
 22
0.0
 32
0.0
 14
0.0
 24
0.0
 34
0.0
 15
0.0
 25
0.0
 35
0.0
146
0.0
 13
0.0
 23
0.0
 33
0.0
 16
1.0
 26
0.0
 36
0.0
 17
0.0
 27
1.0
 37
0.0
 76
0
330
264
345
0
346
0
  0
ENDSEC
  0
EOF
