  0
SECTION
  2
HEADER
  9
$ACADVER
  1
AC1024
  9
$DWGCODEPAGE
  3
ANSI_1252
  9
$EXTMAX
 10
297.0
 20
210.0
 30
0.0
  9
$EXTMIN
 10
0.0
 20
0.0
 30
0.0
  9
$LIMMIN
 10
0.0
 20
0.0
  9
$LIMMAX
 10
297.0
 20
210.0
  9
$VIEWCTR
 10
148.5
 20
105.0
  9
$VIEWSIZE
 40
210.0
  9
$CLAYER
  8
0
  9
$LTSCALE
 40
16.335
  9
$CELTYPE
  6
BYLAYER
  9
$DIMSCALE
 40
1.0
  9
$DIMASZ
 40
3.0
  9
$DIMEXO
 40
0.5
  9
$DIMDLI
 40
11.286
  9
$DIMEXE
 40
1.5
  9
$DIMCEN
 40
2.673
  9
$DIMLFAC
 40
1.0
  9
$DIMBLK
  1
_FILLED
  9
$DIMALT
 70
0
  9
$DIMALTF
 40
0.0393700787
  9
$DIMTXT
 40
3.0
  9
$DIMTOL
 70
1
  9
$DIMLIM
 70
0
  9
$DIMTFAC
 40
1.0
  9
$DIMTP
 40
0.01
  9
$DIMTM
 40
0.01
  9
$DIMGAP
 40
0.625
  9
$DIMDSEP
 70
44
  9
$AUNITS
 70
0
  9
$PDMODE
 70
3
  9
$PDSIZE
 40
3.0
  9
$HANDSEED
  5
2E9
  9
$TILEMODE
 70
1
  9
$MEASUREMENT
 70
1
  9
$INSUNITS
 70
4
  0
ENDSEC
  0
SECTION
  2
CLASSES
  0
CLASS
  1
ACDBDICTIONARYWDFLT
  2
AcDbDictionaryWithDefault
  3
AutoCAD 2000
 90
0
 91
1
280
0
281
0
  0
CLASS
  1
ACDBPLACEHOLDER
  2
AcDbPlaceHolder
  3
AutoCAD 2000
 90
0
 91
1
280
0
281
0
  0
CLASS
  1
LAYOUT
  2
AcDbLayout
  3
AutoCAD 2000
 90
0
 91
0
280
0
281
0
  0
ENDSEC
  0
SECTION
  2
TABLES
  0
TABLE
  2
VPORT
  5
8
100
AcDbSymbolTable
 70
2
  0
VPORT
  5
1F4
100
AcDbSymbolTableRecord
100
AcDbViewportTableRecord
  2
*ACTIVE
 70
0
 10
0.0
 20
0.0
 11
1.0
 21
1.0
 12
148.5
 22
105.0
 13
0.0
 23
0.0
 14
1.0
 24
1.0
 15
0.0
 25
0.0
 16
0.0
 26
0.0
 36
1.0
 17
0.0
 27
0.0
 37
0.0
 40
210.0
 41
1.4142857143
 42
50.0
 43
0.0
 44
0.0
 50
0.0
 51
0.0
 71
0
 72
100
 73
1
 74
1
 75
0
 76
0
 77
0
 78
0
  0
ENDTAB
  0
TABLE
  2
LTYPE
  5
5
100
AcDbSymbolTable
 70
6
  0
LTYPE
  5
14
100
AcDbSymbolTableRecord
100
AcDbLinetypeTableRecord
  2
BYBLOCK
 70
0
  3

 72
65
 73
0
 40
0.0
  0
LTYPE
  5
15
100
AcDbSymbolTableRecord
100
AcDbLinetypeTableRecord
  2
BYLAYER
 70
0
  3

 72
65
 73
0
 40
0.0
  0
LTYPE
  5
16
100
AcDbSymbolTableRecord
100
AcDbLinetypeTableRecord
  2
CONTINUOUS
 70
64
  3
Solid line
 72
65
 73
0
 40
0.0
  0
LTYPE
  5
1F5
100
AcDbSymbolTableRecord
100
AcDbLinetypeTableRecord
  2
CENTER
 70
64
  3
____ _ ____ _ ____ _ ____ _ ____ _ ____ _ ____
 72
65
 73
4
 40
0.6
 49
0.375
 74
0
 49
-0.075
 74
0
 49
0.075
 74
0
 49
-0.075
 74
0
  0
LTYPE
  5
1F6
100
AcDbSymbolTableRecord
100
AcDbLinetypeTableRecord
  2
HIDDEN
 70
64
  3
- - - - - - - - - - - - - - - - - - - -
 72
65
 73
2
 40
0.2
 49
0.1
 74
0
 49
-0.1
 74
0
  0
LTYPE
  5
1F7
100
AcDbSymbolTableRecord
100
AcDbLinetypeTableRecord
  2
PHANTOM
 70
64
  3
_____ _ _ _____ _ _ _____ _ _ _____
 72
65
 73
6
 40
0.8
 49
0.45
 74
0
 49
-0.05
 74
0
 49
0.1
 74
0
 49
-0.05
 74
0
 49
0.1
 74
0
 49
-0.05
 74
0
  0
LTYPE
  5
1F8
100
AcDbSymbolTableRecord
100
AcDbLinetypeTableRecord
  2
DOT
 70
64
  3
. . . . . . . . . . . . . . . . . . . .
 72
65
 73
2
 40
0.2
 49
0.1
 74
0
 49
-0.1
 74
0
  0
LTYPE
  5
1F9
100
AcDbSymbolTableRecord
100
AcDbLinetypeTableRecord
  2
DASHED
 70
64
  3
- - - - - - - - - - - - - - - - - - - -
 72
65
 73
2
 40
0.2
 49
0.1
 74
0
 49
-0.1
 74
0
  0
ENDTAB
  0
TABLE
  2
LAYER
  5
2
100
AcDbSymbolTable
 70
36
  0
LAYER
  5
10
100
AcDbSymbolTableRecord
100
AcDbLayerTableRecord
  2
0
 70
0
 62
7
  6
CONTINUOUS
370
-3
390
F
  0
LAYER
  5
1FA
100
AcDbSymbolTableRecord
100
AcDbLayerTableRecord
  2
DEFAULT_1
 70
0
 62
7
  6
CENTER
370
-3
390
F
  0
LAYER
  5
1FB
100
AcDbSymbolTableRecord
100
AcDbLayerTableRecord
  2
DEFAULT_2
 70
0
 62
7
  6
HIDDEN
370
-3
390
F
  0
LAYER
  5
1FC
100
AcDbSymbolTableRecord
100
AcDbLayerTableRecord
  2
DEFAULT_3
 70
0
 62
7
  6
PHANTOM
370
-3
390
F
  0
LAYER
  5
1FD
100
AcDbSymbolTableRecord
100
AcDbLayerTableRecord
  2
ASSI
 70
0
 62
7
  6
CONTINUOUS
370
-3
390
F
  0
LAYER
  5
1FE
100
AcDbSymbolTableRecord
100
AcDbLayerTableRecord
  2
COORDINATE
 70
0
 62
7
  6
CONTINUOUS
370
-3
390
F
  0
LAYER
  5
1FF
100
AcDbSymbolTableRecord
100
AcDbLayerTableRecord
  2
COPY_PUBLISH
 70
0
 62
7
  6
CONTINUOUS
370
-3
390
F
  0
LAYER
  5
200
100
AcDbSymbolTableRecord
100
AcDbLayerTableRecord
  2
COSMETICI
 70
0
 62
7
  6
CONTINUOUS
370
-3
390
F
  0
LAYER
  5
201
100
AcDbSymbolTableRecord
100
AcDbLayerTableRecord
  2
CURVE
 70
0
 62
7
  6
CONTINUOUS
370
-3
390
F
  0
LAYER
  5
202
100
AcDbSymbolTableRecord
100
AcDbLayerTableRecord
  2
DRAFT
 70
0
 62
7
  6
CONTINUOUS
370
-3
390
F
  0
LAYER
  5
203
100
AcDbSymbolTableRecord
100
AcDbLayerTableRecord
  2
IMPORT_IGES
 70
0
 62
7
  6
CONTINUOUS
370
-3
390
F
  0
LAYER
  5
204
100
AcDbSymbolTableRecord
100
AcDbLayerTableRecord
  2
NOTE
 70
0
 62
7
  6
CONTINUOUS
370
-3
390
F
  0
LAYER
  5
205
100
AcDbSymbolTableRecord
100
AcDbLayerTableRecord
  2
PIANI
 70
0
 62
7
  6
CONTINUOUS
370
-3
390
F
  0
LAYER
  5
206
100
AcDbSymbolTableRecord
100
AcDbLayerTableRecord
  2
PUNTI
 70
0
 62
7
  6
CONTINUOUS
370
-3
390
F
  0
LAYER
  5
207
100
AcDbSymbolTableRecord
100
AcDbLayerTableRecord
  2
RACCORDO
 70
0
 62
7
  6
CONTINUOUS
370
-3
390
F
  0
LAYER
  5
208
100
AcDbSymbolTableRecord
100
AcDbLayerTableRecord
  2
SIMBOLI
 70
0
 62
7
  6
CONTINUOUS
370
-3
390
F
  0
LAYER
  5
209
100
AcDbSymbolTableRecord
100
AcDbLayerTableRecord
  2
SMUSSO
 70
0
 62
7
  6
CONTINUOUS
370
-3
390
F
  0
LAYER
  5
20A
100
AcDbSymbolTableRecord
100
AcDbLayerTableRecord
  2
SUPERFICI
 70
0
 62
7
  6
CONTINUOUS
370
-3
390
F
  0
LAYER
  5
20B
100
AcDbSymbolTableRecord
100
AcDbLayerTableRecord
  2
TRASH
 70
0
 62
7
  6
CONTINUOUS
370
-3
390
F
  0
ENDTAB
  0
TABLE
  2
STYLE
  5
3
100
AcDbSymbolTable
 70
1
  0
STYLE
  5
11
100
AcDbSymbolTableRecord
100
AcDbTextStyleTableRecord
  2
STANDARD
 70
0
 40
0.0
 41
0.8
 50
0.0
 71
0
 42
0.2
  3
txt
  4

  0
STYLE
  5
20C
100
AcDbSymbolTableRecord
100
AcDbTextStyleTableRecord
  2
TEXTSTYLE_1
 70
0
 40
0.0
 41
0.8
 50
0.0
 71
0
 42
0.2
  3
gdt
  4

  0
ENDTAB
  0
TABLE
  2
VIEW
  5
6
100
AcDbSymbolTable
 70
0
  0
ENDTAB
  0
TABLE
  2
UCS
  5
7
100
AcDbSymbolTable
 70
0
  0
ENDTAB
  0
TABLE
  2
APPID
  5
9
100
AcDbSymbolTable
 70
1
  0
APPID
  5
20D
100
AcDbSymbolTableRecord
100
AcDbRegAppTableRecord
  2
ACAD
 70
0
  0
ENDTAB
  0
TABLE
  2
BLOCK_RECORD
  5
1
100
AcDbSymbolTable
 70
0
  0
BLOCK_RECORD
  5
20E
100
AcDbSymbolTableRecord
100
AcDbBlockTableRecord
  2
*Model_Space
  0
BLOCK_RECORD
  5
20F
100
AcDbSymbolTableRecord
100
AcDbBlockTableRecord
  2
*Paper_Space
  0
BLOCK_RECORD
  5
210
100
AcDbSymbolTableRecord
100
AcDbBlockTableRecord
  2
_FILLED
  0
ENDTAB
  0
TABLE
  2
DIMSTYLE
  5
A
100
AcDbSymbolTable
 70
1
100
AcDbDimStyleTable
 71
0
  0
DIMSTYLE
105
211
100
AcDbSymbolTableRecord
100
AcDbDimStyleTableRecord
  2
STANDARD
 70
0
  3

  4

 40
1.0
 41
3.0
 42
0.5
 43
0.38
 44
1.5
 45
0.0
 46
0.0
 47
0.01
 48
0.01
140
3.0
141
0.09
142
0.0
143
25.4
144
1.0
145
0.0
146
1.0
147
0.625
 71
1
 72
0
 73
0
 74
0
 75
0
 76
0
 77
1
 78
8
 79
2
170
0
171
1
172
0
173
0
174
0
175
0
176
0
177
0
178
0
270
2
179
2
271
2
272
2
273
2
274
2
275
0
280
0
281
0
282
0
283
1
284
8
285
0
286
0
287
3
288
0
340
11
278
44
341
210
342
210
343
210
344
210
  0
ENDTAB
  0
ENDSEC
  0
SECTION
  2
BLOCKS
  0
BLOCK
  5
20
100
AcDbEntity
  8
0
100
AcDbBlockBegin
  2
*Model_Space
 70
0
 10
0.0
 20
0.0
 30
0.0
  3
*Model_Space
  1

  0
ENDBLK
  5
21
100
AcDbEntity
  8
0
100
AcDbBlockEnd
  0
BLOCK
  5
1C
100
AcDbEntity
  8
0
100
AcDbBlockBegin
  2
*Paper_Space
 70
0
 10
0.0
 20
0.0
 30
0.0
  3
*Paper_Space
  1

  0
ENDBLK
  5
1D
100
AcDbEntity
  8
0
100
AcDbBlockEnd
  0
BLOCK
  5
212
100
AcDbEntity
  8
0
100
AcDbBlockBegin
  2
_FILLED
 70
64
 10
0.0
 20
0.0
  3
_FILLED
  1

  0
SOLID
  5
213
100
AcDbEntity
  8
0
  6
BYBLOCK
 62
0
100
AcDbTrace
 10
0.0
 20
0.0
 11
-1.0
 21
0.3166666667
 12
-1.0
 22
-0.3166666667
 13
-1.0
 23
-0.3166666667
  0
ENDBLK
  5
214
100
AcDbEntity
  8
0
  6
BYBLOCK
 62
0
100
AcDbBlockEnd
  0
ENDSEC
  0
SECTION
  2
ENTITIES
  0
LWPOLYLINE
  5
215
100
AcDbEntity
  8
IMPORT_IGES
100
AcDbPolyline
 62
7
  6
CONTINUOUS
 90
7
 70
0
 10
-8.7515557637
 20
31.2104738129
 10
-8.769848255
 20
31.1990599751
 10
-8.8041736339
 20
31.1728924191
 10
-8.8354098278
 20
31.1420664157
 10
-8.8635986677
 20
31.1066472331
 10
-8.8882724062
 20
31.0671731404
 10
-8.8956861557
 20
31.0518653171
  0
LWPOLYLINE
  5
216
100
AcDbEntity
  8
IMPORT_IGES
100
AcDbPolyline
 62
7
  6
CONTINUOUS
 90
28
 70
0
 10
-15.7077738064
 20
27.1940406711
 10
-15.8607998002
 20
27.1019093679
 10
-16.0686015283
 20
26.9646433406
 10
-16.2733946081
 20
26.8154909139
 10
-16.4749373971
 20
26.654933618
 10
-16.6728479735
 20
26.4834953814
 10
-16.8665396215
 20
26.3018481255
 10
-17.0556347791
 20
26.1104479283
 10
-17.2396693061
 20
25.9097849218
 10
-17.4178561545
 20
25.7006975249
 10
-17.5897885765
 20
25.4835921673
 10
-17.7549361796
 20
25.2589769598
 10
-17.9123683237
 20
25.0279363649
 10
-18.0616483489
 20
24.7908998762
 10
-18.2023163036
 20
24.5483220452
 10
-18.3336752592
 20
24.3016023191
 10
-18.4555249475
 20
24.0516251361
 10
-18.5677409065
 20
23.7990528311
 10
-18.6699445154
 20
23.5450809333
 10
-18.7619746871
 20
23.2903957242
 10
-18.8436385941
 20
23.0356746907
 10
-18.9146068498
 20
22.782007931
 10
-18.9747127251
 20
22.529942684
 10
-19.0237469335
 20
22.2800485957
 10
-19.061422274
 20
22.0332671604
 10
-19.0875299757
 20
21.7901387922
 10
-19.1018529988
 20
21.550926295
 10
-19.104718952
 20
21.3893274806
  0
LINE
  5
217
100
AcDbEntity
  8
IMPORT_IGES
100
AcDbLine
 62
7
  6
CONTINUOUS
 10
-5.5695753492
 20
33.0477094247
 11
-8.7515558645
 21
31.2104737547
  0
LINE
  5
218
100
AcDbEntity
  8
IMPORT_IGES
100
AcDbLine
 62
7
  6
CONTINUOUS
 10
-15.7078797174
 20
27.1939795453
 11
-9.1051092551
 21
31.0063364581
  0
LINE
  5
219
100
AcDbEntity
  8
IMPORT_IGES
100
AcDbLine
 62
250
  6
CONTINUOUS
 10
-15.2078555572
 20
27.1444383676
 11
-8.605085095
 21
30.9567952804
  0
LINE
  5
21A
100
AcDbEntity
  8
IMPORT_IGES
100
AcDbLine
 62
250
  6
CONTINUOUS
 10
-8.2515317044
 20
31.1609325771
 11
-5.069551189
 21
32.998168247
  0
LWPOLYLINE
  5
21B
100
AcDbEntity
  8
IMPORT_IGES
100
AcDbPolyline
 62
7
  6
CONTINUOUS
 90
12
 70
0
 10
-5.5695753492
 20
33.0477094247
 10
-5.5505059443
 20
33.0579102828
 10
-5.5104250559
 20
33.0745951824
 10
-5.4678786221
 20
33.0862866386
 10
-5.4231045796
 20
33.092919268
 10
-5.3763533232
 20
33.0944559783
 10
-5.3278863048
 20
33.0908881756
 10
-5.2779745716
 20
33.0822358124
 10
-5.2268972504
 20
33.0685472764
 10
-5.1749399861
 20
33.0498991192
 10
-5.122393345
 20
33.0263956291
 10
-5.069551189
 20
32.998168247
  0
LWPOLYLINE
  5
21C
100
AcDbEntity
  8
IMPORT_IGES
100
AcDbPolyline
 62
7
  6
CONTINUOUS
 90
12
 70
0
 10
-9.1051091543
 20
31.0063365163
 10
-9.0860289128
 20
31.0164970553
 10
-9.0462020664
 20
31.0331357898
 10
-9.0038854978
 20
31.0447700214
 10
-8.9591148156
 20
31.0514686107
 10
-8.9125900855
 20
31.0530956759
 10
-8.8642825051
 20
31.0495795906
 10
-8.8142208768
 20
31.0409919814
 10
-8.7631916743
 20
31.027411846
 10
-8.7114570554
 20
31.0088655169
 10
-8.6587548623
 20
30.9853266618
 10
-8.605085095
 20
30.9567952804
  0
LINE
  5
21D
100
AcDbEntity
  8
IMPORT_IGES
100
AcDbLine
 62
7
  6
CONTINUOUS
 10
-1.7815258697
 20
31.0997036363
 11
-3.6200035008
 21
30.0381896936
  0
LINE
  5
21E
100
AcDbEntity
  8
IMPORT_IGES
100
AcDbLine
 62
7
  6
CONTINUOUS
 10
-3.5492928227
 20
29.9973622343
 11
-1.8522365478
 21
30.9772212583
  0
LWPOLYLINE
  5
21F
100
AcDbEntity
  8
IMPORT_IGES
100
AcDbPolyline
 62
7
  6
CONTINUOUS
 90
7
 70
0
 10
15.3735507092
 20
-29.3541583056
 10
15.390454639
 20
-29.3553886645
 10
15.436979369
 20
-29.3537615992
 10
15.4817500512
 20
-29.34706301
 10
15.5240666198
 20
-29.3354287784
 10
15.5638934663
 20
-29.3187900439
 10
15.5829737077
 20
-29.3086295048
  0
LWPOLYLINE
  5
220
100
AcDbEntity
  8
IMPORT_IGES
100
AcDbPolyline
 62
7
  6
CONTINUOUS
 90
15
 70
0
 10
7.2418182357
 20
-32.9408147338
 10
7.3977484228
 20
-32.9924538472
 10
7.571411168
 20
-33.0365350872
 10
7.7543030515
 20
-33.0689100345
 10
7.9453485308
 20
-33.0884829635
 10
8.1419875669
 20
-33.0944202238
 10
8.3434484527
 20
-33.0863931212
 10
8.5493393803
 20
-33.0641250232
 10
8.757510077
 20
-33.0276986578
 10
8.967378854
 20
-32.9772144411
 10
9.1785368776
 20
-32.9127366546
 10
9.389022478
 20
-32.834927986
 10
9.5978785922
 20
-32.7443534053
 10
9.8052397058
 20
-32.6411130842
 10
9.9536569223
 20
-32.5589264369
  0
LWPOLYLINE
  5
221
100
AcDbEntity
  8
IMPORT_IGES
100
AcDbPolyline
 62
250
  6
CONTINUOUS
 90
16
 70
0
 10
7.2417750106
 20
-32.9408082339
 10
7.1686011324
 20
-32.9115001124
 10
7.0293936133
 20
-32.8431627194
 10
6.8976944715
 20
-32.7611172473
 10
6.7739361371
 20
-32.6656140644
 10
6.6586244326
 20
-32.5571531326
 10
6.5520774741
 20
-32.4360321684
 10
6.4547684909
 20
-32.3029895145
 10
6.3668675679
 20
-32.1585946032
 10
6.2883409176
 20
-32.0027440605
 10
6.2194620008
 20
-31.8361236914
 10
6.1604707779
 20
-31.6595874439
 10
6.1114527104
 20
-31.4731060675
 10
6.0725977599
 20
-31.2772496786
 10
6.0440445504
 20
-31.0733241724
 10
6.0258121968
 20
-30.8624117989
  0
LINE
  5
222
100
AcDbEntity
  8
IMPORT_IGES
100
AcDbLine
 62
7
  6
CONTINUOUS
 10
-0.6147996808
 20
30.26274072
 11
-2.3118559556
 21
29.282881696
  0
LINE
  5
223
100
AcDbEntity
  8
IMPORT_IGES
100
AcDbLine
 62
7
  6
CONTINUOUS
 10
-2.2411452775
 20
29.2420542367
 11
-0.4026676464
 21
30.3035681793
  0
LWPOLYLINE
  5
224
100
AcDbEntity
  8
IMPORT_IGES
100
AcDbPolyline
 62
7
  6
CONTINUOUS
 90
22
 70
0
 10
-16.8540236951
 20
-19.0068876258
 10
-16.2324609543
 20
-19.5654609682
 10
-15.2031378727
 20
-20.4762263031
 10
-14.1847740508
 20
-21.3542260696
 10
-13.1801717723
 20
-22.1930260039
 10
-12.1840623526
 20
-22.9945967845
 10
-11.1809644367
 20
-23.768890836
 10
-10.1703762448
 20
-24.5132017947
 10
-9.1511560545
 20
-25.2261286968
 10
-8.1019041873
 20
-25.9196769329
 10
-7.0196425455
 20
-26.5920561127
 10
-5.909405903
 20
-27.2371631223
 10
-4.756637457
 20
-27.862850594
 10
-3.5715155661
 20
-28.4666388378
 10
-2.3570057799
 20
-29.0504671164
 10
-1.0886171336
 20
-29.6286401553
 10
0.2338695706
 20
-30.2028802085
 10
1.6068913536
 20
-30.7738946545
 10
3.0492664506
 20
-31.3513107438
 10
4.5660894132
 20
-31.9387347327
 10
6.1477284321
 20
-32.5350781732
 10
7.2449716637
 20
-32.9419921858
  0
LINE
  5
225
100
AcDbEntity
  8
IMPORT_IGES
100
AcDbLine
 62
250
  6
CONTINUOUS
 10
-16.9189958525
 20
-18.945459864
 11
-16.8540236951
 21
-19.0068876258
  0
LWPOLYLINE
  5
226
100
AcDbEntity
  8
IMPORT_IGES
100
AcDbPolyline
 62
250
  6
CONTINUOUS
 90
40
 70
0
 10
-17.6103089736
 20
-17.2150687516
 10
-17.0820495054
 20
-17.6892604056
 10
-16.5512809105
 20
-18.161325924
 10
-16.0173288353
 20
-18.6308208092
 10
-15.4775809357
 20
-19.0989417675
 10
-14.9332749581
 20
-19.5635860316
 10
-14.3896940668
 20
-20.0194801091
 10
-13.8464167594
 20
-20.4663412421
 10
-13.3030161436
 20
-20.9038929722
 10
-12.7652384623
 20
-21.3271818216
 10
-12.2348980734
 20
-21.7347741874
 10
-11.7101864037
 20
-22.1281074855
 10
-11.1917695574
 20
-22.5067682741
 10
-10.6816689402
 20
-22.869557193
 10
-10.178291305
 20
-23.2179558216
 10
-9.6767615547
 20
-23.5554935421
 10
-9.1774227473
 20
-23.882029116
 10
-8.6801180716
 20
-24.1978265456
 10
-8.1787636026
 20
-24.5067205105
 10
-7.6733062616
 20
-24.8085645464
 10
-7.1635568497
 20
-25.1033454213
 10
-6.6429093604
 20
-25.394888119
 10
-6.1115629002
 20
-25.6832643848
 10
-5.5696612024
 20
-25.9686284552
 10
-5.0102099689
 20
-26.2547278589
 10
-4.4329450016
 20
-26.5415853936
 10
-3.8380027448
 20
-26.8290940532
 10
-3.2184852345
 20
-27.1204740355
 10
-2.5722761
 20
-27.4164315715
 10
-1.9010604556
 20
-27.7159761692
 10
-1.2034267299
 20
-28.0196406752
 10
-0.4768483087
 20
-28.3284096124
 10
0.2762965597
 20
-28.6412006631
 10
1.0498296237
 20
-28.9555996831
 10
1.8435545094
 20
-29.2718688411
 10
2.6570190985
 20
-29.5901734198
 10
3.4832637783
 20
-29.9082161185
 10
4.3195021698
 20
-30.2255386675
 10
5.1672708536
 20
-30.5434231367
 10
6.0259015988
 20
-30.8623099878
  0
LWPOLYLINE
  5
227
100
AcDbEntity
  8
IMPORT_IGES
100
AcDbPolyline
 62
250
  6
CONTINUOUS
 90
3
 70
0
 10
-17.1420264371
 20
-18.6811264315
 10
-17.0355776581
 20
-18.8190287561
 10
-16.9189958525
 20
-18.945459864
  0
LWPOLYLINE
  5
228
100
AcDbEntity
  8
IMPORT_IGES
100
AcDbPolyline
 62
250
  6
CONTINUOUS
 90
9
 70
0
 10
-17.6104529307
 20
-17.215142694
 10
-17.5907150657
 20
-17.4280238297
 10
-17.5595738752
 20
-17.6343071033
 10
-17.5170748849
 20
-17.8328936994
 10
-17.4635545026
 20
-18.0223620549
 10
-17.3992271911
 20
-18.2021482838
 10
-17.3239354153
 20
-18.3724570406
 10
-17.2380469079
 20
-18.5323710651
 10
-17.1420264371
 20
-18.6811264315
  0
LWPOLYLINE
  5
229
100
AcDbEntity
  8
IMPORT_IGES
100
AcDbPolyline
 62
7
  6
CONTINUOUS
 90
15
 70
0
 10
-17.7683327596
 20
-16.9113911606
 10
-17.757637942
 20
-17.0448189827
 10
-17.7338220223
 20
-17.23956196
 10
-17.7007364358
 20
-17.4288865149
 10
-17.6584561295
 20
-17.612862854
 10
-17.6071297965
 20
-17.7910814683
 10
-17.5470932317
 20
-17.962716973
 10
-17.4785687847
 20
-18.1275143156
 10
-17.4017608202
 20
-18.2852533691
 10
-17.3171671927
 20
-18.4352083415
 10
-17.2251200563
 20
-18.5771253457
 10
-17.1260037028
 20
-18.7107085299
 10
-17.0206026525
 20
-18.8352676629
 10
-16.9095764956
 20
-18.9504853692
 10
-16.8518758849
 20
-19.004597377
  0
LINE
  5
22A
100
AcDbEntity
  8
IMPORT_IGES
100
AcDbLine
 62
7
  6
CONTINUOUS
 10
-17.7683290793
 20
-16.9114489791
 11
-19.1039981473
 21
4.0796831017
  0
LINE
  5
22B
100
AcDbEntity
  8
IMPORT_IGES
100
AcDbLine
 62
250
  6
CONTINUOUS
 10
-17.6103089736
 20
-17.2150687516
 11
-18.9471848545
 21
3.7835069649
  0
LINE
  5
22C
100
AcDbEntity
  8
IMPORT_IGES
100
AcDbLine
 62
7
  6
CONTINUOUS
 10
-19.1047189844
 20
4.1025131501
 11
-19.1039979806
 21
4.0798285087
  0
LWPOLYLINE
  5
22D
100
AcDbEntity
  8
IMPORT_IGES
100
AcDbPolyline
 62
250
  6
CONTINUOUS
 90
9
 70
0
 10
-19.1047189446
 20
21.3893115043
 10
-19.1041810582
 20
21.370538477
 10
-19.0988243847
 20
21.3268751782
 10
-19.0877270238
 20
21.2834876554
 10
-19.0708951317
 20
21.2405759229
 10
-19.0483481104
 20
21.1983564156
 10
-19.0201388961
 20
21.1570757946
 10
-18.9863726858
 20
21.1170069505
 10
-18.9471848545
 20
21.0784070125
  0
LINE
  5
22E
100
AcDbEntity
  8
IMPORT_IGES
100
AcDbLine
 62
7
  6
CONTINUOUS
 10
-19.1047189844
 20
4.1023631006
 11
-19.1047189844
 21
21.389474347
  0
LINE
  5
22F
100
AcDbEntity
  8
IMPORT_IGES
100
AcDbLine
 62
250
  6
CONTINUOUS
 10
-18.9471848545
 20
21.0784070125
 11
-18.9471848545
 21
3.7835069649
  0
LWPOLYLINE
  5
230
100
AcDbEntity
  8
IMPORT_IGES
100
AcDbPolyline
 62
250
  6
CONTINUOUS
 90
58
 70
0
 10
-18.9471868327
 20
21.0784087986
 10
-18.9458035968
 20
21.1878854122
 10
-18.9416405054
 20
21.2992810995
 10
-18.9346781691
 20
21.4125359157
 10
-18.9248903681
 20
21.5276672623
 10
-18.91226353
 20
21.6445301184
 10
-18.8968158654
 20
21.7628102726
 10
-18.8785460893
 20
21.8824468954
 10
-18.8574583423
 20
22.0033439552
 10
-18.8336174256
 20
22.1251198104
 10
-18.8070643488
 20
22.2476089505
 10
-18.7778085928
 20
22.3707993288
 10
-18.7458927433
 20
22.4945320493
 10
-18.7113534519
 20
22.6186884683
 10
-18.6742127809
 20
22.7432045989
 10
-18.6344953722
 20
22.8680019521
 10
-18.5922303799
 20
22.9929860341
 10
-18.5474460043
 20
23.1180653679
 10
-18.5001638729
 20
23.24316504
 10
-18.450406077
 20
23.3682052252
 10
-18.3982065875
 20
23.4930754654
 10
-18.3436056071
 20
23.617653984
 10
-18.2865810864
 20
23.7419560652
 10
-18.2272121253
 20
23.8657713393
 10
-18.1657122217
 20
23.9886446945
 10
-18.1021759041
 20
24.1104019294
 10
-18.0366118075
 20
24.2310370781
 10
-17.9691292382
 20
24.3503572541
 10
-17.8999239797
 20
24.4680414134
 10
-17.8289161407
 20
24.5842469276
 10
-17.7557819576
 20
24.6994911448
 10
-17.6805130355
 20
24.813781519
 10
-17.6032145794
 20
24.9269584818
 10
-17.5237045817
 20
25.0392729907
 10
-17.4418673082
 20
25.150842342
 10
-17.3578919807
 20
25.261361219
 10
-17.272054566
 20
25.3704442823
 10
-17.1844267219
 20
25.4779926052
 10
-17.0950539467
 20
25.5839401481
 10
-17.0041978934
 20
25.6879754772
 10
-16.9119942278
 20
25.7899551979
 10
-16.8184490097
 20
25.8898817785
 10
-16.7236398387
 20
25.9876755128
 10
-16.6276380967
 20
26.0832638443
 10
-16.5305134571
 20
26.1765759517
 10
-16.4323415973
 20
26.2675354171
 10
-16.3331923469
 20
26.3560715982
 10
-16.2331378538
 20
26.4421117369
 10
-16.1322577925
 20
26.5255770982
 10
-16.0305513281
 20
26.6064527541
 10
-15.9281613002
 20
26.6846071939
 10
-15.8253873936
 20
26.7598056898
 10
-15.7222868345
 20
26.8320080736
 10
-15.6189513427
 20
26.9011496667
 10
-15.5157385895
 20
26.967002706
 10
-15.4128182103
 20
27.0294861918
 10
-15.3101680608
 20
27.0886390202
 10
-15.2078584873
 20
27.1444400594
  0
LWPOLYLINE
  5
231
100
AcDbEntity
  8
IMPORT_IGES
100
AcDbPolyline
 62
7
  6
CONTINUOUS
 90
11
 70
0
 10
-7.9544483582
 20
-15.9690966497
 10
-7.9114713435
 20
-15.9830305632
 10
-7.8078725631
 20
-16.0103519279
 10
-7.7056270508
 20
-16.0286280697
 10
-7.6051530003
 20
-16.0380633837
 10
-7.5068671425
 20
-16.0388693136
 10
-7.4112134121
 20
-16.0312703179
 10
-7.3187687286
 20
-16.0155419127
 10
-7.2300865929
 20
-15.9920303019
 10
-7.1456411367
 20
-15.9611309891
 10
-7.065949246
 20
-15.9233291552
  0
LINE
  5
232
100
AcDbEntity
  8
IMPORT_IGES
100
AcDbLine
 62
7
  6
CONTINUOUS
 10
-7.9544483582
 20
-15.9690966497
 11
-7.9542144093
 21
-15.9691763842
  0
LWPOLYLINE
  5
233
100
AcDbEntity
  8
IMPORT_IGES
100
AcDbPolyline
 62
250
  6
CONTINUOUS
 90
10
 70
0
 10
-8.143253161
 20
-15.729055482
 10
-8.1663474081
 20
-15.7209105839
 10
-8.1895796332
 20
-15.7120883689
 10
-8.2129495744
 20
-15.7025886778
 10
-8.2364691882
 20
-15.6924087142
 10
-8.260125971
 20
-15.6815509421
 10
-8.2838830496
 20
-15.6700231455
 10
-8.3077280453
 20
-15.6578278721
 10
-8.3316729829
 20
-15.6449623722
 10
-8.3557176748
 20
-15.6314265385
  0
LWPOLYLINE
  5
234
100
AcDbEntity
  8
IMPORT_IGES
100
AcDbPolyline
 62
250
  6
CONTINUOUS
 90
40
 70
0
 10
-8.3557176748
 20
-15.6314265385
 10
-8.4344583771
 20
-15.582190725
 10
-8.5118105981
 20
-15.5277454342
 10
-8.5877852645
 20
-15.4680983597
 10
-8.6626835628
 20
-15.4029153202
 10
-8.7362243417
 20
-15.3325445131
 10
-8.8075504761
 20
-15.2580206307
 10
-8.8767217693
 20
-15.1793913616
 10
-8.9437090681
 20
-15.096629471
 10
-9.0075328966
 20
-15.0106642645
 10
-9.0681539222
 20
-14.9215137721
 10
-9.1256502035
 20
-14.8291850672
 10
-9.179227064
 20
-14.7345964324
 10
-9.2290125859
 20
-14.6372466269
 10
-9.2749172846
 20
-14.5376614434
 10
-9.3158260462
 20
-14.4383033307
 10
-9.3516142605
 20
-14.3392153439
 10
-9.382441316
 20
-14.2403762462
 10
-9.4076198481
 20
-14.1441530815
 10
-9.4269777022
 20
-14.0509269
 10
-9.4407067777
 20
-13.9603289421
 10
-9.4486624195
 20
-13.873599421
 10
-9.4507080967
 20
-13.7909108008
 10
-9.4469798605
 20
-13.7120903196
 10
-9.4377372267
 20
-13.6378574276
 10
-9.4229820819
 20
-13.568099914
 10
-9.402693462
 20
-13.5029181119
 10
-9.3770932231
 20
-13.4433481631
 10
-9.3461471843
 20
-13.3892905689
 10
-9.3098551215
 20
-13.3408232415
 10
-9.2684882998
 20
-13.2992474214
 10
-9.2217346303
 20
-13.2647802666
 10
-9.1698595173
 20
-13.2371749572
 10
-9.114005678
 20
-13.2170399362
 10
-9.05397426
 20
-13.2047289638
 10
-8.9899213563
 20
-13.1998605368
 10
-8.9235386064
 20
-13.2019505616
 10
-8.855387105
 20
-13.2108355951
 10
-8.784884827
 20
-13.2266648044
 10
-8.7120196598
 20
-13.2494298985
  0
LWPOLYLINE
  5
235
100
AcDbEntity
  8
IMPORT_IGES
100
AcDbPolyline
 62
7
  6
CONTINUOUS
 90
8
 70
0
 10
-19.1039979806
 20
4.0798285087
 10
-19.097818686
 20
4.0325347649
 10
-19.0862038329
 20
3.9883549708
 10
-19.069053736
 20
3.9449425914
 10
-19.0464468792
 20
3.9025200088
 10
-19.0184914043
 20
3.861318193
 10
-18.985344184
 20
3.8215726914
 10
-18.9471848545
 20
3.7835069649
  0
LWPOLYLINE
  5
236
100
AcDbEntity
  8
IMPORT_IGES
100
AcDbPolyline
 62
250
  6
CONTINUOUS
 90
8
 70
0
 10
-17.7683290793
 20
-16.9114489791
 10
-17.7629734219
 20
-16.9552773409
 10
-17.7517106785
 20
-17.001272589
 10
-17.7347099797
 20
-17.0465240645
 10
-17.711991493
 20
-17.0908004961
 10
-17.683609132
 20
-17.1338394306
 10
-17.6496693927
 20
-17.1753523054
 10
-17.6103089736
 20
-17.2150687516
  0
LWPOLYLINE
  5
237
100
AcDbEntity
  8
IMPORT_IGES
100
AcDbPolyline
 62
250
  6
CONTINUOUS
 90
10
 70
0
 10
-8.7120196598
 20
-13.2494298985
 10
-8.6891513177
 20
-13.2577378646
 10
-8.6661092841
 20
-13.2667097674
 10
-8.6428933117
 20
-13.2763454303
 10
-8.619490813
 20
-13.286647331
 10
-8.5959138591
 20
-13.297612623
 10
-8.5721992733
 20
-13.3092331971
 10
-8.5483592566
 20
-13.3215062912
 10
-8.5243812939
 20
-13.3344344287
 10
-8.5002652183
 20
-13.3480174834
  0
LWPOLYLINE
  5
238
100
AcDbEntity
  8
IMPORT_IGES
100
AcDbPolyline
 62
250
  6
CONTINUOUS
 90
6
 70
0
 10
-8.2765869658
 20
-12.6391775057
 10
-8.3079043447
 20
-12.6246231277
 10
-8.3389019139
 20
-12.6110007205
 10
-8.3695668514
 20
-12.5983024411
 10
-8.3998828974
 20
-12.5865191655
 10
-8.4298364199
 20
-12.5756415045
  0
LWPOLYLINE
  5
239
100
AcDbEntity
  8
IMPORT_IGES
100
AcDbPolyline
 62
250
  6
CONTINUOUS
 90
3
 70
0
 10
-8.2130348975
 20
-12.6711093636
 10
-8.244959143
 20
-12.6546706244
 10
-8.2765869658
 20
-12.6391775057
  0
LWPOLYLINE
  5
23A
100
AcDbEntity
  8
IMPORT_IGES
100
AcDbPolyline
 62
250
  6
CONTINUOUS
 90
3
 70
0
 10
-8.1483705229
 20
-12.7068496068
 10
-8.1808329269
 20
-12.6885004505
 10
-8.2130348975
 20
-12.6711093636
  0
LWPOLYLINE
  5
23B
100
AcDbEntity
  8
IMPORT_IGES
100
AcDbPolyline
 62
7
  6
CONTINUOUS
 90
35
 70
0
 10
-8.1768253944
 20
-12.6824555792
 10
-8.0769774442
 20
-12.7435898041
 10
-7.9769351324
 20
-12.8120117196
 10
-7.877184839
 20
-12.887365151
 10
-7.7781063012
 20
-12.9692843909
 10
-7.68027257
 20
-13.0573269456
 10
-7.5844350284
 20
-13.1509382571
 10
-7.4909889391
 20
-13.2496220169
 10
-7.4003811744
 20
-13.3528299564
 10
-7.3133732239
 20
-13.4598287337
 10
-7.2304961823
 20
-13.5697303652
 10
-7.1518331031
 20
-13.6822151057
 10
-7.0774724752
 20
-13.7974101102
 10
-7.0076929847
 20
-13.9148311099
 10
-6.9428373693
 20
-14.0338374733
 10
-6.8831798831
 20
-14.1543681716
 10
-6.8290440415
 20
-14.2758208229
 10
-6.7806942156
 20
-14.3976179121
 10
-6.7384096181
 20
-14.5197233279
 10
-6.702420768
 20
-14.6418047751
 10
-6.6731292459
 20
-14.7628851562
 10
-6.6510305279
 20
-14.8819501374
 10
-6.6362787794
 20
-14.9985172921
 10
-6.6290063739
 20
-15.1117424313
 10
-6.6293744027
 20
-15.2201976926
 10
-6.637267888
 20
-15.3232304066
 10
-6.6524834225
 20
-15.4205238176
 10
-6.674756962
 20
-15.5113692023
 10
-6.7037208304
 20
-15.5952359723
 10
-6.7391005426
 20
-15.6720947367
 10
-6.7807536839
 20
-15.7420258304
 10
-6.8284146256
 20
-15.8047657148
 10
-6.8817793587
 20
-15.8600649901
 10
-6.9407647671
 20
-15.9078987552
 10
-6.9901474378
 20
-15.9396614287
  0
LWPOLYLINE
  5
23C
100
AcDbEntity
  8
IMPORT_IGES
100
AcDbPolyline
 62
250
  6
CONTINUOUS
 90
40
 70
0
 10
-8.5002652183
 20
-13.3480174834
 10
-8.4218910735
 20
-13.3967172386
 10
-8.3444186029
 20
-13.4504903256
 10
-8.267858604
 20
-13.5093433764
 10
-8.1919061876
 20
-13.5736241605
 10
-8.1168857683
 20
-13.6429969644
 10
-8.0437577368
 20
-13.7164470765
 10
-7.9724911636
 20
-13.7939686418
 10
-7.9031472924
 20
-13.875587235
 10
-7.8368361528
 20
-13.9603431087
 10
-7.773650866
 20
-14.0482433042
 10
-7.7135364505
 20
-14.1393063467
 10
-7.6573894382
 20
-14.2325957637
 10
-7.605124399
 20
-14.3286249231
 10
-7.5568641875
 20
-14.4269060272
 10
-7.5138233367
 20
-14.5250048153
 10
-7.4761817401
 20
-14.6228802266
 10
-7.4437926736
 20
-14.7205963027
 10
-7.4173822333
 20
-14.8158775381
 10
-7.3971510965
 20
-14.9083601837
 10
-7.3829171349
 20
-14.9984209412
 10
-7.3748289744
 20
-15.0848927233
 10
-7.3730302891
 20
-15.1676308406
 10
-7.3773769308
 20
-15.2467796507
 10
-7.3875813732
 20
-15.3216025466
 10
-7.4036257621
 20
-15.3922127915
 10
-7.4255099832
 20
-15.4584845778
 10
-7.452969901
 20
-15.5193204636
 10
-7.4860095715
 20
-15.5748001168
 10
-7.524592269
 20
-15.6248212381
 10
-7.5683911215
 20
-15.6680124148
 10
-7.6176983382
 20
-15.7041318742
 10
-7.6721767103
 20
-15.7333906085
 10
-7.7305601212
 20
-15.755099841
 10
-7.793013675
 20
-15.7688658135
 10
-7.8593303998
 20
-15.775054245
 10
-7.9277020013
 20
-15.7741266078
 10
-7.9975227715
 20
-15.7662350319
 10
-8.0693772667
 20
-15.7512139292
 10
-8.143253161
 20
-15.729055482
  0
LINE
  5
23D
100
AcDbEntity
  8
IMPORT_IGES
100
AcDbLine
 62
7
  6
CONTINUOUS
 10
11.75956899
 20
21.1582172888
 11
13.5980466211
 21
22.2197312314
  0
LWPOLYLINE
  5
23E
100
AcDbEntity
  8
IMPORT_IGES
100
AcDbPolyline
 62
250
  6
CONTINUOUS
 90
8
 70
0
 10
-8.4298364199
 20
-12.5756415045
 10
-8.5196523162
 20
-12.5477582679
 10
-8.6076049542
 20
-12.5277840868
 10
-8.6932490242
 20
-12.5158908979
 10
-8.7761794671
 20
-12.5122001436
 10
-8.8559136337
 20
-12.5168317434
 10
-8.9319181369
 20
-12.5298388259
 10
-9.0037479127
 20
-12.551156552
  0
LWPOLYLINE
  5
23F
100
AcDbEntity
  8
IMPORT_IGES
100
AcDbPolyline
 62
250
  6
CONTINUOUS
 90
16
 70
0
 10
15.8607671077
 20
-22.7322999658
 10
15.8763243857
 20
-22.7403879148
 10
15.8932606569
 20
-22.7474926221
 10
15.911390364
 20
-22.7535362472
 10
15.930514874
 20
-22.7584525747
 10
15.9504246549
 20
-22.7621877404
 10
15.9709015709
 20
-22.764700821
 10
15.9917212727
 20
-22.7659642827
 10
16.0126556552
 20
-22.7659642827
 10
16.0334753569
 20
-22.764700821
 10
16.053952273
 20
-22.7621877404
 10
16.0738620538
 20
-22.7584525747
 10
16.0929865639
 20
-22.7535362472
 10
16.1111162709
 20
-22.7474926221
 10
16.1280525421
 20
-22.7403879148
 10
16.1436098202
 20
-22.7322999658
  0
LINE
  5
240
100
AcDbEntity
  8
IMPORT_IGES
100
AcDbLine
 62
7
  6
CONTINUOUS
 10
11.8302796681
 20
21.1173898294
 11
13.527335943
 21
22.0972488534
  0
LINE
  5
241
100
AcDbEntity
  8
IMPORT_IGES
100
AcDbLine
 62
7
  6
CONTINUOUS
 10
13.0677165352
 20
20.4029092911
 11
14.7647728101
 21
21.3827683151
  0
LINE
  5
242
100
AcDbEntity
  8
IMPORT_IGES
100
AcDbLine
 62
7
  6
CONTINUOUS
 10
14.9769048444
 20
21.4235957744
 11
13.1384272133
 21
20.3620818318
  0
LINE
  5
243
100
AcDbEntity
  8
IMPORT_IGES
100
AcDbLine
 62
7
  6
CONTINUOUS
 10
15.9021836319
 20
-22.9054943657
 11
15.8314729538
 21
-22.8646669064
  0
LINE
  5
244
100
AcDbEntity
  8
IMPORT_IGES
100
AcDbLine
 62
250
  6
CONTINUOUS
 10
15.8607671077
 20
-22.8139469935
 11
15.7900564296
 21
-22.7731195342
  0
LINE
  5
245
100
AcDbEntity
  8
IMPORT_IGES
100
AcDbLine
 62
250
  6
CONTINUOUS
 10
15.7900564296
 20
-22.6914725065
 11
15.8607671077
 21
-22.7322999658
  0
LINE
  5
246
100
AcDbEntity
  8
IMPORT_IGES
100
AcDbLine
 62
250
  6
CONTINUOUS
 10
16.0021884639
 20
-22.4873509918
 11
15.9314777858
 21
-22.4465235325
  0
LWPOLYLINE
  5
247
100
AcDbEntity
  8
IMPORT_IGES
100
AcDbPolyline
 62
7
  6
CONTINUOUS
 90
9
 70
0
 10
15.8314729555
 20
-22.8646669074
 10
15.826376701
 20
-22.8613681529
 10
15.8171056238
 20
-22.853544729
 10
15.80910287
 20
-22.8439124428
 10
15.8023338743
 20
-22.8325217026
 10
15.7970223601
 20
-22.8197129931
 10
15.7932429018
 20
-22.8055998094
 10
15.790920925
 20
-22.7900686564
 10
15.7900564296
 20
-22.7731195342
  0
LWPOLYLINE
  5
248
100
AcDbEntity
  8
IMPORT_IGES
100
AcDbPolyline
 62
250
  6
CONTINUOUS
 90
11
 70
0
 10
-8.1432385397
 20
-15.7290455552
 10
-8.1339190236
 20
-15.7637966731
 10
-8.1222433803
 20
-15.7966330367
 10
-8.1083769839
 20
-15.8271911903
 10
-8.0927023189
 20
-15.8549145459
 10
-8.0753645611
 20
-15.8798782737
 10
-8.0560468344
 20
-15.9025969092
 10
-8.0347621481
 20
-15.9229081714
 10
-8.0118100073
 20
-15.9404314254
 10
-7.9871124133
 20
-15.9551402129
 10
-7.9610374856
 20
-15.9667239603
  0
LWPOLYLINE
  5
249
100
AcDbEntity
  8
IMPORT_IGES
100
AcDbPolyline
 62
250
  6
CONTINUOUS
 90
19
 70
0
 10
-8.712004301
 20
-13.2494201671
 10
-8.7194540488
 20
-13.2096242854
 10
-8.7238873376
 20
-13.1682874384
 10
-8.7252808115
 20
-13.1260233537
 10
-8.7237456091
 20
-13.0839695997
 10
-8.7194839828
 20
-13.0422735556
 10
-8.7124326877
 20
-12.9999265425
 10
-8.7025104132
 20
-12.9570791275
 10
-8.6898322547
 20
-12.9145595778
 10
-8.674303506
 20
-12.8722948582
 10
-8.6559890534
 20
-12.8307597795
 10
-8.6350854441
 20
-12.7905716782
 10
-8.6116272945
 20
-12.7519347766
 10
-8.5859809886
 20
-12.7155388396
 10
-8.5583778924
 20
-12.6817180489
 10
-8.5286068165
 20
-12.6503258626
 10
-8.4968514453
 20
-12.6217695501
 10
-8.4637615853
 20
-12.5967512072
 10
-8.4298424633
 20
-12.5756388908
  0
LINE
  5
24A
100
AcDbEntity
  8
IMPORT_IGES
100
AcDbLine
 62
250
  6
CONTINUOUS
 10
18.2649301637
 20
19.5251311637
 11
15.0829496484
 21
17.6878954937
  0
LINE
  5
24B
100
AcDbEntity
  8
IMPORT_IGES
100
AcDbLine
 62
250
  6
CONTINUOUS
 10
14.7293962578
 20
17.4837581971
 11
8.1266325412
 21
13.6714051791
  0
LWPOLYLINE
  5
24C
100
AcDbEntity
  8
IMPORT_IGES
100
AcDbPolyline
 62
7
  6
CONTINUOUS
 90
17
 70
0
 10
-5.8175978047
 20
-5.2846229187
 10
-5.3729718144
 20
-5.5111042498
 10
-4.9027915621
 20
-5.7465617658
 10
-4.408074765
 20
-5.9899711692
 10
-3.8870317139
 20
-6.2417992817
 10
-3.3389585902
 20
-6.5023278639
 10
-2.763628283
 20
-6.770986709
 10
-2.1599300415
 20
-7.0469824576
 10
-1.5280984002
 20
-7.3299287078
 10
-0.8672305165
 20
-7.6200578449
 10
-0.1744875088
 20
-7.9175209784
 10
0.5501479379
 20
-8.2220645638
 10
1.3069370137
 20
-8.5338901175
 10
2.0990919657
 20
-8.8538403022
 10
2.9276385003
 20
-9.1822608151
 10
3.7913223191
 20
-9.5190424138
 10
4.6898027499
 20
-9.8644235202
  0
LINE
  5
24D
100
AcDbEntity
  8
IMPORT_IGES
100
AcDbLine
 62
7
  6
CONTINUOUS
 10
-6.2381077427
 20
-5.0668007496
 11
-5.8175978047
 21
-5.2846229187
  0
LWPOLYLINE
  5
24E
100
AcDbEntity
  8
IMPORT_IGES
100
AcDbPolyline
 62
250
  6
CONTINUOUS
 90
7
 70
0
 10
19.0013310988
 20
-20.8035169236
 10
18.9959556246
 20
-20.800730277
 10
18.9844516544
 20
-20.7966159917
 10
18.9720369449
 20
-20.794474955
 10
18.9588475145
 20
-20.7943306245
 10
18.9450278692
 20
-20.7961845816
 10
18.9307294201
 20
-20.8000165138
  0
LINE
  5
24F
100
AcDbEntity
  8
IMPORT_IGES
100
AcDbLine
 62
7
  6
CONTINUOUS
 10
-6.6398616639
 20
-4.855032908
 11
-6.2381077427
 21
-5.0668007496
  0
LWPOLYLINE
  5
250
100
AcDbEntity
  8
IMPORT_IGES
100
AcDbPolyline
 62
7
  6
CONTINUOUS
 90
3
 70
0
 10
-7.3878275686
 20
-4.4495635174
 10
-7.0230029327
 20
-4.649074048
 10
-6.6398616639
 20
-4.855032908
  0
LINE
  5
251
100
AcDbEntity
  8
IMPORT_IGES
100
AcDbLine
 62
250
  6
CONTINUOUS
 10
18.8306155887
 20
-20.7725976998
 11
18.9013262668
 21
-20.8134251592
  0
LINE
  5
252
100
AcDbEntity
  8
IMPORT_IGES
100
AcDbLine
 62
7
  6
CONTINUOUS
 10
18.9306204207
 20
-20.7626894643
 11
19.0013310988
 21
-20.8035169236
  0
LWPOLYLINE
  5
253
100
AcDbEntity
  8
IMPORT_IGES
100
AcDbPolyline
 62
250
  6
CONTINUOUS
 90
7
 70
0
 10
18.9013262668
 20
-20.8134251592
 10
18.9161088238
 20
-20.8228549642
 10
18.9307294201
 20
-20.8339705383
 10
18.9450278692
 20
-20.8466500966
 10
18.9588475145
 20
-20.8607547195
 10
18.9720369449
 20
-20.8761298736
 10
18.9844516544
 20
-20.8926071056
  0
LWPOLYLINE
  5
254
100
AcDbEntity
  8
IMPORT_IGES
100
AcDbPolyline
 62
7
  6
CONTINUOUS
 90
28
 70
0
 10
-18.9464072149
 20
3.7828081666
 10
-18.3683878097
 20
3.2759269036
 10
-17.8072460198
 20
2.7902687435
 10
-17.2625054938
 20
2.3259936992
 10
-16.7345529825
 20
1.8840169383
 10
-16.2225025127
 20
1.4634993497
 10
-15.7241205626
 20
1.0619003979
 10
-15.2393024129
 20
0.6790611768
 10
-14.7682090958
 20
0.3149496502
 10
-14.3090278347
 20
-0.0327744067
 10
-13.8615048529
 20
-0.3646613786
 10
-13.4262910271
 20
-0.6804789053
 10
-13.0029548756
 20
-0.9813693232
 10
-12.5917743625
 20
-1.2675527956
 10
-12.1931674008
 20
-1.5392110866
 10
-11.8069096954
 20
-1.7974366575
 10
-11.4346614764
 20
-2.0416334212
 10
-11.0755352155
 20
-2.2729269197
 10
-10.7251764597
 20
-2.4950084096
 10
-10.3846459727
 20
-2.7077186929
 10
-10.0529859049
 20
-2.911881519
 10
-9.7224418863
 20
-3.1124340516
 10
-9.3944438528
 20
-3.3085970447
 10
-9.0710290539
 20
-3.499254471
 10
-8.7449697414
 20
-3.6885695729
 10
-8.4152039276
 20
-3.8768605144
 10
-8.0825026187
 20
-4.0640819405
 10
-7.3878275686
 20
-4.4495635174
  0
LWPOLYLINE
  5
255
100
AcDbEntity
  8
IMPORT_IGES
100
AcDbPolyline
 62
250
  6
CONTINUOUS
 90
58
 70
0
 10
8.1266325412
 20
13.6714051791
 10
8.0323626967
 20
13.6105291539
 10
7.9378390989
 20
13.5463209898
 10
7.843125798
 20
13.478808526
 10
7.7482108587
 20
13.4079609645
 10
7.6532399166
 20
13.3338648995
 10
7.55851301
 20
13.2567483218
 10
7.4641143798
 20
13.1766825464
 10
7.3700944312
 20
13.0937086719
 10
7.276697345
 20
13.0080475222
 10
7.1840421528
 20
12.9198238546
 10
7.0921392024
 20
12.8290602748
 10
7.0010659993
 20
12.7358407582
 10
6.9108885152
 20
12.640238928
 10
6.8216700043
 20
12.5423271006
 10
6.7334831999
 20
12.4421888678
 10
6.6463825759
 20
12.3398863004
 10
6.5604420812
 20
12.2355036296
 10
6.4757616899
 20
12.1291609107
 10
6.3923544016
 20
12.0208689848
 10
6.3103328898
 20
11.9107657648
 10
6.2299356754
 20
11.799176443
 10
6.1512137642
 20
11.6861864676
 10
6.07421831
 20
11.5718814103
 10
5.9991670741
 20
11.4566078999
 10
5.9262262265
 20
11.3406668139
 10
5.8552964688
 20
11.2239443293
 10
5.7861997345
 20
11.1061599451
 10
5.7190280361
 20
10.9874668557
 10
5.6537794193
 20
10.8678640648
 10
5.5901627186
 20
10.7468263691
 10
5.5280971953
 20
10.624173958
 10
5.4677750831
 20
10.5002569318
 10
5.4093300513
 20
10.3753401847
 10
5.3527776293
 20
10.2494513725
 10
5.2981948382
 20
10.1227522873
 10
5.2457814054
 20
9.9957191056
 10
5.1956160496
 20
9.8685864025
 10
5.1476689846
 20
9.7413207986
 10
5.1019592367
 20
9.6140002205
 10
5.0585142725
 20
9.486723758
 10
5.0173601827
 20
9.3595870461
 10
4.9785158782
 20
9.2326615322
 10
4.9420083666
 20
9.1060405047
 10
4.9078654129
 20
8.9798210846
 10
4.8761090331
 20
8.8540795994
 10
4.8467596937
 20
8.7288771289
 10
4.8198535827
 20
8.6043398234
 10
4.7954323323
 20
8.4806397323
 10
4.7735047565
 20
8.3577867976
 10
4.7541098593
 20
8.2359524833
 10
4.7373096567
 20
8.1155418115
 10
4.7231074948
 20
7.9966553286
 10
4.7115010686
 20
7.8793494008
 10
4.7025068035
 20
7.7639454519
 10
4.6961110281
 20
7.6505894335
 10
4.6922880756
 20
7.5392597545
 10
4.6910187102
 20
7.430014559
  0
LWPOLYLINE
  5
256
100
AcDbEntity
  8
IMPORT_IGES
100
AcDbPolyline
 62
250
  6
CONTINUOUS
 90
28
 70
0
 10
8.8337393224
 20
12.446660309
 10
8.6629721678
 20
12.3419695645
 10
8.4939461398
 20
12.2272589022
 10
8.3266612384
 20
12.102528322
 10
8.1605555343
 20
11.9672252364
 10
7.9961909568
 20
11.821902233
 10
7.8352532937
 20
11.6682170744
 10
7.6778582285
 20
11.5062947702
 10
7.5238900777
 20
11.3360103109
 10
7.3746875782
 20
11.1586464308
 10
7.2300366608
 20
10.9738675111
 10
7.0901513946
 20
10.7820091706
 10
6.9570127236
 20
10.5853610003
 10
6.8308999039
 20
10.3839093705
 10
6.7115336793
 20
10.1776679109
 10
6.6000572254
 20
9.9689671016
 10
6.4965871966
 20
9.757624644
 10
6.4010069386
 20
9.5438228368
 10
6.3141096634
 20
9.330439056
 10
6.236053541
 20
9.1177940052
 10
6.1666804014
 20
8.9055669808
 10
6.1063089468
 20
8.6956732471
 10
6.0549296557
 20
8.4880465016
 10
6.0125520496
 20
8.2827530467
 10
5.9795233954
 20
8.0819070538
 10
5.9559594488
 20
7.8862132466
 10
5.941744454
 20
7.6949669013
 10
5.9368784112
 20
7.5081680179
  0
LINE
  5
257
100
AcDbEntity
  8
IMPORT_IGES
100
AcDbLine
 62
250
  6
CONTINUOUS
 10
8.8337393224
 20
12.446660309
 11
15.436503039
 21
16.2590133269
  0
LINE
  5
258
100
AcDbEntity
  8
IMPORT_IGES
100
AcDbLine
 62
250
  6
CONTINUOUS
 10
15.7900564296
 20
16.4631506236
 11
18.9720369449
 21
18.3003862936
  0
LWPOLYLINE
  5
259
100
AcDbEntity
  8
IMPORT_IGES
100
AcDbPolyline
 62
7
  6
CONTINUOUS
 90
6
 70
0
 10
-9.3861184853
 20
-12.864569787
 10
-9.3643940315
 20
-12.8140290558
 10
-9.3261278327
 20
-12.7460755746
 10
-9.2821166774
 20
-12.6854727496
 10
-9.2326564328
 20
-12.6324726993
 10
-9.1776387251
 20
-12.5869959502
  0
LWPOLYLINE
  5
25A
100
AcDbEntity
  8
IMPORT_IGES
100
AcDbPolyline
 62
7
  6
CONTINUOUS
 90
9
 70
0
 10
18.8306155887
 20
12.2944485103
 10
18.8457288778
 20
12.3021760635
 10
18.8603425229
 20
12.3079320427
 10
18.874456524
 20
12.3117164478
 10
18.8882064462
 20
12.3135213253
 10
18.9014567245
 20
12.3133546288
 10
18.9138006636
 20
12.3112402187
 10
18.9252118381
 20
12.3071229623
 10
18.930620419
 20
12.3043567468
  0
LWPOLYLINE
  5
25B
100
AcDbEntity
  8
IMPORT_IGES
100
AcDbPolyline
 62
250
  6
CONTINUOUS
 90
3
 70
0
 10
18.9307294201
 20
12.2670296963
 10
18.9161088238
 20
12.2612617722
 10
18.9013262668
 20
12.253621051
  0
LINE
  5
25C
100
AcDbEntity
  8
IMPORT_IGES
100
AcDbLine
 62
7
  6
CONTINUOUS
 10
-1.0744190885
 20
30.5282138975
 11
-1.0744190885
 21
30.6915079528
  0
LINE
  5
25D
100
AcDbEntity
  8
IMPORT_IGES
100
AcDbLine
 62
7
  6
CONTINUOUS
 10
-0.6147996808
 20
30.1810858013
 11
-0.6147996808
 21
30.26274072
  0
LWPOLYLINE
  5
25E
100
AcDbEntity
  8
IMPORT_IGES
100
AcDbPolyline
 62
250
  6
CONTINUOUS
 90
5
 70
0
 10
19.042747623
 20
12.0086720769
 10
19.0567554591
 20
12.0176546543
 10
19.0690603804
 20
12.027433445
 10
19.0795275716
 20
12.0379013107
 10
19.0880423521
 20
12.0489435631
  0
LWPOLYLINE
  5
25F
100
AcDbEntity
  8
IMPORT_IGES
100
AcDbPolyline
 62
250
  6
CONTINUOUS
 90
9
 70
0
 10
16.102193296
 20
10.1615518444
 10
16.107285013
 20
10.1648076547
 10
16.1166007445
 20
10.1727120809
 10
16.1246629511
 20
10.1823918737
 10
16.1313833015
 20
10.1937409793
 10
16.1366881663
 20
10.2066350546
 10
16.1405194242
 20
10.2209328293
 10
16.1428350992
 20
10.2364776541
 10
16.1436098202
 20
10.2530992166
  0
LWPOLYLINE
  5
260
100
AcDbEntity
  8
IMPORT_IGES
100
AcDbPolyline
 62
250
  6
CONTINUOUS
 90
16
 70
0
 10
16.0021884639
 20
10.5796952183
 10
15.9874059069
 20
10.5702654132
 10
15.9727853106
 20
10.5591498392
 10
15.9584868615
 20
10.5464702808
 10
15.9446672162
 20
10.532365658
 10
15.9314777858
 20
10.5169905038
 10
15.9190630764
 20
10.5005132718
 10
15.9075591061
 20
10.48311449
 10
15.8970919148
 20
10.4649847829
 10
15.8877761834
 20
10.4463227836
 10
15.8797139768
 20
10.4273329567
 10
15.8729936263
 20
10.4082233588
 10
15.8676887615
 20
10.3892033587
 10
15.8638575036
 20
10.3704813433
 10
15.8615418287
 20
10.3522624351
 10
15.8607671077
 20
10.3347462443
  0
LINE
  5
261
100
AcDbEntity
  8
IMPORT_IGES
100
AcDbLine
 62
7
  6
CONTINUOUS
 10
18.8306155887
 20
12.2944485103
 11
15.9314777858
 21
10.6205226776
  0
LINE
  5
262
100
AcDbEntity
  8
IMPORT_IGES
100
AcDbLine
 62
250
  6
CONTINUOUS
 10
18.9013262668
 20
12.253621051
 11
16.0021884639
 21
10.5796952183
  0
LINE
  5
263
100
AcDbEntity
  8
IMPORT_IGES
100
AcDbLine
 62
250
  6
CONTINUOUS
 10
16.1436098202
 20
10.3347462443
 11
19.042747623
 21
12.0086720769
  0
LINE
  5
264
100
AcDbEntity
  8
IMPORT_IGES
100
AcDbLine
 62
250
  6
CONTINUOUS
 10
19.042747623
 20
11.9270250492
 11
16.1436098202
 21
10.2530992166
  0
LINE
  5
265
100
AcDbEntity
  8
IMPORT_IGES
100
AcDbLine
 62
7
  6
CONTINUOUS
 10
19.0013310988
 20
11.835477677
 11
16.102193296
 21
10.1615518444
  0
LWPOLYLINE
  5
266
100
AcDbEntity
  8
IMPORT_IGES
100
AcDbPolyline
 62
250
  6
CONTINUOUS
 90
16
 70
0
 10
16.1436098202
 20
10.2530992166
 10
16.1280525421
 20
10.2450112676
 10
16.1111162709
 20
10.2379065603
 10
16.0929865639
 20
10.2318629352
 10
16.0738620538
 20
10.2269466077
 10
16.053952273
 20
10.223211442
 10
16.0334753569
 20
10.2206983614
 10
16.0126556552
 20
10.2194348998
 10
15.9917212727
 20
10.2194348998
 10
15.9709015709
 20
10.2206983614
 10
15.9504246549
 20
10.223211442
 10
15.930514874
 20
10.2269466077
 10
15.911390364
 20
10.2318629352
 10
15.8932606569
 20
10.2379065603
 10
15.8763243857
 20
10.2450112676
 10
15.8607671077
 20
10.2530992166
  0
LWPOLYLINE
  5
267
100
AcDbEntity
  8
IMPORT_IGES
100
AcDbPolyline
 62
250
  6
CONTINUOUS
 90
28
 70
0
 10
7.2712482659
 20
-30.7292159564
 10
7.2867133661
 20
-30.897718428
 10
7.3107375375
 20
-31.0595107728
 10
7.3433207801
 20
-31.2145929907
 10
7.3846117006
 20
-31.3634148662
 10
7.4344616922
 20
-31.5055266148
 10
7.4924249349
 20
-31.6395788831
 10
7.5584885486
 20
-31.7655267458
 10
7.6326654134
 20
-31.8834151283
 10
7.7145483496
 20
-31.9920294535
 10
7.8042690309
 20
-32.0914646225
 10
7.9016957835
 20
-32.1816257341
 10
8.0060264073
 20
-32.2610135085
 10
8.1173450245
 20
-32.3293667955
 10
8.2355675129
 20
-32.3869467452
 10
8.3596393048
 20
-32.4330375279
 10
8.4898031545
 20
-32.467372312
 10
8.6258163078
 20
-32.4902179292
 10
8.7658959342
 20
-32.5016590446
 10
8.9098248811
 20
-32.5016356747
 10
9.0578203012
 20
-32.4902078031
 10
9.2087508225
 20
-32.4676400453
 10
9.3627237179
 20
-32.4339306823
 10
9.5196317144
 20
-32.389081433
 10
9.6780216213
 20
-32.3333620704
 10
9.8374090418
 20
-32.2668625187
 10
9.9982783727
 20
-32.1894928537
 10
10.1606296141
 20
-32.1012530754
  0
LINE
  5
268
100
AcDbEntity
  8
IMPORT_IGES
100
AcDbLine
 62
250
  6
CONTINUOUS
 10
4.6898027499
 20
-9.8644235202
 11
6.0259015988
 21
-30.8623099878
  0
LINE
  5
269
100
AcDbEntity
  8
IMPORT_IGES
100
AcDbLine
 62
250
  6
CONTINUOUS
 10
5.9368784112
 20
-9.7585020472
 11
7.2712482659
 21
-30.7292159564
  0
LINE
  5
26A
100
AcDbEntity
  8
IMPORT_IGES
100
AcDbLine
 62
250
  6
CONTINUOUS
 10
4.6910187102
 20
-9.8648758174
 11
4.6910187102
 21
7.430014559
  0
LWPOLYLINE
  5
26B
100
AcDbEntity
  8
IMPORT_IGES
100
AcDbPolyline
 62
7
  6
CONTINUOUS
 90
38
 70
0
 10
-9.1144385161
 20
-12.6068772021
 10
-9.1848821641
 20
-12.6543856814
 10
-9.2515122728
 20
-12.7093057508
 10
-9.3134941199
 20
-12.7714579039
 10
-9.3699888112
 20
-12.8404498578
 10
-9.4203638639
 20
-12.9157795079
 10
-9.4642958261
 20
-12.9969312338
 10
-9.5016144772
 20
-13.0834807815
 10
-9.5321420972
 20
-13.1748097275
 10
-9.5559030307
 20
-13.2707559075
 10
-9.5729632149
 20
-13.3718496698
 10
-9.5831579381
 20
-13.4786838362
 10
-9.5861089483
 20
-13.5905331651
 10
-9.5816194545
 20
-13.7059260531
 10
-9.5695249052
 20
-13.8252837691
 10
-9.5496660679
 20
-13.9479286353
 10
-9.5226392317
 20
-14.0704047593
 10
-9.4892712466
 20
-14.1912049756
 10
-9.4498924328
 20
-14.3111166615
 10
-9.4049583058
 20
-14.4298343916
 10
-9.3549906081
 20
-14.5467345357
 10
-9.30028598
 20
-14.6616336871
 10
-9.2408446834
 20
-14.7747364137
 10
-9.1768793247
 20
-14.8856295581
 10
-9.1086061099
 20
-14.9938367862
 10
-9.0358670955
 20
-15.0993645266
 10
-8.958616054
 20
-15.2018744574
 10
-8.8770922921
 20
-15.300691005
 10
-8.7915997794
 20
-15.3954079769
 10
-8.7023781972
 20
-15.4857136855
 10
-8.6097471861
 20
-15.5711629011
 10
-8.5140874766
 20
-15.6512283319
 10
-8.4156625093
 20
-15.7254510153
 10
-8.3146688687
 20
-15.7933593287
 10
-8.2111515114
 20
-15.8544883753
 10
-8.1051086907
 20
-15.908265192
 10
-7.9967324307
 20
-15.9538940973
 10
-7.9542144093
 20
-15.9691763842
  0
LWPOLYLINE
  5
26C
100
AcDbEntity
  8
IMPORT_IGES
100
AcDbPolyline
 62
250
  6
CONTINUOUS
 90
48
 70
0
 10
-15.0574634121
 20
17.7176666034
 10
-14.8263065622
 20
17.5308149521
 10
-14.5939795224
 20
17.3447764815
 10
-14.3604302824
 20
17.1595747033
 10
-14.125598198
 20
16.9752363308
 10
-13.8894424232
 20
16.7918022627
 10
-13.6502812259
 20
16.608057264
 10
-13.4096547825
 20
16.425274457
 10
-13.1725032786
 20
16.2472076658
 10
-12.9423040634
 20
16.0763537331
 10
-12.7158500796
 20
15.9102109554
 10
-12.4880614516
 20
15.7450338693
 10
-12.2571342244
 20
15.579581237
 10
-12.0247681836
 20
15.4151369178
 10
-11.7909927756
 20
15.2517634375
 10
-11.5557477189
 20
15.0894700944
 10
-11.3189318846
 20
14.928246118
 10
-11.0804984243
 20
14.7681155511
 10
-10.8405090463
 20
14.609170261
 10
-10.598733739
 20
14.4513054966
 10
-10.3546799584
 20
14.2942523926
 10
-10.107896408
 20
14.1377817727
 10
-9.8589031617
 20
13.9822825881
 10
-9.608692876
 20
13.8284155921
 10
-9.3574041457
 20
13.67629402
 10
-9.1051927331
 20
13.5260391732
 10
-8.8531266188
 20
13.3782997164
 10
-8.6021269208
 20
13.2335948757
 10
-8.3516930941
 20
13.0915375571
 10
-8.1007583257
 20
12.9514108286
 10
-7.8519671738
 20
12.8145713887
 10
-7.6031678278
 20
12.6797211774
 10
-7.3459402433
 20
12.5423156854
 10
-7.0756389072
 20
12.4000473987
 10
-6.7971573191
 20
12.2556620423
 10
-6.5161885183
 20
12.1121496737
 10
-6.2344196238
 20
11.9703198642
 10
-5.9501325271
 20
11.8292539442
 10
-5.6639068677
 20
11.6891959514
 10
-5.3758503225
 20
11.5501455291
 10
-5.0858270919
 20
11.4119833282
 10
-4.7940876212
 20
11.2747831968
 10
-4.5033617644
 20
11.139763516
 10
-4.2110107937
 20
11.0056338989
 10
-3.9091990831
 20
10.8688213965
 10
-3.5927417524
 20
10.7270993173
 10
-3.2667943635
 20
10.5828923859
 10
-2.6120898567
 20
10.2982993379
  0
LINE
  5
26D
100
AcDbEntity
  8
IMPORT_IGES
100
AcDbLine
 62
250
  6
CONTINUOUS
 10
-15.5133196971
 20
18.0911381952
 11
-15.0574634121
 21
17.7176666034
  0
LINE
  5
26E
100
AcDbEntity
  8
IMPORT_IGES
100
AcDbLine
 62
250
  6
CONTINUOUS
 10
-15.9711817676
 20
18.47266303
 11
-15.5133196971
 21
18.0911381952
  0
LINE
  5
26F
100
AcDbEntity
  8
IMPORT_IGES
100
AcDbLine
 62
250
  6
CONTINUOUS
 10
-16.4729292618
 20
18.897699088
 11
-15.9711817676
 21
18.47266303
  0
LINE
  5
270
100
AcDbEntity
  8
IMPORT_IGES
100
AcDbLine
 62
250
  6
CONTINUOUS
 10
-16.9763048377
 20
19.3308395631
 11
-16.4729292618
 21
18.897699088
  0
LINE
  5
271
100
AcDbEntity
  8
IMPORT_IGES
100
AcDbLine
 62
250
  6
CONTINUOUS
 10
-17.4731453075
 20
19.7642888088
 11
-16.9763048377
 21
19.3308395631
  0
LINE
  5
272
100
AcDbEntity
  8
IMPORT_IGES
100
AcDbLine
 62
250
  6
CONTINUOUS
 10
-17.9668997428
 20
20.2002246469
 11
-17.4731453075
 21
19.7642888088
  0
LINE
  5
273
100
AcDbEntity
  8
IMPORT_IGES
100
AcDbLine
 62
250
  6
CONTINUOUS
 10
-18.458065353
 20
20.638351864
 11
-17.9668997428
 21
20.2002246469
  0
LINE
  5
274
100
AcDbEntity
  8
IMPORT_IGES
100
AcDbLine
 62
250
  6
CONTINUOUS
 10
-18.9472024451
 20
21.0784005178
 11
-18.458065353
 21
20.638351864
  0
LWPOLYLINE
  5
275
100
AcDbEntity
  8
IMPORT_IGES
100
AcDbPolyline
 62
250
  6
CONTINUOUS
 90
10
 70
0
 10
18.9844516544
 20
-20.8926071056
 10
18.9959556246
 20
-20.9100058875
 10
19.0064228159
 20
-20.9281355945
 10
19.0157385474
 20
-20.9467975939
 10
19.0238007539
 20
-20.9657874207
 10
19.0305211044
 20
-20.9848970186
 10
19.0358259692
 20
-21.0039170188
 10
19.0396572271
 20
-21.0226390341
 10
19.041972902
 20
-21.0408579423
 10
19.042747623
 20
-21.0583741332
  0
LINE
  5
276
100
AcDbEntity
  8
IMPORT_IGES
100
AcDbLine
 62
250
  6
CONTINUOUS
 10
5.9368784112
 20
-9.7585020472
 11
5.9368784112
 21
7.5081680179
  0
LINE
  5
277
100
AcDbEntity
  8
IMPORT_IGES
100
AcDbLine
 62
7
  6
CONTINUOUS
 10
-9.1776387251
 20
-12.5869959502
 11
-9.1319429846
 21
-12.5574307834
  0
LINE
  5
278
100
AcDbEntity
  8
IMPORT_IGES
100
AcDbLine
 62
7
  6
CONTINUOUS
 10
-9.0959864468
 20
-12.5959672998
 11
-9.1144385161
 21
-12.6068772021
  0
LINE
  5
279
100
AcDbEntity
  8
IMPORT_IGES
100
AcDbLine
 62
7
  6
CONTINUOUS
 10
-9.0966345729
 20
-12.5947910927
 11
-8.9054403125
 21
-12.4843869361
  0
LINE
  5
27A
100
AcDbEntity
  8
IMPORT_IGES
100
AcDbLine
 62
7
  6
CONTINUOUS
 10
-9.1319429846
 20
-12.5574307834
 11
-9.1173334079
 21
-12.549297053
  0
LINE
  5
27B
100
AcDbEntity
  8
IMPORT_IGES
100
AcDbLine
 62
250
  6
CONTINUOUS
 10
-9.0710741435
 20
-12.5807083225
 11
-9.0938031436
 21
-12.5931452741
  0
LINE
  5
27C
100
AcDbEntity
  8
IMPORT_IGES
100
AcDbLine
 62
7
  6
CONTINUOUS
 10
-9.1173334079
 20
-12.549297053
 11
-9.0520961717
 21
-12.5196154773
  0
LINE
  5
27D
100
AcDbEntity
  8
IMPORT_IGES
100
AcDbLine
 62
250
  6
CONTINUOUS
 10
-9.0037479127
 20
-12.551156552
 11
-9.0710741435
 21
-12.5807083225
  0
LWPOLYLINE
  5
27E
100
AcDbEntity
  8
IMPORT_IGES
100
AcDbPolyline
 62
250
  6
CONTINUOUS
 90
22
 70
0
 10
8.8337393224
 20
12.446660309
 10
8.8317451346
 20
12.5090875976
 10
8.8258408131
 20
12.5729148346
 10
8.8161584931
 20
12.6377435844
 10
8.8028993376
 20
12.7029635297
 10
8.7862026324
 20
12.7684158732
 10
8.7660244724
 20
12.8344165555
 10
8.7423985622
 20
12.9007710039
 10
8.7154774454
 20
12.9669783424
 10
8.6852840941
 20
13.0329046653
 10
8.6519457191
 20
13.0981682808
 10
8.6155927065
 20
13.1624189525
 10
8.5762175153
 20
13.2255397304
 10
8.5338311738
 20
13.2873240686
 10
8.4887339214
 20
13.3471550268
 10
8.4413923766
 20
13.4043147614
 10
8.3921403195
 20
13.4583620359
 10
8.3411780729
 20
13.5090401194
 10
8.2888356969
 20
13.5559796155
 10
8.2354292441
 20
13.5988651101
 10
8.1812551943
 20
13.6374270501
 10
8.1266325412
 20
13.6714051791
  0
LWPOLYLINE
  5
27F
100
AcDbEntity
  8
IMPORT_IGES
100
AcDbPolyline
 62
250
  6
CONTINUOUS
 90
34
 70
0
 10
-6.9997038083
 20
-15.8851573845
 10
-6.9403322597
 20
-15.8383983869
 10
-6.8864202283
 20
-15.7839774706
 10
-6.8380976752
 20
-15.7219567713
 10
-6.7955976967
 20
-15.6524426884
 10
-6.7592977558
 20
-15.5758239882
 10
-6.7295104328
 20
-15.492631776
 10
-6.7064324338
 20
-15.4033348854
 10
-6.6901902623
 20
-15.3083229574
 10
-6.6808864578
 20
-15.2081177045
 10
-6.6786126455
 20
-15.1032881228
 10
-6.6833820313
 20
-14.9943101246
 10
-6.6951335395
 20
-14.8816023674
 10
-6.71388112
 20
-14.7656725024
 10
-6.7395579587
 20
-14.647160647
 10
-6.7719283446
 20
-14.5267090908
 10
-6.8108791042
 20
-14.4048707113
 10
-6.8562300981
 20
-14.2823340604
 10
-6.9075310424
 20
-14.1599639632
 10
-6.9644827523
 20
-14.0384363985
 10
-7.0268082624
 20
-13.9183077794
 10
-7.0939862327
 20
-13.800243589
 10
-7.1655096615
 20
-13.6850236008
 10
-7.2411305983
 20
-13.5729688961
 10
-7.3207310395
 20
-13.4640583687
 10
-7.4041085027
 20
-13.3586453067
 10
-7.4907514407
 20
-13.2574644398
 10
-7.5800974917
 20
-13.1610706483
 10
-7.6716728582
 20
-13.0699894189
 10
-7.7650990673
 20
-12.9846052726
 10
-7.8599333653
 20
-12.9052229724
 10
-7.9557290314
 20
-12.8322093307
 10
-8.0520317842
 20
-12.7659740484
 10
-8.1483799662
 20
-12.7068550592
  0
LINE
  5
280
100
AcDbEntity
  8
IMPORT_IGES
100
AcDbLine
 62
250
  6
CONTINUOUS
 10
-7.0359608304
 20
-15.9083452357
 11
-6.9997038083
 21
-15.8851573845
  0
LINE
  5
281
100
AcDbEntity
  8
IMPORT_IGES
100
AcDbLine
 62
7
  6
CONTINUOUS
 10
-7.0409792853
 20
-15.9112751435
 11
-6.8064620983
 21
-15.7758678589
  0
LINE
  5
282
100
AcDbEntity
  8
IMPORT_IGES
100
AcDbLine
 62
7
  6
CONTINUOUS
 10
-6.9901474378
 20
-15.9396614287
 11
-7.0050882553
 21
-15.9480131079
  0
LINE
  5
283
100
AcDbEntity
  8
IMPORT_IGES
100
AcDbLine
 62
7
  6
CONTINUOUS
 10
-7.065949246
 20
-15.9233291552
 11
-7.0366896581
 21
-15.9070832017
  0
LWPOLYLINE
  5
284
100
AcDbEntity
  8
IMPORT_IGES
100
AcDbPolyline
 62
7
  6
CONTINUOUS
 90
11
 70
0
 10
-9.0520961717
 20
-12.5196154773
 10
-8.9816598083
 20
-12.4979116414
 10
-8.9061375733
 20
-12.4844301169
 10
-8.8260443277
 20
-12.4794700123
 10
-8.7418309149
 20
-12.4830972402
 10
-8.653878699
 20
-12.4953685827
 10
-8.5626561824
 20
-12.5163119903
 10
-8.4688303829
 20
-12.5457076912
 10
-8.3729581991
 20
-12.5833148463
 10
-8.2754580436
 20
-12.6289791215
 10
-8.1768187067
 20
-12.6824517177
  0
LWPOLYLINE
  5
285
100
AcDbEntity
  8
IMPORT_IGES
100
AcDbPolyline
 62
250
  6
CONTINUOUS
 90
19
 70
0
 10
4.6910187102
 20
7.430014559
 10
4.7563093013
 20
7.4078716073
 10
4.8237424092
 20
7.3887912462
 10
4.8928757805
 20
7.3728081071
 10
4.9629752567
 20
7.3599837526
 10
5.0339034886
 20
7.3502389998
 10
5.1061747697
 20
7.3434822552
 10
5.1796714734
 20
7.3397802282
 10
5.2537449991
 20
7.3392210868
 10
5.3281408803
 20
7.3418554827
 10
5.4025592923
 20
7.3477395728
 10
5.4764448942
 20
7.3568971644
 10
5.5491524147
 20
7.3692949678
 10
5.6201605818
 20
7.384870826
 10
5.6891323848
 20
7.4035783125
 10
5.7557058821
 20
7.4253600045
 10
5.8194752049
 20
7.4501330776
 10
5.8800013385
 20
7.4777796027
 10
5.9368784112
 20
7.5081680179
  0
LINE
  5
286
100
AcDbEntity
  8
IMPORT_IGES
100
AcDbLine
 62
250
  6
CONTINUOUS
 10
3.5186866115
 20
7.8649387778
 11
4.6909139923
 21
7.4299199473
  0
LINE
  5
287
100
AcDbEntity
  8
IMPORT_IGES
100
AcDbLine
 62
250
  6
CONTINUOUS
 10
2.3548072215
 20
8.3032550979
 11
3.5186866115
 21
7.8649387778
  0
LINE
  5
288
100
AcDbEntity
  8
IMPORT_IGES
100
AcDbLine
 62
250
  6
CONTINUOUS
 10
1.5846127409
 20
8.5978943942
 11
2.3548072215
 21
8.3032550979
  0
LINE
  5
289
100
AcDbEntity
  8
IMPORT_IGES
100
AcDbLine
 62
250
  6
CONTINUOUS
 10
0.8155738188
 20
8.8964881624
 11
1.5846127409
 21
8.5978943942
  0
LINE
  5
28A
100
AcDbEntity
  8
IMPORT_IGES
100
AcDbLine
 62
250
  6
CONTINUOUS
 10
0.060791424
 20
9.1944493912
 11
0.8155738188
 21
8.8964881624
  0
LINE
  5
28B
100
AcDbEntity
  8
IMPORT_IGES
100
AcDbLine
 62
250
  6
CONTINUOUS
 10
-0.6205713329
 20
9.4681246562
 11
0.060791424
 21
9.1944493912
  0
LINE
  5
28C
100
AcDbEntity
  8
IMPORT_IGES
100
AcDbLine
 62
250
  6
CONTINUOUS
 10
-1.2877381119
 20
9.7408896755
 11
-0.6205713329
 21
9.4681246562
  0
LINE
  5
28D
100
AcDbEntity
  8
IMPORT_IGES
100
AcDbLine
 62
250
  6
CONTINUOUS
 10
-1.9531518362
 20
10.0181214391
 11
-1.2877381119
 21
9.7408896755
  0
LINE
  5
28E
100
AcDbEntity
  8
IMPORT_IGES
100
AcDbLine
 62
250
  6
CONTINUOUS
 10
-2.6120898567
 20
10.2982993379
 11
-1.9531518362
 21
10.0181214391
  0
LWPOLYLINE
  5
28F
100
AcDbEntity
  8
IMPORT_IGES
100
AcDbPolyline
 62
250
  6
CONTINUOUS
 90
43
 70
0
 10
-15.2078555572
 20
27.1444383676
 10
-14.7808584938
 20
26.7566542811
 10
-14.3513158856
 20
26.3699659764
 10
-13.9192277326
 20
25.9843734534
 10
-13.4850747317
 20
25.599658133
 10
-13.048376186
 20
25.2160385944
 10
-12.6076900047
 20
24.8341705747
 10
-12.1630302832
 20
24.4540657976
 10
-11.7143829261
 20
24.0757125395
 10
-11.2602635565
 20
23.6997313665
 10
-10.8007657022
 20
23.3261279705
 10
-10.3357958354
 20
22.9548966596
 10
-9.863588996
 20
22.5866409248
 10
-9.3841646441
 20
22.2212347953
 10
-8.8975033195
 20
21.8588042419
 10
-8.4017816811
 20
21.5003306676
 10
-7.896872961
 20
21.1457265869
 10
-7.3829039271
 20
20.7950794854
 10
-6.8584315412
 20
20.4496332225
 10
-6.3232519667
 20
20.109430498
 10
-5.7775690403
 20
19.7744286122
 10
-5.2205512336
 20
19.4457433252
 10
-4.6510216012
 20
19.1237685243
 10
-4.0701570886
 20
18.8081103223
 10
-3.4806570039
 20
18.4987028174
 10
-2.8829291177
 20
18.1959056135
 10
-2.2765656594
 20
17.8993591066
 10
-1.6630426256
 20
17.6079185837
 10
-1.042268143
 20
17.3215441809
 10
-0.4143340849
 20
17.040275762
 10
0.2190079318
 20
16.7630882051
 10
0.8575721101
 20
16.4899418681
 10
1.5015442471
 20
16.2208763929
 10
2.1497301169
 20
15.9549855837
 10
2.8021220908
 20
15.6922704721
 10
3.4587277977
 20
15.4327300264
 10
4.1183758984
 20
15.1754549553
 10
4.7810900045
 20
14.9203700744
 10
5.4468465044
 20
14.6675505682
 10
6.1144032254
 20
14.4163126993
 10
6.7833461097
 20
14.1664285553
 10
7.4540892149
 20
13.9181260486
 10
8.1266325412
 20
13.6714051791
  0
LWPOLYLINE
  5
290
100
AcDbEntity
  8
IMPORT_IGES
100
AcDbPolyline
 62
250
  6
CONTINUOUS
 90
5
 70
0
 10
19.0880423521
 20
12.0489435631
 10
19.0945114321
 20
12.060439221
 10
19.0988639349
 20
12.0722623357
 10
19.1010521737
 20
12.0842833706
 10
19.1013262668
 20
12.0903269956
  0
LWPOLYLINE
  5
291
100
AcDbEntity
  8
IMPORT_IGES
100
AcDbPolyline
 62
7
  6
CONTINUOUS
 90
19
 70
0
 10
5.9368784112
 20
-9.7585020472
 10
5.8818385886
 20
-9.7901279611
 10
5.8230691238
 20
-9.8193291921
 10
5.7608912436
 20
-9.8459219497
 10
5.6956042194
 20
-9.8697413634
 10
5.6276088896
 20
-9.8906243846
 10
5.5574212862
 20
-9.9084301697
 10
5.4855244718
 20
-9.9230441448
 10
5.4122534179
 20
-9.934402006
 10
5.3379231668
 20
-9.9424701577
 10
5.262898086
 20
-9.947190841
 10
5.1876542617
 20
-9.948518108
 10
5.1126758815
 20
-9.9464592279
 10
5.0384886242
 20
-9.9410300949
 10
4.9654050928
 20
-9.9322595637
 10
4.8935960023
 20
-9.9201766271
 10
4.8234060817
 20
-9.9048034366
 10
4.7553370128
 20
-9.8861946473
 10
4.6898027499
 20
-9.8644235202
  0
LINE
  5
292
100
AcDbEntity
  8
IMPORT_IGES
100
AcDbLine
 62
7
  6
CONTINUOUS
 10
-7.0050882553
 20
-15.9480131079
 11
-7.0744483878
 21
-15.9801975483
  0
LWPOLYLINE
  5
293
100
AcDbEntity
  8
IMPORT_IGES
100
AcDbPolyline
 62
7
  6
CONTINUOUS
 90
5
 70
0
 10
-7.0744483878
 20
-15.9801975483
 10
-7.1488255622
 20
-16.0043365667
 10
-7.2281188381
 20
-16.020197316
 10
-7.3118248679
 20
-16.0274848556
 10
-7.3819299191
 20
-16.0262880666
  0
LWPOLYLINE
  5
294
100
AcDbEntity
  8
IMPORT_IGES
100
AcDbPolyline
 62
250
  6
CONTINUOUS
 90
9
 70
0
 10
15.8607671077
 20
-22.8139469935
 10
15.8615418287
 20
-22.830568556
 10
15.8638575036
 20
-22.8461133808
 10
15.8676887615
 20
-22.8604111555
 10
15.8729936263
 20
-22.8733052308
 10
15.8797139768
 20
-22.8846543364
 10
15.8877761834
 20
-22.8943341292
 10
15.8970919148
 20
-22.9022385554
 10
15.9021836319
 20
-22.9054943657
  0
LWPOLYLINE
  5
295
100
AcDbEntity
  8
IMPORT_IGES
100
AcDbPolyline
 62
250
  6
CONTINUOUS
 90
16
 70
0
 10
16.1436098202
 20
-22.7322999658
 10
16.1428350992
 20
-22.714783775
 10
16.1405194242
 20
-22.6965648668
 10
16.1366881663
 20
-22.6778428515
 10
16.1313833015
 20
-22.6588228513
 10
16.1246629511
 20
-22.6397132534
 10
16.1166007445
 20
-22.6207234265
 10
16.107285013
 20
-22.6020614272
 10
16.0968178218
 20
-22.5839317201
 10
16.0853138515
 20
-22.5665329383
 10
16.072899142
 20
-22.5500557063
 10
16.0597097116
 20
-22.5346805521
 10
16.0458900664
 20
-22.5205759293
 10
16.0315916172
 20
-22.5078963709
 10
16.016971021
 20
-22.4967807969
 10
16.0021884639
 20
-22.4873509918
  0
LINE
  5
296
100
AcDbEntity
  8
IMPORT_IGES
100
AcDbLine
 62
7
  6
CONTINUOUS
 10
14.3051534023
 20
21.811535548
 11
14.3051534023
 21
21.6482414926
  0
LINE
  5
297
100
AcDbEntity
  8
IMPORT_IGES
100
AcDbLine
 62
7
  6
CONTINUOUS
 10
14.7647728101
 20
21.3827683151
 11
14.7647728101
 21
21.3011133964
  0
LINE
  5
298
100
AcDbEntity
  8
IMPORT_IGES
100
AcDbLine
 62
7
  6
CONTINUOUS
 10
15.436503039
 20
-29.0550298822
 11
15.436503039
 21
16.2590133269
  0
LWPOLYLINE
  5
299
100
AcDbEntity
  8
IMPORT_IGES
100
AcDbPolyline
 62
7
  6
CONTINUOUS
 90
16
 70
0
 10
15.7900564296
 20
10.3755737036
 10
15.7909213314
 20
10.393523848
 10
15.7932438754
 20
10.411738696
 10
15.7970240615
 20
10.4302182477
 10
15.8023365669
 20
10.4491621529
 10
15.8091067144
 20
10.4683707617
 10
15.8171104722
 20
10.4872451251
 10
15.8263823745
 20
10.5057746701
 10
15.8368878871
 20
10.5239699697
 10
15.8482993758
 20
10.5412637933
 10
15.8606432128
 20
10.5576314565
 10
15.8738930259
 20
10.5730976436
 10
15.8876420648
 20
10.5871691771
 10
15.9017547461
 20
10.5996816643
 10
15.916366653
 20
10.6107994978
 10
15.9314777858
 20
10.6205226776
  0
LWPOLYLINE
  5
29A
100
AcDbEntity
  8
IMPORT_IGES
100
AcDbPolyline
 62
250
  6
CONTINUOUS
 90
8
 70
0
 10
15.8607671077
 20
10.2530992166
 10
15.8615418287
 20
10.2364776541
 10
15.8638575036
 20
10.2209328293
 10
15.8676887615
 20
10.2066350546
 10
15.8729936263
 20
10.1937409793
 10
15.8797139768
 20
10.1823918737
 10
15.8877761834
 20
10.1727120809
 10
15.8970919148
 20
10.1648076547
  0
LWPOLYLINE
  5
29B
100
AcDbEntity
  8
IMPORT_IGES
100
AcDbPolyline
 62
250
  6
CONTINUOUS
 90
16
 70
0
 10
16.1436098202
 20
10.3347462443
 10
16.1428350992
 20
10.3522624351
 10
16.1405194242
 20
10.3704813433
 10
16.1366881663
 20
10.3892033587
 10
16.1313833015
 20
10.4082233588
 10
16.1246629511
 20
10.4273329567
 10
16.1166007445
 20
10.4463227836
 10
16.107285013
 20
10.4649847829
 10
16.0968178218
 20
10.48311449
 10
16.0853138515
 20
10.5005132718
 10
16.072899142
 20
10.5169905038
 10
16.0597097116
 20
10.532365658
 10
16.0458900664
 20
10.5464702808
 10
16.0315916172
 20
10.5591498392
 10
16.016971021
 20
10.5702654132
 10
16.0021884639
 20
10.5796952183
  0
LWPOLYLINE
  5
29C
100
AcDbEntity
  8
IMPORT_IGES
100
AcDbPolyline
 62
7
  6
CONTINUOUS
 90
22
 70
0
 10
15.7900564296
 20
16.4631506236
 10
15.7879286495
 20
16.5263496899
 10
15.7819609095
 20
16.5906486785
 10
15.7721532095
 20
16.6560475893
 10
15.7583972635
 20
16.7229116494
 10
15.7408013576
 20
16.7908756318
 10
15.7196903502
 20
16.858843855
 10
15.6950166117
 20
16.9268105625
 10
15.6668277718
 20
16.9947815108
 10
15.6355915779
 20
17.0616782881
 10
15.6012661991
 20
17.1274839311
 10
15.5638934663
 20
17.192215403
 10
15.5240666198
 20
17.2548451815
 10
15.4817500512
 20
17.3153455258
 10
15.436979369
 20
17.3737441767
 10
15.390454639
 20
17.429096834
 10
15.3421470585
 20
17.4813651318
 10
15.2920854303
 20
17.530587436
 10
15.2410562277
 20
17.5759345445
 10
15.1893216089
 20
17.6171300566
 10
15.1366194157
 20
17.654450373
 10
15.0829496484
 20
17.6878954937
  0
LINE
  5
29D
100
AcDbEntity
  8
IMPORT_IGES
100
AcDbLine
 62
7
  6
CONTINUOUS
 10
15.7900564296
 20
16.4631506236
 11
15.7900564296
 21
10.3755737036
  0
LINE
  5
29E
100
AcDbEntity
  8
IMPORT_IGES
100
AcDbLine
 62
7
  6
CONTINUOUS
 10
15.7900564296
 20
10.2939266759
 11
15.7900564296
 21
-22.6914725065
  0
LINE
  5
29F
100
AcDbEntity
  8
IMPORT_IGES
100
AcDbLine
 62
7
  6
CONTINUOUS
 10
15.7900564296
 20
-22.7731195342
 11
15.7900564296
 21
-28.8508925855
  0
LINE
  5
2A0
100
AcDbEntity
  8
IMPORT_IGES
100
AcDbLine
 62
250
  6
CONTINUOUS
 10
15.8607671077
 20
10.3347462443
 11
15.8607671077
 21
10.2530992166
  0
LINE
  5
2A1
100
AcDbEntity
  8
IMPORT_IGES
100
AcDbLine
 62
250
  6
CONTINUOUS
 10
15.8607671077
 20
-22.7322999658
 11
15.8607671077
 21
-22.8139469935
  0
LINE
  5
2A2
100
AcDbEntity
  8
IMPORT_IGES
100
AcDbLine
 62
250
  6
CONTINUOUS
 10
16.1436098202
 20
-22.8139469935
 11
16.1436098202
 21
-22.7322999658
  0
LINE
  5
2A3
100
AcDbEntity
  8
IMPORT_IGES
100
AcDbLine
 62
250
  6
CONTINUOUS
 10
16.1436098202
 20
10.2530992166
 11
16.1436098202
 21
10.3347462443
  0
LWPOLYLINE
  5
2A4
100
AcDbEntity
  8
IMPORT_IGES
100
AcDbPolyline
 62
7
  6
CONTINUOUS
 90
12
 70
0
 10
15.436503039
 20
-29.0550298822
 10
15.4343752589
 20
-29.1157718414
 10
15.4284075189
 20
-29.1731794333
 10
15.4185998189
 20
-29.2272526581
 10
15.4048438729
 20
-29.2782316966
 10
15.387247967
 20
-29.3258763679
 10
15.3661369596
 20
-29.3694661289
 10
15.3414632211
 20
-29.4089402217
 10
15.3132743812
 20
-29.4443594042
 10
15.2820381873
 20
-29.4751854077
 10
15.2477128085
 20
-29.5013529636
 10
15.2294203172
 20
-29.5127668015
  0
LWPOLYLINE
  5
2A5
100
AcDbEntity
  8
IMPORT_IGES
100
AcDbPolyline
 62
7
  6
CONTINUOUS
 90
16
 70
0
 10
15.7900564296
 20
-22.6914725065
 10
15.7909213314
 20
-22.6735223622
 10
15.7932438754
 20
-22.6553075141
 10
15.7970240615
 20
-22.6368279624
 10
15.8023365669
 20
-22.6178840572
 10
15.8091067144
 20
-22.5986754484
 10
15.8171104722
 20
-22.579801085
 10
15.8263823745
 20
-22.56127154
 10
15.8368878871
 20
-22.5430762404
 10
15.8482993758
 20
-22.5257824169
 10
15.8606432128
 20
-22.5094147536
 10
15.8738930259
 20
-22.4939485665
 10
15.8876420648
 20
-22.479877033
 10
15.9017547461
 20
-22.4673645458
 10
15.916366653
 20
-22.4562467123
 10
15.9314777858
 20
-22.4465235325
  0
LWPOLYLINE
  5
2A6
100
AcDbEntity
  8
IMPORT_IGES
100
AcDbPolyline
 62
250
  6
CONTINUOUS
 90
16
 70
0
 10
15.8607671077
 20
10.3347462443
 10
15.8763243857
 20
10.3266582953
 10
15.8932606569
 20
10.319553588
 10
15.911390364
 20
10.3135099629
 10
15.930514874
 20
10.3085936354
 10
15.9504246549
 20
10.3048584697
 10
15.9709015709
 20
10.3023453891
 10
15.9917212727
 20
10.3010819274
 10
16.0126556552
 20
10.3010819274
 10
16.0334753569
 20
10.3023453891
 10
16.053952273
 20
10.3048584697
 10
16.0738620538
 20
10.3085936354
 10
16.0929865639
 20
10.3135099629
 10
16.1111162709
 20
10.319553588
 10
16.1280525421
 20
10.3266582953
 10
16.1436098202
 20
10.3347462443
  0
LWPOLYLINE
  5
2A7
100
AcDbEntity
  8
IMPORT_IGES
100
AcDbPolyline
 62
250
  6
CONTINUOUS
 90
12
 70
0
 10
-15.2078555572
 20
27.1444383676
 10
-15.2609237266
 20
27.172776648
 10
-15.31324907
 20
27.1961711419
 10
-15.3645525951
 20
27.2146133344
 10
-15.4144063258
 20
27.228088393
 10
-15.4627423846
 20
27.2367179541
 10
-15.5098124386
 20
27.2405966319
 10
-15.5554648311
 20
27.2396757788
 10
-15.5993420561
 20
27.2339251119
 10
-15.6413396312
 20
27.2233108296
 10
-15.6811906025
 20
27.2078256816
 10
-15.7077967311
 20
27.1940274446
  0
LINE
  5
2A8
100
AcDbEntity
  8
IMPORT_IGES
100
AcDbLine
 62
7
  6
CONTINUOUS
 10
15.9021836319
 20
10.1615518444
 11
15.8314729538
 21
10.2023793037
  0
LINE
  5
2A9
100
AcDbEntity
  8
IMPORT_IGES
100
AcDbLine
 62
250
  6
CONTINUOUS
 10
15.8607671077
 20
10.2530992166
 11
15.7900564296
 21
10.2939266759
  0
LINE
  5
2AA
100
AcDbEntity
  8
IMPORT_IGES
100
AcDbLine
 62
250
  6
CONTINUOUS
 10
15.7900564296
 20
10.3755737036
 11
15.8607671077
 21
10.3347462443
  0
LINE
  5
2AB
100
AcDbEntity
  8
IMPORT_IGES
100
AcDbLine
 62
250
  6
CONTINUOUS
 10
16.0021884639
 20
10.5796952183
 11
15.9314777858
 21
10.6205226776
  0
LINE
  5
2AC
100
AcDbEntity
  8
IMPORT_IGES
100
AcDbLine
 62
250
  6
CONTINUOUS
 10
15.8970919148
 20
10.1648076547
 11
15.9021836319
 21
10.1615518444
  0
LWPOLYLINE
  5
2AD
100
AcDbEntity
  8
IMPORT_IGES
100
AcDbPolyline
 62
7
  6
CONTINUOUS
 90
9
 70
0
 10
15.8314729555
 20
10.2023793027
 10
15.826376701
 20
10.2056780572
 10
15.8171056238
 20
10.2135014811
 10
15.80910287
 20
10.2231337673
 10
15.8023338743
 20
10.2345245076
 10
15.7970223601
 20
10.247333217
 10
15.7932429018
 20
10.2614464008
 10
15.790920925
 20
10.2769775537
 10
15.7900564296
 20
10.2939266759
  0
LINE
  5
2AE
100
AcDbEntity
  8
IMPORT_IGES
100
AcDbLine
 62
7
  6
CONTINUOUS
 10
18.9720369449
 20
11.8185635997
 11
18.9720369449
 21
-20.7866028463
  0
LINE
  5
2AF
100
AcDbEntity
  8
IMPORT_IGES
100
AcDbLine
 62
7
  6
CONTINUOUS
 10
18.9720369449
 20
-21.2484826104
 11
18.9720369449
 21
-27.0136569155
  0
LINE
  5
2B0
100
AcDbEntity
  8
IMPORT_IGES
100
AcDbLine
 62
7
  6
CONTINUOUS
 10
18.9720369449
 20
12.2804433638
 11
18.9720369449
 21
19.1169354802
  0
LINE
  5
2B1
100
AcDbEntity
  8
IMPORT_IGES
100
AcDbLine
 62
250
  6
CONTINUOUS
 10
19.042747623
 20
12.0086720769
 11
19.042747623
 21
11.9270250492
  0
LINE
  5
2B2
100
AcDbEntity
  8
IMPORT_IGES
100
AcDbLine
 62
250
  6
CONTINUOUS
 10
19.042747623
 20
-21.0583741332
 11
19.042747623
 21
-21.1400211609
  0
LINE
  5
2B3
100
AcDbEntity
  8
IMPORT_IGES
100
AcDbLine
 62
7
  6
CONTINUOUS
 10
19.1013262668
 20
12.0903269956
 11
19.1013262668
 21
12.0086799679
  0
LINE
  5
2B4
100
AcDbEntity
  8
IMPORT_IGES
100
AcDbLine
 62
7
  6
CONTINUOUS
 10
19.1013262668
 20
-20.9767192145
 11
19.1013262668
 21
-21.0583662422
  0
LWPOLYLINE
  5
2B5
100
AcDbEntity
  8
IMPORT_IGES
100
AcDbPolyline
 62
7
  6
CONTINUOUS
 90
12
 70
0
 10
18.9720369449
 20
-27.0136569155
 10
18.9700597309
 20
-27.0735301971
 10
18.9641391464
 20
-27.130785406
 10
18.9543083016
 20
-27.1851023476
 10
18.9406221746
 20
-27.2361772597
 10
18.9231573038
 20
-27.2837245106
 10
18.9020113599
 20
-27.3274781969
 10
18.8773025994
 20
-27.3671936301
 10
18.8491692039
 20
-27.4026487055
 10
18.8177685067
 20
-27.4336451438
 10
18.7832761133
 20
-27.4600096005
 10
18.7649543239
 20
-27.4713937767
  0
LWPOLYLINE
  5
2B6
100
AcDbEntity
  8
IMPORT_IGES
100
AcDbPolyline
 62
250
  6
CONTINUOUS
 90
9
 70
0
 10
19.1013262668
 20
12.0086799679
 10
19.1010521737
 20
12.0026363429
 10
19.0988639349
 20
11.990615308
 10
19.0945114321
 20
11.9787921933
 10
19.0880423521
 20
11.9672965354
 10
19.0795275716
 20
11.956254283
 10
19.0690603804
 20
11.9457864173
 10
19.0567554591
 20
11.9360076266
 10
19.042747623
 20
11.9270250492
  0
LINE
  5
2B7
100
AcDbEntity
  8
IMPORT_IGES
100
AcDbLine
 62
250
  6
CONTINUOUS
 10
19.1013262668
 20
-21.0583662422
 11
19.1010521737
 21
-21.0644098672
  0
LWPOLYLINE
  5
2B8
100
AcDbEntity
  8
IMPORT_IGES
100
AcDbPolyline
 62
250
  6
CONTINUOUS
 90
9
 70
0
 10
19.042747623
 20
11.9270250492
 10
19.041972902
 20
11.9104034868
 10
19.0396572271
 20
11.894858662
 10
19.0358259692
 20
11.8805608872
 10
19.0305211044
 20
11.867666812
 10
19.0238007539
 20
11.8563177063
 10
19.0157385474
 20
11.8466379135
 10
19.0064228159
 20
11.8387334874
 10
19.0013310988
 20
11.835477677
  0
LWPOLYLINE
  5
2B9
100
AcDbEntity
  8
IMPORT_IGES
100
AcDbPolyline
 62
250
  6
CONTINUOUS
 90
9
 70
0
 10
19.042747623
 20
-21.1400211609
 10
19.041972902
 20
-21.1566427233
 10
19.0396572271
 20
-21.1721875481
 10
19.0358259692
 20
-21.1864853229
 10
19.0305211044
 20
-21.1993793981
 10
19.0238007539
 20
-21.2107285038
 10
19.0157385474
 20
-21.2204082966
 10
19.0064228159
 20
-21.2283127228
 10
19.0013310988
 20
-21.2315685331
  0
LWPOLYLINE
  5
2BA
100
AcDbEntity
  8
IMPORT_IGES
100
AcDbPolyline
 62
250
  6
CONTINUOUS
 90
7
 70
0
 10
19.0013310988
 20
12.2635292865
 10
18.9959556246
 20
12.2663159331
 10
18.9844516544
 20
12.2704302184
 10
18.9720369449
 20
12.2725712552
 10
18.9588475145
 20
12.2727155856
 10
18.9450278692
 20
12.2708616286
 10
18.9307294201
 20
12.2670296963
  0
LINE
  5
2BB
100
AcDbEntity
  8
IMPORT_IGES
100
AcDbLine
 62
250
  6
CONTINUOUS
 10
18.8306155887
 20
12.2944485103
 11
18.9013262668
 21
12.253621051
  0
LINE
  5
2BC
100
AcDbEntity
  8
IMPORT_IGES
100
AcDbLine
 62
7
  6
CONTINUOUS
 10
18.9306204207
 20
12.3043567458
 11
19.0013310988
 21
12.2635292865
  0
LWPOLYLINE
  5
2BD
100
AcDbEntity
  8
IMPORT_IGES
100
AcDbPolyline
 62
250
  6
CONTINUOUS
 90
7
 70
0
 10
18.9013262668
 20
12.253621051
 10
18.9161088238
 20
12.2441912459
 10
18.9307294201
 20
12.2330756719
 10
18.9450278692
 20
12.2203961135
 10
18.9588475145
 20
12.2062914906
 10
18.9720369449
 20
12.1909163365
 10
18.9844516544
 20
12.1744391045
  0
LWPOLYLINE
  5
2BE
100
AcDbEntity
  8
IMPORT_IGES
100
AcDbPolyline
 62
250
  6
CONTINUOUS
 90
8
 70
0
 10
19.1010521737
 20
-21.0644098672
 10
19.0988639349
 20
-21.0764309021
 10
19.0945114321
 20
-21.0882540168
 10
19.0880423521
 20
-21.0997496747
 10
19.0795275716
 20
-21.1107919271
 10
19.0690603804
 20
-21.1212597928
 10
19.0567554591
 20
-21.1310385835
 10
19.042747623
 20
-21.1400211609
  0
LINE
  5
2BF
100
AcDbEntity
  8
IMPORT_IGES
100
AcDbLine
 62
7
  6
CONTINUOUS
 10
14.7293962578
 20
17.4837581971
 11
-8.605085095
 21
30.9567952804
  0
LINE
  5
2C0
100
AcDbEntity
  8
IMPORT_IGES
100
AcDbLine
 62
7
  6
CONTINUOUS
 10
15.0829496484
 20
17.6878954937
 11
-8.2515317044
 21
31.1609325771
  0
LWPOLYLINE
  5
2C1
100
AcDbEntity
  8
IMPORT_IGES
100
AcDbPolyline
 62
7
  6
CONTINUOUS
 90
22
 70
0
 10
14.7293962578
 20
17.4837581971
 10
14.7830660252
 20
17.4503130764
 10
14.8357682183
 20
17.41299276
 10
14.8875028372
 20
17.3717972478
 10
14.9385320397
 20
17.3264501393
 10
14.9885936679
 20
17.2772278351
 10
15.0369012484
 20
17.2249595373
 10
15.0834259784
 20
17.16960688
 10
15.1281966607
 20
17.1112082292
 10
15.1705132292
 20
17.0507078849
 10
15.2103400757
 20
16.9880781064
 10
15.2477128085
 20
16.9233466344
 10
15.2820381873
 20
16.8575409914
 10
15.3132743812
 20
16.7906442142
 10
15.3414632211
 20
16.7226732659
 10
15.3661369596
 20
16.6547065584
 10
15.387247967
 20
16.5867383352
 10
15.4048438729
 20
16.5187743528
 10
15.4185998189
 20
16.4519102926
 10
15.4284075189
 20
16.3865113818
 10
15.4343752589
 20
16.3222123933
 10
15.436503039
 20
16.2590133269
  0
LWPOLYLINE
  5
2C2
100
AcDbEntity
  8
IMPORT_IGES
100
AcDbPolyline
 62
250
  6
CONTINUOUS
 90
10
 70
0
 10
18.9844516544
 20
12.1744391045
 10
18.9959556246
 20
12.1570403226
 10
19.0064228159
 20
12.1389106156
 10
19.0157385474
 20
12.1202486162
 10
19.0238007539
 20
12.1012587894
 10
19.0305211044
 20
12.0821491915
 10
19.0358259692
 20
12.0631291913
 10
19.0396572271
 20
12.044407176
 10
19.041972902
 20
12.0261882678
 10
19.042747623
 20
12.0086720769
  0
LWPOLYLINE
  5
2C3
100
AcDbEntity
  8
IMPORT_IGES
100
AcDbPolyline
 62
7
  6
CONTINUOUS
 90
12
 70
0
 10
-8.2515317044
 20
31.1609325771
 10
-8.3052014717
 20
31.1894639584
 10
-8.3579036648
 20
31.2130028136
 10
-8.4096382837
 20
31.2315491426
 10
-8.4606674862
 20
31.2451292781
 10
-8.5107291145
 20
31.2537168873
 10
-8.559036695
 20
31.2572329726
 10
-8.605561425
 20
31.2556059073
 10
-8.6503321072
 20
31.2489073181
 10
-8.6926486758
 20
31.2372730865
 10
-8.7324755222
 20
31.220634352
 10
-8.7515557637
 20
31.2104738129
  0
LINE
  5
2C4
100
AcDbEntity
  8
IMPORT_IGES
100
AcDbLine
 62
7
  6
CONTINUOUS
 10
-3.6200035008
 20
30.0381896936
 11
-3.5492928227
 21
29.9973622343
  0
LINE
  5
2C5
100
AcDbEntity
  8
IMPORT_IGES
100
AcDbLine
 62
7
  6
CONTINUOUS
 10
-2.3118559556
 20
29.282881696
 11
-2.2411452775
 21
29.2420542367
  0
LINE
  5
2C6
100
AcDbEntity
  8
IMPORT_IGES
100
AcDbLine
 62
7
  6
CONTINUOUS
 10
13.1384272133
 20
20.3620818318
 11
13.0677165352
 21
20.4029092911
  0
LINE
  5
2C7
100
AcDbEntity
  8
IMPORT_IGES
100
AcDbLine
 62
7
  6
CONTINUOUS
 10
11.8302796681
 20
21.1173898294
 11
11.75956899
 21
21.1582172888
  0
LWPOLYLINE
  5
2C8
100
AcDbEntity
  8
IMPORT_IGES
100
AcDbPolyline
 62
250
  6
CONTINUOUS
 90
5
 70
0
 10
19.0880423521
 20
-21.018102647
 10
19.0945114321
 20
-21.0066069891
 10
19.0988639349
 20
-20.9947838744
 10
19.1010521737
 20
-20.9827628396
 10
19.1013262668
 20
-20.9767192145
  0
LWPOLYLINE
  5
2C9
100
AcDbEntity
  8
IMPORT_IGES
100
AcDbPolyline
 62
250
  6
CONTINUOUS
 90
5
 70
0
 10
19.042747623
 20
-21.0583741332
 10
19.0567554591
 20
-21.0493915558
 10
19.0690603804
 20
-21.0396127651
 10
19.0795275716
 20
-21.0291448995
 10
19.0880423521
 20
-21.018102647
  0
LWPOLYLINE
  5
2CA
100
AcDbEntity
  8
IMPORT_IGES
100
AcDbPolyline
 62
250
  6
CONTINUOUS
 90
9
 70
0
 10
16.102193296
 20
-22.9054943657
 10
16.107285013
 20
-22.9022385554
 10
16.1166007445
 20
-22.8943341292
 10
16.1246629511
 20
-22.8846543364
 10
16.1313833015
 20
-22.8733052308
 10
16.1366881663
 20
-22.8604111555
 10
16.1405194242
 20
-22.8461133808
 10
16.1428350992
 20
-22.830568556
 10
16.1436098202
 20
-22.8139469935
  0
LWPOLYLINE
  5
2CB
100
AcDbEntity
  8
IMPORT_IGES
100
AcDbPolyline
 62
250
  6
CONTINUOUS
 90
16
 70
0
 10
16.0021884639
 20
-22.4873509918
 10
15.9874059069
 20
-22.4967807969
 10
15.9727853106
 20
-22.5078963709
 10
15.9584868615
 20
-22.5205759293
 10
15.9446672162
 20
-22.5346805521
 10
15.9314777858
 20
-22.5500557063
 10
15.9190630764
 20
-22.5665329383
 10
15.9075591061
 20
-22.5839317201
 10
15.8970919148
 20
-22.6020614272
 10
15.8877761834
 20
-22.6207234265
 10
15.8797139768
 20
-22.6397132534
 10
15.8729936263
 20
-22.6588228513
 10
15.8676887615
 20
-22.6778428515
 10
15.8638575036
 20
-22.6965648668
 10
15.8615418287
 20
-22.714783775
 10
15.8607671077
 20
-22.7322999658
  0
LINE
  5
2CC
100
AcDbEntity
  8
IMPORT_IGES
100
AcDbLine
 62
7
  6
CONTINUOUS
 10
18.8306155887
 20
-20.7725976998
 11
15.9314777858
 21
-22.4465235325
  0
LINE
  5
2CD
100
AcDbEntity
  8
IMPORT_IGES
100
AcDbLine
 62
250
  6
CONTINUOUS
 10
18.9013262668
 20
-20.8134251592
 11
16.0021884639
 21
-22.4873509918
  0
LINE
  5
2CE
100
AcDbEntity
  8
IMPORT_IGES
100
AcDbLine
 62
250
  6
CONTINUOUS
 10
16.1436098202
 20
-22.7322999658
 11
19.042747623
 21
-21.0583741332
  0
LINE
  5
2CF
100
AcDbEntity
  8
IMPORT_IGES
100
AcDbLine
 62
250
  6
CONTINUOUS
 10
19.042747623
 20
-21.1400211609
 11
16.1436098202
 21
-22.8139469935
  0
LINE
  5
2D0
100
AcDbEntity
  8
IMPORT_IGES
100
AcDbLine
 62
7
  6
CONTINUOUS
 10
19.0013310988
 20
-21.2315685331
 11
16.102193296
 21
-22.9054943657
  0
LWPOLYLINE
  5
2D1
100
AcDbEntity
  8
IMPORT_IGES
100
AcDbPolyline
 62
250
  6
CONTINUOUS
 90
16
 70
0
 10
16.1436098202
 20
-22.8139469935
 10
16.1280525421
 20
-22.8220349425
 10
16.1111162709
 20
-22.8291396498
 10
16.0929865639
 20
-22.8351832749
 10
16.0738620538
 20
-22.8400996024
 10
16.053952273
 20
-22.8438347681
 10
16.0334753569
 20
-22.8463478487
 10
16.0126556552
 20
-22.8476113104
 10
15.9917212727
 20
-22.8476113104
 10
15.9709015709
 20
-22.8463478487
 10
15.9504246549
 20
-22.8438347681
 10
15.930514874
 20
-22.8400996024
 10
15.911390364
 20
-22.8351832749
 10
15.8932606569
 20
-22.8291396498
 10
15.8763243857
 20
-22.8220349425
 10
15.8607671077
 20
-22.8139469935
  0
LWPOLYLINE
  5
2D2
100
AcDbEntity
  8
IMPORT_IGES
100
AcDbPolyline
 62
7
  6
CONTINUOUS
 90
9
 70
0
 10
18.8306155887
 20
-20.7725976998
 10
18.8457288778
 20
-20.7648701466
 10
18.8603425229
 20
-20.7591141674
 10
18.874456524
 20
-20.7553297623
 10
18.8882064462
 20
-20.7535248848
 10
18.9014567245
 20
-20.7536915813
 10
18.9138006636
 20
-20.7558059914
 10
18.9252118381
 20
-20.7599232478
 10
18.930620419
 20
-20.7626894633
  0
LWPOLYLINE
  5
2D3
100
AcDbEntity
  8
IMPORT_IGES
100
AcDbPolyline
 62
250
  6
CONTINUOUS
 90
3
 70
0
 10
18.9307294201
 20
-20.8000165138
 10
18.9161088238
 20
-20.8057844379
 10
18.9013262668
 20
-20.8134251592
  0
LINE
  5
2D4
100
AcDbEntity
  8
IMPORT_IGES
100
AcDbLine
 62
7
  6
CONTINUOUS
 10
-1.8522365478
 20
30.9772212583
 11
-0.5440070024
 21
30.2219606066
  0
LINE
  5
2D5
100
AcDbEntity
  8
IMPORT_IGES
100
AcDbLine
 62
7
  6
CONTINUOUS
 10
14.8355654884
 20
21.3419882017
 11
13.527335943
 21
22.0972488534
  0
LINE
  5
2D6
100
AcDbEntity
  8
IMPORT_IGES
100
AcDbLine
 62
7
  6
CONTINUOUS
 10
-0.4026676464
 20
30.3035681793
 11
14.3051534023
 21
21.811535548
  0
LINE
  5
2D7
100
AcDbEntity
  8
IMPORT_IGES
100
AcDbLine
 62
7
  6
CONTINUOUS
 10
14.9769048444
 20
21.4235957744
 11
18.9720369449
 21
19.1169354802
  0
LINE
  5
2D8
100
AcDbEntity
  8
IMPORT_IGES
100
AcDbLine
 62
7
  6
CONTINUOUS
 10
-1.0744190885
 20
30.6915079528
 11
-5.069551189
 21
32.998168247
  0
LWPOLYLINE
  5
2D9
100
AcDbEntity
  8
IMPORT_IGES
100
AcDbPolyline
 62
7
  6
CONTINUOUS
 90
22
 70
0
 10
18.2649301637
 20
19.5251311637
 10
18.3177723197
 20
19.4923377486
 10
18.3703189608
 20
19.4551616947
 10
18.4222762251
 20
19.4138109054
 10
18.4733535463
 20
19.3685166312
 10
18.5232652795
 20
19.319532176
 10
18.5717322979
 20
19.2671314807
 10
18.6184835543
 20
19.2116075914
 10
18.6632575968
 20
19.15327102
 10
18.7058040306
 20
19.0924480085
 10
18.745884919
 20
19.0294787037
 10
18.7832761133
 20
18.9647152555
 10
18.8177685067
 20
18.8985198474
 10
18.8491692039
 20
18.8312626711
 10
18.8773025994
 20
18.7633198558
 10
18.9020113599
 20
18.6950713653
 10
18.9231573038
 20
18.626898873
 10
18.9406221746
 20
18.5591836271
 10
18.9543083016
 20
18.4923043186
 10
18.9641391464
 20
18.4266349638
 10
18.9700597309
 20
18.3625428123
 10
18.9720369449
 20
18.3003862936
  0
LWPOLYLINE
  5
2DA
100
AcDbEntity
  8
IMPORT_IGES
100
AcDbPolyline
 62
250
  6
CONTINUOUS
 90
19
 70
0
 10
7.2712482659
 20
-30.7292159564
 10
7.2157889317
 20
-30.7632634536
 10
7.1570900931
 20
-30.7945193488
 10
7.0955715416
 20
-30.8228717745
 10
7.0319286006
 20
-30.848130819
 10
6.9663252977
 20
-30.8703547623
 10
6.8982925783
 20
-30.8897268055
 10
6.8279203973
 20
-30.9061577711
 10
6.7558103607
 20
-30.9194449386
 10
6.6821925484
 20
-30.9294921582
 10
6.6073393248
 20
-30.9361898027
 10
6.5317851275
 20
-30.9394177624
 10
6.4561737858
 20
-30.9390995064
 10
6.3810386722
 20
-30.9352096909
 10
6.3067268147
 20
-30.9277383865
 10
6.2336135929
 20
-30.9166827049
 10
6.1621270521
 20
-30.9020584686
 10
6.0927409453
 20
-30.8839121425
 10
6.0259015988
 20
-30.8623099878
  0
LWPOLYLINE
  5
2DB
100
AcDbEntity
  8
IMPORT_IGES
100
AcDbPolyline
 62
7
  6
CONTINUOUS
 90
12
 70
0
 10
15.5829737077
 20
-29.3086295048
 10
15.6012661991
 20
-29.297215667
 10
15.6355915779
 20
-29.271048111
 10
15.6668277718
 20
-29.2402221076
 10
15.6950166117
 20
-29.204802925
 10
15.7196903502
 20
-29.1653288323
 10
15.7408013576
 20
-29.1217390712
 10
15.7583972635
 20
-29.0740943999
 10
15.7721532095
 20
-29.0231153614
 10
15.7819609095
 20
-28.9690421367
 10
15.7879286495
 20
-28.9116345447
 10
15.7900564296
 20
-28.8508925855
  0
LWPOLYLINE
  5
2DC
100
AcDbEntity
  8
IMPORT_IGES
100
AcDbPolyline
 62
250
  6
CONTINUOUS
 90
12
 70
0
 10
9.9536802618
 20
-32.5589129479
 10
9.9643241218
 20
-32.5524931215
 10
9.9993005817
 20
-32.5272230013
 10
10.0316138929
 20
-32.4969383476
 10
10.0608798864
 20
-32.4617640215
 10
10.0867102033
 20
-32.4220145765
 10
10.1088896155
 20
-32.3779511465
 10
10.1272959511
 20
-32.3297344962
 10
10.1417743395
 20
-32.2776563136
 10
10.1522096565
 20
-32.2220150617
 10
10.1585167093
 20
-32.1631038857
 10
10.1606296141
 20
-32.1012530754
  0
LINE
  5
2DD
100
AcDbEntity
  8
IMPORT_IGES
100
AcDbLine
 62
250
  6
CONTINUOUS
 10
18.9720369449
 20
-27.0136569155
 11
15.7900564296
 21
-28.8508925855
  0
LINE
  5
2DE
100
AcDbEntity
  8
IMPORT_IGES
100
AcDbLine
 62
250
  6
CONTINUOUS
 10
15.436503039
 20
-29.0550298822
 11
10.1606296141
 21
-32.1012530754
  0
LINE
  5
2DF
100
AcDbEntity
  8
IMPORT_IGES
100
AcDbLine
 62
7
  6
CONTINUOUS
 10
18.7649543239
 20
-27.4713937767
 11
15.5829738085
 21
-29.3086294466
  0
LINE
  5
2E0
100
AcDbEntity
  8
IMPORT_IGES
100
AcDbLine
 62
7
  6
CONTINUOUS
 10
9.9535469931
 20
-32.5589899366
 11
15.2294204179
 21
-29.5127667433
  0
ARC
  5
2E1
100
AcDbEntity
  8
IMPORT_IGES
100
AcDbCircle
 62
7
  6
CONTINUOUS
 10
18.9013262668
 20
-21.0583662422
 40
0.2
100
AcDbArc
 50
300.0015984348
 51
360.0
  0
ARC
  5
2E2
100
AcDbEntity
  8
IMPORT_IGES
100
AcDbCircle
 62
7
  6
CONTINUOUS
 10
16.0021884639
 20
-22.7322920748
 40
0.2
100
AcDbArc
 50
239.9984015652
 51
300.0015984348
  0
ARC
  5
2E3
100
AcDbEntity
  8
IMPORT_IGES
100
AcDbCircle
 62
7
  6
CONTINUOUS
 10
18.9013262668
 20
-20.9767192145
 40
0.2
100
AcDbArc
 50
0.0
 51
59.9984015652
  0
ARC
  5
2E4
100
AcDbEntity
  8
IMPORT_IGES
100
AcDbCircle
 62
7
  6
CONTINUOUS
 10
18.9013262668
 20
12.0086799679
 40
0.2
100
AcDbArc
 50
300.0015984348
 51
360.0
  0
ARC
  5
2E5
100
AcDbEntity
  8
IMPORT_IGES
100
AcDbCircle
 62
7
  6
CONTINUOUS
 10
16.0021884639
 20
10.3347541353
 40
0.2
100
AcDbArc
 50
239.9984015652
 51
300.0015984348
  0
ARC
  5
2E6
100
AcDbEntity
  8
IMPORT_IGES
100
AcDbCircle
 62
7
  6
CONTINUOUS
 10
18.9013262668
 20
12.0903269956
 40
0.2
100
AcDbArc
 50
0.0
 51
59.9984015652
  0
ENDSEC
  0
SECTION
  2
OBJECTS
  0
DICTIONARY
  5
C
100
AcDbDictionary
280
0
281
1
  3
ACAD_GROUP
350
D
  3
ACAD_MLINESTYLE
350
17
  3
ACAD_LAYOUT
350
1A
  3
ACAD_PLOTSETTINGS
350
19
  3
ACAD_PLOTSTYLENAME
350
E
  0
DICTIONARY
  5
D
102
{ACAD_REACTORS
330
C
102
}
100
AcDbDictionary
280
0
281
1
  0
ACDBDICTIONARYWDFLT
  5
E
102
{ACAD_REACTORS
330
C
102
}
100
AcDbDictionary
281
1
  3
Normal
350
F
100
AcDbDictionaryWithDefault
340
F
  0
DICTIONARY
  5
17
102
{ACAD_REACTORS
330
C
102
}
100
AcDbDictionary
280
0
281
1
  3
Standard
350
18
  0
DICTIONARY
  5
19
102
{ACAD_REACTORS
330
C
102
}
100
AcDbDictionary
281
1
  0
DICTIONARY
  5
1A
102
{ACAD_REACTORS
330
C
102
}
100
AcDbDictionary
281
1
  3
Model
350
2E7
  3
Layout1
350
2E8
  0
ACDBPLACEHOLDER
  5
F
102
{ACAD_REACTORS
330
E
102
}
  0
MLINESTYLE
  5
18
102
{ACAD_REACTORS
330
17
102
}
100
AcDbMlineStyle
  2
STANDARD
 70
0
  3

 62
256
 51
90.0
 52
90.0
 71
2
 49
0.5
 62
256
  6
BYLAYER
 49
-0.5
 62
256
  6
BYLAYER
  0
LAYOUT
  5
2E7
102
{ACAD_REACTORS
330
1A
102
}
100
AcDbPlotSettings
  1

  2
none_device
  4
ISO_A4_(297.00_x_210.00_MM)
  6

 40
0.0
 41
0.0
 42
0.0
 43
0.0
 44
297.0
 45
210.0
 46
0.0
 47
0.0
 48
0.0
 49
0.0
140
0.0
141
0.0
142
1.0
143
1.0
 70
1024
 72
1
 73
0
 74
0
  7

 75
0
147
1.0
148
0.0
149
0.0
100
AcDbLayout
  1
Model
 70
0
 71
0
 10
0.0
 20
0.0
 11
297.0
 21
210.0
 12
0.0
 22
0.0
 32
0.0
 14
0.0
 24
0.0
 34
0.0
 15
0.0
 25
0.0
 35
0.0
146
0.0
 13
0.0
 23
0.0
 33
0.0
 16
1.0
 26
0.0
 36
0.0
 17
0.0
 27
1.0
 37
0.0
 76
0
330
20E
345
0
346
0
  0
LAYOUT
  5
2E8
102
{ACAD_REACTORS
330
1A
102
}
100
AcDbPlotSettings
  1

  2
none_device
  4
ISO_A4_(297.00_x_210.00_MM)
  6

 40
0.0
 41
0.0
 42
0.0
 43
0.0
 44
297.0
 45
210.0
 46
0.0
 47
0.0
 48
0.0
 49
0.0
140
0.0
141
0.0
142
1.0
143
1.0
 70
0
 72
1
 73
0
 74
0
  7

 75
0
147
1.0
148
0.0
149
0.0
100
AcDbLayout
  1
Layout1
 70
0
 71
1
 10
0.0
 20
0.0
 11
297.0
 21
210.0
 12
0.0
 22
0.0
 32
0.0
 14
0.0
 24
0.0
 34
0.0
 15
0.0
 25
0.0
 35
0.0
146
0.0
 13
0.0
 23
0.0
 33
0.0
 16
1.0
 26
0.0
 36
0.0
 17
0.0
 27
1.0
 37
0.0
 76
0
330
20F
345
0
346
0
  0
ENDSEC
  0
EOF
