  0
SECTION
  2
HEADER
  9
$ACADVER
  1
AC1024
  9
$DWGCODEPAGE
  3
ANSI_1252
  9
$EXTMAX
 10
297.0
 20
210.0
 30
0.0
  9
$EXTMIN
 10
0.0
 20
0.0
 30
0.0
  9
$LIMMIN
 10
0.0
 20
0.0
  9
$LIMMAX
 10
297.0
 20
210.0
  9
$VIEWCTR
 10
148.5
 20
105.0
  9
$VIEWSIZE
 40
210.0
  9
$CLAYER
  8
0
  9
$LTSCALE
 40
16.335
  9
$CELTYPE
  6
BYLAYER
  9
$DIMSCALE
 40
1.0
  9
$DIMASZ
 40
3.0
  9
$DIMEXO
 40
0.5
  9
$DIMDLI
 40
11.286
  9
$DIMEXE
 40
1.5
  9
$DIMCEN
 40
2.673
  9
$DIMLFAC
 40
1.0
  9
$DIMBLK
  1
_FILLED
  9
$DIMALT
 70
0
  9
$DIMALTF
 40
0.0393700787
  9
$DIMTXT
 40
3.0
  9
$DIMTOL
 70
1
  9
$DIMLIM
 70
0
  9
$DIMTFAC
 40
1.0
  9
$DIMTP
 40
0.01
  9
$DIMTM
 40
0.01
  9
$DIMGAP
 40
0.625
  9
$DIMDSEP
 70
44
  9
$AUNITS
 70
0
  9
$PDMODE
 70
3
  9
$PDSIZE
 40
3.0
  9
$HANDSEED
  5
2F6
  9
$TILEMODE
 70
1
  9
$MEASUREMENT
 70
1
  9
$INSUNITS
 70
4
  0
ENDSEC
  0
SECTION
  2
CLASSES
  0
CLASS
  1
ACDBDICTIONARYWDFLT
  2
AcDbDictionaryWithDefault
  3
AutoCAD 2000
 90
0
 91
1
280
0
281
0
  0
CLASS
  1
ACDBPLACEHOLDER
  2
AcDbPlaceHolder
  3
AutoCAD 2000
 90
0
 91
1
280
0
281
0
  0
CLASS
  1
LAYOUT
  2
AcDbLayout
  3
AutoCAD 2000
 90
0
 91
0
280
0
281
0
  0
ENDSEC
  0
SECTION
  2
TABLES
  0
TABLE
  2
VPORT
  5
8
100
AcDbSymbolTable
 70
2
  0
VPORT
  5
1F4
100
AcDbSymbolTableRecord
100
AcDbViewportTableRecord
  2
*ACTIVE
 70
0
 10
0.0
 20
0.0
 11
1.0
 21
1.0
 12
148.5
 22
105.0
 13
0.0
 23
0.0
 14
1.0
 24
1.0
 15
0.0
 25
0.0
 16
0.0
 26
0.0
 36
1.0
 17
0.0
 27
0.0
 37
0.0
 40
210.0
 41
1.4142857143
 42
50.0
 43
0.0
 44
0.0
 50
0.0
 51
0.0
 71
0
 72
100
 73
1
 74
1
 75
0
 76
0
 77
0
 78
0
  0
ENDTAB
  0
TABLE
  2
LTYPE
  5
5
100
AcDbSymbolTable
 70
6
  0
LTYPE
  5
14
100
AcDbSymbolTableRecord
100
AcDbLinetypeTableRecord
  2
BYBLOCK
 70
0
  3

 72
65
 73
0
 40
0.0
  0
LTYPE
  5
15
100
AcDbSymbolTableRecord
100
AcDbLinetypeTableRecord
  2
BYLAYER
 70
0
  3

 72
65
 73
0
 40
0.0
  0
LTYPE
  5
16
100
AcDbSymbolTableRecord
100
AcDbLinetypeTableRecord
  2
CONTINUOUS
 70
64
  3
Solid line
 72
65
 73
0
 40
0.0
  0
LTYPE
  5
1F5
100
AcDbSymbolTableRecord
100
AcDbLinetypeTableRecord
  2
CENTER
 70
64
  3
____ _ ____ _ ____ _ ____ _ ____ _ ____ _ ____
 72
65
 73
4
 40
0.6
 49
0.375
 74
0
 49
-0.075
 74
0
 49
0.075
 74
0
 49
-0.075
 74
0
  0
LTYPE
  5
1F6
100
AcDbSymbolTableRecord
100
AcDbLinetypeTableRecord
  2
HIDDEN
 70
64
  3
- - - - - - - - - - - - - - - - - - - -
 72
65
 73
2
 40
0.2
 49
0.1
 74
0
 49
-0.1
 74
0
  0
LTYPE
  5
1F7
100
AcDbSymbolTableRecord
100
AcDbLinetypeTableRecord
  2
PHANTOM
 70
64
  3
_____ _ _ _____ _ _ _____ _ _ _____
 72
65
 73
6
 40
0.8
 49
0.45
 74
0
 49
-0.05
 74
0
 49
0.1
 74
0
 49
-0.05
 74
0
 49
0.1
 74
0
 49
-0.05
 74
0
  0
LTYPE
  5
1F8
100
AcDbSymbolTableRecord
100
AcDbLinetypeTableRecord
  2
DOT
 70
64
  3
. . . . . . . . . . . . . . . . . . . .
 72
65
 73
2
 40
0.2
 49
0.1
 74
0
 49
-0.1
 74
0
  0
LTYPE
  5
1F9
100
AcDbSymbolTableRecord
100
AcDbLinetypeTableRecord
  2
DASHED
 70
64
  3
- - - - - - - - - - - - - - - - - - - -
 72
65
 73
2
 40
0.2
 49
0.1
 74
0
 49
-0.1
 74
0
  0
ENDTAB
  0
TABLE
  2
LAYER
  5
2
100
AcDbSymbolTable
 70
36
  0
LAYER
  5
10
100
AcDbSymbolTableRecord
100
AcDbLayerTableRecord
  2
0
 70
0
 62
7
  6
CONTINUOUS
370
-3
390
F
  0
LAYER
  5
1FA
100
AcDbSymbolTableRecord
100
AcDbLayerTableRecord
  2
DEFAULT_1
 70
0
 62
7
  6
CENTER
370
-3
390
F
  0
LAYER
  5
1FB
100
AcDbSymbolTableRecord
100
AcDbLayerTableRecord
  2
DEFAULT_2
 70
0
 62
7
  6
HIDDEN
370
-3
390
F
  0
LAYER
  5
1FC
100
AcDbSymbolTableRecord
100
AcDbLayerTableRecord
  2
DEFAULT_3
 70
0
 62
7
  6
PHANTOM
370
-3
390
F
  0
LAYER
  5
1FD
100
AcDbSymbolTableRecord
100
AcDbLayerTableRecord
  2
ASSI
 70
0
 62
7
  6
CONTINUOUS
370
-3
390
F
  0
LAYER
  5
1FE
100
AcDbSymbolTableRecord
100
AcDbLayerTableRecord
  2
BASE-QDT200-NEO-10-02-2021_OA_1
 70
0
 62
7
  6
CONTINUOUS
370
-3
390
F
  0
LAYER
  5
1FF
100
AcDbSymbolTableRecord
100
AcDbLayerTableRecord
  2
BATTERIA_LITIO_0_0_OA_1
 70
0
 62
7
  6
CONTINUOUS
370
-3
390
F
  0
LAYER
  5
200
100
AcDbSymbolTableRecord
100
AcDbLayerTableRecord
  2
BATTERY-HOLDER-TYPEAA_0_0_OA_10
 70
0
 62
7
  6
CONTINUOUS
370
-3
390
F
  0
LAYER
  5
201
100
AcDbSymbolTableRecord
100
AcDbLayerTableRecord
  2
BATTERY-HOLDER-TYPEAA_0_0_OA_7
 70
0
 62
7
  6
CONTINUOUS
370
-3
390
F
  0
LAYER
  5
202
100
AcDbSymbolTableRecord
100
AcDbLayerTableRecord
  2
BATTERY_HOLDER_CLIP__0_0_OA_6
 70
0
 62
7
  6
CONTINUOUS
370
-3
390
F
  0
LAYER
  5
203
100
AcDbSymbolTableRecord
100
AcDbLayerTableRecord
  2
BATTERY_HOLDER_CLIP__0_0_OA_9
 70
0
 62
7
  6
CONTINUOUS
370
-3
390
F
  0
LAYER
  5
204
100
AcDbSymbolTableRecord
100
AcDbLayerTableRecord
  2
CLIP_BATT-AA-13-02-2019_0-32367
 70
0
 62
7
  6
CONTINUOUS
370
-3
390
F
  0
LAYER
  5
205
100
AcDbSymbolTableRecord
100
AcDbLayerTableRecord
  2
CLIP_BATT-AA-13-02-2019_0-32372
 70
0
 62
7
  6
CONTINUOUS
370
-3
390
F
  0
LAYER
  5
206
100
AcDbSymbolTableRecord
100
AcDbLayerTableRecord
  2
COLOR14
 70
0
 62
7
  6
CONTINUOUS
370
-3
390
F
  0
LAYER
  5
207
100
AcDbSymbolTableRecord
100
AcDbLayerTableRecord
  2
COLOR31
 70
0
 62
7
  6
CONTINUOUS
370
-3
390
F
  0
LAYER
  5
208
100
AcDbSymbolTableRecord
100
AcDbLayerTableRecord
  2
COLOR37
 70
0
 62
7
  6
CONTINUOUS
370
-3
390
F
  0
LAYER
  5
209
100
AcDbSymbolTableRecord
100
AcDbLayerTableRecord
  2
COLOR40
 70
0
 62
7
  6
CONTINUOUS
370
-3
390
F
  0
LAYER
  5
20A
100
AcDbSymbolTableRecord
100
AcDbLayerTableRecord
  2
COLOR42
 70
0
 62
7
  6
CONTINUOUS
370
-3
390
F
  0
LAYER
  5
20B
100
AcDbSymbolTableRecord
100
AcDbLayerTableRecord
  2
COLOR46
 70
0
 62
7
  6
CONTINUOUS
370
-3
390
F
  0
LAYER
  5
20C
100
AcDbSymbolTableRecord
100
AcDbLayerTableRecord
  2
COORDINATE
 70
0
 62
7
  6
CONTINUOUS
370
-3
390
F
  0
LAYER
  5
20D
100
AcDbSymbolTableRecord
100
AcDbLayerTableRecord
  2
COPY_PUBLISH
 70
0
 62
7
  6
CONTINUOUS
370
-3
390
F
  0
LAYER
  5
20E
100
AcDbSymbolTableRecord
100
AcDbLayerTableRecord
  2
COSMETICI
 70
0
 62
7
  6
CONTINUOUS
370
-3
390
F
  0
LAYER
  5
20F
100
AcDbSymbolTableRecord
100
AcDbLayerTableRecord
  2
COVER-QDT-200-NEO-10-02-2021_OA
 70
0
 62
7
  6
CONTINUOUS
370
-3
390
F
  0
LAYER
  5
210
100
AcDbSymbolTableRecord
100
AcDbLayerTableRecord
  2
CURVE
 70
0
 62
7
  6
CONTINUOUS
370
-3
390
F
  0
LAYER
  5
211
100
AcDbSymbolTableRecord
100
AcDbLayerTableRecord
  2
DRAFT
 70
0
 62
7
  6
CONTINUOUS
370
-3
390
F
  0
LAYER
  5
212
100
AcDbSymbolTableRecord
100
AcDbLayerTableRecord
  2
GUARNIZIONE_QDT600-W
 70
0
 62
7
  6
CONTINUOUS
370
-3
390
F
  0
LAYER
  5
213
100
AcDbSymbolTableRecord
100
AcDbLayerTableRecord
  2
IMPORT_IGES
 70
0
 62
7
  6
CONTINUOUS
370
-3
390
F
  0
LAYER
  5
214
100
AcDbSymbolTableRecord
100
AcDbLayerTableRecord
  2
LED5MM_0_0
 70
0
 62
7
  6
CONTINUOUS
370
-3
390
F
  0
LAYER
  5
215
100
AcDbSymbolTableRecord
100
AcDbLayerTableRecord
  2
LENTE_0_0_OA_2
 70
0
 62
7
  6
CONTINUOUS
370
-3
390
F
  0
LAYER
  5
216
100
AcDbSymbolTableRecord
100
AcDbLayerTableRecord
  2
MICROONDA-PICCOLA_0_0
 70
0
 62
7
  6
CONTINUOUS
370
-3
390
F
  0
LAYER
  5
217
100
AcDbSymbolTableRecord
100
AcDbLayerTableRecord
  2
NOTE
 70
0
 62
7
  6
CONTINUOUS
370
-3
390
F
  0
LAYER
  5
218
100
AcDbSymbolTableRecord
100
AcDbLayerTableRecord
  2
PCB_0_0_OA_0
 70
0
 62
7
  6
CONTINUOUS
370
-3
390
F
  0
LAYER
  5
219
100
AcDbSymbolTableRecord
100
AcDbLayerTableRecord
  2
PIANI
 70
0
 62
7
  6
CONTINUOUS
370
-3
390
F
  0
LAYER
  5
21A
100
AcDbSymbolTableRecord
100
AcDbLayerTableRecord
  2
PIR-HOUSING-11-01-2019_0_0_OA_4
 70
0
 62
7
  6
CONTINUOUS
370
-3
390
F
  0
LAYER
  5
21B
100
AcDbSymbolTableRecord
100
AcDbLayerTableRecord
  2
PORTALENTE-SENSORI-QDT_OA_13
 70
0
 62
7
  6
CONTINUOUS
370
-3
390
F
  0
LAYER
  5
21C
100
AcDbSymbolTableRecord
100
AcDbLayerTableRecord
  2
PULSANTE_0_0_OA_3
 70
0
 62
7
  6
CONTINUOUS
370
-3
390
F
  0
LAYER
  5
21D
100
AcDbSymbolTableRecord
100
AcDbLayerTableRecord
  2
PUNTI
 70
0
 62
7
  6
CONTINUOUS
370
-3
390
F
  0
LAYER
  5
21E
100
AcDbSymbolTableRecord
100
AcDbLayerTableRecord
  2
RACCORDO
 70
0
 62
7
  6
CONTINUOUS
370
-3
390
F
  0
LAYER
  5
21F
100
AcDbSymbolTableRecord
100
AcDbLayerTableRecord
  2
SIMBOLI
 70
0
 62
7
  6
CONTINUOUS
370
-3
390
F
  0
LAYER
  5
220
100
AcDbSymbolTableRecord
100
AcDbLayerTableRecord
  2
SMUSSO
 70
0
 62
7
  6
CONTINUOUS
370
-3
390
F
  0
LAYER
  5
221
100
AcDbSymbolTableRecord
100
AcDbLayerTableRecord
  2
SUPERFICI
 70
0
 62
7
  6
CONTINUOUS
370
-3
390
F
  0
LAYER
  5
222
100
AcDbSymbolTableRecord
100
AcDbLayerTableRecord
  2
SUPPORT-MICROWAVE-LED-09-01-201
 70
0
 62
7
  6
CONTINUOUS
370
-3
390
F
  0
LAYER
  5
223
100
AcDbSymbolTableRecord
100
AcDbLayerTableRecord
  2
TRASH
 70
0
 62
7
  6
CONTINUOUS
370
-3
390
F
  0
LAYER
  5
224
100
AcDbSymbolTableRecord
100
AcDbLayerTableRecord
  2
___SHELL
 70
0
 62
7
  6
CONTINUOUS
370
-3
390
F
  0
ENDTAB
  0
TABLE
  2
STYLE
  5
3
100
AcDbSymbolTable
 70
1
  0
STYLE
  5
11
100
AcDbSymbolTableRecord
100
AcDbTextStyleTableRecord
  2
STANDARD
 70
0
 40
0.0
 41
0.8
 50
0.0
 71
0
 42
0.2
  3
txt
  4

  0
STYLE
  5
225
100
AcDbSymbolTableRecord
100
AcDbTextStyleTableRecord
  2
TEXTSTYLE_1
 70
0
 40
0.0
 41
0.8
 50
0.0
 71
0
 42
0.2
  3
gdt
  4

  0
ENDTAB
  0
TABLE
  2
VIEW
  5
6
100
AcDbSymbolTable
 70
0
  0
ENDTAB
  0
TABLE
  2
UCS
  5
7
100
AcDbSymbolTable
 70
0
  0
ENDTAB
  0
TABLE
  2
APPID
  5
9
100
AcDbSymbolTable
 70
1
  0
APPID
  5
226
100
AcDbSymbolTableRecord
100
AcDbRegAppTableRecord
  2
ACAD
 70
0
  0
ENDTAB
  0
TABLE
  2
BLOCK_RECORD
  5
1
100
AcDbSymbolTable
 70
0
  0
BLOCK_RECORD
  5
227
100
AcDbSymbolTableRecord
100
AcDbBlockTableRecord
  2
*Model_Space
  0
BLOCK_RECORD
  5
228
100
AcDbSymbolTableRecord
100
AcDbBlockTableRecord
  2
*Paper_Space
  0
BLOCK_RECORD
  5
229
100
AcDbSymbolTableRecord
100
AcDbBlockTableRecord
  2
_FILLED
  0
ENDTAB
  0
TABLE
  2
DIMSTYLE
  5
A
100
AcDbSymbolTable
 70
1
100
AcDbDimStyleTable
 71
0
  0
DIMSTYLE
105
22A
100
AcDbSymbolTableRecord
100
AcDbDimStyleTableRecord
  2
STANDARD
 70
0
  3

  4

 40
1.0
 41
3.0
 42
0.5
 43
0.38
 44
1.5
 45
0.0
 46
0.0
 47
0.01
 48
0.01
140
3.0
141
0.09
142
0.0
143
25.4
144
1.0
145
0.0
146
1.0
147
0.625
 71
1
 72
0
 73
0
 74
0
 75
0
 76
0
 77
1
 78
8
 79
2
170
0
171
1
172
0
173
0
174
0
175
0
176
0
177
0
178
0
270
2
179
2
271
2
272
2
273
2
274
2
275
0
280
0
281
0
282
0
283
1
284
8
285
0
286
0
287
3
288
0
340
11
278
44
341
229
342
229
343
229
344
229
  0
ENDTAB
  0
ENDSEC
  0
SECTION
  2
BLOCKS
  0
BLOCK
  5
20
100
AcDbEntity
  8
0
100
AcDbBlockBegin
  2
*Model_Space
 70
0
 10
0.0
 20
0.0
 30
0.0
  3
*Model_Space
  1

  0
ENDBLK
  5
21
100
AcDbEntity
  8
0
100
AcDbBlockEnd
  0
BLOCK
  5
1C
100
AcDbEntity
  8
0
100
AcDbBlockBegin
  2
*Paper_Space
 70
0
 10
0.0
 20
0.0
 30
0.0
  3
*Paper_Space
  1

  0
ENDBLK
  5
1D
100
AcDbEntity
  8
0
100
AcDbBlockEnd
  0
BLOCK
  5
22B
100
AcDbEntity
  8
0
100
AcDbBlockBegin
  2
_FILLED
 70
64
 10
0.0
 20
0.0
  3
_FILLED
  1

  0
SOLID
  5
22C
100
AcDbEntity
  8
0
  6
BYBLOCK
 62
0
100
AcDbTrace
 10
0.0
 20
0.0
 11
-1.0
 21
0.3166666667
 12
-1.0
 22
-0.3166666667
 13
-1.0
 23
-0.3166666667
  0
ENDBLK
  5
22D
100
AcDbEntity
  8
0
  6
BYBLOCK
 62
0
100
AcDbBlockEnd
  0
ENDSEC
  0
SECTION
  2
ENTITIES
  0
LWPOLYLINE
  5
22E
100
AcDbEntity
  8
IMPORT_IGES
100
AcDbPolyline
 62
7
  6
CONTINUOUS
 90
21
 70
0
 10
-21.5379008593
 20
54.6247209473
 10
-21.6144232888
 20
54.5728993618
 10
-21.7461807983
 20
54.4682047289
 10
-21.8730056549
 20
54.3547979063
 10
-21.9945173923
 20
54.2328450836
 10
-22.1104073598
 20
54.1024686253
 10
-22.2202942982
 20
53.9638997095
 10
-22.3238523578
 20
53.817348911
 10
-22.4208655522
 20
53.6628840886
 10
-22.511075944
 20
53.5006153424
 10
-22.5941313577
 20
53.330844942
 10
-22.6697258813
 20
53.1539070306
 10
-22.7376959838
 20
52.9701085749
 10
-22.7979776085
 20
52.7795972008
 10
-22.850507336
 20
52.5824699303
 10
-22.8951751884
 20
52.3789569803
 10
-22.9318891606
 20
52.1691964885
 10
-22.9605650631
 20
51.9531331578
 10
-22.9810622206
 20
51.7308645426
 10
-22.9932145763
 20
51.5026334514
 10
-22.9966808854
 20
51.3377426915
  0
LWPOLYLINE
  5
22F
100
AcDbEntity
  8
IMPORT_IGES
100
AcDbPolyline
 62
250
  6
CONTINUOUS
 90
36
 70
0
 10
-21.402168646
 20
54.7167565614
 10
-21.4706803327
 20
54.672138577
 10
-21.5379008593
 20
54.6247209473
 10
-21.6039104813
 20
54.5743878771
 10
-21.6685184725
 20
54.5212239244
 10
-21.7315489899
 20
54.4653355955
 10
-21.7929562522
 20
54.406736741
 10
-21.8527038275
 20
54.345434578
 10
-21.9106506023
 20
54.2815575043
 10
-21.9667408832
 20
54.2151647751
 10
-22.0209729922
 20
54.1462561887
 10
-22.0733000747
 20
54.0748895254
 10
-22.1237127141
 20
54.0010752723
 10
-22.1721697738
 20
53.9248712578
 10
-22.2185884353
 20
53.846420474
 10
-22.2629186951
 20
53.7658372299
 10
-22.3051867138
 20
53.6831057463
 10
-22.3454268206
 20
53.598177152
 10
-22.3836144496
 20
53.5111077745
 10
-22.4197405648
 20
53.4219269298
 10
-22.4538477055
 20
53.330529281
 10
-22.4859387252
 20
53.2368655085
 10
-22.5159586551
 20
53.1410532711
 10
-22.5438619372
 20
53.0432363799
 10
-22.569626654
 20
52.9434899826
 10
-22.5932476488
 20
52.8418324016
 10
-22.6147147426
 20
52.7383316552
 10
-22.6340181383
 20
52.6330362395
 10
-22.6511485995
 20
52.5259980625
 10
-22.6661017344
 20
52.4172942454
 10
-22.678876654
 20
52.3069402071
 10
-22.6894637838
 20
52.1950273277
 10
-22.6978578315
 20
52.0817551136
 10
-22.704065889
 20
51.9672335582
 10
-22.7080977514
 20
51.8514764218
 10
-22.7099624932
 20
51.7345451211
  0
LINE
  5
230
100
AcDbEntity
  8
IMPORT_IGES
100
AcDbLine
 62
7
  6
CONTINUOUS
 10
-21.3611889627
 20
54.7418698063
 11
-21.4781962475
 21
54.6686949188
  0
LINE
  5
231
100
AcDbEntity
  8
IMPORT_IGES
100
AcDbLine
 62
250
  6
CONTINUOUS
 10
-21.3611409235
 20
54.7417856695
 11
-21.402168646
 21
54.7167565614
  0
LINE
  5
232
100
AcDbEntity
  8
IMPORT_IGES
100
AcDbLine
 62
250
  6
CONTINUOUS
 10
-21.3563410451
 20
54.7446341211
 11
-21.3611409235
 21
54.7417856695
  0
LINE
  5
233
100
AcDbEntity
  8
IMPORT_IGES
100
AcDbLine
 62
7
  6
CONTINUOUS
 10
-21.3563410451
 20
54.7446341211
 11
-4.4551070505
 21
64.7455570048
  0
LINE
  5
234
100
AcDbEntity
  8
IMPORT_IGES
100
AcDbLine
 62
7
  6
CONTINUOUS
 10
-4.4551070505
 20
64.7455570048
 11
-1.5890647037
 21
66.4414727292
  0
LINE
  5
235
100
AcDbEntity
  8
IMPORT_IGES
100
AcDbLine
 62
7
  6
CONTINUOUS
 10
-4.4551587677
 20
64.7455264014
 11
-4.4340338538
 21
64.7578709105
  0
LINE
  5
236
100
AcDbEntity
  8
IMPORT_IGES
100
AcDbLine
 62
250
  6
CONTINUOUS
 10
-21.3321260345
 20
54.7587551426
 11
-21.3563410451
 21
54.7446341211
  0
LINE
  5
237
100
AcDbEntity
  8
IMPORT_IGES
100
AcDbLine
 62
7
  6
CONTINUOUS
 10
-0.0362631432
 20
67.1074975996
 11
-0.6513260511
 21
66.7523679851
  0
LWPOLYLINE
  5
238
100
AcDbEntity
  8
IMPORT_IGES
100
AcDbPolyline
 62
7
  6
CONTINUOUS
 90
18
 70
0
 10
-4.4340338538
 20
64.7578709105
 10
-4.2826814153
 20
64.8377490904
 10
-4.1248716033
 20
64.9064477473
 10
-3.9614967993
 20
64.9635757849
 10
-3.7925263217
 20
65.0090691232
 10
-3.6179908521
 20
65.0429918422
 10
-3.438872685
 20
65.0651462115
 10
-3.2551453056
 20
65.0754670338
 10
-3.0668352287
 20
65.0740195064
 10
-2.8750042929
 20
65.0608014903
 10
-2.6796326287
 20
65.0357474774
 10
-2.4807401055
 20
64.9989229758
 10
-2.2794481707
 20
64.9505223712
 10
-2.0757426066
 20
64.8904811016
 10
-1.8696376308
 20
64.818863729
 10
-1.6622973431
 20
64.736058325
 10
-1.4541097767
 20
64.6421942469
 10
-1.2446868983
 20
64.5371421373
  0
LWPOLYLINE
  5
239
100
AcDbEntity
  8
IMPORT_IGES
100
AcDbPolyline
 62
250
  6
CONTINUOUS
 90
25
 70
0
 10
0.4753382249
 20
-64.0242376981
 10
0.5227889815
 20
-64.0490131146
 10
0.572931729
 20
-64.071984862
 10
0.6254140729
 20
-64.0929969021
 10
0.6796900969
 20
-64.111872736
 10
0.7354882671
 20
-64.1285818589
 10
0.7929004841
 20
-64.1431896554
 10
0.8514304731
 20
-64.1555998679
 10
0.9108042433
 20
-64.1658006972
 10
0.9715768681
 20
-64.1738874538
 10
1.0335881178
 20
-64.1797895868
 10
1.0963088304
 20
-64.1834211379
 10
1.1598020914
 20
-64.1847497261
 10
1.2236657252
 20
-64.183722072
 10
1.2875308737
 20
-64.1803133267
 10
1.3514919583
 20
-64.174472852
 10
1.4151864152
 20
-64.1661711944
 10
1.4781165285
 20
-64.1554266363
 10
1.5401285157
 20
-64.1422221531
 10
1.6008105375
 20
-64.1265999568
 10
1.6596840849
 20
-64.1086577218
 10
1.7164704471
 20
-64.0884688137
 10
1.770808447
 20
-64.0661591246
 10
1.8222886632
 20
-64.0419194165
 10
1.8705978
 20
-64.0159506794
  0
LWPOLYLINE
  5
23A
100
AcDbEntity
  8
IMPORT_IGES
100
AcDbPolyline
 62
250
  6
CONTINUOUS
 90
37
 70
0
 10
-3.4914104148
 20
-66.3216666038
 10
-3.321865055
 20
-66.4128045405
 10
-3.1521344864
 20
-66.4958445551
 10
-2.9825211701
 20
-66.5705723231
 10
-2.8133233905
 20
-66.63677327
 10
-2.6448635011
 20
-66.6942268587
 10
-2.4774864735
 20
-66.7427119678
 10
-2.3115593299
 20
-66.7819725018
 10
-2.1473637083
 20
-66.8118338702
 10
-1.9851162656
 20
-66.8321870904
 10
-1.8248621089
 20
-66.8428599889
 10
-1.6672503331
 20
-66.8436801094
 10
-1.5133584643
 20
-66.8346648915
 10
-1.363830479
 20
-66.815948459
 10
-1.2186239699
 20
-66.7875947097
 10
-1.0777597571
 20
-66.7495957941
 10
-0.9414486689
 20
-66.7018765192
 10
-0.8101555128
 20
-66.6445242296
 10
-0.6842832931
 20
-66.5777427316
 10
-0.5640355182
 20
-66.5017176714
 10
-0.4496165763
 20
-66.4165861917
 10
-0.3413993672
 20
-66.3225479526
 10
-0.2398003682
 20
-66.2201885
 10
-0.1445592701
 20
-66.1096279777
 10
-0.0551672553
 20
-65.990229636
 10
0.0285317367
 20
-65.8614353883
 10
0.1058343344
 20
-65.7240426363
 10
0.1759817103
 20
-65.5794667048
 10
0.2387517941
 20
-65.4284279469
 10
0.2942536847
 20
-65.270946981
 10
0.3424215068
 20
-65.1075806487
 10
0.3832195184
 20
-64.938733593
 10
0.4166044455
 20
-64.7647033051
 10
0.4425342656
 20
-64.5858959366
 10
0.4609811998
 20
-64.4026729567
 10
0.4719231463
 20
-64.2153451455
 10
0.4753382249
 20
-64.0242376981
  0
LWPOLYLINE
  5
23B
100
AcDbEntity
  8
IMPORT_IGES
100
AcDbPolyline
 62
7
  6
CONTINUOUS
 90
22
 70
0
 10
-3.2842907954
 20
-66.7598640404
 10
-3.139665329
 20
-66.8394680025
 10
-2.9358042337
 20
-66.9432437031
 10
-2.7329087707
 20
-67.0367762076
 10
-2.5312669339
 20
-67.1200901408
 10
-2.3310331946
 20
-67.1932580963
 10
-2.1322071249
 20
-67.2563782664
 10
-1.9349532511
 20
-67.3094612961
 10
-1.7395275468
 20
-67.3524864301
 10
-1.5460577225
 20
-67.3854576799
 10
-1.3547062818
 20
-67.4083573156
 10
-1.1658247727
 20
-67.4211757345
 10
-0.9798727586
 20
-67.4240158469
 10
-0.7972996132
 20
-67.4170385159
 10
-0.6183281351
 20
-67.4004183581
 10
-0.4431219781
 20
-67.3743128424
 10
-0.2720270824
 20
-67.3389025049
 10
-0.1054368736
 20
-67.294405437
 10
0.0563897823
 20
-67.2410295921
 10
0.2131196854
 20
-67.1790226116
 10
0.3643598289
 20
-67.1086931297
 10
0.4842408789
 20
-67.0449328186
  0
LINE
  5
23C
100
AcDbEntity
  8
IMPORT_IGES
100
AcDbLine
 62
250
  6
CONTINUOUS
 10
-3.4914104148
 20
-66.3216666038
 11
-7.8805530419
 21
-63.8763387306
  0
LWPOLYLINE
  5
23D
100
AcDbEntity
  8
IMPORT_IGES
100
AcDbPolyline
 62
250
  6
CONTINUOUS
 90
5
 70
0
 10
-7.8805530419
 20
-63.8763387306
 10
-8.7245428972
 20
-63.4039537851
 10
-9.5564902628
 20
-62.9355922059
 10
-10.376310192
 20
-62.4713409751
 10
-11.1838546411
 20
-62.0110085336
  0
LINE
  5
23E
100
AcDbEntity
  8
IMPORT_IGES
100
AcDbLine
 62
7
  6
CONTINUOUS
 10
-4.2064533743
 20
-66.2370154981
 11
-3.2842851696
 21
-66.7598672347
  0
LINE
  5
23F
100
AcDbEntity
  8
IMPORT_IGES
100
AcDbLine
 62
7
  6
CONTINUOUS
 10
-8.6850873029
 20
-63.7008420009
 11
-4.2064533743
 21
-66.2370154981
  0
LWPOLYLINE
  5
240
100
AcDbEntity
  8
IMPORT_IGES
100
AcDbPolyline
 62
7
  6
CONTINUOUS
 90
3
 70
0
 10
-10.9799712007
 20
-62.3896505298
 10
-10.2805385723
 20
-62.7909037488
 10
-8.6850873029
 20
-63.7008420009
  0
LINE
  5
241
100
AcDbEntity
  8
IMPORT_IGES
100
AcDbLine
 62
250
  6
CONTINUOUS
 10
-10.9810542074
 20
-62.3890252939
 11
-10.9799712007
 21
-62.3896505298
  0
LINE
  5
242
100
AcDbEntity
  8
IMPORT_IGES
100
AcDbLine
 62
7
  6
CONTINUOUS
 10
-12.4504563272
 20
-61.5333069817
 11
-10.9810528206
 21
-62.3890238024
  0
LWPOLYLINE
  5
243
100
AcDbEntity
  8
IMPORT_IGES
100
AcDbPolyline
 62
250
  6
CONTINUOUS
 90
5
 70
0
 10
-11.183411538
 20
-62.0112645494
 10
-11.9869014226
 20
-61.5413970096
 10
-12.7989759785
 20
-61.0634020665
 10
-13.6199865305
 20
-60.5773562334
 10
-14.4504354666
 20
-60.0829325896
  0
LINE
  5
244
100
AcDbEntity
  8
IMPORT_IGES
100
AcDbLine
 62
250
  6
CONTINUOUS
 10
-18.548143765
 20
-57.9467055885
 11
-18.5480624521
 21
-57.9467533351
  0
LINE
  5
245
100
AcDbEntity
  8
IMPORT_IGES
100
AcDbLine
 62
7
  6
CONTINUOUS
 10
-14.0766901726
 20
-60.5796424768
 11
-12.4504563272
 21
-61.5333069817
  0
LINE
  5
246
100
AcDbEntity
  8
IMPORT_IGES
100
AcDbLine
 62
7
  6
CONTINUOUS
 10
-18.548143765
 20
-57.9467055885
 11
-14.0766901726
 21
-60.5796424768
  0
LINE
  5
247
100
AcDbEntity
  8
IMPORT_IGES
100
AcDbLine
 62
250
  6
CONTINUOUS
 10
-14.4504354666
 20
-60.0829325896
 11
-18.7546416427
 21
-57.5088673916
  0
LWPOLYLINE
  5
248
100
AcDbEntity
  8
IMPORT_IGES
100
AcDbPolyline
 62
250
  6
CONTINUOUS
 90
37
 70
0
 10
-18.7546416427
 20
-57.5088673916
 10
-18.9219639686
 20
-57.4055441421
 10
-19.0891727139
 20
-57.2940792574
 10
-19.256235793
 20
-57.1744543725
 10
-19.4234600073
 20
-57.0464652006
 10
-19.590484026
 20
-56.9102836904
 10
-19.7562777657
 20
-56.7664583034
 10
-19.9207907759
 20
-56.6149600611
 10
-20.0840374993
 20
-56.4557952908
 10
-20.2450895635
 20
-56.2895685083
 10
-20.4042459418
 20
-56.1157761557
 10
-20.5611898676
 20
-55.9349083748
 10
-20.7140752323
 20
-55.7490651304
 10
-20.8624603259
 20
-55.5587199759
 10
-21.0067855081
 20
-55.363397344
 10
-21.1465319097
 20
-55.1637776376
 10
-21.2818404576
 20
-54.9596066947
 10
-21.4125736523
 20
-54.7511399139
 10
-21.5377962615
 20
-54.5398243079
 10
-21.6574212215
 20
-54.3256719625
 10
-21.7715386209
 20
-54.1086747539
 10
-21.8794790377
 20
-53.8902515377
 10
-21.9809731488
 20
-53.6709601229
 10
-22.0762900929
 20
-53.4502480384
 10
-22.1655675916
 20
-53.2278694179
 10
-22.2491835378
 20
-53.0027552249
 10
-22.3267574655
 20
-52.7759788319
 10
-22.3972902848
 20
-52.5505098325
 10
-22.4605123434
 20
-52.3268698987
 10
-22.5166957954
 20
-52.1045481513
 10
-22.5656570159
 20
-51.8849685359
 10
-22.6073826681
 20
-51.6682120818
 10
-22.6418997162
 20
-51.4542143625
 10
-22.6690887939
 20
-51.2441834736
 10
-22.6889203083
 20
-51.03853033
 10
-22.7014546439
 20
-50.8368684845
 10
-22.7067122851
 20
-50.6392122729
  0
LINE
  5
249
100
AcDbEntity
  8
IMPORT_IGES
100
AcDbLine
 62
250
  6
CONTINUOUS
 10
-18.0502201469
 20
54.4245010647
 11
1.8499203192
 21
66.1151184045
  0
LINE
  5
24A
100
AcDbEntity
  8
IMPORT_IGES
100
AcDbLine
 62
7
  6
CONTINUOUS
 10
3.3489866953
 20
66.8255217206
 11
1.9842658242
 21
66.0375489937
  0
LWPOLYLINE
  5
24B
100
AcDbEntity
  8
IMPORT_IGES
100
AcDbPolyline
 62
7
  6
CONTINUOUS
 90
13
 70
0
 10
-11.7552922697
 20
-55.2934290266
 10
-11.4979704014
 20
-55.4204598745
 10
-11.2294724778
 20
-55.5419093983
 10
-10.9498020164
 20
-55.6577792381
 10
-10.6551474545
 20
-55.7696589311
 10
-10.3493314224
 20
-55.8759641066
 10
-10.0438094914
 20
-55.9719359038
 10
-9.7461457163
 20
-56.0551913412
 10
-9.4487900728
 20
-56.1281199728
 10
-9.1405307853
 20
-56.1931235146
 10
-8.8176422493
 20
-56.251008013
 10
-8.4838810944
 20
-56.3009820068
 10
-8.1392651026
 20
-56.3430538806
  0
LWPOLYLINE
  5
24C
100
AcDbEntity
  8
IMPORT_IGES
100
AcDbPolyline
 62
250
  6
CONTINUOUS
 90
13
 70
0
 10
-22.7067120239
 20
-50.6392124293
 10
-22.7496516094
 20
-50.611797604
 10
-22.7894999702
 20
-50.5828096095
 10
-22.8259863679
 20
-50.5524522027
 10
-22.8588037221
 20
-50.5210414048
 10
-22.8878979702
 20
-50.4887347119
 10
-22.9133822688
 20
-50.4554791033
 10
-22.9350880266
 20
-50.4215622012
 10
-22.9529933625
 20
-50.3871430432
 10
-22.9672655748
 20
-50.3518998515
 10
-22.9777822462
 20
-50.3159252718
 10
-22.9843923321
 20
-50.2795260887
 10
-22.9869798997
 20
-50.2435079238
  0
LWPOLYLINE
  5
24D
100
AcDbEntity
  8
IMPORT_IGES
100
AcDbPolyline
 62
7
  6
CONTINUOUS
 90
13
 70
0
 10
-11.7552922697
 20
-55.2934290266
 10
-12.0097048013
 20
-55.1249614085
 10
-12.2733559581
 20
-54.939136318
 10
-12.5462492563
 20
-54.7359553946
 10
-12.8320630472
 20
-54.5126962187
 10
-13.1271300323
 20
-54.2720863695
 10
-13.4204360377
 20
-54.0223028548
 10
-13.7048233173
 20
-53.7694269929
 10
-13.9874637098
 20
-53.5073840669
 10
-14.2788411632
 20
-53.2261187932
 10
-14.5824619246
 20
-52.9222848584
 10
-14.8948506683
 20
-52.5992431122
 10
-15.2160251146
 20
-52.2570019106
  0
LWPOLYLINE
  5
24E
100
AcDbEntity
  8
IMPORT_IGES
100
AcDbPolyline
 62
250
  6
CONTINUOUS
 90
10
 70
0
 10
-10.5568459825
 20
50.0263121048
 10
-10.6058861327
 20
49.995535467
 10
-10.6548532239
 20
49.9608453269
 10
-10.7035048087
 20
49.922366111
 10
-10.7517200178
 20
49.8801293328
 10
-10.799120664
 20
49.8344008858
 10
-10.8451017386
 20
49.7857644534
 10
-10.8893367475
 20
49.7346340005
 10
-10.9317492792
 20
49.6811683693
 10
-10.9721540784
 20
49.6256557811
  0
LWPOLYLINE
  5
24F
100
AcDbEntity
  8
IMPORT_IGES
100
AcDbPolyline
 62
7
  6
CONTINUOUS
 90
8
 70
0
 10
2.4763352839
 20
57.8009706082
 10
2.4522545714
 20
57.7865761205
 10
2.4290528535
 20
57.7717087833
 10
2.4067579401
 20
57.7563864907
 10
2.3853973546
 20
57.7406282975
 10
2.3649958084
 20
57.724452579
 10
2.3455755455
 20
57.7078768512
 10
2.3355297978
 20
57.6986272307
  0
LWPOLYLINE
  5
250
100
AcDbEntity
  8
IMPORT_IGES
100
AcDbPolyline
 62
250
  6
CONTINUOUS
 90
10
 70
0
 10
-10.8307327387
 20
49.5440008387
 10
-10.7903279385
 20
49.5995134303
 10
-10.7479154054
 20
49.6529790647
 10
-10.703680395
 20
49.7041095209
 10
-10.6576993187
 20
49.7527459561
 10
-10.6102986706
 20
49.7984744058
 10
-10.5620834591
 20
49.8407111868
 10
-10.5134318713
 20
49.8791904055
 10
-10.4644647765
 20
49.9138805483
 10
-10.4154246222
 20
49.9446571885
  0
LINE
  5
251
100
AcDbEntity
  8
IMPORT_IGES
100
AcDbLine
 62
250
  6
CONTINUOUS
 10
-2.7991015198
 20
45.6186963109
 11
17.1010389463
 21
57.3093136507
  0
LINE
  5
252
100
AcDbEntity
  8
IMPORT_IGES
100
AcDbLine
 62
7
  6
CONTINUOUS
 10
18.4303996949
 20
58.1177028691
 11
17.0656788239
 21
57.3297301422
  0
LWPOLYLINE
  5
253
100
AcDbEntity
  8
IMPORT_IGES
100
AcDbPolyline
 62
250
  6
CONTINUOUS
 90
13
 70
0
 10
-10.9721540784
 20
49.6256557811
 10
-11.0097567316
 20
49.5693631239
 10
-11.0455176293
 20
49.510947131
 10
-11.0792144662
 20
49.4506450378
 10
-11.1107073981
 20
49.3885485539
 10
-11.139686391
 20
49.3250960136
 10
-11.1657474747
 20
49.2610902349
 10
-11.1887615272
 20
49.1968483177
 10
-11.2086145346
 20
49.1326884969
 10
-11.2250904737
 20
49.069428104
 10
-11.2381556905
 20
49.0075268823
 10
-11.2478737732
 20
48.9470923403
 10
-11.2542778604
 20
48.8883815284
  0
LWPOLYLINE
  5
254
100
AcDbEntity
  8
IMPORT_IGES
100
AcDbPolyline
 62
7
  6
CONTINUOUS
 90
12
 70
0
 10
-12.1825282935
 20
28.8016451766
 10
-12.2307112177
 20
28.7714514909
 10
-12.2921933712
 20
28.724902638
 10
-12.3496026452
 20
28.6718482485
 10
-12.4023670093
 20
28.6128285106
 10
-12.450428823
 20
28.5477942004
 10
-12.4938522958
 20
28.4767904842
 10
-12.5322465458
 20
28.4005001505
 10
-12.5655555962
 20
28.3188689807
 10
-12.5938405945
 20
28.2319480201
 10
-12.6168843668
 20
28.1405791839
 10
-12.6271234749
 20
28.0853219598
  0
LINE
  5
255
100
AcDbEntity
  8
IMPORT_IGES
100
AcDbLine
 62
7
  6
CONTINUOUS
 10
23.2638936489
 20
49.7458457715
 11
21.9337661001
 21
48.9778467953
  0
LINE
  5
256
100
AcDbEntity
  8
IMPORT_IGES
100
AcDbLine
 62
250
  6
CONTINUOUS
 10
1.8608137612
 20
37.5476868559
 11
21.9345329002
 21
48.937456553
  0
LINE
  5
257
100
AcDbEntity
  8
IMPORT_IGES
100
AcDbLine
 62
250
  6
CONTINUOUS
 10
-9.4853553293
 20
-31.6447032739
 11
-14.2949958236
 21
-28.8676771314
  0
LWPOLYLINE
  5
258
100
AcDbEntity
  8
IMPORT_IGES
100
AcDbPolyline
 62
7
  6
CONTINUOUS
 90
37
 70
0
 10
-22.9870856436
 20
-50.2385178937
 10
-22.9828229381
 20
-50.4396738379
 10
-22.9697628039
 20
-50.6758727387
 10
-22.948147284
 20
-50.9152281794
 10
-22.9181324282
 20
-51.1574268769
 10
-22.8798595865
 20
-51.4021538733
 10
-22.8334657974
 20
-51.6490433345
 10
-22.7790717326
 20
-51.8977637044
 10
-22.7167949852
 20
-52.1479465583
 10
-22.6467795703
 20
-52.3991039048
 10
-22.5691348861
 20
-52.6508703881
 10
-22.4839677091
 20
-52.9028596996
 10
-22.3914432037
 20
-53.154512051
 10
-22.2916692246
 20
-53.405436543
 10
-22.1847458207
 20
-53.6552416418
 10
-22.0708514285
 20
-53.9033528412
 10
-21.9500867363
 20
-54.1493775679
 10
-21.8225466121
 20
-54.3929181556
 10
-21.68841981
 20
-54.6333990329
 10
-21.5478453109
 20
-54.8704300454
 10
-21.4011139358
 20
-55.1036200097
 10
-21.2486606621
 20
-55.3324033853
 10
-21.0908513292
 20
-55.5563332712
 10
-20.9279708419
 20
-55.7750675013
 10
-20.7603328675
 20
-55.9882053991
 10
-20.588241836
 20
-56.195345185
 10
-20.4119996085
 20
-56.3960753527
 10
-20.2318991035
 20
-56.5899825233
 10
-20.0482004699
 20
-56.7767409228
 10
-19.86124568
 20
-56.95606831
 10
-19.6714358633
 20
-57.1276441777
 10
-19.4790883574
 20
-57.2912259696
 10
-19.2844763154
 20
-57.446596838
 10
-19.087895693
 20
-57.5935072696
 10
-18.8896031189
 20
-57.7317239396
 10
-18.6898491398
 20
-57.8610005447
 10
-18.5480624521
 20
-57.9467533351
  0
LINE
  5
259
100
AcDbEntity
  8
IMPORT_IGES
100
AcDbLine
 62
250
  6
CONTINUOUS
 10
-22.9236782746
 20
-36.2562902981
 11
-22.9689954554
 21
-33.3779892107
  0
LWPOLYLINE
  5
25A
100
AcDbEntity
  8
IMPORT_IGES
100
AcDbPolyline
 62
250
  6
CONTINUOUS
 90
5
 70
0
 10
-22.9689954554
 20
-33.3779892107
 10
-23.0089944086
 20
-30.5189400093
 10
-23.0265599932
 20
-29.0910634792
 10
-23.042284935
 20
-27.6618156776
 10
-23.0561855621
 20
-26.2324173949
  0
LINE
  5
25B
100
AcDbEntity
  8
IMPORT_IGES
100
AcDbLine
 62
250
  6
CONTINUOUS
 10
-22.9870404206
 20
-50.2426654907
 11
-22.9870847708
 21
-50.2386920852
  0
LWPOLYLINE
  5
25C
100
AcDbEntity
  8
IMPORT_IGES
100
AcDbPolyline
 62
250
  6
CONTINUOUS
 90
6
 70
0
 10
-22.7067122851
 20
-50.6392122729
 10
-22.7216360422
 20
-49.2014928184
 10
-22.738989307
 20
-47.7639600576
 10
-22.7584620979
 20
-46.3264659024
 10
-22.7798802417
 20
-44.8887781301
 10
-22.9236782746
 20
-36.2562902981
  0
LINE
  5
25D
100
AcDbEntity
  8
IMPORT_IGES
100
AcDbLine
 62
250
  6
CONTINUOUS
 10
-23.0561855621
 20
-26.2324173949
 11
-23.0789669464
 21
-23.3740949112
  0
LINE
  5
25E
100
AcDbEntity
  8
IMPORT_IGES
100
AcDbLine
 62
250
  6
CONTINUOUS
 10
-23.0789669464
 20
-23.3740949112
 11
-23.0966769858
 21
-20.516639169
  0
LINE
  5
25F
100
AcDbEntity
  8
IMPORT_IGES
100
AcDbLine
 62
250
  6
CONTINUOUS
 10
-22.9870847708
 20
-50.2386920852
 11
-22.9870856436
 21
-50.2385178937
  0
LINE
  5
260
100
AcDbEntity
  8
IMPORT_IGES
100
AcDbLine
 62
250
  6
CONTINUOUS
 10
-23.0966769858
 20
-20.516639169
 11
-23.160230896
 21
-7.7291609902
  0
LINE
  5
261
100
AcDbEntity
  8
IMPORT_IGES
100
AcDbLine
 62
250
  6
CONTINUOUS
 10
-23.160230896
 20
-7.7291609902
 11
-23.1716064286
 21
-4.894512808
  0
LWPOLYLINE
  5
262
100
AcDbEntity
  8
IMPORT_IGES
100
AcDbPolyline
 62
7
  6
CONTINUOUS
 90
7
 70
0
 10
-23.2559155146
 20
-5.5112541706
 10
-23.2172881666
 20
-18.8177735714
 10
-23.1902723151
 20
-25.2932006472
 10
-23.1459375594
 20
-31.6832350677
 10
-23.0891903616
 20
-37.9887258714
 10
-23.030057275
 20
-44.1876239216
 10
-22.9870847708
 20
-50.2386920852
  0
LWPOLYLINE
  5
263
100
AcDbEntity
  8
IMPORT_IGES
100
AcDbPolyline
 62
250
  6
CONTINUOUS
 90
4
 70
0
 10
-23.1716064286
 20
-4.894512808
 10
-23.1786211284
 20
-2.0589312954
 10
-23.1799755718
 20
-0.6406629992
 10
-23.1796466321
 20
0.773681228
  0
LINE
  5
264
100
AcDbEntity
  8
IMPORT_IGES
100
AcDbLine
 62
250
  6
CONTINUOUS
 10
-23.1796466321
 20
0.773681228
 11
-23.1740809041
 21
3.5854209457
  0
LINE
  5
265
100
AcDbEntity
  8
IMPORT_IGES
100
AcDbLine
 62
250
  6
CONTINUOUS
 10
-23.1740809041
 20
3.5854209457
 11
-23.1633721327
 21
6.3941006373
  0
LINE
  5
266
100
AcDbEntity
  8
IMPORT_IGES
100
AcDbLine
 62
250
  6
CONTINUOUS
 10
-23.1633721327
 20
6.3941006373
 11
-23.1413615683
 21
10.6082279062
  0
LINE
  5
267
100
AcDbEntity
  8
IMPORT_IGES
100
AcDbLine
 62
250
  6
CONTINUOUS
 10
-23.1413615683
 20
10.6082279062
 11
-23.0744234301
 21
23.2027906328
  0
LINE
  5
268
100
AcDbEntity
  8
IMPORT_IGES
100
AcDbLine
 62
250
  6
CONTINUOUS
 10
-23.0744234301
 20
23.2027906328
 11
-23.0580663085
 21
25.9889838909
  0
LINE
  5
269
100
AcDbEntity
  8
IMPORT_IGES
100
AcDbLine
 62
250
  6
CONTINUOUS
 10
-23.0580663085
 20
25.9889838909
 11
-23.039031168
 21
28.7755816427
  0
LINE
  5
26A
100
AcDbEntity
  8
IMPORT_IGES
100
AcDbLine
 62
250
  6
CONTINUOUS
 10
-22.9966814588
 20
51.3376682986
 11
-22.9966808854
 21
51.3377426915
  0
LINE
  5
26B
100
AcDbEntity
  8
IMPORT_IGES
100
AcDbLine
 62
250
  6
CONTINUOUS
 10
-23.039031168
 20
28.7755816427
 11
-23.0161142797
 21
31.5636802486
  0
LWPOLYLINE
  5
26C
100
AcDbEntity
  8
IMPORT_IGES
100
AcDbPolyline
 62
7
  6
CONTINUOUS
 90
9
 70
0
 10
-22.9966814588
 20
51.3376682986
 10
-23.0677757858
 20
43.9379580318
 10
-23.1353712067
 20
36.5993508437
 10
-23.1761726864
 20
29.3457666829
 10
-23.2020639116
 20
22.188247217
 10
-23.2242273732
 20
15.1297601254
 10
-23.2481515613
 20
8.1456793017
 10
-23.2634288017
 20
1.2673068054
 10
-23.2559155146
 20
-5.5112541706
  0
LINE
  5
26D
100
AcDbEntity
  8
IMPORT_IGES
100
AcDbLine
 62
250
  6
CONTINUOUS
 10
-23.0161142797
 20
31.5636802486
 11
-22.9886628738
 21
34.3495208552
  0
LWPOLYLINE
  5
26E
100
AcDbEntity
  8
IMPORT_IGES
100
AcDbPolyline
 62
250
  6
CONTINUOUS
 90
4
 70
0
 10
-22.9886628738
 20
34.3495208552
 10
-22.9560872066
 20
37.1153574908
 10
-22.9375249424
 20
38.4964178335
 10
-22.9170846342
 20
39.8786858137
  0
LINE
  5
26F
100
AcDbEntity
  8
IMPORT_IGES
100
AcDbLine
 62
250
  6
CONTINUOUS
 10
-22.7453227858
 20
49.5589420701
 11
-22.72360431
 21
50.9409345859
  0
LINE
  5
270
100
AcDbEntity
  8
IMPORT_IGES
100
AcDbLine
 62
250
  6
CONTINUOUS
 10
-22.9170846342
 20
39.8786858137
 11
-22.8711803334
 21
42.6437645527
  0
LWPOLYLINE
  5
271
100
AcDbEntity
  8
IMPORT_IGES
100
AcDbPolyline
 62
250
  6
CONTINUOUS
 90
4
 70
0
 10
-22.8711803334
 20
42.6437645527
 10
-22.8199442135
 20
45.409832896
 10
-22.7939975152
 20
46.7930537437
 10
-22.7453227858
 20
49.5589420701
  0
LWPOLYLINE
  5
272
100
AcDbEntity
  8
IMPORT_IGES
100
AcDbPolyline
 62
250
  6
CONTINUOUS
 90
37
 70
0
 10
-22.72360431
 20
50.9409345859
 10
-22.7176095947
 20
51.1337043421
 10
-22.7045523426
 20
51.3218314945
 10
-22.684399692
 20
51.505334938
 10
-22.6571339728
 20
51.6846339663
 10
-22.622719005
 20
51.8593417978
 10
-22.581099678
 20
52.0282656401
 10
-22.5322288369
 20
52.1913625215
 10
-22.4761219215
 20
52.3486974338
 10
-22.412823051
 20
52.4992366835
 10
-22.3420482943
 20
52.6431795762
 10
-22.2640685626
 20
52.780339253
 10
-22.179766371
 20
52.9090986352
 10
-22.0893289044
 20
53.0290551269
 10
-21.9925703404
 20
53.1406139606
 10
-21.8898174495
 20
53.2433665909
 10
-21.7809212338
 20
53.3373879642
 10
-21.6660330351
 20
53.4226038594
 10
-21.5459310589
 20
53.4983804327
 10
-21.4205785688
 20
53.5645940435
 10
-21.2900124671
 20
53.6213681492
 10
-21.1551221992
 20
53.6684379668
 10
-21.0162551831
 20
53.7056926258
 10
-20.8730629958
 20
53.7332421768
 10
-20.7253918561
 20
53.7511526127
 10
-20.5724995363
 20
53.7594365866
 10
-20.4151281496
 20
53.7580813889
 10
-20.2553541809
 20
53.7471125305
 10
-20.0934972958
 20
53.7263889746
 10
-19.9292545719
 20
53.6960425982
 10
-19.7637757668
 20
53.6565038049
 10
-19.5971310178
 20
53.6077753306
 10
-19.4292866174
 20
53.5498364219
 10
-19.2612427276
 20
53.483078764
 10
-19.093352423
 20
53.4076232133
 10
-18.9253213026
 20
53.3233203827
 10
-18.7571839098
 20
53.2301536984
  0
LWPOLYLINE
  5
273
100
AcDbEntity
  8
IMPORT_IGES
100
AcDbPolyline
 62
7
  6
CONTINUOUS
 90
44
 70
0
 10
-9.5917279319
 20
24.5112105823
 10
-9.5433596655
 20
24.5414730989
 10
-9.4810744908
 20
24.5884300722
 10
-9.4228751914
 20
24.6418827806
 10
-9.3693476469
 20
24.7012836598
 10
-9.3205555337
 20
24.7666773176
 10
-9.2764417439
 20
24.8380151027
 10
-9.2374093606
 20
24.9146105484
 10
-9.2035190748
 20
24.9965152431
 10
-9.1747153761
 20
25.0836743888
 10
-9.1512250725
 20
25.1752431447
 10
-9.133095175
 20
25.2712405726
 10
-9.120281876
 20
25.3716456022
 10
-9.1128735642
 20
25.4755545384
 10
-9.1109160719
 20
25.5829973879
 10
-9.1143645986
 20
25.6939434648
 10
-9.1231693122
 20
25.8073994334
 10
-9.1373731072
 20
25.923379211
 10
-9.1569318181
 20
26.0418696213
 10
-9.181662783
 20
26.1618380722
 10
-9.2116028091
 20
26.283304288
 10
-9.2467117147
 20
26.4062505928
 10
-9.2866892589
 20
26.5295895931
 10
-9.3315787192
 20
26.653326473
 10
-9.3813316111
 20
26.7774592449
 10
-9.4355082163
 20
26.9008908994
 10
-9.4941551208
 20
27.0236457501
 10
-9.5572192885
 20
27.1457034677
 10
-9.6241100639
 20
27.2659010171
 10
-9.6949224282
 20
27.38427949
 10
-9.7695542628
 20
27.5008022233
 10
-9.8471181237
 20
27.6141902634
 10
-9.9274275094
 20
27.7241676788
 10
-10.0106617754
 20
27.8310148498
 10
-10.0964818558
 20
27.934287549
 10
-10.185076715
 20
28.0342045499
 10
-10.2762516633
 20
28.1305506514
 10
-10.3690921382
 20
28.2222306766
 10
-10.4635976133
 20
28.3091480569
 10
-10.5597641772
 20
28.3914021349
 10
-10.6566723594
 20
28.4681914953
 10
-10.7540148542
 20
28.5392495104
 10
-10.8520966102
 20
28.6048442829
 10
-10.9509170385
 20
28.6649761814
  0
LINE
  5
274
100
AcDbEntity
  8
IMPORT_IGES
100
AcDbLine
 62
7
  6
CONTINUOUS
 10
-15.2159811588
 20
-52.2570467218
 11
-15.448374795
 21
-48.8393455278
  0
LINE
  5
275
100
AcDbEntity
  8
IMPORT_IGES
100
AcDbLine
 62
7
  6
CONTINUOUS
 10
-15.448374795
 20
-48.8393455278
 11
-15.5878520456
 21
-46.7421285115
  0
LINE
  5
276
100
AcDbEntity
  8
IMPORT_IGES
100
AcDbLine
 62
7
  6
CONTINUOUS
 10
-15.5878520456
 20
-46.7421285115
 11
-15.7236512823
 21
-44.6521237883
  0
LWPOLYLINE
  5
277
100
AcDbEntity
  8
IMPORT_IGES
100
AcDbPolyline
 62
7
  6
CONTINUOUS
 90
3
 70
0
 10
-15.7236512823
 20
-44.6521237883
 10
-15.8536264289
 20
-42.5862580373
 10
-15.9166194194
 20
-41.5503665941
  0
LWPOLYLINE
  5
278
100
AcDbEntity
  8
IMPORT_IGES
100
AcDbPolyline
 62
250
  6
CONTINUOUS
 90
13
 70
0
 10
-18.7546416427
 20
-57.5088673916
 10
-18.7520887005
 20
-57.5593772855
 10
-18.7466445718
 20
-57.6079967491
 10
-18.7383517923
 20
-57.6543951713
 10
-18.727331428
 20
-57.6981563737
 10
-18.7136923445
 20
-57.7391568693
 10
-18.6974448022
 20
-57.7775180337
 10
-18.6787539999
 20
-57.8129545865
 10
-18.6577458839
 20
-57.845370655
 10
-18.6342254161
 20
-57.8750670721
 10
-18.6082122178
 20
-57.901893926
 10
-18.57989626
 20
-57.9255718336
 10
-18.548143765
 20
-57.9467055885
  0
LWPOLYLINE
  5
279
100
AcDbEntity
  8
IMPORT_IGES
100
AcDbPolyline
 62
250
  6
CONTINUOUS
 90
25
 70
0
 10
-18.7571839102
 20
53.2301536821
 10
-18.7544640221
 20
53.2835064306
 10
-18.748867084
 20
53.3382300409
 10
-18.7404364392
 20
53.3939482689
 10
-18.7292935388
 20
53.4501119994
 10
-18.7155468017
 20
53.5064761377
 10
-18.6992062355
 20
53.5631488481
 10
-18.6804370494
 20
53.6196603756
 10
-18.6593645065
 20
53.6757744313
 10
-18.6357938281
 20
53.7320095991
 10
-18.6097449636
 20
53.7881948389
 10
-18.5814075057
 20
53.8438388141
 10
-18.5507228549
 20
53.8989790337
 10
-18.5178444384
 20
53.9532493793
 10
-18.4829342706
 20
54.006324119
 10
-18.4459047044
 20
54.058255716
 10
-18.4069114196
 20
54.1087216244
 10
-18.3662145528
 20
54.1573119161
 10
-18.3238733179
 20
54.2038909962
 10
-18.2801241544
 20
54.2481335486
 10
-18.2352874389
 20
54.2896805934
 10
-18.1895663903
 20
54.3283291181
 10
-18.1432465839
 20
54.3638352703
 10
-18.0966896844
 20
54.3959480262
 10
-18.0502201462
 20
54.4245010652
  0
LINE
  5
27A
100
AcDbEntity
  8
IMPORT_IGES
100
AcDbLine
 62
7
  6
CONTINUOUS
 10
-14.2949820928
 20
-16.0191948602
 11
-9.776498459
 21
-18.6281106805
  0
LWPOLYLINE
  5
27B
100
AcDbEntity
  8
IMPORT_IGES
100
AcDbPolyline
 62
7
  6
CONTINUOUS
 90
10
 70
0
 10
-14.5885002083
 20
-15.3812046392
 10
-14.5569212587
 20
-15.4531872459
 10
-14.5250834942
 20
-15.5248967422
 10
-14.4929869146
 20
-15.5963331279
 10
-14.4606311577
 20
-15.6674971908
 10
-14.4280165858
 20
-15.7383881432
 10
-14.3951442863
 20
-15.8090036217
 10
-14.3620146214
 20
-15.8793428387
 10
-14.3286272289
 20
-15.9494065818
 10
-14.2949821086
 20
-16.0191948511
  0
LWPOLYLINE
  5
27C
100
AcDbEntity
  8
IMPORT_IGES
100
AcDbPolyline
 62
7
  6
CONTINUOUS
 90
10
 70
0
 10
-15.3269338688
 20
-13.3914817164
 10
-15.2541548449
 20
-13.621253765
 10
-15.1791079056
 20
-13.848836738
 10
-15.101793051
 20
-14.0742306355
 10
-15.0222025154
 20
-14.2974564261
 10
-14.9403440645
 20
-14.5184931411
 10
-14.8562409948
 20
-14.7372778744
 10
-14.7699010716
 20
-14.9537896573
 10
-14.6813165295
 20
-15.1680494584
 10
-14.5904873685
 20
-15.3800572778
  0
LWPOLYLINE
  5
27D
100
AcDbEntity
  8
IMPORT_IGES
100
AcDbPolyline
 62
250
  6
CONTINUOUS
 90
11
 70
0
 10
-11.1836443745
 20
-62.0111285455
 10
-11.1770818155
 20
-62.0634745873
 10
-11.1671048337
 20
-62.1134819346
 10
-11.1537509379
 20
-62.1607283861
 10
-11.1371675001
 20
-62.2047122607
 10
-11.1174723601
 20
-62.2452416811
 10
-11.0946509941
 20
-62.2823632671
 10
-11.0688553665
 20
-62.315801286
 10
-11.0403003525
 20
-62.3453106016
 10
-11.0089742397
 20
-62.3709087256
 10
-10.9810542074
 20
-62.3890252939
  0
LINE
  5
27E
100
AcDbEntity
  8
IMPORT_IGES
100
AcDbLine
 62
250
  6
CONTINUOUS
 10
-11.3172452375
 20
-60.5232276591
 11
-11.183411538
 21
-62.0112645494
  0
LINE
  5
27F
100
AcDbEntity
  8
IMPORT_IGES
100
AcDbLine
 62
250
  6
CONTINUOUS
 10
-11.447246582
 20
-59.0324212482
 11
-11.3172452375
 21
-60.5232276591
  0
LINE
  5
280
100
AcDbEntity
  8
IMPORT_IGES
100
AcDbLine
 62
250
  6
CONTINUOUS
 10
-11.5734149467
 20
-57.5388505688
 11
-11.447246582
 21
-59.0324212482
  0
LWPOLYLINE
  5
281
100
AcDbEntity
  8
IMPORT_IGES
100
AcDbPolyline
 62
250
  6
CONTINUOUS
 90
3
 70
0
 10
-11.7554808814
 20
-55.2933014955
 10
-11.6957506862
 20
-56.0425081289
 10
-11.5734149467
 20
-57.5388505688
  0
LWPOLYLINE
  5
282
100
AcDbEntity
  8
IMPORT_IGES
100
AcDbPolyline
 62
7
  6
CONTINUOUS
 90
21
 70
0
 10
-15.9166194194
 20
-41.5503665941
 10
-16.0384435374
 20
-39.4710225796
 10
-16.0977574095
 20
-38.4036649221
 10
-16.1567873327
 20
-37.2987332676
 10
-16.2148762994
 20
-36.1686128782
 10
-16.2704267916
 20
-35.0302646363
 10
-16.3229073742
 20
-33.8904651001
 10
-16.3728494824
 20
-32.7424377114
 10
-16.4202499028
 20
-31.5828136783
 10
-16.4651627327
 20
-30.4046567125
 10
-16.5075338748
 20
-29.2149031024
 10
-16.5471978246
 20
-28.0309929211
 10
-16.5836025472
 20
-26.871553382
 10
-16.6173000775
 20
-25.7179572717
 10
-16.6497810149
 20
-24.5317630239
 10
-16.6815722463
 20
-23.2995184387
 10
-16.7121468848
 20
-22.0346757159
 10
-16.7414148695
 20
-20.7391498885
 10
-16.7693461801
 20
-19.4135793008
 10
-16.7959708368
 20
-18.0573256085
 10
-16.8212888397
 20
-16.6703888115
  0
LWPOLYLINE
  5
283
100
AcDbEntity
  8
IMPORT_IGES
100
AcDbPolyline
 62
7
  6
CONTINUOUS
 90
5
 70
0
 10
-16.8232759999
 20
-16.6692414501
 10
-16.8464851708
 20
-15.2700278555
 10
-16.86670465
 20
-13.9069197089
 10
-16.8839344375
 20
-12.57991701
 10
-16.8981199625
 20
-11.2920451536
  0
LINE
  5
284
100
AcDbEntity
  8
IMPORT_IGES
100
AcDbLine
 62
7
  6
CONTINUOUS
 10
-16.8981199625
 20
-11.2920451536
 11
-16.9116098914
 21
-9.7045902049
  0
LWPOLYLINE
  5
285
100
AcDbEntity
  8
IMPORT_IGES
100
AcDbPolyline
 62
7
  6
CONTINUOUS
 90
10
 70
0
 10
-16.9116098914
 20
-9.7045902049
 10
-16.9176856498
 20
-8.8155416007
 10
-16.9231868631
 20
-7.6189951018
 10
-16.9258620972
 20
-6.4494778672
 10
-16.9260030489
 20
-5.2944295695
 10
-16.9236492851
 20
-4.1580600737
 10
-16.9187612389
 20
-3.0361595149
 10
-16.9115119071
 20
-1.9035379708
 10
-16.9019003271
 20
-0.7519416086
 10
-16.8899274615
 20
0.4103757387
  0
LINE
  5
286
100
AcDbEntity
  8
IMPORT_IGES
100
AcDbLine
 62
7
  6
CONTINUOUS
 10
-14.2949960082
 20
20.3075213517
 11
-14.2949890619
 21
7.4334271802
  0
LINE
  5
287
100
AcDbEntity
  8
IMPORT_IGES
100
AcDbLine
 62
7
  6
CONTINUOUS
 10
-14.2949958236
 20
-28.8676771314
 11
-14.2949820928
 21
-16.0191948602
  0
LWPOLYLINE
  5
288
100
AcDbEntity
  8
IMPORT_IGES
100
AcDbPolyline
 62
7
  6
CONTINUOUS
 90
10
 70
0
 10
-14.2949889741
 20
-28.8676731583
 10
-14.3076463514
 20
-31.4187353266
 10
-14.3427303237
 20
-33.9819401799
 10
-14.4002408909
 20
-36.557287718
 10
-14.4801884835
 20
-39.1450491486
 10
-14.5825626711
 20
-41.744953264
 10
-14.7073321616
 20
-44.3561864414
 10
-14.8544865244
 20
-46.978477473
 10
-15.0240361901
 20
-49.6120975665
 10
-15.2159811588
 20
-52.2570467218
  0
LINE
  5
289
100
AcDbEntity
  8
IMPORT_IGES
100
AcDbLine
 62
7
  6
CONTINUOUS
 10
-16.8899274615
 20
0.4103757387
 11
-16.8626120655
 21
2.5410414955
  0
LWPOLYLINE
  5
28A
100
AcDbEntity
  8
IMPORT_IGES
100
AcDbPolyline
 62
7
  6
CONTINUOUS
 90
3
 70
0
 10
-16.8626120655
 20
2.5410414955
 10
-16.8410137081
 20
3.9645098477
 10
-16.8203578622
 20
5.1715676371
  0
LWPOLYLINE
  5
28B
100
AcDbEntity
  8
IMPORT_IGES
100
AcDbPolyline
 62
7
  6
CONTINUOUS
 90
21
 70
0
 10
-16.818370702
 20
5.1703929
 10
-16.783954492
 20
6.9844597137
 10
-16.7466621194
 20
8.7762532838
 10
-16.7064935842
 20
10.5457736101
 10
-16.6634710473
 20
12.2919439415
 10
-16.6175723478
 20
14.0158410293
 10
-16.5687310036
 20
15.7206951267
 10
-16.5174507611
 20
17.3964380368
 10
-16.4632278738
 20
19.0531379565
 10
-16.40448462
 20
20.7242297301
 10
-16.340897455
 20
22.4201083928
 10
-16.2727899235
 20
24.1303789094
 10
-16.1995549385
 20
25.8572910186
 10
-16.1205964395
 20
27.6133178693
 10
-16.036510487
 20
29.3859863126
 10
-15.9484781748
 20
31.1401266395
 10
-15.8565420953
 20
32.8653458932
 10
-15.7606596561
 20
34.5720370305
 10
-15.6618841735
 20
36.2562092132
 10
-15.5605667529
 20
37.9165321617
 10
-15.4563562888
 20
39.5543361556
  0
LINE
  5
28C
100
AcDbEntity
  8
IMPORT_IGES
100
AcDbLine
 62
7
  6
CONTINUOUS
 10
-15.4563562888
 20
39.5543361556
 11
-15.2279048705
 21
42.9750377089
  0
LINE
  5
28D
100
AcDbEntity
  8
IMPORT_IGES
100
AcDbLine
 62
250
  6
CONTINUOUS
 10
-11.6390164874
 20
43.0519951397
 11
-11.7603522901
 21
41.3998449214
  0
LINE
  5
28E
100
AcDbEntity
  8
IMPORT_IGES
100
AcDbLine
 62
250
  6
CONTINUOUS
 10
-11.5137815681
 20
44.7058347586
 11
-11.6390164874
 21
43.0519951397
  0
LINE
  5
28F
100
AcDbEntity
  8
IMPORT_IGES
100
AcDbLine
 62
250
  6
CONTINUOUS
 10
-11.3846496057
 20
46.3613396354
 11
-11.5137815681
 21
44.7058347586
  0
LWPOLYLINE
  5
290
100
AcDbEntity
  8
IMPORT_IGES
100
AcDbPolyline
 62
250
  6
CONTINUOUS
 90
3
 70
0
 10
-11.1836548868
 20
48.847601594
 10
-11.2516259179
 20
48.0184472107
 10
-11.3846496057
 20
46.3613396354
  0
LWPOLYLINE
  5
291
100
AcDbEntity
  8
IMPORT_IGES
100
AcDbPolyline
 62
250
  6
CONTINUOUS
 90
13
 70
0
 10
-11.1128565042
 20
48.8067266097
 10
-11.1064524172
 20
48.8654374196
 10
-11.0967343351
 20
48.9258719595
 10
-11.0836691189
 20
48.987773179
 10
-11.0671931808
 20
49.0510335696
 10
-11.0473401746
 20
49.115193388
 10
-11.0243261235
 20
49.179435303
 10
-10.9982650414
 20
49.2434410794
 10
-10.9692860504
 20
49.3068936177
 10
-10.9377931204
 20
49.3689900997
 10
-10.9040962854
 20
49.4292921911
 10
-10.8683353898
 20
49.4877081826
 10
-10.8307327387
 20
49.5440008387
  0
LWPOLYLINE
  5
292
100
AcDbEntity
  8
IMPORT_IGES
100
AcDbPolyline
 62
7
  6
CONTINUOUS
 90
22
 70
0
 10
-15.3268738098
 20
3.6189156909
 10
-15.5243918393
 20
2.7141852786
 10
-15.7023707352
 20
1.8159090221
 10
-15.8608104974
 20
0.9240869213
 10
-15.9998054486
 20
0.0380254734
 10
-16.1192612661
 20
-0.8415818188
 10
-16.2188949821
 20
-1.7126544467
 10
-16.2986596055
 20
-2.5751721935
 10
-16.3586021274
 20
-3.4291552759
 10
-16.3985805529
 20
-4.2725838357
 10
-16.4185475527
 20
-5.1054328562
 10
-16.4185504561
 20
-5.927727354
 10
-16.3985892563
 20
-6.7375225206
 10
-16.3586166238
 20
-7.5347887184
 10
-16.2986798882
 20
-8.3195555849
 10
-16.2189210304
 20
-9.0899672247
 10
-16.1192930593
 20
-9.8459895909
 10
-15.9998429661
 20
-10.5876567303
 10
-15.860853705
 20
-11.3132148881
 10
-15.7024195941
 20
-12.0220794792
 10
-15.5244463154
 20
-12.7148350886
 10
-15.3269338688
 20
-13.3914817164
  0
LWPOLYLINE
  5
293
100
AcDbEntity
  8
IMPORT_IGES
100
AcDbPolyline
 62
7
  6
CONTINUOUS
 90
10
 70
0
 10
-14.5900103474
 20
6.4593149636
 10
-14.6808941863
 20
6.1422549887
 10
-14.7695313279
 20
5.8255383044
 10
-14.8559217721
 20
5.5091649108
 10
-14.940073296
 20
5.1931058436
 10
-15.0219781226
 20
4.877390067
 10
-15.1016129204
 20
4.5621044741
 10
-15.1789699123
 20
4.2472780293
 10
-15.2540568755
 20
3.9328817682
 10
-15.3268738098
 20
3.6189156909
  0
LINE
  5
294
100
AcDbEntity
  8
IMPORT_IGES
100
AcDbLine
 62
7
  6
CONTINUOUS
 10
-14.4926609983
 20
6.7830170507
 11
-14.5880231872
 21
6.4581402265
  0
LINE
  5
295
100
AcDbEntity
  8
IMPORT_IGES
100
AcDbLine
 62
7
  6
CONTINUOUS
 10
-14.3949773956
 20
7.1081248402
 11
-14.4926609983
 21
6.7830170507
  0
LINE
  5
296
100
AcDbEntity
  8
IMPORT_IGES
100
AcDbLine
 62
7
  6
CONTINUOUS
 10
-14.2949890619
 20
7.4334271802
 11
-14.3949773956
 21
7.1081248402
  0
LWPOLYLINE
  5
297
100
AcDbEntity
  8
IMPORT_IGES
100
AcDbPolyline
 62
7
  6
CONTINUOUS
 90
10
 70
0
 10
-15.2279048705
 20
42.9750377089
 10
-15.0334963157
 20
40.514496277
 10
-14.8617676653
 20
38.0392404916
 10
-14.7127189194
 20
35.5492703528
 10
-14.586339279
 20
33.0443238882
 10
-14.4826395431
 20
30.5246630701
 10
-14.4016521083
 20
27.9910738157
 10
-14.3433877738
 20
25.4438180973
 10
-14.3078357404
 20
22.8826339427
 10
-14.2949960082
 20
20.3075213517
  0
LINE
  5
298
100
AcDbEntity
  8
IMPORT_IGES
100
AcDbLine
 62
7
  6
CONTINUOUS
 10
-8.4150763069
 20
-52.2758556168
 11
-8.139263273
 21
-56.3430351105
  0
LWPOLYLINE
  5
299
100
AcDbEntity
  8
IMPORT_IGES
100
AcDbPolyline
 62
7
  6
CONTINUOUS
 90
18
 70
0
 10
-9.4941489638
 20
-31.367282573
 10
-9.4614389441
 20
-32.3992149968
 10
-9.4255143302
 20
-33.4568812618
 10
-9.3858470277
 20
-34.555653593
 10
-9.342965131
 20
-35.6801597652
 10
-9.2969683948
 20
-36.8101661579
 10
-9.2480474918
 20
-37.9363386396
 10
-9.1960117493
 20
-39.0680113416
 10
-9.1403889033
 20
-40.2129530373
 10
-9.080488274
 20
-41.3806537394
 10
-9.0170005413
 20
-42.5616234352
 10
-8.9515254811
 20
-43.7351608599
 10
-8.8852386121
 20
-44.8805331141
 10
-8.8169644156
 20
-46.0184730971
 10
-8.7447761115
 20
-47.1904782422
 10
-8.6679041856
 20
-48.4101518164
 10
-8.5871181521
 20
-49.6638905527
 10
-8.4150763069
 20
-52.2758556168
  0
LINE
  5
29A
100
AcDbEntity
  8
IMPORT_IGES
100
AcDbLine
 62
7
  6
CONTINUOUS
 10
-9.5547106996
 20
-29.2970499527
 11
-9.4941489638
 21
-31.367282573
  0
LINE
  5
29B
100
AcDbEntity
  8
IMPORT_IGES
100
AcDbLine
 62
7
  6
CONTINUOUS
 10
-9.6091729198
 20
-27.212177692
 11
-9.5547106996
 21
-29.2970499527
  0
LINE
  5
29C
100
AcDbEntity
  8
IMPORT_IGES
100
AcDbLine
 62
7
  6
CONTINUOUS
 10
-9.6589351169
 20
-25.0877950626
 11
-9.6091729198
 21
-27.212177692
  0
LINE
  5
29D
100
AcDbEntity
  8
IMPORT_IGES
100
AcDbLine
 62
7
  6
CONTINUOUS
 10
-9.7040378578
 20
-22.9353639297
 11
-9.6589351169
 21
-25.0877950626
  0
LINE
  5
29E
100
AcDbEntity
  8
IMPORT_IGES
100
AcDbLine
 62
7
  6
CONTINUOUS
 10
-9.7445727597
 20
-20.756395984
 11
-9.7040378578
 21
-22.9353639297
  0
LWPOLYLINE
  5
29F
100
AcDbEntity
  8
IMPORT_IGES
100
AcDbPolyline
 62
7
  6
CONTINUOUS
 90
19
 70
0
 10
-9.7396675708
 20
1.0832383032
 10
-9.7603052704
 20
-0.1256157759
 10
-9.7787585227
 20
-1.3230621834
 10
-9.7950273278
 20
-2.5091009194
 10
-9.8091656281
 20
-3.6835660617
 10
-9.8211194811
 20
-4.8466235325
 10
-9.8307270601
 20
-5.998771098
 10
-9.8380073823
 20
-7.1317626922
 10
-9.8429414303
 20
-8.2538443811
 10
-9.845310325
 20
-9.3902521294
 10
-9.8451235601
 20
-10.5452273207
 10
-9.8423716419
 20
-11.7145285715
 10
-9.8368072092
 20
-12.9106676959
 10
-9.8283951229
 20
-14.1347996714
 10
-9.8171705221
 20
-15.3857695205
 10
-9.8029914638
 20
-16.6726241243
 10
-9.7858106333
 20
-17.99837911
 10
-9.7656753452
 20
-19.3600188503
 10
-9.7425855995
 20
-20.7575433454
  0
LWPOLYLINE
  5
2A0
100
AcDbEntity
  8
IMPORT_IGES
100
AcDbPolyline
 62
7
  6
CONTINUOUS
 90
16
 70
0
 10
-8.9708306197
 20
25.0826241587
 10
-9.0603762796
 20
23.1925297515
 10
-9.1423660384
 20
21.3387083816
 10
-9.2169211123
 20
19.5564693064
 10
-9.2829047291
 20
17.8756098978
 10
-9.341453661
 20
16.2663327839
 10
-9.3960994415
 20
14.6745551055
 10
-9.447824798
 20
13.0814720844
 10
-9.4956470031
 20
11.5058884988
 10
-9.540149408
 20
9.9501358237
 10
-9.5814138706
 20
8.4132252472
 10
-9.619358533
 20
6.8961455812
 10
-9.6543211725
 20
5.4041947364
 10
-9.6864143816
 20
3.9391386831
 10
-9.7155255677
 20
2.499211451
 10
-9.7416547311
 20
1.0844130402
  0
LWPOLYLINE
  5
2A1
100
AcDbEntity
  8
IMPORT_IGES
100
AcDbPolyline
 62
7
  6
CONTINUOUS
 90
7
 70
0
 10
-8.2726855602
 20
37.0813808589
 10
-8.4084758068
 20
35.000051319
 10
-8.5364929588
 20
32.9513364818
 10
-8.656737016
 20
30.9352363471
 10
-8.7691355808
 20
28.9505314701
 10
-8.8737610508
 20
26.9984412957
 10
-8.9708306197
 20
25.0826241587
  0
LINE
  5
2A2
100
AcDbEntity
  8
IMPORT_IGES
100
AcDbLine
 62
7
  6
CONTINUOUS
 10
-8.1511887905
 20
38.8890305366
 11
-8.2726855602
 21
37.0813808589
  0
LWPOLYLINE
  5
2A3
100
AcDbEntity
  8
IMPORT_IGES
100
AcDbPolyline
 62
250
  6
CONTINUOUS
 90
14
 70
0
 10
-3.491410428
 20
-66.3216659775
 10
-3.4889075135
 20
-66.3721471979
 10
-3.4835624926
 20
-66.4207095645
 10
-3.4754171438
 20
-66.4670229099
 10
-3.4645904316
 20
-66.5106722626
 10
-3.4511893571
 20
-66.551535246
 10
-3.4352240078
 20
-66.5897333923
 10
-3.4168567166
 20
-66.6249830883
 10
-3.3962112751
 20
-66.6571896908
 10
-3.373096012
 20
-66.686652088
 10
-3.3475301941
 20
-66.7132205735
 10
-3.3197005147
 20
-66.7366176568
 10
-3.2895489561
 20
-66.7568135947
 10
-3.2842907954
 20
-66.7598640404
  0
LWPOLYLINE
  5
2A4
100
AcDbEntity
  8
IMPORT_IGES
100
AcDbPolyline
 62
250
  6
CONTINUOUS
 90
25
 70
0
 10
-3.4933936999
 20
44.4170325314
 10
-3.4907291126
 20
44.4704172033
 10
-3.4852385753
 20
44.5252022424
 10
-3.4769646132
 20
44.5810109327
 10
-3.4660264539
 20
44.6372928766
 10
-3.4525305646
 20
44.6938018521
 10
-3.4364867905
 20
44.7506459273
 10
-3.4180573544
 20
44.8073536222
 10
-3.3973652705
 20
44.8636873502
 10
-3.3742192769
 20
44.9201677256
 10
-3.3486389469
 20
44.9766234914
 10
-3.320810452
 20
45.0325613355
 10
-3.2906762349
 20
45.0880193686
 10
-3.2583869582
 20
45.1426298762
 10
-3.2241017256
 20
45.1960654456
 10
-3.1877344479
 20
45.2483794397
 10
-3.1494380067
 20
45.2992476968
 10
-3.1094678798
 20
45.348257599
 10
-3.067882215
 20
45.3952729359
 10
-3.0249132238
 20
45.43996595
 10
-2.9808755648
 20
45.48197436
 10
-2.9359688335
 20
45.5210930613
 10
-2.8904735187
 20
45.5570752643
 10
-2.8447448507
 20
45.5896662305
 10
-2.7991015198
 20
45.6186963109
  0
LINE
  5
2A5
100
AcDbEntity
  8
IMPORT_IGES
100
AcDbLine
 62
250
  6
CONTINUOUS
 10
0.4747359553
 20
-62.5947866756
 11
0.4753382249
 21
-64.0242376981
  0
LINE
  5
2A6
100
AcDbEntity
  8
IMPORT_IGES
100
AcDbLine
 62
250
  6
CONTINUOUS
 10
0.4852268437
 20
-7.260291094
 11
0.4871700086
 21
-12.8912286801
  0
LINE
  5
2A7
100
AcDbEntity
  8
IMPORT_IGES
100
AcDbLine
 62
250
  6
CONTINUOUS
 10
0.4623626103
 20
29.1712730558
 11
0.4852268437
 21
-7.260291094
  0
LINE
  5
2A8
100
AcDbEntity
  8
IMPORT_IGES
100
AcDbLine
 62
250
  6
CONTINUOUS
 10
0.4651023742
 20
-48.3331368749
 11
0.4747359553
 21
-62.5947866756
  0
LINE
  5
2A9
100
AcDbEntity
  8
IMPORT_IGES
100
AcDbLine
 62
250
  6
CONTINUOUS
 10
0.4871700086
 20
-12.8912286801
 11
0.485880908
 21
-18.5540366165
  0
LWPOLYLINE
  5
2AA
100
AcDbEntity
  8
IMPORT_IGES
100
AcDbPolyline
 62
250
  6
CONTINUOUS
 90
3
 70
0
 10
0.485880908
 20
-18.5540366165
 10
0.4715763989
 20
-39.817043016
 10
0.4651023742
 20
-48.3331368749
  0
LINE
  5
2AB
100
AcDbEntity
  8
IMPORT_IGES
100
AcDbLine
 62
250
  6
CONTINUOUS
 10
0.4732156009
 20
37.5473814938
 11
0.4623626103
 21
29.1712730558
  0
LINE
  5
2AC
100
AcDbEntity
  8
IMPORT_IGES
100
AcDbLine
 62
7
  6
CONTINUOUS
 10
-14.2949820997
 20
7.4334311817
 11
-9.6683869154
 21
4.7620931071
  0
LWPOLYLINE
  5
2AD
100
AcDbEntity
  8
IMPORT_IGES
100
AcDbPolyline
 62
250
  6
CONTINUOUS
 90
37
 70
0
 10
0.4732156009
 20
37.5473814938
 10
0.4700217658
 20
37.7451636891
 10
0.4593797183
 20
37.9474441127
 10
0.4412862175
 20
38.1538741237
 10
0.4157361984
 20
38.3641116682
 10
0.382732279
 20
38.577780768
 10
0.3422890823
 20
38.794470804
 10
0.2944011306
 20
39.0137601866
 10
0.2390937395
 20
39.2353070955
 10
0.1764197566
 20
39.4588255188
 10
0.1062861227
 20
39.6843119277
 10
0.0288744569
 20
39.9109211425
 10
-0.0552633587
 20
40.1371070137
 10
-0.1456952172
 20
40.3618928416
 10
-0.2423786454
 20
40.5852987985
 10
-0.3452888489
 20
40.8072749537
 10
-0.4543774877
 20
41.0275563976
 10
-0.5693384557
 20
41.245441853
 10
-0.6897847457
 20
41.460243068
 10
-0.8154457944
 20
41.6715766558
 10
-0.9461129963
 20
41.8790892875
 10
-1.0814474815
 20
42.0821479027
 10
-1.2207350517
 20
42.2798481675
 10
-1.3640194906
 20
42.4725232887
 10
-1.5121567584
 20
42.6612699614
 10
-1.665745248
 20
42.8466163748
 10
-1.8237375909
 20
43.027126615
 10
-1.9845154329
 20
43.2009707208
 10
-2.1473446369
 20
43.3674578163
 10
-2.3122801719
 20
43.5267488356
 10
-2.4788150795
 20
43.6784798402
 10
-2.6465912261
 20
43.8224013878
 10
-2.8153391367
 20
43.9583020862
 10
-2.9846936926
 20
44.0859211281
 10
-3.1543367082
 20
44.2050403731
 10
-3.3239978907
 20
44.3154747526
 10
-3.4933936999
 20
44.4170325314
  0
LINE
  5
2AE
100
AcDbEntity
  8
IMPORT_IGES
100
AcDbLine
 62
250
  6
CONTINUOUS
 10
1.8275030715
 20
-58.0415431051
 11
1.7143002657
 21
-46.1082562535
  0
LWPOLYLINE
  5
2AF
100
AcDbEntity
  8
IMPORT_IGES
100
AcDbPolyline
 62
250
  6
CONTINUOUS
 90
4
 70
0
 10
1.7143002657
 20
-46.1082562535
 10
1.6832824832
 20
-42.1438838821
 10
1.6700704885
 20
-40.1345168442
 10
1.6588503439
 20
-38.0809008904
  0
LWPOLYLINE
  5
2B0
100
AcDbEntity
  8
IMPORT_IGES
100
AcDbPolyline
 62
250
  6
CONTINUOUS
 90
3
 70
0
 10
1.8705978
 20
-64.0159506794
 10
1.8578630979
 20
-62.023544165
 10
1.8275030715
 20
-58.0415431051
  0
LINE
  5
2B1
100
AcDbEntity
  8
IMPORT_IGES
100
AcDbLine
 62
250
  6
CONTINUOUS
 10
1.6588503439
 20
-38.0809008904
 11
1.6409095629
 21
-33.9193618782
  0
LINE
  5
2B2
100
AcDbEntity
  8
IMPORT_IGES
100
AcDbLine
 62
250
  6
CONTINUOUS
 10
1.6409095629
 20
-33.9193618782
 11
1.6030494334
 21
-21.4773137854
  0
LWPOLYLINE
  5
2B3
100
AcDbEntity
  8
IMPORT_IGES
100
AcDbPolyline
 62
250
  6
CONTINUOUS
 90
73
 70
0
 10
1.8608137612
 20
37.5476868559
 10
1.8604836485
 20
37.6658854485
 10
1.8578901917
 20
37.785467974
 10
1.8530243162
 20
37.9063834946
 10
1.8458720228
 20
38.0286319894
 10
1.8364304239
 20
38.1521092262
 10
1.8247174245
 20
38.2766023024
 10
1.810741991
 20
38.4020091326
 10
1.7945056207
 20
38.52831292
 10
1.7760271429
 20
38.655423133
 10
1.7553157866
 20
38.783277201
 10
1.7323813564
 20
38.9118153109
 10
1.7072484922
 20
39.040949341
 10
1.6799225634
 20
39.1706548892
 10
1.6504252747
 20
39.3008316226
 10
1.6188160061
 20
39.4312751474
 10
1.5851500507
 20
39.5618041454
 10
1.5494242307
 20
39.6924714139
 10
1.5116088572
 20
39.8234239855
 10
1.471715458
 20
39.9546206681
 10
1.4297661073
 20
40.0859782078
 10
1.3857318503
 20
40.2175820153
 10
1.3395873288
 20
40.3494776127
 10
1.2913817437
 20
40.481493415
 10
1.2412008813
 20
40.6133890901
 10
1.1890858534
 20
40.7450593254
 10
1.1350461012
 20
40.8764827404
 10
1.0791315211
 20
41.0075456859
 10
1.0213439006
 20
41.1382463626
 10
0.9617388236
 20
41.2684612653
 10
0.9004601161
 20
41.3978974711
 10
0.8375442732
 20
41.5265056529
 10
0.7730370131
 20
41.654219132
 10
0.7071167005
 20
41.780726891
 10
0.639974428
 20
41.9057239167
 10
0.5715295739
 20
42.0294188903
 10
0.5015437967
 20
42.1522681039
 10
0.4300616724
 20
42.2741980416
 10
0.3571057234
 20
42.3951707308
 10
0.2823662521
 20
42.5156735448
 10
0.2056925897
 20
42.6358952037
 10
0.1272624969
 20
42.7555022966
 10
0.047249402
 20
42.8741911261
 10
-0.0343218484
 20
42.9919016196
 10
-0.1174182032
 20
43.1085631063
 10
-0.2018358528
 20
43.2238708585
 10
-0.2874837489
 20
43.3377006462
 10
-0.3743717426
 20
43.4500657989
 10
-0.4624372745
 20
43.5608784761
 10
-0.5516296676
 20
43.6700752563
 10
-0.6419141644
 20
43.777614006
 10
-0.7332502829
 20
43.8834412389
 10
-0.8255941143
 20
43.9875060717
 10
-0.9189013117
 20
44.0897583921
 10
-1.0131300183
 20
44.190147139
 10
-1.1082348865
 20
44.2886240584
 10
-1.2041703467
 20
44.385141695
 10
-1.3008935872
 20
44.4796515652
 10
-1.3983581341
 20
44.5721081828
 10
-1.4965172775
 20
44.662467028
 10
-1.5953273319
 20
44.7506825449
 10
-1.6947904139
 20
44.8367543189
 10
-1.7948098642
 20
44.9205966339
 10
-1.8951911659
 20
45.0020475064
 10
-1.9959119909
 20
45.0810989106
 10
-2.0968950261
 20
45.1577009313
 10
-2.1978588917
 20
45.2316569762
 10
-2.2987072953
 20
45.3029270497
 10
-2.3994350784
 20
45.3715385917
 10
-2.499895925
 20
45.4374219861
 10
-2.600008957
 20
45.5005605576
 10
-2.6997594255
 20
45.5609827486
 10
-2.7991015198
 20
45.6186963109
  0
LWPOLYLINE
  5
2B4
100
AcDbEntity
  8
IMPORT_IGES
100
AcDbPolyline
 62
250
  6
CONTINUOUS
 90
4
 70
0
 10
1.6030494334
 20
-21.4773137854
 10
1.5927455162
 20
-17.3458863161
 10
1.5899968173
 20
-15.2529416595
 10
1.5899021653
 20
-13.1153795453
  0
LINE
  5
2B5
100
AcDbEntity
  8
IMPORT_IGES
100
AcDbLine
 62
7
  6
CONTINUOUS
 10
3.8867806814
 20
57.8031371816
 11
3.8867807992
 21
57.603219068
  0
LWPOLYLINE
  5
2B6
100
AcDbEntity
  8
IMPORT_IGES
100
AcDbPolyline
 62
250
  6
CONTINUOUS
 90
4
 70
0
 10
1.5899021653
 20
-13.1153795453
 10
1.5918771921
 20
-10.9507760549
 10
1.5955713104
 20
-8.7851971489
 10
1.6014151652
 20
-6.6270204247
  0
LINE
  5
2B7
100
AcDbEntity
  8
IMPORT_IGES
100
AcDbLine
 62
250
  6
CONTINUOUS
 10
1.6014151652
 20
-6.6270204247
 11
1.6672866795
 21
12.8644139005
  0
LWPOLYLINE
  5
2B8
100
AcDbEntity
  8
IMPORT_IGES
100
AcDbPolyline
 62
250
  6
CONTINUOUS
 90
6
 70
0
 10
1.6672866795
 20
12.8644139005
 10
1.6760338054
 20
15.1104474617
 10
1.6865359916
 20
17.3574654107
 10
1.6988874357
 20
19.5968990032
 10
1.71299394
 20
21.8373169833
 10
1.7296179754
 20
24.079143215
  0
LINE
  5
2B9
100
AcDbEntity
  8
IMPORT_IGES
100
AcDbLine
 62
250
  6
CONTINUOUS
 10
1.7296179754
 20
24.079143215
 11
1.8608137612
 21
37.5476868559
  0
LINE
  5
2BA
100
AcDbEntity
  8
IMPORT_IGES
100
AcDbLine
 62
250
  6
CONTINUOUS
 10
-14.2949959924
 20
20.3075213425
 11
-9.2993677062
 21
17.42310818
  0
LINE
  5
2BB
100
AcDbEntity
  8
IMPORT_IGES
100
AcDbLine
 62
7
  6
CONTINUOUS
 10
19.0254160311
 20
47.2868321256
 11
19.0254160311
 21
-54.2823568448
  0
LINE
  5
2BC
100
AcDbEntity
  8
IMPORT_IGES
100
AcDbLine
 62
7
  6
CONTINUOUS
 10
19.020746926
 20
47.5327666957
 11
19.0254160311
 21
47.2868321256
  0
LWPOLYLINE
  5
2BD
100
AcDbEntity
  8
IMPORT_IGES
100
AcDbPolyline
 62
7
  6
CONTINUOUS
 90
37
 70
0
 10
21.9345329002
 20
48.937456553
 10
21.9298394941
 20
49.1846758873
 10
21.9160270611
 20
49.4357268128
 10
21.8930956012
 20
49.6906093295
 10
21.8609627022
 20
49.9498214057
 10
21.8197107762
 20
50.2128650732
 10
21.76958706
 20
50.4782464273
 10
21.7105424937
 20
50.7459772985
 10
21.642626137
 20
51.0160458562
 10
21.5662324059
 20
51.2869227045
 10
21.4813142568
 20
51.5586119492
 10
21.3879187331
 20
51.8311094844
 10
21.2865813817
 20
52.102873596
 10
21.177258769
 20
52.373898592
 10
21.0599943286
 20
52.6441901644
 10
20.9354539081
 20
52.912223675
 10
20.8035971399
 20
53.1779868245
 10
20.6644643917
 20
53.4414919123
 10
20.5188426138
 20
53.7012511985
 10
20.36669582
 20
53.9572439135
 10
20.2080599965
 20
54.209490827
 10
20.0438300526
 20
54.4565665079
 10
19.8739751462
 20
54.6984421568
 10
19.6985261194
 20
54.9351465732
 10
19.5184704082
 20
55.1653407254
 10
19.3337813591
 20
55.3889898537
 10
19.1444856256
 20
55.6061287177
 10
18.9516506043
 20
55.8155225647
 10
18.7552563216
 20
56.0171286084
 10
18.555322751
 20
56.2109896349
 10
18.3529772097
 20
56.39599925
 10
18.1482054056
 20
56.5721090577
 10
17.9410216308
 20
56.7393674539
 10
17.7325960782
 20
56.8968132319
 10
17.523318812
 20
57.0441259896
 10
17.3127997681
 20
57.1816261292
 10
17.1010389463
 20
57.3093136506
  0
LINE
  5
2BE
100
AcDbEntity
  8
IMPORT_IGES
100
AcDbLine
 62
7
  6
CONTINUOUS
 10
21.9345329002
 20
48.937456553
 11
21.9345329002
 21
-52.6317324173
  0
LINE
  5
2BF
100
AcDbEntity
  8
IMPORT_IGES
100
AcDbLine
 62
7
  6
CONTINUOUS
 10
23.2638936489
 20
49.7458457715
 11
23.2638936489
 21
-51.7661902795
  0
LINE
  5
2C0
100
AcDbEntity
  8
IMPORT_IGES
100
AcDbLine
 62
7
  6
CONTINUOUS
 10
19.0254160311
 20
-54.2823568448
 11
19.020746926
 21
-54.5228996494
  0
LWPOLYLINE
  5
2C1
100
AcDbEntity
  8
IMPORT_IGES
100
AcDbPolyline
 62
7
  6
CONTINUOUS
 90
18
 70
0
 10
19.020746926
 20
-54.5228996494
 10
19.0070065513
 20
-54.7567738221
 10
18.9841944947
 20
-54.983986383
 10
18.9522289106
 20
-55.2049356953
 10
18.9111917821
 20
-55.4192210557
 10
18.8613290584
 20
-55.6256403544
 10
18.8025919351
 20
-55.8241490023
 10
18.7350292167
 20
-56.0147915883
 10
18.6590332652
 20
-56.19649977
 10
18.574557282
 20
-56.3692235899
 10
18.4816480658
 20
-56.5330130055
 10
18.3808383746
 20
-56.686949546
 10
18.2720850011
 20
-56.8309776541
 10
18.1554311527
 20
-56.9651528872
 10
18.03153921
 20
-57.0887234463
 10
17.9003690156
 20
-57.2016307234
 10
17.761960727
 20
-57.3039333265
 10
17.6170971968
 20
-57.3950552813
  0
LWPOLYLINE
  5
2C2
100
AcDbEntity
  8
IMPORT_IGES
100
AcDbPolyline
 62
7
  6
CONTINUOUS
 90
11
 70
0
 10
-10.3428688694
 20
24.4396979213
 10
-10.2582592953
 20
24.4207490485
 10
-10.167815434
 20
24.4069739731
 10
-10.0792644541
 20
24.4000015459
 10
-9.9935240821
 20
24.3998338252
 10
-9.9107815406
 20
24.4064761728
 10
-9.8308553899
 20
24.4199197036
 10
-9.7541104046
 20
24.4401450776
 10
-9.6803750016
 20
24.4672360844
 10
-9.6098280597
 20
24.501104479
 10
-9.5917279319
 20
24.5112105823
  0
LWPOLYLINE
  5
2C3
100
AcDbEntity
  8
IMPORT_IGES
100
AcDbPolyline
 62
7
  6
CONTINUOUS
 90
16
 70
0
 10
-10.9509170385
 20
28.6649761814
 10
-11.0488125098
 20
28.7184989715
 10
-11.1456301053
 20
28.7655455518
 10
-11.2413704034
 20
28.8061155603
 10
-11.3363349965
 20
28.8403092211
 10
-11.4302246102
 20
28.8680248598
 10
-11.5221390323
 20
28.8889589482
 10
-11.6120799938
 20
28.9030063517
 10
-11.7000501915
 20
28.9102694371
 10
-11.7851510722
 20
28.9107557977
 10
-11.867201913
 20
28.904460272
 10
-11.9463892219
 20
28.8913844115
 10
-12.0223653271
 20
28.8715458599
 10
-12.0953099639
 20
28.8448595564
 10
-12.1650506969
 20
28.811406017
 10
-12.1825282935
 20
28.8016451766
  0
LWPOLYLINE
  5
2C4
100
AcDbEntity
  8
IMPORT_IGES
100
AcDbPolyline
 62
7
  6
CONTINUOUS
 90
10
 70
0
 10
-8.151161673
 20
38.8890147505
 10
-8.3756155093
 20
39.0855778811
 10
-8.597299222
 20
39.2765497749
 10
-8.8162096903
 20
39.4619325629
 10
-9.0323794832
 20
39.6416888063
 10
-9.2457703546
 20
39.815859825
 10
-9.4562733704
 20
39.9845656099
 10
-9.6638508387
 20
40.1478471034
 10
-9.868536183
 20
40.3056662862
 10
-10.0703275253
 20
40.4580244458
  0
LWPOLYLINE
  5
2C5
100
AcDbEntity
  8
IMPORT_IGES
100
AcDbPolyline
 62
7
  6
CONTINUOUS
 90
37
 70
0
 10
23.2638936489
 20
49.7458457715
 10
23.2544890478
 20
49.9940200003
 10
23.2363147565
 20
50.245680326
 10
23.2093707751
 20
50.5008267485
 10
23.1735737568
 20
50.7599273312
 10
23.1290070482
 20
51.0225140108
 10
23.0759206901
 20
51.2871825973
 10
23.0142703195
 20
51.5539429605
 10
22.9441002994
 20
51.8227852306
 10
22.8657937584
 20
52.092275609
 10
22.7793081627
 20
52.3624171756
 10
22.6846860462
 20
52.6332068504
 10
22.58243814
 20
52.903201596
 10
22.4725251793
 20
53.1723957705
 10
22.354986429
 20
53.4407950157
 10
22.2304504142
 20
53.7069732188
 10
22.0988805584
 20
53.9709190043
 10
21.9603134382
 20
54.2326437476
 10
21.8154873084
 20
54.4907554626
 10
21.6643694755
 20
54.7452352798
 10
21.5069926329
 20
54.9961020685
 10
21.3441931162
 20
55.2420204505
 10
21.1759427794
 20
55.4829644462
 10
21.0022697684
 20
55.718960035
 10
20.8240948558
 20
55.9487497774
 10
20.6413935171
 20
56.1723024981
 10
20.4541902768
 20
56.3896493724
 10
20.2634794816
 20
56.5996264867
 10
20.0692425248
 20
56.8021954726
 10
19.8714980131
 20
56.9973946986
 10
19.671296113
 20
57.184175356
 10
19.4686231839
 20
57.3624940966
 10
19.2634928665
 20
57.5323942686
 10
19.05699625
 20
57.6929571082
 10
18.8494970308
 20
57.8438763608
 10
18.6406315124
 20
57.9854582812
 10
18.4303996949
 20
58.1177028691
  0
LWPOLYLINE
  5
2C6
100
AcDbEntity
  8
IMPORT_IGES
100
AcDbPolyline
 62
7
  6
CONTINUOUS
 90
3
 70
0
 10
-13.3910291833
 20
42.3754487128
 10
-13.2119499309
 20
42.2658577952
 10
-12.8522066878
 20
42.0475514153
  0
LWPOLYLINE
  5
2C7
100
AcDbEntity
  8
IMPORT_IGES
100
AcDbPolyline
 62
250
  6
CONTINUOUS
 90
25
 70
0
 10
0.473215329
 20
37.5473816422
 10
0.5207847491
 20
37.5230059175
 10
0.5709778632
 20
37.5003762865
 10
0.6234472891
 20
37.4796441589
 10
0.6776570055
 20
37.460981353
 10
0.7333406934
 20
37.4444187698
 10
0.7905869646
 20
37.429893909
 10
0.8489066009
 20
37.417501979
 10
0.9080325212
 20
37.4072552413
 10
0.9685109808
 20
37.3990590595
 10
1.0301839411
 20
37.3929820619
 10
1.0925313449
 20
37.3891096454
 10
1.1556149311
 20
37.3874725662
 10
1.2190411536
 20
37.3881241915
 10
1.2824470829
 20
37.3910904525
 10
1.3459218336
 20
37.3964191608
 10
1.409108392
 20
37.4041399896
 10
1.4715220415
 20
37.4142380579
 10
1.5330159328
 20
37.4267311264
 10
1.5931904552
 20
37.4415820791
 10
1.6515747589
 20
37.4586996854
 10
1.707891467
 20
37.4780137001
 10
1.7617868251
 20
37.4994047421
 10
1.8128629395
 20
37.5226927768
 10
1.8608137588
 20
37.5476868546
  0
LINE
  5
2C8
100
AcDbEntity
  8
IMPORT_IGES
100
AcDbLine
 62
7
  6
CONTINUOUS
 10
-10.4494354533
 20
40.6652182648
 11
-10.0703293053
 21
40.4581182214
  0
LINE
  5
2C9
100
AcDbEntity
  8
IMPORT_IGES
100
AcDbLine
 62
7
  6
CONTINUOUS
 10
-11.0143049236
 20
40.9781587965
 11
-10.4494354533
 21
40.6652182648
  0
LINE
  5
2CA
100
AcDbEntity
  8
IMPORT_IGES
100
AcDbLine
 62
7
  6
CONTINUOUS
 10
-11.3883424639
 20
41.1883038605
 11
-11.0143049236
 21
40.9781587965
  0
LINE
  5
2CB
100
AcDbEntity
  8
IMPORT_IGES
100
AcDbLine
 62
7
  6
CONTINUOUS
 10
-11.7603382237
 20
41.3996587236
 11
-11.3883424639
 21
41.1883038605
  0
LINE
  5
2CC
100
AcDbEntity
  8
IMPORT_IGES
100
AcDbLine
 62
7
  6
CONTINUOUS
 10
-12.1263899533
 20
41.6144455443
 11
-11.7603382237
 21
41.3996587236
  0
LINE
  5
2CD
100
AcDbEntity
  8
IMPORT_IGES
100
AcDbLine
 62
7
  6
CONTINUOUS
 10
-12.4903475588
 20
41.8304106196
 11
-12.1263899533
 21
41.6144455443
  0
LINE
  5
2CE
100
AcDbEntity
  8
IMPORT_IGES
100
AcDbLine
 62
7
  6
CONTINUOUS
 10
-12.8522066878
 20
42.0475514153
 11
-12.4903475588
 21
41.8304106196
  0
LWPOLYLINE
  5
2CF
100
AcDbEntity
  8
IMPORT_IGES
100
AcDbPolyline
 62
250
  6
CONTINUOUS
 90
14
 70
0
 10
-22.72360431
 20
50.9409345859
 10
-22.7657640029
 20
50.9683673337
 10
-22.8048467455
 20
50.9972844586
 10
-22.84059115
 20
51.0274858802
 10
-22.872701942
 20
51.0586634472
 10
-22.9011276076
 20
51.0906645531
 10
-22.9259765373
 20
51.1235404366
 10
-22.9470869213
 20
51.1570104049
 10
-22.9644398562
 20
51.1909215997
 10
-22.9781956076
 20
51.2255873209
 10
-22.988235705
 20
51.2609165441
 10
-22.994415786
 20
51.2966110385
 10
-22.9966815051
 20
51.3327058291
 10
-22.9966814588
 20
51.3376682986
  0
LWPOLYLINE
  5
2D0
100
AcDbEntity
  8
IMPORT_IGES
100
AcDbPolyline
 62
7
  6
CONTINUOUS
 90
10
 70
0
 10
-13.3910274033
 20
42.3753549372
 10
-13.586332612
 20
42.4522803368
 10
-13.7838665408
 20
42.5267013464
 10
-13.9836310682
 20
42.5986166788
 10
-14.1856758416
 20
42.6681121327
 10
-14.389955483
 20
42.7350989852
 10
-14.5963297163
 20
42.7993139047
 10
-14.8047537175
 20
42.8606677909
 10
-15.0152779884
 20
42.9192458625
 10
-15.2279056504
 20
42.9750459878
  0
LWPOLYLINE
  5
2D1
100
AcDbEntity
  8
IMPORT_IGES
100
AcDbPolyline
 62
250
  6
CONTINUOUS
 90
10
 70
0
 10
-11.1128565042
 20
48.8067266097
 10
-11.1207423943
 20
48.8108746745
 10
-11.1286213026
 20
48.815123328
 10
-11.1364933123
 20
48.8194725317
 10
-11.1443593391
 20
48.8239228703
 10
-11.1522185467
 20
48.8284737224
 10
-11.1600683466
 20
48.8331232607
 10
-11.1679078446
 20
48.8378708906
 10
-11.1757378416
 20
48.8427172499
 10
-11.1835582479
 20
48.8476623801
  0
LINE
  5
2D2
100
AcDbEntity
  8
IMPORT_IGES
100
AcDbLine
 62
250
  6
CONTINUOUS
 10
-2.7991015198
 20
45.6186963109
 11
-7.9526352739
 21
48.5370185742
  0
LINE
  5
2D3
100
AcDbEntity
  8
IMPORT_IGES
100
AcDbLine
 62
250
  6
CONTINUOUS
 10
-7.9526352739
 20
48.5370185742
 11
-9.6032668185
 21
49.4790661826
  0
LWPOLYLINE
  5
2D4
100
AcDbEntity
  8
IMPORT_IGES
100
AcDbPolyline
 62
250
  6
CONTINUOUS
 90
37
 70
0
 10
-18.0502201469
 20
54.4245010648
 10
-18.1481034799
 20
54.4806618327
 10
-18.2464630255
 20
54.5346251594
 10
-18.3452529729
 20
54.5863303857
 10
-18.444459559
 20
54.6357325599
 10
-18.5440009185
 20
54.6827544213
 10
-18.6437277761
 20
54.7272950389
 10
-18.7436347459
 20
54.7693212392
 10
-18.8436257646
 20
54.8087616176
 10
-18.9434171804
 20
54.8454856341
 10
-19.0429324887
 20
54.8794542784
 10
-19.1421485595
 20
54.9106494796
 10
-19.2408661866
 20
54.9390053837
 10
-19.3389895581
 20
54.9644962165
 10
-19.4365199424
 20
54.9871247002
 10
-19.5334064142
 20
55.0068822995
 10
-19.6296022899
 20
55.0237595337
 10
-19.7250610613
 20
55.0377482499
 10
-19.8197325884
 20
55.0488439827
 10
-19.9135708733
 20
55.057041588
 10
-20.006530994
 20
55.0623369216
 10
-20.098565051
 20
55.0647291348
 10
-20.1896285439
 20
55.0642171239
 10
-20.2796777218
 20
55.0608010863
 10
-20.3686665297
 20
55.0544842287
 10
-20.4565603144
 20
55.045268528
 10
-20.5433082965
 20
55.0331589098
 10
-20.6288420311
 20
55.0181675022
 10
-20.7131713953
 20
55.0002923387
 10
-20.7962053143
 20
54.9795525209
 10
-20.8777340138
 20
54.9560139881
 10
-20.9577244064
 20
54.9297092179
 10
-21.0361516815
 20
54.9006696165
 10
-21.1128365536
 20
54.8689952556
 10
-21.1876006527
 20
54.8348139236
 10
-21.2605952569
 20
54.7981112371
 10
-21.3321260345
 20
54.7587551426
  0
LINE
  5
2D5
100
AcDbEntity
  8
IMPORT_IGES
100
AcDbLine
 62
250
  6
CONTINUOUS
 10
-9.6032668185
 20
49.4790661826
 11
-10.5568459785
 21
50.0263121071
  0
LINE
  5
2D6
100
AcDbEntity
  8
IMPORT_IGES
100
AcDbLine
 62
250
  6
CONTINUOUS
 10
-11.1128567425
 20
48.806723727
 11
-3.4933936999
 21
44.4170325313
  0
LINE
  5
2D7
100
AcDbEntity
  8
IMPORT_IGES
100
AcDbLine
 62
250
  6
CONTINUOUS
 10
-18.7571839098
 20
53.2301536984
 11
-11.2542780975
 21
48.8883786449
  0
LINE
  5
2D8
100
AcDbEntity
  8
IMPORT_IGES
100
AcDbLine
 62
250
  6
CONTINUOUS
 10
-10.5568459785
 20
50.0263121071
 11
-12.1759909153
 21
50.9693065268
  0
LINE
  5
2D9
100
AcDbEntity
  8
IMPORT_IGES
100
AcDbLine
 62
250
  6
CONTINUOUS
 10
-12.1759909153
 20
50.9693065268
 11
-13.819982558
 21
51.9328036774
  0
LINE
  5
2DA
100
AcDbEntity
  8
IMPORT_IGES
100
AcDbLine
 62
250
  6
CONTINUOUS
 10
-13.819982558
 20
51.9328036774
 11
-18.0502201469
 21
54.4245010647
  0
LWPOLYLINE
  5
2DB
100
AcDbEntity
  8
IMPORT_IGES
100
AcDbPolyline
 62
250
  6
CONTINUOUS
 90
10
 70
0
 10
-11.2542778604
 20
48.8883815284
 10
-11.2464550959
 20
48.883459604
 10
-11.2386228378
 20
48.8786368254
 10
-11.2307811692
 20
48.8739131543
 10
-11.2229292666
 20
48.8692881778
 10
-11.2150680331
 20
48.8647622719
 10
-11.2072000978
 20
48.8603366013
 10
-11.199326306
 20
48.8560115686
 10
-11.1914457193
 20
48.8517868144
 10
-11.1835582479
 20
48.8476623801
  0
LWPOLYLINE
  5
2DC
100
AcDbEntity
  8
IMPORT_IGES
100
AcDbPolyline
 62
7
  6
CONTINUOUS
 90
46
 70
0
 10
3.8867381798
 20
57.8031614341
 10
3.86144349
 20
57.8171130942
 10
3.8353220058
 20
57.830543976
 10
3.8084059486
 20
57.8434378191
 10
3.780726179
 20
57.855780024
 10
3.7523189839
 20
57.8675545896
 10
3.7232266236
 20
57.878744604
 10
3.693487857
 20
57.8893361691
 10
3.6631372997
 20
57.8993179439
 10
3.6322126178
 20
57.9086784062
 10
3.6007523735
 20
57.9174067426
 10
3.5687952107
 20
57.9254930746
 10
3.5363797597
 20
57.9329284197
 10
3.5035455974
 20
57.9397044422
 10
3.4703333503
 20
57.9458134901
 10
3.4367838551
 20
57.9512487895
 10
3.4029387153
 20
57.9560043511
 10
3.3688387572
 20
57.960075182
 10
3.3345240583
 20
57.963457171
 10
3.300035894
 20
57.9661468571
 10
3.2654166571
 20
57.9681415375
 10
3.2307082911
 20
57.9694394093
 10
3.1959534552
 20
57.9700395053
 10
3.1611935972
 20
57.9699417365
 10
3.1264688383
 20
57.9691467675
 10
3.0918207301
 20
57.9676560343
 10
3.0572913878
 20
57.9654718346
 10
3.0229215749
 20
57.9625972202
 10
2.9887521222
 20
57.9590360404
 10
2.954824604
 20
57.9547930651
 10
2.9211804626
 20
57.9498739557
 10
2.8878612234
 20
57.9442853287
 10
2.8549055292
 20
57.9380342156
 10
2.8223499264
 20
57.9311279678
 10
2.7902330489
 20
57.923575096
 10
2.758593675
 20
57.9153850385
 10
2.7274679136
 20
57.9065674152
 10
2.6968926403
 20
57.8971328704
 10
2.6669048529
 20
57.8870930218
 10
2.6375399372
 20
57.8764599176
 10
2.6088328564
 20
57.8652463953
 10
2.5808181248
 20
57.8534661181
 10
2.5535292768
 20
57.8411333833
 10
2.526998928
 20
57.8282631348
 10
2.50125874
 20
57.8148709421
 10
2.4763394294
 20
57.8009730018
  0
LWPOLYLINE
  5
2DD
100
AcDbEntity
  8
IMPORT_IGES
100
AcDbPolyline
 62
250
  6
CONTINUOUS
 90
37
 70
0
 10
0.5131364251
 20
-67.0283567147
 10
0.5830970064
 20
-66.9860348693
 10
0.6514905953
 20
-66.9411193078
 10
0.7185854403
 20
-66.8934108224
 10
0.7844696599
 20
-66.8427856519
 10
0.848943413
 20
-66.7893343595
 10
0.9118314158
 20
-66.7331615247
 10
0.9730940632
 20
-66.6742729099
 10
1.0326866806
 20
-66.6126809269
 10
1.0904482633
 20
-66.5485336065
 10
1.1463167246
 20
-66.4819001885
 10
1.2002986764
 20
-66.4127731202
 10
1.2523503384
 20
-66.3412050831
 10
1.3024421037
 20
-66.2672375479
 10
1.3505548633
 20
-66.1908995383
 10
1.3966635863
 20
-66.1122288804
 10
1.4407461463
 20
-66.0312634147
 10
1.4827813081
 20
-65.9480421448
 10
1.522746832
 20
-65.8626063089
 10
1.5606235757
 20
-65.7749969959
 10
1.5963932229
 20
-65.6852564435
 10
1.6300362734
 20
-65.593429195
 10
1.6615365521
 20
-65.4995594716
 10
1.6908788418
 20
-65.4036925001
 10
1.7180466152
 20
-65.3058758201
 10
1.7430385403
 20
-65.2061067272
 10
1.7658285899
 20
-65.1044812756
 10
1.7863744951
 20
-65.0012047455
 10
1.8046805649
 20
-64.8963061625
 10
1.8207420684
 20
-64.7898712923
 10
1.8345297899
 20
-64.6822109518
 10
1.8460571806
 20
-64.5734441574
 10
1.8553505498
 20
-64.463591982
 10
1.8624231376
 20
-64.352833597
 10
1.8673010348
 20
-64.2412783153
 10
1.8700160643
 20
-64.1289606838
 10
1.8705978
 20
-64.0159506794
  0
LINE
  5
2DE
100
AcDbEntity
  8
IMPORT_IGES
100
AcDbLine
 62
7
  6
CONTINUOUS
 10
23.2638936489
 20
-51.7661902795
 11
21.9345329002
 21
-52.5337465149
  0
LINE
  5
2DF
100
AcDbEntity
  8
IMPORT_IGES
100
AcDbLine
 62
250
  6
CONTINUOUS
 10
1.8705978
 20
-64.0159506794
 11
21.9345329002
 21
-52.6317324173
  0
LINE
  5
2E0
100
AcDbEntity
  8
IMPORT_IGES
100
AcDbLine
 62
7
  6
CONTINUOUS
 10
-1.244686377
 20
64.5371418496
 11
-1.0340287081
 21
64.4209019963
  0
LINE
  5
2E1
100
AcDbEntity
  8
IMPORT_IGES
100
AcDbLine
 62
7
  6
CONTINUOUS
 10
-1.0340287081
 20
64.4209019963
 11
14.217089919
 21
55.6150972424
  0
LINE
  5
2E2
100
AcDbEntity
  8
IMPORT_IGES
100
AcDbLine
 62
7
  6
CONTINUOUS
 10
14.217089919
 20
55.6150972424
 11
14.427747588
 21
55.4880748999
  0
LWPOLYLINE
  5
2E3
100
AcDbEntity
  8
IMPORT_IGES
100
AcDbPolyline
 62
7
  6
CONTINUOUS
 90
35
 70
0
 10
14.427747588
 20
55.4880748999
 10
14.6371659394
 20
55.3512938616
 10
14.8453512592
 20
55.2047500217
 10
15.052689478
 20
55.0481260447
 10
15.2587925699
 20
54.8817406347
 10
15.462496457
 20
54.7065499042
 10
15.6637869274
 20
54.5225057065
 10
15.8626781932
 20
54.3296561883
 10
16.0580488125
 20
54.1291019022
 10
16.2498789213
 20
53.9208002808
 10
16.4381883837
 20
53.7047938914
 10
16.6219153504
 20
53.4823109889
 10
16.8010333115
 20
53.2533169897
 10
16.9755687768
 20
53.0178464774
 10
17.1445394261
 20
52.777231458
 10
17.3079145824
 20
52.5314432758
 10
17.4657249226
 20
52.2805105865
 10
17.6170801581
 20
52.0258513631
 10
17.7619444937
 20
51.7674449375
 10
17.9003537244
 20
51.5053119779
 10
18.0315249471
 20
51.2409324612
 10
18.1554180071
 20
50.9742941453
 10
18.272073059
 20
50.7054092723
 10
18.380827663
 20
50.4357945462
 10
18.4816386133
 20
50.1654442976
 10
18.5745491157
 20
49.8943641959
 10
18.6590263471
 20
49.6240879524
 10
18.7350235096
 20
49.3546196451
 10
18.8025874012
 20
49.0859551961
 10
18.8613255922
 20
48.8196160832
 10
18.9111892782
 20
48.5556140692
 10
18.9522272637
 20
48.2939373912
 10
18.9841935333
 20
48.0360722389
 10
19.0070060818
 20
47.7825140088
 10
19.0207469144
 20
47.5327673043
  0
LWPOLYLINE
  5
2E4
100
AcDbEntity
  8
IMPORT_IGES
100
AcDbPolyline
 62
7
  6
CONTINUOUS
 90
19
 70
0
 10
21.8156500095
 20
-54.8384253189
 10
21.9602981169
 20
-54.7476569013
 10
22.098866102
 20
-54.6459470488
 10
22.2304369039
 20
-54.5339357473
 10
22.3549739486
 20
-54.4115693805
 10
22.4725138101
 20
-54.2789015646
 10
22.5824279095
 20
-54.1366325487
 10
22.6846769837
 20
-53.9847113449
 10
22.7793002959
 20
-53.823188941
 10
22.8657870561
 20
-53.652918549
 10
22.9440947312
 20
-53.473854126
 10
23.0142658542
 20
-53.2860417149
 10
23.0759172352
 20
-53.0904726553
 10
23.1290045112
 20
-52.8871055821
 10
23.1735720452
 20
-52.6759818606
 10
23.2093697361
 20
-52.458216926
 10
23.2363142168
 20
-52.2341825902
 10
23.2544888544
 20
-52.0035070413
 10
23.2638936489
 20
-51.7661902795
  0
LINE
  5
2E5
100
AcDbEntity
  8
IMPORT_IGES
100
AcDbLine
 62
7
  6
CONTINUOUS
 10
21.8156495334
 20
-54.8384255938
 11
21.1539922265
 21
-55.2204582303
  0
LINE
  5
2E6
100
AcDbEntity
  8
IMPORT_IGES
100
AcDbLine
 62
250
  6
CONTINUOUS
 10
0.489081976
 20
-67.0421045068
 11
0.5131364251
 21
-67.0283567147
  0
LINE
  5
2E7
100
AcDbEntity
  8
IMPORT_IGES
100
AcDbLine
 62
7
  6
CONTINUOUS
 10
17.6170821699
 20
-57.395063852
 11
17.5961589841
 21
-57.406997398
  0
LWPOLYLINE
  5
2E8
100
AcDbEntity
  8
IMPORT_IGES
100
AcDbPolyline
 62
7
  6
CONTINUOUS
 90
20
 70
0
 10
20.4977948413
 20
-55.7727280099
 10
20.518826734
 20
-55.7607354548
 10
20.6644493657
 20
-55.6691377404
 10
20.8035830883
 20
-55.5663007469
 10
20.9354408967
 20
-55.4528033952
 10
21.0599824244
 20
-55.3285867652
 10
21.1772480378
 20
-55.193709777
 10
21.2865718312
 20
-55.0489281116
 10
21.3879103707
 20
-54.8941859154
 10
21.48130709
 20
-54.7295390421
 10
21.5662263849
 20
-54.5559107337
 10
21.6426212104
 20
-54.373250766
 10
21.7105386113
 20
-54.1816093632
 10
21.7695841183
 20
-53.982060441
 10
21.8197086692
 20
-53.7745591719
 10
21.8609613262
 20
-53.5591503833
 10
21.8930948061
 20
-53.3370424737
 10
21.9160266812
 20
-53.1086382426
 10
21.9298393792
 20
-52.8735348905
 10
21.9345329002
 20
-52.6317324173
  0
LINE
  5
2E9
100
AcDbEntity
  8
IMPORT_IGES
100
AcDbLine
 62
7
  6
CONTINUOUS
 10
0.489081976
 20
-67.0421045068
 11
17.5962106905
 21
-57.4069682766
  0
LINE
  5
2EA
100
AcDbEntity
  8
IMPORT_IGES
100
AcDbLine
 62
7
  6
CONTINUOUS
 10
17.5962106905
 20
-57.4069682766
 11
20.4978467829
 21
-55.7726987561
  0
LINE
  5
2EB
100
AcDbEntity
  8
IMPORT_IGES
100
AcDbLine
 62
250
  6
CONTINUOUS
 10
0.4841925912
 20
-67.044850141
 11
0.489081976
 21
-67.0421045068
  0
LINE
  5
2EC
100
AcDbEntity
  8
IMPORT_IGES
100
AcDbLine
 62
250
  6
CONTINUOUS
 10
0.4416299455
 20
-67.0680695068
 11
0.4841925912
 21
-67.044850141
  0
LINE
  5
2ED
100
AcDbEntity
  8
IMPORT_IGES
100
AcDbLine
 62
7
  6
CONTINUOUS
 10
17.4657344477
 20
-57.4749381469
 11
17.5961590198
 21
-57.4069973778
  0
LWPOLYLINE
  5
2EE
100
AcDbEntity
  8
IMPORT_IGES
100
AcDbPolyline
 62
7
  6
CONTINUOUS
 90
19
 70
0
 10
3.3489866953
 20
66.8255217206
 10
3.1387573394
 20
66.9360463678
 10
2.9298941066
 20
67.035656193
 10
2.722396997
 20
67.124351196
 10
2.5159023202
 20
67.2022451296
 10
2.3107737665
 20
67.2692242412
 10
2.108102407
 20
67.3249472726
 10
1.9079018774
 20
67.3693551266
 10
1.710158542
 20
67.4025069004
 10
1.5159225638
 20
67.4242386279
 10
1.3252125446
 20
67.434490456
 10
1.1380098826
 20
67.4333222379
 10
0.9553089352
 20
67.4207495664
 10
0.7771342225
 20
67.3967129463
 10
0.6034612244
 20
67.3612718729
 10
0.4352107375
 20
67.3146204248
 10
0.2724109036
 20
67.2567001195
 10
0.115033581
 20
67.1875694396
 10
-0.0362636194
 20
67.1074973247
  0
LWPOLYLINE
  5
2EF
100
AcDbEntity
  8
IMPORT_IGES
100
AcDbPolyline
 62
7
  6
CONTINUOUS
 90
20
 70
0
 10
1.8499203192
 20
66.1151184045
 10
1.6381621277
 20
66.2319656264
 10
1.427645528
 20
66.3375665626
 10
1.2183705202
 20
66.4319212132
 10
1.0099470474
 20
66.5151596338
 10
0.8027651664
 20
66.5871517688
 10
0.597995048
 20
66.6475074512
 10
0.3956509788
 20
66.6961617847
 10
0.1957186722
 20
66.7331796657
 10
-0.0006745601
 20
66.7583656161
 10
-0.1935087502
 20
66.771653787
 10
-0.382803866
 20
66.7731100272
 10
-0.5674925001
 20
66.7627364055
 10
-0.7475480043
 20
66.7404673839
 10
-0.9229970268
 20
66.7063685003
 10
-1.0928521059
 20
66.6606384364
 10
-1.2570824038
 20
66.603212776
 10
-1.4157187582
 20
66.5341559353
 10
-1.5678662205
 20
66.4538598449
 10
-1.5891167269
 20
66.4414419447
  0
LINE
  5
2F0
100
AcDbEntity
  8
IMPORT_IGES
100
AcDbLine
 62
7
  6
CONTINUOUS
 10
1.8499203192
 20
66.1151184045
 11
17.1010389463
 21
57.3093136507
  0
LINE
  5
2F1
100
AcDbEntity
  8
IMPORT_IGES
100
AcDbLine
 62
7
  6
CONTINUOUS
 10
3.3489866953
 20
66.8255217206
 11
18.4303996949
 21
58.1177028691
  0
ARC
  5
2F2
100
AcDbEntity
  8
IMPORT_IGES
100
AcDbCircle
 62
7
  6
CONTINUOUS
 10
-10.4064542456
 20
26.9385136605
 40
2.5
100
AcDbArc
 50
128.9228511836
 51
293.1194483021
  0
ELLIPSE
  5
2F3
100
AcDbEntity
  8
IMPORT_IGES
100
AcDbEllipse
 62
7
  6
CONTINUOUS
 10
3.1834441447
 20
58.0114936635
 30
0.0
 11
0.9999901407
 21
0.0076245443
 31
0.0
 40
0.5824033911
 41
0.0
 42
6.2831853072
  0
ENDSEC
  0
SECTION
  2
OBJECTS
  0
DICTIONARY
  5
C
100
AcDbDictionary
280
0
281
1
  3
ACAD_GROUP
350
D
  3
ACAD_MLINESTYLE
350
17
  3
ACAD_LAYOUT
350
1A
  3
ACAD_PLOTSETTINGS
350
19
  3
ACAD_PLOTSTYLENAME
350
E
  0
DICTIONARY
  5
D
102
{ACAD_REACTORS
330
C
102
}
100
AcDbDictionary
280
0
281
1
  0
ACDBDICTIONARYWDFLT
  5
E
102
{ACAD_REACTORS
330
C
102
}
100
AcDbDictionary
281
1
  3
Normal
350
F
100
AcDbDictionaryWithDefault
340
F
  0
DICTIONARY
  5
17
102
{ACAD_REACTORS
330
C
102
}
100
AcDbDictionary
280
0
281
1
  3
Standard
350
18
  0
DICTIONARY
  5
19
102
{ACAD_REACTORS
330
C
102
}
100
AcDbDictionary
281
1
  0
DICTIONARY
  5
1A
102
{ACAD_REACTORS
330
C
102
}
100
AcDbDictionary
281
1
  3
Model
350
2F4
  3
Layout1
350
2F5
  0
ACDBPLACEHOLDER
  5
F
102
{ACAD_REACTORS
330
E
102
}
  0
MLINESTYLE
  5
18
102
{ACAD_REACTORS
330
17
102
}
100
AcDbMlineStyle
  2
STANDARD
 70
0
  3

 62
256
 51
90.0
 52
90.0
 71
2
 49
0.5
 62
256
  6
BYLAYER
 49
-0.5
 62
256
  6
BYLAYER
  0
LAYOUT
  5
2F4
102
{ACAD_REACTORS
330
1A
102
}
100
AcDbPlotSettings
  1

  2
none_device
  4
ISO_A4_(297.00_x_210.00_MM)
  6

 40
0.0
 41
0.0
 42
0.0
 43
0.0
 44
297.0
 45
210.0
 46
0.0
 47
0.0
 48
0.0
 49
0.0
140
0.0
141
0.0
142
1.0
143
1.0
 70
1024
 72
1
 73
0
 74
0
  7

 75
0
147
1.0
148
0.0
149
0.0
100
AcDbLayout
  1
Model
 70
0
 71
0
 10
0.0
 20
0.0
 11
297.0
 21
210.0
 12
0.0
 22
0.0
 32
0.0
 14
0.0
 24
0.0
 34
0.0
 15
0.0
 25
0.0
 35
0.0
146
0.0
 13
0.0
 23
0.0
 33
0.0
 16
1.0
 26
0.0
 36
0.0
 17
0.0
 27
1.0
 37
0.0
 76
0
330
227
345
0
346
0
  0
LAYOUT
  5
2F5
102
{ACAD_REACTORS
330
1A
102
}
100
AcDbPlotSettings
  1

  2
none_device
  4
ISO_A4_(297.00_x_210.00_MM)
  6

 40
0.0
 41
0.0
 42
0.0
 43
0.0
 44
297.0
 45
210.0
 46
0.0
 47
0.0
 48
0.0
 49
0.0
140
0.0
141
0.0
142
1.0
143
1.0
 70
0
 72
1
 73
0
 74
0
  7

 75
0
147
1.0
148
0.0
149
0.0
100
AcDbLayout
  1
Layout1
 70
0
 71
1
 10
0.0
 20
0.0
 11
297.0
 21
210.0
 12
0.0
 22
0.0
 32
0.0
 14
0.0
 24
0.0
 34
0.0
 15
0.0
 25
0.0
 35
0.0
146
0.0
 13
0.0
 23
0.0
 33
0.0
 16
1.0
 26
0.0
 36
0.0
 17
0.0
 27
1.0
 37
0.0
 76
0
330
228
345
0
346
0
  0
ENDSEC
  0
EOF
