  0
SECTION
  2
HEADER
  9
$ACADVER
  1
AC1024
  9
$DWGCODEPAGE
  3
ANSI_1252
  9
$EXTMAX
 10
297.0
 20
210.0
 30
0.0
  9
$EXTMIN
 10
0.0
 20
0.0
 30
0.0
  9
$LIMMIN
 10
0.0
 20
0.0
  9
$LIMMAX
 10
297.0
 20
210.0
  9
$VIEWCTR
 10
148.5
 20
105.0
  9
$VIEWSIZE
 40
210.0
  9
$CLAYER
  8
0
  9
$LTSCALE
 40
16.335
  9
$CELTYPE
  6
BYLAYER
  9
$DIMSCALE
 40
1.0
  9
$DIMASZ
 40
3.0
  9
$DIMEXO
 40
0.5
  9
$DIMDLI
 40
11.286
  9
$DIMEXE
 40
1.5
  9
$DIMCEN
 40
2.673
  9
$DIMLFAC
 40
1.0
  9
$DIMBLK
  1
_FILLED
  9
$DIMALT
 70
0
  9
$DIMALTF
 40
0.0393700787
  9
$DIMTXT
 40
3.0
  9
$DIMTOL
 70
1
  9
$DIMLIM
 70
0
  9
$DIMTFAC
 40
1.0
  9
$DIMTP
 40
0.01
  9
$DIMTM
 40
0.01
  9
$DIMGAP
 40
0.625
  9
$DIMDSEP
 70
44
  9
$AUNITS
 70
0
  9
$PDMODE
 70
3
  9
$PDSIZE
 40
3.0
  9
$HANDSEED
  5
433
  9
$TILEMODE
 70
1
  9
$MEASUREMENT
 70
1
  9
$INSUNITS
 70
4
  0
ENDSEC
  0
SECTION
  2
CLASSES
  0
CLASS
  1
ACDBDICTIONARYWDFLT
  2
AcDbDictionaryWithDefault
  3
AutoCAD 2000
 90
0
 91
1
280
0
281
0
  0
CLASS
  1
ACDBPLACEHOLDER
  2
AcDbPlaceHolder
  3
AutoCAD 2000
 90
0
 91
1
280
0
281
0
  0
CLASS
  1
LAYOUT
  2
AcDbLayout
  3
AutoCAD 2000
 90
0
 91
0
280
0
281
0
  0
ENDSEC
  0
SECTION
  2
TABLES
  0
TABLE
  2
VPORT
  5
8
100
AcDbSymbolTable
 70
2
  0
VPORT
  5
1F4
100
AcDbSymbolTableRecord
100
AcDbViewportTableRecord
  2
*ACTIVE
 70
0
 10
0.0
 20
0.0
 11
1.0
 21
1.0
 12
148.5
 22
105.0
 13
0.0
 23
0.0
 14
1.0
 24
1.0
 15
0.0
 25
0.0
 16
0.0
 26
0.0
 36
1.0
 17
0.0
 27
0.0
 37
0.0
 40
210.0
 41
1.4142857143
 42
50.0
 43
0.0
 44
0.0
 50
0.0
 51
0.0
 71
0
 72
100
 73
1
 74
1
 75
0
 76
0
 77
0
 78
0
  0
ENDTAB
  0
TABLE
  2
LTYPE
  5
5
100
AcDbSymbolTable
 70
6
  0
LTYPE
  5
14
100
AcDbSymbolTableRecord
100
AcDbLinetypeTableRecord
  2
BYBLOCK
 70
0
  3

 72
65
 73
0
 40
0.0
  0
LTYPE
  5
15
100
AcDbSymbolTableRecord
100
AcDbLinetypeTableRecord
  2
BYLAYER
 70
0
  3

 72
65
 73
0
 40
0.0
  0
LTYPE
  5
16
100
AcDbSymbolTableRecord
100
AcDbLinetypeTableRecord
  2
CONTINUOUS
 70
64
  3
Solid line
 72
65
 73
0
 40
0.0
  0
LTYPE
  5
1F5
100
AcDbSymbolTableRecord
100
AcDbLinetypeTableRecord
  2
CENTER
 70
64
  3
____ _ ____ _ ____ _ ____ _ ____ _ ____ _ ____
 72
65
 73
4
 40
0.6
 49
0.375
 74
0
 49
-0.075
 74
0
 49
0.075
 74
0
 49
-0.075
 74
0
  0
LTYPE
  5
1F6
100
AcDbSymbolTableRecord
100
AcDbLinetypeTableRecord
  2
HIDDEN
 70
64
  3
- - - - - - - - - - - - - - - - - - - -
 72
65
 73
2
 40
0.2
 49
0.1
 74
0
 49
-0.1
 74
0
  0
LTYPE
  5
1F7
100
AcDbSymbolTableRecord
100
AcDbLinetypeTableRecord
  2
PHANTOM
 70
64
  3
_____ _ _ _____ _ _ _____ _ _ _____
 72
65
 73
6
 40
0.8
 49
0.45
 74
0
 49
-0.05
 74
0
 49
0.1
 74
0
 49
-0.05
 74
0
 49
0.1
 74
0
 49
-0.05
 74
0
  0
LTYPE
  5
1F8
100
AcDbSymbolTableRecord
100
AcDbLinetypeTableRecord
  2
DOT
 70
64
  3
. . . . . . . . . . . . . . . . . . . .
 72
65
 73
2
 40
0.2
 49
0.1
 74
0
 49
-0.1
 74
0
  0
LTYPE
  5
1F9
100
AcDbSymbolTableRecord
100
AcDbLinetypeTableRecord
  2
DASHED
 70
64
  3
- - - - - - - - - - - - - - - - - - - -
 72
65
 73
2
 40
0.2
 49
0.1
 74
0
 49
-0.1
 74
0
  0
ENDTAB
  0
TABLE
  2
LAYER
  5
2
100
AcDbSymbolTable
 70
36
  0
LAYER
  5
10
100
AcDbSymbolTableRecord
100
AcDbLayerTableRecord
  2
0
 70
0
 62
7
  6
CONTINUOUS
370
-3
390
F
  0
LAYER
  5
1FA
100
AcDbSymbolTableRecord
100
AcDbLayerTableRecord
  2
DEFAULT_1
 70
0
 62
7
  6
CENTER
370
-3
390
F
  0
LAYER
  5
1FB
100
AcDbSymbolTableRecord
100
AcDbLayerTableRecord
  2
DEFAULT_2
 70
0
 62
7
  6
HIDDEN
370
-3
390
F
  0
LAYER
  5
1FC
100
AcDbSymbolTableRecord
100
AcDbLayerTableRecord
  2
DEFAULT_3
 70
0
 62
7
  6
PHANTOM
370
-3
390
F
  0
LAYER
  5
1FD
100
AcDbSymbolTableRecord
100
AcDbLayerTableRecord
  2
0402_C_REF_70000
 70
0
 62
7
  6
CONTINUOUS
370
-3
390
F
  0
LAYER
  5
1FE
100
AcDbSymbolTableRecord
100
AcDbLayerTableRecord
  2
0402_C_REF_70000_1
 70
0
 62
7
  6
CONTINUOUS
370
-3
390
F
  0
LAYER
  5
1FF
100
AcDbSymbolTableRecord
100
AcDbLayerTableRecord
  2
0402_C_REF_70000_10
 70
0
 62
7
  6
CONTINUOUS
370
-3
390
F
  0
LAYER
  5
200
100
AcDbSymbolTableRecord
100
AcDbLayerTableRecord
  2
0402_C_REF_70000_11
 70
0
 62
7
  6
CONTINUOUS
370
-3
390
F
  0
LAYER
  5
201
100
AcDbSymbolTableRecord
100
AcDbLayerTableRecord
  2
0402_C_REF_70000_12
 70
0
 62
7
  6
CONTINUOUS
370
-3
390
F
  0
LAYER
  5
202
100
AcDbSymbolTableRecord
100
AcDbLayerTableRecord
  2
0402_C_REF_70000_13
 70
0
 62
7
  6
CONTINUOUS
370
-3
390
F
  0
LAYER
  5
203
100
AcDbSymbolTableRecord
100
AcDbLayerTableRecord
  2
0402_C_REF_70000_14
 70
0
 62
7
  6
CONTINUOUS
370
-3
390
F
  0
LAYER
  5
204
100
AcDbSymbolTableRecord
100
AcDbLayerTableRecord
  2
0402_C_REF_70000_15
 70
0
 62
7
  6
CONTINUOUS
370
-3
390
F
  0
LAYER
  5
205
100
AcDbSymbolTableRecord
100
AcDbLayerTableRecord
  2
0402_C_REF_70000_16
 70
0
 62
7
  6
CONTINUOUS
370
-3
390
F
  0
LAYER
  5
206
100
AcDbSymbolTableRecord
100
AcDbLayerTableRecord
  2
0402_C_REF_70000_17
 70
0
 62
7
  6
CONTINUOUS
370
-3
390
F
  0
LAYER
  5
207
100
AcDbSymbolTableRecord
100
AcDbLayerTableRecord
  2
0402_C_REF_70000_18
 70
0
 62
7
  6
CONTINUOUS
370
-3
390
F
  0
LAYER
  5
208
100
AcDbSymbolTableRecord
100
AcDbLayerTableRecord
  2
0402_C_REF_70000_19
 70
0
 62
7
  6
CONTINUOUS
370
-3
390
F
  0
LAYER
  5
209
100
AcDbSymbolTableRecord
100
AcDbLayerTableRecord
  2
0402_C_REF_70000_2
 70
0
 62
7
  6
CONTINUOUS
370
-3
390
F
  0
LAYER
  5
20A
100
AcDbSymbolTableRecord
100
AcDbLayerTableRecord
  2
0402_C_REF_70000_20
 70
0
 62
7
  6
CONTINUOUS
370
-3
390
F
  0
LAYER
  5
20B
100
AcDbSymbolTableRecord
100
AcDbLayerTableRecord
  2
0402_C_REF_70000_21
 70
0
 62
7
  6
CONTINUOUS
370
-3
390
F
  0
LAYER
  5
20C
100
AcDbSymbolTableRecord
100
AcDbLayerTableRecord
  2
0402_C_REF_70000_22
 70
0
 62
7
  6
CONTINUOUS
370
-3
390
F
  0
LAYER
  5
20D
100
AcDbSymbolTableRecord
100
AcDbLayerTableRecord
  2
0402_C_REF_70000_23
 70
0
 62
7
  6
CONTINUOUS
370
-3
390
F
  0
LAYER
  5
20E
100
AcDbSymbolTableRecord
100
AcDbLayerTableRecord
  2
0402_C_REF_70000_24
 70
0
 62
7
  6
CONTINUOUS
370
-3
390
F
  0
LAYER
  5
20F
100
AcDbSymbolTableRecord
100
AcDbLayerTableRecord
  2
0402_C_REF_70000_25
 70
0
 62
7
  6
CONTINUOUS
370
-3
390
F
  0
LAYER
  5
210
100
AcDbSymbolTableRecord
100
AcDbLayerTableRecord
  2
0402_C_REF_70000_26
 70
0
 62
7
  6
CONTINUOUS
370
-3
390
F
  0
LAYER
  5
211
100
AcDbSymbolTableRecord
100
AcDbLayerTableRecord
  2
0402_C_REF_70000_27
 70
0
 62
7
  6
CONTINUOUS
370
-3
390
F
  0
LAYER
  5
212
100
AcDbSymbolTableRecord
100
AcDbLayerTableRecord
  2
0402_C_REF_70000_28
 70
0
 62
7
  6
CONTINUOUS
370
-3
390
F
  0
LAYER
  5
213
100
AcDbSymbolTableRecord
100
AcDbLayerTableRecord
  2
0402_C_REF_70000_29
 70
0
 62
7
  6
CONTINUOUS
370
-3
390
F
  0
LAYER
  5
214
100
AcDbSymbolTableRecord
100
AcDbLayerTableRecord
  2
0402_C_REF_70000_3
 70
0
 62
7
  6
CONTINUOUS
370
-3
390
F
  0
LAYER
  5
215
100
AcDbSymbolTableRecord
100
AcDbLayerTableRecord
  2
0402_C_REF_70000_30
 70
0
 62
7
  6
CONTINUOUS
370
-3
390
F
  0
LAYER
  5
216
100
AcDbSymbolTableRecord
100
AcDbLayerTableRecord
  2
0402_C_REF_70000_4
 70
0
 62
7
  6
CONTINUOUS
370
-3
390
F
  0
LAYER
  5
217
100
AcDbSymbolTableRecord
100
AcDbLayerTableRecord
  2
0402_C_REF_70000_5
 70
0
 62
7
  6
CONTINUOUS
370
-3
390
F
  0
LAYER
  5
218
100
AcDbSymbolTableRecord
100
AcDbLayerTableRecord
  2
0402_C_REF_70000_6
 70
0
 62
7
  6
CONTINUOUS
370
-3
390
F
  0
LAYER
  5
219
100
AcDbSymbolTableRecord
100
AcDbLayerTableRecord
  2
0402_C_REF_70000_7
 70
0
 62
7
  6
CONTINUOUS
370
-3
390
F
  0
LAYER
  5
21A
100
AcDbSymbolTableRecord
100
AcDbLayerTableRecord
  2
0402_C_REF_70000_8
 70
0
 62
7
  6
CONTINUOUS
370
-3
390
F
  0
LAYER
  5
21B
100
AcDbSymbolTableRecord
100
AcDbLayerTableRecord
  2
0402_C_REF_70000_9
 70
0
 62
7
  6
CONTINUOUS
370
-3
390
F
  0
LAYER
  5
21C
100
AcDbSymbolTableRecord
100
AcDbLayerTableRecord
  2
0402_L_REF_55000
 70
0
 62
7
  6
CONTINUOUS
370
-3
390
F
  0
LAYER
  5
21D
100
AcDbSymbolTableRecord
100
AcDbLayerTableRecord
  2
0402_R_REF_30000
 70
0
 62
7
  6
CONTINUOUS
370
-3
390
F
  0
LAYER
  5
21E
100
AcDbSymbolTableRecord
100
AcDbLayerTableRecord
  2
0402_R_REF_30000_1
 70
0
 62
7
  6
CONTINUOUS
370
-3
390
F
  0
LAYER
  5
21F
100
AcDbSymbolTableRecord
100
AcDbLayerTableRecord
  2
0402_R_REF_30000_2
 70
0
 62
7
  6
CONTINUOUS
370
-3
390
F
  0
LAYER
  5
220
100
AcDbSymbolTableRecord
100
AcDbLayerTableRecord
  2
0402_R_REF_30000_3
 70
0
 62
7
  6
CONTINUOUS
370
-3
390
F
  0
LAYER
  5
221
100
AcDbSymbolTableRecord
100
AcDbLayerTableRecord
  2
0402_R_REF_30000_4
 70
0
 62
7
  6
CONTINUOUS
370
-3
390
F
  0
LAYER
  5
222
100
AcDbSymbolTableRecord
100
AcDbLayerTableRecord
  2
0402_R_REF_30000_5
 70
0
 62
7
  6
CONTINUOUS
370
-3
390
F
  0
LAYER
  5
223
100
AcDbSymbolTableRecord
100
AcDbLayerTableRecord
  2
0402_R_REF_30000_6
 70
0
 62
7
  6
CONTINUOUS
370
-3
390
F
  0
LAYER
  5
224
100
AcDbSymbolTableRecord
100
AcDbLayerTableRecord
  2
0402_R_REF_30000_7
 70
0
 62
7
  6
CONTINUOUS
370
-3
390
F
  0
LAYER
  5
225
100
AcDbSymbolTableRecord
100
AcDbLayerTableRecord
  2
0603_C_REF_90000
 70
0
 62
7
  6
CONTINUOUS
370
-3
390
F
  0
LAYER
  5
226
100
AcDbSymbolTableRecord
100
AcDbLayerTableRecord
  2
0603_C_REF_90000_1
 70
0
 62
7
  6
CONTINUOUS
370
-3
390
F
  0
LAYER
  5
227
100
AcDbSymbolTableRecord
100
AcDbLayerTableRecord
  2
0603_C_REF_90000_2
 70
0
 62
7
  6
CONTINUOUS
370
-3
390
F
  0
LAYER
  5
228
100
AcDbSymbolTableRecord
100
AcDbLayerTableRecord
  2
0603_C_REF_90000_3
 70
0
 62
7
  6
CONTINUOUS
370
-3
390
F
  0
LAYER
  5
229
100
AcDbSymbolTableRecord
100
AcDbLayerTableRecord
  2
0603_C_REF_90000_4
 70
0
 62
7
  6
CONTINUOUS
370
-3
390
F
  0
LAYER
  5
22A
100
AcDbSymbolTableRecord
100
AcDbLayerTableRecord
  2
0603_R_REF_55000
 70
0
 62
7
  6
CONTINUOUS
370
-3
390
F
  0
LAYER
  5
22B
100
AcDbSymbolTableRecord
100
AcDbLayerTableRecord
  2
0603_R_REF_55000_1
 70
0
 62
7
  6
CONTINUOUS
370
-3
390
F
  0
LAYER
  5
22C
100
AcDbSymbolTableRecord
100
AcDbLayerTableRecord
  2
0603_R_REF_55000_2
 70
0
 62
7
  6
CONTINUOUS
370
-3
390
F
  0
LAYER
  5
22D
100
AcDbSymbolTableRecord
100
AcDbLayerTableRecord
  2
0603_R_REF_55000_3
 70
0
 62
7
  6
CONTINUOUS
370
-3
390
F
  0
LAYER
  5
22E
100
AcDbSymbolTableRecord
100
AcDbLayerTableRecord
  2
0603_R_REF_55000_4
 70
0
 62
7
  6
CONTINUOUS
370
-3
390
F
  0
LAYER
  5
22F
100
AcDbSymbolTableRecord
100
AcDbLayerTableRecord
  2
0603_R_REF_55000_5
 70
0
 62
7
  6
CONTINUOUS
370
-3
390
F
  0
LAYER
  5
230
100
AcDbSymbolTableRecord
100
AcDbLayerTableRecord
  2
0603_R_REF_55000_6
 70
0
 62
7
  6
CONTINUOUS
370
-3
390
F
  0
LAYER
  5
231
100
AcDbSymbolTableRecord
100
AcDbLayerTableRecord
  2
06___PRT_ALL_SURFS_1
 70
0
 62
7
  6
CONTINUOUS
370
-3
390
F
  0
LAYER
  5
232
100
AcDbSymbolTableRecord
100
AcDbLayerTableRecord
  2
06___PRT_ALL_SURFS_13
 70
0
 62
7
  6
CONTINUOUS
370
-3
390
F
  0
LAYER
  5
233
100
AcDbSymbolTableRecord
100
AcDbLayerTableRecord
  2
06___PRT_ALL_SURFS_2
 70
0
 62
7
  6
CONTINUOUS
370
-3
390
F
  0
LAYER
  5
234
100
AcDbSymbolTableRecord
100
AcDbLayerTableRecord
  2
06___PRT_ALL_SURFS_21
 70
0
 62
7
  6
CONTINUOUS
370
-3
390
F
  0
LAYER
  5
235
100
AcDbSymbolTableRecord
100
AcDbLayerTableRecord
  2
06___PRT_ALL_SURFS_5
 70
0
 62
7
  6
CONTINUOUS
370
-3
390
F
  0
LAYER
  5
236
100
AcDbSymbolTableRecord
100
AcDbLayerTableRecord
  2
06___PRT_ALL_SURFS_9
 70
0
 62
7
  6
CONTINUOUS
370
-3
390
F
  0
LAYER
  5
237
100
AcDbSymbolTableRecord
100
AcDbLayerTableRecord
  2
0805_L_REF_145000
 70
0
 62
7
  6
CONTINUOUS
370
-3
390
F
  0
LAYER
  5
238
100
AcDbSymbolTableRecord
100
AcDbLayerTableRecord
  2
43000982A0
 70
0
 62
7
  6
CONTINUOUS
370
-3
390
F
  0
LAYER
  5
239
100
AcDbSymbolTableRecord
100
AcDbLayerTableRecord
  2
43000986A0
 70
0
 62
7
  6
CONTINUOUS
370
-3
390
F
  0
LAYER
  5
23A
100
AcDbSymbolTableRecord
100
AcDbLayerTableRecord
  2
ASSI
 70
0
 62
7
  6
CONTINUOUS
370
-3
390
F
  0
LAYER
  5
23B
100
AcDbSymbolTableRecord
100
AcDbLayerTableRecord
  2
BASE_V3-H1_1
 70
0
 62
7
  6
CONTINUOUS
370
-3
390
F
  0
LAYER
  5
23C
100
AcDbSymbolTableRecord
100
AcDbLayerTableRecord
  2
BASE_V3-H2_1
 70
0
 62
7
  6
CONTINUOUS
370
-3
390
F
  0
LAYER
  5
23D
100
AcDbSymbolTableRecord
100
AcDbLayerTableRecord
  2
BASE_V3-H3_1
 70
0
 62
7
  6
CONTINUOUS
370
-3
390
F
  0
LAYER
  5
23E
100
AcDbSymbolTableRecord
100
AcDbLayerTableRecord
  2
CN_STRIP_M_THT_P2_54_R1_P4_TET_
 70
0
 62
7
  6
CONTINUOUS
370
-3
390
F
  0
LAYER
  5
23F
100
AcDbSymbolTableRecord
100
AcDbLayerTableRecord
  2
CN_THT_SAURO_MSB03001_R1_P3_SET
 70
0
 62
7
  6
CONTINUOUS
370
-3
390
F
  0
LAYER
  5
240
100
AcDbSymbolTableRecord
100
AcDbLayerTableRecord
  2
COLOR1
 70
0
 62
7
  6
CONTINUOUS
370
-3
390
F
  0
LAYER
  5
241
100
AcDbSymbolTableRecord
100
AcDbLayerTableRecord
  2
COLOR25
 70
0
 62
7
  6
CONTINUOUS
370
-3
390
F
  0
LAYER
  5
242
100
AcDbSymbolTableRecord
100
AcDbLayerTableRecord
  2
COLOR32
 70
0
 62
7
  6
CONTINUOUS
370
-3
390
F
  0
LAYER
  5
243
100
AcDbSymbolTableRecord
100
AcDbLayerTableRecord
  2
COLOR33
 70
0
 62
7
  6
CONTINUOUS
370
-3
390
F
  0
LAYER
  5
244
100
AcDbSymbolTableRecord
100
AcDbLayerTableRecord
  2
COLOR34
 70
0
 62
7
  6
CONTINUOUS
370
-3
390
F
  0
LAYER
  5
245
100
AcDbSymbolTableRecord
100
AcDbLayerTableRecord
  2
COLOR35
 70
0
 62
7
  6
CONTINUOUS
370
-3
390
F
  0
LAYER
  5
246
100
AcDbSymbolTableRecord
100
AcDbLayerTableRecord
  2
COLOR36
 70
0
 62
7
  6
CONTINUOUS
370
-3
390
F
  0
LAYER
  5
247
100
AcDbSymbolTableRecord
100
AcDbLayerTableRecord
  2
COLOR37
 70
0
 62
7
  6
CONTINUOUS
370
-3
390
F
  0
LAYER
  5
248
100
AcDbSymbolTableRecord
100
AcDbLayerTableRecord
  2
COLOR38
 70
0
 62
7
  6
CONTINUOUS
370
-3
390
F
  0
LAYER
  5
249
100
AcDbSymbolTableRecord
100
AcDbLayerTableRecord
  2
COORDINATE
 70
0
 62
7
  6
CONTINUOUS
370
-3
390
F
  0
LAYER
  5
24A
100
AcDbSymbolTableRecord
100
AcDbLayerTableRecord
  2
COPY_PUBLISH
 70
0
 62
7
  6
CONTINUOUS
370
-3
390
F
  0
LAYER
  5
24B
100
AcDbSymbolTableRecord
100
AcDbLayerTableRecord
  2
COSMETICI
 70
0
 62
7
  6
CONTINUOUS
370
-3
390
F
  0
LAYER
  5
24C
100
AcDbSymbolTableRecord
100
AcDbLayerTableRecord
  2
COVER_V3_1
 70
0
 62
7
  6
CONTINUOUS
370
-3
390
F
  0
LAYER
  5
24D
100
AcDbSymbolTableRecord
100
AcDbLayerTableRecord
  2
CURVE
 70
0
 62
7
  6
CONTINUOUS
370
-3
390
F
  0
LAYER
  5
24E
100
AcDbSymbolTableRecord
100
AcDbLayerTableRecord
  2
DRAFT
 70
0
 62
7
  6
CONTINUOUS
370
-3
390
F
  0
LAYER
  5
24F
100
AcDbSymbolTableRecord
100
AcDbLayerTableRecord
  2
FIDUCIAL_1MM_0
 70
0
 62
7
  6
CONTINUOUS
370
-3
390
F
  0
LAYER
  5
250
100
AcDbSymbolTableRecord
100
AcDbLayerTableRecord
  2
FIDUCIAL_1MM_0_1
 70
0
 62
7
  6
CONTINUOUS
370
-3
390
F
  0
LAYER
  5
251
100
AcDbSymbolTableRecord
100
AcDbLayerTableRecord
  2
FIDUCIAL_1_2_MM_RUOTATO_45_1000
 70
0
 62
7
  6
CONTINUOUS
370
-3
390
F
  0
LAYER
  5
252
100
AcDbSymbolTableRecord
100
AcDbLayerTableRecord
  2
FIDUCIAL_1_2_MM_RUOTATO_45_10_1
 70
0
 62
7
  6
CONTINUOUS
370
-3
390
F
  0
LAYER
  5
253
100
AcDbSymbolTableRecord
100
AcDbLayerTableRecord
  2
GEOMETRIA_SOLIDA
 70
0
 62
7
  6
CONTINUOUS
370
-3
390
F
  0
LAYER
  5
254
100
AcDbSymbolTableRecord
100
AcDbLayerTableRecord
  2
GEOMETRIA_SOLIDA_1
 70
0
 62
7
  6
CONTINUOUS
370
-3
390
F
  0
LAYER
  5
255
100
AcDbSymbolTableRecord
100
AcDbLayerTableRecord
  2
GEOMETRIA_SOLIDA_2
 70
0
 62
7
  6
CONTINUOUS
370
-3
390
F
  0
LAYER
  5
256
100
AcDbSymbolTableRecord
100
AcDbLayerTableRecord
  2
IMPORT_IGES
 70
0
 62
7
  6
CONTINUOUS
370
-3
390
F
  0
LAYER
  5
257
100
AcDbSymbolTableRecord
100
AcDbLayerTableRecord
  2
LOGO_RESIST-RESTYLING_10000
 70
0
 62
7
  6
CONTINUOUS
370
-3
390
F
  0
LAYER
  5
258
100
AcDbSymbolTableRecord
100
AcDbLayerTableRecord
  2
MAGNETE_TONDO_1
 70
0
 62
7
  6
CONTINUOUS
370
-3
390
F
  0
LAYER
  5
259
100
AcDbSymbolTableRecord
100
AcDbLayerTableRecord
  2
MB_PCB_LUNGO_ASM_2
 70
0
 62
7
  6
CONTINUOUS
370
-3
390
F
  0
LAYER
  5
25A
100
AcDbSymbolTableRecord
100
AcDbLayerTableRecord
  2
MC300-ASM_PCB_ASM_3
 70
0
 62
7
  6
CONTINUOUS
370
-3
390
F
  0
LAYER
  5
25B
100
AcDbSymbolTableRecord
100
AcDbLayerTableRecord
  2
MC300-BASE_33
 70
0
 62
7
  6
CONTINUOUS
370
-3
390
F
  0
LAYER
  5
25C
100
AcDbSymbolTableRecord
100
AcDbLayerTableRecord
  2
MC300-COVER_25_2
 70
0
 62
7
  6
CONTINUOUS
370
-3
390
F
  0
LAYER
  5
25D
100
AcDbSymbolTableRecord
100
AcDbLayerTableRecord
  2
MC300-TEST_BUTTON_1_1
 70
0
 62
7
  6
CONTINUOUS
370
-3
390
F
  0
LAYER
  5
25E
100
AcDbSymbolTableRecord
100
AcDbLayerTableRecord
  2
MC300_ASM_18
 70
0
 62
7
  6
CONTINUOUS
370
-3
390
F
  0
LAYER
  5
25F
100
AcDbSymbolTableRecord
100
AcDbLayerTableRecord
  2
MC300_DEVICE
 70
0
 62
7
  6
CONTINUOUS
370
-3
390
F
  0
LAYER
  5
260
100
AcDbSymbolTableRecord
100
AcDbLayerTableRecord
  2
MC300_MAGNATIC_CONTACT-V3_ASM_6
 70
0
 62
7
  6
CONTINUOUS
370
-3
390
F
  0
LAYER
  5
261
100
AcDbSymbolTableRecord
100
AcDbLayerTableRecord
  2
MC300_MAGNET
 70
0
 62
7
  6
CONTINUOUS
370
-3
390
F
  0
LAYER
  5
262
100
AcDbSymbolTableRecord
100
AcDbLayerTableRecord
  2
NOTE
 70
0
 62
7
  6
CONTINUOUS
370
-3
390
F
  0
LAYER
  5
263
100
AcDbSymbolTableRecord
100
AcDbLayerTableRecord
  2
PCB_MC300_LUNGO_ASM_4
 70
0
 62
7
  6
CONTINUOUS
370
-3
390
F
  0
LAYER
  5
264
100
AcDbSymbolTableRecord
100
AcDbLayerTableRecord
  2
PIANI
 70
0
 62
7
  6
CONTINUOUS
370
-3
390
F
  0
LAYER
  5
265
100
AcDbSymbolTableRecord
100
AcDbLayerTableRecord
  2
PUNTI
 70
0
 62
7
  6
CONTINUOUS
370
-3
390
F
  0
LAYER
  5
266
100
AcDbSymbolTableRecord
100
AcDbLayerTableRecord
  2
RACCORDO
 70
0
 62
7
  6
CONTINUOUS
370
-3
390
F
  0
LAYER
  5
267
100
AcDbSymbolTableRecord
100
AcDbLayerTableRecord
  2
SC70-6_REF_H1_1_110000
 70
0
 62
7
  6
CONTINUOUS
370
-3
390
F
  0
LAYER
  5
268
100
AcDbSymbolTableRecord
100
AcDbLayerTableRecord
  2
SCREW_2_2X4_5_2_1
 70
0
 62
7
  6
CONTINUOUS
370
-3
390
F
  0
LAYER
  5
269
100
AcDbSymbolTableRecord
100
AcDbLayerTableRecord
  2
SCREW_2_2X4_5_2_1_1
 70
0
 62
7
  6
CONTINUOUS
370
-3
390
F
  0
LAYER
  5
26A
100
AcDbSymbolTableRecord
100
AcDbLayerTableRecord
  2
SCREW_2_2X4_5_2_1_2
 70
0
 62
7
  6
CONTINUOUS
370
-3
390
F
  0
LAYER
  5
26B
100
AcDbSymbolTableRecord
100
AcDbLayerTableRecord
  2
SCREW_2_2X4_5_2_1_3
 70
0
 62
7
  6
CONTINUOUS
370
-3
390
F
  0
LAYER
  5
26C
100
AcDbSymbolTableRecord
100
AcDbLayerTableRecord
  2
SCREW_2_2X4_5_2_1_4
 70
0
 62
7
  6
CONTINUOUS
370
-3
390
F
  0
LAYER
  5
26D
100
AcDbSymbolTableRecord
100
AcDbLayerTableRecord
  2
SCREW_2_2X6_5_1_1
 70
0
 62
7
  6
CONTINUOUS
370
-3
390
F
  0
LAYER
  5
26E
100
AcDbSymbolTableRecord
100
AcDbLayerTableRecord
  2
SIMBOLI
 70
0
 62
7
  6
CONTINUOUS
370
-3
390
F
  0
LAYER
  5
26F
100
AcDbSymbolTableRecord
100
AcDbLayerTableRecord
  2
SMUSSO
 70
0
 62
7
  6
CONTINUOUS
370
-3
390
F
  0
LAYER
  5
270
100
AcDbSymbolTableRecord
100
AcDbLayerTableRecord
  2
SNAPLINE
 70
0
 62
7
  6
CONTINUOUS
370
-3
390
F
  0
LAYER
  5
271
100
AcDbSymbolTableRecord
100
AcDbLayerTableRecord
  2
SOT323_H1_1_REF_110000
 70
0
 62
7
  6
CONTINUOUS
370
-3
390
F
  0
LAYER
  5
272
100
AcDbSymbolTableRecord
100
AcDbLayerTableRecord
  2
SOT323_H1_1_REF_110000_1
 70
0
 62
7
  6
CONTINUOUS
370
-3
390
F
  0
LAYER
  5
273
100
AcDbSymbolTableRecord
100
AcDbLayerTableRecord
  2
SUPERFICI
 70
0
 62
7
  6
CONTINUOUS
370
-3
390
F
  0
LAYER
  5
274
100
AcDbSymbolTableRecord
100
AcDbLayerTableRecord
  2
SYMBOL_E4_10000
 70
0
 62
7
  6
CONTINUOUS
370
-3
390
F
  0
LAYER
  5
275
100
AcDbSymbolTableRecord
100
AcDbLayerTableRecord
  2
SYMBOL_NO-PB_10000
 70
0
 62
7
  6
CONTINUOUS
370
-3
390
F
  0
LAYER
  5
276
100
AcDbSymbolTableRecord
100
AcDbLayerTableRecord
  2
TP_PROGRAMMAZIONE_SWD_1000
 70
0
 62
7
  6
CONTINUOUS
370
-3
390
F
  0
LAYER
  5
277
100
AcDbSymbolTableRecord
100
AcDbLayerTableRecord
  2
TRASH
 70
0
 62
7
  6
CONTINUOUS
370
-3
390
F
  0
LAYER
  5
278
100
AcDbSymbolTableRecord
100
AcDbLayerTableRecord
  2
VG_CN-STRIP-F-THT-P2_54-R1-P4-T
 70
0
 62
7
  6
CONTINUOUS
370
-3
390
F
  0
LAYER
  5
279
100
AcDbSymbolTableRecord
100
AcDbLayerTableRecord
  2
VG_CN-THT-INIM-AA-CLIP-BLACK_15
 70
0
 62
7
  6
CONTINUOUS
370
-3
390
F
  0
LAYER
  5
27A
100
AcDbSymbolTableRecord
100
AcDbLayerTableRecord
  2
VG_CN-THT-INIM-AA-CLIP-RED_1550
 70
0
 62
7
  6
CONTINUOUS
370
-3
390
F
  0
LAYER
  5
27B
100
AcDbSymbolTableRecord
100
AcDbLayerTableRecord
  2
VG_IND-CHIP-0402-POL-1_0-REF_10
 70
0
 62
7
  6
CONTINUOUS
370
-3
390
F
  0
LAYER
  5
27C
100
AcDbSymbolTableRecord
100
AcDbLayerTableRecord
  2
VG_IND-CHIP-0402-POL-1_0-REF__1
 70
0
 62
7
  6
CONTINUOUS
370
-3
390
F
  0
LAYER
  5
27D
100
AcDbSymbolTableRecord
100
AcDbLayerTableRecord
  2
VG_IND-SMT-2_4-2_4-1_5-0_85-2_4
 70
0
 62
7
  6
CONTINUOUS
370
-3
390
F
  0
LAYER
  5
27E
100
AcDbSymbolTableRecord
100
AcDbLayerTableRecord
  2
VG_LED-1305-1_5-REV-4PIN_40000
 70
0
 62
7
  6
CONTINUOUS
370
-3
390
F
  0
LAYER
  5
27F
100
AcDbSymbolTableRecord
100
AcDbLayerTableRecord
  2
VG_PADS_CARBON_SWITCH_ANULAR_D8
 70
0
 62
7
  6
CONTINUOUS
370
-3
390
F
  0
LAYER
  5
280
100
AcDbSymbolTableRecord
100
AcDbLayerTableRecord
  2
VG_QCS5F_40000
 70
0
 62
7
  6
CONTINUOUS
370
-3
390
F
  0
LAYER
  5
281
100
AcDbSymbolTableRecord
100
AcDbLayerTableRecord
  2
VG_QFN73-7_0-7_0-7_0-7_0-0_85-0
 70
0
 62
7
  6
CONTINUOUS
370
-3
390
F
  0
LAYER
  5
282
100
AcDbSymbolTableRecord
100
AcDbLayerTableRecord
  2
VG_REED-LITTELFUSE-MDSM-SMT_200
 70
0
 62
7
  6
CONTINUOUS
370
-3
390
F
  0
LAYER
  5
283
100
AcDbSymbolTableRecord
100
AcDbLayerTableRecord
  2
VG_REED-LITTELFUSE-MDSM-SMT_2_1
 70
0
 62
7
  6
CONTINUOUS
370
-3
390
F
  0
LAYER
  5
284
100
AcDbSymbolTableRecord
100
AcDbLayerTableRecord
  2
VG_SOD523_70000
 70
0
 62
7
  6
CONTINUOUS
370
-3
390
F
  0
LAYER
  5
285
100
AcDbSymbolTableRecord
100
AcDbLayerTableRecord
  2
VG_SOT23_H1_1_REF_110000
 70
0
 62
7
  6
CONTINUOUS
370
-3
390
F
  0
LAYER
  5
286
100
AcDbSymbolTableRecord
100
AcDbLayerTableRecord
  2
VG_SOT23_H1_2_REF_120000
 70
0
 62
7
  6
CONTINUOUS
370
-3
390
F
  0
LAYER
  5
287
100
AcDbSymbolTableRecord
100
AcDbLayerTableRecord
  2
VG_WSON6-1_5-1_5-1_0_100000
 70
0
 62
7
  6
CONTINUOUS
370
-3
390
F
  0
LAYER
  5
288
100
AcDbSymbolTableRecord
100
AcDbLayerTableRecord
  2
VG_X-SMT-2-3_2-1_5-1_0_100000
 70
0
 62
7
  6
CONTINUOUS
370
-3
390
F
  0
LAYER
  5
289
100
AcDbSymbolTableRecord
100
AcDbLayerTableRecord
  2
VG_X-SMT-2-5_0-3_2-1_5_150000
 70
0
 62
7
  6
CONTINUOUS
370
-3
390
F
  0
LAYER
  5
28A
100
AcDbSymbolTableRecord
100
AcDbLayerTableRecord
  2
___SHELL
 70
0
 62
7
  6
CONTINUOUS
370
-3
390
F
  0
ENDTAB
  0
TABLE
  2
STYLE
  5
3
100
AcDbSymbolTable
 70
1
  0
STYLE
  5
11
100
AcDbSymbolTableRecord
100
AcDbTextStyleTableRecord
  2
STANDARD
 70
0
 40
0.0
 41
0.8
 50
0.0
 71
0
 42
0.2
  3
txt
  4

  0
STYLE
  5
28B
100
AcDbSymbolTableRecord
100
AcDbTextStyleTableRecord
  2
TEXTSTYLE_1
 70
0
 40
0.0
 41
0.8
 50
0.0
 71
0
 42
0.2
  3
gdt
  4

  0
ENDTAB
  0
TABLE
  2
VIEW
  5
6
100
AcDbSymbolTable
 70
0
  0
ENDTAB
  0
TABLE
  2
UCS
  5
7
100
AcDbSymbolTable
 70
0
  0
ENDTAB
  0
TABLE
  2
APPID
  5
9
100
AcDbSymbolTable
 70
1
  0
APPID
  5
28C
100
AcDbSymbolTableRecord
100
AcDbRegAppTableRecord
  2
ACAD
 70
0
  0
ENDTAB
  0
TABLE
  2
BLOCK_RECORD
  5
1
100
AcDbSymbolTable
 70
0
  0
BLOCK_RECORD
  5
28D
100
AcDbSymbolTableRecord
100
AcDbBlockTableRecord
  2
*Model_Space
  0
BLOCK_RECORD
  5
28E
100
AcDbSymbolTableRecord
100
AcDbBlockTableRecord
  2
*Paper_Space
  0
BLOCK_RECORD
  5
28F
100
AcDbSymbolTableRecord
100
AcDbBlockTableRecord
  2
_FILLED
  0
ENDTAB
  0
TABLE
  2
DIMSTYLE
  5
A
100
AcDbSymbolTable
 70
1
100
AcDbDimStyleTable
 71
0
  0
DIMSTYLE
105
290
100
AcDbSymbolTableRecord
100
AcDbDimStyleTableRecord
  2
STANDARD
 70
0
  3

  4

 40
1.0
 41
3.0
 42
0.5
 43
0.38
 44
1.5
 45
0.0
 46
0.0
 47
0.01
 48
0.01
140
3.0
141
0.09
142
0.0
143
25.4
144
1.0
145
0.0
146
1.0
147
0.625
 71
1
 72
0
 73
0
 74
0
 75
0
 76
0
 77
1
 78
8
 79
2
170
0
171
1
172
0
173
0
174
0
175
0
176
0
177
0
178
0
270
2
179
2
271
2
272
2
273
2
274
2
275
0
280
0
281
0
282
0
283
1
284
8
285
0
286
0
287
3
288
0
340
11
278
44
341
28F
342
28F
343
28F
344
28F
  0
ENDTAB
  0
ENDSEC
  0
SECTION
  2
BLOCKS
  0
BLOCK
  5
20
100
AcDbEntity
  8
0
100
AcDbBlockBegin
  2
*Model_Space
 70
0
 10
0.0
 20
0.0
 30
0.0
  3
*Model_Space
  1

  0
ENDBLK
  5
21
100
AcDbEntity
  8
0
100
AcDbBlockEnd
  0
BLOCK
  5
1C
100
AcDbEntity
  8
0
100
AcDbBlockBegin
  2
*Paper_Space
 70
0
 10
0.0
 20
0.0
 30
0.0
  3
*Paper_Space
  1

  0
ENDBLK
  5
1D
100
AcDbEntity
  8
0
100
AcDbBlockEnd
  0
BLOCK
  5
291
100
AcDbEntity
  8
0
100
AcDbBlockBegin
  2
_FILLED
 70
64
 10
0.0
 20
0.0
  3
_FILLED
  1

  0
SOLID
  5
292
100
AcDbEntity
  8
0
  6
BYBLOCK
 62
0
100
AcDbTrace
 10
0.0
 20
0.0
 11
-1.0
 21
0.3166666667
 12
-1.0
 22
-0.3166666667
 13
-1.0
 23
-0.3166666667
  0
ENDBLK
  5
293
100
AcDbEntity
  8
0
  6
BYBLOCK
 62
0
100
AcDbBlockEnd
  0
ENDSEC
  0
SECTION
  2
ENTITIES
  0
LINE
  5
294
100
AcDbEntity
  8
IMPORT_IGES
100
AcDbLine
 62
7
  6
CONTINUOUS
 10
-24.4159752764
 20
58.5128979906
 11
-33.8075076583
 21
52.7050334897
  0
LINE
  5
295
100
AcDbEntity
  8
IMPORT_IGES
100
AcDbLine
 62
250
  6
CONTINUOUS
 10
-33.2937695521
 20
52.663807416
 11
-23.9073651893
 21
58.4685085287
  0
LWPOLYLINE
  5
296
100
AcDbEntity
  8
IMPORT_IGES
100
AcDbPolyline
 62
7
  6
CONTINUOUS
 90
14
 70
0
 10
-24.4159734447
 20
58.5128948924
 10
-24.407320102
 20
58.5180711679
 10
-24.3736157838
 20
58.5350377528
 10
-24.3377792812
 20
58.5483115098
 10
-24.3002630225
 20
58.5577229871
 10
-24.2610457961
 20
58.5632241757
 10
-24.2201488137
 20
58.5648630847
 10
-24.1780881383
 20
58.5626142897
 10
-24.1348488828
 20
58.5564293289
 10
-24.0904459344
 20
58.5463566641
 10
-24.0454400177
 20
58.532516256
 10
-24.0000180409
 20
58.5149480915
 10
-23.9539930958
 20
58.4936121838
 10
-23.9073651824
 20
58.4685085327
  0
LWPOLYLINE
  5
297
100
AcDbEntity
  8
IMPORT_IGES
100
AcDbPolyline
 62
7
  6
CONTINUOUS
 90
8
 70
0
 10
-24.0449747256
 20
58.7271049373
 10
-24.0537498204
 20
58.7222182229
 10
-24.0852959727
 20
58.7015152429
 10
-24.1147101594
 20
58.6771195182
 10
-24.1416194133
 20
58.649338131
 10
-24.1659927489
 20
58.6181287261
 10
-24.1878611515
 20
58.5835336588
 10
-24.1979538102
 20
58.5636764177
  0
LINE
  5
298
100
AcDbEntity
  8
IMPORT_IGES
100
AcDbLine
 62
7
  6
CONTINUOUS
 10
-24.0449764783
 20
58.7271080463
 11
-22.8243499612
 21
59.3834768653
  0
LINE
  5
299
100
AcDbEntity
  8
IMPORT_IGES
100
AcDbLine
 62
250
  6
CONTINUOUS
 10
-23.5538114463
 20
58.6726456346
 11
-22.3419356669
 21
59.324320603
  0
LINE
  5
29A
100
AcDbEntity
  8
IMPORT_IGES
100
AcDbLine
 62
7
  6
CONTINUOUS
 10
-22.8243499612
 20
59.3834768653
 11
-22.801216274
 21
59.3957178144
  0
LINE
  5
29B
100
AcDbEntity
  8
IMPORT_IGES
100
AcDbLine
 62
250
  6
CONTINUOUS
 10
-22.3419356669
 20
59.324320603
 11
-22.3235360366
 21
59.3340565176
  0
LINE
  5
29C
100
AcDbEntity
  8
IMPORT_IGES
100
AcDbLine
 62
7
  6
CONTINUOUS
 10
-18.063690947
 20
61.8702633474
 11
-22.801216274
 21
59.3957178144
  0
LINE
  5
29D
100
AcDbEntity
  8
IMPORT_IGES
100
AcDbLine
 62
250
  6
CONTINUOUS
 10
-22.3235360366
 20
59.3340565176
 11
-17.5822011761
 21
61.8105774508
  0
LWPOLYLINE
  5
29E
100
AcDbEntity
  8
IMPORT_IGES
100
AcDbPolyline
 62
250
  6
CONTINUOUS
 90
10
 70
0
 10
-17.5822182232
 20
61.8105641541
 10
-17.5517202781
 20
61.8260344985
 10
-17.5215116648
 20
61.8383090556
 10
-17.4918172035
 20
61.8473011074
 10
-17.4628598974
 20
61.8529482677
 10
-17.4348513979
 20
61.8552145027
 10
-17.4079913629
 20
61.8540872773
 10
-17.382478361
 20
61.8495772911
 10
-17.3585012768
 20
61.8417204144
 10
-17.3384007491
 20
61.8318483241
  0
LWPOLYLINE
  5
29F
100
AcDbEntity
  8
IMPORT_IGES
100
AcDbPolyline
 62
7
  6
CONTINUOUS
 90
12
 70
0
 10
-18.0636105689
 20
61.8703053167
 10
-18.0323423859
 20
61.8846009473
 10
-17.9937276144
 20
61.8972522522
 10
-17.9531076716
 20
61.905448687
 10
-17.9106971103
 20
61.9091484452
 10
-17.8667063243
 20
61.9083319941
 10
-17.821341311
 20
61.9030036409
 10
-17.7748300944
 20
61.8931928797
 10
-17.7274259715
 20
61.8789546399
 10
-17.6793688153
 20
61.8603695607
 10
-17.6308824921
 20
61.8375369675
 10
-17.5822011761
 20
61.8105774507
  0
LINE
  5
2A0
100
AcDbEntity
  8
IMPORT_IGES
100
AcDbLine
 62
7
  6
CONTINUOUS
 10
-23.4829958798
 20
51.9924775534
 11
-18.1796950209
 21
55.161423566
  0
LINE
  5
2A1
100
AcDbEntity
  8
IMPORT_IGES
100
AcDbLine
 62
7
  6
CONTINUOUS
 10
-17.1897455272
 20
54.9981137287
 11
-15.5633999305
 21
55.9043667475
  0
LINE
  5
2A2
100
AcDbEntity
  8
IMPORT_IGES
100
AcDbLine
 62
7
  6
CONTINUOUS
 10
-11.5217245216
 20
58.156520624
 11
-11.3852996046
 21
58.2325410548
  0
LWPOLYLINE
  5
2A3
100
AcDbEntity
  8
IMPORT_IGES
100
AcDbPolyline
 62
7
  6
CONTINUOUS
 90
10
 70
0
 10
-11.3852996046
 20
58.2325410548
 10
-11.3543762302
 20
58.2481322274
 10
-11.3242005211
 20
58.2603873477
 10
-11.2947724772
 20
58.2693064155
 10
-11.2658921693
 20
58.2748976162
 10
-11.2377595267
 20
58.2771527644
 10
-11.2109743366
 20
58.2760473046
 10
-11.1855659724
 20
58.2715139336
 10
-11.1615050608
 20
58.2636199545
 10
-11.1414594421
 20
58.2538083817
  0
LWPOLYLINE
  5
2A4
100
AcDbEntity
  8
IMPORT_IGES
100
AcDbPolyline
 62
7
  6
CONTINUOUS
 90
25
 70
0
 10
-33.4637660775
 20
50.9829013377
 10
-33.5155464121
 20
50.9575680989
 10
-33.5670425191
 20
50.9289223674
 10
-33.6180366905
 20
50.8970878525
 10
-33.6683122671
 20
50.8622026802
 10
-33.7176586465
 20
50.824415715
 10
-33.7658718683
 20
50.7838850905
 10
-33.8127488436
 20
50.7407832352
 10
-33.858092228
 20
50.6952935714
 10
-33.9017147099
 20
50.6476054801
 10
-33.9434324873
 20
50.5979209585
 10
-33.9830700769
 20
50.5464501143
 10
-34.0204638473
 20
50.4934059941
 10
-34.0554559795
 20
50.4390124694
 10
-34.087898788
 20
50.3834991109
 10
-34.1176577741
 20
50.327095343
 10
-34.1446066702
 20
50.2700389299
 10
-34.1686308891
 20
50.212570758
 10
-34.1896297451
 20
50.1549288833
 10
-34.2075130035
 20
50.0973568284
 10
-34.2222035654
 20
50.0400979049
 10
-34.2336385413
 20
49.9833897499
 10
-34.2417673239
 20
49.9274711751
 10
-34.2465527071
 20
49.8725810234
 10
-34.2479719558
 20
49.8189525193
  0
LWPOLYLINE
  5
2A5
100
AcDbEntity
  8
IMPORT_IGES
100
AcDbPolyline
 62
250
  6
CONTINUOUS
 90
5
 70
0
 10
-10.9206607102
 20
56.4253199063
 10
-11.0058874533
 20
56.3904984837
 10
-11.0948867244
 20
56.3590078123
 10
-11.1876172231
 20
56.3308082443
 10
-11.2829235113
 20
56.3062485591
  0
LINE
  5
2A6
100
AcDbEntity
  8
IMPORT_IGES
100
AcDbLine
 62
7
  6
CONTINUOUS
 10
-18.1796950209
 20
54.3449532893
 11
-22.7880859578
 21
51.5912452737
  0
LINE
  5
2A7
100
AcDbEntity
  8
IMPORT_IGES
100
AcDbLine
 62
7
  6
CONTINUOUS
 10
-17.2604562054
 20
54.6306665947
 11
-22.5637570643
 21
51.4617205821
  0
LINE
  5
2A8
100
AcDbEntity
  8
IMPORT_IGES
100
AcDbLine
 62
7
  6
CONTINUOUS
 10
-19.0282231583
 20
49.4203476154
 11
-13.7249222994
 21
52.5892936281
  0
LINE
  5
2A9
100
AcDbEntity
  8
IMPORT_IGES
100
AcDbLine
 62
7
  6
CONTINUOUS
 10
-13.0178155182
 20
57.4884467103
 11
-12.4521300933
 21
57.8150663849
  0
LINE
  5
2AA
100
AcDbEntity
  8
IMPORT_IGES
100
AcDbLine
 62
7
  6
CONTINUOUS
 10
-13.0178155182
 20
56.8352073609
 11
-12.4521300933
 21
57.1618270356
  0
LINE
  5
2AB
100
AcDbEntity
  8
IMPORT_IGES
100
AcDbLine
 62
7
  6
CONTINUOUS
 10
-11.8864446683
 20
57.4884467103
 11
-11.3207592434
 21
57.8150663849
  0
LINE
  5
2AC
100
AcDbEntity
  8
IMPORT_IGES
100
AcDbLine
 62
7
  6
CONTINUOUS
 10
-10.7550738184
 20
57.4884467103
 11
-11.3207592434
 21
57.1618270356
  0
LINE
  5
2AD
100
AcDbEntity
  8
IMPORT_IGES
100
AcDbLine
 62
7
  6
CONTINUOUS
 10
-11.8864446683
 20
56.8352073609
 11
-12.4521300933
 21
56.5085876863
  0
LINE
  5
2AE
100
AcDbEntity
  8
IMPORT_IGES
100
AcDbLine
 62
7
  6
CONTINUOUS
 10
-11.7450916456
 20
56.7535918972
 11
-11.3207592434
 21
56.9985961081
  0
LINE
  5
2AF
100
AcDbEntity
  8
IMPORT_IGES
100
AcDbLine
 62
7
  6
CONTINUOUS
 10
-14.7473836778
 20
55.0163971565
 11
-16.3379508859
 21
54.098023585
  0
LINE
  5
2B0
100
AcDbEntity
  8
IMPORT_IGES
100
AcDbLine
 62
7
  6
CONTINUOUS
 10
-10.7550738184
 20
56.8352073609
 11
-11.3207592434
 21
56.5085876863
  0
LINE
  5
2B1
100
AcDbEntity
  8
IMPORT_IGES
100
AcDbLine
 62
7
  6
CONTINUOUS
 10
-8.2802000843
 20
55.4841922541
 11
-8.6337534749
 21
55.2800549574
  0
LINE
  5
2B2
100
AcDbEntity
  8
IMPORT_IGES
100
AcDbLine
 62
7
  6
CONTINUOUS
 10
-13.4686883966
 20
55.1496685052
 11
-13.6895669604
 21
55.0265877372
  0
LINE
  5
2B3
100
AcDbEntity
  8
IMPORT_IGES
100
AcDbLine
 62
7
  6
CONTINUOUS
 10
-13.3360135698
 20
54.8224504405
 11
-13.115135006
 21
54.9455312086
  0
LINE
  5
2B4
100
AcDbEntity
  8
IMPORT_IGES
100
AcDbLine
 62
7
  6
CONTINUOUS
 10
-12.9170937424
 20
54.8517376232
 11
-13.3360135698
 21
54.6183017785
  0
LINE
  5
2B5
100
AcDbEntity
  8
IMPORT_IGES
100
AcDbLine
 62
7
  6
CONTINUOUS
 10
-9.6944136467
 20
55.8853377317
 11
-9.8284309526
 21
55.8106589011
  0
LINE
  5
2B6
100
AcDbEntity
  8
IMPORT_IGES
100
AcDbLine
 62
7
  6
CONTINUOUS
 10
-7.284080171
 20
55.8645484707
 11
-8.4923321186
 21
55.191270923
  0
LINE
  5
2B7
100
AcDbEntity
  8
IMPORT_IGES
100
AcDbLine
 62
7
  6
CONTINUOUS
 10
-11.4621805996
 20
53.5363741062
 11
-13.0885261954
 21
52.6301210879
  0
LINE
  5
2B8
100
AcDbEntity
  8
IMPORT_IGES
100
AcDbLine
 62
7
  6
CONTINUOUS
 10
-12.8056834839
 20
52.0585366568
 11
-18.1089843428
 21
48.8895906441
  0
LINE
  5
2B9
100
AcDbEntity
  8
IMPORT_IGES
100
AcDbLine
 62
7
  6
CONTINUOUS
 10
-13.0885261968
 20
51.8914547424
 11
-13.7249222994
 21
51.5240076086
  0
LWPOLYLINE
  5
2BA
100
AcDbEntity
  8
IMPORT_IGES
100
AcDbPolyline
 62
7
  6
CONTINUOUS
 90
28
 70
0
 10
-20.0563725968
 20
-44.4351989696
 10
-19.9205956038
 20
-44.4838739305
 10
-19.7808528907
 20
-44.528647499
 10
-19.6374924
 20
-44.569411684
 10
-19.4908725887
 20
-44.6060701973
 10
-19.341356273
 20
-44.6385341969
 10
-19.1893093902
 20
-44.6667219785
 10
-19.0351093663
 20
-44.6905674703
 10
-18.8791384239
 20
-44.7100147171
 10
-18.7217769296
 20
-44.7250125699
 10
-18.5634142218
 20
-44.73552758
 10
-18.4044428217
 20
-44.7415366955
 10
-18.2452511901
 20
-44.7430202282
 10
-18.0862335266
 20
-44.739978064
 10
-17.9277831014
 20
-44.7324207408
 10
-17.7702863095
 20
-44.7203605628
 10
-17.6141327075
 20
-44.7038306527
 10
-17.4597090277
 20
-44.6828748035
 10
-17.3073927493
 20
-44.6575371179
 10
-17.1575617124
 20
-44.6278834969
 10
-17.0105865546
 20
-44.5939900153
 10
-16.8668254349
 20
-44.5559311951
 10
-16.7266349476
 20
-44.5138029873
 10
-16.5903634455
 20
-44.4677131437
 10
-16.4583445678
 20
-44.4177681105
 10
-16.3309054391
 20
-44.3640904098
 10
-16.2083653252
 20
-44.3068188311
 10
-16.0910298454
 20
-44.2460977611
  0
LWPOLYLINE
  5
2BB
100
AcDbEntity
  8
IMPORT_IGES
100
AcDbPolyline
 62
7
  6
CONTINUOUS
 90
3
 70
0
 10
-20.0870902101
 20
-44.4234180975
 10
-20.0614772721
 20
-44.4332275854
 10
-20.0563725968
 20
-44.4351989696
  0
LWPOLYLINE
  5
2BC
100
AcDbEntity
  8
IMPORT_IGES
100
AcDbPolyline
 62
7
  6
CONTINUOUS
 90
3
 70
0
 10
-20.1025271185
 20
-44.4173646631
 10
-20.0973758792
 20
-44.4194022116
 10
-20.0870902101
 20
-44.4234180975
  0
LWPOLYLINE
  5
2BD
100
AcDbEntity
  8
IMPORT_IGES
100
AcDbPolyline
 62
7
  6
CONTINUOUS
 90
25
 70
0
 10
-20.0471762296
 20
-44.8136433202
 10
-19.9007226182
 20
-44.8743834037
 10
-19.7509066119
 20
-44.9291964018
 10
-19.598145537
 20
-44.9781517493
 10
-19.4427327563
 20
-45.021343523
 10
-19.2850523752
 20
-45.0588218607
 10
-19.1256568015
 20
-45.0906000667
 10
-18.9650258676
 20
-45.1167217493
 10
-18.8033802509
 20
-45.1372682837
 10
-18.6409502415
 20
-45.1522951853
 10
-18.4781135727
 20
-45.1618306521
 10
-18.3151656713
 20
-45.165903791
 10
-18.1522318254
 20
-45.1645294813
 10
-17.9896401046
 20
-45.1577023133
 10
-17.827722975
 20
-45.1454122211
 10
-17.6666004438
 20
-45.1276171984
 10
-17.5064787422
 20
-45.1042535493
 10
-17.3478231257
 20
-45.0752832038
 10
-17.1910905667
 20
-45.0406761766
 10
-17.0365264011
 20
-45.0003516032
 10
-16.8845527384
 20
-44.9542581893
 10
-16.7357823015
 20
-44.9024149577
 10
-16.5905924364
 20
-44.8447778836
 10
-16.4492270886
 20
-44.7812310779
 10
-16.3120578301
 20
-44.7116842977
  0
LWPOLYLINE
  5
2BE
100
AcDbEntity
  8
IMPORT_IGES
100
AcDbPolyline
 62
7
  6
CONTINUOUS
 90
10
 70
0
 10
-20.2485031913
 20
-44.3542937768
 10
-20.2326182136
 20
-44.3622182541
 10
-20.2166487492
 20
-44.3698756421
 10
-20.2005952729
 20
-44.3772655643
 10
-20.1844586381
 20
-44.3843358866
 10
-20.1682389603
 20
-44.391137996
 10
-20.1519356004
 20
-44.3978267865
 10
-20.1355486609
 20
-44.4044536282
 10
-20.1190790031
 20
-44.4109663811
 10
-20.1025271185
 20
-44.4173646631
  0
LWPOLYLINE
  5
2BF
100
AcDbEntity
  8
IMPORT_IGES
100
AcDbPolyline
 62
7
  6
CONTINUOUS
 90
14
 70
0
 10
-20.0471786912
 20
-44.8136422355
 10
-20.0779066608
 20
-44.7973877077
 10
-20.1043214863
 20
-44.7784497868
 10
-20.1287933168
 20
-44.7557982226
 10
-20.1512207049
 20
-44.7295262068
 10
-20.1715084819
 20
-44.6997436493
 10
-20.1895703728
 20
-44.6665754618
 10
-20.2053306767
 20
-44.6301578562
 10
-20.2187216527
 20
-44.5906431423
 10
-20.2296855472
 20
-44.5481967696
 10
-20.238175401
 20
-44.5029929502
 10
-20.2441535971
 20
-44.4552195559
 10
-20.2475927072
 20
-44.4050781109
 10
-20.2484762911
 20
-44.3527792205
  0
LWPOLYLINE
  5
2C0
100
AcDbEntity
  8
IMPORT_IGES
100
AcDbPolyline
 62
7
  6
CONTINUOUS
 90
10
 70
0
 10
-27.7221470302
 20
-40.588878878
 10
-26.9363490058
 20
-41.035716518
 10
-26.1389621728
 20
-41.4756252154
 10
-25.3301701538
 20
-41.9085050322
 10
-24.5101596585
 20
-42.3342017735
 10
-23.6791189269
 20
-42.7526746645
 10
-22.8372376178
 20
-43.1639963267
 10
-21.9847088162
 20
-43.5681292809
 10
-21.1217290565
 20
-43.9649260124
 10
-20.2484967155
 20
-44.3542966146
  0
LWPOLYLINE
  5
2C1
100
AcDbEntity
  8
IMPORT_IGES
100
AcDbPolyline
 62
7
  6
CONTINUOUS
 90
13
 70
0
 10
-34.0552811142
 20
-36.7233865938
 10
-33.0366062121
 20
-37.4774297981
 10
-31.9889678292
 20
-38.2181023336
 10
-30.9129233256
 20
-38.9450384879
 10
-29.8090113605
 20
-39.6579009717
 10
-28.6778097288
 20
-40.3563413662
 10
-27.5199418098
 20
-41.0400000732
 10
-26.3360123257
 20
-41.7085458145
 10
-25.1266180083
 20
-42.3616657998
 10
-23.8923974659
 20
-42.9990381437
 10
-22.6339907386
 20
-43.6203548513
 10
-21.3520346911
 20
-44.2253227146
 10
-20.0471833537
 20
-44.8136528137
  0
LWPOLYLINE
  5
2C2
100
AcDbEntity
  8
IMPORT_IGES
100
AcDbPolyline
 62
7
  6
CONTINUOUS
 90
10
 70
0
 10
-34.2479956702
 20
-36.2696509962
 10
-33.5741110981
 20
-36.7743415338
 10
-32.8870495557
 20
-37.2731007971
 10
-32.1869672006
 20
-37.7658138956
 10
-31.4740234906
 20
-38.2523667656
 10
-30.7483802876
 20
-38.7326478215
 10
-30.0102017706
 20
-39.2065479555
 10
-29.2596555701
 20
-39.6739584095
 10
-28.4969127814
 20
-40.1347708257
 10
-27.7221470302
 20
-40.588878878
  0
LWPOLYLINE
  5
2C3
100
AcDbEntity
  8
IMPORT_IGES
100
AcDbPolyline
 62
7
  6
CONTINUOUS
 90
12
 70
0
 10
-34.0552860048
 20
-36.7233828888
 10
-34.0879120626
 20
-36.6959897627
 10
-34.1176733077
 20
-36.6654823445
 10
-34.1446243149
 20
-36.6318514095
 10
-34.168650481
 20
-36.5952382212
 10
-34.1896510893
 20
-36.5557934364
 10
-34.2075358918
 20
-36.5136823603
 10
-34.2222277779
 20
-36.4690816201
 10
-34.233663832
 20
-36.4221746483
 10
-34.2417934326
 20
-36.3731568325
 10
-34.2465793707
 20
-36.3222353516
 10
-34.2479989049
 20
-36.2696244599
  0
LWPOLYLINE
  5
2C4
100
AcDbEntity
  8
IMPORT_IGES
100
AcDbPolyline
 62
7
  6
CONTINUOUS
 90
10
 70
0
 10
-34.5953868629
 20
-35.9442014547
 10
-34.5626783356
 20
-35.982864432
 10
-34.5284375665
 20
-36.0210339725
 10
-34.4926891833
 20
-36.0586906668
 10
-34.4554585933
 20
-36.0958718505
 10
-34.4167717297
 20
-36.1325026202
 10
-34.3766549986
 20
-36.1683958305
 10
-34.3351355852
 20
-36.2034774266
 10
-34.2922414636
 20
-36.2377864617
 10
-34.2480011201
 20
-36.2713061047
  0
LWPOLYLINE
  5
2C5
100
AcDbEntity
  8
IMPORT_IGES
100
AcDbPolyline
 62
7
  6
CONTINUOUS
 90
25
 70
0
 10
-19.6562960906
 20
43.0106469192
 10
-19.695492492
 20
42.9781964008
 10
-19.7344595173
 20
42.9424807464
 10
-19.773033301
 20
42.9036526511
 10
-19.8110498539
 20
42.8618783618
 10
-19.8483516613
 20
42.8173351712
 10
-19.8847881625
 20
42.7702099799
 10
-19.9202076117
 20
42.7207025773
 10
-19.9544607135
 20
42.6690216399
 10
-19.98740671
 20
42.6153810462
 10
-20.018907481
 20
42.5600067121
 10
-20.0488312042
 20
42.503131448
 10
-20.0770550233
 20
42.4449893809
 10
-20.1034604255
 20
42.3858246151
 10
-20.1279365213
 20
42.3258855719
 10
-20.1503823816
 20
42.2654187556
 10
-20.1707032468
 20
42.2046778439
 10
-20.1888131396
 20
42.1439180633
 10
-20.2046365643
 20
42.0833899858
 10
-20.2181058634
 20
42.0233482071
 10
-20.2291632507
 20
41.9640453641
 10
-20.2377616429
 20
41.9057265818
 10
-20.2438631743
 20
41.8486365141
 10
-20.2474400346
 20
41.7930180638
 10
-20.2484752922
 20
41.7391066403
  0
LWPOLYLINE
  5
2C6
100
AcDbEntity
  8
IMPORT_IGES
100
AcDbPolyline
 62
250
  6
CONTINUOUS
 90
10
 70
0
 10
-0.375190089
 20
51.0650278689
 10
-0.3472563448
 20
51.0837625663
 10
-0.3222119583
 20
51.1037974328
 10
-0.3002360106
 20
51.1249839205
 10
-0.2814861752
 20
51.1471632317
 10
-0.2660926414
 20
51.1701739104
 10
-0.2541601708
 20
51.1938537161
 10
-0.2457733721
 20
51.2180298082
 10
-0.2409910463
 20
51.2425251356
 10
-0.2397826741
 20
51.2625484331
  0
LINE
  5
2C7
100
AcDbEntity
  8
IMPORT_IGES
100
AcDbLine
 62
7
  6
CONTINUOUS
 10
-4.838558591
 20
48.4118315804
 11
-4.8276168772
 21
48.4184815082
  0
LWPOLYLINE
  5
2C8
100
AcDbEntity
  8
IMPORT_IGES
100
AcDbPolyline
 62
7
  6
CONTINUOUS
 90
3
 70
0
 10
-4.8276168772
 20
48.4184815082
 10
-4.8166667438
 20
48.4250139171
 10
-4.8111887636
 20
48.4282507444
  0
LINE
  5
2C9
100
AcDbEntity
  8
IMPORT_IGES
100
AcDbLine
 62
250
  6
CONTINUOUS
 10
-4.8111889747
 20
48.4282506146
 11
-0.3751900886
 21
51.0650278692
  0
LINE
  5
2CA
100
AcDbEntity
  8
IMPORT_IGES
100
AcDbLine
 62
250
  6
CONTINUOUS
 10
-1.087155464
 20
52.2865216588
 11
-5.5410957082
 21
49.6389961713
  0
LINE
  5
2CB
100
AcDbEntity
  8
IMPORT_IGES
100
AcDbLine
 62
250
  6
CONTINUOUS
 10
-5.5410957082
 20
49.6389961713
 11
-5.5586132285
 21
49.6287501765
  0
LWPOLYLINE
  5
2CC
100
AcDbEntity
  8
IMPORT_IGES
100
AcDbPolyline
 62
7
  6
CONTINUOUS
 90
5
 70
0
 10
-4.8604180111
 20
48.3989395316
 10
-4.8549562722
 20
48.4020994262
 10
-4.8494923956
 20
48.405298132
 10
-4.8440264494
 20
48.4085356711
 10
-4.838558591
 20
48.4118315804
  0
LINE
  5
2CD
100
AcDbEntity
  8
IMPORT_IGES
100
AcDbLine
 62
250
  6
CONTINUOUS
 10
-5.5586132285
 20
49.6287501765
 11
-6.724462154
 21
48.9555902803
  0
LINE
  5
2CE
100
AcDbEntity
  8
IMPORT_IGES
100
AcDbLine
 62
250
  6
CONTINUOUS
 10
-7.078013326
 20
48.7514516882
 11
-16.7980457788
 21
43.1392481857
  0
LINE
  5
2CF
100
AcDbEntity
  8
IMPORT_IGES
100
AcDbLine
 62
250
  6
CONTINUOUS
 10
-16.0910298454
 20
41.9145630547
 11
-6.3710117252
 21
47.5268891413
  0
LINE
  5
2D0
100
AcDbEntity
  8
IMPORT_IGES
100
AcDbLine
 62
250
  6
CONTINUOUS
 10
-6.0174583906
 20
47.7310248906
 11
-4.8604180111
 21
48.3989395316
  0
LWPOLYLINE
  5
2D1
100
AcDbEntity
  8
IMPORT_IGES
100
AcDbPolyline
 62
250
  6
CONTINUOUS
 90
25
 70
0
 10
-16.7980457788
 20
43.1392481857
 10
-16.8949031479
 20
43.0865673406
 10
-16.9959836869
 20
43.0376007847
 10
-17.1012873958
 20
42.9923485178
 10
-17.2112093096
 20
42.9506844641
 10
-17.3253543932
 20
42.9127346995
 10
-17.442537542
 20
42.8788774521
 10
-17.5627858813
 20
42.8491541164
 10
-17.6860722857
 20
42.823523298
 10
-17.8111302741
 20
42.8022390417
 10
-17.9379769049
 20
42.7853441421
 10
-18.0665951196
 20
42.7727958046
 10
-18.1956672622
 20
42.7647196901
 10
-18.3251977974
 20
42.7611598833
 10
-18.4551822603
 20
42.7620722995
 10
-18.5842895999
 20
42.7674503456
 10
-18.7125115417
 20
42.7773379521
 10
-18.8398563602
 20
42.7916911885
 10
-18.9650178275
 20
42.8103716699
 10
-19.0879764496
 20
42.8334222106
 10
-19.2087517205
 20
42.8607999964
 10
-19.3260958948
 20
42.8922381996
 10
-19.4395930576
 20
42.9276478774
 10
-19.5496591239
 20
42.9671179727
 10
-19.6562940936
 20
43.0106484852
  0
LINE
  5
2D2
100
AcDbEntity
  8
IMPORT_IGES
100
AcDbLine
 62
7
  6
CONTINUOUS
 10
7.7042412687
 20
-50.9777218796
 11
24.7606773514
 21
-60.8258959264
  0
LWPOLYLINE
  5
2D3
100
AcDbEntity
  8
IMPORT_IGES
100
AcDbPolyline
 62
7
  6
CONTINUOUS
 90
10
 70
0
 10
-34.8989877136
 20
-35.1675882474
 10
-34.8968333278
 20
-35.234437169
 10
-34.8868901648
 20
-35.325988986
 10
-34.8688859637
 20
-35.4171907408
 10
-34.8428640704
 20
-35.5078103221
 10
-34.8088881273
 20
-35.597614177
 10
-34.7670400686
 20
-35.6863803093
 10
-34.7174219765
 20
-35.7738838481
 10
-34.6601569113
 20
-35.85989776
 10
-34.5953868629
 20
-35.9442014547
  0
LWPOLYLINE
  5
2D4
100
AcDbEntity
  8
IMPORT_IGES
100
AcDbPolyline
 62
7
  6
CONTINUOUS
 90
16
 70
0
 10
-34.8989850003
 20
-35.167586948
 10
-34.8968508819
 20
-35.252593333
 10
-34.8876893601
 20
-35.3634707378
 10
-34.8711997989
 20
-35.474524882
 10
-34.8473543929
 20
-35.5851346135
 10
-34.8160824366
 20
-35.6951194691
 10
-34.7771181907
 20
-35.8047388447
 10
-34.7303157944
 20
-35.9136579872
 10
-34.67561859
 20
-36.0213998764
 10
-34.6126925057
 20
-36.128019694
 10
-34.5412670648
 20
-36.2333121077
 10
-34.4613380283
 20
-36.3366905776
 10
-34.3728701804
 20
-36.4377126945
 10
-34.2757743723
 20
-36.536041876
 10
-34.1699371978
 20
-36.6313740113
 10
-34.0552798478
 20
-36.7233747555
  0
LWPOLYLINE
  5
2D5
100
AcDbEntity
  8
IMPORT_IGES
100
AcDbPolyline
 62
7
  6
CONTINUOUS
 90
13
 70
0
 10
-34.89898745
 20
50.9494402654
 10
-34.8976990683
 20
50.8971099666
 10
-34.8892241934
 20
50.8041943082
 10
-34.8728521772
 20
50.7116853704
 10
-34.8486226335
 20
50.6198102848
 10
-34.8165944865
 20
50.5287933308
 10
-34.7768442594
 20
50.4388611047
 10
-34.7294683674
 20
50.3502346337
 10
-34.6745823064
 20
50.2631313847
 10
-34.6123178322
 20
50.1777684135
 10
-34.5428257464
 20
50.0943570551
 10
-34.4662764128
 20
50.0131022119
 10
-34.3828571032
 20
49.9342046521
  0
LINE
  5
2D6
100
AcDbEntity
  8
IMPORT_IGES
100
AcDbLine
 62
7
  6
CONTINUOUS
 10
-34.8989877136
 20
-35.1675882474
 11
-34.8989877154
 21
50.9502023699
  0
LINE
  5
2D7
100
AcDbEntity
  8
IMPORT_IGES
100
AcDbLine
 62
250
  6
CONTINUOUS
 10
-34.2479956702
 20
-36.2696509962
 11
-34.2480011201
 21
49.8204434207
  0
LWPOLYLINE
  5
2D8
100
AcDbEntity
  8
IMPORT_IGES
100
AcDbPolyline
 62
7
  6
CONTINUOUS
 90
19
 70
0
 10
-34.8989839072
 20
50.9494386096
 10
-34.8971774731
 20
51.0302991968
 10
-34.8890946244
 20
51.1369685966
 10
-34.8744474224
 20
51.2437722596
 10
-34.8532207867
 20
51.3501776847
 10
-34.8253623332
 20
51.4560477488
 10
-34.790656903
 20
51.5616375518
 10
-34.7489842414
 20
51.6666784745
 10
-34.7003039995
 20
51.770755124
 10
-34.6443630802
 20
51.8739044912
 10
-34.5809726157
 20
51.9759297384
 10
-34.5101278578
 20
52.076354504
 10
-34.4317771152
 20
52.1748441594
 10
-34.3456546083
 20
52.2713203101
 10
-34.2518748387
 20
52.3652670825
 10
-34.1510465046
 20
52.4558399317
 10
-34.0434443621
 20
52.5426836973
 10
-33.9289060151
 20
52.625810832
 10
-33.8074750507
 20
52.705032969
  0
LWPOLYLINE
  5
2D9
100
AcDbEntity
  8
IMPORT_IGES
100
AcDbPolyline
 62
7
  6
CONTINUOUS
 90
5
 70
0
 10
-29.6551230457
 20
14.6729163923
 10
-29.6552878144
 20
14.6766036345
 10
-29.6553888418
 20
14.6803831511
 10
-29.6554261283
 20
14.6842549419
 10
-29.6553821327
 20
14.6882079173
  0
LWPOLYLINE
  5
2DA
100
AcDbEntity
  8
IMPORT_IGES
100
AcDbPolyline
 62
250
  6
CONTINUOUS
 90
10
 70
0
 10
-28.3682125798
 20
8.2100587093
 10
-28.3668718076
 20
8.1753502991
 10
-28.3629239895
 20
8.1427954994
 10
-28.3564834277
 20
8.112573419
 10
-28.347735827
 20
8.0849832283
 10
-28.3367932293
 20
8.0599706703
 10
-28.323563599
 20
8.0372625799
 10
-28.3080217551
 20
8.0169683808
 10
-28.2903008378
 20
7.9993937411
 10
-28.2716606684
 20
7.9855828602
  0
LWPOLYLINE
  5
2DB
100
AcDbEntity
  8
IMPORT_IGES
100
AcDbPolyline
 62
7
  6
CONTINUOUS
 90
72
 70
0
 10
-29.6549381241
 20
9.6549994764
 10
-29.6534503606
 20
9.6057720983
 10
-29.650659108
 20
9.554935615
 10
-29.6465801741
 20
9.5023471066
 10
-29.6411971686
 20
9.4481498047
 10
-29.6344614844
 20
9.3927731029
 10
-29.6263461081
 20
9.3361938393
 10
-29.6168767343
 20
9.2784358821
 10
-29.6060836416
 20
9.219999264
 10
-29.5939378357
 20
9.1608645362
 10
-29.5804663229
 20
9.1010522146
 10
-29.5657833328
 20
9.0411223071
 10
-29.5498907222
 20
8.9811521955
 10
-29.5327842399
 20
8.9210657869
 10
-29.5145690311
 20
8.8611928373
 10
-29.495307461
 20
8.8017181101
 10
-29.474934545
 20
8.7424582573
 10
-29.4533642932
 20
8.6831909294
 10
-29.43055915
 20
8.6238205535
 10
-29.4065532424
 20
8.5644445619
 10
-29.3813678943
 20
8.5051302277
 10
-29.3548485191
 20
8.4455954356
 10
-29.3271456713
 20
8.386124498
 10
-29.2987391473
 20
8.3276339214
 10
-29.2695535245
 20
8.2701042787
 10
-29.2396616234
 20
8.2135564313
 10
-29.2097677519
 20
8.158966155
 10
-29.1799054724
 20
8.1064865636
 10
-29.1500413509
 20
8.0559644981
 10
-29.1207816808
 20
8.0079149741
 10
-29.0923155133
 20
7.9626421862
 10
-29.0644563201
 20
7.9198405831
 10
-29.0372482053
 20
7.879109916
 10
-29.0107078154
 20
7.840429628
 10
-28.9848207935
 20
7.8038190382
 10
-28.959584765
 20
7.7689376954
 10
-28.9350067187
 20
7.7357640007
 10
-28.9110817585
 20
7.704318416
 10
-28.8877896009
 20
7.6743236245
 10
-28.8651370597
 20
7.645765997
 10
-28.8431191831
 20
7.6186581467
 10
-28.8216979152
 20
7.5927621876
 10
-28.8008753482
 20
7.5680621878
 10
-28.7806509897
 20
7.5445732029
 10
-28.7609827648
 20
7.5221039064
 10
-28.7418719503
 20
7.5006422429
 10
-28.72331863
 20
7.4801995201
 10
-28.7052788039
 20
7.4606195302
 10
-28.6877525542
 20
7.441892445
 10
-28.6707409442
 20
7.4240274611
 10
-28.6542013235
 20
7.4068969747
 10
-28.6381333418
 20
7.3904933249
 10
-28.6225383101
 20
7.3748236415
 10
-28.6073759635
 20
7.3597825651
 10
-28.5926457907
 20
7.3453640357
 10
-28.578349107
 20
7.3315736678
 10
-28.5644482967
 20
7.3183236635
 10
-28.5509427056
 20
7.3056091272
 10
-28.5378336597
 20
7.2934345815
 10
-28.5250864372
 20
7.2817263977
 10
-28.5127002814
 20
7.2704806043
 10
-28.5006765101
 20
7.2597008607
 10
-28.4889834495
 20
7.24932502
 10
-28.4776204292
 20
7.2393497832
 10
-28.4665885887
 20
7.2297781878
 10
-28.4558589151
 20
7.2205576219
 10
-28.4454316671
 20
7.2116860769
 10
-28.4353069785
 20
7.2031653423
 10
-28.4254556031
 20
7.1949485289
 10
-28.4158760459
 20
7.1870326083
 10
-28.4065701263
 20
7.1794204274
 10
-28.3887055651
 20
7.1649911557
  0
LINE
  5
2DC
100
AcDbEntity
  8
IMPORT_IGES
100
AcDbLine
 62
250
  6
CONTINUOUS
 10
-28.8681341521
 20
9.0241619955
 11
-28.8681501113
 21
9.0264686616
  0
LINE
  5
2DD
100
AcDbEntity
  8
IMPORT_IGES
100
AcDbLine
 62
7
  6
CONTINUOUS
 10
-29.6549381241
 20
9.6549994764
 11
-29.6551239291
 21
14.6729157463
  0
LINE
  5
2DE
100
AcDbEntity
  8
IMPORT_IGES
100
AcDbLine
 62
7
  6
CONTINUOUS
 10
-28.8681501113
 20
13.9395449686
 11
-28.8681501113
 21
9.0264686616
  0
LINE
  5
2DF
100
AcDbEntity
  8
IMPORT_IGES
100
AcDbLine
 62
250
  6
CONTINUOUS
 10
-28.7217041584
 20
8.8223033171
 11
-28.7217041653
 21
13.7354379743
  0
LINE
  5
2E0
100
AcDbEntity
  8
IMPORT_IGES
100
AcDbLine
 62
250
  6
CONTINUOUS
 10
-28.3682302325
 20
13.9394887686
 11
-28.368203893
 21
13.9428378962
  0
LINE
  5
2E1
100
AcDbEntity
  8
IMPORT_IGES
100
AcDbLine
 62
250
  6
CONTINUOUS
 10
-28.368203893
 20
13.9428378962
 11
-28.3681364244
 21
13.9478972104
  0
LWPOLYLINE
  5
2E2
100
AcDbEntity
  8
IMPORT_IGES
100
AcDbPolyline
 62
7
  6
CONTINUOUS
 90
4
 70
0
 10
-29.654784906
 20
14.7097228569
 10
-29.6544261302
 20
14.7295011651
 10
-29.6543144113
 20
14.7347942836
 10
-29.6541754388
 20
14.7402175091
  0
LINE
  5
2E3
100
AcDbEntity
  8
IMPORT_IGES
100
AcDbLine
 62
250
  6
CONTINUOUS
 10
-28.3681364244
 20
13.9478972104
 11
-28.3680655322
 21
13.95128901
  0
LWPOLYLINE
  5
2E4
100
AcDbEntity
  8
IMPORT_IGES
100
AcDbPolyline
 62
7
  6
CONTINUOUS
 90
22
 70
0
 10
-28.7217041653
 20
13.7354379743
 10
-28.7209673576
 20
13.7631508585
 10
-28.7181521072
 20
13.7898452658
 10
-28.713258414
 20
13.8155211964
 10
-28.7061887207
 20
13.8404938229
 10
-28.6970405846
 20
13.8644479726
 10
-28.6861066776
 20
13.8864381268
 10
-28.6733547967
 20
13.9062505217
 10
-28.6588171447
 20
13.9240989211
 10
-28.642883002
 20
13.9396790975
 10
-28.6256625188
 20
13.9529215117
 10
-28.6070455448
 20
13.9638957029
 10
-28.5870909091
 20
13.9725060607
 10
-28.5656784289
 20
13.9787843289
 10
-28.5429282869
 20
13.9826987637
 10
-28.5192598608
 20
13.9840585237
 10
-28.4944638267
 20
13.98275179
 10
-28.4687495083
 20
13.9788903815
 10
-28.4431642548
 20
13.9726189136
 10
-28.4180571825
 20
13.9639855914
 10
-28.3930791751
 20
13.9529422097
 10
-28.3682302325
 20
13.9394887686
  0
LINE
  5
2E5
100
AcDbEntity
  8
IMPORT_IGES
100
AcDbLine
 62
7
  6
CONTINUOUS
 10
-29.6553821327
 20
14.6882079173
 11
-29.654784906
 21
14.7097228569
  0
LINE
  5
2E6
100
AcDbEntity
  8
IMPORT_IGES
100
AcDbLine
 62
250
  6
CONTINUOUS
 10
-28.3680655322
 20
13.95128901
 11
-28.3679701437
 21
13.9546933486
  0
LINE
  5
2E7
100
AcDbEntity
  8
IMPORT_IGES
100
AcDbLine
 62
7
  6
CONTINUOUS
 10
-29.6541754388
 20
14.7402175091
 11
-29.6538061747
 21
14.7514402174
  0
LWPOLYLINE
  5
2E8
100
AcDbEntity
  8
IMPORT_IGES
100
AcDbPolyline
 62
7
  6
CONTINUOUS
 90
15
 70
0
 10
-28.8681333677
 20
13.9395604473
 10
-28.8658133463
 20
14.0060375762
 10
-28.8590158776
 20
14.0698640545
 10
-28.8480005124
 20
14.1308781104
 10
-28.8330786199
 20
14.1888111519
 10
-28.8144983007
 20
14.2437270098
 10
-28.7923700291
 20
14.2958948164
 10
-28.7669604647
 20
14.3450887361
 10
-28.7385028877
 20
14.3912199194
 10
-28.7069361261
 20
14.4345868056
 10
-28.6724893699
 20
14.4749672606
 10
-28.6353896589
 20
14.512197124
 10
-28.5954397216
 20
14.5464828746
 10
-28.5528093815
 20
14.5776039556
 10
-28.5319469603
 20
14.5910491708
  0
LWPOLYLINE
  5
2E9
100
AcDbEntity
  8
IMPORT_IGES
100
AcDbPolyline
 62
250
  6
CONTINUOUS
 90
19
 70
0
 10
-27.6487458074
 20
13.5240667294
 10
-27.6474113715
 20
13.5603200333
 10
-27.6434683116
 20
13.5974311207
 10
-27.6370309282
 20
13.6350888908
 10
-27.6282843965
 20
13.6727800075
 10
-27.6173412847
 20
13.710429065
 10
-27.6041111403
 20
13.7484146685
 10
-27.5885693091
 20
13.7866561929
 10
-27.5708484026
 20
13.8246945035
 10
-27.5509913628
 20
13.8623374211
 10
-27.5290504521
 20
13.8993652719
 10
-27.5051842611
 20
13.9353992404
 10
-27.4796296699
 20
13.9700114666
 10
-27.4526142625
 20
14.0028582851
 10
-27.4242813849
 20
14.0337321715
 10
-27.3947764393
 20
14.0624232449
 10
-27.364292831
 20
14.0886797725
 10
-27.3330780504
 20
14.1122258041
 10
-27.3013735586
 20
14.1328205443
  0
LINE
  5
2EA
100
AcDbEntity
  8
IMPORT_IGES
100
AcDbLine
 62
7
  6
CONTINUOUS
 10
-29.6538061747
 20
14.7514402174
 11
-29.6533202521
 21
14.7632194448
  0
LINE
  5
2EB
100
AcDbEntity
  8
IMPORT_IGES
100
AcDbLine
 62
7
  6
CONTINUOUS
 10
-29.6533202521
 20
14.7632194448
 11
-29.6527138572
 21
14.7755858939
  0
LINE
  5
2EC
100
AcDbEntity
  8
IMPORT_IGES
100
AcDbLine
 62
7
  6
CONTINUOUS
 10
-29.6527138572
 20
14.7755858939
 11
-29.6519843498
 21
14.788596862
  0
LINE
  5
2ED
100
AcDbEntity
  8
IMPORT_IGES
100
AcDbLine
 62
7
  6
CONTINUOUS
 10
-29.6519843498
 20
14.788596862
 11
-29.6511227181
 21
14.8023014279
  0
LWPOLYLINE
  5
2EE
100
AcDbEntity
  8
IMPORT_IGES
100
AcDbPolyline
 62
250
  6
CONTINUOUS
 90
10
 70
0
 10
-28.3679701437
 20
13.9546933486
 10
-28.3657004311
 20
13.9894890351
 10
-28.3610548483
 20
14.0253244137
 10
-28.3540655313
 20
14.0619566739
 10
-28.34478065
 20
14.0991368363
 10
-28.3332635955
 20
14.1366141165
 10
-28.3195920302
 20
14.1741376701
 10
-28.3038582574
 20
14.2114546074
 10
-28.2861691024
 20
14.2483116697
 10
-28.2666443548
 20
14.2844596457
  0
LINE
  5
2EF
100
AcDbEntity
  8
IMPORT_IGES
100
AcDbLine
 62
7
  6
CONTINUOUS
 10
-29.6511227181
 20
14.8023014279
 11
-29.650118304
 21
14.8167261179
  0
LINE
  5
2F0
100
AcDbEntity
  8
IMPORT_IGES
100
AcDbLine
 62
7
  6
CONTINUOUS
 10
-29.650118304
 20
14.8167261179
 11
-29.6489484974
 21
14.8318988589
  0
LWPOLYLINE
  5
2F1
100
AcDbEntity
  8
IMPORT_IGES
100
AcDbPolyline
 62
7
  6
CONTINUOUS
 90
82
 70
0
 10
-29.6489484974
 20
14.8318988589
 10
-29.6475832877
 20
14.8478568122
 10
-29.646823839
 20
14.8561347296
 10
-29.6460004444
 20
14.8646277948
 10
-29.6451139792
 20
14.8733366006
 10
-29.6441635611
 20
14.882260558
 10
-29.6431341283
 20
14.891413394
 10
-29.6420261714
 20
14.9007954151
 10
-29.6408391888
 20
14.9104063207
 10
-29.6395566268
 20
14.9202589285
 10
-29.6381797449
 20
14.9303500537
 10
-29.6367072671
 20
14.9406828901
 10
-29.6351188336
 20
14.9512798258
 10
-29.6334159978
 20
14.9621404253
 10
-29.6315971815
 20
14.9732651375
 10
-29.6296373206
 20
14.9846776808
 10
-29.6275380184
 20
14.9963804643
 10
-29.6252976344
 20
15.0083710989
 10
-29.6228862295
 20
15.0206661108
 10
-29.6203061129
 20
15.0332667699
 10
-29.6175549201
 20
15.046171836
 10
-29.6145956883
 20
15.0593940777
 10
-29.611431509
 20
15.0729331301
 10
-29.6080592081
 20
15.0867894022
 10
-29.604432403
 20
15.1009768348
 10
-29.6005548209
 20
15.1154959633
 10
-29.596422611
 20
15.1303463185
 10
-29.5919779918
 20
15.1455403513
 10
-29.5872249998
 20
15.1610815737
 10
-29.5821594126
 20
15.1769665733
 10
-29.5767110125
 20
15.1931974402
 10
-29.5708862296
 20
15.2097755721
 10
-29.5646783552
 20
15.2266997207
 10
-29.5579973892
 20
15.2439680461
 10
-29.5508543744
 20
15.2615793159
 10
-29.5432378476
 20
15.2795349886
 10
-29.5350239305
 20
15.2978373248
 10
-29.5262209412
 20
15.3165006468
 10
-29.5168199073
 20
15.3355109846
 10
-29.5066708274
 20
15.3548282607
 10
-29.4957882471
 20
15.3744638106
 10
-29.4841566125
 20
15.3944068426
 10
-29.4715804814
 20
15.4145842464
 10
-29.4580721512
 20
15.435017594
 10
-29.4436177468
 20
15.4556861658
 10
-29.4279821153
 20
15.476453657
 10
-29.4112063335
 20
15.4973234979
 10
-29.3932469
 20
15.5182935713
 10
-29.3737410249
 20
15.5392196683
 10
-29.3526532554
 20
15.5601907398
 10
-29.3300150085
 20
15.5811200263
 10
-29.3055627746
 20
15.6016003112
 10
-29.2791422818
 20
15.6217229678
 10
-29.2509017852
 20
15.6413999024
 10
-29.2210312259
 20
15.6599548858
 10
-29.1893705467
 20
15.6773502959
 10
-29.1560733088
 20
15.6936273182
 10
-29.1218013834
 20
15.7082271217
 10
-29.0866955079
 20
15.7209979643
 10
-29.0506110135
 20
15.7320937752
 10
-29.0137835196
 20
15.7414132218
 10
-28.9763061125
 20
15.7489298666
 10
-28.9380825532
 20
15.7546719246
 10
-28.8990648578
 20
15.7586198358
 10
-28.8592346538
 20
15.7607697104
 10
-28.8186065786
 20
15.7611275536
 10
-28.7771820089
 20
15.7596887381
 10
-28.7348875756
 20
15.7564470817
 10
-28.69179263
 20
15.7514110592
 10
-28.6481131674
 20
15.7445977362
 10
-28.6038068071
 20
15.73598474
 10
-28.5589129687
 20
15.7255961691
 10
-28.5137718393
 20
15.7135179684
 10
-28.4683434465
 20
15.6997089348
 10
-28.4226666238
 20
15.6842109922
 10
-28.3772019752
 20
15.6672335406
 10
-28.3319496071
 20
15.6487377507
 10
-28.2869108792
 20
15.6287617096
 10
-28.2425507986
 20
15.6076287699
 10
-28.1990262089
 20
15.5854456995
 10
-28.1561843956
 20
15.5621034691
 10
-28.1374794218
 20
15.5514240788
  0
LWPOLYLINE
  5
2F2
100
AcDbEntity
  8
IMPORT_IGES
100
AcDbPolyline
 62
7
  6
CONTINUOUS
 90
3
 70
0
 10
-27.6015624893
 20
15.1664147481
 10
-27.5986731157
 20
15.184941657
 10
-27.591901399
 20
15.2144567809
  0
LWPOLYLINE
  5
2F3
100
AcDbEntity
  8
IMPORT_IGES
100
AcDbPolyline
 62
250
  6
CONTINUOUS
 90
10
 70
0
 10
-28.2666443548
 20
14.2844596457
 10
-28.2443588341
 20
14.3213120392
 10
-28.2203668031
 20
14.3568464904
 10
-28.194846213
 20
14.3907989499
 10
-28.1679871348
 20
14.422916248
 10
-28.1399882214
 20
14.4529605334
 10
-28.1110549572
 20
14.4807104745
 10
-28.0814011911
 20
14.5059596791
 10
-28.0512478197
 20
14.5285188235
 10
-28.0208188301
 20
14.5482192273
  0
LINE
  5
2F4
100
AcDbEntity
  8
IMPORT_IGES
100
AcDbLine
 62
7
  6
CONTINUOUS
 10
26.6177342679
 20
-48.5246063237
 11
26.5285096976
 21
-48.4730891751
  0
LINE
  5
2F5
100
AcDbEntity
  8
IMPORT_IGES
100
AcDbLine
 62
7
  6
CONTINUOUS
 10
-25.7226083981
 20
7.38150677
 11
-25.7236224457
 21
7.3908853044
  0
LWPOLYLINE
  5
2F6
100
AcDbEntity
  8
IMPORT_IGES
100
AcDbPolyline
 62
7
  6
CONTINUOUS
 90
4
 70
0
 10
-25.7236224457
 20
7.3908853044
 10
-25.7244752485
 20
7.3996385736
 10
-25.7247781668
 20
7.4037517982
 10
-25.7249668565
 20
7.4076785237
  0
LWPOLYLINE
  5
2F7
100
AcDbEntity
  8
IMPORT_IGES
100
AcDbPolyline
 62
250
  6
CONTINUOUS
 90
10
 70
0
 10
-27.6484951308
 20
7.7794382354
 10
-27.6462107142
 20
7.7473048778
 10
-27.6415548216
 20
7.7168736516
 10
-27.6345596107
 20
7.6883496205
 10
-27.6252732338
 20
7.6619254371
 10
-27.6137589679
 20
7.6377782329
 10
-27.6000942666
 20
7.616068976
 10
-27.584371211
 20
7.5969436197
 10
-27.5666963907
 20
7.5805315717
 10
-27.5471892917
 20
7.5669433887
  0
LWPOLYLINE
  5
2F8
100
AcDbEntity
  8
IMPORT_IGES
100
AcDbPolyline
 62
7
  6
CONTINUOUS
 90
5
 70
0
 10
-25.7214609578
 20
7.3649801844
 10
-25.7215191655
 20
7.3664518835
 10
-25.7218017226
 20
7.37159561
 10
-25.7221590968
 20
7.3766117719
 10
-25.7226083981
 20
7.38150677
  0
LINE
  5
2F9
100
AcDbEntity
  8
IMPORT_IGES
100
AcDbLine
 62
7
  6
CONTINUOUS
 10
-25.721075686
 20
7.4311766401
 11
-25.7485698035
 21
8.2630727263
  0
LINE
  5
2FA
100
AcDbEntity
  8
IMPORT_IGES
100
AcDbLine
 62
7
  6
CONTINUOUS
 10
-25.752358444
 20
8.2472889681
 11
-25.7249888902
 21
7.4080711169
  0
LINE
  5
2FB
100
AcDbEntity
  8
IMPORT_IGES
100
AcDbLine
 62
250
  6
CONTINUOUS
 10
-27.6485966848
 20
7.782834536
 11
-27.6484951308
 21
7.7794382354
  0
LINE
  5
2FC
100
AcDbEntity
  8
IMPORT_IGES
100
AcDbLine
 62
7
  6
CONTINUOUS
 10
-25.7219935403
 20
12.4763081329
 11
-25.7212691982
 21
12.4489617271
  0
LWPOLYLINE
  5
2FD
100
AcDbEntity
  8
IMPORT_IGES
100
AcDbPolyline
 62
7
  6
CONTINUOUS
 90
9
 70
0
 10
-25.7249808775
 20
7.4080671812
 10
-25.7250491561
 20
7.4114200063
 10
-25.7249763661
 20
7.4149511141
 10
-25.7247363302
 20
7.4182817995
 10
-25.7243412021
 20
7.4214021117
 10
-25.723778746
 20
7.4242570643
 10
-25.7230448791
 20
7.4268283311
 10
-25.7221436728
 20
7.4291342454
 10
-25.7210751192
 20
7.4311748121
  0
LINE
  5
2FE
100
AcDbEntity
  8
IMPORT_IGES
100
AcDbLine
 62
250
  6
CONTINUOUS
 10
-27.2952546708
 20
12.9118702719
 11
-27.2952545321
 21
7.9986877815
  0
LINE
  5
2FF
100
AcDbEntity
  8
IMPORT_IGES
100
AcDbLine
 62
250
  6
CONTINUOUS
 10
-26.5943724132
 20
12.908258821
 11
-26.5943724581
 21
7.9951879139
  0
LWPOLYLINE
  5
300
100
AcDbEntity
  8
IMPORT_IGES
100
AcDbPolyline
 62
7
  6
CONTINUOUS
 90
7
 70
0
 10
-25.7523689235
 20
8.2472823129
 10
-25.7523688907
 20
8.2486161103
 10
-25.752217389
 20
8.2508464455
 10
-25.7518920789
 20
8.2531735295
 10
-25.7513674634
 20
8.2555674347
 10
-25.7506347349
 20
8.2580179987
 10
-25.7497020598
 20
8.2605349904
  0
LINE
  5
301
100
AcDbEntity
  8
IMPORT_IGES
100
AcDbLine
 62
7
  6
CONTINUOUS
 10
-25.7485799756
 20
12.7438696123
 11
-25.7485748418
 21
8.2631149434
  0
LINE
  5
302
100
AcDbEntity
  8
IMPORT_IGES
100
AcDbLine
 62
7
  6
CONTINUOUS
 10
-25.7212691982
 20
12.4489617271
 11
-25.721075686
 21
7.4311766401
  0
LWPOLYLINE
  5
303
100
AcDbEntity
  8
IMPORT_IGES
100
AcDbPolyline
 62
250
  6
CONTINUOUS
 90
7
 70
0
 10
-27.64868602
 20
7.7946124736
 10
-27.6487100914
 20
7.7929479457
 10
-27.6487213782
 20
7.7912769295
 10
-27.6487198149
 20
7.7895994921
 10
-27.6487031794
 20
7.7879144286
 10
-27.6486735622
 20
7.7862230806
 10
-27.6485966848
 20
7.782834536
  0
LWPOLYLINE
  5
304
100
AcDbEntity
  8
IMPORT_IGES
100
AcDbPolyline
 62
7
  6
CONTINUOUS
 90
22
 70
0
 10
-27.2952545321
 20
7.9986877815
 10
-27.2959930821
 20
7.9709618882
 10
-27.2988106425
 20
7.9442573912
 10
-27.3037072132
 20
7.9185742903
 10
-27.3107808181
 20
7.8935977093
 10
-27.3199334335
 20
7.8696425244
 10
-27.3308709876
 20
7.8476533649
 10
-27.3436254036
 20
7.8278444311
 10
-27.3581647583
 20
7.8100015227
 10
-27.3740992113
 20
7.7944266674
 10
-27.391317922
 20
7.7811887641
 10
-27.4099317309
 20
7.7702189139
 10
-27.4298833185
 20
7.7616124482
 10
-27.4512936956
 20
7.7553378903
 10
-27.4740418515
 20
7.7514267169
 10
-27.4977074339
 20
7.7500686896
 10
-27.5224999615
 20
7.7513753392
 10
-27.5482099157
 20
7.7552351348
 10
-27.5737883894
 20
7.7615032455
 10
-27.5988857468
 20
7.7701313942
 10
-27.6238516237
 20
7.7811678579
 10
-27.64868602
 20
7.7946126366
  0
LWPOLYLINE
  5
305
100
AcDbEntity
  8
IMPORT_IGES
100
AcDbPolyline
 62
7
  6
CONTINUOUS
 90
14
 70
0
 10
-26.5943724752
 20
7.9951879045
 10
-26.5962842538
 20
7.9423978312
 10
-26.6011959347
 20
7.8916114945
 10
-26.609082792
 20
7.8430459968
 10
-26.6199060478
 20
7.7969103963
 10
-26.63361731
 20
7.7533992925
 10
-26.6501595524
 20
7.7126927215
 10
-26.6694601213
 20
7.6749638074
 10
-26.6914338461
 20
7.640373298
 10
-26.7159888438
 20
7.6090646614
 10
-26.7430193274
 20
7.5811710852
 10
-26.772408327
 20
7.5568113724
 10
-26.804032802
 20
7.536086982
 10
-26.8126897265
 20
7.531259705
  0
LWPOLYLINE
  5
306
100
AcDbEntity
  8
IMPORT_IGES
100
AcDbPolyline
 62
7
  6
CONTINUOUS
 90
6
 70
0
 10
-25.7549417748
 20
8.1539410363
 10
-25.7529466831
 20
8.1770289394
 10
-25.7525427133
 20
8.1813392107
 10
-25.752129597
 20
8.1855481687
 10
-25.7517018782
 20
8.1896633603
 10
-25.7512480821
 20
8.1936877866
  0
LINE
  5
307
100
AcDbEntity
  8
IMPORT_IGES
100
AcDbLine
 62
7
  6
CONTINUOUS
 10
-25.7553949133
 20
8.1489793284
 11
-25.7549417748
 21
8.1539410363
  0
LINE
  5
308
100
AcDbEntity
  8
IMPORT_IGES
100
AcDbLine
 62
7
  6
CONTINUOUS
 10
-25.7314085244
 20
7.2397527739
 11
-25.7271732031
 21
7.2873567057
  0
LWPOLYLINE
  5
309
100
AcDbEntity
  8
IMPORT_IGES
100
AcDbPolyline
 62
7
  6
CONTINUOUS
 90
3
 70
0
 10
-25.7271732031
 20
7.2873567057
 10
-25.7258577625
 20
7.3014425156
 10
-25.7252030129
 20
7.3081717976
  0
LWPOLYLINE
  5
30A
100
AcDbEntity
  8
IMPORT_IGES
100
AcDbPolyline
 62
7
  6
CONTINUOUS
 90
10
 70
0
 10
-25.7252030129
 20
7.3081717976
 10
-25.7238540669
 20
7.3209928731
 10
-25.7232356522
 20
7.327144352
 10
-25.7226709771
 20
7.3331428638
 10
-25.7221622067
 20
7.3389846776
 10
-25.7217714227
 20
7.3447066321
 10
-25.7215144906
 20
7.350320382
 10
-25.721375549
 20
7.3558142698
 10
-25.7213690901
 20
7.3611901655
 10
-25.7214609578
 20
7.3649801844
  0
LINE
  5
30B
100
AcDbEntity
  8
IMPORT_IGES
100
AcDbLine
 62
7
  6
CONTINUOUS
 10
-25.7512480821
 20
8.1936877866
 11
-25.7503127554
 21
8.2014446502
  0
LWPOLYLINE
  5
30C
100
AcDbEntity
  8
IMPORT_IGES
100
AcDbPolyline
 62
7
  6
CONTINUOUS
 90
7
 70
0
 10
-25.7503127554
 20
8.2014446502
 10
-25.7493686398
 20
8.2088166619
 10
-25.7489790804
 20
8.2123162769
 10
-25.7486780551
 20
8.2156777009
 10
-25.7484551178
 20
8.2189023742
 10
-25.748357127
 20
8.2219632409
 10
-25.7483959035
 20
8.2246802055
  0
LINE
  5
30D
100
AcDbEntity
  8
IMPORT_IGES
100
AcDbLine
 62
7
  6
CONTINUOUS
 10
-25.7497020598
 20
8.2605349904
 11
-25.748569157
 21
8.2631182386
  0
LINE
  5
30E
100
AcDbEntity
  8
IMPORT_IGES
100
AcDbLine
 62
7
  6
CONTINUOUS
 10
-27.3342977123
 20
6.5248464107
 11
-26.7354749096
 21
7.5727833044
  0
LINE
  5
30F
100
AcDbEntity
  8
IMPORT_IGES
100
AcDbLine
 62
7
  6
CONTINUOUS
 10
-27.7129658507
 20
7.6626424894
 11
-28.1140006878
 21
6.9750369044
  0
LINE
  5
310
100
AcDbEntity
  8
IMPORT_IGES
100
AcDbLine
 62
7
  6
CONTINUOUS
 10
-28.5319372292
 20
14.5910570531
 11
-27.548778774
 21
15.1990569895
  0
LINE
  5
311
100
AcDbEntity
  8
IMPORT_IGES
100
AcDbLine
 62
250
  6
CONTINUOUS
 10
-28.0208188222
 20
14.5482192306
 11
-27.2438546347
 21
15.0287021535
  0
LWPOLYLINE
  5
312
100
AcDbEntity
  8
IMPORT_IGES
100
AcDbPolyline
 62
7
  6
CONTINUOUS
 90
14
 70
0
 10
-28.5319372292
 20
14.5910570531
 10
-28.5232693847
 20
14.5962375021
 10
-28.4895072953
 20
14.6132595842
 10
-28.4537145925
 20
14.6265280551
 10
-28.4160406687
 20
14.6359870811
 10
-28.3766468996
 20
14.6415947606
 10
-28.3357015246
 20
14.6433260696
 10
-28.2933747378
 20
14.6411731652
 10
-28.2498484337
 20
14.6351426729
 10
-28.2053087914
 20
14.6252582313
 10
-28.1599399684
 20
14.6115603749
 10
-28.1139345952
 20
14.5941043855
 10
-28.0674932137
 20
14.5729611672
 10
-28.0208162232
 20
14.5482177973
  0
LWPOLYLINE
  5
313
100
AcDbEntity
  8
IMPORT_IGES
100
AcDbPolyline
 62
7
  6
CONTINUOUS
 90
44
 70
0
 10
-27.9812894128
 20
15.1972459388
 10
-27.9857148461
 20
15.1946482746
 10
-28.0020306596
 20
15.184307195
 10
-28.0171306083
 20
15.1735847275
 10
-28.0311056527
 20
15.1625715438
 10
-28.0440988781
 20
15.1512967385
 10
-28.0561544557
 20
15.1398515982
 10
-28.0673182779
 20
15.1283196767
 10
-28.0777190896
 20
15.1166855818
 10
-28.0874022922
 20
15.1050028471
 10
-28.0963939925
 20
15.0933421758
 10
-28.104779208
 20
15.0816888608
 10
-28.1125931642
 20
15.0700834992
 10
-28.1198593462
 20
15.0585776911
 10
-28.1266348724
 20
15.0471570982
 10
-28.1329451406
 20
15.035855416
 10
-28.1388132829
 20
15.024708585
 10
-28.1442850438
 20
15.0136941516
 10
-28.1493811958
 20
15.002836102
 10
-28.154120429
 20
14.9921628438
 10
-28.1585389323
 20
14.9816500175
 10
-28.1626536438
 20
14.9713155864
 10
-28.1664798226
 20
14.9611814295
 10
-28.1700461348
 20
14.951222851
 10
-28.1733663779
 20
14.9414535073
 10
-28.1764530789
 20
14.9318902892
 10
-28.1793290587
 20
14.9225087635
 10
-28.1820055893
 20
14.9133191892
 10
-28.1844929405
 20
14.9043348736
 10
-28.1868093106
 20
14.8955325248
 10
-28.1889637546
 20
14.8869201093
 10
-28.1909648964
 20
14.878507972
 10
-28.1928278095
 20
14.8702738052
 10
-28.1945601697
 20
14.8622235546
 10
-28.1961688399
 20
14.8543655868
 10
-28.1976656918
 20
14.8466792594
 10
-28.1990576013
 20
14.839168826
 10
-28.2003496794
 20
14.8318412854
 10
-28.20154956
 20
14.8246786078
 10
-28.2026625786
 20
14.817684249
 10
-28.2036933058
 20
14.810863647
 10
-28.204646945
 20
14.8042005829
 10
-28.2055273346
 20
14.7976980477
 10
-28.2061925798
 20
14.7925024305
  0
LINE
  5
314
100
AcDbEntity
  8
IMPORT_IGES
100
AcDbLine
 62
250
  6
CONTINUOUS
 10
-26.6370770808
 20
14.516377973
 11
-27.3013729581
 21
14.1328201901
  0
LINE
  5
315
100
AcDbEntity
  8
IMPORT_IGES
100
AcDbLine
 62
250
  6
CONTINUOUS
 10
-26.5943724132
 20
12.908258821
 11
-25.8985137682
 21
13.3100344644
  0
LWPOLYLINE
  5
316
100
AcDbEntity
  8
IMPORT_IGES
100
AcDbPolyline
 62
250
  6
CONTINUOUS
 90
10
 70
0
 10
-26.5943724431
 20
12.9082586592
 10
-26.6266733489
 20
12.8917429952
 10
-26.6612626542
 20
12.8769190454
 10
-26.6978729677
 20
12.8638885549
 10
-26.7361553411
 20
12.8527569175
 10
-26.7758828493
 20
12.8435724904
 10
-26.8169768571
 20
12.8363608306
 10
-26.8592201982
 20
12.8311903736
 10
-26.9022350736
 20
12.8281368858
 10
-26.9457032683
 20
12.8272466245
  0
LWPOLYLINE
  5
317
100
AcDbEntity
  8
IMPORT_IGES
100
AcDbPolyline
 62
250
  6
CONTINUOUS
 90
13
 70
0
 10
9.6353930859
 20
-31.4479601755
 10
10.7840729277
 20
-31.9422647777
 10
11.9340840095
 20
-32.4680326367
 10
13.085426331
 20
-33.0252637526
 10
14.2386960215
 20
-33.614278063
 10
15.3932969517
 20
-34.2347556303
 10
16.5474407352
 20
-34.885736641
 10
17.7011266844
 20
-35.5672689627
 10
18.8543554868
 20
-36.2793047279
 10
20.0053408173
 20
-37.0207405205
 10
21.1534872344
 20
-37.7912085352
 10
22.2993901795
 20
-38.5910765773
 10
23.4430496528
 20
-39.4203446469
  0
LINE
  5
318
100
AcDbEntity
  8
IMPORT_IGES
100
AcDbLine
 62
7
  6
CONTINUOUS
 10
26.5683638888
 20
-45.2302193784
 11
26.5285096976
 21
-45.2072080679
  0
LINE
  5
319
100
AcDbEntity
  8
IMPORT_IGES
100
AcDbLine
 62
7
  6
CONTINUOUS
 10
28.3752295824
 20
-44.1869577723
 11
28.3032914782
 21
-44.1454216125
  0
LWPOLYLINE
  5
31A
100
AcDbEntity
  8
IMPORT_IGES
100
AcDbPolyline
 62
250
  6
CONTINUOUS
 90
14
 70
0
 10
8.2648394131
 20
-32.4353913801
 10
8.220087386
 20
-32.4068827585
 10
8.1785703191
 20
-32.3768139817
 10
8.1404637626
 20
-32.345315103
 10
8.1059293441
 20
-32.3125230705
 10
8.0751111683
 20
-32.2785784093
 10
8.0481362729
 20
-32.2436243049
 10
8.0251181493
 20
-32.2078107848
 10
8.0061533223
 20
-32.1712915038
 10
7.9913198497
 20
-32.134219977
 10
7.9806801151
 20
-32.0967549322
 10
7.9742784943
 20
-32.0590565596
 10
7.9721412636
 20
-32.021282791
 10
7.9722928905
 20
-32.0112258681
  0
LINE
  5
31B
100
AcDbEntity
  8
IMPORT_IGES
100
AcDbLine
 62
250
  6
CONTINUOUS
 10
-20.2485031913
 20
-44.3542937768
 11
-20.2484967155
 21
41.737452921
  0
LWPOLYLINE
  5
31C
100
AcDbEntity
  8
IMPORT_IGES
100
AcDbPolyline
 62
7
  6
CONTINUOUS
 90
51
 70
0
 10
-26.0125184823
 20
7.7050214364
 10
-26.0096281015
 20
7.7067048127
 10
-25.9919027844
 20
7.7176834442
 10
-25.9754000191
 20
7.7289801675
 10
-25.9600441137
 20
7.7405054268
 10
-25.9457163029
 20
7.7522233014
 10
-25.9323807938
 20
7.7640461569
 10
-25.9199899638
 20
7.7758989311
 10
-25.9084226968
 20
7.787794668
 10
-25.897639909
 20
7.7996805418
 10
-25.8876139376
 20
7.8114927029
 10
-25.8782543215
 20
7.8232507784
 10
-25.8695324881
 20
7.834914336
 10
-25.8614223399
 20
7.8464371566
 10
-25.8538466801
 20
7.857845293
 10
-25.8467812901
 20
7.8691071818
 10
-25.8402050551
 20
7.8801886092
 10
-25.83405276
 20
7.8911223361
 10
-25.8283022758
 20
7.9018868189
 10
-25.8229387265
 20
7.9124538471
 10
-25.817913737
 20
7.9228541997
 10
-25.8132095792
 20
7.9330719237
 10
-25.808813783
 20
7.943085055
 10
-25.8046905297
 20
7.9529212323
 10
-25.8008257873
 20
7.9625679522
 10
-25.7972088344
 20
7.9720085276
 10
-25.7938124808
 20
7.9812686622
 10
-25.7906253808
 20
7.9903388659
 10
-25.787638579
 20
7.9992060252
 10
-25.7848313815
 20
8.0078936678
 10
-25.7821930368
 20
8.0163952839
 10
-25.7797176022
 20
8.0246997583
 10
-25.777393922
 20
8.0328261824
 10
-25.7752130891
 20
8.0407697535
 10
-25.7731702721
 20
8.0485214663
 10
-25.7712622988
 20
8.056096
 10
-25.7694845326
 20
8.0634883198
 10
-25.7678302754
 20
8.0706925796
 10
-25.766294748
 20
8.0777236806
 10
-25.7648740849
 20
8.0845776527
 10
-25.7635627449
 20
8.0912498195
 10
-25.7623546104
 20
8.097755117
 10
-25.7612462746
 20
8.104090426
 10
-25.760233301
 20
8.1102519464
 10
-25.7593089697
 20
8.1162544368
 10
-25.7584708197
 20
8.1220951255
 10
-25.7577147558
 20
8.1277712202
 10
-25.7570323772
 20
8.1332981147
 10
-25.7564267563
 20
8.1386702639
 10
-25.7558893329
 20
8.1438887227
 10
-25.7553949133
 20
8.1489793284
  0
LINE
  5
31D
100
AcDbEntity
  8
IMPORT_IGES
100
AcDbLine
 62
250
  6
CONTINUOUS
 10
-25.7485750559
 20
8.4500352245
 11
-26.5943724581
 21
7.9951879139
  0
LINE
  5
31E
100
AcDbEntity
  8
IMPORT_IGES
100
AcDbLine
 62
7
  6
CONTINUOUS
 10
-26.8128071639
 20
7.5311965206
 11
-25.7626969399
 21
8.0959118162
  0
LWPOLYLINE
  5
31F
100
AcDbEntity
  8
IMPORT_IGES
100
AcDbPolyline
 62
250
  6
CONTINUOUS
 90
12
 70
0
 10
17.803596172
 20
-26.0488420712
 10
17.7660937575
 20
-26.0350716174
 10
17.7250719435
 20
-26.0243424342
 10
17.6827500657
 20
-26.0175699914
 10
17.6393049676
 20
-26.014783658
 10
17.5949147036
 20
-26.0159963612
 10
17.5497667197
 20
-26.0212047174
 10
17.5040477419
 20
-26.0303887779
 10
17.4579391956
 20
-26.0435149464
 10
17.4116307453
 20
-26.0605337575
 10
17.3653198165
 20
-26.0813773432
 10
17.3192009472
 20
-26.105962355
  0
LWPOLYLINE
  5
320
100
AcDbEntity
  8
IMPORT_IGES
100
AcDbPolyline
 62
7
  6
CONTINUOUS
 90
12
 70
0
 10
17.3192016186
 20
-26.1059683996
 10
17.2021489385
 20
-26.0603148358
 10
17.0863562709
 20
-26.022380858
 10
16.972143185
 20
-25.9922670833
 10
16.8598278261
 20
-25.9700517985
 10
16.7497170692
 20
-25.9557922945
 10
16.6421059828
 20
-25.9495258337
 10
16.5372924722
 20
-25.9512657946
 10
16.4355653499
 20
-25.9610040089
 10
16.3371952634
 20
-25.9787143311
 10
16.2424546961
 20
-26.0043450664
 10
16.1516059348
 20
-26.03782305
  0
LWPOLYLINE
  5
321
100
AcDbEntity
  8
IMPORT_IGES
100
AcDbPolyline
 62
7
  6
CONTINUOUS
 90
10
 70
0
 10
17.2552243103
 20
-33.6757399882
 10
16.4749023767
 20
-33.2321144479
 10
15.694555547
 20
-32.8023428519
 10
14.914362476
 20
-32.386523642
 10
14.1345018981
 20
-31.9847525066
 10
13.3551520984
 20
-31.5971210958
 10
12.5764908771
 20
-31.2237170854
 10
11.7986961584
 20
-30.8646258011
 10
11.0219459454
 20
-30.5199301142
 10
10.2464177945
 20
-30.1897092196
  0
LINE
  5
322
100
AcDbEntity
  8
IMPORT_IGES
100
AcDbLine
 62
7
  6
CONTINUOUS
 10
33.0583352087
 20
-44.7010511188
 11
33.1491173502
 21
-44.7534675895
  0
LINE
  5
323
100
AcDbEntity
  8
IMPORT_IGES
100
AcDbLine
 62
7
  6
CONTINUOUS
 10
31.215999302
 20
-43.3774561353
 11
30.4246801553
 21
-42.9205583776
  0
LINE
  5
324
100
AcDbEntity
  8
IMPORT_IGES
100
AcDbLine
 62
7
  6
CONTINUOUS
 10
31.1317186029
 20
-42.5123232392
 11
31.2036567072
 21
-42.553859399
  0
LINE
  5
325
100
AcDbEntity
  8
IMPORT_IGES
100
AcDbLine
 62
7
  6
CONTINUOUS
 10
32.9385842966
 20
-41.469061633
 11
33.0105224008
 21
-41.5105977928
  0
LINE
  5
326
100
AcDbEntity
  8
IMPORT_IGES
100
AcDbLine
 62
250
  6
CONTINUOUS
 10
-13.9864446319
 20
56.7533660394
 11
-13.9864446683
 21
56.7535918972
  0
LINE
  5
327
100
AcDbEntity
  8
IMPORT_IGES
100
AcDbLine
 62
7
  6
CONTINUOUS
 10
-18.1796950209
 20
55.161423566
 11
-18.1796950209
 21
54.3449532893
  0
LINE
  5
328
100
AcDbEntity
  8
IMPORT_IGES
100
AcDbLine
 62
7
  6
CONTINUOUS
 10
-17.1897455276
 20
54.5898391356
 11
-17.1897455272
 21
54.9981137287
  0
LINE
  5
329
100
AcDbEntity
  8
IMPORT_IGES
100
AcDbLine
 62
250
  6
CONTINUOUS
 10
-16.0910293242
 20
-44.2460974705
 11
-16.0910298454
 21
41.9145630547
  0
LINE
  5
32A
100
AcDbEntity
  8
IMPORT_IGES
100
AcDbLine
 62
7
  6
CONTINUOUS
 10
-15.5633999305
 20
55.9043667475
 11
-15.5633999305
 21
55.4961316091
  0
LINE
  5
32B
100
AcDbEntity
  8
IMPORT_IGES
100
AcDbLine
 62
7
  6
CONTINUOUS
 10
-13.9864446683
 20
56.1004156758
 11
-13.9864446683
 21
56.7535918972
  0
LWPOLYLINE
  5
32C
100
AcDbEntity
  8
IMPORT_IGES
100
AcDbPolyline
 62
250
  6
CONTINUOUS
 90
14
 70
0
 10
-16.0910306594
 20
-44.2461844381
 10
-16.0933306289
 20
-44.2991186436
 10
-16.0985576797
 20
-44.3497998633
 10
-16.1066454621
 20
-44.3980451378
 10
-16.1175124015
 20
-44.4436723773
 10
-16.1310729682
 20
-44.4865458434
 10
-16.1472473196
 20
-44.5265678282
 10
-16.1658833241
 20
-44.5635143273
 10
-16.1869139789
 20
-44.5973835915
 10
-16.2104486242
 20
-44.628344707
 10
-16.2365001726
 20
-44.6562980502
 10
-16.2649349819
 20
-44.68099347
 10
-16.2956966873
 20
-44.7022972859
 10
-16.3120526912
 20
-44.711700441
  0
LWPOLYLINE
  5
32D
100
AcDbEntity
  8
IMPORT_IGES
100
AcDbPolyline
 62
7
  6
CONTINUOUS
 90
14
 70
0
 10
-26.8126903264
 20
7.5312609336
 10
-26.8496675249
 20
7.5128194803
 10
-26.8995670878
 20
7.4922313028
 10
-26.9514772661
 20
7.4755719232
 10
-27.0054367115
 20
7.4629696596
 10
-27.0610856051
 20
7.4546678812
 10
-27.1181568498
 20
7.4508481765
 10
-27.1768931245
 20
7.4516957436
 10
-27.2373052892
 20
7.4575082924
 10
-27.2987225631
 20
7.4685069489
 10
-27.3604931921
 20
7.4847686334
 10
-27.4222798257
 20
7.5063451612
 10
-27.4839364228
 20
7.5333357583
 10
-27.5451897009
 20
7.5657913128
  0
LWPOLYLINE
  5
32E
100
AcDbEntity
  8
IMPORT_IGES
100
AcDbPolyline
 62
7
  6
CONTINUOUS
 90
10
 70
0
 10
17.3192037501
 20
-26.1059692139
 10
18.0910934333
 20
-26.4381114963
 10
18.8646106232
 20
-26.7844878177
 10
19.6395778861
 20
-27.1450190509
 10
20.4158168992
 20
-27.5196227318
 10
21.1931503033
 20
-27.9082132745
 10
21.9714017471
 20
-28.3107020625
 10
22.7503935093
 20
-28.7269971718
 10
23.5299465352
 20
-29.1570033218
 10
24.3098822917
 20
-29.6006221429
  0
LWPOLYLINE
  5
32F
100
AcDbEntity
  8
IMPORT_IGES
100
AcDbPolyline
 62
7
  6
CONTINUOUS
 90
13
 70
0
 10
17.803617291
 20
-26.0488580351
 10
18.9659572961
 20
-26.5541190078
 10
20.1311840439
 20
-27.0911405738
 10
21.2987184636
 20
-27.6596297269
 10
22.4679991261
 20
-28.2592885657
 10
23.6384354156
 20
-28.8897908698
 10
24.8094042614
 20
-29.5507765412
 10
25.9803164172
 20
-30.2418874683
 10
27.150602641
 20
-30.9627632165
 10
28.319664902
 20
-31.7130116483
 10
29.4869164649
 20
-32.4922324328
 10
30.6517849702
 20
-33.3000205859
 10
31.8135693688
 20
-34.1358634162
  0
LWPOLYLINE
  5
330
100
AcDbEntity
  8
IMPORT_IGES
100
AcDbPolyline
 62
7
  6
CONTINUOUS
 90
10
 70
0
 10
24.3098822917
 20
-29.6006221429
 10
25.0902038919
 20
-30.0578538742
 10
25.8705503875
 20
-30.5284971631
 10
26.6507431241
 20
-31.0124441455
 10
27.4306033674
 20
-31.5095834034
 10
28.2099528325
 20
-32.0198014163
 10
28.9886137197
 20
-32.5429826667
 10
29.7664081047
 20
-33.0790077264
 10
30.5431579847
 20
-33.6277532049
 10
31.3186858035
 20
-34.1890932595
  0
LWPOLYLINE
  5
331
100
AcDbEntity
  8
IMPORT_IGES
100
AcDbPolyline
 62
7
  6
CONTINUOUS
 90
10
 70
0
 10
24.2459018992
 20
-38.2728354223
 10
23.4740116372
 20
-37.7096229023
 10
22.7004940949
 20
-37.1592334746
 10
21.9255267075
 20
-36.6217928972
 10
21.1492878754
 20
-36.0974241798
 10
20.3719548823
 20
-35.5862469699
 10
19.59370385
 20
-35.0883776043
 10
18.8147124229
 20
-34.6039298287
 10
18.0351597321
 20
-34.1330146914
 10
17.2552243103
 20
-33.6757399882
  0
LWPOLYLINE
  5
332
100
AcDbEntity
  8
IMPORT_IGES
100
AcDbPolyline
 62
7
  6
CONTINUOUS
 90
28
 70
0
 10
24.2459019783
 20
-38.2728353771
 10
24.3629546582
 20
-38.3628802622
 10
24.4787473256
 20
-38.4593550545
 10
24.5929604112
 20
-38.5619913406
 10
24.7052757701
 20
-38.6705033414
 10
24.8153865269
 20
-38.7845906559
 10
24.9229976133
 20
-38.903939849
 10
25.027811124
 20
-39.0282215307
 10
25.1295382464
 20
-39.1570927743
 10
25.2279083329
 20
-39.2902012034
 10
25.3226489002
 20
-39.4271816123
 10
25.4134976613
 20
-39.5676568081
 10
25.5002132474
 20
-39.7112417464
 10
25.5825541184
 20
-39.8575424798
 10
25.6602918588
 20
-40.0061577917
 10
25.7332216497
 20
-40.1566813572
 10
25.8011392914
 20
-40.3087012445
 10
25.863854718
 20
-40.4618004794
 10
25.921203627
 20
-40.6155594238
 10
25.9730234637
 20
-40.7695563544
 10
26.0191678328
 20
-40.9233699178
 10
26.0595178522
 20
-41.0765800081
 10
26.0939568837
 20
-41.2287669856
 10
26.1223847392
 20
-41.3795131519
 10
26.1447297531
 20
-41.528405
 10
26.160927887
 20
-41.6750335808
 10
26.1709238295
 20
-41.818995884
 10
26.1746834638
 20
-41.9598960285
  0
LWPOLYLINE
  5
333
100
AcDbEntity
  8
IMPORT_IGES
100
AcDbPolyline
 62
250
  6
CONTINUOUS
 90
25
 70
0
 10
23.4430496528
 20
-39.4203446469
 10
23.534063085
 20
-39.4909393582
 10
23.6232750686
 20
-39.5665352997
 10
23.7106856035
 20
-39.6471324715
 10
23.7965795967
 20
-39.7330468888
 10
23.8806721412
 20
-39.8239625363
 10
23.9621085166
 20
-39.9189313679
 10
24.0408614107
 20
-40.0179914118
 10
24.1169581357
 20
-40.1211046399
 10
24.1896259069
 20
-40.2272089207
 10
24.2588308062
 20
-40.3363333543
 10
24.3246067516
 20
-40.4484488406
 10
24.3862827129
 20
-40.5624059486
 10
24.4438182736
 20
-40.6782228219
 10
24.4972538501
 20
-40.7958813168
 10
24.546039661
 20
-40.9141775711
 10
24.5901301158
 20
-41.0331181783
 10
24.629570805
 20
-41.1526965449
 10
24.6639487191
 20
-41.2716890293
 10
24.6932145427
 20
-41.3900948497
 10
24.7174175912
 20
-41.5079147879
 10
24.7362928013
 20
-41.6239275463
 10
24.7497518185
 20
-41.7377260261
 10
24.7578829974
 20
-41.8497173262
 10
24.7606863379
 20
-41.9599014467
  0
LWPOLYLINE
  5
334
100
AcDbEntity
  8
IMPORT_IGES
100
AcDbPolyline
 62
7
  6
CONTINUOUS
 90
13
 70
0
 10
-13.9864446683
 20
56.100415677
 10
-13.983499953
 20
56.0224407225
 10
-13.97456417
 20
55.9440122738
 10
-13.9595097948
 20
55.8654787958
 10
-13.9382967394
 20
55.7873603386
 10
-13.9108429504
 20
55.7098382878
 10
-13.8768816162
 20
55.6327513427
 10
-13.8362019079
 20
55.5562928104
 10
-13.7887713483
 20
55.4809656541
 10
-13.7344610898
 20
55.4070319867
 10
-13.6729198743
 20
55.3345118907
 10
-13.6042695626
 20
55.2640072327
 10
-13.529232273
 20
55.1964859805
  0
LINE
  5
335
100
AcDbEntity
  8
IMPORT_IGES
100
AcDbLine
 62
7
  6
CONTINUOUS
 10
-13.7249222994
 20
51.5240076086
 11
-13.7249222994
 21
52.5892936281
  0
LINE
  5
336
100
AcDbEntity
  8
IMPORT_IGES
100
AcDbLine
 62
7
  6
CONTINUOUS
 10
-13.6895669604
 20
54.8224390752
 11
-13.6895669604
 21
55.0265877372
  0
LINE
  5
337
100
AcDbEntity
  8
IMPORT_IGES
100
AcDbLine
 62
7
  6
CONTINUOUS
 10
-13.3360135698
 20
54.8224504405
 11
-13.3360135698
 21
54.6183017785
  0
LINE
  5
338
100
AcDbEntity
  8
IMPORT_IGES
100
AcDbLine
 62
7
  6
CONTINUOUS
 10
-13.0885261954
 20
52.6301210879
 11
-13.0885261968
 21
51.8895262025
  0
LINE
  5
339
100
AcDbEntity
  8
IMPORT_IGES
100
AcDbLine
 62
7
  6
CONTINUOUS
 10
-12.4521300933
 20
57.8150663849
 11
-12.4521300933
 21
56.5085876863
  0
LINE
  5
33A
100
AcDbEntity
  8
IMPORT_IGES
100
AcDbLine
 62
7
  6
CONTINUOUS
 10
-11.8864446683
 20
57.4884467103
 11
-11.8864446683
 21
56.8352073609
  0
LINE
  5
33B
100
AcDbEntity
  8
IMPORT_IGES
100
AcDbLine
 62
7
  6
CONTINUOUS
 10
-11.3207592434
 20
57.8150663849
 11
-11.3207592434
 21
56.5085876863
  0
LINE
  5
33C
100
AcDbEntity
  8
IMPORT_IGES
100
AcDbLine
 62
7
  6
CONTINUOUS
 10
-9.7864446683
 20
56.1004156758
 11
-9.7864446683
 21
56.7535918972
  0
LINE
  5
33D
100
AcDbEntity
  8
IMPORT_IGES
100
AcDbLine
 62
250
  6
CONTINUOUS
 10
-9.786444715
 20
56.1001599442
 11
-9.7864446683
 21
56.1004156758
  0
LWPOLYLINE
  5
33E
100
AcDbEntity
  8
IMPORT_IGES
100
AcDbPolyline
 62
250
  6
CONTINUOUS
 90
42
 70
0
 10
-9.7864446683
 20
56.7535918972
 10
-9.7884258408
 20
56.700935555
 10
-9.7973246133
 20
56.6303262372
 10
-9.813316232
 20
56.5602416652
 10
-9.8362552043
 20
56.4910721834
 10
-9.8658666225
 20
56.4232857097
 10
-9.9016103266
 20
56.3575728503
 10
-9.9434190011
 20
56.2936161593
 10
-9.9919836757
 20
56.2304210058
 10
-10.0481255477
 20
56.1674418558
 10
-10.1112589083
 20
56.1058065117
 10
-10.1798892285
 20
56.0469893398
 10
-10.2528773078
 20
55.9916465612
 10
-10.330441664
 20
55.9393210706
 10
-10.4128571981
 20
55.8897191387
 10
-10.4998650832
 20
55.8429661813
 10
-10.5911276872
 20
55.7992149648
 10
-10.6869954802
 20
55.7583189809
 10
-10.7880590386
 20
55.7201571997
 10
-10.8932615642
 20
55.6852554194
 10
-11.0003532023
 20
55.6543028821
 10
-11.1074840997
 20
55.6275796828
 10
-11.2155298866
 20
55.604623718
 10
-11.3263049983
 20
55.5850070839
 10
-11.440301718
 20
55.5687572959
 10
-11.5564237049
 20
55.5561445556
 10
-11.6742028998
 20
55.5472868079
 10
-11.7930523689
 20
55.5422778679
 10
-11.912818084
 20
55.5411738406
 10
-12.0336581638
 20
55.5440611793
 10
-12.1554019621
 20
55.5510638752
 10
-12.2773755889
 20
55.5622730761
 10
-12.3989560733
 20
55.5777423475
 10
-12.5199741372
 20
55.5975704195
 10
-12.6396421109
 20
55.6217513921
 10
-12.7564590363
 20
55.6500301273
 10
-12.8697875654
 20
55.6822251033
 10
-12.9794598745
 20
55.7182606959
 10
-13.0847975109
 20
55.757878804
 10
-13.1853758528
 20
55.8008539761
 10
-13.2809895154
 20
55.8470301978
 10
-13.3713555507
 20
55.8962075385
  0
LWPOLYLINE
  5
33F
100
AcDbEntity
  8
IMPORT_IGES
100
AcDbPolyline
 62
7
  6
CONTINUOUS
 90
3
 70
0
 10
-28.1740765203
 20
7.0114234181
 10
-28.1712302729
 20
7.0096478393
 10
-28.1657702521
 20
7.0062936435
  0
LWPOLYLINE
  5
340
100
AcDbEntity
  8
IMPORT_IGES
100
AcDbPolyline
 62
250
  6
CONTINUOUS
 90
14
 70
0
 10
31.8135693688
 20
-34.1358634162
 10
31.7856194403
 20
-34.1181793862
 10
31.7562723575
 20
-34.1046415927
 10
31.7246931229
 20
-34.0946087205
 10
31.6910108437
 20
-34.0881223277
 10
31.655365813
 20
-34.0852104683
 10
31.6179067895
 20
-34.0858862771
 10
31.5787869975
 20
-34.0901483101
 10
31.538168007
 20
-34.0979813724
 10
31.4962205431
 20
-34.1093538568
 10
31.4531209973
 20
-34.1242174125
 10
31.4090501047
 20
-34.1425098444
 10
31.3641919092
 20
-34.1641561703
 10
31.3187342276
 20
-34.1890665755
  0
LINE
  5
341
100
AcDbEntity
  8
IMPORT_IGES
100
AcDbLine
 62
7
  6
CONTINUOUS
 10
-28.1800034366
 20
7.0151812343
 11
-28.1740765203
 21
7.0114234181
  0
LINE
  5
342
100
AcDbEntity
  8
IMPORT_IGES
100
AcDbLine
 62
7
  6
CONTINUOUS
 10
-28.1862546717
 20
7.0191987502
 11
-28.1800034366
 21
7.0151812343
  0
LINE
  5
343
100
AcDbEntity
  8
IMPORT_IGES
100
AcDbLine
 62
7
  6
CONTINUOUS
 10
-28.2033962683
 20
7.0303457152
 11
-28.1862546717
 21
7.0191987502
  0
LINE
  5
344
100
AcDbEntity
  8
IMPORT_IGES
100
AcDbLine
 62
7
  6
CONTINUOUS
 10
-28.214820235
 20
7.0378469853
 11
-28.2033962683
 21
7.0303457152
  0
LINE
  5
345
100
AcDbEntity
  8
IMPORT_IGES
100
AcDbLine
 62
7
  6
CONTINUOUS
 10
-28.1427542862
 20
6.9922687747
 11
-28.1389424997
 21
6.9897532883
  0
LINE
  5
346
100
AcDbEntity
  8
IMPORT_IGES
100
AcDbLine
 62
7
  6
CONTINUOUS
 10
-28.2229538989
 20
7.0432459478
 11
-28.214820235
 21
7.0378469853
  0
LINE
  5
347
100
AcDbEntity
  8
IMPORT_IGES
100
AcDbLine
 62
7
  6
CONTINUOUS
 10
-28.23153393
 20
7.0490019368
 11
-28.2229538989
 21
7.0432459478
  0
LWPOLYLINE
  5
348
100
AcDbEntity
  8
IMPORT_IGES
100
AcDbPolyline
 62
7
  6
CONTINUOUS
 90
18
 70
0
 10
-28.1389424997
 20
6.9897532883
 10
-28.1353531034
 20
6.9873437022
 10
-28.1336387446
 20
6.9862410327
 10
-28.1319701258
 20
6.9852319441
 10
-28.1303536857
 20
6.9843085741
 10
-28.1288045532
 20
6.9835002694
 10
-28.1273323012
 20
6.9828442409
 10
-28.1259273696
 20
6.9823032705
 10
-28.1245761874
 20
6.9817950612
 10
-28.123285079
 20
6.9813281423
 10
-28.1220477288
 20
6.9808939794
 10
-28.1208316027
 20
6.9803846823
 10
-28.1196221081
 20
6.9797822391
 10
-28.1184338401
 20
6.9791046603
 10
-28.1172780441
 20
6.9782980901
 10
-28.1161584708
 20
6.9773445755
 10
-28.1150713741
 20
6.9762620669
 10
-28.1140167563
 20
6.9750505631
  0
LWPOLYLINE
  5
349
100
AcDbEntity
  8
IMPORT_IGES
100
AcDbPolyline
 62
250
  6
CONTINUOUS
 90
10
 70
0
 10
-28.7347428282
 20
8.8301417895
 10
-28.7614313787
 20
8.8481908994
 10
-28.7854600509
 20
8.8674428529
 10
-28.8066673074
 20
8.8877672463
 10
-28.8249103582
 20
8.9090260499
 10
-28.8400674187
 20
8.9310758505
 10
-28.8520377933
 20
8.9537689929
 10
-28.860741105
 20
8.9769527054
 10
-28.8661185629
 20
9.0004699682
 10
-28.8681341521
 20
9.0241619955
  0
LINE
  5
34A
100
AcDbEntity
  8
IMPORT_IGES
100
AcDbLine
 62
7
  6
CONTINUOUS
 10
-28.2405794814
 20
7.0551365007
 11
-28.23153393
 21
7.0490019368
  0
LINE
  5
34B
100
AcDbEntity
  8
IMPORT_IGES
100
AcDbLine
 62
7
  6
CONTINUOUS
 10
-28.2501202951
 20
7.0616805148
 11
-28.2405794814
 21
7.0551365007
  0
LINE
  5
34C
100
AcDbEntity
  8
IMPORT_IGES
100
AcDbLine
 62
7
  6
CONTINUOUS
 10
-28.2601896163
 20
7.0686703258
 11
-28.2501202951
 21
7.0616805148
  0
LINE
  5
34D
100
AcDbEntity
  8
IMPORT_IGES
100
AcDbLine
 62
7
  6
CONTINUOUS
 10
-28.2708103396
 20
7.0761315534
 11
-28.2601896163
 21
7.0686703258
  0
LINE
  5
34E
100
AcDbEntity
  8
IMPORT_IGES
100
AcDbLine
 62
7
  6
CONTINUOUS
 10
-28.2820180957
 20
7.0841042434
 11
-28.2708103396
 21
7.0761315534
  0
LINE
  5
34F
100
AcDbEntity
  8
IMPORT_IGES
100
AcDbLine
 62
7
  6
CONTINUOUS
 10
-28.2938527003
 20
7.0926349888
 11
-28.2820180957
 21
7.0841042434
  0
LINE
  5
350
100
AcDbEntity
  8
IMPORT_IGES
100
AcDbLine
 62
7
  6
CONTINUOUS
 10
-28.3063416251
 20
7.1017567081
 11
-28.2938527003
 21
7.0926349888
  0
LINE
  5
351
100
AcDbEntity
  8
IMPORT_IGES
100
AcDbLine
 62
7
  6
CONTINUOUS
 10
-28.3195276235
 20
7.1115206569
 11
-28.3063416251
 21
7.1017567081
  0
LINE
  5
352
100
AcDbEntity
  8
IMPORT_IGES
100
AcDbLine
 62
7
  6
CONTINUOUS
 10
-28.3334593115
 20
7.1219881975
 11
-28.3195276235
 21
7.1115206569
  0
LINE
  5
353
100
AcDbEntity
  8
IMPORT_IGES
100
AcDbLine
 62
7
  6
CONTINUOUS
 10
-28.348170275
 20
7.1332036201
 11
-28.3334593115
 21
7.1219881975
  0
LINE
  5
354
100
AcDbEntity
  8
IMPORT_IGES
100
AcDbLine
 62
7
  6
CONTINUOUS
 10
-28.3637130951
 20
7.145237314
 11
-28.348170275
 21
7.1332036201
  0
LWPOLYLINE
  5
355
100
AcDbEntity
  8
IMPORT_IGES
100
AcDbPolyline
 62
7
  6
CONTINUOUS
 90
3
 70
0
 10
-28.3887055651
 20
7.1649911557
 10
-28.3801471953
 20
7.1581739127
 10
-28.3637130951
 20
7.145237314
  0
LWPOLYLINE
  5
356
100
AcDbEntity
  8
IMPORT_IGES
100
AcDbPolyline
 62
250
  6
CONTINUOUS
 90
3
 70
0
 10
-13.9795385523
 20
56.0021613725
 10
-13.9859286844
 20
56.0735385138
 10
-13.9864446683
 20
56.1004156758
  0
LWPOLYLINE
  5
357
100
AcDbEntity
  8
IMPORT_IGES
100
AcDbPolyline
 62
7
  6
CONTINUOUS
 90
25
 70
0
 10
-6.017459558
 20
47.7310192661
 10
-6.0190335482
 20
47.7857654234
 10
-6.023569026
 20
47.8415254635
 10
-6.0310659913
 20
47.8982993863
 10
-6.0415832925
 20
47.9563369598
 10
-6.0550620812
 20
48.0153884161
 10
-6.0713258126
 20
48.0747044513
 10
-6.0904089606
 20
48.1342877945
 10
-6.1122770514
 20
48.1941357167
 10
-6.1366501177
 20
48.2534907274
 10
-6.1635591482
 20
48.3123462603
 10
-6.1929731542
 20
48.3707088817
 10
-6.2245192029
 20
48.4278407996
 10
-6.258223802
 20
48.4837267162
 10
-6.2940604438
 20
48.5383819293
 10
-6.3315766715
 20
48.5911145395
 10
-6.3707936729
 20
48.641901002
 10
-6.4116902603
 20
48.6907648615
 10
-6.4537504141
 20
48.7370848535
 10
-6.4969892397
 20
48.7808298447
 10
-6.5413916317
 20
48.8220309682
 10
-6.5863962537
 20
48.8601603595
 10
-6.6318159936
 20
48.8950420636
 10
-6.6778379634
 20
48.9268520354
 10
-6.7244621632
 20
48.955590275
  0
LWPOLYLINE
  5
358
100
AcDbEntity
  8
IMPORT_IGES
100
AcDbPolyline
 62
7
  6
CONTINUOUS
 90
16
 70
0
 10
-9.7864447049
 20
56.7538181802
 10
-9.7871902668
 20
56.7928427354
 10
-9.7933882034
 20
56.8732552456
 10
-9.8060110237
 20
56.954065121
 10
-9.8252586857
 20
57.0350861814
 10
-9.8512089052
 20
57.1157142683
 10
-9.8840751043
 20
57.1958916098
 10
-9.9240918569
 20
57.2754488535
 10
-9.971263077
 20
57.3537846257
 10
-10.0254579547
 20
57.4302872549
 10
-10.0866681707
 20
57.5046606587
 10
-10.1548989741
 20
57.5766485582
 10
-10.2299634663
 20
57.6458375447
 10
-10.3117695183
 20
57.711970689
 10
-10.4003404049
 20
57.7748870338
 10
-10.4955171737
 20
57.8342909487
  0
LINE
  5
359
100
AcDbEntity
  8
IMPORT_IGES
100
AcDbLine
 62
7
  6
CONTINUOUS
 10
-8.6337534749
 20
55.2800549574
 11
-8.6337534749
 21
55.2729258417
  0
LINE
  5
35A
100
AcDbEntity
  8
IMPORT_IGES
100
AcDbLine
 62
7
  6
CONTINUOUS
 10
-6.3710117252
 20
47.5268891413
 11
-6.3710117252
 21
-39.0191590803
  0
LINE
  5
35B
100
AcDbEntity
  8
IMPORT_IGES
100
AcDbLine
 62
7
  6
CONTINUOUS
 10
-6.0174584049
 20
-38.8150482216
 11
-6.0174583906
 21
47.7310248906
  0
LINE
  5
35C
100
AcDbEntity
  8
IMPORT_IGES
100
AcDbLine
 62
250
  6
CONTINUOUS
 10
-4.8604180111
 20
48.3989395316
 11
-4.8604180111
 21
-38.0993513525
  0
LINE
  5
35D
100
AcDbEntity
  8
IMPORT_IGES
100
AcDbLine
 62
250
  6
CONTINUOUS
 10
-4.8111889747
 20
48.4282506146
 11
-4.8111885526
 21
-38.0690122975
  0
LWPOLYLINE
  5
35E
100
AcDbEntity
  8
IMPORT_IGES
100
AcDbPolyline
 62
7
  6
CONTINUOUS
 90
14
 70
0
 10
-6.3710117763
 20
-39.0191591074
 10
-6.3725842676
 20
-39.0720896787
 10
-6.3771182692
 20
-39.1226144053
 10
-6.3846137809
 20
-39.1707332873
 10
-6.3951296055
 20
-39.2166281905
 10
-6.4086069403
 20
-39.260117249
 10
-6.424869377
 20
-39.3006548652
 10
-6.4439514443
 20
-39.3382039229
 10
-6.4658186135
 20
-39.3728015382
 10
-6.490190891
 20
-39.404013461
 10
-6.5170992522
 20
-39.4317973224
 10
-6.5465127216
 20
-39.4561954913
 10
-6.5780583802
 20
-39.4769008252
 10
-6.586850401
 20
-39.4817972894
  0
LINE
  5
35F
100
AcDbEntity
  8
IMPORT_IGES
100
AcDbLine
 62
7
  6
CONTINUOUS
 10
-1.7851176896
 20
9.6520723726
 11
-0.3751900895
 21
10.5488707497
  0
LINE
  5
360
100
AcDbEntity
  8
IMPORT_IGES
100
AcDbLine
 62
7
  6
CONTINUOUS
 10
-0.3751900893
 20
5.2688529616
 11
-1.7851316649
 21
4.4307420412
  0
LINE
  5
361
100
AcDbEntity
  8
IMPORT_IGES
100
AcDbLine
 62
7
  6
CONTINUOUS
 10
-0.2423618986
 20
5.4328499331
 11
-1.8816184591
 21
4.48636049
  0
LWPOLYLINE
  5
362
100
AcDbEntity
  8
IMPORT_IGES
100
AcDbPolyline
 62
7
  6
CONTINUOUS
 90
15
 70
0
 10
-1.7851312271
 20
4.4307601208
 10
-1.8841480661
 20
4.3753726457
 10
-1.9820731228
 20
4.3272808744
 10
-2.0789063972
 20
4.2864848071
 10
-2.1749575598
 20
4.2529034751
 10
-2.2699169401
 20
4.226617847
 10
-2.3628555268
 20
4.2078708285
 10
-2.4537532156
 20
4.1967345064
 10
-2.5426301107
 20
4.1931367939
 10
-2.628617514
 20
4.1971043358
 10
-2.7116874178
 20
4.2087101955
 10
-2.7918678297
 20
4.2278813097
 10
-2.8683740739
 20
4.2544251328
 10
-2.9411705142
 20
4.2884130457
 10
-2.96572922
 20
4.3020213371
  0
LWPOLYLINE
  5
363
100
AcDbEntity
  8
IMPORT_IGES
100
AcDbPolyline
 62
250
  6
CONTINUOUS
 90
19
 70
0
 10
-27.2952550527
 20
7.9987094936
 10
-27.2631905659
 20
7.9817441506
 10
-27.2290790082
 20
7.9666074062
 10
-27.1932469566
 20
7.9533558281
 10
-27.1562315691
 20
7.9420851172
 10
-27.1181544303
 20
7.9327360919
 10
-27.0786424238
 20
7.9251995997
 10
-27.0377530494
 20
7.9195379188
 10
-26.9959502428
 20
7.9158651731
 10
-26.9534219098
 20
7.9142402678
 10
-26.9103844282
 20
7.914727785
 10
-26.8672451602
 20
7.9173797933
 10
-26.8244930829
 20
7.9222050787
 10
-26.7825396096
 20
7.9291781429
 10
-26.7416361327
 20
7.9382788388
 10
-26.7020371118
 20
7.9494868855
 10
-26.664057253
 20
7.962760886
 10
-26.6280592767
 20
7.9780242404
 10
-26.5943724431
 20
7.9951882263
  0
LWPOLYLINE
  5
364
100
AcDbEntity
  8
IMPORT_IGES
100
AcDbPolyline
 62
7
  6
CONTINUOUS
 90
78
 70
0
 10
-27.3342977113
 20
6.5248464101
 10
-27.2913996144
 20
6.5007095639
 10
-27.247780807
 20
6.4777998104
 10
-27.203439625
 20
6.456118163
 10
-27.1582360997
 20
6.4355699613
 10
-27.1123065626
 20
6.4162520851
 10
-27.0660648342
 20
6.3984522515
 10
-27.0195034988
 20
6.3821998903
 10
-26.9726286161
 20
6.3674664595
 10
-26.9258764262
 20
6.3544514144
 10
-26.8792386447
 20
6.3431875462
 10
-26.832724464
 20
6.3336416089
 10
-26.7867986667
 20
6.3259126147
 10
-26.7415290285
 20
6.3200376416
 10
-26.6968511127
 20
6.3159776925
 10
-26.6530331925
 20
6.3137165805
 10
-26.6102128888
 20
6.3132534561
 10
-26.5682571041
 20
6.3145865151
 10
-26.5270282968
 20
6.3176979756
 10
-26.4865262031
 20
6.3225737753
 10
-26.4467545036
 20
6.3292259676
 10
-26.4075809151
 20
6.3376763374
 10
-26.3688337729
 20
6.3479763115
 10
-26.3306871772
 20
6.3600730329
 10
-26.2935279584
 20
6.3738315731
 10
-26.2572742724
 20
6.3893842245
 10
-26.2220118792
 20
6.4065963473
 10
-26.1883809154
 20
6.4249314487
 10
-26.1565125384
 20
6.444435866
 10
-26.1262815404
 20
6.4650596479
 10
-26.0979448934
 20
6.4861210176
 10
-26.0716708553
 20
6.5075322973
 10
-26.0472968781
 20
6.5293776734
 10
-26.0245835253
 20
6.5512332827
 10
-26.0035814235
 20
6.573003184
 10
-25.9842438512
 20
6.5947809213
 10
-25.9661844163
 20
6.6164274318
 10
-25.9493622037
 20
6.6379409949
 10
-25.9338204669
 20
6.6593218918
 10
-25.9192983229
 20
6.6804345196
 10
-25.9057838204
 20
6.7012558672
 10
-25.8932904145
 20
6.7218080178
 10
-25.8815948869
 20
6.7420232851
 10
-25.8706789764
 20
6.7618898315
 10
-25.860561887
 20
6.7814189117
 10
-25.8510763112
 20
6.8005776557
 10
-25.8422093906
 20
6.8193582043
 10
-25.8339745883
 20
6.8377680422
 10
-25.8262439038
 20
6.8557974238
 10
-25.8190078066
 20
6.8734418102
 10
-25.8122762203
 20
6.8907054967
 10
-25.8059502146
 20
6.9075920567
 10
-25.8000224765
 20
6.9240996173
 10
-25.7945005776
 20
6.940229891
 10
-25.789307845
 20
6.9559918728
 10
-25.784438153
 20
6.971382227
 10
-25.7798977994
 20
6.9864041824
 10
-25.775628702
 20
7.0010766088
 10
-25.771624693
 20
7.0153962318
 10
-25.7678920565
 20
7.0293662535
 10
-25.7643913606
 20
7.0430152748
 10
-25.7611204756
 20
7.0563453976
 10
-25.7580816128
 20
7.0693544693
 10
-25.7552418353
 20
7.0820647198
 10
-25.7525998642
 20
7.0944784969
 10
-25.750157035
 20
7.1065934175
 10
-25.7478843197
 20
7.1184246222
 10
-25.7457809337
 20
7.1299715596
 10
-25.7438477003
 20
7.1412347571
 10
-25.7420579942
 20
7.1522309793
 10
-25.7404108433
 20
7.1629603939
 10
-25.7389072452
 20
7.1734228171
 10
-25.7375235229
 20
7.1836344902
 10
-25.7362622733
 20
7.1935977958
 10
-25.7351209161
 20
7.2033103408
 10
-25.7340680036
 20
7.2127812054
 10
-25.7331061655
 20
7.2220122174
 10
-25.7314085244
 20
7.2397527739
  0
LINE
  5
365
100
AcDbEntity
  8
IMPORT_IGES
100
AcDbLine
 62
7
  6
CONTINUOUS
 10
-27.3342977113
 20
6.5248464101
 11
-27.6389263166
 21
6.6991169631
  0
LINE
  5
366
100
AcDbEntity
  8
IMPORT_IGES
100
AcDbLine
 62
7
  6
CONTINUOUS
 10
-28.2646644401
 20
7.9811863405
 11
-27.5452119554
 21
7.5657834927
  0
LINE
  5
367
100
AcDbEntity
  8
IMPORT_IGES
100
AcDbLine
 62
250
  6
CONTINUOUS
 10
-27.64868602
 20
7.7946126366
 11
-28.3682317388
 21
8.2100691536
  0
LINE
  5
368
100
AcDbEntity
  8
IMPORT_IGES
100
AcDbLine
 62
7
  6
CONTINUOUS
 10
-27.6389263166
 20
6.6991169631
 11
-27.8986073796
 21
6.849305534
  0
LINE
  5
369
100
AcDbEntity
  8
IMPORT_IGES
100
AcDbLine
 62
7
  6
CONTINUOUS
 10
-27.8986073796
 20
6.849305534
 11
-28.1140167563
 21
6.9750505631
  0
LINE
  5
36A
100
AcDbEntity
  8
IMPORT_IGES
100
AcDbLine
 62
250
  6
CONTINUOUS
 10
-27.5471892917
 20
7.5669433887
 11
-27.5452119554
 21
7.5657834927
  0
LINE
  5
36B
100
AcDbEntity
  8
IMPORT_IGES
100
AcDbLine
 62
250
  6
CONTINUOUS
 10
-28.7217041653
 20
8.822303321
 11
-28.7246467114
 21
8.8240333744
  0
LINE
  5
36C
100
AcDbEntity
  8
IMPORT_IGES
100
AcDbLine
 62
250
  6
CONTINUOUS
 10
-28.7246467114
 20
8.8240333744
 11
-28.7275630545
 21
8.8257663921
  0
LWPOLYLINE
  5
36D
100
AcDbEntity
  8
IMPORT_IGES
100
AcDbPolyline
 62
7
  6
CONTINUOUS
 90
7
 70
0
 10
-28.1631547306
 20
7.0047160536
 10
-28.1534126508
 20
6.9988975338
 10
-28.1511483043
 20
6.9975288601
 10
-28.148950425
 20
6.9961831775
 10
-28.1468193924
 20
6.9948630446
 10
-28.1447532703
 20
6.993560763
 10
-28.1427542862
 20
6.9922687747
  0
LINE
  5
36E
100
AcDbEntity
  8
IMPORT_IGES
100
AcDbLine
 62
7
  6
CONTINUOUS
 10
-28.1657702521
 20
7.0062936435
 11
-28.1631547306
 21
7.0047160536
  0
LINE
  5
36F
100
AcDbEntity
  8
IMPORT_IGES
100
AcDbLine
 62
250
  6
CONTINUOUS
 10
-28.7275630545
 20
8.8257663921
 11
-28.7304534313
 21
8.8275048814
  0
LINE
  5
370
100
AcDbEntity
  8
IMPORT_IGES
100
AcDbLine
 62
250
  6
CONTINUOUS
 10
-28.2704437896
 20
7.9846812499
 11
-28.2646644401
 21
7.9811863405
  0
LWPOLYLINE
  5
371
100
AcDbEntity
  8
IMPORT_IGES
100
AcDbPolyline
 62
7
  6
CONTINUOUS
 90
22
 70
0
 10
-28.3682317388
 20
8.2100691536
 10
-28.3926002635
 20
8.2249898246
 10
-28.4171262337
 20
8.2424013153
 10
-28.4418096493
 20
8.2623036257
 10
-28.4669722989
 20
8.2849951986
 10
-28.4922923939
 20
8.3101775911
 10
-28.5168045694
 20
8.3369554746
 10
-28.5403397529
 20
8.3652684019
 10
-28.5630670169
 20
8.3951768201
 10
-28.5845282133
 20
8.425966742
 10
-28.6046080382
 20
8.4574444171
 10
-28.6234217957
 20
8.4898035959
 10
-28.6408572493
 20
8.5229115428
 10
-28.6570019942
 20
8.556957616
 10
-28.6717684353
 20
8.5917524573
 10
-28.6847815502
 20
8.6265952566
 10
-28.6960491533
 20
8.6617321973
 10
-28.7055634301
 20
8.6969170961
 10
-28.7129259156
 20
8.7307105934
 10
-28.7180037879
 20
8.7626329028
 10
-28.7209298689
 20
8.7931638106
 10
-28.7217041584
 20
8.8223033171
  0
LWPOLYLINE
  5
372
100
AcDbEntity
  8
IMPORT_IGES
100
AcDbPolyline
 62
250
  6
CONTINUOUS
 90
3
 70
0
 10
-28.7304534313
 20
8.8275048814
 10
-28.7333192751
 20
8.8292593021
 10
-28.7347428282
 20
8.8301417895
  0
LWPOLYLINE
  5
373
100
AcDbEntity
  8
IMPORT_IGES
100
AcDbPolyline
 62
7
  6
CONTINUOUS
 90
19
 70
0
 10
-28.2646302716
 20
7.9811874469
 10
-28.3236910388
 20
8.0181123159
 10
-28.3802598396
 20
8.0590461965
 10
-28.4343287379
 20
8.1037118858
 10
-28.4861510645
 20
8.1521417319
 10
-28.5354778984
 20
8.2039935053
 10
-28.5815970028
 20
8.258308874
 10
-28.6243266738
 20
8.3145501657
 10
-28.6639288328
 20
8.3728033904
 10
-28.7003680912
 20
8.432871021
 10
-28.7336057759
 20
8.4946118214
 10
-28.7635618481
 20
8.5578796663
 10
-28.7901053348
 20
8.6224801868
 10
-28.8131940178
 20
8.6885540849
 10
-28.8325666891
 20
8.7557775916
 10
-28.8478781687
 20
8.8233290608
 10
-28.8589910938
 20
8.8909121627
 10
-28.8658098136
 20
8.9586784846
 10
-28.8681322131
 20
9.0264971965
  0
LINE
  5
374
100
AcDbEntity
  8
IMPORT_IGES
100
AcDbLine
 62
7
  6
CONTINUOUS
 10
-27.1025843992
 20
14.9371489314
 11
-27.0880548688
 21
14.9264624056
  0
LINE
  5
375
100
AcDbEntity
  8
IMPORT_IGES
100
AcDbLine
 62
7
  6
CONTINUOUS
 10
-27.0880548688
 20
14.9264624056
 11
-27.0726906205
 21
14.9149946034
  0
LINE
  5
376
100
AcDbEntity
  8
IMPORT_IGES
100
AcDbLine
 62
7
  6
CONTINUOUS
 10
-27.0726906205
 20
14.9149946034
 11
-27.0564531487
 21
14.9026956394
  0
LWPOLYLINE
  5
377
100
AcDbEntity
  8
IMPORT_IGES
100
AcDbPolyline
 62
7
  6
CONTINUOUS
 90
28
 70
0
 10
31.3186908147
 20
-34.1890930512
 10
31.4361832251
 20
-34.2788620367
 10
31.5525613011
 20
-34.3749774235
 10
31.6675055409
 20
-34.4771711388
 10
31.7807010295
 20
-34.5851560241
 10
31.8918377142
 20
-34.6986337047
 10
32.0006109596
 20
-34.8172961332
 10
32.1067236135
 20
-34.9408135759
 10
32.2098860595
 20
-35.0688439048
 10
32.3098157329
 20
-35.2010417794
 10
32.4062410858
 20
-35.3370416282
 10
32.4988987223
 20
-35.4764669668
 10
32.5875322703
 20
-35.618941359
 10
32.6719009287
 20
-35.7640704488
 10
32.7517752869
 20
-35.9114536182
 10
32.826932912
 20
-36.060694617
 10
32.8971701815
 20
-36.2113811085
 10
32.962296131
 20
-36.3630965648
 10
33.0221266209
 20
-36.5154326608
 10
33.076499491
 20
-36.6679673277
 10
33.1252675826
 20
-36.8202794522
 10
33.1682904423
 20
-36.9719610839
 10
33.2054516605
 20
-37.122592222
 10
33.2366504527
 20
-37.2717552881
 10
33.2617923609
 20
-37.4190496241
 10
33.2808056349
 20
-37.564070445
 10
33.2936423281
 20
-37.7064102203
 10
33.3002681563
 20
-37.8456728651
  0
LWPOLYLINE
  5
378
100
AcDbEntity
  8
IMPORT_IGES
100
AcDbPolyline
 62
7
  6
CONTINUOUS
 90
25
 70
0
 10
31.8135774224
 20
-34.1358621506
 10
31.9394178901
 20
-34.2323478401
 10
32.0617964029
 20
-34.3347015589
 10
32.1805740644
 20
-34.4425340703
 10
32.2956855759
 20
-34.555544037
 10
32.4069824576
 20
-34.6733737356
 10
32.5142003675
 20
-34.7955383604
 10
32.6171371645
 20
-34.9216005109
 10
32.7157529422
 20
-35.0513283019
 10
32.809980826
 20
-35.1844947835
 10
32.89965636
 20
-35.3207587358
 10
32.9846569622
 20
-35.459849672
 10
33.0649329268
 20
-35.6016517944
 10
33.140315471
 20
-35.7458836497
 10
33.2106295888
 20
-35.8922623217
 10
33.2757789324
 20
-36.0407050971
 10
33.3356051633
 20
-36.191065288
 10
33.389842549
 20
-36.3429588896
 10
33.4382365442
 20
-36.4960051528
 10
33.4805943695
 20
-36.6500321698
 10
33.5166603759
 20
-36.8046998749
 10
33.5461444951
 20
-36.9594678151
 10
33.5688198088
 20
-37.1140311546
 10
33.5844638632
 20
-37.2682366774
 10
33.5928031994
 20
-37.4214970139
  0
LINE
  5
379
100
AcDbEntity
  8
IMPORT_IGES
100
AcDbLine
 62
7
  6
CONTINUOUS
 10
-27.0564531487
 20
14.9026956394
 11
-27.0392830084
 21
14.8894867505
  0
LWPOLYLINE
  5
37A
100
AcDbEntity
  8
IMPORT_IGES
100
AcDbPolyline
 62
7
  6
CONTINUOUS
 90
3
 70
0
 10
-27.0392830084
 20
14.8894867505
 10
-27.0211133356
 20
14.8752734066
 10
-27.0116452794
 20
14.86777873
  0
LWPOLYLINE
  5
37B
100
AcDbEntity
  8
IMPORT_IGES
100
AcDbPolyline
 62
7
  6
CONTINUOUS
 90
69
 70
0
 10
-27.0116452794
 20
14.86777873
 10
-26.9918701146
 20
14.8519045384
 10
-26.9815626999
 20
14.843525206
 10
-26.9709485429
 20
14.8348077245
 10
-26.9600283121
 20
14.8257546874
 10
-26.9488009745
 20
14.8163637188
 10
-26.9372373983
 20
14.8065847269
 10
-26.9253382408
 20
14.7964208141
 10
-26.9131024105
 20
14.7858691378
 10
-26.9004981029
 20
14.774870718
 10
-26.8875261266
 20
14.7634294756
 10
-26.8741851559
 20
14.7515417996
 10
-26.8604401264
 20
14.7391374466
 10
-26.8462911943
 20
14.7262206312
 10
-26.8317375866
 20
14.7127875093
 10
-26.8167427773
 20
14.6987557898
 10
-26.8013084516
 20
14.6841323712
 10
-26.7854321932
 20
14.6689107952
 10
-26.7690712422
 20
14.6529887845
 10
-26.7522278349
 20
14.6363757831
 10
-26.7348988621
 20
14.619062874
 10
-26.7170334424
 20
14.6009203016
 10
-26.6986316012
 20
14.5819580152
 10
-26.6796922603
 20
14.5621667025
 10
-26.6601627584
 20
14.5413877913
 10
-26.6400387439
 20
14.5196297779
 10
-26.6193233044
 20
14.4968849328
 10
-26.5979748102
 20
14.4729704224
 10
-26.5759921625
 20
14.4479025934
 10
-26.553374989
 20
14.4216659945
 10
-26.5300826237
 20
14.3940301725
 10
-26.5061096738
 20
14.3650103304
 10
-26.4814598271
 20
14.3345923067
 10
-26.4561059185
 20
14.3025016757
 10
-26.430043111
 20
14.2687636591
 10
-26.4032743215
 20
14.2333542133
 10
-26.3757839224
 20
14.195925072
 10
-26.3475446159
 20
14.1564817066
 10
-26.3185815608
 20
14.1150199641
 10
-26.2889578551
 20
14.0711771195
 10
-26.2585370023
 20
14.0247658414
 10
-26.2274532942
 20
13.9759748284
 10
-26.1961768594
 20
13.9250048844
 10
-26.1645543202
 20
13.8715108961
 10
-26.1327383164
 20
13.815838454
 10
-26.1016603502
 20
13.7592229803
 10
-26.0714495069
 20
13.7017394733
 10
-26.0419793189
 20
13.6433113501
 10
-26.0138003327
 20
13.5849452007
 10
-25.9871327942
 20
13.5270517806
 10
-25.961760467
 20
13.4692178798
 10
-25.9375797493
 20
13.4112137831
 10
-25.9145672701
 20
13.3529968071
 10
-25.8927493743
 20
13.2946078074
 10
-25.8720967412
 20
13.2359425548
 10
-25.8525571372
 20
13.176841109
 10
-25.8341852356
 20
13.117461905
 10
-25.8171120552
 20
13.0581782864
 10
-25.8013438312
 20
12.9989398541
 10
-25.7868765726
 20
12.9397956171
 10
-25.7738260356
 20
12.8812679823
 10
-25.7622196467
 20
12.8233617424
 10
-25.7520318171
 20
12.7660709632
 10
-25.7432987277
 20
12.7099019927
 10
-25.7360504168
 20
12.6548737072
 10
-25.7302580656
 20
12.6009664715
 10
-25.7258694058
 20
12.5486289678
 10
-25.7228671877
 20
12.4980106488
 10
-25.7219935403
 20
12.4763081329
  0
LINE
  5
37C
100
AcDbEntity
  8
IMPORT_IGES
100
AcDbLine
 62
7
  6
CONTINUOUS
 10
-3.467025709
 20
5.4366445257
 11
-3.4670257427
 21
6.5765791043
  0
LINE
  5
37D
100
AcDbEntity
  8
IMPORT_IGES
100
AcDbLine
 62
250
  6
CONTINUOUS
 10
-0.375190089
 20
10.54887075
 11
-0.3751900886
 21
51.0650278692
  0
LINE
  5
37E
100
AcDbEntity
  8
IMPORT_IGES
100
AcDbLine
 62
250
  6
CONTINUOUS
 10
-0.3751899615
 20
-35.2473313067
 11
-0.3751900898
 21
5.2688529613
  0
LINE
  5
37F
100
AcDbEntity
  8
IMPORT_IGES
100
AcDbLine
 62
7
  6
CONTINUOUS
 10
-0.2423618986
 20
10.7214186823
 11
-0.2423618986
 21
5.4328499331
  0
LINE
  5
380
100
AcDbEntity
  8
IMPORT_IGES
100
AcDbLine
 62
7
  6
CONTINUOUS
 10
-0.2397826706
 20
-35.0497430444
 11
-0.2397826706
 21
5.4621353509
  0
LINE
  5
381
100
AcDbEntity
  8
IMPORT_IGES
100
AcDbLine
 62
7
  6
CONTINUOUS
 10
-0.2397826706
 20
10.7214186823
 11
-0.2397826706
 21
51.2625828297
  0
LWPOLYLINE
  5
382
100
AcDbEntity
  8
IMPORT_IGES
100
AcDbPolyline
 62
250
  6
CONTINUOUS
 90
9
 70
0
 10
-4.8604182561
 20
-38.0993514773
 10
-4.8611543985
 20
-38.1513952034
 10
-4.8649379476
 20
-38.2012524545
 10
-4.8717065669
 20
-38.2487429424
 10
-4.8813823325
 20
-38.2936865824
 10
-4.8938819724
 20
-38.3359500031
 10
-4.9091273156
 20
-38.3754381226
 10
-4.9269705498
 20
-38.4119297443
 10
-4.9473434391
 20
-38.4454219336
  0
LWPOLYLINE
  5
383
100
AcDbEntity
  8
IMPORT_IGES
100
AcDbPolyline
 62
250
  6
CONTINUOUS
 90
13
 70
0
 10
-4.8111894118
 20
-38.0689543497
 10
-4.8119723976
 20
-38.1209671111
 10
-4.8158413387
 20
-38.1708225199
 10
-4.8227334308
 20
-38.2183397973
 10
-4.8325703557
 20
-38.263339001
 10
-4.8452679491
 20
-38.3056850017
 10
-4.8607462561
 20
-38.3452796094
 10
-4.8788548709
 20
-38.3818998728
 10
-4.8995250305
 20
-38.4155432851
 10
-4.9228645774
 20
-38.4463781372
 10
-4.948890076
 20
-38.4743070738
 10
-4.9774711714
 20
-38.4990818431
 10
-5.0036814087
 20
-38.5175281016
  0
LWPOLYLINE
  5
384
100
AcDbEntity
  8
IMPORT_IGES
100
AcDbPolyline
 62
7
  6
CONTINUOUS
 90
28
 70
0
 10
-3.4670428163
 20
6.5765692142
 10
-3.4641109657
 20
6.696442375
 10
-3.4556140297
 20
6.818564706
 10
-3.4415520083
 20
6.9429362071
 10
-3.4218407122
 20
7.0699809147
 10
-3.3965643306
 20
7.1992747924
 10
-3.3659754314
 20
7.3295457311
 10
-3.3300220187
 20
7.4608025055
 10
-3.2887560884
 20
7.5930363409
 10
-3.2425861971
 20
7.7249488047
 10
-3.1914645563
 20
7.8565370213
 10
-3.1354389545
 20
7.9878038663
 10
-3.0750613138
 20
8.1174595332
 10
-3.0102896542
 20
8.2454876736
 10
-2.9411659557
 20
8.3719046361
 10
-2.8683680812
 20
8.4954696593
 10
-2.791860392
 20
8.6161551982
 10
-2.7116785267
 20
8.7339887979
 10
-2.6286072634
 20
8.8478123328
 10
-2.5426185968
 20
8.9575871847
 10
-2.4537405323
 20
9.0633519718
 10
-2.3628418642
 20
9.1640644225
 10
-2.269902486
 20
9.2596765066
 10
-2.1749425043
 20
9.3502362542
 10
-2.0788910336
 20
9.4348454846
 10
-1.9820577787
 20
9.5132048041
 10
-1.8841330348
 20
9.5856136064
 10
-1.785116802
 20
9.6520718915
  0
LWPOLYLINE
  5
385
100
AcDbEntity
  8
IMPORT_IGES
100
AcDbPolyline
 62
7
  6
CONTINUOUS
 90
3
 70
0
 10
-25.7792417027
 20
8.0263640842
 10
-25.8319695776
 20
8.0425665149
 10
-25.8493782843
 20
8.0492973943
  0
LWPOLYLINE
  5
386
100
AcDbEntity
  8
IMPORT_IGES
100
AcDbPolyline
 62
7
  6
CONTINUOUS
 90
20
 70
0
 10
-26.5094186579
 20
7.6943490411
 10
-26.4821728057
 20
7.6841227497
 10
-26.4524036093
 20
7.6742243501
 10
-26.4227718314
 20
7.6656661022
 10
-26.3933290535
 20
7.6584512758
 10
-26.3641060923
 20
7.6525939765
 10
-26.3351289815
 20
7.6481095927
 10
-26.3064406343
 20
7.6449961302
 10
-26.2780968597
 20
7.6432400587
 10
-26.2501148874
 20
7.6428476081
 10
-26.2225450538
 20
7.643820208
 10
-26.1954909201
 20
7.6461314794
 10
-26.1688770954
 20
7.6497862893
 10
-26.1428446457
 20
7.6547800734
 10
-26.1177931794
 20
7.6610046118
 10
-26.0936996674
 20
7.6683985653
 10
-26.0705859211
 20
7.6768865008
 10
-26.0488551971
 20
7.6862116937
 10
-26.0285973904
 20
7.6961744726
 10
-26.0125184823
 20
7.7050214364
  0
LINE
  5
387
100
AcDbEntity
  8
IMPORT_IGES
100
AcDbLine
 62
250
  6
CONTINUOUS
 10
-27.28196595
 20
12.9044075769
 11
-27.2849963565
 21
12.9060452448
  0
LWPOLYLINE
  5
388
100
AcDbEntity
  8
IMPORT_IGES
100
AcDbPolyline
 62
250
  6
CONTINUOUS
 90
7
 70
0
 10
-27.2849963565
 20
12.9060452448
 10
-27.2879823968
 20
12.9076843285
 10
-27.2894588717
 20
12.90850397
 10
-27.2909242913
 20
12.9093316997
 10
-27.2923786714
 20
12.9101698933
 10
-27.2938220721
 20
12.911016074
 10
-27.295254532
 20
12.9118701918
  0
LINE
  5
389
100
AcDbEntity
  8
IMPORT_IGES
100
AcDbLine
 62
7
  6
CONTINUOUS
 10
-27.638797278
 20
15.2615912951
 11
-27.3341071762
 21
15.087281257
  0
LINE
  5
38A
100
AcDbEntity
  8
IMPORT_IGES
100
AcDbLine
 62
250
  6
CONTINUOUS
 10
-28.3682302325
 20
13.9394887686
 11
-27.6487271095
 21
13.5240566829
  0
LINE
  5
38B
100
AcDbEntity
  8
IMPORT_IGES
100
AcDbLine
 62
250
  6
CONTINUOUS
 10
-28.0208188222
 20
14.5482192306
 11
-27.3013729581
 21
14.1328201901
  0
LINE
  5
38C
100
AcDbEntity
  8
IMPORT_IGES
100
AcDbLine
 62
7
  6
CONTINUOUS
 10
-27.8986199891
 20
15.4118616079
 11
-27.638797278
 21
15.2615912951
  0
LWPOLYLINE
  5
38D
100
AcDbEntity
  8
IMPORT_IGES
100
AcDbPolyline
 62
7
  6
CONTINUOUS
 90
3
 70
0
 10
-27.316896917
 20
15.077377738
 10
-27.3156376596
 20
15.0766464369
 10
-27.3068005376
 20
15.0715727197
  0
LINE
  5
38E
100
AcDbEntity
  8
IMPORT_IGES
100
AcDbLine
 62
7
  6
CONTINUOUS
 10
-27.3068005376
 20
15.0715727197
 11
-27.3030952634
 21
15.0694215809
  0
LINE
  5
38F
100
AcDbEntity
  8
IMPORT_IGES
100
AcDbLine
 62
7
  6
CONTINUOUS
 10
-28.1140272327
 20
15.5376010506
 11
-27.8986199891
 21
15.4118616079
  0
LINE
  5
390
100
AcDbEntity
  8
IMPORT_IGES
100
AcDbLine
 62
7
  6
CONTINUOUS
 10
-28.1374794218
 20
15.5514240788
 11
-28.1140272327
 21
15.5376010506
  0
LINE
  5
391
100
AcDbEntity
  8
IMPORT_IGES
100
AcDbLine
 62
7
  6
CONTINUOUS
 10
-27.3030952634
 20
15.0694215809
 11
-27.2980311646
 21
15.0664447079
  0
LINE
  5
392
100
AcDbEntity
  8
IMPORT_IGES
100
AcDbLine
 62
7
  6
CONTINUOUS
 10
-27.3282886069
 20
15.0841846373
 11
-27.3253231251
 21
15.0824250755
  0
LINE
  5
393
100
AcDbEntity
  8
IMPORT_IGES
100
AcDbLine
 62
7
  6
CONTINUOUS
 10
-27.2980311646
 20
15.0664447079
 11
-27.2924928986
 21
15.0631490366
  0
LWPOLYLINE
  5
394
100
AcDbEntity
  8
IMPORT_IGES
100
AcDbPolyline
 62
7
  6
CONTINUOUS
 90
3
 70
0
 10
-27.3206758089
 20
15.0796108939
 10
-27.3194087893
 20
15.0788526783
 10
-27.3181509529
 20
15.0781104324
  0
LINE
  5
395
100
AcDbEntity
  8
IMPORT_IGES
100
AcDbLine
 62
7
  6
CONTINUOUS
 10
-27.2924928986
 20
15.0631490366
 11
-27.2843628662
 21
15.0582536151
  0
LINE
  5
396
100
AcDbEntity
  8
IMPORT_IGES
100
AcDbLine
 62
7
  6
CONTINUOUS
 10
-27.3253231251
 20
15.0824250755
 11
-27.3219466283
 21
15.0803786616
  0
LINE
  5
397
100
AcDbEntity
  8
IMPORT_IGES
100
AcDbLine
 62
7
  6
CONTINUOUS
 10
-27.2843628662
 20
15.0582536151
 11
-27.2728689878
 21
15.0512588583
  0
LWPOLYLINE
  5
398
100
AcDbEntity
  8
IMPORT_IGES
100
AcDbPolyline
 62
7
  6
CONTINUOUS
 90
22
 70
0
 10
-27.6487271095
 20
13.5240566829
 10
-27.6243476715
 20
13.5091279259
 10
-27.5998126248
 20
13.4917086727
 10
-27.5751219691
 20
13.4717989232
 10
-27.549953798
 20
13.449099604
 10
-27.524630018
 20
13.4239097886
 10
-27.5001163491
 20
13.3971266977
 10
-27.4765824934
 20
13.3688114718
 10
-27.4538587487
 20
13.3389029704
 10
-27.4324017284
 20
13.3081149934
 10
-27.4123266064
 20
13.2766420878
 10
-27.3935182088
 20
13.2442897066
 10
-27.3760876269
 20
13.2111880085
 10
-27.3599470146
 20
13.1771464495
 10
-27.345184218
 20
13.1423555735
 10
-27.3321738668
 20
13.1075171715
 10
-27.3209077893
 20
13.0723845082
 10
-27.3113941572
 20
13.0372043189
 10
-27.3040321149
 20
13.0034186009
 10
-27.2989547104
 20
12.9715080199
 10
-27.2960288957
 20
12.9409919103
 10
-27.2952546708
 20
12.9118702719
  0
LINE
  5
399
100
AcDbEntity
  8
IMPORT_IGES
100
AcDbLine
 62
7
  6
CONTINUOUS
 10
-27.2728689878
 20
15.0512588583
 11
-27.2596128373
 21
15.0431028172
  0
LWPOLYLINE
  5
39A
100
AcDbEntity
  8
IMPORT_IGES
100
AcDbPolyline
 62
7
  6
CONTINUOUS
 90
25
 70
0
 10
-27.3013729722
 20
14.1328201818
 10
-27.25547438
 20
14.1041115114
 10
-27.2097602869
 20
14.0720454935
 10
-27.1644249468
 20
14.0367628367
 10
-27.1196609258
 20
13.9984195002
 10
-27.0756581533
 20
13.9571810224
 10
-27.0326033279
 20
13.9132210448
 10
-26.9906796114
 20
13.8667292118
 10
-26.950064574
 20
13.8179063928
 10
-26.9109298016
 20
13.7669577517
 10
-26.8734422701
 20
13.7141018441
 10
-26.8377609016
 20
13.6595654909
 10
-26.8040355662
 20
13.6035773003
 10
-26.7724108388
 20
13.5463764032
 10
-26.7430215374
 20
13.4882075654
 10
-26.7159907206
 20
13.4293148783
 10
-26.6914353731
 20
13.3699493804
 10
-26.6694612946
 20
13.310364954
 10
-26.6501603833
 20
13.250812779
 10
-26.6336178598
 20
13.1915472035
 10
-26.6199063465
 20
13.132821543
 10
-26.6090828207
 20
13.074883926
 10
-26.6011957338
 20
13.0179815102
 10
-26.5962839664
 20
12.9623592135
 10
-26.5943723191
 20
12.9082556715
  0
LINE
  5
39B
100
AcDbEntity
  8
IMPORT_IGES
100
AcDbLine
 62
7
  6
CONTINUOUS
 10
-27.2596128373
 20
15.0431028172
 11
-27.2476302988
 21
15.0356385382
  0
LWPOLYLINE
  5
39C
100
AcDbEntity
  8
IMPORT_IGES
100
AcDbPolyline
 62
250
  6
CONTINUOUS
 90
11
 70
0
 10
-28.7217035059
 20
13.7354162424
 10
-28.7510924848
 20
13.7539260439
 10
-28.7773129369
 20
13.7736187514
 10
-28.8002668889
 20
13.7943058047
 10
-28.8197880855
 20
13.8156773746
 10
-28.8359795295
 20
13.8376629426
 10
-28.8490317806
 20
13.8604769881
 10
-28.8588374815
 20
13.8840859939
 10
-28.8651984699
 20
13.9082224077
 10
-28.8680127237
 20
13.9327777345
 10
-28.8681501113
 20
13.9395449686
  0
LINE
  5
39D
100
AcDbEntity
  8
IMPORT_IGES
100
AcDbLine
 62
7
  6
CONTINUOUS
 10
-27.2476302988
 20
15.0356385382
 11
-27.2377830489
 21
15.02943305
  0
LINE
  5
39E
100
AcDbEntity
  8
IMPORT_IGES
100
AcDbLine
 62
7
  6
CONTINUOUS
 10
-27.2377830489
 20
15.02943305
 11
-27.2271247887
 21
15.0226376383
  0
LINE
  5
39F
100
AcDbEntity
  8
IMPORT_IGES
100
AcDbLine
 62
7
  6
CONTINUOUS
 10
-27.2271247887
 20
15.0226376383
 11
-27.2155785188
 21
15.0151789931
  0
LINE
  5
3A0
100
AcDbEntity
  8
IMPORT_IGES
100
AcDbLine
 62
7
  6
CONTINUOUS
 10
-27.2155785188
 20
15.0151789931
 11
-27.2030708486
 21
15.0069869149
  0
LINE
  5
3A1
100
AcDbEntity
  8
IMPORT_IGES
100
AcDbLine
 62
7
  6
CONTINUOUS
 10
-27.2030708486
 20
15.0069869149
 11
-27.194163529
 21
15.0010836662
  0
LINE
  5
3A2
100
AcDbEntity
  8
IMPORT_IGES
100
AcDbLine
 62
7
  6
CONTINUOUS
 10
-27.194163529
 20
15.0010836662
 11
-27.1847677107
 21
14.9947938836
  0
LINE
  5
3A3
100
AcDbEntity
  8
IMPORT_IGES
100
AcDbLine
 62
7
  6
CONTINUOUS
 10
-27.1847677107
 20
14.9947938836
 11
-27.1748597264
 21
14.9880949209
  0
LINE
  5
3A4
100
AcDbEntity
  8
IMPORT_IGES
100
AcDbLine
 62
7
  6
CONTINUOUS
 10
-27.1748597264
 20
14.9880949209
 11
-27.1643956206
 21
14.9809465076
  0
LINE
  5
3A5
100
AcDbEntity
  8
IMPORT_IGES
100
AcDbLine
 62
7
  6
CONTINUOUS
 10
-27.1643956206
 20
14.9809465076
 11
-27.1533420927
 21
14.9733106483
  0
LINE
  5
3A6
100
AcDbEntity
  8
IMPORT_IGES
100
AcDbLine
 62
7
  6
CONTINUOUS
 10
-27.1533420927
 20
14.9733106483
 11
-27.1416742323
 21
14.965159446
  0
LINE
  5
3A7
100
AcDbEntity
  8
IMPORT_IGES
100
AcDbLine
 62
7
  6
CONTINUOUS
 10
-27.1416742323
 20
14.965159446
 11
-27.1293536724
 21
14.9564488661
  0
LINE
  5
3A8
100
AcDbEntity
  8
IMPORT_IGES
100
AcDbLine
 62
7
  6
CONTINUOUS
 10
-27.1293536724
 20
14.9564488661
 11
-27.1163343267
 21
14.9471246406
  0
LINE
  5
3A9
100
AcDbEntity
  8
IMPORT_IGES
100
AcDbLine
 62
7
  6
CONTINUOUS
 10
-27.1163343267
 20
14.9471246406
 11
-27.1025843992
 21
14.9371489314
  0
LWPOLYLINE
  5
3AA
100
AcDbEntity
  8
IMPORT_IGES
100
AcDbPolyline
 62
7
  6
CONTINUOUS
 90
19
 70
0
 10
-0.2398044319
 20
51.2625484406
 10
-0.2422546594
 20
51.3321575773
 10
-0.2494228453
 20
51.4016122377
 10
-0.2610728848
 20
51.4707676612
 10
-0.2771061451
 20
51.5398594312
 10
-0.2973506903
 20
51.6085008412
 10
-0.3213326204
 20
51.6755958625
 10
-0.3486771101
 20
51.7407182986
 10
-0.3793276997
 20
51.8041379983
 10
-0.4131309997
 20
51.8657255337
 10
-0.4499840295
 20
51.925376802
 10
-0.4898002468
 20
51.9829494123
 10
-0.5324767681
 20
52.0382327127
 10
-0.5781565755
 20
52.0912604958
 10
-0.6266898415
 20
52.1416446426
 10
-0.6775374485
 20
52.1886753423
 10
-0.7305113855
 20
52.2320854677
 10
-0.7857907748
 20
52.2718679975
 10
-0.8433656768
 20
52.3077838328
  0
LWPOLYLINE
  5
3AB
100
AcDbEntity
  8
IMPORT_IGES
100
AcDbPolyline
 62
7
  6
CONTINUOUS
 90
25
 70
0
 10
-0.3751901292
 20
51.0650278447
 10
-0.3763099305
 20
51.119589842
 10
-0.3805045822
 20
51.1756269225
 10
-0.387755169
 20
51.2328971825
 10
-0.3980298045
 20
51.2911520834
 10
-0.4112827321
 20
51.3501427538
 10
-0.4274552595
 20
51.4096212104
 10
-0.4464765741
 20
51.4693329501
 10
-0.4682647181
 20
51.5290219222
 10
-0.4927270331
 20
51.5884369203
 10
-0.5197572421
 20
51.647324334
 10
-0.5492393193
 20
51.7054326802
 10
-0.5810504498
 20
51.7625174313
 10
-0.6150530953
 20
51.8183354957
 10
-0.6511013639
 20
51.87264867
 10
-0.6890466491
 20
51.9252274641
 10
-0.7287251783
 20
51.9758480665
 10
-0.769966473
 20
52.0242942255
 10
-0.8126012274
 20
52.0703594874
 10
-0.8564451896
 20
52.1138473138
 10
-0.9013095541
 20
52.1545715564
 10
-0.9470105445
 20
52.1923566747
 10
-0.9933539182
 20
52.2270399211
 10
-1.0401355802
 20
52.258472739
 10
-1.0871525774
 20
52.2865200048
  0
LWPOLYLINE
  5
3AC
100
AcDbEntity
  8
IMPORT_IGES
100
AcDbPolyline
 62
7
  6
CONTINUOUS
 90
13
 70
0
 10
-0.3751889824
 20
-35.2473891707
 10
-0.3763122478
 20
-35.2996780042
 10
-0.3805074392
 20
-35.3500138458
 10
-0.3877566389
 20
-35.3981826617
 10
-0.3980293931
 20
-35.4439806375
 10
-0.4112807333
 20
-35.4872121716
 10
-0.4274509969
 20
-35.5276910316
 10
-0.4464685306
 20
-35.5652438648
 10
-0.4682519725
 20
-35.5997137005
 10
-0.4927089692
 20
-35.6309571402
 10
-0.5197333636
 20
-35.6588408517
 10
-0.5492092394
 20
-35.683246733
 10
-0.568420101
 20
-35.6964329731
  0
LWPOLYLINE
  5
3AD
100
AcDbEntity
  8
IMPORT_IGES
100
AcDbPolyline
 62
7
  6
CONTINUOUS
 90
15
 70
0
 10
-0.2398047443
 20
-35.0497865861
 10
-0.2421287841
 20
-35.1162596841
 10
-0.2489298944
 20
-35.180080046
 10
-0.2599485218
 20
-35.2410879969
 10
-0.2748732507
 20
-35.2990148489
 10
-0.2934559859
 20
-35.3539245083
 10
-0.3155863746
 20
-35.4060863412
 10
-0.3409978141
 20
-35.4552745524
 10
-0.3694570291
 20
-35.5014002072
 10
-0.4010253036
 20
-35.5447617671
 10
-0.4354735231
 20
-35.585137112
 10
-0.4725746439
 20
-35.6223619912
 10
-0.512525925
 20
-35.6566427477
 10
-0.5551575636
 20
-35.6877588004
 10
-0.5684217712
 20
-35.6964322451
  0
LWPOLYLINE
  5
3AE
100
AcDbEntity
  8
IMPORT_IGES
100
AcDbPolyline
 62
250
  6
CONTINUOUS
 90
10
 70
0
 10
-0.2397826763
 20
-35.049786589
 10
-0.2409919389
 20
-35.0698104192
 10
-0.2457754421
 20
-35.0943086782
 10
-0.2541633725
 20
-35.1184871488
 10
-0.2660967865
 20
-35.1421690127
 10
-0.2814909406
 20
-35.1651812417
 10
-0.3002408397
 20
-35.1873608069
 10
-0.3222160898
 20
-35.2085460486
 10
-0.3472589055
 20
-35.2285785352
 10
-0.3751900886
 20
-35.2473098204
  0
LWPOLYLINE
  5
3AF
100
AcDbEntity
  8
IMPORT_IGES
100
AcDbPolyline
 62
7
  6
CONTINUOUS
 90
14
 70
0
 10
-3.0224606008
 20
4.3388523542
 10
-2.9807208052
 20
4.3193004195
 10
-2.9030839628
 20
4.2921093375
 10
-2.8217196733
 20
4.2722599847
 10
-2.7374250976
 20
4.2599507639
 10
-2.6501718576
 20
4.2552546846
 10
-2.5599883313
 20
4.2580987373
 10
-2.4677568146
 20
4.2684622958
 10
-2.3734568153
 20
4.2864181712
 10
-2.2771088254
 20
4.3118935524
 10
-2.1796566176
 20
4.3446493808
 10
-2.0814147827
 20
4.3846059701
 10
-1.9820687299
 20
4.4318430065
 10
-1.8816184591
 20
4.48636049
  0
LWPOLYLINE
  5
3B0
100
AcDbEntity
  8
IMPORT_IGES
100
AcDbPolyline
 62
7
  6
CONTINUOUS
 90
6
 70
0
 10
-27.3341071762
 20
15.087281257
 10
-27.3329790929
 20
15.0867324505
 10
-27.3318277338
 20
15.0861459618
 10
-27.3306530973
 20
15.085521792
 10
-27.3294515616
 20
15.0848540392
 10
-27.3282886069
 20
15.0841846373
  0
LWPOLYLINE
  5
3B1
100
AcDbEntity
  8
IMPORT_IGES
100
AcDbPolyline
 62
7
  6
CONTINUOUS
 90
22
 70
0
 10
-27.4671141336
 20
15.1624078603
 10
-27.488417901
 20
15.1729967563
 10
-27.5172333454
 20
15.1861172156
 10
-27.5458960152
 20
15.197979915
 10
-27.5743233828
 20
15.2086011274
 10
-27.6024687296
 20
15.217977009
 10
-27.6303080649
 20
15.2260866688
 10
-27.6577934002
 20
15.232923449
 10
-27.6848737254
 20
15.2384860478
 10
-27.711531716
 20
15.242762805
 10
-27.7377703387
 20
15.245733518
 10
-27.7635566556
 20
15.247396928
 10
-27.7888569414
 20
15.2477477138
 10
-27.8136737064
 20
15.2467618423
 10
-27.8380467075
 20
15.244425102
 10
-27.8618710974
 20
15.2407513281
 10
-27.8849458448
 20
15.2357904102
 10
-27.9073961055
 20
15.2295334047
 10
-27.9290573321
 20
15.2220435983
 10
-27.9493593469
 20
15.2136105975
 10
-27.96816859
 20
15.2044602494
 10
-27.9812894128
 20
15.1972459388
  0
LINE
  5
3B2
100
AcDbEntity
  8
IMPORT_IGES
100
AcDbLine
 62
250
  6
CONTINUOUS
 10
-1.8816186352
 20
4.4863605882
 11
-1.7851316649
 21
4.4307420412
  0
LWPOLYLINE
  5
3B3
100
AcDbEntity
  8
IMPORT_IGES
100
AcDbPolyline
 62
7
  6
CONTINUOUS
 90
15
 70
0
 10
-2.96572922
 20
4.3020213371
 10
-3.0102927868
 20
4.3297736676
 10
-3.0750631251
 20
4.3781003106
 10
-3.1354395555
 20
4.4334609623
 10
-3.1914640517
 20
4.4957876352
 10
-3.2425847676
 20
4.564469679
 10
-3.2887539242
 20
4.639568756
 10
-3.3300193006
 20
4.721023204
 10
-3.3659723883
 20
4.8080373856
 10
-3.3965618166
 20
4.9006661173
 10
-3.4218389561
 20
4.9988545827
 10
-3.4415494108
 20
5.1016426951
 10
-3.4556083818
 20
5.2087104258
 10
-3.464100668
 20
5.3203778036
 10
-3.4670262692
 20
5.4366448286
  0
LWPOLYLINE
  5
3B4
100
AcDbEntity
  8
IMPORT_IGES
100
AcDbPolyline
 62
250
  6
CONTINUOUS
 90
25
 70
0
 10
9.6353938715
 20
-31.4479674381
 10
9.6314879463
 20
-31.3907342404
 10
9.6305566907
 20
-31.3320988124
 10
9.6326017994
 20
-31.2723081962
 10
9.6376089968
 20
-31.2116145339
 10
9.6455582596
 20
-31.1502722656
 10
9.6564248994
 20
-31.0885368969
 10
9.6701653157
 20
-31.0266680642
 10
9.6867173099
 20
-30.964923779
 10
9.7060118966
 20
-30.9035575564
 10
9.7279676127
 20
-30.8428261559
 10
9.7524919767
 20
-30.7829833334
 10
9.7794841599
 20
-30.7242742786
 10
9.8088312403
 20
-30.6669445889
 10
9.8404104723
 20
-30.6112340309
 10
9.8740927486
 20
-30.5573711182
 10
9.9097377765
 20
-30.5055815546
 10
9.947196797
 20
-30.4560827515
 10
9.9863165858
 20
-30.4090789503
 10
10.0269355718
 20
-30.3647658637
 10
10.068883031
 20
-30.3233330421
 10
10.111982576
 20
-30.2849587905
 10
10.156053473
 20
-30.2498058115
 10
10.2009116767
 20
-30.2180212018
 10
10.2463693702
 20
-30.189739172
  0
LWPOLYLINE
  5
3B5
100
AcDbEntity
  8
IMPORT_IGES
100
AcDbPolyline
 62
7
  6
CONTINUOUS
 90
14
 70
0
 10
7.4115144925
 20
-50.5594290088
 10
7.4113586902
 20
-50.5695089171
 10
7.4135142184
 20
-50.607159754
 10
7.4199280977
 20
-50.6448105043
 10
7.4305229555
 20
-50.6819881152
 10
7.4453493397
 20
-50.7186870772
 10
7.4643567023
 20
-50.7549128998
 10
7.4873160276
 20
-50.7902090592
 10
7.5142755653
 20
-50.8245651644
 10
7.5451870656
 20
-50.8579916062
 10
7.5796767627
 20
-50.8900630338
 10
7.617620068
 20
-50.9206376633
 10
7.65914157
 20
-50.9498572786
 10
7.7042412687
 20
-50.9777218796
  0
LINE
  5
3B6
100
AcDbEntity
  8
IMPORT_IGES
100
AcDbLine
 62
7
  6
CONTINUOUS
 10
7.4115059008
 20
-50.5594289204
 11
7.9722934588
 21
-32.0112070544
  0
LINE
  5
3B7
100
AcDbEntity
  8
IMPORT_IGES
100
AcDbLine
 62
250
  6
CONTINUOUS
 10
8.2648384725
 20
-32.4354349215
 11
7.7042398659
 21
-50.9777226696
  0
LINE
  5
3B8
100
AcDbEntity
  8
IMPORT_IGES
100
AcDbLine
 62
7
  6
CONTINUOUS
 10
-29.6551220055
 20
9.7026173388
 11
-28.8681501113
 21
9.6940077255
  0
LWPOLYLINE
  5
3B9
100
AcDbEntity
  8
IMPORT_IGES
100
AcDbPolyline
 62
250
  6
CONTINUOUS
 90
25
 70
0
 10
8.2648384725
 20
-32.4354349215
 10
8.2708639289
 20
-32.3303632555
 10
8.2821805461
 20
-32.2296096931
 10
8.298788324
 20
-32.1331742344
 10
8.3207863076
 20
-32.040755803
 10
8.3480754519
 20
-31.9526554753
 10
8.3803586223
 20
-31.8697764803
 10
8.4176842719
 20
-31.7921766164
 10
8.4600039476
 20
-31.7197980853
 10
8.5068751553
 20
-31.6533707208
 10
8.5583425111
 20
-31.5929532258
 10
8.6143613988
 20
-31.5384868974
 10
8.6743554763
 20
-31.4905254618
 10
8.7383639254
 20
-31.449133046
 10
8.8063475642
 20
-31.414245523
 10
8.8776125046
 20
-31.3862242374
 10
8.9521912108
 20
-31.3651366398
 10
9.0300512186
 20
-31.3509152797
 10
9.1104012466
 20
-31.3437191495
 10
9.1932670227
 20
-31.3436171731
 10
9.2786228189
 20
-31.3505404267
 10
9.3656001699
 20
-31.3644411316
 10
9.4539095871
 20
-31.3853033616
 10
9.5438405592
 20
-31.4131430429
 10
9.6353930859
 20
-31.4479601755
  0
LINE
  5
3BA
100
AcDbEntity
  8
IMPORT_IGES
100
AcDbLine
 62
7
  6
CONTINUOUS
 10
-29.6551239291
 20
14.6729157463
 11
-28.4216017268
 21
14.6592901828
  0
LWPOLYLINE
  5
3BB
100
AcDbEntity
  8
IMPORT_IGES
100
AcDbPolyline
 62
250
  6
CONTINUOUS
 90
10
 70
0
 10
-26.9457032683
 20
12.8272466245
 10
-26.986347171
 20
12.8283923023
 10
-27.0268102915
 20
12.8314534928
 10
-27.0668193856
 20
12.8364261242
 10
-27.1061104981
 20
12.843294729
 10
-27.144399912
 20
12.8520281101
 10
-27.181389321
 20
12.8625745637
 10
-27.2168087483
 20
12.8748700251
 10
-27.250415217
 20
12.8888430366
 10
-27.28196595
 20
12.9044075769
  0
LINE
  5
3BC
100
AcDbEntity
  8
IMPORT_IGES
100
AcDbLine
 62
7
  6
CONTINUOUS
 10
-34.3728480607
 20
49.9252384504
 11
-34.3694766922
 21
49.922277924
  0
LWPOLYLINE
  5
3BD
100
AcDbEntity
  8
IMPORT_IGES
100
AcDbPolyline
 62
7
  6
CONTINUOUS
 90
3
 70
0
 10
-34.3828571032
 20
49.9342046521
 10
-34.3795382091
 20
49.9312056248
 10
-34.3728480607
 20
49.9252384504
  0
LWPOLYLINE
  5
3BE
100
AcDbEntity
  8
IMPORT_IGES
100
AcDbPolyline
 62
250
  6
CONTINUOUS
 90
25
 70
0
 10
-33.4637676653
 20
50.9829084454
 10
-33.5396995357
 20
51.0447927043
 10
-33.6087776172
 20
51.1087615918
 10
-33.6710019098
 20
51.174815108
 10
-33.7265309613
 20
51.243196023
 10
-33.7752062238
 20
51.3136615667
 10
-33.8165520547
 20
51.3854834284
 10
-33.8504958322
 20
51.4586738046
 10
-33.877110178
 20
51.5332204989
 10
-33.8961373145
 20
51.6083586104
 10
-33.9075025883
 20
51.6840937384
 10
-33.9112806529
 20
51.7604202836
 10
-33.9074376913
 20
51.836556548
 10
-33.8958985763
 20
51.9125006502
 10
-33.8767384351
 20
51.9882544715
 10
-33.8501488327
 20
52.0630419582
 10
-33.8160566292
 20
52.1368538102
 10
-33.7745349644
 20
52.2096993274
 10
-33.7259948229
 20
52.2808303566
 10
-33.6703664728
 20
52.3502311635
 10
-33.6077196458
 20
52.4179174824
 10
-33.5386745223
 20
52.4831883622
 10
-33.4634378288
 20
52.5458101526
 10
-33.3818028388
 20
52.6060165039
 10
-33.2937695521
 20
52.663807416
  0
LINE
  5
3BF
100
AcDbEntity
  8
IMPORT_IGES
100
AcDbLine
 62
7
  6
CONTINUOUS
 10
-34.3184081712
 20
49.8789702723
 11
-34.2953073829
 21
49.8600730043
  0
LWPOLYLINE
  5
3C0
100
AcDbEntity
  8
IMPORT_IGES
100
AcDbPolyline
 62
7
  6
CONTINUOUS
 90
3
 70
0
 10
-34.2953073829
 20
49.8600730043
 10
-34.2836179471
 20
49.8504526642
 10
-34.2718366324
 20
49.8406149596
  0
LWPOLYLINE
  5
3C1
100
AcDbEntity
  8
IMPORT_IGES
100
AcDbPolyline
 62
7
  6
CONTINUOUS
 90
3
 70
0
 10
-34.3523548329
 20
49.9073827999
 10
-34.3411341054
 20
49.8979241013
 10
-34.3184081712
 20
49.8789702723
  0
LINE
  5
3C2
100
AcDbEntity
  8
IMPORT_IGES
100
AcDbLine
 62
7
  6
CONTINUOUS
 10
-34.2718366324
 20
49.8406149596
 11
-34.2480011201
 21
49.8204434208
  0
LINE
  5
3C3
100
AcDbEntity
  8
IMPORT_IGES
100
AcDbLine
 62
7
  6
CONTINUOUS
 10
-34.3694766922
 20
49.922277924
 11
-34.3523548329
 21
49.9073827999
  0
LWPOLYLINE
  5
3C4
100
AcDbEntity
  8
IMPORT_IGES
100
AcDbPolyline
 62
250
  6
CONTINUOUS
 90
4
 70
0
 10
-4.9473434391
 20
-38.4454219336
 10
-4.9703520917
 20
-38.4760818969
 10
-4.996012619
 20
-38.5038118402
 10
-5.0241966364
 20
-38.5283646586
  0
LINE
  5
3C5
100
AcDbEntity
  8
IMPORT_IGES
100
AcDbLine
 62
7
  6
CONTINUOUS
 10
26.5683638888
 20
-45.2302193784
 11
26.6177342679
 21
-48.5246063237
  0
LINE
  5
3C6
100
AcDbEntity
  8
IMPORT_IGES
100
AcDbLine
 62
7
  6
CONTINUOUS
 10
28.3875721772
 20
-45.0105545086
 11
28.3752295824
 21
-44.1869577723
  0
LINE
  5
3C7
100
AcDbEntity
  8
IMPORT_IGES
100
AcDbLine
 62
250
  6
CONTINUOUS
 10
24.7606863379
 20
-41.9599014467
 11
24.7606773514
 21
-60.8258959064
  0
LINE
  5
3C8
100
AcDbEntity
  8
IMPORT_IGES
100
AcDbLine
 62
250
  6
CONTINUOUS
 10
26.1746971255
 20
-60.8258966555
 11
26.1746870825
 21
-41.9598939904
  0
LINE
  5
3C9
100
AcDbEntity
  8
IMPORT_IGES
100
AcDbLine
 62
7
  6
CONTINUOUS
 10
26.5285096976
 20
-48.5761234724
 11
26.5285096976
 21
-45.1701583693
  0
LWPOLYLINE
  5
3CA
100
AcDbEntity
  8
IMPORT_IGES
100
AcDbPolyline
 62
7
  6
CONTINUOUS
 90
9
 70
0
 10
-24.6687776753
 20
45.4154516062
 10
-25.8617670464
 20
46.0583052604
 10
-27.0286896507
 20
46.7167349066
 10
-28.169505264
 20
47.3907645667
 10
-29.2842541107
 20
48.0803702187
 10
-30.371225812
 20
48.7844932899
 10
-31.4298502417
 20
49.5027809226
 10
-32.4606975262
 20
50.2355859744
 10
-33.4637676653
 20
50.9829084454
  0
LWPOLYLINE
  5
3CB
100
AcDbEntity
  8
IMPORT_IGES
100
AcDbPolyline
 62
7
  6
CONTINUOUS
 90
10
 70
0
 10
-27.7291269089
 20
45.5037490173
 10
-28.50302241
 20
45.9574588875
 10
-29.2649174073
 20
46.4178599884
 10
-30.0146388139
 20
46.8848462986
 10
-30.7520158418
 20
47.3582543504
 10
-31.4768816059
 20
47.8380311194
 10
-32.1890730725
 20
48.3242340939
 10
-32.8884290485
 20
48.8168074596
 10
-33.5747903055
 20
49.3155820805
 10
-34.2480011201
 20
49.8204434207
  0
LWPOLYLINE
  5
3CC
100
AcDbEntity
  8
IMPORT_IGES
100
AcDbPolyline
 62
250
  6
CONTINUOUS
 90
25
 70
0
 10
-16.7980445853
 20
43.1392474717
 10
-16.7526139057
 20
43.1103571908
 10
-16.7075524694
 20
43.0782999134
 10
-16.663047468
 20
43.0432604012
 10
-16.6192934687
 20
43.0054449164
 10
-16.5764478775
 20
42.9650435016
 10
-16.534632929
 20
42.9222199013
 10
-16.4941141856
 20
42.8773033153
 10
-16.45492809
 20
42.8303918131
 10
-16.4168770353
 20
42.781245203
 10
-16.3800377527
 20
42.7298930785
 10
-16.3446881721
 20
42.6766501031
 10
-16.3109688253
 20
42.621662179
 10
-16.2790592033
 20
42.5651475468
 10
-16.2491216529
 20
42.5073141723
 10
-16.2212808242
 20
42.4483035934
 10
-16.1956715513
 20
42.3882675953
 10
-16.1725036882
 20
42.3275500896
 10
-16.1519928073
 20
42.2665975159
 10
-16.1342521575
 20
42.2056368057
 10
-16.1194150003
 20
42.1449991469
 10
-16.1076393496
 20
42.0852851844
 10
-16.0989794858
 20
42.0268663133
 10
-16.0934391967
 20
41.9698960323
 10
-16.0910313531
 20
41.914626219
  0
LINE
  5
3CD
100
AcDbEntity
  8
IMPORT_IGES
100
AcDbLine
 62
7
  6
CONTINUOUS
 10
33.047908073
 20
-41.4059394546
 11
33.1491173502
 21
-44.7534675895
  0
LINE
  5
3CE
100
AcDbEntity
  8
IMPORT_IGES
100
AcDbLine
 62
250
  6
CONTINUOUS
 10
33.3002681543
 20
-37.8456728253
 11
33.8608671714
 21
-56.3879984216
  0
LINE
  5
3CF
100
AcDbEntity
  8
IMPORT_IGES
100
AcDbLine
 62
7
  6
CONTINUOUS
 10
34.153597697
 20
-55.9697067193
 11
33.5928101391
 21
-37.4214848549
  0
LINE
  5
3D0
100
AcDbEntity
  8
IMPORT_IGES
100
AcDbLine
 62
7
  6
CONTINUOUS
 10
31.2036567072
 20
-42.553859399
 11
31.215999302
 21
-43.3774561353
  0
LINE
  5
3D1
100
AcDbEntity
  8
IMPORT_IGES
100
AcDbLine
 62
7
  6
CONTINUOUS
 10
33.0598927799
 20
-44.8049847381
 11
33.0105224008
 21
-41.5105977928
  0
LWPOLYLINE
  5
3D2
100
AcDbEntity
  8
IMPORT_IGES
100
AcDbPolyline
 62
250
  6
CONTINUOUS
 90
14
 70
0
 10
33.5928104998
 20
-37.421496792
 10
33.5929623343
 20
-37.4315525685
 10
33.5908260111
 20
-37.4693263379
 10
33.5844252783
 20
-37.507024813
 10
33.573786368
 20
-37.5444901113
 10
33.5589536016
 20
-37.5815620622
 10
33.5399893271
 20
-37.6180819029
 10
33.51697158
 20
-37.6538960821
 10
33.48999692
 20
-37.688850628
 10
33.4591787676
 20
-37.7227958071
 10
33.4246439167
 20
-37.7555892912
 10
33.3865363022
 20
-37.7870907979
 10
33.3450175385
 20
-37.8171630326
 10
33.30026311
 20
-37.8456758825
  0
LINE
  5
3D3
100
AcDbEntity
  8
IMPORT_IGES
100
AcDbLine
 62
250
  6
CONTINUOUS
 10
-5.0241966364
 20
-38.5283646586
 11
-5.0537907794
 21
-38.5489556118
  0
LINE
  5
3D4
100
AcDbEntity
  8
IMPORT_IGES
100
AcDbLine
 62
250
  6
CONTINUOUS
 10
-0.3751899615
 20
-35.2473313067
 11
-4.8111885526
 21
-38.0690122975
  0
LINE
  5
3D5
100
AcDbEntity
  8
IMPORT_IGES
100
AcDbLine
 62
7
  6
CONTINUOUS
 10
-5.0203154819
 20
-38.5280592179
 11
-0.568420101
 21
-35.6964329731
  0
LINE
  5
3D6
100
AcDbEntity
  8
IMPORT_IGES
100
AcDbLine
 62
7
  6
CONTINUOUS
 10
-5.0426017551
 20
-38.5420148126
 11
-5.0203154819
 21
-38.5280592179
  0
LINE
  5
3D7
100
AcDbEntity
  8
IMPORT_IGES
100
AcDbLine
 62
250
  6
CONTINUOUS
 10
-4.8604180111
 20
-38.0993513525
 11
-6.0174584049
 21
-38.8150482216
  0
LINE
  5
3D8
100
AcDbEntity
  8
IMPORT_IGES
100
AcDbLine
 62
7
  6
CONTINUOUS
 10
-5.0426017551
 20
-38.5420148126
 11
-6.2158498378
 21
-39.2675903648
  0
LINE
  5
3D9
100
AcDbEntity
  8
IMPORT_IGES
100
AcDbLine
 62
7
  6
CONTINUOUS
 10
-4.8604182373
 20
-38.0993514877
 11
-4.8440150683
 21
-38.0892796342
  0
LWPOLYLINE
  5
3DA
100
AcDbEntity
  8
IMPORT_IGES
100
AcDbPolyline
 62
7
  6
CONTINUOUS
 90
19
 70
0
 10
8.9460803839
 20
-30.1886849613
 10
8.877446827
 20
-30.2304161373
 10
8.7891336154
 20
-30.2907615166
 10
8.7039860257
 20
-30.3568577571
 10
8.6224726456
 20
-30.4284517324
 10
8.5447384124
 20
-30.5055203441
 10
8.4706700693
 20
-30.5883775859
 10
8.4005602638
 20
-30.6769934793
 10
8.3347889313
 20
-30.7711952782
 10
8.2734508125
 20
-30.8712204629
 10
8.2168107359
 20
-30.9771342896
 10
8.165283526
 20
-31.088702751
 10
8.1191849188
 20
-31.2058029579
 10
8.0787155852
 20
-31.3286260847
 10
8.0442649257
 20
-31.4568150159
 10
8.0162599368
 20
-31.5894195801
 10
7.9948706359
 20
-31.7260240133
 10
7.9801672384
 20
-31.8667755284
 10
7.9723004502
 20
-32.0112260938
  0
LWPOLYLINE
  5
3DB
100
AcDbEntity
  8
IMPORT_IGES
100
AcDbPolyline
 62
7
  6
CONTINUOUS
 90
6
 70
0
 10
-4.8440150683
 20
-38.0892796342
 10
-4.833076587
 20
-38.082664243
 10
-4.8276060654
 20
-38.0793235423
 10
-4.8221344672
 20
-38.0759259769
 10
-4.8166620115
 20
-38.072488945
 10
-4.8111887636
 20
-38.0690124274
  0
LINE
  5
3DC
100
AcDbEntity
  8
IMPORT_IGES
100
AcDbLine
 62
7
  6
CONTINUOUS
 10
16.0340104128
 20
-26.0961974751
 11
8.9458822447
 21
-30.1887938443
  0
LINE
  5
3DD
100
AcDbEntity
  8
IMPORT_IGES
100
AcDbLine
 62
250
  6
CONTINUOUS
 10
10.2464177945
 20
-30.1897092196
 11
17.3192037501
 21
-26.1059692139
  0
LWPOLYLINE
  5
3DE
100
AcDbEntity
  8
IMPORT_IGES
100
AcDbPolyline
 62
7
  6
CONTINUOUS
 90
14
 70
0
 10
8.9460794055
 20
-30.1886800335
 10
8.9775041146
 20
-30.1712274855
 10
9.0661356789
 20
-30.1288862652
 10
9.1587924609
 20
-30.0943654124
 10
9.2552182348
 20
-30.067762654
 10
9.3551497079
 20
-30.0491516998
 10
9.4583153818
 20
-30.0385836424
 10
9.5644327394
 20
-30.0360914465
 10
9.6732118862
 20
-30.041683874
 10
9.7843559903
 20
-30.0553468961
 10
9.8975613492
 20
-30.0770482025
 10
10.0125182112
 20
-30.1067321345
 10
10.1289113121
 20
-30.1443187192
 10
10.2464210886
 20
-30.1897073144
  0
LWPOLYLINE
  5
3DF
100
AcDbEntity
  8
IMPORT_IGES
100
AcDbPolyline
 62
7
  6
CONTINUOUS
 90
16
 70
0
 10
16.0337220926
 20
-26.0963692169
 10
16.1089732108
 20
-26.0553841147
 10
16.2095783576
 20
-26.007875372
 10
16.3140015333
 20
-25.9666250753
 10
16.4217186059
 20
-25.9319680101
 10
16.5326086637
 20
-25.9040557065
 10
16.6470294073
 20
-25.8829886578
 10
16.7647639047
 20
-25.8690606888
 10
16.8854272933
 20
-25.8625595179
 10
17.0092344718
 20
-25.8637470038
 10
17.1361430375
 20
-25.8729602216
 10
17.2656469918
 20
-25.8904962616
 10
17.3973804436
 20
-25.9166068877
 10
17.531096408
 20
-25.951537654
 10
17.6665883912
 20
-25.9955389563
 10
17.803596172
 20
-26.0488420712
  0
LINE
  5
3E0
100
AcDbEntity
  8
IMPORT_IGES
100
AcDbLine
 62
250
  6
CONTINUOUS
 10
-6.3710117252
 20
-39.0191590803
 11
-16.0910293242
 21
-44.2460974705
  0
LINE
  5
3E1
100
AcDbEntity
  8
IMPORT_IGES
100
AcDbLine
 62
7
  6
CONTINUOUS
 10
-6.5868486359
 20
-39.4818004205
 11
-16.312068196
 21
-44.7117087795
  0
LWPOLYLINE
  5
3E2
100
AcDbEntity
  8
IMPORT_IGES
100
AcDbPolyline
 62
7
  6
CONTINUOUS
 90
3
 70
0
 10
16.1516059348
 20
-26.03782305
 10
16.0648903486
 20
-26.0790590975
 10
16.0340104128
 20
-26.0961974751
  0
LWPOLYLINE
  5
3E3
100
AcDbEntity
  8
IMPORT_IGES
100
AcDbPolyline
 62
7
  6
CONTINUOUS
 90
10
 70
0
 10
-20.2484967155
 20
41.737452921
 10
-20.1888016559
 20
41.7128806071
 10
-20.1280157881
 20
41.6889221706
 10
-20.0661680427
 20
41.6655941974
 10
-20.0032883688
 20
41.6428566454
 10
-19.9394070356
 20
41.620781696
 10
-19.8745545893
 20
41.5995537731
 10
-19.8087627744
 20
41.5792443645
 10
-19.7420645545
 20
41.5598119782
 10
-19.6744933894
 20
41.5412710164
  0
LWPOLYLINE
  5
3E4
100
AcDbEntity
  8
IMPORT_IGES
100
AcDbPolyline
 62
7
  6
CONTINUOUS
 90
10
 70
0
 10
-20.2484967155
 20
41.737452921
 10
-21.1225924683
 20
42.125808998
 10
-21.9864150098
 20
42.5219574404
 10
-22.8397653751
 20
42.9258080696
 10
-23.6824464512
 20
43.3373298229
 10
-24.5142645847
 20
43.7563682048
 10
-25.3350295596
 20
44.1826453533
 10
-26.1445525879
 20
44.6160034642
 10
-26.9426464211
 20
45.0564047687
 10
-27.7291269089
 20
45.5037490173
  0
LWPOLYLINE
  5
3E5
100
AcDbEntity
  8
IMPORT_IGES
100
AcDbPolyline
 62
7
  6
CONTINUOUS
 90
5
 70
0
 10
-19.6562940936
 20
43.0106484852
 10
-20.9456159738
 20
43.5869233082
 10
-22.210702139
 20
44.1797606301
 10
-23.4515525893
 20
44.7891604509
 10
-24.6687776753
 20
45.4154516062
  0
LWPOLYLINE
  5
3E6
100
AcDbEntity
  8
IMPORT_IGES
100
AcDbPolyline
 62
250
  6
CONTINUOUS
 90
14
 70
0
 10
-33.2938583071
 20
52.6637592832
 10
-33.3409446236
 20
52.6882573214
 10
-33.3877595138
 20
52.7091755034
 10
-33.4341025103
 20
52.7264268722
 10
-33.4797724928
 20
52.7399409146
 10
-33.524577332
 20
52.7496622555
 10
-33.5683344336
 20
52.7555497106
 10
-33.6108587344
 20
52.7575790575
 10
-33.6519672048
 20
52.7557444691
 10
-33.6914878196
 20
52.750055112
 10
-33.7292518622
 20
52.7405363656
 10
-33.7650984372
 20
52.7272299273
 10
-33.7988777106
 20
52.7101919951
 10
-33.8074843039
 20
52.7050479311
  0
LINE
  5
3E7
100
AcDbEntity
  8
IMPORT_IGES
100
AcDbLine
 62
7
  6
CONTINUOUS
 10
-18.1089843428
 20
48.8895906441
 11
-19.0282231583
 21
49.4203476154
  0
LINE
  5
3E8
100
AcDbEntity
  8
IMPORT_IGES
100
AcDbLine
 62
7
  6
CONTINUOUS
 10
-22.5637570643
 20
51.4617205821
 11
-23.4829958798
 21
51.9924775534
  0
LWPOLYLINE
  5
3E9
100
AcDbEntity
  8
IMPORT_IGES
100
AcDbPolyline
 62
7
  6
CONTINUOUS
 90
14
 70
0
 10
34.1535941101
 20
-55.9697067562
 10
34.1537499821
 20
-55.9797787586
 10
34.151591773
 20
-56.01745369
 10
34.1451695636
 20
-56.0551286628
 10
34.1345628351
 20
-56.0923270907
 10
34.1197194139
 20
-56.1290433179
 10
34.1006914736
 20
-56.1652830003
 10
34.0777150159
 20
-56.2005865192
 10
34.0507406426
 20
-56.2349425376
 10
34.0198177519
 20
-56.2683623925
 10
33.9853305398
 20
-56.300420477
 10
33.9474070717
 20
-56.3309749223
 10
33.9059192822
 20
-56.3601675971
 10
33.8608671712
 20
-56.3879985016
  0
LWPOLYLINE
  5
3EA
100
AcDbEntity
  8
IMPORT_IGES
100
AcDbPolyline
 62
7
  6
CONTINUOUS
 90
25
 70
0
 10
-19.6744933894
 20
41.5412710164
 10
-19.5270875979
 20
41.5046907704
 10
-19.3766286017
 20
41.4724942646
 10
-19.223498234
 20
41.4447636321
 10
-19.0680869703
 20
41.4215715449
 10
-18.9107866579
 20
41.4029756537
 10
-18.7519892853
 20
41.3890190626
 10
-18.5920967027
 20
41.3797401697
 10
-18.4315133939
 20
41.3751627094
 10
-18.2706389424
 20
41.3752913621
 10
-18.1098802461
 20
41.3801285985
 10
-17.9496433556
 20
41.3896645236
 10
-17.7903260671
 20
41.4038687811
 10
-17.6323311179
 20
41.4227090937
 10
-17.4760577998
 20
41.4461411212
 10
-17.3218941166
 20
41.4741002214
 10
-17.1702298967
 20
41.5065201346
 10
-17.0214491991
 20
41.5433229818
 10
-16.8759227103
 20
41.5844110087
 10
-16.7340194872
 20
41.6296851726
 10
-16.5960994194
 20
41.6790357384
 10
-16.4625068998
 20
41.7323340721
 10
-16.3335800042
 20
41.7894477603
 10
-16.2096490189
 20
41.8502403519
 10
-16.0910298454
 20
41.9145630547
  0
LINE
  5
3EB
100
AcDbEntity
  8
IMPORT_IGES
100
AcDbLine
 62
7
  6
CONTINUOUS
 10
-18.1796950209
 20
54.5899213897
 11
-17.7468701561
 21
54.340013737
  0
LINE
  5
3EC
100
AcDbEntity
  8
IMPORT_IGES
100
AcDbLine
 62
7
  6
CONTINUOUS
 10
-21.5069246316
 20
52.356793219
 11
-21.2826118304
 21
52.2272589116
  0
LWPOLYLINE
  5
3ED
100
AcDbEntity
  8
IMPORT_IGES
100
AcDbPolyline
 62
7
  6
CONTINUOUS
 90
25
 70
0
 10
-7.0780182465
 20
48.7514531782
 10
-7.0313924473
 20
48.7227144751
 10
-6.9853694585
 20
48.6909043386
 10
-6.9399492799
 20
48.6560227686
 10
-6.8949450289
 20
48.6178939123
 10
-6.8505435882
 20
48.5766936225
 10
-6.8073056058
 20
48.5329494586
 10
-6.7652459566
 20
48.4866302042
 10
-6.7243497657
 20
48.4377670756
 10
-6.6851330558
 20
48.3869812817
 10
-6.647617009
 20
48.334249272
 10
-6.6117804431
 20
48.279594597
 10
-6.5780758347
 20
48.2237091169
 10
-6.546529687
 20
48.1665775271
 10
-6.5171154967
 20
48.1082151322
 10
-6.4902062306
 20
48.0493597058
 10
-6.4658328741
 20
47.9900046742
 10
-6.4439644418
 20
47.9301566111
 10
-6.4248809443
 20
47.8705730111
 10
-6.408616854
 20
47.8112565956
 10
-6.3951376985
 20
47.7522046431
 10
-6.3846200709
 20
47.6941664838
 10
-6.3771228356
 20
47.6373918945
 10
-6.3725871281
 20
47.5816310984
 10
-6.3710129486
 20
47.5268840955
  0
LWPOLYLINE
  5
3EE
100
AcDbEntity
  8
IMPORT_IGES
100
AcDbPolyline
 62
7
  6
CONTINUOUS
 90
3
 70
0
 10
-13.4686883966
 20
55.1496685052
 10
-13.440861043
 20
55.1294620552
 10
-13.4122729668
 20
55.1096279844
  0
LINE
  5
3EF
100
AcDbEntity
  8
IMPORT_IGES
100
AcDbLine
 62
7
  6
CONTINUOUS
 10
-13.529232273
 20
55.1964859805
 11
-13.4695768185
 21
55.1491734475
  0
LINE
  5
3F0
100
AcDbEntity
  8
IMPORT_IGES
100
AcDbLine
 62
7
  6
CONTINUOUS
 10
-8.2802000843
 20
55.4841922541
 11
-8.1658992363
 21
55.3731700136
  0
LWPOLYLINE
  5
3F1
100
AcDbEntity
  8
IMPORT_IGES
100
AcDbPolyline
 62
250
  6
CONTINUOUS
 90
42
 70
0
 10
-13.3579204766
 20
55.2353437697
 10
-13.2723347757
 20
55.1894401207
 10
-13.1812695933
 20
55.1458161704
 10
-13.084850937
 20
55.104724019
 10
-12.9831176319
 20
55.0663747821
 10
-12.8763790297
 20
55.031074452
 10
-12.7652577305
 20
54.9991805572
 10
-12.6497977018
 20
54.970845649
 10
-12.5305797451
 20
54.946349702
 10
-12.4091915166
 20
54.9260692195
 10
-12.2862750051
 20
54.9100819159
 10
-12.1620917561
 20
54.8983927738
 10
-12.0377589498
 20
54.8910536792
 10
-11.9140847166
 20
54.8880070252
 10
-11.7911557263
 20
54.8891508924
 10
-11.6690037292
 20
54.8944193209
 10
-11.5477672593
 20
54.9037743886
 10
-11.4281216413
 20
54.9171319379
 10
-11.3108731584
 20
54.9343334851
 10
-11.19721739
 20
54.9550667007
 10
-11.0866028389
 20
54.9792943788
 10
-10.9773020252
 20
55.0074195758
 10
-10.8683688662
 20
55.0399195061
 10
-10.7617591055
 20
55.0764547937
 10
-10.6600273575
 20
55.1161604518
 10
-10.564296958
 20
55.158384457
 10
-10.4737908721
 20
55.2032496978
 10
-10.3880372694
 20
55.2508953753
 10
-10.3072679906
 20
55.3011560299
 10
-10.2317190428
 20
55.3538460663
 10
-10.1611079123
 20
55.4091854286
 10
-10.0952200769
 20
55.4675203996
 10
-10.0349696199
 20
55.5282365978
 10
-9.981541475
 20
55.5900417902
 10
-9.9354175078
 20
55.651873301
 10
-9.8958042801
 20
55.7142341593
 10
-9.8619675709
 20
55.7781670031
 10
-9.8339563472
 20
55.8439544281
 10
-9.8122363934
 20
55.9109656776
 10
-9.7970117504
 20
55.9789307164
 10
-9.7884444178
 20
56.0475131536
 10
-9.786444715
 20
56.1001599442
  0
LWPOLYLINE
  5
3F2
100
AcDbEntity
  8
IMPORT_IGES
100
AcDbPolyline
 62
7
  6
CONTINUOUS
 90
13
 70
0
 10
-23.5538068684
 20
58.6726412959
 10
-23.6004327321
 20
58.6977450783
 10
-23.6464557834
 20
58.7190812692
 10
-23.6918760222
 20
58.7366498687
 10
-23.7368803322
 20
58.7504908187
 10
-23.7812818298
 20
58.7605641774
 10
-23.8245198643
 20
58.7667501185
 10
-23.8665795605
 20
58.7690002604
 10
-23.9074757936
 20
58.7673629848
 10
-23.9466925387
 20
58.7618636113
 10
-23.9842086131
 20
58.7524541287
 10
-24.0200451995
 20
58.7391825482
 10
-24.0449747256
 20
58.7271049373
  0
LWPOLYLINE
  5
3F3
100
AcDbEntity
  8
IMPORT_IGES
100
AcDbPolyline
 62
7
  6
CONTINUOUS
 90
7
 70
0
 10
-13.2903134372
 20
55.034015494
 10
-13.2623621427
 20
55.0184669624
 10
-13.2339128039
 20
55.0032388911
 10
-13.2049654209
 20
54.9883312801
 10
-13.1755199936
 20
54.9737441293
 10
-13.1455765219
 20
54.9594774388
 10
-13.115135006
 20
54.9455312086
  0
LWPOLYLINE
  5
3F4
100
AcDbEntity
  8
IMPORT_IGES
100
AcDbPolyline
 62
250
  6
CONTINUOUS
 90
9
 70
0
 10
-22.3556609903
 20
59.3169737392
 10
-22.4010883666
 20
59.3423420376
 10
-22.4461473979
 20
59.3639806223
 10
-22.4906508952
 20
59.3818529827
 10
-22.5344046118
 20
59.3959363167
 10
-22.5772508012
 20
59.4062354099
 10
-22.6190662475
 20
59.412769871
 10
-22.6595850347
 20
59.4155571429
 10
-22.6987710886
 20
59.4146549086
  0
LINE
  5
3F5
100
AcDbEntity
  8
IMPORT_IGES
100
AcDbLine
 62
250
  6
CONTINUOUS
 10
-13.3579204766
 20
55.2353437697
 11
-13.3713555507
 21
55.243031317
  0
LWPOLYLINE
  5
3F6
100
AcDbEntity
  8
IMPORT_IGES
100
AcDbPolyline
 62
250
  6
CONTINUOUS
 90
13
 70
0
 10
-22.3142899545
 20
59.3388962826
 10
-22.3590361461
 20
59.364620042
 10
-22.4034201266
 20
59.3866115853
 10
-22.4472575496
 20
59.4048330061
 10
-22.4903570416
 20
59.4192600245
 10
-22.5325633354
 20
59.429896286
 10
-22.5737553199
 20
59.4367605177
 10
-22.6136711469
 20
59.4398680631
 10
-22.6522752291
 20
59.4392762942
 10
-22.689762388
 20
59.4349784727
 10
-22.7260572017
 20
59.4269112085
 10
-22.7608857938
 20
59.415059979
 10
-22.7896091286
 20
59.4017998747
  0
LINE
  5
3F7
100
AcDbEntity
  8
IMPORT_IGES
100
AcDbLine
 62
7
  6
CONTINUOUS
 10
-23.9073651893
 20
58.4685085287
 11
-18.1796950243
 21
55.161423564
  0
LINE
  5
3F8
100
AcDbEntity
  8
IMPORT_IGES
100
AcDbLine
 62
7
  6
CONTINUOUS
 10
-12.8056834839
 20
52.0585366568
 11
-7.078013326
 21
48.7514516882
  0
LINE
  5
3F9
100
AcDbEntity
  8
IMPORT_IGES
100
AcDbLine
 62
7
  6
CONTINUOUS
 10
-13.7249222994
 20
52.5892936281
 11
-17.2604562054
 21
54.6306665947
  0
LINE
  5
3FA
100
AcDbEntity
  8
IMPORT_IGES
100
AcDbLine
 62
7
  6
CONTINUOUS
 10
-6.724462154
 20
48.9555902803
 11
-13.0885261913
 21
52.6301210903
  0
LINE
  5
3FB
100
AcDbEntity
  8
IMPORT_IGES
100
AcDbLine
 62
7
  6
CONTINUOUS
 10
-17.1897455263
 20
54.9981137292
 11
-23.5538114463
 21
58.6726456346
  0
LINE
  5
3FC
100
AcDbEntity
  8
IMPORT_IGES
100
AcDbLine
 62
7
  6
CONTINUOUS
 10
-15.1392004793
 20
55.242627267
 11
-11.8295387957
 21
53.3316700907
  0
LINE
  5
3FD
100
AcDbEntity
  8
IMPORT_IGES
100
AcDbLine
 62
7
  6
CONTINUOUS
 10
-15.5633999305
 20
55.4961316091
 11
-11.8219795302
 21
53.335882361
  0
LINE
  5
3FE
100
AcDbEntity
  8
IMPORT_IGES
100
AcDbLine
 62
7
  6
CONTINUOUS
 10
-15.5633999305
 20
55.9043667475
 11
-13.6895669604
 21
54.8224390752
  0
LINE
  5
3FF
100
AcDbEntity
  8
IMPORT_IGES
100
AcDbLine
 62
7
  6
CONTINUOUS
 10
-13.3360135698
 20
54.6183017785
 11
-11.4621805996
 21
53.5363741062
  0
LINE
  5
400
100
AcDbEntity
  8
IMPORT_IGES
100
AcDbLine
 62
7
  6
CONTINUOUS
 10
-13.6895669604
 20
55.0265877372
 11
-13.3360135698
 21
54.8224504405
  0
LINE
  5
401
100
AcDbEntity
  8
IMPORT_IGES
100
AcDbLine
 62
7
  6
CONTINUOUS
 10
-12.4521300933
 20
56.5085876863
 11
-13.0178155182
 21
56.8352073609
  0
LINE
  5
402
100
AcDbEntity
  8
IMPORT_IGES
100
AcDbLine
 62
7
  6
CONTINUOUS
 10
-12.4521300933
 20
56.9985961081
 11
-12.027797691
 21
56.7535918972
  0
LWPOLYLINE
  5
403
100
AcDbEntity
  8
IMPORT_IGES
100
AcDbPolyline
 62
250
  6
CONTINUOUS
 90
25
 70
0
 10
-5.5280389576
 20
49.6467253218
 10
-5.4804161019
 20
49.6191164146
 10
-5.4332864617
 20
49.5882694313
 10
-5.3868441444
 20
49.5543648955
 10
-5.3412901294
 20
49.517604961
 10
-5.2967869093
 20
49.4781766713
 10
-5.2534609085
 20
49.4362416946
 10
-5.2115857053
 20
49.3921244761
 10
-5.1711968368
 20
49.3459234397
 10
-5.1320908941
 20
49.297402099
 10
-5.0943489696
 20
49.2465876622
 10
-5.0582578956
 20
49.1937892341
 10
-5.0239629988
 20
49.1391494681
 10
-4.9916490126
 20
49.0828831206
 10
-4.961482932
 20
49.025195585
 10
-4.9335936157
 20
48.9662263196
 10
-4.9081203625
 20
48.9061247053
 10
-4.8852763241
 20
48.8452321497
 10
-4.8652775471
 20
48.7839940242
 10
-4.8482363264
 20
48.7226315143
 10
-4.834286716
 20
48.6614817404
 10
-4.8235815621
 20
48.6011647992
 10
-4.8161653971
 20
48.5420606329
 10
-4.8120336958
 20
48.4843189825
 10
-4.8111897963
 20
48.4281940497
  0
LINE
  5
404
100
AcDbEntity
  8
IMPORT_IGES
100
AcDbLine
 62
250
  6
CONTINUOUS
 10
-13.3713822669
 20
55.896222964
 11
-13.3807675781
 21
55.9016764921
  0
LWPOLYLINE
  5
405
100
AcDbEntity
  8
IMPORT_IGES
100
AcDbPolyline
 62
250
  6
CONTINUOUS
 90
25
 70
0
 10
-5.5674182905
 20
49.6236527856
 10
-5.5204257471
 20
49.5956587743
 10
-5.4739208315
 20
49.5644284791
 10
-5.4280951694
 20
49.5301441302
 10
-5.3831471275
 20
49.4930096338
 10
-5.3392371436
 20
49.4532135242
 10
-5.2964901116
 20
49.4109187281
 10
-5.2551761906
 20
49.3664523174
 10
-5.2153302945
 20
49.3199129819
 10
-5.1767513775
 20
49.2710620774
 10
-5.139519316
 20
49.2199271388
 10
-5.1039175106
 20
49.1668201006
 10
-5.0700898213
 20
49.1118855095
 10
-5.0382188349
 20
49.0553403342
 10
-5.0084690311
 20
48.9973910271
 10
-4.9809671599
 20
48.9381773032
 10
-4.9558505595
 20
48.8778491625
 10
-4.9333299692
 20
48.8167506506
 10
-4.9136189207
 20
48.7553302371
 10
-4.896828959
 20
48.6938130865
 10
-4.8830911755
 20
48.6325348009
 10
-4.8725548022
 20
48.5721097669
 10
-4.8652644603
 20
48.5129165579
 10
-4.8612173505
 20
48.4551081215
 10
-4.8604177974
 20
48.3989396739
  0
LINE
  5
406
100
AcDbEntity
  8
IMPORT_IGES
100
AcDbLine
 62
7
  6
CONTINUOUS
 10
-15.5633999305
 20
55.4961316091
 11
-15.1392004793
 21
55.242627267
  0
LWPOLYLINE
  5
407
100
AcDbEntity
  8
IMPORT_IGES
100
AcDbPolyline
 62
250
  6
CONTINUOUS
 90
13
 70
0
 10
-13.3713822669
 20
55.2430467426
 10
-13.4516518222
 20
55.2920471233
 10
-13.5280228557
 20
55.3442318179
 10
-13.6000575868
 20
55.3995303673
 10
-13.6673900309
 20
55.4579223098
 10
-13.7294873689
 20
55.5192317791
 10
-13.7857246574
 20
55.5831024358
 10
-13.8358373307
 20
55.6495103508
 10
-13.879335178
 20
55.7181226347
 10
-13.9155516504
 20
55.7880256545
 10
-13.9443463915
 20
55.8588492226
 10
-13.9657086226
 20
55.9304425643
 10
-13.9795385523
 20
56.0021613725
  0
LWPOLYLINE
  5
408
100
AcDbEntity
  8
IMPORT_IGES
100
AcDbPolyline
 62
250
  6
CONTINUOUS
 90
15
 70
0
 10
-13.3807675781
 20
55.9016764921
 10
-13.4605462856
 20
55.9510016977
 10
-13.5363890248
 20
56.0035027697
 10
-13.6078573793
 20
56.0591077464
 10
-13.6745844414
 20
56.1177951783
 10
-13.736037373
 20
56.1793868608
 10
-13.7915928098
 20
56.2435229072
 10
-13.8409848128
 20
56.3101775603
 10
-13.8837261334
 20
56.3790161449
 10
-13.9191598124
 20
56.4491224266
 10
-13.9471490102
 20
56.520126208
 10
-13.9676830084
 20
56.5918749836
 10
-13.9806682758
 20
56.6637205005
 10
-13.9862029455
 20
56.7351952645
 10
-13.9864446319
 20
56.7533660394
  0
LWPOLYLINE
  5
409
100
AcDbEntity
  8
IMPORT_IGES
100
AcDbPolyline
 62
250
  6
CONTINUOUS
 90
49
 70
0
 10
-13.024919319
 20
56.512715249
 10
-13.0963996251
 20
56.5574149236
 10
-13.1621903281
 20
56.604297128
 10
-13.222291428
 20
56.6533618622
 10
-13.2769209751
 20
56.7048531244
 10
-13.3258609192
 20
56.7585269164
 10
-13.3684571091
 20
56.8136512437
 10
-13.4046056357
 20
56.8702487837
 10
-13.4344104082
 20
56.9282968589
 10
-13.4575290029
 20
56.9869954425
 10
-13.4738895079
 20
57.0462385868
 10
-13.483563835
 20
57.1061322395
 10
-13.4864252961
 20
57.1661942162
 10
-13.4824069766
 20
57.2265839735
 10
-13.471575791
 20
57.2871420548
 10
-13.4540057949
 20
57.3469079065
 10
-13.4295800456
 20
57.4058182361
 10
-13.3984154858
 20
57.463936336
 10
-13.3609369992
 20
57.5204915295
 10
-13.3170590328
 20
57.5754556201
 10
-13.2668671395
 20
57.6288568043
 10
-13.2110428618
 20
57.6800089951
 10
-13.1495234291
 20
57.7288749114
 10
-13.082371612
 20
57.7754918343
 10
-13.0104572652
 20
57.8192855206
 10
-12.9337265165
 20
57.8602204537
 10
-12.8522332382
 20
57.8983321502
 10
-12.7670089019
 20
57.9331529164
 10
-12.6780122131
 20
57.964643106
 10
-12.5852844663
 20
57.9928423653
 10
-12.4899810166
 20
58.0174019396
 10
-12.3920734205
 20
58.0382795238
 10
-12.2915901215
 20
58.0555174231
 10
-12.1897718058
 20
58.0688937985
 10
-12.086501613
 20
58.0783530867
 10
-11.9818964035
 20
58.083950851
 10
-11.8775474439
 20
58.0856319425
 10
-11.7737017381
 20
58.0833629345
 10
-11.6701122822
 20
58.0771772537
 10
-11.5676293318
 20
58.0671200316
 10
-11.4660608522
 20
58.053144694
 10
-11.3655988781
 20
58.0352978152
 10
-11.2676697693
 20
58.0137642488
 10
-11.1723090404
 20
57.9884776948
 10
-11.0794811769
 20
57.9595044533
 10
-10.9905059945
 20
57.9272282789
 10
-10.9058234321
 20
57.8917770898
 10
-10.824993551
 20
57.8530229676
 10
-10.7480163511
 20
57.8109659126
  0
LWPOLYLINE
  5
40A
100
AcDbEntity
  8
IMPORT_IGES
100
AcDbPolyline
 62
7
  6
CONTINUOUS
 90
5
 70
0
 10
-13.4122729668
 20
55.1096279844
 10
-13.3829241681
 20
55.0901662929
 10
-13.352814647
 20
55.0710769807
 10
-13.3219444033
 20
55.0523600477
 10
-13.2903134372
 20
55.034015494
  0
LWPOLYLINE
  5
40B
100
AcDbEntity
  8
IMPORT_IGES
100
AcDbPolyline
 62
250
  6
CONTINUOUS
 90
25
 70
0
 10
24.2458493889
 20
-38.2728669815
 10
24.1998284698
 20
-38.3007615541
 10
24.1538255643
 20
-38.3315330213
 10
24.1080328855
 20
-38.3650105368
 10
24.0626507829
 20
-38.4010044958
 10
24.0178458008
 20
-38.4393393677
 10
23.973751378
 20
-38.4798620989
 10
23.9306493513
 20
-38.522267563
 10
23.8885822472
 20
-38.5664677006
 10
23.8473404558
 20
-38.6126855005
 10
23.8069974666
 20
-38.6608928307
 10
23.7678439288
 20
-38.7107985418
 10
23.7300249886
 20
-38.7622677704
 10
23.6937286809
 20
-38.8151007886
 10
23.6591278244
 20
-38.8691052143
 10
23.6263544279
 20
-38.9241470814
 10
23.5955499682
 20
-38.9800835548
 10
23.5669422346
 20
-39.0366034158
 10
23.5407751034
 20
-39.093305554
 10
23.5171750033
 20
-39.1499897405
 10
23.4963045012
 20
-39.2063480195
 10
23.4783806254
 20
-39.2618211012
 10
23.463494726
 20
-39.3160680913
 10
23.4516643938
 20
-39.3689552124
 10
23.4429284642
 20
-39.4202550141
  0
LINE
  5
40C
100
AcDbEntity
  8
IMPORT_IGES
100
AcDbLine
 62
250
  6
CONTINUOUS
 10
31.3186858035
 20
-34.1890932595
 11
24.2459018992
 21
-38.2728354223
  0
LWPOLYLINE
  5
40D
100
AcDbEntity
  8
IMPORT_IGES
100
AcDbPolyline
 62
7
  6
CONTINUOUS
 90
38
 70
0
 10
-13.0650740894
 20
54.9112783115
 10
-13.0422781122
 20
54.9012979517
 10
-12.9310970863
 20
54.8565974804
 10
-12.8171880967
 20
54.817065392
 10
-12.7008178639
 20
54.7825629919
 10
-12.5819682686
 20
54.7529273862
 10
-12.4610844074
 20
54.7281612193
 10
-12.3384897842
 20
54.7082422007
 10
-12.2139927654
 20
54.693107208
 10
-12.0876565598
 20
54.6828000414
 10
-11.9601735259
 20
54.6774269171
 10
-11.8323185325
 20
54.677043617
 10
-11.7044995588
 20
54.6816663837
 10
-11.5771262327
 20
54.6913095164
 10
-11.4509683115
 20
54.7059367267
 10
-11.3263954851
 20
54.7255218875
 10
-11.2038243529
 20
54.7500319019
 10
-11.0840201017
 20
54.7793353636
 10
-10.9673584394
 20
54.8133507085
 10
-10.8541337476
 20
54.8520208679
 10
-10.7448685686
 20
54.8952022039
 10
-10.6391937948
 20
54.9431384917
 10
-10.538084465
 20
54.9955138807
 10
-10.4437202697
 20
55.051084981
 10
-10.356808369
 20
55.1090296919
 10
-10.2764498601
 20
55.1695417958
 10
-10.2021677413
 20
55.2327308439
 10
-10.1341723557
 20
55.2981973936
 10
-10.0722318421
 20
55.3659427484
 10
-10.0155439468
 20
55.4368594553
 10
-9.9641704519
 20
55.5111894771
 10
-9.9186720421
 20
55.58849601
 10
-9.8793125512
 20
55.6687129061
 10
-9.8463423289
 20
55.7518955178
 10
-9.8202559525
 20
55.8374793225
 10
-9.8015242341
 20
55.9242971783
 10
-9.7902776956
 20
56.0114636455
 10
-9.7864447146
 20
56.1001611231
  0
LWPOLYLINE
  5
40E
100
AcDbEntity
  8
IMPORT_IGES
100
AcDbPolyline
 62
7
  6
CONTINUOUS
 90
10
 70
0
 10
-7.0402401219
 20
55.8858157219
 10
-7.0602766283
 20
55.895623525
 10
-7.0843372355
 20
55.9035189743
 10
-7.1097456907
 20
55.9080536542
 10
-7.1365314069
 20
55.9091602563
 10
-7.1646649711
 20
55.906906089
 10
-7.1935466072
 20
55.9013154019
 10
-7.2229763899
 20
55.892396278
 10
-7.2531542445
 20
55.8801406343
 10
-7.284080171
 20
55.8645484707
  0
LWPOLYLINE
  5
40F
100
AcDbEntity
  8
IMPORT_IGES
100
AcDbPolyline
 62
250
  6
CONTINUOUS
 90
10
 70
0
 10
-0.8433492391
 20
52.3078123022
 10
-0.8634177299
 20
52.317664799
 10
-0.8874016069
 20
52.325524319
 10
-0.9129203528
 20
52.3300364267
 10
-0.939785053
 20
52.3311653515
 10
-0.9677970943
 20
52.3289005061
 10
-0.9967565404
 20
52.3232545259
 10
-1.0264516362
 20
52.3142636103
 10
-1.0566594701
 20
52.3019903063
 10
-1.0871552519
 20
52.2865214698
  0
LWPOLYLINE
  5
410
100
AcDbEntity
  8
IMPORT_IGES
100
AcDbPolyline
 62
7
  6
CONTINUOUS
 90
4
 70
0
 10
-13.0650749735
 20
54.9112766485
 10
-13.0788102763
 20
54.9181702319
 10
-13.0976829488
 20
54.9305066431
 10
-13.115135006
 20
54.9455312086
  0
LWPOLYLINE
  5
411
100
AcDbEntity
  8
IMPORT_IGES
100
AcDbPolyline
 62
7
  6
CONTINUOUS
 90
15
 70
0
 10
-17.3384151405
 20
61.8318233874
 10
-17.3971252366
 20
61.8630527273
 10
-17.4558009529
 20
61.8890912598
 10
-17.5141503522
 20
61.9100701435
 10
-17.5717854091
 20
61.9261247729
 10
-17.6286371862
 20
61.9375018567
 10
-17.6848828578
 20
61.944431605
 10
-17.7401933214
 20
61.9470321189
 10
-17.794375196
 20
61.9454611352
 10
-17.8477174017
 20
61.9398150884
 10
-17.8999128483
 20
61.930181535
 10
-17.9507060232
 20
61.9166751207
 10
-18.0003746868
 20
61.8992283383
 10
-18.0486429393
 20
61.8778780375
 10
-18.0636093435
 20
61.8703031553
  0
LWPOLYLINE
  5
412
100
AcDbEntity
  8
IMPORT_IGES
100
AcDbPolyline
 62
7
  6
CONTINUOUS
 90
41
 70
0
 10
-10.4955441577
 20
57.8343067278
 10
-10.59361421
 20
57.8881040909
 10
-10.6958292041
 20
57.9373638432
 10
-10.8018275249
 20
57.9820751194
 10
-10.9113550146
 20
58.0222611639
 10
-11.0240361894
 20
58.0578873235
 10
-11.1392952281
 20
58.0888732798
 10
-11.25675886
 20
58.1152178503
 10
-11.3760935866
 20
58.1369265441
 10
-11.4966864969
 20
58.1539655734
 10
-11.6180626175
 20
58.1663516193
 10
-11.7399621104
 20
58.1741276014
 10
-11.8620527642
 20
58.1773208985
 10
-11.9838822867
 20
58.1759597696
 10
-12.1051926432
 20
58.1700755398
 10
-12.2259411708
 20
58.1596646979
 10
-12.3459339091
 20
58.1447000202
 10
-12.464658914
 20
58.125188478
 10
-12.5816244338
 20
58.1011581411
 10
-12.6965226394
 20
58.0726113835
 10
-12.8089858454
 20
58.0395620878
 10
-12.918510741
 20
58.0020767596
 10
-13.0249260389
 20
57.9601138748
 10
-13.1277750636
 20
57.9137295037
 10
-13.2262716008
 20
57.8631844045
 10
-13.3205304477
 20
57.8083081738
 10
-13.409917316
 20
57.7493271313
 10
-13.4928665142
 20
57.6873172957
 10
-13.5689453499
 20
57.6228815061
 10
-13.6386523908
 20
57.5558764183
 10
-13.702052114
 20
57.4864330247
 10
-13.7592144545
 20
57.414631961
 10
-13.8099995238
 20
57.3408106337
 10
-13.8541836595
 20
57.2655739645
 10
-13.8916273229
 20
57.1896673851
 10
-13.9226686588
 20
57.1129971974
 10
-13.9476654074
 20
57.0349617041
 10
-13.9665685991
 20
56.9556355744
 10
-13.979227316
 20
56.8755865984
 10
-13.9856163633
 20
56.7949621082
 10
-13.9864446318
 20
56.7533655752
  0
LINE
  5
413
100
AcDbEntity
  8
IMPORT_IGES
100
AcDbLine
 62
7
  6
CONTINUOUS
 10
-11.3207592434
 20
56.5085876863
 11
-11.8864446683
 21
56.8352073609
  0
LINE
  5
414
100
AcDbEntity
  8
IMPORT_IGES
100
AcDbLine
 62
7
  6
CONTINUOUS
 10
-12.4521300933
 20
57.1618270356
 11
-13.0178155182
 21
57.4884467103
  0
LINE
  5
415
100
AcDbEntity
  8
IMPORT_IGES
100
AcDbLine
 62
7
  6
CONTINUOUS
 10
-8.4923321186
 20
55.191270923
 11
-9.6944136467
 21
55.8853377317
  0
LINE
  5
416
100
AcDbEntity
  8
IMPORT_IGES
100
AcDbLine
 62
7
  6
CONTINUOUS
 10
-9.7979202078
 20
55.9522302386
 11
-8.6337534749
 21
55.2800549574
  0
LINE
  5
417
100
AcDbEntity
  8
IMPORT_IGES
100
AcDbLine
 62
7
  6
CONTINUOUS
 10
-12.4521300933
 20
57.8150663849
 11
-11.8864446683
 21
57.4884467103
  0
LINE
  5
418
100
AcDbEntity
  8
IMPORT_IGES
100
AcDbLine
 62
7
  6
CONTINUOUS
 10
-11.3207592434
 20
57.1618270356
 11
-10.7550738184
 21
56.8352073609
  0
LINE
  5
419
100
AcDbEntity
  8
IMPORT_IGES
100
AcDbLine
 62
7
  6
CONTINUOUS
 10
-9.7864446683
 20
56.3538789992
 11
-8.2802000843
 21
55.4841922541
  0
LINE
  5
41A
100
AcDbEntity
  8
IMPORT_IGES
100
AcDbLine
 62
7
  6
CONTINUOUS
 10
-11.3207592434
 20
57.8150663849
 11
-10.7550738184
 21
57.4884467103
  0
LINE
  5
41B
100
AcDbEntity
  8
IMPORT_IGES
100
AcDbLine
 62
250
  6
CONTINUOUS
 10
-11.3852894276
 20
58.2325467257
 11
-17.5822011761
 21
61.8105774508
  0
LINE
  5
41C
100
AcDbEntity
  8
IMPORT_IGES
100
AcDbLine
 62
250
  6
CONTINUOUS
 10
-1.087155464
 20
52.2865216588
 11
-7.2840802246
 21
55.8645484408
  0
LINE
  5
41D
100
AcDbEntity
  8
IMPORT_IGES
100
AcDbLine
 62
7
  6
CONTINUOUS
 10
-17.3383952356
 20
61.8318451408
 11
-11.1414578414
 21
58.2538111553
  0
LINE
  5
41E
100
AcDbEntity
  8
IMPORT_IGES
100
AcDbLine
 62
7
  6
CONTINUOUS
 10
-7.0402385106
 20
55.885818514
 11
-0.84329897
 21
52.3077832892
  0
LWPOLYLINE
  5
41F
100
AcDbEntity
  8
IMPORT_IGES
100
AcDbPolyline
 62
7
  6
CONTINUOUS
 90
10
 70
0
 10
-11.1414594421
 20
58.2538083817
 10
-11.1393032687
 20
58.2525427217
 10
-11.1189975915
 20
58.2382188626
 10
-11.1005510337
 20
58.2207117497
 10
-11.0843642755
 20
58.2003888544
 10
-11.0704814086
 20
58.1771916404
 10
-11.0588583412
 20
58.151178644
 10
-11.0497634792
 20
58.1228929461
 10
-11.0432862911
 20
58.0925155738
 10
-11.0396042546
 20
58.0620726039
  0
LWPOLYLINE
  5
420
100
AcDbEntity
  8
IMPORT_IGES
100
AcDbPolyline
 62
250
  6
CONTINUOUS
 90
27
 70
0
 10
-10.7480163511
 20
57.8109659126
 10
-10.6765311362
 20
57.7662668014
 10
-10.6107356501
 20
57.7193849043
 10
-10.550629893
 20
57.6703202213
 10
-10.4959957714
 20
57.6188287338
 10
-10.4470513787
 20
57.5651544604
 10
-10.4044509949
 20
57.5100294571
 10
-10.3682985486
 20
57.4534310514
 10
-10.3384901113
 20
57.3953819157
 10
-10.3153681769
 20
57.3366821229
 10
-10.2990046649
 20
57.277437623
 10
-10.2893276557
 20
57.217542466
 10
-10.2864638853
 20
57.1574788745
 10
-10.2904802821
 20
57.0970873612
 10
-10.3013099175
 20
57.0365274135
 10
-10.3188787426
 20
56.9767597158
 10
-10.3433037131
 20
56.9178475905
 10
-10.3744678732
 20
56.8597277153
 10
-10.411946306
 20
56.8031708083
 10
-10.4558245705
 20
56.7482050642
 10
-10.5060171077
 20
56.6948022883
 10
-10.5618423232
 20
56.6436486143
 10
-10.6233629897
 20
56.5947813276
 10
-10.6905163345
 20
56.5481631428
 10
-10.7624324445
 20
56.5043683381
 10
-10.8391651947
 20
56.4634324321
 10
-10.9206607102
 20
56.4253199063
  0
LINE
  5
421
100
AcDbEntity
  8
IMPORT_IGES
100
AcDbLine
 62
250
  6
CONTINUOUS
 10
33.3002681543
 20
-37.8456728253
 11
26.1746870825
 21
-41.9598939904
  0
LWPOLYLINE
  5
422
100
AcDbEntity
  8
IMPORT_IGES
100
AcDbPolyline
 62
250
  6
CONTINUOUS
 90
25
 70
0
 10
26.174687043
 20
-41.9598875617
 10
26.1268733414
 20
-41.9848250521
 10
26.0762446057
 20
-42.0079598583
 10
26.0230199653
 20
-42.0291941588
 10
25.9674309654
 20
-42.0484378947
 10
25.9097159782
 20
-42.065610764
 10
25.850118602
 20
-42.0806419726
 10
25.7888947264
 20
-42.0934682864
 10
25.7263071134
 20
-42.1040359266
 10
25.6626189616
 20
-42.1123014013
 10
25.5981030535
 20
-42.118229958
 10
25.5330352405
 20
-42.1217968889
 10
25.4676880337
 20
-42.1229875654
 10
25.4023407493
 20
-42.1217968916
 10
25.337272768
 20
-42.1182299512
 10
25.2727566979
 20
-42.112301373
 10
25.2090684374
 20
-42.1040358722
 10
25.1464807241
 20
-42.0934681986
 10
25.085256714
 20
-42.0806418345
 10
25.0256593859
 20
-42.0656100463
 10
24.967944409
 20
-42.0484365878
 10
24.9123547563
 20
-42.0291937149
 10
24.8591286917
 20
-42.0079621391
 10
24.8084980893
 20
-41.9848313602
 10
24.760682204
 20
-41.9598991445
  0
LWPOLYLINE
  5
423
100
AcDbEntity
  8
IMPORT_IGES
100
AcDbPolyline
 62
250
  6
CONTINUOUS
 90
8
 70
0
 10
-12.4073348322
 20
56.2883650789
 10
-12.5052653544
 20
56.3099009097
 10
-12.6006271822
 20
56.3351898873
 10
-12.6934558198
 20
56.3641657002
 10
-12.7824313446
 20
56.3964445252
 10
-12.8671137823
 20
56.4318984211
 10
-12.9479431071
 20
56.470655329
 10
-13.024919319
 20
56.512715249
  0
LINE
  5
424
100
AcDbEntity
  8
IMPORT_IGES
100
AcDbLine
 62
7
  6
CONTINUOUS
 10
26.5285096976
 20
-45.1701583693
 11
33.047908073
 21
-41.4059394546
  0
LINE
  5
425
100
AcDbEntity
  8
IMPORT_IGES
100
AcDbLine
 62
7
  6
CONTINUOUS
 10
28.3752295824
 20
-44.1869577723
 11
26.5683638888
 21
-45.2302193784
  0
LINE
  5
426
100
AcDbEntity
  8
IMPORT_IGES
100
AcDbLine
 62
7
  6
CONTINUOUS
 10
31.2036567072
 20
-42.553859399
 11
33.0105224008
 21
-41.5105977928
  0
LINE
  5
427
100
AcDbEntity
  8
IMPORT_IGES
100
AcDbLine
 62
7
  6
CONTINUOUS
 10
31.215999302
 20
-43.3774561353
 11
28.3875721772
 21
-45.0105545086
  0
LINE
  5
428
100
AcDbEntity
  8
IMPORT_IGES
100
AcDbLine
 62
7
  6
CONTINUOUS
 10
26.6177342679
 20
-48.5246063237
 11
26.5285096976
 21
-48.5761234724
  0
LINE
  5
429
100
AcDbEntity
  8
IMPORT_IGES
100
AcDbLine
 62
7
  6
CONTINUOUS
 10
33.0598927799
 20
-44.8049847381
 11
33.1491173502
 21
-44.7534675895
  0
LWPOLYLINE
  5
42A
100
AcDbEntity
  8
IMPORT_IGES
100
AcDbPolyline
 62
250
  6
CONTINUOUS
 90
12
 70
0
 10
-11.2829235113
 20
56.3062485591
 10
-11.3808340274
 20
56.2853710655
 10
-11.481320333
 20
56.2681334549
 10
-11.5831416747
 20
56.2547575812
 10
-11.6864149619
 20
56.2452990147
 10
-11.7910232853
 20
56.2397021852
 10
-11.8953751642
 20
56.2380222358
 10
-11.9992235417
 20
56.2402925997
 10
-12.1028154747
 20
56.2464798438
 10
-12.2053006534
 20
56.2565388124
 10
-12.30687112
 20
56.2705160834
 10
-12.4073348322
 20
56.2883650789
  0
LWPOLYLINE
  5
42B
100
AcDbEntity
  8
IMPORT_IGES
100
AcDbPolyline
 62
250
  6
CONTINUOUS
 90
5
 70
0
 10
-22.6987710886
 20
59.4146549086
 10
-22.736822129
 20
59.4100548628
 10
-22.7736614958
 20
59.4016942232
 10
-22.8090111713
 20
59.3895606721
 10
-22.8416289252
 20
59.3742294186
  0
LINE
  5
42C
100
AcDbEntity
  8
IMPORT_IGES
100
AcDbLine
 62
7
  6
CONTINUOUS
 10
33.8608671714
 20
-56.3879984216
 11
26.1746971255
 21
-60.8258966555
  0
LWPOLYLINE
  5
42D
100
AcDbEntity
  8
IMPORT_IGES
100
AcDbPolyline
 62
7
  6
CONTINUOUS
 90
25
 70
0
 10
26.1746957229
 20
-60.8258959457
 10
26.1264957952
 20
-60.8519085537
 10
26.0759371533
 20
-60.8758631615
 10
26.0230197972
 20
-60.8977597689
 10
25.967497983
 20
-60.9176722989
 10
25.9096174546
 20
-60.9355268285
 10
25.8501154436
 20
-60.9511015895
 10
25.7889723594
 20
-60.9643680926
 10
25.7262077926
 20
-60.9753548271
 10
25.6626177469
 20
-60.9839254927
 10
25.5981924184
 20
-60.9900499662
 10
25.5329416109
 20
-60.9937583709
 10
25.4676907398
 20
-60.9950047762
 10
25.402439801
 20
-60.9937585745
 10
25.3371887987
 20
-60.9900503734
 10
25.2727631605
 20
-60.9839260661
 10
25.2091726826
 20
-60.9753555278
 10
25.146407569
 20
-60.9643688833
 10
25.0852638592
 20
-60.9511024
 10
25.0257611891
 20
-60.9355275556
 10
24.967879923
 20
-60.9176728724
 10
24.9123571929
 20
-60.8977601845
 10
24.8594387096
 20
-60.8758634365
 10
24.8088787625
 20
-60.8519086838
 10
24.7606773514
 20
-60.8258959264
  0
ELLIPSE
  5
42E
100
AcDbEntity
  8
IMPORT_IGES
100
AcDbEllipse
 62
7
  6
CONTINUOUS
 10
-0.7397826706
 20
10.7462025405
 30
0.0
 11
0.499979581
 21
0.0076930498
 31
0.0
 40
0.5873737521
 41
-0.7627033794
 42
-0.1106534287
  0
ELLIPSE
  5
42F
100
AcDbEntity
  8
IMPORT_IGES
100
AcDbEllipse
 62
7
  6
CONTINUOUS
 10
-0.7397826706
 20
5.4666369105
 30
0.0
 11
0.4999822419
 21
-0.0074291459
 31
0.0
 40
0.5672251703
 41
-0.745237768
 42
-0.0931878178
  0
ELLIPSE
  5
430
100
AcDbEntity
  8
IMPORT_IGES
100
AcDbEllipse
 62
7
  6
CONTINUOUS
 10
-6.7246728779
 20
-38.4064833064
 30
0.0
 11
-0.5001764619
 21
0.8662752828
 31
0.0
 40
0.5771558487
 41
2.7800015319
 42
3.9268154654
  0
ENDSEC
  0
SECTION
  2
OBJECTS
  0
DICTIONARY
  5
C
100
AcDbDictionary
280
0
281
1
  3
ACAD_GROUP
350
D
  3
ACAD_MLINESTYLE
350
17
  3
ACAD_LAYOUT
350
1A
  3
ACAD_PLOTSETTINGS
350
19
  3
ACAD_PLOTSTYLENAME
350
E
  0
DICTIONARY
  5
D
102
{ACAD_REACTORS
330
C
102
}
100
AcDbDictionary
280
0
281
1
  0
ACDBDICTIONARYWDFLT
  5
E
102
{ACAD_REACTORS
330
C
102
}
100
AcDbDictionary
281
1
  3
Normal
350
F
100
AcDbDictionaryWithDefault
340
F
  0
DICTIONARY
  5
17
102
{ACAD_REACTORS
330
C
102
}
100
AcDbDictionary
280
0
281
1
  3
Standard
350
18
  0
DICTIONARY
  5
19
102
{ACAD_REACTORS
330
C
102
}
100
AcDbDictionary
281
1
  0
DICTIONARY
  5
1A
102
{ACAD_REACTORS
330
C
102
}
100
AcDbDictionary
281
1
  3
Model
350
431
  3
Layout1
350
432
  0
ACDBPLACEHOLDER
  5
F
102
{ACAD_REACTORS
330
E
102
}
  0
MLINESTYLE
  5
18
102
{ACAD_REACTORS
330
17
102
}
100
AcDbMlineStyle
  2
STANDARD
 70
0
  3

 62
256
 51
90.0
 52
90.0
 71
2
 49
0.5
 62
256
  6
BYLAYER
 49
-0.5
 62
256
  6
BYLAYER
  0
LAYOUT
  5
431
102
{ACAD_REACTORS
330
1A
102
}
100
AcDbPlotSettings
  1

  2
none_device
  4
ISO_A4_(297.00_x_210.00_MM)
  6

 40
0.0
 41
0.0
 42
0.0
 43
0.0
 44
297.0
 45
210.0
 46
0.0
 47
0.0
 48
0.0
 49
0.0
140
0.0
141
0.0
142
1.0
143
1.0
 70
1024
 72
1
 73
0
 74
0
  7

 75
0
147
1.0
148
0.0
149
0.0
100
AcDbLayout
  1
Model
 70
0
 71
0
 10
0.0
 20
0.0
 11
297.0
 21
210.0
 12
0.0
 22
0.0
 32
0.0
 14
0.0
 24
0.0
 34
0.0
 15
0.0
 25
0.0
 35
0.0
146
0.0
 13
0.0
 23
0.0
 33
0.0
 16
1.0
 26
0.0
 36
0.0
 17
0.0
 27
1.0
 37
0.0
 76
0
330
28D
345
0
346
0
  0
LAYOUT
  5
432
102
{ACAD_REACTORS
330
1A
102
}
100
AcDbPlotSettings
  1

  2
none_device
  4
ISO_A4_(297.00_x_210.00_MM)
  6

 40
0.0
 41
0.0
 42
0.0
 43
0.0
 44
297.0
 45
210.0
 46
0.0
 47
0.0
 48
0.0
 49
0.0
140
0.0
141
0.0
142
1.0
143
1.0
 70
0
 72
1
 73
0
 74
0
  7

 75
0
147
1.0
148
0.0
149
0.0
100
AcDbLayout
  1
Layout1
 70
0
 71
1
 10
0.0
 20
0.0
 11
297.0
 21
210.0
 12
0.0
 22
0.0
 32
0.0
 14
0.0
 24
0.0
 34
0.0
 15
0.0
 25
0.0
 35
0.0
146
0.0
 13
0.0
 23
0.0
 33
0.0
 16
1.0
 26
0.0
 36
0.0
 17
0.0
 27
1.0
 37
0.0
 76
0
330
28E
345
0
346
0
  0
ENDSEC
  0
EOF
