  0
SECTION
  2
HEADER
  9
$ACADVER
  1
AC1024
  9
$DWGCODEPAGE
  3
ANSI_1252
  9
$EXTMAX
 10
420.0
 20
297.0
 30
0.0
  9
$EXTMIN
 10
0.0
 20
0.0
 30
0.0
  9
$LIMMIN
 10
0.0
 20
0.0
  9
$LIMMAX
 10
420.0
 20
297.0
  9
$VIEWCTR
 10
210.0
 20
148.5
  9
$VIEWSIZE
 40
297.0
  9
$CLAYER
  8
0
  9
$LTSCALE
 40
23.1
  9
$CELTYPE
  6
BYLAYER
  9
$DIMSCALE
 40
1.0
  9
$DIMASZ
 40
3.0
  9
$DIMEXO
 40
0.5
  9
$DIMDLI
 40
15.96
  9
$DIMEXE
 40
1.5
  9
$DIMCEN
 40
3.78
  9
$DIMLFAC
 40
1.0
  9
$DIMBLK
  1
_FILLED
  9
$DIMALT
 70
0
  9
$DIMALTF
 40
0.0393700787
  9
$DIMTXT
 40
3.0
  9
$DIMTOL
 70
1
  9
$DIMLIM
 70
0
  9
$DIMTFAC
 40
1.0
  9
$DIMTP
 40
0.01
  9
$DIMTM
 40
0.01
  9
$DIMGAP
 40
0.625
  9
$DIMDSEP
 70
44
  9
$AUNITS
 70
0
  9
$PDMODE
 70
3
  9
$PDSIZE
 40
3.0
  9
$HANDSEED
  5
3B0
  9
$TILEMODE
 70
1
  9
$MEASUREMENT
 70
1
  9
$INSUNITS
 70
4
  0
ENDSEC
  0
SECTION
  2
CLASSES
  0
CLASS
  1
ACDBDICTIONARYWDFLT
  2
AcDbDictionaryWithDefault
  3
AutoCAD 2000
 90
0
 91
1
280
0
281
0
  0
CLASS
  1
ACDBPLACEHOLDER
  2
AcDbPlaceHolder
  3
AutoCAD 2000
 90
0
 91
1
280
0
281
0
  0
CLASS
  1
LAYOUT
  2
AcDbLayout
  3
AutoCAD 2000
 90
0
 91
0
280
0
281
0
  0
ENDSEC
  0
SECTION
  2
TABLES
  0
TABLE
  2
VPORT
  5
8
100
AcDbSymbolTable
 70
2
  0
VPORT
  5
1F4
100
AcDbSymbolTableRecord
100
AcDbViewportTableRecord
  2
*ACTIVE
 70
0
 10
0.0
 20
0.0
 11
1.0
 21
1.0
 12
210.0
 22
148.5
 13
0.0
 23
0.0
 14
1.0
 24
1.0
 15
0.0
 25
0.0
 16
0.0
 26
0.0
 36
1.0
 17
0.0
 27
0.0
 37
0.0
 40
297.0
 41
1.4141414141
 42
50.0
 43
0.0
 44
0.0
 50
0.0
 51
0.0
 71
0
 72
100
 73
1
 74
1
 75
0
 76
0
 77
0
 78
0
  0
ENDTAB
  0
TABLE
  2
LTYPE
  5
5
100
AcDbSymbolTable
 70
6
  0
LTYPE
  5
14
100
AcDbSymbolTableRecord
100
AcDbLinetypeTableRecord
  2
BYBLOCK
 70
0
  3

 72
65
 73
0
 40
0.0
  0
LTYPE
  5
15
100
AcDbSymbolTableRecord
100
AcDbLinetypeTableRecord
  2
BYLAYER
 70
0
  3

 72
65
 73
0
 40
0.0
  0
LTYPE
  5
16
100
AcDbSymbolTableRecord
100
AcDbLinetypeTableRecord
  2
CONTINUOUS
 70
64
  3
Solid line
 72
65
 73
0
 40
0.0
  0
LTYPE
  5
1F5
100
AcDbSymbolTableRecord
100
AcDbLinetypeTableRecord
  2
CENTER
 70
64
  3
____ _ ____ _ ____ _ ____ _ ____ _ ____ _ ____
 72
65
 73
4
 40
0.6
 49
0.375
 74
0
 49
-0.075
 74
0
 49
0.075
 74
0
 49
-0.075
 74
0
  0
LTYPE
  5
1F6
100
AcDbSymbolTableRecord
100
AcDbLinetypeTableRecord
  2
HIDDEN
 70
64
  3
- - - - - - - - - - - - - - - - - - - -
 72
65
 73
2
 40
0.2
 49
0.1
 74
0
 49
-0.1
 74
0
  0
LTYPE
  5
1F7
100
AcDbSymbolTableRecord
100
AcDbLinetypeTableRecord
  2
PHANTOM
 70
64
  3
_____ _ _ _____ _ _ _____ _ _ _____
 72
65
 73
6
 40
0.8
 49
0.45
 74
0
 49
-0.05
 74
0
 49
0.1
 74
0
 49
-0.05
 74
0
 49
0.1
 74
0
 49
-0.05
 74
0
  0
LTYPE
  5
1F8
100
AcDbSymbolTableRecord
100
AcDbLinetypeTableRecord
  2
DOT
 70
64
  3
. . . . . . . . . . . . . . . . . . . .
 72
65
 73
2
 40
0.2
 49
0.1
 74
0
 49
-0.1
 74
0
  0
LTYPE
  5
1F9
100
AcDbSymbolTableRecord
100
AcDbLinetypeTableRecord
  2
DASHED
 70
64
  3
- - - - - - - - - - - - - - - - - - - -
 72
65
 73
2
 40
0.2
 49
0.1
 74
0
 49
-0.1
 74
0
  0
ENDTAB
  0
TABLE
  2
LAYER
  5
2
100
AcDbSymbolTable
 70
36
  0
LAYER
  5
10
100
AcDbSymbolTableRecord
100
AcDbLayerTableRecord
  2
0
 70
0
 62
7
  6
CONTINUOUS
370
-3
390
F
  0
LAYER
  5
1FA
100
AcDbSymbolTableRecord
100
AcDbLayerTableRecord
  2
DEFAULT_1
 70
0
 62
7
  6
CENTER
370
-3
390
F
  0
LAYER
  5
1FB
100
AcDbSymbolTableRecord
100
AcDbLayerTableRecord
  2
DEFAULT_2
 70
0
 62
7
  6
HIDDEN
370
-3
390
F
  0
LAYER
  5
1FC
100
AcDbSymbolTableRecord
100
AcDbLayerTableRecord
  2
DEFAULT_3
 70
0
 62
7
  6
PHANTOM
370
-3
390
F
  0
LAYER
  5
1FD
100
AcDbSymbolTableRecord
100
AcDbLayerTableRecord
  2
06___PRT_ALL_SURFS_2
 70
0
 62
7
  6
CONTINUOUS
370
-3
390
F
  0
LAYER
  5
1FE
100
AcDbSymbolTableRecord
100
AcDbLayerTableRecord
  2
06___PRT_ALL_SURFS_3
 70
0
 62
7
  6
CONTINUOUS
370
-3
390
F
  0
LAYER
  5
1FF
100
AcDbSymbolTableRecord
100
AcDbLayerTableRecord
  2
06___PRT_ALL_SURFS_4
 70
0
 62
7
  6
CONTINUOUS
370
-3
390
F
  0
LAYER
  5
200
100
AcDbSymbolTableRecord
100
AcDbLayerTableRecord
  2
0805_C_REF_145000
 70
0
 62
7
  6
CONTINUOUS
370
-3
390
F
  0
LAYER
  5
201
100
AcDbSymbolTableRecord
100
AcDbLayerTableRecord
  2
1206_R_REF_65000
 70
0
 62
7
  6
CONTINUOUS
370
-3
390
F
  0
LAYER
  5
202
100
AcDbSymbolTableRecord
100
AcDbLayerTableRecord
  2
43001104A0
 70
0
 62
7
  6
CONTINUOUS
370
-3
390
F
  0
LAYER
  5
203
100
AcDbSymbolTableRecord
100
AcDbLayerTableRecord
  2
ASSI
 70
0
 62
7
  6
CONTINUOUS
370
-3
390
F
  0
LAYER
  5
204
100
AcDbSymbolTableRecord
100
AcDbLayerTableRecord
  2
CAP-E-6_3-11-2_5_1120000
 70
0
 62
7
  6
CONTINUOUS
370
-3
390
F
  0
LAYER
  5
205
100
AcDbSymbolTableRecord
100
AcDbLayerTableRecord
  2
CN_M_THT_P5_R1_P2_SET_1750000
 70
0
 62
7
  6
CONTINUOUS
370
-3
390
F
  0
LAYER
  5
206
100
AcDbSymbolTableRecord
100
AcDbLayerTableRecord
  2
CN_M_THT_P5_R1_P2_SET_1750000_1
 70
0
 62
7
  6
CONTINUOUS
370
-3
390
F
  0
LAYER
  5
207
100
AcDbSymbolTableRecord
100
AcDbLayerTableRecord
  2
COORDINATE
 70
0
 62
7
  6
CONTINUOUS
370
-3
390
F
  0
LAYER
  5
208
100
AcDbSymbolTableRecord
100
AcDbLayerTableRecord
  2
COPY_PUBLISH
 70
0
 62
7
  6
CONTINUOUS
370
-3
390
F
  0
LAYER
  5
209
100
AcDbSymbolTableRecord
100
AcDbLayerTableRecord
  2
COSMETIC
 70
0
 62
7
  6
CONTINUOUS
370
-3
390
F
  0
LAYER
  5
20A
100
AcDbSymbolTableRecord
100
AcDbLayerTableRecord
  2
COSMETICI
 70
0
 62
7
  6
CONTINUOUS
370
-3
390
F
  0
LAYER
  5
20B
100
AcDbSymbolTableRecord
100
AcDbLayerTableRecord
  2
CURVE
 70
0
 62
7
  6
CONTINUOUS
370
-3
390
F
  0
LAYER
  5
20C
100
AcDbSymbolTableRecord
100
AcDbLayerTableRecord
  2
DRAFT
 70
0
 62
7
  6
CONTINUOUS
370
-3
390
F
  0
LAYER
  5
20D
100
AcDbSymbolTableRecord
100
AcDbLayerTableRecord
  2
GEOMETRIA_SOLIDA
 70
0
 62
7
  6
CONTINUOUS
370
-3
390
F
  0
LAYER
  5
20E
100
AcDbSymbolTableRecord
100
AcDbLayerTableRecord
  2
IMPORT_IGES
 70
0
 62
7
  6
CONTINUOUS
370
-3
390
F
  0
LAYER
  5
20F
100
AcDbSymbolTableRecord
100
AcDbLayerTableRecord
  2
NOTE
 70
0
 62
7
  6
CONTINUOUS
370
-3
390
F
  0
LAYER
  5
210
100
AcDbSymbolTableRecord
100
AcDbLayerTableRecord
  2
PIANI
 70
0
 62
7
  6
CONTINUOUS
370
-3
390
F
  0
LAYER
  5
211
100
AcDbSymbolTableRecord
100
AcDbLayerTableRecord
  2
PUNTI
 70
0
 62
7
  6
CONTINUOUS
370
-3
390
F
  0
LAYER
  5
212
100
AcDbSymbolTableRecord
100
AcDbLayerTableRecord
  2
RACCORDO
 70
0
 62
7
  6
CONTINUOUS
370
-3
390
F
  0
LAYER
  5
213
100
AcDbSymbolTableRecord
100
AcDbLayerTableRecord
  2
SIMBOLI
 70
0
 62
7
  6
CONTINUOUS
370
-3
390
F
  0
LAYER
  5
214
100
AcDbSymbolTableRecord
100
AcDbLayerTableRecord
  2
SMUSSO
 70
0
 62
7
  6
CONTINUOUS
370
-3
390
F
  0
LAYER
  5
215
100
AcDbSymbolTableRecord
100
AcDbLayerTableRecord
  2
SUB_SMA_143000
 70
0
 62
7
  6
CONTINUOUS
370
-3
390
F
  0
LAYER
  5
216
100
AcDbSymbolTableRecord
100
AcDbLayerTableRecord
  2
SUB_SMA_143000_1
 70
0
 62
7
  6
CONTINUOUS
370
-3
390
F
  0
LAYER
  5
217
100
AcDbSymbolTableRecord
100
AcDbLayerTableRecord
  2
SUPERFICI
 70
0
 62
7
  6
CONTINUOUS
370
-3
390
F
  0
LAYER
  5
218
100
AcDbSymbolTableRecord
100
AcDbLayerTableRecord
  2
TRASH
 70
0
 62
7
  6
CONTINUOUS
370
-3
390
F
  0
LAYER
  5
219
100
AcDbSymbolTableRecord
100
AcDbLayerTableRecord
  2
VG_DIP6_SMD_510000
 70
0
 62
7
  6
CONTINUOUS
370
-3
390
F
  0
LAYER
  5
21A
100
AcDbSymbolTableRecord
100
AcDbLayerTableRecord
  2
VG_K_5A_48V_SPDT_1000000
 70
0
 62
7
  6
CONTINUOUS
370
-3
390
F
  0
LAYER
  5
21B
100
AcDbSymbolTableRecord
100
AcDbLayerTableRecord
  2
VG_RES-RAD-5_0-15_0-5_0-0_7_200
 70
0
 62
7
  6
CONTINUOUS
370
-3
390
F
  0
LAYER
  5
21C
100
AcDbSymbolTableRecord
100
AcDbLayerTableRecord
  2
VG_RES-RAD-5_0-15_0-5_0-0_7_2_1
 70
0
 62
7
  6
CONTINUOUS
370
-3
390
F
  0
LAYER
  5
21D
100
AcDbSymbolTableRecord
100
AcDbLayerTableRecord
  2
VG_RES-RAD-5_0-15_0-5_0-0_7_2_2
 70
0
 62
7
  6
CONTINUOUS
370
-3
390
F
  0
LAYER
  5
21E
100
AcDbSymbolTableRecord
100
AcDbLayerTableRecord
  2
VG_RES-RAD-5_0-15_0-5_0-0_7_2_3
 70
0
 62
7
  6
CONTINUOUS
370
-3
390
F
  0
LAYER
  5
21F
100
AcDbSymbolTableRecord
100
AcDbLayerTableRecord
  2
VG_RES-RAD-5_0-15_0-5_0-0_7_2_4
 70
0
 62
7
  6
CONTINUOUS
370
-3
390
F
  0
LAYER
  5
220
100
AcDbSymbolTableRecord
100
AcDbLayerTableRecord
  2
VG_VAR_S05_D7_S4_3_H8_5_850000
 70
0
 62
7
  6
CONTINUOUS
370
-3
390
F
  0
LAYER
  5
221
100
AcDbSymbolTableRecord
100
AcDbLayerTableRecord
  2
VG_VAR_S05_D7_S4_3_H8_5_85000_1
 70
0
 62
7
  6
CONTINUOUS
370
-3
390
F
  0
LAYER
  5
222
100
AcDbSymbolTableRecord
100
AcDbLayerTableRecord
  2
___SHELL
 70
0
 62
7
  6
CONTINUOUS
370
-3
390
F
  0
ENDTAB
  0
TABLE
  2
STYLE
  5
3
100
AcDbSymbolTable
 70
1
  0
STYLE
  5
11
100
AcDbSymbolTableRecord
100
AcDbTextStyleTableRecord
  2
STANDARD
 70
0
 40
0.0
 41
0.8
 50
0.0
 71
0
 42
0.2
  3
txt
  4

  0
STYLE
  5
223
100
AcDbSymbolTableRecord
100
AcDbTextStyleTableRecord
  2
TEXTSTYLE_1
 70
0
 40
0.0
 41
0.8
 50
0.0
 71
0
 42
0.2
  3
gdt
  4

  0
ENDTAB
  0
TABLE
  2
VIEW
  5
6
100
AcDbSymbolTable
 70
0
  0
ENDTAB
  0
TABLE
  2
UCS
  5
7
100
AcDbSymbolTable
 70
0
  0
ENDTAB
  0
TABLE
  2
APPID
  5
9
100
AcDbSymbolTable
 70
1
  0
APPID
  5
224
100
AcDbSymbolTableRecord
100
AcDbRegAppTableRecord
  2
ACAD
 70
0
  0
ENDTAB
  0
TABLE
  2
BLOCK_RECORD
  5
1
100
AcDbSymbolTable
 70
0
  0
BLOCK_RECORD
  5
225
100
AcDbSymbolTableRecord
100
AcDbBlockTableRecord
  2
*Model_Space
  0
BLOCK_RECORD
  5
226
100
AcDbSymbolTableRecord
100
AcDbBlockTableRecord
  2
*Paper_Space
  0
BLOCK_RECORD
  5
227
100
AcDbSymbolTableRecord
100
AcDbBlockTableRecord
  2
_FILLED
  0
ENDTAB
  0
TABLE
  2
DIMSTYLE
  5
A
100
AcDbSymbolTable
 70
1
100
AcDbDimStyleTable
 71
0
  0
DIMSTYLE
105
228
100
AcDbSymbolTableRecord
100
AcDbDimStyleTableRecord
  2
STANDARD
 70
0
  3

  4

 40
1.0
 41
3.0
 42
0.5
 43
0.38
 44
1.5
 45
0.0
 46
0.0
 47
0.01
 48
0.01
140
3.0
141
0.0
142
0.0
143
25.4
144
1.0
145
0.0
146
1.0
147
0.625
 71
1
 72
0
 73
0
 74
0
 75
0
 76
0
 77
1
 78
8
 79
2
170
0
171
1
172
0
173
0
174
0
175
0
176
0
177
0
178
0
270
2
179
2
271
2
272
2
273
2
274
2
275
0
280
0
281
0
282
0
283
1
284
8
285
0
286
0
287
3
288
0
340
11
278
44
341
227
342
227
343
227
344
227
  0
ENDTAB
  0
ENDSEC
  0
SECTION
  2
BLOCKS
  0
BLOCK
  5
20
100
AcDbEntity
  8
0
100
AcDbBlockBegin
  2
*Model_Space
 70
0
 10
0.0
 20
0.0
 30
0.0
  3
*Model_Space
  1

  0
ENDBLK
  5
21
100
AcDbEntity
  8
0
100
AcDbBlockEnd
  0
BLOCK
  5
1C
100
AcDbEntity
  8
0
100
AcDbBlockBegin
  2
*Paper_Space
 70
0
 10
0.0
 20
0.0
 30
0.0
  3
*Paper_Space
  1

  0
ENDBLK
  5
1D
100
AcDbEntity
  8
0
100
AcDbBlockEnd
  0
BLOCK
  5
229
100
AcDbEntity
  8
0
100
AcDbBlockBegin
  2
_FILLED
 70
64
 10
0.0
 20
0.0
 30
0.0
  3
_FILLED
  1

  0
SOLID
  5
22A
100
AcDbEntity
  8
0
  6
BYBLOCK
 62
0
100
AcDbTrace
 10
0.0
 20
0.0
 30
0.0
 11
-1.0
 21
0.3166666667
 31
0.0
 12
-1.0
 22
-0.3166666667
 32
0.0
 13
-1.0
 23
-0.3166666667
 33
0.0
  0
ENDBLK
  5
22B
100
AcDbEntity
  8
0
  6
BYBLOCK
 62
0
100
AcDbBlockEnd
  0
ENDSEC
  0
SECTION
  2
ENTITIES
  0
LWPOLYLINE
  5
22C
100
AcDbEntity
  8
RACCORDO
100
AcDbPolyline
 62
7
  6
CONTINUOUS
 90
16
 70
0
 10
-20.9794406233
 20
18.5194686527
 10
-21.0439053015
 20
18.4775370912
 10
-21.1396120472
 20
18.4069608107
 10
-21.2302242261
 20
18.3296061794
 10
-21.315033043
 20
18.2460916542
 10
-21.3937592484
 20
18.1567352064
 10
-21.4664412617
 20
18.0614143252
 10
-21.53261319
 20
17.9605809988
 10
-21.5918235171
 20
17.8547953675
 10
-21.6440003337
 20
17.7439331134
 10
-21.6887362701
 20
17.6284137786
 10
-21.7256236969
 20
17.5088991663
 10
-21.7544909117
 20
17.3853967388
 10
-21.7750331846
 20
17.2581453819
 10
-21.7869193102
 20
17.1278673264
 10
-21.7900583011
 20
17.0174993296
  0
LINE
  5
22D
100
AcDbEntity
  8
RACCORDO
100
AcDbLine
 62
7
  6
CONTINUOUS
 10
-20.9798148353
 20
18.5192381977
 30
0.0
 11
-16.7855159058
 21
21.1130555715
 31
0.0
  0
LINE
  5
22E
100
AcDbEntity
  8
RACCORDO
100
AcDbLine
 62
250
  6
CONTINUOUS
 10
-19.9549857993
 20
18.435065459
 30
0.0
 11
-15.7683006417
 21
21.0242794986
 31
0.0
  0
LINE
  5
22F
100
AcDbEntity
  8
RACCORDO
100
AcDbLine
 62
7
  6
CONTINUOUS
 10
-16.7506250909
 20
21.1332010895
 30
0.0
 11
-5.2128076074
 21
27.3378659538
 31
0.0
  0
LINE
  5
230
100
AcDbEntity
  8
RACCORDO
100
AcDbLine
 62
250
  6
CONTINUOUS
 10
-15.7683006417
 20
21.0242794986
 30
0.0
 11
-4.2382764419
 21
27.224753387
 31
0.0
  0
LINE
  5
231
100
AcDbEntity
  8
DRAFT
100
AcDbLine
 62
7
  6
CONTINUOUS
 10
-12.5984473296
 20
22.4032365036
 30
0.0
 11
-15.4762448334
 21
20.8556501352
 31
0.0
  0
LINE
  5
232
100
AcDbEntity
  8
RACCORDO
100
AcDbLine
 62
7
  6
CONTINUOUS
 10
-12.7488023316
 20
22.2535609113
 30
0.0
 11
-15.4145318596
 21
20.8200178375
 31
0.0
  0
LWPOLYLINE
  5
233
100
AcDbEntity
  8
RACCORDO
100
AcDbPolyline
 62
7
  6
CONTINUOUS
 90
13
 70
0
 10
-22.6497328731
 20
-3.2491589364
 10
-22.647003719
 20
-3.3147473069
 10
-22.6362439717
 20
-3.394330644
 10
-22.6172099591
 20
-3.4738127101
 10
-22.5897777703
 20
-3.5528443513
 10
-22.553928185
 20
-3.6309182586
 10
-22.5098277684
 20
-3.7074310396
 10
-22.4576036255
 20
-3.7820095395
 10
-22.3973024536
 20
-3.8544205208
 10
-22.3290573927
 20
-3.9243787199
 10
-22.2529813647
 20
-3.991627216
 10
-22.1691708555
 20
-4.0559129781
 10
-22.0849232547
 20
-4.112506978
  0
LWPOLYLINE
  5
234
100
AcDbEntity
  8
RACCORDO
100
AcDbPolyline
 62
7
  6
CONTINUOUS
 90
19
 70
0
 10
-21.7900588276
 20
-12.2046065674
 10
-21.7893865665
 20
-12.255863352
 10
-21.7814316988
 20
-12.3898600844
 10
-21.7646395044
 20
-12.5236957237
 10
-21.7389101779
 20
-12.6580968852
 10
-21.7043005288
 20
-12.7922971077
 10
-21.6614193145
 20
-12.9241528779
 10
-21.6101575099
 20
-13.0543018763
 10
-21.5504049149
 20
-13.1826572002
 10
-21.4835166608
 20
-13.3063990335
 10
-21.4093889699
 20
-13.4259298812
 10
-21.3277216637
 20
-13.5415444181
 10
-21.2402841498
 20
-13.6506703816
 10
-21.1472126034
 20
-13.7533535327
 10
-21.0480075165
 20
-13.8500073484
 10
-20.9442150688
 20
-13.9390511852
 10
-20.836473173
 20
-14.0200535122
 10
-20.7242145473
 20
-14.0934551445
 10
-20.6867516613
 20
-14.1156477678
  0
LINE
  5
235
100
AcDbEntity
  8
RACCORDO
100
AcDbLine
 62
7
  6
CONTINUOUS
 10
-22.6497330228
 20
9.2942530638
 30
0.0
 11
-22.6497330228
 21
7.2032209011
 31
0.0
  0
LINE
  5
236
100
AcDbEntity
  8
RACCORDO
100
AcDbLine
 62
7
  6
CONTINUOUS
 10
-22.6497330228
 20
-1.1585582726
 30
0.0
 11
-22.6497330228
 21
-3.2495892354
 31
0.0
  0
LINE
  5
237
100
AcDbEntity
  8
RACCORDO
100
AcDbLine
 62
250
  6
CONTINUOUS
 10
-22.0639141042
 20
8.4726473639
 30
0.0
 11
-22.0639465852
 21
6.3950200743
 31
0.0
  0
LINE
  5
238
100
AcDbEntity
  8
RACCORDO
100
AcDbLine
 62
250
  6
CONTINUOUS
 10
-22.0639465852
 20
-1.9834558191
 30
0.0
 11
-22.0639129199
 21
-4.0611216259
 31
0.0
  0
LINE
  5
239
100
AcDbEntity
  8
RACCORDO
100
AcDbLine
 62
7
  6
CONTINUOUS
 10
-21.8642793279
 20
-1.7337373418
 30
0.0
 11
-21.8642793279
 21
6.2797347023
 31
0.0
  0
LINE
  5
23A
100
AcDbEntity
  8
RACCORDO
100
AcDbLine
 62
7
  6
CONTINUOUS
 10
-21.7900621645
 20
-12.2046065681
 30
0.0
 11
-21.7900621909
 21
-4.3512816746
 31
0.0
  0
LINE
  5
23B
100
AcDbEntity
  8
RACCORDO
100
AcDbLine
 62
7
  6
CONTINUOUS
 10
-21.7900621909
 20
8.9988278656
 30
0.0
 11
-21.7900621909
 21
17.0172186727
 31
0.0
  0
LINE
  5
23C
100
AcDbEntity
  8
RACCORDO
100
AcDbLine
 62
7
  6
CONTINUOUS
 10
6.7132529955
 20
28.8685852272
 30
0.0
 11
5.9634159073
 21
28.4940705862
 31
0.0
  0
LINE
  5
23D
100
AcDbEntity
  8
RACCORDO
100
AcDbLine
 62
250
  6
CONTINUOUS
 10
7.6720664061
 20
28.7476809461
 30
0.0
 11
6.9274971949
 21
28.375797406
 31
0.0
  0
LWPOLYLINE
  5
23E
100
AcDbEntity
  8
RACCORDO
100
AcDbPolyline
 62
7
  6
CONTINUOUS
 90
16
 70
0
 10
4.6211461418
 20
-28.7281112762
 10
4.7197943724
 20
-28.7813349669
 10
4.8384728417
 20
-28.8360234087
 10
4.9588567671
 20
-28.881722632
 10
5.0801557968
 20
-28.9183553676
 10
5.2020109308
 20
-28.9460648123
 10
5.3243288143
 20
-28.9649950035
 10
5.4463357936
 20
-28.9751669211
 10
5.5674651709
 20
-28.9767220486
 10
5.687783397
 20
-28.9697846604
 10
5.8065810011
 20
-28.9544665515
 10
5.9232350891
 20
-28.9309449274
 10
6.0378660454
 20
-28.8992482522
 10
6.1500589952
 20
-28.8594614364
 10
6.2589281709
 20
-28.8118897966
 10
6.3273786062
 20
-28.7770678774
  0
LINE
  5
23F
100
AcDbEntity
  8
RACCORDO
100
AcDbLine
 62
7
  6
CONTINUOUS
 10
4.6211444729
 20
-28.7281141683
 30
0.0
 11
-20.6865989154
 21
-14.1157403949
 31
0.0
  0
LINE
  5
240
100
AcDbEntity
  8
RACCORDO
100
AcDbLine
 62
250
  6
CONTINUOUS
 10
4.3102947246
 20
-28.0413785713
 30
0.0
 11
-20.99722282
 21
-13.4291351188
 31
0.0
  0
LINE
  5
241
100
AcDbEntity
  8
RACCORDO
100
AcDbLine
 62
7
  6
CONTINUOUS
 10
-20.6865989154
 20
-14.1157403949
 30
0.0
 11
-20.6867535657
 21
-14.1156510649
 31
0.0
  0
LINE
  5
242
100
AcDbEntity
  8
RACCORDO
100
AcDbLine
 62
250
  6
CONTINUOUS
 10
-21.4249394996
 20
-2.3524105016
 30
0.0
 11
-21.4249394996
 21
6.0260653917
 31
0.0
  0
LINE
  5
243
100
AcDbEntity
  8
RACCORDO
100
AcDbLine
 62
250
  6
CONTINUOUS
 10
-21.3507899242
 20
8.3793156761
 30
0.0
 11
-21.3507223627
 21
16.4048067516
 31
0.0
  0
LINE
  5
244
100
AcDbEntity
  8
RACCORDO
100
AcDbLine
 62
250
  6
CONTINUOUS
 10
-21.3507223627
 20
-12.816855951
 30
0.0
 11
-21.3507680478
 21
-4.7913135986
 31
0.0
  0
LWPOLYLINE
  5
245
100
AcDbEntity
  8
RACCORDO
100
AcDbPolyline
 62
7
  6
CONTINUOUS
 90
14
 70
0
 10
-22.0497280118
 20
10.2040005366
 10
-22.1165457631
 20
10.1606311317
 10
-22.2028531293
 20
10.0977999557
 10
-22.2816451179
 20
10.0321391447
 10
-22.3526497859
 20
9.9641240768
 10
-22.416041364
 20
9.8938957445
 10
-22.4721805876
 20
9.8212025309
 10
-22.5209374589
 20
9.746199423
 10
-22.5621045389
 20
9.6692234714
 10
-22.5956441643
 20
9.5902573
 10
-22.6213368987
 20
9.5094798343
 10
-22.6389086015
 20
9.4273969599
 10
-22.6481873924
 20
9.344566671
 10
-22.6497323178
 20
9.2934656341
  0
LINE
  5
246
100
AcDbEntity
  8
RACCORDO
100
AcDbLine
 62
7
  6
CONTINUOUS
 10
-22.0497377788
 20
10.2040012549
 30
0.0
 11
-21.7900621909
 21
10.3645885336
 31
0.0
  0
LINE
  5
247
100
AcDbEntity
  8
RACCORDO
100
AcDbLine
 62
250
  6
CONTINUOUS
 10
-21.9470128064
 20
10.1957441936
 30
0.0
 11
-21.7900621909
 21
10.2928048085
 31
0.0
  0
LINE
  5
248
100
AcDbEntity
  8
RACCORDO
100
AcDbLine
 62
250
  6
CONTINUOUS
 10
10.3139154475
 20
27.2223104197
 30
0.0
 11
9.6195934254
 21
26.8214147824
 31
0.0
  0
LINE
  5
249
100
AcDbEntity
  8
RACCORDO
100
AcDbLine
 62
7
  6
CONTINUOUS
 10
5.2382877499
 20
-19.9394386362
 30
0.0
 11
5.238331854
 21
-19.9394471932
 31
0.0
  0
LWPOLYLINE
  5
24A
100
AcDbEntity
  8
RACCORDO
100
AcDbPolyline
 62
7
  6
CONTINUOUS
 90
7
 70
0
 10
5.2382881684
 20
-19.9394387175
 10
5.2782336508
 20
-19.9481992703
 10
5.3155158873
 20
-19.9583131292
 10
5.3516814175
 20
-19.9700723828
 10
5.3868487636
 20
-19.9834993492
 10
5.4207630555
 20
-19.9984584638
 10
5.4305131253
 20
-20.0031470035
  0
LINE
  5
24B
100
AcDbEntity
  8
RACCORDO
100
AcDbLine
 62
7
  6
CONTINUOUS
 10
11.9858882152
 20
-26.377425156
 30
0.0
 11
12.3041078109
 21
-26.5611611623
 31
0.0
  0
LINE
  5
24C
100
AcDbEntity
  8
RACCORDO
100
AcDbLine
 62
250
  6
CONTINUOUS
 10
-21.6520804399
 20
-4.4964662484
 30
0.0
 11
-21.6243017541
 21
-4.5269516993
 31
0.0
  0
LINE
  5
24D
100
AcDbEntity
  8
RACCORDO
100
AcDbLine
 62
250
  6
CONTINUOUS
 10
11.7272675092
 20
24.7743128424
 30
0.0
 11
11.0329454871
 21
24.3734172051
 31
0.0
  0
LINE
  5
24E
100
AcDbEntity
  8
DRAFT
100
AcDbLine
 62
7
  6
CONTINUOUS
 10
5.5141451333
 20
21.9148613598
 30
0.0
 11
-3.2674487959
 21
17.0156348951
 31
0.0
  0
LINE
  5
24F
100
AcDbEntity
  8
0
100
AcDbLine
 62
7
  6
CONTINUOUS
 10
15.0963888598
 20
-13.25322085
 30
0.0
 11
12.7879117963
 21
-13.6989287356
 31
0.0
  0
LWPOLYLINE
  5
250
100
AcDbEntity
  8
RACCORDO
100
AcDbPolyline
 62
7
  6
CONTINUOUS
 90
6
 70
0
 10
5.4304444333
 20
-20.0031133902
 10
5.4389676956
 20
-20.0073184338
 10
5.4510532525
 20
-20.0133826633
 10
5.463619887
 20
-20.019804562
 10
5.476665953
 20
-20.026588556
 10
5.4832429165
 20
-20.0300515693
  0
LWPOLYLINE
  5
251
100
AcDbEntity
  8
RACCORDO
100
AcDbPolyline
 62
7
  6
CONTINUOUS
 90
22
 70
0
 10
5.4832122095
 20
-20.0300202612
 10
5.5380065327
 20
-20.05796194
 10
5.6541319969
 20
-20.1109723877
 10
5.7757358631
 20
-20.1585696831
 10
5.9021406865
 20
-20.2006224727
 10
6.0327633981
 20
-20.2370442657
 10
6.167065802
 20
-20.2677493568
 10
6.3043777514
 20
-20.2926520647
 10
6.4440133266
 20
-20.3116597816
 10
6.5853308332
 20
-20.3247070111
 10
6.7276334066
 20
-20.3317615804
 10
6.8702268978
 20
-20.3327868194
 10
7.0124528587
 20
-20.327779398
 10
7.1536177344
 20
-20.3167600403
 10
7.2930253897
 20
-20.2997471471
 10
7.4300385134
 20
-20.276798897
 10
7.5639689258
 20
-20.2479906512
 10
7.6941556508
 20
-20.2133943751
 10
7.8200785119
 20
-20.1730803722
 10
7.9411568471
 20
-20.1271139057
 10
8.0567060021
 20
-20.0756196734
 10
8.1363619648
 20
-20.0350824004
  0
LWPOLYLINE
  5
252
100
AcDbEntity
  8
RACCORDO
100
AcDbPolyline
 62
7
  6
CONTINUOUS
 90
4
 70
0
 10
-22.0849391814
 20
-4.1125139319
 10
-22.0667849073
 20
-4.1240725225
 10
-22.0497586277
 20
-4.1351099501
 10
-22.0332532901
 20
-4.1459924
  0
LWPOLYLINE
  5
253
100
AcDbEntity
  8
RACCORDO
100
AcDbPolyline
 62
7
  6
CONTINUOUS
 90
10
 70
0
 10
-22.033202756
 20
-4.1460279978
 10
-22.0035348675
 20
-4.1665219085
 10
-21.9609691547
 20
-4.1984306718
 10
-21.9168291438
 20
-4.2343362765
 10
-21.8713414775
 20
-4.2740446033
 10
-21.8246962197
 20
-4.3173494274
 10
-21.7770307609
 20
-4.3640490516
 10
-21.7284202141
 20
-4.4139752328
 10
-21.6789066317
 20
-4.4669551376
 10
-21.6520717171
 20
-4.4964759424
  0
LINE
  5
254
100
AcDbEntity
  8
DRAFT
100
AcDbLine
 62
7
  6
CONTINUOUS
 10
-12.5984473296
 20
22.4032365036
 30
0.0
 11
-12.5984473296
 21
22.2963524921
 31
0.0
  0
LINE
  5
255
100
AcDbEntity
  8
RACCORDO
100
AcDbLine
 62
7
  6
CONTINUOUS
 10
5.3770184898
 20
-17.8275251373
 30
0.0
 11
4.7380114043
 21
-17.4585704547
 31
0.0
  0
LINE
  5
256
100
AcDbEntity
  8
RACCORDO
100
AcDbLine
 62
7
  6
CONTINUOUS
 10
-21.4249394996
 20
-2.3524105016
 30
0.0
 11
-22.0639465852
 21
-1.9834558191
 31
0.0
  0
LINE
  5
257
100
AcDbEntity
  8
DRAFT
100
AcDbLine
 62
7
  6
CONTINUOUS
 10
11.0329454871
 20
18.7283752023
 30
0.0
 11
2.8439766678
 21
13.4869744265
 31
0.0
  0
LINE
  5
258
100
AcDbEntity
  8
RACCORDO
100
AcDbLine
 62
7
  6
CONTINUOUS
 10
-21.8642793279
 20
-0.1981195304
 30
0.0
 11
-22.0884126235
 21
-0.3367269225
 31
0.0
  0
LINE
  5
259
100
AcDbEntity
  8
RACCORDO
100
AcDbLine
 62
7
  6
CONTINUOUS
 10
2.8439766678
 20
13.4869744265
 30
0.0
 11
11.0508101386
 21
18.3970264127
 31
0.0
  0
LINE
  5
25A
100
AcDbEntity
  8
DRAFT
100
AcDbLine
 62
7
  6
CONTINUOUS
 10
13.572173179
 20
13.1082533153
 30
0.0
 11
8.4495767203
 21
10.2503712109
 31
0.0
  0
LINE
  5
25B
100
AcDbEntity
  8
RACCORDO
100
AcDbLine
 62
7
  6
CONTINUOUS
 10
18.573645292
 20
16.0562530225
 30
0.0
 11
14.7487728702
 21
14.0522633071
 31
0.0
  0
LINE
  5
25C
100
AcDbEntity
  8
RACCORDO
100
AcDbLine
 62
250
  6
CONTINUOUS
 10
18.6689324649
 20
16.0437902115
 30
0.0
 11
14.8054203555
 21
14.0195557591
 31
0.0
  0
LINE
  5
25D
100
AcDbEntity
  8
RACCORDO
100
AcDbLine
 62
7
  6
CONTINUOUS
 10
13.6161890133
 20
13.8590298758
 30
0.0
 11
14.3479885074
 21
14.2387956645
 31
0.0
  0
LINE
  5
25E
100
AcDbEntity
  8
RACCORDO
100
AcDbLine
 62
250
  6
CONTINUOUS
 10
13.7135945484
 20
13.8476646513
 30
0.0
 11
14.4453940425
 21
14.22743044
 31
0.0
  0
LINE
  5
25F
100
AcDbEntity
  8
RACCORDO
100
AcDbLine
 62
7
  6
CONTINUOUS
 10
-22.0639465852
 20
6.3950200743
 30
0.0
 11
-21.4249394996
 21
6.0260653917
 31
0.0
  0
LINE
  5
260
100
AcDbEntity
  8
RACCORDO
100
AcDbLine
 62
7
  6
CONTINUOUS
 10
4.7380114043
 20
-9.0800945614
 30
0.0
 11
5.3770184898
 21
-9.449049244
 31
0.0
  0
LINE
  5
261
100
AcDbEntity
  8
RACCORDO
100
AcDbLine
 62
250
  6
CONTINUOUS
 10
16.9509389828
 20
12.7807601933
 30
0.0
 11
16.2685249146
 21
12.3724798787
 31
0.0
  0
LINE
  5
262
100
AcDbEntity
  8
RACCORDO
100
AcDbLine
 62
250
  6
CONTINUOUS
 10
20.227668727
 20
15.1437954293
 30
0.0
 11
16.5909126698
 21
12.9886348742
 31
0.0
  0
LINE
  5
263
100
AcDbEntity
  8
RACCORDO
100
AcDbLine
 62
250
  6
CONTINUOUS
 10
20.350124506
 20
14.8281871559
 30
0.0
 11
16.922689283
 21
12.7970712159
 31
0.0
  0
LINE
  5
264
100
AcDbEntity
  8
RACCORDO
100
AcDbLine
 62
250
  6
CONTINUOUS
 10
19.2088363536
 20
13.9315880976
 30
0.0
 11
17.0599800834
 21
12.6581646951
 31
0.0
  0
LINE
  5
265
100
AcDbEntity
  8
RACCORDO
100
AcDbLine
 62
250
  6
CONTINUOUS
 10
15.6425161922
 20
-13.3624360134
 30
0.0
 11
15.257099738
 21
-13.1399013832
 31
0.0
  0
LINE
  5
266
100
AcDbEntity
  8
RACCORDO
100
AcDbLine
 62
250
  6
CONTINUOUS
 10
15.983835632
 20
-12.7501873988
 30
0.0
 11
15.6554393723
 21
-12.5605755143
 31
0.0
  0
LINE
  5
267
100
AcDbEntity
  8
DRAFT
100
AcDbLine
 62
7
  6
CONTINUOUS
 10
16.4099462839
 20
11.4697586902
 30
0.0
 11
11.633047806
 21
8.4122749043
 31
0.0
  0
LINE
  5
268
100
AcDbEntity
  8
RACCORDO
100
AcDbLine
 62
250
  6
CONTINUOUS
 10
17.0923603522
 20
12.5358858117
 30
0.0
 11
16.4099462839
 21
12.1276054971
 31
0.0
  0
LINE
  5
269
100
AcDbEntity
  8
DRAFT
100
AcDbLine
 62
7
  6
CONTINUOUS
 10
17.0923603522
 20
11.678517421
 30
0.0
 11
11.633047806
 21
8.4122749043
 31
0.0
  0
LINE
  5
26A
100
AcDbEntity
  8
RACCORDO
100
AcDbLine
 62
250
  6
CONTINUOUS
 10
19.3312281651
 20
13.6159419167
 30
0.0
 11
17.0923603522
 21
12.2891772059
 31
0.0
  0
LINE
  5
26B
100
AcDbEntity
  8
RACCORDO
100
AcDbLine
 62
7
  6
CONTINUOUS
 10
11.9084705638
 20
8.0167605697
 30
0.0
 11
9.334205482
 21
6.5304070711
 31
0.0
  0
LINE
  5
26C
100
AcDbEntity
  8
DRAFT
100
AcDbLine
 62
7
  6
CONTINUOUS
 10
12.1749752015
 20
8.0993728181
 30
0.0
 11
9.3959184559
 21
6.4947747734
 31
0.0
  0
LINE
  5
26D
100
AcDbEntity
  8
RACCORDO
100
AcDbLine
 62
250
  6
CONTINUOUS
 10
5.3523540556
 20
3.8229246022
 30
0.0
 11
20.8222979801
 21
12.7550917985
 31
0.0
  0
LINE
  5
26E
100
AcDbEntity
  8
RACCORDO
100
AcDbLine
 62
250
  6
CONTINUOUS
 10
-18.0657234329
 20
-10.920167235
 30
0.0
 11
-17.5013460174
 21
-10.5943115367
 31
0.0
  0
LINE
  5
26F
100
AcDbEntity
  8
0
100
AcDbLine
 62
250
  6
CONTINUOUS
 10
-15.9441655164
 20
-10.5115403745
 30
0.0
 11
-15.3811860811
 21
-10.186479698
 31
0.0
  0
LINE
  5
270
100
AcDbEntity
  8
RACCORDO
100
AcDbLine
 62
250
  6
CONTINUOUS
 10
6.7664419948
 20
1.3736545806
 30
0.0
 11
22.2363873779
 21
10.3059224541
 31
0.0
  0
LINE
  5
271
100
AcDbEntity
  8
RACCORDO
100
AcDbLine
 62
7
  6
CONTINUOUS
 10
12.0212327896
 20
-4.8186921415
 30
0.0
 11
11.243372252
 21
-4.369565216
 31
0.0
  0
LINE
  5
272
100
AcDbEntity
  8
SMUSSO
100
AcDbLine
 62
7
  6
CONTINUOUS
 10
11.7737238771
 20
-25.7649673601
 30
0.0
 11
11.9858882152
 21
-26.377425156
 31
0.0
  0
LINE
  5
273
100
AcDbEntity
  8
RACCORDO
100
AcDbLine
 62
250
  6
CONTINUOUS
 10
4.6637942673
 20
1.384350888
 30
0.0
 11
4.6638399524
 21
-6.6411916465
 31
0.0
  0
LINE
  5
274
100
AcDbEntity
  8
RACCORDO
100
AcDbLine
 62
250
  6
CONTINUOUS
 10
4.6638618288
 20
-19.8118210085
 30
0.0
 11
4.6637942673
 21
-27.8373118147
 31
0.0
  0
LINE
  5
275
100
AcDbEntity
  8
RACCORDO
100
AcDbLine
 62
250
  6
CONTINUOUS
 10
4.7380114043
 20
-9.0800945614
 30
0.0
 11
4.7380114043
 21
-17.4585704547
 31
0.0
  0
LINE
  5
276
100
AcDbEntity
  8
RACCORDO
100
AcDbLine
 62
250
  6
CONTINUOUS
 10
15.6554393723
 20
-5.3549828114
 30
0.0
 11
15.983835632
 21
-5.5445946959
 31
0.0
  0
LINE
  5
277
100
AcDbEntity
  8
RACCORDO
100
AcDbLine
 62
250
  6
CONTINUOUS
 10
-20.99722282
 20
16.6088735083
 30
0.0
 11
4.3102947246
 21
1.9966300557
 31
0.0
  0
LINE
  5
278
100
AcDbEntity
  8
RACCORDO
100
AcDbLine
 62
250
  6
CONTINUOUS
 10
5.3770375002
 20
-19.9051749077
 30
0.0
 11
5.3770184898
 21
-17.8275251373
 31
0.0
  0
LINE
  5
279
100
AcDbEntity
  8
RACCORDO
100
AcDbLine
 62
250
  6
CONTINUOUS
 10
5.3770184898
 20
-9.449049244
 30
0.0
 11
5.3770360556
 21
-7.3714202269
 31
0.0
  0
LINE
  5
27A
100
AcDbEntity
  8
RACCORDO
100
AcDbLine
 62
7
  6
CONTINUOUS
 10
5.5141451333
 20
27.5599033626
 30
0.0
 11
5.5141451333
 21
21.9148613598
 31
0.0
  0
LINE
  5
27B
100
AcDbEntity
  8
RACCORDO
100
AcDbLine
 62
250
  6
CONTINUOUS
 10
6.7664419948
 20
1.3736545806
 30
0.0
 11
6.7665424051
 21
-6.6278682123
 31
0.0
  0
LINE
  5
27C
100
AcDbEntity
  8
RACCORDO
100
AcDbLine
 62
250
  6
CONTINUOUS
 10
6.7665505607
 20
-20.3320413925
 30
0.0
 11
6.7664419948
 21
-27.8478029504
 31
0.0
  0
LINE
  5
27D
100
AcDbEntity
  8
RACCORDO
100
AcDbLine
 62
250
  6
CONTINUOUS
 10
6.8593317478
 20
-9.7953838666
 30
0.0
 11
6.8593317478
 21
-17.4371931422
 31
0.0
  0
LWPOLYLINE
  5
27E
100
AcDbEntity
  8
RACCORDO
100
AcDbPolyline
 62
7
  6
CONTINUOUS
 90
14
 70
0
 10
16.7259596437
 20
-2.1081332012
 10
16.6511879746
 20
-2.0684085774
 10
16.5400139822
 20
-2.0212679174
 10
16.4236823517
 20
-1.985262216
 10
16.3030171255
 20
-1.9605474246
 10
16.1788565334
 20
-1.9470930808
 10
16.0515299328
 20
-1.9447625604
 10
15.9210154203
 20
-1.9534830955
 10
15.7878867226
 20
-1.9732006272
 10
15.6524706195
 20
-2.0038700233
 10
15.5142721663
 20
-2.0457247328
 10
15.3734022355
 20
-2.099015437
 10
15.230617298
 20
-2.1637456867
 10
15.1408015527
 20
-2.2099362313
  0
LINE
  5
27F
100
AcDbEntity
  8
RACCORDO
100
AcDbLine
 62
250
  6
CONTINUOUS
 10
15.2380121886
 20
-2.2213771297
 30
0.0
 11
15.8788117358
 21
-2.5913667572
 31
0.0
  0
LINE
  5
280
100
AcDbEntity
  8
RACCORDO
100
AcDbLine
 62
250
  6
CONTINUOUS
 10
-19.9549857993
 20
18.435065459
 30
0.0
 11
5.3523540556
 21
3.8229246022
 31
0.0
  0
LINE
  5
281
100
AcDbEntity
  8
RACCORDO
100
AcDbLine
 62
7
  6
CONTINUOUS
 10
16.7248976911
 20
-2.1075187886
 30
0.0
 11
17.3180269218
 21
-2.4499841728
 31
0.0
  0
LINE
  5
282
100
AcDbEntity
  8
RACCORDO
100
AcDbLine
 62
250
  6
CONTINUOUS
 10
8.1805487931
 20
-19.9420256773
 30
0.0
 11
8.1805487931
 21
-17.8136458852
 31
0.0
  0
LINE
  5
283
100
AcDbEntity
  8
RACCORDO
100
AcDbLine
 62
250
  6
CONTINUOUS
 10
8.1805487931
 20
-9.4911812638
 30
0.0
 11
8.1805487931
 21
-7.3628014718
 31
0.0
  0
LINE
  5
284
100
AcDbEntity
  8
RACCORDO
100
AcDbLine
 62
250
  6
CONTINUOUS
 10
19.8437200513
 20
14.1078024613
 30
0.0
 11
20.350124506
 21
14.8281871559
 31
0.0
  0
LINE
  5
285
100
AcDbEntity
  8
RACCORDO
100
AcDbLine
 62
7
  6
CONTINUOUS
 10
19.882414493
 20
14.143698949
 30
0.0
 11
20.3888188148
 21
14.8640834555
 31
0.0
  0
LINE
  5
286
100
AcDbEntity
  8
RACCORDO
100
AcDbLine
 62
250
  6
CONTINUOUS
 10
11.1019724349
 20
-4.1246535489
 30
0.0
 11
6.7665424051
 21
-6.6278682123
 31
0.0
  0
LINE
  5
287
100
AcDbEntity
  8
RACCORDO
100
AcDbLine
 62
250
  6
CONTINUOUS
 10
11.243372252
 20
-4.369565216
 30
0.0
 11
6.9078418119
 21
-6.8728378549
 31
0.0
  0
LINE
  5
288
100
AcDbEntity
  8
RACCORDO
100
AcDbLine
 62
7
  6
CONTINUOUS
 10
15.1408188488
 20
-2.2099261735
 30
0.0
 11
11.1951025503
 21
-4.3318047105
 31
0.0
  0
LINE
  5
289
100
AcDbEntity
  8
RACCORDO
100
AcDbLine
 62
250
  6
CONTINUOUS
 10
15.2380121886
 20
-2.2213771297
 30
0.0
 11
11.243372252
 21
-4.369565216
 31
0.0
  0
LWPOLYLINE
  5
28A
100
AcDbEntity
  8
RACCORDO
100
AcDbPolyline
 62
7
  6
CONTINUOUS
 90
22
 70
0
 10
11.8615846816
 20
24.9710195784
 10
11.8607265981
 20
25.0286966629
 10
11.8526439708
 20
25.1598071403
 10
11.8363478081
 20
25.2918363399
 10
11.8122040887
 20
25.4242161184
 10
11.7805631951
 20
25.5565541248
 10
11.7417091959
 20
25.6884639586
 10
11.6959615894
 20
25.8194342814
 10
11.6436180763
 20
25.9489714595
 10
11.5849536114
 20
26.0765785645
 10
11.5202884784
 20
26.2017318948
 10
11.4499080676
 20
26.3239236648
 10
11.3740979219
 20
26.4426607632
 10
11.2931584013
 20
26.5574404475
 10
11.2073822012
 20
26.6677276362
 10
11.1170577089
 20
26.773043314
 10
11.0224675845
 20
26.8728800969
 10
10.9238921138
 20
26.9667103287
 10
10.8215081235
 20
27.0541095552
 10
10.7154740132
 20
27.1345804214
 10
10.6061031865
 20
27.2075148393
 10
10.5514379075
 20
27.2402863058
  0
LINE
  5
28B
100
AcDbEntity
  8
RACCORDO
100
AcDbLine
 62
7
  6
CONTINUOUS
 10
11.0329454871
 20
18.7283752023
 30
0.0
 11
11.0329454871
 21
24.3734172051
 31
0.0
  0
LINE
  5
28C
100
AcDbEntity
  8
DRAFT
100
AcDbLine
 62
7
  6
CONTINUOUS
 10
11.1019724349
 20
-7.9201341702
 30
0.0
 11
11.1019724349
 21
-14.9020363321
 31
0.0
  0
LINE
  5
28D
100
AcDbEntity
  8
RACCORDO
100
AcDbLine
 62
7
  6
CONTINUOUS
 10
11.1019724349
 20
-25.5163986351
 30
0.0
 11
11.1019724349
 21
-18.4402834296
 31
0.0
  0
LINE
  5
28E
100
AcDbEntity
  8
RACCORDO
100
AcDbLine
 62
7
  6
CONTINUOUS
 10
11.1019724349
 20
-14.9020363321
 30
0.0
 11
11.1019724349
 21
-14.8107898887
 31
0.0
  0
LINE
  5
28F
100
AcDbEntity
  8
RACCORDO
100
AcDbLine
 62
7
  6
CONTINUOUS
 10
11.1019724349
 20
-4.1246535489
 30
0.0
 11
11.1019724349
 21
3.8770287389
 31
0.0
  0
LINE
  5
290
100
AcDbEntity
  8
RACCORDO
100
AcDbLine
 62
250
  6
CONTINUOUS
 10
11.7272675092
 20
18.4912466134
 30
0.0
 11
11.7272675092
 21
24.7743128424
 31
0.0
  0
LINE
  5
291
100
AcDbEntity
  8
RACCORDO
100
AcDbLine
 62
7
  6
CONTINUOUS
 10
11.8615906584
 20
18.4150755997
 30
0.0
 11
11.8615906584
 21
24.9712015061
 31
0.0
  0
LINE
  5
292
100
AcDbEntity
  8
0
100
AcDbLine
 62
250
  6
CONTINUOUS
 10
11.9084705638
 20
7.945495852
 30
0.0
 11
11.9084705638
 21
8.0167605697
 31
0.0
  0
LINE
  5
293
100
AcDbEntity
  8
RACCORDO
100
AcDbLine
 62
7
  6
CONTINUOUS
 10
11.9926686237
 20
8.1341380894
 30
0.0
 11
11.9926686237
 21
7.9941109234
 31
0.0
  0
LINE
  5
294
100
AcDbEntity
  8
RACCORDO
100
AcDbLine
 62
7
  6
CONTINUOUS
 10
12.1626326067
 20
-17.8005898676
 30
0.0
 11
12.1626326067
 21
-15.5144482221
 31
0.0
  0
LINE
  5
295
100
AcDbEntity
  8
RACCORDO
100
AcDbLine
 62
7
  6
CONTINUOUS
 10
12.1626326067
 20
-7.3497454541
 30
0.0
 11
12.1626326067
 21
-5.0636038086
 31
0.0
  0
LINE
  5
296
100
AcDbEntity
  8
RACCORDO
100
AcDbLine
 62
250
  6
CONTINUOUS
 10
15.8788117358
 20
-2.5913667572
 30
0.0
 11
8.039148976
 21
-7.1178898047
 31
0.0
  0
LINE
  5
297
100
AcDbEntity
  8
RACCORDO
100
AcDbLine
 62
250
  6
CONTINUOUS
 10
16.0202115529
 20
-2.8362784243
 30
0.0
 11
8.1805487931
 21
-7.3628014718
 31
0.0
  0
LINE
  5
298
100
AcDbEntity
  8
RACCORDO
100
AcDbLine
 62
7
  6
CONTINUOUS
 10
15.6425161922
 20
-5.3404973861
 30
0.0
 11
12.1626326067
 21
-7.3497454541
 31
0.0
  0
LINE
  5
299
100
AcDbEntity
  8
RACCORDO
100
AcDbLine
 62
7
  6
CONTINUOUS
 10
12.1626326067
 20
-7.3497454541
 30
0.0
 11
8.1805487931
 21
-9.4911812638
 31
0.0
  0
LINE
  5
29A
100
AcDbEntity
  8
RACCORDO
100
AcDbLine
 62
7
  6
CONTINUOUS
 10
-15.7683006417
 20
21.0242794986
 30
0.0
 11
-15.4145318596
 21
20.8200178375
 31
0.0
  0
LINE
  5
29B
100
AcDbEntity
  8
RACCORDO
100
AcDbLine
 62
7
  6
CONTINUOUS
 10
9.334205482
 20
6.5304070711
 30
0.0
 11
9.6879742641
 21
6.32614541
 31
0.0
  0
LINE
  5
29C
100
AcDbEntity
  8
DRAFT
100
AcDbLine
 62
7
  6
CONTINUOUS
 10
9.334205482
 20
6.5304070711
 30
0.0
 11
-15.4145318596
 21
20.8200178375
 31
0.0
  0
LINE
  5
29D
100
AcDbEntity
  8
RACCORDO
100
AcDbLine
 62
7
  6
CONTINUOUS
 10
12.6576073535
 20
-26.3570944057
 30
0.0
 11
12.6576073535
 21
-25.2140372646
 31
0.0
  0
LINE
  5
29E
100
AcDbEntity
  8
0
100
AcDbLine
 62
7
  6
CONTINUOUS
 10
12.7879117963
 20
-6.9887158471
 30
0.0
 11
12.7879117963
 21
-13.6989287356
 31
0.0
  0
LINE
  5
29F
100
AcDbEntity
  8
RACCORDO
100
AcDbLine
 62
7
  6
CONTINUOUS
 10
13.572173179
 20
13.7661001223
 30
0.0
 11
13.572173179
 21
13.1082533153
 31
0.0
  0
LINE
  5
2A0
100
AcDbEntity
  8
RACCORDO
100
AcDbLine
 62
7
  6
CONTINUOUS
 10
-12.3282727861
 20
22.2472411083
 30
0.0
 11
11.904800658
 21
8.2553682134
 31
0.0
  0
LINE
  5
2A1
100
AcDbEntity
  8
DRAFT
100
AcDbLine
 62
7
  6
CONTINUOUS
 10
12.1749752015
 20
8.0993728181
 30
0.0
 11
-12.5984473296
 21
22.4032365036
 31
0.0
  0
LINE
  5
2A2
100
AcDbEntity
  8
DRAFT
100
AcDbLine
 62
7
  6
CONTINUOUS
 10
15.0963888598
 20
-13.25322085
 30
0.0
 11
15.0963888598
 21
-5.6558039488
 31
0.0
  0
LINE
  5
2A3
100
AcDbEntity
  8
RACCORDO
100
AcDbLine
 62
250
  6
CONTINUOUS
 10
15.57838282
 20
-5.3775037022
 30
0.0
 11
15.57838282
 21
-12.9133602308
 31
0.0
  0
LINE
  5
2A4
100
AcDbEntity
  8
RACCORDO
100
AcDbLine
 62
7
  6
CONTINUOUS
 10
15.6554393723
 20
-5.3330053134
 30
0.0
 11
15.6554393723
 21
-12.726050044
 31
0.0
  0
LINE
  5
2A5
100
AcDbEntity
  8
RACCORDO
100
AcDbLine
 62
7
  6
CONTINUOUS
 10
15.983835632
 20
-12.7501873988
 30
0.0
 11
15.983835632
 21
-5.5445946959
 31
0.0
  0
LINE
  5
2A6
100
AcDbEntity
  8
RACCORDO
100
AcDbLine
 62
7
  6
CONTINUOUS
 10
16.4099462839
 20
11.4697586902
 30
0.0
 11
16.4099462839
 21
12.1276054971
 31
0.0
  0
LINE
  5
2A7
100
AcDbEntity
  8
RACCORDO
100
AcDbLine
 62
250
  6
CONTINUOUS
 10
16.5164415647
 20
-23.9707334458
 30
0.0
 11
16.5164415647
 21
-22.8276763047
 31
0.0
  0
LINE
  5
2A8
100
AcDbEntity
  8
RACCORDO
100
AcDbLine
 62
7
  6
CONTINUOUS
 10
17.0923603522
 20
12.5358858117
 30
0.0
 11
17.0923603522
 21
11.678517421
 31
0.0
  0
LINE
  5
2A9
100
AcDbEntity
  8
RACCORDO
100
AcDbLine
 62
7
  6
CONTINUOUS
 10
17.3874773394
 20
-22.7003620211
 30
0.0
 11
17.3874773203
 21
-22.7001606108
 31
0.0
  0
LINE
  5
2AA
100
AcDbEntity
  8
ASSI
100
AcDbLine
 62
7
  6
CONTINUOUS
 10
17.3874773394
 20
-22.2890147158
 30
0.0
 11
17.3874773394
 21
-22.7003611149
 31
0.0
  0
LINE
  5
2AB
100
AcDbEntity
  8
RACCORDO
100
AcDbLine
 62
7
  6
CONTINUOUS
 10
19.7865408171
 20
13.8906787342
 30
0.0
 11
19.7937084152
 21
13.9213485285
 31
0.0
  0
LWPOLYLINE
  5
2AC
100
AcDbEntity
  8
RACCORDO
100
AcDbPolyline
 62
7
  6
CONTINUOUS
 90
7
 70
0
 10
19.7937084152
 20
13.9213485285
 10
19.806714125
 20
13.9697523335
 10
19.8207520915
 20
14.0142371125
 10
19.8357107638
 20
14.0544126202
 10
19.8512189635
 20
14.0895251362
 10
19.8668772722
 20
14.1192487336
 10
19.8821200707
 20
14.1432824639
  0
LWPOLYLINE
  5
2AD
100
AcDbEntity
  8
RACCORDO
100
AcDbPolyline
 62
7
  6
CONTINUOUS
 90
15
 70
0
 10
17.9877317977
 20
-3.8990343962
 10
17.9862493513
 20
-3.8073419748
 10
17.9768317919
 20
-3.6545098167
 10
17.958926072
 20
-3.5085050088
 10
17.9328337011
 20
-3.3699293767
 10
17.898782135
 20
-3.2387767359
 10
17.8567432414
 20
-3.1145653523
 10
17.8068033082
 20
-2.9975795985
 10
17.7491392713
 20
-2.8882947905
 10
17.6836598166
 20
-2.7867236081
 10
17.6103598655
 20
-2.6931761309
 10
17.5295452145
 20
-2.6083753389
 10
17.441697048
 20
-2.532988897
 10
17.3471433641
 20
-2.4673996584
 10
17.3179046907
 20
-2.4499137286
  0
LINE
  5
2AE
100
AcDbEntity
  8
RACCORDO
100
AcDbLine
 62
250
  6
CONTINUOUS
 10
17.9316004153
 20
-11.9864129404
 30
0.0
 11
17.9316004153
 21
-3.9792233591
 31
0.0
  0
LINE
  5
2AF
100
AcDbEntity
  8
RACCORDO
100
AcDbLine
 62
7
  6
CONTINUOUS
 10
17.9877324552
 20
-11.906195533
 30
0.0
 11
17.9877324552
 21
-3.8990059516
 31
0.0
  0
LWPOLYLINE
  5
2B0
100
AcDbEntity
  8
RACCORDO
100
AcDbPolyline
 62
7
  6
CONTINUOUS
 90
7
 70
0
 10
19.7859970205
 20
13.8895744118
 10
19.7863431744
 20
13.8922021527
 10
19.7864032178
 20
13.8921093174
 10
19.7871608973
 20
13.8842319256
 10
19.7905566045
 20
13.8705726574
 10
19.7974624486
 20
13.854368287
 10
19.8091805303
 20
13.8362455445
  0
LINE
  5
2B1
100
AcDbEntity
  8
RACCORDO
100
AcDbLine
 62
7
  6
CONTINUOUS
 10
15.57838282
 20
-12.9133602308
 30
0.0
 11
15.0963888598
 21
-13.25322085
 31
0.0
  0
LINE
  5
2B2
100
AcDbEntity
  8
0
100
AcDbLine
 62
7
  6
CONTINUOUS
 10
11.1019724349
 20
-14.8107898887
 30
0.0
 11
12.7879117963
 21
-13.6989287356
 31
0.0
  0
LINE
  5
2B3
100
AcDbEntity
  8
RACCORDO
100
AcDbLine
 62
7
  6
CONTINUOUS
 10
15.6425161922
 20
-13.3624360134
 30
0.0
 11
12.1626326067
 21
-15.5144482221
 31
0.0
  0
LINE
  5
2B4
100
AcDbEntity
  8
0
100
AcDbLine
 62
7
  6
CONTINUOUS
 10
11.1019724349
 20
-14.7392406424
 30
0.0
 11
12.7879117963
 21
-13.6989287356
 31
0.0
  0
LINE
  5
2B5
100
AcDbEntity
  8
RACCORDO
100
AcDbLine
 62
7
  6
CONTINUOUS
 10
6.8593317478
 20
-17.4371931422
 30
0.0
 11
11.1019724349
 21
-14.9020363321
 31
0.0
  0
LINE
  5
2B6
100
AcDbEntity
  8
RACCORDO
100
AcDbLine
 62
7
  6
CONTINUOUS
 10
13.3855280278
 20
-13.5835443243
 30
0.0
 11
11.1019724349
 21
-14.9020363321
 31
0.0
  0
LINE
  5
2B7
100
AcDbEntity
  8
RACCORDO
100
AcDbLine
 62
7
  6
CONTINUOUS
 10
12.1626326067
 20
-15.5144482221
 30
0.0
 11
8.1805487931
 21
-17.8136458852
 31
0.0
  0
LINE
  5
2B8
100
AcDbEntity
  8
DRAFT
100
AcDbLine
 62
7
  6
CONTINUOUS
 10
13.572173179
 20
13.1082533153
 30
0.0
 11
16.4099462839
 21
11.4697586902
 31
0.0
  0
LINE
  5
2B9
100
AcDbEntity
  8
RACCORDO
100
AcDbLine
 62
7
  6
CONTINUOUS
 10
16.2685249146
 20
12.3724798787
 30
0.0
 11
13.7135945484
 21
13.8476646513
 31
0.0
  0
LINE
  5
2BA
100
AcDbEntity
  8
RACCORDO
100
AcDbLine
 62
7
  6
CONTINUOUS
 10
16.9509389828
 20
12.7807601933
 30
0.0
 11
16.5909126698
 21
12.9886348742
 31
0.0
  0
LINE
  5
2BB
100
AcDbEntity
  8
RACCORDO
100
AcDbLine
 62
7
  6
CONTINUOUS
 10
14.8054203555
 20
14.0195557591
 30
0.0
 11
14.4453940425
 21
14.22743044
 31
0.0
  0
LINE
  5
2BC
100
AcDbEntity
  8
RACCORDO
100
AcDbLine
 62
250
  6
CONTINUOUS
 10
22.2363873779
 20
-18.6306040782
 30
0.0
 11
22.2363873779
 21
10.3059224541
 31
0.0
  0
LWPOLYLINE
  5
2BD
100
AcDbEntity
  8
RACCORDO
100
AcDbPolyline
 62
7
  6
CONTINUOUS
 90
25
 70
0
 10
15.981501456
 20
-15.5049096722
 10
16.0640402159
 20
-15.4519475793
 10
16.2024552533
 20
-15.3544287309
 10
16.338966358
 20
-15.2473349049
 10
16.4730624871
 20
-15.1311816611
 10
16.6042746611
 20
-15.0064851074
 10
16.7321549273
 20
-14.8737467804
 10
16.8562178966
 20
-14.7335482291
 10
16.9759800771
 20
-14.5864836754
 10
17.0910010426
 20
-14.4331555803
 10
17.20081742
 20
-14.2742056047
 10
17.3049948711
 20
-14.1102980485
 10
17.4031311612
 20
-13.9420915501
 10
17.4948112486
 20
-13.7702788978
 10
17.5796645009
 20
-13.5955783202
 10
17.6573402696
 20
-13.4186777414
 10
17.7275046968
 20
-13.2402957242
 10
17.7898538417
 20
-13.0611634656
 10
17.8441081703
 20
-12.8819723657
 10
17.8900160461
 20
-12.7034469338
 10
17.9273388128
 20
-12.5263045124
 10
17.9558862247
 20
-12.3511881439
 10
17.9754666008
 20
-12.1787655522
 10
17.9859098742
 20
-12.0097432963
 10
17.9877317793
 20
-11.9061571131
  0
LINE
  5
2BE
100
AcDbEntity
  8
RACCORDO
100
AcDbLine
 62
250
  6
CONTINUOUS
 10
12.1626326067
 20
-17.8005898676
 30
0.0
 11
16.0202115529
 21
-15.4150051824
 31
0.0
  0
LINE
  5
2BF
100
AcDbEntity
  8
RACCORDO
100
AcDbLine
 62
7
  6
CONTINUOUS
 10
12.1229543161
 20
-17.8910941775
 30
0.0
 11
15.9815367085
 21
-15.5048889461
 31
0.0
  0
LINE
  5
2C0
100
AcDbEntity
  8
RACCORDO
100
AcDbLine
 62
250
  6
CONTINUOUS
 10
12.1626326067
 20
-17.8005898676
 30
0.0
 11
8.1805487931
 21
-19.9420256773
 31
0.0
  0
LINE
  5
2C1
100
AcDbEntity
  8
RACCORDO
100
AcDbLine
 62
7
  6
CONTINUOUS
 10
12.1194652346
 20
-17.8931087293
 30
0.0
 11
8.1363423153
 21
-20.0351033364
 31
0.0
  0
LWPOLYLINE
  5
2C2
100
AcDbEntity
  8
RACCORDO
100
AcDbPolyline
 62
7
  6
CONTINUOUS
 90
16
 70
0
 10
-3.5069873037
 20
27.2886928774
 10
-3.605616963
 20
27.3419092591
 10
-3.7242412451
 20
27.3965789077
 10
-3.844531827
 20
27.4422481996
 10
-3.9657047709
 20
27.478859876
 10
-4.0874034688
 20
27.5065611516
 10
-4.20954433
 20
27.5254999289
 10
-4.3313506875
 20
27.5357053852
 10
-4.4522615063
 20
27.5373247153
 10
-4.5723695884
 20
27.5304818075
 10
-4.6909731576
 20
27.5152840985
 10
-4.8074492015
 20
27.4919086367
 10
-4.9219330966
 20
27.4603820625
 10
-5.0340150168
 20
27.4207819302
 10
-5.1428063477
 20
27.3734075897
 10
-5.2131414599
 20
27.3376860199
  0
LINE
  5
2C3
100
AcDbEntity
  8
RACCORDO
100
AcDbLine
 62
250
  6
CONTINUOUS
 10
19.3312281651
 20
13.6159419167
 30
0.0
 11
20.8222979801
 21
12.7550917985
 31
0.0
  0
LINE
  5
2C4
100
AcDbEntity
  8
RACCORDO
100
AcDbLine
 62
250
  6
CONTINUOUS
 10
-4.2382764419
 20
27.224753387
 30
0.0
 11
5.2313667434
 21
21.7571000943
 31
0.0
  0
LINE
  5
2C5
100
AcDbEntity
  8
RACCORDO
100
AcDbLine
 62
250
  6
CONTINUOUS
 10
11.0508101386
 20
18.3970264127
 30
0.0
 11
16.7550908362
 21
15.1034462293
 31
0.0
  0
LINE
  5
2C6
100
AcDbEntity
  8
DRAFT
100
AcDbLine
 62
7
  6
CONTINUOUS
 10
5.5141451333
 20
21.9148613598
 30
0.0
 11
11.0329454871
 21
18.7283752023
 31
0.0
  0
LINE
  5
2C7
100
AcDbEntity
  8
RACCORDO
100
AcDbLine
 62
7
  6
CONTINUOUS
 10
-3.5069843011
 20
27.2886980842
 30
0.0
 11
5.5141451333
 21
22.0800110937
 31
0.0
  0
LINE
  5
2C8
100
AcDbEntity
  8
RACCORDO
100
AcDbLine
 62
7
  6
CONTINUOUS
 10
11.7554575214
 20
18.4763555428
 30
0.0
 11
17.1965447372
 21
15.3347399772
 31
0.0
  0
LINE
  5
2C9
100
AcDbEntity
  8
RACCORDO
100
AcDbLine
 62
7
  6
CONTINUOUS
 10
19.8429127473
 20
13.806760255
 30
0.0
 11
21.5539144035
 21
12.8188493425
 31
0.0
  0
LWPOLYLINE
  5
2CA
100
AcDbEntity
  8
RACCORDO
100
AcDbPolyline
 62
7
  6
CONTINUOUS
 90
19
 70
0
 10
22.6573716345
 20
10.9077454854
 10
22.6566921053
 20
10.959276297
 10
22.6487020695
 20
11.0934758211
 10
22.6318526533
 20
11.2274480087
 10
22.6060624166
 20
11.3619331177
 10
22.57139015
 20
11.4961769542
 10
22.5284546752
 20
11.6280414823
 10
22.4771518861
 20
11.7581583045
 10
22.4173764213
 20
11.8864500325
 10
22.350480188
 20
12.0101146299
 10
22.2763627949
 20
12.1295545943
 10
22.1947260564
 20
12.2450661912
 10
22.1073289895
 20
12.3540964777
 10
22.0143088556
 20
12.4566902076
 10
21.915165051
 20
12.5532606517
 10
21.8114274896
 20
12.6422430211
 10
21.7037265208
 20
12.7232053052
 10
21.5915019206
 20
12.7965812066
 10
21.5540597045
 20
12.8187612229
  0
LINE
  5
2CB
100
AcDbEntity
  8
RACCORDO
100
AcDbLine
 62
7
  6
CONTINUOUS
 10
22.6573776404
 20
10.9077454845
 30
0.0
 11
22.6573776774
 21
-18.0290788922
 31
0.0
  0
LINE
  5
2CC
100
AcDbEntity
  8
RACCORDO
100
AcDbLine
 62
7
  6
CONTINUOUS
 10
22.6573776774
 20
-18.0290788922
 30
0.0
 11
22.6573775993
 21
-18.029358359
 31
0.0
  0
LINE
  5
2CD
100
AcDbEntity
  8
RACCORDO
100
AcDbLine
 62
250
  6
CONTINUOUS
 10
20.325205416
 20
15.1523034605
 30
0.0
 11
20.3249987849
 21
15.1524222746
 31
0.0
  0
LINE
  5
2CE
100
AcDbEntity
  8
RACCORDO
100
AcDbLine
 62
250
  6
CONTINUOUS
 10
18.6689324649
 20
16.0437902115
 30
0.0
 11
20.227668727
 21
15.1437954293
 31
0.0
  0
LINE
  5
2CF
100
AcDbEntity
  8
RACCORDO
100
AcDbLine
 62
7
  6
CONTINUOUS
 10
18.7664691539
 20
16.0522982427
 30
0.0
 11
20.325205416
 21
15.1523034605
 31
0.0
  0
LWPOLYLINE
  5
2D0
100
AcDbEntity
  8
RACCORDO
100
AcDbPolyline
 62
7
  6
CONTINUOUS
 90
3
 70
0
 10
19.8091805303
 20
13.8362455445
 10
19.825733003
 20
13.8189489274
 10
19.8428836183
 20
13.8067746588
  0
LWPOLYLINE
  5
2D1
100
AcDbEntity
  8
RACCORDO
100
AcDbPolyline
 62
7
  6
CONTINUOUS
 90
16
 70
0
 10
21.8467202711
 20
-19.5313498293
 10
21.9129379516
 20
-19.4882198197
 10
22.0084429817
 20
-19.4176155766
 10
22.0988629294
 20
-19.3402521606
 10
22.1834913984
 20
-19.2567437889
 10
22.2620479404
 20
-19.1674065364
 10
22.3345698001
 20
-19.0721228995
 10
22.4005940317
 20
-18.971343086
 10
22.4596689999
 20
-18.8656258194
 10
22.511718823
 20
-18.7548528453
 10
22.5563393819
 20
-18.6394446663
 10
22.5931285853
 20
-18.5200597611
 10
22.6219152793
 20
-18.3967056806
 10
22.6423964374
 20
-18.2696203617
 10
22.6542458376
 20
-18.1395272023
 10
22.6573739664
 20
-18.0293583571
  0
LWPOLYLINE
  5
2D2
100
AcDbEntity
  8
RACCORDO
100
AcDbPolyline
 62
7
  6
CONTINUOUS
 90
17
 70
0
 10
16.4197351328
 20
-24.1954509271
 10
16.4880737197
 20
-24.1518398325
 10
16.6082383359
 20
-24.0680332319
 10
16.7200376149
 20
-23.9804962213
 10
16.8232783446
 20
-23.8895678629
 10
16.9179779081
 20
-23.7954591733
 10
17.0042484938
 20
-23.6982425394
 10
17.0820162307
 20
-23.598117078
 10
17.1511638823
 20
-23.4953683763
 10
17.2116419328
 20
-23.3902106239
 10
17.2633449662
 20
-23.2829171132
 10
17.3061411185
 20
-23.1738588236
 10
17.3399428329
 20
-23.0634882677
 10
17.3647209937
 20
-22.9521956732
 10
17.3804532878
 20
-22.8404545354
 10
17.387177676
 20
-22.7289302469
 10
17.3874686482
 20
-22.7001841968
  0
LINE
  5
2D3
100
AcDbEntity
  8
RACCORDO
100
AcDbLine
 62
250
  6
CONTINUOUS
 10
11.1019724349
 20
-25.5163986351
 30
0.0
 11
22.2363873779
 21
-18.6306040782
 31
0.0
  0
LINE
  5
2D4
100
AcDbEntity
  8
RACCORDO
100
AcDbLine
 62
7
  6
CONTINUOUS
 10
10.7051895283
 20
-26.4214417346
 30
0.0
 11
21.8471303452
 21
-19.5310984008
 31
0.0
  0
LINE
  5
2D5
100
AcDbEntity
  8
RACCORDO
100
AcDbLine
 62
250
  6
CONTINUOUS
 10
12.6576073535
 20
-26.3570944057
 30
0.0
 11
16.5164415647
 21
-23.9707334458
 31
0.0
  0
LINE
  5
2D6
100
AcDbEntity
  8
RACCORDO
100
AcDbLine
 62
7
  6
CONTINUOUS
 10
12.5584116269
 20
-26.5833551805
 30
0.0
 11
16.4197544567
 21
-24.1954428532
 31
0.0
  0
LINE
  5
2D7
100
AcDbEntity
  8
RACCORDO
100
AcDbLine
 62
250
  6
CONTINUOUS
 10
6.7664419948
 20
-27.8478029504
 30
0.0
 11
11.1019724349
 21
-25.5163986351
 31
0.0
  0
LINE
  5
2D8
100
AcDbEntity
  8
RACCORDO
100
AcDbLine
 62
7
  6
CONTINUOUS
 10
6.326974968
 20
-28.7772862074
 30
0.0
 11
10.6702987134
 21
-26.4415872527
 31
0.0
  0
LWPOLYLINE
  5
2D9
100
AcDbEntity
  8
RACCORDO
100
AcDbPolyline
 62
7
  6
CONTINUOUS
 90
16
 70
0
 10
7.9097340949
 20
28.7655723578
 10
7.849610899
 20
28.7988331981
 10
7.7583083072
 20
28.8438862235
 10
7.6671872436
 20
28.8823627513
 10
7.5764245871
 20
28.9142633725
 10
7.486202966
 20
28.9396163447
 10
7.3967691508
 20
28.9584379796
 10
7.3082730496
 20
28.9707605637
 10
7.2209709452
 20
28.9766102487
 10
7.1353481352
 20
28.9760583582
 10
7.0516645298
 20
28.9692263602
 10
6.9702173894
 20
28.9562524598
 10
6.8916089927
 20
28.9373994213
 10
6.8162193503
 20
28.9130062173
 10
6.7441926854
 20
28.883376315
 10
6.7124598541
 20
28.8681856505
  0
LINE
  5
2DA
100
AcDbEntity
  8
RACCORDO
100
AcDbLine
 62
7
  6
CONTINUOUS
 10
6.9274971949
 20
28.375797406
 30
0.0
 11
9.6195934254
 21
26.8214147824
 31
0.0
  0
LINE
  5
2DB
100
AcDbEntity
  8
RACCORDO
100
AcDbLine
 62
250
  6
CONTINUOUS
 10
10.3139154475
 20
27.2223104197
 30
0.0
 11
7.6720664061
 21
28.7476809461
 31
0.0
  0
LINE
  5
2DC
100
AcDbEntity
  8
RACCORDO
100
AcDbLine
 62
7
  6
CONTINUOUS
 10
10.5515886922
 20
27.2402054054
 30
0.0
 11
7.9097396413
 21
28.7655759372
 31
0.0
  0
ARC
  5
2DD
100
AcDbEntity
  8
RACCORDO
100
AcDbCircle
 62
250
  6
CONTINUOUS
 10
-25.7212690364
 20
-8.1140582356
 30
0.0
 40
5.4849078039
100
AcDbArc
 50
41.5104487817
 51
41.6406912116
  0
ARC
  5
2DE
100
AcDbEntity
  8
RACCORDO
100
AcDbCircle
 62
250
  6
CONTINUOUS
 10
-25.1930664753
 20
-7.6422176409
 30
0.0
 40
4.7766505324
100
AcDbArc
 50
41.6208878899
 51
42.6749544125
  0
ARC
  5
2DF
100
AcDbEntity
  8
RACCORDO
100
AcDbCircle
 62
250
  6
CONTINUOUS
 10
-24.3230380746
 20
-7.5045794746
 30
0.0
 40
4.1183817591
100
AcDbArc
 50
56.7326252776
 51
57.7574936049
  0
ARC
  5
2E0
100
AcDbEntity
  8
0
100
AcDbCircle
 62
250
  6
CONTINUOUS
 10
-19.3847439953
 20
-10.7207282007
 30
0.0
 40
2.0318937035
100
AcDbArc
 50
356.4571320248
 51
0.0142104515
  0
ARC
  5
2E1
100
AcDbEntity
  8
0
100
AcDbCircle
 62
250
  6
CONTINUOUS
 10
-15.8492100894
 20
-12.7621011673
 30
0.0
 40
2.0318937035
100
AcDbArc
 50
356.4571320248
 51
0.0142104515
  0
ARC
  5
2E2
100
AcDbEntity
  8
0
100
AcDbCircle
 62
250
  6
CONTINUOUS
 10
-19.1836346414
 20
-10.7322909873
 30
0.0
 40
1.8304543899
100
AcDbArc
 50
352.6486239622
 51
356.4293699576
  0
ARC
  5
2E3
100
AcDbEntity
  8
0
100
AcDbCircle
 62
250
  6
CONTINUOUS
 10
-15.6481007355
 20
-12.7736639539
 30
0.0
 40
1.8304543899
100
AcDbArc
 50
352.6486239622
 51
356.4293699576
  0
ARC
  5
2E4
100
AcDbEntity
  8
0
100
AcDbCircle
 62
250
  6
CONTINUOUS
 10
-19.8186287061
 20
-9.4020105172
 30
0.0
 40
1.6873243809
100
AcDbArc
 50
65.4365106533
 51
69.4938178954
  0
ARC
  5
2E5
100
AcDbEntity
  8
0
100
AcDbCircle
 62
250
  6
CONTINUOUS
 10
-16.2830948002
 20
-11.4433834839
 30
0.0
 40
1.6873243809
100
AcDbArc
 50
65.4365106533
 51
69.4938178954
  0
ARC
  5
2E6
100
AcDbEntity
  8
RACCORDO
100
AcDbCircle
 62
250
  6
CONTINUOUS
 10
-22.0043766682
 20
-3.2495534757
 30
0.0
 40
0.6453559052
100
AcDbArc
 50
180.0031752899
 51
180.9616254122
  0
ARC
  5
2E7
100
AcDbEntity
  8
RACCORDO
100
AcDbCircle
 62
250
  6
CONTINUOUS
 10
-21.203043461
 20
-4.1539442567
 30
0.0
 40
0.5923719721
100
AcDbArc
 50
204.6368854519
 51
205.2566572193
  0
ARC
  5
2E8
100
AcDbEntity
  8
RACCORDO
100
AcDbCircle
 62
250
  6
CONTINUOUS
 10
-21.1051735852
 20
8.8338449841
 30
0.0
 40
1.6010817379
100
AcDbArc
 50
121.7217124363
 51
124.6349537365
  0
ARC
  5
2E9
100
AcDbEntity
  8
RACCORDO
100
AcDbCircle
 62
250
  6
CONTINUOUS
 10
-21.1451459829
 20
8.8926074363
 30
0.0
 40
1.5300145319
100
AcDbArc
 50
124.6539964226
 51
125.0253563896
  0
ARC
  5
2EA
100
AcDbEntity
  8
RACCORDO
100
AcDbCircle
 62
250
  6
CONTINUOUS
 10
-21.749630756
 20
9.1019243965
 30
0.0
 40
0.7033968539
100
AcDbArc
 50
237.6637563871
 51
243.460927193
  0
ARC
  5
2EB
100
AcDbEntity
  8
RACCORDO
100
AcDbCircle
 62
250
  6
CONTINUOUS
 10
-21.5505608107
 20
9.1071139078
 30
0.0
 40
0.5607646379
100
AcDbArc
 50
219.9058894352
 51
224.6748168826
  0
ARC
  5
2EC
100
AcDbEntity
  8
RACCORDO
100
AcDbCircle
 62
250
  6
CONTINUOUS
 10
3.963615385
 20
-22.7329103028
 30
0.0
 40
3.1613037571
100
AcDbArc
 50
62.1226548916
 51
63.4421604133
  0
ARC
  5
2ED
100
AcDbEntity
  8
RACCORDO
100
AcDbCircle
 62
250
  6
CONTINUOUS
 10
6.5792024586
 20
-4.3984374954
 30
0.0
 40
2.9493195785
100
AcDbArc
 50
229.5005531835
 51
237.2476848252
  0
ARC
  5
2EE
100
AcDbEntity
  8
RACCORDO
100
AcDbCircle
 62
250
  6
CONTINUOUS
 10
5.752558282
 20
-17.4572821114
 30
0.0
 40
2.6154074735
100
AcDbArc
 50
264.6427164703
 51
265.6123380589
  0
ARC
  5
2EF
100
AcDbEntity
  8
RACCORDO
100
AcDbCircle
 62
250
  6
CONTINUOUS
 10
5.7485101827
 20
-17.4986137783
 30
0.0
 40
2.5738784002
100
AcDbArc
 50
262.5399020441
 51
264.6465328515
  0
ARC
  5
2F0
100
AcDbEntity
  8
RACCORDO
100
AcDbCircle
 62
250
  6
CONTINUOUS
 10
5.7400530337
 20
-17.56326487
 30
0.0
 40
2.5086765064
100
AcDbArc
 50
260.3992917694
 51
262.5397089197
  0
ARC
  5
2F1
100
AcDbEntity
  8
RACCORDO
100
AcDbCircle
 62
250
  6
CONTINUOUS
 10
6.4727412467
 20
-17.9798971664
 30
0.0
 40
2.2133981502
100
AcDbArc
 50
244.2469032657
 51
244.9956096637
  0
ARC
  5
2F2
100
AcDbEntity
  8
RACCORDO
100
AcDbCircle
 62
250
  6
CONTINUOUS
 10
6.4362760166
 20
-18.0550136521
 30
0.0
 40
2.1298987162
100
AcDbArc
 50
242.6595699759
 51
244.2524355196
  0
ARC
  5
2F3
100
AcDbEntity
  8
RACCORDO
100
AcDbCircle
 62
250
  6
CONTINUOUS
 10
6.4020395729
 20
-18.1217280433
 30
0.0
 40
2.054912784
100
AcDbArc
 50
242.1408248284
 51
242.6532031868
  0
ARC
  5
2F4
100
AcDbEntity
  8
0
100
AcDbCircle
 62
250
  6
CONTINUOUS
 10
-1.7070744657
 20
-20.9275930339
 30
0.0
 40
2.0318937035
100
AcDbArc
 50
356.4571320248
 51
0.0142104515
  0
ARC
  5
2F5
100
AcDbEntity
  8
0
100
AcDbCircle
 62
250
  6
CONTINUOUS
 10
1.8284594403
 20
-22.9689660005
 30
0.0
 40
2.0318937035
100
AcDbArc
 50
356.4571320248
 51
0.0142104515
  0
ARC
  5
2F6
100
AcDbEntity
  8
RACCORDO
100
AcDbCircle
 62
250
  6
CONTINUOUS
 10
7.2324563974
 20
-18.1842972637
 30
0.0
 40
1.9971200181
100
AcDbArc
 50
295.3468506175
 51
298.3417590847
  0
ARC
  5
2F7
100
AcDbEntity
  8
0
100
AcDbCircle
 62
250
  6
CONTINUOUS
 10
-1.5059651117
 20
-20.9391558205
 30
0.0
 40
1.8304543899
100
AcDbArc
 50
352.6486239622
 51
356.4293699576
  0
ARC
  5
2F8
100
AcDbEntity
  8
0
100
AcDbCircle
 62
250
  6
CONTINUOUS
 10
2.0295687942
 20
-22.9805287871
 30
0.0
 40
1.8304543899
100
AcDbArc
 50
352.6486239622
 51
356.4293699576
  0
ARC
  5
2F9
100
AcDbEntity
  8
0
100
AcDbCircle
 62
250
  6
CONTINUOUS
 10
-2.1409591764
 20
-19.6088753504
 30
0.0
 40
1.6873243809
100
AcDbArc
 50
65.4365106533
 51
69.4938178954
  0
ARC
  5
2FA
100
AcDbEntity
  8
0
100
AcDbCircle
 62
250
  6
CONTINUOUS
 10
1.3945747295
 20
-21.6502483171
 30
0.0
 40
1.6873243809
100
AcDbArc
 50
65.4365106533
 51
69.4938178954
  0
ARC
  5
2FB
100
AcDbEntity
  8
RACCORDO
100
AcDbCircle
 62
250
  6
CONTINUOUS
 10
16.3202710257
 20
-22.7003771379
 30
0.0
 40
1.0671984369
100
AcDbArc
 50
357.6942043095
 51
0.0008655231
  0
ARC
  5
2FC
100
AcDbEntity
  8
RACCORDO
100
AcDbCircle
 62
250
  6
CONTINUOUS
 10
16.2089973914
 20
-3.0010950799
 30
0.0
 40
1.0318096375
100
AcDbArc
 50
60.0003012729
 51
60.8665649379
  0
ARC
  5
2FD
100
AcDbEntity
  8
RACCORDO
100
AcDbCircle
 62
250
  6
CONTINUOUS
 10
5.8465285316
 20
-6.1771119057
 30
0.0
 40
1.0223421685
100
AcDbArc
 50
250.950919828
 51
254.5543721678
  0
ARC
  5
2FE
100
AcDbEntity
  8
RACCORDO
100
AcDbCircle
 62
250
  6
CONTINUOUS
 10
4.9680049129
 20
-20.7400862475
 30
0.0
 40
0.9297228634
100
AcDbArc
 50
63.8992394627
 51
66.8019752486
  0
ARC
  5
2FF
100
AcDbEntity
  8
RACCORDO
100
AcDbCircle
 62
250
  6
CONTINUOUS
 10
5.8093104331
 20
-6.7125159155
 30
0.0
 40
0.7880445968
100
AcDbArc
 50
236.7330572972
 51
242.1998681589
  0
ARC
  5
300
100
AcDbEntity
  8
RACCORDO
100
AcDbCircle
 62
7
  6
CONTINUOUS
 10
12.0881341174
 20
-17.8348165044
 30
0.0
 40
0.066178474
100
AcDbArc
 50
298.2572980773
 51
301.7459682528
  0
ARC
  5
301
100
AcDbEntity
  8
DRAFT
100
AcDbCircle
 62
7
  6
CONTINUOUS
 10
10.0760190016
 20
24.9810978554
 30
0.0
 40
1.4812018755
100
AcDbArc
 50
236.406335215
 51
239.9134964067
  0
ARC
  5
302
100
AcDbEntity
  8
RACCORDO
100
AcDbCircle
 62
7
  6
CONTINUOUS
 10
20.225200584
 20
14.9791011696
 30
0.0
 40
0.2
100
AcDbArc
 50
324.8941649265
 51
60.06668531
  0
ARC
  5
303
100
AcDbEntity
  8
RACCORDO
100
AcDbCircle
 62
7
  6
CONTINUOUS
 10
18.6664643219
 20
15.8790959518
 30
0.0
 40
0.2
100
AcDbArc
 50
59.9984015652
 51
117.6596435419
  0
ARC
  5
304
100
AcDbEntity
  8
RACCORDO
100
AcDbCircle
 62
250
  6
CONTINUOUS
 10
18.6038867555
 20
15.9986231064
 30
0.0
 40
0.06507731
100
AcDbArc
 50
110.5217123668
 51
117.6883731768
  0
SPLINE
  5
305
100
AcDbEntity
  8
0
100
AcDbSpline
 62
7
  6
CONTINUOUS
 70
0
 71
3
 72
15
 73
11
 74
0
 42
0.0000001
 43
0.0000001
 44
0.0000000001
 40
0.0
 40
0.0
 40
0.0
 40
0.0
 40
0.1234935615
 40
0.2587112269
 40
0.4002175829
 40
0.541601132
 40
0.6764877944
 40
0.7994657526
 40
0.9072185486
 40
1.0
 40
1.0
 40
1.0
 40
1.0
 10
-19.4927384462
 20
-8.6681305003
 30
0.0
 10
-19.4927384462
 20
-8.8024543683
 30
0.0
 10
-19.4592778672
 20
-9.0841751824
 30
0.0
 10
-19.3316953449
 20
-9.5022064745
 30
0.0
 10
-19.1324099248
 20
-9.9129816543
 30
0.0
 10
-18.8744745966
 20
-10.2891896994
 30
0.0
 10
-18.5748862321
 20
-10.6062686556
 30
0.0
 10
-18.2524212967
 20
-10.8435390285
 30
0.0
 10
-17.9268938163
 20
-10.9859502483
 30
0.0
 10
-17.704460465
 20
-11.009861174
 30
0.0
 10
-17.60414043
 20
-10.9988885275
 30
0.0
  0
SPLINE
  5
306
100
AcDbEntity
  8
0
100
AcDbSpline
 62
7
  6
CONTINUOUS
 70
0
 71
3
 72
15
 73
11
 74
0
 42
0.0000001
 43
0.0000001
 44
0.0000000001
 40
0.0
 40
0.0
 40
0.0
 40
0.0
 40
0.1234935615
 40
0.2587112269
 40
0.4002175829
 40
0.541601132
 40
0.6764877944
 40
0.7994657526
 40
0.9072185486
 40
1.0
 40
1.0
 40
1.0
 40
1.0
 10
-15.9572045402
 20
-10.709503467
 30
0.0
 10
-15.9572045402
 20
-10.8438273349
 30
0.0
 10
-15.9237439613
 20
-11.1255481491
 30
0.0
 10
-15.796161439
 20
-11.5435794411
 30
0.0
 10
-15.5968760189
 20
-11.954354621
 30
0.0
 10
-15.3389406907
 20
-12.3305626661
 30
0.0
 10
-15.0393523262
 20
-12.6476416222
 30
0.0
 10
-14.7168873907
 20
-12.8849119952
 30
0.0
 10
-14.3913599104
 20
-13.027323215
 30
0.0
 10
-14.1689265591
 20
-13.0512341406
 30
0.0
 10
-14.0686065241
 20
-13.0402614941
 30
0.0
  0
SPLINE
  5
307
100
AcDbEntity
  8
0
100
AcDbSpline
 62
7
  6
CONTINUOUS
 70
0
 71
3
 72
15
 73
11
 74
0
 42
0.0000001
 43
0.0000001
 44
0.0000000001
 40
0.0
 40
0.0
 40
0.0
 40
0.0
 40
0.1234935615
 40
0.2587112269
 40
0.4002175829
 40
0.541601132
 40
0.6764877944
 40
0.7994657526
 40
0.9072185486
 40
1.0
 40
1.0
 40
1.0
 40
1.0
 10
-1.8150689165
 20
-18.8749953335
 30
0.0
 10
-1.8150689165
 20
-19.0093192015
 30
0.0
 10
-1.7816083375
 20
-19.2910400156
 30
0.0
 10
-1.6540258152
 20
-19.7090713076
 30
0.0
 10
-1.4547403952
 20
-20.1198464875
 30
0.0
 10
-1.1968050669
 20
-20.4960545326
 30
0.0
 10
-0.8972167024
 20
-20.8131334888
 30
0.0
 10
-0.574751767
 20
-21.0504038617
 30
0.0
 10
-0.2492242867
 20
-21.1928150815
 30
0.0
 10
-0.0267909354
 20
-21.2167260072
 30
0.0
 10
0.0735290997
 20
-21.2057533607
 30
0.0
  0
SPLINE
  5
308
100
AcDbEntity
  8
0
100
AcDbSpline
 62
7
  6
CONTINUOUS
 70
0
 71
3
 72
15
 73
11
 74
0
 42
0.0000001
 43
0.0000001
 44
0.0000000001
 40
0.0
 40
0.0
 40
0.0
 40
0.0
 40
0.1234935615
 40
0.2587112269
 40
0.4002175829
 40
0.541601132
 40
0.6764877944
 40
0.7994657526
 40
0.9072185486
 40
1.0
 40
1.0
 40
1.0
 40
1.0
 10
1.7204649894
 20
-20.9163683002
 30
0.0
 10
1.7204649894
 20
-21.0506921681
 30
0.0
 10
1.7539255684
 20
-21.3324129823
 30
0.0
 10
1.8815080907
 20
-21.7504442743
 30
0.0
 10
2.0807935108
 20
-22.1612194541
 30
0.0
 10
2.338728839
 20
-22.5374274993
 30
0.0
 10
2.6383172035
 20
-22.8545064554
 30
0.0
 10
2.9607821389
 20
-23.0917768284
 30
0.0
 10
3.2863096192
 20
-23.2341880481
 30
0.0
 10
3.5087429706
 20
-23.2580989738
 30
0.0
 10
3.6090630056
 20
-23.2471263273
 30
0.0
  0
SPLINE
  5
309
100
AcDbEntity
  8
0
100
AcDbSpline
 62
7
  6
CONTINUOUS
 70
0
 71
3
 72
18
 73
14
 74
0
 42
0.0000001
 43
0.0000001
 44
0.0000000001
 40
0.0
 40
0.0
 40
0.0
 40
0.0
 40
0.1355623213
 40
0.2917542491
 40
0.4562814756
 40
0.616868019
 40
0.7612322171
 40
0.8236062992
 40
0.877416474
 40
0.9214446718
 40
0.9551639402
 40
0.9803702245
 40
1.0
 40
1.0
 40
1.0
 40
1.0
 10
3.7139064719
 20
-22.7643247541
 30
0.0
 10
3.7139064717
 20
-22.6078799369
 30
0.0
 10
3.6672864709
 20
-22.2710258921
 30
0.0
 10
3.4972748702
 20
-21.7701942351
 30
0.0
 10
3.232375409
 20
-21.2789364415
 30
0.0
 10
2.8993307485
 20
-20.8486163607
 30
0.0
 10
2.5818883049
 20
-20.5626582645
 30
0.0
 10
2.326140275
 20
-20.4031729575
 30
0.0
 10
2.1570772
 20
-20.32675537
 30
0.0
 10
2.0099823615
 20
-20.2862349776
 30
0.0
 10
1.8907654781
 20
-20.2764671578
 30
0.0
 10
1.8000944595
 20
-20.289178337
 30
0.0
 10
1.7519641561
 20
-20.3099784184
 30
0.0
 10
1.7325924634
 20
-20.3217225146
 30
0.0
  0
SPLINE
  5
30A
100
AcDbEntity
  8
0
100
AcDbSpline
 62
7
  6
CONTINUOUS
 70
0
 71
3
 72
11
 73
7
 74
0
 42
0.0000001
 43
0.0000001
 44
0.0000000001
 40
0.0
 40
0.0
 40
0.0
 40
0.0
 40
0.1393544199
 40
0.3377892179
 40
0.6246817673
 40
1.0
 40
1.0
 40
1.0
 40
1.0
 10
3.4914233297
 20
-23.3679106753
 30
0.0
 10
3.518641444
 20
-23.352961713
 30
0.0
 10
3.5776751598
 20
-23.3035441057
 30
0.0
 10
3.6496571027
 20
-23.1820204232
 30
0.0
 10
3.7028196412
 20
-22.9961019954
 30
0.0
 10
3.7139064719
 20
-22.8479590436
 30
0.0
 10
3.7139064719
 20
-22.7643247541
 30
0.0
  0
SPLINE
  5
30B
100
AcDbEntity
  8
0
100
AcDbSpline
 62
7
  6
CONTINUOUS
 70
0
 71
3
 72
9
 73
5
 74
0
 42
0.0000001
 43
0.0000001
 44
0.0000000001
 40
0.0
 40
0.0
 40
0.0
 40
0.0
 40
0.2457714701
 40
1.0
 40
1.0
 40
1.0
 40
1.0
 10
1.8960698762
 20
-20.2801554812
 30
0.0
 10
1.8907962004
 20
-20.2873487984
 30
0.0
 10
1.8698978046
 20
-20.3170245588
 30
0.0
 10
1.8512424449
 20
-20.3482676183
 30
0.0
 10
1.8384309351
 20
-20.3724562836
 30
0.0
  0
SPLINE
  5
30C
100
AcDbEntity
  8
0
100
AcDbSpline
 62
7
  6
CONTINUOUS
 70
0
 71
3
 72
9
 73
5
 74
0
 42
0.0000001
 43
0.0000001
 44
0.0000000001
 40
0.0
 40
0.0
 40
0.0
 40
0.0
 40
0.2279711338
 40
1.0
 40
1.0
 40
1.0
 40
1.0
 10
1.8384309351
 20
-20.3724562836
 30
0.0
 10
1.8185201832
 20
-20.4100486144
 30
0.0
 10
1.7442913117
 20
-20.5819435809
 30
0.0
 10
1.7204649894
 20
-20.7723069308
 30
0.0
 10
1.7204649894
 20
-20.9163683002
 30
0.0
  0
SPLINE
  5
30D
100
AcDbEntity
  8
0
100
AcDbSpline
 62
7
  6
CONTINUOUS
 70
0
 71
3
 72
18
 73
14
 74
0
 42
0.0000001
 43
0.0000001
 44
0.0000000001
 40
0.0
 40
0.0
 40
0.0
 40
0.0
 40
0.1355623213
 40
0.2917542491
 40
0.4562814756
 40
0.616868019
 40
0.7612322171
 40
0.8236062992
 40
0.877416474
 40
0.9214446718
 40
0.9551639402
 40
0.9803702245
 40
1.0
 40
1.0
 40
1.0
 40
1.0
 10
0.1783725659
 20
-20.7229517874
 30
0.0
 10
0.1783725658
 20
-20.5665069702
 30
0.0
 10
0.1317525649
 20
-20.2296529255
 30
0.0
 10
-0.0382590357
 20
-19.7288212685
 30
0.0
 10
-0.303158497
 20
-19.2375634748
 30
0.0
 10
-0.6362031574
 20
-18.8072433941
 30
0.0
 10
-0.953645601
 20
-18.5212852979
 30
0.0
 10
-1.2093936309
 20
-18.3617999909
 30
0.0
 10
-1.3784567059
 20
-18.2853824034
 30
0.0
 10
-1.5255515444
 20
-18.244862011
 30
0.0
 10
-1.6447684278
 20
-18.2350941911
 30
0.0
 10
-1.7354394465
 20
-18.2478053704
 30
0.0
 10
-1.7835697498
 20
-18.2686054518
 30
0.0
 10
-1.8029414425
 20
-18.280349548
 30
0.0
  0
SPLINE
  5
30E
100
AcDbEntity
  8
0
100
AcDbSpline
 62
7
  6
CONTINUOUS
 70
0
 71
3
 72
11
 73
7
 74
0
 42
0.0000001
 43
0.0000001
 44
0.0000000001
 40
0.0
 40
0.0
 40
0.0
 40
0.0
 40
0.1393544199
 40
0.3377892179
 40
0.6246817673
 40
1.0
 40
1.0
 40
1.0
 40
1.0
 10
-0.0441105762
 20
-21.3265377087
 30
0.0
 10
-0.0168924619
 20
-21.3115887464
 30
0.0
 10
0.0421412538
 20
-21.2621711391
 30
0.0
 10
0.1141231967
 20
-21.1406474565
 30
0.0
 10
0.1672857353
 20
-20.9547290288
 30
0.0
 10
0.178372566
 20
-20.806586077
 30
0.0
 10
0.1783725659
 20
-20.7229517874
 30
0.0
  0
SPLINE
  5
30F
100
AcDbEntity
  8
0
100
AcDbSpline
 62
7
  6
CONTINUOUS
 70
0
 71
3
 72
9
 73
5
 74
0
 42
0.0000001
 43
0.0000001
 44
0.0000000001
 40
0.0
 40
0.0
 40
0.0
 40
0.0
 40
0.2457714701
 40
1.0
 40
1.0
 40
1.0
 40
1.0
 10
-1.6394640297
 20
-18.2387825146
 30
0.0
 10
-1.6447377056
 20
-18.2459758318
 30
0.0
 10
-1.6656361013
 20
-18.2756515922
 30
0.0
 10
-1.6842914611
 20
-18.3068946517
 30
0.0
 10
-1.6971029708
 20
-18.3310833169
 30
0.0
  0
SPLINE
  5
310
100
AcDbEntity
  8
0
100
AcDbSpline
 62
7
  6
CONTINUOUS
 70
0
 71
3
 72
9
 73
5
 74
0
 42
0.0000001
 43
0.0000001
 44
0.0000000001
 40
0.0
 40
0.0
 40
0.0
 40
0.0
 40
0.2279711338
 40
1.0
 40
1.0
 40
1.0
 40
1.0
 10
-1.6971029708
 20
-18.3310833169
 30
0.0
 10
-1.7170137227
 20
-18.3686756477
 30
0.0
 10
-1.7912425943
 20
-18.5405706142
 30
0.0
 10
-1.8150689165
 20
-18.7309339641
 30
0.0
 10
-1.8150689165
 20
-18.8749953335
 30
0.0
  0
SPLINE
  5
311
100
AcDbEntity
  8
0
100
AcDbSpline
 62
7
  6
CONTINUOUS
 70
0
 71
3
 72
18
 73
14
 74
0
 42
0.0000001
 43
0.0000001
 44
0.0000000001
 40
0.0
 40
0.0
 40
0.0
 40
0.0
 40
0.1355623213
 40
0.2917542491
 40
0.4562814756
 40
0.616868019
 40
0.7612322171
 40
0.8236062992
 40
0.877416474
 40
0.9214446718
 40
0.9551639402
 40
0.9803702245
 40
1.0
 40
1.0
 40
1.0
 40
1.0
 10
-13.9637630578
 20
-12.5574599209
 30
0.0
 10
-13.9637630579
 20
-12.4010151037
 30
0.0
 10
-14.0103830588
 20
-12.064161059
 30
0.0
 10
-14.1803946595
 20
-11.5633294019
 30
0.0
 10
-14.4452941207
 20
-11.0720716083
 30
0.0
 10
-14.7783387812
 20
-10.6417515276
 30
0.0
 10
-15.0957812248
 20
-10.3557934313
 30
0.0
 10
-15.3515292546
 20
-10.1963081243
 30
0.0
 10
-15.5205923297
 20
-10.1198905369
 30
0.0
 10
-15.6676871682
 20
-10.0793701444
 30
0.0
 10
-15.7869040515
 20
-10.0696023246
 30
0.0
 10
-15.8775750702
 20
-10.0823135038
 30
0.0
 10
-15.9257053736
 20
-10.1031135853
 30
0.0
 10
-15.9450770662
 20
-10.1148576814
 30
0.0
  0
SPLINE
  5
312
100
AcDbEntity
  8
0
100
AcDbSpline
 62
7
  6
CONTINUOUS
 70
0
 71
3
 72
11
 73
7
 74
0
 42
0.0000001
 43
0.0000001
 44
0.0000000001
 40
0.0
 40
0.0
 40
0.0
 40
0.0
 40
0.1393544199
 40
0.3377892179
 40
0.6246817673
 40
1.0
 40
1.0
 40
1.0
 40
1.0
 10
-14.1862462
 20
-13.1610458421
 30
0.0
 10
-14.1590280857
 20
-13.1460968798
 30
0.0
 10
-14.0999943699
 20
-13.0966792725
 30
0.0
 10
-14.028012427
 20
-12.97515559
 30
0.0
 10
-13.9748498885
 20
-12.7892371622
 30
0.0
 10
-13.9637630577
 20
-12.6410942104
 30
0.0
 10
-13.9637630578
 20
-12.5574599209
 30
0.0
  0
SPLINE
  5
313
100
AcDbEntity
  8
0
100
AcDbSpline
 62
7
  6
CONTINUOUS
 70
0
 71
3
 72
9
 73
5
 74
0
 42
0.0000001
 43
0.0000001
 44
0.0000000001
 40
0.0
 40
0.0
 40
0.0
 40
0.0
 40
0.2457714701
 40
1.0
 40
1.0
 40
1.0
 40
1.0
 10
-15.7815996535
 20
-10.0732906481
 30
0.0
 10
-15.7868733293
 20
-10.0804839652
 30
0.0
 10
-15.807771725
 20
-10.1101597256
 30
0.0
 10
-15.8264270848
 20
-10.1414027851
 30
0.0
 10
-15.8392385945
 20
-10.1655914504
 30
0.0
  0
SPLINE
  5
314
100
AcDbEntity
  8
0
100
AcDbSpline
 62
7
  6
CONTINUOUS
 70
0
 71
3
 72
9
 73
5
 74
0
 42
0.0000001
 43
0.0000001
 44
0.0000000001
 40
0.0
 40
0.0
 40
0.0
 40
0.0
 40
0.2279711338
 40
1.0
 40
1.0
 40
1.0
 40
1.0
 10
-15.8392385945
 20
-10.1655914504
 30
0.0
 10
-15.8591493464
 20
-10.2031837812
 30
0.0
 10
-15.933378218
 20
-10.3750787477
 30
0.0
 10
-15.9572045402
 20
-10.5654420976
 30
0.0
 10
-15.9572045402
 20
-10.709503467
 30
0.0
  0
SPLINE
  5
315
100
AcDbEntity
  8
0
100
AcDbSpline
 62
7
  6
CONTINUOUS
 70
0
 71
3
 72
18
 73
14
 74
0
 42
0.0000001
 43
0.0000001
 44
0.0000000001
 40
0.0
 40
0.0
 40
0.0
 40
0.0
 40
0.1355623213
 40
0.2917542491
 40
0.4562814756
 40
0.616868019
 40
0.7612322171
 40
0.8236062992
 40
0.877416474
 40
0.9214446718
 40
0.9551639402
 40
0.9803702245
 40
1.0
 40
1.0
 40
1.0
 40
1.0
 10
-17.4992969637
 20
-10.5160869542
 30
0.0
 10
-17.4992969639
 20
-10.359642137
 30
0.0
 10
-17.5459169647
 20
-10.0227880923
 30
0.0
 10
-17.7159285654
 20
-9.5219564353
 30
0.0
 10
-17.9808280266
 20
-9.0306986416
 30
0.0
 10
-18.3138726871
 20
-8.6003785609
 30
0.0
 10
-18.6313151307
 20
-8.3144204647
 30
0.0
 10
-18.8870631606
 20
-8.1549351577
 30
0.0
 10
-19.0561262356
 20
-8.0785175702
 30
0.0
 10
-19.2032210741
 20
-8.0379971778
 30
0.0
 10
-19.3224379575
 20
-8.0282293579
 30
0.0
 10
-19.4131089761
 20
-8.0409405372
 30
0.0
 10
-19.4612392795
 20
-8.0617406186
 30
0.0
 10
-19.4806109722
 20
-8.0734847148
 30
0.0
  0
SPLINE
  5
316
100
AcDbEntity
  8
0
100
AcDbSpline
 62
7
  6
CONTINUOUS
 70
0
 71
3
 72
11
 73
7
 74
0
 42
0.0000001
 43
0.0000001
 44
0.0000000001
 40
0.0
 40
0.0
 40
0.0
 40
0.0
 40
0.1393544199
 40
0.3377892179
 40
0.6246817673
 40
1.0
 40
1.0
 40
1.0
 40
1.0
 10
-17.7217801059
 20
-11.1196728755
 30
0.0
 10
-17.6945619916
 20
-11.1047239132
 30
0.0
 10
-17.6355282758
 20
-11.0553063059
 30
0.0
 10
-17.5635463329
 20
-10.9337826234
 30
0.0
 10
-17.5103837944
 20
-10.7478641956
 30
0.0
 10
-17.4992969637
 20
-10.5997212438
 30
0.0
 10
-17.4992969637
 20
-10.5160869542
 30
0.0
  0
SPLINE
  5
317
100
AcDbEntity
  8
0
100
AcDbSpline
 62
7
  6
CONTINUOUS
 70
0
 71
3
 72
9
 73
5
 74
0
 42
0.0000001
 43
0.0000001
 44
0.0000000001
 40
0.0
 40
0.0
 40
0.0
 40
0.0
 40
0.2457714701
 40
1.0
 40
1.0
 40
1.0
 40
1.0
 10
-19.3171335594
 20
-8.0319176814
 30
0.0
 10
-19.3224072352
 20
-8.0391109986
 30
0.0
 10
-19.343305631
 20
-8.068786759
 30
0.0
 10
-19.3619609907
 20
-8.1000298185
 30
0.0
 10
-19.3747725005
 20
-8.1242184837
 30
0.0
  0
SPLINE
  5
318
100
AcDbEntity
  8
0
100
AcDbSpline
 62
7
  6
CONTINUOUS
 70
0
 71
3
 72
9
 73
5
 74
0
 42
0.0000001
 43
0.0000001
 44
0.0000000001
 40
0.0
 40
0.0
 40
0.0
 40
0.0
 40
0.2279711338
 40
1.0
 40
1.0
 40
1.0
 40
1.0
 10
-19.3747725005
 20
-8.1242184837
 30
0.0
 10
-19.3946832523
 20
-8.1618108145
 30
0.0
 10
-19.4689121239
 20
-8.333705781
 30
0.0
 10
-19.4927384462
 20
-8.5240691309
 30
0.0
 10
-19.4927384462
 20
-8.6681305003
 30
0.0
  0
SPLINE
  5
319
100
AcDbEntity
  8
RACCORDO
100
AcDbSpline
 62
250
  6
CONTINUOUS
 70
0
 71
3
 72
11
 73
7
 74
0
 42
0.0000001
 43
0.0000001
 44
0.0000000001
 40
0.0
 40
0.0
 40
0.0
 40
0.0
 40
0.2177861783
 40
0.4509169248
 40
0.7102922706
 40
1.0
 40
1.0
 40
1.0
 40
1.0
 10
4.6209188282
 20
-28.727983565
 30
0.0
 10
4.5714420671
 20
-28.6994221481
 30
0.0
 10
4.4788829709
 20
-28.6215915559
 30
0.0
 10
4.3803416851
 20
-28.4604651811
 30
0.0
 10
4.3218113698
 20
-28.26189644
 30
0.0
 10
4.3102947246
 20
-28.1173735992
 30
0.0
 10
4.3102947246
 20
-28.0413785713
 30
0.0
  0
SPLINE
  5
31A
100
AcDbEntity
  8
RACCORDO
100
AcDbSpline
 62
250
  6
CONTINUOUS
 70
0
 71
3
 72
9
 73
5
 74
0
 42
0.0000001
 43
0.0000001
 44
0.0000000001
 40
0.0
 40
0.0
 40
0.0
 40
0.0
 40
0.5220845024
 40
1.0
 40
1.0
 40
1.0
 40
1.0
 10
5.3342322529
 20
-19.885532482
 30
0.0
 10
5.2674795102
 20
-19.8569230499
 30
0.0
 10
5.1326713936
 20
-19.8172369403
 30
0.0
 10
4.9935157107
 20
-19.8050147713
 30
0.0
 10
4.9270552446
 20
-19.8033597039
 30
0.0
  0
SPLINE
  5
31B
100
AcDbEntity
  8
RACCORDO
100
AcDbSpline
 62
250
  6
CONTINUOUS
 70
0
 71
3
 72
11
 73
7
 74
0
 42
0.0000001
 43
0.0000001
 44
0.0000000001
 40
0.0
 40
0.0
 40
0.0
 40
0.0
 40
0.2177855523
 40
0.4509218534
 40
0.710299167
 40
1.0
 40
1.0
 40
1.0
 40
1.0
 10
-20.6867534014
 20
-14.1156507804
 30
0.0
 10
-20.7362086626
 20
-14.0870780918
 30
0.0
 10
-20.8287223347
 20
-14.0092364094
 30
0.0
 10
-20.9272115222
 20
-13.8481281555
 30
0.0
 10
-20.9857116178
 20
-13.649600096
 30
0.0
 10
-20.9972228242
 20
-13.5051112883
 30
0.0
 10
-20.99722282
 20
-13.4291351188
 30
0.0
  0
SPLINE
  5
31C
100
AcDbEntity
  8
RACCORDO
100
AcDbSpline
 62
250
  6
CONTINUOUS
 70
0
 71
3
 72
11
 73
7
 74
0
 42
0.0000001
 43
0.0000001
 44
0.0000000001
 40
0.0
 40
0.0
 40
0.0
 40
0.0
 40
0.2177901284
 40
0.4509282731
 40
0.710304114
 40
1.0
 40
1.0
 40
1.0
 40
1.0
 10
-21.790061831
 20
-12.204606568
 30
0.0
 10
-21.7900482543
 20
-12.261732531
 30
0.0
 10
-21.7688960944
 20
-12.3807941434
 30
0.0
 10
-21.6786120373
 20
-12.5466749591
 30
0.0
 10
-21.5359175454
 20
-12.6966312067
 30
0.0
 10
-21.4165277303
 20
-12.7788607565
 30
0.0
 10
-21.3507223627
 20
-12.816855951
 30
0.0
  0
SPLINE
  5
31D
100
AcDbEntity
  8
RACCORDO
100
AcDbSpline
 62
250
  6
CONTINUOUS
 70
0
 71
3
 72
9
 73
5
 74
0
 42
0.0000001
 43
0.0000001
 44
0.0000000001
 40
0.0
 40
0.0
 40
0.0
 40
0.0
 40
0.2436222615
 40
1.0
 40
1.0
 40
1.0
 40
1.0
 10
-21.7387879757
 20
-4.4066938724
 30
0.0
 10
-21.7344537992
 20
-4.4158810939
 30
0.0
 10
-21.7157004716
 20
-4.4531343753
 30
0.0
 10
-21.6932297184
 20
-4.4884823053
 30
0.0
 10
-21.6746314931
 20
-4.5139535065
 30
0.0
  0
SPLINE
  5
31E
100
AcDbEntity
  8
RACCORDO
100
AcDbSpline
 62
250
  6
CONTINUOUS
 70
0
 71
3
 72
9
 73
5
 74
0
 42
0.0000001
 43
0.0000001
 44
0.0000000001
 40
0.0
 40
0.0
 40
0.0
 40
0.0
 40
0.2294076067
 40
1.0
 40
1.0
 40
1.0
 40
1.0
 10
-21.6746314931
 20
-4.5139535065
 30
0.0
 10
-21.6553211694
 20
-4.5403999623
 30
0.0
 10
-21.5634085079
 20
-4.6500490311
 30
0.0
 10
-21.4460255587
 20
-4.7363420057
 30
0.0
 10
-21.3507680467
 20
-4.7913425973
 30
0.0
  0
SPLINE
  5
31F
100
AcDbEntity
  8
RACCORDO
100
AcDbSpline
 62
250
  6
CONTINUOUS
 70
0
 71
3
 72
15
 73
11
 74
0
 42
0.0000001
 43
0.0000001
 44
0.0000000001
 40
0.0
 40
0.0
 40
0.0
 40
0.0
 40
0.1448963955
 40
0.2745186309
 40
0.3911060406
 40
0.4999888421
 40
0.6088736614
 40
0.725466374
 40
0.8550959343
 40
1.0
 40
1.0
 40
1.0
 40
1.0
 10
4.6637942673
 20
-27.8373118147
 30
0.0
 10
4.6637909722
 20
-27.8626500179
 30
0.0
 10
4.6599678796
 20
-27.910823357
 30
0.0
 10
4.6404510009
 20
-27.9769950301
 30
0.0
 10
4.607584873
 20
-28.0307297479
 30
0.0
 10
4.5619599494
 20
-28.0691036755
 30
0.0
 10
4.50591159
 20
-28.0894229273
 30
0.0
 10
4.4429403373
 20
-28.0910131488
 30
0.0
 10
4.3758731941
 20
-28.0748244554
 30
0.0
 10
4.3322407064
 20
-28.0540461051
 30
0.0
 10
4.3102947246
 20
-28.0413785713
 30
0.0
  0
SPLINE
  5
320
100
AcDbEntity
  8
RACCORDO
100
AcDbSpline
 62
250
  6
CONTINUOUS
 70
0
 71
3
 72
11
 73
7
 74
0
 42
0.0000001
 43
0.0000001
 44
0.0000000001
 40
0.0
 40
0.0
 40
0.0
 40
0.0
 40
0.2372209951
 40
0.5000060655
 40
0.7627878696
 40
1.0
 40
1.0
 40
1.0
 40
1.0
 10
-20.99722282
 20
-13.4291351188
 30
0.0
 10
-21.0474013456
 20
-13.4001539674
 30
0.0
 10
-21.1423838115
 20
-13.3202357798
 30
0.0
 10
-21.2532349215
 20
-13.1687531776
 30
0.0
 10
-21.3289966819
 20
-12.997014141
 30
0.0
 10
-21.3507148357
 20
-12.8748002394
 30
0.0
 10
-21.3507223627
 20
-12.816855951
 30
0.0
  0
SPLINE
  5
321
100
AcDbEntity
  8
RACCORDO
100
AcDbSpline
 62
250
  6
CONTINUOUS
 70
0
 71
3
 72
9
 73
5
 74
0
 42
0.0000001
 43
0.0000001
 44
0.0000000001
 40
0.0
 40
0.0
 40
0.0
 40
0.0
 40
0.2557614834
 40
1.0
 40
1.0
 40
1.0
 40
1.0
 10
-21.681220616
 20
-4.4044207094
 30
0.0
 10
-21.7032425923
 20
-4.3805516849
 30
0.0
 10
-21.7904028416
 20
-4.2882522371
 30
0.0
 10
-21.8827138672
 20
-4.200460313
 30
0.0
 10
-21.9561050924
 20
-4.140925813
 30
0.0
  0
SPLINE
  5
322
100
AcDbEntity
  8
RACCORDO
100
AcDbSpline
 62
250
  6
CONTINUOUS
 70
0
 71
3
 72
9
 73
5
 74
0
 42
0.0000001
 43
0.0000001
 44
0.0000000001
 40
0.0
 40
0.0
 40
0.0
 40
0.0
 40
0.254800474
 40
1.0
 40
1.0
 40
1.0
 40
1.0
 10
-21.9561050924
 20
-4.140925813
 30
0.0
 10
-21.9649541847
 20
-4.1337474849
 30
0.0
 10
-21.9999618278
 20
-4.1059231873
 30
0.0
 10
-22.0361614428
 20
-4.0795715532
 30
0.0
 10
-22.0639129199
 20
-4.0611216259
 30
0.0
  0
SPLINE
  5
323
100
AcDbEntity
  8
RACCORDO
100
AcDbSpline
 62
250
  6
CONTINUOUS
 70
0
 71
3
 72
9
 73
5
 74
0
 42
0.0000001
 43
0.0000001
 44
0.0000000001
 40
0.0
 40
0.0
 40
0.0
 40
0.0
 40
0.4477376355
 40
1.0
 40
1.0
 40
1.0
 40
1.0
 10
-22.0497309073
 20
10.2040052203
 30
0.0
 10
-22.0361775595
 20
10.2123888347
 30
0.0
 10
-21.9983156835
 20
10.2189247938
 30
0.0
 10
-21.9641839586
 20
10.2053125926
 30
0.0
 10
-21.9470128064
 20
10.1957441936
 30
0.0
  0
SPLINE
  5
324
100
AcDbEntity
  8
RACCORDO
100
AcDbSpline
 62
250
  6
CONTINUOUS
 70
0
 71
3
 72
9
 73
5
 74
0
 42
0.0000001
 43
0.0000001
 44
0.0000000001
 40
0.0
 40
0.0
 40
0.0
 40
0.0
 40
0.4540665765
 40
1.0
 40
1.0
 40
1.0
 40
1.0
 10
5.4304459356
 20
-20.0031103231
 30
0.0
 10
5.4147364298
 20
-19.9954193422
 30
0.0
 10
5.38643698
 20
-19.9651773227
 30
0.0
 10
5.3783444265
 20
-19.9261548358
 30
0.0
 10
5.3770179883
 20
-19.9051667656
 30
0.0
  0
SPLINE
  5
325
100
AcDbEntity
  8
RACCORDO
100
AcDbSpline
 62
250
  6
CONTINUOUS
 70
0
 71
3
 72
11
 73
7
 74
0
 42
0.0000001
 43
0.0000001
 44
0.0000000001
 40
0.0
 40
0.0
 40
0.0
 40
0.0
 40
0.23885404
 40
0.5005784861
 40
0.7619873721
 40
1.0
 40
1.0
 40
1.0
 40
1.0
 10
5.5742589933
 20
-7.1625335365
 30
0.0
 10
5.7538956621
 20
-7.2571833642
 30
0.0
 10
6.1637201166
 20
-7.3932611659
 30
0.0
 10
6.8136028227
 20
-7.4506453176
 30
0.0
 10
7.4602849244
 20
-7.3699290168
 30
0.0
 10
7.8639156714
 20
-7.2190394742
 30
0.0
 10
8.039148976
 20
-7.1178898047
 30
0.0
  0
SPLINE
  5
326
100
AcDbEntity
  8
RACCORDO
100
AcDbSpline
 62
250
  6
CONTINUOUS
 70
0
 71
3
 72
10
 73
6
 74
0
 42
0.0000001
 43
0.0000001
 44
0.0000000001
 40
0.0
 40
0.0
 40
0.0
 40
0.0
 40
0.2298550078
 40
0.4776829408
 40
1.0
 40
1.0
 40
1.0
 40
1.0
 10
6.9078418119
 20
-6.8728378549
 30
0.0
 10
6.8163018602
 20
-6.9256705409
 30
0.0
 10
6.6154536642
 20
-7.0176721221
 30
0.0
 10
6.1724263943
 20
-7.1444558411
 30
0.0
 10
5.8142103799
 20
-7.1728393133
 30
0.0
 10
5.5742589933
 20
-7.1625335365
 30
0.0
  0
SPLINE
  5
327
100
AcDbEntity
  8
RACCORDO
100
AcDbSpline
 62
250
  6
CONTINUOUS
 70
0
 71
3
 72
15
 73
11
 74
0
 42
0.0000001
 43
0.0000001
 44
0.0000000001
 40
0.0
 40
0.0
 40
0.0
 40
0.0
 40
0.1467608831
 40
0.2778156302
 40
0.3951995787
 40
0.5040923286
 40
0.6122437246
 40
0.7276561496
 40
0.8560535316
 40
1.0
 40
1.0
 40
1.0
 40
1.0
 10
17.9316004153
 20
-3.9792233591
 30
0.0
 10
17.9315988097
 20
-3.8389761613
 30
0.0
 10
17.9110491951
 20
-3.5726129739
 30
0.0
 10
17.806246881
 20
-3.2065350081
 30
0.0
 10
17.6296747107
 20
-2.9087344243
 30
0.0
 10
17.3839336545
 20
-2.694764484
 30
0.0
 10
17.0808719217
 20
-2.5798601308
 30
0.0
 10
16.739679725
 20
-2.5683589787
 30
0.0
 10
16.3759536517
 20
-2.654941247
 30
0.0
 10
16.1393384962
 20
-2.7674969523
 30
0.0
 10
16.0202115529
 20
-2.8362784243
 30
0.0
  0
SPLINE
  5
328
100
AcDbEntity
  8
RACCORDO
100
AcDbSpline
 62
250
  6
CONTINUOUS
 70
0
 71
3
 72
15
 73
11
 74
0
 42
0.0000001
 43
0.0000001
 44
0.0000000001
 40
0.0
 40
0.0
 40
0.0
 40
0.0
 40
0.1141379691
 40
0.2373136538
 40
0.3669749901
 40
0.500022026
 40
0.633066603
 40
0.7627199984
 40
0.8858822698
 40
1.0
 40
1.0
 40
1.0
 40
1.0
 10
16.0202115529
 20
-15.4150051824
 30
0.0
 10
16.151859835
 20
-15.3335905815
 30
0.0
 10
16.4113514816
 20
-15.1407683584
 30
0.0
 10
16.7675646988
 20
-14.791466277
 30
0.0
 10
17.0952683461
 20
-14.3819242205
 30
0.0
 10
17.3823298552
 20
-13.9271739754
 30
0.0
 10
17.6182235294
 20
-13.4439089988
 30
0.0
 10
17.7942728121
 20
-12.9498565175
 30
0.0
 10
17.9040672677
 20
-12.4632459693
 30
0.0
 10
17.9315986576
 20
-12.1411744058
 30
0.0
 10
17.9316004153
 20
-11.9864129404
 30
0.0
  0
SPLINE
  5
329
100
AcDbEntity
  8
RACCORDO
100
AcDbSpline
 62
250
  6
CONTINUOUS
 70
0
 71
3
 72
10
 73
6
 74
0
 42
0.0000001
 43
0.0000001
 44
0.0000000001
 40
0.0
 40
0.0
 40
0.0
 40
0.0
 40
0.2366680112
 40
0.4775172261
 40
1.0
 40
1.0
 40
1.0
 40
1.0
 10
-21.9807230791
 20
8.7473671098
 30
0.0
 10
-21.9880043936
 20
8.7946958121
 30
0.0
 10
-21.9909749784
 20
8.8924553099
 30
0.0
 10
-21.9473111717
 20
9.0917045024
 30
0.0
 10
-21.8610123341
 20
9.2266130803
 30
0.0
 10
-21.7906766621
 20
9.3055342924
 30
0.0
  0
SPLINE
  5
32A
100
AcDbEntity
  8
RACCORDO
100
AcDbSpline
 62
250
  6
CONTINUOUS
 70
0
 71
3
 72
15
 73
11
 74
0
 42
0.0000001
 43
0.0000001
 44
0.0000000001
 40
0.0
 40
0.0
 40
0.0
 40
0.0
 40
0.1430242649
 40
0.2724465978
 40
0.3905369938
 40
0.5019258632
 40
0.6129805134
 40
0.730169312
 40
0.8583140398
 40
1.0
 40
1.0
 40
1.0
 40
1.0
 10
-21.9807230791
 20
8.7473671098
 30
0.0
 10
-22.050367578
 20
8.7914253824
 30
0.0
 10
-22.1768750977
 20
8.8860476092
 30
0.0
 10
-22.3277944111
 20
9.0553701481
 30
0.0
 10
-22.4247776369
 20
9.2408853073
 30
0.0
 10
-22.4621373369
 20
9.4366906105
 30
0.0
 10
-22.4369052587
 20
9.633936627
 30
0.0
 10
-22.3513106195
 20
9.8234608256
 30
0.0
 10
-22.2107761227
 20
9.9989834744
 30
0.0
 10
-22.0901348867
 20
10.0986770947
 30
0.0
 10
-22.0232808371
 20
10.1455334698
 30
0.0
  0
SPLINE
  5
32B
100
AcDbEntity
  8
0
100
AcDbSpline
 62
250
  6
CONTINUOUS
 70
0
 71
3
 72
22
 73
18
 74
0
 42
0.0000001
 43
0.0000001
 44
0.0000000001
 40
0.0
 40
0.0
 40
0.0
 40
0.0
 40
0.0559650826
 40
0.106279003
 40
0.1525772013
 40
0.1975018893
 40
0.2441281687
 40
0.2950105496
 40
0.3225952949
 40
0.3517016948
 40
0.414451907
 40
0.4828868022
 40
0.5559545954
 40
0.7096795421
 40
0.8620719709
 40
0.9335816752
 40
1.0
 40
1.0
 40
1.0
 40
1.0
 10
-17.36822639
 20
-10.966504894
 30
0.0
 10
-17.3813073501
 20
-11.0671476424
 30
0.0
 10
-17.4231639743
 20
-11.2569165407
 30
0.0
 10
-17.5446302251
 20
-11.5088513134
 30
0.0
 10
-17.7197514227
 20
-11.7021824841
 30
0.0
 10
-17.9426140449
 20
-11.8253782473
 30
0.0
 10
-18.2007710354
 20
-11.8719214405
 30
0.0
 10
-18.4289511522
 20
-11.8484239599
 30
0.0
 10
-18.6172883257
 20
-11.796677172
 30
0.0
 10
-18.819562302
 20
-11.7182332048
 30
0.0
 10
-19.0745104075
 20
-11.5755299105
 30
0.0
 10
-19.3680261433
 20
-11.3477557433
 30
0.0
 10
-19.7461132782
 20
-10.9669837169
 30
0.0
 10
-20.1422310025
 20
-10.3979345851
 30
0.0
 10
-20.4112852317
 20
-9.7615903766
 30
0.0
 10
-20.5262482439
 20
-9.2466116318
 30
0.0
 10
-20.5472811767
 20
-8.9962455332
 30
0.0
 10
-20.5472811766
 20
-8.8757999309
 30
0.0
  0
SPLINE
  5
32C
100
AcDbEntity
  8
0
100
AcDbSpline
 62
250
  6
CONTINUOUS
 70
0
 71
3
 72
15
 73
11
 74
0
 42
0.0000001
 43
0.0000001
 44
0.0000000001
 40
0.0
 40
0.0
 40
0.0
 40
0.0
 40
0.1487810167
 40
0.2836603685
 40
0.4059599658
 40
0.5193429988
 40
0.6294508206
 40
0.7428308744
 40
0.8651441691
 40
1.0
 40
1.0
 40
1.0
 40
1.0
 10
-20.5472811766
 20
-8.8757999309
 30
0.0
 10
-20.5472811767
 20
-8.7734208092
 30
0.0
 10
-20.5333049392
 20
-8.5777179196
 30
0.0
 10
-20.463351218
 20
-8.3054182752
 30
0.0
 10
-20.3459659562
 20
-8.0761767741
 30
0.0
 10
-20.182887593
 20
-7.898352341
 30
0.0
 10
-19.9789267721
 20
-7.7805838515
 30
0.0
 10
-19.7433688752
 20
-7.728234053
 30
0.0
 10
-19.4862327752
 20
-7.7411862867
 30
0.0
 10
-19.3144724494
 20
-7.7891261437
 30
0.0
 10
-19.2275447271
 20
-7.821604463
 30
0.0
  0
SPLINE
  5
32D
100
AcDbEntity
  8
0
100
AcDbSpline
 62
250
  6
CONTINUOUS
 70
0
 71
3
 72
15
 73
11
 74
0
 42
0.0000001
 43
0.0000001
 44
0.0000000001
 40
0.0
 40
0.0
 40
0.0
 40
0.0
 40
0.1099876105
 40
0.2306440605
 40
0.3594589313
 40
0.4930672279
 40
0.6276561442
 40
0.7593251165
 40
0.8844384861
 40
1.0
 40
1.0
 40
1.0
 40
1.0
 10
-19.1172057434
 20
-7.8673869823
 30
0.0
 10
-19.0002592524
 20
-7.9207018221
 30
0.0
 10
-18.7665707936
 20
-8.0585162774
 30
0.0
 10
-18.4427464876
 20
-8.3282124232
 30
0.0
 10
-18.1405334184
 20
-8.6602263791
 30
0.0
 10
-17.8727919536
 20
-9.0404861484
 30
0.0
 10
-17.6507801252
 20
-9.4529027252
 30
0.0
 10
-17.4839346992
 20
-9.8800375022
 30
0.0
 10
-17.3793190474
 20
-10.3036652649
 30
0.0
 10
-17.3528503543
 20
-10.5851847818
 30
0.0
 10
-17.3528503543
 20
-10.7202242521
 30
0.0
  0
SPLINE
  5
32E
100
AcDbEntity
  8
0
100
AcDbSpline
 62
250
  6
CONTINUOUS
 70
0
 71
3
 72
22
 73
18
 74
0
 42
0.0000001
 43
0.0000001
 44
0.0000000001
 40
0.0
 40
0.0
 40
0.0
 40
0.0
 40
0.0559650826
 40
0.106279003
 40
0.1525772013
 40
0.1975018893
 40
0.2441281687
 40
0.2950105496
 40
0.3225952949
 40
0.3517016948
 40
0.414451907
 40
0.4828868022
 40
0.5559545954
 40
0.7096795421
 40
0.8620719709
 40
0.9335816752
 40
1.0
 40
1.0
 40
1.0
 40
1.0
 10
-13.832692484
 20
-13.0078778606
 30
0.0
 10
-13.8457734442
 20
-13.108520609
 30
0.0
 10
-13.8876300683
 20
-13.2982895074
 30
0.0
 10
-14.0090963192
 20
-13.55022428
 30
0.0
 10
-14.1842175168
 20
-13.7435554507
 30
0.0
 10
-14.407080139
 20
-13.8667512139
 30
0.0
 10
-14.6652371295
 20
-13.9132944071
 30
0.0
 10
-14.8934172463
 20
-13.8897969265
 30
0.0
 10
-15.0817544198
 20
-13.8380501386
 30
0.0
 10
-15.2840283961
 20
-13.7596061714
 30
0.0
 10
-15.5389765016
 20
-13.6169028772
 30
0.0
 10
-15.8324922373
 20
-13.3891287099
 30
0.0
 10
-16.2105793723
 20
-13.0083566836
 30
0.0
 10
-16.6066970966
 20
-12.4393075517
 30
0.0
 10
-16.8757513258
 20
-11.8029633432
 30
0.0
 10
-16.990714338
 20
-11.2879845984
 30
0.0
 10
-17.0117472707
 20
-11.0376184999
 30
0.0
 10
-17.0117472707
 20
-10.9171728976
 30
0.0
  0
SPLINE
  5
32F
100
AcDbEntity
  8
0
100
AcDbSpline
 62
250
  6
CONTINUOUS
 70
0
 71
3
 72
15
 73
11
 74
0
 42
0.0000001
 43
0.0000001
 44
0.0000000001
 40
0.0
 40
0.0
 40
0.0
 40
0.0
 40
0.1487810167
 40
0.2836603685
 40
0.4059599658
 40
0.5193429988
 40
0.6294508206
 40
0.7428308744
 40
0.8651441691
 40
1.0
 40
1.0
 40
1.0
 40
1.0
 10
-17.0117472707
 20
-10.9171728976
 30
0.0
 10
-17.0117472707
 20
-10.8147937759
 30
0.0
 10
-16.9977710333
 20
-10.6190908863
 30
0.0
 10
-16.9278173121
 20
-10.3467912419
 30
0.0
 10
-16.8104320503
 20
-10.1175497408
 30
0.0
 10
-16.647353687
 20
-9.9397253077
 30
0.0
 10
-16.4433928662
 20
-9.8219568182
 30
0.0
 10
-16.2078349693
 20
-9.7696070196
 30
0.0
 10
-15.9506988693
 20
-9.7825592533
 30
0.0
 10
-15.7789385435
 20
-9.8304991104
 30
0.0
 10
-15.6920108211
 20
-9.8629774296
 30
0.0
  0
SPLINE
  5
330
100
AcDbEntity
  8
0
100
AcDbSpline
 62
250
  6
CONTINUOUS
 70
0
 71
3
 72
15
 73
11
 74
0
 42
0.0000001
 43
0.0000001
 44
0.0000000001
 40
0.0
 40
0.0
 40
0.0
 40
0.0
 40
0.1099876105
 40
0.2306440605
 40
0.3594589313
 40
0.4930672279
 40
0.6276561442
 40
0.7593251165
 40
0.8844384861
 40
1.0
 40
1.0
 40
1.0
 40
1.0
 10
-15.5816718374
 20
-9.908759949
 30
0.0
 10
-15.4647253465
 20
-9.9620747887
 30
0.0
 10
-15.2310368877
 20
-10.0998892441
 30
0.0
 10
-14.9072125816
 20
-10.3695853899
 30
0.0
 10
-14.6049995125
 20
-10.7015993458
 30
0.0
 10
-14.3372580477
 20
-11.081859115
 30
0.0
 10
-14.1152462193
 20
-11.4942756918
 30
0.0
 10
-13.9484007933
 20
-11.9214104688
 30
0.0
 10
-13.8437851415
 20
-12.3450382315
 30
0.0
 10
-13.8173164484
 20
-12.6265577484
 30
0.0
 10
-13.8173164484
 20
-12.7615972187
 30
0.0
  0
SPLINE
  5
331
100
AcDbEntity
  8
RACCORDO
100
AcDbSpline
 62
250
  6
CONTINUOUS
 70
0
 71
3
 72
9
 73
5
 74
0
 42
0.0000001
 43
0.0000001
 44
0.0000000001
 40
0.0
 40
0.0
 40
0.0
 40
0.0
 40
0.4477517685
 40
1.0
 40
1.0
 40
1.0
 40
1.0
 10
8.1363661794
 20
-20.0350902311
 30
0.0
 10
8.1503966653
 20
-20.0275417476
 30
0.0
 10
8.174972834
 20
-19.9980264247
 30
0.0
 10
8.1802492484
 20
-19.9616738224
 30
0.0
 10
8.1805487944
 20
-19.9420256766
 30
0.0
  0
SPLINE
  5
332
100
AcDbEntity
  8
RACCORDO
100
AcDbSpline
 62
250
  6
CONTINUOUS
 70
0
 71
3
 72
9
 73
5
 74
0
 42
0.0000001
 43
0.0000001
 44
0.0000000001
 40
0.0
 40
0.0
 40
0.0
 40
0.0
 40
0.4533211276
 40
1.0
 40
1.0
 40
1.0
 40
1.0
 10
5.4832062701
 20
-20.030031478
 30
0.0
 10
5.4719450357
 20
-20.024072202
 30
0.0
 10
5.451562866
 20
-20.0021731342
 30
0.0
 10
5.4446685439
 20
-19.9740849635
 30
0.0
 10
5.4429056985
 20
-19.9588217463
 30
0.0
  0
SPLINE
  5
333
100
AcDbEntity
  8
RACCORDO
100
AcDbSpline
 62
250
  6
CONTINUOUS
 70
0
 71
3
 72
8
 73
4
 74
0
 42
0.0000001
 43
0.0000001
 44
0.0000000001
 40
0.0
 40
0.0
 40
0.0
 40
0.0
 40
1.0
 40
1.0
 40
1.0
 40
1.0
 10
5.4429056985
 20
-19.9588217463
 30
0.0
 10
5.4421262933
 20
-19.9520734346
 30
0.0
 10
5.4417735802
 20
-19.9452666062
 30
0.0
 10
5.4417783469
 20
-19.938473436
 30
0.0
  0
SPLINE
  5
334
100
AcDbEntity
  8
0
100
AcDbSpline
 62
250
  6
CONTINUOUS
 70
0
 71
3
 72
22
 73
18
 74
0
 42
0.0000001
 43
0.0000001
 44
0.0000000001
 40
0.0
 40
0.0
 40
0.0
 40
0.0
 40
0.0559650826
 40
0.106279003
 40
0.1525772013
 40
0.1975018893
 40
0.2441281687
 40
0.2950105496
 40
0.3225952949
 40
0.3517016948
 40
0.414451907
 40
0.4828868022
 40
0.5559545954
 40
0.7096795421
 40
0.8620719709
 40
0.9335816752
 40
1.0
 40
1.0
 40
1.0
 40
1.0
 10
0.3094431397
 20
-21.1733697272
 30
0.0
 10
0.2963621795
 20
-21.2740124756
 30
0.0
 10
0.2545055554
 20
-21.4637813739
 30
0.0
 10
0.1330393045
 20
-21.7157161466
 30
0.0
 10
-0.0420818931
 20
-21.9090473173
 30
0.0
 10
-0.2649445153
 20
-22.0322430805
 30
0.0
 10
-0.5231015057
 20
-22.0787862737
 30
0.0
 10
-0.7512816226
 20
-22.0552887931
 30
0.0
 10
-0.939618796
 20
-22.0035420052
 30
0.0
 10
-1.1418927724
 20
-21.925098038
 30
0.0
 10
-1.3968408778
 20
-21.7823947437
 30
0.0
 10
-1.6903566136
 20
-21.5546205764
 30
0.0
 10
-2.0684437485
 20
-21.1738485501
 30
0.0
 10
-2.4645614729
 20
-20.6047994183
 30
0.0
 10
-2.7336157021
 20
-19.9684552098
 30
0.0
 10
-2.8485787142
 20
-19.453476465
 30
0.0
 10
-2.869611647
 20
-19.2031103664
 30
0.0
 10
-2.869611647
 20
-19.0826647641
 30
0.0
  0
SPLINE
  5
335
100
AcDbEntity
  8
RACCORDO
100
AcDbSpline
 62
250
  6
CONTINUOUS
 70
0
 71
3
 72
11
 73
7
 74
0
 42
0.0000001
 43
0.0000001
 44
0.0000000001
 40
0.0
 40
0.0
 40
0.0
 40
0.0
 40
0.2180838768
 40
0.4510978229
 40
0.7100961395
 40
1.0
 40
1.0
 40
1.0
 40
1.0
 10
17.3178863537
 20
-2.4499037597
 30
0.0
 10
17.2228088826
 20
-2.3950342157
 30
0.0
 10
17.0047098464
 20
-2.3155650132
 30
0.0
 10
16.6424797766
 20
-2.3061609929
 30
0.0
 10
16.2564229433
 20
-2.3991037529
 30
0.0
 10
16.0052597321
 20
-2.5185303622
 30
0.0
 10
15.8788117358
 20
-2.5913667572
 30
0.0
  0
SPLINE
  5
336
100
AcDbEntity
  8
0
100
AcDbSpline
 62
250
  6
CONTINUOUS
 70
0
 71
3
 72
15
 73
11
 74
0
 42
0.0000001
 43
0.0000001
 44
0.0000000001
 40
0.0
 40
0.0
 40
0.0
 40
0.0
 40
0.1487810167
 40
0.2836603685
 40
0.4059599658
 40
0.5193429988
 40
0.6294508206
 40
0.7428308744
 40
0.8651441691
 40
1.0
 40
1.0
 40
1.0
 40
1.0
 10
-2.869611647
 20
-19.0826647641
 30
0.0
 10
-2.869611647
 20
-18.9802856424
 30
0.0
 10
-2.8556354095
 20
-18.7845827528
 30
0.0
 10
-2.7856816884
 20
-18.5122831084
 30
0.0
 10
-2.6682964266
 20
-18.2830416073
 30
0.0
 10
-2.5052180633
 20
-18.1052171742
 30
0.0
 10
-2.3012572424
 20
-17.9874486847
 30
0.0
 10
-2.0656993455
 20
-17.9350988862
 30
0.0
 10
-1.8085632455
 20
-17.9480511199
 30
0.0
 10
-1.6368029198
 20
-17.9959909769
 30
0.0
 10
-1.5498751974
 20
-18.0284692962
 30
0.0
  0
SPLINE
  5
337
100
AcDbEntity
  8
0
100
AcDbSpline
 62
250
  6
CONTINUOUS
 70
0
 71
3
 72
15
 73
11
 74
0
 42
0.0000001
 43
0.0000001
 44
0.0000000001
 40
0.0
 40
0.0
 40
0.0
 40
0.0
 40
0.1099876105
 40
0.2306440605
 40
0.3594589313
 40
0.4930672279
 40
0.6276561442
 40
0.7593251165
 40
0.8844384861
 40
1.0
 40
1.0
 40
1.0
 40
1.0
 10
-1.4395362137
 20
-18.0742518155
 30
0.0
 10
-1.3225897228
 20
-18.1275666553
 30
0.0
 10
-1.0889012639
 20
-18.2653811106
 30
0.0
 10
-0.7650769579
 20
-18.5350772564
 30
0.0
 10
-0.4628638887
 20
-18.8670912123
 30
0.0
 10
-0.1951224239
 20
-19.2473509816
 30
0.0
 10
0.0268894044
 20
-19.6597675584
 30
0.0
 10
0.1937348304
 20
-20.0869023354
 30
0.0
 10
0.2983504822
 20
-20.5105300981
 30
0.0
 10
0.3248191753
 20
-20.792049615
 30
0.0
 10
0.3248191753
 20
-20.9270890853
 30
0.0
  0
SPLINE
  5
338
100
AcDbEntity
  8
0
100
AcDbSpline
 62
250
  6
CONTINUOUS
 70
0
 71
3
 72
22
 73
18
 74
0
 42
0.0000001
 43
0.0000001
 44
0.0000000001
 40
0.0
 40
0.0
 40
0.0
 40
0.0
 40
0.0559650826
 40
0.106279003
 40
0.1525772013
 40
0.1975018893
 40
0.2441281687
 40
0.2950105496
 40
0.3225952949
 40
0.3517016948
 40
0.414451907
 40
0.4828868022
 40
0.5559545954
 40
0.7096795421
 40
0.8620719709
 40
0.9335816752
 40
1.0
 40
1.0
 40
1.0
 40
1.0
 10
3.8449770456
 20
-23.2147426938
 30
0.0
 10
3.8318960855
 20
-23.3153854422
 30
0.0
 10
3.7900394613
 20
-23.5051543406
 30
0.0
 10
3.6685732105
 20
-23.7570891132
 30
0.0
 10
3.4934520129
 20
-23.9504202839
 30
0.0
 10
3.2705893907
 20
-24.0736160471
 30
0.0
 10
3.0124324002
 20
-24.1201592403
 30
0.0
 10
2.7842522834
 20
-24.0966617597
 30
0.0
 10
2.5959151099
 20
-24.0449149718
 30
0.0
 10
2.3936411335
 20
-23.9664710046
 30
0.0
 10
2.1386930281
 20
-23.8237677104
 30
0.0
 10
1.8451772923
 20
-23.5959935431
 30
0.0
 10
1.4670901574
 20
-23.2152215168
 30
0.0
 10
1.0709724331
 20
-22.6461723849
 30
0.0
 10
0.8019182039
 20
-22.0098281764
 30
0.0
 10
0.6869551917
 20
-21.4948494316
 30
0.0
 10
0.6659222589
 20
-21.2444833331
 30
0.0
 10
0.665922259
 20
-21.1240377308
 30
0.0
  0
SPLINE
  5
339
100
AcDbEntity
  8
0
100
AcDbSpline
 62
250
  6
CONTINUOUS
 70
0
 71
3
 72
15
 73
11
 74
0
 42
0.0000001
 43
0.0000001
 44
0.0000000001
 40
0.0
 40
0.0
 40
0.0
 40
0.0
 40
0.1487810167
 40
0.2836603685
 40
0.4059599658
 40
0.5193429988
 40
0.6294508206
 40
0.7428308744
 40
0.8651441691
 40
1.0
 40
1.0
 40
1.0
 40
1.0
 10
0.665922259
 20
-21.1240377308
 30
0.0
 10
0.6659222589
 20
-21.0216586091
 30
0.0
 10
0.6798984964
 20
-20.8259557195
 30
0.0
 10
0.7498522176
 20
-20.5536560751
 30
0.0
 10
0.8672374794
 20
-20.3244145739
 30
0.0
 10
1.0303158426
 20
-20.1465901409
 30
0.0
 10
1.2342766635
 20
-20.0288216514
 30
0.0
 10
1.4698345604
 20
-19.9764718528
 30
0.0
 10
1.7269706604
 20
-19.9894240865
 30
0.0
 10
1.8987309862
 20
-20.0373639436
 30
0.0
 10
1.9856587085
 20
-20.0698422628
 30
0.0
  0
SPLINE
  5
33A
100
AcDbEntity
  8
0
100
AcDbSpline
 62
250
  6
CONTINUOUS
 70
0
 71
3
 72
15
 73
11
 74
0
 42
0.0000001
 43
0.0000001
 44
0.0000000001
 40
0.0
 40
0.0
 40
0.0
 40
0.0
 40
0.1099876105
 40
0.2306440605
 40
0.3594589313
 40
0.4930672279
 40
0.6276561442
 40
0.7593251165
 40
0.8844384861
 40
1.0
 40
1.0
 40
1.0
 40
1.0
 10
2.0959976922
 20
-20.1156247822
 30
0.0
 10
2.2129441832
 20
-20.1689396219
 30
0.0
 10
2.446632642
 20
-20.3067540773
 30
0.0
 10
2.770456948
 20
-20.5764502231
 30
0.0
 10
3.0726700172
 20
-20.908464179
 30
0.0
 10
3.340411482
 20
-21.2887239482
 30
0.0
 10
3.5624233104
 20
-21.701140525
 30
0.0
 10
3.7292687364
 20
-22.128275302
 30
0.0
 10
3.8338843882
 20
-22.5519030647
 30
0.0
 10
3.8603530813
 20
-22.8334225816
 30
0.0
 10
3.8603530813
 20
-22.9684620519
 30
0.0
  0
SPLINE
  5
33B
100
AcDbEntity
  8
RACCORDO
100
AcDbSpline
 62
250
  6
CONTINUOUS
 70
0
 71
3
 72
9
 73
5
 74
0
 42
0.0000001
 43
0.0000001
 44
0.0000000001
 40
0.0
 40
0.0
 40
0.0
 40
0.0
 40
0.5256393746
 40
1.0
 40
1.0
 40
1.0
 40
1.0
 10
-22.0639141042
 20
8.4726473639
 30
0.0
 10
-21.9908936845
 20
8.4368747897
 30
0.0
 10
-21.8421683455
 20
8.3873417052
 30
0.0
 10
-21.6873403595
 20
8.3726791206
 30
0.0
 10
-21.61398334
 20
8.3708546408
 30
0.0
  0
SPLINE
  5
33C
100
AcDbEntity
  8
RACCORDO
100
AcDbSpline
 62
250
  6
CONTINUOUS
 70
0
 71
3
 72
11
 73
7
 74
0
 42
0.0000001
 43
0.0000001
 44
0.0000000001
 40
0.0
 40
0.0
 40
0.0
 40
0.0
 40
0.2194867405
 40
0.4539186497
 40
0.7127271807
 40
1.0
 40
1.0
 40
1.0
 40
1.0
 10
16.7113289494
 20
-2.0998214622
 30
0.0
 10
16.6130301275
 20
-2.0450336892
 30
0.0
 10
16.3893780337
 20
-1.9653945816
 30
0.0
 10
16.0196813855
 20
-1.9518653001
 30
0.0
 10
15.6253849389
 20
-2.0375872989
 30
0.0
 10
15.3676669986
 20
-2.1514884169
 30
0.0
 10
15.2380121886
 20
-2.2213771297
 30
0.0
  0
SPLINE
  5
33D
100
AcDbEntity
  8
RACCORDO
100
AcDbSpline
 62
250
  6
CONTINUOUS
 70
0
 71
3
 72
15
 73
11
 74
0
 42
0.0000001
 43
0.0000001
 44
0.0000000001
 40
0.0
 40
0.0
 40
0.0
 40
0.0
 40
0.1448963955
 40
0.2745186309
 40
0.3911060406
 40
0.4999888421
 40
0.6088736614
 40
0.725466374
 40
0.8550959343
 40
1.0
 40
1.0
 40
1.0
 40
1.0
 10
-21.3507223627
 20
16.4048067516
 30
0.0
 10
-21.3507190675
 20
16.4301449549
 30
0.0
 10
-21.346895975
 20
16.4783182939
 30
0.0
 10
-21.3273790963
 20
16.5444899671
 30
0.0
 10
-21.2945129684
 20
16.5982246849
 30
0.0
 10
-21.2488880448
 20
16.6365986125
 30
0.0
 10
-21.1928396853
 20
16.6569178643
 30
0.0
 10
-21.1298684326
 20
16.6585080858
 30
0.0
 10
-21.0628012895
 20
16.6423193923
 30
0.0
 10
-21.0191688018
 20
16.621541042
 30
0.0
 10
-20.99722282
 20
16.6088735083
 30
0.0
  0
SPLINE
  5
33E
100
AcDbEntity
  8
RACCORDO
100
AcDbSpline
 62
250
  6
CONTINUOUS
 70
0
 71
3
 72
11
 73
7
 74
0
 42
0.0000001
 43
0.0000001
 44
0.0000000001
 40
0.0
 40
0.0
 40
0.0
 40
0.0
 40
0.2372209951
 40
0.5000060655
 40
0.7627878696
 40
1.0
 40
1.0
 40
1.0
 40
1.0
 10
4.3102947246
 20
1.9966300557
 30
0.0
 10
4.3604732503
 20
1.9676489044
 30
0.0
 10
4.4554557161
 20
1.8877307168
 30
0.0
 10
4.5663068261
 20
1.7362481146
 30
0.0
 10
4.6420685865
 20
1.5645090779
 30
0.0
 10
4.6637867403
 20
1.4422951764
 30
0.0
 10
4.6637942673
 20
1.384350888
 30
0.0
  0
SPLINE
  5
33F
100
AcDbEntity
  8
RACCORDO
100
AcDbSpline
 62
250
  6
CONTINUOUS
 70
0
 71
3
 72
9
 73
5
 74
0
 42
0.0000001
 43
0.0000001
 44
0.0000000001
 40
0.0
 40
0.0
 40
0.0
 40
0.0
 40
0.4546769614
 40
1.0
 40
1.0
 40
1.0
 40
1.0
 10
-22.0332531119
 20
-4.1459921319
 30
0.0
 10
-22.0427814871
 20
-4.1396608997
 30
0.0
 10
-22.0592068785
 20
-4.1186455344
 30
0.0
 10
-22.0635664495
 20
-4.0931586947
 30
0.0
 10
-22.0641891702
 20
-4.0794520688
 30
0.0
  0
SPLINE
  5
340
100
AcDbEntity
  8
RACCORDO
100
AcDbSpline
 62
250
  6
CONTINUOUS
 70
0
 71
3
 72
8
 73
4
 74
0
 42
0.0000001
 43
0.0000001
 44
0.0000000001
 40
0.0
 40
0.0
 40
0.0
 40
0.0
 40
1.0
 40
1.0
 40
1.0
 40
1.0
 10
-22.0641891702
 20
-4.0794520688
 30
0.0
 10
-22.0644668671
 20
-4.073339719
 30
0.0
 10
-22.0643632712
 20
-4.0672021928
 30
0.0
 10
-22.0639472263
 20
-4.0610976992
 30
0.0
  0
SPLINE
  5
341
100
AcDbEntity
  8
0
100
AcDbSpline
 62
250
  6
CONTINUOUS
 70
0
 71
3
 72
11
 73
7
 74
0
 42
0.0000001
 43
0.0000001
 44
0.0000000001
 40
0.0
 40
0.0
 40
0.0
 40
0.0
 40
0.2893534497
 40
0.5487533609
 40
0.7822421473
 40
1.0
 40
1.0
 40
1.0
 40
1.0
 10
-19.8340578859
 20
-8.8722061528
 30
0.0
 10
-19.8340578859
 20
-8.7843992836
 30
0.0
 10
-19.8209624461
 20
-8.6173254497
 30
0.0
 10
-19.7543909274
 20
-8.3873631006
 30
0.0
 10
-19.6424898005
 20
-8.199739577
 30
0.0
 10
-19.5371149429
 20
-8.1077477948
 30
0.0
 10
-19.4806060947
 20
-8.0734930253
 30
0.0
  0
SPLINE
  5
342
100
AcDbEntity
  8
RACCORDO
100
AcDbSpline
 62
250
  6
CONTINUOUS
 70
0
 71
3
 72
9
 73
5
 74
0
 42
0.0000001
 43
0.0000001
 44
0.0000000001
 40
0.0
 40
0.0
 40
0.0
 40
0.0
 40
0.5151508838
 40
1.0
 40
1.0
 40
1.0
 40
1.0
 10
4.9270507232
 20
-6.95360579
 30
0.0
 10
4.9970707002
 20
-7.0327132946
 30
0.0
 10
5.1372414265
 20
-7.1824640017
 30
0.0
 10
5.294232762
 20
-7.3163744001
 30
0.0
 10
5.3770360556
 20
-7.3714202269
 30
0.0
  0
SPLINE
  5
343
100
AcDbEntity
  8
0
100
AcDbSpline
 62
250
  6
CONTINUOUS
 70
0
 71
3
 72
17
 73
13
 74
0
 42
0.0000001
 43
0.0000001
 44
0.0000000001
 40
0.0
 40
0.0
 40
0.0
 40
0.0
 40
0.04286573
 40
0.0876173277
 40
0.1356378095
 40
0.1878026483
 40
0.3053928855
 40
0.4391708007
 40
0.5834038601
 40
0.730297471
 40
0.8715691264
 40
1.0
 40
1.0
 40
1.0
 40
1.0
 10
3.4914184804
 20
-23.3679021369
 30
0.0
 10
3.4476805285
 20
-23.3919262083
 30
0.0
 10
3.3515092103
 20
-23.429573819
 30
0.0
 10
3.1935722323
 20
-23.4498752413
 30
0.0
 10
3.0243598745
 20
-23.4350053521
 30
0.0
 10
2.7789912514
 20
-23.3668416769
 30
0.0
 10
2.4660758197
 20
-23.1927952857
 30
0.0
 10
2.1207210152
 20
-22.884136375
 30
0.0
 10
1.8158650819
 20
-22.4914143613
 30
0.0
 10
1.5761868271
 20
-22.0460749047
 30
0.0
 10
1.4207466717
 20
-21.5842844077
 30
0.0
 10
1.3791455498
 20
-21.2699549802
 30
0.0
 10
1.3791455497
 20
-21.1204439526
 30
0.0
  0
SPLINE
  5
344
100
AcDbEntity
  8
0
100
AcDbSpline
 62
250
  6
CONTINUOUS
 70
0
 71
3
 72
17
 73
13
 74
0
 42
0.0000001
 43
0.0000001
 44
0.0000000001
 40
0.0
 40
0.0
 40
0.0
 40
0.0
 40
0.04286573
 40
0.0876173277
 40
0.1356378095
 40
0.1878026483
 40
0.3053928855
 40
0.4391708007
 40
0.5834038601
 40
0.730297471
 40
0.8715691264
 40
1.0
 40
1.0
 40
1.0
 40
1.0
 10
-0.0441154255
 20
-21.3265291702
 30
0.0
 10
-0.0878533775
 20
-21.3505532417
 30
0.0
 10
-0.1840246957
 20
-21.3882008524
 30
0.0
 10
-0.3419616736
 20
-21.4085022747
 30
0.0
 10
-0.5111740314
 20
-21.3936323855
 30
0.0
 10
-0.7565426546
 20
-21.3254687103
 30
0.0
 10
-1.0694580862
 20
-21.151422319
 30
0.0
 10
-1.4148128908
 20
-20.8427634084
 30
0.0
 10
-1.719668824
 20
-20.4500413947
 30
0.0
 10
-1.9593470789
 20
-20.004701938
 30
0.0
 10
-2.1147872343
 20
-19.5429114411
 30
0.0
 10
-2.1563883561
 20
-19.2285820136
 30
0.0
 10
-2.1563883562
 20
-19.0790709859
 30
0.0
  0
SPLINE
  5
345
100
AcDbEntity
  8
0
100
AcDbSpline
 62
250
  6
CONTINUOUS
 70
0
 71
3
 72
11
 73
7
 74
0
 42
0.0000001
 43
0.0000001
 44
0.0000000001
 40
0.0
 40
0.0
 40
0.0
 40
0.0
 40
0.2893534497
 40
0.5487533609
 40
0.7822421473
 40
1.0
 40
1.0
 40
1.0
 40
1.0
 10
-16.2985239799
 20
-10.9135791194
 30
0.0
 10
-16.29852398
 20
-10.8257722503
 30
0.0
 10
-16.2854285401
 20
-10.6586984164
 30
0.0
 10
-16.2188570215
 20
-10.4287360672
 30
0.0
 10
-16.1069558946
 20
-10.2411125437
 30
0.0
 10
-16.001581037
 20
-10.1491207615
 30
0.0
 10
-15.9450721887
 20
-10.1148659919
 30
0.0
  0
SPLINE
  5
346
100
AcDbEntity
  8
0
100
AcDbSpline
 62
250
  6
CONTINUOUS
 70
0
 71
3
 72
17
 73
13
 74
0
 42
0.0000001
 43
0.0000001
 44
0.0000000001
 40
0.0
 40
0.0
 40
0.0
 40
0.0
 40
0.04286573
 40
0.0876173277
 40
0.1356378095
 40
0.1878026483
 40
0.3053928855
 40
0.4391708007
 40
0.5834038601
 40
0.730297471
 40
0.8715691264
 40
1.0
 40
1.0
 40
1.0
 40
1.0
 10
-14.1862510493
 20
-13.1610373037
 30
0.0
 10
-14.2299890012
 20
-13.1850613751
 30
0.0
 10
-14.3261603194
 20
-13.2227089858
 30
0.0
 10
-14.4840972974
 20
-13.2430104081
 30
0.0
 10
-14.6533096552
 20
-13.2281405189
 30
0.0
 10
-14.8986782783
 20
-13.1599768437
 30
0.0
 10
-15.21159371
 20
-12.9859304525
 30
0.0
 10
-15.5569485145
 20
-12.6772715418
 30
0.0
 10
-15.8618044478
 20
-12.2845495281
 30
0.0
 10
-16.1014827026
 20
-11.8392100715
 30
0.0
 10
-16.256922858
 20
-11.3774195745
 30
0.0
 10
-16.2985239798
 20
-11.0630901471
 30
0.0
 10
-16.2985239799
 20
-10.9135791194
 30
0.0
  0
SPLINE
  5
347
100
AcDbEntity
  8
0
100
AcDbSpline
 62
250
  6
CONTINUOUS
 70
0
 71
3
 72
11
 73
7
 74
0
 42
0.0000001
 43
0.0000001
 44
0.0000000001
 40
0.0
 40
0.0
 40
0.0
 40
0.0
 40
0.2893534497
 40
0.5487533609
 40
0.7822421473
 40
1.0
 40
1.0
 40
1.0
 40
1.0
 10
-2.1563883562
 20
-19.0790709859
 30
0.0
 10
-2.1563883563
 20
-18.9912641168
 30
0.0
 10
-2.1432929164
 20
-18.8241902829
 30
0.0
 10
-2.0767213977
 20
-18.5942279338
 30
0.0
 10
-1.9648202709
 20
-18.4066044102
 30
0.0
 10
-1.8594454133
 20
-18.314612628
 30
0.0
 10
-1.802936565
 20
-18.2803578585
 30
0.0
  0
SPLINE
  5
348
100
AcDbEntity
  8
0
100
AcDbSpline
 62
250
  6
CONTINUOUS
 70
0
 71
3
 72
17
 73
13
 74
0
 42
0.0000001
 43
0.0000001
 44
0.0000000001
 40
0.0
 40
0.0
 40
0.0
 40
0.0
 40
0.04286573
 40
0.0876173277
 40
0.1356378095
 40
0.1878026483
 40
0.3053928855
 40
0.4391708007
 40
0.5834038601
 40
0.730297471
 40
0.8715691264
 40
1.0
 40
1.0
 40
1.0
 40
1.0
 10
-17.7217849552
 20
-11.119664337
 30
0.0
 10
-17.7655229071
 20
-11.1436884085
 30
0.0
 10
-17.8616942253
 20
-11.1813360192
 30
0.0
 10
-18.0196312033
 20
-11.2016374415
 30
0.0
 10
-18.1888435611
 20
-11.1867675523
 30
0.0
 10
-18.4342121842
 20
-11.1186038771
 30
0.0
 10
-18.7471276159
 20
-10.9445574858
 30
0.0
 10
-19.0924824204
 20
-10.6358985752
 30
0.0
 10
-19.3973383537
 20
-10.2431765615
 30
0.0
 10
-19.6370166085
 20
-9.7978371049
 30
0.0
 10
-19.7924567639
 20
-9.3360466079
 30
0.0
 10
-19.8340578858
 20
-9.0217171804
 30
0.0
 10
-19.8340578859
 20
-8.8722061528
 30
0.0
  0
SPLINE
  5
349
100
AcDbEntity
  8
0
100
AcDbSpline
 62
250
  6
CONTINUOUS
 70
0
 71
3
 72
11
 73
7
 74
0
 42
0.0000001
 43
0.0000001
 44
0.0000000001
 40
0.0
 40
0.0
 40
0.0
 40
0.0
 40
0.2893534497
 40
0.5487533609
 40
0.7822421473
 40
1.0
 40
1.0
 40
1.0
 40
1.0
 10
1.3791455497
 20
-21.1204439526
 30
0.0
 10
1.3791455497
 20
-21.0326370834
 30
0.0
 10
1.3922409895
 20
-20.8655632495
 30
0.0
 10
1.4588125082
 20
-20.6356009004
 30
0.0
 10
1.5707136351
 20
-20.4479773769
 30
0.0
 10
1.6760884927
 20
-20.3559855947
 30
0.0
 10
1.7325973409
 20
-20.3217308251
 30
0.0
  0
SPLINE
  5
34A
100
AcDbEntity
  8
RACCORDO
100
AcDbSpline
 62
250
  6
CONTINUOUS
 70
0
 71
3
 72
11
 73
7
 74
0
 42
0.0000001
 43
0.0000001
 44
0.0000000001
 40
0.0
 40
0.0
 40
0.0
 40
0.0
 40
0.2177907002
 40
0.4509237937
 40
0.71029784
 40
1.0
 40
1.0
 40
1.0
 40
1.0
 10
-21.7900618429
 20
17.0172186727
 30
0.0
 10
-21.7900669313
 20
16.9600808956
 30
0.0
 10
-21.7689441743
 20
16.8409885341
 30
0.0
 10
-21.6786695423
 20
16.675058421
 30
0.0
 10
-21.5359567456
 20
16.5250598494
 30
0.0
 10
-21.4165425882
 20
16.4428105302
 30
0.0
 10
-21.3507223627
 20
16.4048067516
 30
0.0
  0
SPLINE
  5
34B
100
AcDbEntity
  8
RACCORDO
100
AcDbSpline
 62
250
  6
CONTINUOUS
 70
0
 71
3
 72
10
 73
6
 74
0
 42
0.0000001
 43
0.0000001
 44
0.0000000001
 40
0.0
 40
0.0
 40
0.0
 40
0.0
 40
0.5105129941
 40
0.7699091544
 40
1.0
 40
1.0
 40
1.0
 40
1.0
 10
5.5128585637
 20
-7.143469946
 30
0.0
 10
5.4749671422
 20
-7.1699549199
 30
0.0
 10
5.4278735595
 20
-7.225020918
 30
0.0
 10
5.3887537546
 20
-7.3068331788
 30
0.0
 10
5.3784350481
 20
-7.3506202529
 30
0.0
 10
5.3770178486
 20
-7.3714081043
 30
0.0
  0
SPLINE
  5
34C
100
AcDbEntity
  8
RACCORDO
100
AcDbSpline
 62
250
  6
CONTINUOUS
 70
0
 71
3
 72
11
 73
7
 74
0
 42
0.0000001
 43
0.0000001
 44
0.0000000001
 40
0.0
 40
0.0
 40
0.0
 40
0.0
 40
0.2381216353
 40
0.5017138784
 40
0.7643785311
 40
1.0
 40
1.0
 40
1.0
 40
1.0
 10
5.4417747901
 20
-7.4096054515
 30
0.0
 10
5.4417586691
 20
-7.3866283175
 30
0.0
 10
5.4498385667
 20
-7.3381858325
 30
0.0
 10
5.4780519257
 20
-7.2695144751
 30
0.0
 10
5.5194753424
 20
-7.2081971088
 30
0.0
 10
5.5552152041
 20
-7.1749576243
 30
0.0
 10
5.5742544842
 20
-7.1625307773
 30
0.0
  0
SPLINE
  5
34D
100
AcDbEntity
  8
RACCORDO
100
AcDbSpline
 62
250
  6
CONTINUOUS
 70
0
 71
3
 72
9
 73
5
 74
0
 42
0.0000001
 43
0.0000001
 44
0.0000000001
 40
0.0
 40
0.0
 40
0.0
 40
0.0
 40
0.4996903121
 40
1.0
 40
1.0
 40
1.0
 40
1.0
 10
5.5128585392
 20
-7.1434693061
 30
0.0
 10
5.4195440077
 20
-7.1112435848
 30
0.0
 10
5.2382048294
 20
-7.0310497788
 30
0.0
 10
5.0667186942
 20
-6.9323514563
 30
0.0
 10
4.9835948619
 20
-6.8788659129
 30
0.0
  0
SPLINE
  5
34E
100
AcDbEntity
  8
RACCORDO
100
AcDbSpline
 62
250
  6
CONTINUOUS
 70
0
 71
3
 72
9
 73
5
 74
0
 42
0.0000001
 43
0.0000001
 44
0.0000000001
 40
0.0
 40
0.0
 40
0.0
 40
0.0
 40
0.2509408257
 40
1.0
 40
1.0
 40
1.0
 40
1.0
 10
4.6638399524
 20
-6.6411916465
 30
0.0
 10
4.6855372313
 20
-6.6675909866
 30
0.0
 10
4.7719798066
 20
-6.77280352
 30
0.0
 10
4.8594491405
 20
-6.8772219425
 30
0.0
 10
4.9270507232
 20
-6.95360579
 30
0.0
  0
SPLINE
  5
34F
100
AcDbEntity
  8
RACCORDO
100
AcDbSpline
 62
250
  6
CONTINUOUS
 70
0
 71
3
 72
9
 73
5
 74
0
 42
0.0000001
 43
0.0000001
 44
0.0000000001
 40
0.0
 40
0.0
 40
0.0
 40
0.0
 40
0.2532042191
 40
1.0
 40
1.0
 40
1.0
 40
1.0
 10
4.9270552446
 20
-19.8033597039
 30
0.0
 10
4.9048314023
 20
-19.8028025998
 30
0.0
 10
4.8170071889
 20
-19.8024044467
 30
0.0
 10
4.72929927
 20
-19.8076984103
 30
0.0
 10
4.6638618288
 20
-19.8118210085
 30
0.0
  0
SPLINE
  5
350
100
AcDbEntity
  8
RACCORDO
100
AcDbSpline
 62
250
  6
CONTINUOUS
 70
0
 71
3
 72
9
 73
5
 74
0
 42
0.0000001
 43
0.0000001
 44
0.0000000001
 40
0.0
 40
0.0
 40
0.0
 40
0.0
 40
0.2392639032
 40
1.0
 40
1.0
 40
1.0
 40
1.0
 10
4.6637942673
 20
-19.8118247363
 30
0.0
 10
4.6889508123
 20
-19.819368786
 30
0.0
 10
4.7945902722
 20
-19.8492495279
 30
0.0
 10
4.9017966984
 20
-19.8732814287
 30
0.0
 10
4.9836056318
 20
-19.8900210594
 30
0.0
  0
SPLINE
  5
351
100
AcDbEntity
  8
RACCORDO
100
AcDbSpline
 62
250
  6
CONTINUOUS
 70
0
 71
3
 72
9
 73
5
 74
0
 42
0.0000001
 43
0.0000001
 44
0.0000000001
 40
0.0
 40
0.0
 40
0.0
 40
0.0
 40
0.2437524746
 40
1.0
 40
1.0
 40
1.0
 40
1.0
 10
4.983605448
 20
-19.890021424
 30
0.0
 10
5.0042569953
 20
-19.8942459315
 30
0.0
 10
5.0890626743
 20
-19.9111765289
 30
0.0
 10
5.1740861262
 20
-19.926982733
 30
0.0
 10
5.2382876981
 20
-19.9394386104
 30
0.0
  0
SPLINE
  5
352
100
AcDbEntity
  8
RACCORDO
100
AcDbSpline
 62
250
  6
CONTINUOUS
 70
0
 71
3
 72
9
 73
5
 74
0
 42
0.0000001
 43
0.0000001
 44
0.0000000001
 40
0.0
 40
0.0
 40
0.0
 40
0.0
 40
0.5492787449
 40
1.0
 40
1.0
 40
1.0
 40
1.0
 10
15.2380121886
 20
-2.2213771297
 30
0.0
 10
15.2221025228
 20
-2.211870501
 30
0.0
 10
15.1901448223
 20
-2.1980583534
 30
0.0
 10
15.1542147497
 20
-2.2027264769
 30
0.0
 10
15.1408189626
 20
-2.2099263853
 30
0.0
  0
SPLINE
  5
353
100
AcDbEntity
  8
RACCORDO
100
AcDbSpline
 62
7
  6
CONTINUOUS
 70
0
 71
3
 72
11
 73
7
 74
0
 42
0.0000001
 43
0.0000001
 44
0.0000000001
 40
0.0
 40
0.0
 40
0.0
 40
0.0
 40
0.2372211777
 40
0.5000061073
 40
0.7627877124
 40
1.0
 40
1.0
 40
1.0
 40
1.0
 10
12.0212327896
 20
-4.8186921415
 30
0.0
 10
12.0413057275
 20
-4.8302820043
 30
0.0
 10
12.0792965444
 20
-4.8622530203
 30
0.0
 10
12.1236381579
 20
-4.9228446197
 30
0.0
 10
12.1539409711
 20
-4.9915405369
 30
0.0
 10
12.1626326067
 20
-5.0404260718
 30
0.0
 10
12.1626326067
 20
-5.0636038086
 30
0.0
  0
SPLINE
  5
354
100
AcDbEntity
  8
RACCORDO
100
AcDbSpline
 62
250
  6
CONTINUOUS
 70
0
 71
3
 72
11
 73
7
 74
0
 42
0.0000001
 43
0.0000001
 44
0.0000000001
 40
0.0
 40
0.0
 40
0.0
 40
0.0
 40
0.2377270568
 40
0.4999940375
 40
0.7622642731
 40
1.0
 40
1.0
 40
1.0
 40
1.0
 10
16.0202115529
 20
-2.8362784243
 30
0.0
 10
16.0205541976
 20
-2.8129977008
 30
0.0
 10
16.0124182335
 20
-2.7638569865
 30
0.0
 10
15.9823082209
 20
-2.6948892455
 30
0.0
 10
15.9376348093
 20
-2.6343287262
 30
0.0
 10
15.8991451817
 20
-2.6027113598
 30
0.0
 10
15.8788117358
 20
-2.5913667572
 30
0.0
  0
SPLINE
  5
355
100
AcDbEntity
  8
RACCORDO
100
AcDbSpline
 62
250
  6
CONTINUOUS
 70
0
 71
3
 72
9
 73
5
 74
0
 42
0.0000001
 43
0.0000001
 44
0.0000000001
 40
0.0
 40
0.0
 40
0.0
 40
0.0
 40
0.5492483617
 40
1.0
 40
1.0
 40
1.0
 40
1.0
 10
17.9316004153
 20
-3.9792233591
 30
0.0
 10
17.9475089765
 20
-3.9697115949
 30
0.0
 10
17.9748098092
 20
-3.948101403
 30
0.0
 10
17.9877240179
 20
-3.9142457277
 30
0.0
 10
17.9877323835
 20
-3.8990343962
 30
0.0
  0
SPLINE
  5
356
100
AcDbEntity
  8
RACCORDO
100
AcDbSpline
 62
250
  6
CONTINUOUS
 70
0
 71
3
 72
9
 73
5
 74
0
 42
0.0000001
 43
0.0000001
 44
0.0000000001
 40
0.0
 40
0.0
 40
0.0
 40
0.0
 40
0.5492559858
 40
1.0
 40
1.0
 40
1.0
 40
1.0
 10
17.9316004153
 20
-11.9864129404
 30
0.0
 10
17.9475134688
 20
-11.9768984904
 30
0.0
 10
17.9748220887
 20
-11.9552812716
 30
0.0
 10
17.9877305636
 20
-11.9214106936
 30
0.0
 10
17.987732393
 20
-11.906195533
 30
0.0
  0
SPLINE
  5
357
100
AcDbEntity
  8
RACCORDO
100
AcDbSpline
 62
250
  6
CONTINUOUS
 70
0
 71
3
 72
9
 73
5
 74
0
 42
0.0000001
 43
0.0000001
 44
0.0000000001
 40
0.0
 40
0.0
 40
0.0
 40
0.0
 40
0.5492707628
 40
1.0
 40
1.0
 40
1.0
 40
1.0
 10
16.0202115529
 20
-15.4150051824
 30
0.0
 10
16.0204891384
 20
-15.433533573
 30
0.0
 10
16.0164714739
 20
-15.46811034
 30
0.0
 10
15.9944675727
 20
-15.4968879507
 30
0.0
 10
15.9815365808
 20
-15.5048887395
 30
0.0
  0
SPLINE
  5
358
100
AcDbEntity
  8
RACCORDO
100
AcDbSpline
 62
7
  6
CONTINUOUS
 70
0
 71
3
 72
9
 73
5
 74
0
 42
0.0000001
 43
0.0000001
 44
0.0000000001
 40
0.0
 40
0.0
 40
0.0
 40
0.0
 40
0.5501582746
 40
1.0
 40
1.0
 40
1.0
 40
1.0
 10
12.1626326067
 20
-17.8005898676
 30
0.0
 10
12.1626326067
 20
-17.8193113416
 30
0.0
 10
12.1581405979
 20
-17.8540667393
 30
0.0
 10
12.1359717049
 20
-17.8830396274
 30
0.0
 10
12.1229541918
 20
-17.8910939673
 30
0.0
  0
SPLINE
  5
359
100
AcDbEntity
  8
RACCORDO
100
AcDbSpline
 62
250
  6
CONTINUOUS
 70
0
 71
3
 72
11
 73
7
 74
0
 42
0.0000001
 43
0.0000001
 44
0.0000000001
 40
0.0
 40
0.0
 40
0.0
 40
0.0
 40
0.2367227447
 40
0.5000062456
 40
0.7632863562
 40
1.0
 40
1.0
 40
1.0
 40
1.0
 10
8.039148976
 20
-7.1178898047
 30
0.0
 10
8.0589506053
 20
-7.1297362047
 30
0.0
 10
8.0964232586
 20
-7.1620697496
 30
0.0
 10
8.1404247754
 20
-7.2226944705
 30
0.0
 10
8.1709263083
 20
-7.2911123985
 30
0.0
 10
8.1801909816
 20
-7.3397304348
 30
0.0
 10
8.1805487931
 20
-7.3628014718
 30
0.0
  0
SPLINE
  5
35A
100
AcDbEntity
  8
RACCORDO
100
AcDbSpline
 62
250
  6
CONTINUOUS
 70
0
 71
3
 72
11
 73
7
 74
0
 42
0.0000001
 43
0.0000001
 44
0.0000000001
 40
0.0
 40
0.0
 40
0.0
 40
0.0
 40
0.2367135605
 40
0.4999936014
 40
0.763277155
 40
1.0
 40
1.0
 40
1.0
 40
1.0
 10
6.7664419948
 20
-6.6279261878
 30
0.0
 10
6.7667998088
 20
-6.6509972164
 30
0.0
 10
6.7760644787
 20
-6.6996152365
 30
0.0
 10
6.806565998
 20
-6.7680331591
 30
0.0
 10
6.850567513
 20
-6.8286578907
 30
0.0
 10
6.8880401744
 20
-6.8609914498
 30
0.0
 10
6.9078418119
 20
-6.8728378549
 30
0.0
  0
SPLINE
  5
35B
100
AcDbEntity
  8
RACCORDO
100
AcDbSpline
 62
250
  6
CONTINUOUS
 70
0
 71
3
 72
9
 73
5
 74
0
 42
0.0000001
 43
0.0000001
 44
0.0000000001
 40
0.0
 40
0.0
 40
0.0
 40
0.0
 40
0.253208761
 40
1.0
 40
1.0
 40
1.0
 40
1.0
 10
-21.61398334
 20
8.3708546408
 30
0.0
 10
-21.591758969
 20
8.3703031095
 30
0.0
 10
-21.5039344869
 20
8.3698861033
 30
0.0
 10
-21.4162307014
 20
8.3752532466
 30
0.0
 10
-21.3507899242
 20
8.3793156761
 30
0.0
  0
SPLINE
  5
35C
100
AcDbEntity
  8
RACCORDO
100
AcDbSpline
 62
250
  6
CONTINUOUS
 70
0
 71
3
 72
9
 73
5
 74
0
 42
0.0000001
 43
0.0000001
 44
0.0000000001
 40
0.0
 40
0.0
 40
0.0
 40
0.0
 40
0.2608250685
 40
1.0
 40
1.0
 40
1.0
 40
1.0
 10
-21.3507223627
 20
8.3793196733
 30
0.0
 10
-21.3751352696
 20
8.3866476324
 30
0.0
 10
-21.4682632142
 20
8.4162361279
 30
0.0
 10
-21.5593766273
 20
8.4525536207
 30
0.0
 10
-21.6243082697
 20
8.4842056147
 30
0.0
  0
SPLINE
  5
35D
100
AcDbEntity
  8
RACCORDO
100
AcDbSpline
 62
250
  6
CONTINUOUS
 70
0
 71
3
 72
9
 73
5
 74
0
 42
0.0000001
 43
0.0000001
 44
0.0000000001
 40
0.0
 40
0.0
 40
0.0
 40
0.0
 40
0.4963253113
 40
1.0
 40
1.0
 40
1.0
 40
1.0
 10
-21.6243095116
 20
8.4842058741
 30
0.0
 10
-21.6836172493
 20
8.5131230197
 30
0.0
 10
-21.7993863948
 20
8.57961166
 30
0.0
 10
-21.9022281781
 20
8.6652550762
 30
0.0
 10
-21.9493254269
 20
8.7128507237
 30
0.0
  0
SPLINE
  5
35E
100
AcDbEntity
  8
RACCORDO
100
AcDbSpline
 62
250
  6
CONTINUOUS
 70
0
 71
3
 72
9
 73
5
 74
0
 42
0.0000001
 43
0.0000001
 44
0.0000000001
 40
0.0
 40
0.0
 40
0.0
 40
0.0
 40
0.5018521186
 40
1.0
 40
1.0
 40
1.0
 40
1.0
 10
-21.9493254269
 20
8.7128507237
 30
0.0
 10
-21.9864236774
 20
8.686088777
 30
0.0
 10
-22.0434875121
 20
8.6102112087
 30
0.0
 10
-22.0668120777
 20
8.5179758564
 30
0.0
 10
-22.0639486534
 20
8.4726602188
 30
0.0
  0
SPLINE
  5
35F
100
AcDbEntity
  8
RACCORDO
100
AcDbSpline
 62
250
  6
CONTINUOUS
 70
0
 71
3
 72
11
 73
7
 74
0
 42
0.0000001
 43
0.0000001
 44
0.0000000001
 40
0.0
 40
0.0
 40
0.0
 40
0.0
 40
0.2409427104
 40
0.5038702957
 40
0.7646878281
 40
1.0
 40
1.0
 40
1.0
 40
1.0
 10
-21.9807229232
 20
8.7473674192
 30
0.0
 10
-22.0012344103
 20
8.7361454495
 30
0.0
 10
-22.0401387156
 20
8.7052539851
 30
0.0
 10
-22.0858043234
 20
8.6460168596
 30
0.0
 10
-22.1169607481
 20
8.5786211446
 30
0.0
 10
-22.1258543104
 20
8.5304408687
 30
0.0
 10
-22.1258690919
 20
8.5076066236
 30
0.0
  0
SPLINE
  5
360
100
AcDbEntity
  8
RACCORDO
100
AcDbSpline
 62
250
  6
CONTINUOUS
 70
0
 71
3
 72
9
 73
5
 74
0
 42
0.0000001
 43
0.0000001
 44
0.0000000001
 40
0.0
 40
0.0
 40
0.0
 40
0.0
 40
0.5439550825
 40
1.0
 40
1.0
 40
1.0
 40
1.0
 10
-22.1258659612
 20
-4.021261607
 30
0.0
 10
-22.1258538694
 20
-4.0399917456
 30
0.0
 10
-22.1209280139
 20
-4.0751959491
 30
0.0
 10
-22.0982198832
 20
-4.1041347526
 30
0.0
 10
-22.0849390954
 20
-4.1125137936
 30
0.0
  0
SPLINE
  5
361
100
AcDbEntity
  8
RACCORDO
100
AcDbSpline
 62
250
  6
CONTINUOUS
 70
0
 71
3
 72
9
 73
5
 74
0
 42
0.0000001
 43
0.0000001
 44
0.0000000001
 40
0.0
 40
0.0
 40
0.0
 40
0.0
 40
0.2509355566
 40
1.0
 40
1.0
 40
1.0
 40
1.0
 10
-21.3507680478
 20
-4.7913135986
 30
0.0
 10
-21.3724591388
 20
-4.7649100791
 30
0.0
 10
-21.4589069849
 20
-4.6597018361
 30
0.0
 10
-21.5463689429
 20
-4.5552768107
 30
0.0
 10
-21.6139788185
 20
-4.4788992731
 30
0.0
  0
SPLINE
  5
362
100
AcDbEntity
  8
RACCORDO
100
AcDbSpline
 62
250
  6
CONTINUOUS
 70
0
 71
3
 72
9
 73
5
 74
0
 42
0.0000001
 43
0.0000001
 44
0.0000000001
 40
0.0
 40
0.0
 40
0.0
 40
0.0
 40
0.2444879433
 40
1.0
 40
1.0
 40
1.0
 40
1.0
 10
-21.6243015479
 20
-4.526951523
 30
0.0
 10
-21.6032802664
 20
-4.5497588224
 30
0.0
 10
-21.5161087073
 20
-4.6419346726
 30
0.0
 10
-21.4235841154
 20
-4.7290940281
 30
0.0
 10
-21.3507223627
 20
-4.7913688726
 30
0.0
  0
SPLINE
  5
363
100
AcDbEntity
  8
RACCORDO
100
AcDbSpline
 62
250
  6
CONTINUOUS
 70
0
 71
3
 72
11
 73
7
 74
0
 42
0.0000001
 43
0.0000001
 44
0.0000000001
 40
0.0
 40
0.0
 40
0.0
 40
0.0
 40
0.2906895643
 40
0.5501810708
 40
0.7829460955
 40
1.0
 40
1.0
 40
1.0
 40
1.0
 10
6.7664432285
 20
-27.8478022838
 30
0.0
 10
6.765246283
 20
-27.9519506995
 30
0.0
 10
6.747179509
 20
-28.1495852196
 30
0.0
 10
6.6632109891
 20
-28.4199351348
 30
0.0
 10
6.5247679963
 20
-28.6373715888
 30
0.0
 10
6.3958064995
 20
-28.7402221504
 30
0.0
 10
6.3273311772
 20
-28.7770936777
 30
0.0
  0
SPLINE
  5
364
100
AcDbEntity
  8
RACCORDO
100
AcDbSpline
 62
250
  6
CONTINUOUS
 70
0
 71
3
 72
13
 73
9
 74
0
 42
0.0000001
 43
0.0000001
 44
0.0000000001
 40
0.0
 40
0.0
 40
0.0
 40
0.0
 40
0.1139227672
 40
0.2371525337
 40
0.5000060848
 40
0.7628563102
 40
0.8860821857
 40
1.0
 40
1.0
 40
1.0
 40
1.0
 10
5.3523552923
 20
3.8229253129
 30
0.0
 10
5.4480448649
 20
3.7661800084
 30
0.0
 10
5.6371881176
 20
3.6306648738
 30
0.0
 10
5.9919479095
 20
3.2935428379
 30
0.0
 10
6.3681055103
 20
2.7765041972
 30
0.0
 10
6.6277952055
 20
2.192226568
 30
0.0
 10
6.7423653985
 20
1.7164451344
 30
0.0
 10
6.7651479821
 20
1.4848927308
 30
0.0
 10
6.7664432032
 20
1.3736552815
 30
0.0
  0
SPLINE
  5
365
100
AcDbEntity
  8
RACCORDO
100
AcDbSpline
 62
250
  6
CONTINUOUS
 70
0
 71
3
 72
11
 73
7
 74
0
 42
0.0000001
 43
0.0000001
 44
0.0000000001
 40
0.0
 40
0.0
 40
0.0
 40
0.0
 40
0.2170485371
 40
0.4498109963
 40
0.7093045051
 40
1.0
 40
1.0
 40
1.0
 40
1.0
 10
-20.9794807809
 20
18.5194437751
 30
0.0
 10
-20.9133058937
 20
18.5603196606
 30
0.0
 10
-20.759734886
 20
18.6205945274
 30
0.0
 10
-20.5021694907
 20
18.6317749243
 30
0.0
 10
-20.2260112218
 20
18.5693048291
 30
0.0
 10
-20.0457928942
 20
18.4861150541
 30
0.0
 10
-19.9549846298
 20
18.4350661792
 30
0.0
  0
SPLINE
  5
366
100
AcDbEntity
  8
RACCORDO
100
AcDbSpline
 62
250
  6
CONTINUOUS
 70
0
 71
3
 72
11
 73
7
 74
0
 42
0.0000001
 43
0.0000001
 44
0.0000000001
 40
0.0
 40
0.0
 40
0.0
 40
0.0
 40
0.2383132229
 40
0.501091585
 40
0.7632770846
 40
1.0
 40
1.0
 40
1.0
 40
1.0
 10
6.7664419948
 20
-27.8479066026
 30
0.0
 10
6.6153604005
 20
-27.9321461723
 30
0.0
 10
6.2668366513
 20
-28.054540233
 30
0.0
 10
5.7116956796
 20
-28.1114592303
 30
0.0
 10
5.1582912243
 20
-28.0492314949
 30
0.0
 10
4.8125969468
 20
-27.923228629
 30
0.0
 10
4.6637942673
 20
-27.8373118147
 30
0.0
  0
SPLINE
  5
367
100
AcDbEntity
  8
RACCORDO
100
AcDbSpline
 62
250
  6
CONTINUOUS
 70
0
 71
3
 72
9
 73
5
 74
0
 42
0.0000001
 43
0.0000001
 44
0.0000000001
 40
0.0
 40
0.0
 40
0.0
 40
0.0
 40
0.4775219423
 40
1.0
 40
1.0
 40
1.0
 40
1.0
 10
4.6638618306
 20
-19.8118638935
 30
0.0
 10
4.7600600532
 20
-19.8674073965
 30
0.0
 10
4.9748926629
 20
-19.9609549924
 30
0.0
 10
5.201817933
 20
-20.0165246173
 30
0.0
 10
5.3216536215
 20
-20.036804792
 30
0.0
  0
SPLINE
  5
368
100
AcDbEntity
  8
RACCORDO
100
AcDbSpline
 62
250
  6
CONTINUOUS
 70
0
 71
3
 72
11
 73
7
 74
0
 42
0.0000001
 43
0.0000001
 44
0.0000000001
 40
0.0
 40
0.0
 40
0.0
 40
0.0
 40
0.2394470268
 40
0.5022766112
 40
0.7638703842
 40
1.0
 40
1.0
 40
1.0
 40
1.0
 10
6.7665424006
 20
-6.6278679628
 30
0.0
 10
6.6159904039
 20
-6.7151842556
 30
0.0
 10
6.2682732365
 20
-6.8440735472
 30
0.0
 10
5.7125920391
 20
-6.9087527434
 30
0.0
 10
5.1585155282
 20
-6.8517084474
 30
0.0
 10
4.8124726597
 20
-6.7269812657
 30
0.0
 10
4.6638399532
 20
-6.6411624646
 30
0.0
  0
SPLINE
  5
369
100
AcDbEntity
  8
RACCORDO
100
AcDbSpline
 62
250
  6
CONTINUOUS
 70
0
 71
3
 72
11
 73
7
 74
0
 42
0.0000001
 43
0.0000001
 44
0.0000000001
 40
0.0
 40
0.0
 40
0.0
 40
0.0
 40
0.2383132171
 40
0.5010915789
 40
0.763277082
 40
1.0
 40
1.0
 40
1.0
 40
1.0
 10
6.7664419948
 20
1.3737561
 30
0.0
 10
6.6153604019
 20
1.2895165394
 30
0.0
 10
6.266836656
 20
1.1671224939
 30
0.0
 10
5.7116956909
 20
1.1102035063
 30
0.0
 10
5.1582912363
 20
1.172431233
 30
0.0
 10
4.8125969525
 20
1.2984340825
 30
0.0
 10
4.6637942673
 20
1.384350888
 30
0.0
  0
SPLINE
  5
36A
100
AcDbEntity
  8
RACCORDO
100
AcDbSpline
 62
250
  6
CONTINUOUS
 70
0
 71
3
 72
11
 73
7
 74
0
 42
0.0000001
 43
0.0000001
 44
0.0000000001
 40
0.0
 40
0.0
 40
0.0
 40
0.0
 40
0.2383163525
 40
0.50109775
 40
0.763282942
 40
1.0
 40
1.0
 40
1.0
 40
1.0
 10
5.352443824
 20
3.8228727711
 30
0.0
 10
5.2039532947
 20
3.7341434046
 30
0.0
 10
4.9237034034
 20
3.4934990291
 30
0.0
 10
4.5968440361
 20
3.0411895699
 30
0.0
 10
4.3740293349
 20
2.5308223331
 30
0.0
 10
4.3102947341
 20
2.1684499597
 30
0.0
 10
4.3102947246
 20
1.9966300557
 30
0.0
  0
SPLINE
  5
36B
100
AcDbEntity
  8
RACCORDO
100
AcDbSpline
 62
250
  6
CONTINUOUS
 70
0
 71
3
 72
11
 73
7
 74
0
 42
0.0000001
 43
0.0000001
 44
0.0000000001
 40
0.0
 40
0.0
 40
0.0
 40
0.0
 40
0.2383163517
 40
0.5010977464
 40
0.7632829374
 40
1.0
 40
1.0
 40
1.0
 40
1.0
 10
-19.9550737206
 20
18.4351162237
 30
0.0
 10
-20.1035642552
 20
18.3463868644
 30
0.0
 10
-20.3838141579
 20
18.1057425002
 30
0.0
 10
-20.7106735348
 20
17.6534330449
 30
0.0
 10
-20.9334882329
 20
17.1430657998
 30
0.0
 10
-20.99722282
 20
16.780693417
 30
0.0
 10
-20.99722282
 20
16.6088735083
 30
0.0
  0
SPLINE
  5
36C
100
AcDbEntity
  8
RACCORDO
100
AcDbSpline
 62
250
  6
CONTINUOUS
 70
0
 71
3
 72
11
 73
7
 74
0
 42
0.0000001
 43
0.0000001
 44
0.0000000001
 40
0.0
 40
0.0
 40
0.0
 40
0.0
 40
0.2878698104
 40
0.5463555792
 40
0.7802008175
 40
1.0
 40
1.0
 40
1.0
 40
1.0
 10
-21.3507899217
 20
8.379358833
 30
0.0
 10
-21.4167065933
 20
8.4174182009
 30
0.0
 10
-21.5363638873
 20
8.5001157668
 30
0.0
 10
-21.679044197
 20
8.6516951722
 30
0.0
 10
-21.7691767605
 20
8.8199466892
 30
0.0
 10
-21.7900651841
 20
8.9407109411
 30
0.0
 10
-21.7900617
 20
8.9988276913
 30
0.0
  0
SPLINE
  5
36D
100
AcDbEntity
  8
RACCORDO
100
AcDbSpline
 62
250
  6
CONTINUOUS
 70
0
 71
3
 72
11
 73
7
 74
0
 42
0.0000001
 43
0.0000001
 44
0.0000000001
 40
0.0
 40
0.0
 40
0.0
 40
0.0
 40
0.2883784762
 40
0.5473581941
 40
0.7813267297
 40
1.0
 40
1.0
 40
1.0
 40
1.0
 10
-22.1258653435
 20
-4.0212620468
 30
0.0
 10
-22.2039348351
 20
-3.9720173527
 30
0.0
 10
-22.3454205335
 20
-3.8668967724
 30
0.0
 10
-22.5141337652
 20
-3.6795721067
 30
0.0
 10
-22.6216922293
 20
-3.4756702567
 30
0.0
 10
-22.6484671499
 20
-3.3303666761
 30
0.0
 10
-22.6496416814
 20
-3.2603843171
 30
0.0
  0
SPLINE
  5
36E
100
AcDbEntity
  8
RACCORDO
100
AcDbSpline
 62
250
  6
CONTINUOUS
 70
0
 71
3
 72
11
 73
7
 74
0
 42
0.0000001
 43
0.0000001
 44
0.0000000001
 40
0.0
 40
0.0
 40
0.0
 40
0.0
 40
0.2381200678
 40
0.4975478047
 40
0.7582833084
 40
1.0
 40
1.0
 40
1.0
 40
1.0
 10
8.0874174588
 20
-19.9891601256
 30
0.0
 10
7.8996636689
 20
-20.0782451272
 30
0.0
 10
7.4801509774
 20
-20.2082290511
 30
0.0
 10
6.817441357
 20
-20.2701703717
 30
0.0
 10
6.1518032029
 20
-20.2058753163
 30
0.0
 10
5.7283462545
 20
-20.0750186577
 30
0.0
 10
5.5371650578
 20
-19.9858454623
 30
0.0
  0
SPLINE
  5
36F
100
AcDbEntity
  8
RACCORDO
100
AcDbSpline
 62
250
  6
CONTINUOUS
 70
0
 71
3
 72
11
 73
7
 74
0
 42
0.0000001
 43
0.0000001
 44
0.0000000001
 40
0.0
 40
0.0
 40
0.0
 40
0.0
 40
0.2389104543
 40
0.500686277
 40
0.7620887198
 40
1.0
 40
1.0
 40
1.0
 40
1.0
 10
5.4417753571
 20
-7.4096043277
 30
0.0
 10
5.6413839166
 20
-7.5148021487
 30
0.0
 10
6.0967055484
 20
-7.6661739589
 30
0.0
 10
6.8187308369
 20
-7.7305463343
 30
0.0
 10
7.5372112384
 20
-7.6417570012
 30
0.0
 10
7.985791923
 20
-7.4748504632
 30
0.0
 10
8.1805487931
 20
-7.3628014718
 30
0.0
  0
SPLINE
  5
370
100
AcDbEntity
  8
RACCORDO
100
AcDbSpline
 62
250
  6
CONTINUOUS
 70
0
 71
3
 72
11
 73
7
 74
0
 42
0.0000001
 43
0.0000001
 44
0.0000000001
 40
0.0
 40
0.0
 40
0.0
 40
0.0
 40
0.2856210578
 40
0.5433709855
 40
0.7781721271
 40
1.0
 40
1.0
 40
1.0
 40
1.0
 10
-22.1258685398
 20
8.5076077603
 30
0.0
 10
-22.2049917539
 20
8.5576518379
 30
0.0
 10
-22.3484006121
 20
8.6652451986
 30
0.0
 10
-22.5182240133
 20
8.8584926714
 30
0.0
 10
-22.624938401
 20
9.0702134093
 30
0.0
 10
-22.6496485594
 20
9.2207875217
 30
0.0
 10
-22.6497321156
 20
9.293498319
 30
0.0
  0
SPLINE
  5
371
100
AcDbEntity
  8
DRAFT
100
AcDbSpline
 62
7
  6
CONTINUOUS
 70
0
 71
3
 72
11
 73
7
 74
0
 42
0.0000001
 43
0.0000001
 44
0.0000000001
 40
0.0
 40
0.0
 40
0.0
 40
0.0
 40
0.2351174015
 40
0.4954839484
 40
0.7582964547
 40
1.0
 40
1.0
 40
1.0
 40
1.0
 10
8.2920592024
 20
25.5040914222
 30
0.0
 10
8.2920592024
 20
25.3418750637
 30
0.0
 10
8.3500069365
 20
24.9997498805
 30
0.0
 10
8.554665698
 20
24.5143716697
 30
0.0
 10
8.8573543271
 20
24.0777020725
 30
0.0
 10
9.1175367102
 20
23.8395125483
 30
0.0
 10
9.2564708193
 20
23.7472827262
 30
0.0
  0
SPLINE
  5
372
100
AcDbEntity
  8
DRAFT
100
AcDbSpline
 62
7
  6
CONTINUOUS
 70
0
 71
3
 72
17
 73
13
 74
0
 42
0.0000001
 43
0.0000001
 44
0.0000000001
 40
0.0
 40
0.0
 40
0.0
 40
0.0
 40
0.1284319373
 40
0.2697048836
 40
0.4165995883
 40
0.560833132
 40
0.6946106213
 40
0.8121995404
 40
0.8643635452
 40
0.9123832471
 40
0.957134324
 40
1.0
 40
1.0
 40
1.0
 40
1.0
 10
9.334205482
 20
23.6775454415
 30
0.0
 10
9.334205482
 20
23.8050536911
 30
0.0
 10
9.2987257833
 20
24.0731249724
 30
0.0
 10
9.1661585655
 20
24.466955362
 30
0.0
 10
8.961749427
 20
24.8467540808
 30
0.0
 10
8.7017546613
 20
25.1816760832
 30
0.0
 10
8.407222291
 20
25.4449027933
 30
0.0
 10
8.140356718
 20
25.5933255333
 30
0.0
 10
7.9310995327
 20
25.651447214
 30
0.0
 10
7.7867917481
 20
25.6641200854
 30
0.0
 10
7.6521011212
 20
25.6467968368
 30
0.0
 10
7.5700867542
 20
25.6146830106
 30
0.0
 10
7.532787657
 20
25.5941913463
 30
0.0
  0
SPLINE
  5
373
100
AcDbEntity
  8
DRAFT
100
AcDbSpline
 62
7
  6
CONTINUOUS
 70
0
 71
3
 72
11
 73
7
 74
0
 42
0.0000001
 43
0.0000001
 44
0.0000000001
 40
0.0
 40
0.0
 40
0.0
 40
0.0
 40
0.2177578553
 40
0.4512452647
 40
0.7106447687
 40
1.0
 40
1.0
 40
1.0
 40
1.0
 10
9.0327382595
 20
22.9963674382
 30
0.0
 10
9.0809352075
 20
23.0255778135
 30
0.0
 10
9.1708117698
 20
23.1040273323
 30
0.0
 10
9.2662555038
 20
23.2640403435
 30
0.0
 10
9.3230361501
 20
23.4601660094
 30
0.0
 10
9.334205482
 20
23.6026576765
 30
0.0
 10
9.334205482
 20
23.6775454415
 30
0.0
  0
SPLINE
  5
374
100
AcDbEntity
  8
RACCORDO
100
AcDbSpline
 62
7
  6
CONTINUOUS
 70
0
 71
3
 72
9
 73
5
 74
0
 42
0.0000001
 43
0.0000001
 44
0.0000000001
 40
0.0
 40
0.0
 40
0.0
 40
0.0
 40
0.4786944673
 40
1.0
 40
1.0
 40
1.0
 40
1.0
 10
15.57838282
 20
-12.9133602308
 30
0.0
 10
15.6055515826
 20
-12.8942031599
 30
0.0
 10
15.6471043366
 20
-12.8325638202
 30
0.0
 10
15.6554365568
 20
-12.7622523488
 30
0.0
 10
15.6554377702
 20
-12.7260495958
 30
0.0
  0
SPLINE
  5
375
100
AcDbEntity
  8
RACCORDO
100
AcDbSpline
 62
250
  6
CONTINUOUS
 70
0
 71
3
 72
11
 73
7
 74
0
 42
0.0000001
 43
0.0000001
 44
0.0000000001
 40
0.0
 40
0.0
 40
0.0
 40
0.0
 40
0.218739337
 40
0.4523132564
 40
0.7112444392
 40
1.0
 40
1.0
 40
1.0
 40
1.0
 10
-3.5069875932
 20
27.2886923801
 30
0.0
 10
-3.5553474403
 20
27.3165817995
 30
0.0
 10
-3.6660335205
 20
27.35722217
 30
0.0
 10
-3.8498427748
 20
27.3637343167
 30
0.0
 10
-4.0459806147
 20
27.3191914405
 30
0.0
 10
-4.1739015137
 20
27.2606252043
 30
0.0
 10
-4.2382764419
 20
27.224753387
 30
0.0
  0
SPLINE
  5
376
100
AcDbEntity
  8
RACCORDO
100
AcDbSpline
 62
250
  6
CONTINUOUS
 70
0
 71
3
 72
11
 73
7
 74
0
 42
0.0000001
 43
0.0000001
 44
0.0000000001
 40
0.0
 40
0.0
 40
0.0
 40
0.0
 40
0.2187501135
 40
0.4523204437
 40
0.7112454269
 40
1.0
 40
1.0
 40
1.0
 40
1.0
 10
22.6573710855
 20
10.9075530088
 30
0.0
 10
22.6573725478
 20
10.8517060825
 30
0.0
 10
22.6372729547
 20
10.7354770689
 30
0.0
 10
22.5510307453
 20
10.572952818
 30
0.0
 10
22.4143698025
 20
10.4252894828
 30
0.0
 10
22.2996594432
 20
10.343752962
 30
0.0
 10
22.2363873779
 20
10.3059224541
 30
0.0
  0
SPLINE
  5
377
100
AcDbEntity
  8
RACCORDO
100
AcDbSpline
 62
250
  6
CONTINUOUS
 70
0
 71
3
 72
11
 73
7
 74
0
 42
0.0000001
 43
0.0000001
 44
0.0000000001
 40
0.0
 40
0.0
 40
0.0
 40
0.0
 40
0.2187403829
 40
0.4523061517
 40
0.7112343489
 40
1.0
 40
1.0
 40
1.0
 40
1.0
 10
21.5539111068
 20
12.818843633
 30
0.0
 10
21.5055492152
 20
12.8467688628
 30
0.0
 10
21.3948432861
 20
12.8874760196
 30
0.0
 10
21.2109715046
 20
12.8940419554
 30
0.0
 10
21.0147581955
 20
12.8495086522
 30
0.0
 10
20.8867887604
 20
12.7909246615
 30
0.0
 10
20.8223892066
 20
12.7550391255
 30
0.0
  0
SPLINE
  5
378
100
AcDbEntity
  8
RACCORDO
100
AcDbSpline
 62
7
  6
CONTINUOUS
 70
0
 71
3
 72
9
 73
5
 74
0
 42
0.0000001
 43
0.0000001
 44
0.0000000001
 40
0.0
 40
0.0
 40
0.0
 40
0.0
 40
0.24096413
 40
1.0
 40
1.0
 40
1.0
 40
1.0
 10
11.7554547245
 20
18.4763504571
 30
0.0
 10
11.7532370526
 20
18.4776314639
 30
0.0
 10
11.7439809338
 20
18.4828560522
 30
0.0
 10
11.7345253351
 20
18.487724411
 30
0.0
 10
11.7272675092
 20
18.4912466134
 30
0.0
  0
SPLINE
  5
379
100
AcDbEntity
  8
RACCORDO
100
AcDbSpline
 62
250
  6
CONTINUOUS
 70
0
 71
3
 72
11
 73
7
 74
0
 42
0.0000001
 43
0.0000001
 44
0.0000000001
 40
0.0
 40
0.0
 40
0.0
 40
0.0
 40
0.2187490245
 40
0.4523278157
 40
0.7112559035
 40
1.0
 40
1.0
 40
1.0
 40
1.0
 10
22.6573710149
 20
-18.0293583578
 30
0.0
 10
22.6573413309
 20
-18.0851848429
 30
0.0
 10
22.637191977
 20
-18.2013613125
 30
0.0
 10
22.55093386
 20
-18.3638013816
 30
0.0
 10
22.4143034978
 20
-18.5113918541
 30
0.0
 10
22.2996343148
 20
-18.5928939339
 30
0.0
 10
22.2363873779
 20
-18.630709414
 30
0.0
  0
SPLINE
  5
37A
100
AcDbEntity
  8
RACCORDO
100
AcDbSpline
 62
250
  6
CONTINUOUS
 70
0
 71
3
 72
11
 73
7
 74
0
 42
0.0000001
 43
0.0000001
 44
0.0000000001
 40
0.0
 40
0.0
 40
0.0
 40
0.0
 40
0.2184760228
 40
0.4520714101
 40
0.7110898404
 40
1.0
 40
1.0
 40
1.0
 40
1.0
 10
-5.212807219
 20
27.3378652939
 30
0.0
 10
-5.1471948772
 20
27.3731437021
 30
0.0
 10
-4.9978561308
 20
27.4230010445
 30
0.0
 10
-4.7522082175
 20
27.4245495615
 30
0.0
 10
-4.4918419639
 20
27.3578069621
 30
0.0
 10
-4.3230342089
 20
27.2749596883
 30
0.0
 10
-4.2382764419
 20
27.224753387
 30
0.0
  0
SPLINE
  5
37B
100
AcDbEntity
  8
RACCORDO
100
AcDbSpline
 62
250
  6
CONTINUOUS
 70
0
 71
3
 72
9
 73
5
 74
0
 42
0.0000001
 43
0.0000001
 44
0.0000000001
 40
0.0
 40
0.0
 40
0.0
 40
0.0
 40
0.4680381238
 40
1.0
 40
1.0
 40
1.0
 40
1.0
 10
19.8437200513
 20
14.1078024613
 30
0.0
 10
19.8372449037
 20
14.116827758
 30
0.0
 10
19.8189240873
 20
14.1331560608
 30
0.0
 10
19.7959437549
 20
14.1408972992
 30
0.0
 10
19.7835773367
 20
14.1434388997
 30
0.0
  0
SPLINE
  5
37C
100
AcDbEntity
  8
RACCORDO
100
AcDbSpline
 62
250
  6
CONTINUOUS
 70
0
 71
3
 72
11
 73
7
 74
0
 42
0.0000001
 43
0.0000001
 44
0.0000000001
 40
0.0
 40
0.0
 40
0.0
 40
0.0
 40
0.1489119555
 40
0.3633373187
 40
0.6482481308
 40
1.0
 40
1.0
 40
1.0
 40
1.0
 10
19.7835773367
 20
14.1434388997
 30
0.0
 10
19.7533842958
 20
14.1496443059
 30
0.0
 10
19.6763834649
 20
14.1439999743
 30
0.0
 10
19.5479731695
 20
14.1049824843
 30
0.0
 10
19.3867556912
 20
14.032712479
 30
0.0
 10
19.2714770058
 20
13.9687042105
 30
0.0
 10
19.2088363536
 20
13.9315880976
 30
0.0
  0
SPLINE
  5
37D
100
AcDbEntity
  8
RACCORDO
100
AcDbSpline
 62
250
  6
CONTINUOUS
 70
0
 71
3
 72
9
 73
5
 74
0
 42
0.0000001
 43
0.0000001
 44
0.0000000001
 40
0.0
 40
0.0
 40
0.0
 40
0.0
 40
0.4505102688
 40
1.0
 40
1.0
 40
1.0
 40
1.0
 10
20.3249970072
 20
15.152419189
 30
0.0
 10
20.3118350589
 20
15.1599684431
 30
0.0
 10
20.2761258279
 20
15.1656174663
 30
0.0
 10
20.2438351589
 20
15.1528038945
 30
0.0
 10
20.227668727
 20
15.1437954293
 30
0.0
  0
SPLINE
  5
37E
100
AcDbEntity
  8
RACCORDO
100
AcDbSpline
 62
250
  6
CONTINUOUS
 70
0
 71
3
 72
11
 73
7
 74
0
 42
0.0000001
 43
0.0000001
 44
0.0000000001
 40
0.0
 40
0.0
 40
0.0
 40
0.0
 40
0.2869674313
 40
0.5458938874
 40
0.780621764
 40
1.0
 40
1.0
 40
1.0
 40
1.0
 10
16.5164415647
 20
-23.9707334458
 30
0.0
 10
16.6437346809
 20
-23.8924274979
 30
0.0
 10
16.8751428063
 20
-23.7243116035
 30
0.0
 10
17.1529009299
 20
-23.4230649769
 30
0.0
 10
17.3332628449
 20
-23.093527154
 30
0.0
 10
17.3820083608
 20
-22.857484869
 30
0.0
 10
17.3866049159
 20
-22.7433270587
 30
0.0
  0
SPLINE
  5
37F
100
AcDbEntity
  8
RACCORDO
100
AcDbSpline
 62
250
  6
CONTINUOUS
 70
0
 71
3
 72
13
 73
9
 74
0
 42
0.0000001
 43
0.0000001
 44
0.0000000001
 40
0.0
 40
0.0
 40
0.0
 40
0.0
 40
0.0508634308
 40
0.1184228854
 40
0.2069368191
 40
0.3184612955
 40
0.6132839409
 40
1.0
 40
1.0
 40
1.0
 40
1.0
 10
19.8428942507
 20
13.8067720333
 30
0.0
 10
19.8347014531
 20
13.8114968137
 30
0.0
 10
19.8127419415
 20
13.8172447608
 30
0.0
 10
19.7740896894
 20
13.8157860295
 30
0.0
 10
19.7251976626
 20
13.8056789618
 30
0.0
 10
19.6376087762
 20
13.7771259909
 30
0.0
 10
19.5034237773
 20
13.715021351
 30
0.0
 10
19.3929577944
 20
13.6528238996
 30
0.0
 10
19.3312323722
 20
13.6159394854
 30
0.0
  0
LINE
  5
380
100
AcDbEntity
  8
RACCORDO
100
AcDbLine
 62
250
  6
CONTINUOUS
 10
19.7865036528
 20
13.8910234086
 30
0.0
 11
19.7947150379
 21
13.9281450537
 31
0.0
  0
SPLINE
  5
381
100
AcDbEntity
  8
RACCORDO
100
AcDbSpline
 62
250
  6
CONTINUOUS
 70
0
 71
3
 72
9
 73
5
 74
0
 42
0.0000001
 43
0.0000001
 44
0.0000000001
 40
0.0
 40
0.0
 40
0.0
 40
0.0
 40
0.2624109925
 40
1.0
 40
1.0
 40
1.0
 40
1.0
 10
19.7947150379
 20
13.9281450537
 30
0.0
 10
19.7969725536
 20
13.9382911072
 30
0.0
 10
19.8056452439
 20
13.9769372396
 30
0.0
 10
19.8147475002
 20
14.0155103162
 30
0.0
 10
19.8225677548
 20
14.0436603452
 30
0.0
  0
SPLINE
  5
382
100
AcDbEntity
  8
RACCORDO
100
AcDbSpline
 62
250
  6
CONTINUOUS
 70
0
 71
3
 72
9
 73
5
 74
0
 42
0.0000001
 43
0.0000001
 44
0.0000000001
 40
0.0
 40
0.0
 40
0.0
 40
0.0
 40
0.2615759707
 40
1.0
 40
1.0
 40
1.0
 40
1.0
 10
19.8225677548
 20
14.0436603452
 30
0.0
 10
19.8241444557
 20
14.0493358861
 30
0.0
 10
19.830355126
 20
14.0709778623
 30
0.0
 10
19.8374727516
 20
14.0923921167
 30
0.0
 10
19.8437202296
 20
14.1078026038
 30
0.0
  0
SPLINE
  5
383
100
AcDbEntity
  8
RACCORDO
100
AcDbSpline
 62
250
  6
CONTINUOUS
 70
0
 71
3
 72
9
 73
5
 74
0
 42
0.0000001
 43
0.0000001
 44
0.0000000001
 40
0.0
 40
0.0
 40
0.0
 40
0.0
 40
0.4524657254
 40
1.0
 40
1.0
 40
1.0
 40
1.0
 10
18.5810731033
 20
16.0595705719
 30
0.0
 10
18.5940092426
 20
16.0644127806
 30
0.0
 10
18.6262558738
 20
16.0654589571
 30
0.0
 10
18.6546803259
 20
16.0525231928
 30
0.0
 10
18.6689324649
 20
16.0437902115
 30
0.0
  0
SPLINE
  5
384
100
AcDbEntity
  8
DRAFT
100
AcDbSpline
 62
7
  6
CONTINUOUS
 70
0
 71
3
 72
17
 73
13
 74
0
 42
0.0000001
 43
0.0000001
 44
0.0000000001
 40
0.0
 40
0.0
 40
0.0
 40
0.0
 40
0.1289407546
 40
0.2708319972
 40
0.4182508878
 40
0.5627084906
 40
0.696269359
 40
0.8132098524
 40
0.8649728143
 40
0.9126239277
 40
0.9571379504
 40
1.0
 40
1.0
 40
1.0
 40
1.0
 10
7.2128851384
 20
24.9023692215
 30
0.0
 10
7.2128851384
 20
24.7734507026
 30
0.0
 10
7.2491473458
 20
24.5023566419
 30
0.0
 10
7.3843492282
 20
24.1045337569
 30
0.0
 10
7.5925308945
 20
23.7217037031
 30
0.0
 10
7.8568186992
 20
23.3855760211
 30
0.0
 10
8.1553998235
 20
23.1235629632
 30
0.0
 10
8.4253452766
 20
22.9784526977
 30
0.0
 10
8.636009169
 20
22.9249133662
 30
0.0
 10
8.7806948605
 20
22.9163412687
 30
0.0
 10
8.9151030075
 20
22.9384810643
 30
0.0
 10
8.9960890837
 20
22.9741557377
 30
0.0
 10
9.0327382595
 20
22.9963674382
 30
0.0
  0
SPLINE
  5
385
100
AcDbEntity
  8
DRAFT
100
AcDbSpline
 62
7
  6
CONTINUOUS
 70
0
 71
3
 72
11
 73
7
 74
0
 42
0.0000001
 43
0.0000001
 44
0.0000000001
 40
0.0
 40
0.0
 40
0.0
 40
0.0
 40
0.2178309045
 40
0.4506602073
 40
0.7098287974
 40
1.0
 40
1.0
 40
1.0
 40
1.0
 10
7.532787657
 20
25.5941913463
 30
0.0
 10
7.4820374662
 20
25.566309817
 30
0.0
 10
7.3867277442
 20
25.4892135025
 30
0.0
 10
7.2850869254
 20
25.3270230087
 30
0.0
 10
7.2247018255
 20
25.1260528903
 30
0.0
 10
7.2128851384
 20
24.9795037984
 30
0.0
 10
7.2128851384
 20
24.9023692215
 30
0.0
  0
SPLINE
  5
386
100
AcDbEntity
  8
RACCORDO
100
AcDbSpline
 62
250
  6
CONTINUOUS
 70
0
 71
3
 72
9
 73
5
 74
0
 42
0.0000001
 43
0.0000001
 44
0.0000000001
 40
0.0
 40
0.0
 40
0.0
 40
0.0
 40
0.2369664018
 40
1.0
 40
1.0
 40
1.0
 40
1.0
 10
20.227668727
 20
15.1437954293
 30
0.0
 10
20.2319982411
 20
15.1414397366
 30
0.0
 10
20.2498682052
 20
15.130767707
 30
0.0
 10
20.2661497511
 20
15.1175326385
 30
0.0
 10
20.2775790676
 20
15.1065207534
 30
0.0
  0
SPLINE
  5
387
100
AcDbEntity
  8
RACCORDO
100
AcDbSpline
 62
250
  6
CONTINUOUS
 70
0
 71
3
 72
9
 73
5
 74
0
 42
0.0000001
 43
0.0000001
 44
0.0000000001
 40
0.0
 40
0.0
 40
0.0
 40
0.0
 40
0.2445391276
 40
1.0
 40
1.0
 40
1.0
 40
1.0
 10
20.2775790676
 20
15.1065207534
 30
0.0
 10
20.2816042757
 20
15.1026425574
 30
0.0
 10
20.2975777912
 20
15.0862829766
 30
0.0
 10
20.3116612058
 20
15.0680997321
 30
0.0
 10
20.3211387835
 20
15.05366527
 30
0.0
  0
SPLINE
  5
388
100
AcDbEntity
  8
RACCORDO
100
AcDbSpline
 62
250
  6
CONTINUOUS
 70
0
 71
3
 72
9
 73
5
 74
0
 42
0.0000001
 43
0.0000001
 44
0.0000000001
 40
0.0
 40
0.0
 40
0.0
 40
0.0
 40
0.2563131145
 40
1.0
 40
1.0
 40
1.0
 40
1.0
 10
20.3211387835
 20
15.05366527
 30
0.0
 10
20.3264795831
 20
15.0455311697
 30
0.0
 10
20.3458842869
 20
15.0128990892
 30
0.0
 10
20.3597784122
 20
14.976831719
 30
0.0
 10
20.3656742926
 20
14.9492205918
 30
0.0
  0
SPLINE
  5
389
100
AcDbEntity
  8
RACCORDO
100
AcDbSpline
 62
250
  6
CONTINUOUS
 70
0
 71
3
 72
9
 73
5
 74
0
 42
0.0000001
 43
0.0000001
 44
0.0000000001
 40
0.0
 40
0.0
 40
0.0
 40
0.0
 40
0.2824935865
 40
1.0
 40
1.0
 40
1.0
 40
1.0
 10
20.3656742926
 20
14.9492205918
 30
0.0
 10
20.367831936
 20
14.9391160844
 30
0.0
 10
20.373353427
 20
14.9031386832
 30
0.0
 10
20.3695840952
 20
14.8642544077
 30
0.0
 10
20.3577809467
 20
14.8408154766
 30
0.0
  0
SPLINE
  5
38A
100
AcDbEntity
  8
RACCORDO
100
AcDbSpline
 62
250
  6
CONTINUOUS
 70
0
 71
3
 72
8
 73
4
 74
0
 42
0.0000001
 43
0.0000001
 44
0.0000000001
 40
0.0
 40
0.0
 40
0.0
 40
0.0
 40
1.0
 40
1.0
 40
1.0
 40
1.0
 10
20.3577809467
 20
14.8408154766
 30
0.0
 10
20.355566914
 20
14.8364188056
 30
0.0
 10
20.3530176903
 20
14.8321699585
 30
0.0
 10
20.3501245607
 20
14.8281871883
 30
0.0
  0
SPLINE
  5
38B
100
AcDbEntity
  8
RACCORDO
100
AcDbSpline
 62
250
  6
CONTINUOUS
 70
0
 71
3
 72
8
 73
4
 74
0
 42
0.0000001
 43
0.0000001
 44
0.0000000001
 40
0.0
 40
0.0
 40
0.0
 40
0.0
 40
1.0
 40
1.0
 40
1.0
 40
1.0
 10
20.3501245607
 20
14.8281871883
 30
0.0
 10
20.3651753475
 20
14.8372980861
 30
0.0
 10
20.3786989609
 20
14.84969168
 30
0.0
 10
20.3888197253
 20
14.8640828152
 30
0.0
  0
SPLINE
  5
38C
100
AcDbEntity
  8
RACCORDO
100
AcDbSpline
 62
250
  6
CONTINUOUS
 70
0
 71
3
 72
9
 73
5
 74
0
 42
0.0000001
 43
0.0000001
 44
0.0000000001
 40
0.0
 40
0.0
 40
0.0
 40
0.0
 40
0.549357721
 40
1.0
 40
1.0
 40
1.0
 40
1.0
 10
18.6689324649
 20
16.0437902115
 30
0.0
 10
18.6851311472
 20
16.0528166477
 30
0.0
 10
18.717505725
 20
16.0656666271
 30
0.0
 10
18.7532919435
 20
16.0598979426
 30
0.0
 10
18.7664647291
 20
16.0522905797
 30
0.0
  0
SPLINE
  5
38D
100
AcDbEntity
  8
RACCORDO
100
AcDbSpline
 62
250
  6
CONTINUOUS
 70
0
 71
3
 72
8
 73
4
 74
0
 42
0.0000001
 43
0.0000001
 44
0.0000000001
 40
0.0
 40
0.0
 40
0.0
 40
0.0
 40
1.0
 40
1.0
 40
1.0
 40
1.0
 10
19.8437201901
 20
14.1078026587
 30
0.0
 10
19.8586280847
 20
14.1168270459
 30
0.0
 10
19.8720141547
 20
14.1290854267
 30
0.0
 10
19.8821123865
 20
14.1432879124
 30
0.0
  0
SPLINE
  5
38E
100
AcDbEntity
  8
RACCORDO
100
AcDbSpline
 62
250
  6
CONTINUOUS
 70
0
 71
3
 72
11
 73
7
 74
0
 42
0.0000001
 43
0.0000001
 44
0.0000000001
 40
0.0
 40
0.0
 40
0.0
 40
0.0
 40
0.2885301985
 40
0.5477500105
 40
0.7813034182
 40
1.0
 40
1.0
 40
1.0
 40
1.0
 10
16.5164415647
 20
-23.9707334458
 30
0.0
 10
16.5168091672
 20
-23.995270303
 30
0.0
 10
16.5137732215
 20
-24.0420600592
 30
0.0
 10
16.4959350292
 20
-24.1066712934
 30
0.0
 10
16.464991624
 20
-24.1596127574
 30
0.0
 10
16.4355638788
 20
-24.1856432989
 30
0.0
 10
16.4197424922
 20
-24.1954235035
 30
0.0
  0
SPLINE
  5
38F
100
AcDbEntity
  8
RACCORDO
100
AcDbSpline
 62
250
  6
CONTINUOUS
 70
0
 71
3
 72
11
 73
7
 74
0
 42
0.0000001
 43
0.0000001
 44
0.0000000001
 40
0.0
 40
0.0
 40
0.0
 40
0.0
 40
0.202921544
 40
0.4602725822
 40
0.7414194293
 40
1.0
 40
1.0
 40
1.0
 40
1.0
 10
19.2088363536
 20
13.9315880976
 30
0.0
 10
19.1942051731
 20
13.9114463702
 30
0.0
 10
19.1816108418
 20
13.8521164289
 30
0.0
 10
19.202985238
 20
13.762341021
 30
0.0
 10
19.2528291442
 20
13.6767122098
 30
0.0
 10
19.3034265123
 20
13.6311415927
 30
0.0
 10
19.3312921865
 20
13.6159798552
 30
0.0
  0
SPLINE
  5
390
100
AcDbEntity
  8
RACCORDO
100
AcDbSpline
 62
250
  6
CONTINUOUS
 70
0
 71
3
 72
11
 73
7
 74
0
 42
0.0000001
 43
0.0000001
 44
0.0000000001
 40
0.0
 40
0.0
 40
0.0
 40
0.0
 40
0.287469251
 40
0.5463108416
 40
0.7803122012
 40
1.0
 40
1.0
 40
1.0
 40
1.0
 10
11.7272675092
 20
24.7743128424
 30
0.0
 10
11.7474823256
 20
24.7868292973
 30
0.0
 10
11.7841244427
 20
24.8137590244
 30
0.0
 10
11.8277213718
 20
24.862089528
 30
0.0
 10
11.8551790579
 20
24.9150927614
 30
0.0
 10
11.8615531955
 20
24.9528496184
 30
0.0
 10
11.8615697613
 20
24.9710195806
 30
0.0
  0
SPLINE
  5
391
100
AcDbEntity
  8
RACCORDO
100
AcDbSpline
 62
250
  6
CONTINUOUS
 70
0
 71
3
 72
11
 73
7
 74
0
 42
0.0000001
 43
0.0000001
 44
0.0000000001
 40
0.0
 40
0.0
 40
0.0
 40
0.0
 40
0.2874814636
 40
0.5463257837
 40
0.7803215835
 40
1.0
 40
1.0
 40
1.0
 40
1.0
 10
10.3139154475
 20
27.2223104197
 30
0.0
 10
10.3348638707
 20
27.2335611
 30
0.0
 10
10.376509261
 20
27.2518332668
 30
0.0
 10
10.4401671292
 20
27.2654278985
 30
0.0
 10
10.4998008713
 20
27.2627058225
 30
0.0
 10
10.5356867932
 20
27.2493450603
 30
0.0
 10
10.5514301318
 20
27.2402728338
 30
0.0
  0
SPLINE
  5
392
100
AcDbEntity
  8
RACCORDO
100
AcDbSpline
 62
250
  6
CONTINUOUS
 70
0
 71
3
 72
11
 73
7
 74
0
 42
0.0000001
 43
0.0000001
 44
0.0000000001
 40
0.0
 40
0.0
 40
0.0
 40
0.0
 40
0.2875001832
 40
0.5463385986
 40
0.7803190529
 40
1.0
 40
1.0
 40
1.0
 40
1.0
 10
7.6720664061
 20
28.747680946
 30
0.0
 10
7.6930302277
 20
28.7589398977
 30
0.0
 10
7.7347059435
 20
28.7772226575
 30
0.0
 10
7.7984106968
 20
28.7908108384
 30
0.0
 10
7.8580832259
 20
28.7880554035
 30
0.0
 10
7.8939816544
 20
28.7746536038
 30
0.0
 10
7.9097266119
 20
28.7655594052
 30
0.0
  0
SPLINE
  5
393
100
AcDbEntity
  8
RACCORDO
100
AcDbSpline
 62
250
  6
CONTINUOUS
 70
0
 71
3
 72
11
 73
7
 74
0
 42
0.0000001
 43
0.0000001
 44
0.0000000001
 40
0.0
 40
0.0
 40
0.0
 40
0.0
 40
0.2883956165
 40
0.5476766917
 40
0.78175625
 40
1.0
 40
1.0
 40
1.0
 40
1.0
 10
7.6720664061
 20
28.7476809461
 30
0.0
 10
7.5887782084
 20
28.796579627
 30
0.0
 10
7.4229659025
 20
28.8775641965
 30
0.0
 10
7.1676359716
 20
28.9443168041
 30
0.0
 10
6.9264473536
 20
28.9462884883
 30
0.0
 10
6.7786430848
 20
28.9012344452
 30
0.0
 10
6.713253757
 20
28.8685828363
 30
0.0
  0
SPLINE
  5
394
100
AcDbEntity
  8
RACCORDO
100
AcDbSpline
 62
250
  6
CONTINUOUS
 70
0
 71
3
 72
11
 73
7
 74
0
 42
0.0000001
 43
0.0000001
 44
0.0000000001
 40
0.0
 40
0.0
 40
0.0
 40
0.0
 40
0.2374737705
 40
0.4999939667
 40
0.7625174542
 40
1.0
 40
1.0
 40
1.0
 40
1.0
 10
11.7272675092
 20
24.7743128424
 30
0.0
 10
11.7289368791
 20
25.0065057992
 30
0.0
 10
11.6448601781
 20
25.4964066692
 30
0.0
 10
11.3429361522
 20
26.1843996124
 30
0.0
 10
10.8980726694
 20
26.7898760159
 30
0.0
 10
10.5158395133
 20
27.1076499974
 30
0.0
 10
10.3139154475
 20
27.2223104197
 30
0.0
  0
SPLINE
  5
395
100
AcDbEntity
  8
RACCORDO
100
AcDbSpline
 62
250
  6
CONTINUOUS
 70
0
 71
3
 72
11
 73
7
 74
0
 42
0.0000001
 43
0.0000001
 44
0.0000000001
 40
0.0
 40
0.0
 40
0.0
 40
0.0
 40
0.2376042397
 40
0.5000021128
 40
0.7623988555
 40
1.0
 40
1.0
 40
1.0
 40
1.0
 10
20.8222967665
 20
12.7550910944
 30
0.0
 10
21.0249865374
 20
12.6410262806
 30
0.0
 10
21.4086749016
 20
12.3239927184
 30
0.0
 10
21.8545918254
 20
11.718291531
 30
0.0
 10
22.1562097994
 20
11.0292806286
 30
0.0
 10
22.2389459259
 20
10.5384863582
 30
0.0
 10
22.2363873779
 20
10.3059224541
 30
0.0
  0
SPLINE
  5
396
100
AcDbEntity
  8
RACCORDO
100
AcDbSpline
 62
250
  6
CONTINUOUS
 70
0
 71
3
 72
11
 73
7
 74
0
 42
0.0000001
 43
0.0000001
 44
0.0000000001
 40
0.0
 40
0.0
 40
0.0
 40
0.0
 40
0.2889088062
 40
0.5479266456
 40
0.7815225973
 40
1.0
 40
1.0
 40
1.0
 40
1.0
 10
22.2363861614
 20
-18.6306048269
 30
0.0
 10
22.2374885698
 20
-18.7291047262
 30
0.0
 10
22.2248403229
 20
-18.9167099621
 30
0.0
 10
22.1524698277
 20
-19.1755533953
 30
0.0
 10
22.0283190985
 20
-19.3875101816
 30
0.0
 10
21.9104829886
 20
-19.4919133018
 30
0.0
 10
21.8471299119
 20
-19.5310977705
 30
0.0
  0
ELLIPSE
  5
397
100
AcDbEntity
  8
0
100
AcDbEllipse
 62
7
  6
CONTINUOUS
 10
9.6875434482
 20
-24.6992276178
 30
0.0
 11
-1.0003529238
 21
1.7325505656
 31
0.0
 40
0.5771558487
 41
-3.1590399161
 42
-2.3563950755
  0
ELLIPSE
  5
398
100
AcDbEntity
  8
RACCORDO
100
AcDbEllipse
 62
7
  6
CONTINUOUS
 10
11.2434153336
 20
-4.2062711612
 30
0.0
 11
-0.1000048364
 21
0.1732022883
 31
0.0
 40
0.5775075436
 41
0.7855021057
 42
2.3559938459
  0
ELLIPSE
  5
399
100
AcDbEntity
  8
RACCORDO
100
AcDbEllipse
 62
7
  6
CONTINUOUS
 10
-12.5404048205
 20
22.1290341928
 30
0.0
 11
0.2999893451
 21
-0.0044574875
 31
0.0
 40
0.5672251703
 41
0.7938262603
 42
2.3471692945
  0
ELLIPSE
  5
39A
100
AcDbEntity
  8
RACCORDO
100
AcDbEllipse
 62
7
  6
CONTINUOUS
 10
6.7912320522
 20
-8.6610031407
 30
0.0
 11
1.9999289676
 21
-0.0297165836
 31
0.0
 40
0.5672251703
 41
-2.3477663933
 42
-0.7944233591
  0
ELLIPSE
  5
39B
100
AcDbEntity
  8
RACCORDO
100
AcDbEllipse
 62
7
  6
CONTINUOUS
 10
-20.6497330228
 20
7.1830661775
 30
0.0
 11
1.9999289676
 21
-0.0297165836
 31
0.0
 40
0.5672251703
 41
-3.1331645658
 42
-2.3477663933
  0
ELLIPSE
  5
39C
100
AcDbEntity
  8
RACCORDO
100
AcDbEllipse
 62
7
  6
CONTINUOUS
 10
11.6926686237
 20
8.1371612979
 30
0.0
 11
0.2999893451
 21
-0.0044574875
 31
0.0
 40
0.5672251703
 41
-0.759516774
 42
0.7938262603
  0
ELLIPSE
  5
39D
100
AcDbEntity
  8
RACCORDO
100
AcDbEllipse
 62
7
  6
CONTINUOUS
 10
6.7912320522
 20
-16.9824728673
 30
0.0
 11
1.9999183239
 21
0.0307721993
 31
0.0
 40
0.5873737521
 41
-2.3652320043
 42
-0.81188897
  0
ELLIPSE
  5
39E
100
AcDbEntity
  8
RACCORDO
100
AcDbEllipse
 62
7
  6
CONTINUOUS
 10
15.6364535388
 20
-5.7522952224
 30
0.0
 11
0.2435694555
 21
0.4367051162
 31
0.0
 40
0.5671693725
 41
-0.7937771377
 42
0.7595658966
  0
ELLIPSE
  5
39F
100
AcDbEntity
  8
RACCORDO
100
AcDbEllipse
 62
7
  6
CONTINUOUS
 10
-20.6497330228
 20
-1.138403549
 30
0.0
 11
1.9999183239
 21
0.0307721993
 31
0.0
 40
0.5873737521
 41
8.6477955758
 42
10.2011386101
  0
ELLIPSE
  5
3A0
100
AcDbEntity
  8
RACCORDO
100
AcDbEllipse
 62
7
  6
CONTINUOUS
 10
15.6364535388
 20
-12.9578879252
 30
0.0
 11
0.2435694555
 21
0.4367051162
 31
0.0
 40
0.5671693725
 41
-2.347120172
 42
-0.7937771377
  0
ELLIPSE
  5
3A1
100
AcDbEntity
  8
RACCORDO
100
AcDbEllipse
 62
7
  6
CONTINUOUS
 10
5.798671576
 20
-16.8247812522
 30
0.0
 11
1.4999387429
 21
0.0230791494
 31
0.0
 40
0.5873737521
 41
-2.3652320043
 42
-0.7944356775
  0
ELLIPSE
  5
3A2
100
AcDbEntity
  8
RACCORDO
100
AcDbEllipse
 62
7
  6
CONTINUOUS
 10
-20.3642793279
 20
-1.7186212991
 30
0.0
 11
1.4999387429
 21
0.0230791494
 31
0.0
 40
0.5873737521
 41
3.1325551393
 42
3.9179533029
  0
ELLIPSE
  5
3A3
100
AcDbEntity
  8
RACCORDO
100
AcDbEllipse
 62
7
  6
CONTINUOUS
 10
14.4454802319
 20
14.0640617457
 30
0.0
 11
-0.1001418976
 21
0.1732814786
 31
0.0
 40
0.5769799893
 41
-0.7855983497
 42
-0.0261673345
  0
ELLIPSE
  5
3A4
100
AcDbEntity
  8
RACCORDO
100
AcDbEllipse
 62
7
  6
CONTINUOUS
 10
16.9508527934
 20
12.6174910284
 30
0.0
 11
-0.1000811064
 21
0.1731758618
 31
0.0
 40
0.5776832714
 41
-2.3563959077
 42
-0.7862086611
  0
ELLIPSE
  5
3A5
100
AcDbEntity
  8
RACCORDO
100
AcDbEllipse
 62
7
  6
CONTINUOUS
 10
9.6875434482
 20
4.6932048615
 30
0.0
 11
-1.0000483645
 21
1.7320228834
 31
0.0
 40
0.5775075436
 41
3.9270947593
 42
5.4975864996
  0
ELLIPSE
  5
3A6
100
AcDbEntity
  8
RACCORDO
100
AcDbEllipse
 62
7
  6
CONTINUOUS
 10
9.6875434482
 20
-24.6992276178
 30
0.0
 11
-1.0003529238
 21
1.7325505656
 31
0.0
 40
0.5771558487
 41
3.1396118465
 42
3.9267902317
  0
ELLIPSE
  5
3A7
100
AcDbEntity
  8
RACCORDO
100
AcDbEllipse
 62
7
  6
CONTINUOUS
 10
13.7136807378
 20
13.684295957
 30
0.0
 11
-0.1001418976
 21
0.1732814786
 31
0.0
 40
0.5769799893
 41
-0.7855983497
 42
0.7845888968
  0
ELLIPSE
  5
3A8
100
AcDbEntity
  8
RACCORDO
100
AcDbEllipse
 62
7
  6
CONTINUOUS
 10
16.2684387251
 20
12.2092107138
 30
0.0
 11
-0.1000811064
 21
0.1731758618
 31
0.0
 40
0.5776832714
 41
-2.3563959077
 42
-0.7862086611
  0
ELLIPSE
  5
3A9
100
AcDbEntity
  8
RACCORDO
100
AcDbEllipse
 62
7
  6
CONTINUOUS
 10
-15.7678698258
 20
19.3908414546
 30
0.0
 11
-1.0003529238
 21
1.7325505656
 31
0.0
 40
0.5771558487
 41
-0.7852941622
 42
0.0174471533
  0
ELLIPSE
  5
3AA
100
AcDbEntity
  8
RACCORDO
100
AcDbEllipse
 62
7
  6
CONTINUOUS
 10
12.3040001069
 20
-26.1528016513
 30
0.0
 11
-0.2500882309
 21
0.4331376414
 31
0.0
 40
0.5771558487
 41
2.3562984914
 42
3.9267902317
  0
ELLIPSE
  5
3AB
100
AcDbEntity
  8
RACCORDO
100
AcDbEllipse
 62
7
  6
CONTINUOUS
 10
9.6178698989
 20
25.1884740218
 30
0.0
 11
-1.0000484973
 21
1.7320228068
 31
0.0
 40
0.5780352736
 41
-2.355633942
 42
-0.7860555904
  0
ELLIPSE
  5
3AC
100
AcDbEntity
  8
RACCORDO
100
AcDbEllipse
 62
7
  6
CONTINUOUS
 10
6.9292207214
 20
26.7408663602
 30
0.0
 11
-1.0012669203
 21
1.7341338574
 31
0.0
 40
0.5766289216
 41
-0.7848373798
 42
0.7847409718
  0
ELLIPSE
  5
3AD
100
AcDbEntity
  8
RACCORDO
100
AcDbEllipse
 62
7
  6
CONTINUOUS
 10
11.0329454871
 20
17.1614462295
 30
0.0
 11
0.7119686174
 21
1.3207675237
 31
0.0
 40
0.5568425968
 41
0.0237237865
 42
0.7517168207
  0
ENDSEC
  0
SECTION
  2
OBJECTS
  0
DICTIONARY
  5
C
100
AcDbDictionary
280
0
281
1
  3
ACAD_GROUP
350
D
  3
ACAD_MLINESTYLE
350
17
  3
ACAD_LAYOUT
350
1A
  3
ACAD_PLOTSETTINGS
350
19
  3
ACAD_PLOTSTYLENAME
350
E
  0
DICTIONARY
  5
D
102
{ACAD_REACTORS
330
C
102
}
100
AcDbDictionary
280
0
281
1
  0
ACDBDICTIONARYWDFLT
  5
E
102
{ACAD_REACTORS
330
C
102
}
100
AcDbDictionary
281
1
  3
Normal
350
F
100
AcDbDictionaryWithDefault
340
F
  0
DICTIONARY
  5
17
102
{ACAD_REACTORS
330
C
102
}
100
AcDbDictionary
280
0
281
1
  3
Standard
350
18
  0
DICTIONARY
  5
19
102
{ACAD_REACTORS
330
C
102
}
100
AcDbDictionary
281
1
  0
DICTIONARY
  5
1A
102
{ACAD_REACTORS
330
C
102
}
100
AcDbDictionary
281
1
  3
Model
350
3AE
  3
Layout1
350
3AF
  0
ACDBPLACEHOLDER
  5
F
102
{ACAD_REACTORS
330
E
102
}
  0
MLINESTYLE
  5
18
102
{ACAD_REACTORS
330
17
102
}
100
AcDbMlineStyle
  2
STANDARD
 70
0
  3

 62
256
 51
90.0
 52
90.0
 71
2
 49
0.5
 62
256
  6
BYLAYER
 49
-0.5
 62
256
  6
BYLAYER
  0
LAYOUT
  5
3AE
102
{ACAD_REACTORS
330
1A
102
}
100
AcDbPlotSettings
  1

  2
none_device
  4
ISO_A3_(420.00_x_297.00_MM)
  6

 40
0.0
 41
0.0
 42
0.0
 43
0.0
 44
420.0
 45
297.0
 46
0.0
 47
0.0
 48
0.0
 49
0.0
140
0.0
141
0.0
142
1.0
143
1.0
 70
1024
 72
1
 73
0
 74
0
  7

 75
0
147
1.0
148
0.0
149
0.0
100
AcDbLayout
  1
Model
 70
0
 71
0
 10
0.0
 20
0.0
 11
420.0
 21
297.0
 12
0.0
 22
0.0
 32
0.0
 14
0.0
 24
0.0
 34
0.0
 15
0.0
 25
0.0
 35
0.0
146
0.0
 13
0.0
 23
0.0
 33
0.0
 16
1.0
 26
0.0
 36
0.0
 17
0.0
 27
1.0
 37
0.0
 76
0
330
225
345
0
346
0
  0
LAYOUT
  5
3AF
102
{ACAD_REACTORS
330
1A
102
}
100
AcDbPlotSettings
  1

  2
none_device
  4
ISO_A3_(420.00_x_297.00_MM)
  6

 40
0.0
 41
0.0
 42
0.0
 43
0.0
 44
420.0
 45
297.0
 46
0.0
 47
0.0
 48
0.0
 49
0.0
140
0.0
141
0.0
142
1.0
143
1.0
 70
0
 72
1
 73
0
 74
0
  7

 75
0
147
1.0
148
0.0
149
0.0
100
AcDbLayout
  1
Layout1
 70
0
 71
1
 10
0.0
 20
0.0
 11
420.0
 21
297.0
 12
0.0
 22
0.0
 32
0.0
 14
0.0
 24
0.0
 34
0.0
 15
0.0
 25
0.0
 35
0.0
146
0.0
 13
0.0
 23
0.0
 33
0.0
 16
1.0
 26
0.0
 36
0.0
 17
0.0
 27
1.0
 37
0.0
 76
0
330
226
345
0
346
0
  0
ENDSEC
  0
EOF
