  0
SECTION
  2
HEADER
  9
$ACADVER
  1
AC1015
  9
$DWGCODEPAGE
  3
ANSI_1252
  9
$EXTMAX
 10
558.8
 20
431.8
 30
0.0
  9
$EXTMIN
 10
0.0
 20
0.0
 30
0.0
  9
$LIMMIN
 10
0.0
 20
0.0
  9
$LIMMAX
 10
558.8
 20
431.8
  9
$VIEWCTR
 10
279.4
 20
215.9
  9
$VIEWSIZE
 40
431.8
  9
$CLAYER
  8
0
  9
$LTSCALE
 40
30.734
  9
$CELTYPE
  6
BYLAYER
  9
$DIMSCALE
 40
1.0
  9
$DIMASZ
 40
3.0
  9
$DIMEXO
 40
3.4925
  9
$DIMDLI
 40
21.2344
  9
$DIMEXE
 40
10.0584
  9
$DIMCEN
 40
5.0292
  9
$DIMLFAC
 40
1.0
  9
$DIMBLK
  1
_FILLED
  9
$DIMTXT
 40
3.0
  9
$DIMTOL
 70
1
  9
$DIMLIM
 70
0
  9
$DIMTFAC
 40
1.0
  9
$DIMTP
 40
0.01
  9
$DIMTM
 40
0.01
  9
$PDMODE
 70
3
  9
$PDSIZE
 40
3.0
  9
$HANDSEED
  5
32E
  9
$TILEMODE
 70
1
  9
$MEASUREMENT
 70
1
  9
$INSUNITS
 70
4
  0
ENDSEC
  0
SECTION
  2
CLASSES
  0
CLASS
  1
ACDBDICTIONARYWDFLT
  2
AcDbDictionaryWithDefault
  3
AutoCAD 2000
 90
0
280
0
281
0
  0
CLASS
  1
ACDBPLACEHOLDER
  2
AcDbPlaceHolder
  3
AutoCAD 2000
 90
0
280
0
281
0
  0
CLASS
  1
LAYOUT
  2
AcDbLayout
  3
AutoCAD 2000
 90
0
280
0
281
0
  0
ENDSEC
  0
SECTION
  2
TABLES
  0
TABLE
  2
VPORT
  5
8
100
AcDbSymbolTable
 70
2
  0
VPORT
  5
1F4
100
AcDbSymbolTableRecord
100
AcDbViewportTableRecord
  2
*ACTIVE
 70
0
 10
0.0
 20
0.0
 11
1.0
 21
1.0
 12
279.4
 22
215.9
 13
0.0
 23
0.0
 14
1.0
 24
1.0
 15
0.0
 25
0.0
 16
0.0
 26
0.0
 36
1.0
 17
0.0
 27
0.0
 37
0.0
 40
431.8
 41
1.2941176471
 42
50.0
 43
0.0
 44
0.0
 50
0.0
 51
0.0
 71
0
 72
100
 73
1
 74
1
 75
0
 76
0
 77
0
 78
0
  0
ENDTAB
  0
TABLE
  2
LTYPE
  5
5
100
AcDbSymbolTable
 70
6
  0
LTYPE
  5
14
100
AcDbSymbolTableRecord
100
AcDbLinetypeTableRecord
  2
BYBLOCK
 70
0
  3

 72
65
 73
0
 40
0.0
  0
LTYPE
  5
15
100
AcDbSymbolTableRecord
100
AcDbLinetypeTableRecord
  2
BYLAYER
 70
0
  3

 72
65
 73
0
 40
0.0
  0
LTYPE
  5
16
100
AcDbSymbolTableRecord
100
AcDbLinetypeTableRecord
  2
CONTINUOUS
 70
64
  3
Solid line
 72
65
 73
0
 40
0.0
  0
LTYPE
  5
1F5
100
AcDbSymbolTableRecord
100
AcDbLinetypeTableRecord
  2
CENTER
 70
64
  3
____ _ ____ _ ____ _ ____ _ ____ _ ____ _ ____
 72
65
 73
4
 40
0.6
 49
0.375
 74
0
 49
-0.075
 74
0
 49
0.075
 74
0
 49
-0.075
 74
0
  0
LTYPE
  5
1F6
100
AcDbSymbolTableRecord
100
AcDbLinetypeTableRecord
  2
HIDDEN
 70
64
  3
- - - - - - - - - - - - - - - - - - - -
 72
65
 73
2
 40
0.2
 49
0.1
 74
0
 49
-0.1
 74
0
  0
LTYPE
  5
1F7
100
AcDbSymbolTableRecord
100
AcDbLinetypeTableRecord
  2
PHANTOM
 70
64
  3
_____ _ _ _____ _ _ _____ _ _ _____
 72
65
 73
6
 40
0.8
 49
0.45
 74
0
 49
-0.05
 74
0
 49
0.1
 74
0
 49
-0.05
 74
0
 49
0.1
 74
0
 49
-0.05
 74
0
  0
LTYPE
  5
1F8
100
AcDbSymbolTableRecord
100
AcDbLinetypeTableRecord
  2
DOT
 70
64
  3
. . . . . . . . . . . . . . . . . . . .
 72
65
 73
2
 40
0.2
 49
0.1
 74
0
 49
-0.1
 74
0
  0
LTYPE
  5
1F9
100
AcDbSymbolTableRecord
100
AcDbLinetypeTableRecord
  2
DASHED
 70
64
  3
- - - - - - - - - - - - - - - - - - - -
 72
65
 73
2
 40
0.2
 49
0.1
 74
0
 49
-0.1
 74
0
  0
ENDTAB
  0
TABLE
  2
LAYER
  5
2
100
AcDbSymbolTable
 70
36
  0
LAYER
  5
10
100
AcDbSymbolTableRecord
100
AcDbLayerTableRecord
  2
0
 70
0
 62
7
  6
CONTINUOUS
370
-3
390
F
  0
LAYER
  5
1FA
100
AcDbSymbolTableRecord
100
AcDbLayerTableRecord
  2
DEFAULT_1
 70
0
 62
7
  6
CENTER
370
-3
390
F
  0
LAYER
  5
1FB
100
AcDbSymbolTableRecord
100
AcDbLayerTableRecord
  2
DEFAULT_2
 70
0
 62
7
  6
HIDDEN
370
-3
390
F
  0
LAYER
  5
1FC
100
AcDbSymbolTableRecord
100
AcDbLayerTableRecord
  2
DEFAULT_3
 70
0
 62
7
  6
PHANTOM
370
-3
390
F
  0
LAYER
  5
1FD
100
AcDbSymbolTableRecord
100
AcDbLayerTableRecord
  2
ASSI
 70
0
 62
7
  6
CONTINUOUS
370
-3
390
F
  0
LAYER
  5
1FE
100
AcDbSymbolTableRecord
100
AcDbLayerTableRecord
  2
COORDINATE
 70
0
 62
7
  6
CONTINUOUS
370
-3
390
F
  0
LAYER
  5
1FF
100
AcDbSymbolTableRecord
100
AcDbLayerTableRecord
  2
COORD_ORIGINE
 70
0
 62
7
  6
CONTINUOUS
370
-3
390
F
  0
LAYER
  5
200
100
AcDbSymbolTableRecord
100
AcDbLayerTableRecord
  2
COPY_PUBLISH
 70
0
 62
7
  6
CONTINUOUS
370
-3
390
F
  0
LAYER
  5
201
100
AcDbSymbolTableRecord
100
AcDbLayerTableRecord
  2
COSMETIC
 70
0
 62
7
  6
CONTINUOUS
370
-3
390
F
  0
LAYER
  5
202
100
AcDbSymbolTableRecord
100
AcDbLayerTableRecord
  2
COSMETICHE
 70
0
 62
7
  6
CONTINUOUS
370
-3
390
F
  0
LAYER
  5
203
100
AcDbSymbolTableRecord
100
AcDbLayerTableRecord
  2
COSMETICI
 70
0
 62
7
  6
CONTINUOUS
370
-3
390
F
  0
LAYER
  5
204
100
AcDbSymbolTableRecord
100
AcDbLayerTableRecord
  2
CURVE
 70
0
 62
7
  6
CONTINUOUS
370
-3
390
F
  0
LAYER
  5
205
100
AcDbSymbolTableRecord
100
AcDbLayerTableRecord
  2
DRAFT
 70
0
 62
7
  6
CONTINUOUS
370
-3
390
F
  0
LAYER
  5
206
100
AcDbSymbolTableRecord
100
AcDbLayerTableRecord
  2
IMPORT_IGES
 70
0
 62
7
  6
CONTINUOUS
370
-3
390
F
  0
LAYER
  5
207
100
AcDbSymbolTableRecord
100
AcDbLayerTableRecord
  2
NOTE
 70
0
 62
7
  6
CONTINUOUS
370
-3
390
F
  0
LAYER
  5
208
100
AcDbSymbolTableRecord
100
AcDbLayerTableRecord
  2
PIANI
 70
0
 62
7
  6
CONTINUOUS
370
-3
390
F
  0
LAYER
  5
209
100
AcDbSymbolTableRecord
100
AcDbLayerTableRecord
  2
PIANI_ORIGINE
 70
0
 62
7
  6
CONTINUOUS
370
-3
390
F
  0
LAYER
  5
20A
100
AcDbSymbolTableRecord
100
AcDbLayerTableRecord
  2
PUNTI
 70
0
 62
7
  6
CONTINUOUS
370
-3
390
F
  0
LAYER
  5
20B
100
AcDbSymbolTableRecord
100
AcDbLayerTableRecord
  2
RACCORDO
 70
0
 62
7
  6
CONTINUOUS
370
-3
390
F
  0
LAYER
  5
20C
100
AcDbSymbolTableRecord
100
AcDbLayerTableRecord
  2
SNAPLINE
 70
0
 62
7
  6
CONTINUOUS
370
-3
390
F
  0
LAYER
  5
20D
100
AcDbSymbolTableRecord
100
AcDbLayerTableRecord
  2
SUPERFICI
 70
0
 62
7
  6
CONTINUOUS
370
-3
390
F
  0
LAYER
  5
20E
100
AcDbSymbolTableRecord
100
AcDbLayerTableRecord
  2
TRASH
 70
0
 62
7
  6
CONTINUOUS
370
-3
390
F
  0
LAYER
  5
20F
100
AcDbSymbolTableRecord
100
AcDbLayerTableRecord
  2
XSEC_DATUMS
 70
0
 62
7
  6
CONTINUOUS
370
-3
390
F
  0
ENDTAB
  0
TABLE
  2
STYLE
  5
3
100
AcDbSymbolTable
 70
1
  0
STYLE
  5
11
100
AcDbSymbolTableRecord
100
AcDbTextStyleTableRecord
  2
STANDARD
 70
0
 40
0.0
 41
0.8
 50
0.0
 71
0
 42
0.2
  3
txt
  4

  0
STYLE
  5
210
100
AcDbSymbolTableRecord
100
AcDbTextStyleTableRecord
  2
TEXTSTYLE_1
 70
0
 40
0.0
 41
0.8
 50
0.0
 71
0
 42
0.2
  3
gdt
  4

  0
ENDTAB
  0
TABLE
  2
VIEW
  5
6
100
AcDbSymbolTable
 70
0
  0
ENDTAB
  0
TABLE
  2
UCS
  5
7
100
AcDbSymbolTable
 70
0
  0
ENDTAB
  0
TABLE
  2
APPID
  5
9
100
AcDbSymbolTable
 70
1
  0
APPID
  5
211
100
AcDbSymbolTableRecord
100
AcDbRegAppTableRecord
  2
ACAD
 70
0
  0
ENDTAB
  0
TABLE
  2
BLOCK_RECORD
  5
1
100
AcDbSymbolTable
 70
0
  0
BLOCK_RECORD
  5
212
100
AcDbSymbolTableRecord
100
AcDbBlockTableRecord
  2
*Model_Space
  0
BLOCK_RECORD
  5
213
100
AcDbSymbolTableRecord
100
AcDbBlockTableRecord
  2
*Paper_Space
  0
ENDTAB
  0
TABLE
  2
DIMSTYLE
  5
A
100
AcDbSymbolTable
 70
1
100
AcDbDimStyleTable
 71
0
  0
DIMSTYLE
105
214
100
AcDbSymbolTableRecord
100
AcDbDimStyleTableRecord
  2
STANDARD
 70
0
  3

  4

 40
1.0
 41
3.0
 42
0.0625
 43
0.38
 44
0.18
 45
0.0
 46
0.0
 47
0.01
 48
0.01
140
3.0
141
0.09
142
0.0
143
25.4
144
1.0
145
0.0
146
1.0
147
0.09
 71
1.0
 72
0.0
 73
0
 74
0
 75
0
 76
0
 77
1
 78
8
170
0
171
2
172
0
173
0
174
0
175
0
176
0
177
0
178
0
270
2
271
2
272
2
273
2
274
2
275
0
280
0
281
0
282
0
283
1
284
8
285
0
286
0
287
3
288
0
340
11
  0
ENDTAB
  0
ENDSEC
  0
SECTION
  2
BLOCKS
  0
BLOCK
  5
20
100
AcDbEntity
  8
0
100
AcDbBlockBegin
  2
*Model_Space
 70
0
 10
0.0
 20
0.0
 30
0.0
  3
*Model_Space
  1

  0
ENDBLK
  5
21
100
AcDbEntity
  8
0
100
AcDbBlockEnd
  0
BLOCK
  5
1C
100
AcDbEntity
  8
0
100
AcDbBlockBegin
  2
*Paper_Space
 70
0
 10
0.0
 20
0.0
 30
0.0
  3
*Paper_Space
  1

  0
ENDBLK
  5
1D
100
AcDbEntity
  8
0
100
AcDbBlockEnd
  0
ENDSEC
  0
SECTION
  2
ENTITIES
  0
LWPOLYLINE
  5
215
100
AcDbEntity
  8
RACCORDO
100
AcDbPolyline
 62
7
  6
CONTINUOUS
 90
31
 70
0
 10
-36.2619533168
 20
65.2904271649
 10
-36.2830118615
 20
65.2784077239
 10
-36.3037071224
 20
65.2656025584
 10
-36.3240481845
 20
65.2519971917
 10
-36.3440068303
 20
65.2375988189
 10
-36.3635523865
 20
65.222418703
 10
-36.3826876699
 20
65.2064419102
 10
-36.4013849803
 20
65.1896758336
 10
-36.4196134018
 20
65.172132379
 10
-36.4373693111
 20
65.1537977125
 10
-36.4546241708
 20
65.1346816064
 10
-36.4713498084
 20
65.1147950245
 10
-36.4875418791
 20
65.0941197323
 10
-36.5031739837
 20
65.0726633201
 10
-36.5182173223
 20
65.0504382091
 10
-36.5326629008
 20
65.0274264399
 10
-36.5464960057
 20
65.0036145592
 10
-36.5596764848
 20
64.9790330149
 10
-36.5721621811
 20
64.9537255647
 10
-36.5839367918
 20
64.9276926889
 10
-36.5949755516
 20
64.9009537617
 10
-36.6052364466
 20
64.8735804771
 10
-36.6147075363
 20
64.8455818422
 10
-36.6233753991
 20
64.8169693236
 10
-36.6312101472
 20
64.7878193066
 10
-36.638205725
 20
64.7581403413
 10
-36.6443538958
 20
64.7279435374
 10
-36.6496351464
 20
64.6973107817
 10
-36.6540437115
 20
64.6662752337
 10
-36.6575801423
 20
64.6348228231
 10
-36.6591534454
 20
64.6173291853
  0
LINE
  5
216
100
AcDbEntity
  8
RACCORDO
100
AcDbLine
 62
7
  6
CONTINUOUS
 10
-36.2619533168
 20
65.2904271649
 11
-33.6102448305
 21
66.7210993427
  0
LINE
  5
217
100
AcDbEntity
  8
RACCORDO
100
AcDbLine
 62
253
  6
CONTINUOUS
 10
-35.8134976298
 20
65.262515941
 11
-33.1527073167
 21
66.6980733579
  0
LWPOLYLINE
  5
218
100
AcDbEntity
  8
RACCORDO
100
AcDbPolyline
 62
7
  6
CONTINUOUS
 90
28
 70
0
 10
19.0647610001
 20
-31.4610446641
 10
19.0756997957
 20
-31.4654047983
 10
19.1018164253
 20
-31.4752011976
 10
19.1278630759
 20
-31.4841170687
 10
19.1538190436
 20
-31.4921602676
 10
19.1796748149
 20
-31.4993429158
 10
19.2054279746
 20
-31.505677694
 10
19.2310628129
 20
-31.5111732932
 10
19.2565639895
 20
-31.5158390622
 10
19.2819260844
 20
-31.5196854933
 10
19.3071291177
 20
-31.5227206058
 10
19.3321591282
 20
-31.5249543012
 10
19.3570161121
 20
-31.5263969431
 10
19.3816811101
 20
-31.5270568826
 10
19.4061365545
 20
-31.5269437686
 10
19.4303810247
 20
-31.5260670624
 10
19.4543950519
 20
-31.5244360438
 10
19.4781593607
 20
-31.5220609489
 10
19.5016698863
 20
-31.5189511433
 10
19.5249046882
 20
-31.5151180125
 10
19.547845993
 20
-31.51057311
 10
19.5704935244
 20
-31.505324589
 10
19.5928262925
 20
-31.4993852975
 10
19.6148257543
 20
-31.4927684219
 10
19.6364932955
 20
-31.4854808848
 10
19.6578091571
 20
-31.4775360914
 10
19.6787543699
 20
-31.4689488003
 10
19.6962198728
 20
-31.4611712096
  0
LWPOLYLINE
  5
219
100
AcDbEntity
  8
RACCORDO
100
AcDbPolyline
 62
7
  6
CONTINUOUS
 90
43
 70
0
 10
-36.6588324439
 20
-2.9026148868
 10
-36.6573737072
 20
-2.917708823
 10
-36.6538997313
 20
-2.9473475231
 10
-36.6496754279
 20
-2.9767146055
 10
-36.6447404202
 20
-3.0057959108
 10
-36.6391264413
 20
-3.0346058242
 10
-36.6328573169
 20
-3.0631738181
 10
-36.6259601838
 20
-3.0914946012
 10
-36.618458402
 20
-3.1195678575
 10
-36.6103664803
 20
-3.147416558
 10
-36.6017036401
 20
-3.1750341773
 10
-36.5924865578
 20
-3.2024185774
 10
-36.5827213355
 20
-3.2295901988
 10
-36.572421565
 20
-3.2565411869
 10
-36.5615985539
 20
-3.2832664384
 10
-36.5502517794
 20
-3.3097838944
 10
-36.5383900081
 20
-3.3360846968
 10
-36.5260201794
 20
-3.3621603359
 10
-36.5131369482
 20
-3.3880251585
 10
-36.4997423097
 20
-3.4136725203
 10
-36.4858418491
 20
-3.439087079
 10
-36.4714317537
 20
-3.4642682297
 10
-36.4565046664
 20
-3.4892169341
 10
-36.4410689605
 20
-3.5139058695
 10
-36.4251419667
 20
-3.5382936867
 10
-36.4087213149
 20
-3.5623707826
 10
-36.3918079348
 20
-3.586119543
 10
-36.3744237925
 20
-3.6094937096
 10
-36.3565662241
 20
-3.6324809861
 10
-36.3382326105
 20
-3.6550665737
 10
-36.3194423455
 20
-3.6772084848
 10
-36.300189163
 20
-3.6988948
 10
-36.2804683381
 20
-3.7201099823
 10
-36.2602964602
 20
-3.7408139945
 10
-36.2396646581
 20
-3.7609936294
 10
-36.2185638726
 20
-3.7806325278
 10
-36.1970039038
 20
-3.7996953357
 10
-36.1749716184
 20
-3.81816652
 10
-36.1524556584
 20
-3.8360251085
 10
-36.1294606709
 20
-3.8532362078
 10
-36.1059763645
 20
-3.8697745878
 10
-36.0819843633
 20
-3.8856181013
 10
-36.0698514022
 20
-3.8932347747
  0
LINE
  5
21A
100
AcDbEntity
  8
0
100
AcDbLine
 62
7
  6
CONTINUOUS
 10
-29.5945777456
 20
26.7316043316
 11
-28.8527161182
 21
27.1025351453
  0
LINE
  5
21B
100
AcDbEntity
  8
0
100
AcDbLine
 62
7
  6
CONTINUOUS
 10
-28.8300971474
 20
26.7936333929
 11
-28.545975938
 21
26.9356939976
  0
LINE
  5
21C
100
AcDbEntity
  8
0
100
AcDbLine
 62
7
  6
CONTINUOUS
 10
-28.0143807268
 20
26.4943848221
 11
-28.1229903663
 21
26.4400800024
  0
LINE
  5
21D
100
AcDbEntity
  8
0
100
AcDbLine
 62
7
  6
CONTINUOUS
 10
-28.2375724849
 20
22.8472550371
 11
-28.8300971474
 21
22.5509927058
  0
LINE
  5
21E
100
AcDbEntity
  8
0
100
AcDbLine
 62
7
  6
CONTINUOUS
 10
-27.3585097681
 20
22.2594683766
 11
-26.7679863326
 21
22.5547300943
  0
LINE
  5
21F
100
AcDbEntity
  8
0
100
AcDbLine
 62
7
  6
CONTINUOUS
 10
27.6409219238
 20
11.8172523839
 11
25.7486725544
 21
11.4728911608
  0
LINE
  5
220
100
AcDbEntity
  8
0
100
AcDbLine
 62
7
  6
CONTINUOUS
 10
-11.3787765054
 20
16.0708297447
 11
-10.8341689182
 21
16.8519068693
  0
LINE
  5
221
100
AcDbEntity
  8
RACCORDO
100
AcDbLine
 62
253
  6
CONTINUOUS
 10
19.2465038127
 20
37.7325148176
 11
22.0018370074
 21
39.1208011959
  0
LINE
  5
222
100
AcDbEntity
  8
RACCORDO
100
AcDbLine
 62
253
  6
CONTINUOUS
 10
19.9535070649
 20
36.5131200897
 11
22.7088360928
 21
37.9014081493
  0
LINE
  5
223
100
AcDbEntity
  8
0
100
AcDbLine
 62
7
  6
CONTINUOUS
 10
-13.4287925457
 20
19.6527290061
 11
-10.4405200175
 21
21.1468652702
  0
LINE
  5
224
100
AcDbEntity
  8
0
100
AcDbLine
 62
7
  6
CONTINUOUS
 10
-9.7640786158
 20
17.493704783
 11
-10.5460503339
 21
17.1027189239
  0
LINE
  5
225
100
AcDbEntity
  8
0
100
AcDbLine
 62
7
  6
CONTINUOUS
 10
-8.7086306463
 20
15.3828682245
 11
-9.4906261166
 21
14.9918704893
  0
LINE
  5
226
100
AcDbEntity
  8
0
100
AcDbLine
 62
7
  6
CONTINUOUS
 10
-10.8157731629
 20
14.9448230597
 11
-9.8641469109
 21
14.9118628547
  0
LINE
  5
227
100
AcDbEntity
  8
0
100
AcDbLine
 62
7
  6
CONTINUOUS
 10
-9.1802633884
 20
11.1556706916
 11
-6.191729649
 21
12.6499375613
  0
LINE
  5
228
100
AcDbEntity
  8
0
100
AcDbLine
 62
7
  6
CONTINUOUS
 10
27.6409219238
 20
23.9416080369
 11
25.7486725544
 21
23.5972468137
  0
LINE
  5
229
100
AcDbEntity
  8
RACCORDO
100
AcDbLine
 62
7
  6
CONTINUOUS
 10
22.7088360928
 20
19.7636117524
 11
27.4142667761
 21
21.7377743278
  0
LINE
  5
22A
100
AcDbEntity
  8
0
100
AcDbLine
 62
7
  6
CONTINUOUS
 10
22.7088360928
 20
22.4097565466
 11
25.7486725544
 21
23.5972468137
  0
LINE
  5
22B
100
AcDbEntity
  8
0
100
AcDbLine
 62
7
  6
CONTINUOUS
 10
29.1788631407
 20
11.17200943
 11
27.6409219238
 21
11.8172523839
  0
LINE
  5
22C
100
AcDbEntity
  8
0
100
AcDbLine
 62
7
  6
CONTINUOUS
 10
5.7607613137
 20
9.0539348019
 11
6.4743089945
 21
9.4107086423
  0
LINE
  5
22D
100
AcDbEntity
  8
0
100
AcDbLine
 62
7
  6
CONTINUOUS
 10
6.5252419119
 20
9.1159638633
 11
6.8253768324
 21
9.2660313235
  0
LINE
  5
22E
100
AcDbEntity
  8
RACCORDO
100
AcDbLine
 62
7
  6
CONTINUOUS
 10
22.7088360928
 20
18.8975863486
 11
27.4142667761
 21
20.871748924
  0
LINE
  5
22F
100
AcDbEntity
  8
RACCORDO
100
AcDbLine
 62
7
  6
CONTINUOUS
 10
28.1186828025
 20
8.7165790627
 11
29.6127519907
 21
7.8262979014
  0
LINE
  5
230
100
AcDbEntity
  8
RACCORDO
100
AcDbLine
 62
7
  6
CONTINUOUS
 10
28.1186828025
 20
9.5826044665
 11
29.6127519907
 21
8.6923233052
  0
LINE
  5
231
100
AcDbEntity
  8
0
100
AcDbLine
 62
7
  6
CONTINUOUS
 10
7.4342189087
 20
8.8633455805
 11
7.2323486931
 21
8.7624104727
  0
LINE
  5
232
100
AcDbEntity
  8
0
100
AcDbLine
 62
7
  6
CONTINUOUS
 10
22.7088360928
 20
13.1878324472
 11
23.7727154686
 21
13.7197721351
  0
LINE
  5
233
100
AcDbEntity
  8
0
100
AcDbLine
 62
7
  6
CONTINUOUS
 10
7.1177665744
 20
5.1695855074
 11
6.5252419119
 21
4.8733231762
  0
LINE
  5
234
100
AcDbEntity
  8
0
100
AcDbLine
 62
7
  6
CONTINUOUS
 10
22.7088360928
 20
12.7763277393
 11
23.6770589228
 21
13.2604391543
  0
LINE
  5
235
100
AcDbEntity
  8
0
100
AcDbLine
 62
7
  6
CONTINUOUS
 10
23.3501292473
 20
16.0307122349
 11
23.1419225041
 21
16.1868672923
  0
LINE
  5
236
100
AcDbEntity
  8
0
100
AcDbLine
 62
7
  6
CONTINUOUS
 10
7.9968292912
 20
4.5817988469
 11
8.8617880572
 21
5.0142782299
  0
LINE
  5
237
100
AcDbEntity
  8
RACCORDO
100
AcDbLine
 62
7
  6
CONTINUOUS
 10
22.7088360928
 20
7.6392560994
 11
27.4142667761
 21
9.6134186748
  0
LINE
  5
238
100
AcDbEntity
  8
RACCORDO
100
AcDbLine
 62
7
  6
CONTINUOUS
 10
22.7088360928
 20
6.7732306956
 11
27.4142667761
 21
8.7473932711
  0
LINE
  5
239
100
AcDbEntity
  8
0
100
AcDbLine
 62
7
  6
CONTINUOUS
 10
22.7088360928
 20
10.2854008936
 11
25.7486725544
 21
11.4728911608
  0
LINE
  5
23A
100
AcDbEntity
  8
0
100
AcDbLine
 62
7
  6
CONTINUOUS
 10
29.1788631407
 20
23.296365083
 11
27.6409219238
 21
23.9416080369
  0
LINE
  5
23B
100
AcDbEntity
  8
RACCORDO
100
AcDbLine
 62
7
  6
CONTINUOUS
 10
29.6127519907
 20
19.9506535543
 11
28.1186828025
 21
20.8409347157
  0
LINE
  5
23C
100
AcDbEntity
  8
RACCORDO
100
AcDbLine
 62
7
  6
CONTINUOUS
 10
29.6127519907
 20
20.8166789581
 11
28.1186828025
 21
21.7069601195
  0
LINE
  5
23D
100
AcDbEntity
  8
RACCORDO
100
AcDbLine
 62
7
  6
CONTINUOUS
 10
22.7088360928
 20
-29.6488371457
 11
22.7088360928
 21
37.9014081493
  0
LINE
  5
23E
100
AcDbEntity
  8
0
100
AcDbLine
 62
7
  6
CONTINUOUS
 10
24.1318719977
 20
14.467226734
 11
24.1318719977
 21
14.206968305
  0
LINE
  5
23F
100
AcDbEntity
  8
RACCORDO
100
AcDbLine
 62
253
  6
CONTINUOUS
 10
27.4142667761
 20
21.7377743278
 11
27.4142667761
 21
20.871748924
  0
LINE
  5
240
100
AcDbEntity
  8
RACCORDO
100
AcDbLine
 62
253
  6
CONTINUOUS
 10
27.4142667761
 20
8.7473932711
 11
27.4142667761
 21
9.6134186748
  0
LINE
  5
241
100
AcDbEntity
  8
RACCORDO
100
AcDbLine
 62
253
  6
CONTINUOUS
 10
28.1186828025
 20
21.7069601195
 11
28.1186828025
 21
20.8409347157
  0
LINE
  5
242
100
AcDbEntity
  8
RACCORDO
100
AcDbLine
 62
253
  6
CONTINUOUS
 10
28.1186828025
 20
8.7165790627
 11
28.1186828025
 21
9.5826044665
  0
LINE
  5
243
100
AcDbEntity
  8
RACCORDO
100
AcDbLine
 62
7
  6
CONTINUOUS
 10
-33.1527073167
 20
66.6980733579
 11
22.0018370074
 21
39.1208011959
  0
LINE
  5
244
100
AcDbEntity
  8
0
100
AcDbLine
 62
7
  6
CONTINUOUS
 10
29.6127519907
 20
8.6923233052
 11
29.1788631407
 21
11.17200943
  0
LINE
  5
245
100
AcDbEntity
  8
0
100
AcDbLine
 62
7
  6
CONTINUOUS
 10
29.6127519907
 20
20.8166789581
 11
29.6127519907
 21
19.9506535543
  0
LINE
  5
246
100
AcDbEntity
  8
0
100
AcDbLine
 62
7
  6
CONTINUOUS
 10
29.6127519907
 20
7.8262979014
 11
29.6127519907
 21
8.6923233052
  0
LINE
  5
247
100
AcDbEntity
  8
0
100
AcDbLine
 62
7
  6
CONTINUOUS
 10
3.4582194768
 20
-17.7547605669
 11
3.6003337872
 21
-17.6837034117
  0
LINE
  5
248
100
AcDbEntity
  8
0
100
AcDbLine
 62
7
  6
CONTINUOUS
 10
3.8309109793
 20
-17.9219858839
 11
3.9730357274
 21
-17.8509235099
  0
LINE
  5
249
100
AcDbEntity
  8
0
100
AcDbLine
 62
7
  6
CONTINUOUS
 10
4.6565201967
 20
-18.2908128685
 11
4.7986689576
 21
-18.2197384881
  0
LINE
  5
24A
100
AcDbEntity
  8
0
100
AcDbLine
 62
7
  6
CONTINUOUS
 10
5.0307576377
 20
-18.4572652163
 11
5.1729176857
 21
-18.3861851922
  0
LINE
  5
24B
100
AcDbEntity
  8
0
100
AcDbLine
 62
7
  6
CONTINUOUS
 10
29.6127519907
 20
20.8166789581
 11
29.1788631407
 21
23.296365083
  0
LINE
  5
24C
100
AcDbEntity
  8
0
100
AcDbLine
 62
7
  6
CONTINUOUS
 10
5.2805123918
 20
-18.5680976421
 11
5.4226801116
 21
-18.4970137822
  0
LINE
  5
24D
100
AcDbEntity
  8
0
100
AcDbLine
 62
7
  6
CONTINUOUS
 10
5.6555482828
 20
-18.7341465222
 11
5.7977277314
 21
-18.6630567979
  0
LINE
  5
24E
100
AcDbEntity
  8
0
100
AcDbLine
 62
7
  6
CONTINUOUS
 10
6.0310518176
 20
-18.8999481454
 11
6.1732432597
 21
-18.8288524243
  0
LINE
  5
24F
100
AcDbEntity
  8
0
100
AcDbLine
 62
7
  6
CONTINUOUS
 10
6.5996480035
 20
-19.1501471186
 11
6.7418580814
 21
-19.0790420796
  0
LINE
  5
250
100
AcDbEntity
  8
0
100
AcDbLine
 62
7
  6
CONTINUOUS
 10
4.5838523494
 20
-20.2782803748
 11
4.7260783513
 21
-20.2071673739
  0
LINE
  5
251
100
AcDbEntity
  8
0
100
AcDbLine
 62
7
  6
CONTINUOUS
 10
7.303543914
 20
-19.458451635
 11
7.4457778509
 21
-19.3873346666
  0
LINE
  5
252
100
AcDbEntity
  8
0
100
AcDbLine
 62
7
  6
CONTINUOUS
 10
7.8746048848
 20
-19.7074189228
 11
8.0168588162
 21
-19.6362919571
  0
LINE
  5
253
100
AcDbEntity
  8
0
100
AcDbLine
 62
7
  6
CONTINUOUS
 10
5.8092193802
 20
-20.8224673941
 11
5.9514828398
 21
-20.7513356643
  0
LINE
  5
254
100
AcDbEntity
  8
0
100
AcDbLine
 62
7
  6
CONTINUOUS
 10
6.5607534703
 20
-21.1538248079
 11
6.703041226
 21
-21.08268093
  0
LINE
  5
255
100
AcDbEntity
  8
0
100
AcDbLine
 62
7
  6
CONTINUOUS
 10
8.7349298582
 20
-20.0805507064
 11
8.8772149851
 21
-20.0094081429
  0
LINE
  5
256
100
AcDbEntity
  8
0
100
AcDbLine
 62
7
  6
CONTINUOUS
 10
9.1144052969
 20
-20.2443974903
 11
9.2567045918
 21
-20.1732478428
  0
LINE
  5
257
100
AcDbEntity
  8
0
100
AcDbLine
 62
7
  6
CONTINUOUS
 10
7.293636541
 20
-21.4752110891
 11
7.4359489513
 21
-21.404054884
  0
LINE
  5
258
100
AcDbEntity
  8
0
100
AcDbLine
 62
7
  6
CONTINUOUS
 10
9.9783316825
 20
-20.6157429563
 11
10.1206641598
 21
-20.5445767177
  0
LINE
  5
259
100
AcDbEntity
  8
0
100
AcDbLine
 62
7
  6
CONTINUOUS
 10
8.8336607385
 20
-21.3646201894
 11
8.9759969268
 21
-21.2934520953
  0
LINE
  5
25A
100
AcDbEntity
  8
0
100
AcDbLine
 62
7
  6
CONTINUOUS
 10
8.0283617453
 20
-21.7957018629
 11
8.17069982
 21
-21.7245328256
  0
LINE
  5
25B
100
AcDbEntity
  8
0
100
AcDbLine
 62
7
  6
CONTINUOUS
 10
8.6592506643
 20
-22.0695272626
 11
8.8016115288
 21
-21.9983468304
  0
LINE
  5
25C
100
AcDbEntity
  8
0
100
AcDbLine
 62
7
  6
CONTINUOUS
 10
10.8713528783
 20
-20.9971660108
 11
11.0137210847
 21
-20.9259819076
  0
LINE
  5
25D
100
AcDbEntity
  8
0
100
AcDbLine
 62
7
  6
CONTINUOUS
 10
10.4185383917
 20
-21.6717676768
 11
10.5609209913
 21
-21.600576377
  0
LINE
  5
25E
100
AcDbEntity
  8
0
100
AcDbLine
 62
7
  6
CONTINUOUS
 10
10.8827760106
 20
-21.8698116209
 11
11.0251772215
 21
-21.7986110154
  0
LINE
  5
25F
100
AcDbEntity
  8
0
100
AcDbLine
 62
7
  6
CONTINUOUS
 10
9.8784080015
 20
-22.5951615604
 11
10.0208148646
 21
-22.5239581288
  0
LINE
  5
260
100
AcDbEntity
  8
ASSI
100
AcDbLine
 62
7
  6
CONTINUOUS
 10
11.3241983258
 20
-22.2919505498
 11
11.4666267144
 21
-22.2207363555
  0
LINE
  5
261
100
AcDbEntity
  8
0
100
AcDbLine
 62
7
  6
CONTINUOUS
 10
10.5132320596
 20
-22.8670243403
 11
10.6556638894
 21
-22.7958084254
  0
LINE
  5
262
100
AcDbEntity
  8
0
100
AcDbLine
 62
7
  6
CONTINUOUS
 10
11.6598195358
 20
-23.3549074226
 11
11.8022982084
 21
-23.2836680863
  0
LINE
  5
263
100
AcDbEntity
  8
RACCORDO
100
AcDbLine
 62
253
  6
CONTINUOUS
 10
19.9535066826
 20
-30.921334963
 11
22.7088360928
 21
-29.6488371457
  0
LINE
  5
264
100
AcDbEntity
  8
RACCORDO
100
AcDbLine
 62
7
  6
CONTINUOUS
 10
19.6961571815
 20
-31.4612003183
 11
22.4385154772
 21
-30.1946883787
  0
ARC
  5
265
100
AcDbEntity
  8
0
100
AcDbCircle
 62
7
  6
CONTINUOUS
 10
-9.2731537884
 20
15.4512862578
 40
4.6884622942
100
AcDbArc
 50
233.0229402436
 51
238.0151441241
  0
ARC
  5
266
100
AcDbEntity
  8
0
100
AcDbCircle
 62
253
  6
CONTINUOUS
 10
-13.6416081401
 20
15.0007200625
 40
4.6272648323
100
AcDbArc
 50
52.9087773497
 51
53.3701572848
  0
ARC
  5
267
100
AcDbEntity
  8
0
100
AcDbCircle
 62
7
  6
CONTINUOUS
 10
-9.4562424787
 20
15.1614278997
 40
4.3456270491
100
AcDbArc
 50
238.0383110092
 51
239.4748694513
  0
ARC
  5
268
100
AcDbEntity
  8
0
100
AcDbCircle
 62
253
  6
CONTINUOUS
 10
-13.4449012866
 20
15.2739120417
 40
4.2906657276
100
AcDbArc
 50
53.3015268351
 51
57.8830523642
  0
ARC
  5
269
100
AcDbEntity
  8
0
100
AcDbCircle
 62
253
  6
CONTINUOUS
 10
-13.2739835653
 20
15.5437517158
 40
3.9712530044
100
AcDbArc
 50
57.9018263099
 51
59.4735673333
  0
ARC
  5
26A
100
AcDbEntity
  8
0
100
AcDbCircle
 62
253
  6
CONTINUOUS
 10
-9.7137167581
 20
14.9362394097
 40
3.9367989099
100
AcDbArc
 50
239.4750063279
 51
241.0142577667
  0
ARC
  5
26B
100
AcDbEntity
  8
0
100
AcDbCircle
 62
7
  6
CONTINUOUS
 10
-13.012178887
 20
15.7762939525
 40
3.5538908202
100
AcDbArc
 50
59.4734877879
 51
61.180011703
  0
ARC
  5
26C
100
AcDbEntity
  8
0
100
AcDbCircle
 62
7
  6
CONTINUOUS
 10
-29.5072918577
 20
23.6095287856
 40
2.79851586
100
AcDbArc
 50
0.0434878788
 51
3.5265499777
  0
ARC
  5
26D
100
AcDbEntity
  8
0
100
AcDbCircle
 62
7
  6
CONTINUOUS
 10
-10.2050359674
 20
16.4221621574
 40
0.7612150226
100
AcDbArc
 50
116.6145994237
 51
130.6551711367
  0
ARC
  5
26E
100
AcDbEntity
  8
0
100
AcDbCircle
 62
7
  6
CONTINUOUS
 10
-9.8304629099
 20
15.6730160424
 40
0.7612150226
100
AcDbArc
 50
282.4749312175
 51
296.5155029305
  0
ARC
  5
26F
100
AcDbEntity
  8
0
100
AcDbCircle
 62
7
  6
CONTINUOUS
 10
-10.6812398628
 20
15.6559737758
 40
0.7419383524
100
AcDbArc
 50
228.1969448076
 51
232.911405312
  0
ARC
  5
270
100
AcDbEntity
  8
0
100
AcDbCircle
 62
7
  6
CONTINUOUS
 10
174.1771691674
 20
362.5848928056
 40
416.8980516622
100
AcDbArc
 50
246.8051999374
 51
246.9386571027
  0
ARC
  5
271
100
AcDbEntity
  8
0
100
AcDbCircle
 62
7
  6
CONTINUOUS
 10
174.2111308396
 20
362.4355744439
 40
416.6527060262
100
AcDbArc
 50
246.8069562144
 51
246.9404955194
  0
ARC
  5
272
100
AcDbEntity
  8
RACCORDO
100
AcDbCircle
 62
253
  6
CONTINUOUS
 10
384.4314778684
 20
29.5910863925
 40
422.4216938897
100
AcDbArc
 50
175.2642769483
 51
179.9504057743
  0
ARC
  5
273
100
AcDbEntity
  8
0
100
AcDbCircle
 62
7
  6
CONTINUOUS
 10
399.1871506763
 20
107.1112418231
 40
414.6563207021
100
AcDbArc
 50
197.5497980779
 51
197.7851815519
  0
ARC
  5
274
100
AcDbEntity
  8
0
100
AcDbCircle
 62
7
  6
CONTINUOUS
 10
399.1715739686
 20
107.1514125953
 40
414.4966449318
100
AcDbArc
 50
197.5522998553
 51
197.7556974374
  0
ARC
  5
275
100
AcDbEntity
  8
0
100
AcDbCircle
 62
7
  6
CONTINUOUS
 10
398.4093927169
 20
106.9973270885
 40
414.185360217
100
AcDbArc
 50
197.5296134108
 51
197.8718241655
  0
ARC
  5
276
100
AcDbEntity
  8
0
100
AcDbCircle
 62
7
  6
CONTINUOUS
 10
401.7366147706
 20
106.0590192639
 40
412.4375740107
100
AcDbArc
 50
197.8325669114
 51
198.1759494967
  0
ARC
  5
277
100
AcDbEntity
  8
0
100
AcDbCircle
 62
7
  6
CONTINUOUS
 10
401.6449651666
 20
106.0749975956
 40
412.1979700498
100
AcDbArc
 50
197.8352250265
 51
198.178804727
  0
ARC
  5
278
100
AcDbEntity
  8
0
100
AcDbCircle
 62
7
  6
CONTINUOUS
 10
397.5434671585
 20
96.2754501658
 40
407.6274503072
100
AcDbArc
 50
196.4491593208
 51
196.671310093
  0
ARC
  5
279
100
AcDbEntity
  8
0
100
AcDbCircle
 62
7
  6
CONTINUOUS
 10
397.5460771005
 20
96.3244170323
 40
407.4872954807
100
AcDbArc
 50
196.4517321159
 51
196.6371207029
  0
ARC
  5
27A
100
AcDbEntity
  8
RACCORDO
100
AcDbCircle
 62
253
  6
CONTINUOUS
 10
424.9151046009
 20
1.7069904012
 40
407.1140816493
100
AcDbArc
 50
175.0910283048
 51
179.9501624941
  0
ARC
  5
27B
100
AcDbEntity
  8
0
100
AcDbCircle
 62
7
  6
CONTINUOUS
 10
396.3970762764
 20
96.0738349398
 40
406.7849096166
100
AcDbArc
 50
196.5467318081
 51
196.7720755995
  0
ARC
  5
27C
100
AcDbEntity
  8
RACCORDO
100
AcDbCircle
 62
253
  6
CONTINUOUS
 10
332.0440734326
 20
29.5778912849
 40
370.0343251313
100
AcDbArc
 50
179.9413413824
 51
185.0601255032
  0
ARC
  5
27D
100
AcDbEntity
  8
RACCORDO
100
AcDbCircle
 62
253
  6
CONTINUOUS
 10
376.059770955
 20
1.6962964451
 40
358.2587797357
100
AcDbArc
 50
179.9416559448
 51
185.2332672762
  0
ARC
  5
27E
100
AcDbEntity
  8
0
100
AcDbCircle
 62
7
  6
CONTINUOUS
 10
355.5909163923
 20
5.9663692377
 40
350.8060394759
100
AcDbArc
 50
184.037579577
 51
184.3795795737
  0
ARC
  5
27F
100
AcDbEntity
  8
0
100
AcDbCircle
 62
7
  6
CONTINUOUS
 10
357.6065308795
 20
4.9929693951
 40
350.6030936015
100
AcDbArc
 50
184.0398997228
 51
184.3820925328
  0
ARC
  5
280
100
AcDbEntity
  8
0
100
AcDbCircle
 62
7
  6
CONTINUOUS
 10
355.5203052384
 20
6.036402173
 40
350.5937028693
100
AcDbArc
 50
184.0398558553
 51
184.382057146
  0
ARC
  5
281
100
AcDbEntity
  8
0
100
AcDbCircle
 62
7
  6
CONTINUOUS
 10
357.5358864972
 20
5.0630376773
 40
350.3906499829
100
AcDbArc
 50
184.042179658
 51
184.3845740914
  0
ARC
  5
282
100
AcDbEntity
  8
0
100
AcDbCircle
 62
7
  6
CONTINUOUS
 10
354.7154524565
 20
6.0935143333
 40
350.3041142255
100
AcDbArc
 50
184.0369953869
 51
184.3794871774
  0
ARC
  5
283
100
AcDbEntity
  8
0
100
AcDbCircle
 62
7
  6
CONTINUOUS
 10
355.4014340465
 20
5.7620923071
 40
350.2397467708
100
AcDbArc
 50
184.03780881
 51
184.3803613186
  0
ARC
  5
284
100
AcDbEntity
  8
0
100
AcDbCircle
 62
7
  6
CONTINUOUS
 10
355.6420199869
 20
5.5883093949
 40
350.1040879147
100
AcDbArc
 50
184.1548295529
 51
184.3807122828
  0
ARC
  5
285
100
AcDbEntity
  8
0
100
AcDbCircle
 62
7
  6
CONTINUOUS
 10
358.9628502208
 20
4.0443357274
 40
349.8547036415
100
AcDbArc
 50
184.0419380453
 51
184.3848568104
  0
ARC
  5
286
100
AcDbEntity
  8
0
100
AcDbCircle
 62
7
  6
CONTINUOUS
 10
356.280126935
 20
5.0854707418
 40
349.6518429488
100
AcDbArc
 50
184.1560115806
 51
184.3821849944
  0
ARC
  5
287
100
AcDbEntity
  8
0
100
AcDbCircle
 62
7
  6
CONTINUOUS
 10
358.6833821466
 20
3.8161804452
 40
349.1911322316
100
AcDbArc
 50
184.249750439
 51
184.3824904164
  0
ARC
  5
288
100
AcDbEntity
  8
0
100
AcDbCircle
 62
7
  6
CONTINUOUS
 10
313.8022888734
 20
-84.4616984614
 40
313.3159791004
100
AcDbArc
 50
168.0259495461
 51
168.2514164973
  0
ARC
  5
289
100
AcDbEntity
  8
0
100
AcDbCircle
 62
7
  6
CONTINUOUS
 10
311.7232033319
 20
-96.4948757965
 40
312.4756677592
100
AcDbArc
 50
165.8450607664
 51
166.1898682324
  0
ARC
  5
28A
100
AcDbEntity
  8
0
100
AcDbCircle
 62
7
  6
CONTINUOUS
 10
313.2396910569
 20
-84.5292963614
 40
312.3760649336
100
AcDbArc
 50
168.1259839231
 51
168.3546542305
  0
ARC
  5
28B
100
AcDbEntity
  8
0
100
AcDbCircle
 62
7
  6
CONTINUOUS
 10
312.4015492541
 20
-84.2447675393
 40
311.3727228501
100
AcDbArc
 50
168.2254025103
 51
168.356691733
  0
ARC
  5
28C
100
AcDbEntity
  8
0
100
AcDbCircle
 62
7
  6
CONTINUOUS
 10
306.6075217944
 20
-93.4342143924
 40
310.757280827
100
AcDbArc
 50
166.0383884924
 51
166.3841011879
  0
ARC
  5
28D
100
AcDbEntity
  8
0
100
AcDbCircle
 62
7
  6
CONTINUOUS
 10
306.0779647748
 20
-93.1170215204
 40
310.5701993958
100
AcDbArc
 50
166.0584629534
 51
166.2967688395
  0
ARC
  5
28E
100
AcDbEntity
  8
0
100
AcDbCircle
 62
7
  6
CONTINUOUS
 10
306.5629203752
 20
-93.3076920154
 40
310.5626601925
100
AcDbArc
 50
166.0400017099
 51
166.3859222457
  0
ARC
  5
28F
100
AcDbEntity
  8
0
100
AcDbCircle
 62
7
  6
CONTINUOUS
 10
411.3357478348
 20
160.5026450588
 40
440.2519695452
100
AcDbArc
 50
204.5193903149
 51
204.6581663653
  0
ARC
  5
290
100
AcDbEntity
  8
0
100
AcDbCircle
 62
7
  6
CONTINUOUS
 10
411.5360485536
 20
160.4946422831
 40
440.1155024087
100
AcDbArc
 50
204.5439192731
 51
204.6913700884
  0
ARC
  5
291
100
AcDbEntity
  8
0
100
AcDbCircle
 62
7
  6
CONTINUOUS
 10
411.4340236201
 20
160.4788326781
 40
439.8569911264
100
AcDbArc
 50
204.5509932147
 51
204.6943721122
  0
SPLINE
  5
292
100
AcDbEntity
  8
0
100
AcDbSpline
 62
7
  6
CONTINUOUS
 70
0
 71
3
 72
50
 73
46
 74
44
 42
0.0000001
 43
0.0000001
 44
0.0000000001
 12
0.5982097802
 22
0.0263364874
 32
0.0
 13
0.6565731519
 23
-0.4454997091
 33
0.0
 40
0.0
 40
0.0
 40
0.0
 40
0.0
 40
0.0625
 40
0.09375
 40
0.125
 40
0.140625
 40
0.15625
 40
0.1640625
 40
0.171875
 40
0.1875
 40
0.21875
 40
0.25
 40
0.28125
 40
0.3125
 40
0.328125
 40
0.3359375
 40
0.34375
 40
0.359375
 40
0.375
 40
0.4375
 40
0.46875
 40
0.484375
 40
0.4921875
 40
0.5
 40
0.5078125
 40
0.515625
 40
0.53125
 40
0.5625
 40
0.625
 40
0.640625
 40
0.65625
 40
0.6640625
 40
0.671875
 40
0.6875
 40
0.71875
 40
0.75
 40
0.78125
 40
0.8125
 40
0.828125
 40
0.8359375
 40
0.84375
 40
0.859375
 40
0.875
 40
0.9375
 40
1.0
 40
1.0
 40
1.0
 40
1.0
 10
22.7087775705
 20
16.2436941069
 30
0.0
 10
22.7212402743
 20
16.2442427837
 30
0.0
 10
22.7399350753
 20
16.2450630168
 30
0.0
 10
22.7648584951
 20
16.2461677896
 30
0.0
 10
22.7804418441
 20
16.2468350876
 30
0.0
 10
22.7928943608
 20
16.2474217879
 30
0.0
 10
22.800709484
 20
16.2476679135
 30
0.0
 10
22.8068876026
 20
16.2481409474
 30
0.0
 10
22.813335801
 20
16.247605897
 30
0.0
 10
22.8247456723
 20
16.2462009712
 30
0.0
 10
22.8409795518
 20
16.244440545
 30
0.0
 10
22.8604897905
 20
16.2422153599
 30
0.0
 10
22.8799871949
 20
16.2400462924
 30
0.0
 10
22.8962531602
 20
16.2381455721
 30
0.0
 10
22.9076068814
 20
16.2369861609
 30
0.0
 10
22.9141449198
 20
16.2360582872
 30
0.0
 10
22.9208718797
 20
16.2341315243
 30
0.0
 10
22.9292159781
 20
16.2320647207
 30
0.0
 10
22.9492952241
 20
16.22682122
 30
0.0
 10
22.9727008426
 20
16.2208187434
 30
0.0
 10
22.996120233
 20
16.2147192198
 30
0.0
 10
23.0078213715
 20
16.2117460639
 30
0.0
 10
23.0145204375
 20
16.2099296571
 30
0.0
 10
23.0195090784
 20
16.2088978464
 30
0.0
 10
23.0246340031
 20
16.2066027883
 30
0.0
 10
23.0314196885
 20
16.2039833745
 30
0.0
 10
23.0433168928
 20
16.1991937982
 30
0.0
 10
23.0670938685
 20
16.1897683867
 30
0.0
 10
23.0908864219
 20
16.1802429365
 30
0.0
 10
23.1112591104
 20
16.1721828186
 30
0.0
 10
23.1197751939
 20
16.1686978174
 30
0.0
 10
23.1265242416
 20
16.166203246
 30
0.0
 10
23.1335065951
 20
16.1626362512
 30
0.0
 10
23.1458340851
 20
16.1558955027
 30
0.0
 10
23.1633884178
 20
16.146527905
 30
0.0
 10
23.184476474
 20
16.1351684274
 30
0.0
 10
23.2055632904
 20
16.1238631226
 30
0.0
 10
23.2231207226
 20
16.1143600928
 30
0.0
 10
23.2354427886
 20
16.1078563505
 30
0.0
 10
23.2424338206
 20
16.1039101458
 30
0.0
 10
23.249235889
 20
16.0990991087
 30
0.0
 10
23.2578030644
 20
16.0933809221
 30
0.0
 10
23.2783111127
 20
16.0794139174
 30
0.0
 10
23.3090956979
 20
16.0585664445
 30
0.0
 10
23.3364506255
 20
16.0399934897
 30
0.0
 10
23.3501292329
 20
16.0307122457
 30
0.0
 11
22.7087775705
 21
16.2436941069
 31
0.0
 11
22.7461656818
 21
16.2453401374
 31
0.0
 11
22.7648597374
 21
16.2461631526
 31
0.0
 11
22.7835537931
 21
16.2469861678
 31
0.0
 11
22.7929008209
 21
16.2473976755
 31
0.0
 11
22.8022478487
 21
16.2478091831
 31
0.0
 11
22.8069213626
 21
16.2480149369
 31
0.0
 11
22.8117297287
 21
16.2477173459
 31
0.0
 11
22.8214813133
 21
16.2466188193
 31
0.0
 11
22.8409844824
 21
16.2444217661
 31
0.0
 11
22.8604876515
 21
16.2422247128
 31
0.0
 11
22.8799908205
 21
16.2400276596
 31
0.0
 11
22.8994939896
 21
16.2378306063
 31
0.0
 11
22.9092455742
 21
16.2367320797
 31
0.0
 11
22.914168535
 21
16.235933426
 31
0.0
 11
22.919185833
 21
16.2346359917
 31
0.0
 11
22.9292204289
 21
16.2320411231
 31
0.0
 11
22.9392550249
 21
16.2294462544
 31
0.0
 11
22.9793934086
 21
16.2190667798
 31
0.0
 11
22.9994626005
 21
16.2138770425
 31
0.0
 11
23.0094971965
 21
16.2112821738
 31
0.0
 11
23.0145144944
 21
16.2099847395
 31
0.0
 11
23.0195317924
 21
16.2086873052
 31
0.0
 11
23.0246280596
 21
16.2066578713
 31
0.0
 11
23.0297243269
 21
16.2046284374
 31
0.0
 11
23.0399168614
 21
16.2005695695
 31
0.0
 11
23.0603019305
 21
16.1924518339
 31
0.0
 11
23.1010720685
 21
16.1762163626
 31
0.0
 11
23.111264603
 21
16.1721574948
 31
0.0
 11
23.1214571375
 21
16.168098627
 31
0.0
 11
23.1265534048
 21
16.1660691931
 31
0.0
 11
23.1317661672
 21
16.1635042614
 31
0.0
 11
23.1423081873
 21
16.1578389004
 31
0.0
 11
23.1633922273
 21
16.1465081783
 31
0.0
 11
23.1844762674
 21
16.1351774562
 31
0.0
 11
23.2055603074
 21
16.1238467341
 31
0.0
 11
23.2266443475
 21
16.112516012
 31
0.0
 11
23.2371863675
 21
16.1068506509
 31
0.0
 11
23.2424102001
 21
16.1038020418
 31
0.0
 11
23.2475396779
 21
16.1003215753
 31
0.0
 11
23.2577986334
 21
16.0933606423
 31
0.0
 11
23.2680575889
 21
16.0863997094
 31
0.0
 11
23.3090934109
 21
16.0585559776
 31
0.0
 11
23.3501292329
 21
16.0307122457
 31
0.0
  0
LINE
  5
293
100
AcDbEntity
  8
0
100
AcDbLine
 62
7
  6
CONTINUOUS
 10
23.3501292473
 20
16.0307122349
 11
23.3603537919
 21
16.0229740219
  0
SPLINE
  5
294
100
AcDbEntity
  8
0
100
AcDbSpline
 62
7
  6
CONTINUOUS
 70
0
 71
3
 72
73
 73
69
 74
67
 42
0.0000001
 43
0.0000001
 44
0.0000000001
 12
1.1833925897
 22
-1.069607721
 32
0.0
 13
0.2216890711
 23
-1.6506028106
 33
0.0
 40
0.0
 40
0.0
 40
0.0
 40
0.0
 40
0.0625
 40
0.09375
 40
0.109375
 40
0.125
 40
0.140625
 40
0.15625
 40
0.16015625
 40
0.1640625
 40
0.16796875
 40
0.171875
 40
0.1796875
 40
0.1875
 40
0.203125
 40
0.21875
 40
0.25
 40
0.28125
 40
0.296875
 40
0.3125
 40
0.3203125
 40
0.328125
 40
0.33203125
 40
0.3359375
 40
0.34375
 40
0.359375
 40
0.375
 40
0.390625
 40
0.40625
 40
0.4375
 40
0.453125
 40
0.46875
 40
0.484375
 40
0.4921875
 40
0.49609375
 40
0.5
 40
0.50390625
 40
0.5078125
 40
0.515625
 40
0.53125
 40
0.546875
 40
0.5625
 40
0.59375
 40
0.609375
 40
0.625
 40
0.640625
 40
0.65625
 40
0.6640625
 40
0.66796875
 40
0.671875
 40
0.6796875
 40
0.6875
 40
0.703125
 40
0.71875
 40
0.75
 40
0.78125
 40
0.796875
 40
0.8125
 40
0.8203125
 40
0.828125
 40
0.83203125
 40
0.8359375
 40
0.84375
 40
0.859375
 40
0.875
 40
0.90625
 40
0.9375
 40
1.0
 40
1.0
 40
1.0
 40
1.0
 10
23.3603537917
 20
16.0229740221
 30
0.0
 10
23.385007804
 20
16.0006905279
 30
0.0
 10
23.4219887612
 20
15.9672651124
 30
0.0
 10
23.4651334255
 20
15.9282694041
 30
0.0
 10
23.4897872134
 20
15.9059852711
 30
0.0
 10
23.5082784111
 20
15.8892746104
 30
0.0
 10
23.5267663345
 20
15.872554629
 30
0.0
 10
23.5406414575
 20
15.860040776
 30
0.0
 10
23.5498772619
 20
15.8516575649
 30
0.0
 10
23.5545206593
 20
15.8475385331
 30
0.0
 10
23.5590649315
 20
15.8431373348
 30
0.0
 10
23.5646523052
 20
15.8359264698
 30
0.0
 10
23.571798017
 20
15.8273725932
 30
0.0
 10
23.5831409019
 20
15.8134294823
 30
0.0
 10
23.5973504348
 20
15.7960885871
 30
0.0
 10
23.6200682639
 20
15.768293814
 30
0.0
 10
23.6484725192
 20
15.7335684297
 30
0.0
 10
23.6768706784
 20
15.6988323928
 30
0.0
 10
23.6995982612
 20
15.6710546639
 30
0.0
 10
23.7137834099
 20
15.6536711583
 30
0.0
 10
23.7251762824
 20
15.6398153987
 30
0.0
 10
23.732194739
 20
15.6310391492
 30
0.0
 10
23.7380433289
 20
15.6242847478
 30
0.0
 10
23.7430382915
 20
15.6165570732
 30
0.0
 10
23.7513828679
 20
15.6025814455
 30
0.0
 10
23.7635110765
 20
15.5828527135
 30
0.0
 10
23.7779760108
 20
15.5590768664
 30
0.0
 10
23.7924647929
 20
15.5353281731
 30
0.0
 10
23.8117745354
 20
15.503653587
 30
0.0
 10
23.8310883838
 20
15.4719826641
 30
0.0
 10
23.8503963899
 20
15.4403079976
 30
0.0
 10
23.8648908157
 20
15.4165595651
 30
0.0
 10
23.8769272005
 20
15.3967455401
 30
0.0
 10
23.8854356352
 20
15.3829221076
 30
0.0
 10
23.8901680626
 20
15.3749505855
 30
0.0
 10
23.8940822844
 20
15.3691759444
 30
0.0
 10
23.8966016691
 20
15.3626215106
 30
0.0
 10
23.9004473835
 20
15.3541542659
 30
0.0
 10
23.9069506968
 20
15.3392098576
 30
0.0
 10
23.9163596696
 20
15.3179269601
 30
0.0
 10
23.9275996576
 20
15.2923591176
 30
0.0
 10
23.9426042776
 20
15.2582785944
 30
0.0
 10
23.9576026409
 20
15.2241952018
 30
0.0
 10
23.9726062971
 20
15.1901129673
 30
0.0
 10
23.9838494171
 20
15.1645506864
 30
0.0
 10
23.9951283793
 20
15.1389902467
 30
0.0
 10
24.0044160591
 20
15.1176842471
 30
0.0
 10
24.0111358101
 20
15.1027810715
 30
0.0
 10
24.014634747
 20
15.0942477626
 30
0.0
 10
24.016849585
 20
15.0856496368
 30
0.0
 10
24.0200578063
 20
15.0749241727
 30
0.0
 10
24.0249452451
 20
15.0577510275
 30
0.0
 10
24.0311387137
 20
15.0362888431
 30
0.0
 10
24.041001005
 20
15.0019469722
 30
0.0
 10
24.0533466265
 20
14.9590204639
 30
0.0
 10
24.0656802919
 20
14.9160936043
 30
0.0
 10
24.075561713
 20
14.8817522955
 30
0.0
 10
24.0817073572
 20
14.8602887059
 30
0.0
 10
24.0866928361
 20
14.8431184413
 30
0.0
 10
24.0896514734
 20
14.8323856439
 30
0.0
 10
24.0923786311
 20
14.8238025712
 30
0.0
 10
24.0937906271
 20
14.815207943
 30
0.0
 10
24.0956506717
 20
14.8001619753
 30
0.0
 10
24.0986266408
 20
14.7786705367
 30
0.0
 10
24.1032100484
 20
14.7442826696
 30
0.0
 10
24.1090003304
 20
14.7012983719
 30
0.0
 10
24.1182305234
 20
14.6325231946
 30
0.0
 10
24.1251608763
 20
14.5809418793
 30
0.0
 10
24.1297793986
 20
14.5465543208
 30
0.0
 11
23.3603537917
 21
16.0229740221
 31
0.0
 11
23.4343158285
 21
15.9561235395
 31
0.0
 11
23.471296847
 21
15.9226982983
 31
0.0
 11
23.4897873562
 21
15.9059856776
 31
0.0
 11
23.5082778654
 21
15.889273057
 31
0.0
 11
23.5267683746
 21
15.8725604363
 31
0.0
 11
23.5452588838
 21
15.8558478157
 31
0.0
 11
23.5498815111
 21
15.8516696605
 31
0.0
 11
23.5545041384
 21
15.8474915054
 31
0.0
 11
23.5590059745
 21
15.8429695097
 31
0.0
 11
23.5632662281
 21
15.837759833
 31
0.0
 11
23.5717867353
 21
15.8273404796
 31
0.0
 11
23.5803072425
 21
15.8169211263
 31
0.0
 11
23.5973482568
 21
15.7960824195
 31
0.0
 11
23.6143892712
 21
15.7752437127
 31
0.0
 11
23.6484713
 21
15.7335662992
 31
0.0
 11
23.6825533287
 21
15.6918888857
 31
0.0
 11
23.6995943431
 21
15.6710501789
 31
0.0
 11
23.7166353575
 21
15.6502114721
 31
0.0
 11
23.7251558647
 21
15.6397921187
 31
0.0
 11
23.7336763719
 21
15.6293727654
 31
0.0
 11
23.7379366255
 21
15.6241630887
 31
0.0
 11
23.7417706647
 21
15.6184674587
 31
0.0
 11
23.7490125289
 21
15.6065902453
 31
0.0
 11
23.7634962571
 21
15.5828358187
 31
0.0
 11
23.7779799854
 21
15.5590813921
 31
0.0
 11
23.7924637137
 21
15.5353269654
 31
0.0
 11
23.8069474419
 21
15.5115725388
 31
0.0
 11
23.8359148985
 21
15.4640636855
 31
0.0
 11
23.8503986268
 21
15.4403092589
 31
0.0
 11
23.864882355
 21
15.4165548322
 31
0.0
 11
23.8793660833
 21
15.3928004056
 31
0.0
 11
23.8866079474
 21
15.3809231923
 31
0.0
 11
23.8902288795
 21
15.3749845856
 31
0.0
 11
23.8938498116
 21
15.3690459789
 31
0.0
 11
23.8966624859
 21
15.3626555106
 31
0.0
 11
23.8994751603
 21
15.3562650423
 31
0.0
 11
23.905100509
 21
15.3434841057
 31
0.0
 11
23.9163512064
 21
15.3179222325
 31
0.0
 11
23.9276019038
 21
15.2923603593
 31
0.0
 11
23.9388526012
 21
15.2667984861
 31
0.0
 11
23.961353996
 21
15.2156747397
 31
0.0
 11
23.9726046934
 21
15.1901128665
 31
0.0
 11
23.9838553908
 21
15.1645509933
 31
0.0
 11
23.9951060882
 21
15.1389891201
 31
0.0
 11
24.0063567856
 21
15.1134272469
 31
0.0
 11
24.0119821343
 21
15.1006463103
 31
0.0
 11
24.0144742347
 21
15.0942396605
 31
0.0
 11
24.0163251871
 21
15.0878006478
 31
0.0
 11
24.0200270919
 21
15.0749226224
 31
0.0
 11
24.0237289967
 21
15.062044597
 31
0.0
 11
24.0311328064
 21
15.0362885461
 31
0.0
 11
24.038536616
 21
15.0105324953
 31
0.0
 11
24.0533442353
 21
14.9590203936
 31
0.0
 11
24.0681518546
 21
14.907508292
 31
0.0
 11
24.0755556642
 21
14.8817522412
 31
0.0
 11
24.0829594739
 21
14.8559961903
 31
0.0
 11
24.0866613787
 21
14.8431181649
 31
0.0
 11
24.0903632835
 21
14.8302401395
 31
0.0
 11
24.0922142359
 21
14.8238011268
 31
0.0
 11
24.0934085353
 21
14.8173563444
 31
0.0
 11
24.0951404812
 21
14.8044610099
 31
0.0
 11
24.0986043729
 21
14.778670341
 31
0.0
 11
24.1020682647
 21
14.7528796721
 31
0.0
 11
24.1089960482
 21
14.7012983343
 31
0.0
 11
24.1159238316
 21
14.6497169964
 31
0.0
 11
24.1297793986
 21
14.5465543208
 31
0.0
  0
SPLINE
  5
295
100
AcDbEntity
  8
0
100
AcDbSpline
 62
7
  6
CONTINUOUS
 70
0
 71
3
 72
15
 73
11
 74
9
 42
0.0000001
 43
0.0000001
 44
0.0000000001
 12
0.003695127
 22
-0.0769077158
 32
0.0
 13
0.0005027683
 23
-0.0942881549
 33
0.0
 40
0.0
 40
0.0
 40
0.0
 40
0.0
 40
0.25
 40
0.5
 40
0.625
 40
0.75
 40
0.8125
 40
0.84375
 40
0.875
 40
1.0
 40
1.0
 40
1.0
 40
1.0
 10
24.1297793967
 20
14.5465543565
 30
0.0
 10
24.130087324
 20
14.5401453802
 30
0.0
 10
24.1306881584
 20
14.5273367617
 30
0.0
 10
24.13124681
 20
14.5113950322
 30
0.0
 10
24.1315358534
 20
14.4987438592
 30
0.0
 10
24.1316719681
 20
14.4907904919
 30
0.0
 10
24.1317547062
 20
14.4853644269
 30
0.0
 10
24.1317966739
 20
14.4820544454
 30
0.0
 10
24.1318208211
 20
14.4759472732
 30
0.0
 10
24.1318510491
 20
14.471155411
 30
0.0
 10
24.1318719977
 20
14.4672267379
 30
0.0
 11
24.1297793967
 21
14.5465543565
 31
0.0
 11
24.1306496801
 21
14.5273505704
 31
0.0
 11
24.1313059143
 21
14.5082407565
 31
0.0
 11
24.1315269459
 21
14.4987345823
 31
0.0
 11
24.1316944131
 21
14.489253644
 31
0.0
 11
24.1317647555
 21
14.4845194838
 31
0.0
 11
24.1317934402
 21
14.4819592621
 31
0.0
 11
24.1318091517
 21
14.4790127572
 31
0.0
 11
24.1318719977
 21
14.4672267379
 31
0.0
  0
SPLINE
  5
296
100
AcDbEntity
  8
0
100
AcDbSpline
 62
7
  6
CONTINUOUS
 70
0
 71
3
 72
65
 73
61
 74
59
 42
0.0000001
 43
0.0000001
 44
0.0000000001
 12
-0.065922132
 22
-1.0408171966
 32
0.0
 13
-0.6869237789
 23
-0.406114765
 33
0.0
 40
0.0
 40
0.0
 40
0.0
 40
0.0
 40
0.0625
 40
0.09375
 40
0.125
 40
0.140625
 40
0.15625
 40
0.1640625
 40
0.16796875
 40
0.171875
 40
0.1796875
 40
0.1875
 40
0.21875
 40
0.25
 40
0.28125
 40
0.3125
 40
0.3203125
 40
0.328125
 40
0.33203125
 40
0.3359375
 40
0.34375
 40
0.359375
 40
0.375
 40
0.40625
 40
0.4375
 40
0.453125
 40
0.46875
 40
0.484375
 40
0.4921875
 40
0.49609375
 40
0.5
 40
0.50390625
 40
0.5078125
 40
0.515625
 40
0.53125
 40
0.546875
 40
0.5625
 40
0.59375
 40
0.625
 40
0.640625
 40
0.65625
 40
0.6640625
 40
0.66796875
 40
0.671875
 40
0.6796875
 40
0.6875
 40
0.71875
 40
0.75
 40
0.78125
 40
0.8125
 40
0.8203125
 40
0.828125
 40
0.83203125
 40
0.8359375
 40
0.84375
 40
0.859375
 40
0.875
 40
0.90625
 40
0.9375
 40
1.0
 40
1.0
 40
1.0
 40
1.0
 10
24.1318719977
 20
14.467226734
 30
0.0
 10
24.13049862
 20
14.4455430424
 30
0.0
 10
24.1284371629
 20
14.4130182024
 30
0.0
 10
24.1256941153
 20
14.3696489594
 30
0.0
 10
24.1239681233
 20
14.3425489944
 30
0.0
 10
24.1226137487
 20
14.3208557714
 30
0.0
 10
24.1217070106
 20
14.3073277287
 30
0.0
 10
24.1211930482
 20
14.2977975318
 30
0.0
 10
24.1207104242
 20
14.2924464677
 30
0.0
 10
24.119516191
 20
14.2874523281
 30
0.0
 10
24.1182666356
 20
14.2810876508
 30
0.0
 10
24.1150674634
 20
14.2659128787
 30
0.0
 10
24.1103534605
 20
14.2431079533
 30
0.0
 10
24.1040165729
 20
14.2127285707
 30
0.0
 10
24.0977050752
 20
14.1823316864
 30
0.0
 10
24.0929339452
 20
14.1595661401
 30
0.0
 10
24.0898077688
 20
14.1443410503
 30
0.0
 10
24.0884246522
 20
14.1380684396
 30
0.0
 10
24.0875060046
 20
14.1328843327
 30
0.0
 10
24.0859004091
 20
14.1283073581
 30
0.0
 10
24.0827714462
 20
14.1205797393
 30
0.0
 10
24.0784680218
 20
14.1093931111
 30
0.0
 10
24.071489509
 20
14.0915767191
 30
0.0
 10
24.0627980306
 20
14.0692783217
 30
0.0
 10
24.0540961942
 20
14.0469887873
 30
0.0
 10
24.0471342542
 20
14.0291582146
 30
0.0
 10
24.0419204267
 20
14.0157768027
 30
0.0
 10
24.0375503415
 20
14.0046534613
 30
0.0
 10
24.0345409257
 20
13.9968123796
 30
0.0
 10
24.0327437246
 20
13.9924172555
 30
0.0
 10
24.0316142445
 20
13.988880071
 30
0.0
 10
24.029649849
 20
13.9862635053
 30
0.0
 10
24.0273218826
 20
13.9824536291
 30
0.0
 10
24.0231122552
 20
13.9759359597
 30
0.0
 10
24.0171694241
 20
13.9665468052
 30
0.0
 10
24.0100077393
 20
13.9553131966
 30
0.0
 10
24.0004690584
 20
13.9403238652
 30
0.0
 10
23.9885446854
 20
13.9215876581
 30
0.0
 10
23.9766116094
 20
13.9028636057
 30
0.0
 10
23.9670868533
 20
13.8878548269
 30
0.0
 10
23.9610839706
 20
13.8785421049
 30
0.0
 10
23.956982016
 20
13.8718873547
 30
0.0
 10
23.954481478
 20
13.8682971878
 30
0.0
 10
23.9513912409
 20
13.865507582
 30
0.0
 10
23.9477300106
 20
13.8617469334
 30
0.0
 10
23.9387771203
 20
13.8529466505
 30
0.0
 10
23.9254180547
 20
13.8396508172
 30
0.0
 10
23.9075630701
 20
13.8219813396
 30
0.0
 10
23.8897297653
 20
13.8042822007
 30
0.0
 10
23.8763219203
 20
13.7910531052
 30
0.0
 10
23.8674313593
 20
13.7821675462
 30
0.0
 10
23.8636560846
 20
13.7785629282
 30
0.0
 10
23.8608011628
 20
13.7754513742
 30
0.0
 10
23.8573417489
 20
13.7731730997
 30
0.0
 10
23.8510069139
 20
13.7695732797
 30
0.0
 10
23.8421036888
 20
13.7642286785
 30
0.0
 10
23.827776634
 20
13.7557902066
 30
0.0
 10
23.8098958684
 20
13.7452034464
 30
0.0
 10
23.7812708945
 20
13.7282863398
 30
0.0
 10
23.7598057076
 20
13.7155936252
 30
0.0
 10
23.7454947955
 20
13.7071329009
 30
0.0
 11
24.1318719977
 21
14.467226734
 31
0.0
 11
24.1277518645
 21
14.4021756592
 31
0.0
 11
24.1256917979
 21
14.3696501218
 31
0.0
 11
24.1236317312
 21
14.3371245844
 31
0.0
 11
24.1226016979
 21
14.3208618157
 31
0.0
 11
24.1215716646
 21
14.304599047
 31
0.0
 11
24.121056648
 21
14.2964676627
 31
0.0
 11
24.1206214731
 21
14.2924910833
 31
0.0
 11
24.119830965
 21
14.2886927295
 31
0.0
 11
24.118249949
 21
14.2810960219
 31
0.0
 11
24.1166689329
 21
14.2734993144
 31
0.0
 11
24.1103448688
 21
14.2431124841
 31
0.0
 11
24.1040208046
 21
14.2127256538
 31
0.0
 11
24.0976967404
 21
14.1823388235
 31
0.0
 11
24.0913726762
 21
14.1519519932
 31
0.0
 11
24.0897916602
 21
14.1443552856
 31
0.0
 11
24.0882106441
 21
14.136758578
 31
0.0
 11
24.0874201361
 21
14.1329602243
 31
0.0
 11
24.0862866093
 21
14.1294650345
 31
0.0
 11
24.0836765371
 21
14.1227778189
 31
0.0
 11
24.0784563926
 21
14.1094033878
 31
0.0
 11
24.0732362481
 21
14.0960289566
 31
0.0
 11
24.062795959
 21
14.0692800943
 31
0.0
 11
24.05235567
 21
14.042531232
 31
0.0
 11
24.0471355255
 21
14.0291568009
 31
0.0
 11
24.0419153809
 21
14.0157823698
 31
0.0
 11
24.0366952364
 21
14.0024079386
 31
0.0
 11
24.0340851642
 21
13.9957207231
 31
0.0
 11
24.032780128
 21
13.9923771153
 31
0.0
 11
24.0314750919
 21
13.9890335075
 31
0.0
 11
24.0296862524
 21
13.986223365
 31
0.0
 11
24.027897413
 21
13.9834132226
 31
0.0
 11
24.024319734
 21
13.9777929377
 31
0.0
 11
24.0171643762
 21
13.966552368
 31
0.0
 11
24.0100090184
 21
13.9553117983
 31
0.0
 11
24.0028536605
 21
13.9440712285
 31
0.0
 11
23.9885429448
 21
13.9215900891
 31
0.0
 11
23.9742322291
 21
13.8991089496
 31
0.0
 11
23.9670768713
 21
13.8878683799
 31
0.0
 11
23.9599215134
 21
13.8766278101
 31
0.0
 11
23.9563438345
 21
13.8710075253
 31
0.0
 11
23.9544077656
 21
13.8683972579
 31
0.0
 11
23.9521772379
 21
13.8661867407
 31
0.0
 11
23.9477161824
 21
13.8617657062
 31
0.0
 11
23.943255127
 21
13.8573446717
 31
0.0
 11
23.9254109052
 21
13.8396605339
 31
0.0
 11
23.9075666834
 21
13.821976396
 31
0.0
 11
23.8897224617
 21
13.8042922582
 31
0.0
 11
23.8718782399
 21
13.7866081203
 31
0.0
 11
23.8674171844
 21
13.7821870858
 31
0.0
 11
23.862956129
 21
13.7777660514
 31
0.0
 11
23.8607256013
 21
13.7755555342
 31
0.0
 11
23.858193228
 21
13.7737611045
 31
0.0
 11
23.852826636
 21
13.7705883329
 31
0.0
 11
23.8420934519
 21
13.7642427897
 31
0.0
 11
23.8313602679
 21
13.7578972465
 31
0.0
 11
23.8098938998
 21
13.7452061601
 31
0.0
 11
23.7884275317
 21
13.7325150737
 31
0.0
 11
23.7454947955
 21
13.7071329009
 31
0.0
  0
SPLINE
  5
297
100
AcDbEntity
  8
0
100
AcDbSpline
 62
7
  6
CONTINUOUS
 70
0
 71
3
 72
11
 73
7
 74
5
 42
0.0000001
 43
0.0000001
 44
0.0000000001
 12
-2.6061301535
 22
1.9545976151
 32
0.0
 13
0.0
 23
3.2576626918
 33
0.0
 40
0.0
 40
0.0
 40
0.0
 40
0.0
 40
0.24092886
 40
0.5
 40
0.75907114
 40
1.0
 40
1.0
 40
1.0
 40
1.0
 10
-28.8300971474
 20
22.5509927058
 30
0.0
 10
-29.0393944698
 20
22.7079656976
 30
0.0
 10
-29.4272217058
 20
23.097288991
 30
0.0
 10
-29.8714801048
 20
23.7980681801
 30
0.0
 10
-30.1655484167
 20
24.5739424128
 30
0.0
 10
-30.2443107098
 20
25.1177981777
 30
0.0
 10
-30.2443107098
 20
25.3794198306
 30
0.0
 11
-28.8300971474
 21
22.5509927058
 31
0.0
 11
-29.3910466943
 21
23.0999449892
 31
0.0
 11
-29.8458501506
 21
23.8108831572
 31
0.0
 11
-30.1417186112
 21
24.6012888231
 31
0.0
 11
-30.2443107098
 21
25.3794198306
 31
0.0
  0
SPLINE
  5
298
100
AcDbEntity
  8
0
100
AcDbSpline
 62
7
  6
CONTINUOUS
 70
0
 71
3
 72
12
 73
8
 74
6
 42
0.0000001
 43
0.0000001
 44
0.0000000001
 12
0.0
 22
1.5756463993
 32
0.0
 13
1.4093618846
 23
0.7045286749
 33
0.0
 40
0.0
 40
0.0
 40
0.0
 40
0.0
 40
0.2895063935
 40
0.5491143116
 40
0.7821792366
 40
0.8921632299
 40
1.0
 40
1.0
 40
1.0
 40
1.0
 10
-30.2443107098
 20
25.3794198306
 30
0.0
 10
-30.2443107098
 20
25.5314730661
 30
0.0
 10
-30.2196902061
 20
25.8210121087
 30
0.0
 10
-30.096286949
 20
26.216800106
 30
0.0
 10
-29.9198646867
 20
26.4864077238
 30
0.0
 10
-29.7431011106
 20
26.6455992119
 30
0.0
 10
-29.6452368253
 20
26.7062771028
 30
0.0
 10
-29.5945764808
 20
26.7316018018
 30
0.0
 11
-30.2443107098
 21
25.3794198306
 31
0.0
 11
-30.201112339
 21
25.8335294854
 31
0.0
 11
-30.0736354642
 21
26.222209018
 31
0.0
 11
-29.8681111625
 21
26.5265379505
 31
0.0
 11
-29.7390798945
 21
26.6422202523
 31
0.0
 11
-29.5945764808
 21
26.7316018018
 31
0.0
  0
SPLINE
  5
299
100
AcDbEntity
  8
0
100
AcDbSpline
 62
7
  6
CONTINUOUS
 70
0
 71
3
 72
10
 73
6
 74
4
 42
0.0000001
 43
0.0000001
 44
0.0000000001
 12
-0.906120067
 22
4.1672638697
 32
0.0
 13
0.7498107537
 23
4.1982050413
 33
0.0
 40
0.0
 40
0.0
 40
0.0
 40
0.0
 40
0.4758114708
 40
0.7325725893
 40
1.0
 40
1.0
 40
1.0
 40
1.0
 10
-28.1229903663
 20
22.1974393152
 30
0.0
 10
-28.2667044735
 20
22.8583832989
 30
0.0
 10
-28.361250882
 20
23.9059087594
 30
0.0
 10
-28.2915194141
 20
25.3263773237
 30
0.0
 10
-28.189830349
 20
26.0658416344
 30
0.0
 10
-28.1229903663
 20
26.4400800024
 30
0.0
 11
-28.1229903663
 21
22.1974393152
 31
0.0
 11
-28.3280863024
 21
24.216211691
 31
0.0
 11
-28.2766349971
 21
25.309995589
 31
0.0
 11
-28.1229903663
 21
26.4400800024
 31
0.0
  0
SPLINE
  5
29A
100
AcDbEntity
  8
0
100
AcDbSpline
 62
7
  6
CONTINUOUS
 70
0
 71
3
 72
10
 73
6
 74
4
 42
0.0000001
 43
0.0000001
 44
0.0000000001
 12
-0.6987680228
 22
-0.3493085165
 32
0.0
 13
-0.757887584
 23
0.189471896
 33
0.0
 40
0.0
 40
0.0
 40
0.0
 40
0.0
 40
0.2373844883
 40
0.4803523072
 40
1.0
 40
1.0
 40
1.0
 40
1.0
 10
-27.3585110329
 20
22.2594709064
 30
0.0
 10
-27.4138032628
 20
22.2318307653
 30
0.0
 10
-27.5316215844
 20
22.1869534896
 30
0.0
 10
-27.7894943203
 20
22.1426998948
 30
0.0
 10
-27.9917121881
 20
22.1646197707
 30
0.0
 10
-28.1229903663
 20
22.1974393152
 30
0.0
 11
-27.3585110329
 21
22.2594709064
 31
0.0
 11
-27.5317300297
 21
22.1932436319
 31
0.0
 11
-27.7187105026
 21
22.1605945746
 31
0.0
 11
-28.1229903663
 21
22.1974393152
 31
0.0
  0
SPLINE
  5
29B
100
AcDbEntity
  8
0
100
AcDbSpline
 62
7
  6
CONTINUOUS
 70
0
 71
3
 72
10
 73
6
 74
4
 42
0.0000001
 43
0.0000001
 44
0.0000000001
 12
-0.7498107537
 22
-4.1982050413
 32
0.0
 13
0.906120067
 23
-4.1672638697
 33
0.0
 40
0.0
 40
0.0
 40
0.0
 40
0.0
 40
0.2674274112
 40
0.5241885293
 40
1.0
 40
1.0
 40
1.0
 40
1.0
 10
-28.8300971474
 20
26.7936333929
 30
0.0
 10
-28.8969371304
 20
26.4193950243
 30
0.0
 10
-28.9986261954
 20
25.6799307135
 30
0.0
 10
-29.0683576631
 20
24.2594621491
 30
0.0
 10
-28.9738112547
 20
23.2119366894
 30
0.0
 10
-28.8300971474
 20
22.5509927058
 30
0.0
 11
-28.8300971474
 21
26.7936333929
 31
0.0
 11
-28.9837417784
 21
25.6635489774
 31
0.0
 11
-29.0351930836
 21
24.5697650811
 31
0.0
 11
-28.8300971474
 21
22.5509927058
 31
0.0
  0
SPLINE
  5
29C
100
AcDbEntity
  8
0
100
AcDbSpline
 62
7
  6
CONTINUOUS
 70
0
 71
3
 72
9
 73
5
 74
3
 42
0.0000001
 43
0.0000001
 44
0.0000000001
 12
0.9572586291
 22
-0.7179439718
 32
0.0
 13
0.6467733139
 23
-1.00671342
 33
0.0
 40
0.0
 40
0.0
 40
0.0
 40
0.0
 40
0.483123002
 40
1.0
 40
1.0
 40
1.0
 40
1.0
 10
-28.1229903663
 20
26.4400800024
 30
0.0
 10
-27.9688324787
 20
26.3244615867
 30
0.0
 10
-27.6751467076
 20
26.0505060043
 30
0.0
 10
-27.433268541
 20
25.7309809579
 30
0.0
 10
-27.321834458
 20
25.5575319544
 30
0.0
 11
-28.1229903663
 21
26.4400800024
 31
0.0
 11
-27.6971520768
 21
26.04911683
 31
0.0
 11
-27.321834458
 21
25.5575319544
 31
0.0
  0
SPLINE
  5
29D
100
AcDbEntity
  8
0
100
AcDbSpline
 62
7
  6
CONTINUOUS
 70
0
 71
3
 72
12
 73
8
 74
6
 42
0.0000001
 43
0.0000001
 44
0.0000000001
 12
0.0
 22
-1.5756463993
 32
0.0
 13
-1.4093618846
 23
-0.7045286749
 33
0.0
 40
0.0
 40
0.0
 40
0.0
 40
0.0
 40
0.2895063935
 40
0.5491143116
 40
0.7821792366
 40
0.8921632299
 40
1.0
 40
1.0
 40
1.0
 40
1.0
 10
-26.7087768039
 20
23.6116528776
 30
0.0
 10
-26.7087768039
 20
23.4595996421
 30
0.0
 10
-26.7333973076
 20
23.1700605995
 30
0.0
 10
-26.8568005647
 20
22.7742726022
 30
0.0
 10
-27.033222827
 20
22.5046649844
 30
0.0
 10
-27.2099864031
 20
22.3454734963
 30
0.0
 10
-27.3078506884
 20
22.2847956053
 30
0.0
 10
-27.3585110329
 20
22.2594709064
 30
0.0
 11
-26.7087768039
 21
23.6116528776
 31
0.0
 11
-26.7519751747
 21
23.1575432227
 31
0.0
 11
-26.8794520495
 21
22.7688636902
 31
0.0
 11
-27.0849763512
 21
22.4645347576
 31
0.0
 11
-27.2140076192
 21
22.3488524559
 31
0.0
 11
-27.3585110329
 21
22.2594709064
 31
0.0
  0
SPLINE
  5
29E
100
AcDbEntity
  8
0
100
AcDbSpline
 62
7
  6
CONTINUOUS
 70
0
 71
3
 72
10
 73
6
 74
4
 42
0.0000001
 43
0.0000001
 44
0.0000000001
 12
0.6987680228
 22
0.3493085165
 32
0.0
 13
0.757887584
 23
-0.189471896
 33
0.0
 40
0.0
 40
0.0
 40
0.0
 40
0.0
 40
0.2373844883
 40
0.4803523072
 40
1.0
 40
1.0
 40
1.0
 40
1.0
 10
-29.5945764808
 20
26.7316018018
 30
0.0
 10
-29.5392842509
 20
26.7592419429
 30
0.0
 10
-29.4214659293
 20
26.8041192186
 30
0.0
 10
-29.1635931934
 20
26.8483728133
 30
0.0
 10
-28.9613753256
 20
26.8264529375
 30
0.0
 10
-28.8300971474
 20
26.7936333929
 30
0.0
 11
-29.5945764808
 21
26.7316018018
 31
0.0
 11
-29.421357484
 21
26.7978290763
 31
0.0
 11
-29.2343770111
 21
26.8304781336
 31
0.0
 11
-28.8300971474
 21
26.7936333929
 31
0.0
  0
SPLINE
  5
29F
100
AcDbEntity
  8
0
100
AcDbSpline
 62
7
  6
CONTINUOUS
 70
0
 71
3
 72
11
 73
7
 74
5
 42
0.0000001
 43
0.0000001
 44
0.0000000001
 12
0.0
 22
1.8007877877
 32
0.0
 13
-1.4406429594
 23
1.0804557001
 33
0.0
 40
0.0
 40
0.0
 40
0.0
 40
0.0
 40
0.2409390136
 40
0.5000028159
 40
0.759073882
 40
1.0
 40
1.0
 40
1.0
 40
1.0
 10
24.1318719977
 20
14.467226734
 30
0.0
 10
24.1318719977
 20
14.6118534117
 30
0.0
 10
24.0883314115
 20
14.9124910612
 30
0.0
 10
23.9257654804
 20
15.3413802065
 30
0.0
 10
23.6801904155
 20
15.7287572867
 30
0.0
 10
23.4657961988
 20
15.9439580094
 30
0.0
 10
23.3501000269
 20
16.0307280086
 30
0.0
 11
24.1318719977
 21
14.467226734
 31
0.0
 11
24.0751550879
 21
14.8973837697
 31
0.0
 11
23.9116014576
 21
15.3342935127
 31
0.0
 11
23.6601895422
 21
15.7272873636
 31
0.0
 11
23.3501000269
 21
16.0307280086
 31
0.0
  0
SPLINE
  5
2A0
100
AcDbEntity
  8
0
100
AcDbSpline
 62
7
  6
CONTINUOUS
 70
0
 71
3
 72
11
 73
7
 74
5
 42
0.0000001
 43
0.0000001
 44
0.0000000001
 12
-2.6061301535
 22
1.9545976151
 32
0.0
 13
0.0
 23
3.2576626918
 33
0.0
 40
0.0
 40
0.0
 40
0.0
 40
0.0
 40
0.24092886
 40
0.5
 40
0.75907114
 40
1.0
 40
1.0
 40
1.0
 40
1.0
 10
6.5252419119
 20
4.8733231762
 30
0.0
 10
6.3159445895
 20
5.0302961679
 30
0.0
 10
5.9281173535
 20
5.4196194614
 30
0.0
 10
5.4838589545
 20
6.1203986505
 30
0.0
 10
5.1897906426
 20
6.8962728831
 30
0.0
 10
5.1110283495
 20
7.440128648
 30
0.0
 10
5.1110283495
 20
7.7017503009
 30
0.0
 11
6.5252419119
 21
4.8733231762
 31
0.0
 11
5.964292365
 21
5.4222754595
 31
0.0
 11
5.5094889087
 21
6.1332136275
 31
0.0
 11
5.2136204481
 21
6.9236192934
 31
0.0
 11
5.1110283495
 21
7.7017503009
 31
0.0
  0
SPLINE
  5
2A1
100
AcDbEntity
  8
0
100
AcDbSpline
 62
7
  6
CONTINUOUS
 70
0
 71
3
 72
12
 73
8
 74
6
 42
0.0000001
 43
0.0000001
 44
0.0000000001
 12
0.0
 22
1.5756463993
 32
0.0
 13
1.4093618846
 23
0.7045286749
 33
0.0
 40
0.0
 40
0.0
 40
0.0
 40
0.0
 40
0.2895063935
 40
0.5491143116
 40
0.7821792366
 40
0.8921632299
 40
1.0
 40
1.0
 40
1.0
 40
1.0
 10
5.1110283495
 20
7.7017503009
 30
0.0
 10
5.1110283495
 20
7.8538035364
 30
0.0
 10
5.1356488532
 20
8.143342579
 30
0.0
 10
5.2590521104
 20
8.5391305763
 30
0.0
 10
5.4354743726
 20
8.8087381942
 30
0.0
 10
5.6122379487
 20
8.9679296822
 30
0.0
 10
5.710102234
 20
9.0286075732
 30
0.0
 10
5.7607625785
 20
9.0539322721
 30
0.0
 11
5.1110283495
 21
7.7017503009
 31
0.0
 11
5.1542267203
 21
8.1558599558
 31
0.0
 11
5.2817035952
 21
8.5445394883
 31
0.0
 11
5.4872278968
 21
8.8488684209
 31
0.0
 11
5.6162591648
 21
8.9645507226
 31
0.0
 11
5.7607625785
 21
9.0539322721
 31
0.0
  0
SPLINE
  5
2A2
100
AcDbEntity
  8
0
100
AcDbSpline
 62
7
  6
CONTINUOUS
 70
0
 71
3
 72
10
 73
6
 74
4
 42
0.0000001
 43
0.0000001
 44
0.0000000001
 12
-0.906120067
 22
4.1672638697
 32
0.0
 13
0.7498107537
 23
4.1982050413
 33
0.0
 40
0.0
 40
0.0
 40
0.0
 40
0.0
 40
0.4758114708
 40
0.7325725893
 40
1.0
 40
1.0
 40
1.0
 40
1.0
 10
7.2323486931
 20
4.5197697856
 30
0.0
 10
7.0886345858
 20
5.1807137693
 30
0.0
 10
6.9940881774
 20
6.2282392297
 30
0.0
 10
7.0638196452
 20
7.6487077941
 30
0.0
 10
7.1655087103
 20
8.3881721048
 30
0.0
 10
7.2323486931
 20
8.7624104727
 30
0.0
 11
7.2323486931
 21
4.5197697856
 31
0.0
 11
7.0272527569
 21
6.5385421613
 31
0.0
 11
7.0787040623
 21
7.6323260593
 31
0.0
 11
7.2323486931
 21
8.7624104727
 31
0.0
  0
SPLINE
  5
2A3
100
AcDbEntity
  8
0
100
AcDbSpline
 62
7
  6
CONTINUOUS
 70
0
 71
3
 72
12
 73
8
 74
6
 42
0.0000001
 43
0.0000001
 44
0.0000000001
 12
0.0
 22
-1.1029514116
 32
0.0
 13
-0.9865055651
 23
-0.4932632019
 33
0.0
 40
0.0
 40
0.0
 40
0.0
 40
0.0
 40
0.2895066334
 40
0.5491131721
 40
0.7821794084
 40
0.8921650808
 40
1.0
 40
1.0
 40
1.0
 40
1.0
 10
24.1318719977
 20
14.206968305
 30
0.0
 10
24.1318719977
 20
14.100531055
 30
0.0
 10
24.1146387151
 20
13.8978551682
 30
0.0
 10
24.0282572457
 20
13.6208000173
 30
0.0
 10
23.9047503685
 20
13.4320871887
 30
0.0
 10
23.7810312961
 20
13.3206328481
 30
0.0
 10
23.7125156312
 20
13.2781759018
 30
0.0
 10
23.6770557152
 20
13.2604455693
 30
0.0
 11
24.1318719977
 21
14.206968305
 31
0.0
 11
24.101634043
 21
13.8890915053
 31
0.0
 11
24.0123990336
 21
13.6170181181
 31
0.0
 11
23.8685291194
 21
13.4039883808
 31
0.0
 11
23.7782108093
 21
13.3230041812
 31
0.0
 11
23.6770557152
 21
13.2604455693
 31
0.0
  0
SPLINE
  5
2A4
100
AcDbEntity
  8
0
100
AcDbSpline
 62
7
  6
CONTINUOUS
 70
0
 71
3
 72
10
 73
6
 74
4
 42
0.0000001
 43
0.0000001
 44
0.0000000001
 12
-0.6987680228
 22
-0.3493085165
 32
0.0
 13
-0.757887584
 23
0.189471896
 33
0.0
 40
0.0
 40
0.0
 40
0.0
 40
0.0
 40
0.2373844883
 40
0.4803523072
 40
1.0
 40
1.0
 40
1.0
 40
1.0
 10
7.9968280264
 20
4.5818013768
 30
0.0
 10
7.9415357966
 20
4.5541612356
 30
0.0
 10
7.8237174749
 20
4.50928396
 30
0.0
 10
7.565844739
 20
4.4650303652
 30
0.0
 10
7.3636268712
 20
4.486950241
 30
0.0
 10
7.2323486931
 20
4.5197697856
 30
0.0
 11
7.9968280264
 21
4.5818013768
 31
0.0
 11
7.8236090296
 21
4.5155741022
 31
0.0
 11
7.6366285567
 21
4.4829250449
 31
0.0
 11
7.2323486931
 21
4.5197697856
 31
0.0
  0
SPLINE
  5
2A5
100
AcDbEntity
  8
0
100
AcDbSpline
 62
7
  6
CONTINUOUS
 70
0
 71
3
 72
9
 73
5
 74
3
 42
0.0000001
 43
0.0000001
 44
0.0000000001
 12
0.4692150162
 22
-0.1474242056
 32
0.0
 13
0.3934602533
 23
-0.2951027905
 33
0.0
 40
0.0
 40
0.0
 40
0.0
 40
0.0
 40
0.2345660131
 40
1.0
 40
1.0
 40
1.0
 40
1.0
 10
22.7087527651
 20
16.4169100313
 30
0.0
 10
22.7454400636
 20
16.4053831286
 30
0.0
 10
22.8993207009
 20
16.3482276203
 30
0.0
 10
23.0415332109
 20
16.2621611407
 30
0.0
 10
23.1419224944
 20
16.1868672388
 30
0.0
 11
22.7087527651
 21
16.4169100313
 31
0.0
 11
22.8169884043
 21
16.3769789324
 31
0.0
 11
23.1419224944
 21
16.1868672388
 31
0.0
  0
SPLINE
  5
2A6
100
AcDbEntity
  8
0
100
AcDbSpline
 62
7
  6
CONTINUOUS
 70
0
 71
3
 72
10
 73
6
 74
4
 42
0.0000001
 43
0.0000001
 44
0.0000000001
 12
-0.7498107537
 22
-4.1982050413
 32
0.0
 13
0.906120067
 23
-4.1672638697
 33
0.0
 40
0.0
 40
0.0
 40
0.0
 40
0.0
 40
0.2674274112
 40
0.5241885293
 40
1.0
 40
1.0
 40
1.0
 40
1.0
 10
6.5252419119
 20
9.1159638633
 30
0.0
 10
6.458401929
 20
8.7417254947
 30
0.0
 10
6.3567128639
 20
8.0022611838
 30
0.0
 10
6.2869813962
 20
6.5817926195
 30
0.0
 10
6.3815278047
 20
5.5342671597
 30
0.0
 10
6.5252419119
 20
4.8733231762
 30
0.0
 11
6.5252419119
 21
9.1159638633
 31
0.0
 11
6.3715972809
 21
7.9858794478
 31
0.0
 11
6.3201459757
 21
6.8920955514
 31
0.0
 11
6.5252419119
 21
4.8733231762
 31
0.0
  0
SPLINE
  5
2A7
100
AcDbEntity
  8
0
100
AcDbSpline
 62
7
  6
CONTINUOUS
 70
0
 71
3
 72
11
 73
7
 74
5
 42
0.0000001
 43
0.0000001
 44
0.0000000001
 12
2.6061301535
 22
-1.9545976151
 32
0.0
 13
0.0
 23
-3.2576626918
 33
0.0
 40
0.0
 40
0.0
 40
0.0
 40
0.0
 40
0.24092886
 40
0.5
 40
0.75907114
 40
1.0
 40
1.0
 40
1.0
 40
1.0
 10
7.2323486931
 20
8.7624104727
 30
0.0
 10
7.4416460154
 20
8.6054374809
 30
0.0
 10
7.8294732515
 20
8.2161141875
 30
0.0
 10
8.2737316504
 20
7.5153349984
 30
0.0
 10
8.5677999623
 20
6.7394607658
 30
0.0
 10
8.6465622554
 20
6.1956050009
 30
0.0
 10
8.6465622554
 20
5.9339833479
 30
0.0
 11
7.2323486931
 21
8.7624104727
 31
0.0
 11
7.7932982399
 21
8.2134581893
 31
0.0
 11
8.2481016962
 21
7.5025200213
 31
0.0
 11
8.5439701569
 21
6.7121143554
 31
0.0
 11
8.6465622554
 21
5.9339833479
 31
0.0
  0
SPLINE
  5
2A8
100
AcDbEntity
  8
0
100
AcDbSpline
 62
7
  6
CONTINUOUS
 70
0
 71
3
 72
11
 73
7
 74
5
 42
0.0000001
 43
0.0000001
 44
0.0000000001
 12
1.662611653
 22
-1.2469908566
 32
0.0
 13
0.2107887389
 23
-2.0675666404
 33
0.0
 40
0.0
 40
0.0
 40
0.0
 40
0.0
 40
0.238044721
 40
0.4938171349
 40
0.7528501459
 40
1.0
 40
1.0
 40
1.0
 40
1.0
 10
23.1419224944
 20
16.1868672388
 30
0.0
 10
23.2738478034
 20
16.0879207086
 30
0.0
 10
23.5210518472
 20
15.8464563817
 30
0.0
 10
23.8153035418
 20
15.4123126708
 30
0.0
 10
24.0271662947
 20
14.9256931813
 30
0.0
 10
24.1039105883
 20
14.5804159233
 30
0.0
 10
24.121276057
 20
14.4100829921
 30
0.0
 11
23.1419224944
 21
16.1868672388
 31
0.0
 11
23.4995838533
 21
15.8450622076
 31
0.0
 11
23.7996950839
 21
15.4063169046
 31
0.0
 11
24.0137102225
 21
14.9123412859
 31
0.0
 11
24.121276057
 21
14.4100829921
 31
0.0
  0
SPLINE
  5
2A9
100
AcDbEntity
  8
0
100
AcDbSpline
 62
7
  6
CONTINUOUS
 70
0
 71
3
 72
9
 73
5
 74
3
 42
0.0000001
 43
0.0000001
 44
0.0000000001
 12
0.0206337147
 22
-0.2023902243
 32
0.0
 13
0.0
 23
-0.2034393105
 33
0.0
 40
0.0
 40
0.0
 40
0.0
 40
0.0
 40
0.2547460324
 40
1.0
 40
1.0
 40
1.0
 40
1.0
 10
24.121276057
 20
14.4100829921
 30
0.0
 10
24.123028176
 20
14.3928969566
 30
0.0
 10
24.1290942363
 20
14.3253546032
 30
0.0
 10
24.1318719977
 20
14.2575062894
 30
0.0
 10
24.1318719977
 20
14.206968305
 30
0.0
 11
24.121276057
 21
14.4100829921
 31
0.0
 11
24.1259053896
 21
14.3584648081
 31
0.0
 11
24.1318719977
 21
14.206968305
 31
0.0
  0
SPLINE
  5
2AA
100
AcDbEntity
  8
0
100
AcDbSpline
 62
7
  6
CONTINUOUS
 70
0
 71
3
 72
12
 73
8
 74
6
 42
0.0000001
 43
0.0000001
 44
0.0000000001
 12
0.0
 22
-1.5756463993
 32
0.0
 13
-1.4093618846
 23
-0.7045286749
 33
0.0
 40
0.0
 40
0.0
 40
0.0
 40
0.0
 40
0.2895063935
 40
0.5491143116
 40
0.7821792366
 40
0.8921632299
 40
1.0
 40
1.0
 40
1.0
 40
1.0
 10
8.6465622554
 20
5.9339833479
 30
0.0
 10
8.6465622554
 20
5.7819301124
 30
0.0
 10
8.6219417517
 20
5.4923910698
 30
0.0
 10
8.4985384946
 20
5.0966030726
 30
0.0
 10
8.3221162323
 20
4.8269954547
 30
0.0
 10
8.1453526563
 20
4.6678039666
 30
0.0
 10
8.047488371
 20
4.6071260757
 30
0.0
 10
7.9968280264
 20
4.5818013768
 30
0.0
 11
8.6465622554
 21
5.9339833479
 31
0.0
 11
8.6033638846
 21
5.4798736931
 31
0.0
 11
8.4758870098
 21
5.0911941605
 31
0.0
 11
8.2703627082
 21
4.786865228
 31
0.0
 11
8.1413314401
 21
4.6711829262
 31
0.0
 11
7.9968280264
 21
4.5818013768
 31
0.0
  0
SPLINE
  5
2AB
100
AcDbEntity
  8
0
100
AcDbSpline
 62
7
  6
CONTINUOUS
 70
0
 71
3
 72
10
 73
6
 74
4
 42
0.0000001
 43
0.0000001
 44
0.0000000001
 12
0.6987680228
 22
0.3493085165
 32
0.0
 13
0.757887584
 23
-0.189471896
 33
0.0
 40
0.0
 40
0.0
 40
0.0
 40
0.0
 40
0.2373844883
 40
0.4803523072
 40
1.0
 40
1.0
 40
1.0
 40
1.0
 10
5.7607625785
 20
9.0539322721
 30
0.0
 10
5.8160548084
 20
9.0815724133
 30
0.0
 10
5.93387313
 20
9.1264496889
 30
0.0
 10
6.1917458659
 20
9.1707032837
 30
0.0
 10
6.3939637337
 20
9.1487834078
 30
0.0
 10
6.5252419119
 20
9.1159638633
 30
0.0
 11
5.7607625785
 21
9.0539322721
 31
0.0
 11
5.9339815754
 21
9.1201595466
 31
0.0
 11
6.1209620483
 21
9.152808604
 31
0.0
 11
6.5252419119
 21
9.1159638633
 31
0.0
  0
SPLINE
  5
2AC
100
AcDbEntity
  8
RACCORDO
100
AcDbSpline
 62
7
  6
CONTINUOUS
 70
0
 71
3
 72
11
 73
7
 74
5
 42
0.0000001
 43
0.0000001
 44
0.0000000001
 12
-0.622637783
 22
0.3710154074
 32
0.0
 13
-0.6683569511
 23
-0.2804090356
 33
0.0
 40
0.0
 40
0.0
 40
0.0
 40
0.0
 40
0.2261832048
 40
0.4872998841
 40
0.7552695269
 40
1.0
 40
1.0
 40
1.0
 40
1.0
 10
28.1186828025
 20
8.7165790627
 30
0.0
 10
28.0717393994
 20
8.7445515473
 30
0.0
 10
27.9596035487
 20
8.7860984429
 30
0.0
 10
27.7778675951
 20
8.8110200386
 30
0.0
 10
27.5901373432
 20
8.8013408963
 30
0.0
 10
27.4687892137
 20
8.7702681497
 30
0.0
 10
27.4142667761
 20
8.7473932711
 30
0.0
 11
28.1186828025
 21
8.7165790627
 31
0.0
 11
27.9665392286
 21
8.7776332993
 31
0.0
 11
27.7792615544
 21
8.804929771
 31
0.0
 11
27.5853283915
 21
8.7943137379
 31
0.0
 11
27.4142667761
 21
8.7473932711
 31
0.0
  0
SPLINE
  5
2AD
100
AcDbEntity
  8
RACCORDO
100
AcDbSpline
 62
7
  6
CONTINUOUS
 70
0
 71
3
 72
11
 73
7
 74
5
 42
0.0000001
 43
0.0000001
 44
0.0000000001
 12
0.6683568429
 22
0.2804089902
 32
0.0
 13
0.6226376822
 23
-0.3710153473
 33
0.0
 40
0.0
 40
0.0
 40
0.0
 40
0.0
 40
0.2447147208
 40
0.5126669538
 40
0.7737976738
 40
1.0
 40
1.0
 40
1.0
 40
1.0
 10
27.4142667761
 20
21.7377743278
 30
0.0
 10
27.4687856955
 20
21.7606477304
 30
0.0
 10
27.5901254942
 20
21.7917195499
 30
0.0
 10
27.7778508949
 20
21.8014019976
 30
0.0
 10
27.9595908453
 20
21.7764822819
 30
0.0
 10
28.0717354384
 20
21.7349349643
 30
0.0
 10
28.1186828025
 20
21.7069601195
 30
0.0
 11
27.4142667761
 21
21.7377743278
 31
0.0
 11
27.5853169901
 21
21.7846930912
 31
0.0
 11
27.7792373299
 21
21.7953119406
 31
0.0
 11
27.9665255349
 21
21.7680173742
 31
0.0
 11
28.1186828025
 21
21.7069601195
 31
0.0
  0
SPLINE
  5
2AE
100
AcDbEntity
  8
0
100
AcDbSpline
 62
7
  6
CONTINUOUS
 70
0
 71
3
 72
8
 73
4
 74
2
 42
0.0000001
 43
0.0000001
 44
0.0000000001
 12
-0.150904385
 22
-0.129609211
 32
0.0
 13
-0.1137741751
 23
-0.1631751148
 33
0.0
 40
0.0
 40
0.0
 40
0.0
 40
0.0
 40
1.0
 40
1.0
 40
1.0
 40
1.0
 10
-10.7009713846
 20
16.9996536055
 30
0.0
 10
-10.7512728463
 20
16.9564505351
 30
0.0
 10
-10.7962441932
 20
16.9062985742
 30
0.0
 10
-10.8341689182
 20
16.8519068693
 30
0.0
 11
-10.7009713846
 21
16.9996536055
 31
0.0
 11
-10.8341689182
 21
16.8519068693
 31
0.0
  0
SPLINE
  5
2AF
100
AcDbEntity
  8
0
100
AcDbSpline
 62
7
  6
CONTINUOUS
 70
0
 71
3
 72
8
 73
4
 74
2
 42
0.0000001
 43
0.0000001
 44
0.0000000001
 12
0.1988045969
 22
-0.0068857288
 32
0.0
 13
0.1942299998
 23
0.0429579813
 33
0.0
 40
0.0
 40
0.0
 40
0.0
 40
0.0
 40
1.0
 40
1.0
 40
1.0
 40
1.0
 10
-9.8641469109
 20
14.9118628547
 30
0.0
 10
-9.7978787119
 20
14.9095676117
 30
0.0
 10
-9.7307743351
 20
14.9154535127
 30
0.0
 10
-9.6660310018
 20
14.9297728398
 30
0.0
 11
-9.8641469109
 21
14.9118628547
 31
0.0
 11
-9.6660310018
 21
14.9297728398
 31
0.0
  0
SPLINE
  5
2B0
100
AcDbEntity
  8
0
100
AcDbSpline
 62
7
  6
CONTINUOUS
 70
0
 71
3
 72
11
 73
7
 74
5
 42
0.0000001
 43
0.0000001
 44
0.0000000001
 12
1.7248220511
 22
0.9105500172
 32
0.0
 13
1.7089355969
 23
-0.9400274289
 33
0.0
 40
0.0
 40
0.0
 40
0.0
 40
0.0
 40
0.2165318309
 40
0.4488554219
 40
0.7083808677
 40
1.0
 40
1.0
 40
1.0
 40
1.0
 10
-13.1672320028
 20
19.061331709
 30
0.0
 10
-13.0427390439
 20
19.1270527298
 30
0.0
 10
-12.7616769388
 20
19.223322098
 30
0.0
 10
-12.2958789493
 20
19.2394339056
 30
0.0
 10
-11.7941366387
 20
19.1292612162
 30
0.0
 10
-11.4651120108
 20
18.9813714041
 30
0.0
 10
-11.2989925721
 20
18.889994743
 30
0.0
 11
-13.1672320028
 21
19.061331709
 31
0.0
 11
-12.7682877092
 21
19.1999073024
 31
0.0
 11
-12.3156466396
 21
19.2208878091
 31
0.0
 11
-11.8199969546
 21
19.1181672482
 31
0.0
 11
-11.2989925721
 21
18.889994743
 31
0.0
  0
SPLINE
  5
2B1
100
AcDbEntity
  8
0
100
AcDbSpline
 62
7
  6
CONTINUOUS
 70
0
 71
3
 72
9
 73
5
 74
3
 42
0.0000001
 43
0.0000001
 44
0.0000000001
 12
-0.1068363999
 22
0.0534181999
 32
0.0
 13
-0.0953199882
 23
0.0719834722
 33
0.0
 40
0.0
 40
0.0
 40
0.0
 40
0.0
 40
0.2466073348
 40
1.0
 40
1.0
 40
1.0
 40
1.0
 10
-11.0274239905
 20
15.0009215894
 30
0.0
 10
-11.0362062038
 20
15.0053126961
 30
0.0
 10
-11.0713732339
 20
15.0240021301
 30
0.0
 10
-11.1047274057
 20
15.0460493201
 30
0.0
 10
-11.128665199
 20
15.0641265934
 30
0.0
 11
-11.0274239905
 21
15.0009215894
 31
0.0
 11
-11.0534408496
 21
15.0147348016
 31
0.0
 11
-11.128665199
 21
15.0641265934
 31
0.0
  0
SPLINE
  5
2B2
100
AcDbEntity
  8
0
100
AcDbSpline
 62
7
  6
CONTINUOUS
 70
0
 71
3
 72
11
 73
7
 74
5
 42
0.0000001
 43
0.0000001
 44
0.0000000001
 12
-0.7936739057
 22
0.7090215154
 32
0.0
 13
0.6086966631
 23
0.8729937859
 33
0.0
 40
0.0
 40
0.0
 40
0.0
 40
0.0
 40
0.2566762517
 40
0.5173140939
 40
0.7654224453
 40
1.0
 40
1.0
 40
1.0
 40
1.0
 10
-11.1757953578
 20
15.1029029113
 30
0.0
 10
-11.2437011056
 20
15.1635659063
 30
0.0
 10
-11.3595456474
 20
15.310422361
 30
0.0
 10
-11.4622467151
 20
15.5654735973
 30
0.0
 10
-11.4844621318
 20
15.8330546466
 30
0.0
 10
-11.4263720303
 20
16.0025681621
 30
0.0
 10
-11.3787765054
 20
16.0708297447
 30
0.0
 11
-11.1757953578
 21
15.1029029113
 31
0.0
 11
-11.347227229
 21
15.3155806473
 31
0.0
 11
-11.4500023111
 21
15.573222229
 31
0.0
 11
-11.4657068959
 21
15.8368043059
 31
0.0
 11
-11.3787765054
 21
16.0708297447
 31
0.0
  0
SPLINE
  5
2B3
100
AcDbEntity
  8
0
100
AcDbSpline
 62
7
  6
CONTINUOUS
 70
0
 71
3
 72
9
 73
5
 74
3
 42
0.0000001
 43
0.0000001
 44
0.0000000001
 12
-0.2197404916
 22
0.0076108574
 32
0.0
 13
-0.196659724
 23
0.098329862
 33
0.0
 40
0.0
 40
0.0
 40
0.0
 40
0.0
 40
0.7467352179
 40
1.0
 40
1.0
 40
1.0
 40
1.0
 10
-10.8157731629
 20
14.9448230597
 30
0.0
 10
-10.8704691509
 20
14.9467174914
 30
0.0
 10
-10.9438410352
 20
14.9628781203
 30
0.0
 10
-11.0108216632
 20
14.9926204257
 30
0.0
 10
-11.0274239905
 20
15.0009215894
 30
0.0
 11
-10.8157731629
 21
14.9448230597
 31
0.0
 11
-10.9764840402
 21
14.9784262389
 31
0.0
 11
-11.0274239905
 21
15.0009215894
 31
0.0
  0
SPLINE
  5
2B4
100
AcDbEntity
  8
0
100
AcDbSpline
 62
7
  6
CONTINUOUS
 70
0
 71
3
 72
11
 73
7
 74
5
 42
0.0000001
 43
0.0000001
 44
0.0000000001
 12
-0.0416911403
 22
-2.4225353307
 32
0.0
 13
-2.190494395
 23
-1.0354467079
 33
0.0
 40
0.0
 40
0.0
 40
0.0
 40
0.0
 40
0.2996348661
 40
0.5626163438
 40
0.7916884387
 40
1.0
 40
1.0
 40
1.0
 40
1.0
 10
-8.4761447904
 20
13.7907317107
 30
0.0
 10
-8.4803088301
 20
13.5487730276
 30
0.0
 10
-8.5263993927
 20
13.0933335474
 30
0.0
 10
-8.7292944606
 20
12.4803790223
 30
0.0
 10
-9.0514481665
 20
12.0047832306
 30
0.0
 10
-9.3443431313
 20
11.791656011
 30
0.0
 10
-9.4964449004
 20
11.7197575042
 30
0.0
 11
-8.4761447904
 21
13.7907317107
 31
0.0
 11
-8.5572260229
 21
13.0692901498
 31
0.0
 11
-8.7666150538
 21
12.467501302
 31
0.0
 11
-9.0861525469
 21
12.0136950411
 31
0.0
 11
-9.4964449004
 21
11.7197575042
 31
0.0
  0
SPLINE
  5
2B5
100
AcDbEntity
  8
0
100
AcDbSpline
 62
7
  6
CONTINUOUS
 70
0
 71
3
 72
9
 73
5
 74
3
 42
0.0000001
 43
0.0000001
 44
0.0000000001
 12
0.3204798471
 22
-0.1889301616
 32
0.0
 13
0.3012774353
 23
-0.2182517934
 33
0.0
 40
0.0
 40
0.0
 40
0.0
 40
0.0
 40
0.244707435
 40
1.0
 40
1.0
 40
1.0
 40
1.0
 10
-11.207026223
 20
18.8375949541
 30
0.0
 10
-11.1808849559
 20
18.8221840823
 30
0.0
 10
-11.0748508819
 20
18.7578687096
 30
0.0
 10
-10.9719777564
 20
18.6883731284
 30
0.0
 10
-10.8961268875
 20
18.6334251428
 30
0.0
 11
-11.207026223
 21
18.8375949541
 31
0.0
 11
-11.1291795864
 21
18.7903969827
 31
0.0
 11
-10.8961268875
 21
18.6334251428
 31
0.0
  0
SPLINE
  5
2B6
100
AcDbEntity
  8
0
100
AcDbSpline
 62
7
  6
CONTINUOUS
 70
0
 71
3
 72
11
 73
7
 74
5
 42
0.0000001
 43
0.0000001
 44
0.0000000001
 12
4.5291612496
 22
-3.2764598217
 32
0.0
 13
-0.0963288924
 23
-5.5892048927
 33
0.0
 40
0.0
 40
0.0
 40
0.0
 40
0.0
 40
0.2394889897
 40
0.4999993438
 40
0.760510116
 40
1.0
 40
1.0
 40
1.0
 40
1.0
 10
-10.8985104928
 20
18.6351744259
 30
0.0
 10
-10.5369490755
 20
18.3736157417
 30
0.0
 10
-9.8648539513
 20
17.7107983846
 30
0.0
 10
-9.0977936566
 20
16.5075702862
 30
0.0
 10
-8.5954454938
 20
15.1719840803
 30
0.0
 10
-8.4684478891
 20
14.2366150925
 30
0.0
 10
-8.4761378209
 20
13.790429082
 30
0.0
 11
-10.8985104928
 21
18.6351744259
 31
0.0
 11
-9.9316050189
 21
17.7092423345
 31
0.0
 11
-9.1431322981
 21
16.4849018075
 31
0.0
 11
-8.636741388
 21
15.1195176092
 31
0.0
 11
-8.4761378209
 21
13.790429082
 31
0.0
  0
SPLINE
  5
2B7
100
AcDbEntity
  8
0
100
AcDbSpline
 62
7
  6
CONTINUOUS
 70
0
 71
3
 72
11
 73
7
 74
5
 42
0.0000001
 43
0.0000001
 44
0.0000000001
 12
-4.8760725034
 22
3.6570543776
 32
0.0
 13
0.0
 23
6.0950906293
 33
0.0
 40
0.0
 40
0.0
 40
0.0
 40
0.0
 40
0.2416341424
 40
0.500000517
 40
0.7583665796
 40
1.0
 40
1.0
 40
1.0
 40
1.0
 10
-12.0909240701
 20
11.704021282
 30
0.0
 10
-12.483665936
 20
11.9985776814
 30
0.0
 10
-13.2099915344
 20
12.7262777654
 30
0.0
 10
-14.0408500424
 20
14.0360416678
 30
0.0
 10
-14.5901444305
 20
15.4865858328
 30
0.0
 10
-14.7365084824
 20
16.504264241
 30
0.0
 10
-14.7365084824
 20
16.9951901065
 30
0.0
 11
-12.0909240701
 21
11.704021282
 31
0.0
 11
-13.1439901235
 21
12.7336516516
 31
0.0
 11
-13.9928876894
 21
14.0600235277
 31
0.0
 11
-14.5446448678
 21
15.5349633426
 31
0.0
 11
-14.7365084824
 21
16.9951901065
 31
0.0
  0
SPLINE
  5
2B8
100
AcDbEntity
  8
0
100
AcDbSpline
 62
7
  6
CONTINUOUS
 70
0
 71
3
 72
12
 73
8
 74
6
 42
0.0000001
 43
0.0000001
 44
0.0000000001
 12
-0.0003069274
 22
3.1128008524
 32
0.0
 13
2.7841737361
 23
1.392086868
 33
0.0
 40
0.0
 40
0.0
 40
0.0
 40
0.0
 40
0.2818596341
 40
0.5387862183
 40
0.7748811828
 40
0.8881610271
 40
1.0
 40
1.0
 40
1.0
 40
1.0
 10
-14.7365083959
 20
16.9946543495
 30
0.0
 10
-14.7365372327
 20
17.2871119859
 30
0.0
 10
-14.6880583415
 20
17.8483679153
 30
0.0
 10
-14.443750751
 20
18.62226979
 30
0.0
 10
-14.0904029196
 20
19.1562933041
 30
0.0
 10
-13.7324918537
 20
19.4771264305
 30
0.0
 10
-13.5325855894
 20
19.6008324843
 30
0.0
 10
-13.4287925457
 20
19.6527290061
 30
0.0
 11
-14.7365083959
 21
16.9946543495
 31
0.0
 11
-14.6525932064
 21
17.8680050639
 31
0.0
 11
-14.4013658373
 21
18.6272829686
 31
0.0
 11
-13.9879988161
 21
19.2349260627
 31
0.0
 11
-13.7249903774
 21
19.4697999254
 31
0.0
 11
-13.4287925457
 21
19.6527290061
 31
0.0
  0
SPLINE
  5
2B9
100
AcDbEntity
  8
0
100
AcDbSpline
 62
7
  6
CONTINUOUS
 70
0
 71
3
 72
11
 73
7
 74
5
 42
0.0000001
 43
0.0000001
 44
0.0000000001
 12
-2.3239701299
 22
-1.1619850649
 32
0.0
 13
-2.2382839816
 23
1.3195193342
 33
0.0
 40
0.0
 40
0.0
 40
0.0
 40
0.0
 40
0.2297850017
 40
0.4685717109
 40
0.7237745569
 40
1.0
 40
1.0
 40
1.0
 40
1.0
 10
-9.1802633884
 20
11.1556706916
 30
0.0
 10
-9.3582678819
 20
11.0666684449
 30
0.0
 10
-9.7522244185
 20
10.94168524
 30
0.0
 10
-10.386617676
 20
10.934480861
 30
0.0
 10
-11.040029245
 20
11.0950738744
 30
0.0
 10
-11.4573666756
 20
11.2965817242
 30
0.0
 10
-11.6634570038
 20
11.4180766618
 30
0.0
 11
-9.1802633884
 21
11.1556706916
 31
0.0
 11
-9.7486842241
 21
10.9730214377
 31
0.0
 11
-10.3689787649
 21
10.9598599383
 31
0.0
 11
-11.0144693428
 21
11.111607732
 31
0.0
 11
-11.6634570038
 21
11.4180766618
 31
0.0
  0
SPLINE
  5
2BA
100
AcDbEntity
  8
0
100
AcDbSpline
 62
253
  6
CONTINUOUS
 70
0
 71
3
 72
9
 73
5
 74
3
 42
0.0000001
 43
0.0000001
 44
0.0000000001
 12
0.0563007563
 22
0.0807026848
 32
0.0
 13
0.0709840114
 23
0.0681466699
 33
0.0
 40
0.0
 40
0.0
 40
0.0
 40
0.0
 40
0.2548768183
 40
1.0
 40
1.0
 40
1.0
 40
1.0
 10
-10.8341647105
 20
16.851901501
 30
0.0
 10
-10.8293814579
 20
16.8587579155
 30
0.0
 10
-10.8099950405
 20
16.8852188167
 30
0.0
 10
-10.7880779424
 20
16.909845108
 30
0.0
 10
-10.7704473316
 20
16.9267709959
 30
0.0
 11
-10.8341647105
 21
16.851901501
 31
0.0
 11
-10.8193347626
 21
16.8721272758
 31
0.0
 11
-10.7704473316
 21
16.9267709959
 31
0.0
  0
SPLINE
  5
2BB
100
AcDbEntity
  8
0
100
AcDbSpline
 62
253
  6
CONTINUOUS
 70
0
 71
3
 72
9
 73
5
 74
3
 42
0.0000001
 43
0.0000001
 44
0.0000000001
 12
0.1327381603
 22
0.1274324093
 32
0.0
 13
0.1732512913
 23
0.0619873229
 33
0.0
 40
0.0
 40
0.0
 40
0.0
 40
0.0
 40
0.2538674096
 40
1.0
 40
1.0
 40
1.0
 40
1.0
 10
-10.7704473316
 20
16.9267709959
 30
0.0
 10
-10.7592147006
 20
16.9375546411
 30
0.0
 10
-10.7129070992
 20
16.9778340296
 30
0.0
 10
-10.6579638301
 20
17.0081604492
 30
0.0
 10
-10.6148743518
 20
17.0235773698
 30
0.0
 11
-10.7704473316
 21
16.9267709959
 31
0.0
 11
-10.7351461618
 21
16.9573644336
 31
0.0
 11
-10.6148743518
 21
17.0235773698
 31
0.0
  0
SPLINE
  5
2BC
100
AcDbEntity
  8
0
100
AcDbSpline
 62
253
  6
CONTINUOUS
 70
0
 71
3
 72
9
 73
5
 74
3
 42
0.0000001
 43
0.0000001
 44
0.0000000001
 12
0.4484909753
 22
0.1604649218
 32
0.0
 13
0.4260452051
 23
-0.2130226026
 33
0.0
 40
0.0
 40
0.0
 40
0.0
 40
0.0
 40
0.4654892956
 40
1.0
 40
1.0
 40
1.0
 40
1.0
 10
-10.6148743518
 20
17.0235773698
 30
0.0
 10
-10.5452851024
 20
17.0484756043
 30
0.0
 10
-10.3804676036
 20
17.0618585917
 30
0.0
 10
-10.2271610619
 20
17.0087666962
 30
0.0
 10
-10.1512524876
 20
16.9708124091
 30
0.0
 11
-10.6148743518
 21
17.0235773698
 31
0.0
 11
-10.394337737
 21
17.0465310826
 31
0.0
 11
-10.1512524876
 21
16.9708124091
 31
0.0
  0
SPLINE
  5
2BD
100
AcDbEntity
  8
0
100
AcDbSpline
 62
253
  6
CONTINUOUS
 70
0
 71
3
 72
11
 73
7
 74
5
 42
0.0000001
 43
0.0000001
 44
0.0000000001
 12
0.5493394482
 22
-0.0189826292
 32
0.0
 13
0.0
 23
0.5496673263
 33
0.0
 40
0.0
 40
0.0
 40
0.0
 40
0.0
 40
0.227572886
 40
0.4530587096
 40
0.7058978672
 40
1.0
 40
1.0
 40
1.0
 40
1.0
 10
-10.8157731094
 20
14.9448228604
 30
0.0
 10
-10.7741015215
 20
14.9433828831
 30
0.0
 10
-10.6884763492
 20
14.9580984233
 30
0.0
 10
-10.5849476237
 20
15.0440629067
 30
0.0
 10
-10.5245214644
 20
15.1758249559
 30
0.0
 10
-10.5132641158
 20
15.276799766
 30
0.0
 10
-10.5132641158
 20
15.330685877
 30
0.0
 11
-10.8157731094
 21
14.9448228604
 31
0.0
 11
-10.692920799
 21
14.9683741399
 31
0.0
 11
-10.596233516
 21
15.045919196
 31
0.0
 11
-10.5344872755
 21
15.1704267303
 31
0.0
 11
-10.5132641158
 21
15.330685877
 31
0.0
  0
SPLINE
  5
2BE
100
AcDbEntity
  8
0
100
AcDbSpline
 62
253
  6
CONTINUOUS
 70
0
 71
3
 72
11
 73
7
 74
5
 42
0.0000001
 43
0.0000001
 44
0.0000000001
 12
0.6646769248
 22
0.3321820551
 32
0.0
 13
-0.0
 23
0.7430614591
 33
0.0
 40
0.0
 40
0.0
 40
0.0
 40
0.0
 40
0.2171660977
 40
0.4503906164
 40
0.710307251
 40
1.0
 40
1.0
 40
1.0
 40
1.0
 10
-9.4906333164
 20
14.9918848914
 30
0.0
 10
-9.4425182184
 20
15.0159311182
 30
0.0
 10
-9.3515016786
 20
15.0852032485
 30
0.0
 10
-9.2539197177
 20
15.234809231
 30
0.0
 10
-9.1955529471
 20
15.4217048396
 30
0.0
 10
-9.1839521192
 20
15.5583484813
 30
0.0
 10
-9.1839521192
 20
15.6301016536
 30
0.0
 11
-9.4906333164
 21
14.9918848914
 31
0.0
 11
-9.3615220411
 21
15.0886827825
 31
0.0
 11
-9.2645159302
 21
15.2322890388
 31
0.0
 11
-9.2043430595
 21
15.4158101019
 31
0.0
 11
-9.1839521192
 21
15.6301016536
 31
0.0
  0
SPLINE
  5
2BF
100
AcDbEntity
  8
0
100
AcDbSpline
 62
253
  6
CONTINUOUS
 70
0
 71
3
 72
11
 73
7
 74
5
 42
0.0000001
 43
0.0000001
 44
0.0000000001
 12
-1.9072846591
 22
-0.9016405446
 32
0.0
 13
-1.8173699088
 23
1.0713809113
 33
0.0
 40
0.0
 40
0.0
 40
0.0
 40
0.0
 40
0.22340448
 40
0.4595792378
 40
0.717074066
 40
1.0
 40
1.0
 40
1.0
 40
1.0
 10
-9.496445003
 20
11.7197577137
 30
0.0
 10
-9.6384769822
 20
11.6526142013
 30
0.0
 10
-9.9540701015
 20
11.5598003841
 30
0.0
 10
-10.4641276314
 20
11.5620205247
 30
0.0
 10
-10.9976174506
 20
11.6981463948
 30
0.0
 10
-11.3416266532
 20
11.865399379
 30
0.0
 10
-11.5130203462
 20
11.9664398607
 30
0.0
 11
-9.496445003
 21
11.7197577137
 31
0.0
 11
-9.947972673
 21
11.5846474903
 31
0.0
 11
-10.4462119991
 21
11.581409763
 31
0.0
 11
-10.9739635916
 21
11.7101536777
 31
0.0
 11
-11.5130203462
 21
11.9664398607
 31
0.0
  0
SPLINE
  5
2C0
100
AcDbEntity
  8
0
100
AcDbSpline
 62
253
  6
CONTINUOUS
 70
0
 71
3
 72
11
 73
7
 74
5
 42
0.0000001
 43
0.0000001
 44
0.0000000001
 12
-0.4894971439
 22
0.244748572
 32
0.0
 13
-0.4895432137
 23
-0.2446564108
 33
0.0
 40
0.0
 40
0.0
 40
0.0
 40
0.0
 40
0.279076068
 40
0.5353716794
 40
0.7728995978
 40
1.0
 40
1.0
 40
1.0
 40
1.0
 10
-10.0183382253
 20
17.0692048108
 30
0.0
 10
-10.0638738714
 20
17.0919726338
 30
0.0
 10
-10.1550040911
 20
17.1287730988
 30
0.0
 10
-10.2946290276
 20
17.1550711928
 30
0.0
 10
-10.4273447903
 20
17.1484275989
 30
0.0
 10
-10.5089846473
 20
17.1212250449
 30
0.0
 10
-10.5460431342
 20
17.1027045218
 30
0.0
 11
-10.0183382253
 21
17.0692048108
 31
0.0
 11
-10.1603993784
 21
17.1252891066
 31
0.0
 11
-10.2984770628
 21
17.1499579843
 31
0.0
 11
-10.4282466828
 21
17.1423412106
 31
0.0
 11
-10.5460431342
 21
17.1027045218
 31
0.0
  0
SPLINE
  5
2C1
100
AcDbEntity
  8
0
100
AcDbSpline
 62
253
  6
CONTINUOUS
 70
0
 71
3
 72
9
 73
5
 74
3
 42
0.0000001
 43
0.0000001
 44
0.0000000001
 12
0.0
 22
-0.5230945135
 32
0.0
 13
-0.3269846138
 23
-0.408300052
 33
0.0
 40
0.0
 40
0.0
 40
0.0
 40
0.0
 40
0.5381577358
 40
1.0
 40
1.0
 40
1.0
 40
1.0
 10
-9.3429414207
 20
15.576682042
 30
0.0
 10
-9.3429414207
 20
15.4828462557
 30
0.0
 10
-9.362364636
 20
15.3072722633
 30
0.0
 10
-9.438793406
 20
15.1448154935
 30
0.0
 10
-9.4891318442
 20
15.0819587533
 30
0.0
 11
-9.3429414207
 21
15.576682042
 31
0.0
 11
-9.3803565202
 21
15.2976721793
 31
0.0
 11
-9.4891318442
 21
15.0819587533
 31
0.0
  0
SPLINE
  5
2C2
100
AcDbEntity
  8
0
100
AcDbSpline
 62
253
  6
CONTINUOUS
 70
0
 71
3
 72
9
 73
5
 74
3
 42
0.0000001
 43
0.0000001
 44
0.0000000001
 12
-0.07859501
 22
-0.0981402345
 32
0.0
 13
-0.1018067501
 23
-0.07378392
 33
0.0
 40
0.0
 40
0.0
 40
0.0
 40
0.0
 40
0.2552987643
 40
1.0
 40
1.0
 40
1.0
 40
1.0
 10
-9.4891318442
 20
15.0819587533
 30
0.0
 10
-9.4958202472
 20
15.0736070598
 30
0.0
 10
-9.5230296936
 20
15.0417228
 30
0.0
 10
-9.5544183801
 20
15.0133541978
 30
0.0
 10
-9.5796902509
 20
14.995038539
 30
0.0
 11
-9.4891318442
 21
15.0819587533
 31
0.0
 11
-9.5099857155
 21
15.0575561771
 31
0.0
 11
-9.5796902509
 21
14.995038539
 31
0.0
  0
SPLINE
  5
2C3
100
AcDbEntity
  8
0
100
AcDbSpline
 62
253
  6
CONTINUOUS
 70
0
 71
3
 72
9
 73
5
 74
3
 42
0.0000001
 43
0.0000001
 44
0.0000000001
 12
-0.2433970753
 22
-0.176400782
 32
0.0
 13
-0.3004190492
 23
0.0103810921
 33
0.0
 40
0.0
 40
0.0
 40
0.0
 40
0.0
 40
0.4908389038
 40
1.0
 40
1.0
 40
1.0
 40
1.0
 10
-9.5796902509
 20
14.995038539
 30
0.0
 10
-9.6195131688
 20
14.9661770835
 30
0.0
 10
-9.7115836404
 20
14.9210697405
 30
0.0
 10
-9.8131595878
 20
14.9101006285
 30
0.0
 10
-9.8641468186
 20
14.9118625112
 30
0.0
 11
-9.5796902509
 21
14.995038539
 31
0.0
 11
-9.7121867936
 21
14.9301208851
 31
0.0
 11
-9.8641468186
 21
14.9118625112
 31
0.0
  0
SPLINE
  5
2C4
100
AcDbEntity
  8
0
100
AcDbSpline
 62
253
  6
CONTINUOUS
 70
0
 71
3
 72
11
 73
7
 74
5
 42
0.0000001
 43
0.0000001
 44
0.0000000001
 12
1.5011676572
 22
-0.7505838286
 32
0.0
 13
-0.0
 23
-1.6783564635
 33
0.0
 40
0.0
 40
0.0
 40
0.0
 40
0.0
 40
0.2296940512
 40
0.4882147541
 40
0.7531875194
 40
1.0
 40
1.0
 40
1.0
 40
1.0
 10
-10.1512524876
 20
16.9708124091
 30
0.0
 10
-10.0363160607
 20
16.9133441957
 30
0.0
 10
-9.8167106765
 20
16.741532241
 30
0.0
 10
-9.5631314708
 20
16.4004444717
 30
0.0
 10
-9.3905929813
 20
16.0015731827
 30
0.0
 10
-9.3429414207
 20
15.7147618161
 30
0.0
 10
-9.3429414207
 20
15.576682042
 30
0.0
 11
-10.1512524876
 21
16.9708124091
 31
0.0
 11
-9.8419036773
 21
16.7407686881
 31
0.0
 11
-9.5796902509
 21
16.3950743752
 31
0.0
 11
-9.4044802094
 21
15.9863248053
 31
0.0
 11
-9.3429414207
 21
15.576682042
 31
0.0
  0
SPLINE
  5
2C5
100
AcDbEntity
  8
0
100
AcDbSpline
 62
253
  6
CONTINUOUS
 70
0
 71
3
 72
11
 73
7
 74
5
 42
0.0000001
 43
0.0000001
 44
0.0000000001
 12
0.0
 22
1.7324980093
 32
0.0
 13
-1.5495933278
 23
0.7747966639
 33
0.0
 40
0.0
 40
0.0
 40
0.0
 40
0.0
 40
0.2468124806
 40
0.5117852459
 40
0.7703059488
 40
1.0
 40
1.0
 40
1.0
 40
1.0
 10
-9.1839521192
 20
15.6301016536
 30
0.0
 10
-9.1839521192
 20
15.7726356974
 30
0.0
 10
-9.2331408557
 20
16.068699217
 30
0.0
 10
-9.4112452072
 20
16.4804375629
 30
0.0
 10
-9.6730045406
 20
16.8325283697
 30
0.0
 10
-9.8996941022
 20
17.0098827493
 30
0.0
 10
-10.0183382253
 20
17.0692048108
 30
0.0
 11
-9.1839521192
 21
15.6301016536
 31
0.0
 11
-9.2474760673
 21
16.0529589472
 31
0.0
 11
-9.4283381515
 21
16.4748942342
 31
0.0
 11
-9.699010234
 21
16.8317401855
 31
0.0
 11
-10.0183382253
 21
17.0692048108
 31
0.0
  0
SPLINE
  5
2C6
100
AcDbEntity
  8
0
100
AcDbSpline
 62
253
  6
CONTINUOUS
 70
0
 71
3
 72
17
 73
13
 74
11
 42
0.0000001
 43
0.0000001
 44
0.0000000001
 12
8.6748453509
 22
4.338159673
 32
0.0
 13
-8.3552826395
 23
4.9256292212
 33
0.0
 40
0.0
 40
0.0
 40
0.0
 40
0.0
 40
0.0448478551
 40
0.0912816869
 40
0.1406056074
 40
0.1936827929
 40
0.3120050353
 40
0.4453782304
 40
0.5883962238
 40
0.7335815009
 40
0.8730291544
 40
1.0
 40
1.0
 40
1.0
 40
1.0
 10
-9.1802643951
 20
11.1556727048
 30
0.0
 10
-9.0505816592
 20
11.2205250903
 30
0.0
 10
-8.8020027242
 20
11.3858747686
 30
0.0
 10
-8.4910462043
 20
11.7225207463
 30
0.0
 10
-8.2451808968
 20
12.1399419794
 30
0.0
 10
-8.0015266411
 20
12.8142129136
 30
0.0
 10
-7.8982297831
 20
13.808394717
 30
0.0
 10
-8.0663547544
 20
15.0819629171
 30
0.0
 10
-8.5042445973
 20
16.3810508742
 30
0.0
 10
-9.1761352969
 20
17.5981232131
 30
0.0
 10
-10.0252588203
 20
18.6323054908
 30
0.0
 10
-10.7060470141
 20
19.1759770337
 30
0.0
 10
-11.0596727814
 20
19.3844474695
 30
0.0
 11
-9.1802643951
 21
11.1556727048
 31
0.0
 11
-8.817595654
 21
11.395844267
 31
0.0
 11
-8.5100382685
 21
11.7248403062
 31
0.0
 11
-8.2644014618
 21
12.1353606259
 31
0.0
 11
-8.0861231567
 21
12.6183067197
 31
0.0
 11
-7.94587583
 21
13.7573243141
 31
0.0
 11
-8.1016832129
 21
15.0415071077
 31
0.0
 11
-8.5397801994
 21
16.3576549637
 31
0.0
 11
-9.2215737618
 21
17.5897633727
 31
0.0
 11
-10.0869356936
 21
18.6292107447
 31
0.0
 11
-11.0596727814
 21
19.3844474695
 31
0.0
  0
SPLINE
  5
2C7
100
AcDbEntity
  8
0
100
AcDbSpline
 62
253
  6
CONTINUOUS
 70
0
 71
3
 72
17
 73
13
 74
11
 42
0.0000001
 43
0.0000001
 44
0.0000000001
 12
-7.1907742681
 22
4.2391250406
 32
0.0
 13
7.3814916338
 23
3.8975629492
 33
0.0
 40
0.0
 40
0.0
 40
0.0
 40
0.0
 40
0.1267219977
 40
0.2658625301
 40
0.4107850196
 40
0.5536901545
 40
0.6871721728
 40
0.8058177112
 40
0.8590930878
 40
0.9085979043
 40
0.9551483869
 40
1.0
 40
1.0
 40
1.0
 40
1.0
 10
-11.5130203462
 20
11.9664398607
 30
0.0
 10
-11.8167634396
 20
12.1455033252
 30
0.0
 10
-12.4017538704
 20
12.6119008067
 30
0.0
 10
-13.1325674801
 20
13.4988830234
 30
0.0
 10
-13.712505318
 20
14.5431318103
 30
0.0
 10
-14.0931140859
 20
15.6589964124
 30
0.0
 10
-14.2436112439
 20
16.7550491466
 30
0.0
 10
-14.1614652207
 20
17.6127746
 30
0.0
 10
-13.9581335066
 20
18.1973045588
 30
0.0
 10
-13.7513490223
 20
18.5608326723
 30
0.0
 10
-13.4886506516
 20
18.8560309476
 30
0.0
 10
-13.2775871793
 20
19.0030569479
 30
0.0
 10
-13.1672299104
 20
19.0613276097
 30
0.0
 11
-11.5130203462
 21
11.9664398607
 31
0.0
 11
-12.3489826546
 21
12.6145751388
 31
0.0
 11
-13.0936019599
 21
13.5059241013
 31
0.0
 11
-13.6820535913
 21
14.5628661754
 31
0.0
 11
-14.0630259267
 21
15.6932659871
 31
0.0
 11
-14.2033326472
 21
16.7986111093
 31
0.0
 11
-14.0907173281
 21
17.7825574044
 31
0.0
 11
-13.9417898622
 21
18.2015844109
 31
0.0
 11
-13.7350217165
 21
18.5593654167
 31
0.0
 11
-13.4749372853
 21
18.8480579613
 31
0.0
 11
-13.1672299104
 21
19.0613276097
 31
0.0
  0
SPLINE
  5
2C8
100
AcDbEntity
  8
0
100
AcDbSpline
 62
253
  6
CONTINUOUS
 70
0
 71
3
 72
17
 73
13
 74
11
 42
0.0000001
 43
0.0000001
 44
0.0000000001
 12
-0.9879368352
 22
0.4939684176
 32
0.0
 13
0.9879368352
 23
-0.4939684176
 33
0.0
 40
0.0
 40
0.0
 40
0.0
 40
0.0
 40
0.1092753266
 40
0.1576482481
 40
0.2045896998
 40
0.3044776326
 40
0.4254097648
 40
0.4943522139
 40
0.5674667355
 40
0.7196279593
 40
0.8680798856
 40
1.0
 40
1.0
 40
1.0
 40
1.0
 10
-11.092397287
 20
15.884390312
 30
0.0
 10
-11.1283829937
 20
15.9023831654
 30
0.0
 10
-11.1868263636
 20
15.9201156259
 30
0.0
 10
-11.2624352649
 20
15.909085215
 30
0.0
 10
-11.3278457028
 20
15.8761536383
 30
0.0
 10
-11.3869878842
 20
15.7901370787
 30
0.0
 10
-11.4014060401
 20
15.6819782187
 30
0.0
 10
-11.3935703806
 20
15.5853142885
 30
0.0
 10
-11.3698249567
 20
15.4792896094
 30
0.0
 10
-11.3146282261
 20
15.3516489304
 30
0.0
 10
-11.2188475863
 20
15.2228131311
 30
0.0
 10
-11.1358402004
 20
15.1578614962
 30
0.0
 10
-11.092397287
 20
15.1361400395
 30
0.0
 11
-11.092397287
 21
15.884390312
 31
0.0
 11
-11.2093165086
 21
15.9143623054
 31
0.0
 11
-11.2621179801
 21
15.9061899757
 31
0.0
 11
-11.3083898037
 21
15.8827967916
 31
0.0
 11
-11.3746078812
 21
15.7945467124
 31
0.0
 11
-11.3978656025
 21
15.6630118594
 31
0.0
 11
-11.3919912216
 21
15.5870886058
 31
0.0
 11
-11.3746150183
 21
15.5082216902
 31
0.0
 11
-11.3084003112
 21
15.3537455615
 31
0.0
 11
-11.2093213997
 21
15.2230924836
 31
0.0
 11
-11.092397287
 21
15.1361400395
 31
0.0
  0
SPLINE
  5
2C9
100
AcDbEntity
  8
0
100
AcDbSpline
 62
253
  6
CONTINUOUS
 70
0
 71
3
 72
17
 73
13
 74
11
 42
0.0000001
 43
0.0000001
 44
0.0000000001
 12
0.9879368352
 22
-0.4939684176
 32
0.0
 13
-0.9879368352
 23
0.4939684176
 33
0.0
 40
0.0
 40
0.0
 40
0.0
 40
0.0
 40
0.1092753266
 40
0.1576482481
 40
0.2045896998
 40
0.3044776326
 40
0.4254097648
 40
0.4943522139
 40
0.5674667355
 40
0.7196279593
 40
0.8680798856
 40
1.0
 40
1.0
 40
1.0
 40
1.0
 10
-11.092397287
 20
15.1361400395
 30
0.0
 10
-11.0564115802
 20
15.1181471861
 30
0.0
 10
-10.9979682104
 20
15.1004147257
 30
0.0
 10
-10.9223593091
 20
15.1114451365
 30
0.0
 10
-10.8569488711
 20
15.1443767132
 30
0.0
 10
-10.7978066897
 20
15.2303932729
 30
0.0
 10
-10.7833885339
 20
15.3385521328
 30
0.0
 10
-10.7912241934
 20
15.4352160631
 30
0.0
 10
-10.8149696172
 20
15.5412407422
 30
0.0
 10
-10.8701663478
 20
15.6688814212
 30
0.0
 10
-10.9659469877
 20
15.7977172205
 30
0.0
 10
-11.0489543735
 20
15.8626688553
 30
0.0
 10
-11.092397287
 20
15.884390312
 30
0.0
 11
-11.092397287
 21
15.1361400395
 31
0.0
 11
-10.9754780653
 21
15.1061680462
 31
0.0
 11
-10.9226765938
 21
15.1143403759
 31
0.0
 11
-10.8764047702
 21
15.1377335599
 31
0.0
 11
-10.8101866928
 21
15.2259836391
 31
0.0
 11
-10.7869289715
 21
15.3575184921
 31
0.0
 11
-10.7928033523
 21
15.4334417457
 31
0.0
 11
-10.8101795556
 21
15.5123086613
 31
0.0
 11
-10.8763942628
 21
15.6667847901
 31
0.0
 11
-10.9754731742
 21
15.797437868
 31
0.0
 11
-11.092397287
 21
15.884390312
 31
0.0
  0
SPLINE
  5
2CA
100
AcDbEntity
  8
0
100
AcDbSpline
 62
253
  6
CONTINUOUS
 70
0
 71
3
 72
11
 73
7
 74
5
 42
0.0000001
 43
0.0000001
 44
0.0000000001
 12
-0.3938273503
 22
0.1969136752
 32
0.0
 13
-0.2519282703
 23
-0.3611192655
 33
0.0
 40
0.0
 40
0.0
 40
0.0
 40
0.0
 40
0.2805759505
 40
0.5291510006
 40
0.7612720888
 40
1.0
 40
1.0
 40
1.0
 40
1.0
 10
-10.9824100001
 20
16.1398428349
 30
0.0
 10
-11.0192428279
 20
16.1582592488
 30
0.0
 10
-11.0932227758
 20
16.1853579687
 30
0.0
 10
-11.2073063055
 20
16.1892892673
 30
0.0
 10
-11.3087322717
 20
16.1502853305
 30
0.0
 10
-11.3587266266
 20
16.0995630449
 30
0.0
 10
-11.3787740632
 20
16.0708266289
 30
0.0
 11
-10.9824100001
 21
16.1398428349
 31
0.0
 11
-11.0991919868
 21
16.1801461978
 31
0.0
 11
-11.2086310282
 21
16.1817414731
 31
0.0
 11
-11.3038182494
 21
16.1445203045
 31
0.0
 11
-11.3787740632
 21
16.0708266289
 31
0.0
  0
SPLINE
  5
2CB
100
AcDbEntity
  8
0
100
AcDbSpline
 62
253
  6
CONTINUOUS
 70
0
 71
3
 72
11
 73
7
 74
5
 42
0.0000001
 43
0.0000001
 44
0.0000000001
 12
0.0
 22
0.9741225371
 32
0.0
 13
-0.8712816846
 23
0.4356408423
 33
0.0
 40
0.0
 40
0.0
 40
0.0
 40
0.0
 40
0.2468124806
 40
0.5117852459
 40
0.7703059488
 40
1.0
 40
1.0
 40
1.0
 40
1.0
 10
-10.5132641158
 20
15.330685877
 30
0.0
 10
-10.5132641158
 20
15.4108277436
 30
0.0
 10
-10.5409212078
 20
15.5772938206
 30
0.0
 10
-10.6410630041
 20
15.8087997733
 30
0.0
 10
-10.7882410468
 20
16.006768018
 30
0.0
 10
-10.9157005935
 20
16.1064881316
 30
0.0
 10
-10.9824100001
 20
16.1398428349
 30
0.0
 11
-10.5132641158
 21
15.330685877
 31
0.0
 11
-10.5489813918
 21
15.5684436219
 31
0.0
 11
-10.650673764
 21
15.805682955
 31
0.0
 11
-10.8028631312
 21
16.0063248499
 31
0.0
 11
-10.9824100001
 21
16.1398428349
 31
0.0
  0
SPLINE
  5
2CC
100
AcDbEntity
  8
0
100
AcDbSpline
 62
253
  6
CONTINUOUS
 70
0
 71
3
 72
22
 73
18
 74
16
 42
0.0000001
 43
0.0000001
 44
0.0000000001
 12
8.5195283144
 22
-6.4411134061
 32
0.0
 13
-9.2005955319
 23
5.4239604045
 33
0.0
 40
0.0
 40
0.0
 40
0.0
 40
0.0
 40
0.0688538445
 40
0.1417165822
 40
0.2934906189
 40
0.3693777778
 40
0.4429877429
 40
0.5128711377
 40
0.5779049517
 40
0.6374616157
 40
0.6916080569
 40
0.7413059226
 40
0.788482899
 40
0.835740084
 40
0.8856583006
 40
0.940109943
 40
1.0
 40
1.0
 40
1.0
 40
1.0
 10
-10.8509704459
 20
18.6917796784
 30
0.0
 10
-10.6554363533
 20
18.5439478715
 30
0.0
 10
-10.2764845038
 20
18.2076495134
 30
0.0
 10
-9.5921832051
 20
17.4154131012
 30
0.0
 10
-9.0438058382
 20
16.4830665056
 30
0.0
 10
-8.6628636026
 20
15.4786438594
 30
0.0
 10
-8.4740735438
 20
14.7185953749
 30
0.0
 10
-8.3890380619
 20
13.9788157225
 30
0.0
 10
-8.4109289533
 20
13.2839481954
 30
0.0
 10
-8.5399665194
 20
12.6570364912
 30
0.0
 10
-8.7740495014
 20
12.118962551
 30
0.0
 10
-9.1090625337
 20
11.6897660834
 30
0.0
 10
-9.5358471435
 20
11.3903233376
 30
0.0
 10
-10.0350747499
 20
11.2375452262
 30
0.0
 10
-10.581617922
 20
11.235964752
 30
0.0
 10
-11.1533905888
 20
11.3798987639
 30
0.0
 10
-11.5220926421
 20
11.55877368
 30
0.0
 10
-11.7057673725
 20
11.6670541127
 30
0.0
 11
-10.8509704459
 21
18.6917796784
 31
0.0
 11
-10.298659223
 21
18.2062462255
 31
0.0
 11
-9.7881512767
 21
17.6188975753
 31
0.0
 11
-8.962023603
 21
16.2242064289
 31
0.0
 11
-8.6755426707
 21
15.4660219589
 31
0.0
 11
-8.4879635331
 21
14.7025459069
 31
0.0
 11
-8.4058961077
 21
13.9606909247
 31
0.0
 11
-8.4322316235
 21
13.2666051666
 31
0.0
 11
-8.5660405526
 21
12.6447513967
 31
0.0
 11
-8.8026064398
 21
12.1170468091
 31
0.0
 11
-9.1335914996
 21
11.7020906556
 31
0.0
 11
-9.5473308993
 21
11.4145106952
 31
0.0
 11
-10.0292300887
 21
11.2644450003
 31
0.0
 11
-10.5623256346
 21
11.2571815
 31
0.0
 11
-11.127812913
 21
11.3929771693
 31
0.0
 11
-11.7057673725
 21
11.6670541127
 31
0.0
  0
SPLINE
  5
2CD
100
AcDbEntity
  8
0
100
AcDbSpline
 62
253
  6
CONTINUOUS
 70
0
 71
3
 72
23
 73
19
 74
17
 42
0.0000001
 43
0.0000001
 44
0.0000000001
 12
-9.6227098948
 22
5.6728064256
 32
0.0
 13
9.6227098948
 23
-5.6728064256
 33
0.0
 40
0.0
 40
0.0
 40
0.0
 40
0.0
 40
0.0653543678
 40
0.1356589762
 40
0.2096430691
 40
0.2856818424
 40
0.36198162
 40
0.4367210889
 40
0.5082131054
 40
0.5750660779
 40
0.6363715706
 40
0.6919274583
 40
0.7424831233
 40
0.789889794
 40
0.8368775736
 40
0.886310558
 40
0.9403314697
 40
1.0
 40
1.0
 40
1.0
 40
1.0
 10
-11.7057673725
 20
11.6670541127
 30
0.0
 10
-11.9153960796
 20
11.7906350051
 30
0.0
 10
-12.3271811715
 20
12.0878662902
 30
0.0
 10
-12.8862941002
 20
12.6359353506
 30
0.0
 10
-13.3925308188
 20
13.2843716331
 30
0.0
 10
-13.8268665157
 20
14.0088771551
 30
0.0
 10
-14.1732136515
 20
14.7824137059
 30
0.0
 10
-14.4185776025
 20
15.5760764535
 30
0.0
 10
-14.5537549687
 20
16.3603594163
 30
0.0
 10
-14.5734831844
 20
17.1064569435
 30
0.0
 10
-14.4762318885
 20
17.7874557583
 30
0.0
 10
-14.2634099193
 20
18.37895934
 30
0.0
 10
-13.9385442494
 20
18.8581005869
 30
0.0
 10
-13.5096935423
 20
19.2007244817
 30
0.0
 10
-12.9967904168
 20
19.385077371
 30
0.0
 10
-12.4290039806
 20
19.4035073081
 30
0.0
 10
-11.8325092997
 20
19.262269487
 30
0.0
 10
-11.4482329378
 20
19.0773982304
 30
0.0
 10
-11.2568419522
 20
18.9645688898
 30
0.0
 11
-11.7057673725
 21
11.6670541127
 31
0.0
 11
-12.3005538783
 21
12.0903470361
 31
0.0
 11
-12.8638296331
 21
12.6375780805
 31
0.0
 11
-13.3739980886
 21
13.2877432885
 31
0.0
 11
-13.8114167532
 21
14.0158325969
 31
0.0
 11
-14.1593036509
 21
14.7938975716
 31
0.0
 11
-14.4042724121
 21
15.5920170568
 31
0.0
 11
-14.5369114451
 21
16.3795175883
 31
0.0
 11
-14.5521247536
 21
17.1261353834
 31
0.0
 11
-14.4493298244
 21
17.8031815886
 31
0.0
 11
-14.2324772237
 21
18.3846406252
 31
0.0
 11
-13.9099001386
 21
18.8481696784
 31
0.0
 11
-13.4939907242
 21
19.1759544704
 31
0.0
 11
-13.0007467922
 21
19.3553983787
 31
0.0
 11
-12.4490924444
 21
19.379600183
 31
0.0
 11
-11.8602630486
 21
19.2476443314
 31
0.0
 11
-11.2568419522
 21
18.9645688898
 31
0.0
  0
SPLINE
  5
2CE
100
AcDbEntity
  8
0
100
AcDbSpline
 62
253
  6
CONTINUOUS
 70
0
 71
3
 72
23
 73
19
 74
17
 42
0.0000001
 43
0.0000001
 44
0.0000000001
 12
-9.6013514091
 22
5.6602151123
 32
0.0
 13
9.0384561165
 23
-6.5215255139
 33
0.0
 40
0.0
 40
0.0
 40
0.0
 40
0.0
 40
0.0598181122
 40
0.114157184
 40
0.1639526474
 40
0.2111292969
 40
0.2583248601
 40
0.3081682615
 40
0.3625743301
 40
0.4224634878
 40
0.4878492395
 40
0.5580477404
 40
0.6318819256
 40
0.7078544432
 40
0.7842942166
 40
0.8594964657
 40
0.9318482147
 40
1.0
 40
1.0
 40
1.0
 40
1.0
 10
-11.2493365917
 20
19.0865724049
 30
0.0
 10
-11.4407814971
 20
19.1994335326
 30
0.0
 10
-11.8250972093
 20
19.3855647116
 30
0.0
 10
-12.4212006553
 20
19.5338070747
 30
0.0
 10
-12.9905262696
 20
19.5287579964
 30
0.0
 10
-13.5094447722
 20
19.3644052251
 30
0.0
 10
-13.9511483729
 20
19.0460114358
 30
0.0
 10
-14.2954743708
 20
18.5920290769
 30
0.0
 10
-14.5331667238
 20
18.0247339827
 30
0.0
 10
-14.6600969914
 20
17.3654096706
 30
0.0
 10
-14.6742275816
 20
16.6363534022
 30
0.0
 10
-14.5760247461
 20
15.8621191017
 30
0.0
 10
-14.3692128833
 20
15.0692086025
 30
0.0
 10
-14.06107799
 20
14.285119009
 30
0.0
 10
-13.6624437617
 20
13.5372270585
 30
0.0
 10
-13.187152511
 20
12.851676451
 30
0.0
 10
-12.6519685837
 20
12.2524610886
 30
0.0
 10
-12.2530568146
 20
11.9123295969
 30
0.0
 10
-12.0477278411
 20
11.7641783947
 30
0.0
 11
-11.2493365917
 21
19.0865724049
 31
0.0
 11
-11.8519830737
 21
19.3717325198
 31
0.0
 11
-12.4413154832
 21
19.5113311671
 31
0.0
 11
-12.9962066926
 21
19.500373635
 31
0.0
 11
-13.4967215145
 21
19.3392453771
 31
0.0
 11
-13.9249234518
 21
19.0337257627
 31
0.0
 11
-14.2654285939
 21
18.5947793832
 31
0.0
 11
-14.506018009
 21
18.0381625953
 31
0.0
 11
-14.6380584546
 21
17.3838531298
 31
0.0
 11
-14.6568137006
 21
16.6553322951
 31
0.0
 11
-14.5616117418
 21
15.878742825
 31
0.0
 11
-14.3558695574
 21
15.0819520275
 31
0.0
 11
-14.0469673645
 21
14.2935496329
 31
0.0
 11
-13.6459989089
 21
13.5418383342
 31
0.0
 11
-13.1673372677
 21
12.8537855369
 31
0.0
 11
-12.6282072213
 21
12.2540993924
 31
0.0
 11
-12.0477278411
 21
11.7641783947
 31
0.0
  0
SPLINE
  5
2CF
100
AcDbEntity
  8
0
100
AcDbSpline
 62
253
  6
CONTINUOUS
 70
0
 71
3
 72
9
 73
5
 74
3
 42
0.0000001
 43
0.0000001
 44
0.0000000001
 12
0.3243174802
 22
-0.2340050883
 32
0.0
 13
0.344515264
 23
-0.2030995868
 33
0.0
 40
0.0
 40
0.0
 40
0.0
 40
0.0
 40
0.2545699029
 40
1.0
 40
1.0
 40
1.0
 40
1.0
 10
-12.0477278411
 20
11.7641783947
 30
0.0
 10
-12.0202073512
 20
11.7443215105
 30
0.0
 10
-11.9112533294
 20
11.6675057307
 30
0.0
 10
-11.7988767486
 20
11.5955161124
 30
0.0
 10
-11.713272733
 20
11.5450505975
 30
0.0
 11
-12.0477278411
 21
11.7641783947
 31
0.0
 11
-11.9645127199
 21
11.7055243027
 31
0.0
 11
-11.713272733
 21
11.5450505975
 31
0.0
  0
SPLINE
  5
2D0
100
AcDbEntity
  8
0
100
AcDbSpline
 62
253
  6
CONTINUOUS
 70
0
 71
3
 72
23
 73
19
 74
17
 42
0.0000001
 43
0.0000001
 44
0.0000000001
 12
10.0062584347
 22
-5.5422217999
 32
0.0
 13
-9.8537667995
 23
5.8090197281
 33
0.0
 40
0.0
 40
0.0
 40
0.0
 40
0.0
 40
0.0588460362
 40
0.1121625912
 40
0.1611513404
 40
0.2080328112
 40
0.2556521347
 40
0.3066256752
 40
0.362667255
 40
0.4244214846
 40
0.4916264146
 40
0.5633505515
 40
0.6382056269
 40
0.7145256119
 40
0.7905206784
 40
0.8644330932
 40
0.9346738424
 40
1.0
 40
1.0
 40
1.0
 40
1.0
 10
-11.62145786
 20
11.4925626616
 30
0.0
 10
-11.4251816446
 20
11.3838500667
 30
0.0
 10
-11.0317375579
 20
11.2080544573
 30
0.0
 10
-10.4237388654
 20
11.0849119816
 30
0.0
 10
-9.8480728748
 20
11.1248226259
 30
0.0
 10
-9.331696899
 20
11.3328792638
 30
0.0
 10
-8.9033607638
 20
11.6994142449
 30
0.0
 10
-8.5815909545
 20
12.2019144523
 30
0.0
 10
-8.3738251974
 20
12.8163695349
 30
0.0
 10
-8.2834994336
 20
13.5197678517
 30
0.0
 10
-8.3118760962
 20
14.2873601949
 30
0.0
 10
-8.4571916358
 20
15.0918984167
 30
0.0
 10
-8.7139210305
 20
15.9043252819
 30
0.0
 10
-9.0726114116
 20
16.6949630953
 30
0.0
 10
-9.5200497356
 20
17.4347918734
 30
0.0
 10
-10.0399592403
 20
18.0966967322
 30
0.0
 10
-10.6131561986
 20
18.6563087754
 30
0.0
 10
-11.0347670174
 20
18.9600787588
 30
0.0
 10
-11.2493365917
 20
19.0865724049
 30
0.0
 11
-11.62145786
 21
11.4925626616
 31
0.0
 11
-11.004158465
 21
11.2241851548
 31
0.0
 11
-10.4050252987
 21
11.1102707146
 31
0.0
 11
-9.8464498577
 21
11.1549865307
 31
0.0
 11
-9.3495695161
 21
11.3566860178
 31
0.0
 11
-8.9330987176
 21
11.7077531016
 31
0.0
 11
-8.6127691622
 21
12.1949435199
 31
0.0
 11
-8.4006627587
 21
12.7998725621
 31
0.0
 11
-8.3047806165
 21
13.4997164833
 31
0.0
 11
-8.328737872
 21
14.2680729844
 31
0.0
 11
-8.4716302997
 21
15.0759567036
 31
0.0
 11
-8.72806704
 21
15.8928910161
 31
0.0
 11
-9.0883779577
 21
16.6880597842
 31
0.0
 11
-9.5389552577
 21
17.431445339
 31
0.0
 11
-10.0628290464
 21
18.0950332264
 31
0.0
 11
-10.64020386
 21
18.6537629577
 31
0.0
 11
-11.2493365917
 21
19.0865724049
 31
0.0
  0
SPLINE
  5
2D1
100
AcDbEntity
  8
0
100
AcDbSpline
 62
253
  6
CONTINUOUS
 70
0
 71
3
 72
11
 73
7
 74
5
 42
0.0000001
 43
0.0000001
 44
0.0000000001
 12
-2.1367666856
 22
1.2596725784
 32
0.0
 13
-2.2184911449
 23
-1.109434051
 33
0.0
 40
0.0
 40
0.0
 40
0.0
 40
0.0
 40
0.2832924688
 40
0.5406752827
 40
0.7765540657
 40
1.0
 40
1.0
 40
1.0
 40
1.0
 10
-11.0596727814
 20
19.3844474695
 30
0.0
 10
-11.2614494179
 20
19.5033993877
 30
0.0
 10
-11.6664737932
 20
19.6996465383
 30
0.0
 10
-12.294832514
 20
19.8561684456
 30
0.0
 10
-12.8945823027
 20
19.851658771
 30
0.0
 10
-13.2635539302
 20
19.7353598356
 30
0.0
 10
-13.4287915391
 20
19.652726993
 30
0.0
 11
-11.0596727814
 21
19.3844474695
 31
0.0
 11
-11.6947970671
 21
19.6850925604
 31
0.0
 11
-12.3159461654
 21
19.8325879232
 31
0.0
 11
-12.9009258103
 21
19.8216727211
 31
0.0
 11
-13.4287915391
 21
19.652726993
 31
0.0
  0
SPLINE
  5
2D2
100
AcDbEntity
  8
0
100
AcDbSpline
 62
7
  6
CONTINUOUS
 70
0
 71
3
 72
14
 73
10
 74
8
 42
0.0000001
 43
0.0000001
 44
0.0000000001
 12
0.0
 22
-1.9442304851
 32
0.0
 13
-1.7389714177
 23
-0.8694886932
 33
0.0
 40
0.0
 40
0.0
 40
0.0
 40
0.0
 40
0.2827392043
 40
0.4144893636
 40
0.5400311838
 40
0.6600821863
 40
0.7757469857
 40
0.8884815813
 40
1.0
 40
1.0
 40
1.0
 40
1.0
 10
8.9633736898
 20
5.7388356745
 30
0.0
 10
8.9633736898
 20
5.5555989478
 30
0.0
 10
8.9386609595
 20
5.2853928371
 30
0.0
 10
8.8457454104
 20
4.9472376244
 30
0.0
 10
8.7511497667
 20
4.7209022082
 30
0.0
 10
8.6310755194
 20
4.5189482184
 30
0.0
 10
8.4868322394
 20
4.3439509371
 30
0.0
 10
8.3202268219
 20
4.1983400017
 30
0.0
 10
8.1955098006
 20
4.1221224351
 30
0.0
 10
8.130867353
 20
4.0898011003
 30
0.0
 11
8.9633736898
 21
5.7388356745
 31
0.0
 11
8.9079738697
 21
5.1919242171
 31
0.0
 11
8.8393722932
 21
4.9451287204
 31
0.0
 11
8.7445309015
 21
4.7202259695
 31
0.0
 11
8.6246297622
 21
4.5199699837
 31
0.0
 11
8.4811571866
 21
4.346804751
 31
0.0
 11
8.3158897576
 21
4.2028344679
 31
0.0
 11
8.130867353
 21
4.0898011003
 31
0.0
  0
SPLINE
  5
2D3
100
AcDbEntity
  8
0
100
AcDbSpline
 62
7
  6
CONTINUOUS
 70
0
 71
3
 72
14
 73
10
 74
8
 42
0.0000001
 43
0.0000001
 44
0.0000000001
 12
0.0
 22
-1.8422405279
 32
0.0
 13
-1.6477409647
 23
-0.8238931215
 33
0.0
 40
0.0
 40
0.0
 40
0.0
 40
0.0
 40
0.2961337996
 40
0.4316938771
 40
0.5587277103
 40
0.6777442097
 40
0.7897927289
 40
0.8964957863
 40
1.0
 40
1.0
 40
1.0
 40
1.0
 10
-26.6792964283
 20
23.2728396748
 30
0.0
 10
-26.6792964283
 20
23.0909897791
 30
0.0
 10
-26.7001990478
 20
22.8245913015
 30
0.0
 10
-26.7814228991
 20
22.4906302505
 30
0.0
 10
-26.8636533857
 20
22.2704992985
 30
0.0
 10
-26.9681069666
 20
22.0761287587
 30
0.0
 10
-27.0937930005
 20
21.9099457341
 30
0.0
 10
-27.2392966184
 20
21.7743080347
 30
0.0
 10
-27.3493370641
 20
21.7050386547
 30
0.0
 10
-27.4061864418
 20
21.6766131848
 30
0.0
 11
-26.6792964283
 21
23.2728396748
 31
0.0
 11
-26.727669243
 21
22.7294387804
 31
0.0
 11
-26.7875687346
 21
22.4869944448
 31
0.0
 11
-26.8703791002
 21
22.2681085794
 31
0.0
 11
-26.9750693141
 21
22.0754596776
 31
0.0
 11
-27.1003395964
 21
21.9113965612
 31
0.0
 11
-27.2446390621
 21
21.7779106468
 31
0.0
 11
-27.4061864418
 21
21.6766131848
 31
0.0
  0
SPLINE
  5
2D4
100
AcDbEntity
  8
RACCORDO
100
AcDbSpline
 62
7
  6
CONTINUOUS
 70
0
 71
3
 72
15
 73
11
 74
9
 42
0.0000001
 43
0.0000001
 44
0.0000000001
 12
-0.0
 22
-4.0641038476
 32
0.0
 13
-3.6147478819
 23
-1.8575623367
 33
0.0
 40
0.0
 40
0.0
 40
0.0
 40
0.0
 40
0.159832284
 40
0.309617147
 40
0.448698736
 40
0.576833507
 40
0.6943682596
 40
0.8024624778
 40
0.903281093
 40
1.0
 40
1.0
 40
1.0
 40
1.0
 10
-6.1902471823
 20
12.7905419304
 30
0.0
 10
-6.1902471823
 20
12.5740169303
 30
0.0
 10
-6.2082196696
 20
12.1542634787
 30
0.0
 10
-6.2930963863
 20
11.5513351798
 30
0.0
 10
-6.4320102036
 20
11.002491225
 30
0.0
 10
-6.6205723844
 20
10.5150351918
 30
0.0
 10
-6.8533557556
 20
10.0942358072
 30
0.0
 10
-7.1248217947
 20
9.7426983241
 30
0.0
 10
-7.4303961964
 20
9.4603931347
 30
0.0
 10
-7.657638579
 20
9.3158202882
 30
0.0
 10
-7.7741767337
 20
9.2559331553
 30
0.0
 11
-6.1902471823
 21
12.7905419304
 31
0.0
 11
-6.2196210875
 21
12.1416314168
 31
0.0
 11
-6.3063023284
 21
11.5390932376
 31
0.0
 11
-6.4470193631
 21
10.9916471137
 31
0.0
 11
-6.6369904254
 21
10.5067814632
 31
0.0
 11
-6.8701940484
 21
10.0899026011
 31
0.0
 11
-7.1402813554
 21
9.7434307827
 31
0.0
 11
-7.4422424511
 21
9.4664756066
 31
0.0
 11
-7.7741767337
 21
9.2559331553
 31
0.0
  0
SPLINE
  5
2D5
100
AcDbEntity
  8
RACCORDO
100
AcDbSpline
 62
7
  6
CONTINUOUS
 70
0
 71
3
 72
25
 73
21
 74
19
 42
0.0000001
 43
0.0000001
 44
0.0000000001
 12
12.2364741205
 22
5.9500731437
 32
0.0
 13
-0.0
 23
-13.6064201507
 33
0.0
 40
0.0
 40
0.0
 40
0.0
 40
0.0
 40
0.0186255566
 40
0.0376027034
 40
0.0572257934
 40
0.0777444984
 40
0.1221431568
 40
0.1717808949
 40
0.2268807385
 40
0.2871956968
 40
0.3521821878
 40
0.4211059686
 40
0.4931051837
 40
0.5672317827
 40
0.6424829156
 40
0.717828013
 40
0.792234221
 40
0.8646917257
 40
0.9342403915
 40
1.0
 40
1.0
 40
1.0
 40
1.0
 10
-14.1046356971
 20
21.9169379139
 30
0.0
 10
-14.0286653169
 20
21.9538790551
 30
0.0
 10
-13.8707308358
 20
22.019458305
 30
0.0
 10
-13.6205481449
 20
22.0905554783
 30
0.0
 10
-13.3554300924
 20
22.1342937732
 30
0.0
 10
-12.9719288599
 20
22.1554129925
 30
0.0
 10
-12.4515354319
 20
22.1017034974
 30
0.0
 10
-11.7989305665
 20
21.9130255585
 30
0.0
 10
-11.1175387586
 20
21.5969155444
 30
0.0
 10
-10.4254795077
 20
21.1565689334
 30
0.0
 10
-9.7406433701
 20
20.5997030992
 30
0.0
 10
-9.080006181
 20
19.9374465067
 30
0.0
 10
-8.4590620552
 20
19.1835062523
 30
0.0
 10
-7.8917310882
 20
18.3535539953
 30
0.0
 10
-7.3902875811
 20
17.4648007169
 30
0.0
 10
-6.9652917298
 20
16.5356646554
 30
0.0
 10
-6.6254894077
 20
15.5855180258
 30
0.0
 10
-6.3776584677
 20
14.6343579144
 30
0.0
 10
-6.2264130517
 20
13.7028484332
 30
0.0
 10
-6.1902471823
 20
13.0887928847
 30
0.0
 10
-6.1902471823
 20
12.7905419304
 30
0.0
 11
-14.1046356971
 21
21.9169379139
 31
0.0
 11
-13.8706228572
 21
22.0142174602
 31
0.0
 11
-13.6223212624
 21
22.0850641642
 31
0.0
 11
-13.3589493873
 21
22.1289305474
 31
0.0
 11
-13.0802138949
 21
22.14478664
 31
0.0
 11
-12.4788325146
 21
22.087467703
 31
0.0
 11
-11.8286560243
 21
21.9046432611
 31
0.0
 11
-11.1467525002
 21
21.5930744868
 31
0.0
 11
-10.4524075347
 21
21.1555983059
 31
0.0
 11
-9.7645427407
 21
20.5999807153
 31
0.0
 11
-9.1006921958
 21
19.9375741941
 31
0.0
 11
-8.4767239711
 21
19.1823385661
 31
0.0
 11
-7.9068014728
 21
18.3501982134
 31
0.0
 11
-7.4033773444
 21
17.4586084252
 31
0.0
 11
-6.9771520831
 21
16.5262351022
 31
0.0
 11
-6.636985885
 21
15.5726916965
 31
0.0
 11
-6.3897522328
 21
14.6183075001
 31
0.0
 11
-6.240123074
 21
13.6839036046
 31
0.0
 11
-6.1902471823
 21
12.7905419304
 31
0.0
  0
SPLINE
  5
2D6
100
AcDbEntity
  8
RACCORDO
100
AcDbSpline
 62
7
  6
CONTINUOUS
 70
0
 71
3
 72
11
 73
7
 74
5
 42
0.0000001
 43
0.0000001
 44
0.0000000001
 12
-57.1851172986
 22
23.193666795
 32
0.0
 13
-52.5180752474
 23
32.4027096423
 33
0.0
 40
0.0
 40
0.0
 40
0.0
 40
0.0
 40
0.2619351473
 40
0.5161039791
 40
0.7622044558
 40
1.0
 40
1.0
 40
1.0
 40
1.0
 10
19.0647526437
 20
-31.4610414062
 30
0.0
 10
14.0718219368
 20
-29.4359625637
 30
0.0
 10
4.3053678491
 20
-25.266646397
 30
0.0
 10
-9.8665348607
 20
-18.5508990429
 30
0.0
 10
-23.3079046577
 20
-11.4830629709
 30
0.0
 10
-31.9070140845
 20
-6.4616307487
 30
0.0
 10
-36.069868846
 20
-3.8932240909
 30
0.0
 11
19.0647526437
 21
-31.4610414062
 31
0.0
 11
4.2022874822
 21
-25.1065279252
 31
0.0
 11
-9.967265583
 21
-18.3809932658
 31
0.0
 11
-23.403946442
 21
-11.3032890282
 31
0.0
 11
-36.069868846
 21
-3.8932240909
 31
0.0
  0
SPLINE
  5
2D7
100
AcDbEntity
  8
RACCORDO
100
AcDbSpline
 62
7
  6
CONTINUOUS
 70
0
 71
3
 72
11
 73
7
 74
5
 42
0.0000001
 43
0.0000001
 44
0.0000000001
 12
-6.0348143899
 22
67.3270922383
 32
0.0
 13
5.5258281815
 23
67.3707767277
 33
0.0
 40
0.0
 40
0.0
 40
0.0
 40
0.0
 40
0.2416348837
 40
0.4890052959
 40
0.7418845495
 40
1.0
 40
1.0
 40
1.0
 40
1.0
 10
-36.6588302621
 20
-2.9026402778
 30
0.0
 10
-37.1449041531
 20
2.5202177557
 30
0.0
 10
-37.8685254665
 20
13.5194328736
 30
0.0
 10
-38.2209386473
 20
30.2371575623
 30
0.0
 10
-37.8527247336
 20
47.3257537074
 30
0.0
 10
-37.1345872635
 20
58.8208512415
 30
0.0
 10
-36.6591533868
 20
64.6173307027
 30
0.0
 11
-36.6588302621
 21
-2.9026402778
 31
0.0
 11
-37.7400696643
 21
13.3953299967
 31
0.0
 11
-38.1008229858
 21
30.1129393339
 31
0.0
 11
-37.7401552509
 21
47.2030165156
 31
0.0
 11
-36.6591533868
 21
64.6173307027
 31
0.0
  0
SPLINE
  5
2D8
100
AcDbEntity
  8
0
100
AcDbSpline
 62
7
  6
CONTINUOUS
 70
0
 71
3
 72
15
 73
11
 74
9
 42
0.0000001
 43
0.0000001
 44
0.0000000001
 12
1.9059845469
 22
0.9529962671
 32
0.0
 13
1.4888458895
 23
-1.524571053
 33
0.0
 40
0.0
 40
0.0
 40
0.0
 40
0.0
 40
0.1020648992
 40
0.2066914426
 40
0.3168400158
 40
0.4347312107
 40
0.5617364033
 40
0.6984338066
 40
0.8447317975
 40
1.0
 40
1.0
 40
1.0
 40
1.0
 10
-29.9077541563
 20
27.1340329035
 30
0.0
 10
-29.8429094494
 20
27.1664553929
 30
0.0
 10
-29.7037007042
 20
27.2174842305
 30
0.0
 10
-29.4789236508
 20
27.2468410422
 30
0.0
 10
-29.2418016125
 20
27.2294568087
 30
0.0
 10
-28.9964525704
 20
27.1663162762
 30
0.0
 10
-28.7465602098
 20
27.0589857325
 30
0.0
 10
-28.4958140785
 20
26.9094193596
 30
0.0
 10
-28.2479729693
 20
26.7200931097
 30
0.0
 10
-28.0914277453
 20
26.573322711
 30
0.0
 10
-28.0143709369
 20
26.4944169087
 30
0.0
 11
-29.9077541563
 21
27.1340329035
 31
0.0
 11
-29.7036154305
 21
27.2090786566
 31
0.0
 11
-29.482669987
 21
27.2389434725
 31
0.0
 11
-29.2484780044
 21
27.2231799686
 31
0.0
 11
-29.004803488
 21
27.162067189
 31
0.0
 11
-28.7555552741
 21
27.0566026585
 31
0.0
 11
-28.5047274345
 21
26.9084846457
 31
0.0
 11
-28.2563388127
 21
26.7200857885
 31
0.0
 11
-28.0143709369
 21
26.4944169087
 31
0.0
  0
SPLINE
  5
2D9
100
AcDbEntity
  8
0
100
AcDbSpline
 62
7
  6
CONTINUOUS
 70
0
 71
3
 72
15
 73
11
 74
9
 42
0.0000001
 43
0.0000001
 44
0.0000000001
 12
2.4908657564
 22
-2.5506345928
 32
0.0
 13
0.0
 23
-3.5651295969
 33
0.0
 40
0.0
 40
0.0
 40
0.0
 40
0.0
 40
0.1194676827
 40
0.2444379947
 40
0.3730844272
 40
0.503390133
 40
0.6332518323
 40
0.7605811879
 40
0.8834094933
 40
1.0
 40
1.0
 40
1.0
 40
1.0
 10
-28.0143709369
 20
26.4944169087
 30
0.0
 10
-27.9151782837
 20
26.3928441073
 30
0.0
 10
-27.7238996007
 20
26.1733823378
 30
0.0
 10
-27.4667297036
 20
25.8114585729
 30
0.0
 10
-27.2374929
 20
25.4162571613
 30
0.0
 10
-27.0416604425
 20
24.9970976647
 30
0.0
 10
-26.8838749006
 20
24.5638437043
 30
0.0
 10
-26.767905144
 20
24.1267054496
 30
0.0
 10
-26.6965260412
 20
23.6960877251
 30
0.0
 10
-26.6792964283
 20
23.4113930969
 30
0.0
 10
-26.6792964283
 20
23.2728396748
 30
0.0
 11
-28.0143709369
 21
26.4944169087
 31
0.0
 11
-27.7336483945
 21
26.174103309
 31
0.0
 11
-27.4749422964
 21
25.8113735058
 31
0.0
 11
-27.2444545313
 21
25.414854724
 31
0.0
 11
-27.047733126
 21
24.994006007
 31
0.0
 11
-26.8895334736
 21
24.5588995857
 31
0.0
 11
-26.7736957504
 21
24.1199824193
 31
0.0
 11
-26.7030414926
 21
23.687821155
 31
0.0
 11
-26.6792964283
 21
23.2728396748
 31
0.0
  0
SPLINE
  5
2DA
100
AcDbEntity
  8
0
100
AcDbSpline
 62
7
  6
CONTINUOUS
 70
0
 71
3
 72
14
 73
10
 74
8
 42
0.0000001
 43
0.0000001
 44
0.0000000001
 12
2.1012249347
 22
1.0506377071
 32
0.0
 13
1.8071482137
 23
-1.5010666712
 33
0.0
 40
0.0
 40
0.0
 40
0.0
 40
0.0
 40
0.1066147597
 40
0.2160818973
 40
0.3302494993
 40
0.4504677719
 40
0.5775378835
 40
0.7117362353
 40
1.0
 40
1.0
 40
1.0
 40
1.0
 10
5.2658500521
 20
9.3654960261
 30
0.0
 10
5.3405239159
 20
9.402833855
 30
0.0
 10
5.4997214315
 20
9.4637468594
 30
0.0
 10
5.7556811943
 20
9.509302034
 30
0.0
 10
6.0262265355
 20
9.5094730428
 30
0.0
 10
6.3067721951
 20
9.4646461739
 30
0.0
 10
6.5929938847
 20
9.3758793246
 30
0.0
 10
6.9853012336
 20
9.196974431
 30
0.0
 10
7.2606215742
 20
9.0077190442
 30
0.0
 10
7.43426669
 20
8.8634846677
 30
0.0
 11
5.2658500521
 21
9.3654960261
 31
0.0
 11
5.499634857
 21
9.4553701584
 31
0.0
 11
5.7526680003
 21
9.5012889419
 31
0.0
 11
6.0208735438
 21
9.5025457409
 31
0.0
 11
6.2999418876
 21
9.4591449047
 31
0.0
 11
6.5853969811
 21
9.371798336
 31
0.0
 11
6.8726639097
 21
9.2419129327
 31
0.0
 11
7.43426669
 21
8.8634846677
 31
0.0
  0
SPLINE
  5
2DB
100
AcDbEntity
  8
0
100
AcDbSpline
 62
7
  6
CONTINUOUS
 70
0
 71
3
 72
15
 73
11
 74
9
 42
0.0000001
 43
0.0000001
 44
0.0000000001
 12
2.7546954637
 22
-2.2881253008
 32
0.0
 13
0.0
 23
-3.5810423748
 33
0.0
 40
0.0
 40
0.0
 40
0.0
 40
0.0
 40
0.1227823881
 40
0.2495542617
 40
0.3787127592
 40
0.5085153496
 40
0.6371785769
 40
0.7629773054
 40
0.88434814
 40
1.0
 40
1.0
 40
1.0
 40
1.0
 10
7.43426669
 20
8.8634846677
 30
0.0
 10
7.5470093858
 20
8.7698375048
 30
0.0
 10
7.7649548239
 20
8.5656678394
 30
0.0
 10
8.0600635793
 20
8.2221869901
 30
0.0
 10
8.3231064012
 20
7.8432968211
 30
0.0
 10
8.5478099796
 20
7.4379314245
 30
0.0
 10
8.728855374
 20
7.0156129912
 30
0.0
 10
8.8619116795
 20
6.5862538509
 30
0.0
 10
8.9437696464
 20
6.1600592281
 30
0.0
 10
8.9633736898
 20
5.8768870783
 30
0.0
 10
8.9633736898
 20
5.7388356745
 30
0.0
 11
7.43426669
 21
8.8634846677
 31
0.0
 11
7.7557862596
 21
8.5635654694
 31
0.0
 11
8.0520931434
 21
8.2196236995
 31
0.0
 11
8.3160812966
 21
7.8398383597
 31
0.0
 11
8.5413946031
 21
7.4332679237
 31
0.0
 11
8.7225858229
 21
7.0096420351
 31
0.0
 11
8.8552573331
 21
6.5791306755
 31
0.0
 11
8.9361784069
 21
6.1520960373
 31
0.0
 11
8.9633736898
 21
5.7388356745
 31
0.0
  0
LINE
  5
2DC
100
AcDbEntity
  8
0
100
AcDbLine
 62
7
  6
CONTINUOUS
 10
10.5132320596
 20
-22.8670243403
 11
10.1321733511
 21
-22.7039826263
  0
LINE
  5
2DD
100
AcDbEntity
  8
0
100
AcDbLine
 62
7
  6
CONTINUOUS
 10
10.7853151209
 20
-22.2024384533
 11
10.4523481809
 21
-22.0603303781
  0
LINE
  5
2DE
100
AcDbEntity
  8
0
100
AcDbLine
 62
7
  6
CONTINUOUS
 10
11.6598195358
 20
-23.3549074226
 11
11.2290194153
 21
-23.1720743825
  0
SPLINE
  5
2DF
100
AcDbEntity
  8
0
100
AcDbSpline
 62
7
  6
CONTINUOUS
 70
0
 71
3
 72
9
 73
5
 74
3
 42
0.0000001
 43
0.0000001
 44
0.0000000001
 12
0.140946982
 22
0.0051268473
 32
0.0
 13
0.1261492978
 23
0.0630768655
 33
0.0
 40
0.0
 40
0.0
 40
0.0
 40
0.0
 40
0.5122302946
 40
1.0
 40
1.0
 40
1.0
 40
1.0
 10
11.1880070073
 20
-22.3252173889
 30
0.0
 10
11.2120727786
 20
-22.3243420134
 30
0.0
 10
11.2590537836
 20
-22.3182743129
 30
0.0
 10
11.3037187233
 20
-22.3021906715
 30
0.0
 10
11.3242293252
 20
-22.2919350102
 30
0.0
 11
11.1880070073
 21
-22.3252173889
 31
0.0
 11
11.2595952777
 21
-22.3154979121
 31
0.0
 11
11.3242293252
 21
-22.2919350102
 31
0.0
  0
LINE
  5
2E0
100
AcDbEntity
  8
0
100
AcDbLine
 62
7
  6
CONTINUOUS
 10
10.8459006293
 20
-21.3613698482
 11
10.3816633285
 21
-21.1633215024
  0
SPLINE
  5
2E1
100
AcDbEntity
  8
0
100
AcDbSpline
 62
7
  6
CONTINUOUS
 70
0
 71
3
 72
16
 73
12
 74
10
 42
0.0000001
 43
0.0000001
 44
0.0000000001
 12
0.585975798
 22
-0.2495647433
 32
0.0
 13
-0.5696681073
 23
-0.2848305538
 33
0.0
 40
0.0
 40
0.0
 40
0.0
 40
0.0
 40
0.1294614252
 40
0.2712042363
 40
0.4178703296
 40
0.5611387784
 40
0.6933519183
 40
0.8093376373
 40
0.9088761518
 40
0.9548027968
 40
1.0
 40
1.0
 40
1.0
 40
1.0
 10
10.8459006293
 20
-21.3613698482
 30
0.0
 10
10.8711877166
 20
-21.3721395173
 30
0.0
 10
10.9209866922
 20
-21.4023623265
 30
0.0
 10
10.985861567
 20
-21.4636059886
 30
0.0
 10
11.0400448486
 20
-21.5381733304
 30
0.0
 10
11.0788074406
 20
-21.6195833472
 30
0.0
 10
11.0987096043
 20
-21.7009953166
 30
0.0
 10
11.097910759
 20
-21.7757930302
 30
0.0
 10
11.0775971662
 20
-21.8293792077
 30
0.0
 10
11.0504250665
 20
-21.859911433
 30
0.0
 10
11.0341334195
 20
-21.8707942977
 30
0.0
 10
11.0255509511
 20
-21.8750854792
 30
0.0
 11
10.8459006293
 21
-21.3613698482
 31
0.0
 11
10.9169782859
 21
-21.4031642229
 31
0.0
 11
10.9830259591
 21
-21.4647079708
 31
0.0
 11
11.037971352
 21
-21.5402521435
 31
0.0
 11
11.076769006
 21
-21.6228418311
 31
0.0
 11
11.0957922244
 21
-21.704872375
 31
0.0
 11
11.0931667264
 21
-21.7786977899
 31
0.0
 11
11.0690168371
 21
-21.8373146038
 31
0.0
 11
11.0494815282
 21
-21.8590859637
 31
0.0
 11
11.0255509511
 21
-21.8750854792
 31
0.0
  0
LINE
  5
2E2
100
AcDbEntity
  8
0
100
AcDbLine
 62
7
  6
CONTINUOUS
 10
9.4981550557
 20
-22.4317109029
 11
9.3470114608
 21
-21.9698741128
  0
LINE
  5
2E3
100
AcDbEntity
  8
0
100
AcDbLine
 62
7
  6
CONTINUOUS
 10
9.8784080015
 20
-22.5951615604
 11
9.4981550557
 21
-22.4317109029
  0
LINE
  5
2E4
100
AcDbEntity
  8
0
100
AcDbLine
 62
7
  6
CONTINUOUS
 10
8.6592506643
 20
-22.0695272626
 11
8.2805558627
 21
-21.9053146071
  0
SPLINE
  5
2E5
100
AcDbEntity
  8
0
100
AcDbSpline
 62
7
  6
CONTINUOUS
 70
0
 71
3
 72
9
 73
5
 74
3
 42
0.0000001
 43
0.0000001
 44
0.0000000001
 12
-0.5995088572
 22
0.2582717461
 32
0.0
 13
-0.5991001164
 23
0.2592184698
 33
0.0
 40
0.0
 40
0.0
 40
0.0
 40
0.0
 40
0.2501098758
 40
1.0
 40
1.0
 40
1.0
 40
1.0
 10
9.3470114608
 20
-21.9698741128
 30
0.0
 10
9.2970304322
 20
-21.9483420081
 30
0.0
 10
9.0972111257
 20
-21.8622120186
 30
0.0
 10
8.8974597892
 20
-21.7759243402
 30
0.0
 10
8.7477067023
 20
-21.7111292167
 30
0.0
 11
9.3470114608
 21
-21.9698741128
 31
0.0
 11
9.1970811202
 21
-21.9052482219
 31
0.0
 11
8.7477067023
 21
-21.7111292167
 31
0.0
  0
SPLINE
  5
2E6
100
AcDbEntity
  8
0
100
AcDbSpline
 62
7
  6
CONTINUOUS
 70
0
 71
3
 72
8
 73
4
 74
2
 42
0.0000001
 43
0.0000001
 44
0.0000000001
 12
-0.2308980359
 22
0.7096716819
 32
0.0
 13
-0.2296136934
 23
0.7100882698
 33
0.0
 40
0.0
 40
0.0
 40
0.0
 40
0.0
 40
1.0
 40
1.0
 40
1.0
 40
1.0
 10
9.2014628811
 20
-21.5234184196
 30
0.0
 10
9.1244968691
 20
-21.2868611923
 30
0.0
 10
9.0477449805
 20
-21.0502341912
 30
0.0
 10
8.9712070827
 20
-20.8135381012
 30
0.0
 11
9.2014628811
 21
-21.5234184196
 31
0.0
 11
8.9712070827
 21
-20.8135381012
 31
0.0
  0
LINE
  5
2E7
100
AcDbEntity
  8
0
100
AcDbLine
 62
7
  6
CONTINUOUS
 10
8.0283617453
 20
-21.7957018629
 11
7.6504707587
 21
-21.6310805306
  0
LINE
  5
2E8
100
AcDbEntity
  8
0
100
AcDbLine
 62
7
  6
CONTINUOUS
 10
6.5607534703
 20
-21.1538248079
 11
6.1847411328
 21
-20.9882648581
  0
LINE
  5
2E9
100
AcDbEntity
  8
0
100
AcDbLine
 62
7
  6
CONTINUOUS
 10
7.293636541
 20
-21.4752110891
 11
6.9166950002
 21
-21.3101302885
  0
LINE
  5
2EA
100
AcDbEntity
  8
0
100
AcDbLine
 62
7
  6
CONTINUOUS
 10
5.8092193802
 20
-20.8224673941
 11
5.4341719511
 21
-20.6564301862
  0
LINE
  5
2EB
100
AcDbEntity
  8
0
100
AcDbLine
 62
7
  6
CONTINUOUS
 10
4.5838523494
 20
-20.2782803748
 11
4.210366955
 21
-20.1114480076
  0
SPLINE
  5
2EC
100
AcDbEntity
  8
RACCORDO
100
AcDbSpline
 62
253
  6
CONTINUOUS
 70
0
 71
3
 72
33
 73
29
 74
27
 42
0.0000001
 43
0.0000001
 44
0.0000000001
 12
0.0
 22
-20.2726001313
 32
0.0
 13
0.0
 23
20.2726001313
 33
0.0
 40
0.0
 40
0.0
 40
0.0
 40
0.0
 40
0.0324217045
 40
0.0634327522
 40
0.0929936122
 40
0.1211184952
 40
0.1478834714
 40
0.1734330025
 40
0.1979828757
 40
0.2218164983
 40
0.2452716948
 40
0.2687173366
 40
0.2925230989
 40
0.3170290365
 40
0.342521747
 40
0.369220622
 40
0.3972737275
 40
0.4267604972
 40
0.4576981511
 40
0.4900495586
 40
0.5237312565
 40
0.5586209777
 40
0.6313419783
 40
0.7067482986
 40
0.7830912298
 40
0.8585438318
 40
0.931353463
 40
1.0
 40
1.0
 40
1.0
 40
1.0
 10
-5.9437334519
 20
12.5017284312
 30
0.0
 10
-5.9437334519
 20
12.2826376808
 30
0.0
 10
-5.9605257308
 20
11.8537365482
 30
0.0
 10
-6.0396659642
 20
11.2294921954
 30
0.0
 10
-6.1715766778
 20
10.6437816919
 30
0.0
 10
-6.3551722672
 20
10.1022137394
 30
0.0
 10
-6.5889391221
 20
9.609972804
 30
0.0
 10
-6.8709291382
 20
9.1719048759
 30
0.0
 10
-7.1987098399
 20
8.7925041555
 30
0.0
 10
-7.5692661662
 20
8.4758760834
 30
0.0
 10
-7.9789059266
 20
8.225593298
 30
0.0
 10
-8.4232714327
 20
8.0444652857
 30
0.0
 10
-8.8975182369
 20
7.934343305
 30
0.0
 10
-9.3965782179
 20
7.8960863522
 30
0.0
 10
-9.915356639
 20
7.929683717
 30
0.0
 10
-10.4487962079
 20
8.0344162826
 30
0.0
 10
-10.9918545055
 20
8.2089655497
 30
0.0
 10
-11.5394669515
 20
8.451452836
 30
0.0
 10
-12.0865385881
 20
8.7594422527
 30
0.0
 10
-12.6279525515
 20
9.1299296844
 30
0.0
 10
-13.1586524676
 20
9.5593654913
 30
0.0
 10
-13.8546947497
 20
10.2139893065
 30
0.0
 10
-14.6639922959
 20
11.1544657474
 30
0.0
 10
-15.5035213676
 20
12.4221657618
 30
0.0
 10
-16.1938756879
 20
13.7976192226
 30
0.0
 10
-16.7091014068
 20
15.229355614
 30
0.0
 10
-17.0299232164
 20
16.6635265721
 30
0.0
 10
-17.1088205433
 20
17.6203907122
 30
0.0
 10
-17.1088205433
 20
18.0842719769
 30
0.0
 11
-5.9437334519
 21
12.5017284312
 31
0.0
 11
-5.9706150059
 21
11.8450061197
 31
0.0
 11
-6.0510006001
 21
11.2214919902
 31
0.0
 11
-6.1841159768
 21
10.6371877761
 31
0.0
 11
-6.368679272
 21
10.0977214141
 31
0.0
 11
-6.6029132033
 21
9.6082885633
 31
0.0
 11
-6.8845617959
 21
9.1736025907
 31
0.0
 11
-7.2109125394
 21
8.7978496243
 31
0.0
 11
-7.5788225963
 21
8.4846484799
 31
0.0
 11
-7.984748911
 21
8.2370156808
 31
0.0
 11
-8.4247820551
 21
8.057335853
 31
0.0
 11
-8.8946842212
 21
7.9473392656
 31
0.0
 11
-9.3899300721
 21
7.9080853836
 31
0.0
 11
-9.9057501708
 21
7.9399524823
 31
0.0
 11
-10.4371768043
 21
8.0426334237
 31
0.0
 11
-10.9790920442
 21
8.2151391964
 31
0.0
 11
-11.5262769978
 21
8.4558086273
 31
0.0
 11
-12.073461951
 21
8.7623241498
 31
0.0
 11
-12.615377191
 21
9.1317336171
 31
0.0
 11
-13.1468038242
 21
9.560479309
 31
0.0
 11
-13.6626239233
 21
10.0444323093
 31
0.0
 11
-14.6277719403
 21
11.1588307958
 31
0.0
 11
-15.4737313988
 21
12.4321028811
 31
0.0
 11
-16.1679921995
 21
13.8153177929
 31
0.0
 11
-16.6838747233
 21
15.2553191402
 31
0.0
 11
-17.0015533952
 21
16.6967683881
 31
0.0
 11
-17.1088205433
 21
18.0842719769
 31
0.0
  0
SPLINE
  5
2ED
100
AcDbEntity
  8
RACCORDO
100
AcDbSpline
 62
253
  6
CONTINUOUS
 70
0
 71
3
 72
25
 73
21
 74
19
 42
0.0000001
 43
0.0000001
 44
0.0000000001
 12
-12.2178341008
 22
-6.278477335
 32
0.0
 13
0.0
 23
13.736620682
 33
0.0
 40
0.0
 40
0.0
 40
0.0
 40
0.0
 40
0.0223171556
 40
0.0448009879
 40
0.0676285998
 40
0.0909626065
 40
0.1396395593
 40
0.191748586
 40
0.2477390722
 40
0.3076962869
 40
0.3714035491
 40
0.4384060756
 40
0.5080682876
 40
0.5796238342
 40
0.6522201015
 40
0.7249591661
 40
0.7969369946
 40
0.8672824225
 40
0.9351973944
 40
1.0
 40
1.0
 40
1.0
 40
1.0
 10
-7.7742032081
 20
9.2559197548
 30
0.0
 10
-7.8650923095
 20
9.2092138363
 30
0.0
 10
-8.0531618071
 20
9.1259461586
 30
0.0
 10
-8.349440542
 20
9.0337350484
 30
0.0
 10
-8.6587944784
 20
8.974459211
 30
0.0
 10
-9.0923381491
 20
8.9391740415
 30
0.0
 10
-9.6630189714
 20
8.9823047264
 30
0.0
 10
-10.3604655867
 20
9.165509807
 30
0.0
 10
-11.0677164735
 20
9.4756237924
 30
0.0
 10
-11.7713811368
 20
9.9059242167
 30
0.0
 10
-12.458308095
 20
10.4477131234
 30
0.0
 10
-13.1153558245
 20
11.090322814
 30
0.0
 10
-13.7298204291
 20
11.8211524886
 30
0.0
 10
-14.2897132202
 20
12.6258616079
 30
0.0
 10
-14.7840554761
 20
13.4886331606
 30
0.0
 10
-15.203128885
 20
14.3924951313
 30
0.0
 10
-15.5386839129
 20
15.3196515546
 30
0.0
 10
-15.784113068
 20
16.2519351535
 30
0.0
 10
-15.9345636171
 20
17.170909351
 30
0.0
 10
-15.9704661334
 20
17.7789919946
 30
0.0
 10
-15.9704661334
 20
18.0757149321
 30
0.0
 11
-7.7742032081
 21
9.2559197548
 31
0.0
 11
-8.0544974373
 21
9.1317602235
 31
0.0
 11
-8.3493354893
 21
9.0397819413
 31
0.0
 11
-8.6572443246
 21
8.9804442907
 31
0.0
 11
-8.9766856115
 21
8.9540435168
 31
0.0
 11
-9.6437325398
 21
9.0004155107
 31
0.0
 11
-10.3371630832
 21
9.1779725117
 31
0.0
 11
-11.0431373978
 21
9.4831707288
 31
0.0
 11
-11.7475653241
 21
9.9099188158
 31
0.0
 11
-12.4363875299
 21
10.4496996513
 31
0.0
 11
-13.0958562326
 21
11.0917398673
 31
0.0
 11
-13.7128093272
 21
11.8232255044
 31
0.0
 11
-14.2749335333
 21
12.6295570217
 31
0.0
 11
-14.7710094918
 21
13.4946414721
 31
0.0
 11
-15.1911365603
 21
14.4012129155
 31
0.0
 11
-15.5269292953
 21
15.3311776773
 31
0.0
 11
-15.7716861914
 21
16.2659750357
 31
0.0
 11
-15.9205218197
 21
17.186948326
 31
0.0
 11
-15.9704661334
 21
18.0757149321
 31
0.0
  0
LINE
  5
2EE
100
AcDbEntity
  8
0
100
AcDbLine
 62
7
  6
CONTINUOUS
 10
5.2805123918
 20
-18.5680976421
 11
5.6555482828
 21
-18.7341465222
  0
LINE
  5
2EF
100
AcDbEntity
  8
0
100
AcDbLine
 62
7
  6
CONTINUOUS
 10
3.4582194768
 20
-17.7547605669
 11
3.8309109793
 21
-17.9219858839
  0
LINE
  5
2F0
100
AcDbEntity
  8
0
100
AcDbLine
 62
7
  6
CONTINUOUS
 10
8.8772149851
 20
-20.0094081429
 11
9.2567045918
 21
-20.1732478428
  0
LINE
  5
2F1
100
AcDbEntity
  8
0
100
AcDbLine
 62
7
  6
CONTINUOUS
 10
4.6565201967
 20
-18.2908128685
 11
5.0307576377
 21
-18.4572652163
  0
SPLINE
  5
2F2
100
AcDbEntity
  8
RACCORDO
100
AcDbSpline
 62
253
  6
CONTINUOUS
 70
0
 71
3
 72
15
 73
11
 74
9
 42
0.0000001
 43
0.0000001
 44
0.0000000001
 12
-0.4638960802
 22
0.2885782912
 32
0.0
 13
-0.0446655212
 23
-0.5445016021
 33
0.0
 40
0.0
 40
0.0
 40
0.0
 40
0.0
 40
0.1263100103
 40
0.2407571334
 40
0.3484236677
 40
0.4565907918
 40
0.5724386407
 40
0.7008042317
 40
0.8435358056
 40
1.0
 40
1.0
 40
1.0
 40
1.0
 10
-36.194135112
 20
64.7227148313
 30
0.0
 10
-36.2136666849
 20
64.7348649403
 30
0.0
 10
-36.2534163896
 20
64.75444355
 30
0.0
 10
-36.31655016
 20
64.7668421796
 30
0.0
 10
-36.3773684818
 20
64.7590789228
 30
0.0
 10
-36.4321394742
 20
64.7309959087
 30
0.0
 10
-36.4778991586
 20
64.6847442378
 30
0.0
 10
-36.5133041707
 20
64.6231018579
 30
0.0
 10
-36.5376351802
 20
64.5486914601
 30
0.0
 10
-36.545783485
 20
64.4945695049
 30
0.0
 10
-36.5481130032
 20
64.46617117
 30
0.0
 11
-36.194135112
 21
64.7227148313
 31
0.0
 11
-36.2564415763
 21
64.7523774661
 31
0.0
 11
-36.3179523402
 21
64.7635989052
 31
0.0
 11
-36.3762553064
 21
64.7558056898
 31
0.0
 11
-36.4290288873
 21
64.7292130606
 31
0.0
 11
-36.4741655572
 21
64.6848457467
 31
0.0
 11
-36.5098871214
 21
64.6244951724
 31
0.0
 11
-36.5348333019
 21
64.5506145133
 31
0.0
 11
-36.5481130032
 21
64.46617117
 31
0.0
  0
LINE
  5
2F3
100
AcDbEntity
  8
0
100
AcDbLine
 62
7
  6
CONTINUOUS
 10
8.8604114759
 20
-21.7598730145
 11
8.8016115288
 21
-21.9983468304
  0
SPLINE
  5
2F4
100
AcDbEntity
  8
0
100
AcDbSpline
 62
7
  6
CONTINUOUS
 70
0
 71
3
 72
9
 73
5
 74
3
 42
0.0000001
 43
0.0000001
 44
0.0000000001
 12
0.0501067336
 22
-0.6703727568
 32
0.0
 13
0.0513987587
 23
-0.6702749327
 33
0.0
 40
0.0
 40
0.0
 40
0.0
 40
0.0
 40
0.2500922051
 40
1.0
 40
1.0
 40
1.0
 40
1.0
 10
10.6049114418
 20
-22.1254843037
 30
0.0
 10
10.6090885429
 20
-22.181369304
 30
0.0
 10
10.625844566
 20
-22.4048228667
 30
0.0
 10
10.6428157795
 20
-22.6282602931
 30
0.0
 10
10.6556638894
 20
-22.7958084254
 30
0.0
 11
10.6049114418
 21
-22.1254843037
 31
0.0
 11
10.6174831038
 21
-22.2931362832
 31
0.0
 11
10.6556638894
 21
-22.7958084254
 31
0.0
  0
SPLINE
  5
2F5
100
AcDbEntity
  8
RACCORDO
100
AcDbSpline
 62
253
  6
CONTINUOUS
 70
0
 71
3
 72
15
 73
11
 74
9
 42
0.0000001
 43
0.0000001
 44
0.0000000001
 12
0.5109537555
 22
-0.2072312136
 32
0.0
 13
-0.0508730058
 23
0.549026824
 33
0.0
 40
0.0
 40
0.0
 40
0.0
 40
0.0
 40
0.1433060286
 40
0.2733273446
 40
0.3918089939
 40
0.5031810456
 40
0.613984509
 40
0.730942718
 40
0.858894216
 40
1.0
 40
1.0
 40
1.0
 40
1.0
 10
18.9403765942
 20
-31.2373166845
 30
0.0
 10
18.9647841787
 20
-31.2472158452
 30
0.0
 10
19.0130239246
 20
-31.2623912079
 30
0.0
 10
19.085281125
 20
-31.269595373
 30
0.0
 10
19.1514978873
 20
-31.2592832437
 30
0.0
 10
19.2085742112
 20
-31.2309797401
 30
0.0
 10
19.2530905562
 20
-31.1857677429
 30
0.0
 10
19.2828166282
 20
-31.1265140491
 30
0.0
 10
19.2972271331
 20
-31.0563956732
 30
0.0
 10
19.2967473106
 20
-31.0065966434
 30
0.0
 10
19.2943544854
 20
-30.9807730232
 30
0.0
 11
18.9403765942
 21
-31.2373166845
 31
0.0
 11
19.0159642819
 21
-31.2603387075
 31
0.0
 11
19.0873806833
 21
-31.266607328
 31
0.0
 11
19.1518012947
 21
-31.2557552899
 31
0.0
 11
19.2066438597
 21
-31.2281281687
 31
0.0
 11
19.2497115471
 21
-31.1847953461
 31
0.0
 11
19.2793154673
 21
-31.1275035937
 31
0.0
 11
19.2943560116
 21
-31.0585757527
 31
0.0
 11
19.2943544854
 21
-30.9807730232
 31
0.0
  0
SPLINE
  5
2F6
100
AcDbEntity
  8
RACCORDO
100
AcDbSpline
 62
253
  6
CONTINUOUS
 70
0
 71
3
 72
11
 73
7
 74
5
 42
0.0000001
 43
0.0000001
 44
0.0000000001
 12
52.5177760517
 22
-32.4025250439
 32
0.0
 13
57.1847915145
 23
-23.193534661
 33
0.0
 40
0.0
 40
0.0
 40
0.0
 40
0.0
 40
0.2377548354
 40
0.4838439201
 40
0.7380273287
 40
1.0
 40
1.0
 40
1.0
 40
1.0
 10
-36.194135112
 20
-3.6700608313
 30
0.0
 10
-32.0320167111
 20
-6.2380131679
 30
0.0
 10
-23.4338669654
 20
-11.2588508132
 30
0.0
 10
-9.9932315572
 20
-18.326238578
 30
0.0
 10
4.1793679463
 20
-25.0422624596
 30
0.0
 10
13.9467590633
 20
-29.2119592735
 30
0.0
 10
18.9403765942
 20
-31.2373166845
 30
0.0
 11
-36.194135112
 21
-3.6700608313
 31
0.0
 11
-23.5304411489
 21
-11.0787944805
 31
0.0
 11
-10.0944404058
 21
-18.1560958073
 31
0.0
 11
4.0758601093
 21
-24.8819451096
 31
0.0
 11
18.9403765942
 21
-31.2373166845
 31
0.0
  0
SPLINE
  5
2F7
100
AcDbEntity
  8
0
100
AcDbSpline
 62
7
  6
CONTINUOUS
 70
0
 71
3
 72
9
 73
5
 74
3
 42
0.0000001
 43
0.0000001
 44
0.0000000001
 12
-0.2532670614
 22
-0.4078602939
 32
0.0
 13
-0.1335737171
 23
-0.4611423705
 33
0.0
 40
0.0
 40
0.0
 40
0.0
 40
0.0
 40
0.2399253999
 40
1.0
 40
1.0
 40
1.0
 40
1.0
 10
-29.2873671806
 20
27.2289308024
 30
0.0
 10
-29.3076222476
 20
27.1963121211
 30
0.0
 10
-29.3867939178
 20
27.0571133065
 30
0.0
 10
-29.4450497323
 20
26.9064671871
 30
0.0
 10
-29.4788917288
 20
26.7896329862
 30
0.0
 11
-29.2873671806
 21
27.2289308024
 31
0.0
 11
-29.3444088324
 21
27.1288585036
 31
0.0
 11
-29.4788917288
 21
26.7896329862
 31
0.0
  0
SPLINE
  5
2F8
100
AcDbEntity
  8
RACCORDO
100
AcDbSpline
 62
253
  6
CONTINUOUS
 70
0
 71
3
 72
13
 73
9
 74
7
 42
0.0000001
 43
0.0000001
 44
0.0000000001
 12
0.0648067691
 22
-0.7229450535
 32
0.0
 13
0.6177260166
 23
-0.3811351941
 33
0.0
 40
0.0
 40
0.0
 40
0.0
 40
0.0
 40
0.1177658905
 40
0.2450028289
 40
0.5135852528
 40
0.7747906512
 40
0.8933615581
 40
1.0
 40
1.0
 40
1.0
 40
1.0
 10
-36.5481130032
 20
-3.0595392789
 30
0.0
 10
-36.5455689943
 20
-3.0879187016
 30
0.0
 10
-36.5360051308
 20
-3.1466170447
 30
0.0
 10
-36.5019706509
 20
-3.2663346376
 30
0.0
 10
-36.4351334262
 20
-3.4117058608
 30
0.0
 10
-36.3436831534
 20
-3.5406542007
 30
0.0
 10
-36.2598793206
 20
-3.6236372269
 30
0.0
 10
-36.216092892
 20
-3.6565129436
 30
0.0
 10
-36.194135112
 20
-3.6700608313
 30
0.0
 11
-36.5481130032
 21
-3.0595392789
 31
0.0
 11
-36.5348332871
 21
-3.143981103
 31
0.0
 11
-36.5098871113
 21
-3.232902304
 31
0.0
 11
-36.4290288842
 21
-3.4102918005
 31
0.0
 11
-36.3179523402
 21
-3.5639408289
 31
0.0
 11
-36.2564415763
 21
-3.624135797
 31
0.0
 11
-36.194135112
 21
-3.6700608313
 31
0.0
  0
SPLINE
  5
2F9
100
AcDbEntity
  8
0
100
AcDbSpline
 62
7
  6
CONTINUOUS
 70
0
 71
3
 72
9
 73
5
 74
3
 42
0.0000001
 43
0.0000001
 44
0.0000000001
 12
-0.3585706064
 22
0.0590416929
 32
0.0
 13
-0.3399044756
 23
0.1285447345
 33
0.0
 40
0.0
 40
0.0
 40
0.0
 40
0.0
 40
0.2422673514
 40
1.0
 40
1.0
 40
1.0
 40
1.0
 10
-26.8924228182
 20
22.2215491171
 30
0.0
 10
-26.9213794686
 20
22.2263170753
 30
0.0
 10
-27.040359327
 20
22.2492476619
 30
0.0
 10
-27.1568032239
 20
22.2847250158
 30
0.0
 10
-27.2426554635
 20
22.3171925298
 30
0.0
 11
-26.8924228182
 21
22.2215491171
 31
0.0
 11
-26.9788804945
 21
22.2381641536
 31
0.0
 11
-27.2426554635
 21
22.3171925298
 31
0.0
  0
SPLINE
  5
2FA
100
AcDbEntity
  8
0
100
AcDbSpline
 62
7
  6
CONTINUOUS
 70
0
 71
3
 72
23
 73
19
 74
17
 42
0.0000001
 43
0.0000001
 44
0.0000000001
 12
-5.0944988952
 22
-2.5473194436
 32
0.0
 13
-0.0
 23
5.695854224
 33
0.0
 40
0.0
 40
0.0
 40
0.0
 40
0.0
 40
0.0423885073
 40
0.0861166856
 40
0.132641119
 40
0.1829785106
 40
0.2376691504
 40
0.2968325653
 40
0.3602499159
 40
0.4274408123
 40
0.4977272226
 40
0.5702865343
 40
0.6441972485
 40
0.7184805103
 40
0.7921399218
 40
0.864201468
 40
0.9337551428
 40
1.0
 40
1.0
 40
1.0
 40
1.0
 10
-27.4061864418
 20
21.6766131848
 30
0.0
 10
-27.4781691764
 20
21.6406208285
 30
0.0
 10
-27.6342570404
 20
21.5856314112
 30
0.0
 10
-27.8871622457
 20
21.5618408306
 30
0.0
 10
-28.1538407004
 20
21.5956497357
 30
0.0
 10
-28.4287766678
 20
21.685260402
 30
0.0
 10
-28.7070688541
 20
21.8281871238
 30
0.0
 10
-28.9837307132
 20
22.0213902149
 30
0.0
 10
-29.2536984885
 20
22.2610765401
 30
0.0
 10
-29.511895671
 20
22.5426351369
 30
0.0
 10
-29.7533754014
 20
22.8606483966
 30
0.0
 10
-29.9734495734
 20
23.2089671684
 30
0.0
 10
-30.1678072918
 20
23.5808188767
 30
0.0
 10
-30.3326179129
 20
23.9689413605
 30
0.0
 10
-30.4646198504
 20
24.3657228481
 30
0.0
 10
-30.5611947774
 20
24.763392441
 30
0.0
 10
-30.6204209695
 20
25.1540844211
 30
0.0
 10
-30.6346060566
 20
25.4120518645
 30
0.0
 10
-30.6346060566
 20
25.5378255478
 30
0.0
 11
-27.4061864418
 21
21.6766131848
 31
0.0
 11
-27.6337937191
 21
21.5960675369
 31
0.0
 11
-27.8816222758
 21
21.57123737
 31
0.0
 11
-28.1447595446
 21
21.6025720884
 31
0.0
 11
-28.4180034125
 21
21.6894223133
 31
0.0
 11
-28.6959607704
 21
21.8300570613
 31
0.0
 11
-28.9731489637
 21
22.0216983808
 31
0.0
 11
-29.2441007296
 21
22.2605751861
 31
0.0
 11
-29.5034664132
 21
22.5419931002
 31
0.0
 11
-29.746114261
 21
22.8604190034
 31
0.0
 11
-29.9672293522
 21
23.2095815406
 31
0.0
 11
-30.1624089052
 21
23.5825869308
 31
0.0
 11
-30.3277520548
 21
23.9720492055
 31
0.0
 11
-30.4599419777
 21
24.3702335483
 31
0.0
 11
-30.5563178954
 21
24.769210462
 31
0.0
 11
-30.6149344435
 21
25.1610176361
 31
0.0
 11
-30.6346060566
 21
25.5378255478
 31
0.0
  0
SPLINE
  5
2FB
100
AcDbEntity
  8
0
100
AcDbSpline
 62
7
  6
CONTINUOUS
 70
0
 71
3
 72
21
 73
17
 74
15
 42
0.0000001
 43
0.0000001
 44
0.0000000001
 12
-5.3030307268
 22
-2.6515244642
 32
0.0
 13
0.0
 23
5.928972666
 33
0.0
 40
0.0
 40
0.0
 40
0.0
 40
0.0
 40
0.0469185727
 40
0.0953352561
 40
0.1462086563
 40
0.2001884094
 40
0.2575965528
 40
0.3184554617
 40
0.3825350366
 40
0.449403364
 40
0.5184733886
 40
0.5890456171
 40
0.7314188966
 40
0.8017553677
 40
0.8704373936
 40
1.0
 40
1.0
 40
1.0
 40
1.0
 10
8.130867353
 20
4.0898011003
 30
0.0
 10
8.0479304755
 20
4.0483325193
 30
0.0
 10
7.8696330648
 20
3.9823539239
 30
0.0
 10
7.5819019119
 20
3.9402431489
 30
0.0
 10
7.2776342587
 20
3.9541427485
 30
0.0
 10
6.9630762911
 20
4.0231481587
 30
0.0
 10
6.6441595778
 20
4.1453949363
 30
0.0
 10
6.3268721152
 20
4.3182515198
 30
0.0
 10
6.0171821783
 20
4.5382587165
 30
0.0
 10
5.7209961438
 20
4.8011118129
 30
0.0
 10
5.4439693929
 20
5.101759009
 30
0.0
 10
5.1066260898
 20
5.5462002133
 30
0.0
 10
4.8308026916
 20
6.0377179671
 30
0.0
 10
4.6281871773
 20
6.5564228051
 30
0.0
 10
4.483431777
 20
7.0675570387
 30
0.0
 10
4.4334019439
 20
7.4604327713
 30
0.0
 10
4.4334019439
 20
7.7164904887
 30
0.0
 11
8.130867353
 21
4.0898011003
 31
0.0
 11
7.8701781132
 21
3.992720515
 31
0.0
 11
7.5863298743
 21
3.9498917216
 31
0.0
 11
7.2849508372
 21
3.9621196749
 31
0.0
 11
6.9720004401
 21
4.0291310058
 31
0.0
 11
6.6536554475
 21
4.1495847164
 31
0.0
 11
6.3361945502
 21
4.3210998769
 31
0.0
 11
6.0258803662
 21
4.5403004904
 31
0.0
 11
5.7288394196
 21
4.8028792265
 31
0.0
 11
5.4509477596
 21
5.1036751324
 31
0.0
 11
5.1977178512
 21
5.436767599
 31
0.0
 11
4.7848315344
 21
6.1730255418
 31
0.0
 11
4.6334401025
 21
6.5615983519
 31
0.0
 11
4.5230638014
 21
6.9535679874
 31
0.0
 11
4.4334019439
 21
7.7164904887
 31
0.0
  0
SPLINE
  5
2FC
100
AcDbEntity
  8
RACCORDO
100
AcDbSpline
 62
253
  6
CONTINUOUS
 70
0
 71
3
 72
11
 73
7
 74
5
 42
0.0000001
 43
0.0000001
 44
0.0000000001
 12
-57.2722471536
 22
22.9927687052
 32
0.0
 13
-52.4028166059
 23
32.5994251256
 33
0.0
 40
0.0
 40
0.0
 40
0.0
 40
0.0
 40
0.261648549
 40
0.5156983909
 40
0.7618823012
 40
1.0
 40
1.0
 40
1.0
 40
1.0
 10
18.9403765942
 20
37.1554589781
 30
0.0
 10
13.945309805
 20
39.1608005015
 30
0.0
 10
4.174194195
 20
43.301021255
 30
0.0
 10
-9.9995114326
 20
50.0016845498
 30
0.0
 10
-23.4412854467
 20
57.085222314
 30
0.0
 10
-32.0347890789
 20
62.1352148006
 30
0.0
 10
-36.194135112
 20
64.7227148313
 30
0.0
 11
18.9403765942
 21
37.1554589781
 31
0.0
 11
4.0758601093
 21
43.4637813664
 31
0.0
 11
-10.0944404058
 21
50.1739328072
 31
0.0
 11
-23.5304411489
 21
57.2669319955
 31
0.0
 11
-36.194135112
 21
64.7227148313
 31
0.0
  0
SPLINE
  5
2FD
100
AcDbEntity
  8
0
100
AcDbSpline
 62
7
  6
CONTINUOUS
 70
0
 71
3
 72
9
 73
5
 74
3
 42
0.0000001
 43
0.0000001
 44
0.0000000001
 12
0.4955414831
 22
-0.1874033822
 32
0.0
 13
0.5290214869
 23
-0.028594678
 33
0.0
 40
0.0
 40
0.0
 40
0.0
 40
0.0
 40
0.5155316525
 40
1.0
 40
1.0
 40
1.0
 40
1.0
 10
8.1126835959
 20
4.6395230001
 30
0.0
 10
8.1978393691
 20
4.607318875
 30
0.0
 10
8.3673624383
 20
4.555538287
 30
0.0
 10
8.5430654281
 20
4.5302701341
 30
0.0
 10
8.6284968166
 20
4.5256523954
 30
0.0
 11
8.1126835959
 21
4.6395230001
 31
0.0
 11
8.3742708404
 21
4.5609760972
 31
0.0
 11
8.6284968166
 21
4.5256523954
 31
0.0
  0
SPLINE
  5
2FE
100
AcDbEntity
  8
RACCORDO
100
AcDbSpline
 62
253
  6
CONTINUOUS
 70
0
 71
3
 72
11
 73
7
 74
5
 42
0.0000001
 43
0.0000001
 44
0.0000000001
 12
0.0633129408
 22
0.74443088
 32
0.0
 13
-0.6933278378
 23
0.2783565571
 33
0.0
 40
0.0
 40
0.0
 40
0.0
 40
0.0
 40
0.2483767978
 40
0.5100383154
 40
0.7660710191
 40
1.0
 40
1.0
 40
1.0
 40
1.0
 10
19.2943544854
 20
36.5449374257
 30
0.0
 10
19.2995963073
 20
36.6065705451
 30
0.0
 10
19.287568068
 20
36.7355602206
 30
0.0
 10
19.215248882
 20
36.9146919575
 30
0.0
 10
19.0984093522
 20
37.0641237681
 30
0.0
 10
18.9944397524
 20
37.1337537562
 30
0.0
 10
18.9403765942
 20
37.1554589781
 30
0.0
 11
19.2943544854
 21
36.5449374257
 31
0.0
 11
19.2793154545
 21
36.7298938813
 31
0.0
 11
19.2066438566
 21
36.9113766924
 31
0.0
 11
19.0873806861
 21
37.0609324075
 31
0.0
 11
18.9403765942
 21
37.1554589781
 31
0.0
  0
SPLINE
  5
2FF
100
AcDbEntity
  8
0
100
AcDbSpline
 62
7
  6
CONTINUOUS
 70
0
 71
3
 72
9
 73
5
 74
3
 42
0.0000001
 43
0.0000001
 44
0.0000000001
 12
0.1173911887
 22
0.4052747217
 32
0.0
 13
0.2086758045
 23
0.3667188294
 33
0.0
 40
0.0
 40
0.0
 40
0.0
 40
0.0
 40
0.2596213651
 40
1.0
 40
1.0
 40
1.0
 40
1.0
 10
5.8764473305
 20
9.1119634565
 30
0.0
 10
5.8866064174
 20
9.1470361153
 30
0.0
 10
5.9292578531
 20
9.2810544235
 30
0.0
 10
5.9866519343
 20
9.4106000837
 30
0.0
 10
6.0381516368
 20
9.5011036791
 30
0.0
 11
5.8764473305
 21
9.1119634565
 31
0.0
 11
5.9097465676
 21
9.2163226765
 31
0.0
 11
6.0381516368
 21
9.5011036791
 31
0.0
  0
LINE
  5
300
100
AcDbEntity
  8
0
100
AcDbLine
 62
7
  6
CONTINUOUS
 10
3.6003337872
 20
-17.6837034117
 11
3.9730357274
 21
-17.8509235099
  0
SPLINE
  5
301
100
AcDbEntity
  8
0
100
AcDbSpline
 62
7
  6
CONTINUOUS
 70
0
 71
3
 72
14
 73
10
 74
8
 42
0.0000001
 43
0.0000001
 44
0.0000000001
 12
0.0
 22
1.944173206
 32
0.0
 13
1.7389130243
 23
0.8694773998
 33
0.0
 40
0.0
 40
0.0
 40
0.0
 40
0.0
 40
0.2827480855
 40
0.4145004097
 40
0.5400425816
 40
0.660092294
 40
0.7757544776
 40
0.8884854982
 40
1.0
 40
1.0
 40
1.0
 40
1.0
 10
4.4334019439
 20
7.7164904887
 30
0.0
 10
4.4334019439
 20
7.8997275727
 30
0.0
 10
4.4581129379
 20
8.1699327774
 30
0.0
 10
4.5510226991
 20
8.5080865019
 30
0.0
 10
4.6456121475
 20
8.7344175256
 30
0.0
 10
4.7656778924
 20
8.93636577
 30
0.0
 10
4.9099102371
 20
9.1113571729
 30
0.0
 10
5.0765039526
 20
9.256961634
 30
0.0
 10
5.2012120455
 20
9.3331762464
 30
0.0
 10
5.2658500521
 20
9.3654960261
 30
0.0
 11
4.4334019439
 21
7.7164904887
 31
0.0
 11
4.488798687
 21
8.2634033349
 31
0.0
 11
4.5573959671
 21
8.5101965617
 31
0.0
 11
4.6522311844
 21
8.7350948542
 31
0.0
 11
4.7721238404
 21
8.9353449811
 31
0.0
 11
4.915585695
 21
9.1085038883
 31
0.0
 11
5.0808409697
 21
9.2524677116
 31
0.0
 11
5.2658500521
 21
9.3654960261
 31
0.0
  0
LINE
  5
302
100
AcDbEntity
  8
0
100
AcDbLine
 62
7
  6
CONTINUOUS
 10
4.7986689576
 20
-18.2197384881
 11
5.1729176857
 21
-18.3861851922
  0
LINE
  5
303
100
AcDbEntity
  8
0
100
AcDbLine
 62
7
  6
CONTINUOUS
 10
5.4226801116
 20
-18.4970137822
 11
5.7977277314
 21
-18.6630567979
  0
SPLINE
  5
304
100
AcDbEntity
  8
RACCORDO
100
AcDbSpline
 62
253
  6
CONTINUOUS
 70
0
 71
3
 72
33
 73
29
 74
27
 42
0.0000001
 43
0.0000001
 44
0.0000000001
 12
0.0
 22
20.2726001313
 32
0.0
 13
0.0
 23
-20.2726001313
 33
0.0
 40
0.0
 40
0.0
 40
0.0
 40
0.0
 40
0.0324217045
 40
0.0634327522
 40
0.0929936122
 40
0.1211184952
 40
0.1478834714
 40
0.1734330025
 40
0.1979828757
 40
0.2218164983
 40
0.2452716948
 40
0.2687173366
 40
0.2925230989
 40
0.3170290365
 40
0.342521747
 40
0.369220622
 40
0.3972737275
 40
0.4267604972
 40
0.4576981511
 40
0.4900495586
 40
0.5237312565
 40
0.5586209777
 40
0.6313419783
 40
0.7067482986
 40
0.7830912298
 40
0.8585438318
 40
0.931353463
 40
1.0
 40
1.0
 40
1.0
 40
1.0
 10
-17.1088205433
 20
18.0842719769
 30
0.0
 10
-17.1088205433
 20
18.3033627274
 30
0.0
 10
-17.0920282644
 20
18.7322638599
 30
0.0
 10
-17.0128880309
 20
19.3565082127
 30
0.0
 10
-16.8809773174
 20
19.9422187162
 30
0.0
 10
-16.697381728
 20
20.4837866687
 30
0.0
 10
-16.4636148731
 20
20.9760276041
 30
0.0
 10
-16.181624857
 20
21.4140955322
 30
0.0
 10
-15.8538441553
 20
21.7934962526
 30
0.0
 10
-15.483287829
 20
22.1101243247
 30
0.0
 10
-15.0736480686
 20
22.3604071102
 30
0.0
 10
-14.6292825625
 20
22.5415351224
 30
0.0
 10
-14.1550357583
 20
22.6516571031
 30
0.0
 10
-13.6559757773
 20
22.6899140559
 30
0.0
 10
-13.1371973562
 20
22.6563166911
 30
0.0
 10
-12.6037577873
 20
22.5515841255
 30
0.0
 10
-12.0606994897
 20
22.3770348584
 30
0.0
 10
-11.5130870437
 20
22.1345475721
 30
0.0
 10
-10.9660154071
 20
21.8265581554
 30
0.0
 10
-10.4246014437
 20
21.4560707237
 30
0.0
 10
-9.8939015276
 20
21.0266349168
 30
0.0
 10
-9.1978592455
 20
20.3720111016
 30
0.0
 10
-8.3885616993
 20
19.4315346607
 30
0.0
 10
-7.5490326276
 20
18.1638346463
 30
0.0
 10
-6.8586783072
 20
16.7883811855
 30
0.0
 10
-6.3434525884
 20
15.3566447941
 30
0.0
 10
-6.0226307787
 20
13.9224738361
 30
0.0
 10
-5.9437334519
 20
12.9656096959
 30
0.0
 10
-5.9437334519
 20
12.5017284312
 30
0.0
 11
-17.1088205433
 21
18.0842719769
 31
0.0
 11
-17.0819389893
 21
18.7409942884
 31
0.0
 11
-17.0015533951
 21
19.364508418
 31
0.0
 11
-16.8684380183
 21
19.948812632
 31
0.0
 11
-16.6838747232
 21
20.488278994
 31
0.0
 11
-16.4496407919
 21
20.9777118448
 31
0.0
 11
-16.1679921993
 21
21.4123978174
 31
0.0
 11
-15.8416414558
 21
21.7881507838
 31
0.0
 11
-15.4737313989
 21
22.1013519282
 31
0.0
 11
-15.0678050842
 21
22.3489847273
 31
0.0
 11
-14.6277719401
 21
22.5286645551
 31
0.0
 11
-14.157869774
 21
22.6386611425
 31
0.0
 11
-13.6626239231
 21
22.6779150245
 31
0.0
 11
-13.1468038244
 21
22.6460479258
 31
0.0
 11
-12.6153771908
 21
22.5433669844
 31
0.0
 11
-12.0734619509
 21
22.3708612117
 31
0.0
 11
-11.5262769973
 21
22.1301917809
 31
0.0
 11
-10.9790920442
 21
21.8236762583
 31
0.0
 11
-10.4371768042
 21
21.454266791
 31
0.0
 11
-9.905750171
 21
21.0255210992
 31
0.0
 11
-9.3899300719
 21
20.5415680988
 31
0.0
 11
-8.4247820549
 21
19.4271696123
 31
0.0
 11
-7.5788225964
 21
18.1538975271
 31
0.0
 11
-6.8845617957
 21
16.7706826153
 31
0.0
 11
-6.3686792718
 21
15.3306812679
 31
0.0
 11
-6.0510006
 21
13.88923202
 31
0.0
 11
-5.9437334519
 21
12.5017284312
 31
0.0
  0
LINE
  5
305
100
AcDbEntity
  8
0
100
AcDbLine
 62
7
  6
CONTINUOUS
 10
8.9759969268
 20
-21.2934520953
 11
9.1513216722
 21
-21.3691950738
  0
LINE
  5
306
100
AcDbEntity
  8
0
100
AcDbLine
 62
7
  6
CONTINUOUS
 10
9.041462861
 20
-21.0306000251
 11
8.9759969268
 21
-21.2934520953
  0
SPLINE
  5
307
100
AcDbEntity
  8
0
100
AcDbSpline
 62
7
  6
CONTINUOUS
 70
0
 71
3
 72
14
 73
10
 74
8
 42
0.0000001
 43
0.0000001
 44
0.0000000001
 12
0.0
 22
1.8422063152
 32
0.0
 13
1.6477180387
 23
0.8238624719
 33
0.0
 40
0.0
 40
0.0
 40
0.0
 40
0.0
 40
0.296136268
 40
0.4316970022
 40
0.5587311749
 40
0.6777474946
 40
0.7897952363
 40
0.8964971447
 40
1.0
 40
1.0
 40
1.0
 40
1.0
 10
-30.6346060566
 20
25.5378255478
 30
0.0
 10
-30.6346060566
 20
25.7196735821
 30
0.0
 10
-30.6137058713
 20
25.9860689149
 30
0.0
 10
-30.5324885927
 20
26.3200271339
 30
0.0
 10
-30.4502644784
 20
26.5401562868
 30
0.0
 10
-30.34581755
 20
26.7345253792
 30
0.0
 10
-30.2201374202
 20
26.9007064267
 30
0.0
 10
-30.0746396899
 20
27.0363422749
 30
0.0
 10
-29.9646019969
 20
27.1056088641
 30
0.0
 10
-29.9077541563
 20
27.1340329035
 30
0.0
 11
-30.6346060566
 21
25.5378255478
 31
0.0
 11
-30.5862377205
 21
26.0812212346
 31
0.0
 11
-30.5263431047
 21
26.3236632436
 31
0.0
 11
-30.4435388261
 21
26.5425474337
 31
0.0
 11
-30.3388549699
 21
26.7351947791
 31
0.0
 11
-30.2135907045
 21
26.8992558646
 31
0.0
 11
-30.0692968637
 21
27.0327393664
 31
0.0
 11
-29.9077541563
 21
27.1340329035
 31
0.0
  0
SPLINE
  5
308
100
AcDbEntity
  8
RACCORDO
100
AcDbSpline
 62
253
  6
CONTINUOUS
 70
0
 71
3
 72
11
 73
7
 74
5
 42
0.0000001
 43
0.0000001
 44
0.0000000001
 12
-57.194848056
 22
22.9616957225
 32
0.0
 13
-52.3319981743
 23
32.5553694754
 33
0.0
 40
0.0
 40
0.0
 40
0.0
 40
0.0
 40
0.2616485484
 40
0.51569839
 40
0.7618823005
 40
1.0
 40
1.0
 40
1.0
 40
1.0
 10
19.2465038127
 20
37.7325148176
 30
0.0
 10
14.2581874892
 20
39.7351462693
 30
0.0
 10
4.5002768842
 20
43.8697719812
 30
0.0
 10
-9.6542740032
 20
50.5613799091
 30
0.0
 10
-23.077882454
 20
57.6353448851
 30
0.0
 10
-31.6597726251
 20
62.6785127126
 30
0.0
 10
-35.8134976298
 20
65.262515941
 30
0.0
 11
19.2465038127
 21
37.7325148176
 31
0.0
 11
4.4020756866
 21
44.0323121063
 31
0.0
 11
-9.7490746781
 21
50.7333953816
 31
0.0
 11
-23.1669176632
 21
57.8168089873
 31
0.0
 11
-35.8134976298
 21
65.262515941
 31
0.0
  0
SPLINE
  5
309
100
AcDbEntity
  8
0
100
AcDbSpline
 62
7
  6
CONTINUOUS
 70
0
 71
3
 72
9
 73
5
 74
3
 42
0.0000001
 43
0.0000001
 44
0.0000000001
 12
0.5708915609
 22
-0.2493913976
 32
0.0
 13
0.5712698883
 23
-0.2485235568
 33
0.0
 40
0.0
 40
0.0
 40
0.0
 40
0.0
 40
0.2498941362
 40
1.0
 40
1.0
 40
1.0
 40
1.0
 10
7.4457778509
 20
-19.3873346666
 30
0.0
 10
7.493332002
 20
-19.4081084825
 30
0.0
 10
7.6836449985
 20
-19.4912027536
 30
0.0
 10
7.8740211852
 20
-19.5741522981
 30
0.0
 10
8.0168588162
 20
-19.6362919571
 30
0.0
 11
7.4457778509
 21
-19.3873346666
 31
0.0
 11
7.5884521518
 21
-19.449628987
 31
0.0
 11
8.0168588162
 21
-19.6362919571
 31
0.0
  0
LINE
  5
30A
100
AcDbEntity
  8
0
100
AcDbLine
 62
7
  6
CONTINUOUS
 10
10.4185383917
 20
-21.6717676768
 11
10.8827760106
 21
-21.8698116209
  0
LINE
  5
30B
100
AcDbEntity
  8
0
100
AcDbLine
 62
7
  6
CONTINUOUS
 10
10.3816633285
 20
-21.1633215024
 11
10.4185383917
 21
-21.6717676768
  0
SPLINE
  5
30C
100
AcDbEntity
  8
0
100
AcDbSpline
 62
7
  6
CONTINUOUS
 70
0
 71
3
 72
18
 73
14
 74
12
 42
0.0000001
 43
0.0000001
 44
0.0000000001
 12
1.4371161737
 22
0.7185833357
 32
0.0
 13
-1.4783730245
 23
0.6293473664
 33
0.0
 40
0.0
 40
0.0
 40
0.0
 40
0.0
 40
0.0451645973
 40
0.0910559181
 40
0.1392864789
 40
0.1910415902
 40
0.2469775217
 40
0.3072554911
 40
0.4393476379
 40
0.5824857006
 40
0.729021198
 40
0.8706425478
 40
1.0
 40
1.0
 40
1.0
 40
1.0
 10
11.4666577232
 20
-22.2207208112
 30
0.0
 10
11.4882933143
 20
-22.2099026355
 30
0.0
 10
11.5293681892
 20
-22.1824750582
 30
0.0
 10
11.5794204732
 20
-22.1261771498
 30
0.0
 10
11.6165326868
 20
-22.0566856674
 30
0.0
 10
11.640051393
 20
-21.9760328509
 30
0.0
 10
11.6497623992
 20
-21.8861948344
 30
0.0
 10
11.6440726306
 20
-21.7529250793
 30
0.0
 10
11.6008363156
 20
-21.5766494376
 30
0.0
 10
11.5031740275
 20
-21.3715617939
 30
0.0
 10
11.3665539629
 20
-21.1836112757
 30
0.0
 10
11.2030079657
 20
-21.02927568
 30
0.0
 10
11.0774671081
 20
-20.9531164871
 30
0.0
 10
11.0137209189
 20
-20.9259795631
 30
0.0
 11
11.4666577232
 21
-22.2207208112
 31
0.0
 11
11.5269850385
 21
-22.1803871954
 31
0.0
 11
11.5762317958
 21
-22.1255075308
 31
0.0
 11
11.6132264176
 21
-22.0574132337
 31
0.0
 11
11.6371070306
 21
-21.9777580887
 31
0.0
 11
11.64733791
 21
-21.888466904
 31
0.0
 11
11.6437169788
 21
-21.791682624
 31
0.0
 11
11.5957498558
 21
-21.5849342021
 31
0.0
 11
11.4979337534
 21
-21.3767841014
 31
0.0
 11
11.3594125266
 21
-21.18639749
 31
0.0
 11
11.192906518
 21
-21.0313001436
 31
0.0
 11
11.0137209189
 21
-20.9259795631
 31
0.0
  0
LINE
  5
30D
100
AcDbEntity
  8
0
100
AcDbLine
 62
7
  6
CONTINUOUS
 10
8.7349298582
 20
-20.0805507064
 11
9.1144052969
 21
-20.2443974903
  0
LINE
  5
30E
100
AcDbEntity
  8
0
100
AcDbLine
 62
7
  6
CONTINUOUS
 10
8.7477067023
 20
-21.7111292167
 11
8.6592506643
 21
-22.0695272626
  0
LINE
  5
30F
100
AcDbEntity
  8
0
100
AcDbLine
 62
7
  6
CONTINUOUS
 10
8.8336607385
 20
-21.3646201894
 11
9.2014628811
 21
-21.5234184196
  0
SPLINE
  5
310
100
AcDbEntity
  8
0
100
AcDbSpline
 62
7
  6
CONTINUOUS
 70
0
 71
3
 72
9
 73
5
 74
3
 42
0.0000001
 43
0.0000001
 44
0.0000000001
 12
-0.1380453
 22
-0.5509573572
 32
0.0
 13
-0.1370464564
 23
-0.551206661
 33
0.0
 40
0.0
 40
0.0
 40
0.0
 40
0.0
 40
0.2501577152
 40
1.0
 40
1.0
 40
1.0
 40
1.0
 10
8.9712070827
 20
-20.8135381012
 30
0.0
 10
8.9596960504
 20
-20.8594801791
 30
0.0
 10
8.9137224815
 20
-21.0431430348
 30
0.0
 10
8.8679151479
 20
-21.226847502
 30
0.0
 10
8.8336607385
 20
-21.3646201894
 30
0.0
 11
8.9712070827
 21
-20.8135381012
 31
0.0
 11
8.9367051673
 21
-20.9513721438
 31
0.0
 11
8.8336607385
 21
-21.3646201894
 31
0.0
  0
SPLINE
  5
311
100
AcDbEntity
  8
RACCORDO
100
AcDbSpline
 62
253
  6
CONTINUOUS
 70
0
 71
3
 72
13
 73
9
 74
7
 42
0.0000001
 43
0.0000001
 44
0.0000000001
 12
0.5749955402
 22
0.2655555034
 32
0.0
 13
-0.0239427101
 23
0.6329031074
 33
0.0
 40
0.0
 40
0.0
 40
0.0
 40
0.0
 40
0.1100595776
 40
0.2210350988
 40
0.3351228172
 40
0.454193527
 40
0.711826236
 40
1.0
 40
1.0
 40
1.0
 40
1.0
 10
19.6962165438
 20
-31.4611727536
 30
0.0
 10
19.7173111326
 20
-31.4514304447
 30
0.0
 10
19.7579805619
 20
-31.4279124437
 30
0.0
 10
19.8119281824
 20
-31.3815598533
 30
0.0
 10
19.8579975236
 20
-31.3249060663
 30
0.0
 10
19.9094413321
 20
-31.2344918268
 30
0.0
 10
19.9498311672
 20
-31.0981185444
 30
0.0
 10
19.9558067911
 20
-30.9821302176
 30
0.0
 10
19.9535069041
 20
-30.9213348607
 30
0.0
 11
19.6962165438
 21
-31.4611727536
 31
0.0
 11
19.7565506776
 21
-31.4262608558
 31
0.0
 11
19.8099438073
 21
-31.3805505177
 31
0.0
 11
19.8557086146
 21
-31.3246325563
 31
0.0
 11
19.8932588661
 21
-31.2592317215
 31
0.0
 11
19.9419198228
 21
-31.1034832169
 31
0.0
 11
19.9535069041
 21
-30.9213348607
 31
0.0
  0
SPLINE
  5
312
100
AcDbEntity
  8
0
100
AcDbSpline
 62
7
  6
CONTINUOUS
 70
0
 71
3
 72
9
 73
5
 74
3
 42
0.0000001
 43
0.0000001
 44
0.0000000001
 12
0.5684235719
 22
-0.2506239497
 32
0.0
 13
0.5688055852
 23
-0.2497557356
 33
0.0
 40
0.0
 40
0.0
 40
0.0
 40
0.0
 40
0.2498935018
 40
1.0
 40
1.0
 40
1.0
 40
1.0
 10
6.1732432597
 20
-18.8288524243
 30
0.0
 10
6.220591712
 20
-18.8497288565
 30
0.0
 10
6.4100821995
 20
-18.9332339626
 30
0.0
 10
6.5996364928
 20
-19.0165942796
 30
0.0
 10
6.7418580814
 20
-19.0790420796
 30
0.0
 11
6.1732432597
 21
-18.8288524243
 31
0.0
 11
6.3153005794
 21
-18.8914545816
 31
0.0
 11
6.7418580814
 21
-19.0790420796
 31
0.0
  0
SPLINE
  5
313
100
AcDbEntity
  8
0
100
AcDbSpline
 62
7
  6
CONTINUOUS
 70
0
 71
3
 72
9
 73
5
 74
3
 42
0.0000001
 43
0.0000001
 44
0.0000000001
 12
0.5708716547
 22
-0.24940116
 32
0.0
 13
0.5712498059
 23
-0.2485337884
 33
0.0
 40
0.0
 40
0.0
 40
0.0
 40
0.0
 40
0.2498941887
 40
1.0
 40
1.0
 40
1.0
 40
1.0
 10
7.303543914
 20
-19.458451635
 30
0.0
 10
7.351096417
 20
-19.4792262685
 30
0.0
 10
7.5414027707
 20
-19.5623238133
 30
0.0
 10
7.7317722851
 20
-19.6452767098
 30
0.0
 10
7.8746048848
 20
-19.7074189228
 30
0.0
 11
7.303543914
 21
-19.458451635
 31
0.0
 11
7.4462132649
 21
-19.5207484227
 31
0.0
 11
7.8746048848
 21
-19.7074189228
 31
0.0
  0
SPLINE
  5
314
100
AcDbEntity
  8
RACCORDO
100
AcDbSpline
 62
253
  6
CONTINUOUS
 70
0
 71
3
 72
12
 73
8
 74
6
 42
0.0000001
 43
0.0000001
 44
0.0000000001
 12
0.0486987825
 22
0.6705813801
 32
0.0
 13
0.5653954739
 23
0.3638391361
 33
0.0
 40
0.0
 40
0.0
 40
0.0
 40
0.0
 40
0.2561972108
 40
0.5236508698
 40
0.7782805923
 40
0.8942553242
 40
1.0
 40
1.0
 40
1.0
 40
1.0
 10
18.9403765942
 20
37.1554589781
 30
0.0
 10
18.944535425
 20
37.2127260045
 30
0.0
 10
18.9674787601
 20
37.3289335559
 30
0.0
 10
19.0338235968
 20
37.4911904509
 30
0.0
 10
19.1131235359
 20
37.6117361974
 30
0.0
 10
19.1872276502
 20
37.6889294163
 30
0.0
 10
19.2265787925
 20
37.7196884525
 30
0.0
 10
19.2465079795
 20
37.7325131363
 30
0.0
 11
18.9403765942
 21
37.1554589781
 31
0.0
 11
18.9721787627
 21
37.3247513163
 31
0.0
 11
19.0402654165
 21
37.491184704
 31
0.0
 11
19.1358290068
 21
37.6332301537
 31
0.0
 11
19.1901485292
 21
37.6891724227
 31
0.0
 11
19.2465079795
 21
37.7325131363
 31
0.0
  0
SPLINE
  5
315
100
AcDbEntity
  8
0
100
AcDbSpline
 62
7
  6
CONTINUOUS
 70
0
 71
3
 72
18
 73
14
 74
12
 42
0.0000001
 43
0.0000001
 44
0.0000000001
 12
1.4371158633
 22
0.7185831838
 32
0.0
 13
-1.478352642
 23
0.6293943616
 33
0.0
 40
0.0
 40
0.0
 40
0.0
 40
0.0
 40
0.0451644445
 40
0.0910561396
 40
0.139287461
 40
0.1910435462
 40
0.2469805122
 40
0.3072594621
 40
0.4393531087
 40
0.5824916876
 40
0.7290264347
 40
0.8706456956
 40
1.0
 40
1.0
 40
1.0
 40
1.0
 10
11.3242293252
 20
-22.2919350102
 30
0.0
 10
11.3458648384
 20
-22.2811168734
 30
0.0
 10
11.3869397661
 20
-22.2536892028
 30
0.0
 10
11.4369926592
 20
-22.1973912212
 30
0.0
 10
11.4741064847
 20
-22.1278994016
 30
0.0
 10
11.4976277588
 20
-22.0472458543
 30
0.0
 10
11.5073421541
 20
-21.9574066442
 30
0.0
 10
11.5016579725
 20
-21.8241348241
 30
0.0
 10
11.458430037
 20
-21.6478555965
 30
0.0
 10
11.3607782
 20
-21.4427622765
 30
0.0
 10
11.2241685281
 20
-21.2548057601
 30
0.0
 10
11.0606321239
 20
-21.1004646815
 30
0.0
 10
10.9350966375
 20
-21.0243018734
 30
0.0
 10
10.8713528783
 20
-20.9971635835
 30
0.0
 11
11.3242293252
 21
-22.2919350102
 31
0.0
 11
11.3845564497
 21
-22.2516015788
 31
0.0
 11
11.4338039525
 21
-22.1967217963
 31
0.0
 11
11.4708002504
 21
-22.1286270381
 31
0.0
 11
11.4946834189
 21
-22.0489710445
 31
0.0
 11
11.5049176412
 21
-21.9596785891
 31
0.0
 11
11.5013007165
 21
-21.8628926036
 31
0.0
 11
11.4533430204
 21
-21.656139568
 31
0.0
 11
11.3555372797
 21
-21.4479837366
 31
0.0
 11
11.2170264051
 21
-21.2575911468
 31
0.0
 11
11.0505300477
 21
-21.1024884357
 31
0.0
 11
10.8713528783
 21
-20.9971635835
 31
0.0
  0
SPLINE
  5
316
100
AcDbEntity
  8
RACCORDO
100
AcDbSpline
 62
253
  6
CONTINUOUS
 70
0
 71
3
 72
12
 73
8
 74
6
 42
0.0000001
 43
0.0000001
 44
0.0000000001
 12
0.6196551763
 22
-0.2592503509
 32
0.0
 13
0.6331422549
 23
0.2243081964
 33
0.0
 40
0.0
 40
0.0
 40
0.0
 40
0.0
 40
0.2455412318
 40
0.5122551858
 40
0.7724043203
 40
0.891709239
 40
1.0
 40
1.0
 40
1.0
 40
1.0
 10
19.2943544854
 20
36.5449374257
 30
0.0
 10
19.3450714505
 20
36.5237185422
 30
0.0
 10
19.4559861902
 20
36.4914774341
 30
0.0
 10
19.6281021921
 20
36.4699210429
 30
0.0
 10
19.7734972848
 20
36.4736521942
 30
0.0
 10
19.8813917112
 20
36.4913968485
 30
0.0
 10
19.9306525794
 20
36.5050232546
 30
0.0
 10
19.9535070649
 20
36.5131200897
 30
0.0
 11
19.2943544854
 21
36.5449374257
 31
0.0
 11
19.4521443723
 21
36.4969330958
 31
0.0
 11
19.629859354
 21
36.4742855883
 31
0.0
 11
19.8045109891
 21
36.4799243372
 31
0.0
 11
19.8835298153
 21
36.4932666074
 31
0.0
 11
19.9535070649
 21
36.5131200897
 31
0.0
  0
SPLINE
  5
317
100
AcDbEntity
  8
RACCORDO
100
AcDbSpline
 62
253
  6
CONTINUOUS
 70
0
 71
3
 72
11
 73
7
 74
5
 42
0.0000001
 43
0.0000001
 44
0.0000000001
 12
0.6344883962
 22
-0.246862283
 32
0.0
 13
0.5808542128
 23
0.3551406695
 33
0.0
 40
0.0
 40
0.0
 40
0.0
 40
0.0
 40
0.2384143052
 40
0.4994648002
 40
0.7608019869
 40
1.0
 40
1.0
 40
1.0
 40
1.0
 10
19.2943544854
 20
-30.9807730232
 30
0.0
 10
19.3447781888
 20
-31.0003915231
 30
0.0
 10
19.4567497493
 20
-31.0255092033
 30
0.0
 10
19.6304458572
 20
-31.0268101228
 30
0.0
 10
19.8012790112
 20
-30.9944060901
 30
0.0
 10
19.9071940071
 20
-30.9496557134
 30
0.0
 10
19.9535070649
 20
-30.9213393992
 30
0.0
 11
19.2943544854
 21
-30.9807730232
 31
0.0
 11
19.4521443721
 21
-31.0188423057
 31
0.0
 11
19.6298593537
 21
-31.0210360109
 31
0.0
 11
19.8045109888
 21
-30.9870705647
 31
0.0
 11
19.9535070649
 21
-30.9213393992
 31
0.0
  0
SPLINE
  5
318
100
AcDbEntity
  8
RACCORDO
100
AcDbSpline
 62
253
  6
CONTINUOUS
 70
0
 71
3
 72
11
 73
7
 74
5
 42
0.0000001
 43
0.0000001
 44
0.0000000001
 12
-5.7222830112
 22
-67.2740252466
 32
0.0
 13
6.2301974351
 23
-67.2288898886
 33
0.0
 40
0.0
 40
0.0
 40
0.0
 40
0.0
 40
0.2578692347
 40
0.5106457115
 40
0.7580877381
 40
1.0
 40
1.0
 40
1.0
 40
1.0
 10
19.9535070649
 20
36.5131200897
 30
0.0
 10
19.4616401513
 20
30.7304862882
 30
0.0
 10
18.7187496211
 20
19.2582283899
 30
0.0
 10
18.3381059011
 20
2.1960446099
 30
0.0
 10
18.7028635907
 20
-14.5075102794
 30
0.0
 10
19.4511196313
 20
-25.5001706893
 30
0.0
 10
19.9535066826
 20
-30.921334963
 30
0.0
 11
19.9535070649
 21
36.5131200897
 31
0.0
 11
18.835401172
 21
19.1385144855
 31
0.0
 11
18.4623473779
 21
2.0758945815
 31
0.0
 11
18.8354009669
 21
-14.6264715668
 31
0.0
 11
19.9535066826
 21
-30.921334963
 31
0.0
  0
SPLINE
  5
319
100
AcDbEntity
  8
RACCORDO
100
AcDbSpline
 62
253
  6
CONTINUOUS
 70
0
 71
3
 72
11
 73
7
 74
5
 42
0.0000001
 43
0.0000001
 44
0.0000000001
 12
0.0214294311
 22
-0.2675715835
 32
0.0
 13
0.2487480645
 23
-0.1008869329
 33
0.0
 40
0.0
 40
0.0
 40
0.0
 40
0.0
 40
0.297529715
 40
0.5592265823
 40
0.7892539047
 40
1.0
 40
1.0
 40
1.0
 40
1.0
 10
18.9403765942
 20
-31.2373166845
 30
0.0
 10
18.9425018917
 20
-31.2638535168
 30
0.0
 10
18.9503462768
 20
-31.3135944083
 30
0.0
 10
18.975643502
 20
-31.3802102129
 30
0.0
 10
19.0134419984
 20
-31.4316471843
 30
0.0
 10
19.0472784851
 20
-31.4539540598
 30
0.0
 10
19.0647527129
 20
-31.4610412356
 30
0.0
 11
18.9403765942
 21
-31.2373166845
 31
0.0
 11
18.9537021958
 21
-31.3160625515
 31
0.0
 11
18.9796886443
 21
-31.3813260571
 31
0.0
 11
19.0172354957
 21
-31.4303442597
 31
0.0
 11
19.0647527129
 21
-31.4610412356
 31
0.0
  0
SPLINE
  5
31A
100
AcDbEntity
  8
RACCORDO
100
AcDbSpline
 62
253
  6
CONTINUOUS
 70
0
 71
3
 72
11
 73
7
 74
5
 42
0.0000001
 43
0.0000001
 44
0.0000000001
 12
0.0267185447
 22
-0.2628152673
 32
0.0
 13
0.2248222164
 23
-0.1387109094
 33
0.0
 40
0.0
 40
0.0
 40
0.0
 40
0.0
 40
0.2739586317
 40
0.5289306589
 40
0.76872554
 40
1.0
 40
1.0
 40
1.0
 40
1.0
 10
-36.194135112
 20
-3.6700608313
 30
0.0
 10
-36.1916951867
 20
-3.6940610017
 30
0.0
 10
-36.1830541566
 20
-3.7401511824
 30
0.0
 10
-36.1572528549
 20
-3.8033011333
 30
0.0
 10
-36.1196824913
 20
-3.8558062273
 30
0.0
 10
-36.0872006187
 20
-3.8825304887
 30
0.0
 10
-36.0698687398
 20
-3.8932239189
 30
0.0
 11
-36.194135112
 21
-3.6700608313
 31
0.0
 11
-36.1802995358
 21
-3.7410976495
 31
0.0
 11
-36.1543542505
 21
-3.8032560339
 31
0.0
 11
-36.1171412415
 21
-3.8545198899
 31
0.0
 11
-36.0698687398
 21
-3.8932239189
 31
0.0
  0
SPLINE
  5
31B
100
AcDbEntity
  8
RACCORDO
100
AcDbSpline
 62
253
  6
CONTINUOUS
 70
0
 71
3
 72
11
 73
7
 74
5
 42
0.0000001
 43
0.0000001
 44
0.0000000001
 12
-0.1674329313
 22
0.1067182641
 32
0.0
 13
-0.0177289223
 23
0.1977580838
 33
0.0
 40
0.0
 40
0.0
 40
0.0
 40
0.0
 40
0.2820234608
 40
0.5386017318
 40
0.7749783316
 40
1.0
 40
1.0
 40
1.0
 40
1.0
 10
-36.5481130032
 20
-3.0595392789
 30
0.0
 10
-36.5638530082
 20
-3.0495069275
 30
0.0
 10
-36.5925507816
 20
-3.0280126187
 30
0.0
 10
-36.6272154457
 20
-2.9896979054
 30
0.0
 10
-36.6503617049
 20
-2.947645598
 30
0.0
 10
-36.6575003121
 20
-2.9174735487
 30
0.0
 10
-36.6588301093
 20
-2.9026402641
 30
0.0
 11
-36.5481130032
 21
-3.0595392789
 31
0.0
 11
-36.5926436267
 21
-3.0255895213
 31
0.0
 11
-36.6264508448
 21
-2.9874797451
 31
0.0
 11
-36.648697396
 21
-2.946154404
 31
0.0
 11
-36.6588301093
 21
-2.9026402641
 31
0.0
  0
SPLINE
  5
31C
100
AcDbEntity
  8
RACCORDO
100
AcDbSpline
 62
253
  6
CONTINUOUS
 70
0
 71
3
 72
11
 73
7
 74
5
 42
0.0000001
 43
0.0000001
 44
0.0000000001
 12
-0.1684221917
 22
0.1012361224
 32
0.0
 13
0.0160620643
 23
0.1958489143
 33
0.0
 40
0.0
 40
0.0
 40
0.0
 40
0.0
 40
0.3108810844
 40
0.5757960292
 40
0.8003357642
 40
1.0
 40
1.0
 40
1.0
 40
1.0
 10
-36.5481130032
 20
64.46617117
 30
0.0
 10
-36.5655660944
 20
64.4766619685
 30
0.0
 10
-36.596719062
 20
64.4982526201
 30
0.0
 10
-36.6337508749
 20
64.535934164
 30
0.0
 10
-36.6562834804
 20
64.5758797043
 30
0.0
 10
-36.6602223211
 20
64.6042945
 30
0.0
 10
-36.6591533145
 20
64.6173291746
 30
0.0
 11
-36.5481130032
 21
64.46617117
 31
0.0
 11
-36.5978911185
 21
64.5015850719
 31
0.0
 11
-36.6336729511
 21
64.5393956979
 31
0.0
 11
-36.6543142022
 21
64.5783934244
 31
0.0
 11
-36.6591533145
 21
64.6173291746
 31
0.0
  0
SPLINE
  5
31D
100
AcDbEntity
  8
RACCORDO
100
AcDbSpline
 62
253
  6
CONTINUOUS
 70
0
 71
3
 72
11
 73
7
 74
5
 42
0.0000001
 43
0.0000001
 44
0.0000000001
 12
0.0645003421
 22
0.6846951269
 32
0.0
 13
0.6334330262
 23
0.2678251524
 33
0.0
 40
0.0
 40
0.0
 40
0.0
 40
0.0
 40
0.2471750192
 40
0.5080133824
 40
0.764495091
 40
1.0
 40
1.0
 40
1.0
 40
1.0
 10
-36.194135112
 20
64.7227148313
 30
0.0
 10
-36.1888208209
 20
64.7791280083
 30
0.0
 10
-36.159779624
 20
64.8936728283
 30
0.0
 10
-36.0757759709
 20
65.0492605561
 30
0.0
 10
-35.9594919435
 20
65.1789306911
 30
0.0
 10
-35.8632231589
 20
65.2414912283
 30
0.0
 10
-35.8134976298
 20
65.262515941
 30
0.0
 11
-36.194135112
 21
64.7227148313
 31
0.0
 11
-36.154221011
 21
64.8879512033
 31
0.0
 11
-36.0694338975
 21
65.0460343612
 31
0.0
 11
-35.9507416558
 21
65.1765154852
 31
0.0
 11
-35.8134976298
 21
65.262515941
 31
0.0
  0
SPLINE
  5
31E
100
AcDbEntity
  8
RACCORDO
100
AcDbSpline
 62
253
  6
CONTINUOUS
 70
0
 71
3
 72
13
 73
9
 74
7
 42
0.0000001
 43
0.0000001
 44
0.0000000001
 12
0.053965268
 22
1.4784441887
 32
0.0
 13
-1.3459416943
 23
0.6141257402
 33
0.0
 40
0.0
 40
0.0
 40
0.0
 40
0.0
 40
0.2472029519
 40
0.3784424633
 40
0.5110132787
 40
0.6420345826
 40
0.7687685518
 40
1.0
 40
1.0
 40
1.0
 40
1.0
 10
19.9535070649
 20
36.5131200897
 30
0.0
 10
19.9579538561
 20
36.6349453456
 30
0.0
 10
19.9324205955
 20
36.8234503574
 30
0.0
 10
19.8505384638
 20
37.0621143939
 30
0.0
 10
19.7638458739
 20
37.2371253913
 30
0.0
 10
19.6563521548
 20
37.3975985059
 30
0.0
 10
19.4961843829
 20
37.5781718286
 30
0.0
 10
19.3502454015
 20
37.685179877
 30
0.0
 10
19.2465040524
 20
37.7325149384
 30
0.0
 11
19.9535070649
 21
36.5131200897
 31
0.0
 11
19.9096172348
 21
36.8761960943
 31
0.0
 11
19.8468779728
 21
37.0599396646
 31
0.0
 11
19.7597834376
 21
37.2356700177
 31
0.0
 11
19.6516978602
 21
37.3965742398
 31
0.0
 11
19.5268167868
 21
37.5364265632
 31
0.0
 11
19.2465040524
 21
37.7325149384
 31
0.0
  0
SPLINE
  5
31F
100
AcDbEntity
  8
RACCORDO
100
AcDbSpline
 62
253
  6
CONTINUOUS
 70
0
 71
3
 72
11
 73
7
 74
5
 42
0.0000001
 43
0.0000001
 44
0.0000000001
 12
-0.4070552527
 22
0.2229932073
 32
0.0
 13
-0.4084834793
 23
-0.220366051
 33
0.0
 40
0.0
 40
0.0
 40
0.0
 40
0.0
 40
0.2784892654
 40
0.5331660107
 40
0.7703017252
 40
1.0
 40
1.0
 40
1.0
 40
1.0
 10
-35.8134976298
 20
65.262515941
 30
0.0
 10
-35.8512844693
 20
65.2832163458
 30
0.0
 10
-35.9272823131
 20
65.3168178378
 30
0.0
 10
-36.0451366846
 20
65.3407855032
 30
0.0
 10
-36.1579512535
 20
65.3343811761
 30
0.0
 10
-36.2269921158
 20
65.3093025958
 30
0.0
 10
-36.2582680993
 20
65.2924300285
 30
0.0
 11
-35.8134976298
 21
65.262515941
 31
0.0
 11
-35.9321976786
 21
65.3136771212
 31
0.0
 11
-36.04826369
 21
65.3360572822
 31
0.0
 11
-36.1580942374
 21
65.3289133592
 31
0.0
 11
-36.2582680993
 21
65.2924300285
 31
0.0
  0
SPLINE
  5
320
100
AcDbEntity
  8
0
100
AcDbSpline
 62
7
  6
CONTINUOUS
 70
0
 71
3
 72
9
 73
5
 74
3
 42
0.0000001
 43
0.0000001
 44
0.0000000001
 12
0.5684050263
 22
-0.2506330327
 32
0.0
 13
0.5687868599
 23
-0.2497652879
 33
0.0
 40
0.0
 40
0.0
 40
0.0
 40
0.0
 40
0.249893555
 40
1.0
 40
1.0
 40
1.0
 40
1.0
 10
6.0310518176
 20
-18.8999481454
 30
0.0
 10
6.0783987351
 20
-18.9208253386
 30
0.0
 10
6.2678830332
 20
-19.0043334919
 30
0.0
 10
6.457431107
 20
-19.0876969345
 30
0.0
 10
6.5996480035
 20
-19.1501471186
 30
0.0
 11
6.0310518176
 21
-18.8999481454
 31
0.0
 11
6.1731045275
 21
-18.9625526005
 31
0.0
 11
6.5996480035
 21
-19.1501471186
 31
0.0
  0
LINE
  5
321
100
AcDbEntity
  8
0
100
AcDbLine
 62
7
  6
CONTINUOUS
 10
10.5609209913
 20
-21.600576377
 11
11.0251772215
 21
-21.7986110154
  0
SPLINE
  5
322
100
AcDbEntity
  8
RACCORDO
100
AcDbSpline
 62
253
  6
CONTINUOUS
 70
0
 71
3
 72
15
 73
11
 74
9
 42
0.0000001
 43
0.0000001
 44
0.0000000001
 12
0.0
 22
4.4969967343
 32
0.0
 13
4.0441867923
 23
1.9666043877
 33
0.0
 40
0.0
 40
0.0
 40
0.0
 40
0.0
 40
0.1485062022
 40
0.2896057297
 40
0.4231259751
 40
0.5492730984
 40
0.668689976
 40
0.78249481
 40
0.8922740584
 40
1.0
 40
1.0
 40
1.0
 40
1.0
 10
-15.9704661334
 20
18.0757149321
 30
0.0
 10
-15.9704661334
 20
18.2983255675
 30
0.0
 10
-15.9512020817
 20
18.7327841994
 30
0.0
 10
-15.8598263665
 20
19.3615738087
 30
0.0
 10
-15.7075928593
 20
19.9441566687
 30
0.0
 10
-15.4960370005
 20
20.4733315074
 30
0.0
 10
-15.2273266472
 20
20.942468452
 30
0.0
 10
-14.9042367675
 20
21.3454032566
 30
0.0
 10
-14.530658218
 20
21.6763278142
 30
0.0
 10
-14.2499200311
 20
21.8462887266
 30
0.0
 10
-14.1046987544
 20
21.9169068298
 30
0.0
 11
-15.9704661334
 21
18.0757149321
 31
0.0
 11
-15.9393295548
 21
18.7428205973
 31
0.0
 11
-15.8463072385
 21
19.3704890609
 31
0.0
 11
-15.6925566324
 21
19.9509105232
 31
0.0
 11
-15.4799907991
 21
20.4768629901
 31
0.0
 11
-15.2112546305
 21
20.941802192
 31
0.0
 11
-14.8896919116
 21
21.3399430616
 31
0.0
 11
-14.5193037496
 21
21.6663316529
 31
0.0
 11
-14.1046987544
 21
21.9169068298
 31
0.0
  0
LINE
  5
323
100
AcDbEntity
  8
0
100
AcDbLine
 62
7
  6
CONTINUOUS
 10
6.6539940971
 20
-20.4349170171
 11
6.703041226
 21
-21.08268093
  0
SPLINE
  5
324
100
AcDbEntity
  8
0
100
AcDbSpline
 62
7
  6
CONTINUOUS
 70
0
 71
3
 72
9
 73
5
 74
3
 42
0.0000001
 43
0.0000001
 44
0.0000000001
 12
-0.0582127645
 22
0.008848314
 32
0.0
 13
-0.0541738055
 23
0.0230698376
 33
0.0
 40
0.0
 40
0.0
 40
0.0
 40
0.0
 40
0.2387746032
 40
1.0
 40
1.0
 40
1.0
 40
1.0
 10
11.0816055515
 20
-21.8151148973
 30
0.0
 10
11.0769723082
 20
-21.8144106464
 30
0.0
 10
11.0576760946
 20
-21.8107591039
 30
0.0
 10
11.0389235029
 20
-21.8044664683
 30
0.0
 10
11.025177344
 20
-21.7986126862
 30
0.0
 11
11.0816055515
 21
-21.8151148973
 31
0.0
 11
11.0677884104
 21
-21.8125162777
 31
0.0
 11
11.025177344
 21
-21.7986126862
 31
0.0
  0
SPLINE
  5
325
100
AcDbEntity
  8
0
100
AcDbSpline
 62
7
  6
CONTINUOUS
 70
0
 71
3
 72
11
 73
7
 74
5
 42
0.0000001
 43
0.0000001
 44
0.0000000001
 12
-0.1315972793
 22
-0.0657978312
 32
0.0
 13
-0.1353649478
 23
0.05765006
 33
0.0
 40
0.0
 40
0.0
 40
0.0
 40
0.0
 40
0.2229476713
 40
0.4605135996
 40
0.718685367
 40
1.0
 40
1.0
 40
1.0
 40
1.0
 10
11.0255509511
 20
-21.8750854792
 30
0.0
 10
11.0157711821
 20
-21.8799753036
 30
0.0
 10
10.9940347892
 20
-21.8872073557
 30
0.0
 10
10.9585568663
 20
-21.88954766
 30
0.0
 10
10.9206326706
 20
-21.8838334436
 30
0.0
 10
10.8954693908
 20
-21.8752192881
 30
0.0
 10
10.8827760106
 20
-21.8698133529
 30
0.0
 11
11.0255509511
 21
-21.8750854792
 31
0.0
 11
10.9944911283
 21
-21.885634213
 31
0.0
 11
10.9596378078
 21
-21.8882726489
 31
0.0
 11
10.9220292957
 21
-21.8829394311
 31
0.0
 11
10.8827760106
 21
-21.8698133529
 31
0.0
  0
LINE
  5
326
100
AcDbEntity
  8
0
100
AcDbLine
 62
7
  6
CONTINUOUS
 10
10.5338344953
 20
-21.2283144923
 11
10.5609209913
 21
-21.600576377
  0
SPLINE
  5
327
100
AcDbEntity
  8
RACCORDO
100
AcDbSpline
 62
7
  6
CONTINUOUS
 70
0
 71
3
 72
11
 73
7
 74
5
 42
0.0000001
 43
0.0000001
 44
0.0000000001
 12
-0.6226377949
 22
0.3710154145
 32
0.0
 13
-0.6683569639
 23
-0.280409041
 33
0.0
 40
0.0
 40
0.0
 40
0.0
 40
0.0
 40
0.2261836028
 40
0.4873020299
 40
0.755269294
 40
1.0
 40
1.0
 40
1.0
 40
1.0
 10
28.1186828025
 20
20.8409347157
 30
0.0
 10
28.0717393159
 20
20.8689072501
 30
0.0
 10
27.9596029465
 20
20.9104542845
 30
0.0
 10
27.7778670131
 20
20.9353756799
 30
0.0
 10
27.5901368681
 20
20.9256965603
 30
0.0
 10
27.4687892666
 20
20.8946238249
 30
0.0
 10
27.4142667761
 20
20.871748924
 30
0.0
 11
28.1186828025
 21
20.8409347157
 31
0.0
 11
27.9665389401
 21
20.9019890166
 31
0.0
 11
27.779259984
 21
20.9292855005
 31
0.0
 11
27.5853285427
 21
20.9186694908
 31
0.0
 11
27.4142667761
 21
20.871748924
 31
0.0
  0
SPLINE
  5
328
100
AcDbEntity
  8
RACCORDO
100
AcDbSpline
 62
7
  6
CONTINUOUS
 70
0
 71
3
 72
11
 73
7
 74
5
 42
0.0000001
 43
0.0000001
 44
0.0000000001
 12
0.6683568467
 22
0.2804089918
 32
0.0
 13
0.6226376857
 23
-0.3710153494
 33
0.0
 40
0.0
 40
0.0
 40
0.0
 40
0.0
 40
0.2447152501
 40
0.5126700107
 40
0.7737982022
 40
1.0
 40
1.0
 40
1.0
 40
1.0
 10
27.4142667761
 20
9.6134186748
 30
0.0
 10
27.4687858137
 20
9.636292127
 30
0.0
 10
27.5901263856
 20
9.6673639553
 30
0.0
 10
27.7778519211
 20
9.6770463018
 30
0.0
 10
27.9595917337
 20
9.6521264921
 30
0.0
 10
28.0717355479
 20
9.6105792462
 30
0.0
 10
28.1186828025
 20
9.5826044665
 30
0.0
 11
27.4142667761
 21
9.6134186748
 31
0.0
 11
27.5853173949
 21
9.6603374166
 31
0.0
 11
27.7792395746
 21
9.6709561894
 31
0.0
 11
27.9665259411
 21
9.6436617074
 31
0.0
 11
28.1186828025
 21
9.5826044665
 31
0.0
  0
ELLIPSE
  5
329
100
AcDbEntity
  8
RACCORDO
100
AcDbEllipse
 62
7
  6
CONTINUOUS
 10
22.0016215994
 20
-29.2949660791
 30
0.0
 11
-0.4474018214
 21
0.8946702271
 31
0.0
 40
0.6121897086
 41
-3.1606215703
 42
-2.2557347926
  0
ELLIPSE
  5
32A
100
AcDbEntity
  8
RACCORDO
100
AcDbEllipse
 62
7
  6
CONTINUOUS
 10
22.0016215994
 20
38.2547515761
 30
0.0
 11
-0.4471615512
 21
0.8944566536
 31
0.0
 40
0.6125552124
 41
-2.255296188
 42
-0.6848044477
  0
ELLIPSE
  5
32B
100
AcDbEntity
  8
RACCORDO
100
AcDbEllipse
 62
7
  6
CONTINUOUS
 10
-33.1524919087
 20
65.8318083302
 30
0.0
 11
-0.4474018214
 21
0.8946702271
 31
0.0
 40
0.6121897086
 41
-0.6846338794
 42
0.019023655
  0
ENDSEC
  0
SECTION
  2
OBJECTS
  0
DICTIONARY
  5
C
100
AcDbDictionary
280
0
281
1
  3
ACAD_GROUP
350
D
  3
ACAD_MLINESTYLE
350
17
  3
ACAD_LAYOUT
350
1A
  3
ACAD_PLOTSETTINGS
350
19
  3
ACAD_PLOTSTYLENAME
350
E
  0
DICTIONARY
  5
D
102
{ACAD_REACTORS
330
C
102
}
100
AcDbDictionary
280
0
281
1
  0
ACDBDICTIONARYWDFLT
  5
E
102
{ACAD_REACTORS
330
C
102
}
100
AcDbDictionary
281
1
  3
Normal
350
F
100
AcDbDictionaryWithDefault
340
F
  0
DICTIONARY
  5
17
102
{ACAD_REACTORS
330
C
102
}
100
AcDbDictionary
280
0
281
1
  3
Standard
350
18
  0
DICTIONARY
  5
19
102
{ACAD_REACTORS
330
C
102
}
100
AcDbDictionary
281
1
  0
DICTIONARY
  5
1A
102
{ACAD_REACTORS
330
C
102
}
100
AcDbDictionary
281
1
  3
Model
350
32C
  3
Layout1
350
32D
  0
ACDBPLACEHOLDER
  5
F
102
{ACAD_REACTORS
330
E
102
}
  0
MLINESTYLE
  5
18
102
{ACAD_REACTORS
330
17
102
}
100
AcDbMlineStyle
  2
STANDARD
 70
0
  3

 62
256
 51
90.0
 52
90.0
 71
2
 49
0.5
 62
256
  6
BYLAYER
 49
-0.5
 62
256
  6
BYLAYER
  0
LAYOUT
  5
32C
102
{ACAD_REACTORS
330
1A
102
}
100
AcDbPlotSettings
  1

  2
none_device
  4
ANSI_C_(22.00_x_17.00_Inches)
  6

 40
0.0
 41
0.0
 42
0.0
 43
0.0
 44
558.8
 45
431.8
 46
0.0
 47
0.0
 48
0.0
 49
0.0
140
0.0
141
0.0
142
1.0
143
1.0
 70
1024
 72
1
 73
0
 74
0
  7

 75
0
147
1.0
148
0.0
149
0.0
100
AcDbLayout
  1
Model
 70
0
 71
0
 10
0.0
 20
0.0
 11
558.8
 21
431.8
 12
0.0
 22
0.0
 32
0.0
 14
0.0
 24
0.0
 34
0.0
 15
0.0
 25
0.0
 35
0.0
146
0.0
 13
0.0
 23
0.0
 33
0.0
 16
1.0
 26
0.0
 36
0.0
 17
0.0
 27
1.0
 37
0.0
 76
0
330
212
345
0
346
0
  0
LAYOUT
  5
32D
102
{ACAD_REACTORS
330
1A
102
}
100
AcDbPlotSettings
  1

  2
none_device
  4
ANSI_C_(22.00_x_17.00_Inches)
  6

 40
0.0
 41
0.0
 42
0.0
 43
0.0
 44
558.8
 45
431.8
 46
0.0
 47
0.0
 48
0.0
 49
0.0
140
0.0
141
0.0
142
1.0
143
1.0
 70
0
 72
1
 73
0
 74
0
  7

 75
0
147
1.0
148
0.0
149
0.0
100
AcDbLayout
  1
Layout1
 70
0
 71
1
 10
0.0
 20
0.0
 11
558.8
 21
431.8
 12
0.0
 22
0.0
 32
0.0
 14
0.0
 24
0.0
 34
0.0
 15
0.0
 25
0.0
 35
0.0
146
0.0
 13
0.0
 23
0.0
 33
0.0
 16
1.0
 26
0.0
 36
0.0
 17
0.0
 27
1.0
 37
0.0
 76
0
330
213
345
0
346
0
  0
ENDSEC
  0
EOF
