  0
SECTION
  2
HEADER
  9
$ACADVER
  1
AC1015
  9
$DWGCODEPAGE
  3
ANSI_1252
  9
$EXTMAX
 10
558.8
 20
431.8
 30
0.0
  9
$EXTMIN
 10
0.0
 20
0.0
 30
0.0
  9
$LIMMIN
 10
0.0
 20
0.0
  9
$LIMMAX
 10
558.8
 20
431.8
  9
$VIEWCTR
 10
279.4
 20
215.9
  9
$VIEWSIZE
 40
431.8
  9
$CLAYER
  8
0
  9
$LTSCALE
 40
30.734
  9
$CELTYPE
  6
BYLAYER
  9
$DIMSCALE
 40
1.0
  9
$DIMASZ
 40
3.0
  9
$DIMEXO
 40
3.4925
  9
$DIMDLI
 40
21.2344
  9
$DIMEXE
 40
10.0584
  9
$DIMCEN
 40
5.0292
  9
$DIMLFAC
 40
1.0
  9
$DIMBLK
  1
_FILLED
  9
$DIMTXT
 40
3.0
  9
$DIMTOL
 70
1
  9
$DIMLIM
 70
0
  9
$DIMTFAC
 40
1.0
  9
$DIMTP
 40
0.01
  9
$DIMTM
 40
0.01
  9
$PDMODE
 70
3
  9
$PDSIZE
 40
3.0
  9
$HANDSEED
  5
31F
  9
$TILEMODE
 70
1
  9
$MEASUREMENT
 70
1
  9
$INSUNITS
 70
4
  0
ENDSEC
  0
SECTION
  2
CLASSES
  0
CLASS
  1
ACDBDICTIONARYWDFLT
  2
AcDbDictionaryWithDefault
  3
AutoCAD 2000
 90
0
280
0
281
0
  0
CLASS
  1
ACDBPLACEHOLDER
  2
AcDbPlaceHolder
  3
AutoCAD 2000
 90
0
280
0
281
0
  0
CLASS
  1
LAYOUT
  2
AcDbLayout
  3
AutoCAD 2000
 90
0
280
0
281
0
  0
ENDSEC
  0
SECTION
  2
TABLES
  0
TABLE
  2
VPORT
  5
8
100
AcDbSymbolTable
 70
2
  0
VPORT
  5
1F4
100
AcDbSymbolTableRecord
100
AcDbViewportTableRecord
  2
*ACTIVE
 70
0
 10
0.0
 20
0.0
 11
1.0
 21
1.0
 12
279.4
 22
215.9
 13
0.0
 23
0.0
 14
1.0
 24
1.0
 15
0.0
 25
0.0
 16
0.0
 26
0.0
 36
1.0
 17
0.0
 27
0.0
 37
0.0
 40
431.8
 41
1.2941176471
 42
50.0
 43
0.0
 44
0.0
 50
0.0
 51
0.0
 71
0
 72
100
 73
1
 74
1
 75
0
 76
0
 77
0
 78
0
  0
ENDTAB
  0
TABLE
  2
LTYPE
  5
5
100
AcDbSymbolTable
 70
6
  0
LTYPE
  5
14
100
AcDbSymbolTableRecord
100
AcDbLinetypeTableRecord
  2
BYBLOCK
 70
0
  3

 72
65
 73
0
 40
0.0
  0
LTYPE
  5
15
100
AcDbSymbolTableRecord
100
AcDbLinetypeTableRecord
  2
BYLAYER
 70
0
  3

 72
65
 73
0
 40
0.0
  0
LTYPE
  5
16
100
AcDbSymbolTableRecord
100
AcDbLinetypeTableRecord
  2
CONTINUOUS
 70
64
  3
Solid line
 72
65
 73
0
 40
0.0
  0
LTYPE
  5
1F5
100
AcDbSymbolTableRecord
100
AcDbLinetypeTableRecord
  2
CENTER
 70
64
  3
____ _ ____ _ ____ _ ____ _ ____ _ ____ _ ____
 72
65
 73
4
 40
0.6
 49
0.375
 74
0
 49
-0.075
 74
0
 49
0.075
 74
0
 49
-0.075
 74
0
  0
LTYPE
  5
1F6
100
AcDbSymbolTableRecord
100
AcDbLinetypeTableRecord
  2
HIDDEN
 70
64
  3
- - - - - - - - - - - - - - - - - - - -
 72
65
 73
2
 40
0.2
 49
0.1
 74
0
 49
-0.1
 74
0
  0
LTYPE
  5
1F7
100
AcDbSymbolTableRecord
100
AcDbLinetypeTableRecord
  2
PHANTOM
 70
64
  3
_____ _ _ _____ _ _ _____ _ _ _____
 72
65
 73
6
 40
0.8
 49
0.45
 74
0
 49
-0.05
 74
0
 49
0.1
 74
0
 49
-0.05
 74
0
 49
0.1
 74
0
 49
-0.05
 74
0
  0
LTYPE
  5
1F8
100
AcDbSymbolTableRecord
100
AcDbLinetypeTableRecord
  2
DOT
 70
64
  3
. . . . . . . . . . . . . . . . . . . .
 72
65
 73
2
 40
0.2
 49
0.1
 74
0
 49
-0.1
 74
0
  0
LTYPE
  5
1F9
100
AcDbSymbolTableRecord
100
AcDbLinetypeTableRecord
  2
DASHED
 70
64
  3
- - - - - - - - - - - - - - - - - - - -
 72
65
 73
2
 40
0.2
 49
0.1
 74
0
 49
-0.1
 74
0
  0
ENDTAB
  0
TABLE
  2
LAYER
  5
2
100
AcDbSymbolTable
 70
36
  0
LAYER
  5
10
100
AcDbSymbolTableRecord
100
AcDbLayerTableRecord
  2
0
 70
0
 62
7
  6
CONTINUOUS
370
-3
390
F
  0
LAYER
  5
1FA
100
AcDbSymbolTableRecord
100
AcDbLayerTableRecord
  2
DEFAULT_1
 70
0
 62
7
  6
CENTER
370
-3
390
F
  0
LAYER
  5
1FB
100
AcDbSymbolTableRecord
100
AcDbLayerTableRecord
  2
DEFAULT_2
 70
0
 62
7
  6
HIDDEN
370
-3
390
F
  0
LAYER
  5
1FC
100
AcDbSymbolTableRecord
100
AcDbLayerTableRecord
  2
DEFAULT_3
 70
0
 62
7
  6
PHANTOM
370
-3
390
F
  0
LAYER
  5
1FD
100
AcDbSymbolTableRecord
100
AcDbLayerTableRecord
  2
ASSI
 70
0
 62
7
  6
CONTINUOUS
370
-3
390
F
  0
LAYER
  5
1FE
100
AcDbSymbolTableRecord
100
AcDbLayerTableRecord
  2
COORDINATE
 70
0
 62
7
  6
CONTINUOUS
370
-3
390
F
  0
LAYER
  5
1FF
100
AcDbSymbolTableRecord
100
AcDbLayerTableRecord
  2
COORD_ORIGINE
 70
0
 62
7
  6
CONTINUOUS
370
-3
390
F
  0
LAYER
  5
200
100
AcDbSymbolTableRecord
100
AcDbLayerTableRecord
  2
COPY_PUBLISH
 70
0
 62
7
  6
CONTINUOUS
370
-3
390
F
  0
LAYER
  5
201
100
AcDbSymbolTableRecord
100
AcDbLayerTableRecord
  2
COSMETIC
 70
0
 62
7
  6
CONTINUOUS
370
-3
390
F
  0
LAYER
  5
202
100
AcDbSymbolTableRecord
100
AcDbLayerTableRecord
  2
COSMETICHE
 70
0
 62
7
  6
CONTINUOUS
370
-3
390
F
  0
LAYER
  5
203
100
AcDbSymbolTableRecord
100
AcDbLayerTableRecord
  2
COSMETICI
 70
0
 62
7
  6
CONTINUOUS
370
-3
390
F
  0
LAYER
  5
204
100
AcDbSymbolTableRecord
100
AcDbLayerTableRecord
  2
CURVE
 70
0
 62
7
  6
CONTINUOUS
370
-3
390
F
  0
LAYER
  5
205
100
AcDbSymbolTableRecord
100
AcDbLayerTableRecord
  2
DRAFT
 70
0
 62
7
  6
CONTINUOUS
370
-3
390
F
  0
LAYER
  5
206
100
AcDbSymbolTableRecord
100
AcDbLayerTableRecord
  2
IMPORT_IGES
 70
0
 62
7
  6
CONTINUOUS
370
-3
390
F
  0
LAYER
  5
207
100
AcDbSymbolTableRecord
100
AcDbLayerTableRecord
  2
NOTE
 70
0
 62
7
  6
CONTINUOUS
370
-3
390
F
  0
LAYER
  5
208
100
AcDbSymbolTableRecord
100
AcDbLayerTableRecord
  2
PIANI
 70
0
 62
7
  6
CONTINUOUS
370
-3
390
F
  0
LAYER
  5
209
100
AcDbSymbolTableRecord
100
AcDbLayerTableRecord
  2
PIANI_ORIGINE
 70
0
 62
7
  6
CONTINUOUS
370
-3
390
F
  0
LAYER
  5
20A
100
AcDbSymbolTableRecord
100
AcDbLayerTableRecord
  2
PUNTI
 70
0
 62
7
  6
CONTINUOUS
370
-3
390
F
  0
LAYER
  5
20B
100
AcDbSymbolTableRecord
100
AcDbLayerTableRecord
  2
RACCORDO
 70
0
 62
7
  6
CONTINUOUS
370
-3
390
F
  0
LAYER
  5
20C
100
AcDbSymbolTableRecord
100
AcDbLayerTableRecord
  2
SNAPLINE
 70
0
 62
7
  6
CONTINUOUS
370
-3
390
F
  0
LAYER
  5
20D
100
AcDbSymbolTableRecord
100
AcDbLayerTableRecord
  2
SUPERFICI
 70
0
 62
7
  6
CONTINUOUS
370
-3
390
F
  0
LAYER
  5
20E
100
AcDbSymbolTableRecord
100
AcDbLayerTableRecord
  2
TRASH
 70
0
 62
7
  6
CONTINUOUS
370
-3
390
F
  0
LAYER
  5
20F
100
AcDbSymbolTableRecord
100
AcDbLayerTableRecord
  2
XSEC_DATUMS
 70
0
 62
7
  6
CONTINUOUS
370
-3
390
F
  0
ENDTAB
  0
TABLE
  2
STYLE
  5
3
100
AcDbSymbolTable
 70
1
  0
STYLE
  5
11
100
AcDbSymbolTableRecord
100
AcDbTextStyleTableRecord
  2
STANDARD
 70
0
 40
0.0
 41
0.8
 50
0.0
 71
0
 42
0.2
  3
txt
  4

  0
STYLE
  5
210
100
AcDbSymbolTableRecord
100
AcDbTextStyleTableRecord
  2
TEXTSTYLE_1
 70
0
 40
0.0
 41
0.8
 50
0.0
 71
0
 42
0.2
  3
gdt
  4

  0
ENDTAB
  0
TABLE
  2
VIEW
  5
6
100
AcDbSymbolTable
 70
0
  0
ENDTAB
  0
TABLE
  2
UCS
  5
7
100
AcDbSymbolTable
 70
0
  0
ENDTAB
  0
TABLE
  2
APPID
  5
9
100
AcDbSymbolTable
 70
1
  0
APPID
  5
211
100
AcDbSymbolTableRecord
100
AcDbRegAppTableRecord
  2
ACAD
 70
0
  0
ENDTAB
  0
TABLE
  2
BLOCK_RECORD
  5
1
100
AcDbSymbolTable
 70
0
  0
BLOCK_RECORD
  5
212
100
AcDbSymbolTableRecord
100
AcDbBlockTableRecord
  2
*Model_Space
  0
BLOCK_RECORD
  5
213
100
AcDbSymbolTableRecord
100
AcDbBlockTableRecord
  2
*Paper_Space
  0
ENDTAB
  0
TABLE
  2
DIMSTYLE
  5
A
100
AcDbSymbolTable
 70
1
100
AcDbDimStyleTable
 71
0
  0
DIMSTYLE
105
214
100
AcDbSymbolTableRecord
100
AcDbDimStyleTableRecord
  2
STANDARD
 70
0
  3

  4

 40
1.0
 41
3.0
 42
0.0625
 43
0.38
 44
0.18
 45
0.0
 46
0.0
 47
0.01
 48
0.01
140
3.0
141
0.09
142
0.0
143
25.4
144
1.0
145
0.0
146
1.0
147
0.09
 71
1.0
 72
0.0
 73
0
 74
0
 75
0
 76
0
 77
1
 78
8
170
0
171
2
172
0
173
0
174
0
175
0
176
0
177
0
178
0
270
2
271
2
272
2
273
2
274
2
275
0
280
0
281
0
282
0
283
1
284
8
285
0
286
0
287
3
288
0
340
11
  0
ENDTAB
  0
ENDSEC
  0
SECTION
  2
BLOCKS
  0
BLOCK
  5
20
100
AcDbEntity
  8
0
100
AcDbBlockBegin
  2
*Model_Space
 70
0
 10
0.0
 20
0.0
 30
0.0
  3
*Model_Space
  1

  0
ENDBLK
  5
21
100
AcDbEntity
  8
0
100
AcDbBlockEnd
  0
BLOCK
  5
1C
100
AcDbEntity
  8
0
100
AcDbBlockBegin
  2
*Paper_Space
 70
0
 10
0.0
 20
0.0
 30
0.0
  3
*Paper_Space
  1

  0
ENDBLK
  5
1D
100
AcDbEntity
  8
0
100
AcDbBlockEnd
  0
ENDSEC
  0
SECTION
  2
ENTITIES
  0
LWPOLYLINE
  5
215
100
AcDbEntity
  8
RACCORDO
100
AcDbPolyline
 62
7
  6
CONTINUOUS
 90
31
 70
0
 10
-25.7957077346
 20
33.0094892751
 10
-25.8167662794
 20
32.997469834
 10
-25.8374615403
 20
32.9846646686
 10
-25.8578026024
 20
32.9710593018
 10
-25.8777612482
 20
32.9566609291
 10
-25.8973068044
 20
32.9414808132
 10
-25.9164420877
 20
32.9255040204
 10
-25.9351393981
 20
32.9087379438
 10
-25.9533678197
 20
32.8911944891
 10
-25.971123729
 20
32.8728598227
 10
-25.9883785887
 20
32.8537437165
 10
-26.0051042263
 20
32.8338571347
 10
-26.021296297
 20
32.8131818425
 10
-26.0369284016
 20
32.7917254303
 10
-26.0519717402
 20
32.7695003193
 10
-26.0664173187
 20
32.7464885501
 10
-26.0802504236
 20
32.7226766694
 10
-26.0934309027
 20
32.6980951251
 10
-26.105916599
 20
32.6727876749
 10
-26.1176912097
 20
32.6467547991
 10
-26.1287299695
 20
32.6200158719
 10
-26.1389908645
 20
32.5926425873
 10
-26.1484619542
 20
32.5646439524
 10
-26.1571298169
 20
32.5360314337
 10
-26.164964565
 20
32.5068814168
 10
-26.1719601429
 20
32.4772024514
 10
-26.1781083136
 20
32.4470056476
 10
-26.1833895643
 20
32.4163728919
 10
-26.1877981294
 20
32.3853373439
 10
-26.1913345602
 20
32.3538849333
 10
-26.1929078632
 20
32.3363912955
  0
LINE
  5
216
100
AcDbEntity
  8
RACCORDO
100
AcDbLine
 62
7
  6
CONTINUOUS
 10
-25.7957077346
 20
33.0094892751
 11
-23.1439992484
 21
34.4401614529
  0
LINE
  5
217
100
AcDbEntity
  8
RACCORDO
100
AcDbLine
 62
253
  6
CONTINUOUS
 10
-25.3472520477
 20
32.9815780512
 11
-22.6864617346
 21
34.4171354681
  0
LWPOLYLINE
  5
218
100
AcDbEntity
  8
RACCORDO
100
AcDbPolyline
 62
7
  6
CONTINUOUS
 90
28
 70
0
 10
29.5310065822
 20
-63.7419825539
 10
29.5419453778
 20
-63.7463426882
 10
29.5680620074
 20
-63.7561390874
 10
29.594108658
 20
-63.7650549585
 10
29.6200646257
 20
-63.7730981574
 10
29.645920397
 20
-63.7802808056
 10
29.6716735567
 20
-63.7866155838
 10
29.6973083951
 20
-63.792111183
 10
29.7228095716
 20
-63.796776952
 10
29.7481716665
 20
-63.8006233832
 10
29.7733746999
 20
-63.8036584956
 10
29.7984047104
 20
-63.805892191
 10
29.8232616943
 20
-63.8073348329
 10
29.8479266922
 20
-63.8079947724
 10
29.8723821366
 20
-63.8078816584
 10
29.8966266068
 20
-63.8070049522
 10
29.9206406341
 20
-63.8053739336
 10
29.9444049428
 20
-63.8029988387
 10
29.9679154684
 20
-63.7998890331
 10
29.9911502704
 20
-63.7960559023
 10
30.0140915751
 20
-63.7915109998
 10
30.0367391066
 20
-63.7862624788
 10
30.0590718746
 20
-63.7803231873
 10
30.0810713364
 20
-63.7737063117
 10
30.1027388776
 20
-63.7664187746
 10
30.1240547392
 20
-63.7584739812
 10
30.144999952
 20
-63.7498866902
 10
30.162465455
 20
-63.7421090994
  0
LWPOLYLINE
  5
219
100
AcDbEntity
  8
RACCORDO
100
AcDbPolyline
 62
7
  6
CONTINUOUS
 90
43
 70
0
 10
-26.1925868618
 20
-35.1835527766
 10
-26.191128125
 20
-35.1986467129
 10
-26.1876541492
 20
-35.2282854129
 10
-26.1834298458
 20
-35.2576524953
 10
-26.1784948381
 20
-35.2867338006
 10
-26.1728808592
 20
-35.315543714
 10
-26.1666117348
 20
-35.3441117079
 10
-26.1597146016
 20
-35.372432491
 10
-26.1522128199
 20
-35.4005057473
 10
-26.1441208982
 20
-35.4283544478
 10
-26.135458058
 20
-35.4559720671
 10
-26.1262409756
 20
-35.4833564672
 10
-26.1164757534
 20
-35.5105280886
 10
-26.1061759829
 20
-35.5374790767
 10
-26.0953529718
 20
-35.5642043282
 10
-26.0840061973
 20
-35.5907217842
 10
-26.0721444259
 20
-35.6170225866
 10
-26.0597745973
 20
-35.6430982257
 10
-26.0468913661
 20
-35.6689630483
 10
-26.0334967275
 20
-35.6946104101
 10
-26.019596267
 20
-35.7200249688
 10
-26.0051861715
 20
-35.7452061195
 10
-25.9902590843
 20
-35.770154824
 10
-25.9748233784
 20
-35.7948437594
 10
-25.9588963845
 20
-35.8192315765
 10
-25.9424757328
 20
-35.8433086724
 10
-25.9255623527
 20
-35.8670574328
 10
-25.9081782104
 20
-35.8904315994
 10
-25.890320642
 20
-35.9134188759
 10
-25.8719870284
 20
-35.9360044635
 10
-25.8531967634
 20
-35.9581463746
 10
-25.8339435809
 20
-35.9798326898
 10
-25.814222756
 20
-36.0010478721
 10
-25.7940508781
 20
-36.0217518843
 10
-25.7734190759
 20
-36.0419315192
 10
-25.7523182905
 20
-36.0615704176
 10
-25.7307583217
 20
-36.0806332256
 10
-25.7087260362
 20
-36.0991044098
 10
-25.6862100763
 20
-36.1169629983
 10
-25.6632150888
 20
-36.1341740976
 10
-25.6397307824
 20
-36.1507124776
 10
-25.6157387812
 20
-36.1665559911
 10
-25.60360582
 20
-36.1741726645
  0
LINE
  5
21A
100
AcDbEntity
  8
0
100
AcDbLine
 62
7
  6
CONTINUOUS
 10
-19.1283321635
 20
-5.5493335582
 11
-18.3864705361
 21
-5.1784027445
  0
LINE
  5
21B
100
AcDbEntity
  8
0
100
AcDbLine
 62
7
  6
CONTINUOUS
 10
-18.3638515653
 20
-5.4873044969
 11
-18.0797303559
 21
-5.3452438922
  0
LINE
  5
21C
100
AcDbEntity
  8
0
100
AcDbLine
 62
7
  6
CONTINUOUS
 10
-17.5481351447
 20
-5.7865530677
 11
-17.6567447841
 21
-5.8408578875
  0
LINE
  5
21D
100
AcDbEntity
  8
0
100
AcDbLine
 62
7
  6
CONTINUOUS
 10
-17.7713269028
 20
-9.4336828527
 11
-18.3638515653
 21
-9.729945184
  0
LINE
  5
21E
100
AcDbEntity
  8
0
100
AcDbLine
 62
7
  6
CONTINUOUS
 10
-16.892264186
 20
-10.0214695132
 11
-16.3017407505
 21
-9.7262077955
  0
LINE
  5
21F
100
AcDbEntity
  8
0
100
AcDbLine
 62
7
  6
CONTINUOUS
 10
38.1071675059
 20
-20.4636855059
 11
36.2149181365
 21
-20.8080467291
  0
LINE
  5
220
100
AcDbEntity
  8
0
100
AcDbLine
 62
7
  6
CONTINUOUS
 10
-0.1978788902
 20
-15.869140861
 11
0.3367163859
 21
-15.082546477
  0
LINE
  5
221
100
AcDbEntity
  8
RACCORDO
100
AcDbLine
 62
253
  6
CONTINUOUS
 10
29.7127493948
 20
5.4515769278
 11
32.4680825895
 21
6.8398633061
  0
LINE
  5
222
100
AcDbEntity
  8
RACCORDO
100
AcDbLine
 62
253
  6
CONTINUOUS
 10
30.4197526471
 20
4.2321821999
 11
33.1750816749
 21
5.6204702594
  0
LINE
  5
223
100
AcDbEntity
  8
0
100
AcDbLine
 62
7
  6
CONTINUOUS
 10
0.0259905445
 20
-11.1342652592
 11
-2.9256637397
 21
-12.6100924013
  0
LINE
  5
224
100
AcDbEntity
  8
0
100
AcDbLine
 62
7
  6
CONTINUOUS
 10
0.7394968218
 20
-14.7688932955
 11
0.6309682082
 21
-14.8231576023
  0
LINE
  5
225
100
AcDbEntity
  8
0
100
AcDbLine
 62
7
  6
CONTINUOUS
 10
1.7939811967
 20
-16.8802116513
 11
1.6863924255
 21
-16.9340060369
  0
LINE
  5
226
100
AcDbEntity
  8
0
100
AcDbLine
 62
7
  6
CONTINUOUS
 10
0.3522975595
 20
-16.9694937604
 11
1.3023302324
 21
-17.0137741699
  0
LINE
  5
227
100
AcDbEntity
  8
0
100
AcDbLine
 62
7
  6
CONTINUOUS
 10
4.274508463
 20
-19.6313291931
 11
1.3228654176
 21
-21.1071507158
  0
LINE
  5
228
100
AcDbEntity
  8
0
100
AcDbLine
 62
253
  6
CONTINUOUS
 10
1.0062384446
 20
-20.5432743855
 11
1.0066839056
 21
-20.5430639032
  0
LINE
  5
229
100
AcDbEntity
  8
0
100
AcDbLine
 62
7
  6
CONTINUOUS
 10
38.1071675059
 20
-8.3393298529
 11
36.2149181365
 21
-8.6836910761
  0
LINE
  5
22A
100
AcDbEntity
  8
RACCORDO
100
AcDbLine
 62
7
  6
CONTINUOUS
 10
33.1750816749
 20
-12.5173261374
 11
37.8805123582
 21
-10.543163562
  0
LINE
  5
22B
100
AcDbEntity
  8
0
100
AcDbLine
 62
7
  6
CONTINUOUS
 10
33.1750816749
 20
-9.8711813432
 11
36.2149181365
 21
-8.6836910761
  0
LINE
  5
22C
100
AcDbEntity
  8
0
100
AcDbLine
 62
7
  6
CONTINUOUS
 10
39.6451087228
 20
-21.1089284598
 11
38.1071675059
 21
-20.4636855059
  0
LINE
  5
22D
100
AcDbEntity
  8
0
100
AcDbLine
 62
7
  6
CONTINUOUS
 10
16.2270068958
 20
-23.2270030879
 11
16.9405545766
 21
-22.8702292475
  0
LINE
  5
22E
100
AcDbEntity
  8
0
100
AcDbLine
 62
7
  6
CONTINUOUS
 10
16.991487494
 20
-23.1649740265
 11
17.2916224145
 21
-23.0149065663
  0
LINE
  5
22F
100
AcDbEntity
  8
RACCORDO
100
AcDbLine
 62
7
  6
CONTINUOUS
 10
33.1750816749
 20
-13.3833515412
 11
37.8805123582
 21
-11.4091889658
  0
LINE
  5
230
100
AcDbEntity
  8
RACCORDO
100
AcDbLine
 62
7
  6
CONTINUOUS
 10
38.5849283846
 20
-23.5643588271
 11
40.0789975728
 21
-24.4546399884
  0
LINE
  5
231
100
AcDbEntity
  8
RACCORDO
100
AcDbLine
 62
7
  6
CONTINUOUS
 10
38.5849283846
 20
-22.6983334233
 11
40.0789975728
 21
-23.5886145847
  0
LINE
  5
232
100
AcDbEntity
  8
0
100
AcDbLine
 62
7
  6
CONTINUOUS
 10
17.9004644908
 20
-23.4175923093
 11
17.6985942752
 21
-23.5185274171
  0
LINE
  5
233
100
AcDbEntity
  8
0
100
AcDbLine
 62
7
  6
CONTINUOUS
 10
33.1750816749
 20
-19.0931054426
 11
34.2389610507
 21
-18.5611657547
  0
LINE
  5
234
100
AcDbEntity
  8
0
100
AcDbLine
 62
7
  6
CONTINUOUS
 10
17.5840121565
 20
-27.1113523824
 11
16.991487494
 21
-27.4076147136
  0
LINE
  5
235
100
AcDbEntity
  8
0
100
AcDbLine
 62
7
  6
CONTINUOUS
 10
33.1750816749
 20
-19.5046101505
 11
34.1433045049
 21
-19.0204987355
  0
LINE
  5
236
100
AcDbEntity
  8
0
100
AcDbLine
 62
7
  6
CONTINUOUS
 10
33.8163748294
 20
-16.2502256549
 11
33.6081680862
 21
-16.0940705975
  0
LINE
  5
237
100
AcDbEntity
  8
0
100
AcDbLine
 62
7
  6
CONTINUOUS
 10
18.4630748733
 20
-27.6991390429
 11
19.3280336393
 21
-27.2666596599
  0
LINE
  5
238
100
AcDbEntity
  8
RACCORDO
100
AcDbLine
 62
7
  6
CONTINUOUS
 10
33.1750816749
 20
-24.6416817904
 11
37.8805123582
 21
-22.667519215
  0
LINE
  5
239
100
AcDbEntity
  8
RACCORDO
100
AcDbLine
 62
7
  6
CONTINUOUS
 10
33.1750816749
 20
-25.5077071942
 11
37.8805123582
 21
-23.5335446188
  0
LINE
  5
23A
100
AcDbEntity
  8
0
100
AcDbLine
 62
7
  6
CONTINUOUS
 10
33.1750816749
 20
-21.9955369962
 11
36.2149181365
 21
-20.8080467291
  0
LINE
  5
23B
100
AcDbEntity
  8
0
100
AcDbLine
 62
7
  6
CONTINUOUS
 10
39.6451087228
 20
-8.9845728069
 11
38.1071675059
 21
-8.3393298529
  0
LINE
  5
23C
100
AcDbEntity
  8
RACCORDO
100
AcDbLine
 62
7
  6
CONTINUOUS
 10
40.0789975728
 20
-12.3302843355
 11
38.5849283846
 21
-11.4400031741
  0
LINE
  5
23D
100
AcDbEntity
  8
RACCORDO
100
AcDbLine
 62
7
  6
CONTINUOUS
 10
40.0789975728
 20
-11.4642589317
 11
38.5849283846
 21
-10.5739777703
  0
LINE
  5
23E
100
AcDbEntity
  8
RACCORDO
100
AcDbLine
 62
7
  6
CONTINUOUS
 10
33.1750816749
 20
-61.9297750355
 11
33.1750816749
 21
5.6204702594
  0
LINE
  5
23F
100
AcDbEntity
  8
0
100
AcDbLine
 62
7
  6
CONTINUOUS
 10
34.5981175799
 20
-17.8137111558
 11
34.5981175799
 21
-18.0739695848
  0
LINE
  5
240
100
AcDbEntity
  8
RACCORDO
100
AcDbLine
 62
253
  6
CONTINUOUS
 10
37.8805123582
 20
-10.543163562
 11
37.8805123582
 21
-11.4091889658
  0
LINE
  5
241
100
AcDbEntity
  8
RACCORDO
100
AcDbLine
 62
253
  6
CONTINUOUS
 10
37.8805123582
 20
-23.5335446188
 11
37.8805123582
 21
-22.667519215
  0
LINE
  5
242
100
AcDbEntity
  8
RACCORDO
100
AcDbLine
 62
253
  6
CONTINUOUS
 10
38.5849283846
 20
-10.5739777703
 11
38.5849283846
 21
-11.4400031741
  0
LINE
  5
243
100
AcDbEntity
  8
RACCORDO
100
AcDbLine
 62
253
  6
CONTINUOUS
 10
38.5849283846
 20
-23.5643588271
 11
38.5849283846
 21
-22.6983334233
  0
LINE
  5
244
100
AcDbEntity
  8
RACCORDO
100
AcDbLine
 62
7
  6
CONTINUOUS
 10
-22.6864617346
 20
34.4171354681
 11
32.4680825895
 21
6.8398633061
  0
LINE
  5
245
100
AcDbEntity
  8
0
100
AcDbLine
 62
7
  6
CONTINUOUS
 10
40.0789975728
 20
-23.5886145847
 11
39.6451087228
 21
-21.1089284598
  0
LINE
  5
246
100
AcDbEntity
  8
0
100
AcDbLine
 62
7
  6
CONTINUOUS
 10
40.0789975728
 20
-11.4642589317
 11
40.0789975728
 21
-12.3302843355
  0
LINE
  5
247
100
AcDbEntity
  8
0
100
AcDbLine
 62
7
  6
CONTINUOUS
 10
40.0789975728
 20
-24.4546399884
 11
40.0789975728
 21
-23.5886145847
  0
LINE
  5
248
100
AcDbEntity
  8
0
100
AcDbLine
 62
7
  6
CONTINUOUS
 10
13.9244650589
 20
-50.0356984567
 11
14.0665793693
 21
-49.9646413015
  0
LINE
  5
249
100
AcDbEntity
  8
0
100
AcDbLine
 62
7
  6
CONTINUOUS
 10
14.2971565615
 20
-50.2029237737
 11
14.4392813095
 21
-50.1318613997
  0
LINE
  5
24A
100
AcDbEntity
  8
0
100
AcDbLine
 62
7
  6
CONTINUOUS
 10
15.1227657788
 20
-50.5717507583
 11
15.2649145397
 21
-50.5006763779
  0
LINE
  5
24B
100
AcDbEntity
  8
0
100
AcDbLine
 62
7
  6
CONTINUOUS
 10
15.4970032198
 20
-50.7382031061
 11
15.6391632678
 21
-50.6671230821
  0
LINE
  5
24C
100
AcDbEntity
  8
0
100
AcDbLine
 62
7
  6
CONTINUOUS
 10
40.0789975728
 20
-11.4642589317
 11
39.6451087228
 21
-8.9845728069
  0
LINE
  5
24D
100
AcDbEntity
  8
0
100
AcDbLine
 62
7
  6
CONTINUOUS
 10
15.7467579739
 20
-50.8490355319
 11
15.8889256937
 21
-50.777951672
  0
LINE
  5
24E
100
AcDbEntity
  8
0
100
AcDbLine
 62
7
  6
CONTINUOUS
 10
16.121793865
 20
-51.015084412
 11
16.2639733135
 21
-50.9439946877
  0
LINE
  5
24F
100
AcDbEntity
  8
0
100
AcDbLine
 62
7
  6
CONTINUOUS
 10
16.4972973997
 20
-51.1808860352
 11
16.6394888418
 21
-51.1097903141
  0
LINE
  5
250
100
AcDbEntity
  8
0
100
AcDbLine
 62
7
  6
CONTINUOUS
 10
17.0658935856
 20
-51.4310850084
 11
17.2081036635
 21
-51.3599799695
  0
LINE
  5
251
100
AcDbEntity
  8
0
100
AcDbLine
 62
7
  6
CONTINUOUS
 10
15.0500979315
 20
-52.5592182646
 11
15.1923239334
 21
-52.4881052637
  0
LINE
  5
252
100
AcDbEntity
  8
0
100
AcDbLine
 62
7
  6
CONTINUOUS
 10
17.7697894961
 20
-51.7393895248
 11
17.912023433
 21
-51.6682725564
  0
LINE
  5
253
100
AcDbEntity
  8
0
100
AcDbLine
 62
7
  6
CONTINUOUS
 10
18.3408504669
 20
-51.9883568126
 11
18.4831043983
 21
-51.917229847
  0
LINE
  5
254
100
AcDbEntity
  8
0
100
AcDbLine
 62
7
  6
CONTINUOUS
 10
16.2754649624
 20
-53.1034052839
 11
16.4177284219
 21
-53.0322735541
  0
LINE
  5
255
100
AcDbEntity
  8
0
100
AcDbLine
 62
7
  6
CONTINUOUS
 10
17.0269990524
 20
-53.4347626977
 11
17.1692868081
 21
-53.3636188199
  0
LINE
  5
256
100
AcDbEntity
  8
0
100
AcDbLine
 62
7
  6
CONTINUOUS
 10
19.2011754403
 20
-52.3614885962
 11
19.3434605672
 21
-52.2903460327
  0
LINE
  5
257
100
AcDbEntity
  8
0
100
AcDbLine
 62
7
  6
CONTINUOUS
 10
19.580650879
 20
-52.5253353801
 11
19.722950174
 21
-52.4541857327
  0
LINE
  5
258
100
AcDbEntity
  8
0
100
AcDbLine
 62
7
  6
CONTINUOUS
 10
17.7598821231
 20
-53.7561489789
 11
17.9021945334
 21
-53.6849927738
  0
LINE
  5
259
100
AcDbEntity
  8
0
100
AcDbLine
 62
7
  6
CONTINUOUS
 10
20.4445772646
 20
-52.8966808461
 11
20.5869097419
 21
-52.8255146075
  0
LINE
  5
25A
100
AcDbEntity
  8
0
100
AcDbLine
 62
7
  6
CONTINUOUS
 10
19.2999063207
 20
-53.6455580792
 11
19.4422425089
 21
-53.5743899851
  0
LINE
  5
25B
100
AcDbEntity
  8
0
100
AcDbLine
 62
7
  6
CONTINUOUS
 10
18.4946073274
 20
-54.0766397527
 11
18.6369454021
 21
-54.0054707154
  0
LINE
  5
25C
100
AcDbEntity
  8
0
100
AcDbLine
 62
7
  6
CONTINUOUS
 10
19.1254962464
 20
-54.3504651524
 11
19.2678571109
 21
-54.2792847202
  0
LINE
  5
25D
100
AcDbEntity
  8
0
100
AcDbLine
 62
7
  6
CONTINUOUS
 10
21.3375984604
 20
-53.2781039006
 11
21.4799666668
 21
-53.2069197974
  0
LINE
  5
25E
100
AcDbEntity
  8
0
100
AcDbLine
 62
7
  6
CONTINUOUS
 10
20.8847839739
 20
-53.9527055667
 11
21.0271665735
 21
-53.8815142669
  0
LINE
  5
25F
100
AcDbEntity
  8
0
100
AcDbLine
 62
7
  6
CONTINUOUS
 10
21.3490215927
 20
-54.1507495107
 11
21.4914228037
 21
-54.0795489052
  0
LINE
  5
260
100
AcDbEntity
  8
0
100
AcDbLine
 62
7
  6
CONTINUOUS
 10
20.3446535837
 20
-54.8760994502
 11
20.4870604467
 21
-54.8048960186
  0
LINE
  5
261
100
AcDbEntity
  8
ASSI
100
AcDbLine
 62
7
  6
CONTINUOUS
 10
21.7904439079
 20
-54.5728884396
 11
21.9328722965
 21
-54.5016742453
  0
LINE
  5
262
100
AcDbEntity
  8
0
100
AcDbLine
 62
7
  6
CONTINUOUS
 10
20.9794776417
 20
-55.1479622301
 11
21.1219094715
 21
-55.0767463152
  0
LINE
  5
263
100
AcDbEntity
  8
0
100
AcDbLine
 62
7
  6
CONTINUOUS
 10
22.1260651179
 20
-55.6358453124
 11
22.2685437905
 21
-55.5646059762
  0
LINE
  5
264
100
AcDbEntity
  8
RACCORDO
100
AcDbLine
 62
253
  6
CONTINUOUS
 10
30.4197522647
 20
-63.2022728529
 11
33.1750816749
 21
-61.9297750355
  0
LINE
  5
265
100
AcDbEntity
  8
RACCORDO
100
AcDbLine
 62
7
  6
CONTINUOUS
 10
30.1624027636
 20
-63.7421382081
 11
32.9047610594
 21
-62.4756262685
  0
ARC
  5
266
100
AcDbEntity
  8
0
100
AcDbCircle
 62
7
  6
CONTINUOUS
 10
421.8019934191
 20
128.22170717
 40
440.2519695477
100
AcDbArc
 50
204.5193903149
 51
204.6581663653
  0
ARC
  5
267
100
AcDbEntity
  8
0
100
AcDbCircle
 62
7
  6
CONTINUOUS
 10
422.0022941338
 20
128.2137043924
 40
440.1155024066
100
AcDbArc
 50
204.5439192731
 51
204.6913700884
  0
ARC
  5
268
100
AcDbEntity
  8
0
100
AcDbCircle
 62
7
  6
CONTINUOUS
 10
421.9002692036
 20
128.197894789
 40
439.856991128
100
AcDbArc
 50
204.5509932147
 51
204.6943721122
  0
ARC
  5
269
100
AcDbEntity
  8
RACCORDO
100
AcDbCircle
 62
253
  6
CONTINUOUS
 10
394.8977234505
 20
-2.6898514973
 40
422.4216938897
100
AcDbArc
 50
175.2642769483
 51
179.9504057743
  0
ARC
  5
26A
100
AcDbEntity
  8
0
100
AcDbCircle
 62
7
  6
CONTINUOUS
 10
184.6434147512
 20
330.3039549198
 40
416.8980516665
100
AcDbArc
 50
246.8051999374
 51
246.9386571027
  0
ARC
  5
26B
100
AcDbEntity
  8
0
100
AcDbCircle
 62
7
  6
CONTINUOUS
 10
184.6773764233
 20
330.1546365578
 40
416.6527060302
100
AcDbArc
 50
246.8069562144
 51
246.9404955194
  0
ARC
  5
26C
100
AcDbEntity
  8
0
100
AcDbCircle
 62
7
  6
CONTINUOUS
 10
409.6533962569
 20
74.8303039328
 40
414.6563207005
100
AcDbArc
 50
197.5497980779
 51
197.7851815519
  0
ARC
  5
26D
100
AcDbEntity
  8
0
100
AcDbCircle
 62
7
  6
CONTINUOUS
 10
409.6378195515
 20
74.8704747057
 40
414.4966449327
100
AcDbArc
 50
197.5522998553
 51
197.7556974374
  0
ARC
  5
26E
100
AcDbEntity
  8
0
100
AcDbCircle
 62
7
  6
CONTINUOUS
 10
408.8756382991
 20
74.7163891987
 40
414.1853602171
100
AcDbArc
 50
197.5296134108
 51
197.8718241655
  0
ARC
  5
26F
100
AcDbEntity
  8
0
100
AcDbCircle
 62
7
  6
CONTINUOUS
 10
412.2028603521
 20
73.7780813739
 40
412.4375740101
100
AcDbArc
 50
197.8325669114
 51
198.1759494967
  0
ARC
  5
270
100
AcDbEntity
  8
0
100
AcDbCircle
 62
7
  6
CONTINUOUS
 10
412.111210749
 20
73.7940597059
 40
412.1979700501
100
AcDbArc
 50
197.8352250265
 51
198.178804727
  0
ARC
  5
271
100
AcDbEntity
  8
0
100
AcDbCircle
 62
7
  6
CONTINUOUS
 10
408.0097127398
 20
63.9945122757
 40
407.6274503063
100
AcDbArc
 50
196.4491593208
 51
196.671310093
  0
ARC
  5
272
100
AcDbEntity
  8
0
100
AcDbCircle
 62
7
  6
CONTINUOUS
 10
408.0123226821
 20
64.0434791423
 40
407.4872954801
100
AcDbArc
 50
196.4517321159
 51
196.6371207029
  0
ARC
  5
273
100
AcDbEntity
  8
RACCORDO
100
AcDbCircle
 62
253
  6
CONTINUOUS
 10
435.3813501831
 20
-30.5739474886
 40
407.1140816493
100
AcDbArc
 50
175.0910283048
 51
179.9501624941
  0
ARC
  5
274
100
AcDbEntity
  8
0
100
AcDbCircle
 62
7
  6
CONTINUOUS
 10
406.863321859
 20
63.7928970501
 40
406.7849096171
100
AcDbArc
 50
196.5467318081
 51
196.7720755995
  0
ARC
  5
275
100
AcDbEntity
  8
RACCORDO
100
AcDbCircle
 62
253
  6
CONTINUOUS
 10
342.5103190148
 20
-2.703046605
 40
370.0343251313
100
AcDbArc
 50
179.9413413824
 51
185.0601255032
  0
ARC
  5
276
100
AcDbEntity
  8
RACCORDO
100
AcDbCircle
 62
253
  6
CONTINUOUS
 10
386.5260165371
 20
-30.5846414447
 40
358.2587797357
100
AcDbArc
 50
179.9416559448
 51
185.2332672762
  0
ARC
  5
277
100
AcDbEntity
  8
0
100
AcDbCircle
 62
7
  6
CONTINUOUS
 10
366.0571619741
 20
-26.3145686521
 40
350.8060394755
100
AcDbArc
 50
184.037579577
 51
184.3795795737
  0
ARC
  5
278
100
AcDbEntity
  8
0
100
AcDbCircle
 62
7
  6
CONTINUOUS
 10
368.0727764611
 20
-27.2879684948
 40
350.603093601
100
AcDbArc
 50
184.0398997228
 51
184.3820925328
  0
ARC
  5
279
100
AcDbEntity
  8
0
100
AcDbCircle
 62
7
  6
CONTINUOUS
 10
365.9865508212
 20
-26.2445357168
 40
350.59370287
100
AcDbArc
 50
184.0398558553
 51
184.382057146
  0
ARC
  5
27A
100
AcDbEntity
  8
0
100
AcDbCircle
 62
7
  6
CONTINUOUS
 10
368.0021320806
 20
-27.2179002124
 40
350.3906499842
100
AcDbArc
 50
184.042179658
 51
184.3845740914
  0
ARC
  5
27B
100
AcDbEntity
  8
0
100
AcDbCircle
 62
7
  6
CONTINUOUS
 10
365.1816980383
 20
-26.1874235565
 40
350.3041142251
100
AcDbArc
 50
184.0369953869
 51
184.3794871774
  0
ARC
  5
27C
100
AcDbEntity
  8
0
100
AcDbCircle
 62
7
  6
CONTINUOUS
 10
365.8676796286
 20
-26.5188455827
 40
350.2397467708
100
AcDbArc
 50
184.03780881
 51
184.3803613186
  0
ARC
  5
27D
100
AcDbEntity
  8
0
100
AcDbCircle
 62
7
  6
CONTINUOUS
 10
366.1082655679
 20
-26.6926284949
 40
350.1040879135
100
AcDbArc
 50
184.1548295529
 51
184.3807122828
  0
ARC
  5
27E
100
AcDbEntity
  8
0
100
AcDbCircle
 62
7
  6
CONTINUOUS
 10
369.4290958027
 20
-28.2366021624
 40
349.8547036413
100
AcDbArc
 50
184.0419380453
 51
184.3848568104
  0
ARC
  5
27F
100
AcDbEntity
  8
0
100
AcDbCircle
 62
7
  6
CONTINUOUS
 10
366.7463725164
 20
-27.195467148
 40
349.6518429481
100
AcDbArc
 50
184.1560115806
 51
184.3821849944
  0
ARC
  5
280
100
AcDbEntity
  8
0
100
AcDbCircle
 62
7
  6
CONTINUOUS
 10
369.1496277329
 20
-28.4647574443
 40
349.1911322359
100
AcDbArc
 50
184.249750439
 51
184.3824904164
  0
ARC
  5
281
100
AcDbEntity
  8
0
100
AcDbCircle
 62
7
  6
CONTINUOUS
 10
324.2685344563
 20
-116.7426363514
 40
313.3159791012
100
AcDbArc
 50
168.0259495461
 51
168.2514164973
  0
ARC
  5
282
100
AcDbEntity
  8
0
100
AcDbCircle
 62
7
  6
CONTINUOUS
 10
322.1894489147
 20
-128.7758136865
 40
312.4756677599
100
AcDbArc
 50
165.8450607664
 51
166.1898682324
  0
ARC
  5
283
100
AcDbEntity
  8
0
100
AcDbCircle
 62
7
  6
CONTINUOUS
 10
323.7059366366
 20
-116.8102342507
 40
312.3760649311
100
AcDbArc
 50
168.1259839231
 51
168.3546542305
  0
ARC
  5
284
100
AcDbEntity
  8
0
100
AcDbCircle
 62
7
  6
CONTINUOUS
 10
322.8677948342
 20
-116.5257054287
 40
311.372722848
100
AcDbArc
 50
168.2254025103
 51
168.356691733
  0
ARC
  5
285
100
AcDbEntity
  8
0
100
AcDbCircle
 62
7
  6
CONTINUOUS
 10
317.0737673771
 20
-125.7151522823
 40
310.7572808276
100
AcDbArc
 50
166.0383884924
 51
166.3841011879
  0
ARC
  5
286
100
AcDbEntity
  8
0
100
AcDbCircle
 62
7
  6
CONTINUOUS
 10
316.5442103563
 20
-125.3979594101
 40
310.5701993952
100
AcDbArc
 50
166.0584629534
 51
166.2967688395
  0
ARC
  5
287
100
AcDbEntity
  8
0
100
AcDbCircle
 62
7
  6
CONTINUOUS
 10
317.0291659586
 20
-125.5886299055
 40
310.5626601937
100
AcDbArc
 50
166.0400017099
 51
166.3859222457
  0
ARC
  5
288
100
AcDbEntity
  8
0
100
AcDbCircle
 62
253
  6
CONTINUOUS
 10
-2.5854403056
 20
-16.3892168725
 40
3.5928349998
100
AcDbArc
 50
61.5035322703
 51
63.425967767
  0
ARC
  5
289
100
AcDbEntity
  8
0
100
AcDbCircle
 62
7
  6
CONTINUOUS
 10
-2.3269184212
 20
-16.137476764
 40
3.1601266513
100
AcDbArc
 50
63.4255374798
 51
65.5404231148
  0
ARC
  5
28A
100
AcDbEntity
  8
0
100
AcDbCircle
 62
7
  6
CONTINUOUS
 10
-19.0410462756
 20
-8.6714091042
 40
2.79851586
100
AcDbArc
 50
0.0434878788
 51
3.5265499777
  0
ARC
  5
28B
100
AcDbEntity
  8
0
100
AcDbCircle
 62
7
  6
CONTINUOUS
 10
0.4857387388
 20
-16.2752972204
 40
0.7233169926
100
AcDbArc
 50
228.6278439571
 51
233.2242008854
  0
SPLINE
  5
28C
100
AcDbEntity
  8
0
100
AcDbSpline
 62
7
  6
CONTINUOUS
 70
0
 71
3
 72
50
 73
46
 74
44
 42
0.0000001
 43
0.0000001
 44
0.0000000001
 12
0.5982097802
 22
0.0263364874
 32
0.0
 13
0.6565731519
 23
-0.4454997091
 33
0.0
 40
0.0
 40
0.0
 40
0.0
 40
0.0
 40
0.0625
 40
0.09375
 40
0.125
 40
0.140625
 40
0.15625
 40
0.1640625
 40
0.171875
 40
0.1875
 40
0.21875
 40
0.25
 40
0.28125
 40
0.3125
 40
0.328125
 40
0.3359375
 40
0.34375
 40
0.359375
 40
0.375
 40
0.4375
 40
0.46875
 40
0.484375
 40
0.4921875
 40
0.5
 40
0.5078125
 40
0.515625
 40
0.53125
 40
0.5625
 40
0.625
 40
0.640625
 40
0.65625
 40
0.6640625
 40
0.671875
 40
0.6875
 40
0.71875
 40
0.75
 40
0.78125
 40
0.8125
 40
0.828125
 40
0.8359375
 40
0.84375
 40
0.859375
 40
0.875
 40
0.9375
 40
1.0
 40
1.0
 40
1.0
 40
1.0
 10
33.1750231527
 20
-16.0372437829
 30
0.0
 10
33.1874858564
 20
-16.0366951061
 30
0.0
 10
33.2061806574
 20
-16.035874873
 30
0.0
 10
33.2311040772
 20
-16.0347701002
 30
0.0
 10
33.2466874262
 20
-16.0341028022
 30
0.0
 10
33.2591399429
 20
-16.0335161019
 30
0.0
 10
33.2669550662
 20
-16.0332699764
 30
0.0
 10
33.2731331847
 20
-16.0327969424
 30
0.0
 10
33.2795813831
 20
-16.0333319928
 30
0.0
 10
33.2909912544
 20
-16.0347369186
 30
0.0
 10
33.307225134
 20
-16.0364973448
 30
0.0
 10
33.3267353726
 20
-16.0387225299
 30
0.0
 10
33.346232777
 20
-16.0408915974
 30
0.0
 10
33.3624987423
 20
-16.0427923177
 30
0.0
 10
33.3738524636
 20
-16.043951729
 30
0.0
 10
33.3803905019
 20
-16.0448796026
 30
0.0
 10
33.3871174618
 20
-16.0468063655
 30
0.0
 10
33.3954615602
 20
-16.0488731691
 30
0.0
 10
33.4155408062
 20
-16.0541166698
 30
0.0
 10
33.4389464248
 20
-16.0601191464
 30
0.0
 10
33.4623658151
 20
-16.06621867
 30
0.0
 10
33.4740669536
 20
-16.0691918259
 30
0.0
 10
33.4807660196
 20
-16.0710082327
 30
0.0
 10
33.4857546606
 20
-16.0720400434
 30
0.0
 10
33.4908795852
 20
-16.0743351015
 30
0.0
 10
33.4976652706
 20
-16.0769545153
 30
0.0
 10
33.5095624749
 20
-16.0817440917
 30
0.0
 10
33.5333394506
 20
-16.0911695031
 30
0.0
 10
33.557132004
 20
-16.1006949534
 30
0.0
 10
33.5775046925
 20
-16.1087550712
 30
0.0
 10
33.586020776
 20
-16.1122400724
 30
0.0
 10
33.5927698237
 20
-16.1147346438
 30
0.0
 10
33.5997521772
 20
-16.1183016386
 30
0.0
 10
33.6120796672
 20
-16.1250423871
 30
0.0
 10
33.629634
 20
-16.1344099848
 30
0.0
 10
33.6507220561
 20
-16.1457694624
 30
0.0
 10
33.6718088725
 20
-16.1570747672
 30
0.0
 10
33.6893663047
 20
-16.166577797
 30
0.0
 10
33.7016883707
 20
-16.1730815393
 30
0.0
 10
33.7086794027
 20
-16.177027744
 30
0.0
 10
33.7154814711
 20
-16.1818387811
 30
0.0
 10
33.7240486465
 20
-16.1875569678
 30
0.0
 10
33.7445566948
 20
-16.2015239724
 30
0.0
 10
33.77534128
 20
-16.2223714453
 30
0.0
 10
33.8026962076
 20
-16.2409444001
 30
0.0
 10
33.816374815
 20
-16.2502256441
 30
0.0
 11
33.1750231527
 21
-16.0372437829
 31
0.0
 11
33.2124112639
 21
-16.0355977524
 31
0.0
 11
33.2311053196
 21
-16.0347747372
 31
0.0
 11
33.2497993752
 21
-16.033951722
 31
0.0
 11
33.259146403
 21
-16.0335402144
 31
0.0
 11
33.2684934308
 21
-16.0331287067
 31
0.0
 11
33.2731669447
 21
-16.0329229529
 31
0.0
 11
33.2779753109
 21
-16.0332205439
 31
0.0
 11
33.2877268954
 21
-16.0343190705
 31
0.0
 11
33.3072300645
 21
-16.0365161237
 31
0.0
 11
33.3267332336
 21
-16.038713177
 31
0.0
 11
33.3462364027
 21
-16.0409102302
 31
0.0
 11
33.3657395717
 21
-16.0431072835
 31
0.0
 11
33.3754911563
 21
-16.0442058101
 31
0.0
 11
33.3804141171
 21
-16.0450044638
 31
0.0
 11
33.3854314151
 21
-16.0463018981
 31
0.0
 11
33.395466011
 21
-16.0488967668
 31
0.0
 11
33.405500607
 21
-16.0514916354
 31
0.0
 11
33.4456389907
 21
-16.06187111
 31
0.0
 11
33.4657081826
 21
-16.0670608473
 31
0.0
 11
33.4757427786
 21
-16.069655716
 31
0.0
 11
33.4807600765
 21
-16.0709531503
 31
0.0
 11
33.4857773745
 21
-16.0722505846
 31
0.0
 11
33.4908736418
 21
-16.0742800185
 31
0.0
 11
33.495969909
 21
-16.0763094524
 31
0.0
 11
33.5061624435
 21
-16.0803683203
 31
0.0
 11
33.5265475126
 21
-16.0884860559
 31
0.0
 11
33.5673176506
 21
-16.1047215272
 31
0.0
 11
33.5775101852
 21
-16.108780395
 31
0.0
 11
33.5877027197
 21
-16.1128392628
 31
0.0
 11
33.5927989869
 21
-16.1148686967
 31
0.0
 11
33.5980117494
 21
-16.1174336284
 31
0.0
 11
33.6085537694
 21
-16.1230989894
 31
0.0
 11
33.6296378094
 21
-16.1344297115
 31
0.0
 11
33.6507218495
 21
-16.1457604336
 31
0.0
 11
33.6718058896
 21
-16.1570911557
 31
0.0
 11
33.6928899296
 21
-16.1684218778
 31
0.0
 11
33.7034319496
 21
-16.1740872389
 31
0.0
 11
33.7086557822
 21
-16.1771358481
 31
0.0
 11
33.71378526
 21
-16.1806163145
 31
0.0
 11
33.7240442155
 21
-16.1875772475
 31
0.0
 11
33.734303171
 21
-16.1945381804
 31
0.0
 11
33.775338993
 21
-16.2223819123
 31
0.0
 11
33.816374815
 21
-16.2502256441
 31
0.0
  0
LINE
  5
28D
100
AcDbEntity
  8
0
100
AcDbLine
 62
7
  6
CONTINUOUS
 10
33.8163748294
 20
-16.2502256549
 11
33.8265993741
 21
-16.2579638679
  0
SPLINE
  5
28E
100
AcDbEntity
  8
0
100
AcDbSpline
 62
7
  6
CONTINUOUS
 70
0
 71
3
 72
73
 73
69
 74
67
 42
0.0000001
 43
0.0000001
 44
0.0000000001
 12
1.1833925897
 22
-1.069607721
 32
0.0
 13
0.2216890711
 23
-1.6506028106
 33
0.0
 40
0.0
 40
0.0
 40
0.0
 40
0.0
 40
0.0625
 40
0.09375
 40
0.109375
 40
0.125
 40
0.140625
 40
0.15625
 40
0.16015625
 40
0.1640625
 40
0.16796875
 40
0.171875
 40
0.1796875
 40
0.1875
 40
0.203125
 40
0.21875
 40
0.25
 40
0.28125
 40
0.296875
 40
0.3125
 40
0.3203125
 40
0.328125
 40
0.33203125
 40
0.3359375
 40
0.34375
 40
0.359375
 40
0.375
 40
0.390625
 40
0.40625
 40
0.4375
 40
0.453125
 40
0.46875
 40
0.484375
 40
0.4921875
 40
0.49609375
 40
0.5
 40
0.50390625
 40
0.5078125
 40
0.515625
 40
0.53125
 40
0.546875
 40
0.5625
 40
0.59375
 40
0.609375
 40
0.625
 40
0.640625
 40
0.65625
 40
0.6640625
 40
0.66796875
 40
0.671875
 40
0.6796875
 40
0.6875
 40
0.703125
 40
0.71875
 40
0.75
 40
0.78125
 40
0.796875
 40
0.8125
 40
0.8203125
 40
0.828125
 40
0.83203125
 40
0.8359375
 40
0.84375
 40
0.859375
 40
0.875
 40
0.90625
 40
0.9375
 40
1.0
 40
1.0
 40
1.0
 40
1.0
 10
33.8265993738
 20
-16.2579638677
 30
0.0
 10
33.8512533861
 20
-16.2802473619
 30
0.0
 10
33.8882343433
 20
-16.3136727774
 30
0.0
 10
33.9313790076
 20
-16.3526684857
 30
0.0
 10
33.9560327955
 20
-16.3749526187
 30
0.0
 10
33.9745239932
 20
-16.3916632794
 30
0.0
 10
33.9930119166
 20
-16.4083832608
 30
0.0
 10
34.0068870397
 20
-16.4208971138
 30
0.0
 10
34.016122844
 20
-16.4292803249
 30
0.0
 10
34.0207662414
 20
-16.4333993567
 30
0.0
 10
34.0253105136
 20
-16.4378005551
 30
0.0
 10
34.0308978873
 20
-16.44501142
 30
0.0
 10
34.0380435991
 20
-16.4535652967
 30
0.0
 10
34.049386484
 20
-16.4675084075
 30
0.0
 10
34.0635960169
 20
-16.4848493027
 30
0.0
 10
34.086313846
 20
-16.5126440758
 30
0.0
 10
34.1147181013
 20
-16.5473694601
 30
0.0
 10
34.1431162605
 20
-16.582105497
 30
0.0
 10
34.1658438434
 20
-16.6098832259
 30
0.0
 10
34.180028992
 20
-16.6272667315
 30
0.0
 10
34.1914218646
 20
-16.6411224911
 30
0.0
 10
34.1984403212
 20
-16.6498987406
 30
0.0
 10
34.204288911
 20
-16.656653142
 30
0.0
 10
34.2092838736
 20
-16.6643808166
 30
0.0
 10
34.21762845
 20
-16.6783564443
 30
0.0
 10
34.2297566586
 20
-16.6980851763
 30
0.0
 10
34.2442215929
 20
-16.7218610234
 30
0.0
 10
34.258710375
 20
-16.7456097167
 30
0.0
 10
34.2780201176
 20
-16.7772843029
 30
0.0
 10
34.297333966
 20
-16.8089552257
 30
0.0
 10
34.316641972
 20
-16.8406298922
 30
0.0
 10
34.3311363978
 20
-16.8643783247
 30
0.0
 10
34.3431727826
 20
-16.8841923497
 30
0.0
 10
34.3516812173
 20
-16.8980157822
 30
0.0
 10
34.3564136448
 20
-16.9059873043
 30
0.0
 10
34.3603278666
 20
-16.9117619454
 30
0.0
 10
34.3628472512
 20
-16.9183163792
 30
0.0
 10
34.3666929656
 20
-16.9267836239
 30
0.0
 10
34.3731962789
 20
-16.9417280322
 30
0.0
 10
34.3826052517
 20
-16.9630109297
 30
0.0
 10
34.3938452398
 20
-16.9885787722
 30
0.0
 10
34.4088498597
 20
-17.0226592954
 30
0.0
 10
34.423848223
 20
-17.056742688
 30
0.0
 10
34.4388518792
 20
-17.0908249225
 30
0.0
 10
34.4500949992
 20
-17.1163872034
 30
0.0
 10
34.4613739614
 20
-17.1419476431
 30
0.0
 10
34.4706616412
 20
-17.1632536427
 30
0.0
 10
34.4773813923
 20
-17.1781568183
 30
0.0
 10
34.4808803292
 20
-17.1866901272
 30
0.0
 10
34.4830951671
 20
-17.195288253
 30
0.0
 10
34.4863033885
 20
-17.2060137171
 30
0.0
 10
34.4911908272
 20
-17.2231868623
 30
0.0
 10
34.4973842958
 20
-17.2446490467
 30
0.0
 10
34.5072465871
 20
-17.2789909176
 30
0.0
 10
34.5195922086
 20
-17.3219174259
 30
0.0
 10
34.531925874
 20
-17.3648442855
 30
0.0
 10
34.5418072952
 20
-17.3991855943
 30
0.0
 10
34.5479529393
 20
-17.420649184
 30
0.0
 10
34.5529384182
 20
-17.4378194485
 30
0.0
 10
34.5558970555
 20
-17.4485522459
 30
0.0
 10
34.5586242132
 20
-17.4571353186
 30
0.0
 10
34.5600362092
 20
-17.4657299469
 30
0.0
 10
34.5618962538
 20
-17.4807759145
 30
0.0
 10
34.564872223
 20
-17.5022673531
 30
0.0
 10
34.5694556305
 20
-17.5366552202
 30
0.0
 10
34.5752459126
 20
-17.5796395179
 30
0.0
 10
34.5844761055
 20
-17.6484146952
 30
0.0
 10
34.5914064584
 20
-17.6999960105
 30
0.0
 10
34.5960249807
 20
-17.734383569
 30
0.0
 11
33.8265993738
 21
-16.2579638677
 31
0.0
 11
33.9005614106
 21
-16.3248143503
 31
0.0
 11
33.9375424291
 21
-16.3582395916
 31
0.0
 11
33.9560329383
 21
-16.3749522122
 31
0.0
 11
33.9745234475
 21
-16.3916648328
 31
0.0
 11
33.9930139567
 21
-16.4083774535
 31
0.0
 11
34.0115044659
 21
-16.4250900741
 31
0.0
 11
34.0161270932
 21
-16.4292682293
 31
0.0
 11
34.0207497205
 21
-16.4334463844
 31
0.0
 11
34.0252515566
 21
-16.4379683801
 31
0.0
 11
34.0295118102
 21
-16.4431780568
 31
0.0
 11
34.0380323174
 21
-16.4535974102
 31
0.0
 11
34.0465528246
 21
-16.4640167636
 31
0.0
 11
34.063593839
 21
-16.4848554703
 31
0.0
 11
34.0806348533
 21
-16.5056941771
 31
0.0
 11
34.1147168821
 21
-16.5473715906
 31
0.0
 11
34.1487989109
 21
-16.5890490042
 31
0.0
 11
34.1658399252
 21
-16.6098877109
 31
0.0
 11
34.1828809396
 21
-16.6307264177
 31
0.0
 11
34.1914014468
 21
-16.6411457711
 31
0.0
 11
34.199921954
 21
-16.6515651245
 31
0.0
 11
34.2041822076
 21
-16.6567748011
 31
0.0
 11
34.2080162468
 21
-16.6624704312
 31
0.0
 11
34.215258111
 21
-16.6743476445
 31
0.0
 11
34.2297418392
 21
-16.6981020711
 31
0.0
 11
34.2442255675
 21
-16.7218564978
 31
0.0
 11
34.2587092958
 21
-16.7456109244
 31
0.0
 11
34.2731930241
 21
-16.769365351
 31
0.0
 11
34.3021604806
 21
-16.8168742043
 31
0.0
 11
34.3166442089
 21
-16.840628631
 31
0.0
 11
34.3311279372
 21
-16.8643830576
 31
0.0
 11
34.3456116654
 21
-16.8881374842
 31
0.0
 11
34.3528535296
 21
-16.9000146976
 31
0.0
 11
34.3564744616
 21
-16.9059533042
 31
0.0
 11
34.3600953937
 21
-16.9118919109
 31
0.0
 11
34.3629080681
 21
-16.9182823792
 31
0.0
 11
34.3657207424
 21
-16.9246728475
 31
0.0
 11
34.3713460911
 21
-16.9374537841
 31
0.0
 11
34.3825967885
 21
-16.9630156573
 31
0.0
 11
34.3938474859
 21
-16.9885775305
 31
0.0
 11
34.4050981833
 21
-17.0141394037
 31
0.0
 11
34.4275995781
 21
-17.0652631501
 31
0.0
 11
34.4388502755
 21
-17.0908250233
 31
0.0
 11
34.4501009729
 21
-17.1163868965
 31
0.0
 11
34.4613516703
 21
-17.1419487697
 31
0.0
 11
34.4726023677
 21
-17.167510643
 31
0.0
 11
34.4782277164
 21
-17.1802915796
 31
0.0
 11
34.4807198168
 21
-17.1866982293
 31
0.0
 11
34.4825707692
 21
-17.193137242
 31
0.0
 11
34.486272674
 21
-17.2060152674
 31
0.0
 11
34.4899745788
 21
-17.2188932929
 31
0.0
 11
34.4973783885
 21
-17.2446493437
 31
0.0
 11
34.5047821981
 21
-17.2704053945
 31
0.0
 11
34.5195898174
 21
-17.3219174962
 31
0.0
 11
34.5343974367
 21
-17.3734295978
 31
0.0
 11
34.5418012463
 21
-17.3991856487
 31
0.0
 11
34.549205056
 21
-17.4249416995
 31
0.0
 11
34.5529069608
 21
-17.4378197249
 31
0.0
 11
34.5566088656
 21
-17.4506977503
 31
0.0
 11
34.558459818
 21
-17.457136763
 31
0.0
 11
34.5596541175
 21
-17.4635815454
 31
0.0
 11
34.5613860633
 21
-17.4764768799
 31
0.0
 11
34.5648499551
 21
-17.5022675488
 31
0.0
 11
34.5683138468
 21
-17.5280582177
 31
0.0
 11
34.5752416303
 21
-17.5796395555
 31
0.0
 11
34.5821694137
 21
-17.6312208934
 31
0.0
 11
34.5960249807
 21
-17.734383569
 31
0.0
  0
SPLINE
  5
28F
100
AcDbEntity
  8
0
100
AcDbSpline
 62
7
  6
CONTINUOUS
 70
0
 71
3
 72
15
 73
11
 74
9
 42
0.0000001
 43
0.0000001
 44
0.0000000001
 12
0.003695127
 22
-0.0769077158
 32
0.0
 13
0.0005027683
 23
-0.0942881549
 33
0.0
 40
0.0
 40
0.0
 40
0.0
 40
0.0
 40
0.25
 40
0.5
 40
0.625
 40
0.75
 40
0.8125
 40
0.84375
 40
0.875
 40
1.0
 40
1.0
 40
1.0
 40
1.0
 10
34.5960249788
 20
-17.7343835333
 30
0.0
 10
34.5963329061
 20
-17.7407925096
 30
0.0
 10
34.5969337405
 20
-17.7536011281
 30
0.0
 10
34.5974923921
 20
-17.7695428576
 30
0.0
 10
34.5977814355
 20
-17.7821940307
 30
0.0
 10
34.5979175502
 20
-17.7901473979
 30
0.0
 10
34.5980002884
 20
-17.7955734629
 30
0.0
 10
34.598042256
 20
-17.7988834444
 30
0.0
 10
34.5980664032
 20
-17.8049906166
 30
0.0
 10
34.5980966312
 20
-17.8097824788
 30
0.0
 10
34.5981175799
 20
-17.8137111519
 30
0.0
 11
34.5960249788
 21
-17.7343835333
 31
0.0
 11
34.5968952622
 21
-17.7535873194
 31
0.0
 11
34.5975514965
 21
-17.7726971333
 31
0.0
 11
34.597772528
 21
-17.7822033075
 31
0.0
 11
34.5979399952
 21
-17.7916842458
 31
0.0
 11
34.5980103377
 21
-17.796418406
 31
0.0
 11
34.5980390223
 21
-17.7989786277
 31
0.0
 11
34.5980547338
 21
-17.8019251326
 31
0.0
 11
34.5981175799
 21
-17.8137111519
 31
0.0
  0
SPLINE
  5
290
100
AcDbEntity
  8
0
100
AcDbSpline
 62
7
  6
CONTINUOUS
 70
0
 71
3
 72
65
 73
61
 74
59
 42
0.0000001
 43
0.0000001
 44
0.0000000001
 12
-0.065922132
 22
-1.0408171966
 32
0.0
 13
-0.6869237789
 23
-0.406114765
 33
0.0
 40
0.0
 40
0.0
 40
0.0
 40
0.0
 40
0.0625
 40
0.09375
 40
0.125
 40
0.140625
 40
0.15625
 40
0.1640625
 40
0.16796875
 40
0.171875
 40
0.1796875
 40
0.1875
 40
0.21875
 40
0.25
 40
0.28125
 40
0.3125
 40
0.3203125
 40
0.328125
 40
0.33203125
 40
0.3359375
 40
0.34375
 40
0.359375
 40
0.375
 40
0.40625
 40
0.4375
 40
0.453125
 40
0.46875
 40
0.484375
 40
0.4921875
 40
0.49609375
 40
0.5
 40
0.50390625
 40
0.5078125
 40
0.515625
 40
0.53125
 40
0.546875
 40
0.5625
 40
0.59375
 40
0.625
 40
0.640625
 40
0.65625
 40
0.6640625
 40
0.66796875
 40
0.671875
 40
0.6796875
 40
0.6875
 40
0.71875
 40
0.75
 40
0.78125
 40
0.8125
 40
0.8203125
 40
0.828125
 40
0.83203125
 40
0.8359375
 40
0.84375
 40
0.859375
 40
0.875
 40
0.90625
 40
0.9375
 40
1.0
 40
1.0
 40
1.0
 40
1.0
 10
34.5981175799
 20
-17.8137111558
 30
0.0
 10
34.5967442021
 20
-17.8353948474
 30
0.0
 10
34.594682745
 20
-17.8679196874
 30
0.0
 10
34.5919396974
 20
-17.9112889304
 30
0.0
 10
34.5902137054
 20
-17.9383888954
 30
0.0
 10
34.5888593309
 20
-17.9600821185
 30
0.0
 10
34.5879525927
 20
-17.9736101611
 30
0.0
 10
34.5874386304
 20
-17.983140358
 30
0.0
 10
34.5869560063
 20
-17.9884914221
 30
0.0
 10
34.5857617731
 20
-17.9934855617
 30
0.0
 10
34.5845122177
 20
-17.999850239
 30
0.0
 10
34.5813130455
 20
-18.0150250112
 30
0.0
 10
34.5765990426
 20
-18.0378299365
 30
0.0
 10
34.5702621551
 20
-18.0682093191
 30
0.0
 10
34.5639506574
 20
-18.0986062034
 30
0.0
 10
34.5591795273
 20
-18.1213717498
 30
0.0
 10
34.5560533509
 20
-18.1365968396
 30
0.0
 10
34.5546702344
 20
-18.1428694502
 30
0.0
 10
34.5537515867
 20
-18.1480535571
 30
0.0
 10
34.5521459912
 20
-18.1526305317
 30
0.0
 10
34.5490170283
 20
-18.1603581505
 30
0.0
 10
34.5447136039
 20
-18.1715447787
 30
0.0
 10
34.5377350911
 20
-18.1893611707
 30
0.0
 10
34.5290436127
 20
-18.2116595681
 30
0.0
 10
34.5203417763
 20
-18.2339491025
 30
0.0
 10
34.5133798363
 20
-18.2517796752
 30
0.0
 10
34.5081660088
 20
-18.2651610871
 30
0.0
 10
34.5037959237
 20
-18.2762844285
 30
0.0
 10
34.5007865078
 20
-18.2841255103
 30
0.0
 10
34.4989893067
 20
-18.2885206343
 30
0.0
 10
34.4978598266
 20
-18.2920578188
 30
0.0
 10
34.4958954311
 20
-18.2946743845
 30
0.0
 10
34.4935674648
 20
-18.2984842607
 30
0.0
 10
34.4893578373
 20
-18.3050019301
 30
0.0
 10
34.4834150062
 20
-18.3143910846
 30
0.0
 10
34.4762533215
 20
-18.3256246932
 30
0.0
 10
34.4667146405
 20
-18.3406140246
 30
0.0
 10
34.4547902675
 20
-18.3593502317
 30
0.0
 10
34.4428571916
 20
-18.3780742841
 30
0.0
 10
34.4333324354
 20
-18.3930830629
 30
0.0
 10
34.4273295528
 20
-18.4023957849
 30
0.0
 10
34.4232275981
 20
-18.4090505351
 30
0.0
 10
34.4207270601
 20
-18.4126407021
 30
0.0
 10
34.417636823
 20
-18.4154303078
 30
0.0
 10
34.4139755927
 20
-18.4191909564
 30
0.0
 10
34.4050227024
 20
-18.4279912393
 30
0.0
 10
34.3916636369
 20
-18.4412870726
 30
0.0
 10
34.3738086523
 20
-18.4589565502
 30
0.0
 10
34.3559753474
 20
-18.4766556891
 30
0.0
 10
34.3425675025
 20
-18.4898847846
 30
0.0
 10
34.3336769414
 20
-18.4987703436
 30
0.0
 10
34.3299016667
 20
-18.5023749617
 30
0.0
 10
34.3270467449
 20
-18.5054865156
 30
0.0
 10
34.323587331
 20
-18.5077647901
 30
0.0
 10
34.317252496
 20
-18.5113646101
 30
0.0
 10
34.3083492709
 20
-18.5167092113
 30
0.0
 10
34.2940222161
 20
-18.5251476832
 30
0.0
 10
34.2761414506
 20
-18.5357344434
 30
0.0
 10
34.2475164766
 20
-18.55265155
 30
0.0
 10
34.2260512897
 20
-18.5653442646
 30
0.0
 10
34.2117403777
 20
-18.5738049889
 30
0.0
 11
34.5981175799
 21
-17.8137111558
 31
0.0
 11
34.5939974466
 21
-17.8787622306
 31
0.0
 11
34.59193738
 21
-17.911287768
 31
0.0
 11
34.5898773134
 21
-17.9438133054
 31
0.0
 11
34.58884728
 21
-17.9600760741
 31
0.0
 11
34.5878172467
 21
-17.9763388428
 31
0.0
 11
34.5873022301
 21
-17.9844702271
 31
0.0
 11
34.5868670552
 21
-17.9884468065
 31
0.0
 11
34.5860765472
 21
-17.9922451603
 31
0.0
 11
34.5844955311
 21
-17.9998418679
 31
0.0
 11
34.5829145151
 21
-18.0074385755
 31
0.0
 11
34.5765904509
 21
-18.0378254057
 31
0.0
 11
34.5702663867
 21
-18.068212236
 31
0.0
 11
34.5639423225
 21
-18.0985990663
 31
0.0
 11
34.5576182583
 21
-18.1289858966
 31
0.0
 11
34.5560372423
 21
-18.1365826042
 31
0.0
 11
34.5544562263
 21
-18.1441793118
 31
0.0
 11
34.5536657182
 21
-18.1479776656
 31
0.0
 11
34.5525321915
 21
-18.1514728553
 31
0.0
 11
34.5499221192
 21
-18.1581600709
 31
0.0
 11
34.5447019747
 21
-18.1715345021
 31
0.0
 11
34.5394818302
 21
-18.1849089332
 31
0.0
 11
34.5290415411
 21
-18.2116577955
 31
0.0
 11
34.5186012521
 21
-18.2384066578
 31
0.0
 11
34.5133811076
 21
-18.2517810889
 31
0.0
 11
34.5081609631
 21
-18.26515552
 31
0.0
 11
34.5029408185
 21
-18.2785299512
 31
0.0
 11
34.5003307463
 21
-18.2852171668
 31
0.0
 11
34.4990257101
 21
-18.2885607745
 31
0.0
 11
34.497720674
 21
-18.2919043823
 31
0.0
 11
34.4959318346
 21
-18.2947145248
 31
0.0
 11
34.4941429951
 21
-18.2975246672
 31
0.0
 11
34.4905653162
 21
-18.3031449521
 31
0.0
 11
34.4834099583
 21
-18.3143855218
 31
0.0
 11
34.4762546005
 21
-18.3256260915
 31
0.0
 11
34.4690992426
 21
-18.3368666613
 31
0.0
 11
34.4547885269
 21
-18.3593478007
 31
0.0
 11
34.4404778112
 21
-18.3818289402
 31
0.0
 11
34.4333224534
 21
-18.3930695099
 31
0.0
 11
34.4261670955
 21
-18.4043100797
 31
0.0
 11
34.4225894166
 21
-18.4099303645
 31
0.0
 11
34.4206533477
 21
-18.4125406319
 31
0.0
 11
34.41842282
 21
-18.4147511491
 31
0.0
 11
34.4139617646
 21
-18.4191721836
 31
0.0
 11
34.4095007091
 21
-18.4235932181
 31
0.0
 11
34.3916564873
 21
-18.4412773559
 31
0.0
 11
34.3738122656
 21
-18.4589614938
 31
0.0
 11
34.3559680438
 21
-18.4766456316
 31
0.0
 11
34.338123822
 21
-18.4943297695
 31
0.0
 11
34.3336627666
 21
-18.498750804
 31
0.0
 11
34.3292017111
 21
-18.5031718384
 31
0.0
 11
34.3269711834
 21
-18.5053823557
 31
0.0
 11
34.3244388101
 21
-18.5071767853
 31
0.0
 11
34.3190722181
 21
-18.5103495569
 31
0.0
 11
34.3083390341
 21
-18.5166951001
 31
0.0
 11
34.29760585
 21
-18.5230406433
 31
0.0
 11
34.2761394819
 21
-18.5357317297
 31
0.0
 11
34.2546731138
 21
-18.5484228161
 31
0.0
 11
34.2117403777
 21
-18.5738049889
 31
0.0
  0
SPLINE
  5
291
100
AcDbEntity
  8
0
100
AcDbSpline
 62
7
  6
CONTINUOUS
 70
0
 71
3
 72
11
 73
7
 74
5
 42
0.0000001
 43
0.0000001
 44
0.0000000001
 12
-2.6061301535
 22
1.9545976151
 32
0.0
 13
0.0
 23
3.2576626918
 33
0.0
 40
0.0
 40
0.0
 40
0.0
 40
0.0
 40
0.24092886
 40
0.5
 40
0.75907114
 40
1.0
 40
1.0
 40
1.0
 40
1.0
 10
-18.3638515653
 20
-9.729945184
 30
0.0
 10
-18.5731488877
 20
-9.5729721922
 30
0.0
 10
-18.9609761237
 20
-9.1836488988
 30
0.0
 10
-19.4052345227
 20
-8.4828697097
 30
0.0
 10
-19.6993028346
 20
-7.7069954771
 30
0.0
 10
-19.7780651277
 20
-7.1631397122
 30
0.0
 10
-19.7780651277
 20
-6.9015180592
 30
0.0
 11
-18.3638515653
 21
-9.729945184
 31
0.0
 11
-18.9248011122
 21
-9.1809929006
 31
0.0
 11
-19.3796045685
 21
-8.4700547326
 31
0.0
 11
-19.6754730291
 21
-7.6796490667
 31
0.0
 11
-19.7780651277
 21
-6.9015180592
 31
0.0
  0
SPLINE
  5
292
100
AcDbEntity
  8
0
100
AcDbSpline
 62
7
  6
CONTINUOUS
 70
0
 71
3
 72
12
 73
8
 74
6
 42
0.0000001
 43
0.0000001
 44
0.0000000001
 12
0.0
 22
1.5756463993
 32
0.0
 13
1.4093618846
 23
0.7045286749
 33
0.0
 40
0.0
 40
0.0
 40
0.0
 40
0.0
 40
0.2895063935
 40
0.5491143116
 40
0.7821792366
 40
0.8921632299
 40
1.0
 40
1.0
 40
1.0
 40
1.0
 10
-19.7780651277
 20
-6.9015180592
 30
0.0
 10
-19.7780651277
 20
-6.7494648237
 30
0.0
 10
-19.753444624
 20
-6.4599257811
 30
0.0
 10
-19.6300413669
 20
-6.0641377839
 30
0.0
 10
-19.4536191046
 20
-5.794530166
 30
0.0
 10
-19.2768555285
 20
-5.6353386779
 30
0.0
 10
-19.1789912432
 20
-5.574660787
 30
0.0
 10
-19.1283308987
 20
-5.549336088
 30
0.0
 11
-19.7780651277
 21
-6.9015180592
 31
0.0
 11
-19.7348667569
 21
-6.4474084044
 31
0.0
 11
-19.607389882
 21
-6.0587288718
 31
0.0
 11
-19.4018655804
 21
-5.7543999393
 31
0.0
 11
-19.2728343124
 21
-5.6387176375
 31
0.0
 11
-19.1283308987
 21
-5.549336088
 31
0.0
  0
SPLINE
  5
293
100
AcDbEntity
  8
0
100
AcDbSpline
 62
7
  6
CONTINUOUS
 70
0
 71
3
 72
10
 73
6
 74
4
 42
0.0000001
 43
0.0000001
 44
0.0000000001
 12
-0.906120067
 22
4.1672638697
 32
0.0
 13
0.7498107537
 23
4.1982050413
 33
0.0
 40
0.0
 40
0.0
 40
0.0
 40
0.0
 40
0.4758114708
 40
0.7325725893
 40
1.0
 40
1.0
 40
1.0
 40
1.0
 10
-17.6567447841
 20
-10.0834985746
 30
0.0
 10
-17.8004588914
 20
-9.4225545909
 30
0.0
 10
-17.8950052998
 20
-8.3750291304
 30
0.0
 10
-17.825273832
 20
-6.9545605661
 30
0.0
 10
-17.7235847669
 20
-6.2150962554
 30
0.0
 10
-17.6567447841
 20
-5.8408578875
 30
0.0
 11
-17.6567447841
 21
-10.0834985746
 31
0.0
 11
-17.8618407203
 21
-8.0647261989
 31
0.0
 11
-17.8103894149
 21
-6.9709423009
 31
0.0
 11
-17.6567447841
 21
-5.8408578875
 31
0.0
  0
SPLINE
  5
294
100
AcDbEntity
  8
0
100
AcDbSpline
 62
7
  6
CONTINUOUS
 70
0
 71
3
 72
10
 73
6
 74
4
 42
0.0000001
 43
0.0000001
 44
0.0000000001
 12
-0.6987680228
 22
-0.3493085165
 32
0.0
 13
-0.757887584
 23
0.189471896
 33
0.0
 40
0.0
 40
0.0
 40
0.0
 40
0.0
 40
0.2373844883
 40
0.4803523072
 40
1.0
 40
1.0
 40
1.0
 40
1.0
 10
-16.8922654508
 20
-10.0214669834
 30
0.0
 10
-16.9475576806
 20
-10.0491071245
 30
0.0
 10
-17.0653760023
 20
-10.0939844002
 30
0.0
 10
-17.3232487382
 20
-10.138237995
 30
0.0
 10
-17.525466606
 20
-10.1163181191
 30
0.0
 10
-17.6567447841
 20
-10.0834985746
 30
0.0
 11
-16.8922654508
 21
-10.0214669834
 31
0.0
 11
-17.0654844476
 21
-10.0876942579
 31
0.0
 11
-17.2524649205
 21
-10.1203433153
 31
0.0
 11
-17.6567447841
 21
-10.0834985746
 31
0.0
  0
SPLINE
  5
295
100
AcDbEntity
  8
0
100
AcDbSpline
 62
7
  6
CONTINUOUS
 70
0
 71
3
 72
10
 73
6
 74
4
 42
0.0000001
 43
0.0000001
 44
0.0000000001
 12
-0.7498107537
 22
-4.1982050413
 32
0.0
 13
0.906120067
 23
-4.1672638697
 33
0.0
 40
0.0
 40
0.0
 40
0.0
 40
0.0
 40
0.2674274112
 40
0.5241885293
 40
1.0
 40
1.0
 40
1.0
 40
1.0
 10
-18.3638515653
 20
-5.4873044969
 30
0.0
 10
-18.4306915482
 20
-5.8615428655
 30
0.0
 10
-18.5323806133
 20
-6.6010071764
 30
0.0
 10
-18.602112081
 20
-8.0214757407
 30
0.0
 10
-18.5075656726
 20
-9.0690012004
 30
0.0
 10
-18.3638515653
 20
-9.729945184
 30
0.0
 11
-18.3638515653
 21
-5.4873044969
 31
0.0
 11
-18.5174961963
 21
-6.6173889124
 31
0.0
 11
-18.5689475015
 21
-7.7111728087
 31
0.0
 11
-18.3638515653
 21
-9.729945184
 31
0.0
  0
SPLINE
  5
296
100
AcDbEntity
  8
0
100
AcDbSpline
 62
7
  6
CONTINUOUS
 70
0
 71
3
 72
9
 73
5
 74
3
 42
0.0000001
 43
0.0000001
 44
0.0000000001
 12
0.9572586291
 22
-0.7179439718
 32
0.0
 13
0.6467733139
 23
-1.00671342
 33
0.0
 40
0.0
 40
0.0
 40
0.0
 40
0.0
 40
0.483123002
 40
1.0
 40
1.0
 40
1.0
 40
1.0
 10
-17.6567447841
 20
-5.8408578875
 30
0.0
 10
-17.5025868966
 20
-5.9564763031
 30
0.0
 10
-17.2089011255
 20
-6.2304318855
 30
0.0
 10
-16.9670229589
 20
-6.5499569319
 30
0.0
 10
-16.8555888759
 20
-6.7234059354
 30
0.0
 11
-17.6567447841
 21
-5.8408578875
 31
0.0
 11
-17.2309064946
 21
-6.2318210598
 31
0.0
 11
-16.8555888759
 21
-6.7234059354
 31
0.0
  0
SPLINE
  5
297
100
AcDbEntity
  8
0
100
AcDbSpline
 62
7
  6
CONTINUOUS
 70
0
 71
3
 72
12
 73
8
 74
6
 42
0.0000001
 43
0.0000001
 44
0.0000000001
 12
0.0
 22
-1.5756463993
 32
0.0
 13
-1.4093618846
 23
-0.7045286749
 33
0.0
 40
0.0
 40
0.0
 40
0.0
 40
0.0
 40
0.2895063935
 40
0.5491143116
 40
0.7821792366
 40
0.8921632299
 40
1.0
 40
1.0
 40
1.0
 40
1.0
 10
-16.2425312218
 20
-8.6692850122
 30
0.0
 10
-16.2425312218
 20
-8.8213382477
 30
0.0
 10
-16.2671517255
 20
-9.1108772903
 30
0.0
 10
-16.3905549826
 20
-9.5066652876
 30
0.0
 10
-16.5669772449
 20
-9.7762729055
 30
0.0
 10
-16.7437408209
 20
-9.9354643935
 30
0.0
 10
-16.8416051063
 20
-9.9961422845
 30
0.0
 10
-16.8922654508
 20
-10.0214669834
 30
0.0
 11
-16.2425312218
 21
-8.6692850122
 31
0.0
 11
-16.2857295926
 21
-9.1233946671
 31
0.0
 11
-16.4132064674
 21
-9.5120741996
 31
0.0
 11
-16.618730769
 21
-9.8164031322
 31
0.0
 11
-16.7477620371
 21
-9.9320854339
 31
0.0
 11
-16.8922654508
 21
-10.0214669834
 31
0.0
  0
SPLINE
  5
298
100
AcDbEntity
  8
0
100
AcDbSpline
 62
7
  6
CONTINUOUS
 70
0
 71
3
 72
10
 73
6
 74
4
 42
0.0000001
 43
0.0000001
 44
0.0000000001
 12
0.6987680228
 22
0.3493085165
 32
0.0
 13
0.757887584
 23
-0.189471896
 33
0.0
 40
0.0
 40
0.0
 40
0.0
 40
0.0
 40
0.2373844883
 40
0.4803523072
 40
1.0
 40
1.0
 40
1.0
 40
1.0
 10
-19.1283308987
 20
-5.549336088
 30
0.0
 10
-19.0730386688
 20
-5.5216959469
 30
0.0
 10
-18.9552203472
 20
-5.4768186712
 30
0.0
 10
-18.6973476113
 20
-5.4325650765
 30
0.0
 10
-18.4951297435
 20
-5.4544849523
 30
0.0
 10
-18.3638515653
 20
-5.4873044969
 30
0.0
 11
-19.1283308987
 21
-5.549336088
 31
0.0
 11
-18.9551119018
 21
-5.4831088135
 31
0.0
 11
-18.768131429
 21
-5.4504597562
 31
0.0
 11
-18.3638515653
 21
-5.4873044969
 31
0.0
  0
SPLINE
  5
299
100
AcDbEntity
  8
0
100
AcDbSpline
 62
7
  6
CONTINUOUS
 70
0
 71
3
 72
11
 73
7
 74
5
 42
0.0000001
 43
0.0000001
 44
0.0000000001
 12
0.0
 22
1.8007877877
 32
0.0
 13
-1.4406429594
 23
1.0804557001
 33
0.0
 40
0.0
 40
0.0
 40
0.0
 40
0.0
 40
0.2409390136
 40
0.5000028159
 40
0.759073882
 40
1.0
 40
1.0
 40
1.0
 40
1.0
 10
34.5981175799
 20
-17.8137111558
 30
0.0
 10
34.5981175799
 20
-17.6690844781
 30
0.0
 10
34.5545769937
 20
-17.3684468286
 30
0.0
 10
34.3920110625
 20
-16.9395576833
 30
0.0
 10
34.1464359976
 20
-16.5521806031
 30
0.0
 10
33.9320417809
 20
-16.3369798804
 30
0.0
 10
33.816345609
 20
-16.2502098812
 30
0.0
 11
34.5981175799
 21
-17.8137111558
 31
0.0
 11
34.54140067
 21
-17.3835541201
 31
0.0
 11
34.3778470398
 21
-16.9466443771
 31
0.0
 11
34.1264351243
 21
-16.5536505263
 31
0.0
 11
33.816345609
 21
-16.2502098812
 31
0.0
  0
SPLINE
  5
29A
100
AcDbEntity
  8
0
100
AcDbSpline
 62
7
  6
CONTINUOUS
 70
0
 71
3
 72
11
 73
7
 74
5
 42
0.0000001
 43
0.0000001
 44
0.0000000001
 12
-2.6061301535
 22
1.9545976151
 32
0.0
 13
0.0
 23
3.2576626918
 33
0.0
 40
0.0
 40
0.0
 40
0.0
 40
0.0
 40
0.24092886
 40
0.5
 40
0.75907114
 40
1.0
 40
1.0
 40
1.0
 40
1.0
 10
16.991487494
 20
-27.4076147136
 30
0.0
 10
16.7821901717
 20
-27.2506417219
 30
0.0
 10
16.3943629356
 20
-26.8613184285
 30
0.0
 10
15.9501045367
 20
-26.1605392394
 30
0.0
 10
15.6560362248
 20
-25.3846650067
 30
0.0
 10
15.5772739316
 20
-24.8408092418
 30
0.0
 10
15.5772739316
 20
-24.5791875889
 30
0.0
 11
16.991487494
 21
-27.4076147136
 31
0.0
 11
16.4305379472
 21
-26.8586624303
 31
0.0
 11
15.9757344908
 21
-26.1477242623
 31
0.0
 11
15.6798660302
 21
-25.3573185964
 31
0.0
 11
15.5772739316
 21
-24.5791875889
 31
0.0
  0
SPLINE
  5
29B
100
AcDbEntity
  8
0
100
AcDbSpline
 62
7
  6
CONTINUOUS
 70
0
 71
3
 72
12
 73
8
 74
6
 42
0.0000001
 43
0.0000001
 44
0.0000000001
 12
0.0
 22
1.5756463993
 32
0.0
 13
1.4093618846
 23
0.7045286749
 33
0.0
 40
0.0
 40
0.0
 40
0.0
 40
0.0
 40
0.2895063935
 40
0.5491143116
 40
0.7821792366
 40
0.8921632299
 40
1.0
 40
1.0
 40
1.0
 40
1.0
 10
15.5772739316
 20
-24.5791875889
 30
0.0
 10
15.5772739316
 20
-24.4271343534
 30
0.0
 10
15.6018944353
 20
-24.1375953108
 30
0.0
 10
15.7252976925
 20
-23.7418073135
 30
0.0
 10
15.9017199548
 20
-23.4721996956
 30
0.0
 10
16.0784835308
 20
-23.3130082076
 30
0.0
 10
16.1763478161
 20
-23.2523303166
 30
0.0
 10
16.2270081607
 20
-23.2270056177
 30
0.0
 11
15.5772739316
 21
-24.5791875889
 31
0.0
 11
15.6204723024
 21
-24.125077934
 31
0.0
 11
15.7479491773
 21
-23.7363984015
 31
0.0
 11
15.9534734789
 21
-23.4320694689
 31
0.0
 11
16.082504747
 21
-23.3163871672
 31
0.0
 11
16.2270081607
 21
-23.2270056177
 31
0.0
  0
SPLINE
  5
29C
100
AcDbEntity
  8
0
100
AcDbSpline
 62
7
  6
CONTINUOUS
 70
0
 71
3
 72
10
 73
6
 74
4
 42
0.0000001
 43
0.0000001
 44
0.0000000001
 12
-0.906120067
 22
4.1672638697
 32
0.0
 13
0.7498107537
 23
4.1982050413
 33
0.0
 40
0.0
 40
0.0
 40
0.0
 40
0.0
 40
0.4758114708
 40
0.7325725893
 40
1.0
 40
1.0
 40
1.0
 40
1.0
 10
17.6985942752
 20
-27.7611681042
 30
0.0
 10
17.5548801679
 20
-27.1002241205
 30
0.0
 10
17.4603337595
 20
-26.0526986601
 30
0.0
 10
17.5300652273
 20
-24.6322300957
 30
0.0
 10
17.6317542924
 20
-23.8927657851
 30
0.0
 10
17.6985942752
 20
-23.5185274171
 30
0.0
 11
17.6985942752
 21
-27.7611681042
 31
0.0
 11
17.493498339
 21
-25.7423957285
 31
0.0
 11
17.5449496444
 21
-24.6486118305
 31
0.0
 11
17.6985942752
 21
-23.5185274171
 31
0.0
  0
SPLINE
  5
29D
100
AcDbEntity
  8
0
100
AcDbSpline
 62
7
  6
CONTINUOUS
 70
0
 71
3
 72
12
 73
8
 74
6
 42
0.0000001
 43
0.0000001
 44
0.0000000001
 12
0.0
 22
-1.1029514116
 32
0.0
 13
-0.9865055651
 23
-0.4932632019
 33
0.0
 40
0.0
 40
0.0
 40
0.0
 40
0.0
 40
0.2895066334
 40
0.5491131721
 40
0.7821794084
 40
0.8921650808
 40
1.0
 40
1.0
 40
1.0
 40
1.0
 10
34.5981175799
 20
-18.0739695848
 30
0.0
 10
34.5981175799
 20
-18.1804068348
 30
0.0
 10
34.5808842972
 20
-18.3830827217
 30
0.0
 10
34.4945028278
 20
-18.6601378725
 30
0.0
 10
34.3709959506
 20
-18.8488507011
 30
0.0
 10
34.2472768782
 20
-18.9603050417
 30
0.0
 10
34.1787612133
 20
-19.002761988
 30
0.0
 10
34.1433012974
 20
-19.0204923205
 30
0.0
 11
34.5981175799
 21
-18.0739695848
 31
0.0
 11
34.5678796251
 21
-18.3918463845
 31
0.0
 11
34.4786446157
 21
-18.6639197718
 31
0.0
 11
34.3347747015
 21
-18.876949509
 31
0.0
 11
34.2444563915
 21
-18.9579337086
 31
0.0
 11
34.1433012974
 21
-19.0204923205
 31
0.0
  0
SPLINE
  5
29E
100
AcDbEntity
  8
0
100
AcDbSpline
 62
7
  6
CONTINUOUS
 70
0
 71
3
 72
10
 73
6
 74
4
 42
0.0000001
 43
0.0000001
 44
0.0000000001
 12
-0.6987680228
 22
-0.3493085165
 32
0.0
 13
-0.757887584
 23
0.189471896
 33
0.0
 40
0.0
 40
0.0
 40
0.0
 40
0.0
 40
0.2373844883
 40
0.4803523072
 40
1.0
 40
1.0
 40
1.0
 40
1.0
 10
18.4630736085
 20
-27.6991365131
 30
0.0
 10
18.4077813787
 20
-27.7267766542
 30
0.0
 10
18.289963057
 20
-27.7716539299
 30
0.0
 10
18.0320903211
 20
-27.8159075246
 30
0.0
 10
17.8298724533
 20
-27.7939876488
 30
0.0
 10
17.6985942752
 20
-27.7611681042
 30
0.0
 11
18.4630736085
 21
-27.6991365131
 31
0.0
 11
18.2898546117
 21
-27.7653637876
 31
0.0
 11
18.1028741388
 21
-27.7980128449
 31
0.0
 11
17.6985942752
 21
-27.7611681042
 31
0.0
  0
SPLINE
  5
29F
100
AcDbEntity
  8
0
100
AcDbSpline
 62
7
  6
CONTINUOUS
 70
0
 71
3
 72
9
 73
5
 74
3
 42
0.0000001
 43
0.0000001
 44
0.0000000001
 12
0.4692150162
 22
-0.1474242056
 32
0.0
 13
0.3934602533
 23
-0.2951027905
 33
0.0
 40
0.0
 40
0.0
 40
0.0
 40
0.0
 40
0.2345660131
 40
1.0
 40
1.0
 40
1.0
 40
1.0
 10
33.1749983472
 20
-15.8640278585
 30
0.0
 10
33.2116856457
 20
-15.8755547613
 30
0.0
 10
33.3655662831
 20
-15.9327102695
 30
0.0
 10
33.507778793
 20
-16.0187767492
 30
0.0
 10
33.6081680765
 20
-16.094070651
 30
0.0
 11
33.1749983472
 21
-15.8640278585
 31
0.0
 11
33.2832339864
 21
-15.9039589574
 31
0.0
 11
33.6081680765
 21
-16.094070651
 31
0.0
  0
SPLINE
  5
2A0
100
AcDbEntity
  8
0
100
AcDbSpline
 62
7
  6
CONTINUOUS
 70
0
 71
3
 72
10
 73
6
 74
4
 42
0.0000001
 43
0.0000001
 44
0.0000000001
 12
-0.7498107537
 22
-4.1982050413
 32
0.0
 13
0.906120067
 23
-4.1672638697
 33
0.0
 40
0.0
 40
0.0
 40
0.0
 40
0.0
 40
0.2674274112
 40
0.5241885293
 40
1.0
 40
1.0
 40
1.0
 40
1.0
 10
16.991487494
 20
-23.1649740265
 30
0.0
 10
16.9246475111
 20
-23.5392123952
 30
0.0
 10
16.822958446
 20
-24.278676706
 30
0.0
 10
16.7532269784
 20
-25.6991452703
 30
0.0
 10
16.8477733868
 20
-26.7466707301
 30
0.0
 10
16.991487494
 20
-27.4076147136
 30
0.0
 11
16.991487494
 21
-23.1649740265
 31
0.0
 11
16.837842863
 21
-24.295058442
 31
0.0
 11
16.7863915578
 21
-25.3888423384
 31
0.0
 11
16.991487494
 21
-27.4076147136
 31
0.0
  0
SPLINE
  5
2A1
100
AcDbEntity
  8
0
100
AcDbSpline
 62
7
  6
CONTINUOUS
 70
0
 71
3
 72
11
 73
7
 74
5
 42
0.0000001
 43
0.0000001
 44
0.0000000001
 12
2.6061301535
 22
-1.9545976151
 32
0.0
 13
0.0
 23
-3.2576626918
 33
0.0
 40
0.0
 40
0.0
 40
0.0
 40
0.0
 40
0.24092886
 40
0.5
 40
0.75907114
 40
1.0
 40
1.0
 40
1.0
 40
1.0
 10
17.6985942752
 20
-23.5185274171
 30
0.0
 10
17.9078915975
 20
-23.6755004089
 30
0.0
 10
18.2957188336
 20
-24.0648237023
 30
0.0
 10
18.7399772325
 20
-24.7656028914
 30
0.0
 10
19.0340455444
 20
-25.541477124
 30
0.0
 10
19.1128078376
 20
-26.0853328889
 30
0.0
 10
19.1128078376
 20
-26.3469545419
 30
0.0
 11
17.6985942752
 21
-23.5185274171
 31
0.0
 11
18.259543822
 21
-24.0674797005
 31
0.0
 11
18.7143472784
 21
-24.7784178685
 31
0.0
 11
19.010215739
 21
-25.5688235344
 31
0.0
 11
19.1128078376
 21
-26.3469545419
 31
0.0
  0
SPLINE
  5
2A2
100
AcDbEntity
  8
0
100
AcDbSpline
 62
7
  6
CONTINUOUS
 70
0
 71
3
 72
11
 73
7
 74
5
 42
0.0000001
 43
0.0000001
 44
0.0000000001
 12
1.662611653
 22
-1.2469908566
 32
0.0
 13
0.2107887389
 23
-2.0675666404
 33
0.0
 40
0.0
 40
0.0
 40
0.0
 40
0.0
 40
0.238044721
 40
0.4938171349
 40
0.7528501459
 40
1.0
 40
1.0
 40
1.0
 40
1.0
 10
33.6081680765
 20
-16.094070651
 30
0.0
 10
33.7400933855
 20
-16.1930171812
 30
0.0
 10
33.9872974293
 20
-16.4344815081
 30
0.0
 10
34.2815491239
 20
-16.868625219
 30
0.0
 10
34.4934118768
 20
-17.3552447085
 30
0.0
 10
34.5701561704
 20
-17.7005219665
 30
0.0
 10
34.5875216391
 20
-17.8708548977
 30
0.0
 11
33.6081680765
 21
-16.094070651
 31
0.0
 11
33.9658294354
 21
-16.4358756822
 31
0.0
 11
34.265940666
 21
-16.8746209852
 31
0.0
 11
34.4799558046
 21
-17.3685966039
 31
0.0
 11
34.5875216391
 21
-17.8708548977
 31
0.0
  0
SPLINE
  5
2A3
100
AcDbEntity
  8
0
100
AcDbSpline
 62
7
  6
CONTINUOUS
 70
0
 71
3
 72
9
 73
5
 74
3
 42
0.0000001
 43
0.0000001
 44
0.0000000001
 12
0.0206337147
 22
-0.2023902243
 32
0.0
 13
0.0
 23
-0.2034393105
 33
0.0
 40
0.0
 40
0.0
 40
0.0
 40
0.0
 40
0.2547460324
 40
1.0
 40
1.0
 40
1.0
 40
1.0
 10
34.5875216391
 20
-17.8708548977
 30
0.0
 10
34.5892737581
 20
-17.8880409332
 30
0.0
 10
34.5953398184
 20
-17.9555832866
 30
0.0
 10
34.5981175799
 20
-18.0234316004
 30
0.0
 10
34.5981175799
 20
-18.0739695848
 30
0.0
 11
34.5875216391
 21
-17.8708548977
 31
0.0
 11
34.5921509717
 21
-17.9224730818
 31
0.0
 11
34.5981175799
 21
-18.0739695848
 31
0.0
  0
SPLINE
  5
2A4
100
AcDbEntity
  8
0
100
AcDbSpline
 62
7
  6
CONTINUOUS
 70
0
 71
3
 72
12
 73
8
 74
6
 42
0.0000001
 43
0.0000001
 44
0.0000000001
 12
0.0
 22
-1.5756463993
 32
0.0
 13
-1.4093618846
 23
-0.7045286749
 33
0.0
 40
0.0
 40
0.0
 40
0.0
 40
0.0
 40
0.2895063935
 40
0.5491143116
 40
0.7821792366
 40
0.8921632299
 40
1.0
 40
1.0
 40
1.0
 40
1.0
 10
19.1128078376
 20
-26.3469545419
 30
0.0
 10
19.1128078376
 20
-26.4990077774
 30
0.0
 10
19.0881873338
 20
-26.78854682
 30
0.0
 10
18.9647840767
 20
-27.1843348172
 30
0.0
 10
18.7883618144
 20
-27.4539424351
 30
0.0
 10
18.6115982384
 20
-27.6131339232
 30
0.0
 10
18.5137339531
 20
-27.6738118141
 30
0.0
 10
18.4630736085
 20
-27.6991365131
 30
0.0
 11
19.1128078376
 21
-26.3469545419
 31
0.0
 11
19.0696094667
 21
-26.8010641967
 31
0.0
 11
18.9421325919
 21
-27.1897437293
 31
0.0
 11
18.7366082903
 21
-27.4940726618
 31
0.0
 11
18.6075770222
 21
-27.6097549636
 31
0.0
 11
18.4630736085
 21
-27.6991365131
 31
0.0
  0
SPLINE
  5
2A5
100
AcDbEntity
  8
0
100
AcDbSpline
 62
7
  6
CONTINUOUS
 70
0
 71
3
 72
10
 73
6
 74
4
 42
0.0000001
 43
0.0000001
 44
0.0000000001
 12
0.6987680228
 22
0.3493085165
 32
0.0
 13
0.757887584
 23
-0.189471896
 33
0.0
 40
0.0
 40
0.0
 40
0.0
 40
0.0
 40
0.2373844883
 40
0.4803523072
 40
1.0
 40
1.0
 40
1.0
 40
1.0
 10
16.2270081607
 20
-23.2270056177
 30
0.0
 10
16.2823003905
 20
-23.1993654766
 30
0.0
 10
16.4001187121
 20
-23.1544882009
 30
0.0
 10
16.6579914481
 20
-23.1102346061
 30
0.0
 10
16.8602093159
 20
-23.132154482
 30
0.0
 10
16.991487494
 20
-23.1649740265
 30
0.0
 11
16.2270081607
 21
-23.2270056177
 31
0.0
 11
16.4002271575
 21
-23.1607783432
 31
0.0
 11
16.5872076304
 21
-23.1281292859
 31
0.0
 11
16.991487494
 21
-23.1649740265
 31
0.0
  0
SPLINE
  5
2A6
100
AcDbEntity
  8
RACCORDO
100
AcDbSpline
 62
7
  6
CONTINUOUS
 70
0
 71
3
 72
11
 73
7
 74
5
 42
0.0000001
 43
0.0000001
 44
0.0000000001
 12
-0.622637783
 22
0.3710154074
 32
0.0
 13
-0.6683569511
 23
-0.2804090356
 33
0.0
 40
0.0
 40
0.0
 40
0.0
 40
0.0
 40
0.2261832048
 40
0.4872998841
 40
0.7552695269
 40
1.0
 40
1.0
 40
1.0
 40
1.0
 10
38.5849283846
 20
-23.5643588271
 30
0.0
 10
38.5379849815
 20
-23.5363863425
 30
0.0
 10
38.4258491308
 20
-23.494839447
 30
0.0
 10
38.2441131772
 20
-23.4699178512
 30
0.0
 10
38.0563829253
 20
-23.4795969935
 30
0.0
 10
37.9350347958
 20
-23.5106697401
 30
0.0
 10
37.8805123582
 20
-23.5335446188
 30
0.0
 11
38.5849283846
 21
-23.5643588271
 31
0.0
 11
38.4327848107
 21
-23.5033045905
 31
0.0
 11
38.2455071366
 21
-23.4760081188
 31
0.0
 11
38.0515739736
 21
-23.4866241519
 31
0.0
 11
37.8805123582
 21
-23.5335446188
 31
0.0
  0
SPLINE
  5
2A7
100
AcDbEntity
  8
RACCORDO
100
AcDbSpline
 62
7
  6
CONTINUOUS
 70
0
 71
3
 72
11
 73
7
 74
5
 42
0.0000001
 43
0.0000001
 44
0.0000000001
 12
0.6683568429
 22
0.2804089902
 32
0.0
 13
0.6226376822
 23
-0.3710153473
 33
0.0
 40
0.0
 40
0.0
 40
0.0
 40
0.0
 40
0.2447147208
 40
0.5126669538
 40
0.7737976738
 40
1.0
 40
1.0
 40
1.0
 40
1.0
 10
37.8805123582
 20
-10.543163562
 30
0.0
 10
37.9350312776
 20
-10.5202901594
 30
0.0
 10
38.0563710763
 20
-10.48921834
 30
0.0
 10
38.244096477
 20
-10.4795358922
 30
0.0
 10
38.4258364274
 20
-10.5044556079
 30
0.0
 10
38.5379810206
 20
-10.5460029255
 30
0.0
 10
38.5849283846
 20
-10.5739777703
 30
0.0
 11
37.8805123582
 21
-10.543163562
 31
0.0
 11
38.0515625722
 21
-10.4962447987
 31
0.0
 11
38.245482912
 21
-10.4856259492
 31
0.0
 11
38.4327711171
 21
-10.5129205156
 31
0.0
 11
38.5849283846
 21
-10.5739777703
 31
0.0
  0
SPLINE
  5
2A8
100
AcDbEntity
  8
0
100
AcDbSpline
 62
7
  6
CONTINUOUS
 70
0
 71
3
 72
9
 73
5
 74
3
 42
0.0000001
 43
0.0000001
 44
0.0000000001
 12
0.1890137359
 22
-0.0945068679
 32
0.0
 13
0.2110946111
 23
-0.0098389835
 33
0.0
 40
0.0
 40
0.0
 40
0.0
 40
0.0
 40
0.2530779031
 40
1.0
 40
1.0
 40
1.0
 40
1.0
 10
0.1491232364
 20
-16.9144688656
 30
0.0
 10
0.165068303
 20
-16.9224413989
 30
0.0
 10
0.2294171318
 20
-16.9510934887
 30
0.0
 10
0.2997404829
 20
-16.967044109
 30
0.0
 10
0.3522975594
 20
-16.9694937604
 30
0.0
 11
0.1491232364
 21
-16.9144688656
 31
0.0
 11
0.1980214951
 21
-16.9361303114
 31
0.0
 11
0.3522975594
 21
-16.9694937604
 31
0.0
  0
SPLINE
  5
2A9
100
AcDbEntity
  8
0
100
AcDbSpline
 62
7
  6
CONTINUOUS
 70
0
 71
3
 72
11
 73
7
 74
5
 42
0.0000001
 43
0.0000001
 44
0.0000000001
 12
-0.587063368
 22
-0.8637950408
 32
0.0
 13
0.7840695007
 23
-0.6899422356
 33
0.0
 40
0.0
 40
0.0
 40
0.0
 40
0.0
 40
0.2350606513
 40
0.4834521749
 40
0.7438725975
 40
1.0
 40
1.0
 40
1.0
 40
1.0
 10
-0.1978788902
 20
-15.8691408611
 30
0.0
 10
-0.2438773894
 20
-15.9368222694
 30
0.0
 10
-0.2993596842
 20
-16.1038455047
 30
0.0
 10
-0.2758924777
 20
-16.3664435842
 30
0.0
 10
-0.1737446156
 20
-16.6160055086
 30
0.0
 10
-0.0592762047
 20
-16.7591933258
 30
0.0
 10
0.0076643568
 20
-16.8180976967
 30
0.0
 11
-0.1978788902
 21
-15.8691408611
 31
0.0
 11
-0.2811080898
 21
-16.1001010632
 31
0.0
 11
-0.263904705
 21
-16.3589517805
 31
0.0
 11
-0.161609004
 21
-16.6109663314
 31
0.0
 11
0.0076643568
 21
-16.8180976967
 31
0.0
  0
SPLINE
  5
2AA
100
AcDbEntity
  8
0
100
AcDbSpline
 62
7
  6
CONTINUOUS
 70
0
 71
3
 72
9
 73
5
 74
3
 42
0.0000001
 43
0.0000001
 44
0.0000000001
 12
0.090982462
 22
-0.0679347972
 32
0.0
 13
0.1015596182
 23
-0.0507798091
 33
0.0
 40
0.0
 40
0.0
 40
0.0
 40
0.0
 40
0.2533516157
 40
1.0
 40
1.0
 40
1.0
 40
1.0
 10
0.0526994678
 20
-16.8546627885
 30
0.0
 10
0.0603829857
 20
-16.8603999187
 30
0.0
 10
0.0911716012
 20
-16.8824160298
 30
0.0
 10
0.1238467947
 20
-16.9018306448
 30
0.0
 10
0.1491232364
 20
-16.9144688656
 30
0.0
 11
0.0526994678
 21
-16.8546627885
 31
0.0
 11
0.0761047705
 21
-16.871388571
 31
0.0
 11
0.1491232364
 21
-16.9144688656
 31
0.0
  0
SPLINE
  5
2AB
100
AcDbEntity
  8
0
100
AcDbSpline
 62
7
  6
CONTINUOUS
 70
0
 71
3
 72
9
 73
5
 74
3
 42
0.0000001
 43
0.0000001
 44
0.0000000001
 12
-0.3537389366
 22
-0.1768694683
 32
0.0
 13
-0.2223070429
 23
-0.3270987966
 33
0.0
 40
0.0
 40
0.0
 40
0.0
 40
0.0
 40
0.5003689879
 40
1.0
 40
1.0
 40
1.0
 40
1.0
 10
0.6309682082
 20
-14.8231576023
 30
0.0
 10
0.5719682103
 20
-14.8526576012
 30
0.0
 10
0.4613809603
 20
-14.9275446027
 30
0.0
 10
0.3737402169
 20
-15.0280702427
 30
0.0
 10
0.3367163859
 20
-15.082546477
 30
0.0
 11
0.6309682082
 21
-14.8231576023
 31
0.0
 11
0.4670444463
 21
-14.934018991
 31
0.0
 11
0.3367163859
 21
-15.082546477
 31
0.0
  0
SPLINE
  5
2AC
100
AcDbEntity
  8
0
100
AcDbSpline
 62
7
  6
CONTINUOUS
 70
0
 71
3
 72
9
 73
5
 74
3
 42
0.0000001
 43
0.0000001
 44
0.0000000001
 12
0.3950632977
 22
-0.0184136452
 32
0.0
 13
0.3537389677
 23
0.1768694838
 33
0.0
 40
0.0
 40
0.0
 40
0.0
 40
0.0
 40
0.4996286558
 40
1.0
 40
1.0
 40
1.0
 40
1.0
 10
1.3023302324
 20
-17.0137741699
 30
0.0
 10
1.3681252139
 20
-17.0168408315
 30
0.0
 10
1.5011302074
 20
-17.0070439687
 30
0.0
 10
1.6273921446
 20
-16.9635061774
 30
0.0
 10
1.6863924255
 20
-16.9340060369
 30
0.0
 11
1.3023302324
 21
-17.0137741699
 31
0.0
 11
1.4993481651
 21
-16.9986285374
 31
0.0
 11
1.6863924255
 21
-16.9340060369
 31
0.0
  0
SPLINE
  5
2AD
100
AcDbEntity
  8
0
100
AcDbSpline
 62
7
  6
CONTINUOUS
 70
0
 71
3
 72
18
 73
14
 74
12
 42
0.0000001
 43
0.0000001
 44
0.0000000001
 12
7.7154018192
 22
-3.8577009096
 32
0.0
 13
-7.7996208624
 23
-3.6844532759
 33
0.0
 40
0.0
 40
0.0
 40
0.0
 40
0.0
 40
0.1241699722
 40
0.2642326827
 40
0.4123623179
 40
0.5593667137
 40
0.6962331749
 40
0.7586125285
 40
0.8160212101
 40
0.8682233422
 40
0.9154938049
 40
0.9588147524
 40
1.0
 40
1.0
 40
1.0
 40
1.0
 10
-0.9132025599
 20
-13.3112057374
 30
0.0
 10
-0.5938621503
 20
-13.4708759423
 30
0.0
 10
0.0318427205
 20
-13.9200949663
 30
0.0
 10
0.8219549878
 20
-14.8137057579
 30
0.0
 10
1.4617921695
 20
-15.897930265
 30
0.0
 10
1.8897377934
 20
-17.0711945249
 30
0.0
 10
2.0432513327
 20
-18.063970197
 30
0.0
 10
2.0198254384
 20
-18.8034863124
 30
0.0
 10
1.9354596269
 20
-19.2926712254
 30
0.0
 10
1.7873426398
 20
-19.7211891068
 30
0.0
 10
1.58031791
 20
-20.0792108567
 30
0.0
 10
1.320373623
 20
-20.3595680898
 30
0.0
 10
1.1133716687
 20
-20.4927149897
 30
0.0
 10
1.00629523
 20
-20.5432966964
 30
0.0
 11
-0.9132025599
 21
-13.3112057374
 31
0.0
 11
-0.0321626738
 21
-13.920323594
 31
0.0
 11
0.7761495718
 21
-14.8182991353
 31
0.0
 11
1.4277887616
 21
-15.9174277696
 31
0.0
 11
1.858119688
 21
-17.1102486383
 31
0.0
 11
2.026011421
 21
-18.2788712843
 31
0.0
 11
2.0064024498
 21
-18.816603258
 31
0.0
 11
1.9192666974
 21
-19.3040888994
 31
0.0
 11
1.7688332046
 21
-19.7285175916
 31
0.0
 11
1.5616967732
 21
-20.0797465602
 31
0.0
 11
1.30556899
 21
-20.3518546122
 31
0.0
 11
1.00629523
 21
-20.5432966964
 31
0.0
  0
SPLINE
  5
2AE
100
AcDbEntity
  8
0
100
AcDbSpline
 62
7
  6
CONTINUOUS
 70
0
 71
3
 72
11
 73
7
 74
5
 42
0.0000001
 43
0.0000001
 44
0.0000000001
 12
1.5050992425
 22
0.7935844629
 32
0.0
 13
1.548913851
 23
-0.704248473
 33
0.0
 40
0.0
 40
0.0
 40
0.0
 40
0.0
 40
0.2214302233
 40
0.4558215324
 40
0.7135990407
 40
1.0
 40
1.0
 40
1.0
 40
1.0
 10
-2.6632407076
 20
-13.2009945693
 30
0.0
 10
-2.5521492205
 20
-13.142420041
 30
0.0
 10
-2.3054455879
 20
-13.0533960502
 30
0.0
 10
-1.8980200219
 20
-13.0203554091
 30
0.0
 10
-1.4582172975
 20
-13.0876357532
 30
0.0
 10
-1.1663344946
 20
-13.1937275692
 30
0.0
 10
-1.018464357
 20
-13.2609600486
 30
0.0
 11
-2.6632407076
 21
-13.2009945693
 31
0.0
 11
-2.3092640263
 21
-13.071955219
 31
0.0
 11
-1.9120486213
 21
-13.0362529801
 31
0.0
 11
-1.4778678634
 21
-13.0984162909
 31
0.0
 11
-1.018464357
 21
-13.2609600486
 31
0.0
  0
SPLINE
  5
2AF
100
AcDbEntity
  8
0
100
AcDbSpline
 62
7
  6
CONTINUOUS
 70
0
 71
3
 72
12
 73
8
 74
6
 42
0.0000001
 43
0.0000001
 44
0.0000000001
 12
0.0
 22
3.1122683473
 32
0.0
 13
2.7836974355
 23
1.3918487177
 33
0.0
 40
0.0
 40
0.0
 40
0.0
 40
0.0
 40
0.2818700122
 40
0.538777324
 40
0.7748786137
 40
0.8881605423
 40
1.0
 40
1.0
 40
1.0
 40
1.0
 10
-4.2333796764
 20
-15.2676313009
 30
0.0
 10
-4.2333796764
 20
-14.9752129286
 30
0.0
 10
-4.1848696122
 20
-14.4140624097
 30
0.0
 10
-3.9404875973
 20
-13.6403356231
 30
0.0
 10
-3.5871872899
 20
-13.1064306848
 30
0.0
 10
-3.2293155115
 20
-12.7856625138
 30
0.0
 10
-3.0294394769
 20
-12.6619802699
 30
0.0
 10
-2.9256637397
 20
-12.6100924013
 30
0.0
 11
-4.2333796764
 21
-15.2676313009
 31
0.0
 11
-4.1493917664
 21
-14.3944059169
 31
0.0
 11
-3.8981352606
 21
-13.6353449512
 31
0.0
 11
-3.4847932876
 21
-13.0278130689
 31
0.0
 11
-3.2218152999
 21
-12.792985934
 31
0.0
 11
-2.9256637397
 21
-12.6100924013
 31
0.0
  0
SPLINE
  5
2B0
100
AcDbEntity
  8
0
100
AcDbSpline
 62
7
  6
CONTINUOUS
 70
0
 71
3
 72
17
 73
13
 74
11
 42
0.0000001
 43
0.0000001
 44
0.0000000001
 12
-8.2395627988
 22
-4.1197813994
 32
0.0
 13
0.0
 23
9.2121112615
 33
0.0
 40
0.0
 40
0.0
 40
0.0
 40
0.0
 40
0.0477264886
 40
0.0964678572
 40
0.1471826884
 40
0.2006123435
 40
0.317012817
 40
0.4464674271
 40
0.5855355105
 40
0.7284500135
 40
0.8686040256
 40
1.0
 40
1.0
 40
1.0
 40
1.0
 10
1.3228654176
 20
-21.1071507158
 30
0.0
 10
1.1917836176
 20
-21.1726916158
 30
0.0
 10
0.9106349843
 20
-21.2750978671
 30
0.0
 10
0.4590947108
 20
-21.332793729
 30
0.0
 10
-0.0119538938
 20
-21.2971330984
 30
0.0
 10
-0.6701646753
 20
-21.1254616218
 30
0.0
 10
-1.4910527119
 20
-20.6843286608
 30
0.0
 10
-2.3794358037
 20
-19.8927689728
 30
0.0
 10
-3.1495609969
 20
-18.8823798997
 30
0.0
 10
-3.7485747098
 20
-17.7255867552
 30
0.0
 10
-4.1340927
 20
-16.506288023
 30
0.0
 10
-4.2333796764
 20
-15.6711094128
 30
0.0
 10
-4.2333796764
 20
-15.2676313009
 30
0.0
 11
1.3228654176
 21
-21.1071507158
 31
0.0
 11
0.9099692109
 21
-21.2582108132
 31
0.0
 11
0.4648347746
 21
-21.3170846729
 31
0.0
 11
-0.0012043798
 21
-21.284303169
 31
0.0
 11
-0.4781680542
 21
-21.162786003
 31
0.0
 11
-1.4312809564
 21
-20.671470972
 31
0.0
 11
-2.3300278894
 21
-19.8876150531
 31
0.0
 11
-3.111306555
 21
-18.8723081226
 31
0.0
 11
-3.7172196731
 21
-17.7034804218
 31
0.0
 11
-4.1014026826
 21
-16.4708492171
 31
0.0
 11
-4.2333796764
 21
-15.2676313009
 31
0.0
  0
SPLINE
  5
2B1
100
AcDbEntity
  8
0
100
AcDbSpline
 62
253
  6
CONTINUOUS
 70
0
 71
3
 72
12
 73
8
 74
6
 42
0.0000001
 43
0.0000001
 44
0.0000000001
 12
0.0
 22
-2.9937271669
 32
0.0
 13
-2.6777164566
 23
-1.3387445342
 33
0.0
 40
0.0
 40
0.0
 40
0.0
 40
0.0
 40
0.2895070958
 40
0.5491143013
 40
0.7821797604
 40
0.8921642748
 40
1.0
 40
1.0
 40
1.0
 40
1.0
 10
2.5573580496
 20
-18.5380001639
 30
0.0
 10
2.5573580496
 20
-18.8269019165
 30
0.0
 10
2.5105807852
 20
-19.3770265018
 30
0.0
 10
2.2761093636
 20
-20.1290217585
 30
0.0
 10
1.940909722
 20
-20.6412785909
 30
0.0
 10
1.6050554577
 20
-20.9437386365
 30
0.0
 10
1.4191163318
 20
-21.0590287177
 30
0.0
 10
1.3228651665
 20
-21.1071502136
 30
0.0
 11
2.5573580496
 21
-18.5380001639
 31
0.0
 11
2.475281189
 21
-19.4008103358
 31
0.0
 11
2.2330734578
 21
-20.1392983843
 31
0.0
 11
1.8425765914
 21
-20.7175245385
 31
0.0
 11
1.5974149737
 21
-20.9373206221
 31
0.0
 11
1.3228651665
 21
-21.1071502136
 31
0.0
  0
SPLINE
  5
2B2
100
AcDbEntity
  8
0
100
AcDbSpline
 62
253
  6
CONTINUOUS
 70
0
 71
3
 72
23
 73
19
 74
17
 42
0.0000001
 43
0.0000001
 44
0.0000000001
 12
0.0
 22
-11.5438763146
 32
0.0
 13
0.0
 23
11.5438763146
 33
0.0
 40
0.0
 40
0.0
 40
0.0
 40
0.0
 40
0.0634351674
 40
0.1210947318
 40
0.1733525584
 40
0.2216454781
 40
0.2684422256
 40
0.3166639236
 40
0.3687976757
 40
0.4263123227
 40
0.4896016429
 40
0.558191349
 40
0.6309824914
 40
0.7064621826
 40
0.7828778731
 40
0.858404724
 40
0.9312844597
 40
1.0
 40
1.0
 40
1.0
 40
1.0
 10
2.203804659
 20
-18.5380001639
 30
0.0
 10
2.203804659
 20
-18.7820960726
 30
0.0
 10
2.1683400823
 20
-19.2494071972
 30
0.0
 10
1.9924481393
 20
-19.8977021371
 30
0.0
 10
1.6991739593
 20
-20.4388370171
 30
0.0
 10
1.2943003967
 20
-20.8483403824
 30
0.0
 10
0.7932192525
 20
-21.1015418275
 30
0.0
 10
0.2240105579
 20
-21.1840977449
 30
0.0
 10
-0.3841732554
 20
-21.0982434581
 30
0.0
 10
-1.0083177313
 20
-20.8537716333
 30
0.0
 10
-1.6275658417
 20
-20.4627042906
 30
0.0
 10
-2.2207120003
 20
-19.9402884991
 30
0.0
 10
-2.7665853903
 20
-19.3059750913
 30
0.0
 10
-3.245153914
 20
-18.5833380102
 30
0.0
 10
-3.638639927
 20
-17.7993745759
 30
0.0
 10
-3.9323090641
 20
-16.9833026378
 30
0.0
 10
-4.1151884174
 20
-16.1658405665
 30
0.0
 10
-4.1601563717
 20
-15.6204342146
 30
0.0
 10
-4.1601563717
 20
-15.3560196485
 30
0.0
 11
2.203804659
 21
-18.5380001639
 31
0.0
 11
2.1426635236
 21
-19.2677309878
 31
0.0
 11
1.9615888906
 21
-19.9082426163
 31
0.0
 11
1.6675425601
 21
-20.4349843301
 31
0.0
 11
1.2718262817
 21
-20.8276685934
 31
0.0
 11
0.789634493
 21
-21.0712343125
 31
0.0
 11
0.2395075246
 21
-21.1563024904
 31
0.0
 11
-0.3574113677
 21
-21.0796091278
 31
0.0
 11
-0.9781818588
 21
-20.8441034207
 31
0.0
 11
-1.5989497069
 21
-20.4588377895
 31
0.0
 11
-2.1958614276
 21
-19.9386171461
 31
0.0
 11
-2.7459801627
 21
-19.303432188
 31
0.0
 11
-3.2281671894
 21
-18.5776853055
 31
0.0
 11
-3.6238839651
 21
-17.7892898744
 31
0.0
 11
-3.9179343354
 21
-16.9684998562
 31
0.0
 11
-4.0990133026
 21
-16.1469033882
 31
0.0
 11
-4.1601563717
 21
-15.3560196485
 31
0.0
  0
SPLINE
  5
2B3
100
AcDbEntity
  8
0
100
AcDbSpline
 62
253
  6
CONTINUOUS
 70
0
 71
3
 72
23
 73
19
 74
17
 42
0.0000001
 43
0.0000001
 44
0.0000000001
 12
0.0
 22
11.5438763146
 32
0.0
 13
-0.0
 23
-11.5438763146
 33
0.0
 40
0.0
 40
0.0
 40
0.0
 40
0.0
 40
0.0634351674
 40
0.1210947318
 40
0.1733525584
 40
0.2216454781
 40
0.2684422256
 40
0.3166639236
 40
0.3687976757
 40
0.4263123227
 40
0.4896016429
 40
0.558191349
 40
0.6309824914
 40
0.7064621826
 40
0.7828778731
 40
0.858404724
 40
0.9312844597
 40
1.0
 40
1.0
 40
1.0
 40
1.0
 10
-4.1601563717
 20
-15.3560196485
 30
0.0
 10
-4.1601563717
 20
-15.1119237398
 30
0.0
 10
-4.1246917951
 20
-14.6446126152
 30
0.0
 10
-3.948799852
 20
-13.9963176753
 30
0.0
 10
-3.6555256721
 20
-13.4551827953
 30
0.0
 10
-3.2506521095
 20
-13.0456794301
 30
0.0
 10
-2.7495709653
 20
-12.7924779849
 30
0.0
 10
-2.1803622706
 20
-12.7099220675
 30
0.0
 10
-1.5721784574
 20
-12.7957763543
 30
0.0
 10
-0.9480339814
 20
-13.0402481792
 30
0.0
 10
-0.3287858711
 20
-13.4313155218
 30
0.0
 10
0.2643602876
 20
-13.9537313133
 30
0.0
 10
0.8102336775
 20
-14.5880447211
 30
0.0
 10
1.2888022013
 20
-15.3106818022
 30
0.0
 10
1.6822882142
 20
-16.0946452365
 30
0.0
 10
1.9759573513
 20
-16.9107171746
 30
0.0
 10
2.1588367046
 20
-17.7281792459
 30
0.0
 10
2.203804659
 20
-18.2735855978
 30
0.0
 10
2.203804659
 20
-18.5380001639
 30
0.0
 11
-4.1601563717
 21
-15.3560196485
 31
0.0
 11
-4.0990152364
 21
-14.6262888246
 31
0.0
 11
-3.9179406033
 21
-13.9857771961
 31
0.0
 11
-3.6238942728
 21
-13.4590354823
 31
0.0
 11
-3.2281779944
 21
-13.066351219
 31
0.0
 11
-2.7459862057
 21
-12.8227854999
 31
0.0
 11
-2.1958592373
 21
-12.737717322
 31
0.0
 11
-1.598940345
 21
-12.8144106846
 31
0.0
 11
-0.978169854
 21
-13.0499163917
 31
0.0
 11
-0.3574020058
 21
-13.4351820229
 31
0.0
 11
0.2395097149
 21
-13.9554026663
 31
0.0
 11
0.78962845
 21
-14.5905876244
 31
0.0
 11
1.2718154766
 21
-15.3163345069
 31
0.0
 11
1.6675322523
 21
-16.104729938
 31
0.0
 11
1.9615826227
 21
-16.9255199562
 31
0.0
 11
2.1426615899
 21
-17.7471164242
 31
0.0
 11
2.203804659
 21
-18.5380001639
 31
0.0
  0
SPLINE
  5
2B4
100
AcDbEntity
  8
0
100
AcDbSpline
 62
253
  6
CONTINUOUS
 70
0
 71
3
 72
23
 73
19
 74
17
 42
0.0000001
 43
0.0000001
 44
0.0000000001
 12
-9.9912174246
 22
4.9956087123
 32
0.0
 13
9.9912174246
 23
-4.9956087123
 33
0.0
 40
0.0
 40
0.0
 40
0.0
 40
0.0
 40
0.057515806
 40
0.1096476879
 40
0.157869379
 40
0.2046647666
 40
0.252959047
 40
0.3052168476
 40
0.362878447
 40
0.4263122551
 40
0.4950250296
 40
0.5679048375
 40
0.6434302618
 40
0.7198474516
 40
0.7953257475
 40
0.8681183947
 40
0.9367081494
 40
1.0
 40
1.0
 40
1.0
 40
1.0
 10
-0.9781719495
 20
-13.1759394541
 30
0.0
 10
-1.169722924
 20
-13.0801639669
 30
0.0
 10
-1.553104367
 20
-12.9299473833
 30
0.0
 10
-2.1414509895
 20
-12.8469698389
 30
0.0
 10
-2.6922782152
 20
-12.9268279784
 30
0.0
 10
-3.177141097
 20
-13.1718495786
 30
0.0
 10
-3.5689176955
 20
-13.5681185661
 30
0.0
 10
-3.852718913
 20
-14.0917278105
 30
0.0
 10
-4.0229042308
 20
-14.7192030334
 30
0.0
 10
-4.0767143507
 20
-15.4273886125
 30
0.0
 10
-4.0137170727
 20
-16.1909477471
 30
0.0
 10
-3.8367669261
 20
-16.9821451736
 30
0.0
 10
-3.5525978049
 20
-17.7717709699
 30
0.0
 10
-3.1718440101
 20
-18.5303959013
 30
0.0
 10
-2.7087777232
 20
-19.229659159
 30
0.0
 10
-2.1804916256
 20
-19.8434915947
 30
0.0
 10
-1.6067578995
 20
-20.3489205704
 30
0.0
 10
-1.1889689331
 20
-20.6126858699
 30
0.0
 10
-0.9781813863
 20
-20.7180796433
 30
0.0
 11
-0.9781719495
 21
-13.1759394541
 31
0.0
 11
-1.5788775997
 21
-12.948046497
 31
0.0
 11
-2.1564713099
 21
-12.873846171
 31
0.0
 11
-2.6888059742
 21
-12.9561620688
 31
0.0
 11
-3.1553873186
 21
-13.1918468012
 31
0.0
 11
-3.5383134874
 21
-13.5718439929
 31
0.0
 11
-3.8228505852
 21
-14.0815488241
 31
0.0
 11
-3.9980665726
 21
-14.7013690921
 31
0.0
 11
-4.0572291557
 21
-15.4074835896
 31
0.0
 11
-3.9980670162
 21
-16.1727575973
 31
0.0
 11
-3.8228541029
 21
-16.967784665
 31
0.0
 11
-3.5383236061
 21
-17.7620149505
 31
0.0
 11
-3.1554053485
 21
-18.5249306519
 31
0.0
 11
-2.688829162
 21
-19.227196986
 31
0.0
 11
-2.1564950896
 21
-19.8418543792
 31
0.0
 11
-1.5788953436
 21
-20.3452581339
 31
0.0
 11
-0.9781813863
 21
-20.7180796433
 31
0.0
  0
SPLINE
  5
2B5
100
AcDbEntity
  8
0
100
AcDbSpline
 62
253
  6
CONTINUOUS
 70
0
 71
3
 72
23
 73
19
 74
17
 42
0.0000001
 43
0.0000001
 44
0.0000000001
 12
9.8839071461
 22
-4.9419535731
 32
0.0
 13
-9.7125461945
 23
5.2707657899
 33
0.0
 40
0.0
 40
0.0
 40
0.0
 40
0.0
 40
0.0575306799
 40
0.1097281162
 40
0.1580143988
 40
0.2047969389
 40
0.252937283
 40
0.3048862142
 40
0.3621184826
 40
0.4250636645
 40
0.4932996257
 40
0.5657863991
 40
0.6410696465
 40
0.7174526445
 40
0.7931462637
 40
0.8664228305
 40
0.9357510082
 40
1.0
 40
1.0
 40
1.0
 40
1.0
 10
-0.9781813863
 20
-20.7180796433
 30
0.0
 10
-0.7886387536
 20
-20.8128509596
 30
0.0
 10
-0.4093087579
 20
-20.9618805173
 30
0.0
 10
0.1727409017
 20
-21.0463471737
 30
0.0
 10
0.7184679519
 20
-20.9718454167
 30
0.0
 10
1.2006546435
 20
-20.7358998983
 30
0.0
 10
1.5929523261
 20
-20.351275747
 30
0.0
 10
1.8803444542
 20
-19.8407341983
 30
0.0
 10
2.0569562076
 20
-19.2269928333
 30
0.0
 10
2.1198946923
 20
-18.5323746702
 30
0.0
 10
2.0684776568
 20
-17.7812172642
 30
0.0
 10
1.9051196925
 20
-17.0001947656
 30
0.0
 10
1.635930354
 20
-16.217495568
 30
0.0
 10
1.270770824
 20
-15.4616515327
 30
0.0
 10
0.8230456551
 20
-14.7603073882
 30
0.0
 10
0.3089437056
 20
-14.1390896954
 30
0.0
 10
-0.2526667954
 20
-13.6206733819
 30
0.0
 10
-0.66327517
 20
-13.3445467709
 30
0.0
 10
-0.8712822702
 20
-13.2316663083
 30
0.0
 11
-0.9781813863
 21
-20.7180796433
 31
0.0
 11
-0.384038998
 21
-20.9442807274
 31
0.0
 11
0.1877495039
 21
-21.0202265675
 31
0.0
 11
0.7157336025
 21
-20.9430854276
 31
0.0
 11
1.1800357095
 21
-20.7157439572
 31
0.0
 11
1.5632317823
 21
-20.3467449121
 31
0.0
 11
1.8509010373
 21
-19.8499594189
 31
0.0
 11
2.0322330289
 21
-19.2440643686
 31
0.0
 11
2.1004131382
 21
-18.5518354062
 31
0.0
 11
2.0528810222
 21
-17.7992905197
 31
0.0
 11
1.891423864
 21
-17.0147130002
 31
0.0
 11
1.6221104557
 21
-16.2275900204
 31
0.0
 11
1.2550587912
 21
-15.4675022163
 31
0.0
 11
0.8040794758
 21
-14.7630337917
 31
0.0
 11
0.2860912352
 21
-14.1406378872
 31
0.0
 11
-0.2793718812
 21
-13.6237411285
 31
0.0
 11
-0.8712822702
 21
-13.2316663083
 31
0.0
  0
SPLINE
  5
2B6
100
AcDbEntity
  8
0
100
AcDbSpline
 62
253
  6
CONTINUOUS
 70
0
 71
3
 72
15
 73
11
 74
9
 42
0.0000001
 43
0.0000001
 44
0.0000000001
 12
6.2525124668
 22
-3.1262562334
 32
0.0
 13
-0.0
 23
-6.990521453
 33
0.0
 40
0.0
 40
0.0
 40
0.0
 40
0.0
 40
0.1103240026
 40
0.2298800165
 40
0.3567652898
 40
0.48833393
 40
0.6215366749
 40
0.753188176
 40
0.8802218838
 40
1.0
 40
1.0
 40
1.0
 40
1.0
 10
-0.8013991611
 20
-12.7450008906
 30
0.0
 10
-0.5714650939
 20
-12.8599679242
 30
0.0
 10
-0.1157299163
 20
-13.1476845499
 30
0.0
 10
0.5101113698
 20
-13.6990227966
 30
0.0
 10
1.0863886882
 20
-14.368606114
 30
0.0
 10
1.5915224722
 20
-15.1313940926
 30
0.0
 10
2.0068757344
 20
-15.9589192849
 30
0.0
 10
2.3168527797
 20
-16.8203283277
 30
0.0
 10
2.5098947517
 20
-17.6831972749
 30
0.0
 10
2.5573580496
 20
-18.2588963335
 30
0.0
 10
2.5573580496
 20
-18.5380001639
 30
0.0
 11
-0.8013991611
 21
-12.7450008906
 31
0.0
 11
-0.1461190423
 21
-13.151684813
 31
0.0
 11
0.4839312602
 21
-13.7008018515
 31
0.0
 11
1.0646245436
 21
-14.3712897822
 31
0.0
 11
1.5735944509
 21
-15.1373571187
 31
0.0
 11
1.9912997174
 21
-15.9695680356
 31
0.0
 11
2.30168378
 21
-16.8359611876
 31
0.0
 11
2.4928190057
 21
-17.7031796771
 31
0.0
 11
2.5573580496
 21
-18.5380001639
 31
0.0
  0
SPLINE
  5
2B7
100
AcDbEntity
  8
0
100
AcDbSpline
 62
253
  6
CONTINUOUS
 70
0
 71
3
 72
11
 73
7
 74
5
 42
0.0000001
 43
0.0000001
 44
0.0000000001
 12
1.6720624119
 22
-0.8360312059
 32
0.0
 13
1.6904024488
 23
0.7982984701
 33
0.0
 40
0.0
 40
0.0
 40
0.0
 40
0.0
 40
0.2788829283
 40
0.5351188752
 40
0.7729457154
 40
1.0
 40
1.0
 40
1.0
 40
1.0
 10
-0.7983139823
 20
-20.4116282121
 30
0.0
 10
-0.6428774284
 20
-20.489346489
 30
0.0
 10
-0.3320454344
 20
-20.6155466052
 30
0.0
 10
0.1442316277
 20
-20.7080765364
 30
0.0
 10
0.5976590721
 20
-20.6909964934
 30
0.0
 10
0.8782966519
 20
-20.6036850669
 30
0.0
 10
1.0062343581
 20
-20.5432660376
 30
0.0
 11
-0.7983139823
 21
-20.4116282121
 31
0.0
 11
-0.3137572185
 21
-20.6040096519
 31
0.0
 11
0.1572495237
 21
-20.6912241206
 31
0.0
 11
0.6013777315
 21
-20.6707719353
 31
0.0
 11
1.0062343581
 21
-20.5432660376
 31
0.0
  0
SPLINE
  5
2B8
100
AcDbEntity
  8
0
100
AcDbSpline
 62
253
  6
CONTINUOUS
 70
0
 71
3
 72
9
 73
5
 74
3
 42
0.0000001
 43
0.0000001
 44
0.0000000001
 12
-0.0923623345
 22
-0.0843872154
 32
0.0
 13
-0.1119104975
 23
-0.0559289147
 33
0.0
 40
0.0
 40
0.0
 40
0.0
 40
0.0
 40
0.2529381408
 40
1.0
 40
1.0
 40
1.0
 40
1.0
 10
1.7892107518
 20
-16.8631211482
 30
0.0
 10
1.7814234327
 20
-16.8702360633
 30
0.0
 10
1.7497173684
 20
-16.8973411658
 30
0.0
 10
1.7142532472
 20
-16.9200641818
 30
0.0
 10
1.6863852257
 20
-16.9339916348
 30
0.0
 11
1.7892107518
 21
-16.8631211482
 31
0.0
 11
1.765143655
 21
-16.8836675359
 31
0.0
 11
1.6863852257
 21
-16.9339916348
 31
0.0
  0
SPLINE
  5
2B9
100
AcDbEntity
  8
0
100
AcDbSpline
 62
253
  6
CONTINUOUS
 70
0
 71
3
 72
11
 73
7
 74
5
 42
0.0000001
 43
0.0000001
 44
0.0000000001
 12
-0.5481152155
 22
0.1068701029
 32
0.0
 13
-0.3139677703
 23
-0.4618178727
 33
0.0
 40
0.0
 40
0.0
 40
0.0
 40
0.0
 40
0.2625658502
 40
0.5077317556
 40
0.7487690667
 40
1.0
 40
1.0
 40
1.0
 40
1.0
 10
0.8269339075
 20
-14.890246025
 30
0.0
 10
0.7789617949
 20
-14.8808925452
 30
0.0
 10
0.6834446209
 20
-14.8734702731
 30
0.0
 10
0.5450797134
 20
-14.9033274581
 30
0.0
 10
0.424834837
 20
-14.9741976705
 30
0.0
 10
0.3630104631
 20
-15.0438737691
 30
0.0
 10
0.3367176577
 20
-15.0825480808
 30
0.0
 11
0.8269339075
 21
-14.890246025
 31
0.0
 11
0.6806241446
 21
-14.8806151499
 31
0.0
 11
0.547003307
 21
-14.9104433025
 31
0.0
 11
0.4309190369
 21
-14.9785806525
 31
0.0
 11
0.3367176577
 21
-15.0825480808
 31
0.0
  0
SPLINE
  5
2BA
100
AcDbEntity
  8
0
100
AcDbSpline
 62
253
  6
CONTINUOUS
 70
0
 71
3
 72
15
 73
11
 74
9
 42
0.0000001
 43
0.0000001
 44
0.0000000001
 12
1.3384782498
 22
-0.6692391249
 32
0.0
 13
-1.4948471637
 23
0.0695484623
 33
0.0
 40
0.0
 40
0.0
 40
0.0
 40
0.0
 40
0.1289864171
 40
0.2735124872
 40
0.4241182162
 40
0.5696074208
 40
0.7002052176
 40
0.8109453211
 40
0.90594548
 40
1.0
 40
1.0
 40
1.0
 40
1.0
 10
0.1926745622
 20
-15.7984627831
 30
0.0
 10
0.2502230668
 20
-15.8272370354
 30
0.0
 10
0.3614042857
 20
-15.9102625303
 30
0.0
 10
0.4959062638
 20
-16.0755356921
 30
0.0
 10
0.596739039
 20
-16.2726644028
 30
0.0
 10
0.6524809676
 20
-16.4799120995
 30
0.0
 10
0.6567456374
 20
-16.6750417128
 30
0.0
 10
0.6070565775
 20
-16.8397368904
 30
0.0
 10
0.4976963784
 20
-16.9526462086
 30
0.0
 10
0.3991639059
 20
-16.9716766299
 30
0.0
 10
0.3522981951
 20
-16.9694961808
 30
0.0
 11
0.1926745622
 21
-15.7984627831
 31
0.0
 11
0.3496517725
 21
-15.9107848523
 31
0.0
 11
0.4877294702
 21
-16.0772503444
 31
0.0
 11
0.590386992
 21
-16.2778888499
 31
0.0
 11
0.6452558633
 21
-16.4885808919
 31
0.0
 11
0.6457446931
 21
-16.6840152051
 31
0.0
 11
0.5917938452
 21
-16.8407058546
 31
0.0
 11
0.4898851804
 21
-16.9398286172
 31
0.0
 11
0.3522981951
 21
-16.9694961808
 31
0.0
  0
SPLINE
  5
2BB
100
AcDbEntity
  8
0
100
AcDbSpline
 62
253
  6
CONTINUOUS
 70
0
 71
3
 72
17
 73
13
 74
11
 42
0.0000001
 43
0.0000001
 44
0.0000000001
 12
-0.9596228027
 22
0.4798114013
 32
0.0
 13
0.9596228027
 23
-0.4798114013
 33
0.0
 40
0.0
 40
0.0
 40
0.0
 40
0.0
 40
0.1319133723
 40
0.280358331
 40
0.4325165958
 40
0.5056249912
 40
0.5745618317
 40
0.695493458
 40
0.7953915524
 40
0.8423381359
 40
0.8907175235
 40
1.0
 40
1.0
 40
1.0
 40
1.0
 10
0.0841499399
 20
-16.7792504155
 30
0.0
 10
0.0419542466
 20
-16.7581525688
 30
0.0
 10
-0.0386714841
 20
-16.695067204
 30
0.0
 10
-0.1317037145
 20
-16.5699289987
 30
0.0
 10
-0.1853215996
 20
-16.4459542058
 30
0.0
 10
-0.2083878549
 20
-16.3429739439
 30
0.0
 10
-0.2160040688
 20
-16.2490851557
 30
0.0
 10
-0.202006032
 20
-16.1440247255
 30
0.0
 10
-0.1445679675
 20
-16.0604609508
 30
0.0
 10
-0.0810292042
 20
-16.0284607727
 30
0.0
 10
-0.0075807762
 20
-16.0177402089
 30
0.0
 10
0.0491932878
 20
-16.0349652745
 30
0.0
 10
0.0841499399
 20
-16.0524436006
 30
0.0
 11
0.0841499399
 21
-16.7792504155
 31
0.0
 11
-0.0294183
 21
-16.6947955997
 31
0.0
 11
-0.125654763
 21
-16.5678942126
 31
0.0
 11
-0.189975363
 21
-16.4178503258
 31
0.0
 11
-0.2068545687
 21
-16.3412506679
 31
0.0
 11
-0.2125642127
 21
-16.2675096722
 31
0.0
 11
-0.1899838588
 21
-16.1397432174
 31
0.0
 11
-0.1256685839
 21
-16.0540049774
 31
0.0
 11
-0.0807208857
 21
-16.0312740175
 31
0.0
 11
-0.0294264296
 21
-16.0233310092
 31
0.0
 11
0.0841499399
 21
-16.0524436006
 31
0.0
  0
SPLINE
  5
2BC
100
AcDbEntity
  8
0
100
AcDbSpline
 62
253
  6
CONTINUOUS
 70
0
 71
3
 72
17
 73
13
 74
11
 42
0.0000001
 43
0.0000001
 44
0.0000000001
 12
0.9596228027
 22
-0.4798114013
 32
0.0
 13
-0.9596228027
 23
0.4798114013
 33
0.0
 40
0.0
 40
0.0
 40
0.0
 40
0.0
 40
0.1319133723
 40
0.280358331
 40
0.4325165958
 40
0.5056249912
 40
0.5745618317
 40
0.695493458
 40
0.7953915524
 40
0.8423381359
 40
0.8907175235
 40
1.0
 40
1.0
 40
1.0
 40
1.0
 10
0.0841499399
 20
-16.0524436006
 30
0.0
 10
0.1263456333
 20
-16.0735414473
 30
0.0
 10
0.206971364
 20
-16.1366268121
 30
0.0
 10
0.3000035944
 20
-16.2617650174
 30
0.0
 10
0.3536214795
 20
-16.3857398103
 30
0.0
 10
0.3766877348
 20
-16.4887200722
 30
0.0
 10
0.3843039487
 20
-16.5826088604
 30
0.0
 10
0.3703059119
 20
-16.6876692906
 30
0.0
 10
0.3128678473
 20
-16.7712330653
 30
0.0
 10
0.2493290841
 20
-16.8032332434
 30
0.0
 10
0.175880656
 20
-16.8139538072
 30
0.0
 10
0.1191065921
 20
-16.7967287416
 30
0.0
 10
0.0841499399
 20
-16.7792504155
 30
0.0
 11
0.0841499399
 21
-16.0524436006
 31
0.0
 11
0.1977181799
 21
-16.1368984164
 31
0.0
 11
0.2939546429
 21
-16.2637998035
 31
0.0
 11
0.3582752429
 21
-16.4138436903
 31
0.0
 11
0.3751544486
 21
-16.4904433482
 31
0.0
 11
0.3808640926
 21
-16.5641843439
 31
0.0
 11
0.3582837387
 21
-16.6919507987
 31
0.0
 11
0.2939684638
 21
-16.7776890387
 31
0.0
 11
0.2490207656
 21
-16.8004199986
 31
0.0
 11
0.1977263094
 21
-16.8083630069
 31
0.0
 11
0.0841499399
 21
-16.7792504155
 31
0.0
  0
SPLINE
  5
2BD
100
AcDbEntity
  8
0
100
AcDbSpline
 62
253
  6
CONTINUOUS
 70
0
 71
3
 72
11
 73
7
 74
5
 42
0.0000001
 43
0.0000001
 44
0.0000000001
 12
0.2446232526
 22
0.3598907657
 32
0.0
 13
0.3892165453
 23
-0.1946082727
 33
0.0
 40
0.0
 40
0.0
 40
0.0
 40
0.0
 40
0.2392814555
 40
0.4712904621
 40
0.7195888925
 40
1.0
 40
1.0
 40
1.0
 40
1.0
 10
-0.1978730476
 20
-15.8691482284
 30
0.0
 10
-0.1783617782
 20
-15.8404431663
 30
0.0
 10
-0.1294953033
 20
-15.7896704628
 30
0.0
 10
-0.0295447428
 20
-15.7501543361
 30
0.0
 10
0.0831995809
 20
-15.7535761498
 30
0.0
 10
0.156294348
 20
-15.780272676
 30
0.0
 10
0.1926745622
 20
-15.7984627831
 30
0.0
 11
-0.1978730476
 21
-15.8691482284
 31
0.0
 11
-0.1244633306
 21
-15.7953034897
 31
0.0
 11
-0.0307641706
 21
-15.7577072978
 31
0.0
 11
0.0772792337
 21
-15.7587951896
 31
0.0
 11
0.1926745622
 21
-15.7984627831
 31
0.0
  0
SPLINE
  5
2BE
100
AcDbEntity
  8
0
100
AcDbSpline
 62
253
  6
CONTINUOUS
 70
0
 71
3
 72
9
 73
5
 74
3
 42
0.0000001
 43
0.0000001
 44
0.0000000001
 12
0.4291377291
 22
-0.0199675314
 32
0.0
 13
0.2685341457
 23
0.3353316351
 33
0.0
 40
0.0
 40
0.0
 40
0.0
 40
0.0
 40
0.5032455975
 40
1.0
 40
1.0
 40
1.0
 40
1.0
 10
1.3023305834
 20
-17.0137755063
 30
0.0
 10
1.3743178077
 20
-17.0171250304
 30
0.0
 10
1.5220753156
 20
-16.9938673232
 30
0.0
 10
1.6387378519
 20
-16.8997536676
 30
0.0
 10
1.6832030249
 20
-16.8442278456
 30
0.0
 11
1.3023305834
 21
-17.0137755063
 31
0.0
 11
1.5151594462
 21
-16.9757716495
 31
0.0
 11
1.6832030249
 21
-16.8442278456
 31
0.0
  0
SPLINE
  5
2BF
100
AcDbEntity
  8
0
100
AcDbSpline
 62
253
  6
CONTINUOUS
 70
0
 71
3
 72
9
 73
5
 74
3
 42
0.0000001
 43
0.0000001
 44
0.0000000001
 12
0.0794342407
 22
0.0991933958
 32
0.0
 13
0.0553295859
 23
0.1144017713
 33
0.0
 40
0.0
 40
0.0
 40
0.0
 40
0.0
 40
0.2433377908
 40
1.0
 40
1.0
 40
1.0
 40
1.0
 10
1.6832030249
 20
-16.8442278456
 30
0.0
 10
1.6896461424
 20
-16.8361820117
 30
0.0
 10
1.7151227959
 20
-16.8023204666
 30
0.0
 10
1.7365248442
 20
-16.7654537383
 30
0.0
 10
1.7504801131
 20
-16.7365992393
 30
0.0
 11
1.6832030249
 21
-16.8442278456
 31
0.0
 11
1.7018037368
 21
-16.8195244778
 31
0.0
 11
1.7504801131
 21
-16.7365992393
 31
0.0
  0
SPLINE
  5
2C0
100
AcDbEntity
  8
0
100
AcDbSpline
 62
253
  6
CONTINUOUS
 70
0
 71
3
 72
9
 73
5
 74
3
 42
0.0000001
 43
0.0000001
 44
0.0000000001
 12
0.112720312
 22
0.0563336314
 32
0.0
 13
0.123853753
 23
0.0232291764
 33
0.0
 40
0.0
 40
0.0
 40
0.0
 40
0.0
 40
0.7470674414
 40
1.0
 40
1.0
 40
1.0
 40
1.0
 10
0.630975408
 20
-14.8231720044
 30
0.0
 10
0.6590452997
 20
-14.8091436637
 30
0.0
 10
0.6988035282
 20
-14.7943349872
 30
0.0
 10
0.7398161111
 20
-14.7852125381
 30
0.0
 10
0.7502583267
 20
-14.7832540664
 30
0.0
 11
0.630975408
 21
-14.8231720044
 31
0.0
 11
0.7191495232
 21
-14.7901910426
 31
0.0
 11
0.7502583267
 21
-14.7832540664
 31
0.0
  0
SPLINE
  5
2C1
100
AcDbEntity
  8
0
100
AcDbSpline
 62
253
  6
CONTINUOUS
 70
0
 71
3
 72
17
 73
13
 74
11
 42
0.0000001
 43
0.0000001
 44
0.0000000001
 12
-7.5937705445
 22
-4.0081133185
 32
0.0
 13
7.6801210125
 23
-3.8400605062
 33
0.0
 40
0.0
 40
0.0
 40
0.0
 40
0.0
 40
0.0449557441
 40
0.0917107615
 40
0.1415815266
 40
0.1953995237
 40
0.3155220604
 40
0.4505746134
 40
0.5944877918
 40
0.7392314646
 40
0.8766031132
 40
1.0
 40
1.0
 40
1.0
 40
1.0
 10
-2.6641009259
 20
-13.201494148
 30
0.0
 10
-2.7778954611
 20
-13.2615567203
 30
0.0
 10
-2.9952774023
 20
-13.4143049737
 30
0.0
 10
-3.2636423704
 20
-13.7224174981
 30
0.0
 10
-3.4721570668
 20
-14.1025160098
 30
0.0
 10
-3.6723774296
 20
-14.7141459044
 30
0.0
 10
-3.739054712
 20
-15.6086727318
 30
0.0
 10
-3.5568572761
 20
-16.7440158674
 30
0.0
 10
-3.1340004596
 20
-17.8883597471
 30
0.0
 10
-2.5066163696
 20
-18.9422941482
 30
0.0
 10
-1.7301550024
 20
-19.8144593763
 30
0.0
 10
-1.1142149899
 20
-20.2536777083
 30
0.0
 10
-0.7983139823
 20
-20.4116282121
 30
0.0
 11
-2.6641009259
 21
-13.201494148
 31
0.0
 11
-2.9805490566
 21
-13.4225619203
 31
0.0
 11
-3.2462101556
 21
-13.7235619224
 31
0.0
 11
-3.4548993534
 21
-14.0974910672
 31
0.0
 11
-3.6017585963
 21
-14.5356498994
 31
0.0
 11
-3.6978150258
 21
-15.5626159402
 31
0.0
 11
-3.5255014162
 21
-16.7093894791
 31
0.0
 11
-3.1007736195
 21
-17.8698356189
 31
0.0
 11
-2.4629259626
 21
-18.9365382614
 31
0.0
 11
-1.6710304765
 21
-19.8107603438
 31
0.0
 11
-0.7983139823
 21
-20.4116282121
 31
0.0
  0
SPLINE
  5
2C2
100
AcDbEntity
  8
0
100
AcDbSpline
 62
253
  6
CONTINUOUS
 70
0
 71
3
 72
11
 73
7
 74
5
 42
0.0000001
 43
0.0000001
 44
0.0000000001
 12
1.9704900671
 22
0.9851613678
 32
0.0
 13
1.9704566019
 23
-0.985228301
 33
0.0
 40
0.0
 40
0.0
 40
0.0
 40
0.0
 40
0.227111417
 40
0.4646734038
 40
0.7207749341
 40
1.0
 40
1.0
 40
1.0
 40
1.0
 10
-2.9256634886
 20
-12.6100929035
 30
0.0
 10
-2.7764898915
 20
-12.5355124388
 30
0.0
 10
-2.4477663872
 20
-12.4261176339
 30
0.0
 10
-1.9136635944
 20
-12.3994019075
 30
0.0
 10
-1.3515600272
 20
-12.5050160155
 30
0.0
 10
-0.9847994526
 20
-12.6533007448
 30
0.0
 10
-0.8013991611
 20
-12.7450008906
 30
0.0
 11
-2.9256634886
 21
-12.6100929035
 31
0.0
 11
-2.4514316782
 21
-12.4505960065
 31
0.0
 11
-1.9289718682
 21
-12.4199480765
 31
0.0
 11
-1.3735427479
 21
-12.5190518501
 31
0.0
 11
-0.8013991611
 21
-12.7450008906
 31
0.0
  0
SPLINE
  5
2C3
100
AcDbEntity
  8
0
100
AcDbSpline
 62
7
  6
CONTINUOUS
 70
0
 71
3
 72
14
 73
10
 74
8
 42
0.0000001
 43
0.0000001
 44
0.0000000001
 12
0.0
 22
-1.9442304851
 32
0.0
 13
-1.7389714177
 23
-0.8694886932
 33
0.0
 40
0.0
 40
0.0
 40
0.0
 40
0.0
 40
0.2827392043
 40
0.4144893636
 40
0.5400311838
 40
0.6600821863
 40
0.7757469857
 40
0.8884815813
 40
1.0
 40
1.0
 40
1.0
 40
1.0
 10
19.4296192719
 20
-26.5421022153
 30
0.0
 10
19.4296192719
 20
-26.725338942
 30
0.0
 10
19.4049065416
 20
-26.9955450527
 30
0.0
 10
19.3119909925
 20
-27.3337002654
 30
0.0
 10
19.2173953488
 20
-27.5600356816
 30
0.0
 10
19.0973211015
 20
-27.7619896714
 30
0.0
 10
18.9530778216
 20
-27.9369869527
 30
0.0
 10
18.786472404
 20
-28.0825978881
 30
0.0
 10
18.6617553827
 20
-28.1588154547
 30
0.0
 10
18.5971129352
 20
-28.1911367895
 30
0.0
 11
19.4296192719
 21
-26.5421022153
 31
0.0
 11
19.3742194519
 21
-27.0890136727
 31
0.0
 11
19.3056178753
 21
-27.3358091694
 31
0.0
 11
19.2107764836
 21
-27.5607119203
 31
0.0
 11
19.0908753443
 21
-27.7609679061
 31
0.0
 11
18.9474027688
 21
-27.9341331388
 31
0.0
 11
18.7821353397
 21
-28.0781034219
 31
0.0
 11
18.5971129352
 21
-28.1911367895
 31
0.0
  0
SPLINE
  5
2C4
100
AcDbEntity
  8
0
100
AcDbSpline
 62
7
  6
CONTINUOUS
 70
0
 71
3
 72
14
 73
10
 74
8
 42
0.0000001
 43
0.0000001
 44
0.0000000001
 12
0.0
 22
-1.8422405279
 32
0.0
 13
-1.6477409647
 23
-0.8238931215
 33
0.0
 40
0.0
 40
0.0
 40
0.0
 40
0.0
 40
0.2961337996
 40
0.4316938771
 40
0.5587277103
 40
0.6777442097
 40
0.7897927289
 40
0.8964957863
 40
1.0
 40
1.0
 40
1.0
 40
1.0
 10
-16.2130508462
 20
-9.008098215
 30
0.0
 10
-16.2130508462
 20
-9.1899481108
 30
0.0
 10
-16.2339534657
 20
-9.4563465884
 30
0.0
 10
-16.315177317
 20
-9.7903076393
 30
0.0
 10
-16.3974078036
 20
-10.0104385913
 30
0.0
 10
-16.5018613844
 20
-10.2048091312
 30
0.0
 10
-16.6275474184
 20
-10.3709921557
 30
0.0
 10
-16.7730510363
 20
-10.5066298551
 30
0.0
 10
-16.883091482
 20
-10.5758992351
 30
0.0
 10
-16.9399408597
 20
-10.604324705
 30
0.0
 11
-16.2130508462
 21
-9.008098215
 31
0.0
 11
-16.2614236609
 21
-9.5514991094
 31
0.0
 11
-16.3213231525
 21
-9.793943445
 31
0.0
 11
-16.4041335181
 21
-10.0128293104
 31
0.0
 11
-16.508823732
 21
-10.2054782122
 31
0.0
 11
-16.6340940143
 21
-10.3695413286
 31
0.0
 11
-16.77839348
 21
-10.503027243
 31
0.0
 11
-16.9399408597
 21
-10.604324705
 31
0.0
  0
SPLINE
  5
2C5
100
AcDbEntity
  8
RACCORDO
100
AcDbSpline
 62
7
  6
CONTINUOUS
 70
0
 71
3
 72
15
 73
11
 74
9
 42
0.0000001
 43
0.0000001
 44
0.0000000001
 12
-0.0
 22
-4.0641038476
 32
0.0
 13
-3.6147478819
 23
-1.8575623367
 33
0.0
 40
0.0
 40
0.0
 40
0.0
 40
0.0
 40
0.159832284
 40
0.309617147
 40
0.448698736
 40
0.576833507
 40
0.6943682596
 40
0.8024624778
 40
0.903281093
 40
1.0
 40
1.0
 40
1.0
 40
1.0
 10
4.2759983999
 20
-19.4903959594
 30
0.0
 10
4.2759983999
 20
-19.7069209595
 30
0.0
 10
4.2580259125
 20
-20.1266744111
 30
0.0
 10
4.1731491958
 20
-20.72960271
 30
0.0
 10
4.0342353785
 20
-21.2784466648
 30
0.0
 10
3.8456731977
 20
-21.765902698
 30
0.0
 10
3.6128898265
 20
-22.1867020826
 30
0.0
 10
3.3414237874
 20
-22.5382395658
 30
0.0
 10
3.0358493857
 20
-22.8205447551
 30
0.0
 10
2.8086070031
 20
-22.9651176016
 30
0.0
 10
2.6920688484
 20
-23.0250047345
 30
0.0
 11
4.2759983999
 21
-19.4903959594
 31
0.0
 11
4.2466244946
 21
-20.139306473
 31
0.0
 11
4.1599432537
 21
-20.7418446522
 31
0.0
 11
4.019226219
 21
-21.2892907761
 31
0.0
 11
3.8292551567
 21
-21.7741564266
 31
0.0
 11
3.5960515338
 21
-22.1910352887
 31
0.0
 11
3.3259642267
 21
-22.5375071071
 31
0.0
 11
3.024003131
 21
-22.8144622832
 31
0.0
 11
2.6920688484
 21
-23.0250047345
 31
0.0
  0
SPLINE
  5
2C6
100
AcDbEntity
  8
RACCORDO
100
AcDbSpline
 62
7
  6
CONTINUOUS
 70
0
 71
3
 72
25
 73
21
 74
19
 42
0.0000001
 43
0.0000001
 44
0.0000000001
 12
12.2364741205
 22
5.9500731437
 32
0.0
 13
-0.0
 23
-13.6064201507
 33
0.0
 40
0.0
 40
0.0
 40
0.0
 40
0.0
 40
0.0186255566
 40
0.0376027034
 40
0.0572257934
 40
0.0777444984
 40
0.1221431568
 40
0.1717808949
 40
0.2268807385
 40
0.2871956968
 40
0.3521821878
 40
0.4211059686
 40
0.4931051837
 40
0.5672317827
 40
0.6424829156
 40
0.717828013
 40
0.792234221
 40
0.8646917257
 40
0.9342403915
 40
1.0
 40
1.0
 40
1.0
 40
1.0
 10
-3.638390115
 20
-10.363999976
 30
0.0
 10
-3.5624197348
 20
-10.3270588347
 30
0.0
 10
-3.4044852537
 20
-10.2614795848
 30
0.0
 10
-3.1543025628
 20
-10.1903824115
 30
0.0
 10
-2.8891845103
 20
-10.1466441166
 30
0.0
 10
-2.5056832778
 20
-10.1255248973
 30
0.0
 10
-1.9852898498
 20
-10.1792343924
 30
0.0
 10
-1.3326849843
 20
-10.3679123313
 30
0.0
 10
-0.6512931764
 20
-10.6840223454
 30
0.0
 10
0.0407660744
 20
-11.1243689564
 30
0.0
 10
0.725602212
 20
-11.6812347906
 30
0.0
 10
1.3862394011
 20
-12.3434913831
 30
0.0
 10
2.007183527
 20
-13.0974316375
 30
0.0
 10
2.5745144939
 20
-13.9273838945
 30
0.0
 10
3.0759580011
 20
-14.8161371729
 30
0.0
 10
3.5009538523
 20
-15.7452732344
 30
0.0
 10
3.8407561744
 20
-16.6954198641
 30
0.0
 10
4.0885871144
 20
-17.6465799754
 30
0.0
 10
4.2398325304
 20
-18.5780894566
 30
0.0
 10
4.2759983999
 20
-19.1921450051
 30
0.0
 10
4.2759983999
 20
-19.4903959594
 30
0.0
 11
-3.638390115
 21
-10.363999976
 31
0.0
 11
-3.4043772751
 21
-10.2667204296
 31
0.0
 11
-3.1560756803
 21
-10.1958737256
 31
0.0
 11
-2.8927038052
 21
-10.1520073424
 31
0.0
 11
-2.6139683128
 21
-10.1361512498
 31
0.0
 11
-2.0125869325
 21
-10.1934701868
 31
0.0
 11
-1.3624104422
 21
-10.3762946287
 31
0.0
 11
-0.680506918
 21
-10.687863403
 31
0.0
 11
0.0138380474
 21
-11.1253395839
 31
0.0
 11
0.7017028414
 21
-11.6809571745
 31
0.0
 11
1.3655533864
 21
-12.3433636957
 31
0.0
 11
1.9895216111
 21
-13.0985993237
 31
0.0
 11
2.5594441093
 21
-13.9307396764
 31
0.0
 11
3.0628682378
 21
-14.8223294646
 31
0.0
 11
3.489093499
 21
-15.7547027876
 31
0.0
 11
3.8292596971
 21
-16.7082461933
 31
0.0
 11
4.0764933493
 21
-17.6626303897
 31
0.0
 11
4.2261225081
 21
-18.5970342852
 31
0.0
 11
4.2759983999
 21
-19.4903959594
 31
0.0
  0
SPLINE
  5
2C7
100
AcDbEntity
  8
RACCORDO
100
AcDbSpline
 62
7
  6
CONTINUOUS
 70
0
 71
3
 72
11
 73
7
 74
5
 42
0.0000001
 43
0.0000001
 44
0.0000000001
 12
-57.1851172986
 22
23.193666795
 32
0.0
 13
-52.5180752474
 23
32.4027096423
 33
0.0
 40
0.0
 40
0.0
 40
0.0
 40
0.0
 40
0.2619351473
 40
0.5161039791
 40
0.7622044558
 40
1.0
 40
1.0
 40
1.0
 40
1.0
 10
29.5309982258
 20
-63.741979296
 30
0.0
 10
24.5380675189
 20
-61.7169004535
 30
0.0
 10
14.7716134312
 20
-57.5475842868
 30
0.0
 10
0.5997107214
 20
-50.8318369327
 30
0.0
 10
-12.8416590756
 20
-43.7640008607
 30
0.0
 10
-21.4407685024
 20
-38.7425686385
 30
0.0
 10
-25.6036232638
 20
-36.1741619808
 30
0.0
 11
29.5309982258
 21
-63.741979296
 31
0.0
 11
14.6685330643
 21
-57.387465815
 31
0.0
 11
0.4989799991
 21
-50.6619311556
 31
0.0
 11
-12.9377008599
 21
-43.584226918
 31
0.0
 11
-25.6036232638
 21
-36.1741619808
 31
0.0
  0
SPLINE
  5
2C8
100
AcDbEntity
  8
RACCORDO
100
AcDbSpline
 62
7
  6
CONTINUOUS
 70
0
 71
3
 72
11
 73
7
 74
5
 42
0.0000001
 43
0.0000001
 44
0.0000000001
 12
-6.0348143899
 22
67.3270922383
 32
0.0
 13
5.5258281815
 23
67.3707767277
 33
0.0
 40
0.0
 40
0.0
 40
0.0
 40
0.0
 40
0.2416348837
 40
0.4890052959
 40
0.7418845495
 40
1.0
 40
1.0
 40
1.0
 40
1.0
 10
-26.19258468
 20
-35.1835781676
 30
0.0
 10
-26.678658571
 20
-29.7607201341
 30
0.0
 10
-27.4022798844
 20
-18.7615050162
 30
0.0
 10
-27.7546930651
 20
-2.0437803275
 30
0.0
 10
-27.3864791515
 20
15.0448158175
 30
0.0
 10
-26.6683416814
 20
26.5399133517
 30
0.0
 10
-26.1929078047
 20
32.3363928128
 30
0.0
 11
-26.19258468
 21
-35.1835781676
 31
0.0
 11
-27.2738240822
 21
-18.8856078931
 31
0.0
 11
-27.6345774037
 21
-2.1679985559
 31
0.0
 11
-27.2739096688
 21
14.9220786258
 31
0.0
 11
-26.1929078047
 21
32.3363928128
 31
0.0
  0
SPLINE
  5
2C9
100
AcDbEntity
  8
0
100
AcDbSpline
 62
7
  6
CONTINUOUS
 70
0
 71
3
 72
15
 73
11
 74
9
 42
0.0000001
 43
0.0000001
 44
0.0000000001
 12
1.9059845469
 22
0.9529962671
 32
0.0
 13
1.4888458895
 23
-1.524571053
 33
0.0
 40
0.0
 40
0.0
 40
0.0
 40
0.0
 40
0.1020648992
 40
0.2066914426
 40
0.3168400158
 40
0.4347312107
 40
0.5617364033
 40
0.6984338066
 40
0.8447317975
 40
1.0
 40
1.0
 40
1.0
 40
1.0
 10
-19.4415085742
 20
-5.1469049863
 30
0.0
 10
-19.3766638673
 20
-5.1144824969
 30
0.0
 10
-19.2374551221
 20
-5.0634536594
 30
0.0
 10
-19.0126780687
 20
-5.0340968476
 30
0.0
 10
-18.7755560304
 20
-5.0514810811
 30
0.0
 10
-18.5302069883
 20
-5.1146216136
 30
0.0
 10
-18.2803146277
 20
-5.2219521573
 30
0.0
 10
-18.0295684964
 20
-5.3715185302
 30
0.0
 10
-17.7817273871
 20
-5.5608447801
 30
0.0
 10
-17.6251821632
 20
-5.7076151788
 30
0.0
 10
-17.5481253548
 20
-5.7865209812
 30
0.0
 11
-19.4415085742
 21
-5.1469049863
 31
0.0
 11
-19.2373698484
 21
-5.0718592332
 31
0.0
 11
-19.0164244048
 21
-5.0419944173
 31
0.0
 11
-18.7822324223
 21
-5.0577579212
 31
0.0
 11
-18.5385579059
 21
-5.1188707008
 31
0.0
 11
-18.289309692
 21
-5.2243352313
 31
0.0
 11
-18.0384818524
 21
-5.3724532441
 31
0.0
 11
-17.7900932306
 21
-5.5608521013
 31
0.0
 11
-17.5481253548
 21
-5.7865209812
 31
0.0
  0
SPLINE
  5
2CA
100
AcDbEntity
  8
0
100
AcDbSpline
 62
7
  6
CONTINUOUS
 70
0
 71
3
 72
15
 73
11
 74
9
 42
0.0000001
 43
0.0000001
 44
0.0000000001
 12
2.4908657564
 22
-2.5506345928
 32
0.0
 13
0.0
 23
-3.5651295969
 33
0.0
 40
0.0
 40
0.0
 40
0.0
 40
0.0
 40
0.1194676827
 40
0.2444379947
 40
0.3730844272
 40
0.503390133
 40
0.6332518323
 40
0.7605811879
 40
0.8834094933
 40
1.0
 40
1.0
 40
1.0
 40
1.0
 10
-17.5481253548
 20
-5.7865209812
 30
0.0
 10
-17.4489327016
 20
-5.8880937825
 30
0.0
 10
-17.2576540186
 20
-6.1075555521
 30
0.0
 10
-17.0004841214
 20
-6.4694793169
 30
0.0
 10
-16.7712473179
 20
-6.8646807285
 30
0.0
 10
-16.5754148604
 20
-7.2838402251
 30
0.0
 10
-16.4176293185
 20
-7.7170941855
 30
0.0
 10
-16.3016595618
 20
-8.1542324402
 30
0.0
 10
-16.2302804591
 20
-8.5848501647
 30
0.0
 10
-16.2130508462
 20
-8.8695447929
 30
0.0
 10
-16.2130508462
 20
-9.008098215
 30
0.0
 11
-17.5481253548
 21
-5.7865209812
 31
0.0
 11
-17.2674028124
 21
-6.1068345808
 31
0.0
 11
-17.0086967143
 21
-6.469564384
 31
0.0
 11
-16.7782089492
 21
-6.8660831658
 31
0.0
 11
-16.5814875438
 21
-7.2869318828
 31
0.0
 11
-16.4232878915
 21
-7.7220383041
 31
0.0
 11
-16.3074501683
 21
-8.1609554705
 31
0.0
 11
-16.2367959105
 21
-8.5931167349
 31
0.0
 11
-16.2130508462
 21
-9.008098215
 31
0.0
  0
SPLINE
  5
2CB
100
AcDbEntity
  8
0
100
AcDbSpline
 62
7
  6
CONTINUOUS
 70
0
 71
3
 72
14
 73
10
 74
8
 42
0.0000001
 43
0.0000001
 44
0.0000000001
 12
2.1012249347
 22
1.0506377071
 32
0.0
 13
1.8071482137
 23
-1.5010666712
 33
0.0
 40
0.0
 40
0.0
 40
0.0
 40
0.0
 40
0.1066147597
 40
0.2160818973
 40
0.3302494993
 40
0.4504677719
 40
0.5775378835
 40
0.7117362353
 40
1.0
 40
1.0
 40
1.0
 40
1.0
 10
15.7320956342
 20
-22.9154418637
 30
0.0
 10
15.8067694981
 20
-22.8781040348
 30
0.0
 10
15.9659670136
 20
-22.8171910305
 30
0.0
 10
16.2219267764
 20
-22.7716358558
 30
0.0
 10
16.4924721177
 20
-22.771464847
 30
0.0
 10
16.7730177772
 20
-22.8162917159
 30
0.0
 10
17.0592394668
 20
-22.9050585652
 30
0.0
 10
17.4515468157
 20
-23.0839634588
 30
0.0
 10
17.7268671563
 20
-23.2732188456
 30
0.0
 10
17.9005122721
 20
-23.4174532222
 30
0.0
 11
15.7320956342
 21
-22.9154418637
 31
0.0
 11
15.9658804391
 21
-22.8255677314
 31
0.0
 11
16.2189135824
 21
-22.7796489479
 31
0.0
 11
16.4871191259
 21
-22.7783921489
 31
0.0
 11
16.7661874697
 21
-22.8217929851
 31
0.0
 11
17.0516425632
 21
-22.9091395538
 31
0.0
 11
17.3389094919
 21
-23.0390249571
 31
0.0
 11
17.9005122721
 21
-23.4174532222
 31
0.0
  0
SPLINE
  5
2CC
100
AcDbEntity
  8
0
100
AcDbSpline
 62
7
  6
CONTINUOUS
 70
0
 71
3
 72
15
 73
11
 74
9
 42
0.0000001
 43
0.0000001
 44
0.0000000001
 12
2.7546954637
 22
-2.2881253008
 32
0.0
 13
0.0
 23
-3.5810423748
 33
0.0
 40
0.0
 40
0.0
 40
0.0
 40
0.0
 40
0.1227823881
 40
0.2495542617
 40
0.3787127592
 40
0.5085153496
 40
0.6371785769
 40
0.7629773054
 40
0.88434814
 40
1.0
 40
1.0
 40
1.0
 40
1.0
 10
17.9005122721
 20
-23.4174532222
 30
0.0
 10
18.0132549679
 20
-23.511100385
 30
0.0
 10
18.231200406
 20
-23.7152700504
 30
0.0
 10
18.5263091615
 20
-24.0587508997
 30
0.0
 10
18.7893519833
 20
-24.4376410687
 30
0.0
 10
19.0140555617
 20
-24.8430064653
 30
0.0
 10
19.1951009562
 20
-25.2653248986
 30
0.0
 10
19.3281572616
 20
-25.6946840389
 30
0.0
 10
19.4100152285
 20
-26.1208786617
 30
0.0
 10
19.4296192719
 20
-26.4040508115
 30
0.0
 10
19.4296192719
 20
-26.5421022153
 30
0.0
 11
17.9005122721
 21
-23.4174532222
 31
0.0
 11
18.2220318417
 21
-23.7173724204
 31
0.0
 11
18.5183387255
 21
-24.0613141903
 31
0.0
 11
18.7823268787
 21
-24.4410995301
 31
0.0
 11
19.0076401852
 21
-24.8476699661
 31
0.0
 11
19.188831405
 21
-25.2712958547
 31
0.0
 11
19.3215029152
 21
-25.7018072143
 31
0.0
 11
19.402423989
 21
-26.1288418525
 31
0.0
 11
19.4296192719
 21
-26.5421022153
 31
0.0
  0
LINE
  5
2CD
100
AcDbEntity
  8
0
100
AcDbLine
 62
7
  6
CONTINUOUS
 10
20.9794776417
 20
-55.1479622301
 11
20.5984189333
 21
-54.9849205161
  0
LINE
  5
2CE
100
AcDbEntity
  8
0
100
AcDbLine
 62
7
  6
CONTINUOUS
 10
21.251560703
 20
-54.4833763431
 11
20.918593763
 21
-54.3412682679
  0
LINE
  5
2CF
100
AcDbEntity
  8
0
100
AcDbLine
 62
7
  6
CONTINUOUS
 10
22.1260651179
 20
-55.6358453124
 11
21.6952649974
 21
-55.4530122723
  0
SPLINE
  5
2D0
100
AcDbEntity
  8
0
100
AcDbSpline
 62
7
  6
CONTINUOUS
 70
0
 71
3
 72
9
 73
5
 74
3
 42
0.0000001
 43
0.0000001
 44
0.0000000001
 12
0.140946982
 22
0.0051268473
 32
0.0
 13
0.1261492978
 23
0.0630768655
 33
0.0
 40
0.0
 40
0.0
 40
0.0
 40
0.0
 40
0.5122302946
 40
1.0
 40
1.0
 40
1.0
 40
1.0
 10
21.6542525894
 20
-54.6061552787
 30
0.0
 10
21.6783183607
 20
-54.6052799032
 30
0.0
 10
21.7252993657
 20
-54.5992122027
 30
0.0
 10
21.7699643054
 20
-54.5831285613
 30
0.0
 10
21.7904749073
 20
-54.5728729
 30
0.0
 11
21.6542525894
 21
-54.6061552787
 31
0.0
 11
21.7258408599
 21
-54.5964358019
 31
0.0
 11
21.7904749073
 21
-54.5728729
 31
0.0
  0
LINE
  5
2D1
100
AcDbEntity
  8
0
100
AcDbLine
 62
7
  6
CONTINUOUS
 10
21.3121462114
 20
-53.642307738
 11
20.8479089106
 21
-53.4442593923
  0
SPLINE
  5
2D2
100
AcDbEntity
  8
0
100
AcDbSpline
 62
7
  6
CONTINUOUS
 70
0
 71
3
 72
16
 73
12
 74
10
 42
0.0000001
 43
0.0000001
 44
0.0000000001
 12
0.585975798
 22
-0.2495647433
 32
0.0
 13
-0.5696681073
 23
-0.2848305538
 33
0.0
 40
0.0
 40
0.0
 40
0.0
 40
0.0
 40
0.1294614252
 40
0.2712042363
 40
0.4178703296
 40
0.5611387784
 40
0.6933519183
 40
0.8093376373
 40
0.9088761518
 40
0.9548027968
 40
1.0
 40
1.0
 40
1.0
 40
1.0
 10
21.3121462114
 20
-53.642307738
 30
0.0
 10
21.3374332988
 20
-53.6530774071
 30
0.0
 10
21.3872322743
 20
-53.6833002163
 30
0.0
 10
21.4521071492
 20
-53.7445438784
 30
0.0
 10
21.5062904307
 20
-53.8191112202
 30
0.0
 10
21.5450530227
 20
-53.900521237
 30
0.0
 10
21.5649551864
 20
-53.9819332064
 30
0.0
 10
21.5641563411
 20
-54.05673092
 30
0.0
 10
21.5438427483
 20
-54.1103170975
 30
0.0
 10
21.5166706486
 20
-54.1408493228
 30
0.0
 10
21.5003790016
 20
-54.1517321876
 30
0.0
 10
21.4917965332
 20
-54.156023369
 30
0.0
 11
21.3121462114
 21
-53.642307738
 31
0.0
 11
21.383223868
 21
-53.6841021127
 31
0.0
 11
21.4492715413
 21
-53.7456458606
 31
0.0
 11
21.5042169341
 21
-53.8211900333
 31
0.0
 11
21.5430145881
 21
-53.9037797209
 31
0.0
 11
21.5620378065
 21
-53.9858102648
 31
0.0
 11
21.5594123086
 21
-54.0596356797
 31
0.0
 11
21.5352624192
 21
-54.1182524936
 31
0.0
 11
21.5157271103
 21
-54.1400238535
 31
0.0
 11
21.4917965332
 21
-54.156023369
 31
0.0
  0
LINE
  5
2D3
100
AcDbEntity
  8
0
100
AcDbLine
 62
7
  6
CONTINUOUS
 10
19.9644006378
 20
-54.7126487927
 11
19.8132570429
 21
-54.2508120027
  0
LINE
  5
2D4
100
AcDbEntity
  8
0
100
AcDbLine
 62
7
  6
CONTINUOUS
 10
20.3446535837
 20
-54.8760994502
 11
19.9644006378
 21
-54.7126487927
  0
LINE
  5
2D5
100
AcDbEntity
  8
0
100
AcDbLine
 62
7
  6
CONTINUOUS
 10
19.1254962464
 20
-54.3504651524
 11
18.7468014448
 21
-54.1862524969
  0
SPLINE
  5
2D6
100
AcDbEntity
  8
0
100
AcDbSpline
 62
7
  6
CONTINUOUS
 70
0
 71
3
 72
9
 73
5
 74
3
 42
0.0000001
 43
0.0000001
 44
0.0000000001
 12
-0.5995088572
 22
0.2582717461
 32
0.0
 13
-0.5991001164
 23
0.2592184698
 33
0.0
 40
0.0
 40
0.0
 40
0.0
 40
0.0
 40
0.2501098758
 40
1.0
 40
1.0
 40
1.0
 40
1.0
 10
19.8132570429
 20
-54.2508120027
 30
0.0
 10
19.7632760143
 20
-54.2292798979
 30
0.0
 10
19.5634567078
 20
-54.1431499084
 30
0.0
 10
19.3637053713
 20
-54.0568622301
 30
0.0
 10
19.2139522844
 20
-53.9920671065
 30
0.0
 11
19.8132570429
 21
-54.2508120027
 31
0.0
 11
19.6633267023
 21
-54.1861861117
 31
0.0
 11
19.2139522844
 21
-53.9920671065
 31
0.0
  0
SPLINE
  5
2D7
100
AcDbEntity
  8
0
100
AcDbSpline
 62
7
  6
CONTINUOUS
 70
0
 71
3
 72
8
 73
4
 74
2
 42
0.0000001
 43
0.0000001
 44
0.0000000001
 12
-0.2308980359
 22
0.7096716819
 32
0.0
 13
-0.2296136934
 23
0.7100882698
 33
0.0
 40
0.0
 40
0.0
 40
0.0
 40
0.0
 40
1.0
 40
1.0
 40
1.0
 40
1.0
 10
19.6677084632
 20
-53.8043563094
 30
0.0
 10
19.5907424512
 20
-53.5677990821
 30
0.0
 10
19.5139905626
 20
-53.331172081
 30
0.0
 10
19.4374526649
 20
-53.0944759911
 30
0.0
 11
19.6677084632
 21
-53.8043563094
 31
0.0
 11
19.4374526649
 21
-53.0944759911
 31
0.0
  0
LINE
  5
2D8
100
AcDbEntity
  8
0
100
AcDbLine
 62
7
  6
CONTINUOUS
 10
18.4946073274
 20
-54.0766397527
 11
18.1167163408
 21
-53.9120184204
  0
LINE
  5
2D9
100
AcDbEntity
  8
0
100
AcDbLine
 62
7
  6
CONTINUOUS
 10
17.0269990524
 20
-53.4347626977
 11
16.6509867149
 21
-53.2692027479
  0
LINE
  5
2DA
100
AcDbEntity
  8
0
100
AcDbLine
 62
7
  6
CONTINUOUS
 10
17.7598821231
 20
-53.7561489789
 11
17.3829405823
 21
-53.5910681783
  0
LINE
  5
2DB
100
AcDbEntity
  8
0
100
AcDbLine
 62
7
  6
CONTINUOUS
 10
16.2754649624
 20
-53.1034052839
 11
15.9004175332
 21
-52.9373680761
  0
LINE
  5
2DC
100
AcDbEntity
  8
0
100
AcDbLine
 62
7
  6
CONTINUOUS
 10
15.0500979315
 20
-52.5592182646
 11
14.6766125371
 21
-52.3923858974
  0
SPLINE
  5
2DD
100
AcDbEntity
  8
RACCORDO
100
AcDbSpline
 62
253
  6
CONTINUOUS
 70
0
 71
3
 72
33
 73
29
 74
27
 42
0.0000001
 43
0.0000001
 44
0.0000000001
 12
0.0
 22
-20.2726001313
 32
0.0
 13
0.0
 23
20.2726001313
 33
0.0
 40
0.0
 40
0.0
 40
0.0
 40
0.0
 40
0.0324217045
 40
0.0634327522
 40
0.0929936122
 40
0.1211184952
 40
0.1478834714
 40
0.1734330025
 40
0.1979828757
 40
0.2218164983
 40
0.2452716948
 40
0.2687173366
 40
0.2925230989
 40
0.3170290365
 40
0.342521747
 40
0.369220622
 40
0.3972737275
 40
0.4267604972
 40
0.4576981511
 40
0.4900495586
 40
0.5237312565
 40
0.5586209777
 40
0.6313419783
 40
0.7067482986
 40
0.7830912298
 40
0.8585438318
 40
0.931353463
 40
1.0
 40
1.0
 40
1.0
 40
1.0
 10
4.5225121302
 20
-19.7792094586
 30
0.0
 10
4.5225121302
 20
-19.998300209
 30
0.0
 10
4.5057198513
 20
-20.4272013416
 30
0.0
 10
4.4265796179
 20
-21.0514456944
 30
0.0
 10
4.2946689043
 20
-21.6371561979
 30
0.0
 10
4.1110733149
 20
-22.1787241504
 30
0.0
 10
3.87730646
 20
-22.6709650858
 30
0.0
 10
3.5953164439
 20
-23.1090330139
 30
0.0
 10
3.2675357423
 20
-23.4884337343
 30
0.0
 10
2.8969794159
 20
-23.8050618064
 30
0.0
 10
2.4873396555
 20
-24.0553445919
 30
0.0
 10
2.0429741494
 20
-24.2364726041
 30
0.0
 10
1.5687273452
 20
-24.3465945848
 30
0.0
 10
1.0696673643
 20
-24.3848515376
 30
0.0
 10
0.5508889431
 20
-24.3512541728
 30
0.0
 10
0.0174493742
 20
-24.2465216072
 30
0.0
 10
-0.5256089234
 20
-24.0719723401
 30
0.0
 10
-1.0732213693
 20
-23.8294850538
 30
0.0
 10
-1.6202930059
 20
-23.5214956371
 30
0.0
 10
-2.1617069693
 20
-23.1510082054
 30
0.0
 10
-2.6924068855
 20
-22.7215723985
 30
0.0
 10
-3.3884491676
 20
-22.0669485833
 30
0.0
 10
-4.1977467138
 20
-21.1264721424
 30
0.0
 10
-5.0372757854
 20
-19.858772128
 30
0.0
 10
-5.7276301058
 20
-18.4833186672
 30
0.0
 10
-6.2428558246
 20
-17.0515822758
 30
0.0
 10
-6.5636776343
 20
-15.6174113177
 30
0.0
 10
-6.6425749612
 20
-14.6605471776
 30
0.0
 10
-6.6425749612
 20
-14.1966659129
 30
0.0
 11
4.5225121302
 21
-19.7792094586
 31
0.0
 11
4.4956305763
 21
-20.4359317701
 31
0.0
 11
4.415244982
 21
-21.0594458997
 31
0.0
 11
4.2821296053
 21
-21.6437501137
 31
0.0
 11
4.0975663102
 21
-22.1832164757
 31
0.0
 11
3.8633323788
 21
-22.6726493265
 31
0.0
 11
3.5816837862
 21
-23.1073352991
 31
0.0
 11
3.2553330427
 21
-23.4830882655
 31
0.0
 11
2.8874229859
 21
-23.7962894099
 31
0.0
 11
2.4814966711
 21
-24.043922209
 31
0.0
 11
2.041463527
 21
-24.2236020368
 31
0.0
 11
1.5715613609
 21
-24.3335986242
 31
0.0
 11
1.07631551
 21
-24.3728525062
 31
0.0
 11
0.5604954113
 21
-24.3409854075
 31
0.0
 11
0.0290687778
 21
-24.2383044661
 31
0.0
 11
-0.5128464621
 21
-24.0657986934
 31
0.0
 11
-1.0600314157
 21
-23.8251292626
 31
0.0
 11
-1.6072163689
 21
-23.51861374
 31
0.0
 11
-2.1491316088
 21
-23.1492042727
 31
0.0
 11
-2.6805582421
 21
-22.7204585808
 31
0.0
 11
-3.1963783412
 21
-22.2365055805
 31
0.0
 11
-4.1615263582
 21
-21.122107094
 31
0.0
 11
-5.0074858167
 21
-19.8488350087
 31
0.0
 11
-5.7017466173
 21
-18.465620097
 31
0.0
 11
-6.2176291412
 21
-17.0256187496
 31
0.0
 11
-6.5353078131
 21
-15.5841695017
 31
0.0
 11
-6.6425749612
 21
-14.1966659129
 31
0.0
  0
SPLINE
  5
2DE
100
AcDbEntity
  8
RACCORDO
100
AcDbSpline
 62
253
  6
CONTINUOUS
 70
0
 71
3
 72
25
 73
21
 74
19
 42
0.0000001
 43
0.0000001
 44
0.0000000001
 12
-12.2178341008
 22
-6.278477335
 32
0.0
 13
0.0
 23
13.736620682
 33
0.0
 40
0.0
 40
0.0
 40
0.0
 40
0.0
 40
0.0223171556
 40
0.0448009879
 40
0.0676285998
 40
0.0909626065
 40
0.1396395593
 40
0.191748586
 40
0.2477390722
 40
0.3076962869
 40
0.3714035491
 40
0.4384060756
 40
0.5080682876
 40
0.5796238342
 40
0.6522201015
 40
0.7249591661
 40
0.7969369946
 40
0.8672824225
 40
0.9351973944
 40
1.0
 40
1.0
 40
1.0
 40
1.0
 10
2.692042374
 20
-23.0250181351
 30
0.0
 10
2.6011532726
 20
-23.0717240535
 30
0.0
 10
2.413083775
 20
-23.1549917312
 30
0.0
 10
2.1168050401
 20
-23.2472028414
 30
0.0
 10
1.8074511038
 20
-23.3064786788
 30
0.0
 10
1.373907433
 20
-23.3417638483
 30
0.0
 10
0.8032266107
 20
-23.2986331634
 30
0.0
 10
0.1057799954
 20
-23.1154280828
 30
0.0
 10
-0.6014708914
 20
-22.8053140974
 30
0.0
 10
-1.3051355547
 20
-22.3750136732
 30
0.0
 10
-1.9920625128
 20
-21.8332247664
 30
0.0
 10
-2.6491102424
 20
-21.1906150758
 30
0.0
 10
-3.263574847
 20
-20.4597854012
 30
0.0
 10
-3.8234676381
 20
-19.655076282
 30
0.0
 10
-4.317809894
 20
-18.7923047293
 30
0.0
 10
-4.7368833029
 20
-17.8884427585
 30
0.0
 10
-5.0724383307
 20
-16.9612863352
 30
0.0
 10
-5.3178674858
 20
-16.0290027364
 30
0.0
 10
-5.468318035
 20
-15.1100285388
 30
0.0
 10
-5.5042205513
 20
-14.5019458952
 30
0.0
 10
-5.5042205513
 20
-14.2052229577
 30
0.0
 11
2.692042374
 21
-23.0250181351
 31
0.0
 11
2.4117481448
 21
-23.1491776663
 31
0.0
 11
2.1169100928
 21
-23.2411559486
 31
0.0
 11
1.8090012575
 21
-23.3004935991
 31
0.0
 11
1.4895599706
 21
-23.326894373
 31
0.0
 11
0.8225130424
 21
-23.2805223791
 31
0.0
 11
0.1290824989
 21
-23.1029653781
 31
0.0
 11
-0.5768918157
 21
-22.797767161
 31
0.0
 11
-1.281319742
 21
-22.371019074
 31
0.0
 11
-1.9701419478
 21
-21.8312382385
 31
0.0
 11
-2.6296106505
 21
-21.1891980226
 31
0.0
 11
-3.246563745
 21
-20.4577123854
 31
0.0
 11
-3.8086879512
 21
-19.6513808681
 31
0.0
 11
-4.3047639097
 21
-18.7862964177
 31
0.0
 11
-4.7248909781
 21
-17.8797249743
 31
0.0
 11
-5.0606837131
 21
-16.9497602126
 31
0.0
 11
-5.3054406092
 21
-16.0149628541
 31
0.0
 11
-5.4542762375
 21
-15.0939895638
 31
0.0
 11
-5.5042205513
 21
-14.2052229577
 31
0.0
  0
LINE
  5
2DF
100
AcDbEntity
  8
0
100
AcDbLine
 62
7
  6
CONTINUOUS
 10
15.7467579739
 20
-50.8490355319
 11
16.121793865
 21
-51.015084412
  0
LINE
  5
2E0
100
AcDbEntity
  8
0
100
AcDbLine
 62
7
  6
CONTINUOUS
 10
13.9244650589
 20
-50.0356984567
 11
14.2971565615
 21
-50.2029237737
  0
LINE
  5
2E1
100
AcDbEntity
  8
0
100
AcDbLine
 62
7
  6
CONTINUOUS
 10
19.3434605672
 20
-52.2903460327
 11
19.722950174
 21
-52.4541857327
  0
LINE
  5
2E2
100
AcDbEntity
  8
0
100
AcDbLine
 62
7
  6
CONTINUOUS
 10
15.1227657788
 20
-50.5717507583
 11
15.4970032198
 21
-50.7382031061
  0
SPLINE
  5
2E3
100
AcDbEntity
  8
RACCORDO
100
AcDbSpline
 62
253
  6
CONTINUOUS
 70
0
 71
3
 72
15
 73
11
 74
9
 42
0.0000001
 43
0.0000001
 44
0.0000000001
 12
-0.4638960802
 22
0.2885782912
 32
0.0
 13
-0.0446655212
 23
-0.5445016021
 33
0.0
 40
0.0
 40
0.0
 40
0.0
 40
0.0
 40
0.1263100103
 40
0.2407571334
 40
0.3484236677
 40
0.4565907918
 40
0.5724386407
 40
0.7008042317
 40
0.8435358056
 40
1.0
 40
1.0
 40
1.0
 40
1.0
 10
-25.7278895299
 20
32.4417769415
 30
0.0
 10
-25.7474211028
 20
32.4539270504
 30
0.0
 10
-25.7871708075
 20
32.4735056602
 30
0.0
 10
-25.8503045778
 20
32.4859042898
 30
0.0
 10
-25.9111228996
 20
32.478141033
 30
0.0
 10
-25.9658938921
 20
32.4500580189
 30
0.0
 10
-26.0116535765
 20
32.403806348
 30
0.0
 10
-26.0470585886
 20
32.3421639681
 30
0.0
 10
-26.0713895981
 20
32.2677535703
 30
0.0
 10
-26.0795379029
 20
32.2136316151
 30
0.0
 10
-26.0818674211
 20
32.1852332802
 30
0.0
 11
-25.7278895299
 21
32.4417769415
 31
0.0
 11
-25.7901959942
 21
32.4714395762
 31
0.0
 11
-25.8517067581
 21
32.4826610154
 31
0.0
 11
-25.9100097243
 21
32.4748678
 31
0.0
 11
-25.9627833052
 21
32.4482751708
 31
0.0
 11
-26.0079199751
 21
32.4039078569
 31
0.0
 11
-26.0436415393
 21
32.3435572826
 31
0.0
 11
-26.0685877198
 21
32.2696766235
 31
0.0
 11
-26.0818674211
 21
32.1852332802
 31
0.0
  0
LINE
  5
2E4
100
AcDbEntity
  8
0
100
AcDbLine
 62
7
  6
CONTINUOUS
 10
19.3266570581
 20
-54.0408109043
 11
19.2678571109
 21
-54.2792847202
  0
SPLINE
  5
2E5
100
AcDbEntity
  8
0
100
AcDbSpline
 62
7
  6
CONTINUOUS
 70
0
 71
3
 72
9
 73
5
 74
3
 42
0.0000001
 43
0.0000001
 44
0.0000000001
 12
0.0501067336
 22
-0.6703727568
 32
0.0
 13
0.0513987587
 23
-0.6702749327
 33
0.0
 40
0.0
 40
0.0
 40
0.0
 40
0.0
 40
0.2500922051
 40
1.0
 40
1.0
 40
1.0
 40
1.0
 10
21.0711570239
 20
-54.4064221935
 30
0.0
 10
21.0753341251
 20
-54.4623071938
 30
0.0
 10
21.0920901481
 20
-54.6857607565
 30
0.0
 10
21.1090613616
 20
-54.909198183
 30
0.0
 10
21.1219094715
 20
-55.0767463152
 30
0.0
 11
21.0711570239
 21
-54.4064221935
 31
0.0
 11
21.0837286859
 21
-54.574074173
 31
0.0
 11
21.1219094715
 21
-55.0767463152
 31
0.0
  0
SPLINE
  5
2E6
100
AcDbEntity
  8
RACCORDO
100
AcDbSpline
 62
253
  6
CONTINUOUS
 70
0
 71
3
 72
15
 73
11
 74
9
 42
0.0000001
 43
0.0000001
 44
0.0000000001
 12
0.5109537555
 22
-0.2072312136
 32
0.0
 13
-0.0508730058
 23
0.549026824
 33
0.0
 40
0.0
 40
0.0
 40
0.0
 40
0.0
 40
0.1433060286
 40
0.2733273446
 40
0.3918089939
 40
0.5031810456
 40
0.613984509
 40
0.730942718
 40
0.858894216
 40
1.0
 40
1.0
 40
1.0
 40
1.0
 10
29.4066221764
 20
-63.5182545743
 30
0.0
 10
29.4310297608
 20
-63.528153735
 30
0.0
 10
29.4792695067
 20
-63.5433290977
 30
0.0
 10
29.5515267071
 20
-63.5505332628
 30
0.0
 10
29.6177434694
 20
-63.5402211336
 30
0.0
 10
29.6748197933
 20
-63.5119176299
 30
0.0
 10
29.7193361384
 20
-63.4667056327
 30
0.0
 10
29.7490622103
 20
-63.4074519389
 30
0.0
 10
29.7634727153
 20
-63.337333563
 30
0.0
 10
29.7629928927
 20
-63.2875345332
 30
0.0
 10
29.7606000676
 20
-63.261710913
 30
0.0
 11
29.4066221764
 21
-63.5182545743
 31
0.0
 11
29.4822098641
 21
-63.5412765973
 31
0.0
 11
29.5536262654
 21
-63.5475452178
 31
0.0
 11
29.6180468768
 21
-63.5366931798
 31
0.0
 11
29.6728894419
 21
-63.5090660585
 31
0.0
 11
29.7159571292
 21
-63.4657332359
 31
0.0
 11
29.7455610494
 21
-63.4084414836
 31
0.0
 11
29.7606015937
 21
-63.3395136426
 31
0.0
 11
29.7606000676
 21
-63.261710913
 31
0.0
  0
SPLINE
  5
2E7
100
AcDbEntity
  8
RACCORDO
100
AcDbSpline
 62
253
  6
CONTINUOUS
 70
0
 71
3
 72
11
 73
7
 74
5
 42
0.0000001
 43
0.0000001
 44
0.0000000001
 12
52.5177760517
 22
-32.4025250439
 32
0.0
 13
57.1847915145
 23
-23.193534661
 33
0.0
 40
0.0
 40
0.0
 40
0.0
 40
0.0
 40
0.2377548354
 40
0.4838439201
 40
0.7380273287
 40
1.0
 40
1.0
 40
1.0
 40
1.0
 10
-25.7278895299
 20
-35.9509987211
 30
0.0
 10
-21.565771129
 20
-38.5189510577
 30
0.0
 10
-12.9676213833
 20
-43.539788703
 30
0.0
 10
0.4730140249
 20
-50.6071764678
 30
0.0
 10
14.6456135284
 20
-57.3232003494
 30
0.0
 10
24.4130046454
 20
-61.4928971633
 30
0.0
 10
29.4066221764
 20
-63.5182545743
 30
0.0
 11
-25.7278895299
 21
-35.9509987211
 31
0.0
 11
-13.0641955667
 21
-43.3597323703
 31
0.0
 11
0.3718051763
 21
-50.4370336971
 31
0.0
 11
14.5421056915
 21
-57.1628829994
 31
0.0
 11
29.4066221764
 21
-63.5182545743
 31
0.0
  0
SPLINE
  5
2E8
100
AcDbEntity
  8
0
100
AcDbSpline
 62
7
  6
CONTINUOUS
 70
0
 71
3
 72
9
 73
5
 74
3
 42
0.0000001
 43
0.0000001
 44
0.0000000001
 12
-0.2532670614
 22
-0.4078602939
 32
0.0
 13
-0.1335737171
 23
-0.4611423705
 33
0.0
 40
0.0
 40
0.0
 40
0.0
 40
0.0
 40
0.2399253999
 40
1.0
 40
1.0
 40
1.0
 40
1.0
 10
-18.8211215985
 20
-5.0520070874
 30
0.0
 10
-18.8413766655
 20
-5.0846257688
 30
0.0
 10
-18.9205483356
 20
-5.2238245833
 30
0.0
 10
-18.9788041502
 20
-5.3744707027
 30
0.0
 10
-19.0126461467
 20
-5.4913049037
 30
0.0
 11
-18.8211215985
 21
-5.0520070874
 31
0.0
 11
-18.8781632503
 21
-5.1520793862
 31
0.0
 11
-19.0126461467
 21
-5.4913049037
 31
0.0
  0
SPLINE
  5
2E9
100
AcDbEntity
  8
RACCORDO
100
AcDbSpline
 62
253
  6
CONTINUOUS
 70
0
 71
3
 72
13
 73
9
 74
7
 42
0.0000001
 43
0.0000001
 44
0.0000000001
 12
0.0648067691
 22
-0.7229450535
 32
0.0
 13
0.6177260166
 23
-0.3811351941
 33
0.0
 40
0.0
 40
0.0
 40
0.0
 40
0.0
 40
0.1177658905
 40
0.2450028289
 40
0.5135852528
 40
0.7747906512
 40
0.8933615581
 40
1.0
 40
1.0
 40
1.0
 40
1.0
 10
-26.0818674211
 20
-35.3404771687
 30
0.0
 10
-26.0793234122
 20
-35.3688565914
 30
0.0
 10
-26.0697595486
 20
-35.4275549345
 30
0.0
 10
-26.0357250688
 20
-35.5472725274
 30
0.0
 10
-25.968887844
 20
-35.6926437506
 30
0.0
 10
-25.8774375713
 20
-35.8215920905
 30
0.0
 10
-25.7936337385
 20
-35.9045751168
 30
0.0
 10
-25.7498473099
 20
-35.9374508334
 30
0.0
 10
-25.7278895299
 20
-35.9509987211
 30
0.0
 11
-26.0818674211
 21
-35.3404771687
 31
0.0
 11
-26.068587705
 21
-35.4249189928
 31
0.0
 11
-26.0436415292
 21
-35.5138401939
 31
0.0
 11
-25.9627833021
 21
-35.6912296903
 31
0.0
 11
-25.8517067581
 21
-35.8448787187
 31
0.0
 11
-25.7901959942
 21
-35.9050736868
 31
0.0
 11
-25.7278895299
 21
-35.9509987211
 31
0.0
  0
SPLINE
  5
2EA
100
AcDbEntity
  8
0
100
AcDbSpline
 62
7
  6
CONTINUOUS
 70
0
 71
3
 72
9
 73
5
 74
3
 42
0.0000001
 43
0.0000001
 44
0.0000000001
 12
-0.3585706064
 22
0.0590416929
 32
0.0
 13
-0.3399044756
 23
0.1285447345
 33
0.0
 40
0.0
 40
0.0
 40
0.0
 40
0.0
 40
0.2422673514
 40
1.0
 40
1.0
 40
1.0
 40
1.0
 10
-16.4261772361
 20
-10.0593887727
 30
0.0
 10
-16.4551338864
 20
-10.0546208145
 30
0.0
 10
-16.5741137449
 20
-10.0316902279
 30
0.0
 10
-16.6905576418
 20
-9.9962128741
 30
0.0
 10
-16.7764098814
 20
-9.96374536
 30
0.0
 11
-16.4261772361
 21
-10.0593887727
 31
0.0
 11
-16.5126349124
 21
-10.0427737362
 31
0.0
 11
-16.7764098814
 21
-9.96374536
 31
0.0
  0
SPLINE
  5
2EB
100
AcDbEntity
  8
0
100
AcDbSpline
 62
7
  6
CONTINUOUS
 70
0
 71
3
 72
23
 73
19
 74
17
 42
0.0000001
 43
0.0000001
 44
0.0000000001
 12
-5.0944988952
 22
-2.5473194436
 32
0.0
 13
-0.0
 23
5.695854224
 33
0.0
 40
0.0
 40
0.0
 40
0.0
 40
0.0
 40
0.0423885073
 40
0.0861166856
 40
0.132641119
 40
0.1829785106
 40
0.2376691504
 40
0.2968325653
 40
0.3602499159
 40
0.4274408123
 40
0.4977272226
 40
0.5702865343
 40
0.6441972485
 40
0.7184805103
 40
0.7921399218
 40
0.864201468
 40
0.9337551428
 40
1.0
 40
1.0
 40
1.0
 40
1.0
 10
-16.9399408597
 20
-10.604324705
 30
0.0
 10
-17.0119235942
 20
-10.6403170613
 30
0.0
 10
-17.1680114583
 20
-10.6953064786
 30
0.0
 10
-17.4209166635
 20
-10.7190970592
 30
0.0
 10
-17.6875951183
 20
-10.6852881541
 30
0.0
 10
-17.9625310857
 20
-10.5956774878
 30
0.0
 10
-18.240823272
 20
-10.452750766
 30
0.0
 10
-18.5174851311
 20
-10.2595476749
 30
0.0
 10
-18.7874529064
 20
-10.0198613497
 30
0.0
 10
-19.0456500889
 20
-9.7383027529
 30
0.0
 10
-19.2871298193
 20
-9.4202894932
 30
0.0
 10
-19.5072039913
 20
-9.0719707215
 30
0.0
 10
-19.7015617097
 20
-8.7001190131
 30
0.0
 10
-19.8663723308
 20
-8.3119965293
 30
0.0
 10
-19.9983742683
 20
-7.9152150417
 30
0.0
 10
-20.0949491953
 20
-7.5175454488
 30
0.0
 10
-20.1541753874
 20
-7.1268534687
 30
0.0
 10
-20.1683604745
 20
-6.8688860253
 30
0.0
 10
-20.1683604745
 20
-6.7431123421
 30
0.0
 11
-16.9399408597
 21
-10.604324705
 31
0.0
 11
-17.167548137
 21
-10.6848703529
 31
0.0
 11
-17.4153766937
 21
-10.7097005198
 31
0.0
 11
-17.6785139625
 21
-10.6783658015
 31
0.0
 11
-17.9517578304
 21
-10.5915155765
 31
0.0
 11
-18.2297151883
 21
-10.4508808285
 31
0.0
 11
-18.5069033815
 21
-10.259239509
 31
0.0
 11
-18.7778551474
 21
-10.0203627037
 31
0.0
 11
-19.037220831
 21
-9.7389447896
 31
0.0
 11
-19.2798686788
 21
-9.4205188864
 31
0.0
 11
-19.5009837701
 21
-9.0713563492
 31
0.0
 11
-19.6961633231
 21
-8.6983509591
 31
0.0
 11
-19.8615064726
 21
-8.3088886843
 31
0.0
 11
-19.9936963956
 21
-7.9107043415
 31
0.0
 11
-20.0900723133
 21
-7.5117274278
 31
0.0
 11
-20.1486888614
 21
-7.1199202537
 31
0.0
 11
-20.1683604745
 21
-6.7431123421
 31
0.0
  0
SPLINE
  5
2EC
100
AcDbEntity
  8
0
100
AcDbSpline
 62
7
  6
CONTINUOUS
 70
0
 71
3
 72
21
 73
17
 74
15
 42
0.0000001
 43
0.0000001
 44
0.0000000001
 12
-5.3030307268
 22
-2.6515244642
 32
0.0
 13
0.0
 23
5.928972666
 33
0.0
 40
0.0
 40
0.0
 40
0.0
 40
0.0
 40
0.0469185727
 40
0.0953352561
 40
0.1462086563
 40
0.2001884094
 40
0.2575965528
 40
0.3184554617
 40
0.3825350366
 40
0.449403364
 40
0.5184733886
 40
0.5890456171
 40
0.7314188966
 40
0.8017553677
 40
0.8704373936
 40
1.0
 40
1.0
 40
1.0
 40
1.0
 10
18.5971129352
 20
-28.1911367895
 30
0.0
 10
18.5141760576
 20
-28.2326053706
 30
0.0
 10
18.335878647
 20
-28.2985839659
 30
0.0
 10
18.048147494
 20
-28.3406947409
 30
0.0
 10
17.7438798408
 20
-28.3267951413
 30
0.0
 10
17.4293218732
 20
-28.2577897311
 30
0.0
 10
17.1104051599
 20
-28.1355429535
 30
0.0
 10
16.7931176973
 20
-27.96268637
 30
0.0
 10
16.4834277604
 20
-27.7426791733
 30
0.0
 10
16.187241726
 20
-27.4798260769
 30
0.0
 10
15.9102149751
 20
-27.1791788808
 30
0.0
 10
15.5728716719
 20
-26.7347376765
 30
0.0
 10
15.2970482737
 20
-26.2432199227
 30
0.0
 10
15.0944327594
 20
-25.7245150847
 30
0.0
 10
14.9496773591
 20
-25.2133808511
 30
0.0
 10
14.899647526
 20
-24.8205051185
 30
0.0
 10
14.899647526
 20
-24.5644474011
 30
0.0
 11
18.5971129352
 21
-28.1911367895
 31
0.0
 11
18.3364236953
 21
-28.2882173749
 31
0.0
 11
18.0525754565
 21
-28.3310461682
 31
0.0
 11
17.7511964193
 21
-28.3188182149
 31
0.0
 11
17.4382460223
 21
-28.251806884
 31
0.0
 11
17.1199010296
 21
-28.1313531734
 31
0.0
 11
16.8024401323
 21
-27.9598380129
 31
0.0
 11
16.4921259483
 21
-27.7406373994
 31
0.0
 11
16.1950850017
 21
-27.4780586633
 31
0.0
 11
15.9171933417
 21
-27.1772627574
 31
0.0
 11
15.6639634333
 21
-26.8441702908
 31
0.0
 11
15.2510771166
 21
-26.107912348
 31
0.0
 11
15.0996856847
 21
-25.7193395379
 31
0.0
 11
14.9893093836
 21
-25.3273699024
 31
0.0
 11
14.899647526
 21
-24.5644474011
 31
0.0
  0
SPLINE
  5
2ED
100
AcDbEntity
  8
RACCORDO
100
AcDbSpline
 62
253
  6
CONTINUOUS
 70
0
 71
3
 72
11
 73
7
 74
5
 42
0.0000001
 43
0.0000001
 44
0.0000000001
 12
-57.2722471536
 22
22.9927687052
 32
0.0
 13
-52.4028166059
 23
32.5994251256
 33
0.0
 40
0.0
 40
0.0
 40
0.0
 40
0.0
 40
0.261648549
 40
0.5156983909
 40
0.7618823012
 40
1.0
 40
1.0
 40
1.0
 40
1.0
 10
29.4066221764
 20
4.8745210883
 30
0.0
 10
24.4115553872
 20
6.8798626117
 30
0.0
 10
14.6404397771
 20
11.0200833652
 30
0.0
 10
0.4667341495
 20
17.72074666
 30
0.0
 10
-12.9750398646
 20
24.8042844242
 30
0.0
 10
-21.5685434968
 20
29.8542769107
 30
0.0
 10
-25.7278895299
 20
32.4417769415
 30
0.0
 11
29.4066221764
 21
4.8745210883
 31
0.0
 11
14.5421056915
 21
11.1828434766
 31
0.0
 11
0.3718051763
 21
17.8929949174
 31
0.0
 11
-13.0641955667
 21
24.9859941057
 31
0.0
 11
-25.7278895299
 21
32.4417769415
 31
0.0
  0
SPLINE
  5
2EE
100
AcDbEntity
  8
RACCORDO
100
AcDbSpline
 62
253
  6
CONTINUOUS
 70
0
 71
3
 72
11
 73
7
 74
5
 42
0.0000001
 43
0.0000001
 44
0.0000000001
 12
0.0633129408
 22
0.74443088
 32
0.0
 13
-0.6933278378
 23
0.2783565571
 33
0.0
 40
0.0
 40
0.0
 40
0.0
 40
0.0
 40
0.2483767978
 40
0.5100383154
 40
0.7660710191
 40
1.0
 40
1.0
 40
1.0
 40
1.0
 10
29.7606000676
 20
4.2639995359
 30
0.0
 10
29.7658418894
 20
4.3256326553
 30
0.0
 10
29.7538136501
 20
4.4546223308
 30
0.0
 10
29.6814944641
 20
4.6337540677
 30
0.0
 10
29.5646549343
 20
4.7831858783
 30
0.0
 10
29.4606853345
 20
4.8528158664
 30
0.0
 10
29.4066221764
 20
4.8745210883
 30
0.0
 11
29.7606000676
 21
4.2639995359
 31
0.0
 11
29.7455610366
 21
4.4489559915
 31
0.0
 11
29.6728894388
 21
4.6304388026
 31
0.0
 11
29.5536262683
 21
4.7799945177
 31
0.0
 11
29.4066221764
 21
4.8745210883
 31
0.0
  0
SPLINE
  5
2EF
100
AcDbEntity
  8
0
100
AcDbSpline
 62
7
  6
CONTINUOUS
 70
0
 71
3
 72
9
 73
5
 74
3
 42
0.0000001
 43
0.0000001
 44
0.0000000001
 12
0.4955414831
 22
-0.1874033822
 32
0.0
 13
0.5290214869
 23
-0.028594678
 33
0.0
 40
0.0
 40
0.0
 40
0.0
 40
0.0
 40
0.5155316525
 40
1.0
 40
1.0
 40
1.0
 40
1.0
 10
18.578929178
 20
-27.6414148897
 30
0.0
 10
18.6640849512
 20
-27.6736190148
 30
0.0
 10
18.8336080204
 20
-27.7253996028
 30
0.0
 10
19.0093110102
 20
-27.7506677557
 30
0.0
 10
19.0947423988
 20
-27.7552854945
 30
0.0
 11
18.578929178
 21
-27.6414148897
 31
0.0
 11
18.8405164225
 21
-27.7199617926
 31
0.0
 11
19.0947423988
 21
-27.7552854945
 31
0.0
  0
SPLINE
  5
2F0
100
AcDbEntity
  8
0
100
AcDbSpline
 62
7
  6
CONTINUOUS
 70
0
 71
3
 72
9
 73
5
 74
3
 42
0.0000001
 43
0.0000001
 44
0.0000000001
 12
0.1173911887
 22
0.4052747217
 32
0.0
 13
0.2086758045
 23
0.3667188294
 33
0.0
 40
0.0
 40
0.0
 40
0.0
 40
0.0
 40
0.2596213651
 40
1.0
 40
1.0
 40
1.0
 40
1.0
 10
16.3426929126
 20
-23.1689744333
 30
0.0
 10
16.3528519995
 20
-23.1339017745
 30
0.0
 10
16.3955034352
 20
-22.9998834664
 30
0.0
 10
16.4528975165
 20
-22.8703378061
 30
0.0
 10
16.5043972189
 20
-22.7798342107
 30
0.0
 11
16.3426929126
 21
-23.1689744333
 31
0.0
 11
16.3759921497
 21
-23.0646152133
 31
0.0
 11
16.5043972189
 21
-22.7798342107
 31
0.0
  0
LINE
  5
2F1
100
AcDbEntity
  8
0
100
AcDbLine
 62
7
  6
CONTINUOUS
 10
14.0665793693
 20
-49.9646413015
 11
14.4392813095
 21
-50.1318613997
  0
SPLINE
  5
2F2
100
AcDbEntity
  8
0
100
AcDbSpline
 62
7
  6
CONTINUOUS
 70
0
 71
3
 72
14
 73
10
 74
8
 42
0.0000001
 43
0.0000001
 44
0.0000000001
 12
0.0
 22
1.944173206
 32
0.0
 13
1.7389130243
 23
0.8694773998
 33
0.0
 40
0.0
 40
0.0
 40
0.0
 40
0.0
 40
0.2827480855
 40
0.4145004097
 40
0.5400425816
 40
0.660092294
 40
0.7757544776
 40
0.8884854982
 40
1.0
 40
1.0
 40
1.0
 40
1.0
 10
14.899647526
 20
-24.5644474011
 30
0.0
 10
14.899647526
 20
-24.3812103171
 30
0.0
 10
14.9243585201
 20
-24.1110051124
 30
0.0
 10
15.0172682813
 20
-23.7728513879
 30
0.0
 10
15.1118577296
 20
-23.5465203643
 30
0.0
 10
15.2319234745
 20
-23.3445721198
 30
0.0
 10
15.3761558193
 20
-23.169580717
 30
0.0
 10
15.5427495348
 20
-23.0239762558
 30
0.0
 10
15.6674576277
 20
-22.9477616434
 30
0.0
 10
15.7320956342
 20
-22.9154418637
 30
0.0
 11
14.899647526
 21
-24.5644474011
 31
0.0
 11
14.9550442691
 21
-24.0175345549
 31
0.0
 11
15.0236415492
 21
-23.7707413281
 31
0.0
 11
15.1184767665
 21
-23.5458430356
 31
0.0
 11
15.2383694226
 21
-23.3455929087
 31
0.0
 11
15.3818312772
 21
-23.1724340015
 31
0.0
 11
15.5470865518
 21
-23.0284701782
 31
0.0
 11
15.7320956342
 21
-22.9154418637
 31
0.0
  0
LINE
  5
2F3
100
AcDbEntity
  8
0
100
AcDbLine
 62
7
  6
CONTINUOUS
 10
15.2649145397
 20
-50.5006763779
 11
15.6391632678
 21
-50.6671230821
  0
LINE
  5
2F4
100
AcDbEntity
  8
0
100
AcDbLine
 62
7
  6
CONTINUOUS
 10
15.8889256937
 20
-50.777951672
 11
16.2639733135
 21
-50.9439946877
  0
SPLINE
  5
2F5
100
AcDbEntity
  8
RACCORDO
100
AcDbSpline
 62
253
  6
CONTINUOUS
 70
0
 71
3
 72
33
 73
29
 74
27
 42
0.0000001
 43
0.0000001
 44
0.0000000001
 12
0.0
 22
20.2726001313
 32
0.0
 13
0.0
 23
-20.2726001313
 33
0.0
 40
0.0
 40
0.0
 40
0.0
 40
0.0
 40
0.0324217045
 40
0.0634327522
 40
0.0929936122
 40
0.1211184952
 40
0.1478834714
 40
0.1734330025
 40
0.1979828757
 40
0.2218164983
 40
0.2452716948
 40
0.2687173366
 40
0.2925230989
 40
0.3170290365
 40
0.342521747
 40
0.369220622
 40
0.3972737275
 40
0.4267604972
 40
0.4576981511
 40
0.4900495586
 40
0.5237312565
 40
0.5586209777
 40
0.6313419783
 40
0.7067482986
 40
0.7830912298
 40
0.8585438318
 40
0.931353463
 40
1.0
 40
1.0
 40
1.0
 40
1.0
 10
-6.6425749612
 20
-14.1966659129
 30
0.0
 10
-6.6425749612
 20
-13.9775751625
 30
0.0
 10
-6.6257826823
 20
-13.5486740299
 30
0.0
 10
-6.5466424488
 20
-12.9244296771
 30
0.0
 10
-6.4147317353
 20
-12.3387191736
 30
0.0
 10
-6.2311361458
 20
-11.7971512211
 30
0.0
 10
-5.997369291
 20
-11.3049102857
 30
0.0
 10
-5.7153792748
 20
-10.8668423576
 30
0.0
 10
-5.3875985732
 20
-10.4874416372
 30
0.0
 10
-5.0170422468
 20
-10.1708135651
 30
0.0
 10
-4.6074024865
 20
-9.9205307796
 30
0.0
 10
-4.1630369803
 20
-9.7394027674
 30
0.0
 10
-3.6887901762
 20
-9.6292807867
 30
0.0
 10
-3.1897301952
 20
-9.5910238339
 30
0.0
 10
-2.670951774
 20
-9.6246211987
 30
0.0
 10
-2.1375122052
 20
-9.7293537643
 30
0.0
 10
-1.5944539075
 20
-9.9039030314
 30
0.0
 10
-1.0468414616
 20
-10.1463903177
 30
0.0
 10
-0.499769825
 20
-10.4543797344
 30
0.0
 10
0.0416441384
 20
-10.8248671661
 30
0.0
 10
0.5723440545
 20
-11.254302973
 30
0.0
 10
1.2683863367
 20
-11.9089267882
 30
0.0
 10
2.0776838829
 20
-12.8494032291
 30
0.0
 10
2.9172129545
 20
-14.1171032435
 30
0.0
 10
3.6075672749
 20
-15.4925567043
 30
0.0
 10
4.1227929937
 20
-16.9242930957
 30
0.0
 10
4.4436148034
 20
-18.3584640537
 30
0.0
 10
4.5225121302
 20
-19.3153281939
 30
0.0
 10
4.5225121302
 20
-19.7792094586
 30
0.0
 11
-6.6425749612
 21
-14.1966659129
 31
0.0
 11
-6.6156934072
 21
-13.5399436014
 31
0.0
 11
-6.5353078129
 21
-12.9164294718
 31
0.0
 11
-6.4021924362
 21
-12.3321252578
 31
0.0
 11
-6.2176291411
 21
-11.7926588958
 31
0.0
 11
-5.9833952098
 21
-11.303226045
 31
0.0
 11
-5.7017466171
 21
-10.8685400724
 31
0.0
 11
-5.3753958736
 21
-10.492787106
 31
0.0
 11
-5.0074858168
 21
-10.1795859616
 31
0.0
 11
-4.601559502
 21
-9.9319531625
 31
0.0
 11
-4.161526358
 21
-9.7522733347
 31
0.0
 11
-3.6916241918
 21
-9.6422767473
 31
0.0
 11
-3.1963783409
 21
-9.6030228653
 31
0.0
 11
-2.6805582423
 21
-9.634889964
 31
0.0
 11
-2.1491316087
 21
-9.7375709054
 31
0.0
 11
-1.6072163688
 21
-9.9100766781
 31
0.0
 11
-1.0600314152
 21
-10.1507461089
 31
0.0
 11
-0.512846462
 21
-10.4572616315
 31
0.0
 11
0.0290687779
 21
-10.8266710988
 31
0.0
 11
0.5604954112
 21
-11.2554167907
 31
0.0
 11
1.0763155103
 21
-11.739369791
 31
0.0
 11
2.0414635272
 21
-12.8537682775
 31
0.0
 11
2.8874229858
 21
-14.1270403628
 31
0.0
 11
3.5816837864
 21
-15.5102552745
 31
0.0
 11
4.0975663103
 21
-16.9502566219
 31
0.0
 11
4.4152449822
 21
-18.3917058698
 31
0.0
 11
4.5225121302
 21
-19.7792094586
 31
0.0
  0
LINE
  5
2F6
100
AcDbEntity
  8
0
100
AcDbLine
 62
7
  6
CONTINUOUS
 10
19.4422425089
 20
-53.5743899851
 11
19.6175672543
 21
-53.6501329636
  0
LINE
  5
2F7
100
AcDbEntity
  8
0
100
AcDbLine
 62
7
  6
CONTINUOUS
 10
19.5077084432
 20
-53.311537915
 11
19.4422425089
 21
-53.5743899851
  0
SPLINE
  5
2F8
100
AcDbEntity
  8
0
100
AcDbSpline
 62
7
  6
CONTINUOUS
 70
0
 71
3
 72
14
 73
10
 74
8
 42
0.0000001
 43
0.0000001
 44
0.0000000001
 12
0.0
 22
1.8422063152
 32
0.0
 13
1.6477180387
 23
0.8238624719
 33
0.0
 40
0.0
 40
0.0
 40
0.0
 40
0.0
 40
0.296136268
 40
0.4316970022
 40
0.5587311749
 40
0.6777474946
 40
0.7897952363
 40
0.8964971447
 40
1.0
 40
1.0
 40
1.0
 40
1.0
 10
-20.1683604745
 20
-6.7431123421
 30
0.0
 10
-20.1683604745
 20
-6.5612643077
 30
0.0
 10
-20.1474602891
 20
-6.2948689749
 30
0.0
 10
-20.0662430106
 20
-5.9609107559
 30
0.0
 10
-19.9840188963
 20
-5.740781603
 30
0.0
 10
-19.8795719679
 20
-5.5464125106
 30
0.0
 10
-19.753891838
 20
-5.3802314632
 30
0.0
 10
-19.6083941078
 20
-5.2445956149
 30
0.0
 10
-19.4983564148
 20
-5.1753290257
 30
0.0
 10
-19.4415085742
 20
-5.1469049863
 30
0.0
 11
-20.1683604745
 21
-6.7431123421
 31
0.0
 11
-20.1199921384
 21
-6.1997166552
 31
0.0
 11
-20.0600975226
 21
-5.9572746462
 31
0.0
 11
-19.977293244
 21
-5.7383904561
 31
0.0
 11
-19.8726093878
 21
-5.5457431107
 31
0.0
 11
-19.7473451224
 21
-5.3816820252
 31
0.0
 11
-19.6030512816
 21
-5.2481985234
 31
0.0
 11
-19.4415085742
 21
-5.1469049863
 31
0.0
  0
SPLINE
  5
2F9
100
AcDbEntity
  8
0
100
AcDbSpline
 62
7
  6
CONTINUOUS
 70
0
 71
3
 72
9
 73
5
 74
3
 42
0.0000001
 43
0.0000001
 44
0.0000000001
 12
0.5708915609
 22
-0.2493913976
 32
0.0
 13
0.5712698883
 23
-0.2485235568
 33
0.0
 40
0.0
 40
0.0
 40
0.0
 40
0.0
 40
0.2498941362
 40
1.0
 40
1.0
 40
1.0
 40
1.0
 10
17.912023433
 20
-51.6682725564
 30
0.0
 10
17.9595775842
 20
-51.6890463723
 30
0.0
 10
18.1498905806
 20
-51.7721406434
 30
0.0
 10
18.3402667673
 20
-51.8550901879
 30
0.0
 10
18.4831043983
 20
-51.917229847
 30
0.0
 11
17.912023433
 21
-51.6682725564
 31
0.0
 11
18.0546977339
 21
-51.7305668768
 31
0.0
 11
18.4831043983
 21
-51.917229847
 31
0.0
  0
SPLINE
  5
2FA
100
AcDbEntity
  8
RACCORDO
100
AcDbSpline
 62
253
  6
CONTINUOUS
 70
0
 71
3
 72
11
 73
7
 74
5
 42
0.0000001
 43
0.0000001
 44
0.0000000001
 12
-57.194848056
 22
22.9616957225
 32
0.0
 13
-52.3319981743
 23
32.5553694754
 33
0.0
 40
0.0
 40
0.0
 40
0.0
 40
0.0
 40
0.2616485484
 40
0.51569839
 40
0.7618823005
 40
1.0
 40
1.0
 40
1.0
 40
1.0
 10
29.7127493948
 20
5.4515769278
 30
0.0
 10
24.7244330713
 20
7.4542083794
 30
0.0
 10
14.9665224663
 20
11.5888340914
 30
0.0
 10
0.8119715789
 20
18.2804420193
 30
0.0
 10
-12.6116368718
 20
25.3544069953
 30
0.0
 10
-21.193527043
 20
30.3975748228
 30
0.0
 10
-25.3472520477
 20
32.9815780512
 30
0.0
 11
29.7127493948
 21
5.4515769278
 31
0.0
 11
14.8683212687
 21
11.7513742165
 31
0.0
 11
0.717170904
 21
18.4524574918
 31
0.0
 11
-12.7006720811
 21
25.5358710974
 31
0.0
 11
-25.3472520477
 21
32.9815780512
 31
0.0
  0
LINE
  5
2FB
100
AcDbEntity
  8
0
100
AcDbLine
 62
7
  6
CONTINUOUS
 10
20.8847839739
 20
-53.9527055667
 11
21.3490215927
 21
-54.1507495107
  0
LINE
  5
2FC
100
AcDbEntity
  8
0
100
AcDbLine
 62
7
  6
CONTINUOUS
 10
20.8479089106
 20
-53.4442593923
 11
20.8847839739
 21
-53.9527055667
  0
SPLINE
  5
2FD
100
AcDbEntity
  8
0
100
AcDbSpline
 62
7
  6
CONTINUOUS
 70
0
 71
3
 72
18
 73
14
 74
12
 42
0.0000001
 43
0.0000001
 44
0.0000000001
 12
1.4371161737
 22
0.7185833357
 32
0.0
 13
-1.4783730245
 23
0.6293473664
 33
0.0
 40
0.0
 40
0.0
 40
0.0
 40
0.0
 40
0.0451645973
 40
0.0910559181
 40
0.1392864789
 40
0.1910415902
 40
0.2469775217
 40
0.3072554911
 40
0.4393476379
 40
0.5824857006
 40
0.729021198
 40
0.8706425478
 40
1.0
 40
1.0
 40
1.0
 40
1.0
 10
21.9329033053
 20
-54.501658701
 30
0.0
 10
21.9545388964
 20
-54.4908405253
 30
0.0
 10
21.9956137713
 20
-54.463412948
 30
0.0
 10
22.0456660553
 20
-54.4071150396
 30
0.0
 10
22.082778269
 20
-54.3376235572
 30
0.0
 10
22.1062969751
 20
-54.2569707407
 30
0.0
 10
22.1160079813
 20
-54.1671327242
 30
0.0
 10
22.1103182128
 20
-54.0338629691
 30
0.0
 10
22.0670818977
 20
-53.8575873275
 30
0.0
 10
21.9694196096
 20
-53.6524996837
 30
0.0
 10
21.832799545
 20
-53.4645491655
 30
0.0
 10
21.6692535478
 20
-53.3102135698
 30
0.0
 10
21.5437126903
 20
-53.2340543769
 30
0.0
 10
21.479966501
 20
-53.206917453
 30
0.0
 11
21.9329033053
 21
-54.501658701
 31
0.0
 11
21.9932306206
 21
-54.4613250853
 31
0.0
 11
22.0424773779
 21
-54.4064454206
 31
0.0
 11
22.0794719997
 21
-54.3383511235
 31
0.0
 11
22.1033526127
 21
-54.2586959785
 31
0.0
 11
22.1135834921
 21
-54.1694047938
 31
0.0
 11
22.1099625609
 21
-54.0726205139
 31
0.0
 11
22.061995438
 21
-53.8658720919
 31
0.0
 11
21.9641793355
 21
-53.6577219912
 31
0.0
 11
21.8256581087
 21
-53.4673353798
 31
0.0
 11
21.6591521001
 21
-53.3122380334
 31
0.0
 11
21.479966501
 21
-53.206917453
 31
0.0
  0
LINE
  5
2FE
100
AcDbEntity
  8
0
100
AcDbLine
 62
7
  6
CONTINUOUS
 10
19.2011754403
 20
-52.3614885962
 11
19.580650879
 21
-52.5253353801
  0
LINE
  5
2FF
100
AcDbEntity
  8
0
100
AcDbLine
 62
7
  6
CONTINUOUS
 10
19.2139522844
 20
-53.9920671065
 11
19.1254962464
 21
-54.3504651524
  0
LINE
  5
300
100
AcDbEntity
  8
0
100
AcDbLine
 62
7
  6
CONTINUOUS
 10
19.2999063207
 20
-53.6455580792
 11
19.6677084632
 21
-53.8043563094
  0
SPLINE
  5
301
100
AcDbEntity
  8
0
100
AcDbSpline
 62
7
  6
CONTINUOUS
 70
0
 71
3
 72
9
 73
5
 74
3
 42
0.0000001
 43
0.0000001
 44
0.0000000001
 12
-0.1380453
 22
-0.5509573572
 32
0.0
 13
-0.1370464564
 23
-0.551206661
 33
0.0
 40
0.0
 40
0.0
 40
0.0
 40
0.0
 40
0.2501577152
 40
1.0
 40
1.0
 40
1.0
 40
1.0
 10
19.4374526649
 20
-53.0944759911
 30
0.0
 10
19.4259416326
 20
-53.1404180689
 30
0.0
 10
19.3799680636
 20
-53.3240809246
 30
0.0
 10
19.33416073
 20
-53.5077853918
 30
0.0
 10
19.2999063207
 20
-53.6455580792
 30
0.0
 11
19.4374526649
 21
-53.0944759911
 31
0.0
 11
19.4029507494
 21
-53.2323100336
 31
0.0
 11
19.2999063207
 21
-53.6455580792
 31
0.0
  0
SPLINE
  5
302
100
AcDbEntity
  8
RACCORDO
100
AcDbSpline
 62
253
  6
CONTINUOUS
 70
0
 71
3
 72
13
 73
9
 74
7
 42
0.0000001
 43
0.0000001
 44
0.0000000001
 12
0.5749955402
 22
0.2655555034
 32
0.0
 13
-0.0239427101
 23
0.6329031074
 33
0.0
 40
0.0
 40
0.0
 40
0.0
 40
0.0
 40
0.1100595776
 40
0.2210350988
 40
0.3351228172
 40
0.454193527
 40
0.711826236
 40
1.0
 40
1.0
 40
1.0
 40
1.0
 10
30.162462126
 20
-63.7421106434
 30
0.0
 10
30.1835567147
 20
-63.7323683346
 30
0.0
 10
30.2242261441
 20
-63.7088503335
 30
0.0
 10
30.2781737646
 20
-63.6624977431
 30
0.0
 10
30.3242431057
 20
-63.6058439561
 30
0.0
 10
30.3756869143
 20
-63.5154297166
 30
0.0
 10
30.4160767493
 20
-63.3790564342
 30
0.0
 10
30.4220523732
 20
-63.2630681074
 30
0.0
 10
30.4197524862
 20
-63.2022727505
 30
0.0
 11
30.162462126
 21
-63.7421106434
 31
0.0
 11
30.2227962598
 21
-63.7071987456
 31
0.0
 11
30.2761893894
 21
-63.6614884076
 31
0.0
 11
30.3219541968
 21
-63.6055704462
 31
0.0
 11
30.3595044482
 21
-63.5401696113
 31
0.0
 11
30.4081654049
 21
-63.3844211067
 31
0.0
 11
30.4197524862
 21
-63.2022727505
 31
0.0
  0
SPLINE
  5
303
100
AcDbEntity
  8
0
100
AcDbSpline
 62
7
  6
CONTINUOUS
 70
0
 71
3
 72
9
 73
5
 74
3
 42
0.0000001
 43
0.0000001
 44
0.0000000001
 12
0.5684235719
 22
-0.2506239497
 32
0.0
 13
0.5688055852
 23
-0.2497557356
 33
0.0
 40
0.0
 40
0.0
 40
0.0
 40
0.0
 40
0.2498935018
 40
1.0
 40
1.0
 40
1.0
 40
1.0
 10
16.6394888418
 20
-51.1097903141
 30
0.0
 10
16.6868372941
 20
-51.1306667463
 30
0.0
 10
16.8763277816
 20
-51.2141718524
 30
0.0
 10
17.0658820749
 20
-51.2975321694
 30
0.0
 10
17.2081036635
 20
-51.3599799695
 30
0.0
 11
16.6394888418
 21
-51.1097903141
 31
0.0
 11
16.7815461616
 21
-51.1723924715
 31
0.0
 11
17.2081036635
 21
-51.3599799695
 31
0.0
  0
SPLINE
  5
304
100
AcDbEntity
  8
RACCORDO
100
AcDbSpline
 62
253
  6
CONTINUOUS
 70
0
 71
3
 72
12
 73
8
 74
6
 42
0.0000001
 43
0.0000001
 44
0.0000000001
 12
0.0486987825
 22
0.6705813801
 32
0.0
 13
0.5653954739
 23
0.3638391361
 33
0.0
 40
0.0
 40
0.0
 40
0.0
 40
0.0
 40
0.2561972108
 40
0.5236508698
 40
0.7782805923
 40
0.8942553242
 40
1.0
 40
1.0
 40
1.0
 40
1.0
 10
29.4066221764
 20
4.8745210883
 30
0.0
 10
29.4107810071
 20
4.9317881147
 30
0.0
 10
29.4337243422
 20
5.0479956661
 30
0.0
 10
29.5000691789
 20
5.2102525611
 30
0.0
 10
29.579369118
 20
5.3307983076
 30
0.0
 10
29.6534732323
 20
5.4079915265
 30
0.0
 10
29.6928243746
 20
5.4387505627
 30
0.0
 10
29.7127535617
 20
5.4515752465
 30
0.0
 11
29.4066221764
 21
4.8745210883
 31
0.0
 11
29.4384243448
 21
5.0438134264
 31
0.0
 11
29.5065109986
 21
5.2102468141
 31
0.0
 11
29.6020745889
 21
5.3522922638
 31
0.0
 11
29.6563941113
 21
5.4082345329
 31
0.0
 11
29.7127535617
 21
5.4515752465
 31
0.0
  0
SPLINE
  5
305
100
AcDbEntity
  8
0
100
AcDbSpline
 62
7
  6
CONTINUOUS
 70
0
 71
3
 72
9
 73
5
 74
3
 42
0.0000001
 43
0.0000001
 44
0.0000000001
 12
0.5708716547
 22
-0.24940116
 32
0.0
 13
0.5712498059
 23
-0.2485337884
 33
0.0
 40
0.0
 40
0.0
 40
0.0
 40
0.0
 40
0.2498941887
 40
1.0
 40
1.0
 40
1.0
 40
1.0
 10
17.7697894961
 20
-51.7393895248
 30
0.0
 10
17.8173419991
 20
-51.7601641583
 30
0.0
 10
18.0076483528
 20
-51.8432617031
 30
0.0
 10
18.1980178672
 20
-51.9262145996
 30
0.0
 10
18.3408504669
 20
-51.9883568126
 30
0.0
 11
17.7697894961
 21
-51.7393895248
 31
0.0
 11
17.9124588471
 21
-51.8016863125
 31
0.0
 11
18.3408504669
 21
-51.9883568126
 31
0.0
  0
SPLINE
  5
306
100
AcDbEntity
  8
RACCORDO
100
AcDbSpline
 62
253
  6
CONTINUOUS
 70
0
 71
3
 72
12
 73
8
 74
6
 42
0.0000001
 43
0.0000001
 44
0.0000000001
 12
0.6196551763
 22
-0.2592503509
 32
0.0
 13
0.6331422549
 23
0.2243081964
 33
0.0
 40
0.0
 40
0.0
 40
0.0
 40
0.0
 40
0.2455412318
 40
0.5122551858
 40
0.7724043203
 40
0.891709239
 40
1.0
 40
1.0
 40
1.0
 40
1.0
 10
29.7606000676
 20
4.2639995359
 30
0.0
 10
29.8113170327
 20
4.2427806524
 30
0.0
 10
29.9222317723
 20
4.2105395443
 30
0.0
 10
30.0943477742
 20
4.188983153
 30
0.0
 10
30.239742867
 20
4.1927143044
 30
0.0
 10
30.3476372933
 20
4.2104589587
 30
0.0
 10
30.3968981615
 20
4.2240853648
 30
0.0
 10
30.4197526471
 20
4.2321821999
 30
0.0
 11
29.7606000676
 21
4.2639995359
 31
0.0
 11
29.9183899544
 21
4.2159952059
 31
0.0
 11
30.0961049361
 21
4.1933476985
 31
0.0
 11
30.2707565712
 21
4.1989864474
 31
0.0
 11
30.3497753974
 21
4.2123287176
 31
0.0
 11
30.4197526471
 21
4.2321821999
 31
0.0
  0
SPLINE
  5
307
100
AcDbEntity
  8
0
100
AcDbSpline
 62
7
  6
CONTINUOUS
 70
0
 71
3
 72
18
 73
14
 74
12
 42
0.0000001
 43
0.0000001
 44
0.0000000001
 12
1.4371158633
 22
0.7185831838
 32
0.0
 13
-1.478352642
 23
0.6293943616
 33
0.0
 40
0.0
 40
0.0
 40
0.0
 40
0.0
 40
0.0451644445
 40
0.0910561396
 40
0.139287461
 40
0.1910435462
 40
0.2469805122
 40
0.3072594621
 40
0.4393531087
 40
0.5824916876
 40
0.7290264347
 40
0.8706456956
 40
1.0
 40
1.0
 40
1.0
 40
1.0
 10
21.7904749073
 20
-54.5728729
 30
0.0
 10
21.8121104205
 20
-54.5620547632
 30
0.0
 10
21.8531853482
 20
-54.5346270926
 30
0.0
 10
21.9032382413
 20
-54.4783291111
 30
0.0
 10
21.9403520668
 20
-54.4088372914
 30
0.0
 10
21.9638733409
 20
-54.3281837441
 30
0.0
 10
21.9735877362
 20
-54.238344534
 30
0.0
 10
21.9679035547
 20
-54.1050727139
 30
0.0
 10
21.9246756191
 20
-53.9287934863
 30
0.0
 10
21.8270237821
 20
-53.7237001664
 30
0.0
 10
21.6904141102
 20
-53.5357436499
 30
0.0
 10
21.526877706
 20
-53.3814025713
 30
0.0
 10
21.4013422196
 20
-53.3052397632
 30
0.0
 10
21.3375984604
 20
-53.2781014733
 30
0.0
 11
21.7904749073
 21
-54.5728729
 31
0.0
 11
21.8508020319
 21
-54.5325394686
 31
0.0
 11
21.9000495346
 21
-54.4776596862
 31
0.0
 11
21.9370458325
 21
-54.4095649279
 31
0.0
 11
21.9609290011
 21
-54.3299089343
 31
0.0
 11
21.9711632233
 21
-54.2406164789
 31
0.0
 11
21.9675462986
 21
-54.1438304935
 31
0.0
 11
21.9195886026
 21
-53.9370774578
 31
0.0
 11
21.8217828618
 21
-53.7289216264
 31
0.0
 11
21.6832719872
 21
-53.5385290367
 31
0.0
 11
21.5167756299
 21
-53.3834263255
 31
0.0
 11
21.3375984604
 21
-53.2781014733
 31
0.0
  0
SPLINE
  5
308
100
AcDbEntity
  8
RACCORDO
100
AcDbSpline
 62
253
  6
CONTINUOUS
 70
0
 71
3
 72
11
 73
7
 74
5
 42
0.0000001
 43
0.0000001
 44
0.0000000001
 12
0.6344883962
 22
-0.246862283
 32
0.0
 13
0.5808542128
 23
0.3551406695
 33
0.0
 40
0.0
 40
0.0
 40
0.0
 40
0.0
 40
0.2384143052
 40
0.4994648002
 40
0.7608019869
 40
1.0
 40
1.0
 40
1.0
 40
1.0
 10
29.7606000676
 20
-63.261710913
 30
0.0
 10
29.8110237709
 20
-63.2813294129
 30
0.0
 10
29.9229953315
 20
-63.3064470931
 30
0.0
 10
30.0966914394
 20
-63.3077480126
 30
0.0
 10
30.2675245933
 20
-63.2753439799
 30
0.0
 10
30.3734395892
 20
-63.2305936032
 30
0.0
 10
30.4197526471
 20
-63.202277289
 30
0.0
 11
29.7606000676
 21
-63.261710913
 31
0.0
 11
29.9183899542
 21
-63.2997801955
 31
0.0
 11
30.0961049358
 21
-63.3019739007
 31
0.0
 11
30.270756571
 21
-63.2680084545
 31
0.0
 11
30.4197526471
 21
-63.202277289
 31
0.0
  0
SPLINE
  5
309
100
AcDbEntity
  8
RACCORDO
100
AcDbSpline
 62
253
  6
CONTINUOUS
 70
0
 71
3
 72
11
 73
7
 74
5
 42
0.0000001
 43
0.0000001
 44
0.0000000001
 12
-5.7222830112
 22
-67.2740252466
 32
0.0
 13
6.2301974351
 23
-67.2288898886
 33
0.0
 40
0.0
 40
0.0
 40
0.0
 40
0.0
 40
0.2578692347
 40
0.5106457115
 40
0.7580877381
 40
1.0
 40
1.0
 40
1.0
 40
1.0
 10
30.4197526471
 20
4.2321821999
 30
0.0
 10
29.9278857335
 20
-1.5504516016
 30
0.0
 10
29.1849952032
 20
-13.0227094999
 30
0.0
 10
28.8043514833
 20
-30.0848932799
 30
0.0
 10
29.1691091728
 20
-46.7884481692
 30
0.0
 10
29.9173652134
 20
-57.7811085791
 30
0.0
 10
30.4197522647
 20
-63.2022728529
 30
0.0
 11
30.4197526471
 21
4.2321821999
 31
0.0
 11
29.3016467541
 21
-13.1424234043
 31
0.0
 11
28.92859296
 21
-30.2050433083
 31
0.0
 11
29.301646549
 21
-46.9074094567
 31
0.0
 11
30.4197522647
 21
-63.2022728529
 31
0.0
  0
SPLINE
  5
30A
100
AcDbEntity
  8
RACCORDO
100
AcDbSpline
 62
253
  6
CONTINUOUS
 70
0
 71
3
 72
11
 73
7
 74
5
 42
0.0000001
 43
0.0000001
 44
0.0000000001
 12
0.0214294311
 22
-0.2675715835
 32
0.0
 13
0.2487480645
 23
-0.1008869329
 33
0.0
 40
0.0
 40
0.0
 40
0.0
 40
0.0
 40
0.297529715
 40
0.5592265823
 40
0.7892539047
 40
1.0
 40
1.0
 40
1.0
 40
1.0
 10
29.4066221764
 20
-63.5182545743
 30
0.0
 10
29.4087474739
 20
-63.5447914066
 30
0.0
 10
29.4165918589
 20
-63.5945322981
 30
0.0
 10
29.4418890841
 20
-63.6611481027
 30
0.0
 10
29.4796875805
 20
-63.7125850741
 30
0.0
 10
29.5135240673
 20
-63.7348919496
 30
0.0
 10
29.530998295
 20
-63.7419791254
 30
0.0
 11
29.4066221764
 21
-63.5182545743
 31
0.0
 11
29.4199477779
 21
-63.5970004413
 31
0.0
 11
29.4459342264
 21
-63.6622639469
 31
0.0
 11
29.4834810778
 21
-63.7112821495
 31
0.0
 11
29.530998295
 21
-63.7419791254
 31
0.0
  0
SPLINE
  5
30B
100
AcDbEntity
  8
RACCORDO
100
AcDbSpline
 62
253
  6
CONTINUOUS
 70
0
 71
3
 72
11
 73
7
 74
5
 42
0.0000001
 43
0.0000001
 44
0.0000000001
 12
0.0267185447
 22
-0.2628152673
 32
0.0
 13
0.2248222164
 23
-0.1387109094
 33
0.0
 40
0.0
 40
0.0
 40
0.0
 40
0.0
 40
0.2739586317
 40
0.5289306589
 40
0.76872554
 40
1.0
 40
1.0
 40
1.0
 40
1.0
 10
-25.7278895299
 20
-35.9509987211
 30
0.0
 10
-25.7254496046
 20
-35.9749988915
 30
0.0
 10
-25.7168085745
 20
-36.0210890723
 30
0.0
 10
-25.6910072728
 20
-36.0842390231
 30
0.0
 10
-25.6534369091
 20
-36.1367441171
 30
0.0
 10
-25.6209550366
 20
-36.1634683785
 30
0.0
 10
-25.6036231577
 20
-36.1741618087
 30
0.0
 11
-25.7278895299
 21
-35.9509987211
 31
0.0
 11
-25.7140539536
 21
-36.0220355393
 31
0.0
 11
-25.6881086684
 21
-36.0841939237
 31
0.0
 11
-25.6508956594
 21
-36.1354577797
 31
0.0
 11
-25.6036231577
 21
-36.1741618087
 31
0.0
  0
SPLINE
  5
30C
100
AcDbEntity
  8
RACCORDO
100
AcDbSpline
 62
253
  6
CONTINUOUS
 70
0
 71
3
 72
11
 73
7
 74
5
 42
0.0000001
 43
0.0000001
 44
0.0000000001
 12
-0.1674329313
 22
0.1067182641
 32
0.0
 13
-0.0177289223
 23
0.1977580838
 33
0.0
 40
0.0
 40
0.0
 40
0.0
 40
0.0
 40
0.2820234608
 40
0.5386017318
 40
0.7749783316
 40
1.0
 40
1.0
 40
1.0
 40
1.0
 10
-26.0818674211
 20
-35.3404771687
 30
0.0
 10
-26.097607426
 20
-35.3304448173
 30
0.0
 10
-26.1263051995
 20
-35.3089505085
 30
0.0
 10
-26.1609698636
 20
-35.2706357952
 30
0.0
 10
-26.1841161228
 20
-35.2285834878
 30
0.0
 10
-26.19125473
 20
-35.1984114386
 30
0.0
 10
-26.1925845272
 20
-35.1835781539
 30
0.0
 11
-26.0818674211
 21
-35.3404771687
 31
0.0
 11
-26.1263980445
 21
-35.3065274111
 31
0.0
 11
-26.1602052627
 21
-35.2684176349
 31
0.0
 11
-26.1824518139
 21
-35.2270922938
 31
0.0
 11
-26.1925845272
 21
-35.1835781539
 31
0.0
  0
SPLINE
  5
30D
100
AcDbEntity
  8
RACCORDO
100
AcDbSpline
 62
253
  6
CONTINUOUS
 70
0
 71
3
 72
11
 73
7
 74
5
 42
0.0000001
 43
0.0000001
 44
0.0000000001
 12
-0.1684221917
 22
0.1012361224
 32
0.0
 13
0.0160620643
 23
0.1958489143
 33
0.0
 40
0.0
 40
0.0
 40
0.0
 40
0.0
 40
0.3108810844
 40
0.5757960292
 40
0.8003357642
 40
1.0
 40
1.0
 40
1.0
 40
1.0
 10
-26.0818674211
 20
32.1852332802
 30
0.0
 10
-26.0993205123
 20
32.1957240787
 30
0.0
 10
-26.1304734799
 20
32.2173147303
 30
0.0
 10
-26.1675052928
 20
32.2549962741
 30
0.0
 10
-26.1900378983
 20
32.2949418145
 30
0.0
 10
-26.193976739
 20
32.3233566102
 30
0.0
 10
-26.1929077324
 20
32.3363912848
 30
0.0
 11
-26.0818674211
 21
32.1852332802
 31
0.0
 11
-26.1316455364
 21
32.2206471821
 31
0.0
 11
-26.167427369
 21
32.2584578081
 31
0.0
 11
-26.1880686201
 21
32.2974555345
 31
0.0
 11
-26.1929077324
 21
32.3363912848
 31
0.0
  0
SPLINE
  5
30E
100
AcDbEntity
  8
RACCORDO
100
AcDbSpline
 62
253
  6
CONTINUOUS
 70
0
 71
3
 72
11
 73
7
 74
5
 42
0.0000001
 43
0.0000001
 44
0.0000000001
 12
0.0645003421
 22
0.6846951269
 32
0.0
 13
0.6334330262
 23
0.2678251524
 33
0.0
 40
0.0
 40
0.0
 40
0.0
 40
0.0
 40
0.2471750192
 40
0.5080133824
 40
0.764495091
 40
1.0
 40
1.0
 40
1.0
 40
1.0
 10
-25.7278895299
 20
32.4417769415
 30
0.0
 10
-25.7225752388
 20
32.4981901185
 30
0.0
 10
-25.6935340419
 20
32.6127349385
 30
0.0
 10
-25.6095303888
 20
32.7683226663
 30
0.0
 10
-25.4932463614
 20
32.8979928013
 30
0.0
 10
-25.3969775768
 20
32.9605533384
 30
0.0
 10
-25.3472520477
 20
32.9815780512
 30
0.0
 11
-25.7278895299
 21
32.4417769415
 31
0.0
 11
-25.6879754288
 21
32.6070133135
 31
0.0
 11
-25.6031883154
 21
32.7650964714
 31
0.0
 11
-25.4844960737
 21
32.8955775954
 31
0.0
 11
-25.3472520477
 21
32.9815780512
 31
0.0
  0
SPLINE
  5
30F
100
AcDbEntity
  8
RACCORDO
100
AcDbSpline
 62
253
  6
CONTINUOUS
 70
0
 71
3
 72
13
 73
9
 74
7
 42
0.0000001
 43
0.0000001
 44
0.0000000001
 12
0.053965268
 22
1.4784441887
 32
0.0
 13
-1.3459416943
 23
0.6141257402
 33
0.0
 40
0.0
 40
0.0
 40
0.0
 40
0.0
 40
0.2472029519
 40
0.3784424633
 40
0.5110132787
 40
0.6420345826
 40
0.7687685518
 40
1.0
 40
1.0
 40
1.0
 40
1.0
 10
30.4197526471
 20
4.2321821999
 30
0.0
 10
30.4241994382
 20
4.3540074558
 30
0.0
 10
30.3986661776
 20
4.5425124676
 30
0.0
 10
30.3167840459
 20
4.7811765041
 30
0.0
 10
30.230091456
 20
4.9561875015
 30
0.0
 10
30.1225977369
 20
5.1166606161
 30
0.0
 10
29.962429965
 20
5.2972339388
 30
0.0
 10
29.8164909836
 20
5.4042419871
 30
0.0
 10
29.7127496345
 20
5.4515770486
 30
0.0
 11
30.4197526471
 21
4.2321821999
 31
0.0
 11
30.375862817
 21
4.5952582045
 31
0.0
 11
30.313123555
 21
4.7790017748
 31
0.0
 11
30.2260290197
 21
4.9547321279
 31
0.0
 11
30.1179434423
 21
5.11563635
 31
0.0
 11
29.9930623689
 21
5.2554886734
 31
0.0
 11
29.7127496345
 21
5.4515770486
 31
0.0
  0
SPLINE
  5
310
100
AcDbEntity
  8
RACCORDO
100
AcDbSpline
 62
253
  6
CONTINUOUS
 70
0
 71
3
 72
11
 73
7
 74
5
 42
0.0000001
 43
0.0000001
 44
0.0000000001
 12
-0.4070552527
 22
0.2229932073
 32
0.0
 13
-0.4084834793
 23
-0.220366051
 33
0.0
 40
0.0
 40
0.0
 40
0.0
 40
0.0
 40
0.2784892654
 40
0.5331660107
 40
0.7703017252
 40
1.0
 40
1.0
 40
1.0
 40
1.0
 10
-25.3472520477
 20
32.9815780512
 30
0.0
 10
-25.3850388871
 20
33.002278456
 30
0.0
 10
-25.461036731
 20
33.035879948
 30
0.0
 10
-25.5788911025
 20
33.0598476134
 30
0.0
 10
-25.6917056714
 20
33.0534432863
 30
0.0
 10
-25.7607465337
 20
33.028364706
 30
0.0
 10
-25.7920225172
 20
33.0114921387
 30
0.0
 11
-25.3472520477
 21
32.9815780512
 31
0.0
 11
-25.4659520965
 21
33.0327392314
 31
0.0
 11
-25.5820181079
 21
33.0551193924
 31
0.0
 11
-25.6918486553
 21
33.0479754694
 31
0.0
 11
-25.7920225172
 21
33.0114921387
 31
0.0
  0
SPLINE
  5
311
100
AcDbEntity
  8
0
100
AcDbSpline
 62
7
  6
CONTINUOUS
 70
0
 71
3
 72
9
 73
5
 74
3
 42
0.0000001
 43
0.0000001
 44
0.0000000001
 12
0.5684050263
 22
-0.2506330327
 32
0.0
 13
0.5687868599
 23
-0.2497652879
 33
0.0
 40
0.0
 40
0.0
 40
0.0
 40
0.0
 40
0.249893555
 40
1.0
 40
1.0
 40
1.0
 40
1.0
 10
16.4972973997
 20
-51.1808860352
 30
0.0
 10
16.5446443173
 20
-51.2017632284
 30
0.0
 10
16.7341286153
 20
-51.2852713818
 30
0.0
 10
16.9236766892
 20
-51.3686348243
 30
0.0
 10
17.0658935856
 20
-51.4310850084
 30
0.0
 11
16.4972973997
 21
-51.1808860352
 31
0.0
 11
16.6393501096
 21
-51.2434904903
 31
0.0
 11
17.0658935856
 21
-51.4310850084
 31
0.0
  0
LINE
  5
312
100
AcDbEntity
  8
0
100
AcDbLine
 62
7
  6
CONTINUOUS
 10
21.0271665735
 20
-53.8815142669
 11
21.4914228037
 21
-54.0795489052
  0
SPLINE
  5
313
100
AcDbEntity
  8
RACCORDO
100
AcDbSpline
 62
253
  6
CONTINUOUS
 70
0
 71
3
 72
15
 73
11
 74
9
 42
0.0000001
 43
0.0000001
 44
0.0000000001
 12
0.0
 22
4.4969967343
 32
0.0
 13
4.0441867923
 23
1.9666043877
 33
0.0
 40
0.0
 40
0.0
 40
0.0
 40
0.0
 40
0.1485062022
 40
0.2896057297
 40
0.4231259751
 40
0.5492730984
 40
0.668689976
 40
0.78249481
 40
0.8922740584
 40
1.0
 40
1.0
 40
1.0
 40
1.0
 10
-5.5042205513
 20
-14.2052229577
 30
0.0
 10
-5.5042205513
 20
-13.9826123223
 30
0.0
 10
-5.4849564996
 20
-13.5481536904
 30
0.0
 10
-5.3935807844
 20
-12.9193640811
 30
0.0
 10
-5.2413472772
 20
-12.3367812212
 30
0.0
 10
-5.0297914183
 20
-11.8076063824
 30
0.0
 10
-4.7610810651
 20
-11.3384694378
 30
0.0
 10
-4.4379911854
 20
-10.9355346332
 30
0.0
 10
-4.0644126359
 20
-10.6046100756
 30
0.0
 10
-3.783674449
 20
-10.4346491632
 30
0.0
 10
-3.6384531723
 20
-10.3640310601
 30
0.0
 11
-5.5042205513
 21
-14.2052229577
 31
0.0
 11
-5.4730839726
 21
-13.5381172925
 31
0.0
 11
-5.3800616564
 21
-12.9104488289
 31
0.0
 11
-5.2263110503
 21
-12.3300273667
 31
0.0
 11
-5.0137452169
 21
-11.8040748998
 31
0.0
 11
-4.7450090484
 21
-11.3391356978
 31
0.0
 11
-4.4234463294
 21
-10.9409948282
 31
0.0
 11
-4.0530581675
 21
-10.6146062369
 31
0.0
 11
-3.6384531723
 21
-10.3640310601
 31
0.0
  0
LINE
  5
314
100
AcDbEntity
  8
0
100
AcDbLine
 62
7
  6
CONTINUOUS
 10
17.1202396792
 20
-52.7158549069
 11
17.1692868081
 21
-53.3636188199
  0
SPLINE
  5
315
100
AcDbEntity
  8
0
100
AcDbSpline
 62
7
  6
CONTINUOUS
 70
0
 71
3
 72
9
 73
5
 74
3
 42
0.0000001
 43
0.0000001
 44
0.0000000001
 12
-0.0582127645
 22
0.008848314
 32
0.0
 13
-0.0541738055
 23
0.0230698376
 33
0.0
 40
0.0
 40
0.0
 40
0.0
 40
0.0
 40
0.2387746032
 40
1.0
 40
1.0
 40
1.0
 40
1.0
 10
21.5478511336
 20
-54.0960527871
 30
0.0
 10
21.5432178903
 20
-54.0953485362
 30
0.0
 10
21.5239216767
 20
-54.0916969937
 30
0.0
 10
21.505169085
 20
-54.0854043581
 30
0.0
 10
21.4914229261
 20
-54.0795505761
 30
0.0
 11
21.5478511336
 21
-54.0960527871
 31
0.0
 11
21.5340339925
 21
-54.0934541675
 31
0.0
 11
21.4914229261
 21
-54.0795505761
 31
0.0
  0
SPLINE
  5
316
100
AcDbEntity
  8
0
100
AcDbSpline
 62
7
  6
CONTINUOUS
 70
0
 71
3
 72
11
 73
7
 74
5
 42
0.0000001
 43
0.0000001
 44
0.0000000001
 12
-0.1315972793
 22
-0.0657978312
 32
0.0
 13
-0.1353649478
 23
0.05765006
 33
0.0
 40
0.0
 40
0.0
 40
0.0
 40
0.0
 40
0.2229476713
 40
0.4605135996
 40
0.718685367
 40
1.0
 40
1.0
 40
1.0
 40
1.0
 10
21.4917965332
 20
-54.156023369
 30
0.0
 10
21.4820167642
 20
-54.1609131934
 30
0.0
 10
21.4602803713
 20
-54.1681452456
 30
0.0
 10
21.4248024485
 20
-54.1704855498
 30
0.0
 10
21.3868782527
 20
-54.1647713334
 30
0.0
 10
21.3617149729
 20
-54.1561571779
 30
0.0
 10
21.3490215927
 20
-54.1507512428
 30
0.0
 11
21.4917965332
 21
-54.156023369
 31
0.0
 11
21.4607367104
 21
-54.1665721028
 31
0.0
 11
21.42588339
 21
-54.1692105387
 31
0.0
 11
21.3882748779
 21
-54.1638773209
 31
0.0
 11
21.3490215927
 21
-54.1507512428
 31
0.0
  0
LINE
  5
317
100
AcDbEntity
  8
0
100
AcDbLine
 62
7
  6
CONTINUOUS
 10
21.0000800774
 20
-53.5092523821
 11
21.0271665735
 21
-53.8815142669
  0
SPLINE
  5
318
100
AcDbEntity
  8
RACCORDO
100
AcDbSpline
 62
7
  6
CONTINUOUS
 70
0
 71
3
 72
11
 73
7
 74
5
 42
0.0000001
 43
0.0000001
 44
0.0000000001
 12
-0.6226377949
 22
0.3710154145
 32
0.0
 13
-0.6683569639
 23
-0.280409041
 33
0.0
 40
0.0
 40
0.0
 40
0.0
 40
0.0
 40
0.2261836028
 40
0.4873020299
 40
0.755269294
 40
1.0
 40
1.0
 40
1.0
 40
1.0
 10
38.5849283846
 20
-11.4400031741
 30
0.0
 10
38.537984898
 20
-11.4120306397
 30
0.0
 10
38.4258485287
 20
-11.3704836053
 30
0.0
 10
38.2441125952
 20
-11.3455622099
 30
0.0
 10
38.0563824502
 20
-11.3552413296
 30
0.0
 10
37.9350348488
 20
-11.3863140649
 30
0.0
 10
37.8805123582
 20
-11.4091889658
 30
0.0
 11
38.5849283846
 21
-11.4400031741
 31
0.0
 11
38.4327845223
 21
-11.3789488732
 31
0.0
 11
38.2455055661
 21
-11.3516523893
 31
0.0
 11
38.0515741248
 21
-11.362268399
 31
0.0
 11
37.8805123582
 21
-11.4091889658
 31
0.0
  0
SPLINE
  5
319
100
AcDbEntity
  8
RACCORDO
100
AcDbSpline
 62
7
  6
CONTINUOUS
 70
0
 71
3
 72
11
 73
7
 74
5
 42
0.0000001
 43
0.0000001
 44
0.0000000001
 12
0.6683568467
 22
0.2804089918
 32
0.0
 13
0.6226376857
 23
-0.3710153494
 33
0.0
 40
0.0
 40
0.0
 40
0.0
 40
0.0
 40
0.2447152501
 40
0.5126700107
 40
0.7737982022
 40
1.0
 40
1.0
 40
1.0
 40
1.0
 10
37.8805123582
 20
-22.667519215
 30
0.0
 10
37.9350313958
 20
-22.6446457628
 30
0.0
 10
38.0563719677
 20
-22.6135739345
 30
0.0
 10
38.2440975032
 20
-22.6038915881
 30
0.0
 10
38.4258373158
 20
-22.6288113977
 30
0.0
 10
38.53798113
 20
-22.6703586436
 30
0.0
 10
38.5849283846
 20
-22.6983334233
 30
0.0
 11
37.8805123582
 21
-22.667519215
 31
0.0
 11
38.051562977
 21
-22.6206004732
 31
0.0
 11
38.2454851568
 21
-22.6099817004
 31
0.0
 11
38.4327715232
 21
-22.6372761825
 31
0.0
 11
38.5849283846
 21
-22.6983334233
 31
0.0
  0
ELLIPSE
  5
31A
100
AcDbEntity
  8
RACCORDO
100
AcDbEllipse
 62
7
  6
CONTINUOUS
 10
32.4678671816
 20
-61.575903969
 30
0.0
 11
-0.4474018214
 21
0.8946702271
 31
0.0
 40
0.6121897086
 41
-3.1606215703
 42
-2.2557347926
  0
ELLIPSE
  5
31B
100
AcDbEntity
  8
RACCORDO
100
AcDbEllipse
 62
7
  6
CONTINUOUS
 10
32.4678671816
 20
5.9738136863
 30
0.0
 11
-0.4471615512
 21
0.8944566536
 31
0.0
 40
0.6125552124
 41
-2.255296188
 42
-0.6848044477
  0
ELLIPSE
  5
31C
100
AcDbEntity
  8
RACCORDO
100
AcDbEllipse
 62
7
  6
CONTINUOUS
 10
-22.6862463266
 20
33.5508704404
 30
0.0
 11
-0.4474018214
 21
0.8946702271
 31
0.0
 40
0.6121897086
 41
-0.6846338794
 42
0.019023655
  0
ENDSEC
  0
SECTION
  2
OBJECTS
  0
DICTIONARY
  5
C
100
AcDbDictionary
280
0
281
1
  3
ACAD_GROUP
350
D
  3
ACAD_MLINESTYLE
350
17
  3
ACAD_LAYOUT
350
1A
  3
ACAD_PLOTSETTINGS
350
19
  3
ACAD_PLOTSTYLENAME
350
E
  0
DICTIONARY
  5
D
102
{ACAD_REACTORS
330
C
102
}
100
AcDbDictionary
280
0
281
1
  0
ACDBDICTIONARYWDFLT
  5
E
102
{ACAD_REACTORS
330
C
102
}
100
AcDbDictionary
281
1
  3
Normal
350
F
100
AcDbDictionaryWithDefault
340
F
  0
DICTIONARY
  5
17
102
{ACAD_REACTORS
330
C
102
}
100
AcDbDictionary
280
0
281
1
  3
Standard
350
18
  0
DICTIONARY
  5
19
102
{ACAD_REACTORS
330
C
102
}
100
AcDbDictionary
281
1
  0
DICTIONARY
  5
1A
102
{ACAD_REACTORS
330
C
102
}
100
AcDbDictionary
281
1
  3
Model
350
31D
  3
Layout1
350
31E
  0
ACDBPLACEHOLDER
  5
F
102
{ACAD_REACTORS
330
E
102
}
  0
MLINESTYLE
  5
18
102
{ACAD_REACTORS
330
17
102
}
100
AcDbMlineStyle
  2
STANDARD
 70
0
  3

 62
256
 51
90.0
 52
90.0
 71
2
 49
0.5
 62
256
  6
BYLAYER
 49
-0.5
 62
256
  6
BYLAYER
  0
LAYOUT
  5
31D
102
{ACAD_REACTORS
330
1A
102
}
100
AcDbPlotSettings
  1

  2
none_device
  4
ANSI_C_(22.00_x_17.00_Inches)
  6

 40
0.0
 41
0.0
 42
0.0
 43
0.0
 44
558.8
 45
431.8
 46
0.0
 47
0.0
 48
0.0
 49
0.0
140
0.0
141
0.0
142
1.0
143
1.0
 70
1024
 72
1
 73
0
 74
0
  7

 75
0
147
1.0
148
0.0
149
0.0
100
AcDbLayout
  1
Model
 70
0
 71
0
 10
0.0
 20
0.0
 11
558.8
 21
431.8
 12
0.0
 22
0.0
 32
0.0
 14
0.0
 24
0.0
 34
0.0
 15
0.0
 25
0.0
 35
0.0
146
0.0
 13
0.0
 23
0.0
 33
0.0
 16
1.0
 26
0.0
 36
0.0
 17
0.0
 27
1.0
 37
0.0
 76
0
330
212
345
0
346
0
  0
LAYOUT
  5
31E
102
{ACAD_REACTORS
330
1A
102
}
100
AcDbPlotSettings
  1

  2
none_device
  4
ANSI_C_(22.00_x_17.00_Inches)
  6

 40
0.0
 41
0.0
 42
0.0
 43
0.0
 44
558.8
 45
431.8
 46
0.0
 47
0.0
 48
0.0
 49
0.0
140
0.0
141
0.0
142
1.0
143
1.0
 70
0
 72
1
 73
0
 74
0
  7

 75
0
147
1.0
148
0.0
149
0.0
100
AcDbLayout
  1
Layout1
 70
0
 71
1
 10
0.0
 20
0.0
 11
558.8
 21
431.8
 12
0.0
 22
0.0
 32
0.0
 14
0.0
 24
0.0
 34
0.0
 15
0.0
 25
0.0
 35
0.0
146
0.0
 13
0.0
 23
0.0
 33
0.0
 16
1.0
 26
0.0
 36
0.0
 17
0.0
 27
1.0
 37
0.0
 76
0
330
213
345
0
346
0
  0
ENDSEC
  0
EOF
