  0
SECTION
  2
HEADER
  9
$ACADVER
  1
AC1015
  9
$DWGCODEPAGE
  3
ANSI_1252
  9
$EXTMAX
 10
558.8
 20
431.8
 30
0.0
  9
$EXTMIN
 10
0.0
 20
0.0
 30
0.0
  9
$LIMMIN
 10
0.0
 20
0.0
  9
$LIMMAX
 10
558.8
 20
431.8
  9
$VIEWCTR
 10
279.4
 20
215.9
  9
$VIEWSIZE
 40
431.8
  9
$CLAYER
  8
0
  9
$LTSCALE
 40
30.734
  9
$CELTYPE
  6
BYLAYER
  9
$DIMSCALE
 40
1.0
  9
$DIMASZ
 40
3.0
  9
$DIMEXO
 40
3.4925
  9
$DIMDLI
 40
21.2344
  9
$DIMEXE
 40
10.0584
  9
$DIMCEN
 40
5.0292
  9
$DIMLFAC
 40
1.0
  9
$DIMBLK
  1
_FILLED
  9
$DIMTXT
 40
3.0
  9
$DIMTOL
 70
1
  9
$DIMLIM
 70
0
  9
$DIMTFAC
 40
1.0
  9
$DIMTP
 40
0.01
  9
$DIMTM
 40
0.01
  9
$PDMODE
 70
3
  9
$PDSIZE
 40
3.0
  9
$HANDSEED
  5
5A1
  9
$TILEMODE
 70
1
  9
$MEASUREMENT
 70
1
  9
$INSUNITS
 70
4
  0
ENDSEC
  0
SECTION
  2
CLASSES
  0
CLASS
  1
ACDBDICTIONARYWDFLT
  2
AcDbDictionaryWithDefault
  3
AutoCAD 2000
 90
0
280
0
281
0
  0
CLASS
  1
ACDBPLACEHOLDER
  2
AcDbPlaceHolder
  3
AutoCAD 2000
 90
0
280
0
281
0
  0
CLASS
  1
LAYOUT
  2
AcDbLayout
  3
AutoCAD 2000
 90
0
280
0
281
0
  0
ENDSEC
  0
SECTION
  2
TABLES
  0
TABLE
  2
VPORT
  5
8
100
AcDbSymbolTable
 70
2
  0
VPORT
  5
1F4
100
AcDbSymbolTableRecord
100
AcDbViewportTableRecord
  2
*ACTIVE
 70
0
 10
0.0
 20
0.0
 11
1.0
 21
1.0
 12
279.4
 22
215.9
 13
0.0
 23
0.0
 14
1.0
 24
1.0
 15
0.0
 25
0.0
 16
0.0
 26
0.0
 36
1.0
 17
0.0
 27
0.0
 37
0.0
 40
431.8
 41
1.2941176471
 42
50.0
 43
0.0
 44
0.0
 50
0.0
 51
0.0
 71
0
 72
100
 73
1
 74
1
 75
0
 76
0
 77
0
 78
0
  0
ENDTAB
  0
TABLE
  2
LTYPE
  5
5
100
AcDbSymbolTable
 70
6
  0
LTYPE
  5
14
100
AcDbSymbolTableRecord
100
AcDbLinetypeTableRecord
  2
BYBLOCK
 70
0
  3

 72
65
 73
0
 40
0.0
  0
LTYPE
  5
15
100
AcDbSymbolTableRecord
100
AcDbLinetypeTableRecord
  2
BYLAYER
 70
0
  3

 72
65
 73
0
 40
0.0
  0
LTYPE
  5
16
100
AcDbSymbolTableRecord
100
AcDbLinetypeTableRecord
  2
CONTINUOUS
 70
64
  3
Solid line
 72
65
 73
0
 40
0.0
  0
LTYPE
  5
1F5
100
AcDbSymbolTableRecord
100
AcDbLinetypeTableRecord
  2
CENTER
 70
64
  3
____ _ ____ _ ____ _ ____ _ ____ _ ____ _ ____
 72
65
 73
4
 40
0.6
 49
0.375
 74
0
 49
-0.075
 74
0
 49
0.075
 74
0
 49
-0.075
 74
0
  0
LTYPE
  5
1F6
100
AcDbSymbolTableRecord
100
AcDbLinetypeTableRecord
  2
HIDDEN
 70
64
  3
- - - - - - - - - - - - - - - - - - - -
 72
65
 73
2
 40
0.2
 49
0.1
 74
0
 49
-0.1
 74
0
  0
LTYPE
  5
1F7
100
AcDbSymbolTableRecord
100
AcDbLinetypeTableRecord
  2
PHANTOM
 70
64
  3
_____ _ _ _____ _ _ _____ _ _ _____
 72
65
 73
6
 40
0.8
 49
0.45
 74
0
 49
-0.05
 74
0
 49
0.1
 74
0
 49
-0.05
 74
0
 49
0.1
 74
0
 49
-0.05
 74
0
  0
LTYPE
  5
1F8
100
AcDbSymbolTableRecord
100
AcDbLinetypeTableRecord
  2
DOT
 70
64
  3
. . . . . . . . . . . . . . . . . . . .
 72
65
 73
2
 40
0.2
 49
0.1
 74
0
 49
-0.1
 74
0
  0
LTYPE
  5
1F9
100
AcDbSymbolTableRecord
100
AcDbLinetypeTableRecord
  2
DASHED
 70
64
  3
- - - - - - - - - - - - - - - - - - - -
 72
65
 73
2
 40
0.2
 49
0.1
 74
0
 49
-0.1
 74
0
  0
ENDTAB
  0
TABLE
  2
LAYER
  5
2
100
AcDbSymbolTable
 70
36
  0
LAYER
  5
10
100
AcDbSymbolTableRecord
100
AcDbLayerTableRecord
  2
0
 70
0
 62
7
  6
CONTINUOUS
370
-3
390
F
  0
LAYER
  5
1FA
100
AcDbSymbolTableRecord
100
AcDbLayerTableRecord
  2
DEFAULT_1
 70
0
 62
7
  6
CENTER
370
-3
390
F
  0
LAYER
  5
1FB
100
AcDbSymbolTableRecord
100
AcDbLayerTableRecord
  2
DEFAULT_2
 70
0
 62
7
  6
HIDDEN
370
-3
390
F
  0
LAYER
  5
1FC
100
AcDbSymbolTableRecord
100
AcDbLayerTableRecord
  2
DEFAULT_3
 70
0
 62
7
  6
PHANTOM
370
-3
390
F
  0
LAYER
  5
1FD
100
AcDbSymbolTableRecord
100
AcDbLayerTableRecord
  2
ASSI
 70
0
 62
7
  6
CONTINUOUS
370
-3
390
F
  0
LAYER
  5
1FE
100
AcDbSymbolTableRecord
100
AcDbLayerTableRecord
  2
COORDINATE
 70
0
 62
7
  6
CONTINUOUS
370
-3
390
F
  0
LAYER
  5
1FF
100
AcDbSymbolTableRecord
100
AcDbLayerTableRecord
  2
COORD_ORIGINE
 70
0
 62
7
  6
CONTINUOUS
370
-3
390
F
  0
LAYER
  5
200
100
AcDbSymbolTableRecord
100
AcDbLayerTableRecord
  2
COPY_PUBLISH
 70
0
 62
7
  6
CONTINUOUS
370
-3
390
F
  0
LAYER
  5
201
100
AcDbSymbolTableRecord
100
AcDbLayerTableRecord
  2
COSMETIC
 70
0
 62
7
  6
CONTINUOUS
370
-3
390
F
  0
LAYER
  5
202
100
AcDbSymbolTableRecord
100
AcDbLayerTableRecord
  2
CURVE
 70
0
 62
7
  6
CONTINUOUS
370
-3
390
F
  0
LAYER
  5
203
100
AcDbSymbolTableRecord
100
AcDbLayerTableRecord
  2
DRAFT
 70
0
 62
7
  6
CONTINUOUS
370
-3
390
F
  0
LAYER
  5
204
100
AcDbSymbolTableRecord
100
AcDbLayerTableRecord
  2
IMPORT_IGES
 70
0
 62
7
  6
CONTINUOUS
370
-3
390
F
  0
LAYER
  5
205
100
AcDbSymbolTableRecord
100
AcDbLayerTableRecord
  2
NOTE
 70
0
 62
7
  6
CONTINUOUS
370
-3
390
F
  0
LAYER
  5
206
100
AcDbSymbolTableRecord
100
AcDbLayerTableRecord
  2
PIANI
 70
0
 62
7
  6
CONTINUOUS
370
-3
390
F
  0
LAYER
  5
207
100
AcDbSymbolTableRecord
100
AcDbLayerTableRecord
  2
PIANI_ORIGINE
 70
0
 62
7
  6
CONTINUOUS
370
-3
390
F
  0
LAYER
  5
208
100
AcDbSymbolTableRecord
100
AcDbLayerTableRecord
  2
PUNTI
 70
0
 62
7
  6
CONTINUOUS
370
-3
390
F
  0
LAYER
  5
209
100
AcDbSymbolTableRecord
100
AcDbLayerTableRecord
  2
RACCORDO
 70
0
 62
7
  6
CONTINUOUS
370
-3
390
F
  0
LAYER
  5
20A
100
AcDbSymbolTableRecord
100
AcDbLayerTableRecord
  2
SMUSSO
 70
0
 62
7
  6
CONTINUOUS
370
-3
390
F
  0
LAYER
  5
20B
100
AcDbSymbolTableRecord
100
AcDbLayerTableRecord
  2
SNAPLINE
 70
0
 62
7
  6
CONTINUOUS
370
-3
390
F
  0
LAYER
  5
20C
100
AcDbSymbolTableRecord
100
AcDbLayerTableRecord
  2
TRASH
 70
0
 62
7
  6
CONTINUOUS
370
-3
390
F
  0
LAYER
  5
20D
100
AcDbSymbolTableRecord
100
AcDbLayerTableRecord
  2
XSEC_DATUMS
 70
0
 62
7
  6
CONTINUOUS
370
-3
390
F
  0
ENDTAB
  0
TABLE
  2
STYLE
  5
3
100
AcDbSymbolTable
 70
1
  0
STYLE
  5
11
100
AcDbSymbolTableRecord
100
AcDbTextStyleTableRecord
  2
STANDARD
 70
0
 40
0.0
 41
0.8
 50
0.0
 71
0
 42
0.2
  3
txt
  4

  0
STYLE
  5
20E
100
AcDbSymbolTableRecord
100
AcDbTextStyleTableRecord
  2
TEXTSTYLE_1
 70
0
 40
0.0
 41
0.8
 50
0.0
 71
0
 42
0.2
  3
gdt
  4

  0
ENDTAB
  0
TABLE
  2
VIEW
  5
6
100
AcDbSymbolTable
 70
0
  0
ENDTAB
  0
TABLE
  2
UCS
  5
7
100
AcDbSymbolTable
 70
0
  0
ENDTAB
  0
TABLE
  2
APPID
  5
9
100
AcDbSymbolTable
 70
1
  0
APPID
  5
20F
100
AcDbSymbolTableRecord
100
AcDbRegAppTableRecord
  2
ACAD
 70
0
  0
ENDTAB
  0
TABLE
  2
BLOCK_RECORD
  5
1
100
AcDbSymbolTable
 70
0
  0
BLOCK_RECORD
  5
210
100
AcDbSymbolTableRecord
100
AcDbBlockTableRecord
  2
*Model_Space
  0
BLOCK_RECORD
  5
211
100
AcDbSymbolTableRecord
100
AcDbBlockTableRecord
  2
*Paper_Space
  0
ENDTAB
  0
TABLE
  2
DIMSTYLE
  5
A
100
AcDbSymbolTable
 70
1
100
AcDbDimStyleTable
 71
0
  0
DIMSTYLE
105
212
100
AcDbSymbolTableRecord
100
AcDbDimStyleTableRecord
  2
STANDARD
 70
0
  3

  4

 40
1.0
 41
3.0
 42
0.0625
 43
0.38
 44
0.18
 45
0.0
 46
0.0
 47
0.01
 48
0.01
140
3.0
141
0.09
142
0.0
143
25.4
144
1.0
145
0.0
146
1.0
147
0.09
 71
1.0
 72
0.0
 73
0
 74
0
 75
0
 76
0
 77
1
 78
8
170
0
171
2
172
0
173
0
174
0
175
0
176
0
177
0
178
0
270
2
271
2
272
2
273
2
274
2
275
0
280
0
281
0
282
0
283
1
284
8
285
0
286
0
287
3
288
0
340
11
  0
ENDTAB
  0
ENDSEC
  0
SECTION
  2
BLOCKS
  0
BLOCK
  5
20
100
AcDbEntity
  8
0
100
AcDbBlockBegin
  2
*Model_Space
 70
0
 10
0.0
 20
0.0
 30
0.0
  3
*Model_Space
  1

  0
ENDBLK
  5
21
100
AcDbEntity
  8
0
100
AcDbBlockEnd
  0
BLOCK
  5
1C
100
AcDbEntity
  8
0
100
AcDbBlockBegin
  2
*Paper_Space
 70
0
 10
0.0
 20
0.0
 30
0.0
  3
*Paper_Space
  1

  0
ENDBLK
  5
1D
100
AcDbEntity
  8
0
100
AcDbBlockEnd
  0
ENDSEC
  0
SECTION
  2
ENTITIES
  0
LINE
  5
213
100
AcDbEntity
  8
SMUSSO
100
AcDbLine
 62
7
  6
CONTINUOUS
 10
-7.1398149787
 20
-37.2712367634
 11
-12.3318494927
 21
-37.6777030853
  0
LINE
  5
214
100
AcDbEntity
  8
SMUSSO
100
AcDbLine
 62
7
  6
CONTINUOUS
 10
-12.3318494927
 20
-37.6777030853
 11
-12.7547468685
 21
-37.5851081077
  0
LINE
  5
215
100
AcDbEntity
  8
RACCORDO
100
AcDbLine
 62
7
  6
CONTINUOUS
 10
-26.3544618709
 20
1.4746291125
 11
-24.4637523103
 21
2.8449111698
  0
LINE
  5
216
100
AcDbEntity
  8
ASSI
100
AcDbLine
 62
7
  6
CONTINUOUS
 10
-26.3544618709
 20
1.4746291125
 11
-24.4637523103
 21
2.8449111698
  0
LINE
  5
217
100
AcDbEntity
  8
RACCORDO
100
AcDbLine
 62
7
  6
CONTINUOUS
 10
-21.2042374438
 20
5.3012814292
 11
-21.4895484873
 21
5.1610942384
  0
LINE
  5
218
100
AcDbEntity
  8
ASSI
100
AcDbLine
 62
7
  6
CONTINUOUS
 10
-21.2042374438
 20
5.3012814292
 11
-21.4895484873
 21
5.1610942384
  0
LINE
  5
219
100
AcDbEntity
  8
SMUSSO
100
AcDbLine
 62
7
  6
CONTINUOUS
 10
-7.0477303988
 20
-36.897657231
 11
-12.2397649127
 21
-37.3041235528
  0
LINE
  5
21A
100
AcDbEntity
  8
SMUSSO
100
AcDbLine
 62
7
  6
CONTINUOUS
 10
-12.2397649127
 20
-37.3041235528
 11
-12.7360473626
 21
-37.1954606362
  0
LINE
  5
21B
100
AcDbEntity
  8
RACCORDO
100
AcDbLine
 62
7
  6
CONTINUOUS
 10
-14.1435298066
 20
-38.1130797346
 11
-16.1906768379
 21
-37.089506219
  0
LINE
  5
21C
100
AcDbEntity
  8
ASSI
100
AcDbLine
 62
7
  6
CONTINUOUS
 10
-14.1435298066
 20
-38.1130797346
 11
-16.1906768379
 21
-37.089506219
  0
LINE
  5
21D
100
AcDbEntity
  8
RACCORDO
100
AcDbLine
 62
7
  6
CONTINUOUS
 10
-20.5700608769
 20
-34.8998141995
 11
-22.6172079082
 21
-33.8762406838
  0
LINE
  5
21E
100
AcDbEntity
  8
ASSI
100
AcDbLine
 62
7
  6
CONTINUOUS
 10
-20.5700608769
 20
-34.8998141995
 11
-22.6172079082
 21
-33.8762406838
  0
LINE
  5
21F
100
AcDbEntity
  8
0
100
AcDbLine
 62
7
  6
CONTINUOUS
 10
-16.5613593839
 20
-36.7593908263
 11
-20.498991611
 21
-34.7905747127
  0
LINE
  5
220
100
AcDbEntity
  8
RACCORDO
100
AcDbLine
 62
7
  6
CONTINUOUS
 10
-26.4029691794
 20
-31.3508273639
 11
-16.5344091562
 21
-36.2851073755
  0
LINE
  5
221
100
AcDbEntity
  8
ASSI
100
AcDbLine
 62
7
  6
CONTINUOUS
 10
-26.4029691794
 20
-31.3508273639
 11
-16.5344091562
 21
-36.2851073755
  0
LINE
  5
222
100
AcDbEntity
  8
RACCORDO
100
AcDbLine
 62
7
  6
CONTINUOUS
 10
-15.808950319
 20
-36.6366474144
 11
-15.1738906691
 21
-36.9541772394
  0
LINE
  5
223
100
AcDbEntity
  8
ASSI
100
AcDbLine
 62
7
  6
CONTINUOUS
 10
-15.808950319
 20
-36.6366474144
 11
-15.1738906691
 21
-36.9541772394
  0
LINE
  5
224
100
AcDbEntity
  8
RACCORDO
100
AcDbLine
 62
253
  6
CONTINUOUS
 10
-14.7874611345
 20
-36.7637960518
 11
-15.0576948925
 21
-36.6286791727
  0
LINE
  5
225
100
AcDbEntity
  8
ASSI
100
AcDbLine
 62
253
  6
CONTINUOUS
 10
-14.7874611345
 20
-36.7637960518
 11
-15.0576948925
 21
-36.6286791727
  0
LINE
  5
226
100
AcDbEntity
  8
RACCORDO
100
AcDbLine
 62
253
  6
CONTINUOUS
 10
-15.4503468502
 20
-36.3846934831
 11
-15.2041415019
 21
-36.5077961572
  0
LINE
  5
227
100
AcDbEntity
  8
ASSI
100
AcDbLine
 62
253
  6
CONTINUOUS
 10
-15.4503468502
 20
-36.3846934831
 11
-15.2041415019
 21
-36.5077961572
  0
LINE
  5
228
100
AcDbEntity
  8
RACCORDO
100
AcDbLine
 62
253
  6
CONTINUOUS
 10
-26.7928089579
 20
-30.5395166633
 11
-16.9242489348
 21
-35.4737966749
  0
LINE
  5
229
100
AcDbEntity
  8
ASSI
100
AcDbLine
 62
253
  6
CONTINUOUS
 10
-26.7928089579
 20
-30.5395166633
 11
-16.9242489348
 21
-35.4737966749
  0
LINE
  5
22A
100
AcDbEntity
  8
RACCORDO
100
AcDbLine
 62
7
  6
CONTINUOUS
 10
-13.4063674277
 20
-37.1776523388
 11
-14.658708181
 21
-36.5514819622
  0
LINE
  5
22B
100
AcDbEntity
  8
ASSI
100
AcDbLine
 62
7
  6
CONTINUOUS
 10
-13.4063674277
 20
-37.1776523388
 11
-14.658708181
 21
-36.5514819622
  0
LINE
  5
22C
100
AcDbEntity
  8
RACCORDO
100
AcDbLine
 62
253
  6
CONTINUOUS
 10
-13.5363140205
 20
-36.9072154386
 11
-14.7874611345
 21
-36.2816418816
  0
LINE
  5
22D
100
AcDbEntity
  8
ASSI
100
AcDbLine
 62
253
  6
CONTINUOUS
 10
-13.5363140205
 20
-36.9072154386
 11
-14.7874611345
 21
-36.2816418816
  0
LINE
  5
22E
100
AcDbEntity
  8
SMUSSO
100
AcDbLine
 62
7
  6
CONTINUOUS
 10
-15.625096353
 20
10.2749476542
 11
-20.8171308669
 21
5.4893794621
  0
LINE
  5
22F
100
AcDbEntity
  8
RACCORDO
100
AcDbLine
 62
253
  6
CONTINUOUS
 10
-26.4145991833
 20
0.8929981162
 11
-24.5238896227
 21
2.2632801736
  0
LINE
  5
230
100
AcDbEntity
  8
ASSI
100
AcDbLine
 62
253
  6
CONTINUOUS
 10
-26.4145991833
 20
0.8929981162
 11
-24.5238896227
 21
2.2632801736
  0
LINE
  5
231
100
AcDbEntity
  8
RACCORDO
100
AcDbLine
 62
7
  6
CONTINUOUS
 10
-26.4237462575
 20
-0.1371860666
 11
-24.6588711679
 21
0.7798182839
  0
LINE
  5
232
100
AcDbEntity
  8
ASSI
100
AcDbLine
 62
7
  6
CONTINUOUS
 10
-26.4237462575
 20
-0.1371860666
 11
-24.6588711679
 21
0.7798182839
  0
LINE
  5
233
100
AcDbEntity
  8
RACCORDO
100
AcDbLine
 62
7
  6
CONTINUOUS
 10
-22.8780527417
 20
3.6670126562
 11
-24.3990345798
 21
2.8846882507
  0
LINE
  5
234
100
AcDbEntity
  8
ASSI
100
AcDbLine
 62
7
  6
CONTINUOUS
 10
-22.8780527417
 20
3.6670126562
 11
-24.3990345798
 21
2.8846882507
  0
LINE
  5
235
100
AcDbEntity
  8
RACCORDO
100
AcDbLine
 62
253
  6
CONTINUOUS
 10
-22.9559375609
 20
3.4977292345
 11
-24.1734215283
 21
2.8715104349
  0
LINE
  5
236
100
AcDbEntity
  8
ASSI
100
AcDbLine
 62
253
  6
CONTINUOUS
 10
-22.9559375609
 20
3.4977292345
 11
-24.1734215283
 21
2.8715104349
  0
LINE
  5
237
100
AcDbEntity
  8
RACCORDO
100
AcDbLine
 62
7
  6
CONTINUOUS
 10
-15.7913920654
 20
6.6332575384
 11
-14.0096436752
 21
7.5241317335
  0
LINE
  5
238
100
AcDbEntity
  8
RACCORDO
100
AcDbLine
 62
7
  6
CONTINUOUS
 10
-19.156967029
 20
4.2776462218
 11
-19.4422780724
 21
4.137459031
  0
LINE
  5
239
100
AcDbEntity
  8
ASSI
100
AcDbLine
 62
7
  6
CONTINUOUS
 10
-19.156967029
 20
4.2776462218
 11
-19.4422780724
 21
4.137459031
  0
LINE
  5
23A
100
AcDbEntity
  8
ASSI
100
AcDbLine
 62
7
  6
CONTINUOUS
 10
-13.9334044118
 20
7.6347151138
 11
-14.6554216415
 21
7.2837780091
  0
LINE
  5
23B
100
AcDbEntity
  8
RACCORDO
100
AcDbLine
 62
7
  6
CONTINUOUS
 10
-22.00443127
 20
1.215631134
 11
-21.579727411
 21
1.7220216717
  0
LINE
  5
23C
100
AcDbEntity
  8
ASSI
100
AcDbLine
 62
7
  6
CONTINUOUS
 10
-22.00443127
 20
1.215631134
 11
-21.579727411
 21
1.7220216717
  0
LINE
  5
23D
100
AcDbEntity
  8
RACCORDO
100
AcDbLine
 62
7
  6
CONTINUOUS
 10
-19.0987678866
 20
3.9567777332
 11
-19.059678533
 21
3.9928069173
  0
LINE
  5
23E
100
AcDbEntity
  8
RACCORDO
100
AcDbLine
 62
7
  6
CONTINUOUS
 10
-16.0010999179
 20
6.4098187551
 11
-15.8792600311
 21
6.522120221
  0
LINE
  5
23F
100
AcDbEntity
  8
RACCORDO
100
AcDbLine
 62
7
  6
CONTINUOUS
 10
-15.7199022253
 20
6.6690024585
 11
-13.7004853313
 21
8.5303262283
  0
LINE
  5
240
100
AcDbEntity
  8
RACCORDO
100
AcDbLine
 62
7
  6
CONTINUOUS
 10
-15.909015338
 20
6.1283238026
 11
-15.87590767
 21
6.1588395864
  0
LINE
  5
241
100
AcDbEntity
  8
RACCORDO
100
AcDbLine
 62
7
  6
CONTINUOUS
 10
-14.8511357056
 20
7.1033857183
 11
-13.9389329971
 21
7.9441752499
  0
LINE
  5
242
100
AcDbEntity
  8
0
100
AcDbLine
 62
7
  6
CONTINUOUS
 10
-19.1029276707
 20
3.9532849629
 11
-20.1537641076
 21
3.1543050601
  0
LINE
  5
243
100
AcDbEntity
  8
RACCORDO
100
AcDbLine
 62
253
  6
CONTINUOUS
 10
-25.7414046748
 20
-0.1738749311
 11
-23.9798896766
 21
0.7413835631
  0
LINE
  5
244
100
AcDbEntity
  8
ASSI
100
AcDbLine
 62
253
  6
CONTINUOUS
 10
-25.7414046748
 20
-0.1738749311
 11
-23.9798896766
 21
0.7413835631
  0
LINE
  5
245
100
AcDbEntity
  8
RACCORDO
100
AcDbLine
 62
7
  6
CONTINUOUS
 10
-22.2985007279
 20
1.0680246309
 11
-22.00443127
 21
1.215631134
  0
LINE
  5
246
100
AcDbEntity
  8
ASSI
100
AcDbLine
 62
7
  6
CONTINUOUS
 10
-22.2985007279
 20
1.0680246309
 11
-22.00443127
 21
1.215631134
  0
LINE
  5
247
100
AcDbEntity
  8
RACCORDO
100
AcDbLine
 62
7
  6
CONTINUOUS
 10
-13.4991936579
 20
4.9286161388
 11
-13.5541040382
 21
4.9011609486
  0
LINE
  5
248
100
AcDbEntity
  8
RACCORDO
100
AcDbLine
 62
7
  6
CONTINUOUS
 10
-12.2558581595
 20
4.8654905855
 11
-12.1843683194
 21
4.9012355055
  0
LINE
  5
249
100
AcDbEntity
  8
RACCORDO
100
AcDbLine
 62
7
  6
CONTINUOUS
 10
-13.6881296845
 20
5.0230841521
 11
-13.7440868175
 21
4.9961523382
  0
LINE
  5
24A
100
AcDbEntity
  8
ASSI
100
AcDbLine
 62
7
  6
CONTINUOUS
 10
-13.6881296845
 20
5.0230841521
 11
-13.7440868175
 21
4.9961523382
  0
LINE
  5
24B
100
AcDbEntity
  8
RACCORDO
100
AcDbLine
 62
7
  6
CONTINUOUS
 10
-20.7702130311
 20
1.6145222701
 11
-20.9426508274
 21
1.5315290504
  0
LINE
  5
24C
100
AcDbEntity
  8
ASSI
100
AcDbLine
 62
7
  6
CONTINUOUS
 10
-20.7702130311
 20
1.6145222701
 11
-20.9426508274
 21
1.5315290504
  0
LINE
  5
24D
100
AcDbEntity
  8
RACCORDO
100
AcDbLine
 62
7
  6
CONTINUOUS
 10
-14.1636712186
 20
5.2059445388
 11
-14.1076832326
 21
5.2328609261
  0
LINE
  5
24E
100
AcDbEntity
  8
ASSI
100
AcDbLine
 62
7
  6
CONTINUOUS
 10
-14.1636712186
 20
5.2059445388
 11
-14.1076832326
 21
5.2328609261
  0
LINE
  5
24F
100
AcDbEntity
  8
0
100
AcDbLine
 62
253
  6
CONTINUOUS
 10
-9.676629715
 20
-35.5832075729
 11
-7.0477303988
 21
-36.897657231
  0
LINE
  5
250
100
AcDbEntity
  8
0
100
AcDbLine
 62
253
  6
CONTINUOUS
 10
-8.7607140527
 20
-35.1383028749
 11
-6.5863507661
 21
-36.2254845182
  0
LINE
  5
251
100
AcDbEntity
  8
SMUSSO
100
AcDbLine
 62
7
  6
CONTINUOUS
 10
-8.3313461502
 20
-34.9280176982
 11
-6.8311755048
 21
-35.6781030209
  0
LINE
  5
252
100
AcDbEntity
  8
SMUSSO
100
AcDbLine
 62
7
  6
CONTINUOUS
 10
-8.0756346562
 20
-34.7439153997
 11
-6.5494090943
 21
-35.5070281807
  0
LINE
  5
253
100
AcDbEntity
  8
RACCORDO
100
AcDbLine
 62
253
  6
CONTINUOUS
 10
-27.232143321
 20
-30.0112111457
 11
-27.2321487794
 21
-30.0091154618
  0
LINE
  5
254
100
AcDbEntity
  8
ASSI
100
AcDbLine
 62
253
  6
CONTINUOUS
 10
-27.232143321
 20
-30.0112111457
 11
-27.2321487794
 21
-30.0091154618
  0
LINE
  5
255
100
AcDbEntity
  8
RACCORDO
100
AcDbLine
 62
253
  6
CONTINUOUS
 10
-27.2321485826
 20
-1.4686263727
 11
-27.2321487794
 21
-1.4681645389
  0
LINE
  5
256
100
AcDbEntity
  8
ASSI
100
AcDbLine
 62
253
  6
CONTINUOUS
 10
-27.2321485826
 20
-1.4686263727
 11
-27.2321487794
 21
-1.4681645389
  0
LINE
  5
257
100
AcDbEntity
  8
RACCORDO
100
AcDbLine
 62
7
  6
CONTINUOUS
 10
-27.2321487862
 20
-1.468235629
 11
-27.2321487862
 21
-30.0091865774
  0
LINE
  5
258
100
AcDbEntity
  8
ASSI
100
AcDbLine
 62
7
  6
CONTINUOUS
 10
-27.2321487862
 20
-1.468235629
 11
-27.2321487862
 21
-30.0091865774
  0
LINE
  5
259
100
AcDbEntity
  8
RACCORDO
100
AcDbLine
 62
253
  6
CONTINUOUS
 10
-26.7928089579
 20
-1.9985657149
 11
-26.7928089579
 21
-13.5279289152
  0
LINE
  5
25A
100
AcDbEntity
  8
ASSI
100
AcDbLine
 62
253
  6
CONTINUOUS
 10
-26.7928089579
 20
-1.9985657149
 11
-26.7928089579
 21
-13.5279289152
  0
LINE
  5
25B
100
AcDbEntity
  8
RACCORDO
100
AcDbLine
 62
253
  6
CONTINUOUS
 10
-26.7928053302
 20
-19.0101619444
 11
-26.7928089579
 21
-30.5395166633
  0
LINE
  5
25C
100
AcDbEntity
  8
ASSI
100
AcDbLine
 62
253
  6
CONTINUOUS
 10
-26.7928053302
 20
-19.0101619444
 11
-26.7928089579
 21
-30.5395166633
  0
LINE
  5
25D
100
AcDbEntity
  8
RACCORDO
100
AcDbLine
 62
7
  6
CONTINUOUS
 10
-26.5610457927
 20
-0.2243836137
 11
-26.5610457927
 21
1.0697748115
  0
LINE
  5
25E
100
AcDbEntity
  8
ASSI
100
AcDbLine
 62
7
  6
CONTINUOUS
 10
-26.5610457927
 20
-0.2243836137
 11
-26.5610457927
 21
1.0697748115
  0
LINE
  5
25F
100
AcDbEntity
  8
RACCORDO
100
AcDbLine
 62
253
  6
CONTINUOUS
 10
-26.4145991833
 20
-0.1371849947
 11
-26.4145991833
 21
0.8929981162
  0
LINE
  5
260
100
AcDbEntity
  8
ASSI
100
AcDbLine
 62
253
  6
CONTINUOUS
 10
-26.4145991833
 20
-0.1371849947
 11
-26.4145991833
 21
0.8929981162
  0
LINE
  5
261
100
AcDbEntity
  8
RACCORDO
100
AcDbLine
 62
253
  6
CONTINUOUS
 10
-20.2618202429
 20
1.1174964006
 11
-20.7186857114
 21
0.5727583547
  0
LINE
  5
262
100
AcDbEntity
  8
ASSI
100
AcDbLine
 62
253
  6
CONTINUOUS
 10
-20.2618202429
 20
1.1174964006
 11
-20.7186857114
 21
0.5727583547
  0
LINE
  5
263
100
AcDbEntity
  8
RACCORDO
100
AcDbLine
 62
253
  6
CONTINUOUS
 10
-20.0033465304
 20
0.9882595444
 11
-20.2894502324
 21
0.6471272366
  0
LINE
  5
264
100
AcDbEntity
  8
ASSI
100
AcDbLine
 62
253
  6
CONTINUOUS
 10
-20.0033465304
 20
0.9882595444
 11
-20.2894502324
 21
0.6471272366
  0
LINE
  5
265
100
AcDbEntity
  8
RACCORDO
100
AcDbLine
 62
7
  6
CONTINUOUS
 10
-14.8020172833
 20
2.1001713489
 11
-15.0823916648
 21
1.9575158272
  0
LINE
  5
266
100
AcDbEntity
  8
ASSI
100
AcDbLine
 62
7
  6
CONTINUOUS
 10
-14.8020172833
 20
2.1001713489
 11
-15.0823916648
 21
1.9575158272
  0
LINE
  5
267
100
AcDbEntity
  8
RACCORDO
100
AcDbLine
 62
7
  6
CONTINUOUS
 10
-19.8062056705
 20
0.8896891144
 11
-20.2894502324
 21
0.6471272366
  0
LINE
  5
268
100
AcDbEntity
  8
ASSI
100
AcDbLine
 62
7
  6
CONTINUOUS
 10
-19.8062056705
 20
0.8896891144
 11
-20.2894502324
 21
0.6471272366
  0
LINE
  5
269
100
AcDbEntity
  8
0
100
AcDbLine
 62
7
  6
CONTINUOUS
 10
-4.4507532087
 20
7.3950553952
 11
-6.8381717707
 21
6.3545861986
  0
LINE
  5
26A
100
AcDbEntity
  8
0
100
AcDbLine
 62
253
  6
CONTINUOUS
 10
-4.1511309464
 20
7.3829997454
 11
-6.6857524934
 21
6.27837656
  0
LINE
  5
26B
100
AcDbEntity
  8
0
100
AcDbLine
 62
253
  6
CONTINUOUS
 10
-6.3045843555
 20
5.6507105049
 11
-6.5863507661
 21
5.5400189345
  0
LINE
  5
26C
100
AcDbEntity
  8
SMUSSO
100
AcDbLine
 62
7
  6
CONTINUOUS
 10
-6.3187885349
 20
5.4447655575
 11
-6.6005549455
 21
5.3340739872
  0
LINE
  5
26D
100
AcDbEntity
  8
SMUSSO
100
AcDbLine
 62
7
  6
CONTINUOUS
 10
-6.5494090943
 20
5.2827683375
 11
-6.8311755048
 21
5.1720767672
  0
LINE
  5
26E
100
AcDbEntity
  8
0
100
AcDbLine
 62
7
  6
CONTINUOUS
 10
-13.2750421308
 20
4.7616299949
 11
-13.2439110536
 21
4.8009748366
  0
LINE
  5
26F
100
AcDbEntity
  8
0
100
AcDbLine
 62
253
  6
CONTINUOUS
 10
-13.1912813967
 20
4.7197496278
 11
-13.1601503195
 21
4.7590944696
  0
LINE
  5
270
100
AcDbEntity
  8
RACCORDO
100
AcDbLine
 62
7
  6
CONTINUOUS
 10
-10.1649514254
 20
6.7625592753
 11
-12.465566012
 21
4.6420518021
  0
LINE
  5
271
100
AcDbEntity
  8
RACCORDO
100
AcDbLine
 62
7
  6
CONTINUOUS
 10
-12.7547468685
 20
1.0765361415
 11
-13.03512125
 21
0.9338806198
  0
LINE
  5
272
100
AcDbEntity
  8
ASSI
100
AcDbLine
 62
7
  6
CONTINUOUS
 10
-12.7547468685
 20
1.0765361415
 11
-13.03512125
 21
0.9338806198
  0
LINE
  5
273
100
AcDbEntity
  8
RACCORDO
100
AcDbLine
 62
7
  6
CONTINUOUS
 10
-10.0241442552
 20
3.0074112456
 11
-9.1183193151
 21
3.4585314635
  0
LINE
  5
274
100
AcDbEntity
  8
ASSI
100
AcDbLine
 62
7
  6
CONTINUOUS
 10
-10.0241442552
 20
3.0074112456
 11
-9.1183193151
 21
3.4585314635
  0
LINE
  5
275
100
AcDbEntity
  8
0
100
AcDbLine
 62
7
  6
CONTINUOUS
 10
-5.453883627
 20
4.4184053474
 11
-1.3935096722
 21
6.1880194886
  0
LINE
  5
276
100
AcDbEntity
  8
RACCORDO
100
AcDbLine
 62
7
  6
CONTINUOUS
 10
-23.2727425087
 20
2.1198607867
 11
-23.2727425087
 21
1.6377066166
  0
LINE
  5
277
100
AcDbEntity
  8
ASSI
100
AcDbLine
 62
7
  6
CONTINUOUS
 10
-23.2727425087
 20
2.1198607867
 11
-23.2727425087
 21
1.6377066166
  0
LINE
  5
278
100
AcDbEntity
  8
RACCORDO
100
AcDbLine
 62
253
  6
CONTINUOUS
 10
-23.0025087507
 20
1.0658146795
 11
-23.0025087507
 21
1.9847439077
  0
LINE
  5
279
100
AcDbEntity
  8
ASSI
100
AcDbLine
 62
253
  6
CONTINUOUS
 10
-23.0025087507
 20
1.0658146795
 11
-23.0025087507
 21
1.9847439077
  0
LINE
  5
27A
100
AcDbEntity
  8
RACCORDO
100
AcDbLine
 62
253
  6
CONTINUOUS
 10
-22.2985007279
 20
1.0680246309
 11
-22.2985007279
 21
2.0474807493
  0
LINE
  5
27B
100
AcDbEntity
  8
ASSI
100
AcDbLine
 62
253
  6
CONTINUOUS
 10
-22.2985007279
 20
1.0680246309
 11
-22.2985007279
 21
2.0474807493
  0
LINE
  5
27C
100
AcDbEntity
  8
RACCORDO
100
AcDbLine
 62
7
  6
CONTINUOUS
 10
-16.0627235278
 20
-1.6494038998
 11
-15.7295568666
 21
-1.2422290521
  0
LINE
  5
27D
100
AcDbEntity
  8
ASSI
100
AcDbLine
 62
7
  6
CONTINUOUS
 10
-16.0627235278
 20
-1.6494038998
 11
-15.7295568666
 21
-1.2422290521
  0
LINE
  5
27E
100
AcDbEntity
  8
RACCORDO
100
AcDbLine
 62
253
  6
CONTINUOUS
 10
-16.0575310336
 20
-1.7578189842
 11
-15.673311817
 21
-1.2882509895
  0
LINE
  5
27F
100
AcDbEntity
  8
ASSI
100
AcDbLine
 62
253
  6
CONTINUOUS
 10
-16.0575310336
 20
-1.7578189842
 11
-15.673311817
 21
-1.2882509895
  0
LINE
  5
280
100
AcDbEntity
  8
SMUSSO
100
AcDbLine
 62
7
  6
CONTINUOUS
 10
-7.1398149787
 20
6.032306967
 11
-12.3318494927
 21
1.246738775
  0
LINE
  5
281
100
AcDbEntity
  8
SMUSSO
100
AcDbLine
 62
7
  6
CONTINUOUS
 10
-7.0477303988
 20
5.7508120145
 11
-12.2397649127
 21
0.9652438224
  0
LINE
  5
282
100
AcDbEntity
  8
SMUSSO
100
AcDbLine
 62
7
  6
CONTINUOUS
 10
-6.6005549455
 20
5.3340739872
 11
-6.8311755048
 21
5.1720767672
  0
LINE
  5
283
100
AcDbEntity
  8
SMUSSO
100
AcDbLine
 62
7
  6
CONTINUOUS
 10
-6.3187885349
 20
5.4447655575
 11
-6.5494090943
 21
5.2827683375
  0
LINE
  5
284
100
AcDbEntity
  8
RACCORDO
100
AcDbLine
 62
7
  6
CONTINUOUS
 10
-9.8809094579
 20
0.3736917296
 11
-14.4400515288
 21
-1.9951745649
  0
LINE
  5
285
100
AcDbEntity
  8
ASSI
100
AcDbLine
 62
7
  6
CONTINUOUS
 10
-9.8809094579
 20
0.3736917296
 11
-14.4400515288
 21
-1.9951745649
  0
LINE
  5
286
100
AcDbEntity
  8
DRAFT
100
AcDbLine
 62
7
  6
CONTINUOUS
 10
-4.2734218276
 20
3.1965719827
 11
-9.8809094579
 21
0.3736917296
  0
LINE
  5
287
100
AcDbEntity
  8
ASSI
100
AcDbLine
 62
7
  6
CONTINUOUS
 10
-4.2734218276
 20
3.1965719827
 11
-9.8809094579
 21
0.3736917296
  0
LINE
  5
288
100
AcDbEntity
  8
ASSI
100
AcDbLine
 62
7
  6
CONTINUOUS
 10
-3.5763576097
 20
2.581763866
 11
-8.9184748506
 21
-0.107525574
  0
LINE
  5
289
100
AcDbEntity
  8
RACCORDO
100
AcDbLine
 62
7
  6
CONTINUOUS
 10
-12.0599276572
 20
-0.0496721986
 11
-4.2734218276
 21
3.8281744476
  0
LINE
  5
28A
100
AcDbEntity
  8
ASSI
100
AcDbLine
 62
7
  6
CONTINUOUS
 10
-12.0599276572
 20
-0.0496721986
 11
-4.2734218276
 21
3.8281744476
  0
LINE
  5
28B
100
AcDbEntity
  8
0
100
AcDbLine
 62
253
  6
CONTINUOUS
 10
-3.5697681463
 20
2.4891702169
 11
1.3491026031
 21
4.6328804082
  0
LINE
  5
28C
100
AcDbEntity
  8
ASSI
100
AcDbLine
 62
7
  6
CONTINUOUS
 10
-5.547912202
 20
-29.9109433964
 11
-3.8626613652
 21
-30.7535688149
  0
LINE
  5
28D
100
AcDbEntity
  8
0
100
AcDbLine
 62
7
  6
CONTINUOUS
 10
-5.3907803105
 20
-30.6458985803
 11
-5.557904265
 21
-30.5463132937
  0
LINE
  5
28E
100
AcDbEntity
  8
0
100
AcDbLine
 62
253
  6
CONTINUOUS
 10
-9.3959158706
 20
3.5864578153
 11
-9.7434834794
 21
3.1471863221
  0
LINE
  5
28F
100
AcDbEntity
  8
DRAFT
100
AcDbLine
 62
7
  6
CONTINUOUS
 10
-8.2990926865
 20
-0.5741988818
 11
-3.5720156281
 21
1.8549292087
  0
LINE
  5
290
100
AcDbEntity
  8
ASSI
100
AcDbLine
 62
7
  6
CONTINUOUS
 10
-8.2990926865
 20
-0.5741988818
 11
-3.5720156281
 21
1.8549292087
  0
LINE
  5
291
100
AcDbEntity
  8
RACCORDO
100
AcDbLine
 62
253
  6
CONTINUOUS
 10
-13.1858459262
 20
-2.6222773662
 11
-8.569941137
 21
-0.2817924308
  0
LINE
  5
292
100
AcDbEntity
  8
ASSI
100
AcDbLine
 62
253
  6
CONTINUOUS
 10
-13.1858459262
 20
-2.6222773662
 11
-8.569941137
 21
-0.2817924308
  0
LINE
  5
293
100
AcDbEntity
  8
RACCORDO
100
AcDbLine
 62
253
  6
CONTINUOUS
 10
-12.9358554454
 20
-2.8740942615
 11
-8.3199506562
 21
-0.5336093261
  0
LINE
  5
294
100
AcDbEntity
  8
ASSI
100
AcDbLine
 62
253
  6
CONTINUOUS
 10
-12.9358554454
 20
-2.8740942615
 11
-8.3199506562
 21
-0.5336093261
  0
LINE
  5
295
100
AcDbEntity
  8
RACCORDO
100
AcDbLine
 62
253
  6
CONTINUOUS
 10
-15.8728446516
 20
-5.1081549427
 11
-14.0803139666
 21
-4.2084042919
  0
LINE
  5
296
100
AcDbEntity
  8
ASSI
100
AcDbLine
 62
253
  6
CONTINUOUS
 10
-15.8728446516
 20
-5.1081549427
 11
-14.0803139666
 21
-4.2084042919
  0
LINE
  5
297
100
AcDbEntity
  8
0
100
AcDbLine
 62
253
  6
CONTINUOUS
 10
-5.6566203194
 20
0.4207290591
 11
-5.0470288839
 21
0.725524777
  0
LINE
  5
298
100
AcDbEntity
  8
0
100
AcDbLine
 62
253
  6
CONTINUOUS
 10
-5.8903285331
 20
0.2565924794
 11
-6.9825541302
 21
-0.2895203192
  0
LINE
  5
299
100
AcDbEntity
  8
0
100
AcDbLine
 62
253
  6
CONTINUOUS
 10
1.8238849648
 20
3.7199616695
 11
-5.0470288839
 21
0.725524777
  0
LINE
  5
29A
100
AcDbEntity
  8
SMUSSO
100
AcDbLine
 62
7
  6
CONTINUOUS
 10
-20.8171308669
 20
5.4893794621
 11
-20.8016629056
 21
5.09999416
  0
LINE
  5
29B
100
AcDbEntity
  8
RACCORDO
100
AcDbLine
 62
7
  6
CONTINUOUS
 10
-19.156967029
 20
4.2776462218
 11
-19.156967029
 21
3.9121973495
  0
LINE
  5
29C
100
AcDbEntity
  8
ASSI
100
AcDbLine
 62
7
  6
CONTINUOUS
 10
-19.156967029
 20
4.2776462218
 11
-19.156967029
 21
3.9121973495
  0
LINE
  5
29D
100
AcDbEntity
  8
RACCORDO
100
AcDbLine
 62
253
  6
CONTINUOUS
 10
-14.8122248665
 20
-6.9374534775
 11
-13.0196941815
 21
-6.0377028267
  0
LINE
  5
29E
100
AcDbEntity
  8
ASSI
100
AcDbLine
 62
253
  6
CONTINUOUS
 10
-14.8122248665
 20
-6.9374534775
 11
-13.0196941815
 21
-6.0377028267
  0
LINE
  5
29F
100
AcDbEntity
  8
0
100
AcDbLine
 62
253
  6
CONTINUOUS
 10
-6.5476812188
 20
-2.0586941658
 11
-6.5473540751
 21
-2.0585303944
  0
LINE
  5
2A0
100
AcDbEntity
  8
0
100
AcDbLine
 62
253
  6
CONTINUOUS
 10
-6.287788064
 20
-1.5027968562
 11
-5.1955624669
 21
-0.9566840576
  0
LINE
  5
2A1
100
AcDbEntity
  8
0
100
AcDbLine
 62
253
  6
CONTINUOUS
 10
-5.1955624669
 20
-0.9717075822
 11
-6.287788064
 21
-1.5178203808
  0
LINE
  5
2A2
100
AcDbEntity
  8
0
100
AcDbLine
 62
7
  6
CONTINUOUS
 10
-5.4554556526
 20
-1.5125813827
 11
-6.5476812497
 21
-2.0586941812
  0
LINE
  5
2A3
100
AcDbEntity
  8
SMUSSO
100
AcDbLine
 62
7
  6
CONTINUOUS
 10
-6.8311755048
 20
-35.6781030209
 11
-6.6005549455
 21
-36.0337437503
  0
LINE
  5
2A4
100
AcDbEntity
  8
SMUSSO
100
AcDbLine
 62
7
  6
CONTINUOUS
 10
-6.5494090943
 20
-35.5070281807
 11
-6.3187885349
 21
-35.8626689101
  0
LINE
  5
2A5
100
AcDbEntity
  8
RACCORDO
100
AcDbLine
 62
253
  6
CONTINUOUS
 10
-17.0476326223
 20
-18.4354650909
 11
-17.0479372796
 21
-18.4345641394
  0
LINE
  5
2A6
100
AcDbEntity
  8
ASSI
100
AcDbLine
 62
253
  6
CONTINUOUS
 10
-17.0476326223
 20
-18.4354650909
 11
-17.0479372796
 21
-18.4345641394
  0
LINE
  5
2A7
100
AcDbEntity
  8
RACCORDO
100
AcDbLine
 62
253
  6
CONTINUOUS
 10
-16.9242525625
 20
-18.4622004454
 11
-16.9242489348
 21
-6.9328457265
  0
LINE
  5
2A8
100
AcDbEntity
  8
ASSI
100
AcDbLine
 62
253
  6
CONTINUOUS
 10
-16.9242525625
 20
-18.4622004454
 11
-16.9242489348
 21
-6.9328457265
  0
LINE
  5
2A9
100
AcDbEntity
  8
RACCORDO
100
AcDbLine
 62
253
  6
CONTINUOUS
 10
-16.9242489348
 20
-35.4737966749
 11
-16.9242489348
 21
-23.9444334746
  0
LINE
  5
2AA
100
AcDbEntity
  8
ASSI
100
AcDbLine
 62
253
  6
CONTINUOUS
 10
-16.9242489348
 20
-35.4737966749
 11
-16.9242489348
 21
-23.9444334746
  0
LINE
  5
2AB
100
AcDbEntity
  8
0
100
AcDbLine
 62
7
  6
CONTINUOUS
 10
-22.0050160476
 20
-18.105345451
 11
-21.4604084604
 21
-17.3242683264
  0
LINE
  5
2AC
100
AcDbEntity
  8
RACCORDO
100
AcDbLine
 62
253
  6
CONTINUOUS
 10
-6.4057292078
 20
-3.8351529519
 11
-11.0451458848
 21
-6.1350858794
  0
LINE
  5
2AD
100
AcDbEntity
  8
ASSI
100
AcDbLine
 62
253
  6
CONTINUOUS
 10
-6.4057292078
 20
-3.8351529519
 11
-11.0451458848
 21
-6.1350858794
  0
LINE
  5
2AE
100
AcDbEntity
  8
RACCORDO
100
AcDbLine
 62
253
  6
CONTINUOUS
 10
-6.3021797602
 20
-4.1931022349
 11
-10.9415964372
 21
-6.4930351624
  0
LINE
  5
2AF
100
AcDbEntity
  8
ASSI
100
AcDbLine
 62
253
  6
CONTINUOUS
 10
-6.3021797602
 20
-4.1931022349
 11
-10.9415964372
 21
-6.4930351624
  0
LINE
  5
2B0
100
AcDbEntity
  8
RACCORDO
100
AcDbLine
 62
253
  6
CONTINUOUS
 10
-24.6614313302
 20
-12.1304508427
 11
-24.6609711496
 21
-12.130233262
  0
LINE
  5
2B1
100
AcDbEntity
  8
ASSI
100
AcDbLine
 62
253
  6
CONTINUOUS
 10
-24.6614313302
 20
-12.1304508427
 11
-24.6609711496
 21
-12.130233262
  0
LINE
  5
2B2
100
AcDbEntity
  8
0
100
AcDbLine
 62
7
  6
CONTINUOUS
 10
-21.4420127051
 20
-19.231352136
 11
-20.4903864531
 21
-19.264312341
  0
LWPOLYLINE
  5
2B3
100
AcDbEntity
  8
RACCORDO
100
AcDbPolyline
 62
7
  6
CONTINUOUS
 90
12
 70
0
 10
-17.0115919821
 20
-18.5496609284
 10
-16.8553700757
 20
-19.0315711477
 10
-16.7028205642
 20
-19.5121584395
 10
-16.5676383094
 20
-19.9910306163
 10
-16.4636945774
 20
-20.4736175037
 10
-16.407116359
 20
-20.9709941317
 10
-16.4163069046
 20
-21.5056994332
 10
-16.5014912294
 20
-22.0596590349
 10
-16.6399730026
 20
-22.5762458794
 10
-16.8007407129
 20
-23.0305269814
 10
-16.9672143549
 20
-23.4299340999
 10
-17.0266630048
 20
-23.5624979162
  0
LWPOLYLINE
  5
2B4
100
AcDbEntity
  8
ASSI
100
AcDbPolyline
 62
7
  6
CONTINUOUS
 90
12
 70
0
 10
-17.0115919821
 20
-18.5496609284
 10
-16.8553700757
 20
-19.0315711477
 10
-16.7028205642
 20
-19.5121584395
 10
-16.5676383094
 20
-19.9910306163
 10
-16.4636945774
 20
-20.4736175037
 10
-16.407116359
 20
-20.9709941317
 10
-16.4163069046
 20
-21.5056994332
 10
-16.5014912294
 20
-22.0596590349
 10
-16.6399730026
 20
-22.5762458794
 10
-16.8007407129
 20
-23.0305269814
 10
-16.9672143549
 20
-23.4299340999
 10
-17.0266630048
 20
-23.5624979162
  0
LINE
  5
2B5
100
AcDbEntity
  8
RACCORDO
100
AcDbLine
 62
7
  6
CONTINUOUS
 10
-17.0476384988
 20
-18.4354669574
 11
-17.0115919821
 21
-18.5496609284
  0
LINE
  5
2B6
100
AcDbEntity
  8
ASSI
100
AcDbLine
 62
7
  6
CONTINUOUS
 10
-17.0476384988
 20
-18.4354669574
 11
-17.0115919821
 21
-18.5496609284
  0
LINE
  5
2B7
100
AcDbEntity
  8
RACCORDO
100
AcDbLine
 62
7
  6
CONTINUOUS
 10
-15.8792600311
 20
6.1807813597
 11
-15.8792600311
 21
6.5271915212
  0
LINE
  5
2B8
100
AcDbEntity
  8
RACCORDO
100
AcDbLine
 62
253
  6
CONTINUOUS
 10
-15.7913920654
 20
6.0747153425
 11
-15.7913920654
 21
6.4211255041
  0
LINE
  5
2B9
100
AcDbEntity
  8
RACCORDO
100
AcDbLine
 62
7
  6
CONTINUOUS
 10
-15.2874611345
 20
-1.4557989586
 11
-15.2874611345
 21
-2.6869578918
  0
LINE
  5
2BA
100
AcDbEntity
  8
ASSI
100
AcDbLine
 62
7
  6
CONTINUOUS
 10
-15.2874611345
 20
-1.4557989586
 11
-15.2874611345
 21
-2.6869578918
  0
LINE
  5
2BB
100
AcDbEntity
  8
RACCORDO
100
AcDbLine
 62
7
  6
CONTINUOUS
 10
-15.2041415019
 20
-36.2953538968
 11
-15.2041415019
 21
-36.7653293013
  0
LINE
  5
2BC
100
AcDbEntity
  8
ASSI
100
AcDbLine
 62
7
  6
CONTINUOUS
 10
-15.2041415019
 20
-36.2953538968
 11
-15.2041415019
 21
-36.7653293013
  0
LINE
  5
2BD
100
AcDbEntity
  8
RACCORDO
100
AcDbLine
 62
253
  6
CONTINUOUS
 10
-15.1410145251
 20
-1.9460032051
 11
-15.1410145251
 21
-2.8649324333
  0
LINE
  5
2BE
100
AcDbEntity
  8
ASSI
100
AcDbLine
 62
253
  6
CONTINUOUS
 10
-15.1410145251
 20
-1.9460032051
 11
-15.1410145251
 21
-2.8649324333
  0
LINE
  5
2BF
100
AcDbEntity
  8
RACCORDO
100
AcDbLine
 62
253
  6
CONTINUOUS
 10
-15.0576948925
 20
-36.2203707428
 11
-15.0576948925
 21
-36.6286791727
  0
LINE
  5
2C0
100
AcDbEntity
  8
ASSI
100
AcDbLine
 62
253
  6
CONTINUOUS
 10
-15.0576948925
 20
-36.2203707428
 11
-15.0576948925
 21
-36.6286791727
  0
LINE
  5
2C1
100
AcDbEntity
  8
RACCORDO
100
AcDbLine
 62
253
  6
CONTINUOUS
 10
-14.8122248665
 20
-6.9374534775
 11
-14.8122248665
 21
-35.4784044258
  0
LINE
  5
2C2
100
AcDbEntity
  8
ASSI
100
AcDbLine
 62
253
  6
CONTINUOUS
 10
-14.8122248665
 20
-6.9374534775
 11
-14.8122248665
 21
-35.4784044258
  0
LINE
  5
2C3
100
AcDbEntity
  8
RACCORDO
100
AcDbLine
 62
7
  6
CONTINUOUS
 10
-14.7874611345
 20
-36.7637960518
 11
-14.7874611345
 21
-36.2816418816
  0
LINE
  5
2C4
100
AcDbEntity
  8
ASSI
100
AcDbLine
 62
7
  6
CONTINUOUS
 10
-14.7874611345
 20
-36.7637960518
 11
-14.7874611345
 21
-36.2816418816
  0
LINE
  5
2C5
100
AcDbEntity
  8
RACCORDO
100
AcDbLine
 62
7
  6
CONTINUOUS
 10
-14.7874611345
 20
-2.6049340705
 11
-14.7874611345
 21
-2.1227799004
  0
LINE
  5
2C6
100
AcDbEntity
  8
ASSI
100
AcDbLine
 62
7
  6
CONTINUOUS
 10
-14.7874611345
 20
-2.6049340705
 11
-14.7874611345
 21
-2.1227799004
  0
LINE
  5
2C7
100
AcDbEntity
  8
0
100
AcDbLine
 62
7
  6
CONTINUOUS
 10
-24.0550320879
 20
-14.5234461896
 11
-20.8413697501
 21
-12.9166150207
  0
LINE
  5
2C8
100
AcDbEntity
  8
0
100
AcDbLine
 62
7
  6
CONTINUOUS
 10
-13.9389329971
 20
7.646089613
 11
-13.9389329971
 21
8.0016808423
  0
LINE
  5
2C9
100
AcDbEntity
  8
RACCORDO
100
AcDbLine
 62
7
  6
CONTINUOUS
 10
-13.0196941815
 20
-34.6166400784
 11
-13.0196941815
 21
-6.0377028267
  0
LINE
  5
2CA
100
AcDbEntity
  8
ASSI
100
AcDbLine
 62
7
  6
CONTINUOUS
 10
-13.0196941815
 20
-34.6166400784
 11
-13.0196941815
 21
-6.0377028267
  0
LINE
  5
2CB
100
AcDbEntity
  8
RACCORDO
100
AcDbLine
 62
7
  6
CONTINUOUS
 10
-12.7547468685
 20
1.0765361415
 11
-12.7547468685
 21
0.4627936465
  0
LINE
  5
2CC
100
AcDbEntity
  8
ASSI
100
AcDbLine
 62
7
  6
CONTINUOUS
 10
-12.7547468685
 20
1.0765361415
 11
-12.7547468685
 21
0.4627936465
  0
LINE
  5
2CD
100
AcDbEntity
  8
RACCORDO
100
AcDbLine
 62
7
  6
CONTINUOUS
 10
-12.7547468685
 20
-37.2808645338
 11
-12.7547468685
 21
-37.8946070288
  0
LINE
  5
2CE
100
AcDbEntity
  8
ASSI
100
AcDbLine
 62
7
  6
CONTINUOUS
 10
-12.7547468685
 20
-37.2808645338
 11
-12.7547468685
 21
-37.8946070288
  0
LINE
  5
2CF
100
AcDbEntity
  8
RACCORDO
100
AcDbLine
 62
253
  6
CONTINUOUS
 10
-12.6801222282
 20
4.5406188255
 11
-12.6801222282
 21
4.8654905855
  0
LINE
  5
2D0
100
AcDbEntity
  8
0
100
AcDbLine
 62
7
  6
CONTINUOUS
 10
-20.390318158
 20
-16.6824704127
 11
-21.1722898762
 21
-17.0734562718
  0
LINE
  5
2D1
100
AcDbEntity
  8
RACCORDO
100
AcDbLine
 62
253
  6
CONTINUOUS
 10
-19.0654571607
 20
4.1382761645
 11
-19.0302372669
 21
4.0306118593
  0
LINE
  5
2D2
100
AcDbEntity
  8
RACCORDO
100
AcDbLine
 62
253
  6
CONTINUOUS
 10
-12.2558581595
 20
4.8353423563
 11
-12.2558581595
 21
4.8654905855
  0
LINE
  5
2D3
100
AcDbEntity
  8
RACCORDO
100
AcDbLine
 62
253
  6
CONTINUOUS
 10
-11.6456044599
 20
-6.4914992454
 11
-11.6456044599
 21
-35.5369333813
  0
LINE
  5
2D4
100
AcDbEntity
  8
ASSI
100
AcDbLine
 62
253
  6
CONTINUOUS
 10
-11.6456044599
 20
-6.4914992454
 11
-11.6456044599
 21
-35.5369333813
  0
LINE
  5
2D5
100
AcDbEntity
  8
RACCORDO
100
AcDbLine
 62
253
  6
CONTINUOUS
 10
-10.9415964372
 20
-6.4930351624
 11
-10.9415964372
 21
-35.5384692983
  0
LINE
  5
2D6
100
AcDbEntity
  8
ASSI
100
AcDbLine
 62
253
  6
CONTINUOUS
 10
-10.9415964372
 20
-6.4930351624
 11
-10.9415964372
 21
-35.5384692983
  0
LINE
  5
2D7
100
AcDbEntity
  8
0
100
AcDbLine
 62
7
  6
CONTINUOUS
 10
-2.9573079252
 20
-17.7314370839
 11
-3.7351255517
 21
-17.3425282706
  0
LINE
  5
2D8
100
AcDbEntity
  8
0
100
AcDbLine
 62
253
  6
CONTINUOUS
 10
-3.1156671387
 20
-17.635272818
 11
-3.8934847652
 21
-17.2463640047
  0
LINE
  5
2D9
100
AcDbEntity
  8
0
100
AcDbLine
 62
253
  6
CONTINUOUS
 10
-4.1257178123
 20
-17.0780542949
 11
-3.3479001857
 21
-17.4669631082
  0
LINE
  5
2DA
100
AcDbEntity
  8
0
100
AcDbLine
 62
253
  6
CONTINUOUS
 10
-2.9577909358
 20
-17.7311954336
 11
-2.9573079252
 21
-17.7314370839
  0
LINE
  5
2DB
100
AcDbEntity
  8
0
100
AcDbLine
 62
253
  6
CONTINUOUS
 10
-9.0603620924
 20
3.4941258797
 11
-9.0511819953
 21
3.7132504323
  0
LINE
  5
2DC
100
AcDbEntity
  8
0
100
AcDbLine
 62
7
  6
CONTINUOUS
 10
-8.9886019795
 20
3.5423540286
 11
-8.978177795
 21
3.7911743529
  0
LINE
  5
2DD
100
AcDbEntity
  8
0
100
AcDbLine
 62
7
  6
CONTINUOUS
 10
0.3628519078
 20
-9.55374126
 11
2.7807917802
 21
-8.1895729294
  0
LINE
  5
2DE
100
AcDbEntity
  8
0
100
AcDbLine
 62
7
  6
CONTINUOUS
 10
-19.3348701885
 20
-18.7933069712
 11
-20.1168656589
 21
-19.1843047064
  0
LINE
  5
2DF
100
AcDbEntity
  8
0
100
AcDbLine
 62
7
  6
CONTINUOUS
 10
0.3628519087
 20
-9.8169261511
 11
-2.3934847652
 21
-11.195094488
  0
LINE
  5
2E0
100
AcDbEntity
  8
0
100
AcDbLine
 62
253
  6
CONTINUOUS
 10
1.1678315276
 20
-10.1922539682
 11
-1.6156671387
 21
-11.5840033013
  0
LINE
  5
2E1
100
AcDbEntity
  8
0
100
AcDbLine
 62
253
  6
CONTINUOUS
 10
-3.5550069669
 20
-16.9581440631
 11
-4.3328245934
 21
-16.5692352498
  0
LINE
  5
2E2
100
AcDbEntity
  8
0
100
AcDbLine
 62
7
  6
CONTINUOUS
 10
-3.8934847647
 20
-17.246364005
 11
-4.1257178117
 21
-17.0780542952
  0
LINE
  5
2E3
100
AcDbEntity
  8
0
100
AcDbLine
 62
253
  6
CONTINUOUS
 10
-3.3479001857
 20
-17.4669631082
 11
-3.1156671387
 21
-17.635272818
  0
LINE
  5
2E4
100
AcDbEntity
  8
RACCORDO
100
AcDbLine
 62
253
  6
CONTINUOUS
 10
-16.0010999179
 20
6.4098187551
 11
-15.909015338
 21
6.1283238026
  0
LINE
  5
2E5
100
AcDbEntity
  8
SMUSSO
100
AcDbLine
 62
7
  6
CONTINUOUS
 10
-6.6005549455
 20
-36.0337437503
 11
-6.5863507661
 21
-36.2254845182
  0
LINE
  5
2E6
100
AcDbEntity
  8
SMUSSO
100
AcDbLine
 62
7
  6
CONTINUOUS
 10
-6.3187885349
 20
-35.8626689101
 11
-6.3045843555
 21
-36.054409678
  0
LINE
  5
2E7
100
AcDbEntity
  8
0
100
AcDbLine
 62
253
  6
CONTINUOUS
 10
-7.6643631128
 20
-1.5206570035
 11
-7.6636880984
 21
-1.53599128
  0
LINE
  5
2E8
100
AcDbEntity
  8
0
100
AcDbLine
 62
253
  6
CONTINUOUS
 10
-7.0319527413
 20
-2.7550771242
 11
-7.0319527413
 21
-2.1635005669
  0
LINE
  5
2E9
100
AcDbEntity
  8
SMUSSO
100
AcDbLine
 62
7
  6
CONTINUOUS
 10
-6.6005549455
 20
5.3340739872
 11
-6.5863507661
 21
5.5400189345
  0
LINE
  5
2EA
100
AcDbEntity
  8
SMUSSO
100
AcDbLine
 62
7
  6
CONTINUOUS
 10
-6.3187885349
 20
5.4447655575
 11
-6.3045843555
 21
5.6507105049
  0
LINE
  5
2EB
100
AcDbEntity
  8
SMUSSO
100
AcDbLine
 62
7
  6
CONTINUOUS
 10
-12.3318494927
 20
-37.6777030853
 11
-12.2397649127
 21
-37.3041235528
  0
LINE
  5
2EC
100
AcDbEntity
  8
0
100
AcDbLine
 62
253
  6
CONTINUOUS
 10
3.7445512023
 20
-8.9185560203
 11
1.3125285135
 21
-10.231740714
  0
LINE
  5
2ED
100
AcDbEntity
  8
0
100
AcDbLine
 62
7
  6
CONTINUOUS
 10
-19.8065029307
 20
-23.0205045041
 11
-16.4131811563
 21
-21.3238436169
  0
LINE
  5
2EE
100
AcDbEntity
  8
0
100
AcDbLine
 62
253
  6
CONTINUOUS
 10
-4.3328245934
 20
-13.8225219754
 11
-3.5550069669
 21
-14.2114307887
  0
LINE
  5
2EF
100
AcDbEntity
  8
RACCORDO
100
AcDbLine
 62
253
  6
CONTINUOUS
 10
-16.9242489348
 20
-6.9328457265
 11
-26.7928089579
 21
-1.9985657149
  0
LINE
  5
2F0
100
AcDbEntity
  8
ASSI
100
AcDbLine
 62
253
  6
CONTINUOUS
 10
-16.9242489348
 20
-6.9328457265
 11
-26.7928089579
 21
-1.9985657149
  0
LINE
  5
2F1
100
AcDbEntity
  8
0
100
AcDbLine
 62
253
  6
CONTINUOUS
 10
-3.3479001857
 20
-13.4955049624
 11
-4.1257178123
 21
-13.1065961491
  0
LINE
  5
2F2
100
AcDbEntity
  8
0
100
AcDbLine
 62
253
  6
CONTINUOUS
 10
-3.8934847652
 20
-12.7060533923
 11
-3.1156671387
 21
-13.0949622056
  0
LINE
  5
2F3
100
AcDbEntity
  8
RACCORDO
100
AcDbLine
 62
253
  6
CONTINUOUS
 10
-13.5363140205
 20
-3.2305076275
 11
-11.6456044599
 21
-6.4914992454
  0
LINE
  5
2F4
100
AcDbEntity
  8
ASSI
100
AcDbLine
 62
253
  6
CONTINUOUS
 10
-13.5363140205
 20
-3.2305076275
 11
-11.6456044599
 21
-6.4914992454
  0
LINE
  5
2F5
100
AcDbEntity
  8
RACCORDO
100
AcDbLine
 62
253
  6
CONTINUOUS
 10
-12.9358554454
 20
-2.8740942615
 11
-11.0451458848
 21
-6.1350858794
  0
LINE
  5
2F6
100
AcDbEntity
  8
ASSI
100
AcDbLine
 62
253
  6
CONTINUOUS
 10
-12.9358554454
 20
-2.8740942615
 11
-11.0451458848
 21
-6.1350858794
  0
LINE
  5
2F7
100
AcDbEntity
  8
SMUSSO
100
AcDbLine
 62
7
  6
CONTINUOUS
 10
-12.3318494927
 20
1.246738775
 11
-12.2397649127
 21
0.9652438224
  0
LINE
  5
2F8
100
AcDbEntity
  8
RACCORDO
100
AcDbLine
 62
7
  6
CONTINUOUS
 10
-6.3021797602
 20
-33.2792601549
 11
-6.3021797602
 21
-4.1931022349
  0
LINE
  5
2F9
100
AcDbEntity
  8
ASSI
100
AcDbLine
 62
7
  6
CONTINUOUS
 10
-6.3021797602
 20
-33.2792601549
 11
-6.3021797602
 21
-4.1931022349
  0
LINE
  5
2FA
100
AcDbEntity
  8
0
100
AcDbLine
 62
253
  6
CONTINUOUS
 10
-6.287788064
 20
-1.5178203808
 11
-6.287788064
 21
-1.5027968562
  0
LINE
  5
2FB
100
AcDbEntity
  8
0
100
AcDbLine
 62
253
  6
CONTINUOUS
 10
-5.8408054208
 20
-1.7052562668
 11
-5.8408054208
 21
-30.6112883883
  0
LINE
  5
2FC
100
AcDbEntity
  8
0
100
AcDbLine
 62
7
  6
CONTINUOUS
 10
-5.547912202
 20
-30.5522673322
 11
-5.547912202
 21
-1.5588096574
  0
LINE
  5
2FD
100
AcDbEntity
  8
0
100
AcDbLine
 62
253
  6
CONTINUOUS
 10
-5.1955624669
 20
-0.9566840576
 11
-5.1955624669
 21
-0.9717075822
  0
LINE
  5
2FE
100
AcDbEntity
  8
0
100
AcDbLine
 62
253
  6
CONTINUOUS
 10
-5.1955624669
 20
-31.8585036082
 11
-5.1955624669
 21
-31.8735271328
  0
LINE
  5
2FF
100
AcDbEntity
  8
0
100
AcDbLine
 62
7
  6
CONTINUOUS
 10
-4.9026692481
 20
-0.603130667
 11
-4.9026692481
 21
-0.6181541917
  0
LINE
  5
300
100
AcDbEntity
  8
0
100
AcDbLine
 62
7
  6
CONTINUOUS
 10
-4.9026692481
 20
-31.5199737422
 11
-4.9026692481
 21
-31.5049502176
  0
LINE
  5
301
100
AcDbEntity
  8
ASSI
100
AcDbLine
 62
7
  6
CONTINUOUS
 10
-3.5763576097
 20
2.581763866
 11
-3.5706842824
 21
2.6409690491
  0
LINE
  5
302
100
AcDbEntity
  8
0
100
AcDbLine
 62
7
  6
CONTINUOUS
 10
-4.1257178119
 20
-13.1065961493
 11
-3.8934847649
 21
-12.7060533925
  0
LINE
  5
303
100
AcDbEntity
  8
0
100
AcDbLine
 62
253
  6
CONTINUOUS
 10
-3.1156671387
 20
-13.0949622056
 11
-3.3479001857
 21
-13.4955049624
  0
LINE
  5
304
100
AcDbEntity
  8
RACCORDO
100
AcDbLine
 62
253
  6
CONTINUOUS
 10
-15.8728446516
 20
-5.1081549427
 11
-25.7414046748
 21
-0.1738749311
  0
LINE
  5
305
100
AcDbEntity
  8
ASSI
100
AcDbLine
 62
253
  6
CONTINUOUS
 10
-15.8728446516
 20
-5.1081549427
 11
-25.7414046748
 21
-0.1738749311
  0
LINE
  5
306
100
AcDbEntity
  8
0
100
AcDbLine
 62
253
  6
CONTINUOUS
 10
-1.6156671387
 20
-11.5840033013
 11
-2.3934847652
 21
-11.195094488
  0
LINE
  5
307
100
AcDbEntity
  8
0
100
AcDbLine
 62
7
  6
CONTINUOUS
 10
-4.3328245929
 20
-16.5692352501
 11
-4.332824593
 21
-13.8225219757
  0
LINE
  5
308
100
AcDbEntity
  8
DRAFT
100
AcDbLine
 62
7
  6
CONTINUOUS
 10
-4.2734218276
 20
3.8281744476
 11
-4.2734218276
 21
3.1965719827
  0
LINE
  5
309
100
AcDbEntity
  8
ASSI
100
AcDbLine
 62
7
  6
CONTINUOUS
 10
-4.2734218276
 20
3.8281744476
 11
-4.2734218276
 21
3.1965719827
  0
LINE
  5
30A
100
AcDbEntity
  8
ASSI
100
AcDbLine
 62
7
  6
CONTINUOUS
 10
-3.5763576097
 20
2.4987360672
 11
-3.5763576097
 21
2.581763866
  0
LINE
  5
30B
100
AcDbEntity
  8
ASSI
100
AcDbLine
 62
7
  6
CONTINUOUS
 10
-3.5697681463
 20
-31.9440786427
 11
-3.5697681463
 21
-31.0939761896
  0
LINE
  5
30C
100
AcDbEntity
  8
ASSI
100
AcDbLine
 62
7
  6
CONTINUOUS
 10
-3.5697681463
 20
1.8593890032
 11
-3.5697681463
 21
2.4987360672
  0
LINE
  5
30D
100
AcDbEntity
  8
ASSI
100
AcDbLine
 62
7
  6
CONTINUOUS
 10
-3.5697681463
 20
2.581763866
 11
-3.5697681463
 21
2.6387995756
  0
LINE
  5
30E
100
AcDbEntity
  8
0
100
AcDbLine
 62
253
  6
CONTINUOUS
 10
-1.1543095808
 20
-18.0655059442
 11
-5.547912202
 21
-20.262307256
  0
LINE
  5
30F
100
AcDbEntity
  8
0
100
AcDbLine
 62
7
  6
CONTINUOUS
 10
2.9077285916
 20
-16.256814183
 11
4.7904077234
 21
-15.3322920859
  0
LINE
  5
310
100
AcDbEntity
  8
RACCORDO
100
AcDbLine
 62
7
  6
CONTINUOUS
 10
-14.0803139666
 20
-4.2084042919
 11
-23.9798896766
 21
0.7413835631
  0
LINE
  5
311
100
AcDbEntity
  8
ASSI
100
AcDbLine
 62
7
  6
CONTINUOUS
 10
-14.0803139666
 20
-4.2084042919
 11
-23.9798896766
 21
0.7413835631
  0
LINE
  5
312
100
AcDbEntity
  8
RACCORDO
100
AcDbLine
 62
7
  6
CONTINUOUS
 10
-15.1410145251
 20
-2.8649324333
 11
-23.0025087507
 21
1.0658146795
  0
LINE
  5
313
100
AcDbEntity
  8
ASSI
100
AcDbLine
 62
7
  6
CONTINUOUS
 10
-15.1410145251
 20
-2.8649324333
 11
-23.0025087507
 21
1.0658146795
  0
LINE
  5
314
100
AcDbEntity
  8
ASSI
100
AcDbLine
 62
7
  6
CONTINUOUS
 10
-3.5763576097
 20
-32.0016531668
 11
-3.5706731427
 21
-31.9453287646
  0
LINE
  5
315
100
AcDbEntity
  8
0
100
AcDbLine
 62
253
  6
CONTINUOUS
 10
-7.1398149787
 20
-37.2712367634
 11
-7.0477303988
 21
-36.897657231
  0
LWPOLYLINE
  5
316
100
AcDbEntity
  8
0
100
AcDbPolyline
 62
7
  6
CONTINUOUS
 90
17
 70
0
 10
4.787274496
 20
-15.3338265014
 10
4.9084857348
 20
-15.2691360771
 10
5.0359478908
 20
-15.1885633832
 10
5.1578491639
 20
-15.0980394507
 10
5.2740898086
 20
-14.9976359188
 10
5.3841803042
 20
-14.8876864487
 10
5.4881019885
 20
-14.7681534861
 10
5.585432396
 20
-14.6393298055
 10
5.6753862207
 20
-14.5021606665
 10
5.757787735
 20
-14.3569650133
 10
5.8325920266
 20
-14.203735147
 10
5.8996249742
 20
-14.0424802986
 10
5.9587306069
 20
-13.872949169
 10
6.0092487322
 20
-13.6964630918
 10
6.0507315712
 20
-13.5141955909
 10
6.0831212648
 20
-13.3258319892
 10
6.0991387429
 20
-13.2008337508
  0
LINE
  5
317
100
AcDbEntity
  8
0
100
AcDbLine
 62
7
  6
CONTINUOUS
 10
-0.0504193588
 20
-17.7456379899
 11
2.7874746024
 21
-16.3266910093
  0
LINE
  5
318
100
AcDbEntity
  8
0
100
AcDbLine
 62
7
  6
CONTINUOUS
 10
0.2152280019
 20
-17.688932575
 11
-5.547912202
 21
-20.5705026517
  0
LINE
  5
319
100
AcDbEntity
  8
RACCORDO
100
AcDbLine
 62
7
  6
CONTINUOUS
 10
-22.1044684448
 20
1.9507110773
 11
-21.1952239534
 21
1.554449743
  0
LINE
  5
31A
100
AcDbEntity
  8
ASSI
100
AcDbLine
 62
7
  6
CONTINUOUS
 10
-22.1044684448
 20
1.9507110773
 11
-21.1952239534
 21
1.554449743
  0
LINE
  5
31B
100
AcDbEntity
  8
0
100
AcDbLine
 62
7
  6
CONTINUOUS
 10
1.1678315276
 20
-10.1922539682
 11
0.3628519087
 21
-9.8169261511
  0
LINE
  5
31C
100
AcDbEntity
  8
RACCORDO
100
AcDbLine
 62
7
  6
CONTINUOUS
 10
-22.104537481
 20
1.9507414379
 11
-22.1119959437
 21
1.9542283571
  0
LINE
  5
31D
100
AcDbEntity
  8
ASSI
100
AcDbLine
 62
7
  6
CONTINUOUS
 10
-22.104537481
 20
1.9507414379
 11
-22.1119959437
 21
1.9542283571
  0
LINE
  5
31E
100
AcDbEntity
  8
RACCORDO
100
AcDbLine
 62
253
  6
CONTINUOUS
 10
-24.5238896227
 20
2.2632801736
 11
-23.2727425087
 21
1.6377066166
  0
LINE
  5
31F
100
AcDbEntity
  8
ASSI
100
AcDbLine
 62
253
  6
CONTINUOUS
 10
-24.5238896227
 20
2.2632801736
 11
-23.2727425087
 21
1.6377066166
  0
LINE
  5
320
100
AcDbEntity
  8
RACCORDO
100
AcDbLine
 62
253
  6
CONTINUOUS
 10
-14.7874611345
 20
-2.6049340705
 11
-13.5363140205
 21
-3.2305076275
  0
LINE
  5
321
100
AcDbEntity
  8
ASSI
100
AcDbLine
 62
253
  6
CONTINUOUS
 10
-14.7874611345
 20
-2.6049340705
 11
-13.5363140205
 21
-3.2305076275
  0
LINE
  5
322
100
AcDbEntity
  8
RACCORDO
100
AcDbLine
 62
7
  6
CONTINUOUS
 10
-15.2874611345
 20
-2.1428539337
 11
-16.0575310336
 21
-1.7578189842
  0
LINE
  5
323
100
AcDbEntity
  8
ASSI
100
AcDbLine
 62
7
  6
CONTINUOUS
 10
-15.2874611345
 20
-2.1428539337
 11
-16.0575310336
 21
-1.7578189842
  0
LINE
  5
324
100
AcDbEntity
  8
RACCORDO
100
AcDbLine
 62
7
  6
CONTINUOUS
 10
-20.7186857114
 20
0.5727583547
 11
-22.00443127
 21
1.215631134
  0
LINE
  5
325
100
AcDbEntity
  8
ASSI
100
AcDbLine
 62
7
  6
CONTINUOUS
 10
-20.7186857114
 20
0.5727583547
 11
-22.00443127
 21
1.215631134
  0
LINE
  5
326
100
AcDbEntity
  8
RACCORDO
100
AcDbLine
 62
253
  6
CONTINUOUS
 10
-14.7874611345
 20
-2.1227799004
 11
-15.1410145251
 21
-1.9460032051
  0
LINE
  5
327
100
AcDbEntity
  8
ASSI
100
AcDbLine
 62
253
  6
CONTINUOUS
 10
-14.7874611345
 20
-2.1227799004
 11
-15.1410145251
 21
-1.9460032051
  0
LINE
  5
328
100
AcDbEntity
  8
RACCORDO
100
AcDbLine
 62
253
  6
CONTINUOUS
 10
-23.0025087507
 20
1.9847439077
 11
-23.2727425087
 21
2.1198607867
  0
LINE
  5
329
100
AcDbEntity
  8
ASSI
100
AcDbLine
 62
253
  6
CONTINUOUS
 10
-23.0025087507
 20
1.9847439077
 11
-23.2727425087
 21
2.1198607867
  0
LINE
  5
32A
100
AcDbEntity
  8
RACCORDO
100
AcDbLine
 62
253
  6
CONTINUOUS
 10
-24.1734215283
 20
2.8715104349
 11
-23.2557107944
 21
2.4126550679
  0
LINE
  5
32B
100
AcDbEntity
  8
ASSI
100
AcDbLine
 62
253
  6
CONTINUOUS
 10
-24.1734215283
 20
2.8715104349
 11
-23.2557107944
 21
2.4126550679
  0
LINE
  5
32C
100
AcDbEntity
  8
RACCORDO
100
AcDbLine
 62
253
  6
CONTINUOUS
 10
-14.4400515288
 20
-1.9951745649
 11
-13.1858459262
 21
-2.6222773662
  0
LINE
  5
32D
100
AcDbEntity
  8
ASSI
100
AcDbLine
 62
253
  6
CONTINUOUS
 10
-14.4400515288
 20
-1.9951745649
 11
-13.1858459262
 21
-2.6222773662
  0
LINE
  5
32E
100
AcDbEntity
  8
RACCORDO
100
AcDbLine
 62
7
  6
CONTINUOUS
 10
-15.2856475037
 20
-1.4589458628
 11
-15.7402577632
 21
-1.2316407331
  0
LINE
  5
32F
100
AcDbEntity
  8
ASSI
100
AcDbLine
 62
7
  6
CONTINUOUS
 10
-15.2856475037
 20
-1.4589458628
 11
-15.7402577632
 21
-1.2316407331
  0
LINE
  5
330
100
AcDbEntity
  8
RACCORDO
100
AcDbLine
 62
7
  6
CONTINUOUS
 10
-22.1120313314
 20
1.954246051
 11
-22.6499606678
 21
2.2232107192
  0
LINE
  5
331
100
AcDbEntity
  8
ASSI
100
AcDbLine
 62
7
  6
CONTINUOUS
 10
-22.1120313314
 20
1.954246051
 11
-22.6499606678
 21
2.2232107192
  0
LINE
  5
332
100
AcDbEntity
  8
RACCORDO
100
AcDbLine
 62
7
  6
CONTINUOUS
 10
-15.2572103016
 20
-1.4382284829
 11
-15.808950319
 21
-1.1623584742
  0
LINE
  5
333
100
AcDbEntity
  8
ASSI
100
AcDbLine
 62
7
  6
CONTINUOUS
 10
-15.2572103016
 20
-1.4382284829
 11
-15.808950319
 21
-1.1623584742
  0
LINE
  5
334
100
AcDbEntity
  8
RACCORDO
100
AcDbLine
 62
7
  6
CONTINUOUS
 10
-22.1851724452
 20
2.0257525889
 11
-22.8202320952
 21
2.3432824139
  0
LINE
  5
335
100
AcDbEntity
  8
ASSI
100
AcDbLine
 62
7
  6
CONTINUOUS
 10
-22.1851724452
 20
2.0257525889
 11
-22.8202320952
 21
2.3432824139
  0
LINE
  5
336
100
AcDbEntity
  8
0
100
AcDbLine
 62
7
  6
CONTINUOUS
 10
-20.498991611
 20
1.2360820847
 11
-16.7946015969
 21
-0.6161129224
  0
LINE
  5
337
100
AcDbEntity
  8
RACCORDO
100
AcDbLine
 62
7
  6
CONTINUOUS
 10
-15.7403002128
 20
-1.2316193092
 11
-15.7466394136
 21
-1.2282490226
  0
LINE
  5
338
100
AcDbEntity
  8
ASSI
100
AcDbLine
 62
7
  6
CONTINUOUS
 10
-15.7403002128
 20
-1.2316193092
 11
-15.7466394136
 21
-1.2282490226
  0
LINE
  5
339
100
AcDbEntity
  8
0
100
AcDbLine
 62
7
  6
CONTINUOUS
 10
0.3628519087
 20
-9.7211800104
 11
1.3125285135
 21
-10.231740714
  0
LINE
  5
33A
100
AcDbEntity
  8
RACCORDO
100
AcDbLine
 62
7
  6
CONTINUOUS
 10
-16.7384911445
 20
-0.6686600044
 11
-15.7466488989
 21
-1.2282436711
  0
LINE
  5
33B
100
AcDbEntity
  8
ASSI
100
AcDbLine
 62
7
  6
CONTINUOUS
 10
-16.7384911445
 20
-0.6686600044
 11
-15.7466488989
 21
-1.2282436711
  0
LINE
  5
33C
100
AcDbEntity
  8
RACCORDO
100
AcDbLine
 62
7
  6
CONTINUOUS
 10
-8.3199506562
 20
-0.5336093261
 11
-6.4057292078
 21
-3.8351529519
  0
LINE
  5
33D
100
AcDbEntity
  8
ASSI
100
AcDbLine
 62
7
  6
CONTINUOUS
 10
-8.3199506562
 20
-0.5336093261
 11
-6.4057292078
 21
-3.8351529519
  0
LINE
  5
33E
100
AcDbEntity
  8
0
100
AcDbLine
 62
253
  6
CONTINUOUS
 10
-7.1398149787
 20
6.032306967
 11
-7.0477303988
 21
5.7508120145
  0
LINE
  5
33F
100
AcDbEntity
  8
0
100
AcDbLine
 62
7
  6
CONTINUOUS
 10
0.3628519087
 20
-9.5537412604
 11
0.3628519087
 21
-9.816926101
  0
LINE
  5
340
100
AcDbEntity
  8
0
100
AcDbLine
 62
253
  6
CONTINUOUS
 10
2.5485923984
 20
-8.3205766184
 11
3.7445512023
 21
-8.9185560203
  0
LINE
  5
341
100
AcDbEntity
  8
0
100
AcDbLine
 62
253
  6
CONTINUOUS
 10
-16.0525447768
 20
1.1036953947
 11
-20.1537641076
 21
3.1543050601
  0
LINE
  5
342
100
AcDbEntity
  8
RACCORDO
100
AcDbLine
 62
253
  6
CONTINUOUS
 10
-12.0599276572
 20
-0.0496721986
 11
-12.7356479603
 21
0.288187953
  0
LINE
  5
343
100
AcDbEntity
  8
ASSI
100
AcDbLine
 62
253
  6
CONTINUOUS
 10
-12.0599276572
 20
-0.0496721986
 11
-12.7356479603
 21
0.288187953
  0
LINE
  5
344
100
AcDbEntity
  8
0
100
AcDbLine
 62
7
  6
CONTINUOUS
 10
3.9803441198
 20
-8.8986914521
 11
2.6780459119
 21
-8.2475407313
  0
LINE
  5
345
100
AcDbEntity
  8
0
100
AcDbLine
 62
7
  6
CONTINUOUS
 10
3.1990258537
 20
0.5287839247
 11
3.2108162545
 21
-0.417839368
  0
LINE
  5
346
100
AcDbEntity
  8
0
100
AcDbLine
 62
253
  6
CONTINUOUS
 10
3.196179729
 20
2.6450209598
 11
3.196400503
 21
2.6079446804
  0
LINE
  5
347
100
AcDbEntity
  8
0
100
AcDbLine
 62
253
  6
CONTINUOUS
 10
3.3367305345
 20
1.0511779324
 11
3.3366127699
 21
0.9907601023
  0
LINE
  5
348
100
AcDbEntity
  8
0
100
AcDbLine
 62
7
  6
CONTINUOUS
 10
3.556223883
 20
1.2471225238
 11
3.5561615633
 21
1.2428362022
  0
LINE
  5
349
100
AcDbEntity
  8
0
100
AcDbLine
 62
7
  6
CONTINUOUS
 10
3.1432466474
 20
-6.3266783747
 11
3.1718674632
 21
-5.9712309769
  0
LINE
  5
34A
100
AcDbEntity
  8
0
100
AcDbLine
 62
7
  6
CONTINUOUS
 10
3.1046877784
 20
-6.7889917206
 11
3.1432466474
 21
-6.3266783747
  0
LINE
  5
34B
100
AcDbEntity
  8
0
100
AcDbLine
 62
7
  6
CONTINUOUS
 10
3.0623045029
 20
-7.2775831486
 11
3.1046877784
 21
-6.7889917206
  0
LINE
  5
34C
100
AcDbEntity
  8
0
100
AcDbLine
 62
7
  6
CONTINUOUS
 10
3.0060419129
 20
-7.8986627917
 11
3.0623045029
 21
-7.2775831486
  0
LINE
  5
34D
100
AcDbEntity
  8
0
100
AcDbLine
 62
253
  6
CONTINUOUS
 10
-7.7652959235
 20
-1.4902472317
 11
-7.6636880984
 21
-1.53599128
  0
LINE
  5
34E
100
AcDbEntity
  8
0
100
AcDbLine
 62
253
  6
CONTINUOUS
 10
-7.6643631128
 20
-1.5206570035
 11
-7.7789143843
 21
-1.4667588614
  0
LINE
  5
34F
100
AcDbEntity
  8
0
100
AcDbLine
 62
253
  6
CONTINUOUS
 10
-7.3806258067
 20
-0.1022214483
 11
-6.9825541302
 21
-0.2895203192
  0
LINE
  5
350
100
AcDbEntity
  8
RACCORDO
100
AcDbLine
 62
7
  6
CONTINUOUS
 10
-19.156967029
 20
3.9485784361
 11
-19.1281006551
 21
3.9341452491
  0
LINE
  5
351
100
AcDbEntity
  8
0
100
AcDbLine
 62
253
  6
CONTINUOUS
 10
-15.095740515
 20
1.9496913851
 11
-19.1029276707
 21
3.9532849629
  0
LINE
  5
352
100
AcDbEntity
  8
0
100
AcDbLine
 62
253
  6
CONTINUOUS
 10
-15.0906098635
 20
1.9526987217
 11
-19.0987678866
 21
3.9567777332
  0
LINE
  5
353
100
AcDbEntity
  8
RACCORDO
100
AcDbLine
 62
253
  6
CONTINUOUS
 10
-13.03512125
 20
0.9338806198
 11
-15.0823916648
 21
1.9575158272
  0
LINE
  5
354
100
AcDbEntity
  8
ASSI
100
AcDbLine
 62
253
  6
CONTINUOUS
 10
-13.03512125
 20
0.9338806198
 11
-15.0823916648
 21
1.9575158272
  0
LINE
  5
355
100
AcDbEntity
  8
RACCORDO
100
AcDbLine
 62
253
  6
CONTINUOUS
 10
-19.4422780724
 20
4.137459031
 11
-21.4895484873
 21
5.1610942384
  0
LINE
  5
356
100
AcDbEntity
  8
ASSI
100
AcDbLine
 62
253
  6
CONTINUOUS
 10
-19.4422780724
 20
4.137459031
 11
-21.4895484873
 21
5.1610942384
  0
LINE
  5
357
100
AcDbEntity
  8
RACCORDO
100
AcDbLine
 62
7
  6
CONTINUOUS
 10
-19.156967029
 20
4.1840310987
 11
-19.0654571607
 21
4.1382761645
  0
LINE
  5
358
100
AcDbEntity
  8
DRAFT
100
AcDbLine
 62
7
  6
CONTINUOUS
 10
-21.2042374438
 20
5.3012814292
 11
-19.156967029
 21
4.2776462218
  0
LINE
  5
359
100
AcDbEntity
  8
ASSI
100
AcDbLine
 62
7
  6
CONTINUOUS
 10
-21.2042374438
 20
5.3012814292
 11
-19.156967029
 21
4.2776462218
  0
LINE
  5
35A
100
AcDbEntity
  8
DRAFT
100
AcDbLine
 62
7
  6
CONTINUOUS
 10
-14.8020172833
 20
2.1001713489
 11
-12.7547468685
 21
1.0765361415
  0
LINE
  5
35B
100
AcDbEntity
  8
ASSI
100
AcDbLine
 62
7
  6
CONTINUOUS
 10
-14.8020172833
 20
2.1001713489
 11
-12.7547468685
 21
1.0765361415
  0
LINE
  5
35C
100
AcDbEntity
  8
RACCORDO
100
AcDbLine
 62
7
  6
CONTINUOUS
 10
-8.569941137
 20
-0.2817924308
 11
-8.9184748506
 21
-0.107525574
  0
LINE
  5
35D
100
AcDbEntity
  8
DRAFT
100
AcDbLine
 62
7
  6
CONTINUOUS
 10
-8.9184748506
 20
-0.107525574
 11
-9.8809094579
 21
0.3736917296
  0
LINE
  5
35E
100
AcDbEntity
  8
ASSI
100
AcDbLine
 62
7
  6
CONTINUOUS
 10
-8.569941137
 20
-0.2817924308
 11
-9.8809094579
 21
0.3736917296
  0
LINE
  5
35F
100
AcDbEntity
  8
RACCORDO
100
AcDbLine
 62
7
  6
CONTINUOUS
 10
-8.9623522391
 20
3.6483292552
 11
-8.9392039878
 21
3.6238666036
  0
LINE
  5
360
100
AcDbEntity
  8
ASSI
100
AcDbLine
 62
7
  6
CONTINUOUS
 10
-8.9621884663
 20
3.6481797303
 11
-8.9392039878
 21
3.6238666036
  0
LINE
  5
361
100
AcDbEntity
  8
0
100
AcDbLine
 62
7
  6
CONTINUOUS
 10
3.5396522587
 20
1.8030594632
 11
3.5385386953
 21
1.8133288358
  0
LINE
  5
362
100
AcDbEntity
  8
0
100
AcDbLine
 62
7
  6
CONTINUOUS
 10
3.4839401245
 20
2.1971588448
 11
3.469238088
 21
2.3344728774
  0
LINE
  5
363
100
AcDbEntity
  8
0
100
AcDbLine
 62
7
  6
CONTINUOUS
 10
3.5407245284
 20
1.7926191023
 11
3.5396522587
 21
1.8030594632
  0
LINE
  5
364
100
AcDbEntity
  8
0
100
AcDbLine
 62
7
  6
CONTINUOUS
 10
3.469238088
 20
2.3344728774
 11
3.45298986
 21
2.495944816
  0
LINE
  5
365
100
AcDbEntity
  8
0
100
AcDbLine
 62
7
  6
CONTINUOUS
 10
3.5417536829
 20
1.7820176855
 11
3.5407245284
 21
1.7926191023
  0
LINE
  5
366
100
AcDbEntity
  8
0
100
AcDbLine
 62
7
  6
CONTINUOUS
 10
3.45298986
 20
2.495944816
 11
3.4362176359
 21
2.670281473
  0
LINE
  5
367
100
AcDbEntity
  8
0
100
AcDbLine
 62
7
  6
CONTINUOUS
 10
3.5427382229
 20
1.7712707824
 11
3.5417536829
 21
1.7820176855
  0
LINE
  5
368
100
AcDbEntity
  8
0
100
AcDbLine
 62
253
  6
CONTINUOUS
 10
3.2196953799
 20
2.3365348488
 11
3.196400503
 21
2.6079446804
  0
LINE
  5
369
100
AcDbEntity
  8
0
100
AcDbLine
 62
7
  6
CONTINUOUS
 10
3.4364301964
 20
2.6680275263
 11
3.4164362798
 21
2.9013710818
  0
LINE
  5
36A
100
AcDbEntity
  8
0
100
AcDbLine
 62
7
  6
CONTINUOUS
 10
3.5436784075
 20
1.7603841853
 11
3.5427382229
 21
1.7712707824
  0
LINE
  5
36B
100
AcDbEntity
  8
0
100
AcDbLine
 62
7
  6
CONTINUOUS
 10
3.5445749541
 20
1.7493528144
 11
3.5436784075
 21
1.7603841853
  0
LINE
  5
36C
100
AcDbEntity
  8
0
100
AcDbLine
 62
7
  6
CONTINUOUS
 10
3.545427041
 20
1.7381882225
 11
3.5445749541
 21
1.7493528144
  0
LINE
  5
36D
100
AcDbEntity
  8
0
100
AcDbLine
 62
7
  6
CONTINUOUS
 10
3.5462350089
 20
1.7268968724
 11
3.545427041
 21
1.7381882225
  0
LINE
  5
36E
100
AcDbEntity
  8
0
100
AcDbLine
 62
7
  6
CONTINUOUS
 10
3.5473667331
 20
1.7097339632
 11
3.5462350089
 21
1.7268968724
  0
LINE
  5
36F
100
AcDbEntity
  8
0
100
AcDbLine
 62
7
  6
CONTINUOUS
 10
3.548408484
 20
1.6922484444
 11
3.5473667331
 21
1.7097339632
  0
LINE
  5
370
100
AcDbEntity
  8
0
100
AcDbLine
 62
7
  6
CONTINUOUS
 10
3.5493616553
 20
1.6744866432
 11
3.548408484
 21
1.6922484444
  0
LINE
  5
371
100
AcDbEntity
  8
0
100
AcDbLine
 62
7
  6
CONTINUOUS
 10
3.5502308266
 20
1.6564790078
 11
3.5493616553
 21
1.6744866432
  0
LINE
  5
372
100
AcDbEntity
  8
0
100
AcDbLine
 62
7
  6
CONTINUOUS
 10
3.5510197088
 20
1.6382828869
 11
3.5502308266
 21
1.6564790078
  0
LINE
  5
373
100
AcDbEntity
  8
0
100
AcDbLine
 62
7
  6
CONTINUOUS
 10
3.5519578508
 20
1.613817144
 11
3.5510197088
 21
1.6382828869
  0
LINE
  5
374
100
AcDbEntity
  8
0
100
AcDbLine
 62
7
  6
CONTINUOUS
 10
3.5529783496
 20
1.5829154499
 11
3.5519578508
 21
1.613817144
  0
LINE
  5
375
100
AcDbEntity
  8
0
100
AcDbLine
 62
7
  6
CONTINUOUS
 10
3.5538590736
 20
1.5512152101
 11
3.5529783496
 21
1.5829154499
  0
LINE
  5
376
100
AcDbEntity
  8
0
100
AcDbLine
 62
7
  6
CONTINUOUS
 10
3.554666702
 20
1.5155426447
 11
3.5538590736
 21
1.5512152101
  0
LINE
  5
377
100
AcDbEntity
  8
0
100
AcDbLine
 62
7
  6
CONTINUOUS
 10
3.4159677717
 20
2.9013309379
 11
3.4155722985
 21
2.9212111692
  0
LINE
  5
378
100
AcDbEntity
  8
0
100
AcDbLine
 62
7
  6
CONTINUOUS
 10
3.5553464798
 20
1.4766646586
 11
3.554666702
 21
1.5155426447
  0
LINE
  5
379
100
AcDbEntity
  8
0
100
AcDbLine
 62
7
  6
CONTINUOUS
 10
3.5558537892
 20
1.4366347809
 11
3.5553464798
 21
1.4766646586
  0
LINE
  5
37A
100
AcDbEntity
  8
0
100
AcDbLine
 62
7
  6
CONTINUOUS
 10
3.5562745001
 20
1.3833892213
 11
3.5558537892
 21
1.4366347809
  0
LINE
  5
37B
100
AcDbEntity
  8
0
100
AcDbLine
 62
7
  6
CONTINUOUS
 10
3.5564851452
 20
1.2966875775
 11
3.5562745001
 21
1.3833892213
  0
LINE
  5
37C
100
AcDbEntity
  8
0
100
AcDbLine
 62
7
  6
CONTINUOUS
 10
3.5562239334
 20
1.2471420283
 11
3.5563508773
 21
1.2962954377
  0
LINE
  5
37D
100
AcDbEntity
  8
SMUSSO
100
AcDbLine
 62
7
  6
CONTINUOUS
 10
-12.7547468685
 20
0.8669079006
 11
-12.2397649127
 21
0.9652438224
  0
LINE
  5
37E
100
AcDbEntity
  8
SMUSSO
100
AcDbLine
 62
7
  6
CONTINUOUS
 10
-12.8842066755
 20
1.141266045
 11
-12.3318494927
 21
1.246738775
  0
LINE
  5
37F
100
AcDbEntity
  8
RACCORDO
100
AcDbLine
 62
7
  6
CONTINUOUS
 10
-12.8782728253
 20
4.5632453421
 11
-15.9895426625
 21
6.1188802607
  0
LINE
  5
380
100
AcDbEntity
  8
RACCORDO
100
AcDbLine
 62
7
  6
CONTINUOUS
 10
-12.7146880199
 20
4.5363633198
 11
-15.7913920654
 21
6.0747153425
  0
LINE
  5
381
100
AcDbEntity
  8
RACCORDO
100
AcDbLine
 62
7
  6
CONTINUOUS
 10
-12.6801222282
 20
4.8654905855
 11
-15.7913920654
 21
6.4211255041
  0
LINE
  5
382
100
AcDbEntity
  8
0
100
AcDbLine
 62
253
  6
CONTINUOUS
 10
-5.8903285331
 20
0.2565924794
 11
-6.2495063405
 21
0.4790328945
  0
LINE
  5
383
100
AcDbEntity
  8
0
100
AcDbLine
 62
7
  6
CONTINUOUS
 10
-5.3761567856
 20
0.247036744
 11
-5.9769342977
 21
0.6191009318
  0
LINE
  5
384
100
AcDbEntity
  8
RACCORDO
100
AcDbLine
 62
7
  6
CONTINUOUS
 10
-8.9834571533
 20
3.6651585822
 11
-8.9623522391
 21
3.6483292552
  0
LINE
  5
385
100
AcDbEntity
  8
ASSI
100
AcDbLine
 62
7
  6
CONTINUOUS
 10
-8.9834575759
 20
3.6651484964
 11
-8.9621884663
 21
3.6481797303
  0
LINE
  5
386
100
AcDbEntity
  8
0
100
AcDbLine
 62
7
  6
CONTINUOUS
 10
3.5023569512
 20
2.0430607725
 11
3.498862184
 21
2.0707049917
  0
LINE
  5
387
100
AcDbEntity
  8
0
100
AcDbLine
 62
7
  6
CONTINUOUS
 10
3.5361920351
 20
1.8333558333
 11
3.5349604705
 21
1.8431065272
  0
LWPOLYLINE
  5
388
100
AcDbEntity
  8
0
100
AcDbPolyline
 62
7
  6
CONTINUOUS
 90
3
 70
0
 10
3.498862184
 20
2.0707049917
 10
3.4903889712
 20
2.1408377575
 10
3.4839401245
 20
2.1971588448
  0
LINE
  5
389
100
AcDbEntity
  8
0
100
AcDbLine
 62
7
  6
CONTINUOUS
 10
3.537385631
 20
1.8234231689
 11
3.5361920351
 21
1.8333558333
  0
LINE
  5
38A
100
AcDbEntity
  8
0
100
AcDbLine
 62
7
  6
CONTINUOUS
 10
3.5385386953
 20
1.8133288358
 11
3.537385631
 21
1.8234231689
  0
LWPOLYLINE
  5
38B
100
AcDbEntity
  8
0
100
AcDbPolyline
 62
7
  6
CONTINUOUS
 90
9
 70
0
 10
6.1197063335
 20
-12.5722921211
 10
6.1155579602
 20
-12.4916681606
 10
6.1097195745
 20
-12.4082837593
 10
6.1020102221
 20
-12.3218046189
 10
6.0922794561
 20
-12.2324317967
 10
6.0804355835
 20
-12.140681605
 10
6.0663736861
 20
-12.0467483749
 10
6.0499386631
 20
-11.9504716753
 10
6.0449878024
 20
-11.9236005149
  0
LWPOLYLINE
  5
38C
100
AcDbEntity
  8
0
100
AcDbPolyline
 62
7
  6
CONTINUOUS
 90
10
 70
0
 10
6.099164779
 20
-13.2005968456
 10
6.101060406
 20
-13.183214422
 10
6.1095970834
 20
-13.0931442134
 10
6.1159788852
 20
-13.0041951221
 10
6.1203349807
 20
-12.9166267119
 10
6.1228072975
 20
-12.8303249814
 10
6.1235132234
 20
-12.7455376252
 10
6.1225634807
 20
-12.6624290614
 10
6.1200656885
 20
-12.5810053415
 10
6.1197012879
 20
-12.5721693246
  0
LINE
  5
38D
100
AcDbEntity
  8
RACCORDO
100
AcDbLine
 62
253
  6
CONTINUOUS
 10
-11.6456044599
 20
-35.5369333813
 11
-13.5363140205
 21
-36.9072154386
  0
LINE
  5
38E
100
AcDbEntity
  8
ASSI
100
AcDbLine
 62
253
  6
CONTINUOUS
 10
-11.6456044599
 20
-35.5369333813
 11
-13.5363140205
 21
-36.9072154386
  0
LINE
  5
38F
100
AcDbEntity
  8
RACCORDO
100
AcDbLine
 62
253
  6
CONTINUOUS
 10
-11.0451458848
 20
-35.7928691337
 11
-12.9358554454
 21
-37.163151191
  0
LINE
  5
390
100
AcDbEntity
  8
ASSI
100
AcDbLine
 62
253
  6
CONTINUOUS
 10
-11.0451458848
 20
-35.7928691337
 11
-12.9358554454
 21
-37.163151191
  0
LINE
  5
391
100
AcDbEntity
  8
0
100
AcDbLine
 62
7
  6
CONTINUOUS
 10
-5.9026692481
 20
-30.6389248138
 11
-6.3021797602
 21
-30.8386800699
  0
LINE
  5
392
100
AcDbEntity
  8
RACCORDO
100
AcDbLine
 62
253
  6
CONTINUOUS
 10
-14.8122248665
 20
-35.4784044258
 11
-13.0196941815
 21
-34.6166400784
  0
LINE
  5
393
100
AcDbEntity
  8
ASSI
100
AcDbLine
 62
253
  6
CONTINUOUS
 10
-14.8122248665
 20
-35.4784044258
 11
-13.0196941815
 21
-34.6166400784
  0
LINE
  5
394
100
AcDbEntity
  8
RACCORDO
100
AcDbLine
 62
7
  6
CONTINUOUS
 10
-8.9378216502
 20
3.6224043581
 11
-8.9842752437
 21
3.6456311549
  0
LINE
  5
395
100
AcDbEntity
  8
0
100
AcDbLine
 62
253
  6
CONTINUOUS
 10
-10.9814124664
 20
6.0100161292
 11
-14.0096436752
 21
7.5241317335
  0
LINE
  5
396
100
AcDbEntity
  8
0
100
AcDbLine
 62
253
  6
CONTINUOUS
 10
-10.8707620288
 20
6.1120041289
 11
-13.9389329971
 21
7.646089613
  0
LWPOLYLINE
  5
397
100
AcDbEntity
  8
0
100
AcDbPolyline
 62
7
  6
CONTINUOUS
 90
6
 70
0
 10
3.5194248983
 20
1.938091686
 10
3.5188497275
 20
1.9408035454
 10
3.5173877732
 20
1.9479264305
 10
3.5157266082
 20
1.9564371408
 10
3.5137923389
 20
1.9669305907
 10
3.5116864542
 20
1.9791132957
  0
LINE
  5
398
100
AcDbEntity
  8
0
100
AcDbLine
 62
7
  6
CONTINUOUS
 10
3.5202831452
 20
1.9338903047
 11
3.5194248983
 21
1.938091686
  0
LWPOLYLINE
  5
399
100
AcDbEntity
  8
0
100
AcDbPolyline
 62
7
  6
CONTINUOUS
 90
19
 70
0
 10
6.0449901802
 20
-11.9236130302
 10
6.0157550867
 20
-11.7797428375
 10
5.9616789003
 20
-11.5580381324
 10
5.8974253276
 20
-11.3395403963
 10
5.8231020946
 20
-11.1241584695
 10
5.7385076248
 20
-10.9115765273
 10
5.6436342008
 20
-10.7023640973
 10
5.538938078
 20
-10.4978573304
 10
5.4258679693
 20
-10.3010177395
 10
5.3047439732
 20
-10.1121927242
 10
5.1753143936
 20
-9.9310246281
 10
5.0374000719
 20
-9.7577036319
 10
4.8924760698
 20
-9.594339909
 10
4.742362131
 20
-9.4429112888
 10
4.5870155051
 20
-9.303290877
 10
4.4270565408
 20
-9.175975688
 10
4.2624662773
 20
-9.0610432283
 10
4.0939563887
 20
-8.9590470836
 10
3.9809992557
 20
-8.8991865558
  0
LINE
  5
39A
100
AcDbEntity
  8
0
100
AcDbLine
 62
7
  6
CONTINUOUS
 10
3.5216599362
 20
1.9267987249
 11
3.5202881672
 21
1.9338687481
  0
LINE
  5
39B
100
AcDbEntity
  8
0
100
AcDbLine
 62
7
  6
CONTINUOUS
 10
3.5229503678
 20
1.919940839
 11
3.5216599362
 21
1.9267987249
  0
LINE
  5
39C
100
AcDbEntity
  8
0
100
AcDbLine
 62
7
  6
CONTINUOUS
 10
3.5242827422
 20
1.9126366597
 11
3.5229503678
 21
1.919940839
  0
LINE
  5
39D
100
AcDbEntity
  8
0
100
AcDbLine
 62
7
  6
CONTINUOUS
 10
3.5256388754
 20
1.904951262
 11
3.5242827422
 21
1.9126366597
  0
LINE
  5
39E
100
AcDbEntity
  8
0
100
AcDbLine
 62
7
  6
CONTINUOUS
 10
3.5270069615
 20
1.8969183654
 11
3.5256388754
 21
1.904951262
  0
LINE
  5
39F
100
AcDbEntity
  8
0
100
AcDbLine
 62
7
  6
CONTINUOUS
 10
3.528374858
 20
1.888579164
 11
3.5270069615
 21
1.8969183654
  0
LWPOLYLINE
  5
3A0
100
AcDbEntity
  8
0
100
AcDbPolyline
 62
7
  6
CONTINUOUS
 90
6
 70
0
 10
3.5116864542
 20
1.9791132957
 10
3.5096447328
 20
1.9917116233
 10
3.5077325046
 20
2.0042307125
 10
3.505869512
 20
2.017094488
 10
3.5040606573
 20
2.0301991793
 10
3.5023569512
 20
2.0430607725
  0
LINE
  5
3A1
100
AcDbEntity
  8
0
100
AcDbLine
 62
7
  6
CONTINUOUS
 10
3.5297341097
 20
1.8799602876
 11
3.528374858
 21
1.888579164
  0
LINE
  5
3A2
100
AcDbEntity
  8
0
100
AcDbLine
 62
7
  6
CONTINUOUS
 10
3.5310757076
 20
1.8711006897
 11
3.5297341097
 21
1.8799602876
  0
LINE
  5
3A3
100
AcDbEntity
  8
0
100
AcDbLine
 62
7
  6
CONTINUOUS
 10
3.5323973267
 20
1.8619972048
 11
3.5310757076
 21
1.8711006897
  0
LINE
  5
3A4
100
AcDbEntity
  8
0
100
AcDbLine
 62
7
  6
CONTINUOUS
 10
3.5336939311
 20
1.8526607071
 11
3.5323973267
 21
1.8619972048
  0
LINE
  5
3A5
100
AcDbEntity
  8
0
100
AcDbLine
 62
7
  6
CONTINUOUS
 10
3.5349604705
 20
1.8431065272
 11
3.5336939311
 21
1.8526607071
  0
LINE
  5
3A6
100
AcDbEntity
  8
RACCORDO
100
AcDbLine
 62
7
  6
CONTINUOUS
 10
-6.4057292078
 20
-33.5336599903
 11
-8.3199506562
 21
-34.9209821677
  0
LINE
  5
3A7
100
AcDbEntity
  8
ASSI
100
AcDbLine
 62
7
  6
CONTINUOUS
 10
-6.4057292078
 20
-33.5336599903
 11
-8.3199506562
 21
-34.9209821677
  0
LINE
  5
3A8
100
AcDbEntity
  8
ASSI
100
AcDbLine
 62
7
  6
CONTINUOUS
 10
-3.5763576097
 20
-31.9993603462
 11
-6.3222841565
 21
-33.4124798624
  0
LINE
  5
3A9
100
AcDbEntity
  8
ASSI
100
AcDbLine
 62
7
  6
CONTINUOUS
 10
-4.9185615157
 20
-31.3298408146
 11
-3.8159924731
 21
-30.7785562933
  0
LINE
  5
3AA
100
AcDbEntity
  8
0
100
AcDbLine
 62
253
  6
CONTINUOUS
 10
-6.287788064
 20
-32.4046164068
 11
-5.1955624669
 21
-31.8585036082
  0
LINE
  5
3AB
100
AcDbEntity
  8
0
100
AcDbLine
 62
253
  6
CONTINUOUS
 10
-5.1955624669
 20
-31.8735271328
 11
-6.287788064
 21
-32.4196399314
  0
LINE
  5
3AC
100
AcDbEntity
  8
0
100
AcDbLine
 62
7
  6
CONTINUOUS
 10
-5.4554556526
 20
-32.4144009332
 11
-6.3021797602
 21
-32.8377629871
  0
LINE
  5
3AD
100
AcDbEntity
  8
RACCORDO
100
AcDbLine
 62
253
  6
CONTINUOUS
 10
-10.9415964372
 20
-35.5384692983
 11
-6.3021797602
 21
-33.2792601549
  0
LINE
  5
3AE
100
AcDbEntity
  8
ASSI
100
AcDbLine
 62
253
  6
CONTINUOUS
 10
-10.9415964372
 20
-35.5384692983
 11
-6.3021797602
 21
-33.2792601549
  0
LINE
  5
3AF
100
AcDbEntity
  8
RACCORDO
100
AcDbLine
 62
253
  6
CONTINUOUS
 10
-11.0451458848
 20
-35.7928691337
 11
-6.4057292078
 21
-33.5336599903
  0
LINE
  5
3B0
100
AcDbEntity
  8
ASSI
100
AcDbLine
 62
253
  6
CONTINUOUS
 10
-11.0451458848
 20
-35.7928691337
 11
-6.4057292078
 21
-33.5336599903
  0
LINE
  5
3B1
100
AcDbEntity
  8
RACCORDO
100
AcDbLine
 62
253
  6
CONTINUOUS
 10
-8.3199506562
 20
-34.9209821677
 11
-12.9358554454
 21
-37.163151191
  0
LINE
  5
3B2
100
AcDbEntity
  8
ASSI
100
AcDbLine
 62
253
  6
CONTINUOUS
 10
-8.3199506562
 20
-34.9209821677
 11
-12.9358554454
 21
-37.163151191
  0
LINE
  5
3B3
100
AcDbEntity
  8
RACCORDO
100
AcDbLine
 62
7
  6
CONTINUOUS
 10
-8.3482982426
 20
-34.9379724963
 11
-12.9642962139
 21
-37.1801867827
  0
LINE
  5
3B4
100
AcDbEntity
  8
ASSI
100
AcDbLine
 62
7
  6
CONTINUOUS
 10
-8.3482982426
 20
-34.9379724963
 11
-12.9642962139
 21
-37.1801867827
  0
LINE
  5
3B5
100
AcDbEntity
  8
RACCORDO
100
AcDbLine
 62
7
  6
CONTINUOUS
 10
-15.2136670571
 20
-36.2953548152
 11
-13.4177173198
 21
-35.4319467484
  0
LINE
  5
3B6
100
AcDbEntity
  8
ASSI
100
AcDbLine
 62
7
  6
CONTINUOUS
 10
-15.2136670571
 20
-36.2953548152
 11
-13.4177173198
 21
-35.4319467484
  0
LINE
  5
3B7
100
AcDbEntity
  8
0
100
AcDbLine
 62
253
  6
CONTINUOUS
 10
-10.6206474771
 20
6.3425380823
 11
-13.9389329971
 21
8.0016808423
  0
LINE
  5
3B8
100
AcDbEntity
  8
ASSI
100
AcDbLine
 62
7
  6
CONTINUOUS
 10
-3.8626613652
 20
2.9911917515
 11
-4.2734218276
 21
3.1965719827
  0
LINE
  5
3B9
100
AcDbEntity
  8
0
100
AcDbLine
 62
253
  6
CONTINUOUS
 10
-10.1649514254
 20
6.7625592753
 11
-13.7004853313
 21
8.5303262283
  0
LINE
  5
3BA
100
AcDbEntity
  8
DRAFT
100
AcDbLine
 62
7
  6
CONTINUOUS
 10
-7.4243768113
 20
5.4036519395
 11
-4.2734218276
 21
3.8281744476
  0
LINE
  5
3BB
100
AcDbEntity
  8
ASSI
100
AcDbLine
 62
7
  6
CONTINUOUS
 10
-7.4243768113
 20
5.4036519395
 11
-4.2734218276
 21
3.8281744476
  0
LINE
  5
3BC
100
AcDbEntity
  8
SMUSSO
100
AcDbLine
 62
7
  6
CONTINUOUS
 10
-6.8311755048
 20
5.1720767672
 11
-7.3786394093
 21
5.4458087194
  0
LINE
  5
3BD
100
AcDbEntity
  8
0
100
AcDbLine
 62
253
  6
CONTINUOUS
 10
-6.5863507661
 20
5.5400189345
 11
-7.033134902
 21
5.7634110025
  0
LINE
  5
3BE
100
AcDbEntity
  8
0
100
AcDbLine
 62
253
  6
CONTINUOUS
 10
-7.1398149787
 20
6.032306967
 11
-15.625096353
 21
10.2749476542
  0
LINE
  5
3BF
100
AcDbEntity
  8
0
100
AcDbLine
 62
7
  6
CONTINUOUS
 10
-15.0197148965
 20
10.4453577615
 11
-6.5344335223
 21
6.2027170744
  0
LINE
  5
3C0
100
AcDbEntity
  8
SMUSSO
100
AcDbLine
 62
7
  6
CONTINUOUS
 10
-6.5494090943
 20
-35.5070281807
 11
-6.8311755048
 21
-35.6781030209
  0
LINE
  5
3C1
100
AcDbEntity
  8
SMUSSO
100
AcDbLine
 62
7
  6
CONTINUOUS
 10
-6.3187885349
 20
-35.8626689101
 11
-6.6005549455
 21
-36.0337437503
  0
LINE
  5
3C2
100
AcDbEntity
  8
0
100
AcDbLine
 62
253
  6
CONTINUOUS
 10
-6.3045843555
 20
-36.054409678
 11
-6.5863507661
 21
-36.2254845182
  0
LINE
  5
3C3
100
AcDbEntity
  8
RACCORDO
100
AcDbLine
 62
7
  6
CONTINUOUS
 10
-13.03512125
 20
-38.0372625505
 11
-12.7547468685
 21
-37.8946070288
  0
LINE
  5
3C4
100
AcDbEntity
  8
ASSI
100
AcDbLine
 62
7
  6
CONTINUOUS
 10
-13.03512125
 20
-38.0372625505
 11
-12.7547468685
 21
-37.8946070288
  0
LINE
  5
3C5
100
AcDbEntity
  8
0
100
AcDbLine
 62
7
  6
CONTINUOUS
 10
-3.0677735956
 20
7.4429392344
 11
-0.2311100898
 21
6.2523052132
  0
LINE
  5
3C6
100
AcDbEntity
  8
0
100
AcDbLine
 62
253
  6
CONTINUOUS
 10
-1.3934127802
 20
6.1879736052
 11
-4.1511309464
 21
7.3829997454
  0
LINE
  5
3C7
100
AcDbEntity
  8
0
100
AcDbLine
 62
253
  6
CONTINUOUS
 10
1.3491026031
 20
4.6328804082
 11
-1.3935096722
 21
6.1880194886
  0
LINE
  5
3C8
100
AcDbEntity
  8
0
100
AcDbLine
 62
7
  6
CONTINUOUS
 10
2.5567689654
 20
4.6306678801
 11
-0.0977378046
 21
6.1856191212
  0
ARC
  5
3C9
100
AcDbEntity
  8
0
100
AcDbCircle
 62
253
  6
CONTINUOUS
 10
-140.0036669343
 20
5.1584514995
 40
143.4068932668
100
AcDbArc
 50
354.7474177561
 51
355.4502928792
  0
ARC
  5
3CA
100
AcDbEntity
  8
0
100
AcDbCircle
 62
253
  6
CONTINUOUS
 10
-139.1609169049
 20
5.0924118605
 40
142.5618457347
100
AcDbArc
 50
355.4499372953
 51
356.2830814
  0
ARC
  5
3CB
100
AcDbEntity
  8
0
100
AcDbCircle
 62
7
  6
CONTINUOUS
 10
-135.5766656117
 20
5.0408583098
 40
139.1853325214
100
AcDbArc
 50
355.4621944986
 51
357.9055899459
  0
ARC
  5
3CC
100
AcDbEntity
  8
0
100
AcDbCircle
 62
253
  6
CONTINUOUS
 10
-133.0889110841
 20
4.6749546825
 40
136.4755529384
100
AcDbArc
 50
356.5320278902
 51
357.860149623
  0
ARC
  5
3CD
100
AcDbEntity
  8
0
100
AcDbCircle
 62
253
  6
CONTINUOUS
 10
-132.8020018089
 20
4.6572588295
 40
136.1880986172
100
AcDbArc
 50
356.2923405945
 51
356.5269773889
  0
ARC
  5
3CE
100
AcDbEntity
  8
0
100
AcDbCircle
 62
7
  6
CONTINUOUS
 10
-129.2520732456
 20
4.7702718784
 40
132.8550720616
100
AcDbArc
 50
358.1792701551
 51
358.4785588555
  0
ARC
  5
3CF
100
AcDbEntity
  8
0
100
AcDbCircle
 62
253
  6
CONTINUOUS
 10
-128.5936325456
 20
4.5135974053
 40
131.9772708146
100
AcDbArc
 50
358.2952874053
 51
358.4704359708
  0
ARC
  5
3D0
100
AcDbEntity
  8
RACCORDO
100
AcDbCircle
 62
7
  6
CONTINUOUS
 10
-15.8637279021
 20
-34.9414483231
 40
1.501879452
100
AcDbArc
 50
243.4811630649
 51
295.6474743677
  0
ARC
  5
3D1
100
AcDbEntity
  8
ASSI
100
AcDbCircle
 62
7
  6
CONTINUOUS
 10
-15.8637279021
 20
-34.9414483231
 40
1.501879452
100
AcDbArc
 50
243.4811630649
 51
295.6474743677
  0
ARC
  5
3D2
100
AcDbEntity
  8
ASSI
100
AcDbCircle
 62
253
  6
CONTINUOUS
 10
-26.1513537824
 20
-30.8470581403
 40
0.5630843754
100
AcDbArc
 50
241.9732349448
 51
243.544787459
  0
ARC
  5
3D3
100
AcDbEntity
  8
RACCORDO
100
AcDbCircle
 62
253
  6
CONTINUOUS
 10
-27.9875735652
 20
-21.9193637952
 40
11.5909037627
100
AcDbArc
 50
17.3534373981
 51
17.6822595563
  0
ARC
  5
3D4
100
AcDbEntity
  8
ASSI
100
AcDbCircle
 62
253
  6
CONTINUOUS
 10
-27.9875735652
 20
-21.9193637952
 40
11.5909037627
100
AcDbArc
 50
17.3534373981
 51
17.6822595563
  0
ARC
  5
3D5
100
AcDbEntity
  8
RACCORDO
100
AcDbCircle
 62
253
  6
CONTINUOUS
 10
-21.9083158992
 20
-20.111573677
 40
6.2874269566
100
AcDbArc
 50
322.4389044744
 51
323.0866661694
  0
ARC
  5
3D6
100
AcDbEntity
  8
ASSI
100
AcDbCircle
 62
253
  6
CONTINUOUS
 10
-21.9083158992
 20
-20.111573677
 40
6.2874269566
100
AcDbArc
 50
322.4389044744
 51
323.0866661694
  0
ARC
  5
3D7
100
AcDbEntity
  8
RACCORDO
100
AcDbCircle
 62
253
  6
CONTINUOUS
 10
-21.6587232
 20
-20.2932930726
 40
5.9787263496
100
AcDbArc
 50
323.0424476594
 51
328.0286365863
  0
ARC
  5
3D8
100
AcDbEntity
  8
ASSI
100
AcDbCircle
 62
253
  6
CONTINUOUS
 10
-21.6587232
 20
-20.2932930726
 40
5.9787263496
100
AcDbArc
 50
323.0424476594
 51
328.0286365863
  0
ARC
  5
3D9
100
AcDbEntity
  8
RACCORDO
100
AcDbCircle
 62
253
  6
CONTINUOUS
 10
-21.4366769049
 20
-20.433737358
 40
5.7159972455
100
AcDbArc
 50
328.0443559713
 51
329.0785533243
  0
ARC
  5
3DA
100
AcDbEntity
  8
0
100
AcDbCircle
 62
7
  6
CONTINUOUS
 10
-19.8993933306
 20
-18.7248889379
 40
4.6884622942
100
AcDbArc
 50
233.0229402436
 51
238.0151441241
  0
ARC
  5
3DB
100
AcDbEntity
  8
0
100
AcDbCircle
 62
253
  6
CONTINUOUS
 10
-24.267847682
 20
-19.1754551328
 40
4.6272648319
100
AcDbArc
 50
52.9087773497
 51
53.3701572849
  0
ARC
  5
3DC
100
AcDbEntity
  8
0
100
AcDbCircle
 62
7
  6
CONTINUOUS
 10
-20.0824820209
 20
-19.014747296
 40
4.3456270491
100
AcDbArc
 50
238.0383110092
 51
239.4748694514
  0
ARC
  5
3DD
100
AcDbEntity
  8
0
100
AcDbCircle
 62
253
  6
CONTINUOUS
 10
-24.0711408289
 20
-18.902263154
 40
4.2906657276
100
AcDbArc
 50
53.3015268351
 51
57.8830523642
  0
ARC
  5
3DE
100
AcDbEntity
  8
0
100
AcDbCircle
 62
253
  6
CONTINUOUS
 10
-23.9002231075
 20
-18.6324234798
 40
3.9712530043
100
AcDbArc
 50
57.9018263099
 51
59.4735673334
  0
ARC
  5
3DF
100
AcDbEntity
  8
0
100
AcDbCircle
 62
253
  6
CONTINUOUS
 10
-20.3399563003
 20
-19.239935786
 40
3.9367989099
100
AcDbArc
 50
239.4750063279
 51
241.0142577667
  0
ARC
  5
3E0
100
AcDbEntity
  8
RACCORDO
100
AcDbCircle
 62
7
  6
CONTINUOUS
 10
-20.4342174224
 20
-22.0130698213
 40
3.7432743166
100
AcDbArc
 50
332.1730332088
 51
335.5775756166
  0
ARC
  5
3E1
100
AcDbEntity
  8
ASSI
100
AcDbCircle
 62
7
  6
CONTINUOUS
 10
-20.4342174224
 20
-22.0130698213
 40
3.7432743166
100
AcDbArc
 50
332.1730332088
 51
335.5775756166
  0
ARC
  5
3E2
100
AcDbEntity
  8
0
100
AcDbCircle
 62
7
  6
CONTINUOUS
 10
-23.6384184292
 20
-18.3998812432
 40
3.5538908203
100
AcDbArc
 50
59.4734877879
 51
61.180011703
  0
ARC
  5
3E3
100
AcDbEntity
  8
0
100
AcDbCircle
 62
7
  6
CONTINUOUS
 10
-20.8312755096
 20
-17.7540130383
 40
0.7612150226
100
AcDbArc
 50
116.6145994237
 51
130.6551711367
  0
ARC
  5
3E4
100
AcDbEntity
  8
0
100
AcDbCircle
 62
7
  6
CONTINUOUS
 10
-20.4567024521
 20
-18.5031591532
 40
0.7612150226
100
AcDbArc
 50
282.4749312174
 51
296.5155029305
  0
ARC
  5
3E5
100
AcDbEntity
  8
0
100
AcDbCircle
 62
7
  6
CONTINUOUS
 10
-21.307479405
 20
-18.5202014199
 40
0.7419383524
100
AcDbArc
 50
228.1969448075
 51
232.911405312
  0
ARC
  5
3E6
100
AcDbEntity
  8
RACCORDO
100
AcDbCircle
 62
7
  6
CONTINUOUS
 10
-12.3976350584
 20
-37.8170679364
 40
2.9134491887
100
AcDbArc
 50
155.9271700497
 51
156.4072762411
  0
ARC
  5
3E7
100
AcDbEntity
  8
ASSI
100
AcDbCircle
 62
7
  6
CONTINUOUS
 10
-12.3976350584
 20
-37.8170679364
 40
2.9134491887
100
AcDbArc
 50
155.9271700497
 51
156.4072762411
  0
ARC
  5
3E8
100
AcDbEntity
  8
ASSI
100
AcDbCircle
 62
7
  6
CONTINUOUS
 10
-5.4883757045
 20
-30.7714273905
 40
1.9754535321
100
AcDbArc
 50
325.381958176
 51
327.5251245159
  0
ARC
  5
3E9
100
AcDbEntity
  8
ASSI
100
AcDbCircle
 62
7
  6
CONTINUOUS
 10
-5.4681690474
 20
-30.7842395738
 40
1.9515274095
100
AcDbArc
 50
327.5239251403
 51
329.7130843742
  0
ARC
  5
3EA
100
AcDbEntity
  8
0
100
AcDbCircle
 62
7
  6
CONTINUOUS
 10
-5.9027127755
 20
-31.5049749498
 40
1.000046424
100
AcDbArc
 50
0.0014169875
 51
59.2088499834
  0
ARC
  5
3EB
100
AcDbEntity
  8
0
100
AcDbCircle
 62
7
  6
CONTINUOUS
 10
-5.9026839798
 20
-31.519962655
 40
1.0000105291
100
AcDbArc
 50
296.535851164
 51
356.039029444
  0
ARC
  5
3EC
100
AcDbEntity
  8
0
100
AcDbCircle
 62
7
  6
CONTINUOUS
 10
-5.9010704429
 20
-31.5199112554
 40
0.9984011968
100
AcDbArc
 50
356.0296904822
 51
359.9964140345
  0
ARC
  5
3ED
100
AcDbEntity
  8
ASSI
100
AcDbCircle
 62
7
  6
CONTINUOUS
 10
-4.2770237864
 20
-31.5835451133
 40
0.9276620462
100
AcDbArc
 50
60.1994710488
 51
63.4695159634
  0
ARC
  5
3EE
100
AcDbEntity
  8
RACCORDO
100
AcDbCircle
 62
253
  6
CONTINUOUS
 10
-12.9811045792
 20
-36.5826269728
 40
0.6432098153
100
AcDbArc
 50
218.0546373549
 51
225.7720721081
  0
ARC
  5
3EF
100
AcDbEntity
  8
ASSI
100
AcDbCircle
 62
253
  6
CONTINUOUS
 10
-12.9811045792
 20
-36.5826269728
 40
0.6432098153
100
AcDbArc
 50
218.0546373549
 51
225.7720721081
  0
ARC
  5
3F0
100
AcDbEntity
  8
RACCORDO
100
AcDbCircle
 62
253
  6
CONTINUOUS
 10
-12.9944713006
 20
-36.5924081471
 40
0.6266555385
100
AcDbArc
 50
210.1563246126
 51
218.1037807866
  0
ARC
  5
3F1
100
AcDbEntity
  8
ASSI
100
AcDbCircle
 62
253
  6
CONTINUOUS
 10
-12.9944713006
 20
-36.5924081471
 40
0.6266555385
100
AcDbArc
 50
210.1563246126
 51
218.1037807866
  0
ARC
  5
3F2
100
AcDbEntity
  8
ASSI
100
AcDbCircle
 62
253
  6
CONTINUOUS
 10
-13.0075784874
 20
-36.6105677123
 40
0.6047225885
100
AcDbArc
 50
225.7229321231
 51
233.8193397988
  0
ARC
  5
3F3
100
AcDbEntity
  8
ASSI
100
AcDbCircle
 62
7
  6
CONTINUOUS
 10
-13.1796241952
 20
-36.7229646966
 40
0.5080059266
100
AcDbArc
 50
243.3605541281
 51
250.0083711996
  0
ARC
  5
3F4
100
AcDbEntity
  8
0
100
AcDbCircle
 62
253
  6
CONTINUOUS
 10
-5.618823739
 20
-31.0293958461
 40
0.4461708343
100
AcDbArc
 50
59.2625231458
 51
69.5985114083
  0
ARC
  5
3F5
100
AcDbEntity
  8
0
100
AcDbCircle
 62
253
  6
CONTINUOUS
 10
-5.1526790979
 20
-31.5200338293
 40
0.2500059366
100
AcDbArc
 50
355.0091667459
 51
0.0137705527
  0
ARC
  5
3F6
100
AcDbEntity
  8
RACCORDO
100
AcDbCircle
 62
253
  6
CONTINUOUS
 10
-13.0476878496
 20
-37.008599796
 40
0.1907684993
100
AcDbArc
 50
296.2149714849
 51
305.8892592955
  0
ARC
  5
3F7
100
AcDbEntity
  8
ASSI
100
AcDbCircle
 62
253
  6
CONTINUOUS
 10
-13.0476878496
 20
-37.008599796
 40
0.1907684993
100
AcDbArc
 50
296.2149714849
 51
305.8892592955
  0
ARC
  5
3F8
100
AcDbEntity
  8
ASSI
100
AcDbCircle
 62
7
  6
CONTINUOUS
 10
0.3435140368
 20
-22.5356440726
 40
10.2598685778
100
AcDbArc
 50
245.7974349668
 51
246.2245034663
  0
ARC
  5
3F9
100
AcDbEntity
  8
0
100
AcDbCircle
 62
253
  6
CONTINUOUS
 10
-0.6446909928
 20
-16.5586254288
 40
1.3274513829
100
AcDbArc
 50
296.5945980247
 51
307.2363323086
  0
ARC
  5
3FA
100
AcDbEntity
  8
0
100
AcDbCircle
 62
253
  6
CONTINUOUS
 10
-2.4487864589
 20
-16.7152806939
 40
1.1362725683
100
AcDbArc
 50
234.0625261545
 51
243.3877235651
  0
ARC
  5
3FB
100
AcDbEntity
  8
0
100
AcDbCircle
 62
7
  6
CONTINUOUS
 10
-3.2266675182
 20
-16.3264400244
 40
1.1361801663
100
AcDbArc
 50
234.0630993084
 51
243.4592695963
  0
ARC
  5
3FC
100
AcDbEntity
  8
0
100
AcDbCircle
 62
253
  6
CONTINUOUS
 10
0.0889828246
 20
-17.4363984281
 40
0.2823214219
100
AcDbArc
 50
296.5610766542
 51
299.9372279627
  0
ARC
  5
3FD
100
AcDbEntity
  8
RACCORDO
100
AcDbCircle
 62
253
  6
CONTINUOUS
 10
-3.1503675428
 20
-12.4703152224
 40
15.0207387769
100
AcDbArc
 50
203.5098969641
 51
204.0251566615
  0
ARC
  5
3FE
100
AcDbEntity
  8
ASSI
100
AcDbCircle
 62
253
  6
CONTINUOUS
 10
-3.1503675428
 20
-12.4703152224
 40
15.0207387769
100
AcDbArc
 50
203.5098969641
 51
204.0251566615
  0
ARC
  5
3FF
100
AcDbEntity
  8
0
100
AcDbCircle
 62
7
  6
CONTINUOUS
 10
-12.0499212883
 20
-6.9751219266
 40
14.8505231573
100
AcDbArc
 50
355.0302349636
 51
355.2405826133
  0
ARC
  5
400
100
AcDbEntity
  8
0
100
AcDbCircle
 62
7
  6
CONTINUOUS
 10
-5.5420926188
 20
-7.5383472253
 40
8.3183685324
100
AcDbArc
 50
354.8847921618
 51
355.011874887
  0
ARC
  5
401
100
AcDbEntity
  8
0
100
AcDbCircle
 62
7
  6
CONTINUOUS
 10
-0.9919756494
 20
-13.9797210192
 40
4.4175182132
100
AcDbArc
 50
43.6092791783
 51
46.2553516136
  0
ARC
  5
402
100
AcDbEntity
  8
RACCORDO
100
AcDbCircle
 62
253
  6
CONTINUOUS
 10
-23.9503576051
 20
-14.6114362538
 40
3.0399382808
100
AcDbArc
 50
98.8697160422
 51
105.7248652469
  0
ARC
  5
403
100
AcDbEntity
  8
0
100
AcDbCircle
 62
253
  6
CONTINUOUS
 10
-2.222862123
 20
-15.8531140048
 40
1.9932864399
100
AcDbArc
 50
243.390583834
 51
247.3252288094
  0
ARC
  5
404
100
AcDbEntity
  8
0
100
AcDbCircle
 62
253
  6
CONTINUOUS
 10
-2.2931915771
 20
-16.024468416
 40
1.8080647516
100
AcDbArc
 50
247.2883572343
 51
251.4877847336
  0
ARC
  5
405
100
AcDbEntity
  8
RACCORDO
100
AcDbCircle
 62
7
  6
CONTINUOUS
 10
-16.3977904215
 20
-1.222351007
 40
7.3458490825
100
AcDbArc
 50
150.9616895843
 51
151.5015161305
  0
ARC
  5
406
100
AcDbEntity
  8
ASSI
100
AcDbCircle
 62
7
  6
CONTINUOUS
 10
-16.3977904215
 20
-1.222351007
 40
7.3458490825
100
AcDbArc
 50
150.9616895843
 51
151.5015161305
  0
ARC
  5
407
100
AcDbEntity
  8
ASSI
100
AcDbCircle
 62
7
  6
CONTINUOUS
 10
-11.6588902549
 20
-0.8706546793
 40
3.6443879986
100
AcDbArc
 50
195.825501306
 51
197.1617177965
  0
ARC
  5
408
100
AcDbEntity
  8
0
100
AcDbCircle
 62
7
  6
CONTINUOUS
 10
-0.666809493
 20
5.2143622623
 40
1.1256801078
100
AcDbArc
 50
59.6335412632
 51
67.2286859065
  0
ARC
  5
409
100
AcDbEntity
  8
0
100
AcDbCircle
 62
7
  6
CONTINUOUS
 10
-5.9027127816
 20
-0.6031549124
 40
1.0000463193
100
AcDbArc
 50
0.0013890944
 51
58.2284935085
  0
ARC
  5
40A
100
AcDbEntity
  8
0
100
AcDbCircle
 62
7
  6
CONTINUOUS
 10
-5.9026826936
 20
-0.6181434998
 40
1.0000091764
100
AcDbArc
 50
296.535290227
 51
356.0327914646
  0
ARC
  5
40B
100
AcDbEntity
  8
0
100
AcDbCircle
 62
7
  6
CONTINUOUS
 10
-6.9949011668
 20
-1.1642941506
 40
0.9999726275
100
AcDbArc
 50
245.7636968524
 51
296.5870271514
  0
ARC
  5
40C
100
AcDbEntity
  8
0
100
AcDbCircle
 62
7
  6
CONTINUOUS
 10
-5.9010650341
 20
-0.6180913987
 40
0.9983957881
100
AcDbArc
 50
356.0233858927
 51
359.9963964486
  0
ARC
  5
40D
100
AcDbEntity
  8
RACCORDO
100
AcDbCircle
 62
253
  6
CONTINUOUS
 10
-23.7684107362
 20
2.2471109529
 40
0.7515791734
100
AcDbArc
 50
140.4684637896
 51
146.9329714359
  0
ARC
  5
40E
100
AcDbEntity
  8
ASSI
100
AcDbCircle
 62
253
  6
CONTINUOUS
 10
-23.7684107362
 20
2.2471109529
 40
0.7515791734
100
AcDbArc
 50
140.4684637896
 51
146.9329714359
  0
ARC
  5
40F
100
AcDbEntity
  8
RACCORDO
100
AcDbCircle
 62
253
  6
CONTINUOUS
 10
-9.4409697997
 20
3.1903685194
 40
0.6725050446
100
AcDbArc
 50
42.3915751546
 51
47.0163453684
  0
ARC
  5
410
100
AcDbEntity
  8
ASSI
100
AcDbCircle
 62
253
  6
CONTINUOUS
 10
-9.4409697997
 20
3.1903685194
 40
0.6725050446
100
AcDbArc
 50
42.3915751546
 51
47.0163453684
  0
ARC
  5
411
100
AcDbEntity
  8
RACCORDO
100
AcDbCircle
 62
253
  6
CONTINUOUS
 10
-25.8862133919
 20
1.1991355491
 40
0.6106649427
100
AcDbArc
 50
202.0020984158
 51
210.0872479504
  0
ARC
  5
412
100
AcDbEntity
  8
ASSI
100
AcDbCircle
 62
253
  6
CONTINUOUS
 10
-25.8862133919
 20
1.1991355491
 40
0.6106649427
100
AcDbArc
 50
202.0020984158
 51
210.0872479504
  0
ARC
  5
413
100
AcDbEntity
  8
RACCORDO
100
AcDbCircle
 62
7
  6
CONTINUOUS
 10
-26.0543870707
 20
1.0696156138
 40
0.5065957247
100
AcDbArc
 50
176.1853393204
 51
180.0620052225
  0
ARC
  5
414
100
AcDbEntity
  8
ASSI
100
AcDbCircle
 62
7
  6
CONTINUOUS
 10
-26.054387072
 20
1.0696156139
 40
0.5065957234
100
AcDbArc
 50
176.1853402957
 51
180.0620052147
  0
ARC
  5
415
100
AcDbEntity
  8
RACCORDO
100
AcDbCircle
 62
7
  6
CONTINUOUS
 10
-26.0583843609
 20
1.0673445457
 40
0.5035297968
100
AcDbArc
 50
126.0014186535
 51
140.2734417007
  0
ARC
  5
416
100
AcDbEntity
  8
RACCORDO
100
AcDbCircle
 62
7
  6
CONTINUOUS
 10
-24.169953662
 20
2.4394344726
 40
0.5007284632
100
AcDbArc
 50
117.2255979596
 51
125.9264604863
  0
ARC
  5
417
100
AcDbEntity
  8
ASSI
100
AcDbCircle
 62
7
  6
CONTINUOUS
 10
-24.169953662
 20
2.4394344726
 40
0.5007284632
100
AcDbArc
 50
117.2255979596
 51
125.9264604862
  0
ARC
  5
418
100
AcDbEntity
  8
RACCORDO
100
AcDbCircle
 62
253
  6
CONTINUOUS
 10
-24.3413693514
 20
2.5340517166
 40
0.3769414514
100
AcDbArc
 50
63.5412022557
 51
69.339421059
  0
ARC
  5
419
100
AcDbEntity
  8
ASSI
100
AcDbCircle
 62
253
  6
CONTINUOUS
 10
-24.3413693514
 20
2.5340517166
 40
0.3769414514
100
AcDbArc
 50
63.5412022557
 51
69.339421059
  0
ARC
  5
41A
100
AcDbEntity
  8
RACCORDO
100
AcDbCircle
 62
253
  6
CONTINUOUS
 10
-24.3243301909
 20
2.5793582897
 40
0.3285367357
100
AcDbArc
 50
69.3320529417
 51
75.4799024878
  0
ARC
  5
41B
100
AcDbEntity
  8
ASSI
100
AcDbCircle
 62
253
  6
CONTINUOUS
 10
-24.3243301909
 20
2.5793582897
 40
0.3285367357
100
AcDbArc
 50
69.3320529417
 51
75.4799024878
  0
ARC
  5
41C
100
AcDbEntity
  8
RACCORDO
100
AcDbCircle
 62
253
  6
CONTINUOUS
 10
-26.1700666148
 20
1.2220438738
 40
0.3126234977
100
AcDbArc
 50
126.1080452062
 51
130.8085262047
  0
ARC
  5
41D
100
AcDbEntity
  8
ASSI
100
AcDbCircle
 62
253
  6
CONTINUOUS
 10
-26.1700666149
 20
1.2220438739
 40
0.3126234976
100
AcDbArc
 50
126.1080452047
 51
130.8085261291
  0
ARC
  5
41E
100
AcDbEntity
  8
0
100
AcDbCircle
 62
253
  6
CONTINUOUS
 10
-5.1526790979
 20
-0.6182142787
 40
0.2500059366
100
AcDbArc
 50
355.0091667459
 51
0.0137705527
  0
ARC
  5
41F
100
AcDbEntity
  8
0
100
AcDbCircle
 62
7
  6
CONTINUOUS
 10
-19.1377605336
 20
3.9989933266
 40
0.0574681028
100
AcDbArc
 50
307.3098508762
 51
312.7272705473
  0
ARC
  5
420
100
AcDbEntity
  8
RACCORDO
100
AcDbCircle
 62
253
  6
CONTINUOUS
 10
3.8196531961
 20
-9.3499257566
 40
22.657355776
100
AcDbArc
 50
204.0562653894
 51
204.7625066938
  0
ARC
  5
421
100
AcDbEntity
  8
ASSI
100
AcDbCircle
 62
253
  6
CONTINUOUS
 10
3.8196531961
 20
-9.3499257566
 40
22.657355776
100
AcDbArc
 50
204.0562653894
 51
204.7625066938
  0
ARC
  5
422
100
AcDbEntity
  8
0
100
AcDbCircle
 62
253
  6
CONTINUOUS
 10
4.0760486355
 20
-13.8780435264
 40
1.6202307411
100
AcDbArc
 50
296.1612369353
 51
299.564178591
  0
ARC
  5
423
100
AcDbEntity
  8
0
100
AcDbCircle
 62
7
  6
CONTINUOUS
 10
2.1578505482
 20
-15.0671564393
 40
1.408142199
100
AcDbArc
 50
299.7842693699
 51
302.2212971932
  0
ARC
  5
424
100
AcDbEntity
  8
0
100
AcDbCircle
 62
7
  6
CONTINUOUS
 10
2.1588131714
 20
-15.0687832502
 40
1.4062521177
100
AcDbArc
 50
296.5658382495
 51
299.7831543204
  0
ARC
  5
425
100
AcDbEntity
  8
RACCORDO
100
AcDbCircle
 62
253
  6
CONTINUOUS
 10
25.3960228825
 20
0.5755052717
 40
46.4071686971
100
AcDbArc
 50
204.732098922
 51
204.9096488755
  0
ARC
  5
426
100
AcDbEntity
  8
ASSI
100
AcDbCircle
 62
7
  6
CONTINUOUS
 10
3.0022302464
 20
0.7326168146
 40
6.795799524
100
AcDbArc
 50
167.2136830961
 51
167.6447031784
  0
ARC
  5
427
100
AcDbEntity
  8
0
100
AcDbCircle
 62
253
  6
CONTINUOUS
 10
3.0391505967
 20
1.7127920058
 40
0.7260251537
100
AcDbArc
 50
294.19685017
 51
294.8311231067
  0
ARC
  5
428
100
AcDbEntity
  8
0
100
AcDbCircle
 62
7
  6
CONTINUOUS
 10
3.2212416339
 20
2.917273043
 40
0.1943682586
100
AcDbArc
 50
357.0672510898
 51
0.4126098041
  0
SPLINE
  5
429
100
AcDbEntity
  8
0
100
AcDbSpline
 62
7
  6
CONTINUOUS
 70
0
 71
3
 72
13
 73
9
 74
7
 42
0.0000001
 43
0.0000001
 44
0.0000000001
 12
0.0649516613
 22
-0.8767758462
 32
0.0
 13
-0.8764965438
 23
-0.0686178656
 33
0.0
 40
0.0
 40
0.0
 40
0.0
 40
0.0
 40
0.1224249202
 40
0.254983645
 40
0.5313516649
 40
0.6655056459
 40
0.7903311274
 40
1.0
 40
1.0
 40
1.0
 40
1.0
 10
-6.5863507661
 20
-36.2254845182
 30
0.0
 10
-6.5837001987
 20
-36.2612642559
 30
0.0
 10
-6.5866432436
 20
-36.3365366403
 30
0.0
 10
-6.620214334
 20
-36.4890990972
 30
0.0
 10
-6.6904881137
 20
-36.6351568358
 30
0.0
 10
-6.7893716542
 20
-36.7579615602
 30
0.0
 10
-6.8921696352
 20
-36.8487927949
 30
0.0
 10
-6.9864723848
 20
-36.8928615542
 30
0.0
 10
-7.0477303988
 20
-36.897657231
 30
0.0
 11
-6.5863507661
 21
-36.2254845182
 31
0.0
 11
-6.5895615711
 21
-36.3330699584
 31
0.0
 11
-6.6139738026
 21
-36.4470272252
 31
0.0
 11
-6.7191811586
 21
-36.6660457863
 31
0.0
 11
-6.7935020138
 21
-36.7576290769
 31
0.0
 11
-6.8764741717
 21
-36.8294575984
 31
0.0
 11
-7.0477303988
 21
-36.897657231
 31
0.0
  0
SPLINE
  5
42A
100
AcDbEntity
  8
0
100
AcDbSpline
 62
7
  6
CONTINUOUS
 70
0
 71
3
 72
11
 73
7
 74
5
 42
0.0000001
 43
0.0000001
 44
0.0000000001
 12
-0.3287387305
 22
0.1643101894
 32
0.0
 13
-0.2702345672
 23
-0.2490788429
 33
0.0
 40
0.0
 40
0.0
 40
0.0
 40
0.0
 40
0.2111742419
 40
0.4423698987
 40
0.7048858796
 40
1.0
 40
1.0
 40
1.0
 40
1.0
 10
-6.7133644376
 20
5.8449684133
 30
0.0
 10
-6.7365048217
 20
5.8565344398
 30
0.0
 10
-6.7907780929
 20
5.8702242299
 30
0.0
 10
-6.8778730729
 20
5.8581228982
 30
0.0
 10
-6.9666238024
 20
5.8173660903
 30
0.0
 10
-7.0211470533
 20
5.7753142424
 30
0.0
 10
-7.0477303988
 20
5.7508120145
 30
0.0
 11
-6.7133644376
 21
5.8449684133
 31
0.0
 11
-6.7884095641
 21
5.86475432
 31
0.0
 11
-6.8728069459
 21
5.8549254847
 31
0.0
 11
-6.9611353884
 21
5.8161159581
 31
0.0
 11
-7.0477303988
 21
5.7508120145
 31
0.0
  0
SPLINE
  5
42B
100
AcDbEntity
  8
RACCORDO
100
AcDbSpline
 62
7
  6
CONTINUOUS
 70
0
 71
3
 72
9
 73
5
 74
3
 42
0.0000001
 43
0.0000001
 44
0.0000000001
 12
-0.0341410192
 22
-0.0314682376
 32
0.0
 13
-0.0290182374
 23
-0.0362463938
 33
0.0
 40
0.0
 40
0.0
 40
0.0
 40
0.0
 40
0.255416876
 40
1.0
 40
1.0
 40
1.0
 40
1.0
 10
-15.909015338
 20
6.1283238026
 30
0.0
 10
-15.9119220688
 20
6.1256446296
 30
0.0
 10
-15.9231143627
 20
6.1149541318
 30
0.0
 10
-15.9335411153
 20
6.1034535142
 30
0.0
 10
-15.9407432786
 20
6.0944573632
 30
0.0
 11
-15.909015338
 21
6.1283238026
 31
0.0
 11
-15.9175895281
 21
6.1201307121
 31
0.0
 11
-15.9407432786
 21
6.0944573632
 31
0.0
  0
SPLINE
  5
42C
100
AcDbEntity
  8
RACCORDO
100
AcDbSpline
 62
7
  6
CONTINUOUS
 70
0
 71
3
 72
9
 73
5
 74
3
 42
0.0000001
 43
0.0000001
 44
0.0000000001
 12
-0.108164437
 22
0.0540822185
 32
0.0
 13
-0.0342967848
 23
0.1159662121
 33
0.0
 40
0.0
 40
0.0
 40
0.0
 40
0.0
 40
0.2974129633
 40
1.0
 40
1.0
 40
1.0
 40
1.0
 10
-15.7913920654
 20
6.0747153425
 30
0.0
 10
-15.802115234
 20
6.0800769268
 30
0.0
 10
-15.836732908
 20
6.099892052
 30
0.0
 10
-15.8679976958
 20
6.1316717666
 30
0.0
 10
-15.8760298546
 20
6.1588305524
 30
0.0
 11
-15.7913920654
 21
6.0747153425
 31
0.0
 11
-15.8224101462
 21
6.0929217984
 31
0.0
 11
-15.8760298546
 21
6.1588305524
 31
0.0
  0
SPLINE
  5
42D
100
AcDbEntity
  8
RACCORDO
100
AcDbSpline
 62
7
  6
CONTINUOUS
 70
0
 71
3
 72
8
 73
4
 74
2
 42
0.0000001
 43
0.0000001
 44
0.0000000001
 12
-0.0062924021
 22
0.0212762228
 32
0.0
 13
0.0
 23
0.0221872031
 33
0.0
 40
0.0
 40
0.0
 40
0.0
 40
0.0
 40
1.0
 40
1.0
 40
1.0
 40
1.0
 10
-15.8760298546
 20
6.1588305524
 30
0.0
 10
-15.878127322
 20
6.1659226267
 30
0.0
 10
-15.8792600311
 20
6.1733856254
 30
0.0
 10
-15.8792600311
 20
6.1807813597
 30
0.0
 11
-15.8760298546
 21
6.1588305524
 31
0.0
 11
-15.8792600311
 21
6.1807813597
 31
0.0
  0
SPLINE
  5
42E
100
AcDbEntity
  8
0
100
AcDbSpline
 62
7
  6
CONTINUOUS
 70
0
 71
3
 72
11
 73
7
 74
5
 42
0.0000001
 43
0.0000001
 44
0.0000000001
 12
0.0239865085
 22
0.3477779392
 32
0.0
 13
-0.3118234723
 23
0.1558556052
 33
0.0
 40
0.0
 40
0.0
 40
0.0
 40
0.0
 40
0.2934874684
 40
0.5551153077
 40
0.78690814
 40
1.0
 40
1.0
 40
1.0
 40
1.0
 10
-6.5863507661
 20
5.5400189345
 30
0.0
 10
-6.5840041862
 20
5.5740417568
 30
0.0
 10
-6.5851609026
 20
5.6390383975
 30
0.0
 10
-6.607289885
 20
5.7287384056
 30
0.0
 10
-6.6494597042
 20
5.8008342257
 30
0.0
 10
-6.6912154231
 20
5.833897893
 30
0.0
 10
-6.7133644376
 20
5.8449684133
 30
0.0
 11
-6.5863507661
 21
5.5400189345
 31
0.0
 11
-6.5892674479
 21
5.6422882987
 31
0.0
 11
-6.6125078201
 21
5.7304821462
 31
0.0
 11
-6.6547025762
 21
5.7993942605
 31
0.0
 11
-6.7133644376
 21
5.8449684133
 31
0.0
  0
SPLINE
  5
42F
100
AcDbEntity
  8
RACCORDO
100
AcDbSpline
 62
7
  6
CONTINUOUS
 70
0
 71
3
 72
8
 73
4
 74
2
 42
0.0000001
 43
0.0000001
 44
0.0000000001
 12
0.0204829198
 22
0.3071333517
 32
0.0
 13
0.1968124251
 23
0.2366755481
 33
0.0
 40
0.0
 40
0.0
 40
0.0
 40
0.0
 40
1.0
 40
1.0
 40
1.0
 40
1.0
 10
-26.5598604212
 20
1.1033190286
 30
0.0
 10
-26.5530327813
 20
1.2056968125
 30
0.0
 10
-26.5112549735
 20
1.3102708698
 30
0.0
 10
-26.4456508318
 20
1.3891627192
 30
0.0
 11
-26.5598604212
 21
1.1033190286
 31
0.0
 11
-26.4456508318
 21
1.3891627192
 31
0.0
  0
SPLINE
  5
430
100
AcDbEntity
  8
RACCORDO
100
AcDbSpline
 62
7
  6
CONTINUOUS
 70
0
 71
3
 72
9
 73
5
 74
3
 42
0.0000001
 43
0.0000001
 44
0.0000000001
 12
0.4054930855
 22
-0.2034456682
 32
0.0
 13
0.4088017637
 23
0.1967127354
 33
0.0
 40
0.0
 40
0.0
 40
0.0
 40
0.0
 40
0.4998676382
 40
1.0
 40
1.0
 40
1.0
 40
1.0
 10
-13.4074011351
 20
-37.1770436403
 30
0.0
 10
-13.3398368448
 20
-37.2109422755
 30
0.0
 10
-13.1871235715
 20
-37.2486983537
 30
0.0
 10
-13.0337868536
 20
-37.213506592
 30
0.0
 10
-12.9656351897
 20
-37.180712457
 30
0.0
 11
-13.4074011351
 21
-37.1770436403
 31
0.0
 11
-13.1870082197
 21
-37.230461053
 31
0.0
 11
-12.9656351897
 21
-37.180712457
 31
0.0
  0
SPLINE
  5
431
100
AcDbEntity
  8
RACCORDO
100
AcDbSpline
 62
7
  6
CONTINUOUS
 70
0
 71
3
 72
14
 73
10
 74
8
 42
0.0000001
 43
0.0000001
 44
0.0000000001
 12
-3.241391038
 22
10.3729472262
 32
0.0
 13
-9.8251957065
 23
-4.6443707162
 33
0.0
 40
0.0
 40
0.0
 40
0.0
 40
0.0
 40
0.3020416031
 40
0.4493642259
 40
0.5875379663
 40
0.7125532
 40
0.8219059818
 40
0.9162327505
 40
1.0
 40
1.0
 40
1.0
 40
1.0
 10
-17.0479372796
 20
-18.4345641394
 30
0.0
 10
-17.3742822614
 20
-17.3902102695
 30
0.0
 10
-18.0852774007
 20
-15.8949972938
 30
0.0
 10
-19.3769818605
 20
-14.1972287465
 30
0.0
 10
-20.4503200183
 20
-13.1579879495
 30
0.0
 10
-21.5756044756
 20
-12.3982518525
 30
0.0
 10
-22.6923926635
 20
-11.9529671273
 30
0.0
 10
-23.7437828941
 20
-11.8405140243
 30
0.0
 10
-24.3866282944
 20
-12.0005513746
 30
0.0
 10
-24.660971501
 20
-12.1302334281
 30
0.0
 11
-17.0479372796
 21
-18.4345641394
 31
0.0
 11
-18.4551934924
 21
-15.4690600634
 31
0.0
 11
-19.4287307976
 21
-14.1980120133
 31
0.0
 11
-20.5141708255
 21
-13.1603840158
 31
0.0
 11
-21.6480597648
 21
-12.4119651157
 31
0.0
 11
-22.7587127541
 21
-11.9891779466
 31
0.0
 11
-23.7800031441
 21
-11.9008223903
 31
0.0
 11
-24.660971501
 21
-12.1302334281
 31
0.0
  0
SPLINE
  5
432
100
AcDbEntity
  8
RACCORDO
100
AcDbSpline
 62
7
  6
CONTINUOUS
 70
0
 71
3
 72
9
 73
5
 74
3
 42
0.0000001
 43
0.0000001
 44
0.0000000001
 12
1.0840784102
 22
0.5722953012
 32
0.0
 13
0.7074684298
 23
1.0011175416
 33
0.0
 40
0.0
 40
0.0
 40
0.0
 40
0.0
 40
0.4852714416
 40
1.0
 40
1.0
 40
1.0
 40
1.0
 10
-18.2552361761
 20
-24.9417038514
 30
0.0
 10
-18.0798787451
 20
-24.8491309961
 30
0.0
 10
-17.7416707915
 20
-24.6114843231
 30
0.0
 10
-17.4705229194
 20
-24.3005796155
 30
0.0
 10
-17.3491381844
 20
-24.1288116859
 30
0.0
 11
-18.2552361761
 21
-24.9417038514
 31
0.0
 11
-17.7674252922
 21
-24.6012332937
 31
0.0
 11
-17.3491381844
 21
-24.1288116859
 31
0.0
  0
SPLINE
  5
433
100
AcDbEntity
  8
RACCORDO
100
AcDbSpline
 62
7
  6
CONTINUOUS
 70
0
 71
3
 72
9
 73
5
 74
3
 42
0.0000001
 43
0.0000001
 44
0.0000000001
 12
0.2493097592
 22
0.3527908281
 32
0.0
 13
0.2017935374
 23
0.3819634704
 33
0.0
 40
0.0
 40
0.0
 40
0.0
 40
0.0
 40
0.2443402851
 40
1.0
 40
1.0
 40
1.0
 40
1.0
 10
-17.3491381844
 20
-24.1288116859
 30
0.0
 10
-17.3288327119
 20
-24.1000780154
 30
0.0
 10
-17.2477354825
 20
-23.9810712307
 30
0.0
 10
-17.1746393091
 20
-23.8566526901
 30
0.0
 10
-17.1238102268
 20
-23.7604412211
 30
0.0
 11
-17.3491381844
 21
-24.1288116859
 31
0.0
 11
-17.289679752
 21
-24.0415986184
 31
0.0
 11
-17.1238102268
 21
-23.7604412211
 31
0.0
  0
SPLINE
  5
434
100
AcDbEntity
  8
RACCORDO
100
AcDbSpline
 62
7
  6
CONTINUOUS
 70
0
 71
3
 72
9
 73
5
 74
3
 42
0.0000001
 43
0.0000001
 44
0.0000000001
 12
-1.4353586875
 22
-0.7457925937
 32
0.0
 13
0.0049763131
 23
-1.6175402286
 33
0.0
 40
0.0
 40
0.0
 40
0.0
 40
0.0
 40
0.4998440846
 40
1.0
 40
1.0
 40
1.0
 40
1.0
 10
-26.4237441945
 20
-0.1371849947
 30
0.0
 10
-26.6628960443
 20
-0.2614450002
 30
0.0
 10
-27.0807156095
 20
-0.6490752347
 30
0.0
 10
-27.2329175539
 20
-1.198957052
 30
0.0
 10
-27.2320879097
 20
-1.4686311566
 30
0.0
 11
-26.4237441945
 21
-0.1371849947
 31
0.0
 11
-27.0142223227
 21
-0.6894919618
 31
0.0
 11
-27.2320879097
 21
-1.4686311566
 31
0.0
  0
SPLINE
  5
435
100
AcDbEntity
  8
RACCORDO
100
AcDbSpline
 62
7
  6
CONTINUOUS
 70
0
 71
3
 72
8
 73
4
 74
2
 42
0.0000001
 43
0.0000001
 44
0.0000000001
 12
-0.6455618492
 22
0.3227755072
 32
0.0
 13
-0.4210845652
 23
0.5861927313
 33
0.0
 40
0.0
 40
0.0
 40
0.0
 40
0.0
 40
1.0
 40
1.0
 40
1.0
 40
1.0
 10
-26.400430302
 20
-31.3514052011
 30
0.0
 10
-26.6156175851
 20
-31.2438133654
 30
0.0
 10
-26.8102984388
 20
-31.0797038035
 30
0.0
 10
-26.9506599605
 20
-30.8843062264
 30
0.0
 11
-26.400430302
 21
-31.3514052011
 31
0.0
 11
-26.9506599605
 21
-30.8843062264
 31
0.0
  0
SPLINE
  5
436
100
AcDbEntity
  8
RACCORDO
100
AcDbSpline
 62
7
  6
CONTINUOUS
 70
0
 71
3
 72
9
 73
5
 74
3
 42
0.0000001
 43
0.0000001
 44
0.0000000001
 12
-0.541651998
 22
0.7540349144
 32
0.0
 13
-0.0018269696
 23
0.9284138093
 33
0.0
 40
0.0
 40
0.0
 40
0.0
 40
0.0
 40
0.4991195173
 40
1.0
 40
1.0
 40
1.0
 40
1.0
 10
-26.9506599605
 20
-30.8843062264
 30
0.0
 10
-27.0407763218
 20
-30.7588550456
 30
0.0
 10
-27.1834678922
 20
-30.4777273593
 30
0.0
 10
-27.2310289777
 20
-30.1662147241
 30
0.0
 10
-27.2313340088
 20
-30.0112066051
 30
0.0
 11
-26.9506599605
 21
-30.8843062264
 31
0.0
 11
-27.159517683
 21
-30.4706529081
 31
0.0
 11
-27.2313340088
 21
-30.0112066051
 31
0.0
  0
SPLINE
  5
437
100
AcDbEntity
  8
RACCORDO
100
AcDbSpline
 62
253
  6
CONTINUOUS
 70
0
 71
3
 72
11
 73
7
 74
5
 42
0.0000001
 43
0.0000001
 44
0.0000000001
 12
-6.887897492
 22
3.4439486231
 32
0.0
 13
-2.2968874179
 23
7.3503892529
 33
0.0
 40
0.0
 40
0.0
 40
0.0
 40
0.0
 40
0.2241932091
 40
0.4728708021
 40
0.7357969835
 40
1.0
 40
1.0
 40
1.0
 40
1.0
 10
-21.5111459132
 20
-24.7653831405
 30
0.0
 10
-22.0258858609
 20
-24.5080131759
 30
0.0
 10
-23.0331396944
 20
-23.8046625994
 30
0.0
 10
-24.3247099652
 20
-22.4119484471
 30
0.0
 10
-25.3983288408
 20
-20.7228167064
 30
0.0
 10
-25.921213724
 20
-19.4659186536
 30
0.0
 10
-26.1234952521
 20
-18.8185869826
 30
0.0
 11
-21.5111459132
 21
-24.7653831405
 31
0.0
 11
-22.9411531146
 21
-23.7979907611
 31
0.0
 11
-24.2547982432
 21
-22.4045336027
 31
0.0
 11
-25.3451628892
 21
-20.6984283887
 31
0.0
 11
-26.1234952521
 21
-18.8185869826
 31
0.0
  0
SPLINE
  5
438
100
AcDbEntity
  8
RACCORDO
100
AcDbSpline
 62
253
  6
CONTINUOUS
 70
0
 71
3
 72
13
 73
9
 74
7
 42
0.0000001
 43
0.0000001
 44
0.0000000001
 12
-1.5436192283
 22
4.9399092073
 32
0.0
 13
2.14147319
 23
4.7116404653
 33
0.0
 40
0.0
 40
0.0
 40
0.0
 40
0.0
 40
0.2874328234
 40
0.5603967827
 40
0.6828130101
 40
0.794186295
 40
0.8978900142
 40
1.0
 40
1.0
 40
1.0
 40
1.0
 10
-26.1234952521
 20
-18.8185869826
 30
0.0
 10
-26.2713908631
 20
-18.3452896324
 30
0.0
 10
-26.3918005654
 20
-17.3734437028
 30
0.0
 10
-26.3828073233
 20
-16.1974775384
 30
0.0
 10
-26.3851414667
 20
-15.3230805408
 30
0.0
 10
-26.3714528474
 20
-14.7407482084
 30
0.0
 10
-26.304393113
 20
-14.1961329377
 30
0.0
 10
-26.1963838511
 20
-13.8544115488
 30
0.0
 10
-26.1234952521
 20
-13.6940430351
 30
0.0
 11
-26.1234952521
 21
-18.8185869826
 31
0.0
 11
-26.3612907575
 21
-17.3501167789
 31
0.0
 11
-26.3841745403
 21
-15.9375860462
 31
0.0
 11
-26.38229724
 21
-15.3040276275
 31
0.0
 11
-26.3612878354
 21
-14.7280018277
 31
0.0
 11
-26.2876814614
 21
-14.1963578378
 31
0.0
 11
-26.1234952521
 21
-13.6940430351
 31
0.0
  0
SPLINE
  5
439
100
AcDbEntity
  8
RACCORDO
100
AcDbSpline
 62
253
  6
CONTINUOUS
 70
0
 71
3
 72
9
 73
5
 74
3
 42
0.0000001
 43
0.0000001
 44
0.0000000001
 12
0.8999336352
 22
1.9799909293
 32
0.0
 13
1.9660328144
 23
0.9300320428
 33
0.0
 40
0.0
 40
0.0
 40
0.0
 40
0.0
 40
0.5190206697
 40
1.0
 40
1.0
 40
1.0
 40
1.0
 10
-26.1234952521
 20
-13.6940430351
 30
0.0
 10
-25.9678005328
 20
-13.3514909624
 30
0.0
 10
-25.5738058327
 20
-12.7257801359
 30
0.0
 10
-24.9766116579
 20
-12.2796140574
 30
0.0
 10
-24.6614046091
 20
-12.1305053277
 30
0.0
 11
-26.1234952521
 21
-13.6940430351
 31
0.0
 11
-25.5040793732
 21
-12.7503434631
 31
0.0
 11
-24.6614046091
 21
-12.1305053277
 31
0.0
  0
SPLINE
  5
43A
100
AcDbEntity
  8
RACCORDO
100
AcDbSpline
 62
7
  6
CONTINUOUS
 70
0
 71
3
 72
8
 73
4
 74
2
 42
0.0000001
 43
0.0000001
 44
0.0000000001
 12
-0.0789400319
 22
0.044643305
 32
0.0
 13
-0.0426956698
 23
0.0800102062
 33
0.0
 40
0.0
 40
0.0
 40
0.0
 40
0.0
 40
1.0
 40
1.0
 40
1.0
 40
1.0
 10
-15.746639722
 20
-1.2282518944
 30
0.0
 10
-15.7729530659
 20
-1.2133707927
 30
0.0
 10
-15.7947184291
 20
-1.189028543
 30
0.0
 10
-15.808950319
 20
-1.1623584742
 30
0.0
 11
-15.746639722
 21
-1.2282518944
 31
0.0
 11
-15.808950319
 21
-1.1623584742
 31
0.0
  0
SPLINE
  5
43B
100
AcDbEntity
  8
RACCORDO
100
AcDbSpline
 62
7
  6
CONTINUOUS
 70
0
 71
3
 72
8
 73
4
 74
2
 42
0.0000001
 43
0.0000001
 44
0.0000000001
 12
-0.1873998154
 22
0.0942811638
 32
0.0
 13
-0.1547703908
 23
0.1416112805
 33
0.0
 40
0.0
 40
0.0
 40
0.0
 40
0.0
 40
1.0
 40
1.0
 40
1.0
 40
1.0
 10
-22.6486865988
 20
2.2225356901
 30
0.0
 10
-22.7111532039
 20
2.2539627447
 30
0.0
 10
-22.7686419649
 20
2.2960786537
 30
0.0
 10
-22.8202320952
 20
2.3432824139
 30
0.0
 11
-22.6486865988
 21
2.2225356901
 31
0.0
 11
-22.8202320952
 21
2.3432824139
 31
0.0
  0
SPLINE
  5
43C
100
AcDbEntity
  8
RACCORDO
100
AcDbSpline
 62
7
  6
CONTINUOUS
 70
0
 71
3
 72
9
 73
5
 74
3
 42
0.0000001
 43
0.0000001
 44
0.0000000001
 12
-0.0922277911
 22
0.0461809622
 32
0.0
 13
-0.0512877107
 23
0.0894886443
 33
0.0
 40
0.0
 40
0.0
 40
0.0
 40
0.0
 40
0.7369452253
 40
1.0
 40
1.0
 40
1.0
 40
1.0
 10
-22.1119965164
 20
1.954219254
 30
0.0
 10
-22.1346521265
 20
1.9655635339
 30
0.0
 10
-22.1617853402
 20
1.9891822883
 30
0.0
 10
-22.1806752862
 20
2.0179057838
 30
0.0
 10
-22.1851724452
 20
2.0257525889
 30
0.0
 11
-22.1119965164
 21
1.954219254
 31
0.0
 11
-22.1701666891
 21
2.0031473155
 31
0.0
 11
-22.1851724452
 21
2.0257525889
 31
0.0
  0
SPLINE
  5
43D
100
AcDbEntity
  8
RACCORDO
100
AcDbSpline
 62
7
  6
CONTINUOUS
 70
0
 71
3
 72
9
 73
5
 74
3
 42
0.0000001
 43
0.0000001
 44
0.0000000001
 12
0.0003685952
 22
-0.1935863715
 32
0.0
 13
0.0549095595
 23
-0.1856360939
 33
0.0
 40
0.0
 40
0.0
 40
0.0
 40
0.0
 40
0.2421834581
 40
1.0
 40
1.0
 40
1.0
 40
1.0
 10
-15.204168002
 20
-36.7633654249
 30
0.0
 10
-15.2041382461
 20
-36.7789932305
 30
0.0
 10
-15.201050133
 20
-36.843513572
 30
0.0
 10
-15.1877611266
 20
-36.9072845385
 30
0.0
 10
-15.1738906691
 20
-36.9541772394
 30
0.0
 11
-15.204168002
 21
-36.7633654249
 31
0.0
 11
-15.2020441551
 21
-36.8102007964
 31
0.0
 11
-15.1738906691
 21
-36.9541772394
 31
0.0
  0
SPLINE
  5
43E
100
AcDbEntity
  8
RACCORDO
100
AcDbSpline
 62
253
  6
CONTINUOUS
 70
0
 71
3
 72
9
 73
5
 74
3
 42
0.0000001
 43
0.0000001
 44
0.0000000001
 12
-0.3931233058
 22
-0.3393569162
 32
0.0
 13
0.1946282821
 23
-0.4814861181
 33
0.0
 40
0.0
 40
0.0
 40
0.0
 40
0.0
 40
0.4657874727
 40
1.0
 40
1.0
 40
1.0
 40
1.0
 10
-26.3743764639
 20
1.458667915
 30
0.0
 10
-26.4354137676
 20
1.4059785149
 30
0.0
 10
-26.5197261163
 20
1.2358906928
 30
0.0
 10
-26.487061311
 20
1.0560943374
 30
0.0
 10
-26.4524036889
 20
0.9703556987
 30
0.0
 11
-26.3743764639
 21
1.458667915
 31
0.0
 11
-26.4885779134
 21
1.2454226177
 31
0.0
 11
-26.4524036889
 21
0.9703556987
 31
0.0
  0
SPLINE
  5
43F
100
AcDbEntity
  8
RACCORDO
100
AcDbSpline
 62
253
  6
CONTINUOUS
 70
0
 71
3
 72
9
 73
5
 74
3
 42
0.0000001
 43
0.0000001
 44
0.0000000001
 12
0.0013296391
 22
-0.2364684883
 32
0.0
 13
0.2115071893
 23
-0.1057535947
 33
0.0
 40
0.0
 40
0.0
 40
0.0
 40
0.0
 40
0.2095695942
 40
1.0
 40
1.0
 40
1.0
 40
1.0
 10
-26.5611033245
 20
1.0690686583
 30
0.0
 10
-26.5610104405
 20
1.0525497899
 30
0.0
 10
-26.5436637481
 20
0.9732512193
 30
0.0
 10
-26.4703264211
 20
0.9208617351
 30
0.0
 10
-26.4145991833
 20
0.8929981162
 30
0.0
 11
-26.5611033245
 21
1.0690686583
 31
0.0
 11
-26.551280686
 21
1.0204944827
 31
0.0
 11
-26.4145991833
 21
0.8929981162
 31
0.0
  0
SPLINE
  5
440
100
AcDbEntity
  8
RACCORDO
100
AcDbSpline
 62
253
  6
CONTINUOUS
 70
0
 71
3
 72
9
 73
5
 74
3
 42
0.0000001
 43
0.0000001
 44
0.0000000001
 12
0.1420339511
 22
0.073007131
 32
0.0
 13
0.1546511366
 23
-0.0398335336
 33
0.0
 40
0.0
 40
0.0
 40
0.0
 40
0.0
 40
0.2379978134
 40
1.0
 40
1.0
 40
1.0
 40
1.0
 10
-24.3990304808
 20
2.8846803099
 30
0.0
 10
-24.3877625576
 20
2.8904721558
 30
0.0
 10
-24.3379046657
 20
2.910090577
 30
0.0
 10
-24.2812410988
 20
2.9075192283
 30
0.0
 10
-24.2419595973
 20
2.8974014817
 30
0.0
 11
-24.3990304808
 21
2.8846803099
 31
0.0
 11
-24.3636449255
 21
2.8985535442
 31
0.0
 11
-24.2419595973
 21
2.8974014817
 31
0.0
  0
SPLINE
  5
441
100
AcDbEntity
  8
RACCORDO
100
AcDbSpline
 62
253
  6
CONTINUOUS
 70
0
 71
3
 72
8
 73
4
 74
2
 42
0.0000001
 43
0.0000001
 44
0.0000000001
 12
-0.1269987261
 22
-0.0926860615
 32
0.0
 13
-0.0691503589
 23
-0.141200603
 33
0.0
 40
0.0
 40
0.0
 40
0.0
 40
0.0
 40
1.0
 40
1.0
 40
1.0
 40
1.0
 10
-24.463690803
 20
2.8448225299
 30
0.0
 10
-24.5060237117
 20
2.8139271761
 30
0.0
 10
-24.5411425592
 20
2.7709813524
 30
0.0
 10
-24.5641926789
 20
2.7239144847
 30
0.0
 11
-24.463690803
 21
2.8448225299
 31
0.0
 11
-24.5641926789
 21
2.7239144847
 31
0.0
  0
SPLINE
  5
442
100
AcDbEntity
  8
RACCORDO
100
AcDbSpline
 62
253
  6
CONTINUOUS
 70
0
 71
3
 72
8
 73
4
 74
2
 42
0.0000001
 43
0.0000001
 44
0.0000000001
 12
-0.0319497837
 22
-0.0652394115
 32
0.0
 13
-0.0185600136
 23
-0.0702317263
 33
0.0
 40
0.0
 40
0.0
 40
0.0
 40
0.0
 40
1.0
 40
1.0
 40
1.0
 40
1.0
 10
-24.5641926789
 20
2.7239144847
 30
0.0
 10
-24.5748426068
 20
2.7021680143
 30
0.0
 10
-24.5832280271
 20
2.6792015017
 30
0.0
 10
-24.5894146983
 20
2.6557909263
 30
0.0
 11
-24.5641926789
 21
2.7239144847
 31
0.0
 11
-24.5894146983
 21
2.6557909263
 31
0.0
  0
SPLINE
  5
443
100
AcDbEntity
  8
RACCORDO
100
AcDbSpline
 62
253
  6
CONTINUOUS
 70
0
 71
3
 72
9
 73
5
 74
3
 42
0.0000001
 43
0.0000001
 44
0.0000000001
 12
-0.1031790327
 22
-0.3904329889
 32
0.0
 13
0.2025586643
 23
-0.3493620173
 33
0.0
 40
0.0
 40
0.0
 40
0.0
 40
0.0
 40
0.2357524014
 40
1.0
 40
1.0
 40
1.0
 40
1.0
 10
-24.5894146983
 20
2.6557909263
 30
0.0
 10
-24.5975229332
 20
2.625109088
 30
0.0
 10
-24.6163917314
 20
2.4908728956
 30
0.0
 10
-24.5754912802
 20
2.3522798678
 30
0.0
 10
-24.5238896227
 20
2.2632801736
 30
0.0
 11
-24.5894146983
 21
2.6557909263
 31
0.0
 11
-24.6030977354
 21
2.5615739292
 31
0.0
 11
-24.5238896227
 21
2.2632801736
 31
0.0
  0
SPLINE
  5
444
100
AcDbEntity
  8
RACCORDO
100
AcDbSpline
 62
253
  6
CONTINUOUS
 70
0
 71
3
 72
9
 73
5
 74
3
 42
0.0000001
 43
0.0000001
 44
0.0000000001
 12
-0.276988845
 22
0.1406840855
 32
0.0
 13
-0.0
 23
0.3106683636
 33
0.0
 40
0.0
 40
0.0
 40
0.0
 40
0.0
 40
0.4489394015
 40
1.0
 40
1.0
 40
1.0
 40
1.0
 10
-13.4074629126
 20
-37.1771669143
 30
0.0
 10
-13.4489133147
 20
-37.1561140379
 30
0.0
 10
-13.5214820114
 20
-37.0703717645
 30
0.0
 10
-13.5363140205
 20
-36.9642811367
 30
0.0
 10
-13.5363140205
 20
-36.9072154386
 30
0.0
 11
-13.4074629126
 21
-37.1771669143
 31
0.0
 11
-13.5024345769
 21
-37.0750267267
 31
0.0
 11
-13.5363140205
 21
-36.9072154386
 31
0.0
  0
SPLINE
  5
445
100
AcDbEntity
  8
RACCORDO
100
AcDbSpline
 62
253
  6
CONTINUOUS
 70
0
 71
3
 72
11
 73
7
 74
5
 42
0.0000001
 43
0.0000001
 44
0.0000000001
 12
-2.9896819524
 22
-1.5782522432
 32
0.0
 13
-3.0237828603
 23
1.5118913762
 33
0.0
 40
0.0
 40
0.0
 40
0.0
 40
0.0
 40
0.2271368311
 40
0.4644231281
 40
0.7206739237
 40
1.0
 40
1.0
 40
1.0
 40
1.0
 10
-18.2552659582
 20
-24.9416447903
 30
0.0
 10
-18.4816215864
 20
-25.0611378613
 30
0.0
 10
-18.9827578576
 20
-25.2388508923
 30
0.0
 10
-19.8021858929
 20
-25.2901598426
 30
0.0
 10
-20.6659356981
 20
-25.1326912078
 30
0.0
 10
-21.2296054459
 20
-24.9061533691
 30
0.0
 10
-21.5111459132
 20
-24.7653831405
 30
0.0
 11
-18.2552659582
 21
-24.9416447903
 31
0.0
 11
-18.9782467677
 21
-25.200368444
 31
0.0
 11
-19.7784056968
 21
-25.2574430082
 31
0.0
 11
-20.632159859
 21
-25.1105137597
 31
0.0
 11
-21.5111459132
 21
-24.7653831405
 31
0.0
  0
SPLINE
  5
446
100
AcDbEntity
  8
RACCORDO
100
AcDbSpline
 62
253
  6
CONTINUOUS
 70
0
 71
3
 72
11
 73
7
 74
5
 42
0.0000001
 43
0.0000001
 44
0.0000000001
 12
0.8615360196
 22
0.4138566224
 32
0.0
 13
0.0068449573
 23
0.9557587371
 33
0.0
 40
0.0
 40
0.0
 40
0.0
 40
0.0
 40
0.216441358
 40
0.449485216
 40
0.7101485206
 40
1.0
 40
1.0
 40
1.0
 40
1.0
 10
-15.2136581817
 20
-36.2953109085
 30
0.0
 10
-15.1515008397
 20
-36.2654523454
 30
0.0
 10
-15.0334714341
 20
-36.1779961437
 30
0.0
 10
-14.9060040674
 20
-35.9868135445
 30
0.0
 10
-14.8293595974
 20
-35.7466396846
 30
0.0
 10
-14.8128862069
 20
-35.5707471205
 30
0.0
 10
-14.8122248665
 20
-35.4784044258
 30
0.0
 11
-15.2136581817
 21
-36.2953109085
 31
0.0
 11
-15.0464913874
 21
-36.1734467074
 31
0.0
 11
-14.9199464537
 21
-35.9901457881
 31
0.0
 11
-14.8405940282
 21
-35.7539832463
 31
0.0
 11
-14.8122248665
 21
-35.4784044258
 31
0.0
  0
SPLINE
  5
447
100
AcDbEntity
  8
ASSI
100
AcDbSpline
 62
7
  6
CONTINUOUS
 70
0
 71
3
 72
8
 73
4
 74
2
 42
0.0000001
 43
0.0000001
 44
0.0000000001
 12
0.0095944508
 22
0.0501532279
 32
0.0
 13
0.0108874026
 23
0.0498885179
 33
0.0
 40
0.0
 40
0.0
 40
0.0
 40
0.0
 40
1.0
 40
1.0
 40
1.0
 40
1.0
 10
-3.6465347855
 20
2.1367352809
 30
0.0
 10
-3.6433366352
 20
2.1534530236
 30
0.0
 10
-3.639804442
 20
2.1701065847
 30
0.0
 10
-3.6361753077
 20
2.1867360907
 30
0.0
 11
-3.6465347855
 21
2.1367352809
 31
0.0
 11
-3.6361753077
 21
2.1867360907
 31
0.0
  0
SPLINE
  5
448
100
AcDbEntity
  8
ASSI
100
AcDbSpline
 62
7
  6
CONTINUOUS
 70
0
 71
3
 72
9
 73
5
 74
3
 42
0.0000001
 43
0.0000001
 44
0.0000000001
 12
0.067746809
 22
0.3104310558
 32
0.0
 13
0.0346516562
 23
0.3158422601
 33
0.0
 40
0.0
 40
0.0
 40
0.0
 40
0.0
 40
0.2623451464
 40
1.0
 40
1.0
 40
1.0
 40
1.0
 10
-3.6361753077
 20
2.1867360907
 30
0.0
 10
-3.6302509589
 20
2.2138827843
 30
0.0
 10
-3.6064961982
 20
2.3170497963
 30
0.0
 10
-3.5848779305
 20
2.4210752085
 30
0.0
 10
-3.5763576097
 20
2.4987360672
 30
0.0
 11
-3.6361753077
 21
2.1867360907
 31
0.0
 11
-3.6179341106
 21
2.2680725934
 31
0.0
 11
-3.5763576097
 21
2.4987360672
 31
0.0
  0
LINE
  5
449
100
AcDbEntity
  8
RACCORDO
100
AcDbLine
 62
7
  6
CONTINUOUS
 10
-15.808950319
 20
-1.1623584742
 11
-16.1370523463
 21
-0.9802694347
  0
LINE
  5
44A
100
AcDbEntity
  8
RACCORDO
100
AcDbLine
 62
7
  6
CONTINUOUS
 10
-16.1370523463
 20
-0.9802694347
 11
-16.3012141453
 21
-0.889112681
  0
LINE
  5
44B
100
AcDbEntity
  8
RACCORDO
100
AcDbLine
 62
7
  6
CONTINUOUS
 10
-16.3012141453
 20
-0.889112681
 11
-16.7270525493
 21
-0.6524896564
  0
LINE
  5
44C
100
AcDbEntity
  8
RACCORDO
100
AcDbLine
 62
7
  6
CONTINUOUS
 10
-16.7270525493
 20
-0.6524896564
 11
-16.7941401442
 21
-0.6151900168
  0
SPLINE
  5
44D
100
AcDbEntity
  8
RACCORDO
100
AcDbSpline
 62
7
  6
CONTINUOUS
 70
0
 71
3
 72
9
 73
5
 74
3
 42
0.0000001
 43
0.0000001
 44
0.0000000001
 12
-0.030513185
 22
-0.0194713263
 32
0.0
 13
-0.0174889122
 23
-0.0316910864
 33
0.0
 40
0.0
 40
0.0
 40
0.0
 40
0.0
 40
0.7304263183
 40
1.0
 40
1.0
 40
1.0
 40
1.0
 10
-15.2572103016
 20
-1.4382284829
 30
0.0
 10
-15.2646395128
 20
-1.4429692726
 30
0.0
 10
-15.2733134355
 20
-1.4508165704
 30
0.0
 10
-15.2859161772
 20
-1.4552140051
 30
0.0
 10
-15.2874876941
 20
-1.4580616994
 30
0.0
 11
-15.2572103016
 21
-1.4382284829
 31
0.0
 11
-15.2794069494
 21
-1.4525924383
 31
0.0
 11
-15.2874876941
 21
-1.4580616994
 31
0.0
  0
LINE
  5
44E
100
AcDbEntity
  8
RACCORDO
100
AcDbLine
 62
7
  6
CONTINUOUS
 10
-21.1841659799
 20
1.579822901
 11
-21.5183401441
 21
1.7285645844
  0
LINE
  5
44F
100
AcDbEntity
  8
RACCORDO
100
AcDbLine
 62
7
  6
CONTINUOUS
 10
-21.5183401441
 20
1.7285645844
 11
-21.6852374346
 21
1.8028989637
  0
LINE
  5
450
100
AcDbEntity
  8
RACCORDO
100
AcDbLine
 62
7
  6
CONTINUOUS
 10
-21.6852374346
 20
1.8028989637
 11
-22.0975684954
 21
1.9866817023
  0
LINE
  5
451
100
AcDbEntity
  8
RACCORDO
100
AcDbLine
 62
7
  6
CONTINUOUS
 10
-22.0975684954
 20
1.9866817023
 11
-22.1851724452
 21
2.0257525889
  0
SPLINE
  5
452
100
AcDbEntity
  8
RACCORDO
100
AcDbSpline
 62
7
  6
CONTINUOUS
 70
0
 71
3
 72
8
 73
4
 74
2
 42
0.0000001
 43
0.0000001
 44
0.0000000001
 12
-0.1513191141
 22
-0.1776109448
 32
0.0
 13
-0.0742824043
 23
-0.2211905206
 33
0.0
 40
0.0
 40
0.0
 40
0.0
 40
0.0
 40
1.0
 40
1.0
 40
1.0
 40
1.0
 10
-15.6949010633
 20
-36.433089341
 30
0.0
 10
-15.745340768
 20
-36.4922929892
 30
0.0
 10
-15.7841895176
 20
-36.5629172409
 30
0.0
 10
-15.808950319
 20
-36.6366474144
 30
0.0
 11
-15.6949010633
 21
-36.433089341
 31
0.0
 11
-15.808950319
 21
-36.6366474144
 31
0.0
  0
LINE
  5
453
100
AcDbEntity
  8
RACCORDO
100
AcDbLine
 62
7
  6
CONTINUOUS
 10
-16.7941401442
 20
-36.1828094065
 11
-16.4722987279
 21
-36.3311369735
  0
LINE
  5
454
100
AcDbEntity
  8
RACCORDO
100
AcDbLine
 62
7
  6
CONTINUOUS
 10
-16.4722987279
 20
-36.3311369735
 11
-16.1439037183
 21
-36.4824170124
  0
LINE
  5
455
100
AcDbEntity
  8
RACCORDO
100
AcDbLine
 62
7
  6
CONTINUOUS
 10
-16.1439037183
 20
-36.4824170124
 11
-15.808950319
 21
-36.6366474144
  0
SPLINE
  5
456
100
AcDbEntity
  8
RACCORDO
100
AcDbSpline
 62
7
  6
CONTINUOUS
 70
0
 71
3
 72
8
 73
4
 74
2
 42
0.0000001
 43
0.0000001
 44
0.0000000001
 12
-0.1536810839
 22
0.4977135234
 32
0.0
 13
-0.0756451954
 23
0.51537795
 33
0.0
 40
0.0
 40
0.0
 40
0.0
 40
0.0
 40
1.0
 40
1.0
 40
1.0
 40
1.0
 10
-15.1410145251
 20
-1.9460032051
 30
0.0
 10
-15.192241553
 20
-1.7800986973
 30
0.0
 10
-15.2319952365
 20
-1.6100211329
 30
0.0
 10
-15.2572103016
 20
-1.4382284829
 30
0.0
 11
-15.1410145251
 21
-1.9460032051
 31
0.0
 11
-15.2572103016
 21
-1.4382284829
 31
0.0
  0
SPLINE
  5
457
100
AcDbEntity
  8
RACCORDO
100
AcDbSpline
 62
7
  6
CONTINUOUS
 70
0
 71
3
 72
9
 73
5
 74
3
 42
0.0000001
 43
0.0000001
 44
0.0000000001
 12
-0.1588832139
 22
-0.2927488124
 32
0.0
 13
-0.1358526047
 23
-0.3041213781
 33
0.0
 40
0.0
 40
0.0
 40
0.0
 40
0.0
 40
0.2613131483
 40
1.0
 40
1.0
 40
1.0
 40
1.0
 10
-22.853541051
 20
2.2826144069
 30
0.0
 10
-22.8673804753
 20
2.2571147023
 30
0.0
 10
-22.9196985648
 20
2.1591922532
 30
0.0
 10
-22.9690579064
 20
2.0596273955
 30
0.0
 10
-23.0025087507
 20
1.9847439077
 30
0.0
 11
-22.853541051
 21
2.2826144069
 31
0.0
 11
-22.8945212479
 21
2.2058257042
 31
0.0
 11
-23.0025087507
 21
1.9847439077
 31
0.0
  0
SPLINE
  5
458
100
AcDbEntity
  8
RACCORDO
100
AcDbSpline
 62
7
  6
CONTINUOUS
 70
0
 71
3
 72
9
 73
5
 74
3
 42
0.0000001
 43
0.0000001
 44
0.0000000001
 12
0.0767051753
 22
0.3122255757
 32
0.0
 13
0.1286670245
 23
0.2946409524
 33
0.0
 40
0.0
 40
0.0
 40
0.0
 40
0.0
 40
0.2364036729
 40
1.0
 40
1.0
 40
1.0
 40
1.0
 10
-15.1738906691
 20
-36.9541772394
 30
0.0
 10
-15.1678462073
 20
-36.9295734818
 30
0.0
 10
-15.1392210006
 20
-36.8262452895
 30
0.0
 10
-15.1003093027
 20
-36.7260060113
 30
0.0
 10
-15.0675594136
 20
-36.6510104282
 30
0.0
 11
-15.1738906691
 21
-36.9541772394
 31
0.0
 11
-15.1537371213
 21
-36.8808917826
 31
0.0
 11
-15.0675594136
 21
-36.6510104282
 31
0.0
  0
SPLINE
  5
459
100
AcDbEntity
  8
RACCORDO
100
AcDbSpline
 62
253
  6
CONTINUOUS
 70
0
 71
3
 72
9
 73
5
 74
3
 42
0.0000001
 43
0.0000001
 44
0.0000000001
 12
-0.2035448509
 22
-0.1039479508
 32
0.0
 13
-0.145666608
 23
-0.1761162176
 33
0.0
 40
0.0
 40
0.0
 40
0.0
 40
0.0
 40
0.2304036822
 40
1.0
 40
1.0
 40
1.0
 40
1.0
 10
-24.1734215283
 20
2.8715104349
 30
0.0
 10
-24.1890540227
 20
2.8635271046
 30
0.0
 10
-24.254543889
 20
2.8243049353
 30
0.0
 10
-24.3107163222
 20
2.7706726912
 30
0.0
 10
-24.3480844839
 20
2.725493227
 30
0.0
 11
-24.1734215283
 21
2.8715104349
 31
0.0
 11
-24.2187376114
 21
2.844688269
 31
0.0
 11
-24.3480844839
 21
2.725493227
 31
0.0
  0
SPLINE
  5
45A
100
AcDbEntity
  8
RACCORDO
100
AcDbSpline
 62
253
  6
CONTINUOUS
 70
0
 71
3
 72
8
 73
4
 74
2
 42
0.0000001
 43
0.0000001
 44
0.0000000001
 12
-0.1408109001
 22
-0.2158004124
 32
0.0
 13
-0.0641105278
 23
-0.2495743733
 33
0.0
 40
0.0
 40
0.0
 40
0.0
 40
0.0
 40
1.0
 40
1.0
 40
1.0
 40
1.0
 10
-24.3982587637
 20
2.6571874289
 30
0.0
 10
-24.4451957304
 20
2.5852539581
 30
0.0
 10
-24.4811802438
 20
2.504750412
 30
0.0
 10
-24.5025504197
 20
2.4215589542
 30
0.0
 11
-24.3982587637
 21
2.6571874289
 31
0.0
 11
-24.5025504197
 21
2.4215589542
 31
0.0
  0
SPLINE
  5
45B
100
AcDbEntity
  8
RACCORDO
100
AcDbSpline
 62
253
  6
CONTINUOUS
 70
0
 71
3
 72
8
 73
4
 74
2
 42
0.0000001
 43
0.0000001
 44
0.0000000001
 12
-0.0204399733
 22
-0.0795702936
 32
0.0
 13
-0.01103723
 23
-0.0814088674
 33
0.0
 40
0.0
 40
0.0
 40
0.0
 40
0.0
 40
1.0
 40
1.0
 40
1.0
 40
1.0
 10
-24.5025504197
 20
2.4215589542
 30
0.0
 10
-24.5093637441
 20
2.395035523
 30
0.0
 10
-24.514747243
 20
2.368090157
 30
0.0
 10
-24.5184263197
 20
2.3409538679
 30
0.0
 11
-24.5025504197
 21
2.4215589542
 31
0.0
 11
-24.5184263197
 21
2.3409538679
 31
0.0
  0
SPLINE
  5
45C
100
AcDbEntity
  8
RACCORDO
100
AcDbSpline
 62
253
  6
CONTINUOUS
 70
0
 71
3
 72
8
 73
4
 74
2
 42
0.0000001
 43
0.0000001
 44
0.0000000001
 12
-0.0104611339
 22
-0.0771596731
 32
0.0
 13
-0.0
 23
-0.0778655923
 33
0.0
 40
0.0
 40
0.0
 40
0.0
 40
0.0
 40
1.0
 40
1.0
 40
1.0
 40
1.0
 10
-24.5184263197
 20
2.3409538679
 30
0.0
 10
-24.5219133643
 20
2.3152339769
 30
0.0
 10
-24.5238896227
 20
2.289235371
 30
0.0
 10
-24.5238896227
 20
2.2632801736
 30
0.0
 11
-24.5184263197
 21
2.3409538679
 31
0.0
 11
-24.5238896227
 21
2.2632801736
 31
0.0
  0
SPLINE
  5
45D
100
AcDbEntity
  8
RACCORDO
100
AcDbSpline
 62
253
  6
CONTINUOUS
 70
0
 71
3
 72
9
 73
5
 74
3
 42
0.0000001
 43
0.0000001
 44
0.0000000001
 12
-0.644982395
 22
-0.3293848897
 32
0.0
 13
0.0
 23
-0.7242214408
 33
0.0
 40
0.0
 40
0.0
 40
0.0
 40
0.0
 40
0.4883235049
 40
1.0
 40
1.0
 40
1.0
 40
1.0
 10
-13.1858459262
 20
-2.6222773662
 30
0.0
 10
-13.2908326141
 20
-2.6758928275
 30
0.0
 10
-13.4599162493
 20
-2.8673823234
 30
0.0
 10
-13.5363140206
 20
-3.1069852646
 30
0.0
 10
-13.5363140205
 20
-3.2305076275
 30
0.0
 11
-13.1858459262
 21
-2.6222773662
 31
0.0
 11
-13.433865784
 21
-2.8743835958
 31
0.0
 11
-13.5363140205
 21
-3.2305076275
 31
0.0
  0
SPLINE
  5
45E
100
AcDbEntity
  8
RACCORDO
100
AcDbSpline
 62
253
  6
CONTINUOUS
 70
0
 71
3
 72
9
 73
5
 74
3
 42
0.0000001
 43
0.0000001
 44
0.0000000001
 12
-0.6245533516
 22
-0.3131375328
 32
0.0
 13
-0.5657088144
 23
-0.4099945619
 33
0.0
 40
0.0
 40
0.0
 40
0.0
 40
0.0
 40
0.5263158028
 40
1.0
 40
1.0
 40
1.0
 40
1.0
 10
-12.9358554454
 20
-2.8740942615
 30
0.0
 10
-13.0454262116
 20
-2.9290306721
 30
0.0
 10
-13.2483254125
 20
-3.0435355484
 30
0.0
 10
-13.4469915787
 20
-3.1657716458
 30
0.0
 10
-13.5363140205
 20
-3.2305076275
 30
0.0
 11
-12.9358554454
 21
-2.8740942615
 31
0.0
 11
-13.2578317374
 21
-3.0517037365
 31
0.0
 11
-13.5363140205
 21
-3.2305076275
 31
0.0
  0
SPLINE
  5
45F
100
AcDbEntity
  8
RACCORDO
100
AcDbSpline
 62
253
  6
CONTINUOUS
 70
0
 71
3
 72
9
 73
5
 74
3
 42
0.0000001
 43
0.0000001
 44
0.0000000001
 12
-0.6245533516
 22
-0.3131375328
 32
0.0
 13
-0.5657088144
 23
-0.4099945619
 33
0.0
 40
0.0
 40
0.0
 40
0.0
 40
0.0
 40
0.5263158021
 40
1.0
 40
1.0
 40
1.0
 40
1.0
 10
-11.0451458848
 20
-6.1350858794
 30
0.0
 10
-11.1547166509
 20
-6.19002229
 30
0.0
 10
-11.3576158516
 20
-6.3045271665
 30
0.0
 10
-11.5562820179
 20
-6.4267632637
 30
0.0
 10
-11.6456044599
 20
-6.4914992454
 30
0.0
 11
-11.0451458848
 21
-6.1350858794
 31
0.0
 11
-11.3671221763
 21
-6.3126953543
 31
0.0
 11
-11.6456044599
 21
-6.4914992454
 31
0.0
  0
SPLINE
  5
460
100
AcDbEntity
  8
RACCORDO
100
AcDbSpline
 62
253
  6
CONTINUOUS
 70
0
 71
3
 72
9
 73
5
 74
3
 42
0.0000001
 43
0.0000001
 44
0.0000000001
 12
-0.6451137459
 22
-0.3169757563
 32
0.0
 13
-0.6428968037
 23
0.3214484019
 33
0.0
 40
0.0
 40
0.0
 40
0.0
 40
0.0
 40
0.5006103378
 40
1.0
 40
1.0
 40
1.0
 40
1.0
 10
-10.9415964372
 20
-6.4930351624
 30
0.0
 10
-11.0492466406
 20
-6.5459289426
 30
0.0
 10
-11.2938994352
 20
-6.5840324117
 30
0.0
 10
-11.5385857874
 20
-6.5450085817
 30
0.0
 10
-11.6456044599
 20
-6.4914992454
 30
0.0
 11
-10.9415964372
 21
-6.4930351624
 31
0.0
 11
-11.2942064868
 21
-6.5647499964
 31
0.0
 11
-11.6456044599
 21
-6.4914992454
 31
0.0
  0
SPLINE
  5
461
100
AcDbEntity
  8
RACCORDO
100
AcDbSpline
 62
253
  6
CONTINUOUS
 70
0
 71
3
 72
9
 73
5
 74
3
 42
0.0000001
 43
0.0000001
 44
0.0000000001
 12
-0.6451137456
 22
-0.3169757561
 32
0.0
 13
-0.6428968034
 23
0.3214484017
 33
0.0
 40
0.0
 40
0.0
 40
0.0
 40
0.0
 40
0.5006103376
 40
1.0
 40
1.0
 40
1.0
 40
1.0
 10
-10.9415964372
 20
-35.5384692983
 30
0.0
 10
-11.0492466405
 20
-35.5913630783
 30
0.0
 10
-11.2938994351
 20
-35.6294665458
 30
0.0
 10
-11.5385857874
 20
-35.5904427175
 30
0.0
 10
-11.6456044599
 20
-35.5369333813
 30
0.0
 11
-10.9415964372
 21
-35.5384692983
 31
0.0
 11
-11.2942064866
 21
-35.6101841314
 31
0.0
 11
-11.6456044599
 21
-35.5369333813
 31
0.0
  0
SPLINE
  5
462
100
AcDbEntity
  8
RACCORDO
100
AcDbSpline
 62
253
  6
CONTINUOUS
 70
0
 71
3
 72
10
 73
6
 74
4
 42
0.0000001
 43
0.0000001
 44
0.0000000001
 12
-0.6342563937
 22
-0.3084741998
 32
0.0
 13
-0.3537648134
 23
0.6101540475
 33
0.0
 40
0.0
 40
0.0
 40
0.0
 40
0.0
 40
0.2231377721
 40
0.4671199133
 40
1.0
 40
1.0
 40
1.0
 40
1.0
 10
-11.0451458848
 20
-35.7928691337
 30
0.0
 10
-11.0923214043
 20
-35.8158132156
 30
0.0
 10
-11.2048159715
 20
-35.8379134195
 30
0.0
 10
-11.4381444838
 20
-35.7826857569
 30
0.0
 10
-11.5827663851
 20
-35.6453130285
 30
0.0
 10
-11.6456044599
 20
-35.5369333813
 30
0.0
 11
-11.0451458848
 21
-35.7928691337
 31
0.0
 11
-11.1989969603
 21
-35.8259975416
 31
0.0
 11
-11.3671221768
 21
-35.7893230843
 31
0.0
 11
-11.6456044599
 21
-35.5369333813
 31
0.0
  0
SPLINE
  5
463
100
AcDbEntity
  8
RACCORDO
100
AcDbSpline
 62
253
  6
CONTINUOUS
 70
0
 71
3
 72
9
 73
5
 74
3
 42
0.0000001
 43
0.0000001
 44
0.0000000001
 12
-0.190957406
 22
-0.0928732191
 32
0.0
 13
-0.2101109023
 23
0.030717657
 33
0.0
 40
0.0
 40
0.0
 40
0.0
 40
0.0
 40
0.2410465098
 40
1.0
 40
1.0
 40
1.0
 40
1.0
 10
-12.9358554454
 20
-37.163151191
 30
0.0
 10
-12.9511986508
 20
-37.1706134461
 30
0.0
 10
-13.0174481921
 20
-37.1961745991
 30
0.0
 10
-13.0912456694
 20
-37.1998155938
 30
0.0
 10
-13.1444004703
 20
-37.1920445028
 30
0.0
 11
-12.9358554454
 21
-37.163151191
 31
0.0
 11
-12.9835756531
 21
-37.1816626634
 31
0.0
 11
-13.1444004703
 21
-37.1920445028
 31
0.0
  0
SPLINE
  5
464
100
AcDbEntity
  8
RACCORDO
100
AcDbSpline
 62
253
  6
CONTINUOUS
 70
0
 71
3
 72
9
 73
5
 74
3
 42
0.0000001
 43
0.0000001
 44
0.0000000001
 12
-0.3212980573
 22
0.0469729243
 32
0.0
 13
-0.2327440737
 23
0.2264267947
 33
0.0
 40
0.0
 40
0.0
 40
0.0
 40
0.0
 40
0.2381603431
 40
1.0
 40
1.0
 40
1.0
 40
1.0
 10
-13.1444004703
 20
-37.1920445028
 30
0.0
 10
-13.1699072888
 20
-37.1883154735
 30
0.0
 10
-13.2755128606
 20
-37.1626906515
 30
0.0
 10
-13.3706481753
 20
-37.1010325848
 30
0.0
 10
-13.4297527303
 20
-37.0435322809
 30
0.0
 11
-13.1444004703
 21
-37.1920445028
 31
0.0
 11
-13.2196155306
 21
-37.1740660225
 31
0.0
 11
-13.4297527303
 21
-37.0435322809
 31
0.0
  0
SPLINE
  5
465
100
AcDbEntity
  8
RACCORDO
100
AcDbSpline
 62
253
  6
CONTINUOUS
 70
0
 71
3
 72
9
 73
5
 74
3
 42
0.0000001
 43
0.0000001
 44
0.0000000001
 12
-0.0008317169
 22
-0.2797903318
 32
0.0
 13
-0.2264169745
 23
-0.1643735842
 33
0.0
 40
0.0
 40
0.0
 40
0.0
 40
0.0
 40
0.2909728637
 40
1.0
 40
1.0
 40
1.0
 40
1.0
 10
-10.9415964372
 20
-35.5384692983
 30
0.0
 10
-10.9416771062
 20
-35.5656064296
 30
0.0
 10
-10.9481442156
 20
-35.6577572206
 30
0.0
 10
-10.9916339584
 20
-35.7540206898
 30
0.0
 10
-11.0451458848
 20
-35.7928691337
 30
0.0
 11
-10.9415964372
 21
-35.5384692983
 31
0.0
 11
-10.9485751418
 21
-35.6195813894
 31
0.0
 11
-11.0451458848
 21
-35.7928691337
 31
0.0
  0
SPLINE
  5
466
100
AcDbEntity
  8
RACCORDO
100
AcDbSpline
 62
253
  6
CONTINUOUS
 70
0
 71
3
 72
9
 73
5
 74
3
 42
0.0000001
 43
0.0000001
 44
0.0000000001
 12
0.3193918974
 22
-0.1608669662
 32
0.0
 13
0.1802655507
 23
-0.3088586993
 33
0.0
 40
0.0
 40
0.0
 40
0.0
 40
0.0
 40
0.2265159904
 40
1.0
 40
1.0
 40
1.0
 40
1.0
 10
-13.1858459262
 20
-2.6222773662
 30
0.0
 10
-13.1617301355
 20
-2.6344236796
 30
0.0
 10
-13.0606742637
 20
-2.6986695737
 30
0.0
 10
-12.9823329524
 20
-2.7944618397
 30
0.0
 10
-12.9358554454
 20
-2.8740942615
 30
0.0
 11
-13.1858459262
 21
-2.6222773662
 31
0.0
 11
-13.1171140663
 21
-2.6651477526
 31
0.0
 11
-12.9358554454
 21
-2.8740942615
 31
0.0
  0
SPLINE
  5
467
100
AcDbEntity
  8
RACCORDO
100
AcDbSpline
 62
253
  6
CONTINUOUS
 70
0
 71
3
 72
9
 73
5
 74
3
 42
0.0000001
 43
0.0000001
 44
0.0000000001
 12
0.1870583359
 22
-0.3247806974
 32
0.0
 13
0.0011173991
 23
-0.374796043
 33
0.0
 40
0.0
 40
0.0
 40
0.0
 40
0.0
 40
0.2613136677
 40
1.0
 40
1.0
 40
1.0
 40
1.0
 10
-11.0451458848
 20
-6.1350858794
 30
0.0
 10
-11.0288522515
 20
-6.1633757578
 30
0.0
 10
-10.9731326047
 20
-6.2750922431
 30
0.0
 10
-10.941871573
 20
-6.400749591
 30
0.0
 10
-10.9415964372
 20
-6.4930351624
 30
0.0
 11
-11.0451458848
 21
-6.1350858794
 31
0.0
 11
-11.0014017934
 21
-6.2227137963
 31
0.0
 11
-10.9415964372
 21
-6.4930351624
 31
0.0
  0
SPLINE
  5
468
100
AcDbEntity
  8
RACCORDO
100
AcDbSpline
 62
253
  6
CONTINUOUS
 70
0
 71
3
 72
10
 73
6
 74
4
 42
0.0000001
 43
0.0000001
 44
0.0000000001
 12
1.1633412572
 22
2.5595276933
 32
0.0
 13
2.7058721158
 23
0.7634140333
 33
0.0
 40
0.0
 40
0.0
 40
0.0
 40
0.0
 40
0.516637044
 40
0.7592123634
 40
1.0
 40
1.0
 40
1.0
 40
1.0
 10
-26.7928089579
 20
-13.5279289152
 30
0.0
 10
-26.5924672285
 20
-13.0871466413
 30
0.0
 10
-26.1791989166
 20
-12.4756222991
 30
0.0
 10
-25.4151366664
 20
-11.9206884236
 30
0.0
 10
-24.99141642
 20
-11.7465435865
 30
0.0
 10
-24.7742362361
 20
-11.6852700328
 30
0.0
 11
-26.7928089579
 21
-13.5279289152
 31
0.0
 11
-25.9527689791
 21
-12.342954136
 31
0.0
 11
-25.400069766
 21
-11.9433931018
 31
0.0
 11
-24.7742362361
 21
-11.6852700328
 31
0.0
  0
SPLINE
  5
469
100
AcDbEntity
  8
RACCORDO
100
AcDbSpline
 62
253
  6
CONTINUOUS
 70
0
 71
3
 72
13
 73
9
 74
7
 42
0.0000001
 43
0.0000001
 44
0.0000000001
 12
10.6779227556
 22
1.6710071366
 32
0.0
 13
3.2827314075
 23
-10.297279919
 33
0.0
 40
0.0
 40
0.0
 40
0.0
 40
0.0
 40
0.0941978906
 40
0.1978197469
 40
0.3126317726
 40
0.43834827
 40
0.7135390737
 40
1.0
 40
1.0
 40
1.0
 40
1.0
 10
-24.4190801371
 20
-11.6078510729
 30
0.0
 10
-24.0838008704
 20
-11.5553826237
 30
0.0
 10
-23.3590233395
 20
-11.5613004768
 30
0.0
 10
-22.2655671382
 20
-11.86986825
 30
0.0
 10
-21.164091698
 20
-12.4563129443
 30
0.0
 10
-19.6973064402
 20
-13.6089192493
 30
0.0
 10
-18.1222101039
 20
-15.5610250433
 30
0.0
 10
-17.2577335015
 20
-17.4155088889
 30
0.0
 10
-16.9442754082
 20
-18.3987650036
 30
0.0
 11
-24.4190801371
 21
-11.6078510729
 31
0.0
 11
-23.4010079905
 21
-11.6039487997
 31
0.0
 11
-22.3193062626
 21
-11.8940706442
 31
0.0
 11
-21.2185246838
 21
-12.466827194
 31
0.0
 11
-20.1442216914
 21
-13.2987031114
 31
0.0
 11
-18.2494740825
 21
-15.5912939905
 31
0.0
 11
-16.9442754082
 21
-18.3987650036
 31
0.0
  0
SPLINE
  5
46A
100
AcDbEntity
  8
RACCORDO
100
AcDbSpline
 62
253
  6
CONTINUOUS
 70
0
 71
3
 72
9
 73
5
 74
3
 42
0.0000001
 43
0.0000001
 44
0.0000000001
 12
0.4951504249
 22
-0.522643346
 32
0.0
 13
0.6501495677
 23
0.3092499797
 33
0.0
 40
0.0
 40
0.0
 40
0.0
 40
0.0
 40
0.5236816904
 40
1.0
 40
1.0
 40
1.0
 40
1.0
 10
-26.7928089203
 20
-13.5279289572
 30
0.0
 10
-26.7063751832
 20
-13.6191618741
 30
0.0
 10
-26.4877168572
 20
-13.7441032885
 30
0.0
 10
-26.2267213497
 20
-13.7431436103
 30
0.0
 10
-26.123495302
 20
-13.6940431344
 30
0.0
 11
-26.7928089203
 21
-13.5279289572
 31
0.0
 11
-26.4657498046
 21
-13.7154935043
 31
0.0
 11
-26.123495302
 21
-13.6940431344
 31
0.0
  0
SPLINE
  5
46B
100
AcDbEntity
  8
RACCORDO
100
AcDbSpline
 62
253
  6
CONTINUOUS
 70
0
 71
3
 72
9
 73
5
 74
3
 42
0.0000001
 43
0.0000001
 44
0.0000000001
 12
0.6975686924
 22
0.038736845
 32
0.0
 13
0.626620842
 23
0.3089481253
 33
0.0
 40
0.0
 40
0.0
 40
0.0
 40
0.0
 40
0.4767927645
 40
1.0
 40
1.0
 40
1.0
 40
1.0
 10
-26.792808916
 20
-19.010153458
 30
0.0
 10
-26.6819436809
 20
-19.0039969755
 30
0.0
 10
-26.4532873269
 20
-18.9495778486
 30
0.0
 10
-26.2327794963
 20
-18.8724681205
 30
0.0
 10
-26.1234953101
 20
-18.8185868223
 30
0.0
 11
-26.792808916
 21
-19.010153458
 31
0.0
 11
-26.4657527053
 21
-18.9469453988
 31
0.0
 11
-26.1234953101
 21
-18.8185868223
 31
0.0
  0
SPLINE
  5
46C
100
AcDbEntity
  8
RACCORDO
100
AcDbSpline
 62
253
  6
CONTINUOUS
 70
0
 71
3
 72
9
 73
5
 74
3
 42
0.0000001
 43
0.0000001
 44
0.0000000001
 12
-0.6730227102
 22
-1.4807523197
 32
0.0
 13
-1.260129512
 23
-1.0284262801
 33
0.0
 40
0.0
 40
0.0
 40
0.0
 40
0.0
 40
0.263187451
 40
1.0
 40
1.0
 40
1.0
 40
1.0
 10
-16.9242489348
 20
-23.9444334746
 30
0.0
 10
-16.9832926453
 20
-24.0743386174
 30
0.0
 10
-17.2312944393
 20
-24.5563046197
 30
0.0
 10
-17.5838806742
 20
-24.9884171052
 30
0.0
 10
-17.8933737535
 20
-25.2410029016
 30
0.0
 11
-16.9242489348
 21
-23.9444334746
 31
0.0
 11
-17.1210788821
 21
-24.3245801895
 31
0.0
 11
-17.8933737535
 21
-25.2410029016
 31
0.0
  0
SPLINE
  5
46D
100
AcDbEntity
  8
RACCORDO
100
AcDbSpline
 62
253
  6
CONTINUOUS
 70
0
 71
3
 72
14
 73
10
 74
8
 42
0.0000001
 43
0.0000001
 44
0.0000000001
 12
-9.6183769782
 22
-7.8498214365
 32
0.0
 13
-3.7029314835
 23
11.8499439116
 33
0.0
 40
0.0
 40
0.0
 40
0.0
 40
0.0
 40
0.0926735449
 40
0.1893158206
 40
0.2970673096
 40
0.4189596221
 40
0.5542934543
 40
0.6997044256
 40
1.0
 40
1.0
 40
1.0
 40
1.0
 10
-17.8933737535
 20
-25.2410029016
 30
0.0
 10
-18.1904967839
 20
-25.4834931614
 30
0.0
 10
-18.9059599073
 20
-25.8616228715
 30
0.0
 10
-20.1595987237
 20
-25.9587037345
 30
0.0
 10
-21.4843307379
 20
-25.6100670339
 30
0.0
 10
-22.8099579374
 20
-24.8600683909
 30
0.0
 10
-24.0723398926
 20
-23.7572670483
 30
0.0
 10
-25.5941367955
 20
-21.8865216857
 30
0.0
 10
-26.4221473513
 20
-20.1963238488
 30
0.0
 10
-26.7928053302
 20
-19.0101619444
 30
0.0
 11
-17.8933737535
 21
-25.2410029016
 31
0.0
 11
-18.9109603976
 21
-25.7779107274
 31
0.0
 11
-20.1054053297
 21
-25.8913154444
 31
0.0
 11
-21.4052819219
 21
-25.5753050289
 31
0.0
 11
-22.732441827
 21
-24.8481791193
 31
0.0
 11
-24.0070696427
 21
-23.7535077415
 31
0.0
 11
-25.1523620221
 21
-22.3580347558
 31
0.0
 11
-26.7928053302
 21
-19.0101619444
 31
0.0
  0
SPLINE
  5
46E
100
AcDbEntity
  8
RACCORDO
100
AcDbSpline
 62
253
  6
CONTINUOUS
 70
0
 71
3
 72
9
 73
5
 74
3
 42
0.0000001
 43
0.0000001
 44
0.0000000001
 12
-0.2841381105
 22
0.2999148186
 32
0.0
 13
0.1692816324
 23
0.3768648208
 33
0.0
 40
0.0
 40
0.0
 40
0.0
 40
0.0
 40
0.5422723172
 40
1.0
 40
1.0
 40
1.0
 40
1.0
 10
-16.924248969
 20
-23.9444334361
 30
0.0
 10
-16.9756090462
 20
-23.8902216015
 30
0.0
 10
-17.0552549642
 20
-23.7704045669
 30
0.0
 10
-17.0524824754
 20
-23.620002391
 30
0.0
 10
-17.0266541789
 20
-23.5625019039
 30
0.0
 11
-16.924248969
 21
-23.9444334361
 31
0.0
 11
-17.037752703
 21
-23.7512808353
 31
0.0
 11
-17.0266541789
 21
-23.5625019039
 31
0.0
  0
SPLINE
  5
46F
100
AcDbEntity
  8
RACCORDO
100
AcDbSpline
 62
253
  6
CONTINUOUS
 70
0
 71
3
 72
9
 73
5
 74
3
 42
0.0000001
 43
0.0000001
 44
0.0000000001
 12
-0.1296625224
 22
-0.0072003026
 32
0.0
 13
-0.0445090864
 23
0.1219965381
 33
0.0
 40
0.0
 40
0.0
 40
0.0
 40
0.0
 40
0.6592943688
 40
1.0
 40
1.0
 40
1.0
 40
1.0
 10
-16.9242489729
 20
-18.4622089316
 30
0.0
 10
-16.9527442299
 20
-18.4637913046
 30
0.0
 10
-16.9927200046
 20
-18.4655276145
 30
0.0
 10
-17.042636299
 20
-18.4493384693
 30
0.0
 10
-17.0476911311
 20
-18.4354835002
 30
0.0
 11
-16.9242489729
 21
-18.4622089316
 31
0.0
 11
-17.0097766726
 21
-18.4582891425
 31
0.0
 11
-17.0476911311
 21
-18.4354835002
 31
0.0
  0
SPLINE
  5
470
100
AcDbEntity
  8
RACCORDO
100
AcDbSpline
 62
253
  6
CONTINUOUS
 70
0
 71
3
 72
11
 73
7
 74
5
 42
0.0000001
 43
0.0000001
 44
0.0000000001
 12
1.9405329979
 22
-0.9702664989
 32
0.0
 13
1.9472246623
 23
0.9567661727
 33
0.0
 40
0.0
 40
0.0
 40
0.0
 40
0.0
 40
0.2350941399
 40
0.4994782113
 40
0.764081181
 40
1.0
 40
1.0
 40
1.0
 40
1.0
 10
-16.9242489348
 20
-35.4737966749
 30
0.0
 10
-16.7721796227
 20
-35.5498313309
 30
0.0
 10
-16.4227816265
 20
-35.6585960917
 30
0.0
 10
-15.8697758485
 20
-35.71131249
 30
0.0
 10
-15.3159559052
 20
-35.6608246761
 30
0.0
 10
-14.9653538474
 20
-35.553644141
 30
0.0
 10
-14.8122248665
 20
-35.4784044258
 30
0.0
 11
-16.9242489348
 21
-35.4737966749
 31
0.0
 11
-16.4405899203
 21
-35.6357567282
 31
0.0
 11
-15.8698967379
 21
-35.6934590516
 31
0.0
 11
-15.2984836875
 21
-35.6382101039
 31
0.0
 11
-14.8122248665
 21
-35.4784044258
 31
0.0
  0
SPLINE
  5
471
100
AcDbEntity
  8
RACCORDO
100
AcDbSpline
 62
253
  6
CONTINUOUS
 70
0
 71
3
 72
9
 73
5
 74
3
 42
0.0000001
 43
0.0000001
 44
0.0000000001
 12
-0.6307771563
 22
0.3098735437
 32
0.0
 13
-0.6237642114
 23
-0.3237586179
 33
0.0
 40
0.0
 40
0.0
 40
0.0
 40
0.0
 40
0.5367155671
 40
1.0
 40
1.0
 40
1.0
 40
1.0
 10
-25.7414046748
 20
-0.1738749311
 30
0.0
 10
-25.8542539812
 20
-0.1184369462
 30
0.0
 10
-26.0837364458
 20
-0.0438222377
 30
0.0
 10
-26.327406578
 20
-0.0872143434
 30
0.0
 10
-26.4237333277
 20
-0.137211786
 30
0.0
 11
-25.7414046748
 21
-0.1738749311
 31
0.0
 11
-26.104674554
 21
-0.0723366627
 31
0.0
 11
-26.4237333277
 21
-0.137211786
 31
0.0
  0
SPLINE
  5
472
100
AcDbEntity
  8
RACCORDO
100
AcDbSpline
 62
253
  6
CONTINUOUS
 70
0
 71
3
 72
11
 73
7
 74
5
 42
0.0000001
 43
0.0000001
 44
0.0000000001
 12
-0.0158641271
 22
2.1995003653
 32
0.0
 13
-1.960318156
 23
0.997600248
 33
0.0
 40
0.0
 40
0.0
 40
0.0
 40
0.0
 40
0.2466547737
 40
0.5119370216
 40
0.7706939914
 40
1.0
 40
1.0
 40
1.0
 40
1.0
 10
-14.8122248665
 20
-6.9374534775
 30
0.0
 10
-14.8135291874
 20
-6.7566143892
 30
0.0
 10
-14.8781425054
 20
-6.3811308434
 30
0.0
 10
-15.1053226819
 20
-5.8587161253
 30
0.0
 10
-15.436763739
 20
-5.411130168
 30
0.0
 10
-15.7230070743
 20
-5.184406853
 30
0.0
 10
-15.8728446516
 20
-5.1081549427
 30
0.0
 11
-14.8122248665
 21
-6.9374534775
 31
0.0
 11
-14.895823145
 21
-6.4014015939
 31
0.0
 11
-15.126743528
 21
-5.8655357506
 31
0.0
 11
-15.4698226756
 21
-5.4114108866
 31
0.0
 11
-15.8728446516
 21
-5.1081549427
 31
0.0
  0
SPLINE
  5
473
100
AcDbEntity
  8
RACCORDO
100
AcDbSpline
 62
253
  6
CONTINUOUS
 70
0
 71
3
 72
11
 73
7
 74
5
 42
0.0000001
 43
0.0000001
 44
0.0000000001
 12
-0.643893607
 22
0.3219468035
 32
0.0
 13
-0.004086896
 23
0.7198833369
 33
0.0
 40
0.0
 40
0.0
 40
0.0
 40
0.0
 40
0.3017079518
 40
0.5653187191
 40
0.7934957886
 40
1.0
 40
1.0
 40
1.0
 40
1.0
 10
-26.7928089579
 20
-30.5395166633
 30
0.0
 10
-26.8575648984
 20
-30.507138693
 30
0.0
 10
-26.9747646386
 20
-30.437344772
 30
0.0
 10
-27.1176705292
 20
-30.3090563623
 30
0.0
 10
-27.2093942996
 20
-30.1657041856
 30
0.0
 10
-27.2318605162
 20
-30.0607641246
 30
0.0
 10
-27.2321418366
 20
-30.0112111443
 30
0.0
 11
-26.7928089579
 21
-30.5395166633
 31
0.0
 11
-26.9782798958
 21
-30.4264878428
 31
0.0
 11
-27.1171646522
 21
-30.2971647668
 31
0.0
 11
-27.2026984875
 21
-30.1569275887
 31
0.0
 11
-27.2321418366
 21
-30.0112111443
 31
0.0
  0
SPLINE
  5
474
100
AcDbEntity
  8
RACCORDO
100
AcDbSpline
 62
253
  6
CONTINUOUS
 70
0
 71
3
 72
11
 73
7
 74
5
 42
0.0000001
 43
0.0000001
 44
0.0000000001
 12
0.0
 22
-0.945357549
 32
0.0
 13
0.8463619575
 23
-0.4211559477
 33
0.0
 40
0.0
 40
0.0
 40
0.0
 40
0.0
 40
0.2892482823
 40
0.5496729583
 40
0.7829661488
 40
1.0
 40
1.0
 40
1.0
 40
1.0
 10
-26.7928089579
 20
-30.5395166633
 30
0.0
 10
-26.7928089579
 20
-30.6306643457
 30
0.0
 10
-26.7777904858
 20
-30.8044804945
 30
0.0
 10
-26.7038371922
 20
-31.0424153131
 30
0.0
 10
-26.5792872442
 20
-31.2326917152
 30
0.0
 10
-26.463436543
 20
-31.3207095736
 30
0.0
 10
-26.4022068113
 20
-31.3511779393
 30
0.0
 11
-26.7928089579
 21
-30.5395166633
 31
0.0
 11
-26.7667852079
 21
-30.8117185451
 31
0.0
 11
-26.69017739
 21
-31.0456906402
 31
0.0
 11
-26.5665249636
 21
-31.2283115199
 31
0.0
 11
-26.4022068113
 21
-31.3511779393
 31
0.0
  0
SPLINE
  5
475
100
AcDbEntity
  8
RACCORDO
100
AcDbSpline
 62
253
  6
CONTINUOUS
 70
0
 71
3
 72
11
 73
7
 74
5
 42
0.0000001
 43
0.0000001
 44
0.0000000001
 12
0.0000000001
 22
-0.9447123037
 32
0.0
 13
0.8452953354
 23
-0.4218496565
 33
0.0
 40
0.0
 40
0.0
 40
0.0
 40
0.0
 40
0.2892253376
 40
0.5496554441
 40
0.7829671178
 40
1.0
 40
1.0
 40
1.0
 40
1.0
 10
-16.9242489348
 20
-35.4737966749
 30
0.0
 10
-16.9242489347
 20
-35.5648749198
 30
0.0
 10
-16.9092518328
 20
-35.7385655879
 30
0.0
 10
-16.8354154759
 20
-35.9763537233
 30
0.0
 10
-16.7110639535
 20
-36.16657239
 30
0.0
 10
-16.595384186
 20
-36.254647955
 30
0.0
 10
-16.5342318917
 20
-36.2851663706
 30
0.0
 11
-16.9242489348
 21
-35.4737966749
 31
0.0
 11
-16.8982666829
 21
-35.7457932612
 31
0.0
 11
-16.8217796281
 21
-35.9796334677
 31
0.0
 11
-16.698314376
 21
-36.1622203277
 31
0.0
 11
-16.5342318917
 21
-36.2851663706
 31
0.0
  0
SPLINE
  5
476
100
AcDbEntity
  8
RACCORDO
100
AcDbSpline
 62
253
  6
CONTINUOUS
 70
0
 71
3
 72
14
 73
10
 74
8
 42
0.0000001
 43
0.0000001
 44
0.0000000001
 12
-2.238902741
 22
5.149027308
 32
0.0
 13
3.4227093005
 23
4.4508683138
 33
0.0
 40
0.0
 40
0.0
 40
0.0
 40
0.0
 40
0.3002078864
 40
0.4473924834
 40
0.5858574521
 40
0.7080571972
 40
0.8126409786
 40
0.9061935223
 40
1.0
 40
1.0
 40
1.0
 40
1.0
 10
-26.7928053302
 20
-19.0101622495
 30
0.0
 10
-27.0168507501
 20
-18.4949027144
 30
0.0
 10
-27.182845132
 20
-17.6550535808
 30
0.0
 10
-27.2298824141
 20
-16.5613913612
 30
0.0
 10
-27.231414536
 20
-15.7975651078
 30
0.0
 10
-27.2310464644
 20
-15.1141924888
 30
0.0
 10
-27.200269198
 20
-14.5144418935
 30
0.0
 10
-27.0761169982
 20
-13.9772751856
 30
0.0
 10
-26.8998330592
 20
-13.6671023416
 30
0.0
 10
-26.7928089579
 20
-13.5279289152
 30
0.0
 11
-26.7928053302
 21
-19.0101622495
 31
0.0
 11
-27.1810531379
 21
-17.3698993779
 31
0.0
 11
-27.2247784538
 21
-16.5446555121
 31
0.0
 11
-27.2311252102
 21
-15.7672383163
 31
0.0
 11
-27.224768716
 21
-15.0811494621
 31
0.0
 11
-27.1810373138
 21
-14.4955706767
 31
0.0
 11
-27.0521385963
 21
-13.9863596585
 31
0.0
 11
-26.7928089579
 21
-13.5279289152
 31
0.0
  0
SPLINE
  5
477
100
AcDbEntity
  8
RACCORDO
100
AcDbSpline
 62
253
  6
CONTINUOUS
 70
0
 71
3
 72
12
 73
8
 74
6
 42
0.0000001
 43
0.0000001
 44
0.0000000001
 12
1.9583487529
 22
-4.2189897149
 32
0.0
 13
-2.3900216759
 23
-3.9903383868
 33
0.0
 40
0.0
 40
0.0
 40
0.0
 40
0.0
 40
0.2691782401
 40
0.5197387131
 40
0.6426209248
 40
0.7650068142
 40
1.0
 40
1.0
 40
1.0
 40
1.0
 10
-16.6940306357
 20
-18.9706631846
 30
0.0
 10
-16.5183156788
 20
-19.3492165934
 30
0.0
 10
-16.1679937863
 20
-20.0732531542
 30
0.0
 10
-15.8977808497
 20
-21.0511147661
 30
0.0
 10
-15.9307128581
 20
-21.825275517
 30
0.0
 10
-16.1033369756
 20
-22.5527388024
 30
0.0
 10
-16.3458664396
 20
-23.0584059933
 30
0.0
 10
-16.5330793756
 20
-23.3709734366
 30
0.0
 11
-16.6940306357
 21
-18.9706631846
 31
0.0
 11
-16.1907920909
 21
-20.1171172097
 31
0.0
 11
-15.9259488071
 21
-21.2520689719
 31
0.0
 11
-15.9487857142
 21
-21.8231800452
 31
0.0
 11
-16.0762396263
 21
-22.3779874077
 31
0.0
 11
-16.5330793756
 21
-23.3709734366
 31
0.0
  0
SPLINE
  5
478
100
AcDbEntity
  8
RACCORDO
100
AcDbSpline
 62
253
  6
CONTINUOUS
 70
0
 71
3
 72
11
 73
7
 74
5
 42
0.0000001
 43
0.0000001
 44
0.0000000001
 12
-0.6453340392
 22
0.3226670196
 32
0.0
 13
-0.0009276376
 23
0.7215047936
 33
0.0
 40
0.0
 40
0.0
 40
0.0
 40
0.0
 40
0.3018185229
 40
0.565410005
 40
0.7934998637
 40
1.0
 40
1.0
 40
1.0
 40
1.0
 10
-26.7928089579
 20
-1.9985657149
 30
0.0
 10
-26.8577335468
 20
-1.9661034205
 30
0.0
 10
-26.9752057339
 20
-1.8961189482
 30
0.0
 10
-27.118332736
 20
-1.7674130093
 30
0.0
 10
-27.2099639127
 20
-1.6235507221
 30
0.0
 10
-27.2320836729
 20
-1.5182899851
 30
0.0
 10
-27.2321475253
 20
-1.4686263724
 30
0.0
 11
-26.7928089579
 21
-1.9985657149
 31
0.0
 11
-26.9787350529
 21
-1.8851967934
 31
0.0
 11
-27.1177934204
 21
-1.7554577464
 31
0.0
 11
-27.2031793083
 21
-1.6147740681
 31
0.0
 11
-27.2321475253
 21
-1.4686263724
 31
0.0
  0
SPLINE
  5
479
100
AcDbEntity
  8
RACCORDO
100
AcDbSpline
 62
253
  6
CONTINUOUS
 70
0
 71
3
 72
11
 73
7
 74
5
 42
0.0000001
 43
0.0000001
 44
0.0000000001
 12
0.0000000001
 22
2.1920964163
 32
0.0
 13
1.9522531601
 23
0.9969926264
 33
0.0
 40
0.0
 40
0.0
 40
0.0
 40
0.0
 40
0.2465259175
 40
0.5113272549
 40
0.7698733892
 40
1.0
 40
1.0
 40
1.0
 40
1.0
 10
-26.7928089579
 20
-1.9985657149
 30
0.0
 10
-26.7928089579
 20
-1.8184295215
 30
0.0
 10
-26.7309701833
 20
-1.444161084
 30
0.0
 10
-26.5067576511
 20
-0.9231006292
 30
0.0
 10
-26.17686869
 20
-0.4764347305
 30
0.0
 10
-25.8911599179
 20
-0.250353055
 30
0.0
 10
-25.7414047835
 20
-0.1738748769
 30
0.0
 11
-26.7928089579
 21
-1.9985657149
 31
0.0
 11
-26.7129395234
 21
-1.4640918549
 31
0.0
 11
-26.4852952167
 21
-0.9301222272
 31
0.0
 11
-26.1443396833
 21
-0.4773927092
 31
0.0
 11
-25.7414047835
 21
-0.1738748769
 31
0.0
  0
SPLINE
  5
47A
100
AcDbEntity
  8
RACCORDO
100
AcDbSpline
 62
253
  6
CONTINUOUS
 70
0
 71
3
 72
11
 73
7
 74
5
 42
0.0000001
 43
0.0000001
 44
0.0000000001
 12
0.0
 22
2.1920964698
 32
0.0
 13
1.9522532077
 23
0.9969926509
 33
0.0
 40
0.0
 40
0.0
 40
0.0
 40
0.0
 40
0.24652594
 40
0.5113272241
 40
0.7698733189
 40
1.0
 40
1.0
 40
1.0
 40
1.0
 10
-16.9242489348
 20
-6.9328457265
 30
0.0
 10
-16.9242489348
 20
-6.7527095123
 30
0.0
 10
-16.8624101549
 20
-6.378441085
 30
0.0
 10
-16.6381976271
 20
-5.8573806835
 30
0.0
 10
-16.3083087273
 20
-5.4107147201
 30
0.0
 10
-16.0225998354
 20
-5.1846331459
 30
0.0
 10
-15.8728446516
 20
-5.1081549427
 30
0.0
 11
-16.9242489348
 21
-6.9328457265
 31
0.0
 11
-16.8443794808
 21
-6.3983718062
 31
0.0
 11
-16.616735213
 21
-5.8644022735
 31
0.0
 11
-16.2757797401
 21
-5.4116728009
 31
0.0
 11
-15.8728446516
 21
-5.1081549427
 31
0.0
  0
SPLINE
  5
47B
100
AcDbEntity
  8
RACCORDO
100
AcDbSpline
 62
253
  6
CONTINUOUS
 70
0
 71
3
 72
11
 73
7
 74
5
 42
0.0000001
 43
0.0000001
 44
0.0000000001
 12
1.940533036
 22
-0.9702665179
 32
0.0
 13
1.9472247004
 23
0.9567661916
 33
0.0
 40
0.0
 40
0.0
 40
0.0
 40
0.0
 40
0.2350941071
 40
0.49947822
 40
0.7640812185
 40
1.0
 40
1.0
 40
1.0
 40
1.0
 10
-16.9242489348
 20
-6.9328457265
 30
0.0
 10
-16.7721796409
 20
-7.0088803734
 30
0.0
 10
-16.422781634
 20
-7.1176451525
 30
0.0
 10
-15.8697758235
 20
-7.1703615245
 30
0.0
 10
-15.3159558176
 20
-7.1198737863
 30
0.0
 10
-14.9653538262
 20
-7.0126930494
 30
0.0
 10
-14.8122248667
 20
-6.9374533447
 30
0.0
 11
-16.9242489348
 21
-6.9328457265
 31
0.0
 11
-16.4405899811
 21
-7.0948057689
 31
0.0
 11
-15.8698966979
 21
-7.1525081022
 31
0.0
 11
-15.2984835752
 21
-7.0972591366
 31
0.0
 11
-14.8122248667
 21
-6.9374533447
 31
0.0
  0
SPLINE
  5
47C
100
AcDbEntity
  8
ASSI
100
AcDbSpline
 62
7
  6
CONTINUOUS
 70
0
 71
3
 72
8
 73
4
 74
2
 42
0.0000001
 43
0.0000001
 44
0.0000000001
 12
0.0164077908
 22
0.2460284531
 32
0.0
 13
0.1323213683
 23
0.2080631414
 33
0.0
 40
0.0
 40
0.0
 40
0.0
 40
0.0
 40
1.0
 40
1.0
 40
1.0
 40
1.0
 10
-26.5598604218
 20
1.10331902
 30
0.0
 10
-26.5543911582
 20
1.1853285044
 30
0.0
 10
-26.5273225134
 20
1.2683249487
 30
0.0
 10
-26.4832153906
 20
1.3376793292
 30
0.0
 11
-26.5598604218
 21
1.10331902
 31
0.0
 11
-26.4832153906
 21
1.3376793292
 31
0.0
  0
SPLINE
  5
47D
100
AcDbEntity
  8
ASSI
100
AcDbSpline
 62
7
  6
CONTINUOUS
 70
0
 71
3
 72
8
 73
4
 74
2
 42
0.0000001
 43
0.0000001
 44
0.0000000001
 12
0.1009367599
 22
0.1587137408
 32
0.0
 13
0.1523110656
 23
0.1103613172
 33
0.0
 40
0.0
 40
0.0
 40
0.0
 40
0.0
 40
1.0
 40
1.0
 40
1.0
 40
1.0
 10
-26.4832153906
 20
1.3376793292
 30
0.0
 10
-26.449569804
 20
1.3905839095
 30
0.0
 10
-26.405132191
 20
1.4379142744
 30
0.0
 10
-26.3543618359
 20
1.4747013802
 30
0.0
 11
-26.4832153906
 21
1.3376793292
 31
0.0
 11
-26.3543618359
 21
1.4747013802
 31
0.0
  0
SPLINE
  5
47E
100
AcDbEntity
  8
ASSI
100
AcDbSpline
 62
7
  6
CONTINUOUS
 70
0
 71
3
 72
9
 73
5
 74
3
 42
0.0000001
 43
0.0000001
 44
0.0000000001
 12
0.3722010684
 22
-0.1354010008
 32
0.0
 13
0.35689492
 23
0.1717355015
 33
0.0
 40
0.0
 40
0.0
 40
0.0
 40
0.0
 40
0.4996995454
 40
1.0
 40
1.0
 40
1.0
 40
1.0
 10
-13.3533027071
 20
-37.2003594975
 30
0.0
 10
-13.2913064722
 20
-37.2229127704
 30
0.0
 10
-13.1568067271
 20
-37.2435507458
 30
0.0
 10
-13.0251534201
 20
-37.2093522402
 30
0.0
 10
-12.9656351898
 20
-37.180712457
 30
0.0
 11
-13.3533027071
 21
-37.2003594975
 31
0.0
 11
-13.1575983038
 21
-37.2298456949
 31
0.0
 11
-12.9656351898
 21
-37.180712457
 31
0.0
  0
SPLINE
  5
47F
100
AcDbEntity
  8
ASSI
100
AcDbSpline
 62
7
  6
CONTINUOUS
 70
0
 71
3
 72
14
 73
10
 74
8
 42
0.0000001
 43
0.0000001
 44
0.0000000001
 12
-3.241391038
 22
10.3729472262
 32
0.0
 13
-9.8251957065
 23
-4.6443707162
 33
0.0
 40
0.0
 40
0.0
 40
0.0
 40
0.0
 40
0.3020416031
 40
0.4493642259
 40
0.5875379663
 40
0.7125532
 40
0.8219059818
 40
0.9162327505
 40
1.0
 40
1.0
 40
1.0
 40
1.0
 10
-17.0479372796
 20
-18.4345641394
 30
0.0
 10
-17.3742822614
 20
-17.3902102695
 30
0.0
 10
-18.0852774007
 20
-15.8949972938
 30
0.0
 10
-19.3769818605
 20
-14.1972287465
 30
0.0
 10
-20.4503200183
 20
-13.1579879495
 30
0.0
 10
-21.5756044756
 20
-12.3982518525
 30
0.0
 10
-22.6923926635
 20
-11.9529671273
 30
0.0
 10
-23.7437828941
 20
-11.8405140243
 30
0.0
 10
-24.3866282944
 20
-12.0005513746
 30
0.0
 10
-24.660971501
 20
-12.1302334281
 30
0.0
 11
-17.0479372796
 21
-18.4345641394
 31
0.0
 11
-18.4551934924
 21
-15.4690600634
 31
0.0
 11
-19.4287307976
 21
-14.1980120133
 31
0.0
 11
-20.5141708255
 21
-13.1603840158
 31
0.0
 11
-21.6480597648
 21
-12.4119651157
 31
0.0
 11
-22.7587127541
 21
-11.9891779466
 31
0.0
 11
-23.7800031441
 21
-11.9008223903
 31
0.0
 11
-24.660971501
 21
-12.1302334281
 31
0.0
  0
SPLINE
  5
480
100
AcDbEntity
  8
ASSI
100
AcDbSpline
 62
7
  6
CONTINUOUS
 70
0
 71
3
 72
9
 73
5
 74
3
 42
0.0000001
 43
0.0000001
 44
0.0000000001
 12
1.0840784102
 22
0.5722953012
 32
0.0
 13
0.7074684298
 23
1.0011175416
 33
0.0
 40
0.0
 40
0.0
 40
0.0
 40
0.0
 40
0.4852714416
 40
1.0
 40
1.0
 40
1.0
 40
1.0
 10
-18.2552361761
 20
-24.9417038514
 30
0.0
 10
-18.0798787451
 20
-24.8491309961
 30
0.0
 10
-17.7416707915
 20
-24.6114843231
 30
0.0
 10
-17.4705229194
 20
-24.3005796155
 30
0.0
 10
-17.3491381844
 20
-24.1288116859
 30
0.0
 11
-18.2552361761
 21
-24.9417038514
 31
0.0
 11
-17.7674252922
 21
-24.6012332937
 31
0.0
 11
-17.3491381844
 21
-24.1288116859
 31
0.0
  0
SPLINE
  5
481
100
AcDbEntity
  8
ASSI
100
AcDbSpline
 62
7
  6
CONTINUOUS
 70
0
 71
3
 72
9
 73
5
 74
3
 42
0.0000001
 43
0.0000001
 44
0.0000000001
 12
0.2493097592
 22
0.3527908281
 32
0.0
 13
0.2017935374
 23
0.3819634704
 33
0.0
 40
0.0
 40
0.0
 40
0.0
 40
0.0
 40
0.2443402851
 40
1.0
 40
1.0
 40
1.0
 40
1.0
 10
-17.3491381844
 20
-24.1288116859
 30
0.0
 10
-17.3288327119
 20
-24.1000780154
 30
0.0
 10
-17.2477354825
 20
-23.9810712307
 30
0.0
 10
-17.1746393091
 20
-23.8566526901
 30
0.0
 10
-17.1238102268
 20
-23.7604412211
 30
0.0
 11
-17.3491381844
 21
-24.1288116859
 31
0.0
 11
-17.289679752
 21
-24.0415986184
 31
0.0
 11
-17.1238102268
 21
-23.7604412211
 31
0.0
  0
SPLINE
  5
482
100
AcDbEntity
  8
ASSI
100
AcDbSpline
 62
7
  6
CONTINUOUS
 70
0
 71
3
 72
9
 73
5
 74
3
 42
0.0000001
 43
0.0000001
 44
0.0000000001
 12
-1.4353586875
 22
-0.7457925937
 32
0.0
 13
0.0049763131
 23
-1.6175402286
 33
0.0
 40
0.0
 40
0.0
 40
0.0
 40
0.0
 40
0.4998440846
 40
1.0
 40
1.0
 40
1.0
 40
1.0
 10
-26.4237441945
 20
-0.1371849947
 30
0.0
 10
-26.6628960443
 20
-0.2614450002
 30
0.0
 10
-27.0807156095
 20
-0.6490752347
 30
0.0
 10
-27.2329175539
 20
-1.198957052
 30
0.0
 10
-27.2320879097
 20
-1.4686311566
 30
0.0
 11
-26.4237441945
 21
-0.1371849947
 31
0.0
 11
-27.0142223227
 21
-0.6894919618
 31
0.0
 11
-27.2320879097
 21
-1.4686311566
 31
0.0
  0
SPLINE
  5
483
100
AcDbEntity
  8
ASSI
100
AcDbSpline
 62
7
  6
CONTINUOUS
 70
0
 71
3
 72
8
 73
4
 74
2
 42
0.0000001
 43
0.0000001
 44
0.0000000001
 12
-0.6455618483
 22
0.3227755067
 32
0.0
 13
-0.421084565
 23
0.5861927301
 33
0.0
 40
0.0
 40
0.0
 40
0.0
 40
0.0
 40
1.0
 40
1.0
 40
1.0
 40
1.0
 10
-26.400430302
 20
-31.3514052011
 30
0.0
 10
-26.6156175848
 20
-31.2438133655
 30
0.0
 10
-26.8102984382
 20
-31.079703804
 30
0.0
 10
-26.9506599599
 20
-30.8843062273
 30
0.0
 11
-26.400430302
 21
-31.3514052011
 31
0.0
 11
-26.9506599599
 21
-30.8843062273
 31
0.0
  0
SPLINE
  5
484
100
AcDbEntity
  8
ASSI
100
AcDbSpline
 62
7
  6
CONTINUOUS
 70
0
 71
3
 72
9
 73
5
 74
3
 42
0.0000001
 43
0.0000001
 44
0.0000000001
 12
-0.5416519991
 22
0.7540349149
 32
0.0
 13
-0.0018269696
 23
0.9284138103
 33
0.0
 40
0.0
 40
0.0
 40
0.0
 40
0.0
 40
0.4991195173
 40
1.0
 40
1.0
 40
1.0
 40
1.0
 10
-26.9506599599
 20
-30.8843062273
 30
0.0
 10
-27.0407763213
 20
-30.7588550464
 30
0.0
 10
-27.1834678921
 20
-30.4777273599
 30
0.0
 10
-27.2310289777
 20
-30.1662147243
 30
0.0
 10
-27.2313340088
 20
-30.0112066051
 30
0.0
 11
-26.9506599599
 21
-30.8843062273
 31
0.0
 11
-27.1595176829
 21
-30.4706529086
 31
0.0
 11
-27.2313340088
 21
-30.0112066051
 31
0.0
  0
SPLINE
  5
485
100
AcDbEntity
  8
ASSI
100
AcDbSpline
 62
7
  6
CONTINUOUS
 70
0
 71
3
 72
9
 73
5
 74
3
 42
0.0000001
 43
0.0000001
 44
0.0000000001
 12
-0.0000713737
 22
-0.0028080433
 32
0.0
 13
-0.0025687973
 23
-0.0011364338
 33
0.0
 40
0.0
 40
0.0
 40
0.0
 40
0.0
 40
0.5494381885
 40
1.0
 40
1.0
 40
1.0
 40
1.0
 10
-3.5697757774
 20
1.8577259305
 30
0.0
 10
-3.5697888492
 20
1.8572116484
 30
0.0
 10
-3.5699270947
 20
1.8562357549
 30
0.0
 10
-3.5706657401
 20
1.8555336862
 30
0.0
 10
-3.5710515408
 20
1.8553630083
 30
0.0
 11
-3.5697757774
 21
1.8577259305
 31
0.0
 11
-3.570122014
 21
1.856221925
 31
0.0
 11
-3.5710515408
 21
1.8553630083
 31
0.0
  0
SPLINE
  5
486
100
AcDbEntity
  8
ASSI
100
AcDbSpline
 62
7
  6
CONTINUOUS
 70
0
 71
3
 72
11
 73
7
 74
5
 42
0.0000001
 43
0.0000001
 44
0.0000000001
 12
-0.0000387914
 22
0.4645470473
 32
0.0
 13
-0.4451254212
 23
-0.1329184713
 33
0.0
 40
0.0
 40
0.0
 40
0.0
 40
0.0
 40
0.3015273159
 40
0.5621948875
 40
0.7840582578
 40
1.0
 40
1.0
 40
1.0
 40
1.0
 10
-3.5697677341
 20
-31.0937941164
 30
0.0
 10
-3.569771633
 20
-31.0471029083
 30
0.0
 10
-3.5777886712
 20
-30.9597044729
 30
0.0
 10
-3.6224520795
 20
-30.8437755137
 30
0.0
 10
-3.7100972398
 20
-30.7693841929
 30
0.0
 10
-3.7839520868
 20
-30.7689887446
 30
0.0
 10
-3.8159924731
 20
-30.7785562933
 30
0.0
 11
-3.5697677341
 21
-31.0937941164
 31
0.0
 11
-3.5852774998
 21
-30.9545818054
 31
0.0
 11
-3.6343107229
 21
-30.843860983
 31
0.0
 11
-3.7156987401
 21
-30.7806266122
 31
0.0
 11
-3.8159924731
 21
-30.7785562933
 31
0.0
  0
SPLINE
  5
487
100
AcDbEntity
  8
ASSI
100
AcDbSpline
 62
253
  6
CONTINUOUS
 70
0
 71
3
 72
11
 73
7
 74
5
 42
0.0000001
 43
0.0000001
 44
0.0000000001
 12
-6.887897492
 22
3.4439486231
 32
0.0
 13
-2.2968874179
 23
7.3503892529
 33
0.0
 40
0.0
 40
0.0
 40
0.0
 40
0.0
 40
0.2241932091
 40
0.4728708021
 40
0.7357969835
 40
1.0
 40
1.0
 40
1.0
 40
1.0
 10
-21.5111459132
 20
-24.7653831405
 30
0.0
 10
-22.0258858609
 20
-24.5080131759
 30
0.0
 10
-23.0331396944
 20
-23.8046625994
 30
0.0
 10
-24.3247099652
 20
-22.4119484471
 30
0.0
 10
-25.3983288408
 20
-20.7228167064
 30
0.0
 10
-25.921213724
 20
-19.4659186536
 30
0.0
 10
-26.1234952521
 20
-18.8185869826
 30
0.0
 11
-21.5111459132
 21
-24.7653831405
 31
0.0
 11
-22.9411531146
 21
-23.7979907611
 31
0.0
 11
-24.2547982432
 21
-22.4045336027
 31
0.0
 11
-25.3451628892
 21
-20.6984283887
 31
0.0
 11
-26.1234952521
 21
-18.8185869826
 31
0.0
  0
SPLINE
  5
488
100
AcDbEntity
  8
ASSI
100
AcDbSpline
 62
253
  6
CONTINUOUS
 70
0
 71
3
 72
13
 73
9
 74
7
 42
0.0000001
 43
0.0000001
 44
0.0000000001
 12
-1.5436192283
 22
4.9399092073
 32
0.0
 13
2.14147319
 23
4.7116404653
 33
0.0
 40
0.0
 40
0.0
 40
0.0
 40
0.0
 40
0.2874328234
 40
0.5603967827
 40
0.6828130101
 40
0.794186295
 40
0.8978900142
 40
1.0
 40
1.0
 40
1.0
 40
1.0
 10
-26.1234952521
 20
-18.8185869826
 30
0.0
 10
-26.2713908631
 20
-18.3452896324
 30
0.0
 10
-26.3918005654
 20
-17.3734437028
 30
0.0
 10
-26.3828073233
 20
-16.1974775384
 30
0.0
 10
-26.3851414667
 20
-15.3230805408
 30
0.0
 10
-26.3714528474
 20
-14.7407482084
 30
0.0
 10
-26.304393113
 20
-14.1961329377
 30
0.0
 10
-26.1963838511
 20
-13.8544115488
 30
0.0
 10
-26.1234952521
 20
-13.6940430351
 30
0.0
 11
-26.1234952521
 21
-18.8185869826
 31
0.0
 11
-26.3612907575
 21
-17.3501167789
 31
0.0
 11
-26.3841745403
 21
-15.9375860462
 31
0.0
 11
-26.38229724
 21
-15.3040276275
 31
0.0
 11
-26.3612878354
 21
-14.7280018277
 31
0.0
 11
-26.2876814614
 21
-14.1963578378
 31
0.0
 11
-26.1234952521
 21
-13.6940430351
 31
0.0
  0
SPLINE
  5
489
100
AcDbEntity
  8
ASSI
100
AcDbSpline
 62
253
  6
CONTINUOUS
 70
0
 71
3
 72
9
 73
5
 74
3
 42
0.0000001
 43
0.0000001
 44
0.0000000001
 12
0.8999336352
 22
1.9799909293
 32
0.0
 13
1.9660328144
 23
0.9300320428
 33
0.0
 40
0.0
 40
0.0
 40
0.0
 40
0.0
 40
0.5190206697
 40
1.0
 40
1.0
 40
1.0
 40
1.0
 10
-26.1234952521
 20
-13.6940430351
 30
0.0
 10
-25.9678005328
 20
-13.3514909624
 30
0.0
 10
-25.5738058327
 20
-12.7257801359
 30
0.0
 10
-24.9766116579
 20
-12.2796140574
 30
0.0
 10
-24.6614046091
 20
-12.1305053277
 30
0.0
 11
-26.1234952521
 21
-13.6940430351
 31
0.0
 11
-25.5040793732
 21
-12.7503434631
 31
0.0
 11
-24.6614046091
 21
-12.1305053277
 31
0.0
  0
SPLINE
  5
48A
100
AcDbEntity
  8
ASSI
100
AcDbSpline
 62
7
  6
CONTINUOUS
 70
0
 71
3
 72
8
 73
4
 74
2
 42
0.0000001
 43
0.0000001
 44
0.0000000001
 12
-0.0789400319
 22
0.044643305
 32
0.0
 13
-0.0426956698
 23
0.0800102062
 33
0.0
 40
0.0
 40
0.0
 40
0.0
 40
0.0
 40
1.0
 40
1.0
 40
1.0
 40
1.0
 10
-15.746639722
 20
-1.2282518944
 30
0.0
 10
-15.7729530659
 20
-1.2133707927
 30
0.0
 10
-15.7947184291
 20
-1.189028543
 30
0.0
 10
-15.808950319
 20
-1.1623584742
 30
0.0
 11
-15.746639722
 21
-1.2282518944
 31
0.0
 11
-15.808950319
 21
-1.1623584742
 31
0.0
  0
SPLINE
  5
48B
100
AcDbEntity
  8
ASSI
100
AcDbSpline
 62
7
  6
CONTINUOUS
 70
0
 71
3
 72
8
 73
4
 74
2
 42
0.0000001
 43
0.0000001
 44
0.0000000001
 12
-0.1873998154
 22
0.0942811638
 32
0.0
 13
-0.1547703908
 23
0.1416112805
 33
0.0
 40
0.0
 40
0.0
 40
0.0
 40
0.0
 40
1.0
 40
1.0
 40
1.0
 40
1.0
 10
-22.6486865988
 20
2.2225356901
 30
0.0
 10
-22.7111532039
 20
2.2539627447
 30
0.0
 10
-22.7686419649
 20
2.2960786537
 30
0.0
 10
-22.8202320952
 20
2.3432824139
 30
0.0
 11
-22.6486865988
 21
2.2225356901
 31
0.0
 11
-22.8202320952
 21
2.3432824139
 31
0.0
  0
SPLINE
  5
48C
100
AcDbEntity
  8
ASSI
100
AcDbSpline
 62
7
  6
CONTINUOUS
 70
0
 71
3
 72
9
 73
5
 74
3
 42
0.0000001
 43
0.0000001
 44
0.0000000001
 12
-0.0922277911
 22
0.0461809622
 32
0.0
 13
-0.0512877107
 23
0.0894886443
 33
0.0
 40
0.0
 40
0.0
 40
0.0
 40
0.0
 40
0.7369452253
 40
1.0
 40
1.0
 40
1.0
 40
1.0
 10
-22.1119965164
 20
1.954219254
 30
0.0
 10
-22.1346521265
 20
1.9655635339
 30
0.0
 10
-22.1617853402
 20
1.9891822883
 30
0.0
 10
-22.1806752862
 20
2.0179057838
 30
0.0
 10
-22.1851724452
 20
2.0257525889
 30
0.0
 11
-22.1119965164
 21
1.954219254
 31
0.0
 11
-22.1701666891
 21
2.0031473155
 31
0.0
 11
-22.1851724452
 21
2.0257525889
 31
0.0
  0
SPLINE
  5
48D
100
AcDbEntity
  8
ASSI
100
AcDbSpline
 62
7
  6
CONTINUOUS
 70
0
 71
3
 72
9
 73
5
 74
3
 42
0.0000001
 43
0.0000001
 44
0.0000000001
 12
0.0003685952
 22
-0.1935863715
 32
0.0
 13
0.0549095595
 23
-0.1856360939
 33
0.0
 40
0.0
 40
0.0
 40
0.0
 40
0.0
 40
0.2421834581
 40
1.0
 40
1.0
 40
1.0
 40
1.0
 10
-15.204168002
 20
-36.7633654249
 30
0.0
 10
-15.2041382461
 20
-36.7789932305
 30
0.0
 10
-15.201050133
 20
-36.843513572
 30
0.0
 10
-15.1877611266
 20
-36.9072845385
 30
0.0
 10
-15.1738906691
 20
-36.9541772394
 30
0.0
 11
-15.204168002
 21
-36.7633654249
 31
0.0
 11
-15.2020441551
 21
-36.8102007964
 31
0.0
 11
-15.1738906691
 21
-36.9541772394
 31
0.0
  0
SPLINE
  5
48E
100
AcDbEntity
  8
ASSI
100
AcDbSpline
 62
253
  6
CONTINUOUS
 70
0
 71
3
 72
9
 73
5
 74
3
 42
0.0000001
 43
0.0000001
 44
0.0000000001
 12
-0.3931233066
 22
-0.3393569159
 32
0.0
 13
0.1946282823
 23
-0.4814861185
 33
0.0
 40
0.0
 40
0.0
 40
0.0
 40
0.0
 40
0.4657874727
 40
1.0
 40
1.0
 40
1.0
 40
1.0
 10
-26.3743764636
 20
1.4586679153
 30
0.0
 10
-26.4354137674
 20
1.4059785152
 30
0.0
 10
-26.5197261164
 20
1.235890693
 30
0.0
 10
-26.487061311
 20
1.0560943375
 30
0.0
 10
-26.4524036889
 20
0.9703556987
 30
0.0
 11
-26.3743764636
 21
1.4586679153
 31
0.0
 11
-26.4885779134
 21
1.2454226179
 31
0.0
 11
-26.4524036889
 21
0.9703556987
 31
0.0
  0
SPLINE
  5
48F
100
AcDbEntity
  8
ASSI
100
AcDbSpline
 62
253
  6
CONTINUOUS
 70
0
 71
3
 72
9
 73
5
 74
3
 42
0.0000001
 43
0.0000001
 44
0.0000000001
 12
0.0013296388
 22
-0.2364684885
 32
0.0
 13
0.2115071895
 23
-0.1057535947
 33
0.0
 40
0.0
 40
0.0
 40
0.0
 40
0.0
 40
0.2095695942
 40
1.0
 40
1.0
 40
1.0
 40
1.0
 10
-26.5611033245
 20
1.0690686585
 30
0.0
 10
-26.5610104405
 20
1.0525497901
 30
0.0
 10
-26.5436637482
 20
0.9732512193
 30
0.0
 10
-26.4703264211
 20
0.9208617352
 30
0.0
 10
-26.4145991833
 20
0.8929981162
 30
0.0
 11
-26.5611033245
 21
1.0690686585
 31
0.0
 11
-26.5512806861
 21
1.0204944828
 31
0.0
 11
-26.4145991833
 21
0.8929981162
 31
0.0
  0
SPLINE
  5
490
100
AcDbEntity
  8
ASSI
100
AcDbSpline
 62
253
  6
CONTINUOUS
 70
0
 71
3
 72
9
 73
5
 74
3
 42
0.0000001
 43
0.0000001
 44
0.0000000001
 12
0.1420339511
 22
0.073007131
 32
0.0
 13
0.1546511366
 23
-0.0398335336
 33
0.0
 40
0.0
 40
0.0
 40
0.0
 40
0.0
 40
0.2379978134
 40
1.0
 40
1.0
 40
1.0
 40
1.0
 10
-24.3990304808
 20
2.8846803099
 30
0.0
 10
-24.3877625576
 20
2.8904721558
 30
0.0
 10
-24.3379046657
 20
2.910090577
 30
0.0
 10
-24.2812410988
 20
2.9075192283
 30
0.0
 10
-24.2419595973
 20
2.8974014817
 30
0.0
 11
-24.3990304808
 21
2.8846803099
 31
0.0
 11
-24.3636449255
 21
2.8985535442
 31
0.0
 11
-24.2419595973
 21
2.8974014817
 31
0.0
  0
SPLINE
  5
491
100
AcDbEntity
  8
ASSI
100
AcDbSpline
 62
253
  6
CONTINUOUS
 70
0
 71
3
 72
8
 73
4
 74
2
 42
0.0000001
 43
0.0000001
 44
0.0000000001
 12
-0.1269987261
 22
-0.0926860615
 32
0.0
 13
-0.0691503589
 23
-0.141200603
 33
0.0
 40
0.0
 40
0.0
 40
0.0
 40
0.0
 40
1.0
 40
1.0
 40
1.0
 40
1.0
 10
-24.463690803
 20
2.8448225299
 30
0.0
 10
-24.5060237117
 20
2.8139271761
 30
0.0
 10
-24.5411425592
 20
2.7709813524
 30
0.0
 10
-24.5641926789
 20
2.7239144847
 30
0.0
 11
-24.463690803
 21
2.8448225299
 31
0.0
 11
-24.5641926789
 21
2.7239144847
 31
0.0
  0
SPLINE
  5
492
100
AcDbEntity
  8
ASSI
100
AcDbSpline
 62
253
  6
CONTINUOUS
 70
0
 71
3
 72
8
 73
4
 74
2
 42
0.0000001
 43
0.0000001
 44
0.0000000001
 12
-0.0319497837
 22
-0.0652394115
 32
0.0
 13
-0.0185600136
 23
-0.0702317263
 33
0.0
 40
0.0
 40
0.0
 40
0.0
 40
0.0
 40
1.0
 40
1.0
 40
1.0
 40
1.0
 10
-24.5641926789
 20
2.7239144847
 30
0.0
 10
-24.5748426068
 20
2.7021680143
 30
0.0
 10
-24.5832280271
 20
2.6792015017
 30
0.0
 10
-24.5894146983
 20
2.6557909263
 30
0.0
 11
-24.5641926789
 21
2.7239144847
 31
0.0
 11
-24.5894146983
 21
2.6557909263
 31
0.0
  0
SPLINE
  5
493
100
AcDbEntity
  8
ASSI
100
AcDbSpline
 62
253
  6
CONTINUOUS
 70
0
 71
3
 72
9
 73
5
 74
3
 42
0.0000001
 43
0.0000001
 44
0.0000000001
 12
-0.1031790327
 22
-0.3904329889
 32
0.0
 13
0.2025586643
 23
-0.3493620173
 33
0.0
 40
0.0
 40
0.0
 40
0.0
 40
0.0
 40
0.2357524014
 40
1.0
 40
1.0
 40
1.0
 40
1.0
 10
-24.5894146983
 20
2.6557909263
 30
0.0
 10
-24.5975229332
 20
2.625109088
 30
0.0
 10
-24.6163917314
 20
2.4908728956
 30
0.0
 10
-24.5754912802
 20
2.3522798678
 30
0.0
 10
-24.5238896227
 20
2.2632801736
 30
0.0
 11
-24.5894146983
 21
2.6557909263
 31
0.0
 11
-24.6030977354
 21
2.5615739292
 31
0.0
 11
-24.5238896227
 21
2.2632801736
 31
0.0
  0
SPLINE
  5
494
100
AcDbEntity
  8
ASSI
100
AcDbSpline
 62
253
  6
CONTINUOUS
 70
0
 71
3
 72
9
 73
5
 74
3
 42
0.0000001
 43
0.0000001
 44
0.0000000001
 12
-0.2769888455
 22
0.1406840851
 32
0.0
 13
-0.0
 23
0.3106683639
 33
0.0
 40
0.0
 40
0.0
 40
0.0
 40
0.0
 40
0.4489394014
 40
1.0
 40
1.0
 40
1.0
 40
1.0
 10
-13.4074629123
 20
-37.1771669144
 30
0.0
 10
-13.4489133145
 20
-37.1561140381
 30
0.0
 10
-13.5214820114
 20
-37.0703717647
 30
0.0
 10
-13.5363140205
 20
-36.9642811368
 30
0.0
 10
-13.5363140205
 20
-36.9072154386
 30
0.0
 11
-13.4074629123
 21
-37.1771669144
 31
0.0
 11
-13.5024345769
 21
-37.0750267269
 31
0.0
 11
-13.5363140205
 21
-36.9072154386
 31
0.0
  0
SPLINE
  5
495
100
AcDbEntity
  8
ASSI
100
AcDbSpline
 62
253
  6
CONTINUOUS
 70
0
 71
3
 72
11
 73
7
 74
5
 42
0.0000001
 43
0.0000001
 44
0.0000000001
 12
-2.9896819524
 22
-1.5782522432
 32
0.0
 13
-3.0237828603
 23
1.5118913762
 33
0.0
 40
0.0
 40
0.0
 40
0.0
 40
0.0
 40
0.2271368311
 40
0.4644231281
 40
0.7206739237
 40
1.0
 40
1.0
 40
1.0
 40
1.0
 10
-18.2552659582
 20
-24.9416447903
 30
0.0
 10
-18.4816215864
 20
-25.0611378613
 30
0.0
 10
-18.9827578576
 20
-25.2388508923
 30
0.0
 10
-19.8021858929
 20
-25.2901598426
 30
0.0
 10
-20.6659356981
 20
-25.1326912078
 30
0.0
 10
-21.2296054459
 20
-24.9061533691
 30
0.0
 10
-21.5111459132
 20
-24.7653831405
 30
0.0
 11
-18.2552659582
 21
-24.9416447903
 31
0.0
 11
-18.9782467677
 21
-25.200368444
 31
0.0
 11
-19.7784056968
 21
-25.2574430082
 31
0.0
 11
-20.632159859
 21
-25.1105137597
 31
0.0
 11
-21.5111459132
 21
-24.7653831405
 31
0.0
  0
SPLINE
  5
496
100
AcDbEntity
  8
ASSI
100
AcDbSpline
 62
7
  6
CONTINUOUS
 70
0
 71
3
 72
9
 73
5
 74
3
 42
0.0000001
 43
0.0000001
 44
0.0000000001
 12
0.1525426332
 22
0.2612138293
 32
0.0
 13
0.106455824
 23
0.2831414436
 33
0.0
 40
0.0
 40
0.0
 40
0.0
 40
0.0
 40
0.75421001
 40
1.0
 40
1.0
 40
1.0
 40
1.0
 10
-3.7830041606
 20
-31.7684542528
 30
0.0
 10
-3.7446544337
 20
-31.7027842245
 30
0.0
 10
-3.6987923347
 20
-31.6125842715
 30
0.0
 10
-3.6611315696
 20
-31.5190296148
 30
0.0
 10
-3.6524096443
 20
-31.4958318373
 30
0.0
 11
-3.7830041606
 21
-31.7684542528
 31
0.0
 11
-3.6801403127
 21
-31.5648165443
 31
0.0
 11
-3.6524096443
 21
-31.4958318373
 31
0.0
  0
SPLINE
  5
497
100
AcDbEntity
  8
ASSI
100
AcDbSpline
 62
7
  6
CONTINUOUS
 70
0
 71
3
 72
9
 73
5
 74
3
 42
0.0000001
 43
0.0000001
 44
0.0000000001
 12
0.1448305723
 22
0.3852070818
 32
0.0
 13
-0.0000343646
 23
0.4115341898
 33
0.0
 40
0.0
 40
0.0
 40
0.0
 40
0.0
 40
0.263564418
 40
1.0
 40
1.0
 40
1.0
 40
1.0
 10
-3.6524096443
 20
-31.4958318373
 30
0.0
 10
-3.6396855825
 20
-31.4619895438
 30
0.0
 10
-3.5958773003
 20
-31.3321545361
 30
0.0
 10
-3.5697592983
 20
-31.1948169233
 30
0.0
 10
-3.5697677341
 20
-31.0937941164
 30
0.0
 11
-3.6524096443
 21
-31.4958318373
 31
0.0
 11
-3.6178218503
 21
-31.3930285899
 31
0.0
 11
-3.5697677341
 21
-31.0937941164
 31
0.0
  0
SPLINE
  5
498
100
AcDbEntity
  8
ASSI
100
AcDbSpline
 62
7
  6
CONTINUOUS
 70
0
 71
3
 72
11
 73
7
 74
5
 42
0.0000001
 43
0.0000001
 44
0.0000000001
 12
-0.2116013291
 22
-0.0899178637
 32
0.0
 13
-0.2104622578
 23
0.0925525944
 33
0.0
 40
0.0
 40
0.0
 40
0.0
 40
0.0
 40
0.1208483086
 40
0.3337944404
 40
0.6295152555
 40
1.0
 40
1.0
 40
1.0
 40
1.0
 10
-3.5763576097
 20
-31.9970675257
 30
0.0
 10
-3.5848814973
 20
-32.0006896662
 30
0.0
 10
-3.6120918369
 20
-31.9955846663
 30
0.0
 10
-3.6570171787
 20
-31.9818294936
 30
0.0
 10
-3.7200608628
 20
-31.9562993241
 30
0.0
 10
-3.7668016131
 20
-31.9362096105
 30
0.0
 10
-3.7927926317
 20
-31.9247798358
 30
0.0
 11
-3.5763576097
 21
-31.9970675257
 31
0.0
 11
-3.6041399529
 21
-31.9967063299
 31
0.0
 11
-3.6511406943
 21
-31.9829972669
 31
0.0
 11
-3.7144960984
 21
-31.958323957
 31
0.0
 11
-3.7927926317
 21
-31.9247798358
 31
0.0
  0
LINE
  5
499
100
AcDbEntity
  8
ASSI
100
AcDbLine
 62
7
  6
CONTINUOUS
 10
-6.3094051619
 20
-33.3609274583
 11
-6.2709560098
 21
-33.3417573855
  0
SPLINE
  5
49A
100
AcDbEntity
  8
ASSI
100
AcDbSpline
 62
7
  6
CONTINUOUS
 70
0
 71
3
 72
8
 73
4
 74
2
 42
0.0000001
 43
0.0000001
 44
0.0000000001
 12
2.0961848212
 22
1.0451179824
 32
0.0
 13
2.096524899
 23
1.044435613
 33
0.0
 40
0.0
 40
0.0
 40
0.0
 40
0.0
 40
1.0
 40
1.0
 40
1.0
 40
1.0
 10
-6.2709560098
 20
-33.3417573855
 30
0.0
 10
-5.572227736
 20
-32.9933847247
 30
0.0
 10
-4.8731004457
 20
-32.6458129071
 30
0.0
 10
-4.1742588127
 20
-32.2976677028
 30
0.0
 11
-6.2709560098
 21
-33.3417573855
 31
0.0
 11
-4.1742588127
 21
-32.2976677028
 31
0.0
  0
LINE
  5
49B
100
AcDbEntity
  8
ASSI
100
AcDbLine
 62
7
  6
CONTINUOUS
 10
-4.1742588127
 20
-32.2976677028
 11
-4.1413744066
 21
-32.2812844585
  0
LINE
  5
49C
100
AcDbEntity
  8
ASSI
100
AcDbLine
 62
7
  6
CONTINUOUS
 10
-4.1413744066
 20
-32.2812844585
 11
-3.5763576097
 21
-31.9993603462
  0
LINE
  5
49D
100
AcDbEntity
  8
ASSI
100
AcDbLine
 62
7
  6
CONTINUOUS
 10
-8.8295634355
 20
-0.1519697944
 11
-8.674837517
 21
-0.0738803238
  0
LINE
  5
49E
100
AcDbEntity
  8
ASSI
100
AcDbLine
 62
7
  6
CONTINUOUS
 10
-8.674837517
 20
-0.0738803238
 11
-3.8282434188
 21
2.3716674565
  0
LINE
  5
49F
100
AcDbEntity
  8
ASSI
100
AcDbLine
 62
7
  6
CONTINUOUS
 10
-3.8282434188
 20
2.3716674565
 11
-3.5763576097
 21
2.4987360672
  0
SPLINE
  5
4A0
100
AcDbEntity
  8
ASSI
100
AcDbSpline
 62
253
  6
CONTINUOUS
 70
0
 71
3
 72
11
 73
7
 74
5
 42
0.0000001
 43
0.0000001
 44
0.0000000001
 12
0.8615360196
 22
0.4138566224
 32
0.0
 13
0.0068449573
 23
0.9557587371
 33
0.0
 40
0.0
 40
0.0
 40
0.0
 40
0.0
 40
0.216441358
 40
0.449485216
 40
0.7101485206
 40
1.0
 40
1.0
 40
1.0
 40
1.0
 10
-15.2136581817
 20
-36.2953109085
 30
0.0
 10
-15.1515008397
 20
-36.2654523454
 30
0.0
 10
-15.0334714341
 20
-36.1779961437
 30
0.0
 10
-14.9060040674
 20
-35.9868135445
 30
0.0
 10
-14.8293595974
 20
-35.7466396846
 30
0.0
 10
-14.8128862069
 20
-35.5707471205
 30
0.0
 10
-14.8122248665
 20
-35.4784044258
 30
0.0
 11
-15.2136581817
 21
-36.2953109085
 31
0.0
 11
-15.0464913874
 21
-36.1734467074
 31
0.0
 11
-14.9199464537
 21
-35.9901457881
 31
0.0
 11
-14.8405940282
 21
-35.7539832463
 31
0.0
 11
-14.8122248665
 21
-35.4784044258
 31
0.0
  0
SPLINE
  5
4A1
100
AcDbEntity
  8
ASSI
100
AcDbSpline
 62
7
  6
CONTINUOUS
 70
0
 71
3
 72
12
 73
8
 74
6
 42
0.0000001
 43
0.0000001
 44
0.0000000001
 12
-0.3318575136
 22
-0.1468134931
 32
0.0
 13
0.077372448
 23
0.3545378899
 33
0.0
 40
0.0
 40
0.0
 40
0.0
 40
0.0
 40
0.0200923536
 40
0.0624668373
 40
0.2151665025
 40
0.5142512939
 40
1.0
 40
1.0
 40
1.0
 40
1.0
 10
-3.5710515408
 20
1.8553630083
 30
0.0
 10
-3.5732741403
 20
1.8543797321
 30
0.0
 10
-3.5811602194
 20
1.8587422145
 30
0.0
 10
-3.6004844489
 20
1.8736821309
 30
0.0
 10
-3.6427288955
 20
1.9198917433
 30
0.0
 10
-3.6696503291
 20
2.0350610702
 30
0.0
 10
-3.6487031632
 20
2.1293306503
 30
0.0
 10
-3.6361753077
 20
2.1867360907
 30
0.0
 11
-3.5710515408
 21
1.8553630083
 31
0.0
 11
-3.5781117697
 21
1.8571835008
 31
0.0
 11
-3.5905362878
 21
1.8662434142
 31
0.0
 11
-3.6272846895
 21
1.9077168569
 31
0.0
 11
-3.6579754194
 21
2.0118197081
 31
0.0
 11
-3.6361753077
 21
2.1867360907
 31
0.0
  0
LINE
  5
4A2
100
AcDbEntity
  8
ASSI
100
AcDbLine
 62
7
  6
CONTINUOUS
 10
-15.808950319
 20
-1.1623584742
 11
-16.1370523463
 21
-0.9802694347
  0
LINE
  5
4A3
100
AcDbEntity
  8
ASSI
100
AcDbLine
 62
7
  6
CONTINUOUS
 10
-16.1370523463
 20
-0.9802694347
 11
-16.3012141453
 21
-0.889112681
  0
LINE
  5
4A4
100
AcDbEntity
  8
ASSI
100
AcDbLine
 62
7
  6
CONTINUOUS
 10
-16.3012141453
 20
-0.889112681
 11
-16.7270525493
 21
-0.6524896564
  0
LINE
  5
4A5
100
AcDbEntity
  8
ASSI
100
AcDbLine
 62
7
  6
CONTINUOUS
 10
-16.7270525493
 20
-0.6524896564
 11
-16.7941401442
 21
-0.6151900168
  0
SPLINE
  5
4A6
100
AcDbEntity
  8
ASSI
100
AcDbSpline
 62
7
  6
CONTINUOUS
 70
0
 71
3
 72
9
 73
5
 74
3
 42
0.0000001
 43
0.0000001
 44
0.0000000001
 12
-0.030513185
 22
-0.0194713263
 32
0.0
 13
-0.0174889122
 23
-0.0316910864
 33
0.0
 40
0.0
 40
0.0
 40
0.0
 40
0.0
 40
0.7304263183
 40
1.0
 40
1.0
 40
1.0
 40
1.0
 10
-15.2572103016
 20
-1.4382284829
 30
0.0
 10
-15.2646395128
 20
-1.4429692726
 30
0.0
 10
-15.2733134355
 20
-1.4508165704
 30
0.0
 10
-15.2859161772
 20
-1.4552140051
 30
0.0
 10
-15.2874876941
 20
-1.4580616994
 30
0.0
 11
-15.2572103016
 21
-1.4382284829
 31
0.0
 11
-15.2794069494
 21
-1.4525924383
 31
0.0
 11
-15.2874876941
 21
-1.4580616994
 31
0.0
  0
LINE
  5
4A7
100
AcDbEntity
  8
ASSI
100
AcDbLine
 62
7
  6
CONTINUOUS
 10
-21.1841659799
 20
1.579822901
 11
-21.5183401441
 21
1.7285645844
  0
LINE
  5
4A8
100
AcDbEntity
  8
ASSI
100
AcDbLine
 62
7
  6
CONTINUOUS
 10
-21.5183401441
 20
1.7285645844
 11
-21.6852374346
 21
1.8028989637
  0
LINE
  5
4A9
100
AcDbEntity
  8
ASSI
100
AcDbLine
 62
7
  6
CONTINUOUS
 10
-21.6852374346
 20
1.8028989637
 11
-22.0975684954
 21
1.9866817023
  0
LINE
  5
4AA
100
AcDbEntity
  8
ASSI
100
AcDbLine
 62
7
  6
CONTINUOUS
 10
-22.0975684954
 20
1.9866817023
 11
-22.1851724452
 21
2.0257525889
  0
SPLINE
  5
4AB
100
AcDbEntity
  8
ASSI
100
AcDbSpline
 62
7
  6
CONTINUOUS
 70
0
 71
3
 72
8
 73
4
 74
2
 42
0.0000001
 43
0.0000001
 44
0.0000000001
 12
-0.1513191141
 22
-0.1776109448
 32
0.0
 13
-0.0742824043
 23
-0.2211905206
 33
0.0
 40
0.0
 40
0.0
 40
0.0
 40
0.0
 40
1.0
 40
1.0
 40
1.0
 40
1.0
 10
-15.6949010633
 20
-36.433089341
 30
0.0
 10
-15.745340768
 20
-36.4922929892
 30
0.0
 10
-15.7841895176
 20
-36.5629172409
 30
0.0
 10
-15.808950319
 20
-36.6366474144
 30
0.0
 11
-15.6949010633
 21
-36.433089341
 31
0.0
 11
-15.808950319
 21
-36.6366474144
 31
0.0
  0
LINE
  5
4AC
100
AcDbEntity
  8
ASSI
100
AcDbLine
 62
7
  6
CONTINUOUS
 10
-16.7941401442
 20
-36.1828094065
 11
-16.4722987279
 21
-36.3311369735
  0
LINE
  5
4AD
100
AcDbEntity
  8
ASSI
100
AcDbLine
 62
7
  6
CONTINUOUS
 10
-16.4722987279
 20
-36.3311369735
 11
-16.1439037183
 21
-36.4824170124
  0
LINE
  5
4AE
100
AcDbEntity
  8
ASSI
100
AcDbLine
 62
7
  6
CONTINUOUS
 10
-16.1439037183
 20
-36.4824170124
 11
-15.808950319
 21
-36.6366474144
  0
SPLINE
  5
4AF
100
AcDbEntity
  8
ASSI
100
AcDbSpline
 62
7
  6
CONTINUOUS
 70
0
 71
3
 72
8
 73
4
 74
2
 42
0.0000001
 43
0.0000001
 44
0.0000000001
 12
-0.1189132548
 22
0.4195854632
 32
0.0
 13
-0.0633320622
 23
0.4314873961
 33
0.0
 40
0.0
 40
0.0
 40
0.0
 40
0.0
 40
1.0
 40
1.0
 40
1.0
 40
1.0
 10
-15.165143963
 20
-1.8645102118
 30
0.0
 10
-15.2047817146
 20
-1.7246483907
 30
0.0
 10
-15.2360996142
 20
-1.5820576149
 30
0.0
 10
-15.2572103016
 20
-1.4382284829
 30
0.0
 11
-15.165143963
 21
-1.8645102118
 31
0.0
 11
-15.2572103016
 21
-1.4382284829
 31
0.0
  0
SPLINE
  5
4B0
100
AcDbEntity
  8
ASSI
100
AcDbSpline
 62
7
  6
CONTINUOUS
 70
0
 71
3
 72
9
 73
5
 74
3
 42
0.0000001
 43
0.0000001
 44
0.0000000001
 12
-0.1588832139
 22
-0.2927488124
 32
0.0
 13
-0.1358526047
 23
-0.3041213781
 33
0.0
 40
0.0
 40
0.0
 40
0.0
 40
0.0
 40
0.2613131483
 40
1.0
 40
1.0
 40
1.0
 40
1.0
 10
-22.853541051
 20
2.2826144069
 30
0.0
 10
-22.8673804753
 20
2.2571147023
 30
0.0
 10
-22.9196985648
 20
2.1591922532
 30
0.0
 10
-22.9690579064
 20
2.0596273955
 30
0.0
 10
-23.0025087507
 20
1.9847439077
 30
0.0
 11
-22.853541051
 21
2.2826144069
 31
0.0
 11
-22.8945212479
 21
2.2058257042
 31
0.0
 11
-23.0025087507
 21
1.9847439077
 31
0.0
  0
SPLINE
  5
4B1
100
AcDbEntity
  8
ASSI
100
AcDbSpline
 62
7
  6
CONTINUOUS
 70
0
 71
3
 72
9
 73
5
 74
3
 42
0.0000001
 43
0.0000001
 44
0.0000000001
 12
0.0767051753
 22
0.3122255757
 32
0.0
 13
0.1286670245
 23
0.2946409524
 33
0.0
 40
0.0
 40
0.0
 40
0.0
 40
0.0
 40
0.2364036729
 40
1.0
 40
1.0
 40
1.0
 40
1.0
 10
-15.1738906691
 20
-36.9541772394
 30
0.0
 10
-15.1678462073
 20
-36.9295734818
 30
0.0
 10
-15.1392210006
 20
-36.8262452895
 30
0.0
 10
-15.1003093027
 20
-36.7260060113
 30
0.0
 10
-15.0675594136
 20
-36.6510104282
 30
0.0
 11
-15.1738906691
 21
-36.9541772394
 31
0.0
 11
-15.1537371213
 21
-36.8808917826
 31
0.0
 11
-15.0675594136
 21
-36.6510104282
 31
0.0
  0
SPLINE
  5
4B2
100
AcDbEntity
  8
ASSI
100
AcDbSpline
 62
253
  6
CONTINUOUS
 70
0
 71
3
 72
9
 73
5
 74
3
 42
0.0000001
 43
0.0000001
 44
0.0000000001
 12
-0.2035448509
 22
-0.1039479508
 32
0.0
 13
-0.145666608
 23
-0.1761162176
 33
0.0
 40
0.0
 40
0.0
 40
0.0
 40
0.0
 40
0.2304036822
 40
1.0
 40
1.0
 40
1.0
 40
1.0
 10
-24.1734215283
 20
2.8715104349
 30
0.0
 10
-24.1890540227
 20
2.8635271046
 30
0.0
 10
-24.254543889
 20
2.8243049353
 30
0.0
 10
-24.3107163222
 20
2.7706726912
 30
0.0
 10
-24.3480844839
 20
2.725493227
 30
0.0
 11
-24.1734215283
 21
2.8715104349
 31
0.0
 11
-24.2187376114
 21
2.844688269
 31
0.0
 11
-24.3480844839
 21
2.725493227
 31
0.0
  0
SPLINE
  5
4B3
100
AcDbEntity
  8
ASSI
100
AcDbSpline
 62
253
  6
CONTINUOUS
 70
0
 71
3
 72
8
 73
4
 74
2
 42
0.0000001
 43
0.0000001
 44
0.0000000001
 12
-0.1408109001
 22
-0.2158004124
 32
0.0
 13
-0.0641105278
 23
-0.2495743733
 33
0.0
 40
0.0
 40
0.0
 40
0.0
 40
0.0
 40
1.0
 40
1.0
 40
1.0
 40
1.0
 10
-24.3982587637
 20
2.6571874289
 30
0.0
 10
-24.4451957304
 20
2.5852539581
 30
0.0
 10
-24.4811802438
 20
2.504750412
 30
0.0
 10
-24.5025504197
 20
2.4215589542
 30
0.0
 11
-24.3982587637
 21
2.6571874289
 31
0.0
 11
-24.5025504197
 21
2.4215589542
 31
0.0
  0
SPLINE
  5
4B4
100
AcDbEntity
  8
ASSI
100
AcDbSpline
 62
253
  6
CONTINUOUS
 70
0
 71
3
 72
9
 73
5
 74
3
 42
0.0000001
 43
0.0000001
 44
0.0000000001
 12
-0.0397920533
 22
-0.154905553
 32
0.0
 13
-0.0
 23
-0.1599347925
 33
0.0
 40
0.0
 40
0.0
 40
0.0
 40
0.0
 40
0.2610878045
 40
1.0
 40
1.0
 40
1.0
 40
1.0
 10
-24.5025504197
 20
2.4215589542
 30
0.0
 10
-24.506013493
 20
2.4080776373
 30
0.0
 10
-24.5178248354
 20
2.356098619
 30
0.0
 10
-24.5238896227
 20
2.3026727631
 30
0.0
 10
-24.5238896227
 20
2.2632801736
 30
0.0
 11
-24.5025504197
 21
2.4215589542
 31
0.0
 11
-24.5117893634
 21
2.3808368354
 31
0.0
 11
-24.5238896227
 21
2.2632801736
 31
0.0
  0
SPLINE
  5
4B5
100
AcDbEntity
  8
ASSI
100
AcDbSpline
 62
253
  6
CONTINUOUS
 70
0
 71
3
 72
9
 73
5
 74
3
 42
0.0000001
 43
0.0000001
 44
0.0000000001
 12
-0.644982395
 22
-0.3293848897
 32
0.0
 13
0.0
 23
-0.7242214408
 33
0.0
 40
0.0
 40
0.0
 40
0.0
 40
0.0
 40
0.4883235049
 40
1.0
 40
1.0
 40
1.0
 40
1.0
 10
-13.1858459262
 20
-2.6222773662
 30
0.0
 10
-13.2908326141
 20
-2.6758928275
 30
0.0
 10
-13.4599162493
 20
-2.8673823234
 30
0.0
 10
-13.5363140206
 20
-3.1069852646
 30
0.0
 10
-13.5363140205
 20
-3.2305076275
 30
0.0
 11
-13.1858459262
 21
-2.6222773662
 31
0.0
 11
-13.433865784
 21
-2.8743835958
 31
0.0
 11
-13.5363140205
 21
-3.2305076275
 31
0.0
  0
SPLINE
  5
4B6
100
AcDbEntity
  8
ASSI
100
AcDbSpline
 62
253
  6
CONTINUOUS
 70
0
 71
3
 72
9
 73
5
 74
3
 42
0.0000001
 43
0.0000001
 44
0.0000000001
 12
-0.6245533516
 22
-0.3131375328
 32
0.0
 13
-0.5657088144
 23
-0.4099945619
 33
0.0
 40
0.0
 40
0.0
 40
0.0
 40
0.0
 40
0.5263158028
 40
1.0
 40
1.0
 40
1.0
 40
1.0
 10
-12.9358554454
 20
-2.8740942615
 30
0.0
 10
-13.0454262116
 20
-2.9290306721
 30
0.0
 10
-13.2483254125
 20
-3.0435355484
 30
0.0
 10
-13.4469915787
 20
-3.1657716458
 30
0.0
 10
-13.5363140205
 20
-3.2305076275
 30
0.0
 11
-12.9358554454
 21
-2.8740942615
 31
0.0
 11
-13.2578317374
 21
-3.0517037365
 31
0.0
 11
-13.5363140205
 21
-3.2305076275
 31
0.0
  0
SPLINE
  5
4B7
100
AcDbEntity
  8
ASSI
100
AcDbSpline
 62
253
  6
CONTINUOUS
 70
0
 71
3
 72
9
 73
5
 74
3
 42
0.0000001
 43
0.0000001
 44
0.0000000001
 12
-0.6245533516
 22
-0.3131375328
 32
0.0
 13
-0.5657088144
 23
-0.4099945619
 33
0.0
 40
0.0
 40
0.0
 40
0.0
 40
0.0
 40
0.5263158021
 40
1.0
 40
1.0
 40
1.0
 40
1.0
 10
-11.0451458848
 20
-6.1350858794
 30
0.0
 10
-11.1547166509
 20
-6.19002229
 30
0.0
 10
-11.3576158516
 20
-6.3045271665
 30
0.0
 10
-11.5562820179
 20
-6.4267632637
 30
0.0
 10
-11.6456044599
 20
-6.4914992454
 30
0.0
 11
-11.0451458848
 21
-6.1350858794
 31
0.0
 11
-11.3671221763
 21
-6.3126953543
 31
0.0
 11
-11.6456044599
 21
-6.4914992454
 31
0.0
  0
SPLINE
  5
4B8
100
AcDbEntity
  8
ASSI
100
AcDbSpline
 62
253
  6
CONTINUOUS
 70
0
 71
3
 72
9
 73
5
 74
3
 42
0.0000001
 43
0.0000001
 44
0.0000000001
 12
-0.6451137459
 22
-0.3169757563
 32
0.0
 13
-0.6428968037
 23
0.3214484019
 33
0.0
 40
0.0
 40
0.0
 40
0.0
 40
0.0
 40
0.5006103378
 40
1.0
 40
1.0
 40
1.0
 40
1.0
 10
-10.9415964372
 20
-6.4930351624
 30
0.0
 10
-11.0492466406
 20
-6.5459289426
 30
0.0
 10
-11.2938994352
 20
-6.5840324117
 30
0.0
 10
-11.5385857874
 20
-6.5450085817
 30
0.0
 10
-11.6456044599
 20
-6.4914992454
 30
0.0
 11
-10.9415964372
 21
-6.4930351624
 31
0.0
 11
-11.2942064868
 21
-6.5647499964
 31
0.0
 11
-11.6456044599
 21
-6.4914992454
 31
0.0
  0
SPLINE
  5
4B9
100
AcDbEntity
  8
ASSI
100
AcDbSpline
 62
253
  6
CONTINUOUS
 70
0
 71
3
 72
9
 73
5
 74
3
 42
0.0000001
 43
0.0000001
 44
0.0000000001
 12
-0.6451137456
 22
-0.3169757561
 32
0.0
 13
-0.6428968034
 23
0.3214484017
 33
0.0
 40
0.0
 40
0.0
 40
0.0
 40
0.0
 40
0.5006103376
 40
1.0
 40
1.0
 40
1.0
 40
1.0
 10
-10.9415964372
 20
-35.5384692983
 30
0.0
 10
-11.0492466405
 20
-35.5913630783
 30
0.0
 10
-11.2938994351
 20
-35.6294665458
 30
0.0
 10
-11.5385857874
 20
-35.5904427175
 30
0.0
 10
-11.6456044599
 20
-35.5369333813
 30
0.0
 11
-10.9415964372
 21
-35.5384692983
 31
0.0
 11
-11.2942064866
 21
-35.6101841314
 31
0.0
 11
-11.6456044599
 21
-35.5369333813
 31
0.0
  0
SPLINE
  5
4BA
100
AcDbEntity
  8
ASSI
100
AcDbSpline
 62
253
  6
CONTINUOUS
 70
0
 71
3
 72
10
 73
6
 74
4
 42
0.0000001
 43
0.0000001
 44
0.0000000001
 12
-0.6342563937
 22
-0.3084741998
 32
0.0
 13
-0.3537648134
 23
0.6101540475
 33
0.0
 40
0.0
 40
0.0
 40
0.0
 40
0.0
 40
0.2231377721
 40
0.4671199133
 40
1.0
 40
1.0
 40
1.0
 40
1.0
 10
-11.0451458848
 20
-35.7928691337
 30
0.0
 10
-11.0923214043
 20
-35.8158132156
 30
0.0
 10
-11.2048159715
 20
-35.8379134195
 30
0.0
 10
-11.4381444838
 20
-35.7826857569
 30
0.0
 10
-11.5827663851
 20
-35.6453130285
 30
0.0
 10
-11.6456044599
 20
-35.5369333813
 30
0.0
 11
-11.0451458848
 21
-35.7928691337
 31
0.0
 11
-11.1989969603
 21
-35.8259975416
 31
0.0
 11
-11.3671221768
 21
-35.7893230843
 31
0.0
 11
-11.6456044599
 21
-35.5369333813
 31
0.0
  0
SPLINE
  5
4BB
100
AcDbEntity
  8
ASSI
100
AcDbSpline
 62
253
  6
CONTINUOUS
 70
0
 71
3
 72
8
 73
4
 74
2
 42
0.0000001
 43
0.0000001
 44
0.0000000001
 12
-0.0617649788
 22
-0.0300397483
 32
0.0
 13
-0.0667508122
 23
-0.0161749234
 33
0.0
 40
0.0
 40
0.0
 40
0.0
 40
0.0
 40
1.0
 40
1.0
 40
1.0
 40
1.0
 10
-12.9358554454
 20
-37.163151191
 30
0.0
 10
-12.9564437717
 20
-37.1731644404
 30
0.0
 10
-12.9782892985
 20
-37.1808520423
 30
0.0
 10
-13.0005395692
 20
-37.1862436834
 30
0.0
 11
-12.9358554454
 21
-37.163151191
 31
0.0
 11
-13.0005395692
 21
-37.1862436834
 31
0.0
  0
SPLINE
  5
4BC
100
AcDbEntity
  8
ASSI
100
AcDbSpline
 62
253
  6
CONTINUOUS
 70
0
 71
3
 72
8
 73
4
 74
2
 42
0.0000001
 43
0.0000001
 44
0.0000000001
 12
-0.1399282483
 22
-0.0339071334
 32
0.0
 13
-0.1424633724
 23
0.0208277674
 33
0.0
 40
0.0
 40
0.0
 40
0.0
 40
0.0
 40
1.0
 40
1.0
 40
1.0
 40
1.0
 10
-13.0005395692
 20
-37.1862436834
 30
0.0
 10
-13.0471823186
 20
-37.1975460612
 30
0.0
 10
-13.0969126795
 20
-37.1989870919
 30
0.0
 10
-13.1444004703
 20
-37.1920445028
 30
0.0
 11
-13.0005395692
 21
-37.1862436834
 31
0.0
 11
-13.1444004703
 21
-37.1920445028
 31
0.0
  0
SPLINE
  5
4BD
100
AcDbEntity
  8
ASSI
100
AcDbSpline
 62
253
  6
CONTINUOUS
 70
0
 71
3
 72
9
 73
5
 74
3
 42
0.0000001
 43
0.0000001
 44
0.0000000001
 12
-0.2379581442
 22
0.0347888499
 32
0.0
 13
-0.1942987082
 23
0.141712224
 33
0.0
 40
0.0
 40
0.0
 40
0.0
 40
0.0
 40
0.2402918745
 40
1.0
 40
1.0
 40
1.0
 40
1.0
 10
-13.1444004703
 20
-37.1920445028
 30
0.0
 10
-13.1634602731
 20
-37.1892580101
 30
0.0
 10
-13.2419392024
 20
-37.1721106287
 30
0.0
 10
-13.3153629027
 20
-37.1345620104
 30
0.0
 10
-13.3645663385
 20
-37.0986753677
 30
0.0
 11
-13.1444004703
 21
-37.1920445028
 31
0.0
 11
-13.2008840813
 21
-37.1798392861
 31
0.0
 11
-13.3645663385
 21
-37.0986753677
 31
0.0
  0
SPLINE
  5
4BE
100
AcDbEntity
  8
ASSI
100
AcDbSpline
 62
253
  6
CONTINUOUS
 70
0
 71
3
 72
9
 73
5
 74
3
 42
0.0000001
 43
0.0000001
 44
0.0000000001
 12
-0.0008317169
 22
-0.2797903318
 32
0.0
 13
-0.2264169745
 23
-0.1643735842
 33
0.0
 40
0.0
 40
0.0
 40
0.0
 40
0.0
 40
0.2909728637
 40
1.0
 40
1.0
 40
1.0
 40
1.0
 10
-10.9415964372
 20
-35.5384692983
 30
0.0
 10
-10.9416771062
 20
-35.5656064296
 30
0.0
 10
-10.9481442156
 20
-35.6577572206
 30
0.0
 10
-10.9916339584
 20
-35.7540206898
 30
0.0
 10
-11.0451458848
 20
-35.7928691337
 30
0.0
 11
-10.9415964372
 21
-35.5384692983
 31
0.0
 11
-10.9485751418
 21
-35.6195813894
 31
0.0
 11
-11.0451458848
 21
-35.7928691337
 31
0.0
  0
SPLINE
  5
4BF
100
AcDbEntity
  8
ASSI
100
AcDbSpline
 62
253
  6
CONTINUOUS
 70
0
 71
3
 72
9
 73
5
 74
3
 42
0.0000001
 43
0.0000001
 44
0.0000000001
 12
0.3193918974
 22
-0.1608669662
 32
0.0
 13
0.1802655507
 23
-0.3088586993
 33
0.0
 40
0.0
 40
0.0
 40
0.0
 40
0.0
 40
0.2265159904
 40
1.0
 40
1.0
 40
1.0
 40
1.0
 10
-13.1858459262
 20
-2.6222773662
 30
0.0
 10
-13.1617301355
 20
-2.6344236796
 30
0.0
 10
-13.0606742637
 20
-2.6986695737
 30
0.0
 10
-12.9823329524
 20
-2.7944618397
 30
0.0
 10
-12.9358554454
 20
-2.8740942615
 30
0.0
 11
-13.1858459262
 21
-2.6222773662
 31
0.0
 11
-13.1171140663
 21
-2.6651477526
 31
0.0
 11
-12.9358554454
 21
-2.8740942615
 31
0.0
  0
SPLINE
  5
4C0
100
AcDbEntity
  8
ASSI
100
AcDbSpline
 62
253
  6
CONTINUOUS
 70
0
 71
3
 72
9
 73
5
 74
3
 42
0.0000001
 43
0.0000001
 44
0.0000000001
 12
0.1870583359
 22
-0.3247806974
 32
0.0
 13
0.0011173991
 23
-0.374796043
 33
0.0
 40
0.0
 40
0.0
 40
0.0
 40
0.0
 40
0.2613136677
 40
1.0
 40
1.0
 40
1.0
 40
1.0
 10
-11.0451458848
 20
-6.1350858794
 30
0.0
 10
-11.0288522515
 20
-6.1633757578
 30
0.0
 10
-10.9731326047
 20
-6.2750922431
 30
0.0
 10
-10.941871573
 20
-6.400749591
 30
0.0
 10
-10.9415964372
 20
-6.4930351624
 30
0.0
 11
-11.0451458848
 21
-6.1350858794
 31
0.0
 11
-11.0014017934
 21
-6.2227137963
 31
0.0
 11
-10.9415964372
 21
-6.4930351624
 31
0.0
  0
SPLINE
  5
4C1
100
AcDbEntity
  8
ASSI
100
AcDbSpline
 62
253
  6
CONTINUOUS
 70
0
 71
3
 72
10
 73
6
 74
4
 42
0.0000001
 43
0.0000001
 44
0.0000000001
 12
1.1633412572
 22
2.5595276933
 32
0.0
 13
2.7058721158
 23
0.7634140333
 33
0.0
 40
0.0
 40
0.0
 40
0.0
 40
0.0
 40
0.516637044
 40
0.7592123634
 40
1.0
 40
1.0
 40
1.0
 40
1.0
 10
-26.7928089579
 20
-13.5279289152
 30
0.0
 10
-26.5924672285
 20
-13.0871466413
 30
0.0
 10
-26.1791989166
 20
-12.4756222991
 30
0.0
 10
-25.4151366664
 20
-11.9206884236
 30
0.0
 10
-24.99141642
 20
-11.7465435865
 30
0.0
 10
-24.7742362361
 20
-11.6852700328
 30
0.0
 11
-26.7928089579
 21
-13.5279289152
 31
0.0
 11
-25.9527689791
 21
-12.342954136
 31
0.0
 11
-25.400069766
 21
-11.9433931018
 31
0.0
 11
-24.7742362361
 21
-11.6852700328
 31
0.0
  0
SPLINE
  5
4C2
100
AcDbEntity
  8
ASSI
100
AcDbSpline
 62
253
  6
CONTINUOUS
 70
0
 71
3
 72
13
 73
9
 74
7
 42
0.0000001
 43
0.0000001
 44
0.0000000001
 12
10.7469468318
 22
3.0320612637
 32
0.0
 13
3.391650166
 23
-10.6389365476
 33
0.0
 40
0.0
 40
0.0
 40
0.0
 40
0.0
 40
0.0929110161
 40
0.19467705
 40
0.3080225061
 40
0.4331443821
 40
0.7099130799
 40
1.0
 40
1.0
 40
1.0
 40
1.0
 10
-24.7742362361
 20
-11.6852700328
 30
0.0
 10
-24.4413996527
 20
-11.5913660686
 30
0.0
 10
-23.7052049075
 20
-11.5197862248
 30
0.0
 10
-22.5694214474
 20
-11.7515112249
 30
0.0
 10
-21.4144893772
 20
-12.294716725
 30
0.0
 10
-19.8600287758
 20
-13.4334273864
 30
0.0
 10
-18.1853659362
 20
-15.4396604151
 30
0.0
 10
-17.2722331918
 20
-17.3700262248
 30
0.0
 10
-16.9442754082
 20
-18.3987650036
 30
0.0
 11
-24.7742362361
 21
-11.6852700328
 31
0.0
 11
-23.7428718943
 21
-11.5727049141
 31
0.0
 11
-22.6262157499
 21
-11.783446492
 31
0.0
 11
-21.4748044669
 21
-12.308967035
 31
0.0
 11
-20.3407963725
 21
-13.1251238962
 31
0.0
 11
-18.3269523145
 21
-15.4694404027
 31
0.0
 11
-16.9442754082
 21
-18.3987650036
 31
0.0
  0
SPLINE
  5
4C3
100
AcDbEntity
  8
ASSI
100
AcDbSpline
 62
253
  6
CONTINUOUS
 70
0
 71
3
 72
9
 73
5
 74
3
 42
0.0000001
 43
0.0000001
 44
0.0000000001
 12
0.4951504249
 22
-0.522643346
 32
0.0
 13
0.6501495677
 23
0.3092499797
 33
0.0
 40
0.0
 40
0.0
 40
0.0
 40
0.0
 40
0.5236816904
 40
1.0
 40
1.0
 40
1.0
 40
1.0
 10
-26.7928089203
 20
-13.5279289572
 30
0.0
 10
-26.7063751832
 20
-13.6191618741
 30
0.0
 10
-26.4877168572
 20
-13.7441032885
 30
0.0
 10
-26.2267213497
 20
-13.7431436103
 30
0.0
 10
-26.123495302
 20
-13.6940431344
 30
0.0
 11
-26.7928089203
 21
-13.5279289572
 31
0.0
 11
-26.4657498046
 21
-13.7154935043
 31
0.0
 11
-26.123495302
 21
-13.6940431344
 31
0.0
  0
SPLINE
  5
4C4
100
AcDbEntity
  8
ASSI
100
AcDbSpline
 62
253
  6
CONTINUOUS
 70
0
 71
3
 72
9
 73
5
 74
3
 42
0.0000001
 43
0.0000001
 44
0.0000000001
 12
0.6975686924
 22
0.038736845
 32
0.0
 13
0.626620842
 23
0.3089481253
 33
0.0
 40
0.0
 40
0.0
 40
0.0
 40
0.0
 40
0.4767927645
 40
1.0
 40
1.0
 40
1.0
 40
1.0
 10
-26.792808916
 20
-19.010153458
 30
0.0
 10
-26.6819436809
 20
-19.0039969755
 30
0.0
 10
-26.4532873269
 20
-18.9495778486
 30
0.0
 10
-26.2327794963
 20
-18.8724681205
 30
0.0
 10
-26.1234953101
 20
-18.8185868223
 30
0.0
 11
-26.792808916
 21
-19.010153458
 31
0.0
 11
-26.4657527053
 21
-18.9469453988
 31
0.0
 11
-26.1234953101
 21
-18.8185868223
 31
0.0
  0
SPLINE
  5
4C5
100
AcDbEntity
  8
ASSI
100
AcDbSpline
 62
253
  6
CONTINUOUS
 70
0
 71
3
 72
9
 73
5
 74
3
 42
0.0000001
 43
0.0000001
 44
0.0000000001
 12
-0.6730227102
 22
-1.4807523197
 32
0.0
 13
-1.260129512
 23
-1.0284262801
 33
0.0
 40
0.0
 40
0.0
 40
0.0
 40
0.0
 40
0.263187451
 40
1.0
 40
1.0
 40
1.0
 40
1.0
 10
-16.9242489348
 20
-23.9444334746
 30
0.0
 10
-16.9832926453
 20
-24.0743386174
 30
0.0
 10
-17.2312944393
 20
-24.5563046197
 30
0.0
 10
-17.5838806742
 20
-24.9884171052
 30
0.0
 10
-17.8933737535
 20
-25.2410029016
 30
0.0
 11
-16.9242489348
 21
-23.9444334746
 31
0.0
 11
-17.1210788821
 21
-24.3245801895
 31
0.0
 11
-17.8933737535
 21
-25.2410029016
 31
0.0
  0
SPLINE
  5
4C6
100
AcDbEntity
  8
ASSI
100
AcDbSpline
 62
253
  6
CONTINUOUS
 70
0
 71
3
 72
14
 73
10
 74
8
 42
0.0000001
 43
0.0000001
 44
0.0000000001
 12
-9.6183769782
 22
-7.8498214365
 32
0.0
 13
-3.7029314835
 23
11.8499439116
 33
0.0
 40
0.0
 40
0.0
 40
0.0
 40
0.0
 40
0.0926735449
 40
0.1893158206
 40
0.2970673096
 40
0.4189596221
 40
0.5542934543
 40
0.6997044256
 40
1.0
 40
1.0
 40
1.0
 40
1.0
 10
-17.8933737535
 20
-25.2410029016
 30
0.0
 10
-18.1904967839
 20
-25.4834931614
 30
0.0
 10
-18.9059599073
 20
-25.8616228715
 30
0.0
 10
-20.1595987237
 20
-25.9587037345
 30
0.0
 10
-21.4843307379
 20
-25.6100670339
 30
0.0
 10
-22.8099579374
 20
-24.8600683909
 30
0.0
 10
-24.0723398926
 20
-23.7572670483
 30
0.0
 10
-25.5941367955
 20
-21.8865216857
 30
0.0
 10
-26.4221473513
 20
-20.1963238488
 30
0.0
 10
-26.7928053302
 20
-19.0101619444
 30
0.0
 11
-17.8933737535
 21
-25.2410029016
 31
0.0
 11
-18.9109603976
 21
-25.7779107274
 31
0.0
 11
-20.1054053297
 21
-25.8913154444
 31
0.0
 11
-21.4052819219
 21
-25.5753050289
 31
0.0
 11
-22.732441827
 21
-24.8481791193
 31
0.0
 11
-24.0070696427
 21
-23.7535077415
 31
0.0
 11
-25.1523620221
 21
-22.3580347558
 31
0.0
 11
-26.7928053302
 21
-19.0101619444
 31
0.0
  0
SPLINE
  5
4C7
100
AcDbEntity
  8
ASSI
100
AcDbSpline
 62
253
  6
CONTINUOUS
 70
0
 71
3
 72
9
 73
5
 74
3
 42
0.0000001
 43
0.0000001
 44
0.0000000001
 12
-0.2841381105
 22
0.2999148186
 32
0.0
 13
0.1692816324
 23
0.3768648208
 33
0.0
 40
0.0
 40
0.0
 40
0.0
 40
0.0
 40
0.5422723172
 40
1.0
 40
1.0
 40
1.0
 40
1.0
 10
-16.924248969
 20
-23.9444334361
 30
0.0
 10
-16.9756090462
 20
-23.8902216015
 30
0.0
 10
-17.0552549642
 20
-23.7704045669
 30
0.0
 10
-17.0524824754
 20
-23.620002391
 30
0.0
 10
-17.0266541789
 20
-23.5625019039
 30
0.0
 11
-16.924248969
 21
-23.9444334361
 31
0.0
 11
-17.037752703
 21
-23.7512808353
 31
0.0
 11
-17.0266541789
 21
-23.5625019039
 31
0.0
  0
SPLINE
  5
4C8
100
AcDbEntity
  8
ASSI
100
AcDbSpline
 62
253
  6
CONTINUOUS
 70
0
 71
3
 72
9
 73
5
 74
3
 42
0.0000001
 43
0.0000001
 44
0.0000000001
 12
-0.1296625224
 22
-0.0072003026
 32
0.0
 13
-0.0445090864
 23
0.1219965381
 33
0.0
 40
0.0
 40
0.0
 40
0.0
 40
0.0
 40
0.6592943688
 40
1.0
 40
1.0
 40
1.0
 40
1.0
 10
-16.9242489729
 20
-18.4622089316
 30
0.0
 10
-16.9527442299
 20
-18.4637913046
 30
0.0
 10
-16.9927200046
 20
-18.4655276145
 30
0.0
 10
-17.042636299
 20
-18.4493384693
 30
0.0
 10
-17.0476911311
 20
-18.4354835002
 30
0.0
 11
-16.9242489729
 21
-18.4622089316
 31
0.0
 11
-17.0097766726
 21
-18.4582891425
 31
0.0
 11
-17.0476911311
 21
-18.4354835002
 31
0.0
  0
SPLINE
  5
4C9
100
AcDbEntity
  8
ASSI
100
AcDbSpline
 62
253
  6
CONTINUOUS
 70
0
 71
3
 72
11
 73
7
 74
5
 42
0.0000001
 43
0.0000001
 44
0.0000000001
 12
1.9405329979
 22
-0.9702664989
 32
0.0
 13
1.9472246623
 23
0.9567661727
 33
0.0
 40
0.0
 40
0.0
 40
0.0
 40
0.0
 40
0.2350941399
 40
0.4994782113
 40
0.764081181
 40
1.0
 40
1.0
 40
1.0
 40
1.0
 10
-16.9242489348
 20
-35.4737966749
 30
0.0
 10
-16.7721796227
 20
-35.5498313309
 30
0.0
 10
-16.4227816265
 20
-35.6585960917
 30
0.0
 10
-15.8697758485
 20
-35.71131249
 30
0.0
 10
-15.3159559052
 20
-35.6608246761
 30
0.0
 10
-14.9653538474
 20
-35.553644141
 30
0.0
 10
-14.8122248665
 20
-35.4784044258
 30
0.0
 11
-16.9242489348
 21
-35.4737966749
 31
0.0
 11
-16.4405899203
 21
-35.6357567282
 31
0.0
 11
-15.8698967379
 21
-35.6934590516
 31
0.0
 11
-15.2984836875
 21
-35.6382101039
 31
0.0
 11
-14.8122248665
 21
-35.4784044258
 31
0.0
  0
SPLINE
  5
4CA
100
AcDbEntity
  8
ASSI
100
AcDbSpline
 62
253
  6
CONTINUOUS
 70
0
 71
3
 72
9
 73
5
 74
3
 42
0.0000001
 43
0.0000001
 44
0.0000000001
 12
-0.6307771563
 22
0.3098735437
 32
0.0
 13
-0.6237642114
 23
-0.3237586179
 33
0.0
 40
0.0
 40
0.0
 40
0.0
 40
0.0
 40
0.5367155671
 40
1.0
 40
1.0
 40
1.0
 40
1.0
 10
-25.7414046748
 20
-0.1738749311
 30
0.0
 10
-25.8542539812
 20
-0.1184369462
 30
0.0
 10
-26.0837364458
 20
-0.0438222377
 30
0.0
 10
-26.327406578
 20
-0.0872143434
 30
0.0
 10
-26.4237333277
 20
-0.137211786
 30
0.0
 11
-25.7414046748
 21
-0.1738749311
 31
0.0
 11
-26.104674554
 21
-0.0723366627
 31
0.0
 11
-26.4237333277
 21
-0.137211786
 31
0.0
  0
SPLINE
  5
4CB
100
AcDbEntity
  8
ASSI
100
AcDbSpline
 62
253
  6
CONTINUOUS
 70
0
 71
3
 72
11
 73
7
 74
5
 42
0.0000001
 43
0.0000001
 44
0.0000000001
 12
-0.0158641271
 22
2.1995003653
 32
0.0
 13
-1.960318156
 23
0.997600248
 33
0.0
 40
0.0
 40
0.0
 40
0.0
 40
0.0
 40
0.2466547737
 40
0.5119370216
 40
0.7706939914
 40
1.0
 40
1.0
 40
1.0
 40
1.0
 10
-14.8122248665
 20
-6.9374534775
 30
0.0
 10
-14.8135291874
 20
-6.7566143892
 30
0.0
 10
-14.8781425054
 20
-6.3811308434
 30
0.0
 10
-15.1053226819
 20
-5.8587161253
 30
0.0
 10
-15.436763739
 20
-5.411130168
 30
0.0
 10
-15.7230070743
 20
-5.184406853
 30
0.0
 10
-15.8728446516
 20
-5.1081549427
 30
0.0
 11
-14.8122248665
 21
-6.9374534775
 31
0.0
 11
-14.895823145
 21
-6.4014015939
 31
0.0
 11
-15.126743528
 21
-5.8655357506
 31
0.0
 11
-15.4698226756
 21
-5.4114108866
 31
0.0
 11
-15.8728446516
 21
-5.1081549427
 31
0.0
  0
SPLINE
  5
4CC
100
AcDbEntity
  8
ASSI
100
AcDbSpline
 62
253
  6
CONTINUOUS
 70
0
 71
3
 72
11
 73
7
 74
5
 42
0.0000001
 43
0.0000001
 44
0.0000000001
 12
-0.643893607
 22
0.3219468035
 32
0.0
 13
-0.004086896
 23
0.7198833369
 33
0.0
 40
0.0
 40
0.0
 40
0.0
 40
0.0
 40
0.3017079518
 40
0.5653187191
 40
0.7934957886
 40
1.0
 40
1.0
 40
1.0
 40
1.0
 10
-26.7928089579
 20
-30.5395166633
 30
0.0
 10
-26.8575648984
 20
-30.507138693
 30
0.0
 10
-26.9747646386
 20
-30.437344772
 30
0.0
 10
-27.1176705292
 20
-30.3090563623
 30
0.0
 10
-27.2093942996
 20
-30.1657041856
 30
0.0
 10
-27.2318605162
 20
-30.0607641246
 30
0.0
 10
-27.2321418366
 20
-30.0112111443
 30
0.0
 11
-26.7928089579
 21
-30.5395166633
 31
0.0
 11
-26.9782798958
 21
-30.4264878428
 31
0.0
 11
-27.1171646522
 21
-30.2971647668
 31
0.0
 11
-27.2026984875
 21
-30.1569275887
 31
0.0
 11
-27.2321418366
 21
-30.0112111443
 31
0.0
  0
SPLINE
  5
4CD
100
AcDbEntity
  8
ASSI
100
AcDbSpline
 62
253
  6
CONTINUOUS
 70
0
 71
3
 72
11
 73
7
 74
5
 42
0.0000001
 43
0.0000001
 44
0.0000000001
 12
0.0
 22
-0.9301094608
 32
0.0
 13
0.8210327902
 23
-0.437045497
 33
0.0
 40
0.0
 40
0.0
 40
0.0
 40
0.0
 40
0.2886943227
 40
0.5492358894
 40
0.7829642644
 40
1.0
 40
1.0
 40
1.0
 40
1.0
 10
-26.7928089579
 20
-30.5395166633
 30
0.0
 10
-26.7928089579
 20
-30.6290224368
 30
0.0
 10
-26.7782920064
 20
-30.7998691247
 30
0.0
 10
-26.7070763082
 20
-31.0343200112
 30
0.0
 10
-26.5871672966
 20
-31.2231870812
 30
0.0
 10
-26.4753359228
 20
-31.3124904273
 30
0.0
 10
-26.4159381043
 20
-31.3441085909
 30
0.0
 11
-26.7928089579
 21
-30.5395166633
 31
0.0
 11
-26.7677564273
 21
-30.8068627354
 31
0.0
 11
-26.6939774006
 21
-31.0376906773
 31
0.0
 11
-26.5747165075
 21
-31.219450255
 31
0.0
 11
-26.4159381043
 21
-31.3441085909
 31
0.0
  0
SPLINE
  5
4CE
100
AcDbEntity
  8
ASSI
100
AcDbSpline
 62
253
  6
CONTINUOUS
 70
0
 71
3
 72
11
 73
7
 74
5
 42
0.0000001
 43
0.0000001
 44
0.0000000001
 12
0.0000000001
 22
-0.9447123037
 32
0.0
 13
0.8452953354
 23
-0.4218496565
 33
0.0
 40
0.0
 40
0.0
 40
0.0
 40
0.0
 40
0.2892253376
 40
0.5496554441
 40
0.7829671178
 40
1.0
 40
1.0
 40
1.0
 40
1.0
 10
-16.9242489348
 20
-35.4737966749
 30
0.0
 10
-16.9242489347
 20
-35.5648749198
 30
0.0
 10
-16.9092518328
 20
-35.7385655879
 30
0.0
 10
-16.8354154759
 20
-35.9763537233
 30
0.0
 10
-16.7110639535
 20
-36.16657239
 30
0.0
 10
-16.595384186
 20
-36.254647955
 30
0.0
 10
-16.5342318917
 20
-36.2851663706
 30
0.0
 11
-16.9242489348
 21
-35.4737966749
 31
0.0
 11
-16.8982666829
 21
-35.7457932612
 31
0.0
 11
-16.8217796281
 21
-35.9796334677
 31
0.0
 11
-16.698314376
 21
-36.1622203277
 31
0.0
 11
-16.5342318917
 21
-36.2851663706
 31
0.0
  0
SPLINE
  5
4CF
100
AcDbEntity
  8
ASSI
100
AcDbSpline
 62
253
  6
CONTINUOUS
 70
0
 71
3
 72
14
 73
10
 74
8
 42
0.0000001
 43
0.0000001
 44
0.0000000001
 12
-2.238902741
 22
5.149027308
 32
0.0
 13
3.4227093005
 23
4.4508683138
 33
0.0
 40
0.0
 40
0.0
 40
0.0
 40
0.0
 40
0.3002078864
 40
0.4473924834
 40
0.5858574521
 40
0.7080571972
 40
0.8126409786
 40
0.9061935223
 40
1.0
 40
1.0
 40
1.0
 40
1.0
 10
-26.7928053302
 20
-19.0101622495
 30
0.0
 10
-27.0168507501
 20
-18.4949027144
 30
0.0
 10
-27.182845132
 20
-17.6550535808
 30
0.0
 10
-27.2298824141
 20
-16.5613913612
 30
0.0
 10
-27.231414536
 20
-15.7975651078
 30
0.0
 10
-27.2310464644
 20
-15.1141924888
 30
0.0
 10
-27.200269198
 20
-14.5144418935
 30
0.0
 10
-27.0761169982
 20
-13.9772751856
 30
0.0
 10
-26.8998330592
 20
-13.6671023416
 30
0.0
 10
-26.7928089579
 20
-13.5279289152
 30
0.0
 11
-26.7928053302
 21
-19.0101622495
 31
0.0
 11
-27.1810531379
 21
-17.3698993779
 31
0.0
 11
-27.2247784538
 21
-16.5446555121
 31
0.0
 11
-27.2311252102
 21
-15.7672383163
 31
0.0
 11
-27.224768716
 21
-15.0811494621
 31
0.0
 11
-27.1810373138
 21
-14.4955706767
 31
0.0
 11
-27.0521385963
 21
-13.9863596585
 31
0.0
 11
-26.7928089579
 21
-13.5279289152
 31
0.0
  0
SPLINE
  5
4D0
100
AcDbEntity
  8
ASSI
100
AcDbSpline
 62
253
  6
CONTINUOUS
 70
0
 71
3
 72
12
 73
8
 74
6
 42
0.0000001
 43
0.0000001
 44
0.0000000001
 12
2.0481933042
 22
-4.4485932448
 32
0.0
 13
-2.5919072237
 23
-4.1553693713
 33
0.0
 40
0.0
 40
0.0
 40
0.0
 40
0.0
 40
0.2707524843
 40
0.5216952207
 40
0.6445336618
 40
0.7668022553
 40
1.0
 40
1.0
 40
1.0
 40
1.0
 10
-16.7543987268
 20
-18.8401395706
 30
0.0
 10
-16.569547585
 20
-19.2416287948
 30
0.0
 10
-16.1940531218
 20
-20.0034939115
 30
0.0
 10
-15.894812749
 20
-21.0335294014
 30
0.0
 10
-15.9323383298
 20
-21.8496712005
 30
0.0
 10
-16.1227261924
 20
-22.6104305903
 30
0.0
 10
-16.3854171993
 20
-23.1359932331
 30
0.0
 10
-16.586892839
 20
-23.4590008218
 30
0.0
 11
-16.7543987268
 21
-18.8401395706
 31
0.0
 11
-16.2156946769
 21
-20.0517788826
 31
0.0
 11
-15.9263000012
 21
-21.246201419
 31
0.0
 11
-15.9522289294
 21
-21.8472382782
 31
0.0
 11
-16.0929105458
 21
-22.4292831345
 31
0.0
 11
-16.586892839
 21
-23.4590008218
 31
0.0
  0
SPLINE
  5
4D1
100
AcDbEntity
  8
ASSI
100
AcDbSpline
 62
253
  6
CONTINUOUS
 70
0
 71
3
 72
11
 73
7
 74
5
 42
0.0000001
 43
0.0000001
 44
0.0000000001
 12
-0.6453340392
 22
0.3226670196
 32
0.0
 13
-0.0009276376
 23
0.7215047936
 33
0.0
 40
0.0
 40
0.0
 40
0.0
 40
0.0
 40
0.3018185229
 40
0.565410005
 40
0.7934998637
 40
1.0
 40
1.0
 40
1.0
 40
1.0
 10
-26.7928089579
 20
-1.9985657149
 30
0.0
 10
-26.8577335468
 20
-1.9661034205
 30
0.0
 10
-26.9752057339
 20
-1.8961189482
 30
0.0
 10
-27.118332736
 20
-1.7674130093
 30
0.0
 10
-27.2099639127
 20
-1.6235507221
 30
0.0
 10
-27.2320836729
 20
-1.5182899851
 30
0.0
 10
-27.2321475253
 20
-1.4686263724
 30
0.0
 11
-26.7928089579
 21
-1.9985657149
 31
0.0
 11
-26.9787350529
 21
-1.8851967934
 31
0.0
 11
-27.1177934204
 21
-1.7554577464
 31
0.0
 11
-27.2031793083
 21
-1.6147740681
 31
0.0
 11
-27.2321475253
 21
-1.4686263724
 31
0.0
  0
SPLINE
  5
4D2
100
AcDbEntity
  8
ASSI
100
AcDbSpline
 62
253
  6
CONTINUOUS
 70
0
 71
3
 72
11
 73
7
 74
5
 42
0.0000001
 43
0.0000001
 44
0.0000000001
 12
0.0000000001
 22
2.1920964163
 32
0.0
 13
1.9522531601
 23
0.9969926264
 33
0.0
 40
0.0
 40
0.0
 40
0.0
 40
0.0
 40
0.2465259175
 40
0.5113272549
 40
0.7698733892
 40
1.0
 40
1.0
 40
1.0
 40
1.0
 10
-26.7928089579
 20
-1.9985657149
 30
0.0
 10
-26.7928089579
 20
-1.8184295215
 30
0.0
 10
-26.7309701833
 20
-1.444161084
 30
0.0
 10
-26.5067576511
 20
-0.9231006292
 30
0.0
 10
-26.17686869
 20
-0.4764347305
 30
0.0
 10
-25.8911599179
 20
-0.250353055
 30
0.0
 10
-25.7414047835
 20
-0.1738748769
 30
0.0
 11
-26.7928089579
 21
-1.9985657149
 31
0.0
 11
-26.7129395234
 21
-1.4640918549
 31
0.0
 11
-26.4852952167
 21
-0.9301222272
 31
0.0
 11
-26.1443396833
 21
-0.4773927092
 31
0.0
 11
-25.7414047835
 21
-0.1738748769
 31
0.0
  0
SPLINE
  5
4D3
100
AcDbEntity
  8
ASSI
100
AcDbSpline
 62
253
  6
CONTINUOUS
 70
0
 71
3
 72
11
 73
7
 74
5
 42
0.0000001
 43
0.0000001
 44
0.0000000001
 12
0.0
 22
2.1920964698
 32
0.0
 13
1.9522532077
 23
0.9969926509
 33
0.0
 40
0.0
 40
0.0
 40
0.0
 40
0.0
 40
0.24652594
 40
0.5113272241
 40
0.7698733189
 40
1.0
 40
1.0
 40
1.0
 40
1.0
 10
-16.9242489348
 20
-6.9328457265
 30
0.0
 10
-16.9242489348
 20
-6.7527095123
 30
0.0
 10
-16.8624101549
 20
-6.378441085
 30
0.0
 10
-16.6381976271
 20
-5.8573806835
 30
0.0
 10
-16.3083087273
 20
-5.4107147201
 30
0.0
 10
-16.0225998354
 20
-5.1846331459
 30
0.0
 10
-15.8728446516
 20
-5.1081549427
 30
0.0
 11
-16.9242489348
 21
-6.9328457265
 31
0.0
 11
-16.8443794808
 21
-6.3983718062
 31
0.0
 11
-16.616735213
 21
-5.8644022735
 31
0.0
 11
-16.2757797401
 21
-5.4116728009
 31
0.0
 11
-15.8728446516
 21
-5.1081549427
 31
0.0
  0
SPLINE
  5
4D4
100
AcDbEntity
  8
ASSI
100
AcDbSpline
 62
253
  6
CONTINUOUS
 70
0
 71
3
 72
11
 73
7
 74
5
 42
0.0000001
 43
0.0000001
 44
0.0000000001
 12
1.940533036
 22
-0.9702665179
 32
0.0
 13
1.9472247004
 23
0.9567661916
 33
0.0
 40
0.0
 40
0.0
 40
0.0
 40
0.0
 40
0.2350941071
 40
0.49947822
 40
0.7640812185
 40
1.0
 40
1.0
 40
1.0
 40
1.0
 10
-16.9242489348
 20
-6.9328457265
 30
0.0
 10
-16.7721796409
 20
-7.0088803734
 30
0.0
 10
-16.422781634
 20
-7.1176451525
 30
0.0
 10
-15.8697758235
 20
-7.1703615245
 30
0.0
 10
-15.3159558176
 20
-7.1198737863
 30
0.0
 10
-14.9653538262
 20
-7.0126930494
 30
0.0
 10
-14.8122248667
 20
-6.9374533447
 30
0.0
 11
-16.9242489348
 21
-6.9328457265
 31
0.0
 11
-16.4405899811
 21
-7.0948057689
 31
0.0
 11
-15.8698966979
 21
-7.1525081022
 31
0.0
 11
-15.2984835752
 21
-7.0972591366
 31
0.0
 11
-14.8122248667
 21
-6.9374533447
 31
0.0
  0
SPLINE
  5
4D5
100
AcDbEntity
  8
0
100
AcDbSpline
 62
7
  6
CONTINUOUS
 70
0
 71
3
 72
8
 73
4
 74
2
 42
0.0000001
 43
0.0000001
 44
0.0000000001
 12
-0.150904385
 22
-0.129609211
 32
0.0
 13
-0.1137741751
 23
-0.1631751148
 33
0.0
 40
0.0
 40
0.0
 40
0.0
 40
0.0
 40
1.0
 40
1.0
 40
1.0
 40
1.0
 10
-21.3272109268
 20
-17.1765215902
 30
0.0
 10
-21.3775123885
 20
-17.2197246606
 30
0.0
 10
-21.4224837354
 20
-17.2698766214
 30
0.0
 10
-21.4604084604
 20
-17.3242683264
 30
0.0
 11
-21.3272109268
 21
-17.1765215902
 31
0.0
 11
-21.4604084604
 21
-17.3242683264
 31
0.0
  0
SPLINE
  5
4D6
100
AcDbEntity
  8
0
100
AcDbSpline
 62
7
  6
CONTINUOUS
 70
0
 71
3
 72
8
 73
4
 74
2
 42
0.0000001
 43
0.0000001
 44
0.0000000001
 12
0.1988045969
 22
-0.0068857288
 32
0.0
 13
0.1942299998
 23
0.0429579813
 33
0.0
 40
0.0
 40
0.0
 40
0.0
 40
0.0
 40
1.0
 40
1.0
 40
1.0
 40
1.0
 10
-20.4903864531
 20
-19.264312341
 30
0.0
 10
-20.4241182541
 20
-19.266607584
 30
0.0
 10
-20.3570138773
 20
-19.260721683
 30
0.0
 10
-20.292270544
 20
-19.2464023558
 30
0.0
 11
-20.4903864531
 21
-19.264312341
 31
0.0
 11
-20.292270544
 21
-19.2464023558
 31
0.0
  0
SPLINE
  5
4D7
100
AcDbEntity
  8
0
100
AcDbSpline
 62
7
  6
CONTINUOUS
 70
0
 71
3
 72
11
 73
7
 74
5
 42
0.0000001
 43
0.0000001
 44
0.0000000001
 12
1.1364915184
 22
-0.6657527116
 32
0.0
 13
0.3629281483
 23
-1.2661448588
 33
0.0
 40
0.0
 40
0.0
 40
0.0
 40
0.0
 40
0.2476923833
 40
0.4957466864
 40
0.7459297356
 40
1.0
 40
1.0
 40
1.0
 40
1.0
 10
2.5567772608
 20
4.6306256598
 30
0.0
 10
2.6506106917
 20
4.5756583679
 30
0.0
 10
2.8271215401
 20
4.4449802981
 30
0.0
 10
3.0454005443
 20
4.1979982569
 30
0.0
 10
3.2138522148
 20
3.9117529476
 30
0.0
 10
3.2912902143
 20
3.7030932181
 30
0.0
 10
3.3220266312
 20
3.5958632984
 30
0.0
 11
2.5567772608
 21
4.6306256598
 31
0.0
 11
2.8191436263
 21
4.436721215
 31
0.0
 11
3.0362916915
 21
4.1926043841
 31
0.0
 11
3.2042502549
 21
3.9090973517
 31
0.0
 11
3.3220266312
 21
3.5958632984
 31
0.0
  0
SPLINE
  5
4D8
100
AcDbEntity
  8
0
100
AcDbSpline
 62
7
  6
CONTINUOUS
 70
0
 71
3
 72
11
 73
7
 74
5
 42
0.0000001
 43
0.0000001
 44
0.0000000001
 12
1.7248220511
 22
0.9105500172
 32
0.0
 13
1.7089355969
 23
-0.9400274289
 33
0.0
 40
0.0
 40
0.0
 40
0.0
 40
0.0
 40
0.2165318309
 40
0.4488554219
 40
0.7083808677
 40
1.0
 40
1.0
 40
1.0
 40
1.0
 10
-23.793471545
 20
-15.1148434867
 30
0.0
 10
-23.6689785861
 20
-15.0491224659
 30
0.0
 10
-23.387916481
 20
-14.9528530977
 30
0.0
 10
-22.9221184915
 20
-14.93674129
 30
0.0
 10
-22.420376181
 20
-15.0469139794
 30
0.0
 10
-22.091351553
 20
-15.1948037916
 30
0.0
 10
-21.9252321143
 20
-15.2861804526
 30
0.0
 11
-23.793471545
 21
-15.1148434867
 31
0.0
 11
-23.3945272514
 21
-14.9762678933
 31
0.0
 11
-22.9418861818
 21
-14.9552873866
 31
0.0
 11
-22.4462364968
 21
-15.0580079475
 31
0.0
 11
-21.9252321143
 21
-15.2861804526
 31
0.0
  0
SPLINE
  5
4D9
100
AcDbEntity
  8
0
100
AcDbSpline
 62
7
  6
CONTINUOUS
 70
0
 71
3
 72
11
 73
7
 74
5
 42
0.0000001
 43
0.0000001
 44
0.0000000001
 12
2.8664714875
 22
-2.7416244157
 32
0.0
 13
-0.000055109
 23
-3.9665051648
 33
0.0
 40
0.0
 40
0.0
 40
0.0
 40
0.0
 40
0.2508076324
 40
0.5097082721
 40
0.7635063744
 40
1.0
 40
1.0
 40
1.0
 40
1.0
 10
2.1479980456
 20
-10.8799919367
 30
0.0
 10
2.3876423546
 20
-11.109198713
 30
0.0
 10
2.8248725319
 20
-11.6289064375
 30
0.0
 10
3.3230754968
 20
-12.5130843621
 30
0.0
 10
3.6454505514
 20
-13.4555554769
 30
0.0
 10
3.7291364941
 20
-14.1049094999
 30
0.0
 10
3.7291321498
 20
-14.4175938957
 30
0.0
 11
2.1479980456
 21
-10.8799919367
 31
0.0
 11
2.7925955341
 21
-11.6377388259
 31
0.0
 11
3.2973518746
 21
-12.5320585395
 31
0.0
 11
3.6187895076
 21
-13.4860530839
 31
0.0
 11
3.7291321498
 21
-14.4175938957
 31
0.0
  0
SPLINE
  5
4DA
100
AcDbEntity
  8
0
100
AcDbSpline
 62
7
  6
CONTINUOUS
 70
0
 71
3
 72
9
 73
5
 74
3
 42
0.0000001
 43
0.0000001
 44
0.0000000001
 12
-0.1068363999
 22
0.0534181999
 32
0.0
 13
-0.0953199882
 23
0.0719834722
 33
0.0
 40
0.0
 40
0.0
 40
0.0
 40
0.0
 40
0.2466073348
 40
1.0
 40
1.0
 40
1.0
 40
1.0
 10
-21.6536635328
 20
-19.1752536063
 30
0.0
 10
-21.662445746
 20
-19.1708624996
 30
0.0
 10
-21.6976127761
 20
-19.1521730656
 30
0.0
 10
-21.7309669479
 20
-19.1301258756
 30
0.0
 10
-21.7549047413
 20
-19.1120486022
 30
0.0
 11
-21.6536635328
 21
-19.1752536063
 31
0.0
 11
-21.6796803918
 21
-19.1614403941
 31
0.0
 11
-21.7549047413
 21
-19.1120486022
 31
0.0
  0
SPLINE
  5
4DB
100
AcDbEntity
  8
0
100
AcDbSpline
 62
7
  6
CONTINUOUS
 70
0
 71
3
 72
11
 73
7
 74
5
 42
0.0000001
 43
0.0000001
 44
0.0000000001
 12
-0.7936739057
 22
0.7090215154
 32
0.0
 13
0.6086966631
 23
0.8729937859
 33
0.0
 40
0.0
 40
0.0
 40
0.0
 40
0.0
 40
0.2566762517
 40
0.5173140939
 40
0.7654224453
 40
1.0
 40
1.0
 40
1.0
 40
1.0
 10
-21.8020349
 20
-19.0732722843
 30
0.0
 10
-21.8699406478
 20
-19.0126092894
 30
0.0
 10
-21.9857851896
 20
-18.8657528346
 30
0.0
 10
-22.0884862574
 20
-18.6107015984
 30
0.0
 10
-22.110701674
 20
-18.343120549
 30
0.0
 10
-22.0526115725
 20
-18.1736070335
 30
0.0
 10
-22.0050160476
 20
-18.105345451
 30
0.0
 11
-21.8020349
 21
-19.0732722843
 31
0.0
 11
-21.9734667712
 21
-18.8605945484
 31
0.0
 11
-22.0762418533
 21
-18.6029529667
 31
0.0
 11
-22.0919464382
 21
-18.3393708898
 31
0.0
 11
-22.0050160476
 21
-18.105345451
 31
0.0
  0
SPLINE
  5
4DC
100
AcDbEntity
  8
0
100
AcDbSpline
 62
7
  6
CONTINUOUS
 70
0
 71
3
 72
9
 73
5
 74
3
 42
0.0000001
 43
0.0000001
 44
0.0000000001
 12
-0.2197404916
 22
0.0076108574
 32
0.0
 13
-0.196659724
 23
0.098329862
 33
0.0
 40
0.0
 40
0.0
 40
0.0
 40
0.0
 40
0.7467352179
 40
1.0
 40
1.0
 40
1.0
 40
1.0
 10
-21.4420127051
 20
-19.231352136
 30
0.0
 10
-21.4967086931
 20
-19.2294577043
 30
0.0
 10
-21.5700805774
 20
-19.2132970754
 30
0.0
 10
-21.6370612054
 20
-19.1835547699
 30
0.0
 10
-21.6536635328
 20
-19.1752536063
 30
0.0
 11
-21.4420127051
 21
-19.231352136
 31
0.0
 11
-21.6027235824
 21
-19.1977489568
 31
0.0
 11
-21.6536635328
 21
-19.1752536063
 31
0.0
  0
SPLINE
  5
4DD
100
AcDbEntity
  8
0
100
AcDbSpline
 62
7
  6
CONTINUOUS
 70
0
 71
3
 72
11
 73
7
 74
5
 42
0.0000001
 43
0.0000001
 44
0.0000000001
 12
-0.0416911403
 22
-2.4225353307
 32
0.0
 13
-2.190494395
 23
-1.0354467079
 33
0.0
 40
0.0
 40
0.0
 40
0.0
 40
0.0
 40
0.2996348661
 40
0.5626163438
 40
0.7916884387
 40
1.0
 40
1.0
 40
1.0
 40
1.0
 10
-19.1023843326
 20
-20.385443485
 30
0.0
 10
-19.1065483724
 20
-20.6274021681
 30
0.0
 10
-19.1526389349
 20
-21.0828416483
 30
0.0
 10
-19.3555340028
 20
-21.6957961734
 30
0.0
 10
-19.6776877087
 20
-22.1713919651
 30
0.0
 10
-19.9705826735
 20
-22.3845191847
 30
0.0
 10
-20.1226844426
 20
-22.4564176915
 30
0.0
 11
-19.1023843326
 21
-20.385443485
 31
0.0
 11
-19.1834655652
 21
-21.1068850459
 31
0.0
 11
-19.392854596
 21
-21.7086738936
 31
0.0
 11
-19.7123920891
 21
-22.1624801545
 31
0.0
 11
-20.1226844426
 21
-22.4564176915
 31
0.0
  0
SPLINE
  5
4DE
100
AcDbEntity
  8
0
100
AcDbSpline
 62
7
  6
CONTINUOUS
 70
0
 71
3
 72
11
 73
7
 74
5
 42
0.0000001
 43
0.0000001
 44
0.0000000001
 12
0.3323776847
 22
0.187499796
 32
0.0
 13
0.0348103711
 23
0.3800254424
 33
0.0
 40
0.0
 40
0.0
 40
0.0
 40
0.0
 40
0.2866488292
 40
0.5456399162
 40
0.7804537926
 40
1.0
 40
1.0
 40
1.0
 40
1.0
 10
2.7808209297
 20
-8.1895564852
 30
0.0
 10
2.8125794877
 20
-8.1716409529
 30
0.0
 10
2.8705754781
 20
-8.1327565362
 30
0.0
 10
2.941288981
 20
-8.0619867648
 30
0.0
 10
2.9887913702
 20
-7.9834750068
 30
0.0
 10
3.0034953303
 20
-7.9264738829
 30
0.0
 10
3.0060428253
 20
-7.8986628347
 30
0.0
 11
2.7808209297
 21
-8.1895564852
 31
0.0
 11
2.871153337
 21
-8.1278620206
 31
0.0
 11
2.9402174549
 21
-8.057161561
 31
0.0
 11
2.9856543434
 21
-7.9799266459
 31
0.0
 11
3.0060428253
 21
-7.8986628347
 31
0.0
  0
SPLINE
  5
4DF
100
AcDbEntity
  8
0
100
AcDbSpline
 62
7
  6
CONTINUOUS
 70
0
 71
3
 72
9
 73
5
 74
3
 42
0.0000001
 43
0.0000001
 44
0.0000000001
 12
0.3204798471
 22
-0.1889301616
 32
0.0
 13
0.3012774353
 23
-0.2182517934
 33
0.0
 40
0.0
 40
0.0
 40
0.0
 40
0.0
 40
0.244707435
 40
1.0
 40
1.0
 40
1.0
 40
1.0
 10
-21.8332657652
 20
-15.3385802416
 30
0.0
 10
-21.8071244981
 20
-15.3539911134
 30
0.0
 10
-21.7010904241
 20
-15.4183064861
 30
0.0
 10
-21.5982172987
 20
-15.4878020673
 30
0.0
 10
-21.5223664297
 20
-15.5427500529
 30
0.0
 11
-21.8332657652
 21
-15.3385802416
 31
0.0
 11
-21.7554191287
 21
-15.385778213
 31
0.0
 11
-21.5223664297
 21
-15.5427500529
 31
0.0
  0
SPLINE
  5
4E0
100
AcDbEntity
  8
0
100
AcDbSpline
 62
7
  6
CONTINUOUS
 70
0
 71
3
 72
11
 73
7
 74
5
 42
0.0000001
 43
0.0000001
 44
0.0000000001
 12
4.5291612496
 22
-3.2764598217
 32
0.0
 13
-0.0963288924
 23
-5.5892048927
 33
0.0
 40
0.0
 40
0.0
 40
0.0
 40
0.0
 40
0.2394889897
 40
0.4999993438
 40
0.760510116
 40
1.0
 40
1.0
 40
1.0
 40
1.0
 10
-21.524750035
 20
-15.5410007698
 30
0.0
 10
-21.1631886178
 20
-15.8025594539
 30
0.0
 10
-20.4910934935
 20
-16.4653768111
 30
0.0
 10
-19.7240331988
 20
-17.6686049094
 30
0.0
 10
-19.221685036
 20
-19.0041911154
 30
0.0
 10
-19.0946874313
 20
-19.9395601032
 30
0.0
 10
-19.1023773631
 20
-20.3857461136
 30
0.0
 11
-21.524750035
 21
-15.5410007698
 31
0.0
 11
-20.5578445611
 21
-16.4669328612
 31
0.0
 11
-19.7693718403
 21
-17.6912733881
 31
0.0
 11
-19.2629809302
 21
-19.0566575865
 31
0.0
 11
-19.1023773631
 21
-20.3857461136
 31
0.0
  0
SPLINE
  5
4E1
100
AcDbEntity
  8
0
100
AcDbSpline
 62
7
  6
CONTINUOUS
 70
0
 71
3
 72
11
 73
7
 74
5
 42
0.0000001
 43
0.0000001
 44
0.0000000001
 12
-4.8760725034
 22
3.6570543776
 32
0.0
 13
0.0
 23
6.0950906293
 33
0.0
 40
0.0
 40
0.0
 40
0.0
 40
0.0
 40
0.2416341424
 40
0.500000517
 40
0.7583665796
 40
1.0
 40
1.0
 40
1.0
 40
1.0
 10
-22.7171636124
 20
-22.4721539137
 30
0.0
 10
-23.1099054782
 20
-22.1775975143
 30
0.0
 10
-23.8362310766
 20
-21.4498974303
 30
0.0
 10
-24.6670895846
 20
-20.1401335278
 30
0.0
 10
-25.2163839727
 20
-18.6895893629
 30
0.0
 10
-25.3627480246
 20
-17.6719109546
 30
0.0
 10
-25.3627480246
 20
-17.1809850892
 30
0.0
 11
-22.7171636124
 21
-22.4721539137
 31
0.0
 11
-23.7702296657
 21
-21.4425235441
 31
0.0
 11
-24.6191272316
 21
-20.1161516679
 31
0.0
 11
-25.17088441
 21
-18.6412118531
 31
0.0
 11
-25.3627480246
 21
-17.1809850892
 31
0.0
  0
SPLINE
  5
4E2
100
AcDbEntity
  8
0
100
AcDbSpline
 62
7
  6
CONTINUOUS
 70
0
 71
3
 72
12
 73
8
 74
6
 42
0.0000001
 43
0.0000001
 44
0.0000000001
 12
-0.0003069274
 22
3.1128008524
 32
0.0
 13
2.7841737361
 23
1.392086868
 33
0.0
 40
0.0
 40
0.0
 40
0.0
 40
0.0
 40
0.2818596341
 40
0.5387862183
 40
0.7748811828
 40
0.8881610271
 40
1.0
 40
1.0
 40
1.0
 40
1.0
 10
-25.3627479381
 20
-17.1815208462
 30
0.0
 10
-25.362776775
 20
-16.8890632098
 30
0.0
 10
-25.3142978837
 20
-16.3278072803
 30
0.0
 10
-25.0699902933
 20
-15.5539054056
 30
0.0
 10
-24.7166424618
 20
-15.0198818916
 30
0.0
 10
-24.358731396
 20
-14.6990487652
 30
0.0
 10
-24.1588251316
 20
-14.5753427114
 30
0.0
 10
-24.0550320879
 20
-14.5234461896
 30
0.0
 11
-25.3627479381
 21
-17.1815208462
 31
0.0
 11
-25.2788327486
 21
-16.3081701317
 31
0.0
 11
-25.0276053795
 21
-15.5488922271
 31
0.0
 11
-24.6142383583
 21
-14.941249133
 31
0.0
 11
-24.3512299196
 21
-14.7063752703
 31
0.0
 11
-24.0550320879
 21
-14.5234461896
 31
0.0
  0
SPLINE
  5
4E3
100
AcDbEntity
  8
0
100
AcDbSpline
 62
7
  6
CONTINUOUS
 70
0
 71
3
 72
11
 73
7
 74
5
 42
0.0000001
 43
0.0000001
 44
0.0000000001
 12
-2.3239701299
 22
-1.1619850649
 32
0.0
 13
-2.2382839816
 23
1.3195193342
 33
0.0
 40
0.0
 40
0.0
 40
0.0
 40
0.0
 40
0.2297850017
 40
0.4685717109
 40
0.7237745569
 40
1.0
 40
1.0
 40
1.0
 40
1.0
 10
-19.8065029307
 20
-23.0205045041
 30
0.0
 10
-19.9845074241
 20
-23.1095067508
 30
0.0
 10
-20.3784639607
 20
-23.2344899556
 30
0.0
 10
-21.0128572182
 20
-23.2416943347
 30
0.0
 10
-21.6662687872
 20
-23.0811013213
 30
0.0
 10
-22.0836062178
 20
-22.8795934715
 30
0.0
 10
-22.289696546
 20
-22.7580985339
 30
0.0
 11
-19.8065029307
 21
-23.0205045041
 31
0.0
 11
-20.3749237663
 21
-23.203153758
 31
0.0
 11
-20.9952183071
 21
-23.2163152574
 31
0.0
 11
-21.640708885
 21
-23.0645674637
 31
0.0
 11
-22.289696546
 21
-22.7580985339
 31
0.0
  0
SPLINE
  5
4E4
100
AcDbEntity
  8
0
100
AcDbSpline
 62
7
  6
CONTINUOUS
 70
0
 71
3
 72
9
 73
5
 74
3
 42
0.0000001
 43
0.0000001
 44
0.0000000001
 12
0.0068305305
 22
0.1630415146
 32
0.0
 13
-0.0492279772
 23
0.1555821259
 33
0.0
 40
0.0
 40
0.0
 40
0.0
 40
0.0
 40
0.2529949253
 40
1.0
 40
1.0
 40
1.0
 40
1.0
 10
-8.978177795
 20
3.7911743529
 30
0.0
 10
-8.9776017652
 20
3.8049239115
 30
0.0
 10
-8.9774090156
 20
3.8593194559
 30
0.0
 10
-8.9862436214
 20
3.9138961633
 30
0.0
 10
-8.998501471
 20
3.9526363759
 30
0.0
 11
-8.978177795
 21
3.7911743529
 31
0.0
 11
-8.9780820447
 21
3.8324591005
 31
0.0
 11
-8.998501471
 21
3.9526363759
 31
0.0
  0
SPLINE
  5
4E5
100
AcDbEntity
  8
0
100
AcDbSpline
 62
7
  6
CONTINUOUS
 70
0
 71
3
 72
11
 73
7
 74
5
 42
0.0000001
 43
0.0000001
 44
0.0000000001
 12
-1.3096835216
 22
0.549707623
 32
0.0
 13
-1.302148246
 23
-0.5673264871
 33
0.0
 40
0.0
 40
0.0
 40
0.0
 40
0.0
 40
0.2470133767
 40
0.4948974233
 40
0.7451125631
 40
1.0
 40
1.0
 40
1.0
 40
1.0
 10
-3.067795263
 20
7.4429130159
 30
0.0
 10
-3.1756317127
 20
7.4881747279
 30
0.0
 10
-3.4030579648
 20
7.5539199285
 30
0.0
 10
-3.7578635827
 20
7.5744152643
 30
0.0
 10
-4.1126724376
 20
7.5215544601
 30
0.0
 10
-4.3400810752
 20
7.4432711189
 30
0.0
 10
-4.4507148182
 20
7.3950696542
 30
0.0
 11
-3.067795263
 21
7.4429130159
 31
0.0
 11
-3.4047087747
 21
7.5408169879
 31
0.0
 11
-3.7561398267
 21
7.5622977071
 31
0.0
 11
-4.1078704404
 21
7.5113735199
 31
0.0
 11
-4.4507148182
 21
7.3950696542
 31
0.0
  0
LINE
  5
4E6
100
AcDbEntity
  8
0
100
AcDbLine
 62
7
  6
CONTINUOUS
 10
3.5330980507
 20
0.4611458071
 11
3.5359243299
 21
0.5491497073
  0
SPLINE
  5
4E7
100
AcDbEntity
  8
0
100
AcDbSpline
 62
7
  6
CONTINUOUS
 70
0
 71
3
 72
11
 73
7
 74
5
 42
0.0000001
 43
0.0000001
 44
0.0000000001
 12
1.7744907476
 22
1.1183588571
 32
0.0
 13
-0.0
 23
2.097508986
 33
0.0
 40
0.0
 40
0.0
 40
0.0
 40
0.0
 40
0.2206904851
 40
0.4565352534
 40
0.7154047055
 40
1.0
 40
1.0
 40
1.0
 40
1.0
 10
2.9086589778
 20
-16.2584377472
 30
0.0
 10
3.0391967191
 20
-16.176167361
 30
0.0
 10
3.2819615513
 20
-15.9592586957
 30
0.0
 10
3.5416936509
 20
-15.5246729256
 30
0.0
 10
3.6977618316
 20
-14.9978301302
 30
0.0
 10
3.7291321498
 20
-14.6165742916
 30
0.0
 10
3.7291321498
 20
-14.4175938957
 30
0.0
 11
2.9086589778
 21
-16.2584377472
 31
0.0
 11
3.2559060044
 21
-15.9523394499
 31
0.0
 11
3.5150310806
 21
-15.530950142
 31
0.0
 11
3.6750333419
 21
-15.012078631
 31
0.0
 11
3.7291321498
 21
-14.4175938957
 31
0.0
  0
SPLINE
  5
4E8
100
AcDbEntity
  8
0
100
AcDbSpline
 62
7
  6
CONTINUOUS
 70
0
 71
3
 72
11
 73
7
 74
5
 42
0.0000001
 43
0.0000001
 44
0.0000000001
 12
-2.6900344753
 22
-1.3450172377
 32
0.0
 13
-2.6900344753
 23
1.3450172377
 33
0.0
 40
0.0
 40
0.0
 40
0.0
 40
0.0
 40
0.2501093473
 40
0.5001613133
 40
0.7501266378
 40
1.0
 40
1.0
 40
1.0
 40
1.0
 10
-0.0504193588
 20
-17.7456379899
 30
0.0
 10
-0.2746869477
 20
-17.8577717844
 30
0.0
 10
-0.7516721294
 20
-18.0294764916
 30
0.0
 10
-1.5058707093
 20
-18.1121391687
 30
0.0
 10
-2.2583842363
 20
-18.018469007
 30
0.0
 10
-2.7332519389
 20
-17.843465077
 30
0.0
 10
-2.9573079252
 20
-17.7314370839
 30
0.0
 11
-0.0504193588
 21
-17.7456379899
 31
0.0
 11
-0.7582011312
 21
-18.0003425566
 31
0.0
 11
-1.5057163962
 21
-18.0827487571
 31
0.0
 11
-2.2517942476
 21
-17.9903051136
 31
0.0
 11
-2.9573079252
 21
-17.7314370839
 31
0.0
  0
SPLINE
  5
4E9
100
AcDbEntity
  8
0
100
AcDbSpline
 62
7
  6
CONTINUOUS
 70
0
 71
3
 72
9
 73
5
 74
3
 42
0.0000001
 43
0.0000001
 44
0.0000000001
 12
-0.4590393547
 22
-0.3725566596
 32
0.0
 13
-0.5287895712
 23
-0.2643807543
 33
0.0
 40
0.0
 40
0.0
 40
0.0
 40
0.0
 40
0.2552365052
 40
1.0
 40
1.0
 40
1.0
 40
1.0
 10
0.7101240334
 20
-17.3667059499
 30
0.0
 10
0.6710694998
 20
-17.3984026365
 30
0.0
 10
0.5150280863
 20
-17.5187627283
 30
0.0
 10
0.3464954865
 20
-17.6233023257
 30
0.0
 10
0.2152210968
 20
-17.6889360372
 30
0.0
 11
0.7101240334
 21
-17.3667059499
 31
0.0
 11
0.590600823
 21
-17.4588125782
 31
0.0
 11
0.2152210968
 21
-17.6889360372
 31
0.0
  0
SPLINE
  5
4EA
100
AcDbEntity
  8
0
100
AcDbSpline
 62
7
  6
CONTINUOUS
 70
0
 71
3
 72
9
 73
5
 74
3
 42
0.0000001
 43
0.0000001
 44
0.0000000001
 12
0.1902056901
 22
-0.6585925633
 32
0.0
 13
0.0047734279
 23
-0.6854922197
 33
0.0
 40
0.0
 40
0.0
 40
0.0
 40
0.0
 40
0.2451319774
 40
1.0
 40
1.0
 40
1.0
 40
1.0
 10
3.3218488378
 20
3.5964818422
 30
0.0
 10
3.3373906701
 20
3.5426678097
 30
0.0
 10
3.3922989073
 20
3.3207079709
 30
0.0
 10
3.4144051876
 20
3.0911584279
 30
0.0
 10
3.4156062903
 20
2.9186730424
 30
0.0
 11
3.3218488378
 21
3.5964818422
 31
0.0
 11
3.3623391403
 21
3.4333928384
 31
0.0
 11
3.4156062903
 21
2.9186730424
 31
0.0
  0
SPLINE
  5
4EB
100
AcDbEntity
  8
0
100
AcDbSpline
 62
253
  6
CONTINUOUS
 70
0
 71
3
 72
11
 73
7
 74
5
 42
0.0000001
 43
0.0000001
 44
0.0000000001
 12
0.5626883357
 22
0.2818964347
 32
0.0
 13
0.0
 23
0.6293518595
 33
0.0
 40
0.0
 40
0.0
 40
0.0
 40
0.0
 40
0.2171652556
 40
0.4504048052
 40
0.710325989
 40
1.0
 40
1.0
 40
1.0
 40
1.0
 10
-6.5473601503
 20
-2.0585182528
 30
0.0
 10
-6.5066280316
 20
-2.0381122157
 30
0.0
 10
-6.4295909474
 20
-1.9793751472
 30
0.0
 10
-6.3470054728
 20
-1.8526228863
 30
0.0
 10
-6.2976073397
 20
-1.6943188897
 30
0.0
 10
-6.287788064
 20
-1.57858934
 30
0.0
 10
-6.287788064
 20
-1.5178203808
 30
0.0
 11
-6.5473601503
 21
-2.0585182528
 31
0.0
 11
-6.4380756901
 21
-1.9764419871
 31
0.0
 11
-6.355971969
 21
-1.8547612245
 31
0.0
 11
-6.3050453346
 21
-1.6993086289
 31
0.0
 11
-6.287788064
 21
-1.5178203808
 31
0.0
  0
SPLINE
  5
4EC
100
AcDbEntity
  8
0
100
AcDbSpline
 62
253
  6
CONTINUOUS
 70
0
 71
3
 72
11
 73
7
 74
5
 42
0.0000001
 43
0.0000001
 44
0.0000000001
 12
-0.0227098594
 22
-0.2039889627
 32
0.0
 13
-0.1957385551
 23
-0.0617547782
 33
0.0
 40
0.0
 40
0.0
 40
0.0
 40
0.0
 40
0.2041037853
 40
0.4348913907
 40
0.7022325031
 40
1.0
 40
1.0
 40
1.0
 40
1.0
 10
6.0991387429
 20
-13.2008337508
 30
0.0
 10
6.0975936868
 20
-13.2147120573
 30
0.0
 10
6.0863935688
 20
-13.2435817358
 30
0.0
 10
6.0523894566
 20
-13.2786510665
 30
0.0
 10
6.0051963504
 20
-13.3066044756
 30
0.0
 10
5.9689643455
 20
-13.3204955975
 30
0.0
 10
5.9495361523
 20
-13.3266251194
 30
0.0
 11
6.0991387429
 21
-13.2008337508
 31
0.0
 11
6.0849093062
 21
-13.240235203
 31
0.0
 11
6.0529969094
 21
-13.2752411797
 31
0.0
 11
6.0063909525
 21
-13.3042027361
 31
0.0
 11
5.9495361523
 21
-13.3266251194
 31
0.0
  0
SPLINE
  5
4ED
100
AcDbEntity
  8
0
100
AcDbSpline
 62
253
  6
CONTINUOUS
 70
0
 71
3
 72
10
 73
6
 74
4
 42
0.0000001
 43
0.0000001
 44
0.0000000001
 12
-0.0004245262
 22
0.4707272614
 32
0.0
 13
-0.0885152999
 23
0.4623303759
 33
0.0
 40
0.0
 40
0.0
 40
0.0
 40
0.0
 40
0.5088517694
 40
0.759116933
 40
1.0
 40
1.0
 40
1.0
 40
1.0
 10
3.3368101289
 20
1.0512178372
 30
0.0
 10
3.3367381219
 20
1.1310613038
 30
0.0
 10
3.3357920337
 20
1.2502233282
 30
0.0
 10
3.3296079872
 20
1.4069468963
 30
0.0
 10
3.3224011053
 20
1.4839157309
 30
0.0
 10
3.3152938263
 20
1.5210382506
 30
0.0
 11
3.3368101289
 21
1.0512178372
 31
0.0
 11
3.3337855223
 21
1.2907292375
 31
0.0
 11
3.3284673633
 21
1.4084158201
 31
0.0
 11
3.3152938263
 21
1.5210382506
 31
0.0
  0
SPLINE
  5
4EE
100
AcDbEntity
  8
0
100
AcDbSpline
 62
253
  6
CONTINUOUS
 70
0
 71
3
 72
9
 73
5
 74
3
 42
0.0000001
 43
0.0000001
 44
0.0000000001
 12
-0.0848369529
 22
-0.1680762444
 32
0.0
 13
-0.1631529928
 23
-0.0939576152
 33
0.0
 40
0.0
 40
0.0
 40
0.0
 40
0.0
 40
0.5164063526
 40
1.0
 40
1.0
 40
1.0
 40
1.0
 10
0.3553593439
 20
-17.5433992769
 30
0.0
 10
0.3407558968
 20
-17.572331157
 30
0.0
 10
0.3056122331
 20
-17.6253582229
 30
0.0
 10
0.2561755016
 20
-17.6659046888
 30
0.0
 10
0.2298755846
 20
-17.6810504574
 30
0.0
 11
0.3553593439
 21
-17.5433992769
 31
0.0
 11
0.3006474631
 21
-17.6237699139
 31
0.0
 11
0.2298755846
 21
-17.6810504574
 31
0.0
  0
SPLINE
  5
4EF
100
AcDbEntity
  8
0
100
AcDbSpline
 62
253
  6
CONTINUOUS
 70
0
 71
3
 72
13
 73
9
 74
7
 42
0.0000001
 43
0.0000001
 44
0.0000000001
 12
-0.456489112
 22
1.5961313781
 32
0.0
 13
-1.5219490192
 23
-0.6630903925
 33
0.0
 40
0.0
 40
0.0
 40
0.0
 40
0.0
 40
0.2614621027
 40
0.380539325
 40
0.4959312683
 40
0.6119550336
 40
0.732802828
 40
1.0
 40
1.0
 40
1.0
 40
1.0
 10
3.1316292847
 20
3.1232090154
 30
0.0
 10
3.091844417
 20
3.2623183042
 30
0.0
 10
3.0012199436
 20
3.4603130778
 30
0.0
 10
2.8083529829
 20
3.6587038077
 30
0.0
 10
2.6417020334
 20
3.7619543319
 30
0.0
 10
2.4535678273
 20
3.8203339625
 30
0.0
 10
2.1730113719
 20
3.837592152
 30
0.0
 10
1.9594384561
 20
3.7790202954
 30
0.0
 10
1.8238849648
 20
3.7199616695
 30
0.0
 11
3.1316292847
 21
3.1232090154
 31
0.0
 11
2.940229487
 21
3.5127910822
 31
0.0
 11
2.8016840687
 21
3.6538010199
 31
0.0
 11
2.6386309006
 21
3.754353833
 31
0.0
 11
2.4548648778
 21
3.8120618904
 31
0.0
 11
2.2547004633
 21
3.8256122205
 31
0.0
 11
1.8238849648
 21
3.7199616695
 31
0.0
  0
SPLINE
  5
4F0
100
AcDbEntity
  8
0
100
AcDbSpline
 62
253
  6
CONTINUOUS
 70
0
 71
3
 72
9
 73
5
 74
3
 42
0.0000001
 43
0.0000001
 44
0.0000000001
 12
-0.0026027866
 22
0.4833295762
 32
0.0
 13
-0.1341096763
 23
0.4643585344
 33
0.0
 40
0.0
 40
0.0
 40
0.0
 40
0.0
 40
0.263080438
 40
1.0
 40
1.0
 40
1.0
 40
1.0
 10
3.196179729
 20
2.6450209598
 30
0.0
 10
3.1959514816
 20
2.687405812
 30
0.0
 10
3.1899651194
 20
2.8483802442
 30
0.0
 10
3.164571966
 20
3.0091440528
 30
0.0
 10
3.1316292847
 20
3.1232090154
 30
0.0
 11
3.196179729
 21
2.6450209598
 31
0.0
 11
3.1914585225
 21
2.7720896827
 31
0.0
 11
3.1316292847
 21
3.1232090154
 31
0.0
  0
SPLINE
  5
4F1
100
AcDbEntity
  8
0
100
AcDbSpline
 62
253
  6
CONTINUOUS
 70
0
 71
3
 72
11
 73
7
 74
5
 42
0.0000001
 43
0.0000001
 44
0.0000000001
 12
0.3826132585
 22
0.2959513713
 32
0.0
 13
-0.0934761246
 23
0.4745970226
 33
0.0
 40
0.0
 40
0.0
 40
0.0
 40
0.0
 40
0.2883374076
 40
0.5479506633
 40
0.7818085742
 40
1.0
 40
1.0
 40
1.0
 40
1.0
 10
3.3152945277
 20
1.5210387919
 30
0.0
 10
3.3520684327
 20
1.549483409
 30
0.0
 10
3.41751061
 20
1.609836481
 30
0.0
 10
3.4899910482
 20
1.714491476
 30
0.0
 10
3.5277857849
 20
1.8246765745
 30
0.0
 10
3.5270769551
 20
1.899372323
 30
0.0
 10
3.5202783921
 20
1.93388999
 30
0.0
 11
3.3152945277
 21
1.5210387919
 31
0.0
 11
3.4168867147
 21
1.6165991106
 31
0.0
 11
3.4869700254
 21
1.7208025923
 31
0.0
 11
3.5220030575
 21
1.8283616351
 31
0.0
 11
3.5202783921
 21
1.93388999
 31
0.0
  0
SPLINE
  5
4F2
100
AcDbEntity
  8
0
100
AcDbSpline
 62
7
  6
CONTINUOUS
 70
0
 71
3
 72
12
 73
8
 74
6
 42
0.0000001
 43
0.0000001
 44
0.0000000001
 12
-0.0121260661
 22
0.9735730631
 32
0.0
 13
0.9730553955
 23
-0.033981584
 33
0.0
 40
0.0
 40
0.0
 40
0.0
 40
0.0
 40
0.2621837391
 40
0.5411495285
 40
0.6741941009
 40
0.7965803693
 40
1.0
 40
1.0
 40
1.0
 40
1.0
 10
2.7807020035
 20
-0.1285023592
 30
0.0
 10
2.779642251
 20
-0.0434173505
 30
0.0
 10
2.8150847505
 20
0.1328062345
 30
0.0
 10
2.9197450891
 20
0.3284192367
 30
0.0
 10
3.0359271754
 20
0.458664664
 30
0.0
 10
3.1528661684
 20
0.5504663655
 30
0.0
 10
3.2592478074
 20
0.5897812711
 30
0.0
 10
3.3252273304
 20
0.5874770974
 30
0.0
 11
2.7807020035
 21
-0.1285023592
 31
0.0
 11
2.8253853313
 21
0.1228313556
 31
0.0
 11
2.9541404943
 21
0.3619895097
 31
0.0
 11
3.0408391787
 21
0.4582371185
 31
0.0
 11
3.1355093942
 21
0.5306038631
 31
0.0
 11
3.3252273304
 21
0.5874770974
 31
0.0
  0
SPLINE
  5
4F3
100
AcDbEntity
  8
0
100
AcDbSpline
 62
253
  6
CONTINUOUS
 70
0
 71
3
 72
11
 73
7
 74
5
 42
0.0000001
 43
0.0000001
 44
0.0000000001
 12
0.3512064798
 22
0.2211324439
 32
0.0
 13
-0.0355429609
 23
0.4134999965
 33
0.0
 40
0.0
 40
0.0
 40
0.0
 40
0.0
 40
0.2947982123
 40
0.5559024806
 40
0.7870290305
 40
1.0
 40
1.0
 40
1.0
 40
1.0
 10
3.2196953799
 20
2.3365348488
 30
0.0
 10
3.2542070607
 20
2.3582646652
 30
0.0
 10
3.3162839516
 20
2.4045047443
 30
0.0
 10
3.3889369729
 20
2.4869306698
 30
0.0
 10
3.4322297928
 20
2.575996375
 30
0.0
 10
3.4389457034
 20
2.6386878985
 30
0.0
 10
3.4364224972
 20
2.6680423969
 30
0.0
 11
3.2196953799
 21
2.3365348488
 31
0.0
 11
3.3170205787
 21
2.410676436
 31
0.0
 11
3.3874214714
 21
2.4930574425
 31
0.0
 11
3.427778894
 21
2.5800778221
 31
0.0
 11
3.4364224972
 21
2.6680423969
 31
0.0
  0
SPLINE
  5
4F4
100
AcDbEntity
  8
0
100
AcDbSpline
 62
253
  6
CONTINUOUS
 70
0
 71
3
 72
9
 73
5
 74
3
 42
0.0000001
 43
0.0000001
 44
0.0000000001
 12
0.0563007563
 22
0.0807026848
 32
0.0
 13
0.0709840114
 23
0.0681466699
 33
0.0
 40
0.0
 40
0.0
 40
0.0
 40
0.0
 40
0.2548768183
 40
1.0
 40
1.0
 40
1.0
 40
1.0
 10
-21.4604042527
 20
-17.3242736947
 30
0.0
 10
-21.4556210001
 20
-17.3174172802
 30
0.0
 10
-21.4362345827
 20
-17.290956379
 30
0.0
 10
-21.4143174846
 20
-17.2663300877
 30
0.0
 10
-21.3966868738
 20
-17.2494041998
 30
0.0
 11
-21.4604042527
 21
-17.3242736947
 31
0.0
 11
-21.4455743048
 21
-17.3040479199
 31
0.0
 11
-21.3966868738
 21
-17.2494041998
 31
0.0
  0
SPLINE
  5
4F5
100
AcDbEntity
  8
0
100
AcDbSpline
 62
253
  6
CONTINUOUS
 70
0
 71
3
 72
9
 73
5
 74
3
 42
0.0000001
 43
0.0000001
 44
0.0000000001
 12
0.1327381603
 22
0.1274324093
 32
0.0
 13
0.1732512913
 23
0.0619873229
 33
0.0
 40
0.0
 40
0.0
 40
0.0
 40
0.0
 40
0.2538674096
 40
1.0
 40
1.0
 40
1.0
 40
1.0
 10
-21.3966868738
 20
-17.2494041998
 30
0.0
 10
-21.3854542429
 20
-17.2386205546
 30
0.0
 10
-21.3391466414
 20
-17.1983411661
 30
0.0
 10
-21.2842033723
 20
-17.1680147464
 30
0.0
 10
-21.241113894
 20
-17.1525978258
 30
0.0
 11
-21.3966868738
 21
-17.2494041998
 31
0.0
 11
-21.361385704
 21
-17.2188107621
 31
0.0
 11
-21.241113894
 21
-17.1525978258
 31
0.0
  0
SPLINE
  5
4F6
100
AcDbEntity
  8
0
100
AcDbSpline
 62
253
  6
CONTINUOUS
 70
0
 71
3
 72
9
 73
5
 74
3
 42
0.0000001
 43
0.0000001
 44
0.0000000001
 12
0.4484909753
 22
0.1604649218
 32
0.0
 13
0.4260452051
 23
-0.2130226026
 33
0.0
 40
0.0
 40
0.0
 40
0.0
 40
0.0
 40
0.4654892956
 40
1.0
 40
1.0
 40
1.0
 40
1.0
 10
-21.241113894
 20
-17.1525978258
 30
0.0
 10
-21.1715246446
 20
-17.1276995914
 30
0.0
 10
-21.0067071458
 20
-17.1143166039
 30
0.0
 10
-20.8534006041
 20
-17.1674084995
 30
0.0
 10
-20.7774920298
 20
-17.2053627866
 30
0.0
 11
-21.241113894
 21
-17.1525978258
 31
0.0
 11
-21.0205772792
 21
-17.1296441131
 31
0.0
 11
-20.7774920298
 21
-17.2053627866
 31
0.0
  0
SPLINE
  5
4F7
100
AcDbEntity
  8
0
100
AcDbSpline
 62
7
  6
CONTINUOUS
 70
0
 71
3
 72
9
 73
5
 74
3
 42
0.0000001
 43
0.0000001
 44
0.0000000001
 12
0.1965220123
 22
0.113252634
 32
0.0
 13
0.1284950953
 23
0.1869119336
 33
0.0
 40
0.0
 40
0.0
 40
0.0
 40
0.0
 40
0.2756663141
 40
1.0
 40
1.0
 40
1.0
 40
1.0
 10
3.1967928448
 20
2.6038240992
 30
0.0
 10
3.214851011
 20
2.6142307446
 30
0.0
 10
3.2786305167
 20
2.6546027972
 30
0.0
 10
3.3361682752
 20
2.7069437893
 30
0.0
 10
3.3671927172
 20
2.7520726592
 30
0.0
 11
3.1967928448
 21
2.6038240992
 31
0.0
 11
3.2495404112
 21
2.6373987171
 31
0.0
 11
3.3671927172
 21
2.7520726592
 31
0.0
  0
SPLINE
  5
4F8
100
AcDbEntity
  8
0
100
AcDbSpline
 62
7
  6
CONTINUOUS
 70
0
 71
3
 72
9
 73
5
 74
3
 42
0.0000001
 43
0.0000001
 44
0.0000000001
 12
0.0426478679
 22
0.0620365736
 32
0.0
 13
0.0255151687
 23
0.0708262188
 33
0.0
 40
0.0
 40
0.0
 40
0.0
 40
0.0
 40
0.2596648675
 40
1.0
 40
1.0
 40
1.0
 40
1.0
 10
3.3671927172
 20
2.7520726592
 30
0.0
 10
3.3708841016
 20
2.7574422321
 30
0.0
 10
3.384508979
 20
2.7785148184
 30
0.0
 10
3.3956209585
 20
2.8012612685
 30
0.0
 10
3.4019175504
 20
2.8187396478
 30
0.0
 11
3.3671927172
 21
2.7520726592
 31
0.0
 11
3.3777904713
 21
2.7684987145
 31
0.0
 11
3.4019175504
 21
2.8187396478
 31
0.0
  0
SPLINE
  5
4F9
100
AcDbEntity
  8
0
100
AcDbSpline
 62
7
  6
CONTINUOUS
 70
0
 71
3
 72
9
 73
5
 74
3
 42
0.0000001
 43
0.0000001
 44
0.0000000001
 12
0.0285078835
 22
0.0791335391
 32
0.0
 13
-0.0016956664
 23
0.0840948342
 33
0.0
 40
0.0
 40
0.0
 40
0.0
 40
0.0
 40
0.2566156223
 40
1.0
 40
1.0
 40
1.0
 40
1.0
 10
3.4019175504
 20
2.8187396478
 30
0.0
 10
3.4043560732
 20
2.8255086153
 30
0.0
 10
3.4127601875
 20
2.852263253
 30
0.0
 10
3.416384203
 20
2.8805663763
 30
0.0
 10
3.4159640257
 20
2.9014046383
 30
0.0
 11
3.4019175504
 21
2.8187396478
 31
0.0
 11
3.4083545502
 21
2.8393419015
 31
0.0
 11
3.4159640257
 21
2.9014046383
 31
0.0
  0
SPLINE
  5
4FA
100
AcDbEntity
  8
0
100
AcDbSpline
 62
253
  6
CONTINUOUS
 70
0
 71
3
 72
11
 73
7
 74
5
 42
0.0000001
 43
0.0000001
 44
0.0000000001
 12
0.5493394482
 22
-0.0189826292
 32
0.0
 13
0.0
 23
0.5496673263
 33
0.0
 40
0.0
 40
0.0
 40
0.0
 40
0.0
 40
0.227572886
 40
0.4530587096
 40
0.7058978672
 40
1.0
 40
1.0
 40
1.0
 40
1.0
 10
-21.4420126516
 20
-19.2313523353
 30
0.0
 10
-21.4003410637
 20
-19.2327923126
 30
0.0
 10
-21.3147158914
 20
-19.2180767724
 30
0.0
 10
-21.2111871659
 20
-19.132112289
 30
0.0
 10
-21.1507610067
 20
-19.0003502398
 30
0.0
 10
-21.139503658
 20
-18.8993754296
 30
0.0
 10
-21.139503658
 20
-18.8454893187
 30
0.0
 11
-21.4420126516
 21
-19.2313523353
 31
0.0
 11
-21.3191603412
 21
-19.2078010558
 31
0.0
 11
-21.2224730583
 21
-19.1302559997
 31
0.0
 11
-21.1607268178
 21
-19.0057484654
 31
0.0
 11
-21.139503658
 21
-18.8454893187
 31
0.0
  0
SPLINE
  5
4FB
100
AcDbEntity
  8
0
100
AcDbSpline
 62
253
  6
CONTINUOUS
 70
0
 71
3
 72
11
 73
7
 74
5
 42
0.0000001
 43
0.0000001
 44
0.0000000001
 12
0.6646769248
 22
0.3321820551
 32
0.0
 13
-0.0
 23
0.7430614591
 33
0.0
 40
0.0
 40
0.0
 40
0.0
 40
0.0
 40
0.2171660977
 40
0.4503906164
 40
0.710307251
 40
1.0
 40
1.0
 40
1.0
 40
1.0
 10
-20.1168728586
 20
-19.1842903043
 30
0.0
 10
-20.0687577606
 20
-19.1602440774
 30
0.0
 10
-19.9777412208
 20
-19.0909719472
 30
0.0
 10
-19.88015926
 20
-18.9413659647
 30
0.0
 10
-19.8217924893
 20
-18.7544703561
 30
0.0
 10
-19.8101916614
 20
-18.6178267144
 30
0.0
 10
-19.8101916614
 20
-18.5460735421
 30
0.0
 11
-20.1168728586
 21
-19.1842903043
 31
0.0
 11
-19.9877615833
 21
-19.0874924132
 31
0.0
 11
-19.8907554724
 21
-18.9438861569
 31
0.0
 11
-19.8305826017
 21
-18.7603650938
 31
0.0
 11
-19.8101916614
 21
-18.5460735421
 31
0.0
  0
SPLINE
  5
4FC
100
AcDbEntity
  8
0
100
AcDbSpline
 62
253
  6
CONTINUOUS
 70
0
 71
3
 72
15
 73
11
 74
9
 42
0.0000001
 43
0.0000001
 44
0.0000000001
 12
2.2429120988
 22
-1.1214560494
 32
0.0
 13
-0.0000972998
 23
2.5076519583
 33
0.0
 40
0.0
 40
0.0
 40
0.0
 40
0.0
 40
0.1349111792
 40
0.2571993516
 40
0.3703106221
 40
0.4800794971
 40
0.5933621391
 40
0.7159430721
 40
0.8512009536
 40
1.0
 40
1.0
 40
1.0
 40
1.0
 10
-3.3479001857
 20
-17.4669631082
 30
0.0
 10
-3.247035547
 20
-17.5173954275
 30
0.0
 10
-3.0451537512
 20
-17.5964926276
 30
0.0
 10
-2.7353436429
 20
-17.6401922693
 30
0.0
 10
-2.4452884484
 20
-17.5981278342
 30
0.0
 10
-2.1899723262
 20
-17.469099599
 30
0.0
 10
-1.983679752
 20
-17.2604252539
 30
0.0
 10
-1.8342457075
 20
-16.9846799166
 30
0.0
 10
-1.7446401176
 20
-16.6543300973
 30
0.0
 10
-1.7265747085
 20
-16.4162069471
 30
0.0
 10
-1.7265795345
 20
-16.2918282071
 30
0.0
 11
-3.3479001857
 21
-17.4669631082
 31
0.0
 11
-3.0315871265
 21
-17.5869626755
 31
0.0
 11
-2.7274305159
 21
-17.6260365296
 31
0.0
 11
-2.4471195813
 21
-17.5826830064
 31
0.0
 11
-2.2014271527
 21
-17.4585682482
 31
0.0
 11
-1.9997955946
 21
-17.2584621921
 31
0.0
 11
-1.8499739463
 21
-16.9900552609
 31
0.0
 11
-1.7577201031
 21
-16.6636627186
 31
0.0
 11
-1.7265795345
 21
-16.2918282071
 31
0.0
  0
SPLINE
  5
4FD
100
AcDbEntity
  8
0
100
AcDbSpline
 62
253
  6
CONTINUOUS
 70
0
 71
3
 72
11
 73
7
 74
5
 42
0.0000001
 43
0.0000001
 44
0.0000000001
 12
-0.0
 22
-0.5685848591
 32
0.0
 13
0.4603880513
 23
-0.333663879
 33
0.0
 40
0.0
 40
0.0
 40
0.0
 40
0.0
 40
0.2861041071
 40
0.5463546174
 40
0.7821677679
 40
1.0
 40
1.0
 40
1.0
 40
1.0
 10
-3.5550069669
 20
-16.9581440631
 30
0.0
 10
-3.5550069669
 20
-17.0123688842
 30
0.0
 10
-3.5470926733
 20
-17.1162043263
 30
0.0
 10
-3.5080589041
 20
-17.2603226843
 30
0.0
 10
-3.4428882317
 20
-17.3804994433
 30
0.0
 10
-3.3813293047
 20
-17.4427355256
 30
0.0
 10
-3.3479001857
 20
-17.4669631082
 30
0.0
 11
-3.5550069669
 21
-16.9581440631
 31
0.0
 11
-3.5414116522
 21
-17.1202494253
 31
0.0
 11
-3.5011889577
 21
-17.2626523305
 31
0.0
 11
-3.4358030503
 21
-17.379708182
 31
0.0
 11
-3.3479001857
 21
-17.4669631082
 31
0.0
  0
SPLINE
  5
4FE
100
AcDbEntity
  8
0
100
AcDbSpline
 62
253
  6
CONTINUOUS
 70
0
 71
3
 72
9
 73
5
 74
3
 42
0.0000001
 43
0.0000001
 44
0.0000000001
 12
-0.0002352836
 22
-0.098284637
 32
0.0
 13
-0.0500164886
 23
-0.0846065961
 33
0.0
 40
0.0
 40
0.0
 40
0.0
 40
0.0
 40
0.2432386189
 40
1.0
 40
1.0
 40
1.0
 40
1.0
 10
3.5563501519
 20
1.2962576389
 30
0.0
 10
3.5563310752
 20
1.2882887658
 30
0.0
 10
3.5539451304
 20
1.2555294292
 30
0.0
 10
3.5418402739
 20
1.2238407771
 30
0.0
 10
3.5292234249
 20
1.2024984423
 30
0.0
 11
3.5563501519
 21
1.2962576389
 31
0.0
 11
3.5545953477
 21
1.2724154413
 31
0.0
 11
3.5292234249
 21
1.2024984423
 31
0.0
  0
SPLINE
  5
4FF
100
AcDbEntity
  8
0
100
AcDbSpline
 62
253
  6
CONTINUOUS
 70
0
 71
3
 72
9
 73
5
 74
3
 42
0.0000001
 43
0.0000001
 44
0.0000000001
 12
-0.0355587004
 22
-0.0601501763
 32
0.0
 13
-0.0496294665
 23
-0.0491872031
 33
0.0
 40
0.0
 40
0.0
 40
0.0
 40
0.0
 40
0.2383406447
 40
1.0
 40
1.0
 40
1.0
 40
1.0
 10
3.5292234249
 20
1.2024984423
 30
0.0
 10
3.526398397
 20
1.1977196983
 30
0.0
 10
3.5138065728
 20
1.1781077348
 30
0.0
 10
3.4984843338
 20
1.1603171555
 30
0.0
 10
3.4858840846
 20
1.1478291911
 30
0.0
 11
3.5292234249
 21
1.2024984423
 31
0.0
 11
3.5202410054
 21
1.1884745083
 31
0.0
 11
3.4858840846
 21
1.1478291911
 31
0.0
  0
SPLINE
  5
500
100
AcDbEntity
  8
0
100
AcDbSpline
 62
253
  6
CONTINUOUS
 70
0
 71
3
 72
9
 73
5
 74
3
 42
0.0000001
 43
0.0000001
 44
0.0000000001
 12
-0.1211938795
 22
-0.1201138837
 32
0.0
 13
-0.1549124066
 23
-0.0715363387
 33
0.0
 40
0.0
 40
0.0
 40
0.0
 40
0.0
 40
0.2265887071
 40
1.0
 40
1.0
 40
1.0
 40
1.0
 10
3.4858840846
 20
1.1478291911
 30
0.0
 10
3.4767303632
 20
1.1387570412
 30
0.0
 10
3.4340024541
 20
1.1010666052
 30
0.0
 10
3.3839783228
 20
1.0723305794
 30
0.0
 10
3.3440413213
 20
1.053888242
 30
0.0
 11
3.4858840846
 21
1.1478291911
 31
0.0
 11
3.456992434
 21
1.1221363282
 31
0.0
 11
3.3440413213
 21
1.053888242
 31
0.0
  0
SPLINE
  5
501
100
AcDbEntity
  8
0
100
AcDbSpline
 62
253
  6
CONTINUOUS
 70
0
 71
3
 72
15
 73
11
 74
9
 42
0.0000001
 43
0.0000001
 44
0.0000000001
 12
1.5511685756
 22
-0.7755842878
 32
0.0
 13
-0.0000831374
 23
1.7342591878
 33
0.0
 40
0.0
 40
0.0
 40
0.0
 40
0.0
 40
0.1349014321
 40
0.2572111482
 40
0.3703129814
 40
0.4800825727
 40
0.5933661601
 40
0.7159341853
 40
0.851213988
 40
1.0
 40
1.0
 40
1.0
 40
1.0
 10
-3.5550069669
 20
-16.9581440631
 30
0.0
 10
-3.4852553461
 20
-16.9930198734
 30
0.0
 10
-3.3456272843
 20
-17.0477108257
 30
0.0
 10
-3.1313656813
 20
-17.0779592503
 30
0.0
 10
-2.9307661123
 20
-17.0488342856
 30
0.0
 10
-2.7541866328
 20
-16.9596247823
 30
0.0
 10
-2.6115322735
 20
-16.8153023093
 30
0.0
 10
-2.5081502109
 20
-16.6246148865
 30
0.0
 10
-2.4461966992
 20
-16.3961448197
 30
0.0
 10
-2.4336798869
 20
-16.2314600737
 30
0.0
 10
-2.4336840101
 20
-16.1454489043
 30
0.0
 11
-3.5550069669
 21
-16.9581440631
 31
0.0
 11
-3.3362629686
 21
-17.0411233373
 31
0.0
 11
-3.1258761886
 21
-17.0681588337
 31
0.0
 11
-2.932035256
 21
-17.0381640172
 31
0.0
 11
-2.7621121548
 21
-16.9523358964
 31
0.0
 11
-2.6226658776
 21
-16.813943388
 31
0.0
 11
-2.5190440779
 21
-16.628346285
 31
0.0
 11
-2.4552311809
 21
-16.4025811874
 31
0.0
 11
-2.4336840101
 21
-16.1454489043
 31
0.0
  0
SPLINE
  5
502
100
AcDbEntity
  8
0
100
AcDbSpline
 62
253
  6
CONTINUOUS
 70
0
 71
3
 72
11
 73
7
 74
5
 42
0.0000001
 43
0.0000001
 44
0.0000000001
 12
-0.0000426302
 22
2.3283058976
 32
0.0
 13
-2.0825001042
 23
1.0412500521
 33
0.0
 40
0.0
 40
0.0
 40
0.0
 40
0.0
 40
0.2468028409
 40
0.5117842648
 40
0.7703142448
 40
1.0
 40
1.0
 40
1.0
 40
1.0
 10
-2.4336840101
 20
-16.1454489043
 30
0.0
 10
-2.4336875172
 20
-15.9539047343
 30
0.0
 10
-2.4997767542
 20
-15.5560236296
 30
0.0
 10
-2.7391444505
 20
-15.0026854775
 30
0.0
 10
-3.090914659
 20
-14.5294951153
 30
0.0
 10
-3.3955667639
 20
-14.2911508902
 30
0.0
 10
-3.5550069669
 20
-14.2114307887
 30
0.0
 11
-2.4336840101
 21
-16.1454489043
 31
0.0
 11
-2.5190436079
 21
-15.5771916907
 31
0.0
 11
-2.7621120932
 21
-15.0101337982
 31
0.0
 11
-3.1258761843
 21
-14.5305467985
 31
0.0
 11
-3.5550069669
 21
-14.2114307887
 31
0.0
  0
SPLINE
  5
503
100
AcDbEntity
  8
0
100
AcDbSpline
 62
7
  6
CONTINUOUS
 70
0
 71
3
 72
9
 73
5
 74
3
 42
0.0000001
 43
0.0000001
 44
0.0000000001
 12
-0.0757283397
 22
0.0377434208
 32
0.0
 13
-0.0845613658
 23
0.0029534137
 33
0.0
 40
0.0
 40
0.0
 40
0.0
 40
0.0
 40
0.2268131008
 40
1.0
 40
1.0
 40
1.0
 40
1.0
 10
3.407434041
 20
0.5691341539
 30
0.0
 10
3.4017086478
 20
0.5719877214
 30
0.0
 10
3.3755701776
 20
0.5827951362
 30
0.0
 10
3.3470212428
 20
0.5867159171
 30
0.0
 10
3.3252273294
 20
0.5874770973
 30
0.0
 11
3.407434041
 21
0.5691341539
 31
0.0
 11
3.3897275485
 21
0.5765359706
 31
0.0
 11
3.3252273294
 21
0.5874770973
 31
0.0
  0
SPLINE
  5
504
100
AcDbEntity
  8
0
100
AcDbSpline
 62
7
  6
CONTINUOUS
 70
0
 71
3
 72
11
 73
7
 74
5
 42
0.0000001
 43
0.0000001
 44
0.0000000001
 12
-0.2855367059
 22
0.1622770539
 32
0.0
 13
-0.0040903275
 23
0.3284026825
 33
0.0
 40
0.0
 40
0.0
 40
0.0
 40
0.0
 40
0.2178982754
 40
0.4521865052
 40
0.712202926
 40
1.0
 40
1.0
 40
1.0
 40
1.0
 10
2.9140010346
 20
-0.4136440954
 30
0.0
 10
2.893261716
 20
-0.4018574653
 30
0.0
 10
2.8543112643
 20
-0.369564619
 30
0.0
 10
2.8123796668
 20
-0.3026020551
 30
0.0
 10
2.7867870358
 20
-0.2201132704
 30
0.0
 10
2.7810943982
 20
-0.1600068029
 30
0.0
 10
2.7807020035
 20
-0.1285023592
 30
0.0
 11
2.9140010346
 21
-0.4136440954
 31
0.0
 11
2.8585855887
 21
-0.3683613811
 31
0.0
 11
2.8167986481
 21
-0.303749699
 31
0.0
 11
2.790452126
 21
-0.2225187973
 31
0.0
 11
2.7807020035
 21
-0.1285023592
 31
0.0
  0
SPLINE
  5
505
100
AcDbEntity
  8
0
100
AcDbSpline
 62
7
  6
CONTINUOUS
 70
0
 71
3
 72
9
 73
5
 74
3
 42
0.0000001
 43
0.0000001
 44
0.0000000001
 12
0.1603554164
 22
0.0832283902
 32
0.0
 13
0.123323286
 23
0.1320310252
 33
0.0
 40
0.0
 40
0.0
 40
0.0
 40
0.0
 40
0.2715433908
 40
1.0
 40
1.0
 40
1.0
 40
1.0
 10
3.1959756438
 20
2.644904361
 30
0.0
 10
3.2104901283
 20
2.6524377341
 30
0.0
 10
3.2629425147
 20
2.6819329901
 30
0.0
 10
3.3116841668
 20
2.7189705419
 30
0.0
 10
3.3416293877
 20
2.7510301662
 30
0.0
 11
3.1959756438
 21
2.644904361
 31
0.0
 11
3.238702712
 21
2.6690123551
 31
0.0
 11
3.3416293877
 21
2.7510301662
 31
0.0
  0
SPLINE
  5
506
100
AcDbEntity
  8
0
100
AcDbSpline
 62
7
  6
CONTINUOUS
 70
0
 71
3
 72
9
 73
5
 74
3
 42
0.0000001
 43
0.0000001
 44
0.0000000001
 12
0.1198240822
 22
0.128284746
 32
0.0
 13
0.0089809811
 23
0.175311519
 33
0.0
 40
0.0
 40
0.0
 40
0.0
 40
0.0
 40
0.529259197
 40
1.0
 40
1.0
 40
1.0
 40
1.0
 10
3.3416293877
 20
2.7510301662
 30
0.0
 10
3.3627687202
 20
2.7736621268
 30
0.0
 10
3.3979521578
 20
2.8216950539
 30
0.0
 10
3.4139460213
 20
2.8798183318
 30
0.0
 10
3.4153552594
 20
2.9073270935
 30
0.0
 11
3.3416293877
 21
2.7510301662
 31
0.0
 11
3.3946357428
 21
2.8273323252
 31
0.0
 11
3.4153552594
 21
2.9073270935
 31
0.0
  0
SPLINE
  5
507
100
AcDbEntity
  8
0
100
AcDbSpline
 62
253
  6
CONTINUOUS
 70
0
 71
3
 72
9
 73
5
 74
3
 42
0.0000001
 43
0.0000001
 44
0.0000000001
 12
-0.0710133991
 22
0.5838781893
 32
0.0
 13
-0.0555194876
 23
0.5855546339
 33
0.0
 40
0.0
 40
0.0
 40
0.0
 40
0.0
 40
0.2486375254
 40
1.0
 40
1.0
 40
1.0
 40
1.0
 10
3.2802401505
 20
1.7514895989
 30
0.0
 10
3.2743546185
 20
1.7998809416
 30
0.0
 10
3.252409437
 20
1.9947155218
 30
0.0
 10
3.2336004808
 20
2.1898802651
 30
0.0
 10
3.2196953943
 20
2.336534858
 30
0.0
 11
3.2802401505
 21
1.7514895989
 31
0.0
 11
3.2636357107
 21
1.8967877283
 31
0.0
 11
3.2196953943
 21
2.336534858
 31
0.0
  0
SPLINE
  5
508
100
AcDbEntity
  8
0
100
AcDbSpline
 62
7
  6
CONTINUOUS
 70
0
 71
3
 72
11
 73
7
 74
5
 42
0.0000001
 43
0.0000001
 44
0.0000000001
 12
-0.0092252576
 22
-0.349998669
 32
0.0
 13
-0.3159527352
 23
-0.1508576906
 33
0.0
 40
0.0
 40
0.0
 40
0.0
 40
0.0
 40
0.2052626429
 40
0.4327547081
 40
0.6962724398
 40
1.0
 40
1.0
 40
1.0
 40
1.0
 10
3.5561611955
 20
1.2428354143
 30
0.0
 10
3.5555299953
 20
1.2188881971
 30
0.0
 10
3.5434782218
 20
1.1683136211
 30
0.0
 10
3.4972822168
 20
1.0999469065
 30
0.0
 10
3.4264522727
 20
1.0388779244
 30
0.0
 10
3.3685620008
 20
1.0060132057
 30
0.0
 10
3.3365741496
 20
0.9907399929
 30
0.0
 11
3.5561611955
 21
1.2428354143
 31
0.0
 11
3.5403490838
 21
1.1727298812
 31
0.0
 11
3.4972718214
 21
1.1057343288
 31
0.0
 11
3.4284528753
 21
1.0442819635
 31
0.0
 11
3.3365741496
 21
0.9907399929
 31
0.0
  0
SPLINE
  5
509
100
AcDbEntity
  8
0
100
AcDbSpline
 62
253
  6
CONTINUOUS
 70
0
 71
3
 72
11
 73
7
 74
5
 42
0.0000001
 43
0.0000001
 44
0.0000000001
 12
3.4422771316
 22
-1.7211385658
 32
0.0
 13
0.0000011851
 23
-3.8485828318
 33
0.0
 40
0.0
 40
0.0
 40
0.0
 40
0.0
 40
0.2296635349
 40
0.4881791341
 40
0.7531792203
 40
1.0
 40
1.0
 40
1.0
 40
1.0
 10
-3.1156671387
 20
-13.0949622056
 30
0.0
 10
-2.852145294
 20
-13.2267231279
 30
0.0
 10
-2.3486020584
 20
-13.6206519783
 30
0.0
 10
-1.7671058055
 20
-14.4027606985
 30
0.0
 10
-1.3714179995
 20
-15.3174212173
 30
0.0
 10
-1.2621135377
 20
-15.9751418898
 30
0.0
 10
-1.2621134402
 20
-16.2917786282
 30
0.0
 11
-3.1156671387
 21
-13.0949622056
 31
0.0
 11
-2.4063908461
 21
-13.6223799438
 31
0.0
 11
-1.8050986718
 21
-14.4150406115
 31
0.0
 11
-1.4032551293
 21
-15.3524126502
 31
0.0
 11
-1.2621134402
 21
-16.2917786282
 31
0.0
  0
SPLINE
  5
50A
100
AcDbEntity
  8
0
100
AcDbSpline
 62
253
  6
CONTINUOUS
 70
0
 71
3
 72
10
 73
6
 74
4
 42
0.0000001
 43
0.0000001
 44
0.0000000001
 12
-1.9263425917
 22
-0.9631712959
 32
0.0
 13
-1.0802712756
 23
-1.8631985125
 33
0.0
 40
0.0
 40
0.0
 40
0.0
 40
0.0
 40
0.2261576162
 40
0.4712450507
 40
1.0
 40
1.0
 40
1.0
 40
1.0
 10
-1.6156671387
 20
-11.5840033013
 30
0.0
 10
-1.7608861549
 20
-11.6566128094
 30
0.0
 10
-2.0487790207
 20
-11.8383735434
 30
0.0
 10
-2.5888124406
 20
-12.3141881795
 30
0.0
 10
-2.9252675442
 20
-12.7665703939
 30
0.0
 10
-3.1156671387
 20
-13.0949622056
 30
0.0
 11
-1.6156671387
 21
-11.5840033013
 31
0.0
 11
-2.0295206815
 21
-11.8408526251
 31
0.0
 11
-2.4274528245
 21
-12.1876586478
 31
0.0
 11
-3.1156671387
 21
-13.0949622056
 31
0.0
  0
SPLINE
  5
50B
100
AcDbEntity
  8
0
100
AcDbSpline
 62
253
  6
CONTINUOUS
 70
0
 71
3
 72
14
 73
10
 74
8
 42
0.0000001
 43
0.0000001
 44
0.0000000001
 12
0.0000337656
 22
5.1484603122
 32
0.0
 13
-4.6049228951
 23
2.3024614476
 33
0.0
 40
0.0
 40
0.0
 40
0.0
 40
0.0
 40
0.1198299487
 40
0.2469201687
 40
0.5113941968
 40
0.6430281403
 40
0.7699825949
 40
0.8896167471
 40
1.0
 40
1.0
 40
1.0
 40
1.0
 10
0.8592069045
 20
-15.8525794517
 30
0.0
 10
0.8592082532
 20
-15.6469328733
 30
0.0
 10
0.8242423457
 20
-15.22266808
 30
0.0
 10
0.6321518672
 20
-14.3644810899
 30
0.0
 10
0.271888381
 20
-13.530348585
 30
0.0
 10
-0.2244885424
 20
-12.7805640181
 30
0.0
 10
-0.649210975
 20
-12.2870252641
 30
0.0
 10
-1.1103874801
 20
-11.8807620952
 30
0.0
 10
-1.4462316825
 20
-11.6687210294
 30
0.0
 10
-1.6156671387
 20
-11.5840033013
 30
0.0
 11
0.8592069045
 21
-15.8525794517
 31
0.0
 11
0.8116618363
 21
-15.2374744984
 31
0.0
 11
0.6708466859
 21
-14.5984874983
 31
0.0
 11
0.1344343499
 21
-13.3469648028
 31
0.0
 11
-0.2405860749
 21
-12.7824708546
 31
0.0
 11
-0.6684753869
 21
-12.2883759215
 31
0.0
 11
-1.1328027787
 21
-11.8836884947
 31
0.0
 11
-1.6156671387
 21
-11.5840033013
 31
0.0
  0
SPLINE
  5
50C
100
AcDbEntity
  8
0
100
AcDbSpline
 62
253
  6
CONTINUOUS
 70
0
 71
3
 72
11
 73
7
 74
5
 42
0.0000001
 43
0.0000001
 44
0.0000000001
 12
1.5610014398
 22
1.1855874503
 32
0.0
 13
0.0000003018
 23
1.9601895565
 33
0.0
 40
0.0
 40
0.0
 40
0.0
 40
0.0
 40
0.218105867
 40
0.4542069821
 40
0.714358547
 40
1.0
 40
1.0
 40
1.0
 40
1.0
 10
0.158555265
 20
-17.6154710293
 30
0.0
 10
0.2720431225
 20
-17.529276503
 30
0.0
 10
0.4804190537
 20
-17.3108185698
 30
0.0
 10
0.7003501388
 20
-16.8939184582
 30
0.0
 10
0.8325286373
 20
-16.3968063488
 30
0.0
 10
0.8592068761
 20
-16.0392165828
 30
0.0
 10
0.8592069048
 20
-15.8525794519
 30
0.0
 11
0.158555265
 21
-17.6154710293
 31
0.0
 11
0.4563596471
 21
-17.308724454
 31
0.0
 11
0.6773517763
 21
-16.9020931223
 31
0.0
 11
0.8133184877
 21
-16.4106072479
 31
0.0
 11
0.8592069048
 21
-15.8525794519
 31
0.0
  0
SPLINE
  5
50D
100
AcDbEntity
  8
0
100
AcDbSpline
 62
253
  6
CONTINUOUS
 70
0
 71
3
 72
10
 73
6
 74
4
 42
0.0000001
 43
0.0000001
 44
0.0000000001
 12
2.1819944263
 22
-0.0001205906
 32
0.0
 13
1.9515591344
 23
0.9759695874
 33
0.0
 40
0.0
 40
0.0
 40
0.0
 40
0.0
 40
0.5287334213
 40
0.7747845324
 40
1.0
 40
1.0
 40
1.0
 40
1.0
 10
-1.2621277839
 20
-16.2918685872
 30
0.0
 10
-0.8775633245
 20
-16.2918898406
 30
0.0
 10
-0.3111981098
 20
-16.2391181757
 30
0.0
 10
0.3933671263
 20
-16.0542054344
 30
0.0
 10
0.7126998038
 20
-15.9257962876
 30
0.0
 10
0.8592069048
 20
-15.8525284719
 30
0.0
 11
-1.2621277839
 21
-16.2918685872
 31
0.0
 11
-0.1140953463
 21
-16.1777198361
 31
0.0
 11
0.4045837798
 21
-16.0391037795
 31
0.0
 11
0.8592069048
 21
-15.8525284719
 31
0.0
  0
SPLINE
  5
50E
100
AcDbEntity
  8
0
100
AcDbSpline
 62
253
  6
CONTINUOUS
 70
0
 71
3
 72
15
 73
11
 74
9
 42
0.0000001
 43
0.0000001
 44
0.0000000001
 12
-0.0000008005
 22
-2.5990898214
 32
0.0
 13
-2.4648633854
 23
0.824449144
 33
0.0
 40
0.0
 40
0.0
 40
0.0
 40
0.0
 40
0.1506814136
 40
0.2888953046
 40
0.4150892489
 40
0.531666033
 40
0.6429663222
 40
0.7546561697
 40
0.8722757342
 40
1.0
 40
1.0
 40
1.0
 40
1.0
 10
-1.2621134407
 20
-16.2918151621
 30
0.0
 10
-1.2621134809
 20
-16.4223600049
 30
0.0
 10
-1.2796201529
 20
-16.6732310517
 30
0.0
 10
-1.3656166695
 20
-17.0244862267
 30
0.0
 10
-1.5088807849
 20
-17.3249381103
 30
0.0
 10
-1.706802667
 20
-17.5640521796
 30
0.0
 10
-1.9540851645
 20
-17.7312426831
 30
0.0
 10
-2.2405756951
 20
-17.8181129247
 30
0.0
 10
-2.5533025026
 20
-17.8224621951
 30
0.0
 10
-2.7623235269
 20
-17.7740773591
 30
0.0
 10
-2.8672644822
 20
-17.7389766386
 30
0.0
 11
-1.2621134407
 21
-16.2918151621
 31
0.0
 11
-1.2918954855
 21
-16.6823156532
 31
0.0
 11
-1.3803068389
 21
-17.0304964302
 31
0.0
 11
-1.5244982485
 21
-17.3250908657
 31
0.0
 11
-1.7198453062
 21
-17.5567039226
 31
0.0
 11
-1.9600723933
 21
-17.7178670266
 31
0.0
 11
-2.2374808554
 21
-17.8033887134
 31
0.0
 11
-2.5431012026
 21
-17.810531865
 31
0.0
 11
-2.8672644822
 21
-17.7389766386
 31
0.0
  0
SPLINE
  5
50F
100
AcDbEntity
  8
0
100
AcDbSpline
 62
253
  6
CONTINUOUS
 70
0
 71
3
 72
11
 73
7
 74
5
 42
0.0000001
 43
0.0000001
 44
0.0000000001
 12
-1.9072846591
 22
-0.9016405446
 32
0.0
 13
-1.8173699088
 23
1.0713809113
 33
0.0
 40
0.0
 40
0.0
 40
0.0
 40
0.0
 40
0.22340448
 40
0.4595792378
 40
0.717074066
 40
1.0
 40
1.0
 40
1.0
 40
1.0
 10
-20.1226845452
 20
-22.456417482
 30
0.0
 10
-20.2647165244
 20
-22.5235609943
 30
0.0
 10
-20.5803096437
 20
-22.6163748116
 30
0.0
 10
-21.0903671736
 20
-22.614154671
 30
0.0
 10
-21.6238569929
 20
-22.4780288009
 30
0.0
 10
-21.9678661955
 20
-22.3107758166
 30
0.0
 10
-22.1392598884
 20
-22.209735335
 30
0.0
 11
-20.1226845452
 21
-22.456417482
 31
0.0
 11
-20.5742122152
 21
-22.5915277053
 31
0.0
 11
-21.0724515413
 21
-22.5947654326
 31
0.0
 11
-21.6002031338
 21
-22.466021518
 31
0.0
 11
-22.1392598884
 21
-22.209735335
 31
0.0
  0
LINE
  5
510
100
AcDbEntity
  8
0
100
AcDbLine
 62
253
  6
CONTINUOUS
 10
3.1359781228
 20
-3.5928209923
 11
3.1367234721
 21
-3.5805307418
  0
LINE
  5
511
100
AcDbEntity
  8
0
100
AcDbLine
 62
253
  6
CONTINUOUS
 10
3.29147276
 20
-0.4208722735
 11
3.2937403492
 21
-0.3596617889
  0
SPLINE
  5
512
100
AcDbEntity
  8
0
100
AcDbSpline
 62
253
  6
CONTINUOUS
 70
0
 71
3
 72
11
 73
7
 74
5
 42
0.0000001
 43
0.0000001
 44
0.0000000001
 12
-0.0399934716
 22
-0.458000548
 32
0.0
 13
-0.4112069841
 23
-0.2056034921
 33
0.0
 40
0.0
 40
0.0
 40
0.0
 40
0.0
 40
0.2069076826
 40
0.436486287
 40
0.6997996622
 40
1.0
 40
1.0
 40
1.0
 40
1.0
 10
-4.9036210265
 20
-31.5417834359
 30
0.0
 10
-4.9063793453
 20
-31.5733713799
 30
0.0
 10
-4.925361658
 20
-31.6392398546
 30
0.0
 10
-4.9873768111
 20
-31.7284032616
 30
0.0
 10
-5.0796211321
 20
-31.8089127917
 30
0.0
 10
-5.1544143083
 20
-31.8529530536
 30
0.0
 10
-5.1955624669
 20
-31.8735271328
 30
0.0
 11
-4.9036210265
 21
-31.5417834359
 31
0.0
 11
-4.9288020507
 21
-31.6335144273
 31
0.0
 11
-4.9873483924
 21
-31.7213355337
 31
0.0
 11
-5.0773507164
 21
-31.8022940279
 31
0.0
 11
-5.1955624669
 21
-31.8735271328
 31
0.0
  0
SPLINE
  5
513
100
AcDbEntity
  8
0
100
AcDbSpline
 62
253
  6
CONTINUOUS
 70
0
 71
3
 72
8
 73
4
 74
2
 42
0.0000001
 43
0.0000001
 44
0.0000000001
 12
0.0082775736
 22
-0.069503686
 32
0.0
 13
-0.0106571057
 23
-0.0691788023
 33
0.0
 40
0.0
 40
0.0
 40
0.0
 40
0.0
 40
1.0
 40
1.0
 40
1.0
 40
1.0
 10
3.4944921094
 20
2.1065564271
 30
0.0
 10
3.4972513006
 20
2.0833885318
 30
0.0
 10
3.4967318495
 20
2.0596334758
 30
0.0
 10
3.4931794809
 20
2.036573875
 30
0.0
 11
3.4944921094
 21
2.1065564271
 31
0.0
 11
3.4931794809
 21
2.036573875
 31
0.0
  0
SPLINE
  5
514
100
AcDbEntity
  8
0
100
AcDbSpline
 62
253
  6
CONTINUOUS
 70
0
 71
3
 72
9
 73
5
 74
3
 42
0.0000001
 43
0.0000001
 44
0.0000000001
 12
-0.0553058385
 22
-0.3590085141
 32
0.0
 13
-0.3014951886
 23
-0.2025993588
 33
0.0
 40
0.0
 40
0.0
 40
0.0
 40
0.0
 40
0.4704642222
 40
1.0
 40
1.0
 40
1.0
 40
1.0
 10
3.4931794809
 20
2.036573875
 30
0.0
 10
3.4845063415
 20
1.9802736546
 30
0.0
 10
3.427072331
 20
1.866779034
 30
0.0
 10
3.3334582546
 20
1.7872512103
 30
0.0
 10
3.2802407582
 20
1.7514900073
 30
0.0
 11
3.4931794809
 21
2.036573875
 31
0.0
 11
3.4224570751
 21
1.8810014326
 31
0.0
 11
3.2802407582
 21
1.7514900073
 31
0.0
  0
SPLINE
  5
515
100
AcDbEntity
  8
0
100
AcDbSpline
 62
253
  6
CONTINUOUS
 70
0
 71
3
 72
11
 73
7
 74
5
 42
0.0000001
 43
0.0000001
 44
0.0000000001
 12
0.3068407863
 22
0.1540576749
 32
0.0
 13
0.0275742256
 23
0.3422348571
 33
0.0
 40
0.0
 40
0.0
 40
0.0
 40
0.0
 40
0.3043279947
 40
0.5692659121
 40
0.7974942989
 40
1.0
 40
1.0
 40
1.0
 40
1.0
 10
2.9518416944
 20
-6.2169033618
 30
0.0
 10
2.9829684415
 20
-6.2012753407
 30
0.0
 10
3.0394940344
 20
-6.1682861844
 30
0.0
 10
3.1093332353
 20
-6.108527253
 30
0.0
 10
3.1562107488
 20
-6.0429223549
 30
0.0
 10
3.1704911268
 20
-5.9943583547
 30
0.0
 10
3.1723524394
 20
-5.9712568515
 30
0.0
 11
2.9518416944
 21
-6.2169033618
 31
0.0
 11
3.0414981609
 21
-6.1632404989
 31
0.0
 11
3.1096745503
 21
-6.1030194219
 31
0.0
 11
3.1538045517
 21
-6.038266338
 31
0.0
 11
3.1723524394
 21
-5.9712568515
 31
0.0
  0
LINE
  5
516
100
AcDbEntity
  8
0
100
AcDbLine
 62
253
  6
CONTINUOUS
 10
2.7807886708
 20
-8.1895740337
 11
2.7975932056
 21
-8.0073084884
  0
LINE
  5
517
100
AcDbEntity
  8
0
100
AcDbLine
 62
253
  6
CONTINUOUS
 10
2.7975932056
 20
-8.0073084884
 11
2.8010324946
 21
-7.9699473914
  0
SPLINE
  5
518
100
AcDbEntity
  8
0
100
AcDbSpline
 62
253
  6
CONTINUOUS
 70
0
 71
3
 72
9
 73
5
 74
3
 42
0.0000001
 43
0.0000001
 44
0.0000000001
 12
-0.1114441684
 22
0.0414842522
 32
0.0
 13
-0.1182326573
 23
0.0127194582
 33
0.0
 40
0.0
 40
0.0
 40
0.0
 40
0.0
 40
0.2465414921
 40
1.0
 40
1.0
 40
1.0
 40
1.0
 10
-5.463290193
 20
-30.6112119996
 30
0.0
 10
-5.4724487302
 20
-30.6078028031
 30
0.0
 10
-5.5100359914
 20
-30.5951717345
 30
0.0
 10
-5.5492306899
 20
-30.5874330835
 30
0.0
 10
-5.578925157
 20
-30.5842385555
 30
0.0
 11
-5.463290193
 21
-30.6112119996
 31
0.0
 11
-5.4910800735
 21
-30.6018720125
 31
0.0
 11
-5.578925157
 21
-30.5842385555
 31
0.0
  0
SPLINE
  5
519
100
AcDbEntity
  8
0
100
AcDbSpline
 62
253
  6
CONTINUOUS
 70
0
 71
3
 72
9
 73
5
 74
3
 42
0.0000001
 43
0.0000001
 44
0.0000000001
 12
-0.3284849804
 22
0.0353383836
 32
0.0
 13
-0.3046537253
 23
-0.1278174143
 33
0.0
 40
0.0
 40
0.0
 40
0.0
 40
0.0
 40
0.2347110074
 40
1.0
 40
1.0
 40
1.0
 40
1.0
 10
-5.578925157
 20
-30.5842385555
 30
0.0
 10
-5.6046248373
 20
-30.5814737863
 30
0.0
 10
-5.7150254111
 20
-30.5779411652
 30
0.0
 10
-5.8249532005
 20
-30.6063190604
 30
0.0
 10
-5.9026692481
 20
-30.6389248138
 30
0.0
 11
-5.578925157
 21
-30.5842385555
 31
0.0
 11
-5.6564232517
 21
-30.5815734228
 31
0.0
 11
-5.9026692481
 21
-30.6389248138
 31
0.0
  0
SPLINE
  5
51A
100
AcDbEntity
  8
0
100
AcDbSpline
 62
253
  6
CONTINUOUS
 70
0
 71
3
 72
11
 73
7
 74
5
 42
0.0000001
 43
0.0000001
 44
0.0000000001
 12
-0.0399934716
 22
-0.458000548
 32
0.0
 13
-0.4112069841
 23
-0.2056034921
 33
0.0
 40
0.0
 40
0.0
 40
0.0
 40
0.0
 40
0.2069076826
 40
0.436486287
 40
0.6997996622
 40
1.0
 40
1.0
 40
1.0
 40
1.0
 10
-4.9036210265
 20
-0.6399638853
 30
0.0
 10
-4.9063793453
 20
-0.6715518293
 30
0.0
 10
-4.925361658
 20
-0.7374203041
 30
0.0
 10
-4.9873768111
 20
-0.826583711
 30
0.0
 10
-5.0796211321
 20
-0.9070932411
 30
0.0
 10
-5.1544143083
 20
-0.951133503
 30
0.0
 10
-5.1955624669
 20
-0.9717075822
 30
0.0
 11
-4.9036210265
 21
-0.6399638853
 31
0.0
 11
-4.9288020507
 21
-0.7316948767
 31
0.0
 11
-4.9873483924
 21
-0.8195159831
 31
0.0
 11
-5.0773507164
 21
-0.9004744773
 31
0.0
 11
-5.1955624669
 21
-0.9717075822
 31
0.0
  0
SPLINE
  5
51B
100
AcDbEntity
  8
0
100
AcDbSpline
 62
253
  6
CONTINUOUS
 70
0
 71
3
 72
9
 73
5
 74
3
 42
0.0000001
 43
0.0000001
 44
0.0000000001
 12
-0.0479980493
 22
0.2281641306
 32
0.0
 13
-0.0281500977
 23
0.2314524902
 33
0.0
 40
0.0
 40
0.0
 40
0.0
 40
0.0
 40
0.2450364472
 40
1.0
 40
1.0
 40
1.0
 40
1.0
 10
3.3152939287
 20
1.5210383284
 30
0.0
 10
3.3113735049
 20
1.5396745044
 30
0.0
 10
3.2967944135
 20
1.6160372158
 30
0.0
 10
3.2873242497
 20
1.6932435341
 30
0.0
 10
3.2802401505
 20
1.7514895989
 30
0.0
 11
3.3152939287
 21
1.5210383284
 31
0.0
 11
3.304535442
 21
1.5771484519
 31
0.0
 11
3.2802401505
 21
1.7514895989
 31
0.0
  0
SPLINE
  5
51C
100
AcDbEntity
  8
0
100
AcDbSpline
 62
7
  6
CONTINUOUS
 70
0
 71
3
 72
10
 73
6
 74
4
 42
0.0000001
 43
0.0000001
 44
0.0000000001
 12
1.0802737209
 22
1.8631965606
 32
0.0
 13
1.9263421782
 23
0.9631710896
 33
0.0
 40
0.0
 40
0.0
 40
0.0
 40
0.0
 40
0.5287489115
 40
0.7738447302
 40
1.0
 40
1.0
 40
1.0
 40
1.0
 10
-3.8934847649
 20
-12.7060533925
 30
0.0
 10
-3.7030869135
 20
-12.3776656747
 30
0.0
 10
-3.3666291675
 20
-11.9252839847
 30
0.0
 10
-2.8265978185
 20
-11.4494673398
 30
0.0
 10
-2.5387020369
 20
-11.2677030989
 30
0.0
 10
-2.3934845586
 20
-11.1950943597
 30
0.0
 11
-3.8934847649
 21
-12.7060533925
 31
0.0
 11
-3.2052777165
 21
-11.7987609514
 31
0.0
 11
-2.8073331662
 21
-11.4519418538
 31
0.0
 11
-2.3934845586
 21
-11.1950943597
 31
0.0
  0
SPLINE
  5
51D
100
AcDbEntity
  8
0
100
AcDbSpline
 62
253
  6
CONTINUOUS
 70
0
 71
3
 72
11
 73
7
 74
5
 42
0.0000001
 43
0.0000001
 44
0.0000000001
 12
-0.4894971439
 22
0.244748572
 32
0.0
 13
-0.4895432137
 23
-0.2446564108
 33
0.0
 40
0.0
 40
0.0
 40
0.0
 40
0.0
 40
0.279076068
 40
0.5353716794
 40
0.7728995978
 40
1.0
 40
1.0
 40
1.0
 40
1.0
 10
-20.6445777675
 20
-17.1069703849
 30
0.0
 10
-20.6901134136
 20
-17.0842025618
 30
0.0
 10
-20.7812436333
 20
-17.0474020969
 30
0.0
 10
-20.9208685698
 20
-17.0211040028
 30
0.0
 10
-21.0535843325
 20
-17.0277475967
 30
0.0
 10
-21.1352241895
 20
-17.0549501507
 30
0.0
 10
-21.1722826764
 20
-17.0734706738
 30
0.0
 11
-20.6445777675
 21
-17.1069703849
 31
0.0
 11
-20.7866389206
 21
-17.0508860891
 31
0.0
 11
-20.924716605
 21
-17.0262172114
 31
0.0
 11
-21.054486225
 21
-17.0338339851
 31
0.0
 11
-21.1722826764
 21
-17.0734706738
 31
0.0
  0
SPLINE
  5
51E
100
AcDbEntity
  8
0
100
AcDbSpline
 62
253
  6
CONTINUOUS
 70
0
 71
3
 72
9
 73
5
 74
3
 42
0.0000001
 43
0.0000001
 44
0.0000000001
 12
0.0
 22
-0.5230945135
 32
0.0
 13
-0.3269846138
 23
-0.408300052
 33
0.0
 40
0.0
 40
0.0
 40
0.0
 40
0.0
 40
0.5381577358
 40
1.0
 40
1.0
 40
1.0
 40
1.0
 10
-19.969180963
 20
-18.5994931537
 30
0.0
 10
-19.969180963
 20
-18.69332894
 30
0.0
 10
-19.9886041782
 20
-18.8689029324
 30
0.0
 10
-20.0650329483
 20
-19.0313597022
 30
0.0
 10
-20.1153713864
 20
-19.0942164424
 30
0.0
 11
-19.969180963
 21
-18.5994931537
 31
0.0
 11
-20.0065960625
 21
-18.8785030164
 31
0.0
 11
-20.1153713864
 21
-19.0942164424
 31
0.0
  0
SPLINE
  5
51F
100
AcDbEntity
  8
0
100
AcDbSpline
 62
253
  6
CONTINUOUS
 70
0
 71
3
 72
9
 73
5
 74
3
 42
0.0000001
 43
0.0000001
 44
0.0000000001
 12
-0.07859501
 22
-0.0981402345
 32
0.0
 13
-0.1018067501
 23
-0.07378392
 33
0.0
 40
0.0
 40
0.0
 40
0.0
 40
0.0
 40
0.2552987643
 40
1.0
 40
1.0
 40
1.0
 40
1.0
 10
-20.1153713864
 20
-19.0942164424
 30
0.0
 10
-20.1220597894
 20
-19.1025681359
 30
0.0
 10
-20.1492692359
 20
-19.1344523957
 30
0.0
 10
-20.1806579223
 20
-19.1628209979
 30
0.0
 10
-20.2059297931
 20
-19.1811366567
 30
0.0
 11
-20.1153713864
 21
-19.0942164424
 31
0.0
 11
-20.1362252577
 21
-19.1186190185
 31
0.0
 11
-20.2059297931
 21
-19.1811366567
 31
0.0
  0
SPLINE
  5
520
100
AcDbEntity
  8
0
100
AcDbSpline
 62
253
  6
CONTINUOUS
 70
0
 71
3
 72
9
 73
5
 74
3
 42
0.0000001
 43
0.0000001
 44
0.0000000001
 12
-0.2433970753
 22
-0.176400782
 32
0.0
 13
-0.3004190492
 23
0.0103810921
 33
0.0
 40
0.0
 40
0.0
 40
0.0
 40
0.0
 40
0.4908389038
 40
1.0
 40
1.0
 40
1.0
 40
1.0
 10
-20.2059297931
 20
-19.1811366567
 30
0.0
 10
-20.245752711
 20
-19.2099981122
 30
0.0
 10
-20.3378231826
 20
-19.2551054552
 30
0.0
 10
-20.43939913
 20
-19.2660745672
 30
0.0
 10
-20.4903863608
 20
-19.2643126845
 30
0.0
 11
-20.2059297931
 21
-19.1811366567
 31
0.0
 11
-20.3384263358
 21
-19.2460543106
 31
0.0
 11
-20.4903863608
 21
-19.2643126845
 31
0.0
  0
SPLINE
  5
521
100
AcDbEntity
  8
0
100
AcDbSpline
 62
253
  6
CONTINUOUS
 70
0
 71
3
 72
11
 73
7
 74
5
 42
0.0000001
 43
0.0000001
 44
0.0000000001
 12
1.5011676572
 22
-0.7505838286
 32
0.0
 13
0.0
 23
-1.6783564635
 33
0.0
 40
0.0
 40
0.0
 40
0.0
 40
0.0
 40
0.2296940512
 40
0.4882147541
 40
0.7531875194
 40
1.0
 40
1.0
 40
1.0
 40
1.0
 10
-20.7774920298
 20
-17.2053627866
 30
0.0
 10
-20.662555603
 20
-17.262831
 30
0.0
 10
-20.4429502187
 20
-17.4346429547
 30
0.0
 10
-20.189371013
 20
-17.7757307239
 30
0.0
 10
-20.0168325235
 20
-18.1746020129
 30
0.0
 10
-19.969180963
 20
-18.4614133796
 30
0.0
 10
-19.969180963
 20
-18.5994931537
 30
0.0
 11
-20.7774920298
 21
-17.2053627866
 31
0.0
 11
-20.4681432195
 21
-17.4354065076
 31
0.0
 11
-20.2059297931
 21
-17.7811008205
 31
0.0
 11
-20.0307197516
 21
-18.1898503904
 31
0.0
 11
-19.969180963
 21
-18.5994931537
 31
0.0
  0
SPLINE
  5
522
100
AcDbEntity
  8
0
100
AcDbSpline
 62
253
  6
CONTINUOUS
 70
0
 71
3
 72
11
 73
7
 74
5
 42
0.0000001
 43
0.0000001
 44
0.0000000001
 12
0.0
 22
1.7324980093
 32
0.0
 13
-1.5495933278
 23
0.7747966639
 33
0.0
 40
0.0
 40
0.0
 40
0.0
 40
0.0
 40
0.2468124806
 40
0.5117852459
 40
0.7703059488
 40
1.0
 40
1.0
 40
1.0
 40
1.0
 10
-19.8101916614
 20
-18.5460735421
 30
0.0
 10
-19.8101916614
 20
-18.4035394983
 30
0.0
 10
-19.8593803979
 20
-18.1074759787
 30
0.0
 10
-20.0374847494
 20
-17.6957376328
 30
0.0
 10
-20.2992440828
 20
-17.343646826
 30
0.0
 10
-20.5259336445
 20
-17.1662924464
 30
0.0
 10
-20.6445777675
 20
-17.1069703849
 30
0.0
 11
-19.8101916614
 21
-18.5460735421
 31
0.0
 11
-19.8737156095
 21
-18.1232162485
 31
0.0
 11
-20.0545776938
 21
-17.7012809615
 31
0.0
 11
-20.3252497763
 21
-17.3444350101
 31
0.0
 11
-20.6445777675
 21
-17.1069703849
 31
0.0
  0
SPLINE
  5
523
100
AcDbEntity
  8
0
100
AcDbSpline
 62
253
  6
CONTINUOUS
 70
0
 71
3
 72
10
 73
6
 74
4
 42
0.0000001
 43
0.0000001
 44
0.0000000001
 12
-0.4520732371
 22
0.2798120124
 32
0.0
 13
-0.4905584902
 23
-0.2049813203
 33
0.0
 40
0.0
 40
0.0
 40
0.0
 40
0.0
 40
0.2292452842
 40
0.4683185341
 40
1.0
 40
1.0
 40
1.0
 40
1.0
 10
-5.3761590965
 20
0.2470330116
 30
0.0
 10
-5.4107043158
 20
0.2684148731
 30
0.0
 10
-5.4880287592
 20
0.302052404
 30
0.0
 10
-5.6653118774
 20
0.3262161178
 30
0.0
 10
-5.8033882474
 20
0.2929207357
 30
0.0
 10
-5.8903285331
 20
0.2565924794
 30
0.0
 11
-5.3761590965
 21
0.2470330116
 31
0.0
 11
-5.4877720007
 21
0.2959979498
 31
0.0
 11
-5.6135754035
 21
0.3141503165
 31
0.0
 11
-5.8903285331
 21
0.2565924794
 31
0.0
  0
SPLINE
  5
524
100
AcDbEntity
  8
0
100
AcDbSpline
 62
7
  6
CONTINUOUS
 70
0
 71
3
 72
9
 73
5
 74
3
 42
0.0000001
 43
0.0000001
 44
0.0000000001
 12
0.0073584463
 22
0.3478400745
 32
0.0
 13
-0.1117836095
 23
0.3294712261
 33
0.0
 40
0.0
 40
0.0
 40
0.0
 40
0.0
 40
0.2376439367
 40
1.0
 40
1.0
 40
1.0
 40
1.0
 10
-5.0470288836
 20
0.7255247771
 30
0.0
 10
-5.0464459869
 20
0.7530788054
 30
0.0
 10
-5.0499828493
 20
0.8691262409
 30
0.0
 10
-5.0752081878
 20
0.9840753519
 30
0.0
 10
-5.1036144919
 20
1.0678001476
 30
0.0
 11
-5.0470288836
 21
0.7255247771
 31
0.0
 11
-5.0493518636
 21
0.8081727167
 31
0.0
 11
-5.1036144919
 21
1.0678001476
 31
0.0
  0
SPLINE
  5
525
100
AcDbEntity
  8
0
100
AcDbSpline
 62
253
  6
CONTINUOUS
 70
0
 71
3
 72
9
 73
5
 74
3
 42
0.0000001
 43
0.0000001
 44
0.0000000001
 12
0.2808742153
 22
0.1224166988
 32
0.0
 13
0.2811504874
 23
-0.1217808541
 33
0.0
 40
0.0
 40
0.0
 40
0.0
 40
0.0
 40
0.4735253047
 40
1.0
 40
1.0
 40
1.0
 40
1.0
 10
-4.4507197294
 20
7.3950595733
 30
0.0
 10
-4.4063860466
 20
7.4143820415
 30
0.0
 10
-4.3015454343
 20
7.4318029574
 30
0.0
 10
-4.2004704853
 20
7.4043686956
 30
0.0
 10
-4.1511309462
 20
7.3829971829
 30
0.0
 11
-4.4507197294
 21
7.3950595733
 31
0.0
 11
-4.3079410412
 21
7.4208228238
 31
0.0
 11
-4.1511309462
 21
7.3829971829
 31
0.0
  0
SPLINE
  5
526
100
AcDbEntity
  8
0
100
AcDbSpline
 62
7
  6
CONTINUOUS
 70
0
 71
3
 72
11
 73
7
 74
5
 42
0.0000001
 43
0.0000001
 44
0.0000000001
 12
-1.0268659736
 22
0.430788948
 32
0.0
 13
-1.0208735334
 23
-0.4448034109
 33
0.0
 40
0.0
 40
0.0
 40
0.0
 40
0.0
 40
0.2296449673
 40
0.4692426087
 40
0.7248426501
 40
1.0
 40
1.0
 40
1.0
 40
1.0
 10
-3.0677807751
 20
7.4429389475
 30
0.0
 10
-3.1463856427
 20
7.4759151188
 30
0.0
 10
-3.315900751
 20
7.5236858321
 30
0.0
 10
-3.5867395519
 20
7.5356060507
 30
0.0
 10
-3.8706620671
 20
7.489414729
 30
0.0
 10
-4.0574974334
 20
7.4237916421
 30
0.0
 10
-4.151131052
 20
7.3829946662
 30
0.0
 11
-3.0677807751
 21
7.4429389475
 31
0.0
 11
-3.3136988389
 21
7.5130794046
 31
0.0
 11
-3.5801700093
 21
7.526485292
 31
0.0
 11
-3.8614175876
 21
7.4827490576
 31
0.0
 11
-4.151131052
 21
7.3829946662
 31
0.0
  0
SPLINE
  5
527
100
AcDbEntity
  8
0
100
AcDbSpline
 62
7
  6
CONTINUOUS
 70
0
 71
3
 72
9
 73
5
 74
3
 42
0.0000001
 43
0.0000001
 44
0.0000000001
 12
-0.0
 22
0.7514139425
 32
0.0
 13
0.3768986832
 23
0.6500540712
 33
0.0
 40
0.0
 40
0.0
 40
0.0
 40
0.0
 40
0.4822183793
 40
1.0
 40
1.0
 40
1.0
 40
1.0
 10
-4.332824593
 20
-13.8225219757
 30
0.0
 10
-4.332824593
 20
-13.7017401045
 30
0.0
 10
-4.2911971778
 20
-13.4509386166
 30
0.0
 10
-4.1907682155
 20
-13.2187914995
 30
0.0
 10
-4.1257178119
 20
-13.1065961493
 30
0.0
 11
-4.332824593
 21
-13.8225219757
 31
0.0
 11
-4.2790041914
 21
-13.4641957165
 31
0.0
 11
-4.1257178119
 21
-13.1065961493
 31
0.0
  0
SPLINE
  5
528
100
AcDbEntity
  8
0
100
AcDbSpline
 62
7
  6
CONTINUOUS
 70
0
 71
3
 72
11
 73
7
 74
5
 42
0.0000001
 43
0.0000001
 44
0.0000000001
 12
-0.4603867783
 22
0.3336629564
 32
0.0
 13
-0.0
 23
0.5685832869
 33
0.0
 40
0.0
 40
0.0
 40
0.0
 40
0.0
 40
0.2178329762
 40
0.4536473424
 40
0.7138971427
 40
1.0
 40
1.0
 40
1.0
 40
1.0
 10
-4.1257178117
 20
-17.0780542952
 30
0.0
 10
-4.1591469524
 20
-17.0538266969
 30
0.0
 10
-4.2207044034
 20
-16.9915887009
 30
0.0
 10
-4.2858734175
 20
-16.8714116314
 30
0.0
 10
-4.3249088835
 20
-16.7272944687
 30
0.0
 10
-4.3328245929
 20
-16.6234596844
 30
0.0
 10
-4.3328245929
 20
-16.5692352501
 30
0.0
 11
-4.1257178117
 21
-17.0780542952
 31
0.0
 11
-4.2136193573
 21
-16.9907979259
 31
0.0
 11
-4.2790041913
 21
-16.8737411077
 31
0.0
 11
-4.3192278931
 21
-16.7313393316
 31
0.0
 11
-4.3328245929
 21
-16.5692352501
 31
0.0
  0
SPLINE
  5
529
100
AcDbEntity
  8
0
100
AcDbSpline
 62
253
  6
CONTINUOUS
 70
0
 71
3
 72
17
 73
13
 74
11
 42
0.0000001
 43
0.0000001
 44
0.0000000001
 12
8.6748453509
 22
4.338159673
 32
0.0
 13
-8.3552826395
 23
4.9256292212
 33
0.0
 40
0.0
 40
0.0
 40
0.0
 40
0.0
 40
0.0448478551
 40
0.0912816869
 40
0.1406056074
 40
0.1936827929
 40
0.3120050353
 40
0.4453782304
 40
0.5883962238
 40
0.7335815009
 40
0.8730291544
 40
1.0
 40
1.0
 40
1.0
 40
1.0
 10
-19.8065039373
 20
-23.0205024909
 30
0.0
 10
-19.6768212014
 20
-22.9556501054
 30
0.0
 10
-19.4282422664
 20
-22.7903004271
 30
0.0
 10
-19.1172857465
 20
-22.4536544494
 30
0.0
 10
-18.8714204391
 20
-22.0362332163
 30
0.0
 10
-18.6277661833
 20
-21.3619622821
 30
0.0
 10
-18.5244693254
 20
-20.3677804787
 30
0.0
 10
-18.6925942966
 20
-19.0942122786
 30
0.0
 10
-19.1304841395
 20
-17.7951243215
 30
0.0
 10
-19.8023748392
 20
-16.5780519825
 30
0.0
 10
-20.6514983625
 20
-15.5438697048
 30
0.0
 10
-21.3322865564
 20
-15.0001981619
 30
0.0
 10
-21.6859123236
 20
-14.7917277262
 30
0.0
 11
-19.8065039373
 21
-23.0205024909
 31
0.0
 11
-19.4438351962
 21
-22.7803309287
 31
0.0
 11
-19.1362778107
 21
-22.4513348894
 31
0.0
 11
-18.890641004
 21
-22.0408145697
 31
0.0
 11
-18.712362699
 21
-21.557868476
 31
0.0
 11
-18.5721153722
 21
-20.4188508816
 31
0.0
 11
-18.7279227551
 21
-19.1346680879
 31
0.0
 11
-19.1660197416
 21
-17.818520232
 31
0.0
 11
-19.847813304
 21
-16.586411823
 31
0.0
 11
-20.7131752358
 21
-15.5469644509
 31
0.0
 11
-21.6859123236
 21
-14.7917277262
 31
0.0
  0
SPLINE
  5
52A
100
AcDbEntity
  8
0
100
AcDbSpline
 62
7
  6
CONTINUOUS
 70
0
 71
3
 72
11
 73
7
 74
5
 42
0.0000001
 43
0.0000001
 44
0.0000000001
 12
1.1474686521
 22
0.4999599142
 32
0.0
 13
1.0799296957
 23
-0.6327685798
 33
0.0
 40
0.0
 40
0.0
 40
0.0
 40
0.0
 40
0.2769272632
 40
0.5317544394
 40
0.7698331198
 40
1.0
 40
1.0
 40
1.0
 40
1.0
 10
1.3491032721
 20
4.6328774522
 30
0.0
 10
1.4550250566
 20
4.6790282958
 30
0.0
 10
1.6664422135
 20
4.751098087
 30
0.0
 10
1.9878119376
 20
4.7909061689
 30
0.0
 10
2.2905735119
 20
4.7547774252
 30
0.0
 10
2.473906767
 20
4.6792070964
 30
0.0
 10
2.5567614499
 20
4.6306596398
 30
0.0
 11
1.3491032721
 21
4.6328774522
 31
0.0
 11
1.678094413
 21
4.7420046826
 31
0.0
 11
1.9949698522
 21
4.7783771883
 31
0.0
 11
2.2905957874
 21
4.7408940555
 31
0.0
 11
2.5567614499
 21
4.6306596398
 31
0.0
  0
SPLINE
  5
52B
100
AcDbEntity
  8
0
100
AcDbSpline
 62
253
  6
CONTINUOUS
 70
0
 71
3
 72
11
 73
7
 74
5
 42
0.0000001
 43
0.0000001
 44
0.0000000001
 12
-0.0000616376
 22
3.3664257612
 32
0.0
 13
-3.0110227378
 23
1.5055113689
 33
0.0
 40
0.0
 40
0.0
 40
0.0
 40
0.0
 40
0.2467943128
 40
0.5117863827
 40
0.7703249069
 40
1.0
 40
1.0
 40
1.0
 40
1.0
 10
-1.7265795332
 20
-16.2918249144
 30
0.0
 10
-1.7265846038
 20
-16.0148866703
 30
0.0
 10
-1.8221611562
 20
-15.4396040948
 30
0.0
 10
-2.1682494223
 20
-14.6395340658
 30
0.0
 10
-2.6768941977
 20
-13.9553707866
 30
0.0
 10
-3.1173812099
 20
-13.6107644503
 30
0.0
 10
-3.3479001857
 20
-13.4955049624
 30
0.0
 11
-1.7265795332
 21
-16.2918249144
 31
0.0
 11
-1.8500056542
 21
-15.4702294469
 31
0.0
 11
-2.201466212
 21
-14.6503054875
 31
0.0
 11
-2.7274560308
 21
-13.9568755083
 31
0.0
 11
-3.3479001857
 21
-13.4955049624
 31
0.0
  0
SPLINE
  5
52C
100
AcDbEntity
  8
0
100
AcDbSpline
 62
253
  6
CONTINUOUS
 70
0
 71
3
 72
9
 73
5
 74
3
 42
0.0000001
 43
0.0000001
 44
0.0000000001
 12
-0.3768989785
 22
-0.6500545802
 32
0.0
 13
-0.0
 23
-0.7514145309
 33
0.0
 40
0.0
 40
0.0
 40
0.0
 40
0.0
 40
0.5177824482
 40
1.0
 40
1.0
 40
1.0
 40
1.0
 10
-3.3479001857
 20
-13.4955049624
 30
0.0
 10
-3.4129507443
 20
-13.6077005797
 30
0.0
 10
-3.5133840385
 20
-13.8398464083
 30
0.0
 10
-3.5550069669
 20
-14.0906490302
 30
0.0
 10
-3.5550069669
 20
-14.2114307887
 30
0.0
 11
-3.3479001857
 21
-13.4955049624
 31
0.0
 11
-3.5011889577
 21
-13.853104512
 31
0.0
 11
-3.5550069669
 21
-14.2114307887
 31
0.0
  0
SPLINE
  5
52D
100
AcDbEntity
  8
0
100
AcDbSpline
 62
7
  6
CONTINUOUS
 70
0
 71
3
 72
11
 73
7
 74
5
 42
0.0000001
 43
0.0000001
 44
0.0000000001
 12
1.09531025
 22
0.4772601397
 32
0.0
 13
1.1017070276
 23
-0.4623022929
 33
0.0
 40
0.0
 40
0.0
 40
0.0
 40
0.0
 40
0.2751660875
 40
0.5307984012
 40
0.7703548627
 40
1.0
 40
1.0
 40
1.0
 40
1.0
 10
-1.3934616947
 20
6.1879896762
 30
0.0
 10
-1.292997616
 20
6.2317649446
 30
0.0
 10
-1.0925240474
 20
6.3021925525
 30
0.0
 10
-0.7878906851
 20
6.3517028716
 30
0.0
 10
-0.4973056637
 20
6.3389549623
 30
0.0
 10
-0.3154443977
 20
6.287692034
 30
0.0
 10
-0.2311105106
 20
6.2523035428
 30
0.0
 11
-1.3934616947
 21
6.1879896762
 31
0.0
 11
-1.0826127286
 21
6.2950254992
 31
0.0
 11
-0.780813918
 21
6.3419337711
 31
0.0
 11
-0.494959109
 21
6.3275688445
 31
0.0
 11
-0.2311105106
 21
6.2523035428
 31
0.0
  0
SPLINE
  5
52E
100
AcDbEntity
  8
0
100
AcDbSpline
 62
253
  6
CONTINUOUS
 70
0
 71
3
 72
10
 73
6
 74
4
 42
0.0000001
 43
0.0000001
 44
0.0000000001
 12
0.0080886341
 22
-0.2039622501
 32
0.0
 13
-0.194985165
 23
-0.0603888309
 33
0.0
 40
0.0
 40
0.0
 40
0.0
 40
0.0
 40
0.3783427037
 40
0.6655711639
 40
1.0
 40
1.0
 40
1.0
 40
1.0
 10
6.1197063414
 20
-12.572292117
 30
0.0
 10
6.1207264333
 20
-12.5980146601
 30
0.0
 10
6.080632457
 20
-12.6365374597
 30
0.0
 10
6.0219999093
 20
-12.6655806939
 30
0.0
 10
5.9815911613
 20
-12.6803425188
 30
0.0
 10
5.9598549407
 20
-12.6870744409
 30
0.0
 11
6.1197063414
 21
-12.572292117
 31
0.0
 11
6.0754894412
 21
-12.6356093659
 31
0.0
 11
6.0239221439
 21
-12.6635068355
 31
0.0
 11
5.9598549407
 21
-12.6870744409
 31
0.0
  0
SPLINE
  5
52F
100
AcDbEntity
  8
0
100
AcDbSpline
 62
7
  6
CONTINUOUS
 70
0
 71
3
 72
9
 73
5
 74
3
 42
0.0000001
 43
0.0000001
 44
0.0000000001
 12
0.827639954
 22
-0.4449519199
 32
0.0
 13
0.6789236877
 23
-0.6496404626
 33
0.0
 40
0.0
 40
0.0
 40
0.0
 40
0.0
 40
0.2358101616
 40
1.0
 40
1.0
 40
1.0
 40
1.0
 10
1.3091282551
 20
-10.2295217919
 30
0.0
 10
1.3741835589
 20
-10.2644965199
 30
0.0
 10
1.6440815797
 20
-10.4238933537
 30
0.0
 10
1.8895556064
 20
-10.6228968685
 30
0.0
 10
2.0624978008
 20
-10.7883797485
 30
0.0
 11
1.3091282551
 21
-10.2295217919
 31
0.0
 11
1.5001148195
 21
-10.3418736924
 31
0.0
 11
2.0624978008
 21
-10.7883797485
 31
0.0
  0
SPLINE
  5
530
100
AcDbEntity
  8
0
100
AcDbSpline
 62
7
  6
CONTINUOUS
 70
0
 71
3
 72
9
 73
5
 74
3
 42
0.0000001
 43
0.0000001
 44
0.0000000001
 12
-0.3279122242
 22
-0.7202758108
 32
0.0
 13
-0.6575787543
 23
-0.4403565058
 33
0.0
 40
0.0
 40
0.0
 40
0.0
 40
0.0
 40
0.519713891
 40
1.0
 40
1.0
 40
1.0
 40
1.0
 10
3.4839941063
 20
-15.5967189996
 30
0.0
 10
3.4271872603
 20
-15.7214981143
 30
0.0
 10
3.2909432343
 20
-15.9510476335
 30
0.0
 10
3.0948762754
 20
-16.1343730115
 30
0.0
 10
2.9896009616
 20
-16.2048720491
 30
0.0
 11
3.4839941063
 21
-15.5967189996
 31
0.0
 11
3.2694131091
 21
-15.9476130045
 31
0.0
 11
2.9896009616
 21
-16.2048720491
 31
0.0
  0
SPLINE
  5
531
100
AcDbEntity
  8
0
100
AcDbSpline
 62
253
  6
CONTINUOUS
 70
0
 71
3
 72
11
 73
7
 74
5
 42
0.0000001
 43
0.0000001
 44
0.0000000001
 12
-0.769604132
 22
3.7945869942
 32
0.0
 13
-3.4630831197
 23
1.7315415914
 33
0.0
 40
0.0
 40
0.0
 40
0.0
 40
0.0
 40
0.2650079064
 40
0.5276108409
 40
0.7755587037
 40
1.0
 40
1.0
 40
1.0
 40
1.0
 10
5.8721201555
 20
-12.0179601004
 30
0.0
 10
5.8041364289
 20
-11.6827615821
 30
0.0
 10
5.6005830754
 20
-11.0275183173
 30
0.0
 10
5.1213508381
 20
-10.1414287405
 30
0.0
 10
4.504970923
 20
-9.4112813819
 30
0.0
 10
4.0036374016
 20
-9.0480992147
 30
0.0
 10
3.7445511134
 20
-8.9185560683
 30
0.0
 11
5.8721201555
 21
-12.0179601004
 31
0.0
 11
5.5687586644
 21
-11.0377609832
 31
0.0
 11
5.0824848284
 21
-10.1448253123
 31
0.0
 11
4.4562813326
 21
-9.4171583934
 31
0.0
 11
3.7445511134
 21
-8.9185560683
 31
0.0
  0
SPLINE
  5
532
100
AcDbEntity
  8
0
100
AcDbSpline
 62
253
  6
CONTINUOUS
 70
0
 71
3
 72
9
 73
5
 74
3
 42
0.0000001
 43
0.0000001
 44
0.0000000001
 12
-0.0395704326
 22
0.6740018275
 32
0.0
 13
-0.1342017955
 23
0.6616903813
 33
0.0
 40
0.0
 40
0.0
 40
0.0
 40
0.0
 40
0.2466048529
 40
1.0
 40
1.0
 40
1.0
 40
1.0
 10
5.9598483222
 20
-12.6870765996
 30
0.0
 10
5.9565955686
 20
-12.6316725591
 30
0.0
 10
5.939419828
 20
-12.4072513096
 30
0.0
 10
5.9058161369
 20
-12.1841337399
 30
0.0
 10
5.8721138098
 20
-12.0179622992
 30
0.0
 11
5.9598483222
 21
-12.6870765996
 31
0.0
 11
5.947125278
 21
-12.5210651025
 31
0.0
 11
5.8721138098
 21
-12.0179622992
 31
0.0
  0
SPLINE
  5
533
100
AcDbEntity
  8
0
100
AcDbSpline
 62
253
  6
CONTINUOUS
 70
0
 71
3
 72
9
 73
5
 74
3
 42
0.0000001
 43
0.0000001
 44
0.0000000001
 12
0.0605175927
 22
0.6371158257
 32
0.0
 13
-0.0375080478
 23
0.6388834798
 33
0.0
 40
0.0
 40
0.0
 40
0.0
 40
0.0
 40
0.2444105015
 40
1.0
 40
1.0
 40
1.0
 40
1.0
 10
5.9495456602
 20
-13.3266219214
 30
0.0
 10
5.9544760386
 20
-13.2747159886
 30
0.0
 10
5.9701390832
 20
-13.0619347325
 30
0.0
 10
5.9693120598
 20
-12.8479821299
 30
0.0
 10
5.9598651641
 20
-12.6870709138
 30
0.0
 11
5.9495456602
 21
-13.3266219214
 31
0.0
 11
5.9611474049
 21
-13.1706340694
 31
0.0
 11
5.9598651641
 21
-12.6870709138
 31
0.0
  0
SPLINE
  5
534
100
AcDbEntity
  8
0
100
AcDbSpline
 62
253
  6
CONTINUOUS
 70
0
 71
3
 72
17
 73
13
 74
11
 42
0.0000001
 43
0.0000001
 44
0.0000000001
 12
-7.1907742681
 22
4.2391250406
 32
0.0
 13
7.3814916338
 23
3.8975629492
 33
0.0
 40
0.0
 40
0.0
 40
0.0
 40
0.0
 40
0.1267219977
 40
0.2658625301
 40
0.4107850196
 40
0.5536901545
 40
0.6871721728
 40
0.8058177112
 40
0.8590930878
 40
0.9085979043
 40
0.9551483869
 40
1.0
 40
1.0
 40
1.0
 40
1.0
 10
-22.1392598884
 20
-22.209735335
 30
0.0
 10
-22.4430029818
 20
-22.0306718705
 30
0.0
 10
-23.0279934126
 20
-21.564274389
 30
0.0
 10
-23.7588070223
 20
-20.6772921722
 30
0.0
 10
-24.3387448602
 20
-19.6330433854
 30
0.0
 10
-24.7193536281
 20
-18.5171787833
 30
0.0
 10
-24.8698507861
 20
-17.4211260491
 30
0.0
 10
-24.7877047629
 20
-16.5634005957
 30
0.0
 10
-24.5843730488
 20
-15.9788706369
 30
0.0
 10
-24.3775885645
 20
-15.6153425233
 30
0.0
 10
-24.1148901939
 20
-15.320144248
 30
0.0
 10
-23.9038267215
 20
-15.1731182478
 30
0.0
 10
-23.7934694526
 20
-15.114847586
 30
0.0
 11
-22.1392598884
 21
-22.209735335
 31
0.0
 11
-22.9752221968
 21
-21.5616000569
 31
0.0
 11
-23.7198415021
 21
-20.6702510944
 31
0.0
 11
-24.3082931335
 21
-19.6133090203
 31
0.0
 11
-24.689265469
 21
-18.4829092086
 31
0.0
 11
-24.8295721894
 21
-17.3775640864
 31
0.0
 11
-24.7169568704
 21
-16.3936177913
 31
0.0
 11
-24.5680294044
 21
-15.9745907848
 31
0.0
 11
-24.3612612587
 21
-15.616809779
 31
0.0
 11
-24.1011768275
 21
-15.3281172344
 31
0.0
 11
-23.7934694526
 21
-15.114847586
 31
0.0
  0
SPLINE
  5
535
100
AcDbEntity
  8
0
100
AcDbSpline
 62
253
  6
CONTINUOUS
 70
0
 71
3
 72
17
 73
13
 74
11
 42
0.0000001
 43
0.0000001
 44
0.0000000001
 12
-0.9879368352
 22
0.4939684176
 32
0.0
 13
0.9879368352
 23
-0.4939684176
 33
0.0
 40
0.0
 40
0.0
 40
0.0
 40
0.0
 40
0.1092753266
 40
0.1576482481
 40
0.2045896998
 40
0.3044776326
 40
0.4254097648
 40
0.4943522139
 40
0.5674667355
 40
0.7196279593
 40
0.8680798856
 40
1.0
 40
1.0
 40
1.0
 40
1.0
 10
-21.7186368292
 20
-18.2917848837
 30
0.0
 10
-21.754622536
 20
-18.2737920303
 30
0.0
 10
-21.8130659058
 20
-18.2560595698
 30
0.0
 10
-21.8886748071
 20
-18.2670899806
 30
0.0
 10
-21.954085245
 20
-18.3000215574
 30
0.0
 10
-22.0132274264
 20
-18.386038117
 30
0.0
 10
-22.0276455823
 20
-18.494196977
 30
0.0
 10
-22.0198099228
 20
-18.5908609072
 30
0.0
 10
-21.9960644989
 20
-18.6968855863
 30
0.0
 10
-21.9408677683
 20
-18.8245262653
 30
0.0
 10
-21.8450871285
 20
-18.9533620646
 30
0.0
 10
-21.7620797426
 20
-19.0183136994
 30
0.0
 10
-21.7186368292
 20
-19.0400351562
 30
0.0
 11
-21.7186368292
 21
-18.2917848837
 31
0.0
 11
-21.8355560508
 21
-18.2618128903
 31
0.0
 11
-21.8883575223
 21
-18.26998522
 31
0.0
 11
-21.934629346
 21
-18.2933784041
 31
0.0
 11
-22.0008474234
 21
-18.3816284833
 31
0.0
 11
-22.0241051447
 21
-18.5131633362
 31
0.0
 11
-22.0182307638
 21
-18.5890865898
 31
0.0
 11
-22.0008545605
 21
-18.6679535055
 31
0.0
 11
-21.9346398534
 21
-18.8224296342
 31
0.0
 11
-21.835560942
 21
-18.9530827121
 31
0.0
 11
-21.7186368292
 21
-19.0400351562
 31
0.0
  0
SPLINE
  5
536
100
AcDbEntity
  8
0
100
AcDbSpline
 62
253
  6
CONTINUOUS
 70
0
 71
3
 72
17
 73
13
 74
11
 42
0.0000001
 43
0.0000001
 44
0.0000000001
 12
0.9879368352
 22
-0.4939684176
 32
0.0
 13
-0.9879368352
 23
0.4939684176
 33
0.0
 40
0.0
 40
0.0
 40
0.0
 40
0.0
 40
0.1092753266
 40
0.1576482481
 40
0.2045896998
 40
0.3044776326
 40
0.4254097648
 40
0.4943522139
 40
0.5674667355
 40
0.7196279593
 40
0.8680798856
 40
1.0
 40
1.0
 40
1.0
 40
1.0
 10
-21.7186368292
 20
-19.0400351562
 30
0.0
 10
-21.6826511224
 20
-19.0580280095
 30
0.0
 10
-21.6242077526
 20
-19.07576047
 30
0.0
 10
-21.5485988513
 20
-19.0647300592
 30
0.0
 10
-21.4831884133
 20
-19.0317984824
 30
0.0
 10
-21.424046232
 20
-18.9457819228
 30
0.0
 10
-21.4096280761
 20
-18.8376230628
 30
0.0
 10
-21.4174637356
 20
-18.7409591326
 30
0.0
 10
-21.4412091594
 20
-18.6349344535
 30
0.0
 10
-21.49640589
 20
-18.5072937745
 30
0.0
 10
-21.5921865299
 20
-18.3784579752
 30
0.0
 10
-21.6751939158
 20
-18.3135063404
 30
0.0
 10
-21.7186368292
 20
-18.2917848837
 30
0.0
 11
-21.7186368292
 21
-19.0400351562
 31
0.0
 11
-21.6017176075
 21
-19.0700071495
 31
0.0
 11
-21.548916136
 21
-19.0618348198
 31
0.0
 11
-21.5026443124
 21
-19.0384416357
 31
0.0
 11
-21.436426235
 21
-18.9501915565
 31
0.0
 11
-21.4131685137
 21
-18.8186567036
 31
0.0
 11
-21.4190428945
 21
-18.74273345
 31
0.0
 11
-21.4364190979
 21
-18.6638665344
 31
0.0
 11
-21.502633805
 21
-18.5093904056
 31
0.0
 11
-21.6017127164
 21
-18.3787373277
 31
0.0
 11
-21.7186368292
 21
-18.2917848837
 31
0.0
  0
SPLINE
  5
537
100
AcDbEntity
  8
0
100
AcDbSpline
 62
253
  6
CONTINUOUS
 70
0
 71
3
 72
11
 73
7
 74
5
 42
0.0000001
 43
0.0000001
 44
0.0000000001
 12
-0.3938273503
 22
0.1969136752
 32
0.0
 13
-0.2519282703
 23
-0.3611192655
 33
0.0
 40
0.0
 40
0.0
 40
0.0
 40
0.0
 40
0.2805759505
 40
0.5291510006
 40
0.7612720888
 40
1.0
 40
1.0
 40
1.0
 40
1.0
 10
-21.6086495424
 20
-18.0363323607
 30
0.0
 10
-21.6454823701
 20
-18.0179159469
 30
0.0
 10
-21.719462318
 20
-17.990817227
 30
0.0
 10
-21.8335458478
 20
-17.9868859284
 30
0.0
 10
-21.9349718139
 20
-18.0258898651
 30
0.0
 10
-21.9849661688
 20
-18.0766121508
 30
0.0
 10
-22.0050136054
 20
-18.1053485668
 30
0.0
 11
-21.6086495424
 21
-18.0363323607
 31
0.0
 11
-21.725431529
 21
-17.9960289978
 31
0.0
 11
-21.8348705704
 21
-17.9944337226
 31
0.0
 11
-21.9300577916
 21
-18.0316548912
 31
0.0
 11
-22.0050136054
 21
-18.1053485668
 31
0.0
  0
SPLINE
  5
538
100
AcDbEntity
  8
0
100
AcDbSpline
 62
253
  6
CONTINUOUS
 70
0
 71
3
 72
11
 73
7
 74
5
 42
0.0000001
 43
0.0000001
 44
0.0000000001
 12
0.0
 22
0.9741225371
 32
0.0
 13
-0.8712816846
 23
0.4356408423
 33
0.0
 40
0.0
 40
0.0
 40
0.0
 40
0.0
 40
0.2468124806
 40
0.5117852459
 40
0.7703059488
 40
1.0
 40
1.0
 40
1.0
 40
1.0
 10
-21.139503658
 20
-18.8454893187
 30
0.0
 10
-21.139503658
 20
-18.765347452
 30
0.0
 10
-21.16716075
 20
-18.5988813751
 30
0.0
 10
-21.2673025463
 20
-18.3673754224
 30
0.0
 10
-21.414480589
 20
-18.1694071776
 30
0.0
 10
-21.5419401357
 20
-18.0696870641
 30
0.0
 10
-21.6086495424
 20
-18.0363323607
 30
0.0
 11
-21.139503658
 21
-18.8454893187
 31
0.0
 11
-21.175220934
 21
-18.6077315738
 31
0.0
 11
-21.2769133062
 21
-18.3704922407
 31
0.0
 11
-21.4291026734
 21
-18.1698503458
 31
0.0
 11
-21.6086495424
 21
-18.0363323607
 31
0.0
  0
SPLINE
  5
539
100
AcDbEntity
  8
0
100
AcDbSpline
 62
253
  6
CONTINUOUS
 70
0
 71
3
 72
12
 73
8
 74
6
 42
0.0000001
 43
0.0000001
 44
0.0000000001
 12
0.0371512744
 22
-0.1989052501
 32
0.0
 13
-0.1927067455
 23
-0.0617059636
 33
0.0
 40
0.0
 40
0.0
 40
0.0
 40
0.0
 40
0.1138761075
 40
0.208083968
 40
0.3276439102
 40
0.6332283582
 40
1.0
 40
1.0
 40
1.0
 40
1.0
 10
6.0449901486
 20
-11.9236130397
 30
0.0
 10
6.0464003628
 20
-11.9311632249
 30
0.0
 10
6.0354991282
 20
-11.9444817554
 30
0.0
 10
6.0183780431
 20
-11.9569176967
 30
0.0
 10
5.9876619784
 20
-11.9747291358
 30
0.0
 10
5.9385874345
 20
-11.995472235
 30
0.0
 10
5.8956780963
 20
-12.0104166915
 30
0.0
 10
5.8721183065
 20
-12.0179606907
 30
0.0
 11
6.0449901486
 21
-11.9236130397
 31
0.0
 11
6.0344770536
 21
-11.9441172061
 31
0.0
 11
6.0194168527
 21
-11.9558034802
 31
0.0
 11
5.9985690009
 21
-11.9680769243
 31
0.0
 11
5.9421222269
 21
-11.9933186187
 31
0.0
 11
5.8721183065
 21
-12.0179606907
 31
0.0
  0
SPLINE
  5
53A
100
AcDbEntity
  8
0
100
AcDbSpline
 62
253
  6
CONTINUOUS
 70
0
 71
3
 72
11
 73
7
 74
5
 42
0.0000001
 43
0.0000001
 44
0.0000000001
 12
2.0155422007
 22
1.1430760735
 32
0.0
 13
0.2191078542
 23
2.3067347097
 33
0.0
 40
0.0
 40
0.0
 40
0.0
 40
0.0
 40
0.2225672148
 40
0.4614745117
 40
0.7203761654
 40
1.0
 40
1.0
 40
1.0
 40
1.0
 10
4.8754675028
 20
-15.2873260137
 30
0.0
 10
5.0249987074
 20
-15.2025222611
 30
0.0
 10
5.3081248966
 20
-14.9758359715
 30
0.0
 10
5.6320362777
 20
-14.5162086937
 30
0.0
 10
5.8551441424
 20
-13.9537351942
 30
0.0
 10
5.9291130654
 20
-13.5416313416
 30
0.0
 10
5.9495356582
 20
-13.32662534
 30
0.0
 11
4.8754675028
 21
-15.2873260137
 31
0.0
 11
5.2805081067
 21
-14.9681028506
 31
0.0
 11
5.604395859
 21
-14.5191669904
 31
0.0
 11
5.8305734283
 21
-13.9635318912
 31
0.0
 11
5.9495356582
 21
-13.32662534
 31
0.0
  0
SPLINE
  5
53B
100
AcDbEntity
  8
0
100
AcDbSpline
 62
253
  6
CONTINUOUS
 70
0
 71
3
 72
11
 73
7
 74
5
 42
0.0000001
 43
0.0000001
 44
0.0000000001
 12
0.0449538548
 22
1.070879554
 32
0.0
 13
-0.9323638178
 23
0.5286790894
 33
0.0
 40
0.0
 40
0.0
 40
0.0
 40
0.0
 40
0.2480106244
 40
0.5114990321
 40
0.7687094239
 40
1.0
 40
1.0
 40
1.0
 40
1.0
 10
1.8239045879
 20
3.7199702215
 30
0.0
 10
1.8276209324
 20
3.8085000571
 30
0.0
 10
1.8060307925
 20
3.9927127135
 30
0.0
 10
1.7081676444
 20
4.2518739951
 30
0.0
 10
1.5562462414
 20
4.4763913755
 30
0.0
 10
1.4209849246
 20
4.5921209112
 30
0.0
 10
1.3491026031
 20
4.6328804082
 30
0.0
 11
1.8239045879
 21
3.7199702215
 31
0.0
 11
1.7964507165
 21
3.9843721353
 31
0.0
 11
1.6974061034
 21
4.2488474347
 31
0.0
 11
1.5408709308
 21
4.4757799589
 31
0.0
 11
1.3491026031
 21
4.6328804082
 31
0.0
  0
SPLINE
  5
53C
100
AcDbEntity
  8
0
100
AcDbSpline
 62
253
  6
CONTINUOUS
 70
0
 71
3
 72
10
 73
6
 74
4
 42
0.0000001
 43
0.0000001
 44
0.0000000001
 12
-0.2189239636
 22
0.1086156751
 32
0.0
 13
-0.2150415295
 23
-0.1161129075
 33
0.0
 40
0.0
 40
0.0
 40
0.0
 40
0.0
 40
0.2405903169
 40
0.4861752103
 40
1.0
 40
1.0
 40
1.0
 40
1.0
 10
3.9798227342
 20
-8.8985991495
 30
0.0
 10
3.962265739
 20
-8.8898885229
 30
0.0
 10
3.9238050438
 20
-8.8777430461
 30
0.0
 10
3.8414813245
 20
-8.876519115
 30
0.0
 10
3.7813824257
 20
-8.8986687905
 30
0.0
 10
3.7445512028
 20
-8.9185560206
 30
0.0
 11
3.9798227342
 21
-8.8985991495
 31
0.0
 11
3.9238173818
 21
-8.8806964018
 31
0.0
 11
3.8638167618
 21
-8.879261052
 31
0.0
 11
3.7445512028
 21
-8.9185560206
 31
0.0
  0
SPLINE
  5
53D
100
AcDbEntity
  8
0
100
AcDbSpline
 62
253
  6
CONTINUOUS
 70
0
 71
3
 72
22
 73
18
 74
16
 42
0.0000001
 43
0.0000001
 44
0.0000000001
 12
8.5195283144
 22
-6.4411134061
 32
0.0
 13
-9.2005955319
 23
5.4239604045
 33
0.0
 40
0.0
 40
0.0
 40
0.0
 40
0.0
 40
0.0688538445
 40
0.1417165822
 40
0.2934906189
 40
0.3693777778
 40
0.4429877429
 40
0.5128711377
 40
0.5779049517
 40
0.6374616157
 40
0.6916080569
 40
0.7413059226
 40
0.788482899
 40
0.835740084
 40
0.8856583006
 40
0.940109943
 40
1.0
 40
1.0
 40
1.0
 40
1.0
 10
-21.4772099882
 20
-15.4843955172
 30
0.0
 10
-21.2816758955
 20
-15.6322273242
 30
0.0
 10
-20.902724046
 20
-15.9685256822
 30
0.0
 10
-20.2184227473
 20
-16.7607620945
 30
0.0
 10
-19.6700453804
 20
-17.6931086901
 30
0.0
 10
-19.2891031448
 20
-18.6975313362
 30
0.0
 10
-19.100313086
 20
-19.4575798208
 30
0.0
 10
-19.0152776041
 20
-20.1973594732
 30
0.0
 10
-19.0371684955
 20
-20.8922270003
 30
0.0
 10
-19.1662060616
 20
-21.5191387044
 30
0.0
 10
-19.4002890436
 20
-22.0572126447
 30
0.0
 10
-19.7353020759
 20
-22.4864091123
 30
0.0
 10
-20.1620866857
 20
-22.7858518581
 30
0.0
 10
-20.6613142921
 20
-22.9386299695
 30
0.0
 10
-21.2078574642
 20
-22.9402104437
 30
0.0
 10
-21.779630131
 20
-22.7962764318
 30
0.0
 10
-22.1483321843
 20
-22.6174015157
 30
0.0
 10
-22.3320069147
 20
-22.509121083
 30
0.0
 11
-21.4772099882
 21
-15.4843955172
 31
0.0
 11
-20.9248987652
 21
-15.9699289701
 31
0.0
 11
-20.414390819
 21
-16.5572776204
 31
0.0
 11
-19.5882631452
 21
-17.9519687668
 31
0.0
 11
-19.3017822129
 21
-18.7101532368
 31
0.0
 11
-19.1142030753
 21
-19.4736292887
 31
0.0
 11
-19.0321356499
 21
-20.215484271
 31
0.0
 11
-19.0584711657
 21
-20.9095700291
 31
0.0
 11
-19.1922800948
 21
-21.531423799
 31
0.0
 11
-19.428845982
 21
-22.0591283865
 31
0.0
 11
-19.7598310418
 21
-22.47408454
 31
0.0
 11
-20.1735704415
 21
-22.7616645005
 31
0.0
 11
-20.6554696309
 21
-22.9117301954
 31
0.0
 11
-21.1885651768
 21
-22.9189936957
 31
0.0
 11
-21.7540524552
 21
-22.7831980264
 31
0.0
 11
-22.3320069147
 21
-22.509121083
 31
0.0
  0
SPLINE
  5
53E
100
AcDbEntity
  8
0
100
AcDbSpline
 62
253
  6
CONTINUOUS
 70
0
 71
3
 72
23
 73
19
 74
17
 42
0.0000001
 43
0.0000001
 44
0.0000000001
 12
-9.6227098948
 22
5.6728064256
 32
0.0
 13
9.6227098948
 23
-5.6728064256
 33
0.0
 40
0.0
 40
0.0
 40
0.0
 40
0.0
 40
0.0653543678
 40
0.1356589762
 40
0.2096430691
 40
0.2856818424
 40
0.36198162
 40
0.4367210889
 40
0.5082131054
 40
0.5750660779
 40
0.6363715706
 40
0.6919274583
 40
0.7424831233
 40
0.789889794
 40
0.8368775736
 40
0.886310558
 40
0.9403314697
 40
1.0
 40
1.0
 40
1.0
 40
1.0
 10
-22.3320069147
 20
-22.509121083
 30
0.0
 10
-22.5416356218
 20
-22.3855401906
 30
0.0
 10
-22.9534207137
 20
-22.0883089054
 30
0.0
 10
-23.5125336424
 20
-21.5402398451
 30
0.0
 10
-24.018770361
 20
-20.8918035626
 30
0.0
 10
-24.4531060579
 20
-20.1672980406
 30
0.0
 10
-24.7994531937
 20
-19.3937614898
 30
0.0
 10
-25.0448171447
 20
-18.6000987422
 30
0.0
 10
-25.1799945109
 20
-17.8158157794
 30
0.0
 10
-25.1997227266
 20
-17.0697182522
 30
0.0
 10
-25.1024714307
 20
-16.3887194374
 30
0.0
 10
-24.8896494615
 20
-15.7972158557
 30
0.0
 10
-24.5647837916
 20
-15.3180746088
 30
0.0
 10
-24.1359330845
 20
-14.975450714
 30
0.0
 10
-23.623029959
 20
-14.7910978247
 30
0.0
 10
-23.0552435228
 20
-14.7726678876
 30
0.0
 10
-22.458748842
 20
-14.9139057087
 30
0.0
 10
-22.07447248
 20
-15.0987769653
 30
0.0
 10
-21.8830814944
 20
-15.2116063059
 30
0.0
 11
-22.3320069147
 21
-22.509121083
 31
0.0
 11
-22.9267934205
 21
-22.0858281596
 31
0.0
 11
-23.4900691753
 21
-21.5385971152
 31
0.0
 11
-24.0002376308
 21
-20.8884319071
 31
0.0
 11
-24.4376562954
 21
-20.1603425987
 31
0.0
 11
-24.7855431931
 21
-19.3822776241
 31
0.0
 11
-25.0305119543
 21
-18.5841581389
 31
0.0
 11
-25.1631509873
 21
-17.7966576074
 31
0.0
 11
-25.1783642958
 21
-17.0500398123
 31
0.0
 11
-25.0755693667
 21
-16.3729936071
 31
0.0
 11
-24.8587167659
 21
-15.7915345705
 31
0.0
 11
-24.5361396808
 21
-15.3280055173
 31
0.0
 11
-24.1202302664
 21
-15.0002207253
 31
0.0
 11
-23.6269863345
 21
-14.820776817
 31
0.0
 11
-23.0753319866
 21
-14.7965750127
 31
0.0
 11
-22.4865025908
 21
-14.9285308643
 31
0.0
 11
-21.8830814944
 21
-15.2116063059
 31
0.0
  0
SPLINE
  5
53F
100
AcDbEntity
  8
0
100
AcDbSpline
 62
253
  6
CONTINUOUS
 70
0
 71
3
 72
23
 73
19
 74
17
 42
0.0000001
 43
0.0000001
 44
0.0000000001
 12
-9.6013514091
 22
5.6602151123
 32
0.0
 13
9.0384561165
 23
-6.5215255139
 33
0.0
 40
0.0
 40
0.0
 40
0.0
 40
0.0
 40
0.0598181122
 40
0.114157184
 40
0.1639526474
 40
0.2111292969
 40
0.2583248601
 40
0.3081682615
 40
0.3625743301
 40
0.4224634878
 40
0.4878492395
 40
0.5580477404
 40
0.6318819256
 40
0.7078544432
 40
0.7842942166
 40
0.8594964657
 40
0.9318482147
 40
1.0
 40
1.0
 40
1.0
 40
1.0
 10
-21.8755761339
 20
-15.0896027907
 30
0.0
 10
-22.0670210393
 20
-14.9767416631
 30
0.0
 10
-22.4513367515
 20
-14.7906104841
 30
0.0
 10
-23.0474401975
 20
-14.642368121
 30
0.0
 10
-23.6167658118
 20
-14.6474171992
 30
0.0
 10
-24.1356843144
 20
-14.8117699706
 30
0.0
 10
-24.5773879152
 20
-15.1301637599
 30
0.0
 10
-24.921713913
 20
-15.5841461188
 30
0.0
 10
-25.159406266
 20
-16.151441213
 30
0.0
 10
-25.2863365336
 20
-16.8107655251
 30
0.0
 10
-25.3004671238
 20
-17.5398217935
 30
0.0
 10
-25.2022642883
 20
-18.314056094
 30
0.0
 10
-24.9954524255
 20
-19.1069665932
 30
0.0
 10
-24.6873175322
 20
-19.8910561867
 30
0.0
 10
-24.2886833039
 20
-20.6389481372
 30
0.0
 10
-23.8133920532
 20
-21.3244987447
 30
0.0
 10
-23.2782081259
 20
-21.9237141071
 30
0.0
 10
-22.8792963568
 20
-22.2638455988
 30
0.0
 10
-22.6739673833
 20
-22.411996801
 30
0.0
 11
-21.8755761339
 21
-15.0896027907
 31
0.0
 11
-22.478222616
 21
-14.8044426759
 31
0.0
 11
-23.0675550254
 21
-14.6648440286
 31
0.0
 11
-23.6224462349
 21
-14.6758015607
 31
0.0
 11
-24.1229610568
 21
-14.8369298186
 31
0.0
 11
-24.551162994
 21
-15.142449433
 31
0.0
 11
-24.8916681361
 21
-15.5813958125
 31
0.0
 11
-25.1322575512
 21
-16.1380126003
 31
0.0
 11
-25.2642979968
 21
-16.7923220658
 31
0.0
 11
-25.2830532428
 21
-17.5208429006
 31
0.0
 11
-25.1878512841
 21
-18.2974323706
 31
0.0
 11
-24.9821090997
 21
-19.0942231682
 31
0.0
 11
-24.6732069067
 21
-19.8826255628
 31
0.0
 11
-24.2722384511
 21
-20.6343368615
 31
0.0
 11
-23.7935768099
 21
-21.3223896588
 31
0.0
 11
-23.2544467636
 21
-21.9220758033
 31
0.0
 11
-22.6739673833
 21
-22.411996801
 31
0.0
  0
SPLINE
  5
540
100
AcDbEntity
  8
0
100
AcDbSpline
 62
253
  6
CONTINUOUS
 70
0
 71
3
 72
9
 73
5
 74
3
 42
0.0000001
 43
0.0000001
 44
0.0000000001
 12
0.3243174802
 22
-0.2340050883
 32
0.0
 13
0.344515264
 23
-0.2030995868
 33
0.0
 40
0.0
 40
0.0
 40
0.0
 40
0.0
 40
0.2545699029
 40
1.0
 40
1.0
 40
1.0
 40
1.0
 10
-22.6739673833
 20
-22.411996801
 30
0.0
 10
-22.6464468935
 20
-22.4318536852
 30
0.0
 10
-22.5374928716
 20
-22.508669465
 30
0.0
 10
-22.4251162908
 20
-22.5806590833
 30
0.0
 10
-22.3395122752
 20
-22.6311245982
 30
0.0
 11
-22.6739673833
 21
-22.411996801
 31
0.0
 11
-22.5907522621
 21
-22.470650893
 31
0.0
 11
-22.3395122752
 21
-22.6311245982
 31
0.0
  0
SPLINE
  5
541
100
AcDbEntity
  8
0
100
AcDbSpline
 62
253
  6
CONTINUOUS
 70
0
 71
3
 72
23
 73
19
 74
17
 42
0.0000001
 43
0.0000001
 44
0.0000000001
 12
10.0062584347
 22
-5.5422217999
 32
0.0
 13
-9.8537667995
 23
5.8090197281
 33
0.0
 40
0.0
 40
0.0
 40
0.0
 40
0.0
 40
0.0588460362
 40
0.1121625912
 40
0.1611513404
 40
0.2080328112
 40
0.2556521347
 40
0.3066256752
 40
0.362667255
 40
0.4244214846
 40
0.4916264146
 40
0.5633505515
 40
0.6382056269
 40
0.7145256119
 40
0.7905206784
 40
0.8644330932
 40
0.9346738424
 40
1.0
 40
1.0
 40
1.0
 40
1.0
 10
-22.2476974022
 20
-22.683612534
 30
0.0
 10
-22.0514211868
 20
-22.792325129
 30
0.0
 10
-21.6579771001
 20
-22.9681207384
 30
0.0
 10
-21.0499784076
 20
-23.0912632141
 30
0.0
 10
-20.474312417
 20
-23.0513525698
 30
0.0
 10
-19.9579364413
 20
-22.8432959319
 30
0.0
 10
-19.529600306
 20
-22.4767609508
 30
0.0
 10
-19.2078304967
 20
-21.9742607434
 30
0.0
 10
-19.0000647396
 20
-21.3598056608
 30
0.0
 10
-18.9097389758
 20
-20.6564073439
 30
0.0
 10
-18.9381156384
 20
-19.8888150008
 30
0.0
 10
-19.083431178
 20
-19.084276779
 30
0.0
 10
-19.3401605727
 20
-18.2718499138
 30
0.0
 10
-19.6988509538
 20
-17.4812121004
 30
0.0
 10
-20.1462892779
 20
-16.7413833223
 30
0.0
 10
-20.6661987825
 20
-16.0794784635
 30
0.0
 10
-21.2393957408
 20
-15.5198664203
 30
0.0
 10
-21.6610065596
 20
-15.2160964368
 30
0.0
 10
-21.8755761339
 20
-15.0896027907
 30
0.0
 11
-22.2476974022
 21
-22.683612534
 31
0.0
 11
-21.6303980072
 21
-22.9519900409
 31
0.0
 11
-21.0312648409
 21
-23.0659044811
 31
0.0
 11
-20.4726893999
 21
-23.0211886649
 31
0.0
 11
-19.9758090583
 21
-22.8194891779
 31
0.0
 11
-19.5593382598
 21
-22.4684220941
 31
0.0
 11
-19.2390087044
 21
-21.9812316758
 31
0.0
 11
-19.0269023009
 21
-21.3763026336
 31
0.0
 11
-18.9310201587
 21
-20.6764587123
 31
0.0
 11
-18.9549774142
 21
-19.9081022113
 31
0.0
 11
-19.0978698419
 21
-19.1002184921
 31
0.0
 11
-19.3543065823
 21
-18.2832841796
 31
0.0
 11
-19.7146174999
 21
-17.4881154115
 31
0.0
 11
-20.1651947999
 21
-16.7447298566
 31
0.0
 11
-20.6890685886
 21
-16.0811419692
 31
0.0
 11
-21.2664434022
 21
-15.522412238
 31
0.0
 11
-21.8755761339
 21
-15.0896027907
 31
0.0
  0
SPLINE
  5
542
100
AcDbEntity
  8
0
100
AcDbSpline
 62
253
  6
CONTINUOUS
 70
0
 71
3
 72
11
 73
7
 74
5
 42
0.0000001
 43
0.0000001
 44
0.0000000001
 12
-2.1367666856
 22
1.2596725784
 32
0.0
 13
-2.2184911449
 23
-1.109434051
 33
0.0
 40
0.0
 40
0.0
 40
0.0
 40
0.0
 40
0.2832924688
 40
0.5406752827
 40
0.7765540657
 40
1.0
 40
1.0
 40
1.0
 40
1.0
 10
-21.6859123236
 20
-14.7917277262
 30
0.0
 10
-21.8876889601
 20
-14.672775808
 30
0.0
 10
-22.2927133354
 20
-14.4765286574
 30
0.0
 10
-22.9210720562
 20
-14.3200067501
 30
0.0
 10
-23.520821845
 20
-14.3245164246
 30
0.0
 10
-23.8897934724
 20
-14.44081536
 30
0.0
 10
-24.0550310813
 20
-14.5234482027
 30
0.0
 11
-21.6859123236
 21
-14.7917277262
 31
0.0
 11
-22.3210366093
 21
-14.4910826353
 31
0.0
 11
-22.9421857076
 21
-14.3435872725
 31
0.0
 11
-23.5271653525
 21
-14.3545024745
 31
0.0
 11
-24.0550310813
 21
-14.5234482027
 31
0.0
  0
SPLINE
  5
543
100
AcDbEntity
  8
0
100
AcDbSpline
 62
253
  6
CONTINUOUS
 70
0
 71
3
 72
11
 73
7
 74
5
 42
0.0000001
 43
0.0000001
 44
0.0000000001
 12
0.0
 22
1.4545437058
 32
0.0
 13
-1.2897673709
 23
0.6724563339
 33
0.0
 40
0.0
 40
0.0
 40
0.0
 40
0.0
 40
0.2462376906
 40
0.5106608074
 40
0.7692609467
 40
1.0
 40
1.0
 40
1.0
 40
1.0
 10
-6.287788064
 20
-1.5027968562
 30
0.0
 10
-6.287788064
 20
-1.3834090285
 30
0.0
 10
-6.3285385835
 20
-1.1353905684
 30
0.0
 10
-6.4764804247
 20
-0.7896514952
 30
0.0
 10
-6.6944608438
 20
-0.4924669214
 30
0.0
 10
-6.8833542295
 20
-0.3412409651
 30
0.0
 10
-6.9825541302
 20
-0.2895203192
 30
0.0
 11
-6.287788064
 21
-1.5027968562
 31
0.0
 11
-6.3404470632
 21
-1.1485256178
 31
0.0
 11
-6.490550606
 21
-0.794410369
 31
0.0
 11
-6.7157506083
 21
-0.4931294799
 31
0.0
 11
-6.9825541302
 21
-0.2895203192
 31
0.0
  0
SPLINE
  5
544
100
AcDbEntity
  8
0
100
AcDbSpline
 62
253
  6
CONTINUOUS
 70
0
 71
3
 72
9
 73
5
 74
3
 42
0.0000001
 43
0.0000001
 44
0.0000000001
 12
0.3349172906
 22
0.1674586453
 32
0.0
 13
0.1458431501
 23
0.3448793485
 33
0.0
 40
0.0
 40
0.0
 40
0.0
 40
0.0
 40
0.5527456887
 40
1.0
 40
1.0
 40
1.0
 40
1.0
 10
-5.1955624669
 20
-0.9566840576
 30
0.0
 10
-5.1338544374
 20
-0.9258300429
 30
0.0
 10
-5.0269151851
 20
-0.8589374504
 30
0.0
 10
-4.9460741059
 20
-0.7580273819
 30
0.0
 10
-4.9243311134
 20
-0.7066111234
 30
0.0
 11
-5.1955624669
 21
-0.9566840576
 31
0.0
 11
-5.0236077334
 21
-0.8414875742
 31
0.0
 11
-4.9243311134
 21
-0.7066111234
 31
0.0
  0
SPLINE
  5
545
100
AcDbEntity
  8
0
100
AcDbSpline
 62
253
  6
CONTINUOUS
 70
0
 71
3
 72
9
 73
5
 74
3
 42
0.0000001
 43
0.0000001
 44
0.0000000001
 12
0.0413320654
 22
0.0977390833
 32
0.0
 13
-0.0000305151
 23
0.1061191175
 33
0.0
 40
0.0
 40
0.0
 40
0.0
 40
0.0
 40
0.2573553203
 40
1.0
 40
1.0
 40
1.0
 40
1.0
 10
-4.9243311134
 20
-0.7066111234
 30
0.0
 10
-4.9207854377
 20
-0.6982265657
 30
0.0
 10
-4.9084747957
 20
-0.6650552005
 30
0.0
 10
-4.9026656146
 20
-0.6294002667
 30
0.0
 10
-4.9026731685
 20
-0.6031306673
 30
0.0
 11
-4.9243311134
 21
-0.7066111234
 31
0.0
 11
-4.9148796225
 21
-0.6809884199
 31
0.0
 11
-4.9026731685
 21
-0.6031306673
 31
0.0
  0
SPLINE
  5
546
100
AcDbEntity
  8
0
100
AcDbSpline
 62
253
  6
CONTINUOUS
 70
0
 71
3
 72
11
 73
7
 74
5
 42
0.0000001
 43
0.0000001
 44
0.0000000001
 12
1.2897673707
 22
-0.6724563338
 32
0.0
 13
0.0
 23
-1.4545437056
 33
0.0
 40
0.0
 40
0.0
 40
0.0
 40
0.0
 40
0.2307390622
 40
0.4893392163
 40
0.7537623377
 40
1.0
 40
1.0
 40
1.0
 40
1.0
 10
-5.8903285331
 20
0.2565924794
 30
0.0
 10
-5.7911286286
 20
0.2048718315
 30
0.0
 10
-5.6022352349
 20
0.0536458661
 30
0.0
 10
-5.3842548115
 20
-0.243538722
 30
0.0
 10
-5.2363129811
 20
-0.5892777955
 30
0.0
 10
-5.1955624669
 20
-0.8372962437
 30
0.0
 10
-5.1955624669
 20
-0.9566840576
 30
0.0
 11
-5.8903285331
 21
0.2565924794
 31
0.0
 11
-5.6235250022
 21
0.0529833092
 31
0.0
 11
-5.3983249916
 21
-0.2482976005
 31
0.0
 11
-5.2482214552
 21
-0.6024128594
 31
0.0
 11
-5.1955624669
 21
-0.9566840576
 31
0.0
  0
SPLINE
  5
547
100
AcDbEntity
  8
0
100
AcDbSpline
 62
253
  6
CONTINUOUS
 70
0
 71
3
 72
11
 73
7
 74
5
 42
0.0000001
 43
0.0000001
 44
0.0000000001
 12
-1.274420091
 22
-0.7091771059
 32
0.0
 13
-0.0219606756
 23
-1.4582854538
 33
0.0
 40
0.0
 40
0.0
 40
0.0
 40
0.0
 40
0.2265502953
 40
0.4853274893
 40
0.7520881496
 40
1.0
 40
1.0
 40
1.0
 40
1.0
 10
-6.9825541302
 20
-0.2895203192
 30
0.0
 10
-7.0787942129
 20
-0.3430750801
 30
0.0
 10
-7.2617272635
 20
-0.4993388649
 30
0.0
 10
-7.473088087
 20
-0.8009617831
 30
0.0
 10
-7.6191850802
 20
-1.1504015215
 30
0.0
 10
-7.662210681
 20
-1.4003071299
 30
0.0
 10
-7.6640254515
 20
-1.5208158784
 30
0.0
 11
-6.9825541302
 21
-0.2895203192
 31
0.0
 11
-7.2394388456
 21
-0.4973246413
 31
0.0
 11
-7.4591034782
 21
-0.8042263029
 31
0.0
 11
-7.6081872123
 21
-1.1635863197
 31
0.0
 11
-7.6640254515
 21
-1.5208158784
 31
0.0
  0
SPLINE
  5
548
100
AcDbEntity
  8
0
100
AcDbSpline
 62
253
  6
CONTINUOUS
 70
0
 71
3
 72
11
 73
7
 74
5
 42
0.0000001
 43
0.0000001
 44
0.0000000001
 12
1.2871350319
 22
-0.5794707942
 32
0.0
 13
1.262538076
 23
0.631269038
 33
0.0
 40
0.0
 40
0.0
 40
0.0
 40
0.0
 40
0.2390544984
 40
0.5036799644
 40
0.7663346266
 40
1.0
 40
1.0
 40
1.0
 40
1.0
 10
-7.6640254515
 20
-1.5208158784
 30
0.0
 10
-7.5614603117
 20
-1.5669909117
 30
0.0
 10
-7.3308169994
 20
-1.632151347
 30
0.0
 10
-6.9695001642
 20
-1.6603717415
 30
0.0
 10
-6.6115661598
 20
-1.6232344813
 30
0.0
 10
-6.3861252077
 20
-1.551965428
 30
0.0
 10
-6.287788064
 20
-1.5027968562
 30
0.0
 11
-7.6640254515
 21
-1.5208158784
 31
0.0
 11
-7.3409866532
 21
-1.6183433578
 31
0.0
 11
-6.9687178969
 21
-1.6490721281
 31
0.0
 11
-6.6001757611
 21
-1.6086439498
 31
0.0
 11
-6.287788064
 21
-1.5027968562
 31
0.0
  0
SPLINE
  5
549
100
AcDbEntity
  8
0
100
AcDbSpline
 62
253
  6
CONTINUOUS
 70
0
 71
3
 72
11
 73
7
 74
5
 42
0.0000001
 43
0.0000001
 44
0.0000000001
 12
0.0
 22
-0.6297129261
 32
0.0
 13
-0.5632852912
 23
-0.2815103017
 33
0.0
 40
0.0
 40
0.0
 40
0.0
 40
0.0
 40
0.2896927165
 40
0.5496093268
 40
0.7828338758
 40
1.0
 40
1.0
 40
1.0
 40
1.0
 10
-5.1955624669
 20
-0.9717075822
 30
0.0
 10
-5.1955624669
 20
-1.0325153316
 30
0.0
 10
-5.2053936633
 20
-1.148314985
 30
0.0
 10
-5.2548570071
 20
-1.3067010445
 30
0.0
 10
-5.337553535
 20
-1.4334857648
 30
0.0
 10
-5.414686173
 20
-1.4921909648
 30
0.0
 10
-5.4554616675
 20
-1.5125691319
 30
0.0
 11
-5.1955624669
 21
-0.9717075822
 31
0.0
 11
-5.2128429091
 21
-1.1533105222
 31
0.0
 11
-5.2638368358
 21
-1.3088367933
 31
0.0
 11
-5.346045368
 21
-1.4305370089
 31
0.0
 11
-5.4554616675
 21
-1.5125691319
 31
0.0
  0
SPLINE
  5
54A
100
AcDbEntity
  8
0
100
AcDbSpline
 62
253
  6
CONTINUOUS
 70
0
 71
3
 72
11
 73
7
 74
5
 42
0.0000001
 43
0.0000001
 44
0.0000000001
 12
1.3132145202
 22
-0.6566072601
 32
0.0
 13
0.0
 23
-1.4682184681
 33
0.0
 40
0.0
 40
0.0
 40
0.0
 40
0.0
 40
0.2296940662
 40
0.4882147933
 40
0.753187566
 40
1.0
 40
1.0
 40
1.0
 40
1.0
 10
-5.9026692481
 20
-30.6389248138
 30
0.0
 10
-5.8021233871
 20
-30.6891977443
 30
0.0
 10
-5.6100135995
 20
-30.8394980624
 30
0.0
 10
-5.3881836767
 20
-31.1378800888
 30
0.0
 10
-5.2372478227
 20
-31.486810847
 30
0.0
 10
-5.1955624669
 20
-31.7377120836
 30
0.0
 10
-5.1955624669
 20
-31.8585036082
 30
0.0
 11
-5.9026692481
 21
-30.6389248138
 31
0.0
 11
-5.6320523246
 21
-30.8401660126
 31
0.0
 11
-5.4026692189
 21
-31.1425778322
 31
0.0
 11
-5.2493962963
 21
-31.5001500809
 31
0.0
 11
-5.1955624669
 21
-31.8585036082
 31
0.0
  0
SPLINE
  5
54B
100
AcDbEntity
  8
0
100
AcDbSpline
 62
253
  6
CONTINUOUS
 70
0
 71
3
 72
9
 73
5
 74
3
 42
0.0000001
 43
0.0000001
 44
0.0000000001
 12
0.3349172906
 22
0.1674586453
 32
0.0
 13
0.1458431501
 23
0.3448793485
 33
0.0
 40
0.0
 40
0.0
 40
0.0
 40
0.0
 40
0.5527456887
 40
1.0
 40
1.0
 40
1.0
 40
1.0
 10
-5.1955624669
 20
-31.8585036082
 30
0.0
 10
-5.1338544374
 20
-31.8276495935
 30
0.0
 10
-5.0269151851
 20
-31.7607570009
 30
0.0
 10
-4.9460741059
 20
-31.6598469324
 30
0.0
 10
-4.9243311134
 20
-31.6084306739
 30
0.0
 11
-5.1955624669
 21
-31.8585036082
 31
0.0
 11
-5.0236077334
 21
-31.7433071247
 31
0.0
 11
-4.9243311134
 21
-31.6084306739
 31
0.0
  0
SPLINE
  5
54C
100
AcDbEntity
  8
0
100
AcDbSpline
 62
253
  6
CONTINUOUS
 70
0
 71
3
 72
9
 73
5
 74
3
 42
0.0000001
 43
0.0000001
 44
0.0000000001
 12
0.0413320654
 22
0.0977390833
 32
0.0
 13
-0.0000305151
 23
0.1061191175
 33
0.0
 40
0.0
 40
0.0
 40
0.0
 40
0.0
 40
0.2573553203
 40
1.0
 40
1.0
 40
1.0
 40
1.0
 10
-4.9243311134
 20
-31.6084306739
 30
0.0
 10
-4.9207854377
 20
-31.6000461163
 30
0.0
 10
-4.9084747957
 20
-31.5668747511
 30
0.0
 10
-4.9026656146
 20
-31.5312198172
 30
0.0
 10
-4.9026731685
 20
-31.5049502179
 30
0.0
 11
-4.9243311134
 21
-31.6084306739
 31
0.0
 11
-4.9148796225
 21
-31.5828079705
 31
0.0
 11
-4.9026731685
 21
-31.5049502179
 31
0.0
  0
SPLINE
  5
54D
100
AcDbEntity
  8
0
100
AcDbSpline
 62
7
  6
CONTINUOUS
 70
0
 71
3
 72
11
 73
7
 74
5
 42
0.0000001
 43
0.0000001
 44
0.0000000001
 12
0.273857856
 22
0.1076963686
 32
0.0
 13
0.2528748326
 23
-0.1505023328
 33
0.0
 40
0.0
 40
0.0
 40
0.0
 40
0.0
 40
0.400047637
 40
0.6953199537
 40
0.8897221057
 40
1.0
 40
1.0
 40
1.0
 40
1.0
 10
-5.8408054208
 20
-30.6112883883
 30
0.0
 10
-5.8042866914
 20
-30.5969271624
 30
0.0
 10
-5.740418616
 20
-30.5732719568
 30
0.0
 10
-5.6561081186
 20
-30.5486922443
 30
0.0
 10
-5.5987869247
 20
-30.5388517201
 30
0.0
 10
-5.5671216151
 20
-30.5408275291
 30
0.0
 10
-5.5578261137
 20
-30.5463598892
 30
0.0
 11
-5.8408054208
 21
-30.6112883883
 31
0.0
 11
-5.7301256419
 21
-30.5711791848
 31
0.0
 11
-5.6464103035
 21
-30.5479040103
 31
0.0
 11
-5.589709158
 21
-30.540310784
 31
0.0
 11
-5.5578261137
 21
-30.5463598892
 31
0.0
  0
SPLINE
  5
54E
100
AcDbEntity
  8
0
100
AcDbSpline
 62
253
  6
CONTINUOUS
 70
0
 71
3
 72
11
 73
7
 74
5
 42
0.0000001
 43
0.0000001
 44
0.0000000001
 12
-1.262538076
 22
-0.631269038
 32
0.0
 13
-1.2871350319
 23
0.5794707942
 33
0.0
 40
0.0
 40
0.0
 40
0.0
 40
0.0
 40
0.2336653734
 40
0.4963200356
 40
0.7609455016
 40
1.0
 40
1.0
 40
1.0
 40
1.0
 10
-6.287788064
 20
-1.5178203808
 30
0.0
 10
-6.3861252077
 20
-1.5669889526
 30
0.0
 10
-6.6115661598
 20
-1.6382580059
 30
0.0
 10
-6.9695001642
 20
-1.6753952661
 30
0.0
 10
-7.3308169994
 20
-1.6471748716
 30
0.0
 10
-7.5614603117
 20
-1.5820144363
 30
0.0
 10
-7.6640254515
 20
-1.535839403
 30
0.0
 11
-6.287788064
 21
-1.5178203808
 31
0.0
 11
-6.6001757611
 21
-1.6236674744
 31
0.0
 11
-6.9687178969
 21
-1.6640956527
 31
0.0
 11
-7.3409866532
 21
-1.6333668824
 31
0.0
 11
-7.6640254515
 21
-1.535839403
 31
0.0
  0
SPLINE
  5
54F
100
AcDbEntity
  8
0
100
AcDbSpline
 62
253
  6
CONTINUOUS
 70
0
 71
3
 72
11
 73
7
 74
5
 42
0.0000001
 43
0.0000001
 44
0.0000000001
 12
0.0
 22
-0.6297135059
 32
0.0
 13
-0.5632716328
 23
-0.2815389265
 33
0.0
 40
0.0
 40
0.0
 40
0.0
 40
0.0
 40
0.2896975229
 40
0.5496070963
 40
0.7828345072
 40
1.0
 40
1.0
 40
1.0
 40
1.0
 10
-5.1955624669
 20
-31.8735271328
 30
0.0
 10
-5.1955624669
 20
-31.9343359471
 30
0.0
 10
-5.2053918714
 20
-32.0501357671
 30
0.0
 10
-5.2548582358
 20
-32.2085204443
 30
0.0
 10
-5.3375511316
 20
-32.3353077191
 30
0.0
 10
-5.4146874516
 20
-32.3940081756
 30
0.0
 10
-5.4554618388
 20
-32.4143883555
 30
0.0
 11
-5.1955624669
 21
-31.8735271328
 31
0.0
 11
-5.2128425599
 21
-32.055133315
 31
0.0
 11
-5.2638360933
 21
-32.2106552104
 31
0.0
 11
-5.3460448388
 21
-32.3323576198
 31
0.0
 11
-5.4554618388
 21
-32.4143883555
 31
0.0
  0
SPLINE
  5
550
100
AcDbEntity
  8
0
100
AcDbSpline
 62
253
  6
CONTINUOUS
 70
0
 71
3
 72
9
 73
5
 74
3
 42
0.0000001
 43
0.0000001
 44
0.0000000001
 12
0.0
 22
-0.1485405738
 32
0.0
 13
0.0222017801
 23
-0.1468719954
 33
0.0
 40
0.0
 40
0.0
 40
0.0
 40
0.0
 40
0.2576344185
 40
1.0
 40
1.0
 40
1.0
 40
1.0
 10
-7.6640254515
 20
-1.535839403
 30
0.0
 10
-7.6640254515
 20
-1.5485957911
 30
0.0
 10
-7.6631703235
 20
-1.5981022654
 30
0.0
 10
-7.658840193
 20
-1.6475747658
 30
0.0
 10
-7.6533462472
 20
-1.6839190039
 30
0.0
 11
-7.6640254515
 21
-1.535839403
 31
0.0
 11
-7.6633541757
 21
-1.5741026795
 31
0.0
 11
-7.6533462472
 21
-1.6839190039
 31
0.0
  0
SPLINE
  5
551
100
AcDbEntity
  8
0
100
AcDbSpline
 62
253
  6
CONTINUOUS
 70
0
 71
3
 72
9
 73
5
 74
3
 42
0.0000001
 43
0.0000001
 44
0.0000000001
 12
0.006523937
 22
0.1557232735
 32
0.0
 13
-0.129564657
 23
0.0866331305
 33
0.0
 40
0.0
 40
0.0
 40
0.0
 40
0.0
 40
0.5522221926
 40
1.0
 40
1.0
 40
1.0
 40
1.0
 10
-9.0511819953
 20
3.7132504323
 30
0.0
 10
-9.0499811077
 20
3.7419150482
 30
0.0
 10
-9.054779957
 20
3.7950818038
 30
0.0
 10
-9.0863678791
 20
3.8410541365
 30
0.0
 10
-9.1057066051
 20
3.8539849342
 30
0.0
 11
-9.0511819953
 21
3.7132504323
 31
0.0
 11
-9.0634504802
 21
3.7984408383
 31
0.0
 11
-9.1057066051
 21
3.8539849342
 31
0.0
  0
SPLINE
  5
552
100
AcDbEntity
  8
0
100
AcDbSpline
 62
253
  6
CONTINUOUS
 70
0
 71
3
 72
9
 73
5
 74
3
 42
0.0000001
 43
0.0000001
 44
0.0000000001
 12
0.101644447
 22
0.0442980569
 32
0.0
 13
0.0046123589
 23
0.1107819371
 33
0.0
 40
0.0
 40
0.0
 40
0.0
 40
0.0
 40
0.5743579539
 40
1.0
 40
1.0
 40
1.0
 40
1.0
 10
-9.0511819953
 20
3.7132504323
 30
0.0
 10
-9.0317218964
 20
3.7217314127
 30
0.0
 10
-8.9985402976
 20
3.7399548358
 30
0.0
 10
-8.9788434954
 20
3.7754570087
 30
0.0
 10
-8.9781890907
 20
3.7911748255
 30
0.0
 11
-9.0511819953
 21
3.7132504323
 31
0.0
 11
-8.9980541259
 21
3.7483649847
 31
0.0
 11
-8.9781890907
 21
3.7911748255
 31
0.0
  0
SPLINE
  5
553
100
AcDbEntity
  8
0
100
AcDbSpline
 62
7
  6
CONTINUOUS
 70
0
 71
3
 72
11
 73
7
 74
5
 42
0.0000001
 43
0.0000001
 44
0.0000000001
 12
-0.6477528363
 22
0.3238558065
 32
0.0
 13
0.0
 23
0.7242004697
 33
0.0
 40
0.0
 40
0.0
 40
0.0
 40
0.0
 40
0.2171555016
 40
0.450419026
 40
0.7102458475
 40
1.0
 40
1.0
 40
1.0
 40
1.0
 10
-20.4989683959
 20
-34.7905792271
 30
0.0
 10
-20.5458560932
 20
-34.7671368704
 30
0.0
 10
-20.6345905392
 20
-34.6996491742
 30
0.0
 10
-20.7296524701
 20
-34.5538248635
 30
0.0
 10
-20.7865844268
 20
-34.3716912359
 30
0.0
 10
-20.7978687746
 20
-34.2385165401
 30
0.0
 10
-20.7978687746
 20
-34.1685698423
 30
0.0
 11
-20.4989683959
 21
-34.7905792271
 31
0.0
 11
-20.6248046158
 21
-34.6962540024
 31
0.0
 11
-20.7193527144
 21
-34.5562616767
 31
0.0
 11
-20.7779967842
 21
-34.3774668714
 31
0.0
 11
-20.7978687746
 21
-34.1685698423
 31
0.0
  0
SPLINE
  5
554
100
AcDbEntity
  8
0
100
AcDbSpline
 62
7
  6
CONTINUOUS
 70
0
 71
3
 72
14
 73
10
 74
8
 42
0.0000001
 43
0.0000001
 44
0.0000000001
 12
0.1176764414
 22
-1.5885022728
 32
0.0
 13
-1.5879962455
 23
-0.1243187023
 33
0.0
 40
0.0
 40
0.0
 40
0.0
 40
0.0
 40
0.1223259385
 40
0.2547774883
 40
0.3929759314
 40
0.5317305716
 40
0.6657760879
 40
0.7905006467
 40
1.0
 40
1.0
 40
1.0
 40
1.0
 10
-6.3045843555
 20
-36.054409678
 30
0.0
 10
-6.2997860618
 20
-36.1191813551
 30
0.0
 10
-6.305121737
 20
-36.2554047373
 30
0.0
 10
-6.350066124
 20
-36.4600304471
 30
0.0
 10
-6.4296141773
 20
-36.6632823702
 30
0.0
 10
-6.5389037148
 20
-36.852993509
 30
0.0
 10
-6.6721533618
 20
-37.0183811501
 30
0.0
 10
-6.8581844702
 20
-37.1827615812
 30
0.0
 10
-7.0289202499
 20
-37.2625552009
 30
0.0
 10
-7.1398149787
 20
-37.2712367634
 30
0.0
 11
-6.3045843555
 21
-36.054409678
 31
0.0
 11
-6.3103968416
 21
-36.2491704518
 31
0.0
 11
-6.3545900437
 21
-36.4554660751
 31
0.0
 11
-6.4344443926
 21
-36.6606014905
 31
0.0
 11
-6.545045797
 21
-36.8519530379
 31
0.0
 11
-6.6795880476
 21
-37.0177452912
 31
0.0
 11
-6.8297916591
 21
-37.1477756966
 31
0.0
 11
-7.1398149787
 21
-37.2712367634
 31
0.0
  0
SPLINE
  5
555
100
AcDbEntity
  8
0
100
AcDbSpline
 62
7
  6
CONTINUOUS
 70
0
 71
3
 72
9
 73
5
 74
3
 42
0.0000001
 43
0.0000001
 44
0.0000000001
 12
0.0
 22
-0.2454688462
 32
0.0
 13
0.0584708659
 23
-0.2384032557
 33
0.0
 40
0.0
 40
0.0
 40
0.0
 40
0.0
 40
0.2613004098
 40
1.0
 40
1.0
 40
1.0
 40
1.0
 10
-20.7978687746
 20
1.8580869552
 30
0.0
 10
-20.7978687746
 20
1.8367065851
 30
0.0
 10
-20.7957058612
 20
1.7549196302
 30
0.0
 10
-20.784638069
 20
1.6732022464
 30
0.0
 10
-20.7702406008
 20
1.6144994506
 30
0.0
 11
-20.7978687746
 21
1.8580869552
 31
0.0
 11
-20.7961304278
 21
1.7939694056
 31
0.0
 11
-20.7702406008
 21
1.6144994506
 31
0.0
  0
SPLINE
  5
556
100
AcDbEntity
  8
0
100
AcDbSpline
 62
7
  6
CONTINUOUS
 70
0
 71
3
 72
11
 73
7
 74
5
 42
0.0000001
 43
0.0000001
 44
0.0000000001
 12
0.1142942401
 22
-0.4660118938
 32
0.0
 13
0.4291662468
 23
-0.2145846943
 33
0.0
 40
0.0
 40
0.0
 40
0.0
 40
0.0
 40
0.2757164423
 40
0.5308380262
 40
0.7698715103
 40
1.0
 40
1.0
 40
1.0
 40
1.0
 10
-20.7702406008
 20
1.6144994506
 30
0.0
 10
-20.7597363337
 20
1.5716704035
 30
0.0
 10
-20.7330447636
 20
1.4905456236
 30
0.0
 10
-20.6727587794
 20
1.3822030598
 30
0.0
 10
-20.594922443
 20
1.2950214516
 30
0.0
 10
-20.5319070995
 20
1.2525444263
 30
0.0
 10
-20.4989859727
 20
1.2360837424
 30
0.0
 11
-20.7702406008
 21
1.6144994506
 31
0.0
 11
-20.7279959031
 21
1.4891304446
 31
0.0
 11
-20.6676581881
 21
1.3826205288
 31
0.0
 11
-20.5906957597
 21
1.297582582
 31
0.0
 11
-20.4989859727
 21
1.2360837424
 31
0.0
  0
SPLINE
  5
557
100
AcDbEntity
  8
0
100
AcDbSpline
 62
7
  6
CONTINUOUS
 70
0
 71
3
 72
11
 73
7
 74
5
 42
0.0000001
 43
0.0000001
 44
0.0000000001
 12
-1.186513913
 22
-0.9021392269
 32
0.0
 13
0.0
 23
-1.4905269036
 33
0.0
 40
0.0
 40
0.0
 40
0.0
 40
0.0
 40
0.2413447176
 40
0.5004165256
 40
0.7592659009
 40
1.0
 40
1.0
 40
1.0
 40
1.0
 10
-20.1537641076
 20
3.1543050601
 30
0.0
 10
-20.2492170627
 20
3.0817295478
 30
0.0
 10
-20.4259252401
 20
2.9026561156
 30
0.0
 10
-20.6282686732
 20
2.581352736
 30
0.0
 10
-20.7620756666
 20
2.2263244297
 30
0.0
 10
-20.7978687746
 20
1.9776938389
 30
0.0
 10
-20.7978687746
 20
1.8580869552
 30
0.0
 11
-20.1537641076
 21
3.1543050601
 31
0.0
 11
-20.4095826558
 21
2.9013957582
 31
0.0
 11
-20.6166485306
 21
2.5754536637
 31
0.0
 11
-20.7512248471
 21
2.2138630137
 31
0.0
 11
-20.7978687746
 21
1.8580869552
 31
0.0
  0
SPLINE
  5
558
100
AcDbEntity
  8
RACCORDO
100
AcDbSpline
 62
7
  6
CONTINUOUS
 70
0
 71
3
 72
11
 73
7
 74
5
 42
0.0000001
 43
0.0000001
 44
0.0000000001
 12
0.0347537356
 22
-0.1062203519
 32
0.0
 13
-0.0821784004
 23
-0.0757449392
 33
0.0
 40
0.0
 40
0.0
 40
0.0
 40
0.0
 40
0.2210390414
 40
0.4564757888
 40
0.7153808659
 40
1.0
 40
1.0
 40
1.0
 40
1.0
 10
-19.0231802407
 20
4.0924813077
 30
0.0
 10
-19.0206195965
 20
4.0846550261
 30
0.0
 10
-19.0183580742
 20
4.0673636023
 30
0.0
 10
-19.0241548518
 20
4.0409154551
 30
0.0
 10
-19.0382209319
 20
4.0151760975
 30
0.0
 10
-19.0518820179
 20
3.9999930703
 30
0.0
 10
-19.059678533
 20
3.9928069173
 30
0.0
 11
-19.0231802407
 21
4.0924813077
 31
0.0
 11
-19.019826983
 21
4.0680063429
 31
0.0
 11
-19.0250808744
 21
4.0422234893
 31
0.0
 11
-19.0386293671
 21
4.0166558291
 31
0.0
 11
-19.059678533
 21
3.9928069173
 31
0.0
  0
SPLINE
  5
559
100
AcDbEntity
  8
0
100
AcDbSpline
 62
7
  6
CONTINUOUS
 70
0
 71
3
 72
12
 73
8
 74
6
 42
0.0000001
 43
0.0000001
 44
0.0000000001
 12
-0.5957521328
 22
0.2977688258
 32
0.0
 13
-0.489728787
 23
-0.4513896238
 33
0.0
 40
0.0
 40
0.0
 40
0.0
 40
0.0
 40
0.1046476443
 40
0.212021548
 40
0.4429688692
 40
0.7052028723
 40
1.0
 40
1.0
 40
1.0
 40
1.0
 10
-15.0197972233
 20
10.4453979776
 30
0.0
 10
-15.0405785757
 20
10.455784913
 30
0.0
 10
-15.0850381889
 20
10.472424326
 30
0.0
 10
-15.1827768111
 20
10.4876954538
 30
0.0
 10
-15.3177460473
 20
10.4692911346
 30
0.0
 10
-15.4782219831
 20
10.3954025862
 30
0.0
 10
-15.5769728064
 20
10.3193037757
 30
0.0
 10
-15.625096353
 20
10.2749476542
 30
0.0
 11
-15.0197972233
 21
10.4453979776
 31
0.0
 11
-15.0850321191
 21
10.4699374496
 31
0.0
 11
-15.1556506145
 21
10.4812161932
 31
0.0
 11
-15.3084342938
 21
10.4634231576
 31
0.0
 11
-15.4683343302
 21
10.3931666861
 31
0.0
 11
-15.625096353
 21
10.2749476542
 31
0.0
  0
SPLINE
  5
55A
100
AcDbEntity
  8
0
100
AcDbSpline
 62
7
  6
CONTINUOUS
 70
0
 71
3
 72
11
 73
7
 74
5
 42
0.0000001
 43
0.0000001
 44
0.0000000001
 12
-0.4368348302
 22
-0.4026365509
 32
0.0
 13
0.0
 23
-0.5940882603
 33
0.0
 40
0.0
 40
0.0
 40
0.0
 40
0.0
 40
0.2471232864
 40
0.5061410213
 40
0.7619187816
 40
1.0
 40
1.0
 40
1.0
 40
1.0
 10
-13.7004853313
 20
8.5303262283
 30
0.0
 10
-13.736469351
 20
8.4971592724
 30
0.0
 10
-13.8022950691
 20
8.4204229966
 30
0.0
 10
-13.8772532914
 20
8.2885270695
 30
0.0
 10
-13.9261090041
 20
8.1467839154
 30
0.0
 10
-13.9389329971
 20
8.0488279279
 30
0.0
 10
-13.9389329971
 20
8.0016808423
 30
0.0
 11
-13.7004853313
 21
8.5303262283
 31
0.0
 11
-13.7969265191
 21
8.4196322041
 31
0.0
 11
-13.8732076489
 21
8.2859906776
 31
0.0
 11
-13.9221008959
 21
8.1421169826
 31
0.0
 11
-13.9389329971
 21
8.0016808423
 31
0.0
  0
SPLINE
  5
55B
100
AcDbEntity
  8
0
100
AcDbSpline
 62
7
  6
CONTINUOUS
 70
0
 71
3
 72
11
 73
7
 74
5
 42
0.0000001
 43
0.0000001
 44
0.0000000001
 12
0.0434225203
 22
0.6295786903
 32
0.0
 13
-0.5644907028
 23
0.2821437382
 33
0.0
 40
0.0
 40
0.0
 40
0.0
 40
0.0
 40
0.2934874684
 40
0.5551153077
 40
0.78690814
 40
1.0
 40
1.0
 40
1.0
 40
1.0
 10
-6.3045843555
 20
5.6507105049
 30
0.0
 10
-6.300336367
 20
5.7123016568
 30
0.0
 10
-6.3024303583
 20
5.8299643816
 30
0.0
 10
-6.3424902189
 20
5.9923473486
 30
0.0
 10
-6.4188297925
 20
6.1228616419
 30
0.0
 10
-6.4944197245
 20
6.1827164458
 30
0.0
 10
-6.5345158491
 20
6.2027572904
 30
0.0
 11
-6.3045843555
 21
5.6507105049
 31
0.0
 11
-6.3098643935
 21
5.8358476429
 31
0.0
 11
-6.3519361912
 21
5.9955040235
 31
0.0
 11
-6.4283209076
 21
6.1202548883
 31
0.0
 11
-6.5345158491
 21
6.2027572904
 31
0.0
  0
SPLINE
  5
55C
100
AcDbEntity
  8
0
100
AcDbSpline
 62
7
  6
CONTINUOUS
 70
0
 71
3
 72
11
 73
7
 74
5
 42
0.0000001
 43
0.0000001
 44
0.0000000001
 12
0.1313124289
 22
0.0656562144
 32
0.0
 13
0.0
 23
0.1468117587
 33
0.0
 40
0.0
 40
0.0
 40
0.0
 40
0.0
 40
0.2294888932
 40
0.4882056407
 40
0.7534262758
 40
1.0
 40
1.0
 40
1.0
 40
1.0
 10
-14.0096436752
 20
7.5241317335
 30
0.0
 10
-13.9995987605
 20
7.5291541909
 30
0.0
 10
-13.9804203437
 20
7.5442151176
 30
0.0
 10
-13.9581606157
 20
7.5740087331
 30
0.0
 10
-13.9431431801
 20
7.6089461201
 30
0.0
 10
-13.9389329971
 20
7.6340229723
 30
0.0
 10
-13.9389329971
 20
7.646089613
 30
0.0
 11
-14.0096436752
 21
7.5241317335
 31
0.0
 11
-13.9826190895
 21
7.5442513822
 31
0.0
 11
-13.9596372516
 21
7.5744923749
 31
0.0
 11
-13.9443278805
 21
7.6102939486
 31
0.0
 11
-13.9389329971
 21
7.646089613
 31
0.0
  0
SPLINE
  5
55D
100
AcDbEntity
  8
RACCORDO
100
AcDbSpline
 62
7
  6
CONTINUOUS
 70
0
 71
3
 72
9
 73
5
 74
3
 42
0.0000001
 43
0.0000001
 44
0.0000000001
 12
-0.1137581019
 22
0.0568790509
 32
0.0
 13
-0.0395500869
 23
0.1208797866
 33
0.0
 40
0.0
 40
0.0
 40
0.0
 40
0.0
 40
0.5223123008
 40
1.0
 40
1.0
 40
1.0
 40
1.0
 10
-15.9895426625
 20
6.1188802607
 30
0.0
 10
-16.0093484145
 20
6.1287831367
 30
0.0
 10
-16.0449394172
 20
6.1536864552
 30
0.0
 10
-16.0677989725
 20
6.1912223787
 30
0.0
 10
-16.0740965025
 20
6.2104699744
 30
0.0
 11
-15.9895426625
 21
6.1188802607
 31
0.0
 11
-16.0430543836
 21
6.1582440586
 31
0.0
 11
-16.0740965025
 21
6.2104699744
 31
0.0
  0
SPLINE
  5
55E
100
AcDbEntity
  8
RACCORDO
100
AcDbSpline
 62
7
  6
CONTINUOUS
 70
0
 71
3
 72
9
 73
5
 74
3
 42
0.0000001
 43
0.0000001
 44
0.0000000001
 12
-0.2010265959
 22
-0.185288923
 32
0.0
 13
-0.2725132954
 23
-0.0219130341
 33
0.0
 40
0.0
 40
0.0
 40
0.0
 40
0.0
 40
0.2419488487
 40
1.0
 40
1.0
 40
1.0
 40
1.0
 10
-12.465566012
 20
4.6420518021
 30
0.0
 10
-12.4817787298
 20
4.6271083216
 30
0.0
 10
-12.5547007714
 20
4.5720006865
 30
0.0
 10
-12.6458473323
 20
4.5417916579
 30
0.0
 10
-12.7147070047
 20
4.536254591
 30
0.0
 11
-12.465566012
 21
4.6420518021
 31
0.0
 11
-12.5181323874
 21
4.6018994095
 31
0.0
 11
-12.7147070047
 21
4.536254591
 31
0.0
  0
SPLINE
  5
55F
100
AcDbEntity
  8
RACCORDO
100
AcDbSpline
 62
7
  6
CONTINUOUS
 70
0
 71
3
 72
9
 73
5
 74
3
 42
0.0000001
 43
0.0000001
 44
0.0000000001
 12
-0.1663056357
 22
-0.0133727827
 32
0.0
 13
-0.1492284042
 23
0.0746142021
 33
0.0
 40
0.0
 40
0.0
 40
0.0
 40
0.0
 40
0.269693864
 40
1.0
 40
1.0
 40
1.0
 40
1.0
 10
-12.7147070047
 20
4.536254591
 30
0.0
 10
-12.7296575412
 20
4.5350524052
 30
0.0
 10
-12.7851688212
 20
4.5336464114
 30
0.0
 10
-12.8419453522
 20
4.5450816056
 30
0.0
 10
-12.8782728253
 20
4.5632453421
 30
0.0
 11
-12.7147070047
 21
4.536254591
 31
0.0
 11
-12.7596916722
 21
4.5352280303
 31
0.0
 11
-12.8782728253
 21
4.5632453421
 31
0.0
  0
SPLINE
  5
560
100
AcDbEntity
  8
RACCORDO
100
AcDbSpline
 62
7
  6
CONTINUOUS
 70
0
 71
3
 72
11
 73
7
 74
5
 42
0.0000001
 43
0.0000001
 44
0.0000000001
 12
-0.1291445707
 22
-0.0645722853
 32
0.0
 13
0.0
 23
-0.1443880195
 33
0.0
 40
0.0
 40
0.0
 40
0.0
 40
0.0
 40
0.3025722896
 40
0.5654862393
 40
0.7934323727
 40
1.0
 40
1.0
 40
1.0
 40
1.0
 10
-15.7913920654
 20
6.6332575384
 30
0.0
 10
-15.8044172549
 20
6.6267449437
 30
0.0
 10
-15.827959324
 20
6.6127768768
 30
0.0
 10
-15.8565340556
 20
6.5869531233
 30
0.0
 10
-15.8748687473
 20
6.5582069796
 30
0.0
 10
-15.8792600311
 20
6.5371334848
 30
0.0
 10
-15.8792600311
 20
6.5271915212
 30
0.0
 11
-15.7913920654
 21
6.6332575384
 31
0.0
 11
-15.8287009148
 21
6.6105270562
 31
0.0
 11
-15.8564238908
 21
6.5845940361
 31
0.0
 11
-15.8734956152
 21
6.5564550695
 31
0.0
 11
-15.8792600311
 21
6.5271915212
 31
0.0
  0
SPLINE
  5
561
100
AcDbEntity
  8
0
100
AcDbSpline
 62
7
  6
CONTINUOUS
 70
0
 71
3
 72
12
 73
8
 74
6
 42
0.0000001
 43
0.0000001
 44
0.0000000001
 12
-0.5957521328
 22
0.2977688258
 32
0.0
 13
-0.489728787
 23
-0.4513896238
 33
0.0
 40
0.0
 40
0.0
 40
0.0
 40
0.0
 40
0.1046476443
 40
0.212021548
 40
0.4429688692
 40
0.7052028723
 40
1.0
 40
1.0
 40
1.0
 40
1.0
 10
-6.5345158491
 20
6.2027572904
 30
0.0
 10
-6.5552972015
 20
6.2131442258
 30
0.0
 10
-6.5997568147
 20
6.2297836389
 30
0.0
 10
-6.6974954369
 20
6.2450547666
 30
0.0
 10
-6.8324646731
 20
6.2266504475
 30
0.0
 10
-6.9929406088
 20
6.1527618991
 30
0.0
 10
-7.0916914321
 20
6.0766630886
 30
0.0
 10
-7.1398149787
 20
6.032306967
 30
0.0
 11
-6.5345158491
 21
6.2027572904
 31
0.0
 11
-6.5997507449
 21
6.2272967625
 31
0.0
 11
-6.6703692403
 21
6.2385755061
 31
0.0
 11
-6.8231529195
 21
6.2207824705
 31
0.0
 11
-6.983052956
 21
6.150525999
 31
0.0
 11
-7.1398149787
 21
6.032306967
 31
0.0
  0
SPLINE
  5
562
100
AcDbEntity
  8
0
100
AcDbSpline
 62
7
  6
CONTINUOUS
 70
0
 71
3
 72
11
 73
7
 74
5
 42
0.0000001
 43
0.0000001
 44
0.0000000001
 12
-1.186513913
 22
-0.9021392269
 32
0.0
 13
0.0
 23
-1.4905269036
 33
0.0
 40
0.0
 40
0.0
 40
0.0
 40
0.0
 40
0.2413447176
 40
0.5004165256
 40
0.7592659009
 40
1.0
 40
1.0
 40
1.0
 40
1.0
 10
-16.0525447768
 20
1.1036953947
 30
0.0
 10
-16.1479977318
 20
1.0311198824
 30
0.0
 10
-16.3247059092
 20
0.8520464502
 30
0.0
 10
-16.5270493423
 20
0.5307430705
 30
0.0
 10
-16.6608563357
 20
0.1757147643
 30
0.0
 10
-16.6966494437
 20
-0.0729158265
 30
0.0
 10
-16.6966494437
 20
-0.1925227103
 30
0.0
 11
-16.0525447768
 21
1.1036953947
 31
0.0
 11
-16.3083633249
 21
0.8507860928
 31
0.0
 11
-16.5154291997
 21
0.5248439983
 31
0.0
 11
-16.6500055162
 21
0.1632533482
 31
0.0
 11
-16.6966494437
 21
-0.1925227103
 31
0.0
  0
SPLINE
  5
563
100
AcDbEntity
  8
RACCORDO
100
AcDbSpline
 62
7
  6
CONTINUOUS
 70
0
 71
3
 72
11
 73
7
 74
5
 42
0.0000001
 43
0.0000001
 44
0.0000000001
 12
0.3899459148
 22
-0.1949729574
 32
0.0
 13
0.3899459148
 23
0.1949729574
 33
0.0
 40
0.0
 40
0.0
 40
0.0
 40
0.0
 40
0.2353701082
 40
0.5
 40
0.7646298918
 40
1.0
 40
1.0
 40
1.0
 40
1.0
 10
-12.6801222282
 20
4.8654905855
 30
0.0
 10
-12.6495283575
 20
4.8501936501
 30
0.0
 10
-12.5792172399
 20
4.8283726992
 30
0.0
 10
-12.4679901938
 20
4.8179491169
 30
0.0
 10
-12.3567631478
 20
4.8283726992
 30
0.0
 10
-12.2864520302
 20
4.8501936501
 30
0.0
 10
-12.2558581595
 20
4.8654905855
 30
0.0
 11
-12.6801222282
 21
4.8654905855
 31
0.0
 11
-12.5827952236
 21
4.8329746728
 31
0.0
 11
-12.4679901938
 21
4.8215566026
 31
0.0
 11
-12.3531851641
 21
4.8329746728
 31
0.0
 11
-12.2558581595
 21
4.8654905855
 31
0.0
  0
SPLINE
  5
564
100
AcDbEntity
  8
RACCORDO
100
AcDbSpline
 62
7
  6
CONTINUOUS
 70
0
 71
3
 72
11
 73
7
 74
5
 42
0.0000001
 43
0.0000001
 44
0.0000000001
 12
0.0
 22
-0.1443880195
 32
0.0
 13
0.1291445707
 23
-0.0645722853
 33
0.0
 40
0.0
 40
0.0
 40
0.0
 40
0.0
 40
0.2065676273
 40
0.4345137607
 40
0.6974277104
 40
1.0
 40
1.0
 40
1.0
 40
1.0
 10
-15.8792600311
 20
6.5271915212
 30
0.0
 10
-15.8792600311
 20
6.5172495577
 30
0.0
 10
-15.8748687473
 20
6.4961760628
 30
0.0
 10
-15.8565340556
 20
6.4674299192
 30
0.0
 10
-15.827959324
 20
6.4416061656
 30
0.0
 10
-15.8044172549
 20
6.4276380988
 30
0.0
 10
-15.7913920654
 20
6.4211255041
 30
0.0
 11
-15.8792600311
 21
6.5271915212
 31
0.0
 11
-15.8734956152
 21
6.4979279729
 31
0.0
 11
-15.8564238908
 21
6.4697890064
 31
0.0
 11
-15.8287009148
 21
6.4438559863
 31
0.0
 11
-15.7913920654
 21
6.4211255041
 31
0.0
  0
SPLINE
  5
565
100
AcDbEntity
  8
RACCORDO
100
AcDbSpline
 62
7
  6
CONTINUOUS
 70
0
 71
3
 72
9
 73
5
 74
3
 42
0.0000001
 43
0.0000001
 44
0.0000000001
 12
0.0568790509
 22
-0.0284395255
 32
0.0
 13
0.0197750434
 23
-0.0604398933
 33
0.0
 40
0.0
 40
0.0
 40
0.0
 40
0.0
 40
0.5223123008
 40
1.0
 40
1.0
 40
1.0
 40
1.0
 10
-19.0654571607
 20
4.1382761645
 30
0.0
 10
-19.0555542847
 20
4.1333247265
 30
0.0
 10
-19.0377587833
 20
4.1208730672
 30
0.0
 10
-19.0263290057
 20
4.1021051055
 30
0.0
 10
-19.0231802407
 20
4.0924813077
 30
0.0
 11
-19.0654571607
 21
4.1382761645
 31
0.0
 11
-19.0387013001
 21
4.1185942655
 31
0.0
 11
-19.0231802407
 21
4.0924813077
 31
0.0
  0
SPLINE
  5
566
100
AcDbEntity
  8
RACCORDO
100
AcDbSpline
 62
7
  6
CONTINUOUS
 70
0
 71
3
 72
11
 73
7
 74
5
 42
0.0000001
 43
0.0000001
 44
0.0000000001
 12
-0.0695074712
 22
0.2124407039
 32
0.0
 13
0.1643568007
 23
0.1514898785
 33
0.0
 40
0.0
 40
0.0
 40
0.0
 40
0.0
 40
0.2210390414
 40
0.4564757888
 40
0.7153808659
 40
1.0
 40
1.0
 40
1.0
 40
1.0
 10
-16.0740965025
 20
6.2104699744
 30
0.0
 10
-16.0792177908
 20
6.2261225375
 30
0.0
 10
-16.0837408354
 20
6.260705385
 30
0.0
 10
-16.0721472801
 20
6.3136016795
 30
0.0
 10
-16.0440151201
 20
6.3650803947
 30
0.0
 10
-16.016692948
 20
6.3954464491
 30
0.0
 10
-16.0010999179
 20
6.4098187551
 30
0.0
 11
-16.0740965025
 21
6.2104699744
 31
0.0
 11
-16.0808030178
 21
6.2594199039
 31
0.0
 11
-16.070295235
 21
6.3109856111
 31
0.0
 11
-16.0431982496
 21
6.3621209315
 31
0.0
 11
-16.0010999179
 21
6.4098187551
 31
0.0
  0
ELLIPSE
  5
567
100
AcDbEntity
  8
RACCORDO
100
AcDbEllipse
 62
7
  6
CONTINUOUS
 10
-6.6557466136
 20
-4.0163324674
 30
0.0
 11
-0.2236184038
 21
0.4472098593
 31
0.0
 40
0.6123952257
 41
-2.2555268178
 42
-1.4701601983
  0
ELLIPSE
  5
568
100
AcDbEntity
  8
RACCORDO
100
AcDbEllipse
 62
7
  6
CONTINUOUS
 10
-8.5699522897
 20
-0.7148160448
 30
0.0
 11
-0.223592727
 21
0.4472262246
 31
0.0
 40
0.6123874982
 41
-1.470060655
 42
-0.6846940354
  0
ELLIPSE
  5
569
100
AcDbEntity
  8
RACCORDO
100
AcDbEllipse
 62
7
  6
CONTINUOUS
 10
-8.5699522897
 20
-34.4897738156
 30
0.0
 11
-0.2236051685
 21
0.4472372818
 31
0.0
 40
0.6123496457
 41
-3.1497377481
 42
-3.0409024091
  0
ELLIPSE
  5
56A
100
AcDbEntity
  8
RACCORDO
100
AcDbEllipse
 62
7
  6
CONTINUOUS
 10
-6.6557466136
 20
-33.102463069
 30
0.0
 11
-0.2236308425
 21
0.4472209179
 31
0.0
 40
0.6123573717
 41
-3.0409388568
 42
-2.2555722372
  0
ELLIPSE
  5
56B
100
AcDbEntity
  8
RACCORDO
100
AcDbEllipse
 62
7
  6
CONTINUOUS
 10
-21.4895484873
 20
-31.6449854224
 30
0.0
 11
1.133799959
 21
2.2281584479
 31
0.0
 40
0.6176975122
 41
-3.8201824201
 42
-3.1381818826
  0
ELLIPSE
  5
56C
100
AcDbEntity
  8
RACCORDO
100
AcDbEllipse
 62
7
  6
CONTINUOUS
 10
-15.0823916648
 20
-34.8485638336
 30
0.0
 11
1.102574558
 21
2.2437731106
 31
0.0
 40
0.607010042
 41
-3.816206176
 42
-3.1457061816
  0
ELLIPSE
  5
56D
100
AcDbEntity
  8
RACCORDO
100
AcDbEllipse
 62
7
  6
CONTINUOUS
 10
-21.4895484873
 20
2.996030729
 30
0.0
 11
1.133799959
 21
2.2281584479
 31
0.0
 40
0.6176975122
 41
0.6890773845
 42
2.2598737113
  0
ELLIPSE
  5
56E
100
AcDbEntity
  8
RACCORDO
100
AcDbEllipse
 62
7
  6
CONTINUOUS
 10
-12.0538109147
 20
-36.9242257295
 30
0.0
 11
0.4410298232
 21
0.8975092442
 31
0.0
 40
0.607010042
 41
-4.2684036111
 42
-4.0318637861
  0
ELLIPSE
  5
56F
100
AcDbEntity
  8
RACCORDO
100
AcDbEllipse
 62
7
  6
CONTINUOUS
 10
-15.0823916648
 20
-0.2075476822
 30
0.0
 11
1.102574558
 21
2.2437731106
 31
0.0
 40
0.607010042
 41
0.6805251943
 42
2.035663911
  0
ELLIPSE
  5
570
100
AcDbEntity
  8
RACCORDO
100
AcDbEllipse
 62
7
  6
CONTINUOUS
 10
-14.4369931576
 20
-36.1033224795
 30
0.0
 11
0.2205149116
 21
0.4487546221
 31
0.0
 40
0.607010042
 41
-4.0318637861
 42
-3.143758814
  0
ELLIPSE
  5
571
100
AcDbEntity
  8
RACCORDO
100
AcDbEllipse
 62
7
  6
CONTINUOUS
 10
-13.03512125
 20
-1.2311828897
 30
0.0
 11
1.102574558
 21
2.2437731106
 31
0.0
 40
0.607010042
 41
0.6805251943
 42
2.2513215211
  0
ELLIPSE
  5
572
100
AcDbEntity
  8
RACCORDO
100
AcDbEllipse
 62
7
  6
CONTINUOUS
 10
-13.03512125
 20
-35.872199041
 30
0.0
 11
1.102574558
 21
2.2437731106
 31
0.0
 40
0.607010042
 41
2.2513215211
 42
3.8221178479
  0
ELLIPSE
  5
573
100
AcDbEntity
  8
RACCORDO
100
AcDbEllipse
 62
7
  6
CONTINUOUS
 10
-23.9798089017
 20
-0.5577443953
 30
0.0
 11
-0.6708909829
 21
1.3417319178
 31
0.0
 40
0.6123267458
 41
-0.6846978779
 42
0.0076390318
  0
ELLIPSE
  5
574
100
AcDbEntity
  8
RACCORDO
100
AcDbEllipse
 62
7
  6
CONTINUOUS
 10
-15.7722365629
 20
-1.6102131463
 30
0.0
 11
0.3155849318
 21
0.1171201238
 31
0.0
 40
0.3622699075
 41
2.5872637284
 42
3.4681637156
  0
ELLIPSE
  5
575
100
AcDbEntity
  8
RACCORDO
100
AcDbEllipse
 62
7
  6
CONTINUOUS
 10
-20.4296129796
 20
0.718475062
 30
0.0
 11
0.3191796524
 21
0.115286206
 31
0.0
 40
0.3564329403
 41
-2.8146292027
 42
-1.2481961575
  0
ELLIPSE
  5
576
100
AcDbEntity
  8
RACCORDO
100
AcDbEllipse
 62
7
  6
CONTINUOUS
 10
-12.0538109147
 20
0.8194324508
 30
0.0
 11
0.4410298232
 21
0.8975092442
 31
0.0
 40
0.607010042
 41
2.2513215211
 42
3.8133912016
  0
ELLIPSE
  5
577
100
AcDbEntity
  8
RACCORDO
100
AcDbEllipse
 62
7
  6
CONTINUOUS
 10
-20.9401610505
 20
1.8796261293
 30
0.0
 11
0.1811490377
 21
0.3571046834
 31
0.0
 40
0.6172574819
 41
-3.4796740637
 42
-2.4624172825
  0
ELLIPSE
  5
578
100
AcDbEntity
  8
RACCORDO
100
AcDbEllipse
 62
7
  6
CONTINUOUS
 10
-19.4422780724
 20
1.9723955216
 30
0.0
 11
1.133799959
 21
2.2281584479
 31
0.0
 40
0.6176975122
 41
0.6890773845
 42
2.0442161012
  0
ELLIPSE
  5
579
100
AcDbEntity
  8
RACCORDO
100
AcDbEllipse
 62
7
  6
CONTINUOUS
 10
-19.4422780724
 20
-32.6686206298
 30
0.0
 11
1.133799959
 21
2.2281584479
 31
0.0
 40
0.6176975122
 41
2.4755313213
 42
3.4659232089
  0
ELLIPSE
  5
57A
100
AcDbEntity
  8
RACCORDO
100
AcDbEllipse
 62
7
  6
CONTINUOUS
 10
-9.8315697643
 20
3.809052048
 30
0.0
 11
0.9999938762
 21
-0.0070751823
 31
0.0
 40
0.4946372042
 41
5.5100134456
 42
6.7181416285
  0
ELLIPSE
  5
57B
100
AcDbEntity
  8
RACCORDO
100
AcDbEllipse
 62
7
  6
CONTINUOUS
 10
-14.7874611345
 20
-2.6843768934
 30
0.0
 11
0.499996712
 21
0.0035883639
 31
0.0
 40
0.5053247124
 41
3.1379665497
 42
3.9233642311
  0
ELLIPSE
  5
57C
100
AcDbEntity
  8
RACCORDO
100
AcDbEllipse
 62
7
  6
CONTINUOUS
 10
-22.6489553601
 20
1.2463702194
 30
0.0
 11
0.499996712
 21
0.0035883639
 31
0.0
 40
0.5053247124
 41
-2.3598210761
 42
-0.7977513956
  0
ELLIPSE
  5
57D
100
AcDbEntity
  8
RACCORDO
100
AcDbEllipse
 62
7
  6
CONTINUOUS
 10
-14.4369931576
 20
-2.4266146684
 30
0.0
 11
0.2205149116
 21
0.4487546221
 31
0.0
 40
0.607010042
 41
0.6892518406
 42
2.2513215211
  0
ELLIPSE
  5
57E
100
AcDbEntity
  8
RACCORDO
100
AcDbEllipse
 62
7
  6
CONTINUOUS
 10
-14.0803947415
 20
-34.0861908697
 30
0.0
 11
-0.6708909829
 21
1.3417319178
 31
0.0
 40
0.6123267458
 41
-3.1532161042
 42
-2.2555703571
  0
ELLIPSE
  5
57F
100
AcDbEntity
  8
RACCORDO
100
AcDbEllipse
 62
7
  6
CONTINUOUS
 10
-14.0803947415
 20
-5.5074514754
 30
0.0
 11
-0.670800885
 21
1.3416518308
 31
0.0
 40
0.6124181287
 41
-2.2554606976
 42
-0.6847405232
  0
ELLIPSE
  5
580
100
AcDbEntity
  8
ASSI
100
AcDbEllipse
 62
7
  6
CONTINUOUS
 10
-6.6557466136
 20
-4.0163324674
 30
0.0
 11
-0.2236184038
 21
0.4472098593
 31
0.0
 40
0.6123952257
 41
-2.2555268178
 42
-1.4701601983
  0
ELLIPSE
  5
581
100
AcDbEntity
  8
ASSI
100
AcDbEllipse
 62
7
  6
CONTINUOUS
 10
-8.5699522897
 20
-0.7148160448
 30
0.0
 11
-0.223592727
 21
0.4472262246
 31
0.0
 40
0.6123874982
 41
-1.470060655
 42
-0.6846940354
  0
ELLIPSE
  5
582
100
AcDbEntity
  8
ASSI
100
AcDbEllipse
 62
7
  6
CONTINUOUS
 10
-8.5699522897
 20
-34.4897738156
 30
0.0
 11
-0.2236051685
 21
0.4472372818
 31
0.0
 40
0.6123496457
 41
-3.1497377481
 42
-3.0409024091
  0
ELLIPSE
  5
583
100
AcDbEntity
  8
ASSI
100
AcDbEllipse
 62
7
  6
CONTINUOUS
 10
-6.6557466136
 20
-33.102463069
 30
0.0
 11
-0.2236308425
 21
0.4472209179
 31
0.0
 40
0.6123573717
 41
-3.0409388568
 42
-2.2555722372
  0
ELLIPSE
  5
584
100
AcDbEntity
  8
ASSI
100
AcDbEllipse
 62
7
  6
CONTINUOUS
 10
-21.4895484873
 20
-31.6449854224
 30
0.0
 11
1.133799959
 21
2.2281584479
 31
0.0
 40
0.6176975122
 41
-3.8201824201
 42
-3.1381818826
  0
ELLIPSE
  5
585
100
AcDbEntity
  8
ASSI
100
AcDbEllipse
 62
7
  6
CONTINUOUS
 10
-15.0823916648
 20
-34.8485638336
 30
0.0
 11
1.102574558
 21
2.2437731106
 31
0.0
 40
0.607010042
 41
-3.816206176
 42
-3.1457061816
  0
ELLIPSE
  5
586
100
AcDbEntity
  8
ASSI
100
AcDbEllipse
 62
7
  6
CONTINUOUS
 10
-4.5697681463
 20
2.6414171336
 30
0.0
 11
0.9999984415
 21
-0.0035500306
 31
0.0
 40
0.4973232868
 41
6.2894216759
 42
7.0703489844
  0
ELLIPSE
  5
587
100
AcDbEntity
  8
ASSI
100
AcDbEllipse
 62
7
  6
CONTINUOUS
 10
-21.4895484873
 20
2.996030729
 30
0.0
 11
1.133799959
 21
2.2281584479
 31
0.0
 40
0.6176975122
 41
0.6890773845
 42
2.2598737113
  0
ELLIPSE
  5
588
100
AcDbEntity
  8
ASSI
100
AcDbEllipse
 62
7
  6
CONTINUOUS
 10
-12.0538109147
 20
-36.9242257295
 30
0.0
 11
0.4410298232
 21
0.8975092442
 31
0.0
 40
0.607010042
 41
-4.2684036111
 42
-4.0318637861
  0
ELLIPSE
  5
589
100
AcDbEntity
  8
ASSI
100
AcDbEllipse
 62
7
  6
CONTINUOUS
 10
-15.0823916648
 20
-0.2075476822
 30
0.0
 11
1.102574558
 21
2.2437731106
 31
0.0
 40
0.607010042
 41
0.6805251943
 42
2.035663911
  0
ELLIPSE
  5
58A
100
AcDbEntity
  8
ASSI
100
AcDbEllipse
 62
7
  6
CONTINUOUS
 10
-14.4369931576
 20
-36.1033224795
 30
0.0
 11
0.2205149116
 21
0.4487546221
 31
0.0
 40
0.607010042
 41
-4.0318637861
 42
-3.143758814
  0
ELLIPSE
  5
58B
100
AcDbEntity
  8
ASSI
100
AcDbEllipse
 62
7
  6
CONTINUOUS
 10
-13.03512125
 20
-1.2311828897
 30
0.0
 11
1.102574558
 21
2.2437731106
 31
0.0
 40
0.607010042
 41
0.6805251943
 42
2.2513215211
  0
ELLIPSE
  5
58C
100
AcDbEntity
  8
ASSI
100
AcDbEllipse
 62
7
  6
CONTINUOUS
 10
-13.03512125
 20
-35.872199041
 30
0.0
 11
1.102574558
 21
2.2437731106
 31
0.0
 40
0.607010042
 41
-4.0318637861
 42
-2.4610674593
  0
ELLIPSE
  5
58D
100
AcDbEntity
  8
ASSI
100
AcDbEllipse
 62
7
  6
CONTINUOUS
 10
-23.9798089017
 20
-0.5577443953
 30
0.0
 11
-0.6708909829
 21
1.3417319178
 31
0.0
 40
0.6123267458
 41
-0.6846978779
 42
0.0076390318
  0
ELLIPSE
  5
58E
100
AcDbEntity
  8
ASSI
100
AcDbEllipse
 62
7
  6
CONTINUOUS
 10
-15.7722365629
 20
-1.6102131463
 30
0.0
 11
0.3155849318
 21
0.1171201238
 31
0.0
 40
0.3622699075
 41
2.5872637284
 42
3.4681637156
  0
ELLIPSE
  5
58F
100
AcDbEntity
  8
ASSI
100
AcDbEllipse
 62
7
  6
CONTINUOUS
 10
-20.4296129796
 20
0.718475062
 30
0.0
 11
0.3191796524
 21
0.115286206
 31
0.0
 40
0.3564329403
 41
-2.8146292027
 42
-1.2481961575
  0
ELLIPSE
  5
590
100
AcDbEntity
  8
ASSI
100
AcDbEllipse
 62
7
  6
CONTINUOUS
 10
-12.0538109147
 20
0.8194324508
 30
0.0
 11
0.4410298232
 21
0.8975092442
 31
0.0
 40
0.607010042
 41
2.2513215211
 42
3.8133912016
  0
ELLIPSE
  5
591
100
AcDbEntity
  8
ASSI
100
AcDbEllipse
 62
7
  6
CONTINUOUS
 10
-20.9401610505
 20
1.8796261293
 30
0.0
 11
0.1811490377
 21
0.3571046834
 31
0.0
 40
0.6172574819
 41
-3.4796740637
 42
-2.4624172825
  0
ELLIPSE
  5
592
100
AcDbEntity
  8
ASSI
100
AcDbEllipse
 62
7
  6
CONTINUOUS
 10
-19.4422780724
 20
1.9723955216
 30
0.0
 11
1.133799959
 21
2.2281584479
 31
0.0
 40
0.6176975122
 41
0.6890773845
 42
2.0442161012
  0
ELLIPSE
  5
593
100
AcDbEntity
  8
ASSI
100
AcDbEllipse
 62
7
  6
CONTINUOUS
 10
-19.4422780724
 20
-32.6686206298
 30
0.0
 11
1.133799959
 21
2.2281584479
 31
0.0
 40
0.6176975122
 41
2.4755313213
 42
3.4659232089
  0
ELLIPSE
  5
594
100
AcDbEntity
  8
ASSI
100
AcDbEllipse
 62
7
  6
CONTINUOUS
 10
-20.9401610505
 20
-34.0478167405
 30
0.0
 11
0.1810046246
 21
0.3569768207
 31
0.0
 40
0.6178108116
 41
-4.6315959171
 42
-4.5699548421
  0
ELLIPSE
  5
595
100
AcDbEntity
  8
ASSI
100
AcDbEllipse
 62
7
  6
CONTINUOUS
 10
-9.8315697643
 20
3.809052048
 30
0.0
 11
0.9999938762
 21
-0.0070751823
 31
0.0
 40
0.4946372042
 41
5.5100134456
 42
6.7181416285
  0
ELLIPSE
  5
596
100
AcDbEntity
  8
ASSI
100
AcDbEllipse
 62
7
  6
CONTINUOUS
 10
-14.7874611345
 20
-2.6843768934
 30
0.0
 11
0.499996712
 21
0.0035883639
 31
0.0
 40
0.5053247124
 41
3.1379665497
 42
3.9233642311
  0
ELLIPSE
  5
597
100
AcDbEntity
  8
ASSI
100
AcDbEllipse
 62
7
  6
CONTINUOUS
 10
-22.6489553601
 20
1.2463702194
 30
0.0
 11
0.499996712
 21
0.0035883639
 31
0.0
 40
0.5053247124
 41
-2.3598210761
 42
-0.7977513956
  0
ELLIPSE
  5
598
100
AcDbEntity
  8
ASSI
100
AcDbEllipse
 62
7
  6
CONTINUOUS
 10
-14.4369931576
 20
-2.4266146684
 30
0.0
 11
0.2205149116
 21
0.4487546221
 31
0.0
 40
0.607010042
 41
0.6892518406
 42
2.2513215211
  0
ELLIPSE
  5
599
100
AcDbEntity
  8
ASSI
100
AcDbEllipse
 62
7
  6
CONTINUOUS
 10
-14.0803947415
 20
-34.0861908697
 30
0.0
 11
-0.6708909829
 21
1.3417319178
 31
0.0
 40
0.6123267458
 41
-3.1532161042
 42
-2.2555703571
  0
ELLIPSE
  5
59A
100
AcDbEntity
  8
ASSI
100
AcDbEllipse
 62
7
  6
CONTINUOUS
 10
-14.0803947415
 20
-5.5074514754
 30
0.0
 11
-0.670800885
 21
1.3416518308
 31
0.0
 40
0.6124181287
 41
-2.2554606976
 42
-0.6847405232
  0
ELLIPSE
  5
59B
100
AcDbEntity
  8
0
100
AcDbEllipse
 62
7
  6
CONTINUOUS
 10
1.1678315253
 20
-13.2233432614
 30
0.0
 11
-1.656284165
 21
3.0843095121
 31
0.0
 40
0.633434323
 41
-1.0958939788
 42
-0.7031948971
  0
ELLIPSE
  5
59C
100
AcDbEntity
  8
0
100
AcDbEllipse
 62
7
  6
CONTINUOUS
 10
3.2049210541
 20
0.0554722784
 30
0.0
 11
0.2324910688
 21
0.4985929535
 31
0.0
 40
0.5909678056
 41
3.8253192057
 42
6.9669118593
  0
ELLIPSE
  5
59D
100
AcDbEntity
  8
0
100
AcDbEllipse
 62
7
  6
CONTINUOUS
 10
3.2049210541
 20
0.0554722784
 30
0.0
 11
0.2605279112
 21
0.4845461035
 31
0.0
 40
0.6331555215
 41
0.7186754531
 42
3.8602681067
  0
ELLIPSE
  5
59E
100
AcDbEntity
  8
0
100
AcDbEllipse
 62
7
  6
CONTINUOUS
 10
-5.9026692481
 20
-31.5049502176
 30
0.0
 11
0.4511806643
 21
0.8941510684
 31
0.0
 40
0.6128301338
 41
0.6015679319
 42
0.6888343945
  0
ENDSEC
  0
SECTION
  2
OBJECTS
  0
DICTIONARY
  5
C
100
AcDbDictionary
280
0
281
1
  3
ACAD_GROUP
350
D
  3
ACAD_MLINESTYLE
350
17
  3
ACAD_LAYOUT
350
1A
  3
ACAD_PLOTSETTINGS
350
19
  3
ACAD_PLOTSTYLENAME
350
E
  0
DICTIONARY
  5
D
102
{ACAD_REACTORS
330
C
102
}
100
AcDbDictionary
280
0
281
1
  0
ACDBDICTIONARYWDFLT
  5
E
102
{ACAD_REACTORS
330
C
102
}
100
AcDbDictionary
281
1
  3
Normal
350
F
100
AcDbDictionaryWithDefault
340
F
  0
DICTIONARY
  5
17
102
{ACAD_REACTORS
330
C
102
}
100
AcDbDictionary
280
0
281
1
  3
Standard
350
18
  0
DICTIONARY
  5
19
102
{ACAD_REACTORS
330
C
102
}
100
AcDbDictionary
281
1
  0
DICTIONARY
  5
1A
102
{ACAD_REACTORS
330
C
102
}
100
AcDbDictionary
281
1
  3
Model
350
59F
  3
Layout1
350
5A0
  0
ACDBPLACEHOLDER
  5
F
102
{ACAD_REACTORS
330
E
102
}
  0
MLINESTYLE
  5
18
102
{ACAD_REACTORS
330
17
102
}
100
AcDbMlineStyle
  2
STANDARD
 70
0
  3

 62
256
 51
90.0
 52
90.0
 71
2
 49
0.5
 62
256
  6
BYLAYER
 49
-0.5
 62
256
  6
BYLAYER
  0
LAYOUT
  5
59F
102
{ACAD_REACTORS
330
1A
102
}
100
AcDbPlotSettings
  1

  2
none_device
  4
ANSI_C_(22.00_x_17.00_Inches)
  6

 40
0.0
 41
0.0
 42
0.0
 43
0.0
 44
558.8
 45
431.8
 46
0.0
 47
0.0
 48
0.0
 49
0.0
140
0.0
141
0.0
142
1.0
143
1.0
 70
1024
 72
1
 73
0
 74
0
  7

 75
0
147
1.0
148
0.0
149
0.0
100
AcDbLayout
  1
Model
 70
0
 71
0
 10
0.0
 20
0.0
 11
558.8
 21
431.8
 12
0.0
 22
0.0
 32
0.0
 14
0.0
 24
0.0
 34
0.0
 15
0.0
 25
0.0
 35
0.0
146
0.0
 13
0.0
 23
0.0
 33
0.0
 16
1.0
 26
0.0
 36
0.0
 17
0.0
 27
1.0
 37
0.0
 76
0
330
210
345
0
346
0
  0
LAYOUT
  5
5A0
102
{ACAD_REACTORS
330
1A
102
}
100
AcDbPlotSettings
  1

  2
none_device
  4
ANSI_C_(22.00_x_17.00_Inches)
  6

 40
0.0
 41
0.0
 42
0.0
 43
0.0
 44
558.8
 45
431.8
 46
0.0
 47
0.0
 48
0.0
 49
0.0
140
0.0
141
0.0
142
1.0
143
1.0
 70
0
 72
1
 73
0
 74
0
  7

 75
0
147
1.0
148
0.0
149
0.0
100
AcDbLayout
  1
Layout1
 70
0
 71
1
 10
0.0
 20
0.0
 11
558.8
 21
431.8
 12
0.0
 22
0.0
 32
0.0
 14
0.0
 24
0.0
 34
0.0
 15
0.0
 25
0.0
 35
0.0
146
0.0
 13
0.0
 23
0.0
 33
0.0
 16
1.0
 26
0.0
 36
0.0
 17
0.0
 27
1.0
 37
0.0
 76
0
330
211
345
0
346
0
  0
ENDSEC
  0
EOF
