  0
SECTION
  2
HEADER
  9
$ACADVER
  1
AC1015
  9
$DWGCODEPAGE
  3
ANSI_1252
  9
$EXTMAX
 10
558.8
 20
431.8
 30
0.0
  9
$EXTMIN
 10
0.0
 20
0.0
 30
0.0
  9
$LIMMIN
 10
0.0
 20
0.0
  9
$LIMMAX
 10
558.8
 20
431.8
  9
$VIEWCTR
 10
279.4
 20
215.9
  9
$VIEWSIZE
 40
431.8
  9
$CLAYER
  8
0
  9
$LTSCALE
 40
30.734
  9
$CELTYPE
  6
BYLAYER
  9
$DIMSCALE
 40
1.0
  9
$DIMASZ
 40
3.0
  9
$DIMEXO
 40
3.4925
  9
$DIMDLI
 40
21.2344
  9
$DIMEXE
 40
10.0584
  9
$DIMCEN
 40
5.0292
  9
$DIMLFAC
 40
1.0
  9
$DIMBLK
  1
_FILLED
  9
$DIMTXT
 40
3.0
  9
$DIMTOL
 70
1
  9
$DIMLIM
 70
0
  9
$DIMTFAC
 40
1.0
  9
$DIMTP
 40
0.01
  9
$DIMTM
 40
0.01
  9
$PDMODE
 70
3
  9
$PDSIZE
 40
3.0
  9
$HANDSEED
  5
534
  9
$TILEMODE
 70
1
  9
$MEASUREMENT
 70
1
  9
$INSUNITS
 70
4
  0
ENDSEC
  0
SECTION
  2
CLASSES
  0
CLASS
  1
ACDBDICTIONARYWDFLT
  2
AcDbDictionaryWithDefault
  3
AutoCAD 2000
 90
0
280
0
281
0
  0
CLASS
  1
ACDBPLACEHOLDER
  2
AcDbPlaceHolder
  3
AutoCAD 2000
 90
0
280
0
281
0
  0
CLASS
  1
LAYOUT
  2
AcDbLayout
  3
AutoCAD 2000
 90
0
280
0
281
0
  0
ENDSEC
  0
SECTION
  2
TABLES
  0
TABLE
  2
VPORT
  5
8
100
AcDbSymbolTable
 70
2
  0
VPORT
  5
1F4
100
AcDbSymbolTableRecord
100
AcDbViewportTableRecord
  2
*ACTIVE
 70
0
 10
0.0
 20
0.0
 11
1.0
 21
1.0
 12
279.4
 22
215.9
 13
0.0
 23
0.0
 14
1.0
 24
1.0
 15
0.0
 25
0.0
 16
0.0
 26
0.0
 36
1.0
 17
0.0
 27
0.0
 37
0.0
 40
431.8
 41
1.2941176471
 42
50.0
 43
0.0
 44
0.0
 50
0.0
 51
0.0
 71
0
 72
100
 73
1
 74
1
 75
0
 76
0
 77
0
 78
0
  0
ENDTAB
  0
TABLE
  2
LTYPE
  5
5
100
AcDbSymbolTable
 70
6
  0
LTYPE
  5
14
100
AcDbSymbolTableRecord
100
AcDbLinetypeTableRecord
  2
BYBLOCK
 70
0
  3

 72
65
 73
0
 40
0.0
  0
LTYPE
  5
15
100
AcDbSymbolTableRecord
100
AcDbLinetypeTableRecord
  2
BYLAYER
 70
0
  3

 72
65
 73
0
 40
0.0
  0
LTYPE
  5
16
100
AcDbSymbolTableRecord
100
AcDbLinetypeTableRecord
  2
CONTINUOUS
 70
64
  3
Solid line
 72
65
 73
0
 40
0.0
  0
LTYPE
  5
1F5
100
AcDbSymbolTableRecord
100
AcDbLinetypeTableRecord
  2
CENTER
 70
64
  3
____ _ ____ _ ____ _ ____ _ ____ _ ____ _ ____
 72
65
 73
4
 40
0.6
 49
0.375
 74
0
 49
-0.075
 74
0
 49
0.075
 74
0
 49
-0.075
 74
0
  0
LTYPE
  5
1F6
100
AcDbSymbolTableRecord
100
AcDbLinetypeTableRecord
  2
HIDDEN
 70
64
  3
- - - - - - - - - - - - - - - - - - - -
 72
65
 73
2
 40
0.2
 49
0.1
 74
0
 49
-0.1
 74
0
  0
LTYPE
  5
1F7
100
AcDbSymbolTableRecord
100
AcDbLinetypeTableRecord
  2
PHANTOM
 70
64
  3
_____ _ _ _____ _ _ _____ _ _ _____
 72
65
 73
6
 40
0.8
 49
0.45
 74
0
 49
-0.05
 74
0
 49
0.1
 74
0
 49
-0.05
 74
0
 49
0.1
 74
0
 49
-0.05
 74
0
  0
LTYPE
  5
1F8
100
AcDbSymbolTableRecord
100
AcDbLinetypeTableRecord
  2
DOT
 70
64
  3
. . . . . . . . . . . . . . . . . . . .
 72
65
 73
2
 40
0.2
 49
0.1
 74
0
 49
-0.1
 74
0
  0
LTYPE
  5
1F9
100
AcDbSymbolTableRecord
100
AcDbLinetypeTableRecord
  2
DASHED
 70
64
  3
- - - - - - - - - - - - - - - - - - - -
 72
65
 73
2
 40
0.2
 49
0.1
 74
0
 49
-0.1
 74
0
  0
ENDTAB
  0
TABLE
  2
LAYER
  5
2
100
AcDbSymbolTable
 70
36
  0
LAYER
  5
10
100
AcDbSymbolTableRecord
100
AcDbLayerTableRecord
  2
0
 70
0
 62
7
  6
CONTINUOUS
370
-3
390
F
  0
LAYER
  5
1FA
100
AcDbSymbolTableRecord
100
AcDbLayerTableRecord
  2
DEFAULT_1
 70
0
 62
7
  6
CENTER
370
-3
390
F
  0
LAYER
  5
1FB
100
AcDbSymbolTableRecord
100
AcDbLayerTableRecord
  2
DEFAULT_2
 70
0
 62
7
  6
HIDDEN
370
-3
390
F
  0
LAYER
  5
1FC
100
AcDbSymbolTableRecord
100
AcDbLayerTableRecord
  2
DEFAULT_3
 70
0
 62
7
  6
PHANTOM
370
-3
390
F
  0
LAYER
  5
1FD
100
AcDbSymbolTableRecord
100
AcDbLayerTableRecord
  2
ASSI
 70
0
 62
7
  6
CONTINUOUS
370
-3
390
F
  0
LAYER
  5
1FE
100
AcDbSymbolTableRecord
100
AcDbLayerTableRecord
  2
COORDINATE
 70
0
 62
7
  6
CONTINUOUS
370
-3
390
F
  0
LAYER
  5
1FF
100
AcDbSymbolTableRecord
100
AcDbLayerTableRecord
  2
COORD_ORIGINE
 70
0
 62
7
  6
CONTINUOUS
370
-3
390
F
  0
LAYER
  5
200
100
AcDbSymbolTableRecord
100
AcDbLayerTableRecord
  2
COPY_PUBLISH
 70
0
 62
7
  6
CONTINUOUS
370
-3
390
F
  0
LAYER
  5
201
100
AcDbSymbolTableRecord
100
AcDbLayerTableRecord
  2
COSMETIC
 70
0
 62
7
  6
CONTINUOUS
370
-3
390
F
  0
LAYER
  5
202
100
AcDbSymbolTableRecord
100
AcDbLayerTableRecord
  2
CURVE
 70
0
 62
7
  6
CONTINUOUS
370
-3
390
F
  0
LAYER
  5
203
100
AcDbSymbolTableRecord
100
AcDbLayerTableRecord
  2
DRAFT
 70
0
 62
7
  6
CONTINUOUS
370
-3
390
F
  0
LAYER
  5
204
100
AcDbSymbolTableRecord
100
AcDbLayerTableRecord
  2
IMPORT_IGES
 70
0
 62
7
  6
CONTINUOUS
370
-3
390
F
  0
LAYER
  5
205
100
AcDbSymbolTableRecord
100
AcDbLayerTableRecord
  2
NOTE
 70
0
 62
7
  6
CONTINUOUS
370
-3
390
F
  0
LAYER
  5
206
100
AcDbSymbolTableRecord
100
AcDbLayerTableRecord
  2
PIANI
 70
0
 62
7
  6
CONTINUOUS
370
-3
390
F
  0
LAYER
  5
207
100
AcDbSymbolTableRecord
100
AcDbLayerTableRecord
  2
PIANI_ORIGINE
 70
0
 62
7
  6
CONTINUOUS
370
-3
390
F
  0
LAYER
  5
208
100
AcDbSymbolTableRecord
100
AcDbLayerTableRecord
  2
PUNTI
 70
0
 62
7
  6
CONTINUOUS
370
-3
390
F
  0
LAYER
  5
209
100
AcDbSymbolTableRecord
100
AcDbLayerTableRecord
  2
RACCORDO
 70
0
 62
7
  6
CONTINUOUS
370
-3
390
F
  0
LAYER
  5
20A
100
AcDbSymbolTableRecord
100
AcDbLayerTableRecord
  2
SMUSSO
 70
0
 62
7
  6
CONTINUOUS
370
-3
390
F
  0
LAYER
  5
20B
100
AcDbSymbolTableRecord
100
AcDbLayerTableRecord
  2
SNAPLINE
 70
0
 62
7
  6
CONTINUOUS
370
-3
390
F
  0
LAYER
  5
20C
100
AcDbSymbolTableRecord
100
AcDbLayerTableRecord
  2
TRASH
 70
0
 62
7
  6
CONTINUOUS
370
-3
390
F
  0
LAYER
  5
20D
100
AcDbSymbolTableRecord
100
AcDbLayerTableRecord
  2
XSEC_DATUMS
 70
0
 62
7
  6
CONTINUOUS
370
-3
390
F
  0
ENDTAB
  0
TABLE
  2
STYLE
  5
3
100
AcDbSymbolTable
 70
1
  0
STYLE
  5
11
100
AcDbSymbolTableRecord
100
AcDbTextStyleTableRecord
  2
STANDARD
 70
0
 40
0.0
 41
0.8
 50
0.0
 71
0
 42
0.2
  3
txt
  4

  0
STYLE
  5
20E
100
AcDbSymbolTableRecord
100
AcDbTextStyleTableRecord
  2
TEXTSTYLE_1
 70
0
 40
0.0
 41
0.8
 50
0.0
 71
0
 42
0.2
  3
gdt
  4

  0
ENDTAB
  0
TABLE
  2
VIEW
  5
6
100
AcDbSymbolTable
 70
0
  0
ENDTAB
  0
TABLE
  2
UCS
  5
7
100
AcDbSymbolTable
 70
0
  0
ENDTAB
  0
TABLE
  2
APPID
  5
9
100
AcDbSymbolTable
 70
1
  0
APPID
  5
20F
100
AcDbSymbolTableRecord
100
AcDbRegAppTableRecord
  2
ACAD
 70
0
  0
ENDTAB
  0
TABLE
  2
BLOCK_RECORD
  5
1
100
AcDbSymbolTable
 70
0
  0
BLOCK_RECORD
  5
210
100
AcDbSymbolTableRecord
100
AcDbBlockTableRecord
  2
*Model_Space
  0
BLOCK_RECORD
  5
211
100
AcDbSymbolTableRecord
100
AcDbBlockTableRecord
  2
*Paper_Space
  0
ENDTAB
  0
TABLE
  2
DIMSTYLE
  5
A
100
AcDbSymbolTable
 70
1
100
AcDbDimStyleTable
 71
0
  0
DIMSTYLE
105
212
100
AcDbSymbolTableRecord
100
AcDbDimStyleTableRecord
  2
STANDARD
 70
0
  3

  4

 40
1.0
 41
3.0
 42
0.0625
 43
0.38
 44
0.18
 45
0.0
 46
0.0
 47
0.01
 48
0.01
140
3.0
141
0.09
142
0.0
143
25.4
144
1.0
145
0.0
146
1.0
147
0.09
 71
1.0
 72
0.0
 73
0
 74
0
 75
0
 76
0
 77
1
 78
8
170
0
171
2
172
0
173
0
174
0
175
0
176
0
177
0
178
0
270
2
271
2
272
2
273
2
274
2
275
0
280
0
281
0
282
0
283
1
284
8
285
0
286
0
287
3
288
0
340
11
  0
ENDTAB
  0
ENDSEC
  0
SECTION
  2
BLOCKS
  0
BLOCK
  5
20
100
AcDbEntity
  8
0
100
AcDbBlockBegin
  2
*Model_Space
 70
0
 10
0.0
 20
0.0
 30
0.0
  3
*Model_Space
  1

  0
ENDBLK
  5
21
100
AcDbEntity
  8
0
100
AcDbBlockEnd
  0
BLOCK
  5
1C
100
AcDbEntity
  8
0
100
AcDbBlockBegin
  2
*Paper_Space
 70
0
 10
0.0
 20
0.0
 30
0.0
  3
*Paper_Space
  1

  0
ENDBLK
  5
1D
100
AcDbEntity
  8
0
100
AcDbBlockEnd
  0
ENDSEC
  0
SECTION
  2
ENTITIES
  0
LINE
  5
213
100
AcDbEntity
  8
SMUSSO
100
AcDbLine
 62
7
  6
CONTINUOUS
 10
-15.6592821649
 20
-28.3900493469
 11
-16.0821795407
 21
-28.2974543693
  0
LINE
  5
214
100
AcDbEntity
  8
RACCORDO
100
AcDbLine
 62
7
  6
CONTINUOUS
 10
-29.6818945432
 20
10.7622828509
 11
-27.7911849826
 21
12.1325649082
  0
LINE
  5
215
100
AcDbEntity
  8
ASSI
100
AcDbLine
 62
7
  6
CONTINUOUS
 10
-29.6818945432
 20
10.7622828509
 11
-27.7911849826
 21
12.1325649082
  0
LINE
  5
216
100
AcDbEntity
  8
RACCORDO
100
AcDbLine
 62
7
  6
CONTINUOUS
 10
-24.5316701161
 20
14.5889351676
 11
-24.8169811595
 21
14.4487479768
  0
LINE
  5
217
100
AcDbEntity
  8
ASSI
100
AcDbLine
 62
7
  6
CONTINUOUS
 10
-24.5316701161
 20
14.5889351676
 11
-24.8169811595
 21
14.4487479768
  0
LINE
  5
218
100
AcDbEntity
  8
SMUSSO
100
AcDbLine
 62
7
  6
CONTINUOUS
 10
-10.467247651
 20
-27.9835830251
 11
-15.6592821649
 21
-28.3900493469
  0
LINE
  5
219
100
AcDbEntity
  8
SMUSSO
100
AcDbLine
 62
7
  6
CONTINUOUS
 10
-10.3751630711
 20
-27.6100034926
 11
-15.567197585
 21
-28.0164698145
  0
LINE
  5
21A
100
AcDbEntity
  8
SMUSSO
100
AcDbLine
 62
7
  6
CONTINUOUS
 10
-15.567197585
 20
-28.0164698145
 11
-16.0634800348
 21
-27.9078068978
  0
LINE
  5
21B
100
AcDbEntity
  8
RACCORDO
100
AcDbLine
 62
7
  6
CONTINUOUS
 10
-17.4709624788
 20
-28.8254259962
 11
-19.5181095101
 21
-27.8018524806
  0
LINE
  5
21C
100
AcDbEntity
  8
ASSI
100
AcDbLine
 62
7
  6
CONTINUOUS
 10
-17.4709624788
 20
-28.8254259962
 11
-19.5181095101
 21
-27.8018524806
  0
LINE
  5
21D
100
AcDbEntity
  8
RACCORDO
100
AcDbLine
 62
7
  6
CONTINUOUS
 10
-23.8974935491
 20
-25.6121604611
 11
-25.9446405804
 21
-24.5885869454
  0
LINE
  5
21E
100
AcDbEntity
  8
ASSI
100
AcDbLine
 62
7
  6
CONTINUOUS
 10
-23.8974935491
 20
-25.6121604611
 11
-25.9446405804
 21
-24.5885869454
  0
LINE
  5
21F
100
AcDbEntity
  8
0
100
AcDbLine
 62
7
  6
CONTINUOUS
 10
-19.8887920561
 20
-27.4717370879
 11
-23.8264242833
 21
-25.5029209744
  0
LINE
  5
220
100
AcDbEntity
  8
RACCORDO
100
AcDbLine
 62
7
  6
CONTINUOUS
 10
-29.7304018517
 20
-22.0631736255
 11
-19.8618418285
 21
-26.9974536371
  0
LINE
  5
221
100
AcDbEntity
  8
ASSI
100
AcDbLine
 62
7
  6
CONTINUOUS
 10
-29.7304018517
 20
-22.0631736255
 11
-19.8618418285
 21
-26.9974536371
  0
LINE
  5
222
100
AcDbEntity
  8
RACCORDO
100
AcDbLine
 62
7
  6
CONTINUOUS
 10
-19.1363829912
 20
-27.348993676
 11
-18.5013233413
 21
-27.666523501
  0
LINE
  5
223
100
AcDbEntity
  8
ASSI
100
AcDbLine
 62
7
  6
CONTINUOUS
 10
-19.1363829912
 20
-27.348993676
 11
-18.5013233413
 21
-27.666523501
  0
LINE
  5
224
100
AcDbEntity
  8
RACCORDO
100
AcDbLine
 62
253
  6
CONTINUOUS
 10
-18.1148938067
 20
-27.4761423134
 11
-18.3851275648
 21
-27.3410254344
  0
LINE
  5
225
100
AcDbEntity
  8
ASSI
100
AcDbLine
 62
253
  6
CONTINUOUS
 10
-18.1148938067
 20
-27.4761423134
 11
-18.3851275648
 21
-27.3410254344
  0
LINE
  5
226
100
AcDbEntity
  8
RACCORDO
100
AcDbLine
 62
253
  6
CONTINUOUS
 10
-18.7777795225
 20
-27.0970397447
 11
-18.5315741742
 21
-27.2201424188
  0
LINE
  5
227
100
AcDbEntity
  8
ASSI
100
AcDbLine
 62
253
  6
CONTINUOUS
 10
-18.7777795225
 20
-27.0970397447
 11
-18.5315741742
 21
-27.2201424188
  0
LINE
  5
228
100
AcDbEntity
  8
RACCORDO
100
AcDbLine
 62
253
  6
CONTINUOUS
 10
-30.1202416302
 20
-21.2518629249
 11
-20.251681607
 21
-26.1861429365
  0
LINE
  5
229
100
AcDbEntity
  8
ASSI
100
AcDbLine
 62
253
  6
CONTINUOUS
 10
-30.1202416302
 20
-21.2518629249
 11
-20.251681607
 21
-26.1861429365
  0
LINE
  5
22A
100
AcDbEntity
  8
RACCORDO
100
AcDbLine
 62
7
  6
CONTINUOUS
 10
-16.7338000999
 20
-27.8899986004
 11
-17.9861408532
 21
-27.2638282238
  0
LINE
  5
22B
100
AcDbEntity
  8
ASSI
100
AcDbLine
 62
7
  6
CONTINUOUS
 10
-16.7338000999
 20
-27.8899986004
 11
-17.9861408532
 21
-27.2638282238
  0
LINE
  5
22C
100
AcDbEntity
  8
RACCORDO
100
AcDbLine
 62
253
  6
CONTINUOUS
 10
-16.8637466928
 20
-27.6195617002
 11
-18.1148938067
 21
-26.9939881432
  0
LINE
  5
22D
100
AcDbEntity
  8
ASSI
100
AcDbLine
 62
253
  6
CONTINUOUS
 10
-16.8637466928
 20
-27.6195617002
 11
-18.1148938067
 21
-26.9939881432
  0
LINE
  5
22E
100
AcDbEntity
  8
SMUSSO
100
AcDbLine
 62
7
  6
CONTINUOUS
 10
-18.9525290252
 20
19.5626013926
 11
-24.1445635391
 21
14.7770332005
  0
LINE
  5
22F
100
AcDbEntity
  8
0
100
AcDbLine
 62
7
  6
CONTINUOUS
 10
-22.430360343
 20
13.2409387013
 11
-23.4811967799
 21
12.4419587985
  0
LINE
  5
230
100
AcDbEntity
  8
RACCORDO
100
AcDbLine
 62
253
  6
CONTINUOUS
 10
-29.7420318555
 20
10.1806518546
 11
-27.8513222949
 21
11.550933912
  0
LINE
  5
231
100
AcDbEntity
  8
ASSI
100
AcDbLine
 62
253
  6
CONTINUOUS
 10
-29.7420318555
 20
10.1806518546
 11
-27.8513222949
 21
11.550933912
  0
LINE
  5
232
100
AcDbEntity
  8
RACCORDO
100
AcDbLine
 62
7
  6
CONTINUOUS
 10
-29.7511789297
 20
9.1504676718
 11
-27.9863038402
 21
10.0674720223
  0
LINE
  5
233
100
AcDbEntity
  8
ASSI
100
AcDbLine
 62
7
  6
CONTINUOUS
 10
-29.7511789297
 20
9.1504676718
 11
-27.9863038402
 21
10.0674720223
  0
LINE
  5
234
100
AcDbEntity
  8
RACCORDO
100
AcDbLine
 62
7
  6
CONTINUOUS
 10
-26.2054854139
 20
12.9546663946
 11
-27.726467252
 21
12.1723419891
  0
LINE
  5
235
100
AcDbEntity
  8
ASSI
100
AcDbLine
 62
7
  6
CONTINUOUS
 10
-26.2054854139
 20
12.9546663946
 11
-27.726467252
 21
12.1723419891
  0
LINE
  5
236
100
AcDbEntity
  8
RACCORDO
100
AcDbLine
 62
253
  6
CONTINUOUS
 10
-26.2833702331
 20
12.7853829729
 11
-27.5008542005
 21
12.1591641732
  0
LINE
  5
237
100
AcDbEntity
  8
ASSI
100
AcDbLine
 62
253
  6
CONTINUOUS
 10
-26.2833702331
 20
12.7853829729
 11
-27.5008542005
 21
12.1591641732
  0
LINE
  5
238
100
AcDbEntity
  8
RACCORDO
100
AcDbLine
 62
7
  6
CONTINUOUS
 10
-19.1188247377
 20
15.9209112768
 11
-17.3370763474
 21
16.8117854719
  0
LINE
  5
239
100
AcDbEntity
  8
RACCORDO
100
AcDbLine
 62
7
  6
CONTINUOUS
 10
-22.4843997012
 20
13.5652999602
 11
-22.7697107447
 21
13.4251127694
  0
LINE
  5
23A
100
AcDbEntity
  8
ASSI
100
AcDbLine
 62
7
  6
CONTINUOUS
 10
-22.4843997012
 20
13.5652999602
 11
-22.7697107447
 21
13.4251127694
  0
LINE
  5
23B
100
AcDbEntity
  8
ASSI
100
AcDbLine
 62
7
  6
CONTINUOUS
 10
-17.2608370841
 20
16.9223688522
 11
-17.9828543138
 21
16.5714317475
  0
LINE
  5
23C
100
AcDbEntity
  8
0
100
AcDbLine
 62
253
  6
CONTINUOUS
 10
-10.9086117108
 20
19.0127565975
 11
-10.9077823696
 21
19.0131337631
  0
LINE
  5
23D
100
AcDbEntity
  8
0
100
AcDbLine
 62
7
  6
CONTINUOUS
 10
-14.061078616
 20
17.5899770235
 11
-10.9097685708
 21
19.0122373442
  0
LINE
  5
23E
100
AcDbEntity
  8
0
100
AcDbLine
 62
253
  6
CONTINUOUS
 10
-13.8187840234
 20
17.4688297272
 11
-11.1321477004
 21
18.6813722027
  0
LINE
  5
23F
100
AcDbEntity
  8
RACCORDO
100
AcDbLine
 62
7
  6
CONTINUOUS
 10
-25.3318639422
 20
10.5032848724
 11
-24.9071600832
 21
11.0096754101
  0
LINE
  5
240
100
AcDbEntity
  8
ASSI
100
AcDbLine
 62
7
  6
CONTINUOUS
 10
-25.3318639422
 20
10.5032848724
 11
-24.9071600832
 21
11.0096754101
  0
LINE
  5
241
100
AcDbEntity
  8
RACCORDO
100
AcDbLine
 62
7
  6
CONTINUOUS
 10
-22.4262005588
 20
13.2444314716
 11
-22.3871112052
 21
13.2804606557
  0
LINE
  5
242
100
AcDbEntity
  8
RACCORDO
100
AcDbLine
 62
7
  6
CONTINUOUS
 10
-19.3285325901
 20
15.6974724935
 11
-19.2066927033
 21
15.8097739594
  0
LINE
  5
243
100
AcDbEntity
  8
RACCORDO
100
AcDbLine
 62
7
  6
CONTINUOUS
 10
-19.0473348975
 20
15.9566561969
 11
-17.0279180036
 21
17.8179799666
  0
LINE
  5
244
100
AcDbEntity
  8
RACCORDO
100
AcDbLine
 62
7
  6
CONTINUOUS
 10
-19.2364480102
 20
15.415977541
 11
-19.2033403423
 21
15.4464933247
  0
LINE
  5
245
100
AcDbEntity
  8
RACCORDO
100
AcDbLine
 62
7
  6
CONTINUOUS
 10
-18.1785683778
 20
16.3910394567
 11
-17.2663656693
 21
17.2318289883
  0
LINE
  5
246
100
AcDbEntity
  8
RACCORDO
100
AcDbLine
 62
253
  6
CONTINUOUS
 10
-29.068837347
 20
9.1137788073
 11
-27.3073223488
 21
10.0290373015
  0
LINE
  5
247
100
AcDbEntity
  8
ASSI
100
AcDbLine
 62
253
  6
CONTINUOUS
 10
-29.068837347
 20
9.1137788073
 11
-27.3073223488
 21
10.0290373015
  0
LINE
  5
248
100
AcDbEntity
  8
RACCORDO
100
AcDbLine
 62
7
  6
CONTINUOUS
 10
-25.6259334002
 20
10.3556783693
 11
-25.3318639422
 21
10.5032848724
  0
LINE
  5
249
100
AcDbEntity
  8
ASSI
100
AcDbLine
 62
7
  6
CONTINUOUS
 10
-25.6259334002
 20
10.3556783693
 11
-25.3318639422
 21
10.5032848724
  0
LINE
  5
24A
100
AcDbEntity
  8
RACCORDO
100
AcDbLine
 62
7
  6
CONTINUOUS
 10
-16.8266263301
 20
14.2162698772
 11
-16.8815367105
 21
14.188814687
  0
LINE
  5
24B
100
AcDbEntity
  8
RACCORDO
100
AcDbLine
 62
7
  6
CONTINUOUS
 10
-16.4802161686
 20
14.0430647964
 11
-16.535126549
 21
14.0156096062
  0
LINE
  5
24C
100
AcDbEntity
  8
RACCORDO
100
AcDbLine
 62
7
  6
CONTINUOUS
 10
-15.5832908317
 20
14.1531443238
 11
-15.5118009916
 21
14.1888892439
  0
LINE
  5
24D
100
AcDbEntity
  8
RACCORDO
100
AcDbLine
 62
7
  6
CONTINUOUS
 10
-17.0155623567
 20
14.3107378905
 11
-17.0715194897
 21
14.2838060766
  0
LINE
  5
24E
100
AcDbEntity
  8
ASSI
100
AcDbLine
 62
7
  6
CONTINUOUS
 10
-17.0155623567
 20
14.3107378905
 11
-17.0715194897
 21
14.2838060766
  0
LINE
  5
24F
100
AcDbEntity
  8
RACCORDO
100
AcDbLine
 62
7
  6
CONTINUOUS
 10
-24.0976457034
 20
10.9021760085
 11
-24.2700834996
 21
10.8191827888
  0
LINE
  5
250
100
AcDbEntity
  8
ASSI
100
AcDbLine
 62
7
  6
CONTINUOUS
 10
-24.0976457034
 20
10.9021760085
 11
-24.2700834996
 21
10.8191827888
  0
LINE
  5
251
100
AcDbEntity
  8
RACCORDO
100
AcDbLine
 62
7
  6
CONTINUOUS
 10
-17.4911038909
 20
14.4935982772
 11
-17.4351159048
 21
14.5205146645
  0
LINE
  5
252
100
AcDbEntity
  8
ASSI
100
AcDbLine
 62
7
  6
CONTINUOUS
 10
-17.4911038909
 20
14.4935982772
 11
-17.4351159048
 21
14.5205146645
  0
LINE
  5
253
100
AcDbEntity
  8
0
100
AcDbLine
 62
7
  6
CONTINUOUS
 10
-8.2833171382
 20
-22.5045455163
 11
-8.3021855801
 21
-22.5098620852
  0
LINE
  5
254
100
AcDbEntity
  8
0
100
AcDbLine
 62
7
  6
CONTINUOUS
 10
-8.9900437678
 20
-22.686468422
 11
-8.302331224
 21
-22.5099270005
  0
LINE
  5
255
100
AcDbEntity
  8
0
100
AcDbLine
 62
253
  6
CONTINUOUS
 10
-7.6219363105
 20
-21.8548908901
 11
-8.6230283798
 21
-22.1118793929
  0
LINE
  5
256
100
AcDbEntity
  8
0
100
AcDbLine
 62
253
  6
CONTINUOUS
 10
-13.0040623873
 20
-26.2955538345
 11
-10.3751630711
 21
-27.6100034926
  0
LINE
  5
257
100
AcDbEntity
  8
0
100
AcDbLine
 62
253
  6
CONTINUOUS
 10
-12.0881467249
 20
-25.8506491365
 11
-9.9137834383
 21
-26.9378307798
  0
LINE
  5
258
100
AcDbEntity
  8
SMUSSO
100
AcDbLine
 62
7
  6
CONTINUOUS
 10
-11.6587788224
 20
-25.6403639599
 11
-10.1586081771
 21
-26.3904492826
  0
LINE
  5
259
100
AcDbEntity
  8
SMUSSO
100
AcDbLine
 62
7
  6
CONTINUOUS
 10
-11.4030673285
 20
-25.4562616614
 11
-9.8768417665
 21
-26.2193744423
  0
LINE
  5
25A
100
AcDbEntity
  8
RACCORDO
100
AcDbLine
 62
253
  6
CONTINUOUS
 10
-30.5595759932
 20
-20.7235574073
 11
-30.5595814517
 21
-20.7214617234
  0
LINE
  5
25B
100
AcDbEntity
  8
ASSI
100
AcDbLine
 62
253
  6
CONTINUOUS
 10
-30.5595759932
 20
-20.7235574073
 11
-30.5595814517
 21
-20.7214617234
  0
LINE
  5
25C
100
AcDbEntity
  8
RACCORDO
100
AcDbLine
 62
253
  6
CONTINUOUS
 10
-30.5595812548
 20
7.8190273656
 11
-30.5595814517
 21
7.8194891995
  0
LINE
  5
25D
100
AcDbEntity
  8
ASSI
100
AcDbLine
 62
253
  6
CONTINUOUS
 10
-30.5595812548
 20
7.8190273656
 11
-30.5595814517
 21
7.8194891995
  0
LINE
  5
25E
100
AcDbEntity
  8
RACCORDO
100
AcDbLine
 62
7
  6
CONTINUOUS
 10
-30.5595814584
 20
7.8194181093
 11
-30.5595814584
 21
-20.721532839
  0
LINE
  5
25F
100
AcDbEntity
  8
ASSI
100
AcDbLine
 62
7
  6
CONTINUOUS
 10
-30.5595814584
 20
7.8194181093
 11
-30.5595814584
 21
-20.721532839
  0
LINE
  5
260
100
AcDbEntity
  8
RACCORDO
100
AcDbLine
 62
253
  6
CONTINUOUS
 10
-30.1202416302
 20
7.2890880235
 11
-30.1202416302
 21
-4.2402751768
  0
LINE
  5
261
100
AcDbEntity
  8
ASSI
100
AcDbLine
 62
253
  6
CONTINUOUS
 10
-30.1202416302
 20
7.2890880235
 11
-30.1202416302
 21
-4.2402751768
  0
LINE
  5
262
100
AcDbEntity
  8
RACCORDO
100
AcDbLine
 62
253
  6
CONTINUOUS
 10
-30.1202380024
 20
-9.722508206
 11
-30.1202416302
 21
-21.2518629249
  0
LINE
  5
263
100
AcDbEntity
  8
ASSI
100
AcDbLine
 62
253
  6
CONTINUOUS
 10
-30.1202380024
 20
-9.722508206
 11
-30.1202416302
 21
-21.2518629249
  0
LINE
  5
264
100
AcDbEntity
  8
RACCORDO
100
AcDbLine
 62
7
  6
CONTINUOUS
 10
-29.8884784649
 20
9.0632701247
 11
-29.8884784649
 21
10.3574285499
  0
LINE
  5
265
100
AcDbEntity
  8
ASSI
100
AcDbLine
 62
7
  6
CONTINUOUS
 10
-29.8884784649
 20
9.0632701247
 11
-29.8884784649
 21
10.3574285499
  0
LINE
  5
266
100
AcDbEntity
  8
RACCORDO
100
AcDbLine
 62
253
  6
CONTINUOUS
 10
-29.7420318555
 20
9.1504687437
 11
-29.7420318555
 21
10.1806518546
  0
LINE
  5
267
100
AcDbEntity
  8
ASSI
100
AcDbLine
 62
253
  6
CONTINUOUS
 10
-29.7420318555
 20
9.1504687437
 11
-29.7420318555
 21
10.1806518546
  0
LINE
  5
268
100
AcDbEntity
  8
RACCORDO
100
AcDbLine
 62
253
  6
CONTINUOUS
 10
-23.5892529152
 20
10.405150139
 11
-24.0461183836
 21
9.8604120931
  0
LINE
  5
269
100
AcDbEntity
  8
ASSI
100
AcDbLine
 62
253
  6
CONTINUOUS
 10
-23.5892529152
 20
10.405150139
 11
-24.0461183836
 21
9.8604120931
  0
LINE
  5
26A
100
AcDbEntity
  8
RACCORDO
100
AcDbLine
 62
253
  6
CONTINUOUS
 10
-23.3307792026
 20
10.2759132827
 11
-23.6168829047
 21
9.934780975
  0
LINE
  5
26B
100
AcDbEntity
  8
ASSI
100
AcDbLine
 62
253
  6
CONTINUOUS
 10
-23.3307792026
 20
10.2759132827
 11
-23.6168829047
 21
9.934780975
  0
LINE
  5
26C
100
AcDbEntity
  8
RACCORDO
100
AcDbLine
 62
7
  6
CONTINUOUS
 10
-18.1294499556
 20
11.3878250873
 11
-18.4098243371
 21
11.2451695656
  0
LINE
  5
26D
100
AcDbEntity
  8
ASSI
100
AcDbLine
 62
7
  6
CONTINUOUS
 10
-18.1294499556
 20
11.3878250873
 11
-18.4098243371
 21
11.2451695656
  0
LINE
  5
26E
100
AcDbEntity
  8
RACCORDO
100
AcDbLine
 62
7
  6
CONTINUOUS
 10
-23.1336383428
 20
10.1773428528
 11
-23.6168829047
 21
9.934780975
  0
LINE
  5
26F
100
AcDbEntity
  8
ASSI
100
AcDbLine
 62
7
  6
CONTINUOUS
 10
-23.1336383428
 20
10.1773428528
 11
-23.6168829047
 21
9.934780975
  0
LINE
  5
270
100
AcDbEntity
  8
0
100
AcDbLine
 62
253
  6
CONTINUOUS
 10
-12.5287502352
 20
12.8570834267
 11
-12.659223342
 21
12.8023434588
  0
LINE
  5
271
100
AcDbEntity
  8
0
100
AcDbLine
 62
253
  6
CONTINUOUS
 10
-9.6320170277
 20
14.9383642432
 11
-9.9137834383
 21
14.8276726729
  0
LINE
  5
272
100
AcDbEntity
  8
SMUSSO
100
AcDbLine
 62
7
  6
CONTINUOUS
 10
-9.6462212071
 20
14.7324192959
 11
-9.9279876177
 21
14.6217277256
  0
LINE
  5
273
100
AcDbEntity
  8
SMUSSO
100
AcDbLine
 62
7
  6
CONTINUOUS
 10
-9.8768417665
 20
14.5704220759
 11
-10.1586081771
 21
14.4597305055
  0
LINE
  5
274
100
AcDbEntity
  8
0
100
AcDbLine
 62
7
  6
CONTINUOUS
 10
-9.0252672046
 20
-24.236202062
 11
-9.1792800335
 21
-24.1591956476
  0
LINE
  5
275
100
AcDbEntity
  8
RACCORDO
100
AcDbLine
 62
7
  6
CONTINUOUS
 10
-13.4923840976
 20
16.0502130137
 11
-15.7929986842
 21
13.9297055405
  0
LINE
  5
276
100
AcDbEntity
  8
SMUSSO
100
AcDbLine
 62
7
  6
CONTINUOUS
 10
-9.9279876177
 20
14.6217277256
 11
-10.1586081771
 21
14.4597305055
  0
LINE
  5
277
100
AcDbEntity
  8
SMUSSO
100
AcDbLine
 62
7
  6
CONTINUOUS
 10
-9.6462212071
 20
14.7324192959
 11
-9.8768417665
 21
14.5704220759
  0
LINE
  5
278
100
AcDbEntity
  8
RACCORDO
100
AcDbLine
 62
7
  6
CONTINUOUS
 10
-16.0821795407
 20
10.3641898799
 11
-16.3625539222
 21
10.2215343582
  0
LINE
  5
279
100
AcDbEntity
  8
ASSI
100
AcDbLine
 62
7
  6
CONTINUOUS
 10
-16.0821795407
 20
10.3641898799
 11
-16.3625539222
 21
10.2215343582
  0
LINE
  5
27A
100
AcDbEntity
  8
RACCORDO
100
AcDbLine
 62
7
  6
CONTINUOUS
 10
-13.3515769275
 20
12.295064984
 11
-12.4457519874
 21
12.7461852018
  0
LINE
  5
27B
100
AcDbEntity
  8
ASSI
100
AcDbLine
 62
7
  6
CONTINUOUS
 10
-13.3515769275
 20
12.295064984
 11
-12.4457519874
 21
12.7461852018
  0
LINE
  5
27C
100
AcDbEntity
  8
0
100
AcDbLine
 62
253
  6
CONTINUOUS
 10
-9.3092266263
 20
-23.8887587474
 11
-9.1552137974
 21
-23.9657651618
  0
LINE
  5
27D
100
AcDbEntity
  8
0
100
AcDbLine
 62
7
  6
CONTINUOUS
 10
-9.4573232849
 20
-23.2001293295
 11
-9.6296124325
 21
-23.1139847558
  0
LINE
  5
27E
100
AcDbEntity
  8
0
100
AcDbLine
 62
253
  6
CONTINUOUS
 10
-9.6296124325
 20
-22.908521152
 11
-9.3092266263
 21
-23.0687140551
  0
LINE
  5
27F
100
AcDbEntity
  8
RACCORDO
100
AcDbLine
 62
7
  6
CONTINUOUS
 10
-26.600175181
 20
11.4075145251
 11
-26.600175181
 21
10.925360355
  0
LINE
  5
280
100
AcDbEntity
  8
ASSI
100
AcDbLine
 62
7
  6
CONTINUOUS
 10
-26.600175181
 20
11.4075145251
 11
-26.600175181
 21
10.925360355
  0
LINE
  5
281
100
AcDbEntity
  8
RACCORDO
100
AcDbLine
 62
253
  6
CONTINUOUS
 10
-26.3299414229
 20
10.3534684179
 11
-26.3299414229
 21
11.2723976461
  0
LINE
  5
282
100
AcDbEntity
  8
ASSI
100
AcDbLine
 62
253
  6
CONTINUOUS
 10
-26.3299414229
 20
10.3534684179
 11
-26.3299414229
 21
11.2723976461
  0
LINE
  5
283
100
AcDbEntity
  8
RACCORDO
100
AcDbLine
 62
253
  6
CONTINUOUS
 10
-25.6259334002
 20
10.3556783693
 11
-25.6259334002
 21
11.3351344877
  0
LINE
  5
284
100
AcDbEntity
  8
ASSI
100
AcDbLine
 62
253
  6
CONTINUOUS
 10
-25.6259334002
 20
10.3556783693
 11
-25.6259334002
 21
11.3351344877
  0
LINE
  5
285
100
AcDbEntity
  8
RACCORDO
100
AcDbLine
 62
7
  6
CONTINUOUS
 10
-19.3901562
 20
7.6382498386
 11
-19.0569895388
 21
8.0454246863
  0
LINE
  5
286
100
AcDbEntity
  8
ASSI
100
AcDbLine
 62
7
  6
CONTINUOUS
 10
-19.3901562
 20
7.6382498386
 11
-19.0569895388
 21
8.0454246863
  0
LINE
  5
287
100
AcDbEntity
  8
RACCORDO
100
AcDbLine
 62
253
  6
CONTINUOUS
 10
-19.3849637058
 20
7.5298347542
 11
-19.0007444893
 21
7.9994027489
  0
LINE
  5
288
100
AcDbEntity
  8
ASSI
100
AcDbLine
 62
253
  6
CONTINUOUS
 10
-19.3849637058
 20
7.5298347542
 11
-19.0007444893
 21
7.9994027489
  0
LINE
  5
289
100
AcDbEntity
  8
SMUSSO
100
AcDbLine
 62
7
  6
CONTINUOUS
 10
-10.467247651
 20
15.3199607054
 11
-15.6592821649
 21
10.5343925133
  0
LINE
  5
28A
100
AcDbEntity
  8
SMUSSO
100
AcDbLine
 62
7
  6
CONTINUOUS
 10
-10.3751630711
 20
15.0384657529
 11
-15.567197585
 21
10.2528975608
  0
LINE
  5
28B
100
AcDbEntity
  8
RACCORDO
100
AcDbLine
 62
7
  6
CONTINUOUS
 10
-13.2083421302
 20
9.661345468
 11
-17.7674842011
 21
7.2924791735
  0
LINE
  5
28C
100
AcDbEntity
  8
ASSI
100
AcDbLine
 62
7
  6
CONTINUOUS
 10
-13.2083421302
 20
9.661345468
 11
-17.7674842011
 21
7.2924791735
  0
LINE
  5
28D
100
AcDbEntity
  8
DRAFT
100
AcDbLine
 62
7
  6
CONTINUOUS
 10
-7.6008544998
 20
12.4842257211
 11
-13.2083421302
 21
9.661345468
  0
LINE
  5
28E
100
AcDbEntity
  8
ASSI
100
AcDbLine
 62
7
  6
CONTINUOUS
 10
-7.6008544998
 20
12.4842257211
 11
-13.2083421302
 21
9.661345468
  0
LINE
  5
28F
100
AcDbEntity
  8
ASSI
100
AcDbLine
 62
7
  6
CONTINUOUS
 10
-6.9037902819
 20
11.8694176043
 11
-12.2459075229
 21
9.1801281644
  0
LINE
  5
290
100
AcDbEntity
  8
RACCORDO
100
AcDbLine
 62
7
  6
CONTINUOUS
 10
-15.3873603294
 20
9.2379815398
 11
-7.6008544998
 21
13.115828186
  0
LINE
  5
291
100
AcDbEntity
  8
ASSI
100
AcDbLine
 62
7
  6
CONTINUOUS
 10
-15.3873603294
 20
9.2379815398
 11
-7.6008544998
 21
13.115828186
  0
LINE
  5
292
100
AcDbEntity
  8
SMUSSO
100
AcDbLine
 62
7
  6
CONTINUOUS
 10
-24.1445635391
 20
14.7770332005
 11
-24.1290955778
 21
14.3876478984
  0
LINE
  5
293
100
AcDbEntity
  8
0
100
AcDbLine
 62
253
  6
CONTINUOUS
 10
-12.8662017521
 20
12.5367922153
 11
-12.659223342
 21
12.8023434588
  0
LINE
  5
294
100
AcDbEntity
  8
0
100
AcDbLine
 62
7
  6
CONTINUOUS
 10
-8.5255678815
 20
10.6549216457
 11
-9.2200750219
 21
10.2222143109
  0
LINE
  5
295
100
AcDbEntity
  8
0
100
AcDbLine
 62
253
  6
CONTINUOUS
 10
-8.9741767905
 20
10.2210096875
 11
-8.2865990446
 21
10.6494053183
  0
LINE
  5
296
100
AcDbEntity
  8
0
100
AcDbLine
 62
253
  6
CONTINUOUS
 10
-8.0788020407
 20
10.5455068163
 11
-8.8201639616
 21
10.144003273
  0
LINE
  5
297
100
AcDbEntity
  8
0
100
AcDbLine
 62
253
  6
CONTINUOUS
 10
-8.5705065779
 20
9.8925219084
 11
-7.8291445615
 21
10.2940255034
  0
LINE
  5
298
100
AcDbEntity
  8
DRAFT
100
AcDbLine
 62
7
  6
CONTINUOUS
 10
-11.6265253588
 20
8.7134548566
 11
-9.4683405282
 21
9.8224927105
  0
LINE
  5
299
100
AcDbEntity
  8
ASSI
100
AcDbLine
 62
7
  6
CONTINUOUS
 10
-11.6265253588
 20
8.7134548566
 11
-9.4683405282
 21
9.8224927105
  0
LINE
  5
29A
100
AcDbEntity
  8
DRAFT
100
AcDbLine
 62
7
  6
CONTINUOUS
 10
-8.0751577002
 20
10.5384149392
 11
-6.8994483003
 21
11.1425829471
  0
LINE
  5
29B
100
AcDbEntity
  8
ASSI
100
AcDbLine
 62
7
  6
CONTINUOUS
 10
-8.0751577002
 20
10.5384149392
 11
-6.8994483003
 21
11.1425829471
  0
LINE
  5
29C
100
AcDbEntity
  8
RACCORDO
100
AcDbLine
 62
253
  6
CONTINUOUS
 10
-16.5132785984
 20
6.6653763722
 11
-11.8973738092
 21
9.0058613076
  0
LINE
  5
29D
100
AcDbEntity
  8
ASSI
100
AcDbLine
 62
253
  6
CONTINUOUS
 10
-16.5132785984
 20
6.6653763722
 11
-11.8973738092
 21
9.0058613076
  0
LINE
  5
29E
100
AcDbEntity
  8
RACCORDO
100
AcDbLine
 62
253
  6
CONTINUOUS
 10
-16.2632881176
 20
6.4135594769
 11
-11.6473833284
 21
8.7540444123
  0
LINE
  5
29F
100
AcDbEntity
  8
ASSI
100
AcDbLine
 62
253
  6
CONTINUOUS
 10
-16.2632881176
 20
6.4135594769
 11
-11.6473833284
 21
8.7540444123
  0
LINE
  5
2A0
100
AcDbEntity
  8
RACCORDO
100
AcDbLine
 62
253
  6
CONTINUOUS
 10
-19.2002773239
 20
4.1794987957
 11
-17.4077466388
 21
5.0792494465
  0
LINE
  5
2A1
100
AcDbEntity
  8
ASSI
100
AcDbLine
 62
253
  6
CONTINUOUS
 10
-19.2002773239
 20
4.1794987957
 11
-17.4077466388
 21
5.0792494465
  0
LINE
  5
2A2
100
AcDbEntity
  8
0
100
AcDbLine
 62
253
  6
CONTINUOUS
 10
-6.8838844133
 20
8.6636929106
 11
-7.6986132192
 21
8.3887283096
  0
LINE
  5
2A3
100
AcDbEntity
  8
0
100
AcDbLine
 62
253
  6
CONTINUOUS
 10
-7.6219385235
 20
8.0200391457
 11
-6.7796308953
 21
8.3043546244
  0
LINE
  5
2A4
100
AcDbEntity
  8
RACCORDO
100
AcDbLine
 62
7
  6
CONTINUOUS
 10
-22.4843997012
 20
13.5652999602
 11
-22.4843997012
 21
13.1998510879
  0
LINE
  5
2A5
100
AcDbEntity
  8
ASSI
100
AcDbLine
 62
7
  6
CONTINUOUS
 10
-22.4843997012
 20
13.5652999602
 11
-22.4843997012
 21
13.1998510879
  0
LINE
  5
2A6
100
AcDbEntity
  8
0
100
AcDbLine
 62
253
  6
CONTINUOUS
 10
-8.6723589362
 20
7.5484670754
 11
-9.3248644943
 21
7.2061773626
  0
LINE
  5
2A7
100
AcDbEntity
  8
RACCORDO
100
AcDbLine
 62
253
  6
CONTINUOUS
 10
-18.1396575388
 20
2.3502002609
 11
-16.3471268538
 21
3.2499509117
  0
LINE
  5
2A8
100
AcDbEntity
  8
ASSI
100
AcDbLine
 62
253
  6
CONTINUOUS
 10
-18.1396575388
 20
2.3502002609
 11
-16.3471268538
 21
3.2499509117
  0
LINE
  5
2A9
100
AcDbEntity
  8
0
100
AcDbLine
 62
7
  6
CONTINUOUS
 10
-6.5181272158
 20
8.6550072661
 11
-6.8139389175
 21
8.5070748597
  0
LINE
  5
2AA
100
AcDbEntity
  8
0
100
AcDbLine
 62
253
  6
CONTINUOUS
 10
1.3177919788
 20
12.4564023631
 11
-6.5181272158
 21
8.6550072661
  0
LINE
  5
2AB
100
AcDbEntity
  8
RACCORDO
100
AcDbLine
 62
253
  6
CONTINUOUS
 10
-27.9888640024
 20
-2.8427971043
 11
-27.9884038218
 21
-2.8425795236
  0
LINE
  5
2AC
100
AcDbEntity
  8
ASSI
100
AcDbLine
 62
253
  6
CONTINUOUS
 10
-27.9888640024
 20
-2.8427971043
 11
-27.9884038218
 21
-2.8425795236
  0
LINE
  5
2AD
100
AcDbEntity
  8
SMUSSO
100
AcDbLine
 62
7
  6
CONTINUOUS
 10
-10.1586081771
 20
-26.3904492826
 11
-9.9279876177
 21
-26.7460900119
  0
LINE
  5
2AE
100
AcDbEntity
  8
SMUSSO
100
AcDbLine
 62
7
  6
CONTINUOUS
 10
-9.8768417665
 20
-26.2193744423
 11
-9.6462212071
 21
-26.5750151717
  0
LINE
  5
2AF
100
AcDbEntity
  8
RACCORDO
100
AcDbLine
 62
253
  6
CONTINUOUS
 10
-20.3750652946
 20
-9.1478113525
 11
-20.3753699518
 21
-9.146910401
  0
LINE
  5
2B0
100
AcDbEntity
  8
ASSI
100
AcDbLine
 62
253
  6
CONTINUOUS
 10
-20.3750652946
 20
-9.1478113525
 11
-20.3753699518
 21
-9.146910401
  0
LWPOLYLINE
  5
2B1
100
AcDbEntity
  8
RACCORDO
100
AcDbPolyline
 62
7
  6
CONTINUOUS
 90
12
 70
0
 10
-20.3390246543
 20
-9.26200719
 10
-20.1828027479
 20
-9.7439174093
 10
-20.0302532365
 20
-10.2245047011
 10
-19.8950709817
 20
-10.7033768779
 10
-19.7911272496
 20
-11.1859637653
 10
-19.7345490312
 20
-11.6833403933
 10
-19.7437395768
 20
-12.2180456948
 10
-19.8289239016
 20
-12.7720052966
 10
-19.9674056749
 20
-13.288592141
 10
-20.1281733851
 20
-13.742873243
 10
-20.2946470271
 20
-14.1422803615
 10
-20.354095677
 20
-14.2748441778
  0
LWPOLYLINE
  5
2B2
100
AcDbEntity
  8
ASSI
100
AcDbPolyline
 62
7
  6
CONTINUOUS
 90
12
 70
0
 10
-20.3390246543
 20
-9.26200719
 10
-20.1828027479
 20
-9.7439174093
 10
-20.0302532365
 20
-10.2245047011
 10
-19.8950709817
 20
-10.7033768779
 10
-19.7911272496
 20
-11.1859637653
 10
-19.7345490312
 20
-11.6833403933
 10
-19.7437395768
 20
-12.2180456948
 10
-19.8289239016
 20
-12.7720052966
 10
-19.9674056749
 20
-13.288592141
 10
-20.1281733851
 20
-13.742873243
 10
-20.2946470271
 20
-14.1422803615
 10
-20.354095677
 20
-14.2748441778
  0
LINE
  5
2B3
100
AcDbEntity
  8
RACCORDO
100
AcDbLine
 62
7
  6
CONTINUOUS
 10
-20.3750711711
 20
-9.147813219
 11
-20.3390246543
 21
-9.26200719
  0
LINE
  5
2B4
100
AcDbEntity
  8
ASSI
100
AcDbLine
 62
7
  6
CONTINUOUS
 10
-20.3750711711
 20
-9.147813219
 11
-20.3390246543
 21
-9.26200719
  0
LINE
  5
2B5
100
AcDbEntity
  8
RACCORDO
100
AcDbLine
 62
253
  6
CONTINUOUS
 10
-20.2516852347
 20
-9.174546707
 11
-20.251681607
 21
2.3548080119
  0
LINE
  5
2B6
100
AcDbEntity
  8
ASSI
100
AcDbLine
 62
253
  6
CONTINUOUS
 10
-20.2516852347
 20
-9.174546707
 11
-20.251681607
 21
2.3548080119
  0
LINE
  5
2B7
100
AcDbEntity
  8
RACCORDO
100
AcDbLine
 62
253
  6
CONTINUOUS
 10
-20.251681607
 20
-26.1861429365
 11
-20.251681607
 21
-14.6567797362
  0
LINE
  5
2B8
100
AcDbEntity
  8
ASSI
100
AcDbLine
 62
253
  6
CONTINUOUS
 10
-20.251681607
 20
-26.1861429365
 11
-20.251681607
 21
-14.6567797362
  0
LINE
  5
2B9
100
AcDbEntity
  8
RACCORDO
100
AcDbLine
 62
7
  6
CONTINUOUS
 10
-19.2066927033
 20
15.4684350981
 11
-19.2066927033
 21
15.8148452596
  0
LINE
  5
2BA
100
AcDbEntity
  8
RACCORDO
100
AcDbLine
 62
253
  6
CONTINUOUS
 10
-19.1188247377
 20
15.3623690809
 11
-19.1188247377
 21
15.7087792425
  0
LINE
  5
2BB
100
AcDbEntity
  8
0
100
AcDbLine
 62
7
  6
CONTINUOUS
 10
-24.6177966868
 20
-8.4767244285
 11
-24.0832014106
 21
-7.6901300445
  0
LINE
  5
2BC
100
AcDbEntity
  8
0
100
AcDbLine
 62
253
  6
CONTINUOUS
 10
-8.6230283798
 20
5.9956891236
 11
-7.6219385235
 21
6.5208383045
  0
LINE
  5
2BD
100
AcDbEntity
  8
0
100
AcDbLine
 62
253
  6
CONTINUOUS
 10
-5.8112820359
 20
7.4358623134
 11
-5.8206387105
 21
7.4310542746
  0
LINE
  5
2BE
100
AcDbEntity
  8
0
100
AcDbLine
 62
7
  6
CONTINUOUS
 10
-24.1685432409
 20
-3.6291568211
 11
-27.3455815363
 21
-5.2176759688
  0
LINE
  5
2BF
100
AcDbEntity
  8
RACCORDO
100
AcDbLine
 62
253
  6
CONTINUOUS
 10
-9.7331618801
 20
5.4525007865
 11
-14.372578557
 21
3.152567859
  0
LINE
  5
2C0
100
AcDbEntity
  8
ASSI
100
AcDbLine
 62
253
  6
CONTINUOUS
 10
-9.7331618801
 20
5.4525007865
 11
-14.372578557
 21
3.152567859
  0
LINE
  5
2C1
100
AcDbEntity
  8
RACCORDO
100
AcDbLine
 62
253
  6
CONTINUOUS
 10
-9.6296124325
 20
5.0945515035
 11
-14.2690291094
 21
2.794618576
  0
LINE
  5
2C2
100
AcDbEntity
  8
ASSI
100
AcDbLine
 62
253
  6
CONTINUOUS
 10
-9.6296124325
 20
5.0945515035
 11
-14.2690291094
 21
2.794618576
  0
LINE
  5
2C3
100
AcDbEntity
  8
0
100
AcDbLine
 62
7
  6
CONTINUOUS
 10
-6.7796300621
 20
6.9626398976
 11
-5.8206387105
 21
7.4310542746
  0
LINE
  5
2C4
100
AcDbEntity
  8
0
100
AcDbLine
 62
253
  6
CONTINUOUS
 10
-5.8112357399
 20
7.4356820252
 11
3.3202427546
 21
11.8655443509
  0
LINE
  5
2C5
100
AcDbEntity
  8
RACCORDO
100
AcDbLine
 62
7
  6
CONTINUOUS
 10
-18.6148938067
 20
7.8318547798
 11
-18.6148938067
 21
6.6006958466
  0
LINE
  5
2C6
100
AcDbEntity
  8
ASSI
100
AcDbLine
 62
7
  6
CONTINUOUS
 10
-18.6148938067
 20
7.8318547798
 11
-18.6148938067
 21
6.6006958466
  0
LINE
  5
2C7
100
AcDbEntity
  8
RACCORDO
100
AcDbLine
 62
7
  6
CONTINUOUS
 10
-18.5315741742
 20
-27.0077001585
 11
-18.5315741742
 21
-27.4776755629
  0
LINE
  5
2C8
100
AcDbEntity
  8
ASSI
100
AcDbLine
 62
7
  6
CONTINUOUS
 10
-18.5315741742
 20
-27.0077001585
 11
-18.5315741742
 21
-27.4776755629
  0
LINE
  5
2C9
100
AcDbEntity
  8
RACCORDO
100
AcDbLine
 62
253
  6
CONTINUOUS
 10
-18.4684471973
 20
7.3416505333
 11
-18.4684471973
 21
6.4227213051
  0
LINE
  5
2CA
100
AcDbEntity
  8
ASSI
100
AcDbLine
 62
253
  6
CONTINUOUS
 10
-18.4684471973
 20
7.3416505333
 11
-18.4684471973
 21
6.4227213051
  0
LINE
  5
2CB
100
AcDbEntity
  8
RACCORDO
100
AcDbLine
 62
253
  6
CONTINUOUS
 10
-18.3851275648
 20
-26.9327170044
 11
-18.3851275648
 21
-27.3410254344
  0
LINE
  5
2CC
100
AcDbEntity
  8
ASSI
100
AcDbLine
 62
253
  6
CONTINUOUS
 10
-18.3851275648
 20
-26.9327170044
 11
-18.3851275648
 21
-27.3410254344
  0
LINE
  5
2CD
100
AcDbEntity
  8
RACCORDO
100
AcDbLine
 62
253
  6
CONTINUOUS
 10
-18.1396575388
 20
2.3502002609
 11
-18.1396575388
 21
-26.1907506874
  0
LINE
  5
2CE
100
AcDbEntity
  8
ASSI
100
AcDbLine
 62
253
  6
CONTINUOUS
 10
-18.1396575388
 20
2.3502002609
 11
-18.1396575388
 21
-26.1907506874
  0
LINE
  5
2CF
100
AcDbEntity
  8
RACCORDO
100
AcDbLine
 62
7
  6
CONTINUOUS
 10
-18.1148938067
 20
-27.4761423134
 11
-18.1148938067
 21
-26.9939881432
  0
LINE
  5
2D0
100
AcDbEntity
  8
ASSI
100
AcDbLine
 62
7
  6
CONTINUOUS
 10
-18.1148938067
 20
-27.4761423134
 11
-18.1148938067
 21
-26.9939881432
  0
LINE
  5
2D1
100
AcDbEntity
  8
RACCORDO
100
AcDbLine
 62
7
  6
CONTINUOUS
 10
-18.1148938067
 20
6.6827196679
 11
-18.1148938067
 21
7.164873838
  0
LINE
  5
2D2
100
AcDbEntity
  8
ASSI
100
AcDbLine
 62
7
  6
CONTINUOUS
 10
-18.1148938067
 20
6.6827196679
 11
-18.1148938067
 21
7.164873838
  0
LINE
  5
2D3
100
AcDbEntity
  8
0
100
AcDbLine
 62
7
  6
CONTINUOUS
 10
-17.2663656693
 20
16.9337433514
 11
-17.2663656693
 21
17.2893345807
  0
LINE
  5
2D4
100
AcDbEntity
  8
0
100
AcDbLine
 62
7
  6
CONTINUOUS
 10
-24.0676202371
 20
-9.5770773278
 11
-23.1175875642
 21
-9.6213577374
  0
LINE
  5
2D5
100
AcDbEntity
  8
RACCORDO
100
AcDbLine
 62
7
  6
CONTINUOUS
 10
-16.3471268538
 20
-25.32898634
 11
-16.3471268538
 21
3.2499509117
  0
LINE
  5
2D6
100
AcDbEntity
  8
ASSI
100
AcDbLine
 62
7
  6
CONTINUOUS
 10
-16.3471268538
 20
-25.32898634
 11
-16.3471268538
 21
3.2499509117
  0
LINE
  5
2D7
100
AcDbEntity
  8
RACCORDO
100
AcDbLine
 62
7
  6
CONTINUOUS
 10
-16.0821795407
 20
10.3641898799
 11
-16.0821795407
 21
9.7504473849
  0
LINE
  5
2D8
100
AcDbEntity
  8
ASSI
100
AcDbLine
 62
7
  6
CONTINUOUS
 10
-16.0821795407
 20
10.3641898799
 11
-16.0821795407
 21
9.7504473849
  0
LINE
  5
2D9
100
AcDbEntity
  8
RACCORDO
100
AcDbLine
 62
7
  6
CONTINUOUS
 10
-16.0821795407
 20
-27.9932107954
 11
-16.0821795407
 21
-28.6069532904
  0
LINE
  5
2DA
100
AcDbEntity
  8
ASSI
100
AcDbLine
 62
7
  6
CONTINUOUS
 10
-16.0821795407
 20
-27.9932107954
 11
-16.0821795407
 21
-28.6069532904
  0
LINE
  5
2DB
100
AcDbEntity
  8
RACCORDO
100
AcDbLine
 62
253
  6
CONTINUOUS
 10
-16.0075549004
 20
13.8282725639
 11
-16.0075549004
 21
14.1531443238
  0
LINE
  5
2DC
100
AcDbEntity
  8
RACCORDO
100
AcDbLine
 62
253
  6
CONTINUOUS
 10
-15.5832908317
 20
14.1229960947
 11
-15.5832908317
 21
14.1531443238
  0
LINE
  5
2DD
100
AcDbEntity
  8
0
100
AcDbLine
 62
7
  6
CONTINUOUS
 10
-23.6804209747
 20
-7.3764768629
 11
-23.7889495884
 21
-7.4307411698
  0
LINE
  5
2DE
100
AcDbEntity
  8
RACCORDO
100
AcDbLine
 62
253
  6
CONTINUOUS
 10
-22.3928898329
 20
13.4259299029
 11
-22.3576699392
 21
13.3182655976
  0
LINE
  5
2DF
100
AcDbEntity
  8
RACCORDO
100
AcDbLine
 62
253
  6
CONTINUOUS
 10
-14.9730371322
 20
2.796154493
 11
-14.9730371322
 21
-26.2492796429
  0
LINE
  5
2E0
100
AcDbEntity
  8
ASSI
100
AcDbLine
 62
253
  6
CONTINUOUS
 10
-14.9730371322
 20
2.796154493
 11
-14.9730371322
 21
-26.2492796429
  0
LINE
  5
2E1
100
AcDbEntity
  8
RACCORDO
100
AcDbLine
 62
253
  6
CONTINUOUS
 10
-14.2690291094
 20
2.794618576
 11
-14.2690291094
 21
-26.2508155599
  0
LINE
  5
2E2
100
AcDbEntity
  8
ASSI
100
AcDbLine
 62
253
  6
CONTINUOUS
 10
-14.2690291094
 20
2.794618576
 11
-14.2690291094
 21
-26.2508155599
  0
LINE
  5
2E3
100
AcDbEntity
  8
0
100
AcDbLine
 62
7
  6
CONTINUOUS
 10
-22.6259365999
 20
-9.4877952188
 11
-22.7335253711
 21
-9.5415896044
  0
LINE
  5
2E4
100
AcDbEntity
  8
SMUSSO
100
AcDbLine
 62
7
  6
CONTINUOUS
 10
-9.9279876177
 20
-26.7460900119
 11
-9.9137834383
 21
-26.9378307798
  0
LINE
  5
2E5
100
AcDbEntity
  8
SMUSSO
100
AcDbLine
 62
7
  6
CONTINUOUS
 10
-9.6462212071
 20
-26.5750151717
 11
-9.6320170277
 21
-26.7667559396
  0
LINE
  5
2E6
100
AcDbEntity
  8
0
100
AcDbLine
 62
7
  6
CONTINUOUS
 10
-12.5287502352
 20
12.8570834267
 11
-12.5287502352
 21
12.704850297
  0
LINE
  5
2E7
100
AcDbEntity
  8
RACCORDO
100
AcDbLine
 62
253
  6
CONTINUOUS
 10
-12.4519046577
 20
13.1447342152
 11
-12.451906714
 21
13.0766711298
  0
LINE
  5
2E8
100
AcDbEntity
  8
ASSI
100
AcDbLine
 62
253
  6
CONTINUOUS
 10
-12.4519052749
 20
13.1243044724
 11
-12.451906714
 21
13.0766711298
  0
LINE
  5
2E9
100
AcDbEntity
  8
SMUSSO
100
AcDbLine
 62
7
  6
CONTINUOUS
 10
-9.9279876177
 20
14.6217277256
 11
-9.9137834383
 21
14.8276726729
  0
LINE
  5
2EA
100
AcDbEntity
  8
RACCORDO
100
AcDbLine
 62
253
  6
CONTINUOUS
 10
-16.8637466928
 20
6.0571461109
 11
-14.9730371322
 21
2.796154493
  0
LINE
  5
2EB
100
AcDbEntity
  8
ASSI
100
AcDbLine
 62
253
  6
CONTINUOUS
 10
-16.8637466928
 20
6.0571461109
 11
-14.9730371322
 21
2.796154493
  0
LINE
  5
2EC
100
AcDbEntity
  8
RACCORDO
100
AcDbLine
 62
253
  6
CONTINUOUS
 10
-19.3285325901
 20
15.6974724935
 11
-19.2364480102
 21
15.415977541
  0
LINE
  5
2ED
100
AcDbEntity
  8
0
100
AcDbLine
 62
253
  6
CONTINUOUS
 10
-9.9457966363
 20
5.8192414919
 11
-9.9457966363
 21
6.0361411098
  0
LINE
  5
2EE
100
AcDbEntity
  8
RACCORDO
100
AcDbLine
 62
7
  6
CONTINUOUS
 10
-9.6296124325
 20
-23.9916064165
 11
-9.6296124325
 21
5.0945515035
  0
LINE
  5
2EF
100
AcDbEntity
  8
ASSI
100
AcDbLine
 62
7
  6
CONTINUOUS
 10
-9.6296124325
 20
-23.9916064165
 11
-9.6296124325
 21
5.0945515035
  0
LINE
  5
2F0
100
AcDbEntity
  8
0
100
AcDbLine
 62
7
  6
CONTINUOUS
 10
-9.4556732357
 20
-23.7119820521
 11
-9.4556732357
 21
-23.1968292311
  0
LINE
  5
2F1
100
AcDbEntity
  8
0
100
AcDbLine
 62
7
  6
CONTINUOUS
 10
-9.4556732357
 20
9.2833684227
 11
-9.4556732357
 21
9.7978421918
  0
LINE
  5
2F2
100
AcDbEntity
  8
0
100
AcDbLine
 62
253
  6
CONTINUOUS
 10
-9.3092266263
 20
9.6210654966
 11
-9.3092266263
 21
8.8010208042
  0
LINE
  5
2F3
100
AcDbEntity
  8
0
100
AcDbLine
 62
253
  6
CONTINUOUS
 10
-9.3092266263
 20
-23.0687140551
 11
-9.3092266263
 21
-23.8887587474
  0
LINE
  5
2F4
100
AcDbEntity
  8
SMUSSO
100
AcDbLine
 62
7
  6
CONTINUOUS
 10
-9.6462212071
 20
14.7324192959
 11
-9.6320170277
 21
14.9383642432
  0
LINE
  5
2F5
100
AcDbEntity
  8
SMUSSO
100
AcDbLine
 62
7
  6
CONTINUOUS
 10
-15.6592821649
 20
-28.3900493469
 11
-15.567197585
 21
-28.0164698145
  0
LINE
  5
2F6
100
AcDbEntity
  8
0
100
AcDbLine
 62
7
  6
CONTINUOUS
 10
-19.7406194653
 20
-12.0365178264
 11
-23.097052379
 21
-13.7147342833
  0
LINE
  5
2F7
100
AcDbEntity
  8
0
100
AcDbLine
 62
253
  6
CONTINUOUS
 10
-23.413679352
 20
-13.1508579529
 11
-23.413233891
 21
-13.1506474707
  0
LINE
  5
2F8
100
AcDbEntity
  8
RACCORDO
100
AcDbLine
 62
253
  6
CONTINUOUS
 10
-20.251681607
 20
2.3548080119
 11
-30.1202416302
 21
7.2890880235
  0
LINE
  5
2F9
100
AcDbEntity
  8
ASSI
100
AcDbLine
 62
253
  6
CONTINUOUS
 10
-20.251681607
 20
2.3548080119
 11
-30.1202416302
 21
7.2890880235
  0
LINE
  5
2FA
100
AcDbEntity
  8
RACCORDO
100
AcDbLine
 62
253
  6
CONTINUOUS
 10
-16.2632881176
 20
6.4135594769
 11
-14.372578557
 21
3.152567859
  0
LINE
  5
2FB
100
AcDbEntity
  8
ASSI
100
AcDbLine
 62
253
  6
CONTINUOUS
 10
-16.2632881176
 20
6.4135594769
 11
-14.372578557
 21
3.152567859
  0
LINE
  5
2FC
100
AcDbEntity
  8
SMUSSO
100
AcDbLine
 62
7
  6
CONTINUOUS
 10
-15.6592821649
 20
10.5343925133
 11
-15.567197585
 21
10.2528975608
  0
LINE
  5
2FD
100
AcDbEntity
  8
0
100
AcDbLine
 62
253
  6
CONTINUOUS
 10
-8.6230283798
 20
5.9956891236
 11
-8.6230283798
 21
-22.1118793929
  0
LINE
  5
2FE
100
AcDbEntity
  8
0
100
AcDbLine
 62
253
  6
CONTINUOUS
 10
-8.2833204387
 20
7.210940163
 11
-8.2833204387
 21
8.0402654833
  0
LINE
  5
2FF
100
AcDbEntity
  8
0
100
AcDbLine
 62
253
  6
CONTINUOUS
 10
-8.2833171382
 20
-23.3338625297
 11
-8.2833171382
 21
-22.5045455163
  0
LINE
  5
300
100
AcDbEntity
  8
0
100
AcDbLine
 62
253
  6
CONTINUOUS
 10
-7.6219385235
 20
8.0200391457
 11
-7.6219385235
 21
6.5208383045
  0
LINE
  5
301
100
AcDbEntity
  8
0
100
AcDbLine
 62
253
  6
CONTINUOUS
 10
-7.6219363105
 20
-21.8548908901
 11
-7.6219363105
 21
-23.3540909148
  0
LINE
  5
302
100
AcDbEntity
  8
DRAFT
100
AcDbLine
 62
7
  6
CONTINUOUS
 10
-7.6008544998
 20
13.115828186
 11
-7.6008544998
 21
12.4842257211
  0
LINE
  5
303
100
AcDbEntity
  8
ASSI
100
AcDbLine
 62
7
  6
CONTINUOUS
 10
-7.6008544998
 20
13.115828186
 11
-7.6008544998
 21
12.4842257211
  0
LINE
  5
304
100
AcDbEntity
  8
ASSI
100
AcDbLine
 62
7
  6
CONTINUOUS
 10
-6.9037902819
 20
11.8694176043
 11
-6.8981169547
 21
11.9286227875
  0
LINE
  5
305
100
AcDbEntity
  8
RACCORDO
100
AcDbLine
 62
253
  6
CONTINUOUS
 10
-19.2002773239
 20
4.1794987957
 11
-29.068837347
 21
9.1137788073
  0
LINE
  5
306
100
AcDbEntity
  8
ASSI
100
AcDbLine
 62
253
  6
CONTINUOUS
 10
-19.2002773239
 20
4.1794987957
 11
-29.068837347
 21
9.1137788073
  0
LINE
  5
307
100
AcDbEntity
  8
ASSI
100
AcDbLine
 62
7
  6
CONTINUOUS
 10
-6.9037902819
 20
11.7863898056
 11
-6.9037902819
 21
11.8694176043
  0
LINE
  5
308
100
AcDbEntity
  8
ASSI
100
AcDbLine
 62
7
  6
CONTINUOUS
 10
-6.8972008186
 20
11.1470427416
 11
-6.8972008186
 21
11.7863898056
  0
LINE
  5
309
100
AcDbEntity
  8
ASSI
100
AcDbLine
 62
7
  6
CONTINUOUS
 10
-6.8972008186
 20
11.8694176043
 11
-6.8972008186
 21
11.926453314
  0
LINE
  5
30A
100
AcDbEntity
  8
0
100
AcDbLine
 62
7
  6
CONTINUOUS
 10
-6.77962999
 20
-22.9803333176
 11
-6.7796334144
 21
8.3044530846
  0
LINE
  5
30B
100
AcDbEntity
  8
0
100
AcDbLine
 62
7
  6
CONTINUOUS
 10
-5.8112357399
 20
-21.1001935666
 11
-5.8112357399
 21
7.4356820252
  0
LINE
  5
30C
100
AcDbEntity
  8
RACCORDO
100
AcDbLine
 62
7
  6
CONTINUOUS
 10
-17.4077466388
 20
5.0792494465
 11
-27.3073223488
 21
10.0290373015
  0
LINE
  5
30D
100
AcDbEntity
  8
ASSI
100
AcDbLine
 62
7
  6
CONTINUOUS
 10
-17.4077466388
 20
5.0792494465
 11
-27.3073223488
 21
10.0290373015
  0
LINE
  5
30E
100
AcDbEntity
  8
RACCORDO
100
AcDbLine
 62
7
  6
CONTINUOUS
 10
-18.4684471973
 20
6.4227213051
 11
-26.3299414229
 21
10.3534684179
  0
LINE
  5
30F
100
AcDbEntity
  8
ASSI
100
AcDbLine
 62
7
  6
CONTINUOUS
 10
-18.4684471973
 20
6.4227213051
 11
-26.3299414229
 21
10.3534684179
  0
LINE
  5
310
100
AcDbEntity
  8
RACCORDO
100
AcDbLine
 62
253
  6
CONTINUOUS
 10
-27.8513222949
 20
11.550933912
 11
-26.600175181
 21
10.925360355
  0
LINE
  5
311
100
AcDbEntity
  8
ASSI
100
AcDbLine
 62
253
  6
CONTINUOUS
 10
-27.8513222949
 20
11.550933912
 11
-26.600175181
 21
10.925360355
  0
LINE
  5
312
100
AcDbEntity
  8
RACCORDO
100
AcDbLine
 62
253
  6
CONTINUOUS
 10
-18.1148938067
 20
6.6827196679
 11
-16.8637466928
 21
6.0571461109
  0
LINE
  5
313
100
AcDbEntity
  8
ASSI
100
AcDbLine
 62
253
  6
CONTINUOUS
 10
-18.1148938067
 20
6.6827196679
 11
-16.8637466928
 21
6.0571461109
  0
LINE
  5
314
100
AcDbEntity
  8
RACCORDO
100
AcDbLine
 62
7
  6
CONTINUOUS
 10
-18.6148938067
 20
7.1447998047
 11
-19.3849637058
 21
7.5298347542
  0
LINE
  5
315
100
AcDbEntity
  8
ASSI
100
AcDbLine
 62
7
  6
CONTINUOUS
 10
-18.6148938067
 20
7.1447998047
 11
-19.3849637058
 21
7.5298347542
  0
LINE
  5
316
100
AcDbEntity
  8
RACCORDO
100
AcDbLine
 62
7
  6
CONTINUOUS
 10
-24.0461183836
 20
9.8604120931
 11
-25.3318639422
 21
10.5032848724
  0
LINE
  5
317
100
AcDbEntity
  8
ASSI
100
AcDbLine
 62
7
  6
CONTINUOUS
 10
-24.0461183836
 20
9.8604120931
 11
-25.3318639422
 21
10.5032848724
  0
LINE
  5
318
100
AcDbEntity
  8
RACCORDO
100
AcDbLine
 62
7
  6
CONTINUOUS
 10
-20.0659238167
 20
8.618993734
 11
-19.0740815712
 21
8.0594100673
  0
LINE
  5
319
100
AcDbEntity
  8
ASSI
100
AcDbLine
 62
7
  6
CONTINUOUS
 10
-20.0659238167
 20
8.618993734
 11
-19.0740815712
 21
8.0594100673
  0
LINE
  5
31A
100
AcDbEntity
  8
RACCORDO
100
AcDbLine
 62
7
  6
CONTINUOUS
 10
-11.6473833284
 20
8.7540444123
 11
-9.7331618801
 21
5.4525007865
  0
LINE
  5
31B
100
AcDbEntity
  8
ASSI
100
AcDbLine
 62
7
  6
CONTINUOUS
 10
-11.6473833284
 20
8.7540444123
 11
-9.7331618801
 21
5.4525007865
  0
LINE
  5
31C
100
AcDbEntity
  8
0
100
AcDbLine
 62
253
  6
CONTINUOUS
 10
-3.2284276493
 20
-18.4124319295
 11
-3.2284276493
 21
-12.3641679943
  0
LINE
  5
31D
100
AcDbEntity
  8
0
100
AcDbLine
 62
253
  6
CONTINUOUS
 10
-10.467247651
 20
-27.9835830251
 11
-10.3751630711
 21
-27.6100034926
  0
LINE
  5
31E
100
AcDbEntity
  8
RACCORDO
100
AcDbLine
 62
7
  6
CONTINUOUS
 10
-25.431901117
 20
11.2383648156
 11
-24.5226566256
 21
10.8421034814
  0
LINE
  5
31F
100
AcDbEntity
  8
ASSI
100
AcDbLine
 62
7
  6
CONTINUOUS
 10
-25.431901117
 20
11.2383648156
 11
-24.5226566256
 21
10.8421034814
  0
LINE
  5
320
100
AcDbEntity
  8
RACCORDO
100
AcDbLine
 62
7
  6
CONTINUOUS
 10
-25.4319701533
 20
11.2383951763
 11
-25.4394286159
 21
11.2418820955
  0
LINE
  5
321
100
AcDbEntity
  8
ASSI
100
AcDbLine
 62
7
  6
CONTINUOUS
 10
-25.4319701533
 20
11.2383951763
 11
-25.4394286159
 21
11.2418820955
  0
LINE
  5
322
100
AcDbEntity
  8
RACCORDO
100
AcDbLine
 62
253
  6
CONTINUOUS
 10
-18.1148938067
 20
7.164873838
 11
-18.4684471973
 21
7.3416505333
  0
LINE
  5
323
100
AcDbEntity
  8
ASSI
100
AcDbLine
 62
253
  6
CONTINUOUS
 10
-18.1148938067
 20
7.164873838
 11
-18.4684471973
 21
7.3416505333
  0
LINE
  5
324
100
AcDbEntity
  8
RACCORDO
100
AcDbLine
 62
253
  6
CONTINUOUS
 10
-26.3299414229
 20
11.2723976461
 11
-26.600175181
 21
11.4075145251
  0
LINE
  5
325
100
AcDbEntity
  8
ASSI
100
AcDbLine
 62
253
  6
CONTINUOUS
 10
-26.3299414229
 20
11.2723976461
 11
-26.600175181
 21
11.4075145251
  0
LINE
  5
326
100
AcDbEntity
  8
RACCORDO
100
AcDbLine
 62
253
  6
CONTINUOUS
 10
-27.5008542005
 20
12.1591641732
 11
-26.5831434666
 21
11.7003088063
  0
LINE
  5
327
100
AcDbEntity
  8
ASSI
100
AcDbLine
 62
253
  6
CONTINUOUS
 10
-27.5008542005
 20
12.1591641732
 11
-26.5831434666
 21
11.7003088063
  0
LINE
  5
328
100
AcDbEntity
  8
RACCORDO
100
AcDbLine
 62
253
  6
CONTINUOUS
 10
-17.7674842011
 20
7.2924791735
 11
-16.5132785984
 21
6.6653763722
  0
LINE
  5
329
100
AcDbEntity
  8
ASSI
100
AcDbLine
 62
253
  6
CONTINUOUS
 10
-17.7674842011
 20
7.2924791735
 11
-16.5132785984
 21
6.6653763722
  0
LINE
  5
32A
100
AcDbEntity
  8
RACCORDO
100
AcDbLine
 62
7
  6
CONTINUOUS
 10
-18.6130801759
 20
7.8287078756
 11
-19.0676904355
 21
8.0560130053
  0
LINE
  5
32B
100
AcDbEntity
  8
ASSI
100
AcDbLine
 62
7
  6
CONTINUOUS
 10
-18.6130801759
 20
7.8287078756
 11
-19.0676904355
 21
8.0560130053
  0
LINE
  5
32C
100
AcDbEntity
  8
RACCORDO
100
AcDbLine
 62
7
  6
CONTINUOUS
 10
-25.4394640036
 20
11.2418997894
 11
-25.97739334
 21
11.5108644576
  0
LINE
  5
32D
100
AcDbEntity
  8
ASSI
100
AcDbLine
 62
7
  6
CONTINUOUS
 10
-25.4394640036
 20
11.2418997894
 11
-25.97739334
 21
11.5108644576
  0
LINE
  5
32E
100
AcDbEntity
  8
RACCORDO
100
AcDbLine
 62
7
  6
CONTINUOUS
 10
-18.5846429739
 20
7.8494252555
 11
-19.1363829912
 21
8.1252952642
  0
LINE
  5
32F
100
AcDbEntity
  8
ASSI
100
AcDbLine
 62
7
  6
CONTINUOUS
 10
-18.5846429739
 20
7.8494252555
 11
-19.1363829912
 21
8.1252952642
  0
LINE
  5
330
100
AcDbEntity
  8
RACCORDO
100
AcDbLine
 62
7
  6
CONTINUOUS
 10
-25.5126051175
 20
11.3134063273
 11
-26.1476647674
 21
11.6309361522
  0
LINE
  5
331
100
AcDbEntity
  8
ASSI
100
AcDbLine
 62
7
  6
CONTINUOUS
 10
-25.5126051175
 20
11.3134063273
 11
-26.1476647674
 21
11.6309361522
  0
LINE
  5
332
100
AcDbEntity
  8
0
100
AcDbLine
 62
7
  6
CONTINUOUS
 10
-23.8264242833
 20
10.5237358231
 11
-20.1220342692
 21
8.671540816
  0
LINE
  5
333
100
AcDbEntity
  8
RACCORDO
100
AcDbLine
 62
7
  6
CONTINUOUS
 10
-19.067732885
 20
8.0560344292
 11
-19.0740720858
 21
8.0594047158
  0
LINE
  5
334
100
AcDbEntity
  8
ASSI
100
AcDbLine
 62
7
  6
CONTINUOUS
 10
-19.067732885
 20
8.0560344292
 11
-19.0740720858
 21
8.0594047158
  0
LINE
  5
335
100
AcDbEntity
  8
0
100
AcDbLine
 62
253
  6
CONTINUOUS
 10
-10.467247651
 20
15.3199607054
 11
-10.3751630711
 21
15.0384657529
  0
LINE
  5
336
100
AcDbEntity
  8
0
100
AcDbLine
 62
7
  6
CONTINUOUS
 10
-2.9478228177
 20
-12.3055133714
 11
-2.9478228177
 21
-18.0657411468
  0
LINE
  5
337
100
AcDbEntity
  8
0
100
AcDbLine
 62
253
  6
CONTINUOUS
 10
0.3889226536
 20
-10.334282938
 11
-3.2284276493
 21
-12.3641679943
  0
LINE
  5
338
100
AcDbEntity
  8
0
100
AcDbLine
 62
7
  6
CONTINUOUS
 10
-3.0089788283
 20
-12.3398398725
 11
0.3296290145
 21
-10.4658993593
  0
LINE
  5
339
100
AcDbEntity
  8
0
100
AcDbLine
 62
253
  6
CONTINUOUS
 10
-19.379977449
 20
10.3913491331
 11
-23.4811967799
 21
12.4419587985
  0
LINE
  5
33A
100
AcDbEntity
  8
0
100
AcDbLine
 62
253
  6
CONTINUOUS
 10
-9.9457966363
 20
6.0361411098
 11
-10.1228944328
 21
6.124690008
  0
LINE
  5
33B
100
AcDbEntity
  8
RACCORDO
100
AcDbLine
 62
253
  6
CONTINUOUS
 10
-15.3873603294
 20
9.2379815398
 11
-16.0630806325
 21
9.5758416914
  0
LINE
  5
33C
100
AcDbEntity
  8
ASSI
100
AcDbLine
 62
253
  6
CONTINUOUS
 10
-15.3873603294
 20
9.2379815398
 11
-16.0630806325
 21
9.5758416914
  0
LINE
  5
33D
100
AcDbEntity
  8
RACCORDO
100
AcDbLine
 62
7
  6
CONTINUOUS
 10
-22.4843997012
 20
13.2362321745
 11
-22.4555333274
 21
13.2217989875
  0
LINE
  5
33E
100
AcDbEntity
  8
0
100
AcDbLine
 62
253
  6
CONTINUOUS
 10
-18.4231731872
 20
11.2373451234
 11
-22.430360343
 21
13.2409387013
  0
LINE
  5
33F
100
AcDbEntity
  8
0
100
AcDbLine
 62
253
  6
CONTINUOUS
 10
-18.4180425357
 20
11.2403524601
 11
-22.4262005588
 21
13.2444314716
  0
LINE
  5
340
100
AcDbEntity
  8
RACCORDO
100
AcDbLine
 62
253
  6
CONTINUOUS
 10
-16.3625539222
 20
10.2215343582
 11
-18.4098243371
 21
11.2451695656
  0
LINE
  5
341
100
AcDbEntity
  8
ASSI
100
AcDbLine
 62
253
  6
CONTINUOUS
 10
-16.3625539222
 20
10.2215343582
 11
-18.4098243371
 21
11.2451695656
  0
LINE
  5
342
100
AcDbEntity
  8
RACCORDO
100
AcDbLine
 62
253
  6
CONTINUOUS
 10
-22.7697107447
 20
13.4251127694
 11
-24.8169811595
 21
14.4487479768
  0
LINE
  5
343
100
AcDbEntity
  8
ASSI
100
AcDbLine
 62
253
  6
CONTINUOUS
 10
-22.7697107447
 20
13.4251127694
 11
-24.8169811595
 21
14.4487479768
  0
LINE
  5
344
100
AcDbEntity
  8
RACCORDO
100
AcDbLine
 62
7
  6
CONTINUOUS
 10
-22.4843997012
 20
13.471684837
 11
-22.3928898329
 21
13.4259299029
  0
LINE
  5
345
100
AcDbEntity
  8
DRAFT
100
AcDbLine
 62
7
  6
CONTINUOUS
 10
-24.5316701161
 20
14.5889351676
 11
-22.4843997012
 21
13.5652999602
  0
LINE
  5
346
100
AcDbEntity
  8
ASSI
100
AcDbLine
 62
7
  6
CONTINUOUS
 10
-24.5316701161
 20
14.5889351676
 11
-22.4843997012
 21
13.5652999602
  0
LINE
  5
347
100
AcDbEntity
  8
DRAFT
100
AcDbLine
 62
7
  6
CONTINUOUS
 10
-18.1294499556
 20
11.3878250873
 11
-16.0821795407
 21
10.3641898799
  0
LINE
  5
348
100
AcDbEntity
  8
ASSI
100
AcDbLine
 62
7
  6
CONTINUOUS
 10
-18.1294499556
 20
11.3878250873
 11
-16.0821795407
 21
10.3641898799
  0
LINE
  5
349
100
AcDbEntity
  8
0
100
AcDbLine
 62
253
  6
CONTINUOUS
 10
-9.1552137974
 20
9.5440590821
 11
-8.2833204387
 21
8.0402654833
  0
LINE
  5
34A
100
AcDbEntity
  8
0
100
AcDbLine
 62
253
  6
CONTINUOUS
 10
-8.5705065779
 20
9.8925219084
 11
-7.6986132192
 21
8.3887283096
  0
LINE
  5
34B
100
AcDbEntity
  8
0
100
AcDbLine
 62
7
  6
CONTINUOUS
 10
-6.8839291795
 20
8.6637698664
 11
-7.8291446834
 21
10.2940254374
  0
LINE
  5
34C
100
AcDbEntity
  8
0
100
AcDbLine
 62
253
  6
CONTINUOUS
 10
-11.3317195182
 20
8.2096048745
 11
-9.3248644943
 21
7.2061773626
  0
LINE
  5
34D
100
AcDbEntity
  8
RACCORDO
100
AcDbLine
 62
7
  6
CONTINUOUS
 10
-11.8973738092
 20
9.0058613076
 11
-12.2459075229
 21
9.1801281644
  0
LINE
  5
34E
100
AcDbEntity
  8
DRAFT
100
AcDbLine
 62
7
  6
CONTINUOUS
 10
-12.2459075229
 20
9.1801281644
 11
-13.2083421302
 21
9.661345468
  0
LINE
  5
34F
100
AcDbEntity
  8
ASSI
100
AcDbLine
 62
7
  6
CONTINUOUS
 10
-11.8973738092
 20
9.0058613076
 11
-13.2083421302
 21
9.661345468
  0
LINE
  5
350
100
AcDbEntity
  8
0
100
AcDbLine
 62
7
  6
CONTINUOUS
 10
-8.6723589362
 20
7.5484670754
 11
-11.3187010795
 21
8.8716381471
  0
LINE
  5
351
100
AcDbEntity
  8
0
100
AcDbLine
 62
253
  6
CONTINUOUS
 10
-9.3092266263
 20
8.8010208042
 11
-10.3973650003
 21
9.3450899912
  0
LINE
  5
352
100
AcDbEntity
  8
RACCORDO
100
AcDbLine
 62
7
  6
CONTINUOUS
 10
-12.2897120648
 20
12.9359060108
 11
-12.2666366601
 21
12.911520342
  0
LINE
  5
353
100
AcDbEntity
  8
ASSI
100
AcDbLine
 62
7
  6
CONTINUOUS
 10
-12.2897120648
 20
12.9359060108
 11
-12.2666366601
 21
12.911520342
  0
LINE
  5
354
100
AcDbEntity
  8
SMUSSO
100
AcDbLine
 62
7
  6
CONTINUOUS
 10
-16.0821795407
 20
10.154561639
 11
-15.567197585
 21
10.2528975608
  0
LINE
  5
355
100
AcDbEntity
  8
SMUSSO
100
AcDbLine
 62
7
  6
CONTINUOUS
 10
-16.2116393478
 20
10.4289197834
 11
-15.6592821649
 21
10.5343925133
  0
LINE
  5
356
100
AcDbEntity
  8
0
100
AcDbLine
 62
253
  6
CONTINUOUS
 10
-9.6215633797
 20
9.7437552734
 11
-9.4556732357
 21
9.6608102014
  0
LINE
  5
357
100
AcDbEntity
  8
0
100
AcDbLine
 62
253
  6
CONTINUOUS
 10
-9.1552137974
 20
9.5440590821
 11
-9.3092266263
 21
9.6210654966
  0
LINE
  5
358
100
AcDbEntity
  8
0
100
AcDbLine
 62
7
  6
CONTINUOUS
 10
-6.5181272158
 20
8.6550072661
 11
-7.0261125753
 21
8.9089999459
  0
LINE
  5
359
100
AcDbEntity
  8
0
100
AcDbLine
 62
253
  6
CONTINUOUS
 10
-8.9741767905
 20
10.2210096875
 11
-8.8201639616
 21
10.144003273
  0
LINE
  5
35A
100
AcDbEntity
  8
RACCORDO
100
AcDbLine
 62
7
  6
CONTINUOUS
 10
-16.2057054975
 20
13.8508990805
 11
-19.3169753347
 21
15.4065339991
  0
LINE
  5
35B
100
AcDbEntity
  8
RACCORDO
100
AcDbLine
 62
7
  6
CONTINUOUS
 10
-16.0421206921
 20
13.8240170582
 11
-19.1188247377
 21
15.3623690809
  0
LINE
  5
35C
100
AcDbEntity
  8
RACCORDO
100
AcDbLine
 62
7
  6
CONTINUOUS
 10
-16.0075549004
 20
14.1531443238
 11
-19.1188247377
 21
15.7087792425
  0
LINE
  5
35D
100
AcDbEntity
  8
0
100
AcDbLine
 62
7
  6
CONTINUOUS
 10
-8.2865990446
 20
10.6494053183
 11
-8.0788020407
 21
10.5455068163
  0
LINE
  5
35E
100
AcDbEntity
  8
RACCORDO
100
AcDbLine
 62
7
  6
CONTINUOUS
 10
-12.2652543224
 20
12.9100580965
 11
-12.5369582067
 21
13.0459100387
  0
LINE
  5
35F
100
AcDbEntity
  8
RACCORDO
100
AcDbLine
 62
7
  6
CONTINUOUS
 10
-12.5037623961
 20
13.0765070648
 11
-12.435736816
 21
13.0386496041
  0
LINE
  5
360
100
AcDbEntity
  8
ASSI
100
AcDbLine
 62
7
  6
CONTINUOUS
 10
-12.5037623961
 20
13.0765070648
 11
-12.435736816
 21
13.0386496041
  0
LINE
  5
361
100
AcDbEntity
  8
RACCORDO
100
AcDbLine
 62
7
  6
CONTINUOUS
 10
-12.4357323806
 20
13.0386471391
 11
-12.3567316294
 21
12.989367158
  0
LINE
  5
362
100
AcDbEntity
  8
ASSI
100
AcDbLine
 62
7
  6
CONTINUOUS
 10
-12.4357323383
 20
13.0386471156
 11
-12.3567316294
 21
12.989367158
  0
LINE
  5
363
100
AcDbEntity
  8
RACCORDO
100
AcDbLine
 62
7
  6
CONTINUOUS
 10
-12.3567316294
 20
12.989367158
 11
-12.2897120648
 21
12.9359060108
  0
LINE
  5
364
100
AcDbEntity
  8
ASSI
100
AcDbLine
 62
7
  6
CONTINUOUS
 10
-12.3567316294
 20
12.989367158
 11
-12.2897120648
 21
12.9359060108
  0
LINE
  5
365
100
AcDbEntity
  8
0
100
AcDbLine
 62
253
  6
CONTINUOUS
 10
3.8837871881
 20
8.0602023708
 11
3.8837659435
 21
10.4665186143
  0
LINE
  5
366
100
AcDbEntity
  8
0
100
AcDbLine
 62
7
  6
CONTINUOUS
 10
3.953920963
 20
10.5551662275
 11
3.953920963
 21
8.1470184644
  0
LINE
  5
367
100
AcDbEntity
  8
0
100
AcDbLine
 62
7
  6
CONTINUOUS
 10
3.1600628157
 20
-5.9659115083
 11
3.1601237175
 21
-5.965318483
  0
LINE
  5
368
100
AcDbEntity
  8
RACCORDO
100
AcDbLine
 62
253
  6
CONTINUOUS
 10
-14.9730371322
 20
-26.2492796429
 11
-16.8637466928
 21
-27.6195617002
  0
LINE
  5
369
100
AcDbEntity
  8
ASSI
100
AcDbLine
 62
253
  6
CONTINUOUS
 10
-14.9730371322
 20
-26.2492796429
 11
-16.8637466928
 21
-27.6195617002
  0
LINE
  5
36A
100
AcDbEntity
  8
RACCORDO
100
AcDbLine
 62
253
  6
CONTINUOUS
 10
-14.372578557
 20
-26.5052153953
 11
-16.2632881176
 21
-27.8754974526
  0
LINE
  5
36B
100
AcDbEntity
  8
ASSI
100
AcDbLine
 62
253
  6
CONTINUOUS
 10
-14.372578557
 20
-26.5052153953
 11
-16.2632881176
 21
-27.8754974526
  0
LINE
  5
36C
100
AcDbEntity
  8
RACCORDO
100
AcDbLine
 62
7
  6
CONTINUOUS
 10
-9.7331618801
 20
-24.2460062519
 11
-11.6473833284
 21
-25.6333284293
  0
LINE
  5
36D
100
AcDbEntity
  8
ASSI
100
AcDbLine
 62
7
  6
CONTINUOUS
 10
-9.7331618801
 20
-24.2460062519
 11
-11.6473833284
 21
-25.6333284293
  0
LINE
  5
36E
100
AcDbEntity
  8
0
100
AcDbLine
 62
253
  6
CONTINUOUS
 10
-8.2833171382
 20
-23.3338625297
 11
-9.1552137974
 21
-23.9657651618
  0
LINE
  5
36F
100
AcDbEntity
  8
0
100
AcDbLine
 62
253
  6
CONTINUOUS
 10
-4.2433487124
 20
-20.2371432409
 11
-5.8112357399
 21
-21.1001935666
  0
LINE
  5
370
100
AcDbEntity
  8
0
100
AcDbLine
 62
253
  6
CONTINUOUS
 10
-5.8112820359
 20
-21.1001713105
 11
-6.7796300621
 21
-21.6324149212
  0
LINE
  5
371
100
AcDbEntity
  8
RACCORDO
100
AcDbLine
 62
253
  6
CONTINUOUS
 10
-18.1396575388
 20
-26.1907506874
 11
-16.3471268538
 21
-25.32898634
  0
LINE
  5
372
100
AcDbEntity
  8
ASSI
100
AcDbLine
 62
253
  6
CONTINUOUS
 10
-18.1396575388
 20
-26.1907506874
 11
-16.3471268538
 21
-25.32898634
  0
LINE
  5
373
100
AcDbEntity
  8
RACCORDO
100
AcDbLine
 62
7
  6
CONTINUOUS
 10
-18.5410997294
 20
-27.0077010768
 11
-16.7451499921
 21
-26.14429301
  0
LINE
  5
374
100
AcDbEntity
  8
ASSI
100
AcDbLine
 62
7
  6
CONTINUOUS
 10
-18.5410997294
 20
-27.0077010768
 11
-16.7451499921
 21
-26.14429301
  0
LINE
  5
375
100
AcDbEntity
  8
0
100
AcDbLine
 62
253
  6
CONTINUOUS
 10
-14.3088451387
 20
15.2976698676
 11
-17.3370763474
 21
16.8117854719
  0
LINE
  5
376
100
AcDbEntity
  8
0
100
AcDbLine
 62
253
  6
CONTINUOUS
 10
-14.1981947011
 20
15.3996578673
 11
-17.2663656693
 21
16.9337433514
  0
LINE
  5
377
100
AcDbEntity
  8
0
100
AcDbLine
 62
253
  6
CONTINUOUS
 10
-13.9480801494
 20
15.6301918207
 11
-17.2663656693
 21
17.2893345807
  0
LINE
  5
378
100
AcDbEntity
  8
ASSI
100
AcDbLine
 62
7
  6
CONTINUOUS
 10
-7.1900940374
 20
12.2788454899
 11
-7.6008544998
 21
12.4842257211
  0
LINE
  5
379
100
AcDbEntity
  8
0
100
AcDbLine
 62
253
  6
CONTINUOUS
 10
-7.6986132192
 20
-23.5969352959
 11
-8.5705065779
 21
-24.2288355361
  0
LINE
  5
37A
100
AcDbEntity
  8
0
100
AcDbLine
 62
7
  6
CONTINUOUS
 10
-7.8291446834
 20
-23.9204802877
 11
-6.8839091368
 21
-23.235425673
  0
LWPOLYLINE
  5
37B
100
AcDbEntity
  8
0
100
AcDbPolyline
 62
7
  6
CONTINUOUS
 90
22
 70
0
 10
-4.4797677157
 20
-20.7653144965
 10
-4.4118997838
 20
-20.726442329
 10
-4.2843845583
 20
-20.6448025873
 10
-4.1613793124
 20
-20.5548138608
 10
-4.0427770574
 20
-20.456768744
 10
-3.9287208468
 20
-20.3510485171
 10
-3.8196689685
 20
-20.2383027306
 10
-3.7157232937
 20
-20.1188902029
 10
-3.6169451032
 20
-19.9931614945
 10
-3.523810022
 20
-19.8619297266
 10
-3.4365348087
 20
-19.7256353749
 10
-3.3553529212
 20
-19.5846191989
 10
-3.2807485125
 20
-19.4396872016
 10
-3.2128750461
 20
-19.2912621455
 10
-3.1519597162
 20
-19.1397996736
 10
-3.0984463191
 20
-18.9862261655
 10
-3.0525709382
 20
-18.830823514
 10
-3.014651016
 20
-18.6740275655
 10
-2.985024407
 20
-18.5168335658
 10
-2.9638703948
 20
-18.3596824584
 10
-2.9513836548
 20
-18.2025717298
 10
-2.9478325981
 20
-18.0651279698
  0
LINE
  5
37C
100
AcDbEntity
  8
0
100
AcDbLine
 62
7
  6
CONTINUOUS
 10
-6.0569990566
 20
-21.6335781776
 11
-4.4797380957
 21
-20.7654431623
  0
LINE
  5
37D
100
AcDbEntity
  8
0
100
AcDbLine
 62
7
  6
CONTINUOUS
 10
-6.779630176
 20
-22.0307192194
 11
-6.0572140159
 21
-21.6336598142
  0
LINE
  5
37E
100
AcDbEntity
  8
ASSI
100
AcDbLine
 62
7
  6
CONTINUOUS
 10
-9.3749673758
 20
-23.9834334803
 11
-9.6497168287
 21
-24.124826124
  0
LINE
  5
37F
100
AcDbEntity
  8
RACCORDO
100
AcDbLine
 62
7
  6
CONTINUOUS
 10
-16.3625539222
 20
-28.7496088121
 11
-16.0821795407
 21
-28.6069532904
  0
LINE
  5
380
100
AcDbEntity
  8
ASSI
100
AcDbLine
 62
7
  6
CONTINUOUS
 10
-16.3625539222
 20
-28.7496088121
 11
-16.0821795407
 21
-28.6069532904
  0
LINE
  5
381
100
AcDbEntity
  8
RACCORDO
100
AcDbLine
 62
253
  6
CONTINUOUS
 10
-14.2690291094
 20
-26.2508155599
 11
-9.6296124325
 21
-23.9916064165
  0
LINE
  5
382
100
AcDbEntity
  8
ASSI
100
AcDbLine
 62
253
  6
CONTINUOUS
 10
-14.2690291094
 20
-26.2508155599
 11
-9.6296124325
 21
-23.9916064165
  0
LINE
  5
383
100
AcDbEntity
  8
RACCORDO
100
AcDbLine
 62
253
  6
CONTINUOUS
 10
-14.372578557
 20
-26.5052153953
 11
-9.7331618801
 21
-24.2460062519
  0
LINE
  5
384
100
AcDbEntity
  8
ASSI
100
AcDbLine
 62
253
  6
CONTINUOUS
 10
-14.372578557
 20
-26.5052153953
 11
-9.7331618801
 21
-24.2460062519
  0
LINE
  5
385
100
AcDbEntity
  8
RACCORDO
100
AcDbLine
 62
253
  6
CONTINUOUS
 10
-11.6473833284
 20
-25.6333284293
 11
-16.2632881176
 21
-27.8754974526
  0
LINE
  5
386
100
AcDbEntity
  8
ASSI
100
AcDbLine
 62
253
  6
CONTINUOUS
 10
-11.6473833284
 20
-25.6333284293
 11
-16.2632881176
 21
-27.8754974526
  0
LINE
  5
387
100
AcDbEntity
  8
RACCORDO
100
AcDbLine
 62
7
  6
CONTINUOUS
 10
-11.6757309149
 20
-25.6503187579
 11
-16.2917288861
 21
-27.8925330443
  0
LINE
  5
388
100
AcDbEntity
  8
ASSI
100
AcDbLine
 62
7
  6
CONTINUOUS
 10
-11.6757309149
 20
-25.6503187579
 11
-16.2917288861
 21
-27.8925330443
  0
LINE
  5
389
100
AcDbEntity
  8
0
100
AcDbLine
 62
253
  6
CONTINUOUS
 10
-6.77962999
 20
-22.9803333176
 11
-7.6219363105
 21
-23.3540909148
  0
LINE
  5
38A
100
AcDbEntity
  8
0
100
AcDbLine
 62
253
  6
CONTINUOUS
 10
-7.6986132192
 20
-23.5969352959
 11
-6.8839091368
 21
-23.235425673
  0
LINE
  5
38B
100
AcDbEntity
  8
0
100
AcDbLine
 62
253
  6
CONTINUOUS
 10
-7.8291446834
 20
-23.9204802877
 11
-8.5705065779
 21
-24.2288355361
  0
LINE
  5
38C
100
AcDbEntity
  8
0
100
AcDbLine
 62
7
  6
CONTINUOUS
 10
-7.867503625
 20
-23.9419691468
 11
-8.6096422161
 21
-24.2506474472
  0
LINE
  5
38D
100
AcDbEntity
  8
0
100
AcDbLine
 62
253
  6
CONTINUOUS
 10
-13.4923840976
 20
16.0502130137
 11
-17.0279180036
 21
17.8179799666
  0
LINE
  5
38E
100
AcDbEntity
  8
DRAFT
100
AcDbLine
 62
7
  6
CONTINUOUS
 10
-10.7518094836
 20
14.6913056779
 11
-7.6008544998
 21
13.115828186
  0
LINE
  5
38F
100
AcDbEntity
  8
ASSI
100
AcDbLine
 62
7
  6
CONTINUOUS
 10
-10.7518094836
 20
14.6913056779
 11
-7.6008544998
 21
13.115828186
  0
LINE
  5
390
100
AcDbEntity
  8
SMUSSO
100
AcDbLine
 62
7
  6
CONTINUOUS
 10
-10.1586081771
 20
14.4597305055
 11
-10.7060720816
 21
14.7334624578
  0
LINE
  5
391
100
AcDbEntity
  8
0
100
AcDbLine
 62
253
  6
CONTINUOUS
 10
-9.9137834383
 20
14.8276726729
 11
-10.3605675742
 21
15.0510647409
  0
LINE
  5
392
100
AcDbEntity
  8
0
100
AcDbLine
 62
253
  6
CONTINUOUS
 10
-10.467247651
 20
15.3199607054
 11
-18.9525290252
 21
19.5626013926
  0
LINE
  5
393
100
AcDbEntity
  8
0
100
AcDbLine
 62
7
  6
CONTINUOUS
 10
-18.3471475688
 20
19.7330114999
 11
-9.8618661945
 21
15.4903708128
  0
LINE
  5
394
100
AcDbEntity
  8
SMUSSO
100
AcDbLine
 62
7
  6
CONTINUOUS
 10
-9.8768417665
 20
-26.2193744423
 11
-10.1586081771
 21
-26.3904492826
  0
LINE
  5
395
100
AcDbEntity
  8
SMUSSO
100
AcDbLine
 62
7
  6
CONTINUOUS
 10
-9.6462212071
 20
-26.5750151717
 11
-9.9279876177
 21
-26.7460900119
  0
LINE
  5
396
100
AcDbEntity
  8
0
100
AcDbLine
 62
253
  6
CONTINUOUS
 10
-9.6320170277
 20
-26.7667559396
 11
-9.9137834383
 21
-26.9378307798
  0
LINE
  5
397
100
AcDbEntity
  8
0
100
AcDbLine
 62
253
  6
CONTINUOUS
 10
1.3177919788
 20
12.4564023631
 11
-11.1321477004
 21
18.6813722027
  0
LWPOLYLINE
  5
398
100
AcDbEntity
  8
0
100
AcDbPolyline
 62
7
  6
CONTINUOUS
 90
22
 70
0
 10
-10.3384479932
 20
18.9858516619
 10
-10.3596334483
 20
18.9961936283
 10
-10.3984534209
 20
19.0133980051
 10
-10.4356655963
 20
19.0277104824
 10
-10.4719553902
 20
19.0395823779
 10
-10.5075327874
 20
19.0492121898
 10
-10.5420824138
 20
19.0566433212
 10
-10.575398563
 20
19.0619752065
 10
-10.6075166739
 20
19.0653734114
 10
-10.6384343862
 20
19.0670005307
 10
-10.6679458319
 20
19.0670270465
 10
-10.6959585475
 20
19.0656637311
 10
-10.7226661426
 20
19.0631115327
 10
-10.7483075685
 20
19.0595298383
 10
-10.7732112438
 20
19.0550004942
 10
-10.7971696906
 20
19.0496767838
 10
-10.8196833959
 20
19.0438315958
 10
-10.8410072214
 20
19.0375587537
 10
-10.8611466884
 20
19.030923117
 10
-10.8793183713
 20
19.024331159
 10
-10.8950818138
 20
19.0181832379
 10
-10.9084359213
 20
19.0124039097
  0
LINE
  5
399
100
AcDbEntity
  8
0
100
AcDbLine
 62
7
  6
CONTINUOUS
 10
-10.3373148718
 20
18.9853302704
 11
-10.3389575918
 21
18.9861599599
  0
LWPOLYLINE
  5
39A
100
AcDbEntity
  8
0
100
AcDbPolyline
 62
7
  6
CONTINUOUS
 90
5
 70
0
 10
3.2854805518
 20
12.1558277087
 10
3.2291062043
 20
12.1939842782
 10
3.1694236936
 20
12.2297745615
 10
3.1037904907
 20
12.2648223616
 10
-10.3363534428
 20
18.9848615416
  0
LINE
  5
39B
100
AcDbEntity
  8
0
100
AcDbLine
 62
7
  6
CONTINUOUS
 10
3.2854465295
 20
12.155973595
 11
3.2864946565
 21
12.1552237152
  0
ARC
  5
39C
100
AcDbEntity
  8
RACCORDO
100
AcDbCircle
 62
253
  6
CONTINUOUS
 10
-31.3150062381
 20
-12.631710057
 40
11.5909037634
100
AcDbArc
 50
17.3534373981
 51
17.6822595563
  0
ARC
  5
39D
100
AcDbEntity
  8
ASSI
100
AcDbCircle
 62
253
  6
CONTINUOUS
 10
-31.3150062381
 20
-12.631710057
 40
11.5909037634
100
AcDbArc
 50
17.3534373981
 51
17.6822595563
  0
ARC
  5
39E
100
AcDbEntity
  8
RACCORDO
100
AcDbCircle
 62
253
  6
CONTINUOUS
 10
-25.2357485714
 20
-10.8239199386
 40
6.2874269565
100
AcDbArc
 50
322.4389044744
 51
323.0866661694
  0
ARC
  5
39F
100
AcDbEntity
  8
ASSI
100
AcDbCircle
 62
253
  6
CONTINUOUS
 10
-25.2357485714
 20
-10.8239199386
 40
6.2874269565
100
AcDbArc
 50
322.4389044744
 51
323.0866661694
  0
ARC
  5
3A0
100
AcDbEntity
  8
RACCORDO
100
AcDbCircle
 62
253
  6
CONTINUOUS
 10
-24.9861558723
 20
-11.0056393342
 40
5.9787263496
100
AcDbArc
 50
323.0424476594
 51
328.0286365863
  0
ARC
  5
3A1
100
AcDbEntity
  8
ASSI
100
AcDbCircle
 62
253
  6
CONTINUOUS
 10
-24.9861558723
 20
-11.0056393342
 40
5.9787263496
100
AcDbArc
 50
323.0424476594
 51
328.0286365863
  0
ARC
  5
3A2
100
AcDbEntity
  8
RACCORDO
100
AcDbCircle
 62
253
  6
CONTINUOUS
 10
-24.7641095772
 20
-11.1460836196
 40
5.7159972456
100
AcDbArc
 50
328.0443559713
 51
329.0785533243
  0
ARC
  5
3A3
100
AcDbEntity
  8
RACCORDO
100
AcDbCircle
 62
7
  6
CONTINUOUS
 10
-23.7616500946
 20
-12.7254160829
 40
3.7432743166
100
AcDbArc
 50
332.1730332088
 51
335.5775756166
  0
ARC
  5
3A4
100
AcDbEntity
  8
ASSI
100
AcDbCircle
 62
7
  6
CONTINUOUS
 10
-23.7616500946
 20
-12.7254160829
 40
3.7432743166
100
AcDbArc
 50
332.1730332088
 51
335.5775756166
  0
ARC
  5
3A5
100
AcDbEntity
  8
0
100
AcDbCircle
 62
253
  6
CONTINUOUS
 10
-27.0053581022
 20
-8.99680044
 40
3.5928349998
100
AcDbArc
 50
61.5035322703
 51
63.425967767
  0
ARC
  5
3A6
100
AcDbEntity
  8
0
100
AcDbCircle
 62
7
  6
CONTINUOUS
 10
-26.7468362178
 20
-8.7450603315
 40
3.1601266513
100
AcDbArc
 50
63.4255374798
 51
65.5404231148
  0
ARC
  5
3A7
100
AcDbEntity
  8
RACCORDO
100
AcDbCircle
 62
7
  6
CONTINUOUS
 10
-15.7250677309
 20
-28.5294141979
 40
2.9134491884
100
AcDbArc
 50
155.9271700496
 51
156.4072762411
  0
ARC
  5
3A8
100
AcDbEntity
  8
ASSI
100
AcDbCircle
 62
7
  6
CONTINUOUS
 10
-15.7250677309
 20
-28.5294141979
 40
2.9134491884
100
AcDbArc
 50
155.9271700496
 51
156.4072762411
  0
ARC
  5
3A9
100
AcDbEntity
  8
RACCORDO
100
AcDbCircle
 62
7
  6
CONTINUOUS
 10
-19.1911605743
 20
-25.6537945847
 40
1.501879452
100
AcDbArc
 50
243.4811630649
 51
295.6474743677
  0
ARC
  5
3AA
100
AcDbEntity
  8
ASSI
100
AcDbCircle
 62
7
  6
CONTINUOUS
 10
-19.1911605743
 20
-25.6537945847
 40
1.501879452
100
AcDbArc
 50
243.4811630649
 51
295.6474743677
  0
ARC
  5
3AB
100
AcDbEntity
  8
0
100
AcDbCircle
 62
7
  6
CONTINUOUS
 10
-9.2386973522
 20
-21.7179145425
 40
0.9999586431
100
AcDbArc
 50
246.9829170774
 51
284.3959196568
  0
ARC
  5
3AC
100
AcDbEntity
  8
0
100
AcDbCircle
 62
7
  6
CONTINUOUS
 10
-23.9341790577
 20
-8.8828807879
 40
0.7233169926
100
AcDbArc
 50
228.6278439571
 51
233.2242008854
  0
ARC
  5
3AD
100
AcDbEntity
  8
RACCORDO
100
AcDbCircle
 62
253
  6
CONTINUOUS
 10
-16.3085372515
 20
-27.2949732344
 40
0.6432098153
100
AcDbArc
 50
218.0546373549
 51
225.7720721081
  0
ARC
  5
3AE
100
AcDbEntity
  8
ASSI
100
AcDbCircle
 62
253
  6
CONTINUOUS
 10
-16.3085372515
 20
-27.2949732344
 40
0.6432098153
100
AcDbArc
 50
218.0546373549
 51
225.7720721081
  0
ARC
  5
3AF
100
AcDbEntity
  8
RACCORDO
100
AcDbCircle
 62
253
  6
CONTINUOUS
 10
-16.3219039729
 20
-27.3047544087
 40
0.6266555385
100
AcDbArc
 50
210.1563246126
 51
218.1037807866
  0
ARC
  5
3B0
100
AcDbEntity
  8
ASSI
100
AcDbCircle
 62
253
  6
CONTINUOUS
 10
-16.3219039729
 20
-27.3047544087
 40
0.6266555385
100
AcDbArc
 50
210.1563246126
 51
218.1037807866
  0
ARC
  5
3B1
100
AcDbEntity
  8
ASSI
100
AcDbCircle
 62
253
  6
CONTINUOUS
 10
-16.3350111597
 20
-27.3229139739
 40
0.6047225885
100
AcDbArc
 50
225.7229321231
 51
233.8193397988
  0
ARC
  5
3B2
100
AcDbEntity
  8
0
100
AcDbCircle
 62
253
  6
CONTINUOUS
 10
-8.6457293797
 20
-23.6925626678
 40
0.5744382833
100
AcDbArc
 50
233.1554198832
 51
237.7530701439
  0
ARC
  5
3B3
100
AcDbEntity
  8
ASSI
100
AcDbCircle
 62
253
  6
CONTINUOUS
 10
-29.4787864546
 20
-21.5594044019
 40
0.5630843755
100
AcDbArc
 50
241.9732349449
 51
243.5447874589
  0
ARC
  5
3B4
100
AcDbEntity
  8
ASSI
100
AcDbCircle
 62
7
  6
CONTINUOUS
 10
-16.5070568675
 20
-27.4353109582
 40
0.5080059266
100
AcDbArc
 50
243.3605541281
 51
250.0083711996
  0
ARC
  5
3B5
100
AcDbEntity
  8
0
100
AcDbCircle
 62
7
  6
CONTINUOUS
 10
-8.8016597405
 20
-23.7889881968
 40
0.5000000661
100
AcDbArc
 50
243.4403227323
 51
292.581473878
  0
ARC
  5
3B6
100
AcDbEntity
  8
0
100
AcDbCircle
 62
7
  6
CONTINUOUS
 10
-8.9557319393
 20
-23.7120181045
 40
0.4999198297
100
AcDbArc
 50
205.3682699156
 51
243.4229496549
  0
ARC
  5
3B7
100
AcDbEntity
  8
0
100
AcDbCircle
 62
253
  6
CONTINUOUS
 10
-8.6951109964
 20
-23.9323733534
 40
0.3215837167
100
AcDbArc
 50
288.7673594294
 51
292.7972393613
  0
ARC
  5
3B8
100
AcDbEntity
  8
0
100
AcDbCircle
 62
253
  6
CONTINUOUS
 10
-8.6861556876
 20
-24.0673509606
 40
0.1986252368
100
AcDbArc
 50
292.6571258637
 51
305.6087976367
  0
ARC
  5
3B9
100
AcDbEntity
  8
RACCORDO
100
AcDbCircle
 62
253
  6
CONTINUOUS
 10
-16.3751205218
 20
-27.7209460576
 40
0.1907684993
100
AcDbArc
 50
296.2149714849
 51
305.8892592955
  0
ARC
  5
3BA
100
AcDbEntity
  8
ASSI
100
AcDbCircle
 62
253
  6
CONTINUOUS
 10
-16.3751205218
 20
-27.7209460576
 40
0.1907684993
100
AcDbArc
 50
296.2149714849
 51
305.8892592955
  0
ARC
  5
3BB
100
AcDbEntity
  8
RACCORDO
100
AcDbCircle
 62
253
  6
CONTINUOUS
 10
-6.4778002151
 20
-3.182661484
 40
15.0207387769
100
AcDbArc
 50
203.5098969641
 51
204.0251566615
  0
ARC
  5
3BC
100
AcDbEntity
  8
ASSI
100
AcDbCircle
 62
253
  6
CONTINUOUS
 10
-6.4778002151
 20
-3.182661484
 40
15.0207387769
100
AcDbArc
 50
203.5098969641
 51
204.0251566615
  0
ARC
  5
3BD
100
AcDbEntity
  8
RACCORDO
100
AcDbCircle
 62
7
  6
CONTINUOUS
 10
-19.7252230939
 20
8.0653027315
 40
7.3458490824
100
AcDbArc
 50
150.9616895843
 51
151.5015161305
  0
ARC
  5
3BE
100
AcDbEntity
  8
ASSI
100
AcDbCircle
 62
7
  6
CONTINUOUS
 10
-19.7252230939
 20
8.0653027315
 40
7.3458490824
100
AcDbArc
 50
150.9616895843
 51
151.5015161305
  0
ARC
  5
3BF
100
AcDbEntity
  8
ASSI
100
AcDbCircle
 62
7
  6
CONTINUOUS
 10
-14.9863229272
 20
8.4169990591
 40
3.6443879986
100
AcDbArc
 50
195.825501306
 51
197.1617177965
  0
ARC
  5
3C0
100
AcDbEntity
  8
RACCORDO
100
AcDbCircle
 62
253
  6
CONTINUOUS
 10
-27.2777902773
 20
-5.3237825154
 40
3.0399382808
100
AcDbArc
 50
98.8697160422
 51
105.7248652469
  0
ARC
  5
3C1
100
AcDbEntity
  8
ASSI
100
AcDbCircle
 62
253
  6
CONTINUOUS
 10
-16.1605385322
 20
12.2870825092
 40
1.7038655618
100
AcDbArc
 50
96.5154749613
 51
98.4595225892
  0
ARC
  5
3C2
100
AcDbEntity
  8
RACCORDO
100
AcDbCircle
 62
253
  6
CONTINUOUS
 10
-16.1642462634
 20
12.3152407118
 40
1.6754685753
100
AcDbArc
 50
96.4987653939
 51
100.2938556915
  0
ARC
  5
3C3
100
AcDbEntity
  8
ASSI
100
AcDbCircle
 62
253
  6
CONTINUOUS
 10
-16.1669104792
 20
12.3306092175
 40
1.6598750441
100
AcDbArc
 50
98.4629958984
 51
99.4532225059
  0
ARC
  5
3C4
100
AcDbEntity
  8
0
100
AcDbCircle
 62
7
  6
CONTINUOUS
 10
-14.1987747249
 20
12.2656418444
 40
1.6305769465
100
AcDbArc
 50
21.7134410075
 51
22.8382529347
  0
ARC
  5
3C5
100
AcDbEntity
  8
0
100
AcDbCircle
 62
253
  6
CONTINUOUS
 10
-7.847118578
 20
8.4663409306
 40
1.5991505182
100
AcDbArc
 50
116.8950504251
 51
117.1237557717
  0
ARC
  5
3C6
100
AcDbEntity
  8
ASSI
100
AcDbCircle
 62
253
  6
CONTINUOUS
 10
-15.9816015754
 20
12.5224270145
 40
1.4516611342
100
AcDbArc
 50
101.8641699155
 51
104.8773659646
  0
ARC
  5
3C7
100
AcDbEntity
  8
RACCORDO
100
AcDbCircle
 62
253
  6
CONTINUOUS
 10
-15.9830557291
 20
12.528774072
 40
1.4451535074
100
AcDbArc
 50
102.4718139325
 51
104.8862550454
  0
ARC
  5
3C8
100
AcDbEntity
  8
0
100
AcDbCircle
 62
7
  6
CONTINUOUS
 10
-14.0035423578
 20
12.3418738388
 40
1.4209946822
100
AcDbArc
 50
18.9078714746
 51
21.7701350898
  0
ARC
  5
3C9
100
AcDbEntity
  8
RACCORDO
100
AcDbCircle
 62
253
  6
CONTINUOUS
 10
-13.0128457471
 20
12.1656557811
 40
1.0698605329
100
AcDbArc
 50
56.1499707795
 51
58.3781668576
  0
ARC
  5
3CA
100
AcDbEntity
  8
RACCORDO
100
AcDbCircle
 62
253
  6
CONTINUOUS
 10
-27.0958434085
 20
11.5347646913
 40
0.7515791734
100
AcDbArc
 50
140.4684637896
 51
146.9329714359
  0
ARC
  5
3CB
100
AcDbEntity
  8
ASSI
100
AcDbCircle
 62
253
  6
CONTINUOUS
 10
-27.0958434085
 20
11.5347646913
 40
0.7515791734
100
AcDbArc
 50
140.4684637896
 51
146.9329714359
  0
ARC
  5
3CC
100
AcDbEntity
  8
RACCORDO
100
AcDbCircle
 62
253
  6
CONTINUOUS
 10
-29.2136460642
 20
10.4867892875
 40
0.6106649427
100
AcDbArc
 50
202.0020984158
 51
210.0872479504
  0
ARC
  5
3CD
100
AcDbEntity
  8
ASSI
100
AcDbCircle
 62
253
  6
CONTINUOUS
 10
-29.2136460642
 20
10.4867892875
 40
0.6106649427
100
AcDbArc
 50
202.0020984158
 51
210.0872479504
  0
ARC
  5
3CE
100
AcDbEntity
  8
RACCORDO
100
AcDbCircle
 62
7
  6
CONTINUOUS
 10
-29.3818197429
 20
10.3572693522
 40
0.5065957247
100
AcDbArc
 50
176.1853393204
 51
180.0620052225
  0
ARC
  5
3CF
100
AcDbEntity
  8
ASSI
100
AcDbCircle
 62
7
  6
CONTINUOUS
 10
-29.3818197442
 20
10.3572693523
 40
0.5065957234
100
AcDbArc
 50
176.1853402958
 51
180.0620052147
  0
ARC
  5
3D0
100
AcDbEntity
  8
RACCORDO
100
AcDbCircle
 62
7
  6
CONTINUOUS
 10
-29.3858170331
 20
10.3549982841
 40
0.5035297968
100
AcDbArc
 50
126.0014186535
 51
140.2734417007
  0
ARC
  5
3D1
100
AcDbEntity
  8
RACCORDO
100
AcDbCircle
 62
7
  6
CONTINUOUS
 10
-27.4973863343
 20
11.727088211
 40
0.5007284632
100
AcDbArc
 50
117.2255979596
 51
125.9264604863
  0
ARC
  5
3D2
100
AcDbEntity
  8
ASSI
100
AcDbCircle
 62
7
  6
CONTINUOUS
 10
-27.4973863343
 20
11.727088211
 40
0.5007284632
100
AcDbArc
 50
117.2255979596
 51
125.9264604862
  0
ARC
  5
3D3
100
AcDbEntity
  8
0
100
AcDbCircle
 62
7
  6
CONTINUOUS
 10
-8.9559365631
 20
9.7978586075
 40
0.4997361999
100
AcDbArc
 50
121.9246470979
 51
180.0020528387
  0
ARC
  5
3D4
100
AcDbEntity
  8
0
100
AcDbCircle
 62
253
  6
CONTINUOUS
 10
-8.7549523672
 20
9.8325624716
 40
0.4460387733
100
AcDbArc
 50
119.4386840021
 51
121.2800007756
  0
ARC
  5
3D5
100
AcDbEntity
  8
RACCORDO
100
AcDbCircle
 62
253
  6
CONTINUOUS
 10
-27.6688020236
 20
11.821705455
 40
0.3769414514
100
AcDbArc
 50
63.5412022557
 51
69.339421059
  0
ARC
  5
3D6
100
AcDbEntity
  8
ASSI
100
AcDbCircle
 62
253
  6
CONTINUOUS
 10
-27.6688020236
 20
11.821705455
 40
0.3769414514
100
AcDbArc
 50
63.5412022557
 51
69.339421059
  0
ARC
  5
3D7
100
AcDbEntity
  8
RACCORDO
100
AcDbCircle
 62
253
  6
CONTINUOUS
 10
-27.6517628632
 20
11.8670120281
 40
0.3285367357
100
AcDbArc
 50
69.3320529417
 51
75.4799024878
  0
ARC
  5
3D8
100
AcDbEntity
  8
ASSI
100
AcDbCircle
 62
253
  6
CONTINUOUS
 10
-27.6517628632
 20
11.8670120281
 40
0.3285367357
100
AcDbArc
 50
69.3320529417
 51
75.4799024878
  0
ARC
  5
3D9
100
AcDbEntity
  8
RACCORDO
100
AcDbCircle
 62
253
  6
CONTINUOUS
 10
-29.4974992871
 20
10.5096976122
 40
0.3126234977
100
AcDbArc
 50
126.1080452062
 51
130.8085262046
  0
ARC
  5
3DA
100
AcDbEntity
  8
ASSI
100
AcDbCircle
 62
253
  6
CONTINUOUS
 10
-29.4974992871
 20
10.5096976123
 40
0.3126234976
100
AcDbArc
 50
126.1080452047
 51
130.8085261291
  0
ARC
  5
3DB
100
AcDbEntity
  8
0
100
AcDbCircle
 62
7
  6
CONTINUOUS
 10
-22.4651932058
 20
13.286647065
 40
0.0574681028
100
AcDbArc
 50
307.3098508763
 51
312.7272705473
  0
ARC
  5
3DC
100
AcDbEntity
  8
0
100
AcDbCircle
 62
7
  6
CONTINUOUS
 10
0.2830527119
 20
-10.3830851258
 40
0.0950031237
100
AcDbArc
 50
299.2958630675
 51
304.6292228555
  0
ARC
  5
3DD
100
AcDbEntity
  8
RACCORDO
100
AcDbCircle
 62
253
  6
CONTINUOUS
 10
22.0685902099
 20
9.8631590099
 40
46.4071686967
100
AcDbArc
 50
204.732098922
 51
204.9096488755
  0
ARC
  5
3DE
100
AcDbEntity
  8
RACCORDO
100
AcDbCircle
 62
253
  6
CONTINUOUS
 10
0.4922205238
 20
-0.0622720182
 40
22.657355776
100
AcDbArc
 50
204.0562653894
 51
204.7625066938
  0
ARC
  5
3DF
100
AcDbEntity
  8
ASSI
100
AcDbCircle
 62
253
  6
CONTINUOUS
 10
0.4922205238
 20
-0.0622720182
 40
22.657355776
100
AcDbArc
 50
204.0562653894
 51
204.7625066938
  0
ARC
  5
3E0
100
AcDbEntity
  8
ASSI
100
AcDbCircle
 62
7
  6
CONTINUOUS
 10
-0.325202426
 20
10.0202705531
 40
6.7957995238
100
AcDbArc
 50
167.2136830961
 51
167.6447031784
  0
ARC
  5
3E1
100
AcDbEntity
  8
0
100
AcDbCircle
 62
7
  6
CONTINUOUS
 10
-2.0657537971
 20
-5.3907396158
 40
5.2573740571
100
AcDbArc
 50
352.9811910049
 51
353.7191043039
  0
ARC
  5
3E2
100
AcDbEntity
  8
0
100
AcDbCircle
 62
7
  6
CONTINUOUS
 10
-1.2604782655
 20
-7.3998707064
 40
3.4531351597
100
AcDbArc
 50
297.3443898434
 51
299.3207400635
  0
SPLINE
  5
3E3
100
AcDbEntity
  8
0
100
AcDbSpline
 62
7
  6
CONTINUOUS
 70
0
 71
3
 72
13
 73
9
 74
7
 42
0.0000001
 43
0.0000001
 44
0.0000000001
 12
0.0649516613
 22
-0.8767758462
 32
0.0
 13
-0.8764965438
 23
-0.0686178656
 33
0.0
 40
0.0
 40
0.0
 40
0.0
 40
0.0
 40
0.1224249202
 40
0.254983645
 40
0.5313516649
 40
0.6655056459
 40
0.7903311274
 40
1.0
 40
1.0
 40
1.0
 40
1.0
 10
-9.9137834383
 20
-26.9378307798
 30
0.0
 10
-9.911132871
 20
-26.9736105175
 30
0.0
 10
-9.9140759158
 20
-27.048882902
 30
0.0
 10
-9.9476470062
 20
-27.2014453589
 30
0.0
 10
-10.0179207859
 20
-27.3475030974
 30
0.0
 10
-10.1168043264
 20
-27.4703078218
 30
0.0
 10
-10.2196023075
 20
-27.5611390565
 30
0.0
 10
-10.313905057
 20
-27.6052078158
 30
0.0
 10
-10.3751630711
 20
-27.6100034926
 30
0.0
 11
-9.9137834383
 21
-26.9378307798
 31
0.0
 11
-9.9169942433
 21
-27.0454162201
 31
0.0
 11
-9.9414064749
 21
-27.1593734868
 31
0.0
 11
-10.0466138309
 21
-27.3783920479
 31
0.0
 11
-10.120934686
 21
-27.4699753385
 31
0.0
 11
-10.2039068439
 21
-27.54180386
 31
0.0
 11
-10.3751630711
 21
-27.6100034926
 31
0.0
  0
SPLINE
  5
3E4
100
AcDbEntity
  8
0
100
AcDbSpline
 62
7
  6
CONTINUOUS
 70
0
 71
3
 72
11
 73
7
 74
5
 42
0.0000001
 43
0.0000001
 44
0.0000000001
 12
-0.3287387305
 22
0.1643101894
 32
0.0
 13
-0.2702345672
 23
-0.2490788429
 33
0.0
 40
0.0
 40
0.0
 40
0.0
 40
0.0
 40
0.2111742419
 40
0.4423698987
 40
0.7048858796
 40
1.0
 40
1.0
 40
1.0
 40
1.0
 10
-10.0407971099
 20
15.1326221517
 30
0.0
 10
-10.0639374939
 20
15.1441881782
 30
0.0
 10
-10.1182107652
 20
15.1578779683
 30
0.0
 10
-10.2053057452
 20
15.1457766365
 30
0.0
 10
-10.2940564747
 20
15.1050198287
 30
0.0
 10
-10.3485797255
 20
15.0629679808
 30
0.0
 10
-10.3751630711
 20
15.0384657529
 30
0.0
 11
-10.0407971099
 21
15.1326221517
 31
0.0
 11
-10.1158422363
 21
15.1524080584
 31
0.0
 11
-10.2002396182
 21
15.1425792231
 31
0.0
 11
-10.2885680607
 21
15.1037696965
 31
0.0
 11
-10.3751630711
 21
15.0384657529
 31
0.0
  0
SPLINE
  5
3E5
100
AcDbEntity
  8
RACCORDO
100
AcDbSpline
 62
7
  6
CONTINUOUS
 70
0
 71
3
 72
9
 73
5
 74
3
 42
0.0000001
 43
0.0000001
 44
0.0000000001
 12
-0.0341410192
 22
-0.0314682376
 32
0.0
 13
-0.0290182374
 23
-0.0362463938
 33
0.0
 40
0.0
 40
0.0
 40
0.0
 40
0.0
 40
0.255416876
 40
1.0
 40
1.0
 40
1.0
 40
1.0
 10
-19.2364480102
 20
15.415977541
 30
0.0
 10
-19.2393547411
 20
15.413298368
 30
0.0
 10
-19.250547035
 20
15.4026078702
 30
0.0
 10
-19.2609737876
 20
15.3911072526
 30
0.0
 10
-19.2681759509
 20
15.3821111016
 30
0.0
 11
-19.2364480102
 21
15.415977541
 31
0.0
 11
-19.2450222003
 21
15.4077844505
 31
0.0
 11
-19.2681759509
 21
15.3821111016
 31
0.0
  0
SPLINE
  5
3E6
100
AcDbEntity
  8
RACCORDO
100
AcDbSpline
 62
7
  6
CONTINUOUS
 70
0
 71
3
 72
9
 73
5
 74
3
 42
0.0000001
 43
0.0000001
 44
0.0000000001
 12
-0.108164437
 22
0.0540822185
 32
0.0
 13
-0.0342967848
 23
0.1159662121
 33
0.0
 40
0.0
 40
0.0
 40
0.0
 40
0.0
 40
0.2974129633
 40
1.0
 40
1.0
 40
1.0
 40
1.0
 10
-19.1188247377
 20
15.3623690809
 30
0.0
 10
-19.1295479062
 20
15.3677306652
 30
0.0
 10
-19.1641655802
 20
15.3875457904
 30
0.0
 10
-19.1954303681
 20
15.419325505
 30
0.0
 10
-19.2034625269
 20
15.4464842908
 30
0.0
 11
-19.1188247377
 21
15.3623690809
 31
0.0
 11
-19.1498428185
 21
15.3805755368
 31
0.0
 11
-19.2034625269
 21
15.4464842908
 31
0.0
  0
SPLINE
  5
3E7
100
AcDbEntity
  8
RACCORDO
100
AcDbSpline
 62
7
  6
CONTINUOUS
 70
0
 71
3
 72
8
 73
4
 74
2
 42
0.0000001
 43
0.0000001
 44
0.0000000001
 12
-0.0062924021
 22
0.0212762228
 32
0.0
 13
0.0
 23
0.0221872031
 33
0.0
 40
0.0
 40
0.0
 40
0.0
 40
0.0
 40
1.0
 40
1.0
 40
1.0
 40
1.0
 10
-19.2034625269
 20
15.4464842908
 30
0.0
 10
-19.2055599942
 20
15.4535763651
 30
0.0
 10
-19.2066927033
 20
15.4610393637
 30
0.0
 10
-19.2066927033
 20
15.4684350981
 30
0.0
 11
-19.2034625269
 21
15.4464842908
 31
0.0
 11
-19.2066927033
 21
15.4684350981
 31
0.0
  0
SPLINE
  5
3E8
100
AcDbEntity
  8
0
100
AcDbSpline
 62
7
  6
CONTINUOUS
 70
0
 71
3
 72
11
 73
7
 74
5
 42
0.0000001
 43
0.0000001
 44
0.0000000001
 12
0.0239865085
 22
0.3477779392
 32
0.0
 13
-0.3118234723
 23
0.1558556052
 33
0.0
 40
0.0
 40
0.0
 40
0.0
 40
0.0
 40
0.2934874684
 40
0.5551153077
 40
0.78690814
 40
1.0
 40
1.0
 40
1.0
 40
1.0
 10
-9.9137834383
 20
14.8276726729
 30
0.0
 10
-9.9114368584
 20
14.8616954952
 30
0.0
 10
-9.9125935748
 20
14.9266921359
 30
0.0
 10
-9.9347225572
 20
15.016392144
 30
0.0
 10
-9.9768923765
 20
15.0884879641
 30
0.0
 10
-10.0186480953
 20
15.1215516314
 30
0.0
 10
-10.0407971099
 20
15.1326221517
 30
0.0
 11
-9.9137834383
 21
14.8276726729
 31
0.0
 11
-9.9167001201
 21
14.929942037
 31
0.0
 11
-9.9399404924
 21
15.0181358846
 31
0.0
 11
-9.9821352484
 21
15.0870479989
 31
0.0
 11
-10.0407971099
 21
15.1326221517
 31
0.0
  0
SPLINE
  5
3E9
100
AcDbEntity
  8
RACCORDO
100
AcDbSpline
 62
7
  6
CONTINUOUS
 70
0
 71
3
 72
8
 73
4
 74
2
 42
0.0000001
 43
0.0000001
 44
0.0000000001
 12
0.0204829198
 22
0.3071333517
 32
0.0
 13
0.1968124251
 23
0.2366755481
 33
0.0
 40
0.0
 40
0.0
 40
0.0
 40
0.0
 40
1.0
 40
1.0
 40
1.0
 40
1.0
 10
-29.8872930934
 20
10.390972767
 30
0.0
 10
-29.8804654535
 20
10.4933505509
 30
0.0
 10
-29.8386876458
 20
10.5979246082
 30
0.0
 10
-29.773083504
 20
10.6768164576
 30
0.0
 11
-29.8872930934
 21
10.390972767
 31
0.0
 11
-29.773083504
 21
10.6768164576
 31
0.0
  0
SPLINE
  5
3EA
100
AcDbEntity
  8
RACCORDO
100
AcDbSpline
 62
7
  6
CONTINUOUS
 70
0
 71
3
 72
9
 73
5
 74
3
 42
0.0000001
 43
0.0000001
 44
0.0000000001
 12
0.4054930855
 22
-0.2034456682
 32
0.0
 13
0.4088017637
 23
0.1967127354
 33
0.0
 40
0.0
 40
0.0
 40
0.0
 40
0.0
 40
0.4998676382
 40
1.0
 40
1.0
 40
1.0
 40
1.0
 10
-16.7348338073
 20
-27.8893899019
 30
0.0
 10
-16.667269517
 20
-27.9232885371
 30
0.0
 10
-16.5145562437
 20
-27.9610446153
 30
0.0
 10
-16.3612195258
 20
-27.9258528536
 30
0.0
 10
-16.2930678619
 20
-27.8930587186
 30
0.0
 11
-16.7348338073
 21
-27.8893899019
 31
0.0
 11
-16.5144408919
 21
-27.9428073146
 31
0.0
 11
-16.2930678619
 21
-27.8930587186
 31
0.0
  0
SPLINE
  5
3EB
100
AcDbEntity
  8
RACCORDO
100
AcDbSpline
 62
7
  6
CONTINUOUS
 70
0
 71
3
 72
14
 73
10
 74
8
 42
0.0000001
 43
0.0000001
 44
0.0000000001
 12
-3.241391038
 22
10.3729472262
 32
0.0
 13
-9.8251957065
 23
-4.6443707162
 33
0.0
 40
0.0
 40
0.0
 40
0.0
 40
0.0
 40
0.3020416031
 40
0.4493642259
 40
0.5875379663
 40
0.7125532
 40
0.8219059818
 40
0.9162327505
 40
1.0
 40
1.0
 40
1.0
 40
1.0
 10
-20.3753699518
 20
-9.146910401
 30
0.0
 10
-20.7017149337
 20
-8.1025565312
 30
0.0
 10
-21.4127100729
 20
-6.6073435555
 30
0.0
 10
-22.7044145327
 20
-4.9095750081
 30
0.0
 10
-23.7777526905
 20
-3.8703342111
 30
0.0
 10
-24.9030371479
 20
-3.1105981141
 30
0.0
 10
-26.0198253358
 20
-2.6653133889
 30
0.0
 10
-27.0712155663
 20
-2.5528602859
 30
0.0
 10
-27.7140609666
 20
-2.7128976362
 30
0.0
 10
-27.9884041732
 20
-2.8425796897
 30
0.0
 11
-20.3753699518
 21
-9.146910401
 31
0.0
 11
-21.7826261646
 21
-6.181406325
 31
0.0
 11
-22.7561634699
 21
-4.9103582749
 31
0.0
 11
-23.8416034977
 21
-3.8727302774
 31
0.0
 11
-24.975492437
 21
-3.1243113773
 31
0.0
 11
-26.0861454264
 21
-2.7015242083
 31
0.0
 11
-27.1074358164
 21
-2.6131686519
 31
0.0
 11
-27.9884041732
 21
-2.8425796897
 31
0.0
  0
SPLINE
  5
3EC
100
AcDbEntity
  8
RACCORDO
100
AcDbSpline
 62
7
  6
CONTINUOUS
 70
0
 71
3
 72
9
 73
5
 74
3
 42
0.0000001
 43
0.0000001
 44
0.0000000001
 12
1.0840784102
 22
0.5722953012
 32
0.0
 13
0.7074684298
 23
1.0011175416
 33
0.0
 40
0.0
 40
0.0
 40
0.0
 40
0.0
 40
0.4852714416
 40
1.0
 40
1.0
 40
1.0
 40
1.0
 10
-21.5826688483
 20
-15.654050113
 30
0.0
 10
-21.4073114173
 20
-15.5614772577
 30
0.0
 10
-21.0691034638
 20
-15.3238305847
 30
0.0
 10
-20.7979555917
 20
-15.0129258772
 30
0.0
 10
-20.6765708567
 20
-14.8411579475
 30
0.0
 11
-21.5826688483
 21
-15.654050113
 31
0.0
 11
-21.0948579644
 21
-15.3135795553
 31
0.0
 11
-20.6765708567
 21
-14.8411579475
 31
0.0
  0
SPLINE
  5
3ED
100
AcDbEntity
  8
RACCORDO
100
AcDbSpline
 62
7
  6
CONTINUOUS
 70
0
 71
3
 72
9
 73
5
 74
3
 42
0.0000001
 43
0.0000001
 44
0.0000000001
 12
0.2493097592
 22
0.3527908281
 32
0.0
 13
0.2017935374
 23
0.3819634704
 33
0.0
 40
0.0
 40
0.0
 40
0.0
 40
0.0
 40
0.2443402851
 40
1.0
 40
1.0
 40
1.0
 40
1.0
 10
-20.6765708567
 20
-14.8411579475
 30
0.0
 10
-20.6562653841
 20
-14.812424277
 30
0.0
 10
-20.5751681548
 20
-14.6934174923
 30
0.0
 10
-20.5020719814
 20
-14.5689989517
 30
0.0
 10
-20.4512428991
 20
-14.4727874827
 30
0.0
 11
-20.6765708567
 21
-14.8411579475
 31
0.0
 11
-20.6171124243
 21
-14.75394488
 31
0.0
 11
-20.4512428991
 21
-14.4727874827
 31
0.0
  0
SPLINE
  5
3EE
100
AcDbEntity
  8
RACCORDO
100
AcDbSpline
 62
7
  6
CONTINUOUS
 70
0
 71
3
 72
9
 73
5
 74
3
 42
0.0000001
 43
0.0000001
 44
0.0000000001
 12
-1.4353586875
 22
-0.7457925937
 32
0.0
 13
0.0049763131
 23
-1.6175402286
 33
0.0
 40
0.0
 40
0.0
 40
0.0
 40
0.0
 40
0.4998440846
 40
1.0
 40
1.0
 40
1.0
 40
1.0
 10
-29.7511768668
 20
9.1504687437
 30
0.0
 10
-29.9903287165
 20
9.0262087382
 30
0.0
 10
-30.4081482817
 20
8.6385785037
 30
0.0
 10
-30.5603502261
 20
8.0886966864
 30
0.0
 10
-30.559520582
 20
7.8190225818
 30
0.0
 11
-29.7511768668
 21
9.1504687437
 31
0.0
 11
-30.3416549949
 21
8.5981617766
 31
0.0
 11
-30.559520582
 21
7.8190225818
 31
0.0
  0
SPLINE
  5
3EF
100
AcDbEntity
  8
RACCORDO
100
AcDbSpline
 62
7
  6
CONTINUOUS
 70
0
 71
3
 72
8
 73
4
 74
2
 42
0.0000001
 43
0.0000001
 44
0.0000000001
 12
-0.6455618492
 22
0.3227755072
 32
0.0
 13
-0.4210845652
 23
0.5861927313
 33
0.0
 40
0.0
 40
0.0
 40
0.0
 40
0.0
 40
1.0
 40
1.0
 40
1.0
 40
1.0
 10
-29.7278629742
 20
-22.0637514627
 30
0.0
 10
-29.9430502573
 20
-21.956159627
 30
0.0
 10
-30.137731111
 20
-21.7920500651
 30
0.0
 10
-30.2780926328
 20
-21.5966524881
 30
0.0
 11
-29.7278629742
 21
-22.0637514627
 31
0.0
 11
-30.2780926328
 21
-21.5966524881
 31
0.0
  0
SPLINE
  5
3F0
100
AcDbEntity
  8
RACCORDO
100
AcDbSpline
 62
7
  6
CONTINUOUS
 70
0
 71
3
 72
9
 73
5
 74
3
 42
0.0000001
 43
0.0000001
 44
0.0000000001
 12
-0.541651998
 22
0.7540349144
 32
0.0
 13
-0.0018269696
 23
0.9284138093
 33
0.0
 40
0.0
 40
0.0
 40
0.0
 40
0.0
 40
0.4991195173
 40
1.0
 40
1.0
 40
1.0
 40
1.0
 10
-30.2780926328
 20
-21.5966524881
 30
0.0
 10
-30.368208994
 20
-21.4712013072
 30
0.0
 10
-30.5109005645
 20
-21.1900736209
 30
0.0
 10
-30.5584616499
 20
-20.8785609857
 30
0.0
 10
-30.5587666811
 20
-20.7235528667
 30
0.0
 11
-30.2780926328
 21
-21.5966524881
 31
0.0
 11
-30.4869503553
 21
-21.1829991697
 31
0.0
 11
-30.5587666811
 21
-20.7235528667
 31
0.0
  0
SPLINE
  5
3F1
100
AcDbEntity
  8
RACCORDO
100
AcDbSpline
 62
253
  6
CONTINUOUS
 70
0
 71
3
 72
11
 73
7
 74
5
 42
0.0000001
 43
0.0000001
 44
0.0000000001
 12
-6.887897492
 22
3.4439486231
 32
0.0
 13
-2.2968874179
 23
7.3503892529
 33
0.0
 40
0.0
 40
0.0
 40
0.0
 40
0.0
 40
0.2241932091
 40
0.4728708021
 40
0.7357969835
 40
1.0
 40
1.0
 40
1.0
 40
1.0
 10
-24.8385785855
 20
-15.4777294021
 30
0.0
 10
-25.3533185331
 20
-15.2203594375
 30
0.0
 10
-26.3605723666
 20
-14.517008861
 30
0.0
 10
-27.6521426374
 20
-13.1242947087
 30
0.0
 10
-28.7257615131
 20
-11.435162968
 30
0.0
 10
-29.2486463962
 20
-10.1782649152
 30
0.0
 10
-29.4509279243
 20
-9.5309332443
 30
0.0
 11
-24.8385785855
 21
-15.4777294021
 31
0.0
 11
-26.2685857869
 21
-14.5103370227
 31
0.0
 11
-27.5822309155
 21
-13.1168798643
 31
0.0
 11
-28.6725955615
 21
-11.4107746503
 31
0.0
 11
-29.4509279243
 21
-9.5309332443
 31
0.0
  0
SPLINE
  5
3F2
100
AcDbEntity
  8
RACCORDO
100
AcDbSpline
 62
253
  6
CONTINUOUS
 70
0
 71
3
 72
13
 73
9
 74
7
 42
0.0000001
 43
0.0000001
 44
0.0000000001
 12
-1.5436192283
 22
4.9399092073
 32
0.0
 13
2.14147319
 23
4.7116404653
 33
0.0
 40
0.0
 40
0.0
 40
0.0
 40
0.0
 40
0.2874328234
 40
0.5603967827
 40
0.6828130101
 40
0.794186295
 40
0.8978900142
 40
1.0
 40
1.0
 40
1.0
 40
1.0
 10
-29.4509279243
 20
-9.5309332443
 30
0.0
 10
-29.5988235353
 20
-9.057635894
 30
0.0
 10
-29.7192332376
 20
-8.0857899644
 30
0.0
 10
-29.7102399955
 20
-6.9098238001
 30
0.0
 10
-29.7125741389
 20
-6.0354268024
 30
0.0
 10
-29.6988855196
 20
-5.45309447
 30
0.0
 10
-29.6318257852
 20
-4.9084791993
 30
0.0
 10
-29.5238165233
 20
-4.5667578104
 30
0.0
 10
-29.4509279243
 20
-4.4063892968
 30
0.0
 11
-29.4509279243
 21
-9.5309332443
 31
0.0
 11
-29.6887234298
 21
-8.0624630405
 31
0.0
 11
-29.7116072125
 21
-6.6499323078
 31
0.0
 11
-29.7097299122
 21
-6.0163738891
 31
0.0
 11
-29.6887205077
 21
-5.4403480893
 31
0.0
 11
-29.6151141337
 21
-4.9087040994
 31
0.0
 11
-29.4509279243
 21
-4.4063892968
 31
0.0
  0
SPLINE
  5
3F3
100
AcDbEntity
  8
RACCORDO
100
AcDbSpline
 62
253
  6
CONTINUOUS
 70
0
 71
3
 72
9
 73
5
 74
3
 42
0.0000001
 43
0.0000001
 44
0.0000000001
 12
0.8999336352
 22
1.9799909293
 32
0.0
 13
1.9660328144
 23
0.9300320428
 33
0.0
 40
0.0
 40
0.0
 40
0.0
 40
0.0
 40
0.5190206697
 40
1.0
 40
1.0
 40
1.0
 40
1.0
 10
-29.4509279243
 20
-4.4063892968
 30
0.0
 10
-29.295233205
 20
-4.0638372241
 30
0.0
 10
-28.901238505
 20
-3.4381263976
 30
0.0
 10
-28.3040443302
 20
-2.991960319
 30
0.0
 10
-27.9888372813
 20
-2.8428515893
 30
0.0
 11
-29.4509279243
 21
-4.4063892968
 31
0.0
 11
-28.8315120454
 21
-3.4626897248
 31
0.0
 11
-27.9888372813
 21
-2.8428515893
 31
0.0
  0
SPLINE
  5
3F4
100
AcDbEntity
  8
RACCORDO
100
AcDbSpline
 62
7
  6
CONTINUOUS
 70
0
 71
3
 72
8
 73
4
 74
2
 42
0.0000001
 43
0.0000001
 44
0.0000000001
 12
-0.0789400319
 22
0.044643305
 32
0.0
 13
-0.0426956698
 23
0.0800102062
 33
0.0
 40
0.0
 40
0.0
 40
0.0
 40
0.0
 40
1.0
 40
1.0
 40
1.0
 40
1.0
 10
-19.0740723942
 20
8.059401844
 30
0.0
 10
-19.1003857382
 20
8.0742829457
 30
0.0
 10
-19.1221511013
 20
8.0986251954
 30
0.0
 10
-19.1363829912
 20
8.1252952642
 30
0.0
 11
-19.0740723942
 21
8.059401844
 31
0.0
 11
-19.1363829912
 21
8.1252952642
 31
0.0
  0
SPLINE
  5
3F5
100
AcDbEntity
  8
RACCORDO
100
AcDbSpline
 62
7
  6
CONTINUOUS
 70
0
 71
3
 72
8
 73
4
 74
2
 42
0.0000001
 43
0.0000001
 44
0.0000000001
 12
-0.1873998154
 22
0.0942811638
 32
0.0
 13
-0.1547703908
 23
0.1416112805
 33
0.0
 40
0.0
 40
0.0
 40
0.0
 40
0.0
 40
1.0
 40
1.0
 40
1.0
 40
1.0
 10
-25.976119271
 20
11.5101894285
 30
0.0
 10
-26.0385858761
 20
11.5416164831
 30
0.0
 10
-26.0960746371
 20
11.5837323921
 30
0.0
 10
-26.1476647674
 20
11.6309361522
 30
0.0
 11
-25.976119271
 21
11.5101894285
 31
0.0
 11
-26.1476647674
 21
11.6309361522
 31
0.0
  0
SPLINE
  5
3F6
100
AcDbEntity
  8
RACCORDO
100
AcDbSpline
 62
7
  6
CONTINUOUS
 70
0
 71
3
 72
9
 73
5
 74
3
 42
0.0000001
 43
0.0000001
 44
0.0000000001
 12
-0.0922277911
 22
0.0461809622
 32
0.0
 13
-0.0512877107
 23
0.0894886443
 33
0.0
 40
0.0
 40
0.0
 40
0.0
 40
0.0
 40
0.7369452253
 40
1.0
 40
1.0
 40
1.0
 40
1.0
 10
-25.4394291886
 20
11.2418729924
 30
0.0
 10
-25.4620847987
 20
11.2532172723
 30
0.0
 10
-25.4892180125
 20
11.2768360267
 30
0.0
 10
-25.5081079584
 20
11.3055595222
 30
0.0
 10
-25.5126051175
 20
11.3134063273
 30
0.0
 11
-25.4394291886
 21
11.2418729924
 31
0.0
 11
-25.4975993613
 21
11.2908010539
 31
0.0
 11
-25.5126051175
 21
11.3134063273
 31
0.0
  0
SPLINE
  5
3F7
100
AcDbEntity
  8
RACCORDO
100
AcDbSpline
 62
7
  6
CONTINUOUS
 70
0
 71
3
 72
9
 73
5
 74
3
 42
0.0000001
 43
0.0000001
 44
0.0000000001
 12
0.0003685952
 22
-0.1935863715
 32
0.0
 13
0.0549095595
 23
-0.1856360939
 33
0.0
 40
0.0
 40
0.0
 40
0.0
 40
0.0
 40
0.2421834581
 40
1.0
 40
1.0
 40
1.0
 40
1.0
 10
-18.5316006743
 20
-27.4757116865
 30
0.0
 10
-18.5315709184
 20
-27.4913394921
 30
0.0
 10
-18.5284828052
 20
-27.5558598336
 30
0.0
 10
-18.5151937988
 20
-27.6196308001
 30
0.0
 10
-18.5013233413
 20
-27.666523501
 30
0.0
 11
-18.5316006743
 21
-27.4757116865
 31
0.0
 11
-18.5294768273
 21
-27.522547058
 31
0.0
 11
-18.5013233413
 21
-27.666523501
 31
0.0
  0
SPLINE
  5
3F8
100
AcDbEntity
  8
RACCORDO
100
AcDbSpline
 62
253
  6
CONTINUOUS
 70
0
 71
3
 72
9
 73
5
 74
3
 42
0.0000001
 43
0.0000001
 44
0.0000000001
 12
-0.3931233058
 22
-0.3393569162
 32
0.0
 13
0.1946282821
 23
-0.4814861181
 33
0.0
 40
0.0
 40
0.0
 40
0.0
 40
0.0
 40
0.4657874727
 40
1.0
 40
1.0
 40
1.0
 40
1.0
 10
-29.7018091361
 20
10.7463216534
 30
0.0
 10
-29.7628464398
 20
10.6936322533
 30
0.0
 10
-29.8471587886
 20
10.5235444312
 30
0.0
 10
-29.8144939833
 20
10.3437480758
 30
0.0
 10
-29.7798363611
 20
10.2580094371
 30
0.0
 11
-29.7018091361
 21
10.7463216534
 31
0.0
 11
-29.8160105856
 21
10.533076356
 31
0.0
 11
-29.7798363611
 21
10.2580094371
 31
0.0
  0
SPLINE
  5
3F9
100
AcDbEntity
  8
RACCORDO
100
AcDbSpline
 62
253
  6
CONTINUOUS
 70
0
 71
3
 72
9
 73
5
 74
3
 42
0.0000001
 43
0.0000001
 44
0.0000000001
 12
0.0013296391
 22
-0.2364684883
 32
0.0
 13
0.2115071893
 23
-0.1057535947
 33
0.0
 40
0.0
 40
0.0
 40
0.0
 40
0.0
 40
0.2095695942
 40
1.0
 40
1.0
 40
1.0
 40
1.0
 10
-29.8885359967
 20
10.3567223967
 30
0.0
 10
-29.8884431127
 20
10.3402035283
 30
0.0
 10
-29.8710964203
 20
10.2609049577
 30
0.0
 10
-29.7977590933
 20
10.2085154735
 30
0.0
 10
-29.7420318555
 20
10.1806518546
 30
0.0
 11
-29.8885359967
 21
10.3567223967
 31
0.0
 11
-29.8787133582
 21
10.3081482211
 31
0.0
 11
-29.7420318555
 21
10.1806518546
 31
0.0
  0
SPLINE
  5
3FA
100
AcDbEntity
  8
RACCORDO
100
AcDbSpline
 62
253
  6
CONTINUOUS
 70
0
 71
3
 72
9
 73
5
 74
3
 42
0.0000001
 43
0.0000001
 44
0.0000000001
 12
0.1420339511
 22
0.073007131
 32
0.0
 13
0.1546511366
 23
-0.0398335336
 33
0.0
 40
0.0
 40
0.0
 40
0.0
 40
0.0
 40
0.2379978134
 40
1.0
 40
1.0
 40
1.0
 40
1.0
 10
-27.7264631531
 20
12.1723340483
 30
0.0
 10
-27.7151952298
 20
12.1781258941
 30
0.0
 10
-27.6653373379
 20
12.1977443154
 30
0.0
 10
-27.608673771
 20
12.1951729667
 30
0.0
 10
-27.5693922696
 20
12.1850552201
 30
0.0
 11
-27.7264631531
 21
12.1723340483
 31
0.0
 11
-27.6910775977
 21
12.1862072826
 31
0.0
 11
-27.5693922696
 21
12.1850552201
 31
0.0
  0
SPLINE
  5
3FB
100
AcDbEntity
  8
RACCORDO
100
AcDbSpline
 62
253
  6
CONTINUOUS
 70
0
 71
3
 72
8
 73
4
 74
2
 42
0.0000001
 43
0.0000001
 44
0.0000000001
 12
-0.1269987261
 22
-0.0926860615
 32
0.0
 13
-0.0691503589
 23
-0.141200603
 33
0.0
 40
0.0
 40
0.0
 40
0.0
 40
0.0
 40
1.0
 40
1.0
 40
1.0
 40
1.0
 10
-27.7911234753
 20
12.1324762683
 30
0.0
 10
-27.833456384
 20
12.1015809144
 30
0.0
 10
-27.8685752315
 20
12.0586350908
 30
0.0
 10
-27.8916253511
 20
12.0115682231
 30
0.0
 11
-27.7911234753
 21
12.1324762683
 31
0.0
 11
-27.8916253511
 21
12.0115682231
 31
0.0
  0
SPLINE
  5
3FC
100
AcDbEntity
  8
RACCORDO
100
AcDbSpline
 62
253
  6
CONTINUOUS
 70
0
 71
3
 72
8
 73
4
 74
2
 42
0.0000001
 43
0.0000001
 44
0.0000000001
 12
-0.0319497837
 22
-0.0652394115
 32
0.0
 13
-0.0185600136
 23
-0.0702317263
 33
0.0
 40
0.0
 40
0.0
 40
0.0
 40
0.0
 40
1.0
 40
1.0
 40
1.0
 40
1.0
 10
-27.8916253511
 20
12.0115682231
 30
0.0
 10
-27.902275279
 20
11.9898217526
 30
0.0
 10
-27.9106606994
 20
11.9668552401
 30
0.0
 10
-27.9168473706
 20
11.9434446647
 30
0.0
 11
-27.8916253511
 21
12.0115682231
 31
0.0
 11
-27.9168473706
 21
11.9434446647
 31
0.0
  0
SPLINE
  5
3FD
100
AcDbEntity
  8
RACCORDO
100
AcDbSpline
 62
253
  6
CONTINUOUS
 70
0
 71
3
 72
9
 73
5
 74
3
 42
0.0000001
 43
0.0000001
 44
0.0000000001
 12
-0.1031790327
 22
-0.3904329889
 32
0.0
 13
0.2025586643
 23
-0.3493620173
 33
0.0
 40
0.0
 40
0.0
 40
0.0
 40
0.0
 40
0.2357524014
 40
1.0
 40
1.0
 40
1.0
 40
1.0
 10
-27.9168473706
 20
11.9434446647
 30
0.0
 10
-27.9249556055
 20
11.9127628264
 30
0.0
 10
-27.9438244036
 20
11.778526634
 30
0.0
 10
-27.9029239525
 20
11.6399336062
 30
0.0
 10
-27.8513222949
 20
11.550933912
 30
0.0
 11
-27.9168473706
 21
11.9434446647
 31
0.0
 11
-27.9305304077
 21
11.8492276676
 31
0.0
 11
-27.8513222949
 21
11.550933912
 31
0.0
  0
SPLINE
  5
3FE
100
AcDbEntity
  8
RACCORDO
100
AcDbSpline
 62
253
  6
CONTINUOUS
 70
0
 71
3
 72
9
 73
5
 74
3
 42
0.0000001
 43
0.0000001
 44
0.0000000001
 12
-0.276988845
 22
0.1406840855
 32
0.0
 13
-0.0
 23
0.3106683636
 33
0.0
 40
0.0
 40
0.0
 40
0.0
 40
0.0
 40
0.4489394015
 40
1.0
 40
1.0
 40
1.0
 40
1.0
 10
-16.7348955848
 20
-27.8895131759
 30
0.0
 10
-16.7763459869
 20
-27.8684602995
 30
0.0
 10
-16.8489146836
 20
-27.7827180261
 30
0.0
 10
-16.8637466928
 20
-27.6766273983
 30
0.0
 10
-16.8637466928
 20
-27.6195617002
 30
0.0
 11
-16.7348955848
 21
-27.8895131759
 31
0.0
 11
-16.8298672492
 21
-27.7873729884
 31
0.0
 11
-16.8637466928
 21
-27.6195617002
 31
0.0
  0
SPLINE
  5
3FF
100
AcDbEntity
  8
RACCORDO
100
AcDbSpline
 62
253
  6
CONTINUOUS
 70
0
 71
3
 72
11
 73
7
 74
5
 42
0.0000001
 43
0.0000001
 44
0.0000000001
 12
-2.9896819524
 22
-1.5782522432
 32
0.0
 13
-3.0237828603
 23
1.5118913762
 33
0.0
 40
0.0
 40
0.0
 40
0.0
 40
0.0
 40
0.2271368311
 40
0.4644231281
 40
0.7206739237
 40
1.0
 40
1.0
 40
1.0
 40
1.0
 10
-21.5826986305
 20
-15.6539910519
 30
0.0
 10
-21.8090542586
 20
-15.7734841229
 30
0.0
 10
-22.3101905299
 20
-15.9511971539
 30
0.0
 10
-23.1296185651
 20
-16.0025061042
 30
0.0
 10
-23.9933683704
 20
-15.8450374694
 30
0.0
 10
-24.5570381182
 20
-15.6184996307
 30
0.0
 10
-24.8385785855
 20
-15.4777294021
 30
0.0
 11
-21.5826986305
 21
-15.6539910519
 31
0.0
 11
-22.30567944
 21
-15.9127147056
 31
0.0
 11
-23.105838369
 21
-15.9697892698
 31
0.0
 11
-23.9595925312
 21
-15.8228600213
 31
0.0
 11
-24.8385785855
 21
-15.4777294021
 31
0.0
  0
SPLINE
  5
400
100
AcDbEntity
  8
RACCORDO
100
AcDbSpline
 62
253
  6
CONTINUOUS
 70
0
 71
3
 72
9
 73
5
 74
3
 42
0.0000001
 43
0.0000001
 44
0.0000000001
 12
-0.0031738212
 22
-0.0423882853
 32
0.0
 13
0.0371554134
 23
-0.0206473999
 33
0.0
 40
0.0
 40
0.0
 40
0.0
 40
0.0
 40
0.2911050067
 40
1.0
 40
1.0
 40
1.0
 40
1.0
 10
-12.4518956553
 20
13.076664388
 30
0.0
 10
-12.4522036271
 20
13.0725512407
 30
0.0
 10
-12.4521991727
 20
13.0585080592
 30
0.0
 10
-12.4445212225
 20
13.0435214605
 30
0.0
 10
-12.4357414603
 20
13.0386425143
 30
0.0
 11
-12.4518956553
 21
13.076664388
 31
0.0
 11
-12.4515507653
 21
13.0642952126
 31
0.0
 11
-12.4357414603
 21
13.0386425143
 31
0.0
  0
SPLINE
  5
401
100
AcDbEntity
  8
RACCORDO
100
AcDbSpline
 62
253
  6
CONTINUOUS
 70
0
 71
3
 72
11
 73
7
 74
5
 42
0.0000001
 43
0.0000001
 44
0.0000000001
 12
0.8615360196
 22
0.4138566224
 32
0.0
 13
0.0068449573
 23
0.9557587371
 33
0.0
 40
0.0
 40
0.0
 40
0.0
 40
0.0
 40
0.216441358
 40
0.449485216
 40
0.7101485206
 40
1.0
 40
1.0
 40
1.0
 40
1.0
 10
-18.5410908539
 20
-27.0076571701
 30
0.0
 10
-18.4789335119
 20
-26.977798607
 30
0.0
 10
-18.3609041063
 20
-26.8903424053
 30
0.0
 10
-18.2334367396
 20
-26.6991598061
 30
0.0
 10
-18.1567922696
 20
-26.4589859462
 30
0.0
 10
-18.1403188791
 20
-26.2830933821
 30
0.0
 10
-18.1396575388
 20
-26.1907506874
 30
0.0
 11
-18.5410908539
 21
-27.0076571701
 31
0.0
 11
-18.3739240596
 21
-26.885792969
 31
0.0
 11
-18.247379126
 21
-26.7024920498
 31
0.0
 11
-18.1680267004
 21
-26.4663295079
 31
0.0
 11
-18.1396575388
 21
-26.1907506874
 31
0.0
  0
SPLINE
  5
402
100
AcDbEntity
  8
ASSI
100
AcDbSpline
 62
7
  6
CONTINUOUS
 70
0
 71
3
 72
8
 73
4
 74
2
 42
0.0000001
 43
0.0000001
 44
0.0000000001
 12
0.0095944508
 22
0.0501532279
 32
0.0
 13
0.0108874026
 23
0.0498885179
 33
0.0
 40
0.0
 40
0.0
 40
0.0
 40
0.0
 40
1.0
 40
1.0
 40
1.0
 40
1.0
 10
-6.9739674577
 20
11.4243890193
 30
0.0
 10
-6.9707693075
 20
11.441106762
 30
0.0
 10
-6.9672371142
 20
11.4577603231
 30
0.0
 10
-6.96360798
 20
11.4743898291
 30
0.0
 11
-6.9739674577
 21
11.4243890193
 31
0.0
 11
-6.96360798
 21
11.4743898291
 31
0.0
  0
SPLINE
  5
403
100
AcDbEntity
  8
ASSI
100
AcDbSpline
 62
7
  6
CONTINUOUS
 70
0
 71
3
 72
9
 73
5
 74
3
 42
0.0000001
 43
0.0000001
 44
0.0000000001
 12
0.067746809
 22
0.3104310558
 32
0.0
 13
0.0346516562
 23
0.3158422601
 33
0.0
 40
0.0
 40
0.0
 40
0.0
 40
0.0
 40
0.2623451464
 40
1.0
 40
1.0
 40
1.0
 40
1.0
 10
-6.96360798
 20
11.4743898291
 30
0.0
 10
-6.9576836311
 20
11.5015365227
 30
0.0
 10
-6.9339288705
 20
11.6047035347
 30
0.0
 10
-6.9123106027
 20
11.7087289469
 30
0.0
 10
-6.9037902819
 20
11.7863898056
 30
0.0
 11
-6.96360798
 21
11.4743898291
 31
0.0
 11
-6.9453667829
 21
11.5557263318
 31
0.0
 11
-6.9037902819
 21
11.7863898056
 31
0.0
  0
SPLINE
  5
404
100
AcDbEntity
  8
RACCORDO
100
AcDbSpline
 62
253
  6
CONTINUOUS
 70
0
 71
3
 72
9
 73
5
 74
3
 42
0.0000001
 43
0.0000001
 44
0.0000000001
 12
0.1958030324
 22
-0.1314147177
 32
0.0
 13
0.1440758996
 23
-0.1866836647
 33
0.0
 40
0.0
 40
0.0
 40
0.0
 40
0.0
 40
0.2702136062
 40
1.0
 40
1.0
 40
1.0
 40
1.0
 10
-12.4169109655
 20
13.054173252
 30
0.0
 10
-12.399274751
 20
13.0423365704
 30
0.0
 10
-12.3354555678
 20
12.9965330387
 30
0.0
 10
-12.2773571195
 20
12.9418774329
 30
0.0
 10
-12.2423089091
 20
12.8964643668
 30
0.0
 11
-12.4169109655
 21
13.054173252
 31
0.0
 11
-12.3652028294
 21
13.0169367578
 31
0.0
 11
-12.2423089091
 21
12.8964643668
 31
0.0
  0
LINE
  5
405
100
AcDbEntity
  8
RACCORDO
100
AcDbLine
 62
7
  6
CONTINUOUS
 10
-19.1363829912
 20
8.1252952642
 11
-19.4644850185
 21
8.3073843037
  0
LINE
  5
406
100
AcDbEntity
  8
RACCORDO
100
AcDbLine
 62
7
  6
CONTINUOUS
 10
-19.4644850185
 20
8.3073843037
 11
-19.6286468175
 21
8.3985410574
  0
LINE
  5
407
100
AcDbEntity
  8
RACCORDO
100
AcDbLine
 62
7
  6
CONTINUOUS
 10
-19.6286468175
 20
8.3985410574
 11
-20.0544852215
 21
8.635164082
  0
LINE
  5
408
100
AcDbEntity
  8
RACCORDO
100
AcDbLine
 62
7
  6
CONTINUOUS
 10
-20.0544852215
 20
8.635164082
 11
-20.1215728164
 21
8.6724637216
  0
SPLINE
  5
409
100
AcDbEntity
  8
RACCORDO
100
AcDbSpline
 62
7
  6
CONTINUOUS
 70
0
 71
3
 72
9
 73
5
 74
3
 42
0.0000001
 43
0.0000001
 44
0.0000000001
 12
-0.030513185
 22
-0.0194713263
 32
0.0
 13
-0.0174889122
 23
-0.0316910864
 33
0.0
 40
0.0
 40
0.0
 40
0.0
 40
0.0
 40
0.7304263183
 40
1.0
 40
1.0
 40
1.0
 40
1.0
 10
-18.5846429739
 20
7.8494252555
 30
0.0
 10
-18.592072185
 20
7.8446844657
 30
0.0
 10
-18.6007461077
 20
7.836837168
 30
0.0
 10
-18.6133488495
 20
7.8324397333
 30
0.0
 10
-18.6149203663
 20
7.829592039
 30
0.0
 11
-18.5846429739
 21
7.8494252555
 31
0.0
 11
-18.6068396216
 21
7.8350613001
 31
0.0
 11
-18.6149203663
 21
7.829592039
 31
0.0
  0
LINE
  5
40A
100
AcDbEntity
  8
RACCORDO
100
AcDbLine
 62
7
  6
CONTINUOUS
 10
-24.5115986522
 20
10.8674766394
 11
-24.8457728163
 21
11.0162183227
  0
LINE
  5
40B
100
AcDbEntity
  8
RACCORDO
100
AcDbLine
 62
7
  6
CONTINUOUS
 10
-24.8457728163
 20
11.0162183227
 11
-25.0126701069
 21
11.0905527021
  0
LINE
  5
40C
100
AcDbEntity
  8
RACCORDO
100
AcDbLine
 62
7
  6
CONTINUOUS
 10
-25.0126701069
 20
11.0905527021
 11
-25.4250011676
 21
11.2743354407
  0
LINE
  5
40D
100
AcDbEntity
  8
RACCORDO
100
AcDbLine
 62
7
  6
CONTINUOUS
 10
-25.4250011676
 20
11.2743354407
 11
-25.5126051175
 21
11.3134063273
  0
SPLINE
  5
40E
100
AcDbEntity
  8
RACCORDO
100
AcDbSpline
 62
7
  6
CONTINUOUS
 70
0
 71
3
 72
8
 73
4
 74
2
 42
0.0000001
 43
0.0000001
 44
0.0000000001
 12
-0.1513191141
 22
-0.1776109448
 32
0.0
 13
-0.0742824043
 23
-0.2211905206
 33
0.0
 40
0.0
 40
0.0
 40
0.0
 40
0.0
 40
1.0
 40
1.0
 40
1.0
 40
1.0
 10
-19.0223337356
 20
-27.1454356026
 30
0.0
 10
-19.0727734403
 20
-27.2046392509
 30
0.0
 10
-19.1116221898
 20
-27.2752635025
 30
0.0
 10
-19.1363829912
 20
-27.348993676
 30
0.0
 11
-19.0223337356
 21
-27.1454356026
 31
0.0
 11
-19.1363829912
 21
-27.348993676
 31
0.0
  0
LINE
  5
40F
100
AcDbEntity
  8
RACCORDO
100
AcDbLine
 62
7
  6
CONTINUOUS
 10
-20.1215728164
 20
-26.8951556681
 11
-19.7997314002
 21
-27.0434832351
  0
LINE
  5
410
100
AcDbEntity
  8
RACCORDO
100
AcDbLine
 62
7
  6
CONTINUOUS
 10
-19.7997314002
 20
-27.0434832351
 11
-19.4713363906
 21
-27.194763274
  0
LINE
  5
411
100
AcDbEntity
  8
RACCORDO
100
AcDbLine
 62
7
  6
CONTINUOUS
 10
-19.4713363906
 20
-27.194763274
 11
-19.1363829912
 21
-27.348993676
  0
SPLINE
  5
412
100
AcDbEntity
  8
RACCORDO
100
AcDbSpline
 62
7
  6
CONTINUOUS
 70
0
 71
3
 72
8
 73
4
 74
2
 42
0.0000001
 43
0.0000001
 44
0.0000000001
 12
-0.1536810839
 22
0.4977135234
 32
0.0
 13
-0.0756451954
 23
0.51537795
 33
0.0
 40
0.0
 40
0.0
 40
0.0
 40
0.0
 40
1.0
 40
1.0
 40
1.0
 40
1.0
 10
-18.4684471973
 20
7.3416505333
 30
0.0
 10
-18.5196742253
 20
7.5075550411
 30
0.0
 10
-18.5594279087
 20
7.6776326055
 30
0.0
 10
-18.5846429739
 20
7.8494252555
 30
0.0
 11
-18.4684471973
 21
7.3416505333
 31
0.0
 11
-18.5846429739
 21
7.8494252555
 31
0.0
  0
SPLINE
  5
413
100
AcDbEntity
  8
RACCORDO
100
AcDbSpline
 62
7
  6
CONTINUOUS
 70
0
 71
3
 72
9
 73
5
 74
3
 42
0.0000001
 43
0.0000001
 44
0.0000000001
 12
-0.1588832139
 22
-0.2927488124
 32
0.0
 13
-0.1358526047
 23
-0.3041213781
 33
0.0
 40
0.0
 40
0.0
 40
0.0
 40
0.0
 40
0.2613131483
 40
1.0
 40
1.0
 40
1.0
 40
1.0
 10
-26.1809737233
 20
11.5702681453
 30
0.0
 10
-26.1948131476
 20
11.5447684407
 30
0.0
 10
-26.247131237
 20
11.4468459915
 30
0.0
 10
-26.2964905786
 20
11.3472811339
 30
0.0
 10
-26.3299414229
 20
11.2723976461
 30
0.0
 11
-26.1809737233
 21
11.5702681453
 31
0.0
 11
-26.2219539201
 21
11.4934794426
 31
0.0
 11
-26.3299414229
 21
11.2723976461
 31
0.0
  0
SPLINE
  5
414
100
AcDbEntity
  8
RACCORDO
100
AcDbSpline
 62
7
  6
CONTINUOUS
 70
0
 71
3
 72
9
 73
5
 74
3
 42
0.0000001
 43
0.0000001
 44
0.0000000001
 12
0.0767051753
 22
0.3122255757
 32
0.0
 13
0.1286670245
 23
0.2946409524
 33
0.0
 40
0.0
 40
0.0
 40
0.0
 40
0.0
 40
0.2364036729
 40
1.0
 40
1.0
 40
1.0
 40
1.0
 10
-18.5013233413
 20
-27.666523501
 30
0.0
 10
-18.4952788796
 20
-27.6419197434
 30
0.0
 10
-18.4666536728
 20
-27.5385915511
 30
0.0
 10
-18.4277419749
 20
-27.4383522729
 30
0.0
 10
-18.3949920858
 20
-27.3633566899
 30
0.0
 11
-18.5013233413
 21
-27.666523501
 31
0.0
 11
-18.4811697935
 21
-27.5932380442
 31
0.0
 11
-18.3949920858
 21
-27.3633566899
 31
0.0
  0
SPLINE
  5
415
100
AcDbEntity
  8
RACCORDO
100
AcDbSpline
 62
253
  6
CONTINUOUS
 70
0
 71
3
 72
9
 73
5
 74
3
 42
0.0000001
 43
0.0000001
 44
0.0000000001
 12
-0.2035448509
 22
-0.1039479508
 32
0.0
 13
-0.145666608
 23
-0.1761162176
 33
0.0
 40
0.0
 40
0.0
 40
0.0
 40
0.0
 40
0.2304036822
 40
1.0
 40
1.0
 40
1.0
 40
1.0
 10
-27.5008542005
 20
12.1591641732
 30
0.0
 10
-27.5164866949
 20
12.151180843
 30
0.0
 10
-27.5819765612
 20
12.1119586737
 30
0.0
 10
-27.6381489944
 20
12.0583264296
 30
0.0
 10
-27.6755171561
 20
12.0131469654
 30
0.0
 11
-27.5008542005
 21
12.1591641732
 31
0.0
 11
-27.5461702837
 21
12.1323420074
 31
0.0
 11
-27.6755171561
 21
12.0131469654
 31
0.0
  0
SPLINE
  5
416
100
AcDbEntity
  8
RACCORDO
100
AcDbSpline
 62
253
  6
CONTINUOUS
 70
0
 71
3
 72
8
 73
4
 74
2
 42
0.0000001
 43
0.0000001
 44
0.0000000001
 12
-0.1408109001
 22
-0.2158004124
 32
0.0
 13
-0.0641105278
 23
-0.2495743733
 33
0.0
 40
0.0
 40
0.0
 40
0.0
 40
0.0
 40
1.0
 40
1.0
 40
1.0
 40
1.0
 10
-27.725691436
 20
11.9448411672
 30
0.0
 10
-27.7726284027
 20
11.8729076964
 30
0.0
 10
-27.808612916
 20
11.7924041503
 30
0.0
 10
-27.829983092
 20
11.7092126926
 30
0.0
 11
-27.725691436
 21
11.9448411672
 31
0.0
 11
-27.829983092
 21
11.7092126926
 31
0.0
  0
SPLINE
  5
417
100
AcDbEntity
  8
RACCORDO
100
AcDbSpline
 62
253
  6
CONTINUOUS
 70
0
 71
3
 72
8
 73
4
 74
2
 42
0.0000001
 43
0.0000001
 44
0.0000000001
 12
-0.0204399733
 22
-0.0795702936
 32
0.0
 13
-0.01103723
 23
-0.0814088674
 33
0.0
 40
0.0
 40
0.0
 40
0.0
 40
0.0
 40
1.0
 40
1.0
 40
1.0
 40
1.0
 10
-27.829983092
 20
11.7092126926
 30
0.0
 10
-27.8367964164
 20
11.6826892614
 30
0.0
 10
-27.8421799152
 20
11.6557438954
 30
0.0
 10
-27.8458589919
 20
11.6286076063
 30
0.0
 11
-27.829983092
 21
11.7092126926
 31
0.0
 11
-27.8458589919
 21
11.6286076063
 31
0.0
  0
SPLINE
  5
418
100
AcDbEntity
  8
RACCORDO
100
AcDbSpline
 62
253
  6
CONTINUOUS
 70
0
 71
3
 72
8
 73
4
 74
2
 42
0.0000001
 43
0.0000001
 44
0.0000000001
 12
-0.0104611339
 22
-0.0771596731
 32
0.0
 13
-0.0
 23
-0.0778655923
 33
0.0
 40
0.0
 40
0.0
 40
0.0
 40
0.0
 40
1.0
 40
1.0
 40
1.0
 40
1.0
 10
-27.8458589919
 20
11.6286076063
 30
0.0
 10
-27.8493460365
 20
11.6028877153
 30
0.0
 10
-27.8513222949
 20
11.5768891094
 30
0.0
 10
-27.8513222949
 20
11.550933912
 30
0.0
 11
-27.8458589919
 21
11.6286076063
 31
0.0
 11
-27.8513222949
 21
11.550933912
 31
0.0
  0
SPLINE
  5
419
100
AcDbEntity
  8
RACCORDO
100
AcDbSpline
 62
253
  6
CONTINUOUS
 70
0
 71
3
 72
9
 73
5
 74
3
 42
0.0000001
 43
0.0000001
 44
0.0000000001
 12
-0.644982395
 22
-0.3293848897
 32
0.0
 13
0.0
 23
-0.7242214408
 33
0.0
 40
0.0
 40
0.0
 40
0.0
 40
0.0
 40
0.4883235049
 40
1.0
 40
1.0
 40
1.0
 40
1.0
 10
-16.5132785984
 20
6.6653763722
 30
0.0
 10
-16.6182652863
 20
6.6117609109
 30
0.0
 10
-16.7873489216
 20
6.420271415
 30
0.0
 10
-16.8637466928
 20
6.1806684737
 30
0.0
 10
-16.8637466928
 20
6.0571461109
 30
0.0
 11
-16.5132785984
 21
6.6653763722
 31
0.0
 11
-16.7612984563
 21
6.4132701426
 31
0.0
 11
-16.8637466928
 21
6.0571461109
 31
0.0
  0
SPLINE
  5
41A
100
AcDbEntity
  8
RACCORDO
100
AcDbSpline
 62
253
  6
CONTINUOUS
 70
0
 71
3
 72
9
 73
5
 74
3
 42
0.0000001
 43
0.0000001
 44
0.0000000001
 12
-0.6245533516
 22
-0.3131375328
 32
0.0
 13
-0.5657088144
 23
-0.4099945619
 33
0.0
 40
0.0
 40
0.0
 40
0.0
 40
0.0
 40
0.5263158028
 40
1.0
 40
1.0
 40
1.0
 40
1.0
 10
-16.2632881176
 20
6.4135594769
 30
0.0
 10
-16.3728588839
 20
6.3586230663
 30
0.0
 10
-16.5757580848
 20
6.24411819
 30
0.0
 10
-16.7744242509
 20
6.1218820925
 30
0.0
 10
-16.8637466928
 20
6.0571461109
 30
0.0
 11
-16.2632881176
 21
6.4135594769
 31
0.0
 11
-16.5852644096
 21
6.2359500019
 31
0.0
 11
-16.8637466928
 21
6.0571461109
 31
0.0
  0
SPLINE
  5
41B
100
AcDbEntity
  8
RACCORDO
100
AcDbSpline
 62
253
  6
CONTINUOUS
 70
0
 71
3
 72
9
 73
5
 74
3
 42
0.0000001
 43
0.0000001
 44
0.0000000001
 12
-0.6245533516
 22
-0.3131375328
 32
0.0
 13
-0.5657088144
 23
-0.4099945619
 33
0.0
 40
0.0
 40
0.0
 40
0.0
 40
0.0
 40
0.5263158021
 40
1.0
 40
1.0
 40
1.0
 40
1.0
 10
-14.372578557
 20
3.152567859
 30
0.0
 10
-14.4821493231
 20
3.0976314484
 30
0.0
 10
-14.6850485239
 20
2.9831265718
 30
0.0
 10
-14.8837146902
 20
2.8608904747
 30
0.0
 10
-14.9730371322
 20
2.796154493
 30
0.0
 11
-14.372578557
 21
3.152567859
 31
0.0
 11
-14.6945548485
 21
2.974958384
 31
0.0
 11
-14.9730371322
 21
2.796154493
 31
0.0
  0
SPLINE
  5
41C
100
AcDbEntity
  8
RACCORDO
100
AcDbSpline
 62
253
  6
CONTINUOUS
 70
0
 71
3
 72
9
 73
5
 74
3
 42
0.0000001
 43
0.0000001
 44
0.0000000001
 12
-0.6451137459
 22
-0.3169757563
 32
0.0
 13
-0.6428968037
 23
0.3214484019
 33
0.0
 40
0.0
 40
0.0
 40
0.0
 40
0.0
 40
0.5006103378
 40
1.0
 40
1.0
 40
1.0
 40
1.0
 10
-14.2690291094
 20
2.794618576
 30
0.0
 10
-14.3766793129
 20
2.7417247958
 30
0.0
 10
-14.6213321074
 20
2.7036213267
 30
0.0
 10
-14.8660184596
 20
2.7426451567
 30
0.0
 10
-14.9730371322
 20
2.796154493
 30
0.0
 11
-14.2690291094
 21
2.794618576
 31
0.0
 11
-14.621639159
 21
2.722903742
 31
0.0
 11
-14.9730371322
 21
2.796154493
 31
0.0
  0
SPLINE
  5
41D
100
AcDbEntity
  8
RACCORDO
100
AcDbSpline
 62
253
  6
CONTINUOUS
 70
0
 71
3
 72
9
 73
5
 74
3
 42
0.0000001
 43
0.0000001
 44
0.0000000001
 12
-0.6451137456
 22
-0.3169757561
 32
0.0
 13
-0.6428968034
 23
0.3214484017
 33
0.0
 40
0.0
 40
0.0
 40
0.0
 40
0.0
 40
0.5006103376
 40
1.0
 40
1.0
 40
1.0
 40
1.0
 10
-14.2690291094
 20
-26.2508155599
 30
0.0
 10
-14.3766793128
 20
-26.30370934
 30
0.0
 10
-14.6213321073
 20
-26.3418128074
 30
0.0
 10
-14.8660184596
 20
-26.3027889791
 30
0.0
 10
-14.9730371322
 20
-26.2492796429
 30
0.0
 11
-14.2690291094
 21
-26.2508155599
 31
0.0
 11
-14.6216391588
 21
-26.322530393
 31
0.0
 11
-14.9730371322
 21
-26.2492796429
 31
0.0
  0
LINE
  5
41E
100
AcDbEntity
  8
RACCORDO
100
AcDbLine
 62
253
  6
CONTINUOUS
 10
-12.4846835279
 20
13.0966236996
 11
-12.451906714
 21
13.0766711298
  0
SPLINE
  5
41F
100
AcDbEntity
  8
RACCORDO
100
AcDbSpline
 62
253
  6
CONTINUOUS
 70
0
 71
3
 72
10
 73
6
 74
4
 42
0.0000001
 43
0.0000001
 44
0.0000000001
 12
-0.6342563937
 22
-0.3084741998
 32
0.0
 13
-0.3537648134
 23
0.6101540475
 33
0.0
 40
0.0
 40
0.0
 40
0.0
 40
0.0
 40
0.2231377721
 40
0.4671199133
 40
1.0
 40
1.0
 40
1.0
 40
1.0
 10
-14.372578557
 20
-26.5052153953
 30
0.0
 10
-14.4197540766
 20
-26.5281594772
 30
0.0
 10
-14.5322486438
 20
-26.5502596812
 30
0.0
 10
-14.765577156
 20
-26.4950320185
 30
0.0
 10
-14.9101990574
 20
-26.3576592901
 30
0.0
 10
-14.9730371322
 20
-26.2492796429
 30
0.0
 11
-14.372578557
 21
-26.5052153953
 31
0.0
 11
-14.5264296325
 21
-26.5383438033
 31
0.0
 11
-14.694554849
 21
-26.5016693459
 31
0.0
 11
-14.9730371322
 21
-26.2492796429
 31
0.0
  0
SPLINE
  5
420
100
AcDbEntity
  8
RACCORDO
100
AcDbSpline
 62
253
  6
CONTINUOUS
 70
0
 71
3
 72
9
 73
5
 74
3
 42
0.0000001
 43
0.0000001
 44
0.0000000001
 12
-0.190957406
 22
-0.0928732191
 32
0.0
 13
-0.2101109023
 23
0.030717657
 33
0.0
 40
0.0
 40
0.0
 40
0.0
 40
0.0
 40
0.2410465098
 40
1.0
 40
1.0
 40
1.0
 40
1.0
 10
-16.2632881176
 20
-27.8754974526
 30
0.0
 10
-16.2786313231
 20
-27.8829597077
 30
0.0
 10
-16.3448808643
 20
-27.9085208607
 30
0.0
 10
-16.4186783416
 20
-27.9121618554
 30
0.0
 10
-16.4718331425
 20
-27.9043907644
 30
0.0
 11
-16.2632881176
 21
-27.8754974526
 31
0.0
 11
-16.3110083253
 21
-27.894008925
 31
0.0
 11
-16.4718331425
 21
-27.9043907644
 31
0.0
  0
SPLINE
  5
421
100
AcDbEntity
  8
RACCORDO
100
AcDbSpline
 62
253
  6
CONTINUOUS
 70
0
 71
3
 72
9
 73
5
 74
3
 42
0.0000001
 43
0.0000001
 44
0.0000000001
 12
-0.3212980573
 22
0.0469729243
 32
0.0
 13
-0.2327440737
 23
0.2264267947
 33
0.0
 40
0.0
 40
0.0
 40
0.0
 40
0.0
 40
0.2381603431
 40
1.0
 40
1.0
 40
1.0
 40
1.0
 10
-16.4718331425
 20
-27.9043907644
 30
0.0
 10
-16.497339961
 20
-27.9006617351
 30
0.0
 10
-16.6029455329
 20
-27.8750369131
 30
0.0
 10
-16.6980808475
 20
-27.8133788464
 30
0.0
 10
-16.7571854026
 20
-27.7558785426
 30
0.0
 11
-16.4718331425
 21
-27.9043907644
 31
0.0
 11
-16.5470482028
 21
-27.8864122841
 31
0.0
 11
-16.7571854026
 21
-27.7558785426
 31
0.0
  0
SPLINE
  5
422
100
AcDbEntity
  8
RACCORDO
100
AcDbSpline
 62
253
  6
CONTINUOUS
 70
0
 71
3
 72
9
 73
5
 74
3
 42
0.0000001
 43
0.0000001
 44
0.0000000001
 12
-0.0008317169
 22
-0.2797903318
 32
0.0
 13
-0.2264169745
 23
-0.1643735842
 33
0.0
 40
0.0
 40
0.0
 40
0.0
 40
0.0
 40
0.2909728637
 40
1.0
 40
1.0
 40
1.0
 40
1.0
 10
-14.2690291094
 20
-26.2508155599
 30
0.0
 10
-14.2691097785
 20
-26.2779526912
 30
0.0
 10
-14.2755768878
 20
-26.3701034822
 30
0.0
 10
-14.3190666307
 20
-26.4663669514
 30
0.0
 10
-14.372578557
 20
-26.5052153953
 30
0.0
 11
-14.2690291094
 21
-26.2508155599
 31
0.0
 11
-14.2760078141
 21
-26.3319276511
 31
0.0
 11
-14.372578557
 21
-26.5052153953
 31
0.0
  0
SPLINE
  5
423
100
AcDbEntity
  8
RACCORDO
100
AcDbSpline
 62
253
  6
CONTINUOUS
 70
0
 71
3
 72
9
 73
5
 74
3
 42
0.0000001
 43
0.0000001
 44
0.0000000001
 12
0.3193918974
 22
-0.1608669662
 32
0.0
 13
0.1802655507
 23
-0.3088586993
 33
0.0
 40
0.0
 40
0.0
 40
0.0
 40
0.0
 40
0.2265159904
 40
1.0
 40
1.0
 40
1.0
 40
1.0
 10
-16.5132785984
 20
6.6653763722
 30
0.0
 10
-16.4891628078
 20
6.6532300588
 30
0.0
 10
-16.3881069359
 20
6.5889841647
 30
0.0
 10
-16.3097656246
 20
6.4931918986
 30
0.0
 10
-16.2632881176
 20
6.4135594769
 30
0.0
 11
-16.5132785984
 21
6.6653763722
 31
0.0
 11
-16.4445467386
 21
6.6225059857
 31
0.0
 11
-16.2632881176
 21
6.4135594769
 31
0.0
  0
SPLINE
  5
424
100
AcDbEntity
  8
RACCORDO
100
AcDbSpline
 62
253
  6
CONTINUOUS
 70
0
 71
3
 72
9
 73
5
 74
3
 42
0.0000001
 43
0.0000001
 44
0.0000000001
 12
0.1870583359
 22
-0.3247806974
 32
0.0
 13
0.0011173991
 23
-0.374796043
 33
0.0
 40
0.0
 40
0.0
 40
0.0
 40
0.0
 40
0.2613136677
 40
1.0
 40
1.0
 40
1.0
 40
1.0
 10
-14.372578557
 20
3.152567859
 30
0.0
 10
-14.3562849238
 20
3.1242779806
 30
0.0
 10
-14.3005652769
 20
3.0125614953
 30
0.0
 10
-14.2693042453
 20
2.8869041474
 30
0.0
 10
-14.2690291094
 20
2.794618576
 30
0.0
 11
-14.372578557
 21
3.152567859
 31
0.0
 11
-14.3288344656
 21
3.064939942
 31
0.0
 11
-14.2690291094
 21
2.794618576
 31
0.0
  0
SPLINE
  5
425
100
AcDbEntity
  8
RACCORDO
100
AcDbSpline
 62
253
  6
CONTINUOUS
 70
0
 71
3
 72
10
 73
6
 74
4
 42
0.0000001
 43
0.0000001
 44
0.0000000001
 12
1.1633412572
 22
2.5595276933
 32
0.0
 13
2.7058721158
 23
0.7634140333
 33
0.0
 40
0.0
 40
0.0
 40
0.0
 40
0.0
 40
0.516637044
 40
0.7592123634
 40
1.0
 40
1.0
 40
1.0
 40
1.0
 10
-30.1202416302
 20
-4.2402751768
 30
0.0
 10
-29.9198999008
 20
-3.7994929029
 30
0.0
 10
-29.5066315888
 20
-3.1879685607
 30
0.0
 10
-28.7425693387
 20
-2.6330346853
 30
0.0
 10
-28.3188490922
 20
-2.4588898481
 30
0.0
 10
-28.1016689083
 20
-2.3976162945
 30
0.0
 11
-30.1202416302
 21
-4.2402751768
 31
0.0
 11
-29.2802016513
 21
-3.0553003976
 31
0.0
 11
-28.7275024383
 21
-2.6557393634
 31
0.0
 11
-28.1016689083
 21
-2.3976162945
 31
0.0
  0
SPLINE
  5
426
100
AcDbEntity
  8
RACCORDO
100
AcDbSpline
 62
253
  6
CONTINUOUS
 70
0
 71
3
 72
13
 73
9
 74
7
 42
0.0000001
 43
0.0000001
 44
0.0000000001
 12
10.6779227556
 22
1.6710071366
 32
0.0
 13
3.2827314075
 23
-10.297279919
 33
0.0
 40
0.0
 40
0.0
 40
0.0
 40
0.0
 40
0.0941978906
 40
0.1978197469
 40
0.3126317726
 40
0.43834827
 40
0.7135390737
 40
1.0
 40
1.0
 40
1.0
 40
1.0
 10
-27.7465128094
 20
-2.3201973345
 30
0.0
 10
-27.4112335427
 20
-2.2677288853
 30
0.0
 10
-26.6864560117
 20
-2.2736467384
 30
0.0
 10
-25.5929998104
 20
-2.5822145116
 30
0.0
 10
-24.4915243703
 20
-3.1686592059
 30
0.0
 10
-23.0247391124
 20
-4.3212655109
 30
0.0
 10
-21.4496427762
 20
-6.2733713049
 30
0.0
 10
-20.5851661737
 20
-8.1278551505
 30
0.0
 10
-20.2717080804
 20
-9.1111112652
 30
0.0
 11
-27.7465128094
 21
-2.3201973345
 31
0.0
 11
-26.7284406628
 21
-2.3162950613
 31
0.0
 11
-25.6467389348
 21
-2.6064169058
 31
0.0
 11
-24.545957356
 21
-3.1791734556
 31
0.0
 11
-23.4716543636
 21
-4.011049373
 31
0.0
 11
-21.5769067548
 21
-6.3036402521
 31
0.0
 11
-20.2717080804
 21
-9.1111112652
 31
0.0
  0
SPLINE
  5
427
100
AcDbEntity
  8
RACCORDO
100
AcDbSpline
 62
253
  6
CONTINUOUS
 70
0
 71
3
 72
9
 73
5
 74
3
 42
0.0000001
 43
0.0000001
 44
0.0000000001
 12
0.4951504249
 22
-0.522643346
 32
0.0
 13
0.6501495677
 23
0.3092499797
 33
0.0
 40
0.0
 40
0.0
 40
0.0
 40
0.0
 40
0.5236816904
 40
1.0
 40
1.0
 40
1.0
 40
1.0
 10
-30.1202415926
 20
-4.2402752188
 30
0.0
 10
-30.0338078554
 20
-4.3315081357
 30
0.0
 10
-29.8151495294
 20
-4.4564495501
 30
0.0
 10
-29.554154022
 20
-4.4554898719
 30
0.0
 10
-29.4509279743
 20
-4.406389396
 30
0.0
 11
-30.1202415926
 21
-4.2402752188
 31
0.0
 11
-29.7931824769
 21
-4.4278397659
 31
0.0
 11
-29.4509279743
 21
-4.406389396
 31
0.0
  0
SPLINE
  5
428
100
AcDbEntity
  8
RACCORDO
100
AcDbSpline
 62
253
  6
CONTINUOUS
 70
0
 71
3
 72
9
 73
5
 74
3
 42
0.0000001
 43
0.0000001
 44
0.0000000001
 12
0.6975686924
 22
0.038736845
 32
0.0
 13
0.626620842
 23
0.3089481253
 33
0.0
 40
0.0
 40
0.0
 40
0.0
 40
0.0
 40
0.4767927645
 40
1.0
 40
1.0
 40
1.0
 40
1.0
 10
-30.1202415882
 20
-9.7224997196
 30
0.0
 10
-30.0093763531
 20
-9.7163432372
 30
0.0
 10
-29.7807199991
 20
-9.6619241102
 30
0.0
 10
-29.5602121685
 20
-9.5848143821
 30
0.0
 10
-29.4509279824
 20
-9.5309330839
 30
0.0
 11
-30.1202415882
 21
-9.7224997196
 31
0.0
 11
-29.7931853776
 21
-9.6592916604
 31
0.0
 11
-29.4509279824
 21
-9.5309330839
 31
0.0
  0
SPLINE
  5
429
100
AcDbEntity
  8
RACCORDO
100
AcDbSpline
 62
253
  6
CONTINUOUS
 70
0
 71
3
 72
9
 73
5
 74
3
 42
0.0000001
 43
0.0000001
 44
0.0000000001
 12
-0.6730227102
 22
-1.4807523197
 32
0.0
 13
-1.260129512
 23
-1.0284262801
 33
0.0
 40
0.0
 40
0.0
 40
0.0
 40
0.0
 40
0.263187451
 40
1.0
 40
1.0
 40
1.0
 40
1.0
 10
-20.251681607
 20
-14.6567797362
 30
0.0
 10
-20.3107253175
 20
-14.7866848791
 30
0.0
 10
-20.5587271116
 20
-15.2686508813
 30
0.0
 10
-20.9113133465
 20
-15.7007633668
 30
0.0
 10
-21.2208064258
 20
-15.9533491632
 30
0.0
 11
-20.251681607
 21
-14.6567797362
 31
0.0
 11
-20.4485115543
 21
-15.0369264511
 31
0.0
 11
-21.2208064258
 21
-15.9533491632
 31
0.0
  0
SPLINE
  5
42A
100
AcDbEntity
  8
RACCORDO
100
AcDbSpline
 62
253
  6
CONTINUOUS
 70
0
 71
3
 72
14
 73
10
 74
8
 42
0.0000001
 43
0.0000001
 44
0.0000000001
 12
-9.6183769782
 22
-7.8498214365
 32
0.0
 13
-3.7029314835
 23
11.8499439116
 33
0.0
 40
0.0
 40
0.0
 40
0.0
 40
0.0
 40
0.0926735449
 40
0.1893158206
 40
0.2970673096
 40
0.4189596221
 40
0.5542934543
 40
0.6997044256
 40
1.0
 40
1.0
 40
1.0
 40
1.0
 10
-21.2208064258
 20
-15.9533491632
 30
0.0
 10
-21.5179294561
 20
-16.195839423
 30
0.0
 10
-22.2333925795
 20
-16.5739691331
 30
0.0
 10
-23.487031396
 20
-16.6710499961
 30
0.0
 10
-24.8117634102
 20
-16.3224132955
 30
0.0
 10
-26.1373906096
 20
-15.5724146525
 30
0.0
 10
-27.3997725649
 20
-14.4696133099
 30
0.0
 10
-28.9215694677
 20
-12.5988679473
 30
0.0
 10
-29.7495800235
 20
-10.9086701104
 30
0.0
 10
-30.1202380024
 20
-9.722508206
 30
0.0
 11
-21.2208064258
 21
-15.9533491632
 31
0.0
 11
-22.2383930698
 21
-16.490256989
 31
0.0
 11
-23.4328380019
 21
-16.603661706
 31
0.0
 11
-24.7327145941
 21
-16.2876512905
 31
0.0
 11
-26.0598744992
 21
-15.560525381
 31
0.0
 11
-27.3345023149
 21
-14.4658540031
 31
0.0
 11
-28.4797946943
 21
-13.0703810174
 31
0.0
 11
-30.1202380024
 21
-9.722508206
 31
0.0
  0
SPLINE
  5
42B
100
AcDbEntity
  8
RACCORDO
100
AcDbSpline
 62
253
  6
CONTINUOUS
 70
0
 71
3
 72
9
 73
5
 74
3
 42
0.0000001
 43
0.0000001
 44
0.0000000001
 12
-0.2841381105
 22
0.2999148186
 32
0.0
 13
0.1692816324
 23
0.3768648208
 33
0.0
 40
0.0
 40
0.0
 40
0.0
 40
0.0
 40
0.5422723172
 40
1.0
 40
1.0
 40
1.0
 40
1.0
 10
-20.2516816412
 20
-14.6567796977
 30
0.0
 10
-20.3030417184
 20
-14.6025678631
 30
0.0
 10
-20.3826876364
 20
-14.4827508286
 30
0.0
 10
-20.3799151476
 20
-14.3323486526
 30
0.0
 10
-20.3540868512
 20
-14.2748481656
 30
0.0
 11
-20.2516816412
 21
-14.6567796977
 31
0.0
 11
-20.3651853752
 21
-14.4636270969
 31
0.0
 11
-20.3540868512
 21
-14.2748481656
 31
0.0
  0
SPLINE
  5
42C
100
AcDbEntity
  8
RACCORDO
100
AcDbSpline
 62
253
  6
CONTINUOUS
 70
0
 71
3
 72
9
 73
5
 74
3
 42
0.0000001
 43
0.0000001
 44
0.0000000001
 12
-0.1296625224
 22
-0.0072003026
 32
0.0
 13
-0.0445090864
 23
0.1219965381
 33
0.0
 40
0.0
 40
0.0
 40
0.0
 40
0.0
 40
0.6592943688
 40
1.0
 40
1.0
 40
1.0
 40
1.0
 10
-20.2516816452
 20
-9.1745551933
 30
0.0
 10
-20.2801769021
 20
-9.1761375662
 30
0.0
 10
-20.3201526769
 20
-9.1778738761
 30
0.0
 10
-20.3700689713
 20
-9.161684731
 30
0.0
 10
-20.3751238034
 20
-9.1478297618
 30
0.0
 11
-20.2516816452
 21
-9.1745551933
 31
0.0
 11
-20.3372093449
 21
-9.1706354041
 31
0.0
 11
-20.3751238034
 21
-9.1478297618
 31
0.0
  0
SPLINE
  5
42D
100
AcDbEntity
  8
RACCORDO
100
AcDbSpline
 62
253
  6
CONTINUOUS
 70
0
 71
3
 72
11
 73
7
 74
5
 42
0.0000001
 43
0.0000001
 44
0.0000000001
 12
1.9405329979
 22
-0.9702664989
 32
0.0
 13
1.9472246623
 23
0.9567661727
 33
0.0
 40
0.0
 40
0.0
 40
0.0
 40
0.0
 40
0.2350941399
 40
0.4994782113
 40
0.764081181
 40
1.0
 40
1.0
 40
1.0
 40
1.0
 10
-20.251681607
 20
-26.1861429365
 30
0.0
 10
-20.099612295
 20
-26.2621775925
 30
0.0
 10
-19.7502142987
 20
-26.3709423533
 30
0.0
 10
-19.1972085208
 20
-26.4236587516
 30
0.0
 10
-18.6433885774
 20
-26.3731709377
 30
0.0
 10
-18.2927865196
 20
-26.2659904026
 30
0.0
 10
-18.1396575388
 20
-26.1907506874
 30
0.0
 11
-20.251681607
 21
-26.1861429365
 31
0.0
 11
-19.7680225925
 21
-26.3481029898
 31
0.0
 11
-19.1973294102
 21
-26.4058053132
 31
0.0
 11
-18.6259163597
 21
-26.3505563655
 31
0.0
 11
-18.1396575388
 21
-26.1907506874
 31
0.0
  0
SPLINE
  5
42E
100
AcDbEntity
  8
RACCORDO
100
AcDbSpline
 62
253
  6
CONTINUOUS
 70
0
 71
3
 72
9
 73
5
 74
3
 42
0.0000001
 43
0.0000001
 44
0.0000000001
 12
-0.6307771563
 22
0.3098735437
 32
0.0
 13
-0.6237642114
 23
-0.3237586179
 33
0.0
 40
0.0
 40
0.0
 40
0.0
 40
0.0
 40
0.5367155671
 40
1.0
 40
1.0
 40
1.0
 40
1.0
 10
-29.068837347
 20
9.1137788073
 30
0.0
 10
-29.1816866534
 20
9.1692167922
 30
0.0
 10
-29.411169118
 20
9.2438315007
 30
0.0
 10
-29.6548392503
 20
9.200439395
 30
0.0
 10
-29.7511659999
 20
9.1504419524
 30
0.0
 11
-29.068837347
 21
9.1137788073
 31
0.0
 11
-29.4321072263
 21
9.2153170756
 31
0.0
 11
-29.7511659999
 21
9.1504419524
 31
0.0
  0
SPLINE
  5
42F
100
AcDbEntity
  8
RACCORDO
100
AcDbSpline
 62
253
  6
CONTINUOUS
 70
0
 71
3
 72
11
 73
7
 74
5
 42
0.0000001
 43
0.0000001
 44
0.0000000001
 12
-0.0158641271
 22
2.1995003653
 32
0.0
 13
-1.960318156
 23
0.997600248
 33
0.0
 40
0.0
 40
0.0
 40
0.0
 40
0.0
 40
0.2466547737
 40
0.5119370216
 40
0.7706939914
 40
1.0
 40
1.0
 40
1.0
 40
1.0
 10
-18.1396575388
 20
2.3502002609
 30
0.0
 10
-18.1409618597
 20
2.5310393492
 30
0.0
 10
-18.2055751776
 20
2.9065228949
 30
0.0
 10
-18.4327553541
 20
3.4289376131
 30
0.0
 10
-18.7641964112
 20
3.8765235703
 30
0.0
 10
-19.0504397465
 20
4.1032468854
 30
0.0
 10
-19.2002773239
 20
4.1794987957
 30
0.0
 11
-18.1396575388
 21
2.3502002609
 31
0.0
 11
-18.2232558172
 21
2.8862521445
 31
0.0
 11
-18.4541762002
 21
3.4221179878
 31
0.0
 11
-18.7972553478
 21
3.8762428518
 31
0.0
 11
-19.2002773239
 21
4.1794987957
 31
0.0
  0
SPLINE
  5
430
100
AcDbEntity
  8
RACCORDO
100
AcDbSpline
 62
253
  6
CONTINUOUS
 70
0
 71
3
 72
11
 73
7
 74
5
 42
0.0000001
 43
0.0000001
 44
0.0000000001
 12
-0.643893607
 22
0.3219468035
 32
0.0
 13
-0.004086896
 23
0.7198833369
 33
0.0
 40
0.0
 40
0.0
 40
0.0
 40
0.0
 40
0.3017079518
 40
0.5653187191
 40
0.7934957886
 40
1.0
 40
1.0
 40
1.0
 40
1.0
 10
-30.1202416302
 20
-21.2518629249
 30
0.0
 10
-30.1849975706
 20
-21.2194849546
 30
0.0
 10
-30.3021973108
 20
-21.1496910336
 30
0.0
 10
-30.4451032015
 20
-21.0214026239
 30
0.0
 10
-30.5368269719
 20
-20.8780504472
 30
0.0
 10
-30.5592931884
 20
-20.7731103862
 30
0.0
 10
-30.5595745088
 20
-20.723557406
 30
0.0
 11
-30.1202416302
 21
-21.2518629249
 31
0.0
 11
-30.305712568
 21
-21.1388341044
 31
0.0
 11
-30.4445973244
 21
-21.0095110284
 31
0.0
 11
-30.5301311597
 21
-20.8692738503
 31
0.0
 11
-30.5595745088
 21
-20.723557406
 31
0.0
  0
SPLINE
  5
431
100
AcDbEntity
  8
RACCORDO
100
AcDbSpline
 62
253
  6
CONTINUOUS
 70
0
 71
3
 72
11
 73
7
 74
5
 42
0.0000001
 43
0.0000001
 44
0.0000000001
 12
0.0
 22
-0.945357549
 32
0.0
 13
0.8463619575
 23
-0.4211559477
 33
0.0
 40
0.0
 40
0.0
 40
0.0
 40
0.0
 40
0.2892482823
 40
0.5496729583
 40
0.7829661488
 40
1.0
 40
1.0
 40
1.0
 40
1.0
 10
-30.1202416302
 20
-21.2518629249
 30
0.0
 10
-30.1202416302
 20
-21.3430106073
 30
0.0
 10
-30.105223158
 20
-21.5168267561
 30
0.0
 10
-30.0312698645
 20
-21.7547615747
 30
0.0
 10
-29.9067199164
 20
-21.9450379768
 30
0.0
 10
-29.7908692152
 20
-22.0330558352
 30
0.0
 10
-29.7296394835
 20
-22.0635242009
 30
0.0
 11
-30.1202416302
 21
-21.2518629249
 31
0.0
 11
-30.0942178801
 21
-21.5240648067
 31
0.0
 11
-30.0176100622
 21
-21.7580369018
 31
0.0
 11
-29.8939576359
 21
-21.9406577815
 31
0.0
 11
-29.7296394835
 21
-22.0635242009
 31
0.0
  0
SPLINE
  5
432
100
AcDbEntity
  8
RACCORDO
100
AcDbSpline
 62
253
  6
CONTINUOUS
 70
0
 71
3
 72
11
 73
7
 74
5
 42
0.0000001
 43
0.0000001
 44
0.0000000001
 12
0.0000000001
 22
-0.9447123037
 32
0.0
 13
0.8452953354
 23
-0.4218496565
 33
0.0
 40
0.0
 40
0.0
 40
0.0
 40
0.0
 40
0.2892253376
 40
0.5496554441
 40
0.7829671178
 40
1.0
 40
1.0
 40
1.0
 40
1.0
 10
-20.251681607
 20
-26.1861429365
 30
0.0
 10
-20.251681607
 20
-26.2772211815
 30
0.0
 10
-20.2366845051
 20
-26.4509118495
 30
0.0
 10
-20.1628481481
 20
-26.6886999849
 30
0.0
 10
-20.0384966257
 20
-26.8789186516
 30
0.0
 10
-19.9228168582
 20
-26.9669942166
 30
0.0
 10
-19.8616645639
 20
-26.9975126322
 30
0.0
 11
-20.251681607
 21
-26.1861429365
 31
0.0
 11
-20.2256993552
 21
-26.4581395228
 31
0.0
 11
-20.1492123004
 21
-26.6919797293
 31
0.0
 11
-20.0257470482
 21
-26.8745665893
 31
0.0
 11
-19.8616645639
 21
-26.9975126322
 31
0.0
  0
SPLINE
  5
433
100
AcDbEntity
  8
RACCORDO
100
AcDbSpline
 62
253
  6
CONTINUOUS
 70
0
 71
3
 72
14
 73
10
 74
8
 42
0.0000001
 43
0.0000001
 44
0.0000000001
 12
-2.238902741
 22
5.149027308
 32
0.0
 13
3.4227093005
 23
4.4508683138
 33
0.0
 40
0.0
 40
0.0
 40
0.0
 40
0.0
 40
0.3002078864
 40
0.4473924834
 40
0.5858574521
 40
0.7080571972
 40
0.8126409786
 40
0.9061935223
 40
1.0
 40
1.0
 40
1.0
 40
1.0
 10
-30.1202380024
 20
-9.7225085111
 30
0.0
 10
-30.3442834223
 20
-9.207248976
 30
0.0
 10
-30.5102778043
 20
-8.3673998424
 30
0.0
 10
-30.5573150864
 20
-7.2737376229
 30
0.0
 10
-30.5588472082
 20
-6.5099113694
 30
0.0
 10
-30.5584791367
 20
-5.8265387504
 30
0.0
 10
-30.5277018703
 20
-5.2267881552
 30
0.0
 10
-30.4035496704
 20
-4.6896214472
 30
0.0
 10
-30.2272657314
 20
-4.3794486032
 30
0.0
 10
-30.1202416302
 20
-4.2402751768
 30
0.0
 11
-30.1202380024
 21
-9.7225085111
 31
0.0
 11
-30.5084858102
 21
-8.0822456395
 31
0.0
 11
-30.5522111261
 21
-7.2570017737
 31
0.0
 11
-30.5585578824
 21
-6.4795845779
 31
0.0
 11
-30.5522013883
 21
-5.7934957237
 31
0.0
 11
-30.508469986
 21
-5.2079169383
 31
0.0
 11
-30.3795712685
 21
-4.6987059201
 31
0.0
 11
-30.1202416302
 21
-4.2402751768
 31
0.0
  0
SPLINE
  5
434
100
AcDbEntity
  8
RACCORDO
100
AcDbSpline
 62
253
  6
CONTINUOUS
 70
0
 71
3
 72
12
 73
8
 74
6
 42
0.0000001
 43
0.0000001
 44
0.0000000001
 12
1.9583487529
 22
-4.2189897149
 32
0.0
 13
-2.3900216759
 23
-3.9903383868
 33
0.0
 40
0.0
 40
0.0
 40
0.0
 40
0.0
 40
0.2691782401
 40
0.5197387131
 40
0.6426209248
 40
0.7650068142
 40
1.0
 40
1.0
 40
1.0
 40
1.0
 10
-20.021463308
 20
-9.6830094462
 30
0.0
 10
-19.845748351
 20
-10.061562855
 30
0.0
 10
-19.4954264586
 20
-10.7855994158
 30
0.0
 10
-19.2252135219
 20
-11.7634610277
 30
0.0
 10
-19.2581455303
 20
-12.5376217786
 30
0.0
 10
-19.4307696478
 20
-13.265085064
 30
0.0
 10
-19.6732991119
 20
-13.7707522549
 30
0.0
 10
-19.8605120478
 20
-14.0833196982
 30
0.0
 11
-20.021463308
 21
-9.6830094462
 31
0.0
 11
-19.5182247632
 21
-10.8294634713
 31
0.0
 11
-19.2533814794
 21
-11.9644152335
 31
0.0
 11
-19.2762183864
 21
-12.5355263068
 31
0.0
 11
-19.4036722986
 21
-13.0903336693
 31
0.0
 11
-19.8605120478
 21
-14.0833196982
 31
0.0
  0
SPLINE
  5
435
100
AcDbEntity
  8
RACCORDO
100
AcDbSpline
 62
253
  6
CONTINUOUS
 70
0
 71
3
 72
11
 73
7
 74
5
 42
0.0000001
 43
0.0000001
 44
0.0000000001
 12
-0.6453340392
 22
0.3226670196
 32
0.0
 13
-0.0009276376
 23
0.7215047936
 33
0.0
 40
0.0
 40
0.0
 40
0.0
 40
0.0
 40
0.3018185229
 40
0.565410005
 40
0.7934998637
 40
1.0
 40
1.0
 40
1.0
 40
1.0
 10
-30.1202416302
 20
7.2890880235
 30
0.0
 10
-30.185166219
 20
7.3215503179
 30
0.0
 10
-30.3026384061
 20
7.3915347902
 30
0.0
 10
-30.4457654082
 20
7.5202407291
 30
0.0
 10
-30.537396585
 20
7.6641030163
 30
0.0
 10
-30.5595163451
 20
7.7693637533
 30
0.0
 10
-30.5595801975
 20
7.819027366
 30
0.0
 11
-30.1202416302
 21
7.2890880235
 31
0.0
 11
-30.3061677251
 21
7.402456945
 31
0.0
 11
-30.4452260926
 21
7.532195992
 31
0.0
 11
-30.5306119806
 21
7.6728796703
 31
0.0
 11
-30.5595801975
 21
7.819027366
 31
0.0
  0
SPLINE
  5
436
100
AcDbEntity
  8
RACCORDO
100
AcDbSpline
 62
253
  6
CONTINUOUS
 70
0
 71
3
 72
11
 73
7
 74
5
 42
0.0000001
 43
0.0000001
 44
0.0000000001
 12
0.0000000001
 22
2.1920964163
 32
0.0
 13
1.9522531601
 23
0.9969926264
 33
0.0
 40
0.0
 40
0.0
 40
0.0
 40
0.0
 40
0.2465259175
 40
0.5113272549
 40
0.7698733892
 40
1.0
 40
1.0
 40
1.0
 40
1.0
 10
-30.1202416302
 20
7.2890880235
 30
0.0
 10
-30.1202416302
 20
7.4692242169
 30
0.0
 10
-30.0584028556
 20
7.8434926543
 30
0.0
 10
-29.8341903233
 20
8.3645531092
 30
0.0
 10
-29.5043013622
 20
8.8112190079
 30
0.0
 10
-29.2185925901
 20
9.0373006834
 30
0.0
 10
-29.0688374557
 20
9.1137788615
 30
0.0
 11
-30.1202416302
 21
7.2890880235
 31
0.0
 11
-30.0403721956
 21
7.8235618834
 31
0.0
 11
-29.812727889
 21
8.3575315112
 31
0.0
 11
-29.4717723555
 21
8.8102610291
 31
0.0
 11
-29.0688374557
 21
9.1137788615
 31
0.0
  0
SPLINE
  5
437
100
AcDbEntity
  8
RACCORDO
100
AcDbSpline
 62
253
  6
CONTINUOUS
 70
0
 71
3
 72
11
 73
7
 74
5
 42
0.0000001
 43
0.0000001
 44
0.0000000001
 12
0.0
 22
2.1920964698
 32
0.0
 13
1.9522532077
 23
0.9969926509
 33
0.0
 40
0.0
 40
0.0
 40
0.0
 40
0.0
 40
0.24652594
 40
0.5113272241
 40
0.7698733189
 40
1.0
 40
1.0
 40
1.0
 40
1.0
 10
-20.251681607
 20
2.3548080119
 30
0.0
 10
-20.251681607
 20
2.5349442261
 30
0.0
 10
-20.1898428272
 20
2.9092126534
 30
0.0
 10
-19.9656302994
 20
3.4302730549
 30
0.0
 10
-19.6357413995
 20
3.8769390183
 30
0.0
 10
-19.3500325076
 20
4.1030205924
 30
0.0
 10
-19.2002773239
 20
4.1794987957
 30
0.0
 11
-20.251681607
 21
2.3548080119
 31
0.0
 11
-20.1718121531
 21
2.8892819322
 31
0.0
 11
-19.9441678853
 21
3.4232514649
 31
0.0
 11
-19.6032124124
 21
3.8759809375
 31
0.0
 11
-19.2002773239
 21
4.1794987957
 31
0.0
  0
SPLINE
  5
438
100
AcDbEntity
  8
RACCORDO
100
AcDbSpline
 62
253
  6
CONTINUOUS
 70
0
 71
3
 72
11
 73
7
 74
5
 42
0.0000001
 43
0.0000001
 44
0.0000000001
 12
1.940533036
 22
-0.9702665179
 32
0.0
 13
1.9472247004
 23
0.9567661916
 33
0.0
 40
0.0
 40
0.0
 40
0.0
 40
0.0
 40
0.2350941071
 40
0.49947822
 40
0.7640812185
 40
1.0
 40
1.0
 40
1.0
 40
1.0
 10
-20.251681607
 20
2.3548080119
 30
0.0
 10
-20.0996123132
 20
2.278773365
 30
0.0
 10
-19.7502143063
 20
2.1700085859
 30
0.0
 10
-19.1972084958
 20
2.1172922139
 30
0.0
 10
-18.6433884898
 20
2.1677799521
 30
0.0
 10
-18.2927864985
 20
2.274960689
 30
0.0
 10
-18.1396575389
 20
2.3502003937
 30
0.0
 11
-20.251681607
 21
2.3548080119
 31
0.0
 11
-19.7680226533
 21
2.1928479694
 31
0.0
 11
-19.1973293702
 21
2.1351456362
 31
0.0
 11
-18.6259162474
 21
2.1903946018
 31
0.0
 11
-18.1396575389
 21
2.3502003937
 31
0.0
  0
SPLINE
  5
439
100
AcDbEntity
  8
ASSI
100
AcDbSpline
 62
7
  6
CONTINUOUS
 70
0
 71
3
 72
8
 73
4
 74
2
 42
0.0000001
 43
0.0000001
 44
0.0000000001
 12
0.0164077908
 22
0.2460284531
 32
0.0
 13
0.1323213683
 23
0.2080631414
 33
0.0
 40
0.0
 40
0.0
 40
0.0
 40
0.0
 40
1.0
 40
1.0
 40
1.0
 40
1.0
 10
-29.887293094
 20
10.3909727584
 30
0.0
 10
-29.8818238304
 20
10.4729822428
 30
0.0
 10
-29.8547551856
 20
10.5559786871
 30
0.0
 10
-29.8106480628
 20
10.6253330676
 30
0.0
 11
-29.887293094
 21
10.3909727584
 31
0.0
 11
-29.8106480628
 21
10.6253330676
 31
0.0
  0
SPLINE
  5
43A
100
AcDbEntity
  8
ASSI
100
AcDbSpline
 62
7
  6
CONTINUOUS
 70
0
 71
3
 72
8
 73
4
 74
2
 42
0.0000001
 43
0.0000001
 44
0.0000000001
 12
0.1009367599
 22
0.1587137408
 32
0.0
 13
0.1523110656
 23
0.1103613172
 33
0.0
 40
0.0
 40
0.0
 40
0.0
 40
0.0
 40
1.0
 40
1.0
 40
1.0
 40
1.0
 10
-29.8106480628
 20
10.6253330676
 30
0.0
 10
-29.7770024762
 20
10.6782376478
 30
0.0
 10
-29.7325648633
 20
10.7255680128
 30
0.0
 10
-29.6817945081
 20
10.7623551186
 30
0.0
 11
-29.8106480628
 21
10.6253330676
 31
0.0
 11
-29.6817945081
 21
10.7623551186
 31
0.0
  0
SPLINE
  5
43B
100
AcDbEntity
  8
ASSI
100
AcDbSpline
 62
7
  6
CONTINUOUS
 70
0
 71
3
 72
9
 73
5
 74
3
 42
0.0000001
 43
0.0000001
 44
0.0000000001
 12
0.3722010684
 22
-0.1354010008
 32
0.0
 13
0.35689492
 23
0.1717355015
 33
0.0
 40
0.0
 40
0.0
 40
0.0
 40
0.0
 40
0.4996995454
 40
1.0
 40
1.0
 40
1.0
 40
1.0
 10
-16.6807353794
 20
-27.9127057591
 30
0.0
 10
-16.6187391445
 20
-27.935259032
 30
0.0
 10
-16.4842393993
 20
-27.9558970075
 30
0.0
 10
-16.3525860923
 20
-27.9216985018
 30
0.0
 10
-16.2930678621
 20
-27.8930587186
 30
0.0
 11
-16.6807353794
 21
-27.9127057591
 31
0.0
 11
-16.485030976
 21
-27.9421919565
 31
0.0
 11
-16.2930678621
 21
-27.8930587186
 31
0.0
  0
SPLINE
  5
43C
100
AcDbEntity
  8
ASSI
100
AcDbSpline
 62
7
  6
CONTINUOUS
 70
0
 71
3
 72
14
 73
10
 74
8
 42
0.0000001
 43
0.0000001
 44
0.0000000001
 12
-3.241391038
 22
10.3729472262
 32
0.0
 13
-9.8251957065
 23
-4.6443707162
 33
0.0
 40
0.0
 40
0.0
 40
0.0
 40
0.0
 40
0.3020416031
 40
0.4493642259
 40
0.5875379663
 40
0.7125532
 40
0.8219059818
 40
0.9162327505
 40
1.0
 40
1.0
 40
1.0
 40
1.0
 10
-20.3753699518
 20
-9.146910401
 30
0.0
 10
-20.7017149337
 20
-8.1025565312
 30
0.0
 10
-21.4127100729
 20
-6.6073435555
 30
0.0
 10
-22.7044145327
 20
-4.9095750081
 30
0.0
 10
-23.7777526905
 20
-3.8703342111
 30
0.0
 10
-24.9030371479
 20
-3.1105981141
 30
0.0
 10
-26.0198253358
 20
-2.6653133889
 30
0.0
 10
-27.0712155663
 20
-2.5528602859
 30
0.0
 10
-27.7140609666
 20
-2.7128976362
 30
0.0
 10
-27.9884041732
 20
-2.8425796897
 30
0.0
 11
-20.3753699518
 21
-9.146910401
 31
0.0
 11
-21.7826261646
 21
-6.181406325
 31
0.0
 11
-22.7561634699
 21
-4.9103582749
 31
0.0
 11
-23.8416034977
 21
-3.8727302774
 31
0.0
 11
-24.975492437
 21
-3.1243113773
 31
0.0
 11
-26.0861454264
 21
-2.7015242083
 31
0.0
 11
-27.1074358164
 21
-2.6131686519
 31
0.0
 11
-27.9884041732
 21
-2.8425796897
 31
0.0
  0
SPLINE
  5
43D
100
AcDbEntity
  8
ASSI
100
AcDbSpline
 62
7
  6
CONTINUOUS
 70
0
 71
3
 72
9
 73
5
 74
3
 42
0.0000001
 43
0.0000001
 44
0.0000000001
 12
1.0840784102
 22
0.5722953012
 32
0.0
 13
0.7074684298
 23
1.0011175416
 33
0.0
 40
0.0
 40
0.0
 40
0.0
 40
0.0
 40
0.4852714416
 40
1.0
 40
1.0
 40
1.0
 40
1.0
 10
-21.5826688483
 20
-15.654050113
 30
0.0
 10
-21.4073114173
 20
-15.5614772577
 30
0.0
 10
-21.0691034638
 20
-15.3238305847
 30
0.0
 10
-20.7979555917
 20
-15.0129258772
 30
0.0
 10
-20.6765708567
 20
-14.8411579475
 30
0.0
 11
-21.5826688483
 21
-15.654050113
 31
0.0
 11
-21.0948579644
 21
-15.3135795553
 31
0.0
 11
-20.6765708567
 21
-14.8411579475
 31
0.0
  0
SPLINE
  5
43E
100
AcDbEntity
  8
ASSI
100
AcDbSpline
 62
7
  6
CONTINUOUS
 70
0
 71
3
 72
9
 73
5
 74
3
 42
0.0000001
 43
0.0000001
 44
0.0000000001
 12
0.2493097592
 22
0.3527908281
 32
0.0
 13
0.2017935374
 23
0.3819634704
 33
0.0
 40
0.0
 40
0.0
 40
0.0
 40
0.0
 40
0.2443402851
 40
1.0
 40
1.0
 40
1.0
 40
1.0
 10
-20.6765708567
 20
-14.8411579475
 30
0.0
 10
-20.6562653841
 20
-14.812424277
 30
0.0
 10
-20.5751681548
 20
-14.6934174923
 30
0.0
 10
-20.5020719814
 20
-14.5689989517
 30
0.0
 10
-20.4512428991
 20
-14.4727874827
 30
0.0
 11
-20.6765708567
 21
-14.8411579475
 31
0.0
 11
-20.6171124243
 21
-14.75394488
 31
0.0
 11
-20.4512428991
 21
-14.4727874827
 31
0.0
  0
SPLINE
  5
43F
100
AcDbEntity
  8
ASSI
100
AcDbSpline
 62
7
  6
CONTINUOUS
 70
0
 71
3
 72
9
 73
5
 74
3
 42
0.0000001
 43
0.0000001
 44
0.0000000001
 12
-1.4353586875
 22
-0.7457925937
 32
0.0
 13
0.0049763131
 23
-1.6175402286
 33
0.0
 40
0.0
 40
0.0
 40
0.0
 40
0.0
 40
0.4998440846
 40
1.0
 40
1.0
 40
1.0
 40
1.0
 10
-29.7511768668
 20
9.1504687437
 30
0.0
 10
-29.9903287165
 20
9.0262087382
 30
0.0
 10
-30.4081482817
 20
8.6385785037
 30
0.0
 10
-30.5603502261
 20
8.0886966864
 30
0.0
 10
-30.559520582
 20
7.8190225818
 30
0.0
 11
-29.7511768668
 21
9.1504687437
 31
0.0
 11
-30.3416549949
 21
8.5981617766
 31
0.0
 11
-30.559520582
 21
7.8190225818
 31
0.0
  0
SPLINE
  5
440
100
AcDbEntity
  8
ASSI
100
AcDbSpline
 62
7
  6
CONTINUOUS
 70
0
 71
3
 72
8
 73
4
 74
2
 42
0.0000001
 43
0.0000001
 44
0.0000000001
 12
-0.6455618483
 22
0.3227755067
 32
0.0
 13
-0.421084565
 23
0.5861927301
 33
0.0
 40
0.0
 40
0.0
 40
0.0
 40
0.0
 40
1.0
 40
1.0
 40
1.0
 40
1.0
 10
-29.7278629742
 20
-22.0637514627
 30
0.0
 10
-29.943050257
 20
-21.9561596271
 30
0.0
 10
-30.1377311105
 20
-21.7920500656
 30
0.0
 10
-30.2780926321
 20
-21.5966524889
 30
0.0
 11
-29.7278629742
 21
-22.0637514627
 31
0.0
 11
-30.2780926321
 21
-21.5966524889
 31
0.0
  0
SPLINE
  5
441
100
AcDbEntity
  8
ASSI
100
AcDbSpline
 62
7
  6
CONTINUOUS
 70
0
 71
3
 72
9
 73
5
 74
3
 42
0.0000001
 43
0.0000001
 44
0.0000000001
 12
-0.5416519991
 22
0.7540349149
 32
0.0
 13
-0.0018269696
 23
0.9284138103
 33
0.0
 40
0.0
 40
0.0
 40
0.0
 40
0.0
 40
0.4991195173
 40
1.0
 40
1.0
 40
1.0
 40
1.0
 10
-30.2780926321
 20
-21.5966524889
 30
0.0
 10
-30.3682089936
 20
-21.471201308
 30
0.0
 10
-30.5109005644
 20
-21.1900736215
 30
0.0
 10
-30.5584616499
 20
-20.8785609859
 30
0.0
 10
-30.5587666811
 20
-20.7235528667
 30
0.0
 11
-30.2780926321
 21
-21.5966524889
 31
0.0
 11
-30.4869503551
 21
-21.1829991702
 31
0.0
 11
-30.5587666811
 21
-20.7235528667
 31
0.0
  0
SPLINE
  5
442
100
AcDbEntity
  8
ASSI
100
AcDbSpline
 62
7
  6
CONTINUOUS
 70
0
 71
3
 72
9
 73
5
 74
3
 42
0.0000001
 43
0.0000001
 44
0.0000000001
 12
-0.0000713737
 22
-0.0028080433
 32
0.0
 13
-0.0025687973
 23
-0.0011364338
 33
0.0
 40
0.0
 40
0.0
 40
0.0
 40
0.0
 40
0.5494381885
 40
1.0
 40
1.0
 40
1.0
 40
1.0
 10
-6.8972084497
 20
11.1453796689
 30
0.0
 10
-6.8972215215
 20
11.1448653868
 30
0.0
 10
-6.8973597669
 20
11.1438894933
 30
0.0
 10
-6.8980984123
 20
11.1431874246
 30
0.0
 10
-6.898484213
 20
11.1430167467
 30
0.0
 11
-6.8972084497
 21
11.1453796689
 31
0.0
 11
-6.8975546863
 21
11.1438756634
 31
0.0
 11
-6.898484213
 21
11.1430167467
 31
0.0
  0
SPLINE
  5
443
100
AcDbEntity
  8
ASSI
100
AcDbSpline
 62
253
  6
CONTINUOUS
 70
0
 71
3
 72
11
 73
7
 74
5
 42
0.0000001
 43
0.0000001
 44
0.0000000001
 12
-6.887897492
 22
3.4439486231
 32
0.0
 13
-2.2968874179
 23
7.3503892529
 33
0.0
 40
0.0
 40
0.0
 40
0.0
 40
0.0
 40
0.2241932091
 40
0.4728708021
 40
0.7357969835
 40
1.0
 40
1.0
 40
1.0
 40
1.0
 10
-24.8385785855
 20
-15.4777294021
 30
0.0
 10
-25.3533185331
 20
-15.2203594375
 30
0.0
 10
-26.3605723666
 20
-14.517008861
 30
0.0
 10
-27.6521426374
 20
-13.1242947087
 30
0.0
 10
-28.7257615131
 20
-11.435162968
 30
0.0
 10
-29.2486463962
 20
-10.1782649152
 30
0.0
 10
-29.4509279243
 20
-9.5309332443
 30
0.0
 11
-24.8385785855
 21
-15.4777294021
 31
0.0
 11
-26.2685857869
 21
-14.5103370227
 31
0.0
 11
-27.5822309155
 21
-13.1168798643
 31
0.0
 11
-28.6725955615
 21
-11.4107746503
 31
0.0
 11
-29.4509279243
 21
-9.5309332443
 31
0.0
  0
SPLINE
  5
444
100
AcDbEntity
  8
ASSI
100
AcDbSpline
 62
253
  6
CONTINUOUS
 70
0
 71
3
 72
13
 73
9
 74
7
 42
0.0000001
 43
0.0000001
 44
0.0000000001
 12
-1.5436192283
 22
4.9399092073
 32
0.0
 13
2.14147319
 23
4.7116404653
 33
0.0
 40
0.0
 40
0.0
 40
0.0
 40
0.0
 40
0.2874328234
 40
0.5603967827
 40
0.6828130101
 40
0.794186295
 40
0.8978900142
 40
1.0
 40
1.0
 40
1.0
 40
1.0
 10
-29.4509279243
 20
-9.5309332443
 30
0.0
 10
-29.5988235353
 20
-9.057635894
 30
0.0
 10
-29.7192332376
 20
-8.0857899644
 30
0.0
 10
-29.7102399955
 20
-6.9098238001
 30
0.0
 10
-29.7125741389
 20
-6.0354268024
 30
0.0
 10
-29.6988855196
 20
-5.45309447
 30
0.0
 10
-29.6318257852
 20
-4.9084791993
 30
0.0
 10
-29.5238165233
 20
-4.5667578104
 30
0.0
 10
-29.4509279243
 20
-4.4063892968
 30
0.0
 11
-29.4509279243
 21
-9.5309332443
 31
0.0
 11
-29.6887234298
 21
-8.0624630405
 31
0.0
 11
-29.7116072125
 21
-6.6499323078
 31
0.0
 11
-29.7097299122
 21
-6.0163738891
 31
0.0
 11
-29.6887205077
 21
-5.4403480893
 31
0.0
 11
-29.6151141337
 21
-4.9087040994
 31
0.0
 11
-29.4509279243
 21
-4.4063892968
 31
0.0
  0
SPLINE
  5
445
100
AcDbEntity
  8
ASSI
100
AcDbSpline
 62
253
  6
CONTINUOUS
 70
0
 71
3
 72
9
 73
5
 74
3
 42
0.0000001
 43
0.0000001
 44
0.0000000001
 12
0.8999336352
 22
1.9799909293
 32
0.0
 13
1.9660328144
 23
0.9300320428
 33
0.0
 40
0.0
 40
0.0
 40
0.0
 40
0.0
 40
0.5190206697
 40
1.0
 40
1.0
 40
1.0
 40
1.0
 10
-29.4509279243
 20
-4.4063892968
 30
0.0
 10
-29.295233205
 20
-4.0638372241
 30
0.0
 10
-28.901238505
 20
-3.4381263976
 30
0.0
 10
-28.3040443302
 20
-2.991960319
 30
0.0
 10
-27.9888372813
 20
-2.8428515893
 30
0.0
 11
-29.4509279243
 21
-4.4063892968
 31
0.0
 11
-28.8315120454
 21
-3.4626897248
 31
0.0
 11
-27.9888372813
 21
-2.8428515893
 31
0.0
  0
SPLINE
  5
446
100
AcDbEntity
  8
ASSI
100
AcDbSpline
 62
7
  6
CONTINUOUS
 70
0
 71
3
 72
8
 73
4
 74
2
 42
0.0000001
 43
0.0000001
 44
0.0000000001
 12
-0.0789400319
 22
0.044643305
 32
0.0
 13
-0.0426956698
 23
0.0800102062
 33
0.0
 40
0.0
 40
0.0
 40
0.0
 40
0.0
 40
1.0
 40
1.0
 40
1.0
 40
1.0
 10
-19.0740723942
 20
8.059401844
 30
0.0
 10
-19.1003857382
 20
8.0742829457
 30
0.0
 10
-19.1221511013
 20
8.0986251954
 30
0.0
 10
-19.1363829912
 20
8.1252952642
 30
0.0
 11
-19.0740723942
 21
8.059401844
 31
0.0
 11
-19.1363829912
 21
8.1252952642
 31
0.0
  0
SPLINE
  5
447
100
AcDbEntity
  8
ASSI
100
AcDbSpline
 62
7
  6
CONTINUOUS
 70
0
 71
3
 72
8
 73
4
 74
2
 42
0.0000001
 43
0.0000001
 44
0.0000000001
 12
-0.1873998154
 22
0.0942811638
 32
0.0
 13
-0.1547703908
 23
0.1416112805
 33
0.0
 40
0.0
 40
0.0
 40
0.0
 40
0.0
 40
1.0
 40
1.0
 40
1.0
 40
1.0
 10
-25.976119271
 20
11.5101894285
 30
0.0
 10
-26.0385858761
 20
11.5416164831
 30
0.0
 10
-26.0960746371
 20
11.5837323921
 30
0.0
 10
-26.1476647674
 20
11.6309361522
 30
0.0
 11
-25.976119271
 21
11.5101894285
 31
0.0
 11
-26.1476647674
 21
11.6309361522
 31
0.0
  0
SPLINE
  5
448
100
AcDbEntity
  8
ASSI
100
AcDbSpline
 62
7
  6
CONTINUOUS
 70
0
 71
3
 72
9
 73
5
 74
3
 42
0.0000001
 43
0.0000001
 44
0.0000000001
 12
-0.0922277911
 22
0.0461809622
 32
0.0
 13
-0.0512877107
 23
0.0894886443
 33
0.0
 40
0.0
 40
0.0
 40
0.0
 40
0.0
 40
0.7369452253
 40
1.0
 40
1.0
 40
1.0
 40
1.0
 10
-25.4394291886
 20
11.2418729924
 30
0.0
 10
-25.4620847987
 20
11.2532172723
 30
0.0
 10
-25.4892180125
 20
11.2768360267
 30
0.0
 10
-25.5081079584
 20
11.3055595222
 30
0.0
 10
-25.5126051175
 20
11.3134063273
 30
0.0
 11
-25.4394291886
 21
11.2418729924
 31
0.0
 11
-25.4975993613
 21
11.2908010539
 31
0.0
 11
-25.5126051175
 21
11.3134063273
 31
0.0
  0
SPLINE
  5
449
100
AcDbEntity
  8
ASSI
100
AcDbSpline
 62
7
  6
CONTINUOUS
 70
0
 71
3
 72
9
 73
5
 74
3
 42
0.0000001
 43
0.0000001
 44
0.0000000001
 12
0.0003685952
 22
-0.1935863715
 32
0.0
 13
0.0549095595
 23
-0.1856360939
 33
0.0
 40
0.0
 40
0.0
 40
0.0
 40
0.0
 40
0.2421834581
 40
1.0
 40
1.0
 40
1.0
 40
1.0
 10
-18.5316006743
 20
-27.4757116865
 30
0.0
 10
-18.5315709184
 20
-27.4913394921
 30
0.0
 10
-18.5284828052
 20
-27.5558598336
 30
0.0
 10
-18.5151937988
 20
-27.6196308001
 30
0.0
 10
-18.5013233413
 20
-27.666523501
 30
0.0
 11
-18.5316006743
 21
-27.4757116865
 31
0.0
 11
-18.5294768273
 21
-27.522547058
 31
0.0
 11
-18.5013233413
 21
-27.666523501
 31
0.0
  0
SPLINE
  5
44A
100
AcDbEntity
  8
ASSI
100
AcDbSpline
 62
253
  6
CONTINUOUS
 70
0
 71
3
 72
9
 73
5
 74
3
 42
0.0000001
 43
0.0000001
 44
0.0000000001
 12
-0.3931233066
 22
-0.3393569159
 32
0.0
 13
0.1946282823
 23
-0.4814861185
 33
0.0
 40
0.0
 40
0.0
 40
0.0
 40
0.0
 40
0.4657874727
 40
1.0
 40
1.0
 40
1.0
 40
1.0
 10
-29.7018091358
 20
10.7463216537
 30
0.0
 10
-29.7628464396
 20
10.6936322536
 30
0.0
 10
-29.8471587886
 20
10.5235444314
 30
0.0
 10
-29.8144939833
 20
10.3437480758
 30
0.0
 10
-29.7798363611
 20
10.2580094371
 30
0.0
 11
-29.7018091358
 21
10.7463216537
 31
0.0
 11
-29.8160105856
 21
10.5330763563
 31
0.0
 11
-29.7798363611
 21
10.2580094371
 31
0.0
  0
SPLINE
  5
44B
100
AcDbEntity
  8
ASSI
100
AcDbSpline
 62
253
  6
CONTINUOUS
 70
0
 71
3
 72
9
 73
5
 74
3
 42
0.0000001
 43
0.0000001
 44
0.0000000001
 12
0.0013296388
 22
-0.2364684885
 32
0.0
 13
0.2115071895
 23
-0.1057535947
 33
0.0
 40
0.0
 40
0.0
 40
0.0
 40
0.0
 40
0.2095695942
 40
1.0
 40
1.0
 40
1.0
 40
1.0
 10
-29.8885359967
 20
10.3567223968
 30
0.0
 10
-29.8884431128
 20
10.3402035285
 30
0.0
 10
-29.8710964204
 20
10.2609049577
 30
0.0
 10
-29.7977590934
 20
10.2085154735
 30
0.0
 10
-29.7420318555
 20
10.1806518546
 30
0.0
 11
-29.8885359967
 21
10.3567223968
 31
0.0
 11
-29.8787133583
 21
10.3081482212
 31
0.0
 11
-29.7420318555
 21
10.1806518546
 31
0.0
  0
SPLINE
  5
44C
100
AcDbEntity
  8
ASSI
100
AcDbSpline
 62
253
  6
CONTINUOUS
 70
0
 71
3
 72
9
 73
5
 74
3
 42
0.0000001
 43
0.0000001
 44
0.0000000001
 12
0.1420339511
 22
0.073007131
 32
0.0
 13
0.1546511366
 23
-0.0398335336
 33
0.0
 40
0.0
 40
0.0
 40
0.0
 40
0.0
 40
0.2379978134
 40
1.0
 40
1.0
 40
1.0
 40
1.0
 10
-27.7264631531
 20
12.1723340483
 30
0.0
 10
-27.7151952298
 20
12.1781258941
 30
0.0
 10
-27.6653373379
 20
12.1977443154
 30
0.0
 10
-27.608673771
 20
12.1951729667
 30
0.0
 10
-27.5693922696
 20
12.1850552201
 30
0.0
 11
-27.7264631531
 21
12.1723340483
 31
0.0
 11
-27.6910775977
 21
12.1862072826
 31
0.0
 11
-27.5693922696
 21
12.1850552201
 31
0.0
  0
SPLINE
  5
44D
100
AcDbEntity
  8
ASSI
100
AcDbSpline
 62
253
  6
CONTINUOUS
 70
0
 71
3
 72
8
 73
4
 74
2
 42
0.0000001
 43
0.0000001
 44
0.0000000001
 12
-0.1269987261
 22
-0.0926860615
 32
0.0
 13
-0.0691503589
 23
-0.141200603
 33
0.0
 40
0.0
 40
0.0
 40
0.0
 40
0.0
 40
1.0
 40
1.0
 40
1.0
 40
1.0
 10
-27.7911234753
 20
12.1324762683
 30
0.0
 10
-27.833456384
 20
12.1015809144
 30
0.0
 10
-27.8685752315
 20
12.0586350908
 30
0.0
 10
-27.8916253511
 20
12.0115682231
 30
0.0
 11
-27.7911234753
 21
12.1324762683
 31
0.0
 11
-27.8916253511
 21
12.0115682231
 31
0.0
  0
SPLINE
  5
44E
100
AcDbEntity
  8
ASSI
100
AcDbSpline
 62
253
  6
CONTINUOUS
 70
0
 71
3
 72
8
 73
4
 74
2
 42
0.0000001
 43
0.0000001
 44
0.0000000001
 12
-0.0319497837
 22
-0.0652394115
 32
0.0
 13
-0.0185600136
 23
-0.0702317263
 33
0.0
 40
0.0
 40
0.0
 40
0.0
 40
0.0
 40
1.0
 40
1.0
 40
1.0
 40
1.0
 10
-27.8916253511
 20
12.0115682231
 30
0.0
 10
-27.902275279
 20
11.9898217526
 30
0.0
 10
-27.9106606994
 20
11.9668552401
 30
0.0
 10
-27.9168473706
 20
11.9434446647
 30
0.0
 11
-27.8916253511
 21
12.0115682231
 31
0.0
 11
-27.9168473706
 21
11.9434446647
 31
0.0
  0
SPLINE
  5
44F
100
AcDbEntity
  8
ASSI
100
AcDbSpline
 62
253
  6
CONTINUOUS
 70
0
 71
3
 72
9
 73
5
 74
3
 42
0.0000001
 43
0.0000001
 44
0.0000000001
 12
-0.1031790327
 22
-0.3904329889
 32
0.0
 13
0.2025586643
 23
-0.3493620173
 33
0.0
 40
0.0
 40
0.0
 40
0.0
 40
0.0
 40
0.2357524014
 40
1.0
 40
1.0
 40
1.0
 40
1.0
 10
-27.9168473706
 20
11.9434446647
 30
0.0
 10
-27.9249556055
 20
11.9127628264
 30
0.0
 10
-27.9438244036
 20
11.778526634
 30
0.0
 10
-27.9029239525
 20
11.6399336062
 30
0.0
 10
-27.8513222949
 20
11.550933912
 30
0.0
 11
-27.9168473706
 21
11.9434446647
 31
0.0
 11
-27.9305304077
 21
11.8492276676
 31
0.0
 11
-27.8513222949
 21
11.550933912
 31
0.0
  0
SPLINE
  5
450
100
AcDbEntity
  8
ASSI
100
AcDbSpline
 62
253
  6
CONTINUOUS
 70
0
 71
3
 72
9
 73
5
 74
3
 42
0.0000001
 43
0.0000001
 44
0.0000000001
 12
-0.2769888455
 22
0.1406840851
 32
0.0
 13
-0.0
 23
0.3106683639
 33
0.0
 40
0.0
 40
0.0
 40
0.0
 40
0.0
 40
0.4489394014
 40
1.0
 40
1.0
 40
1.0
 40
1.0
 10
-16.7348955845
 20
-27.889513176
 30
0.0
 10
-16.7763459867
 20
-27.8684602997
 30
0.0
 10
-16.8489146836
 20
-27.7827180263
 30
0.0
 10
-16.8637466928
 20
-27.6766273984
 30
0.0
 10
-16.8637466928
 20
-27.6195617002
 30
0.0
 11
-16.7348955845
 21
-27.889513176
 31
0.0
 11
-16.8298672491
 21
-27.7873729885
 31
0.0
 11
-16.8637466928
 21
-27.6195617002
 31
0.0
  0
SPLINE
  5
451
100
AcDbEntity
  8
ASSI
100
AcDbSpline
 62
253
  6
CONTINUOUS
 70
0
 71
3
 72
11
 73
7
 74
5
 42
0.0000001
 43
0.0000001
 44
0.0000000001
 12
-2.9896819524
 22
-1.5782522432
 32
0.0
 13
-3.0237828603
 23
1.5118913762
 33
0.0
 40
0.0
 40
0.0
 40
0.0
 40
0.0
 40
0.2271368311
 40
0.4644231281
 40
0.7206739237
 40
1.0
 40
1.0
 40
1.0
 40
1.0
 10
-21.5826986305
 20
-15.6539910519
 30
0.0
 10
-21.8090542586
 20
-15.7734841229
 30
0.0
 10
-22.3101905299
 20
-15.9511971539
 30
0.0
 10
-23.1296185651
 20
-16.0025061042
 30
0.0
 10
-23.9933683704
 20
-15.8450374694
 30
0.0
 10
-24.5570381182
 20
-15.6184996307
 30
0.0
 10
-24.8385785855
 20
-15.4777294021
 30
0.0
 11
-21.5826986305
 21
-15.6539910519
 31
0.0
 11
-22.30567944
 21
-15.9127147056
 31
0.0
 11
-23.105838369
 21
-15.9697892698
 31
0.0
 11
-23.9595925312
 21
-15.8228600213
 31
0.0
 11
-24.8385785855
 21
-15.4777294021
 31
0.0
  0
SPLINE
  5
452
100
AcDbEntity
  8
ASSI
100
AcDbSpline
 62
253
  6
CONTINUOUS
 70
0
 71
3
 72
9
 73
5
 74
3
 42
0.0000001
 43
0.0000001
 44
0.0000000001
 12
-0.0031738212
 22
-0.0423882853
 32
0.0
 13
0.0371554134
 23
-0.0206473999
 33
0.0
 40
0.0
 40
0.0
 40
0.0
 40
0.0
 40
0.2911050067
 40
1.0
 40
1.0
 40
1.0
 40
1.0
 10
-12.4518956553
 20
13.076664388
 30
0.0
 10
-12.4522036271
 20
13.0725512407
 30
0.0
 10
-12.4521991727
 20
13.0585080592
 30
0.0
 10
-12.4445212225
 20
13.0435214605
 30
0.0
 10
-12.4357414603
 20
13.0386425143
 30
0.0
 11
-12.4518956553
 21
13.076664388
 31
0.0
 11
-12.4515507653
 21
13.0642952126
 31
0.0
 11
-12.4357414603
 21
13.0386425143
 31
0.0
  0
LINE
  5
453
100
AcDbEntity
  8
ASSI
100
AcDbLine
 62
7
  6
CONTINUOUS
 10
-9.6368378341
 20
-24.0732737199
 11
-9.598388682
 21
-24.0541036471
  0
LINE
  5
454
100
AcDbEntity
  8
ASSI
100
AcDbLine
 62
7
  6
CONTINUOUS
 10
-9.598388682
 20
-24.0541036471
 11
-9.3934497028
 21
-23.9519290812
  0
LINE
  5
455
100
AcDbEntity
  8
ASSI
100
AcDbLine
 62
7
  6
CONTINUOUS
 10
-12.1569961077
 20
9.1356839439
 11
-12.0022701893
 21
9.2137734146
  0
LINE
  5
456
100
AcDbEntity
  8
ASSI
100
AcDbLine
 62
7
  6
CONTINUOUS
 10
-12.0022701893
 20
9.2137734146
 11
-9.3791005468
 21
10.5373743359
  0
LINE
  5
457
100
AcDbEntity
  8
ASSI
100
AcDbLine
 62
7
  6
CONTINUOUS
 10
-9.3791005468
 20
10.5373743359
 11
-8.6515070061
 21
10.9045404822
  0
LINE
  5
458
100
AcDbEntity
  8
ASSI
100
AcDbLine
 62
7
  6
CONTINUOUS
 10
-8.6515070061
 20
10.9045404822
 11
-7.1556760911
 21
11.6593211949
  0
LINE
  5
459
100
AcDbEntity
  8
ASSI
100
AcDbLine
 62
7
  6
CONTINUOUS
 10
-7.1556760911
 20
11.6593211949
 11
-6.9037902819
 21
11.7863898056
  0
SPLINE
  5
45A
100
AcDbEntity
  8
ASSI
100
AcDbSpline
 62
253
  6
CONTINUOUS
 70
0
 71
3
 72
11
 73
7
 74
5
 42
0.0000001
 43
0.0000001
 44
0.0000000001
 12
0.8615360196
 22
0.4138566224
 32
0.0
 13
0.0068449573
 23
0.9557587371
 33
0.0
 40
0.0
 40
0.0
 40
0.0
 40
0.0
 40
0.216441358
 40
0.449485216
 40
0.7101485206
 40
1.0
 40
1.0
 40
1.0
 40
1.0
 10
-18.5410908539
 20
-27.0076571701
 30
0.0
 10
-18.4789335119
 20
-26.977798607
 30
0.0
 10
-18.3609041063
 20
-26.8903424053
 30
0.0
 10
-18.2334367396
 20
-26.6991598061
 30
0.0
 10
-18.1567922696
 20
-26.4589859462
 30
0.0
 10
-18.1403188791
 20
-26.2830933821
 30
0.0
 10
-18.1396575388
 20
-26.1907506874
 30
0.0
 11
-18.5410908539
 21
-27.0076571701
 31
0.0
 11
-18.3739240596
 21
-26.885792969
 31
0.0
 11
-18.247379126
 21
-26.7024920498
 31
0.0
 11
-18.1680267004
 21
-26.4663295079
 31
0.0
 11
-18.1396575388
 21
-26.1907506874
 31
0.0
  0
SPLINE
  5
45B
100
AcDbEntity
  8
ASSI
100
AcDbSpline
 62
7
  6
CONTINUOUS
 70
0
 71
3
 72
12
 73
8
 74
6
 42
0.0000001
 43
0.0000001
 44
0.0000000001
 12
-0.3318575136
 22
-0.1468134931
 32
0.0
 13
0.077372448
 23
0.3545378899
 33
0.0
 40
0.0
 40
0.0
 40
0.0
 40
0.0
 40
0.0200923536
 40
0.0624668373
 40
0.2151665025
 40
0.5142512939
 40
1.0
 40
1.0
 40
1.0
 40
1.0
 10
-6.898484213
 20
11.1430167467
 30
0.0
 10
-6.9007068125
 20
11.1420334705
 30
0.0
 10
-6.9085928916
 20
11.1463959529
 30
0.0
 10
-6.9279171211
 20
11.1613358693
 30
0.0
 10
-6.9701615678
 20
11.2075454817
 30
0.0
 10
-6.9970830013
 20
11.3227148086
 30
0.0
 10
-6.9761358355
 20
11.4169843887
 30
0.0
 10
-6.96360798
 20
11.4743898291
 30
0.0
 11
-6.898484213
 21
11.1430167467
 31
0.0
 11
-6.9055444419
 21
11.1448372392
 31
0.0
 11
-6.91796896
 21
11.1538971526
 31
0.0
 11
-6.9547173617
 21
11.1953705953
 31
0.0
 11
-6.9854080916
 21
11.2994734465
 31
0.0
 11
-6.96360798
 21
11.4743898291
 31
0.0
  0
SPLINE
  5
45C
100
AcDbEntity
  8
ASSI
100
AcDbSpline
 62
253
  6
CONTINUOUS
 70
0
 71
3
 72
9
 73
5
 74
3
 42
0.0000001
 43
0.0000001
 44
0.0000000001
 12
0.2359904809
 22
-0.1454063086
 32
0.0
 13
0.1693551009
 23
-0.2194387192
 33
0.0
 40
0.0
 40
0.0
 40
0.0
 40
0.0
 40
0.2728200285
 40
1.0
 40
1.0
 40
1.0
 40
1.0
 10
-12.4519067141
 20
13.0766711274
 30
0.0
 10
-12.4304457375
 20
13.0634478763
 30
0.0
 10
-12.3535386277
 20
13.0124048284
 30
0.0
 10
-12.2833594549
 20
12.9496548473
 30
0.0
 10
-12.2423089091
 20
12.8964643668
 30
0.0
 11
-12.4519067141
 21
13.0766711274
 31
0.0
 11
-12.3889829033
 21
13.0347253887
 31
0.0
 11
-12.2423089091
 21
12.8964643668
 31
0.0
  0
LINE
  5
45D
100
AcDbEntity
  8
ASSI
100
AcDbLine
 62
7
  6
CONTINUOUS
 10
-19.1363829912
 20
8.1252952642
 11
-19.4644850185
 21
8.3073843037
  0
LINE
  5
45E
100
AcDbEntity
  8
ASSI
100
AcDbLine
 62
7
  6
CONTINUOUS
 10
-19.4644850185
 20
8.3073843037
 11
-19.6286468175
 21
8.3985410574
  0
LINE
  5
45F
100
AcDbEntity
  8
ASSI
100
AcDbLine
 62
7
  6
CONTINUOUS
 10
-19.6286468175
 20
8.3985410574
 11
-20.0544852215
 21
8.635164082
  0
LINE
  5
460
100
AcDbEntity
  8
ASSI
100
AcDbLine
 62
7
  6
CONTINUOUS
 10
-20.0544852215
 20
8.635164082
 11
-20.1215728164
 21
8.6724637216
  0
SPLINE
  5
461
100
AcDbEntity
  8
ASSI
100
AcDbSpline
 62
7
  6
CONTINUOUS
 70
0
 71
3
 72
9
 73
5
 74
3
 42
0.0000001
 43
0.0000001
 44
0.0000000001
 12
-0.030513185
 22
-0.0194713263
 32
0.0
 13
-0.0174889122
 23
-0.0316910864
 33
0.0
 40
0.0
 40
0.0
 40
0.0
 40
0.0
 40
0.7304263183
 40
1.0
 40
1.0
 40
1.0
 40
1.0
 10
-18.5846429739
 20
7.8494252555
 30
0.0
 10
-18.592072185
 20
7.8446844657
 30
0.0
 10
-18.6007461077
 20
7.836837168
 30
0.0
 10
-18.6133488495
 20
7.8324397333
 30
0.0
 10
-18.6149203663
 20
7.829592039
 30
0.0
 11
-18.5846429739
 21
7.8494252555
 31
0.0
 11
-18.6068396216
 21
7.8350613001
 31
0.0
 11
-18.6149203663
 21
7.829592039
 31
0.0
  0
LINE
  5
462
100
AcDbEntity
  8
ASSI
100
AcDbLine
 62
7
  6
CONTINUOUS
 10
-24.5115986522
 20
10.8674766394
 11
-24.8457728163
 21
11.0162183227
  0
LINE
  5
463
100
AcDbEntity
  8
ASSI
100
AcDbLine
 62
7
  6
CONTINUOUS
 10
-24.8457728163
 20
11.0162183227
 11
-25.0126701069
 21
11.0905527021
  0
LINE
  5
464
100
AcDbEntity
  8
ASSI
100
AcDbLine
 62
7
  6
CONTINUOUS
 10
-25.0126701069
 20
11.0905527021
 11
-25.4250011676
 21
11.2743354407
  0
LINE
  5
465
100
AcDbEntity
  8
ASSI
100
AcDbLine
 62
7
  6
CONTINUOUS
 10
-25.4250011676
 20
11.2743354407
 11
-25.5126051175
 21
11.3134063273
  0
SPLINE
  5
466
100
AcDbEntity
  8
ASSI
100
AcDbSpline
 62
7
  6
CONTINUOUS
 70
0
 71
3
 72
8
 73
4
 74
2
 42
0.0000001
 43
0.0000001
 44
0.0000000001
 12
-0.1513191141
 22
-0.1776109448
 32
0.0
 13
-0.0742824043
 23
-0.2211905206
 33
0.0
 40
0.0
 40
0.0
 40
0.0
 40
0.0
 40
1.0
 40
1.0
 40
1.0
 40
1.0
 10
-19.0223337356
 20
-27.1454356026
 30
0.0
 10
-19.0727734403
 20
-27.2046392509
 30
0.0
 10
-19.1116221898
 20
-27.2752635025
 30
0.0
 10
-19.1363829912
 20
-27.348993676
 30
0.0
 11
-19.0223337356
 21
-27.1454356026
 31
0.0
 11
-19.1363829912
 21
-27.348993676
 31
0.0
  0
LINE
  5
467
100
AcDbEntity
  8
ASSI
100
AcDbLine
 62
7
  6
CONTINUOUS
 10
-20.1215728164
 20
-26.8951556681
 11
-19.7997314002
 21
-27.0434832351
  0
LINE
  5
468
100
AcDbEntity
  8
ASSI
100
AcDbLine
 62
7
  6
CONTINUOUS
 10
-19.7997314002
 20
-27.0434832351
 11
-19.4713363906
 21
-27.194763274
  0
LINE
  5
469
100
AcDbEntity
  8
ASSI
100
AcDbLine
 62
7
  6
CONTINUOUS
 10
-19.4713363906
 20
-27.194763274
 11
-19.1363829912
 21
-27.348993676
  0
SPLINE
  5
46A
100
AcDbEntity
  8
ASSI
100
AcDbSpline
 62
7
  6
CONTINUOUS
 70
0
 71
3
 72
8
 73
4
 74
2
 42
0.0000001
 43
0.0000001
 44
0.0000000001
 12
-0.1189132548
 22
0.4195854632
 32
0.0
 13
-0.0633320622
 23
0.4314873961
 33
0.0
 40
0.0
 40
0.0
 40
0.0
 40
0.0
 40
1.0
 40
1.0
 40
1.0
 40
1.0
 10
-18.4925766352
 20
7.4231435266
 30
0.0
 10
-18.5322143868
 20
7.5630053477
 30
0.0
 10
-18.5635322864
 20
7.7055961234
 30
0.0
 10
-18.5846429739
 20
7.8494252555
 30
0.0
 11
-18.4925766352
 21
7.4231435266
 31
0.0
 11
-18.5846429739
 21
7.8494252555
 31
0.0
  0
SPLINE
  5
46B
100
AcDbEntity
  8
ASSI
100
AcDbSpline
 62
7
  6
CONTINUOUS
 70
0
 71
3
 72
9
 73
5
 74
3
 42
0.0000001
 43
0.0000001
 44
0.0000000001
 12
-0.1588832139
 22
-0.2927488124
 32
0.0
 13
-0.1358526047
 23
-0.3041213781
 33
0.0
 40
0.0
 40
0.0
 40
0.0
 40
0.0
 40
0.2613131483
 40
1.0
 40
1.0
 40
1.0
 40
1.0
 10
-26.1809737233
 20
11.5702681453
 30
0.0
 10
-26.1948131476
 20
11.5447684407
 30
0.0
 10
-26.247131237
 20
11.4468459915
 30
0.0
 10
-26.2964905786
 20
11.3472811339
 30
0.0
 10
-26.3299414229
 20
11.2723976461
 30
0.0
 11
-26.1809737233
 21
11.5702681453
 31
0.0
 11
-26.2219539201
 21
11.4934794426
 31
0.0
 11
-26.3299414229
 21
11.2723976461
 31
0.0
  0
SPLINE
  5
46C
100
AcDbEntity
  8
ASSI
100
AcDbSpline
 62
7
  6
CONTINUOUS
 70
0
 71
3
 72
9
 73
5
 74
3
 42
0.0000001
 43
0.0000001
 44
0.0000000001
 12
0.0767051753
 22
0.3122255757
 32
0.0
 13
0.1286670245
 23
0.2946409524
 33
0.0
 40
0.0
 40
0.0
 40
0.0
 40
0.0
 40
0.2364036729
 40
1.0
 40
1.0
 40
1.0
 40
1.0
 10
-18.5013233413
 20
-27.666523501
 30
0.0
 10
-18.4952788796
 20
-27.6419197434
 30
0.0
 10
-18.4666536728
 20
-27.5385915511
 30
0.0
 10
-18.4277419749
 20
-27.4383522729
 30
0.0
 10
-18.3949920858
 20
-27.3633566899
 30
0.0
 11
-18.5013233413
 21
-27.666523501
 31
0.0
 11
-18.4811697935
 21
-27.5932380442
 31
0.0
 11
-18.3949920858
 21
-27.3633566899
 31
0.0
  0
SPLINE
  5
46D
100
AcDbEntity
  8
ASSI
100
AcDbSpline
 62
253
  6
CONTINUOUS
 70
0
 71
3
 72
9
 73
5
 74
3
 42
0.0000001
 43
0.0000001
 44
0.0000000001
 12
-0.2035448509
 22
-0.1039479508
 32
0.0
 13
-0.145666608
 23
-0.1761162176
 33
0.0
 40
0.0
 40
0.0
 40
0.0
 40
0.0
 40
0.2304036822
 40
1.0
 40
1.0
 40
1.0
 40
1.0
 10
-27.5008542005
 20
12.1591641732
 30
0.0
 10
-27.5164866949
 20
12.151180843
 30
0.0
 10
-27.5819765612
 20
12.1119586737
 30
0.0
 10
-27.6381489944
 20
12.0583264296
 30
0.0
 10
-27.6755171561
 20
12.0131469654
 30
0.0
 11
-27.5008542005
 21
12.1591641732
 31
0.0
 11
-27.5461702837
 21
12.1323420074
 31
0.0
 11
-27.6755171561
 21
12.0131469654
 31
0.0
  0
SPLINE
  5
46E
100
AcDbEntity
  8
ASSI
100
AcDbSpline
 62
253
  6
CONTINUOUS
 70
0
 71
3
 72
8
 73
4
 74
2
 42
0.0000001
 43
0.0000001
 44
0.0000000001
 12
-0.1408109001
 22
-0.2158004124
 32
0.0
 13
-0.0641105278
 23
-0.2495743733
 33
0.0
 40
0.0
 40
0.0
 40
0.0
 40
0.0
 40
1.0
 40
1.0
 40
1.0
 40
1.0
 10
-27.725691436
 20
11.9448411672
 30
0.0
 10
-27.7726284027
 20
11.8729076964
 30
0.0
 10
-27.808612916
 20
11.7924041503
 30
0.0
 10
-27.829983092
 20
11.7092126926
 30
0.0
 11
-27.725691436
 21
11.9448411672
 31
0.0
 11
-27.829983092
 21
11.7092126926
 31
0.0
  0
SPLINE
  5
46F
100
AcDbEntity
  8
ASSI
100
AcDbSpline
 62
253
  6
CONTINUOUS
 70
0
 71
3
 72
9
 73
5
 74
3
 42
0.0000001
 43
0.0000001
 44
0.0000000001
 12
-0.0397920533
 22
-0.154905553
 32
0.0
 13
-0.0
 23
-0.1599347925
 33
0.0
 40
0.0
 40
0.0
 40
0.0
 40
0.0
 40
0.2610878045
 40
1.0
 40
1.0
 40
1.0
 40
1.0
 10
-27.829983092
 20
11.7092126926
 30
0.0
 10
-27.8334461652
 20
11.6957313757
 30
0.0
 10
-27.8452575077
 20
11.6437523573
 30
0.0
 10
-27.8513222949
 20
11.5903265015
 30
0.0
 10
-27.8513222949
 20
11.550933912
 30
0.0
 11
-27.829983092
 21
11.7092126926
 31
0.0
 11
-27.8392220356
 21
11.6684905738
 31
0.0
 11
-27.8513222949
 21
11.550933912
 31
0.0
  0
SPLINE
  5
470
100
AcDbEntity
  8
ASSI
100
AcDbSpline
 62
253
  6
CONTINUOUS
 70
0
 71
3
 72
9
 73
5
 74
3
 42
0.0000001
 43
0.0000001
 44
0.0000000001
 12
-0.644982395
 22
-0.3293848897
 32
0.0
 13
0.0
 23
-0.7242214408
 33
0.0
 40
0.0
 40
0.0
 40
0.0
 40
0.0
 40
0.4883235049
 40
1.0
 40
1.0
 40
1.0
 40
1.0
 10
-16.5132785984
 20
6.6653763722
 30
0.0
 10
-16.6182652863
 20
6.6117609109
 30
0.0
 10
-16.7873489216
 20
6.420271415
 30
0.0
 10
-16.8637466928
 20
6.1806684737
 30
0.0
 10
-16.8637466928
 20
6.0571461109
 30
0.0
 11
-16.5132785984
 21
6.6653763722
 31
0.0
 11
-16.7612984563
 21
6.4132701426
 31
0.0
 11
-16.8637466928
 21
6.0571461109
 31
0.0
  0
SPLINE
  5
471
100
AcDbEntity
  8
ASSI
100
AcDbSpline
 62
253
  6
CONTINUOUS
 70
0
 71
3
 72
9
 73
5
 74
3
 42
0.0000001
 43
0.0000001
 44
0.0000000001
 12
-0.6245533516
 22
-0.3131375328
 32
0.0
 13
-0.5657088144
 23
-0.4099945619
 33
0.0
 40
0.0
 40
0.0
 40
0.0
 40
0.0
 40
0.5263158028
 40
1.0
 40
1.0
 40
1.0
 40
1.0
 10
-16.2632881176
 20
6.4135594769
 30
0.0
 10
-16.3728588839
 20
6.3586230663
 30
0.0
 10
-16.5757580848
 20
6.24411819
 30
0.0
 10
-16.7744242509
 20
6.1218820925
 30
0.0
 10
-16.8637466928
 20
6.0571461109
 30
0.0
 11
-16.2632881176
 21
6.4135594769
 31
0.0
 11
-16.5852644096
 21
6.2359500019
 31
0.0
 11
-16.8637466928
 21
6.0571461109
 31
0.0
  0
SPLINE
  5
472
100
AcDbEntity
  8
ASSI
100
AcDbSpline
 62
253
  6
CONTINUOUS
 70
0
 71
3
 72
9
 73
5
 74
3
 42
0.0000001
 43
0.0000001
 44
0.0000000001
 12
-0.6245533516
 22
-0.3131375328
 32
0.0
 13
-0.5657088144
 23
-0.4099945619
 33
0.0
 40
0.0
 40
0.0
 40
0.0
 40
0.0
 40
0.5263158021
 40
1.0
 40
1.0
 40
1.0
 40
1.0
 10
-14.372578557
 20
3.152567859
 30
0.0
 10
-14.4821493231
 20
3.0976314484
 30
0.0
 10
-14.6850485239
 20
2.9831265718
 30
0.0
 10
-14.8837146902
 20
2.8608904747
 30
0.0
 10
-14.9730371322
 20
2.796154493
 30
0.0
 11
-14.372578557
 21
3.152567859
 31
0.0
 11
-14.6945548485
 21
2.974958384
 31
0.0
 11
-14.9730371322
 21
2.796154493
 31
0.0
  0
SPLINE
  5
473
100
AcDbEntity
  8
ASSI
100
AcDbSpline
 62
253
  6
CONTINUOUS
 70
0
 71
3
 72
9
 73
5
 74
3
 42
0.0000001
 43
0.0000001
 44
0.0000000001
 12
-0.6451137459
 22
-0.3169757563
 32
0.0
 13
-0.6428968037
 23
0.3214484019
 33
0.0
 40
0.0
 40
0.0
 40
0.0
 40
0.0
 40
0.5006103378
 40
1.0
 40
1.0
 40
1.0
 40
1.0
 10
-14.2690291094
 20
2.794618576
 30
0.0
 10
-14.3766793129
 20
2.7417247958
 30
0.0
 10
-14.6213321074
 20
2.7036213267
 30
0.0
 10
-14.8660184596
 20
2.7426451567
 30
0.0
 10
-14.9730371322
 20
2.796154493
 30
0.0
 11
-14.2690291094
 21
2.794618576
 31
0.0
 11
-14.621639159
 21
2.722903742
 31
0.0
 11
-14.9730371322
 21
2.796154493
 31
0.0
  0
SPLINE
  5
474
100
AcDbEntity
  8
ASSI
100
AcDbSpline
 62
253
  6
CONTINUOUS
 70
0
 71
3
 72
9
 73
5
 74
3
 42
0.0000001
 43
0.0000001
 44
0.0000000001
 12
-0.6451137456
 22
-0.3169757561
 32
0.0
 13
-0.6428968034
 23
0.3214484017
 33
0.0
 40
0.0
 40
0.0
 40
0.0
 40
0.0
 40
0.5006103376
 40
1.0
 40
1.0
 40
1.0
 40
1.0
 10
-14.2690291094
 20
-26.2508155599
 30
0.0
 10
-14.3766793128
 20
-26.30370934
 30
0.0
 10
-14.6213321073
 20
-26.3418128074
 30
0.0
 10
-14.8660184596
 20
-26.3027889791
 30
0.0
 10
-14.9730371322
 20
-26.2492796429
 30
0.0
 11
-14.2690291094
 21
-26.2508155599
 31
0.0
 11
-14.6216391588
 21
-26.322530393
 31
0.0
 11
-14.9730371322
 21
-26.2492796429
 31
0.0
  0
LINE
  5
475
100
AcDbEntity
  8
ASSI
100
AcDbLine
 62
253
  6
CONTINUOUS
 10
-12.4846835279
 20
13.0966236996
 11
-12.451906714
 21
13.0766711298
  0
SPLINE
  5
476
100
AcDbEntity
  8
ASSI
100
AcDbSpline
 62
253
  6
CONTINUOUS
 70
0
 71
3
 72
10
 73
6
 74
4
 42
0.0000001
 43
0.0000001
 44
0.0000000001
 12
-0.6342563937
 22
-0.3084741998
 32
0.0
 13
-0.3537648134
 23
0.6101540475
 33
0.0
 40
0.0
 40
0.0
 40
0.0
 40
0.0
 40
0.2231377721
 40
0.4671199133
 40
1.0
 40
1.0
 40
1.0
 40
1.0
 10
-14.372578557
 20
-26.5052153953
 30
0.0
 10
-14.4197540766
 20
-26.5281594772
 30
0.0
 10
-14.5322486438
 20
-26.5502596812
 30
0.0
 10
-14.765577156
 20
-26.4950320185
 30
0.0
 10
-14.9101990574
 20
-26.3576592901
 30
0.0
 10
-14.9730371322
 20
-26.2492796429
 30
0.0
 11
-14.372578557
 21
-26.5052153953
 31
0.0
 11
-14.5264296325
 21
-26.5383438033
 31
0.0
 11
-14.694554849
 21
-26.5016693459
 31
0.0
 11
-14.9730371322
 21
-26.2492796429
 31
0.0
  0
SPLINE
  5
477
100
AcDbEntity
  8
ASSI
100
AcDbSpline
 62
253
  6
CONTINUOUS
 70
0
 71
3
 72
8
 73
4
 74
2
 42
0.0000001
 43
0.0000001
 44
0.0000000001
 12
-0.0617649788
 22
-0.0300397483
 32
0.0
 13
-0.0667508122
 23
-0.0161749234
 33
0.0
 40
0.0
 40
0.0
 40
0.0
 40
0.0
 40
1.0
 40
1.0
 40
1.0
 40
1.0
 10
-16.2632881176
 20
-27.8754974526
 30
0.0
 10
-16.2838764439
 20
-27.885510702
 30
0.0
 10
-16.3057219707
 20
-27.8931983039
 30
0.0
 10
-16.3279722415
 20
-27.898589945
 30
0.0
 11
-16.2632881176
 21
-27.8754974526
 31
0.0
 11
-16.3279722415
 21
-27.898589945
 31
0.0
  0
SPLINE
  5
478
100
AcDbEntity
  8
ASSI
100
AcDbSpline
 62
253
  6
CONTINUOUS
 70
0
 71
3
 72
8
 73
4
 74
2
 42
0.0000001
 43
0.0000001
 44
0.0000000001
 12
-0.1399282483
 22
-0.0339071334
 32
0.0
 13
-0.1424633724
 23
0.0208277674
 33
0.0
 40
0.0
 40
0.0
 40
0.0
 40
0.0
 40
1.0
 40
1.0
 40
1.0
 40
1.0
 10
-16.3279722415
 20
-27.898589945
 30
0.0
 10
-16.3746149909
 20
-27.9098923228
 30
0.0
 10
-16.4243453517
 20
-27.9113333535
 30
0.0
 10
-16.4718331425
 20
-27.9043907644
 30
0.0
 11
-16.3279722415
 21
-27.898589945
 31
0.0
 11
-16.4718331425
 21
-27.9043907644
 31
0.0
  0
SPLINE
  5
479
100
AcDbEntity
  8
ASSI
100
AcDbSpline
 62
253
  6
CONTINUOUS
 70
0
 71
3
 72
9
 73
5
 74
3
 42
0.0000001
 43
0.0000001
 44
0.0000000001
 12
-0.2379581442
 22
0.0347888499
 32
0.0
 13
-0.1942987082
 23
0.141712224
 33
0.0
 40
0.0
 40
0.0
 40
0.0
 40
0.0
 40
0.2402918745
 40
1.0
 40
1.0
 40
1.0
 40
1.0
 10
-16.4718331425
 20
-27.9043907644
 30
0.0
 10
-16.4908929454
 20
-27.9016042717
 30
0.0
 10
-16.5693718747
 20
-27.8844568903
 30
0.0
 10
-16.6427955749
 20
-27.846908272
 30
0.0
 10
-16.6919990107
 20
-27.8110216293
 30
0.0
 11
-16.4718331425
 21
-27.9043907644
 31
0.0
 11
-16.5283167536
 21
-27.8921855477
 31
0.0
 11
-16.6919990107
 21
-27.8110216293
 31
0.0
  0
SPLINE
  5
47A
100
AcDbEntity
  8
ASSI
100
AcDbSpline
 62
253
  6
CONTINUOUS
 70
0
 71
3
 72
9
 73
5
 74
3
 42
0.0000001
 43
0.0000001
 44
0.0000000001
 12
-0.0008317169
 22
-0.2797903318
 32
0.0
 13
-0.2264169745
 23
-0.1643735842
 33
0.0
 40
0.0
 40
0.0
 40
0.0
 40
0.0
 40
0.2909728637
 40
1.0
 40
1.0
 40
1.0
 40
1.0
 10
-14.2690291094
 20
-26.2508155599
 30
0.0
 10
-14.2691097785
 20
-26.2779526912
 30
0.0
 10
-14.2755768878
 20
-26.3701034822
 30
0.0
 10
-14.3190666307
 20
-26.4663669514
 30
0.0
 10
-14.372578557
 20
-26.5052153953
 30
0.0
 11
-14.2690291094
 21
-26.2508155599
 31
0.0
 11
-14.2760078141
 21
-26.3319276511
 31
0.0
 11
-14.372578557
 21
-26.5052153953
 31
0.0
  0
SPLINE
  5
47B
100
AcDbEntity
  8
ASSI
100
AcDbSpline
 62
253
  6
CONTINUOUS
 70
0
 71
3
 72
9
 73
5
 74
3
 42
0.0000001
 43
0.0000001
 44
0.0000000001
 12
0.3193918974
 22
-0.1608669662
 32
0.0
 13
0.1802655507
 23
-0.3088586993
 33
0.0
 40
0.0
 40
0.0
 40
0.0
 40
0.0
 40
0.2265159904
 40
1.0
 40
1.0
 40
1.0
 40
1.0
 10
-16.5132785984
 20
6.6653763722
 30
0.0
 10
-16.4891628078
 20
6.6532300588
 30
0.0
 10
-16.3881069359
 20
6.5889841647
 30
0.0
 10
-16.3097656246
 20
6.4931918986
 30
0.0
 10
-16.2632881176
 20
6.4135594769
 30
0.0
 11
-16.5132785984
 21
6.6653763722
 31
0.0
 11
-16.4445467386
 21
6.6225059857
 31
0.0
 11
-16.2632881176
 21
6.4135594769
 31
0.0
  0
SPLINE
  5
47C
100
AcDbEntity
  8
ASSI
100
AcDbSpline
 62
253
  6
CONTINUOUS
 70
0
 71
3
 72
9
 73
5
 74
3
 42
0.0000001
 43
0.0000001
 44
0.0000000001
 12
0.1870583359
 22
-0.3247806974
 32
0.0
 13
0.0011173991
 23
-0.374796043
 33
0.0
 40
0.0
 40
0.0
 40
0.0
 40
0.0
 40
0.2613136677
 40
1.0
 40
1.0
 40
1.0
 40
1.0
 10
-14.372578557
 20
3.152567859
 30
0.0
 10
-14.3562849238
 20
3.1242779806
 30
0.0
 10
-14.3005652769
 20
3.0125614953
 30
0.0
 10
-14.2693042453
 20
2.8869041474
 30
0.0
 10
-14.2690291094
 20
2.794618576
 30
0.0
 11
-14.372578557
 21
3.152567859
 31
0.0
 11
-14.3288344656
 21
3.064939942
 31
0.0
 11
-14.2690291094
 21
2.794618576
 31
0.0
  0
SPLINE
  5
47D
100
AcDbEntity
  8
ASSI
100
AcDbSpline
 62
253
  6
CONTINUOUS
 70
0
 71
3
 72
10
 73
6
 74
4
 42
0.0000001
 43
0.0000001
 44
0.0000000001
 12
1.1633412572
 22
2.5595276933
 32
0.0
 13
2.7058721158
 23
0.7634140333
 33
0.0
 40
0.0
 40
0.0
 40
0.0
 40
0.0
 40
0.516637044
 40
0.7592123634
 40
1.0
 40
1.0
 40
1.0
 40
1.0
 10
-30.1202416302
 20
-4.2402751768
 30
0.0
 10
-29.9198999008
 20
-3.7994929029
 30
0.0
 10
-29.5066315888
 20
-3.1879685607
 30
0.0
 10
-28.7425693387
 20
-2.6330346853
 30
0.0
 10
-28.3188490922
 20
-2.4588898481
 30
0.0
 10
-28.1016689083
 20
-2.3976162945
 30
0.0
 11
-30.1202416302
 21
-4.2402751768
 31
0.0
 11
-29.2802016513
 21
-3.0553003976
 31
0.0
 11
-28.7275024383
 21
-2.6557393634
 31
0.0
 11
-28.1016689083
 21
-2.3976162945
 31
0.0
  0
SPLINE
  5
47E
100
AcDbEntity
  8
ASSI
100
AcDbSpline
 62
253
  6
CONTINUOUS
 70
0
 71
3
 72
13
 73
9
 74
7
 42
0.0000001
 43
0.0000001
 44
0.0000000001
 12
10.7469468318
 22
3.0320612637
 32
0.0
 13
3.391650166
 23
-10.6389365476
 33
0.0
 40
0.0
 40
0.0
 40
0.0
 40
0.0
 40
0.0929110161
 40
0.19467705
 40
0.3080225061
 40
0.4331443821
 40
0.7099130799
 40
1.0
 40
1.0
 40
1.0
 40
1.0
 10
-28.1016689083
 20
-2.3976162945
 30
0.0
 10
-27.768832325
 20
-2.3037123302
 30
0.0
 10
-27.0326375797
 20
-2.2321324864
 30
0.0
 10
-25.8968541196
 20
-2.4638574865
 30
0.0
 10
-24.7419220495
 20
-3.0070629866
 30
0.0
 10
-23.187461448
 20
-4.145773648
 30
0.0
 10
-21.5127986085
 20
-6.1520066767
 30
0.0
 10
-20.599665864
 20
-8.0823724864
 30
0.0
 10
-20.2717080804
 20
-9.1111112652
 30
0.0
 11
-28.1016689083
 21
-2.3976162945
 31
0.0
 11
-27.0703045666
 21
-2.2850511757
 31
0.0
 11
-25.9536484221
 21
-2.4957927536
 31
0.0
 11
-24.8022371392
 21
-3.0213132966
 31
0.0
 11
-23.6682290448
 21
-3.8374701578
 31
0.0
 11
-21.6543849867
 21
-6.1817866644
 31
0.0
 11
-20.2717080804
 21
-9.1111112652
 31
0.0
  0
SPLINE
  5
47F
100
AcDbEntity
  8
ASSI
100
AcDbSpline
 62
253
  6
CONTINUOUS
 70
0
 71
3
 72
9
 73
5
 74
3
 42
0.0000001
 43
0.0000001
 44
0.0000000001
 12
0.4951504249
 22
-0.522643346
 32
0.0
 13
0.6501495677
 23
0.3092499797
 33
0.0
 40
0.0
 40
0.0
 40
0.0
 40
0.0
 40
0.5236816904
 40
1.0
 40
1.0
 40
1.0
 40
1.0
 10
-30.1202415926
 20
-4.2402752188
 30
0.0
 10
-30.0338078554
 20
-4.3315081357
 30
0.0
 10
-29.8151495294
 20
-4.4564495501
 30
0.0
 10
-29.554154022
 20
-4.4554898719
 30
0.0
 10
-29.4509279743
 20
-4.406389396
 30
0.0
 11
-30.1202415926
 21
-4.2402752188
 31
0.0
 11
-29.7931824769
 21
-4.4278397659
 31
0.0
 11
-29.4509279743
 21
-4.406389396
 31
0.0
  0
SPLINE
  5
480
100
AcDbEntity
  8
ASSI
100
AcDbSpline
 62
253
  6
CONTINUOUS
 70
0
 71
3
 72
9
 73
5
 74
3
 42
0.0000001
 43
0.0000001
 44
0.0000000001
 12
0.6975686924
 22
0.038736845
 32
0.0
 13
0.626620842
 23
0.3089481253
 33
0.0
 40
0.0
 40
0.0
 40
0.0
 40
0.0
 40
0.4767927645
 40
1.0
 40
1.0
 40
1.0
 40
1.0
 10
-30.1202415882
 20
-9.7224997196
 30
0.0
 10
-30.0093763531
 20
-9.7163432372
 30
0.0
 10
-29.7807199991
 20
-9.6619241102
 30
0.0
 10
-29.5602121685
 20
-9.5848143821
 30
0.0
 10
-29.4509279824
 20
-9.5309330839
 30
0.0
 11
-30.1202415882
 21
-9.7224997196
 31
0.0
 11
-29.7931853776
 21
-9.6592916604
 31
0.0
 11
-29.4509279824
 21
-9.5309330839
 31
0.0
  0
SPLINE
  5
481
100
AcDbEntity
  8
ASSI
100
AcDbSpline
 62
253
  6
CONTINUOUS
 70
0
 71
3
 72
9
 73
5
 74
3
 42
0.0000001
 43
0.0000001
 44
0.0000000001
 12
-0.6730227102
 22
-1.4807523197
 32
0.0
 13
-1.260129512
 23
-1.0284262801
 33
0.0
 40
0.0
 40
0.0
 40
0.0
 40
0.0
 40
0.263187451
 40
1.0
 40
1.0
 40
1.0
 40
1.0
 10
-20.251681607
 20
-14.6567797362
 30
0.0
 10
-20.3107253175
 20
-14.7866848791
 30
0.0
 10
-20.5587271116
 20
-15.2686508813
 30
0.0
 10
-20.9113133465
 20
-15.7007633668
 30
0.0
 10
-21.2208064258
 20
-15.9533491632
 30
0.0
 11
-20.251681607
 21
-14.6567797362
 31
0.0
 11
-20.4485115543
 21
-15.0369264511
 31
0.0
 11
-21.2208064258
 21
-15.9533491632
 31
0.0
  0
SPLINE
  5
482
100
AcDbEntity
  8
ASSI
100
AcDbSpline
 62
253
  6
CONTINUOUS
 70
0
 71
3
 72
14
 73
10
 74
8
 42
0.0000001
 43
0.0000001
 44
0.0000000001
 12
-9.6183769782
 22
-7.8498214365
 32
0.0
 13
-3.7029314835
 23
11.8499439116
 33
0.0
 40
0.0
 40
0.0
 40
0.0
 40
0.0
 40
0.0926735449
 40
0.1893158206
 40
0.2970673096
 40
0.4189596221
 40
0.5542934543
 40
0.6997044256
 40
1.0
 40
1.0
 40
1.0
 40
1.0
 10
-21.2208064258
 20
-15.9533491632
 30
0.0
 10
-21.5179294561
 20
-16.195839423
 30
0.0
 10
-22.2333925795
 20
-16.5739691331
 30
0.0
 10
-23.487031396
 20
-16.6710499961
 30
0.0
 10
-24.8117634102
 20
-16.3224132955
 30
0.0
 10
-26.1373906096
 20
-15.5724146525
 30
0.0
 10
-27.3997725649
 20
-14.4696133099
 30
0.0
 10
-28.9215694677
 20
-12.5988679473
 30
0.0
 10
-29.7495800235
 20
-10.9086701104
 30
0.0
 10
-30.1202380024
 20
-9.722508206
 30
0.0
 11
-21.2208064258
 21
-15.9533491632
 31
0.0
 11
-22.2383930698
 21
-16.490256989
 31
0.0
 11
-23.4328380019
 21
-16.603661706
 31
0.0
 11
-24.7327145941
 21
-16.2876512905
 31
0.0
 11
-26.0598744992
 21
-15.560525381
 31
0.0
 11
-27.3345023149
 21
-14.4658540031
 31
0.0
 11
-28.4797946943
 21
-13.0703810174
 31
0.0
 11
-30.1202380024
 21
-9.722508206
 31
0.0
  0
SPLINE
  5
483
100
AcDbEntity
  8
ASSI
100
AcDbSpline
 62
253
  6
CONTINUOUS
 70
0
 71
3
 72
9
 73
5
 74
3
 42
0.0000001
 43
0.0000001
 44
0.0000000001
 12
-0.2841381105
 22
0.2999148186
 32
0.0
 13
0.1692816324
 23
0.3768648208
 33
0.0
 40
0.0
 40
0.0
 40
0.0
 40
0.0
 40
0.5422723172
 40
1.0
 40
1.0
 40
1.0
 40
1.0
 10
-20.2516816412
 20
-14.6567796977
 30
0.0
 10
-20.3030417184
 20
-14.6025678631
 30
0.0
 10
-20.3826876364
 20
-14.4827508286
 30
0.0
 10
-20.3799151476
 20
-14.3323486526
 30
0.0
 10
-20.3540868512
 20
-14.2748481656
 30
0.0
 11
-20.2516816412
 21
-14.6567796977
 31
0.0
 11
-20.3651853752
 21
-14.4636270969
 31
0.0
 11
-20.3540868512
 21
-14.2748481656
 31
0.0
  0
SPLINE
  5
484
100
AcDbEntity
  8
ASSI
100
AcDbSpline
 62
253
  6
CONTINUOUS
 70
0
 71
3
 72
9
 73
5
 74
3
 42
0.0000001
 43
0.0000001
 44
0.0000000001
 12
-0.1296625224
 22
-0.0072003026
 32
0.0
 13
-0.0445090864
 23
0.1219965381
 33
0.0
 40
0.0
 40
0.0
 40
0.0
 40
0.0
 40
0.6592943688
 40
1.0
 40
1.0
 40
1.0
 40
1.0
 10
-20.2516816452
 20
-9.1745551933
 30
0.0
 10
-20.2801769021
 20
-9.1761375662
 30
0.0
 10
-20.3201526769
 20
-9.1778738761
 30
0.0
 10
-20.3700689713
 20
-9.161684731
 30
0.0
 10
-20.3751238034
 20
-9.1478297618
 30
0.0
 11
-20.2516816452
 21
-9.1745551933
 31
0.0
 11
-20.3372093449
 21
-9.1706354041
 31
0.0
 11
-20.3751238034
 21
-9.1478297618
 31
0.0
  0
SPLINE
  5
485
100
AcDbEntity
  8
ASSI
100
AcDbSpline
 62
253
  6
CONTINUOUS
 70
0
 71
3
 72
11
 73
7
 74
5
 42
0.0000001
 43
0.0000001
 44
0.0000000001
 12
1.9405329979
 22
-0.9702664989
 32
0.0
 13
1.9472246623
 23
0.9567661727
 33
0.0
 40
0.0
 40
0.0
 40
0.0
 40
0.0
 40
0.2350941399
 40
0.4994782113
 40
0.764081181
 40
1.0
 40
1.0
 40
1.0
 40
1.0
 10
-20.251681607
 20
-26.1861429365
 30
0.0
 10
-20.099612295
 20
-26.2621775925
 30
0.0
 10
-19.7502142987
 20
-26.3709423533
 30
0.0
 10
-19.1972085208
 20
-26.4236587516
 30
0.0
 10
-18.6433885774
 20
-26.3731709377
 30
0.0
 10
-18.2927865196
 20
-26.2659904026
 30
0.0
 10
-18.1396575388
 20
-26.1907506874
 30
0.0
 11
-20.251681607
 21
-26.1861429365
 31
0.0
 11
-19.7680225925
 21
-26.3481029898
 31
0.0
 11
-19.1973294102
 21
-26.4058053132
 31
0.0
 11
-18.6259163597
 21
-26.3505563655
 31
0.0
 11
-18.1396575388
 21
-26.1907506874
 31
0.0
  0
SPLINE
  5
486
100
AcDbEntity
  8
ASSI
100
AcDbSpline
 62
253
  6
CONTINUOUS
 70
0
 71
3
 72
9
 73
5
 74
3
 42
0.0000001
 43
0.0000001
 44
0.0000000001
 12
-0.6307771563
 22
0.3098735437
 32
0.0
 13
-0.6237642114
 23
-0.3237586179
 33
0.0
 40
0.0
 40
0.0
 40
0.0
 40
0.0
 40
0.5367155671
 40
1.0
 40
1.0
 40
1.0
 40
1.0
 10
-29.068837347
 20
9.1137788073
 30
0.0
 10
-29.1816866534
 20
9.1692167922
 30
0.0
 10
-29.411169118
 20
9.2438315007
 30
0.0
 10
-29.6548392503
 20
9.200439395
 30
0.0
 10
-29.7511659999
 20
9.1504419524
 30
0.0
 11
-29.068837347
 21
9.1137788073
 31
0.0
 11
-29.4321072263
 21
9.2153170756
 31
0.0
 11
-29.7511659999
 21
9.1504419524
 31
0.0
  0
SPLINE
  5
487
100
AcDbEntity
  8
ASSI
100
AcDbSpline
 62
253
  6
CONTINUOUS
 70
0
 71
3
 72
11
 73
7
 74
5
 42
0.0000001
 43
0.0000001
 44
0.0000000001
 12
-0.0158641271
 22
2.1995003653
 32
0.0
 13
-1.960318156
 23
0.997600248
 33
0.0
 40
0.0
 40
0.0
 40
0.0
 40
0.0
 40
0.2466547737
 40
0.5119370216
 40
0.7706939914
 40
1.0
 40
1.0
 40
1.0
 40
1.0
 10
-18.1396575388
 20
2.3502002609
 30
0.0
 10
-18.1409618597
 20
2.5310393492
 30
0.0
 10
-18.2055751776
 20
2.9065228949
 30
0.0
 10
-18.4327553541
 20
3.4289376131
 30
0.0
 10
-18.7641964112
 20
3.8765235703
 30
0.0
 10
-19.0504397465
 20
4.1032468854
 30
0.0
 10
-19.2002773239
 20
4.1794987957
 30
0.0
 11
-18.1396575388
 21
2.3502002609
 31
0.0
 11
-18.2232558172
 21
2.8862521445
 31
0.0
 11
-18.4541762002
 21
3.4221179878
 31
0.0
 11
-18.7972553478
 21
3.8762428518
 31
0.0
 11
-19.2002773239
 21
4.1794987957
 31
0.0
  0
SPLINE
  5
488
100
AcDbEntity
  8
ASSI
100
AcDbSpline
 62
253
  6
CONTINUOUS
 70
0
 71
3
 72
11
 73
7
 74
5
 42
0.0000001
 43
0.0000001
 44
0.0000000001
 12
-0.643893607
 22
0.3219468035
 32
0.0
 13
-0.004086896
 23
0.7198833369
 33
0.0
 40
0.0
 40
0.0
 40
0.0
 40
0.0
 40
0.3017079518
 40
0.5653187191
 40
0.7934957886
 40
1.0
 40
1.0
 40
1.0
 40
1.0
 10
-30.1202416302
 20
-21.2518629249
 30
0.0
 10
-30.1849975706
 20
-21.2194849546
 30
0.0
 10
-30.3021973108
 20
-21.1496910336
 30
0.0
 10
-30.4451032015
 20
-21.0214026239
 30
0.0
 10
-30.5368269719
 20
-20.8780504472
 30
0.0
 10
-30.5592931884
 20
-20.7731103862
 30
0.0
 10
-30.5595745088
 20
-20.723557406
 30
0.0
 11
-30.1202416302
 21
-21.2518629249
 31
0.0
 11
-30.305712568
 21
-21.1388341044
 31
0.0
 11
-30.4445973244
 21
-21.0095110284
 31
0.0
 11
-30.5301311597
 21
-20.8692738503
 31
0.0
 11
-30.5595745088
 21
-20.723557406
 31
0.0
  0
SPLINE
  5
489
100
AcDbEntity
  8
ASSI
100
AcDbSpline
 62
253
  6
CONTINUOUS
 70
0
 71
3
 72
11
 73
7
 74
5
 42
0.0000001
 43
0.0000001
 44
0.0000000001
 12
0.0
 22
-0.9301094608
 32
0.0
 13
0.8210327902
 23
-0.437045497
 33
0.0
 40
0.0
 40
0.0
 40
0.0
 40
0.0
 40
0.2886943227
 40
0.5492358894
 40
0.7829642644
 40
1.0
 40
1.0
 40
1.0
 40
1.0
 10
-30.1202416302
 20
-21.2518629249
 30
0.0
 10
-30.1202416302
 20
-21.3413686985
 30
0.0
 10
-30.1057246787
 20
-21.5122153863
 30
0.0
 10
-30.0345089805
 20
-21.7466662728
 30
0.0
 10
-29.9145999689
 20
-21.9355333428
 30
0.0
 10
-29.8027685951
 20
-22.0248366889
 30
0.0
 10
-29.7433707765
 20
-22.0564548525
 30
0.0
 11
-30.1202416302
 21
-21.2518629249
 31
0.0
 11
-30.0951890995
 21
-21.519208997
 31
0.0
 11
-30.0214100728
 21
-21.750036939
 31
0.0
 11
-29.9021491798
 21
-21.9317965166
 31
0.0
 11
-29.7433707765
 21
-22.0564548525
 31
0.0
  0
SPLINE
  5
48A
100
AcDbEntity
  8
ASSI
100
AcDbSpline
 62
253
  6
CONTINUOUS
 70
0
 71
3
 72
11
 73
7
 74
5
 42
0.0000001
 43
0.0000001
 44
0.0000000001
 12
0.0000000001
 22
-0.9447123037
 32
0.0
 13
0.8452953354
 23
-0.4218496565
 33
0.0
 40
0.0
 40
0.0
 40
0.0
 40
0.0
 40
0.2892253376
 40
0.5496554441
 40
0.7829671178
 40
1.0
 40
1.0
 40
1.0
 40
1.0
 10
-20.251681607
 20
-26.1861429365
 30
0.0
 10
-20.251681607
 20
-26.2772211815
 30
0.0
 10
-20.2366845051
 20
-26.4509118495
 30
0.0
 10
-20.1628481481
 20
-26.6886999849
 30
0.0
 10
-20.0384966257
 20
-26.8789186516
 30
0.0
 10
-19.9228168582
 20
-26.9669942166
 30
0.0
 10
-19.8616645639
 20
-26.9975126322
 30
0.0
 11
-20.251681607
 21
-26.1861429365
 31
0.0
 11
-20.2256993552
 21
-26.4581395228
 31
0.0
 11
-20.1492123004
 21
-26.6919797293
 31
0.0
 11
-20.0257470482
 21
-26.8745665893
 31
0.0
 11
-19.8616645639
 21
-26.9975126322
 31
0.0
  0
SPLINE
  5
48B
100
AcDbEntity
  8
ASSI
100
AcDbSpline
 62
253
  6
CONTINUOUS
 70
0
 71
3
 72
14
 73
10
 74
8
 42
0.0000001
 43
0.0000001
 44
0.0000000001
 12
-2.238902741
 22
5.149027308
 32
0.0
 13
3.4227093005
 23
4.4508683138
 33
0.0
 40
0.0
 40
0.0
 40
0.0
 40
0.0
 40
0.3002078864
 40
0.4473924834
 40
0.5858574521
 40
0.7080571972
 40
0.8126409786
 40
0.9061935223
 40
1.0
 40
1.0
 40
1.0
 40
1.0
 10
-30.1202380024
 20
-9.7225085111
 30
0.0
 10
-30.3442834223
 20
-9.207248976
 30
0.0
 10
-30.5102778043
 20
-8.3673998424
 30
0.0
 10
-30.5573150864
 20
-7.2737376229
 30
0.0
 10
-30.5588472082
 20
-6.5099113694
 30
0.0
 10
-30.5584791367
 20
-5.8265387504
 30
0.0
 10
-30.5277018703
 20
-5.2267881552
 30
0.0
 10
-30.4035496704
 20
-4.6896214472
 30
0.0
 10
-30.2272657314
 20
-4.3794486032
 30
0.0
 10
-30.1202416302
 20
-4.2402751768
 30
0.0
 11
-30.1202380024
 21
-9.7225085111
 31
0.0
 11
-30.5084858102
 21
-8.0822456395
 31
0.0
 11
-30.5522111261
 21
-7.2570017737
 31
0.0
 11
-30.5585578824
 21
-6.4795845779
 31
0.0
 11
-30.5522013883
 21
-5.7934957237
 31
0.0
 11
-30.508469986
 21
-5.2079169383
 31
0.0
 11
-30.3795712685
 21
-4.6987059201
 31
0.0
 11
-30.1202416302
 21
-4.2402751768
 31
0.0
  0
SPLINE
  5
48C
100
AcDbEntity
  8
ASSI
100
AcDbSpline
 62
253
  6
CONTINUOUS
 70
0
 71
3
 72
12
 73
8
 74
6
 42
0.0000001
 43
0.0000001
 44
0.0000000001
 12
2.0481933042
 22
-4.4485932448
 32
0.0
 13
-2.5919072237
 23
-4.1553693713
 33
0.0
 40
0.0
 40
0.0
 40
0.0
 40
0.0
 40
0.2707524843
 40
0.5216952207
 40
0.6445336618
 40
0.7668022553
 40
1.0
 40
1.0
 40
1.0
 40
1.0
 10
-20.0818313991
 20
-9.5524858322
 30
0.0
 10
-19.8969802573
 20
-9.9539750564
 30
0.0
 10
-19.521485794
 20
-10.7158401731
 30
0.0
 10
-19.2222454212
 20
-11.745875663
 30
0.0
 10
-19.259771002
 20
-12.5620174622
 30
0.0
 10
-19.4501588647
 20
-13.3227768519
 30
0.0
 10
-19.7128498715
 20
-13.8483394947
 30
0.0
 10
-19.9143255112
 20
-14.1713470834
 30
0.0
 11
-20.0818313991
 21
-9.5524858322
 31
0.0
 11
-19.5431273491
 21
-10.7641251442
 31
0.0
 11
-19.2537326734
 21
-11.9585476806
 31
0.0
 11
-19.2796616017
 21
-12.5595845398
 31
0.0
 11
-19.420343218
 21
-13.1416293961
 31
0.0
 11
-19.9143255112
 21
-14.1713470834
 31
0.0
  0
SPLINE
  5
48D
100
AcDbEntity
  8
ASSI
100
AcDbSpline
 62
253
  6
CONTINUOUS
 70
0
 71
3
 72
11
 73
7
 74
5
 42
0.0000001
 43
0.0000001
 44
0.0000000001
 12
-0.6453340392
 22
0.3226670196
 32
0.0
 13
-0.0009276376
 23
0.7215047936
 33
0.0
 40
0.0
 40
0.0
 40
0.0
 40
0.0
 40
0.3018185229
 40
0.565410005
 40
0.7934998637
 40
1.0
 40
1.0
 40
1.0
 40
1.0
 10
-30.1202416302
 20
7.2890880235
 30
0.0
 10
-30.185166219
 20
7.3215503179
 30
0.0
 10
-30.3026384061
 20
7.3915347902
 30
0.0
 10
-30.4457654082
 20
7.5202407291
 30
0.0
 10
-30.537396585
 20
7.6641030163
 30
0.0
 10
-30.5595163451
 20
7.7693637533
 30
0.0
 10
-30.5595801975
 20
7.819027366
 30
0.0
 11
-30.1202416302
 21
7.2890880235
 31
0.0
 11
-30.3061677251
 21
7.402456945
 31
0.0
 11
-30.4452260926
 21
7.532195992
 31
0.0
 11
-30.5306119806
 21
7.6728796703
 31
0.0
 11
-30.5595801975
 21
7.819027366
 31
0.0
  0
SPLINE
  5
48E
100
AcDbEntity
  8
ASSI
100
AcDbSpline
 62
253
  6
CONTINUOUS
 70
0
 71
3
 72
11
 73
7
 74
5
 42
0.0000001
 43
0.0000001
 44
0.0000000001
 12
0.0000000001
 22
2.1920964163
 32
0.0
 13
1.9522531601
 23
0.9969926264
 33
0.0
 40
0.0
 40
0.0
 40
0.0
 40
0.0
 40
0.2465259175
 40
0.5113272549
 40
0.7698733892
 40
1.0
 40
1.0
 40
1.0
 40
1.0
 10
-30.1202416302
 20
7.2890880235
 30
0.0
 10
-30.1202416302
 20
7.4692242169
 30
0.0
 10
-30.0584028556
 20
7.8434926543
 30
0.0
 10
-29.8341903233
 20
8.3645531092
 30
0.0
 10
-29.5043013622
 20
8.8112190079
 30
0.0
 10
-29.2185925901
 20
9.0373006834
 30
0.0
 10
-29.0688374557
 20
9.1137788615
 30
0.0
 11
-30.1202416302
 21
7.2890880235
 31
0.0
 11
-30.0403721956
 21
7.8235618834
 31
0.0
 11
-29.812727889
 21
8.3575315112
 31
0.0
 11
-29.4717723555
 21
8.8102610291
 31
0.0
 11
-29.0688374557
 21
9.1137788615
 31
0.0
  0
SPLINE
  5
48F
100
AcDbEntity
  8
ASSI
100
AcDbSpline
 62
253
  6
CONTINUOUS
 70
0
 71
3
 72
11
 73
7
 74
5
 42
0.0000001
 43
0.0000001
 44
0.0000000001
 12
0.0
 22
2.1920964698
 32
0.0
 13
1.9522532077
 23
0.9969926509
 33
0.0
 40
0.0
 40
0.0
 40
0.0
 40
0.0
 40
0.24652594
 40
0.5113272241
 40
0.7698733189
 40
1.0
 40
1.0
 40
1.0
 40
1.0
 10
-20.251681607
 20
2.3548080119
 30
0.0
 10
-20.251681607
 20
2.5349442261
 30
0.0
 10
-20.1898428272
 20
2.9092126534
 30
0.0
 10
-19.9656302994
 20
3.4302730549
 30
0.0
 10
-19.6357413995
 20
3.8769390183
 30
0.0
 10
-19.3500325076
 20
4.1030205924
 30
0.0
 10
-19.2002773239
 20
4.1794987957
 30
0.0
 11
-20.251681607
 21
2.3548080119
 31
0.0
 11
-20.1718121531
 21
2.8892819322
 31
0.0
 11
-19.9441678853
 21
3.4232514649
 31
0.0
 11
-19.6032124124
 21
3.8759809375
 31
0.0
 11
-19.2002773239
 21
4.1794987957
 31
0.0
  0
SPLINE
  5
490
100
AcDbEntity
  8
ASSI
100
AcDbSpline
 62
253
  6
CONTINUOUS
 70
0
 71
3
 72
11
 73
7
 74
5
 42
0.0000001
 43
0.0000001
 44
0.0000000001
 12
1.940533036
 22
-0.9702665179
 32
0.0
 13
1.9472247004
 23
0.9567661916
 33
0.0
 40
0.0
 40
0.0
 40
0.0
 40
0.0
 40
0.2350941071
 40
0.49947822
 40
0.7640812185
 40
1.0
 40
1.0
 40
1.0
 40
1.0
 10
-20.251681607
 20
2.3548080119
 30
0.0
 10
-20.0996123132
 20
2.278773365
 30
0.0
 10
-19.7502143063
 20
2.1700085859
 30
0.0
 10
-19.1972084958
 20
2.1172922139
 30
0.0
 10
-18.6433884898
 20
2.1677799521
 30
0.0
 10
-18.2927864985
 20
2.274960689
 30
0.0
 10
-18.1396575389
 20
2.3502003937
 30
0.0
 11
-20.251681607
 21
2.3548080119
 31
0.0
 11
-19.7680226533
 21
2.1928479694
 31
0.0
 11
-19.1973293702
 21
2.1351456362
 31
0.0
 11
-18.6259162474
 21
2.1903946018
 31
0.0
 11
-18.1396575389
 21
2.3502003937
 31
0.0
  0
SPLINE
  5
491
100
AcDbEntity
  8
0
100
AcDbSpline
 62
7
  6
CONTINUOUS
 70
0
 71
3
 72
9
 73
5
 74
3
 42
0.0000001
 43
0.0000001
 44
0.0000000001
 12
0.1890137359
 22
-0.0945068679
 32
0.0
 13
0.2110946111
 23
-0.0098389835
 33
0.0
 40
0.0
 40
0.0
 40
0.0
 40
0.0
 40
0.2530779031
 40
1.0
 40
1.0
 40
1.0
 40
1.0
 10
-24.2707945602
 20
-9.5220524331
 30
0.0
 10
-24.2548494936
 20
-9.5300249664
 30
0.0
 10
-24.1905006647
 20
-9.5586770562
 30
0.0
 10
-24.1201773136
 20
-9.5746276764
 30
0.0
 10
-24.0676202371
 20
-9.5770773278
 30
0.0
 11
-24.2707945602
 21
-9.5220524331
 31
0.0
 11
-24.2218963015
 21
-9.5437138789
 31
0.0
 11
-24.0676202371
 21
-9.5770773278
 31
0.0
  0
SPLINE
  5
492
100
AcDbEntity
  8
0
100
AcDbSpline
 62
7
  6
CONTINUOUS
 70
0
 71
3
 72
11
 73
7
 74
5
 42
0.0000001
 43
0.0000001
 44
0.0000000001
 12
-0.587063368
 22
-0.8637950408
 32
0.0
 13
0.7840695007
 23
-0.6899422356
 33
0.0
 40
0.0
 40
0.0
 40
0.0
 40
0.0
 40
0.2350606513
 40
0.4834521749
 40
0.7438725975
 40
1.0
 40
1.0
 40
1.0
 40
1.0
 10
-24.6177966868
 20
-8.4767244285
 30
0.0
 10
-24.663795186
 20
-8.5444058368
 30
0.0
 10
-24.7192774808
 20
-8.7114290722
 30
0.0
 10
-24.6958102743
 20
-8.9740271516
 30
0.0
 10
-24.5936624122
 20
-9.2235890761
 30
0.0
 10
-24.4791940013
 20
-9.3667768933
 30
0.0
 10
-24.4122534397
 20
-9.4256812642
 30
0.0
 11
-24.6177966868
 21
-8.4767244285
 31
0.0
 11
-24.7010258864
 21
-8.7076846307
 31
0.0
 11
-24.6838225015
 21
-8.966535348
 31
0.0
 11
-24.5815268006
 21
-9.2185498989
 31
0.0
 11
-24.4122534397
 21
-9.4256812642
 31
0.0
  0
SPLINE
  5
493
100
AcDbEntity
  8
0
100
AcDbSpline
 62
7
  6
CONTINUOUS
 70
0
 71
3
 72
9
 73
5
 74
3
 42
0.0000001
 43
0.0000001
 44
0.0000000001
 12
0.090982462
 22
-0.0679347972
 32
0.0
 13
0.1015596182
 23
-0.0507798091
 33
0.0
 40
0.0
 40
0.0
 40
0.0
 40
0.0
 40
0.2533516157
 40
1.0
 40
1.0
 40
1.0
 40
1.0
 10
-24.3672183288
 20
-9.462246356
 30
0.0
 10
-24.3595348108
 20
-9.4679834862
 30
0.0
 10
-24.3287461954
 20
-9.4899995973
 30
0.0
 10
-24.2960710018
 20
-9.5094142123
 30
0.0
 10
-24.2707945602
 20
-9.5220524331
 30
0.0
 11
-24.3672183288
 21
-9.462246356
 31
0.0
 11
-24.343813026
 21
-9.4789721385
 31
0.0
 11
-24.2707945602
 21
-9.5220524331
 31
0.0
  0
SPLINE
  5
494
100
AcDbEntity
  8
0
100
AcDbSpline
 62
7
  6
CONTINUOUS
 70
0
 71
3
 72
9
 73
5
 74
3
 42
0.0000001
 43
0.0000001
 44
0.0000000001
 12
-0.3537389366
 22
-0.1768694683
 32
0.0
 13
-0.2223070429
 23
-0.3270987966
 33
0.0
 40
0.0
 40
0.0
 40
0.0
 40
0.0
 40
0.5003689879
 40
1.0
 40
1.0
 40
1.0
 40
1.0
 10
-23.7889495884
 20
-7.4307411698
 30
0.0
 10
-23.8479495863
 20
-7.4602411687
 30
0.0
 10
-23.9585368363
 20
-7.5351281702
 30
0.0
 10
-24.0461775797
 20
-7.6356538102
 30
0.0
 10
-24.0832014106
 20
-7.6901300445
 30
0.0
 11
-23.7889495884
 21
-7.4307411698
 31
0.0
 11
-23.9528733502
 21
-7.5416025585
 31
0.0
 11
-24.0832014106
 21
-7.6901300445
 31
0.0
  0
SPLINE
  5
495
100
AcDbEntity
  8
0
100
AcDbSpline
 62
7
  6
CONTINUOUS
 70
0
 71
3
 72
9
 73
5
 74
3
 42
0.0000001
 43
0.0000001
 44
0.0000000001
 12
0.3950632977
 22
-0.0184136452
 32
0.0
 13
0.3537389677
 23
0.1768694838
 33
0.0
 40
0.0
 40
0.0
 40
0.0
 40
0.0
 40
0.4996286558
 40
1.0
 40
1.0
 40
1.0
 40
1.0
 10
-23.1175875642
 20
-9.6213577374
 30
0.0
 10
-23.0517925827
 20
-9.624424399
 30
0.0
 10
-22.9187875892
 20
-9.6146275361
 30
0.0
 10
-22.792525652
 20
-9.5710897448
 30
0.0
 10
-22.7335253711
 20
-9.5415896044
 30
0.0
 11
-23.1175875642
 21
-9.6213577374
 31
0.0
 11
-22.9205696315
 21
-9.6062121049
 31
0.0
 11
-22.7335253711
 21
-9.5415896044
 31
0.0
  0
SPLINE
  5
496
100
AcDbEntity
  8
0
100
AcDbSpline
 62
7
  6
CONTINUOUS
 70
0
 71
3
 72
18
 73
14
 74
12
 42
0.0000001
 43
0.0000001
 44
0.0000000001
 12
7.7154018192
 22
-3.8577009096
 32
0.0
 13
-7.7996208624
 23
-3.6844532759
 33
0.0
 40
0.0
 40
0.0
 40
0.0
 40
0.0
 40
0.1241699722
 40
0.2642326827
 40
0.4123623179
 40
0.5593667137
 40
0.6962331749
 40
0.7586125285
 40
0.8160212101
 40
0.8682233422
 40
0.9154938049
 40
0.9588147524
 40
1.0
 40
1.0
 40
1.0
 40
1.0
 10
-25.3331203565
 20
-5.9187893049
 30
0.0
 10
-25.0137799468
 20
-6.0784595098
 30
0.0
 10
-24.3880750761
 20
-6.5276785338
 30
0.0
 10
-23.5979628088
 20
-7.4212893254
 30
0.0
 10
-22.9581256271
 20
-8.5055138325
 30
0.0
 10
-22.5301800032
 20
-9.6787780924
 30
0.0
 10
-22.3766664639
 20
-10.6715537645
 30
0.0
 10
-22.4000923582
 20
-11.4110698799
 30
0.0
 10
-22.4844581697
 20
-11.9002547928
 30
0.0
 10
-22.6325751567
 20
-12.3287726743
 30
0.0
 10
-22.8395998865
 20
-12.6867944242
 30
0.0
 10
-23.0995441735
 20
-12.9671516573
 30
0.0
 10
-23.3065461279
 20
-13.1002985572
 30
0.0
 10
-23.4136225665
 20
-13.1508802639
 30
0.0
 11
-25.3331203565
 21
-5.9187893049
 31
0.0
 11
-24.4520804704
 21
-6.5279071614
 31
0.0
 11
-23.6437682248
 21
-7.4258827028
 31
0.0
 11
-22.992129035
 21
-8.5250113371
 31
0.0
 11
-22.5617981085
 21
-9.7178322058
 31
0.0
 11
-22.3939063756
 21
-10.8864548518
 31
0.0
 11
-22.4135153468
 21
-11.4241868255
 31
0.0
 11
-22.5006510992
 21
-11.9116724669
 31
0.0
 11
-22.651084592
 21
-12.3361011591
 31
0.0
 11
-22.8582210234
 21
-12.6873301277
 31
0.0
 11
-23.1143488066
 21
-12.9594381797
 31
0.0
 11
-23.4136225665
 21
-13.1508802639
 31
0.0
  0
SPLINE
  5
497
100
AcDbEntity
  8
0
100
AcDbSpline
 62
7
  6
CONTINUOUS
 70
0
 71
3
 72
11
 73
7
 74
5
 42
0.0000001
 43
0.0000001
 44
0.0000000001
 12
1.5050992425
 22
0.7935844629
 32
0.0
 13
1.548913851
 23
-0.704248473
 33
0.0
 40
0.0
 40
0.0
 40
0.0
 40
0.0
 40
0.2214302233
 40
0.4558215324
 40
0.7135990407
 40
1.0
 40
1.0
 40
1.0
 40
1.0
 10
-27.0831585042
 20
-5.8085781368
 30
0.0
 10
-26.9720670171
 20
-5.7500036085
 30
0.0
 10
-26.7253633845
 20
-5.6609796177
 30
0.0
 10
-26.3179378185
 20
-5.6279389766
 30
0.0
 10
-25.8781350941
 20
-5.6952193206
 30
0.0
 10
-25.5862522912
 20
-5.8013111367
 30
0.0
 10
-25.4383821536
 20
-5.8685436161
 30
0.0
 11
-27.0831585042
 21
-5.8085781368
 31
0.0
 11
-26.7291818229
 21
-5.6795387865
 31
0.0
 11
-26.3319664178
 21
-5.6438365476
 31
0.0
 11
-25.89778566
 21
-5.7059998584
 31
0.0
 11
-25.4383821536
 21
-5.8685436161
 31
0.0
  0
SPLINE
  5
498
100
AcDbEntity
  8
0
100
AcDbSpline
 62
7
  6
CONTINUOUS
 70
0
 71
3
 72
12
 73
8
 74
6
 42
0.0000001
 43
0.0000001
 44
0.0000000001
 12
0.0
 22
3.1122683473
 32
0.0
 13
2.7836974355
 23
1.3918487177
 33
0.0
 40
0.0
 40
0.0
 40
0.0
 40
0.0
 40
0.2818700122
 40
0.538777324
 40
0.7748786137
 40
0.8881605423
 40
1.0
 40
1.0
 40
1.0
 40
1.0
 10
-28.653297473
 20
-7.8752148684
 30
0.0
 10
-28.653297473
 20
-7.582796496
 30
0.0
 10
-28.6047874088
 20
-7.0216459772
 30
0.0
 10
-28.3604053939
 20
-6.2479191906
 30
0.0
 10
-28.0071050865
 20
-5.7140142522
 30
0.0
 10
-27.649233308
 20
-5.3932460813
 30
0.0
 10
-27.4493572735
 20
-5.2695638374
 30
0.0
 10
-27.3455815363
 20
-5.2176759688
 30
0.0
 11
-28.653297473
 21
-7.8752148684
 31
0.0
 11
-28.569309563
 21
-7.0019894844
 31
0.0
 11
-28.3180530572
 21
-6.2429285187
 31
0.0
 11
-27.9047110842
 21
-5.6353966364
 31
0.0
 11
-27.6417330965
 21
-5.4005695015
 31
0.0
 11
-27.3455815363
 21
-5.2176759688
 31
0.0
  0
SPLINE
  5
499
100
AcDbEntity
  8
0
100
AcDbSpline
 62
7
  6
CONTINUOUS
 70
0
 71
3
 72
17
 73
13
 74
11
 42
0.0000001
 43
0.0000001
 44
0.0000000001
 12
-8.2395627988
 22
-4.1197813994
 32
0.0
 13
-0.0
 23
9.2121112615
 33
0.0
 40
0.0
 40
0.0
 40
0.0
 40
0.0
 40
0.0477264886
 40
0.0964678572
 40
0.1471826884
 40
0.2006123435
 40
0.317012817
 40
0.4464674271
 40
0.5855355105
 40
0.7284500135
 40
0.8686040256
 40
1.0
 40
1.0
 40
1.0
 40
1.0
 10
-23.097052379
 20
-13.7147342833
 30
0.0
 10
-23.2281341789
 20
-13.7802751832
 30
0.0
 10
-23.5092828123
 20
-13.8826814346
 30
0.0
 10
-23.9608230857
 20
-13.9403772965
 30
0.0
 10
-24.4318716904
 20
-13.9047166659
 30
0.0
 10
-25.0900824719
 20
-13.7330451893
 30
0.0
 10
-25.9109705085
 20
-13.2919122283
 30
0.0
 10
-26.7993536002
 20
-12.5003525403
 30
0.0
 10
-27.5694787935
 20
-11.4899634671
 30
0.0
 10
-28.1684925064
 20
-10.3331703227
 30
0.0
 10
-28.5540104966
 20
-9.1138715905
 30
0.0
 10
-28.653297473
 20
-8.2786929802
 30
0.0
 10
-28.653297473
 20
-7.8752148684
 30
0.0
 11
-23.097052379
 21
-13.7147342833
 31
0.0
 11
-23.5099485857
 21
-13.8657943807
 31
0.0
 11
-23.9550830219
 21
-13.9246682403
 31
0.0
 11
-24.4211221764
 21
-13.8918867365
 31
0.0
 11
-24.8980858507
 21
-13.7703695705
 31
0.0
 11
-25.851198753
 21
-13.2790545394
 31
0.0
 11
-26.7499456859
 21
-12.4951986206
 31
0.0
 11
-27.5312243515
 21
-11.4798916901
 31
0.0
 11
-28.1371374696
 21
-10.3110639893
 31
0.0
 11
-28.5213204792
 21
-9.0784327846
 31
0.0
 11
-28.653297473
 21
-7.8752148684
 31
0.0
  0
SPLINE
  5
49A
100
AcDbEntity
  8
0
100
AcDbSpline
 62
7
  6
CONTINUOUS
 70
0
 71
3
 72
10
 73
6
 74
4
 42
0.0000001
 43
0.0000001
 44
0.0000000001
 12
0.2106525493
 22
0.1312090809
 32
0.0
 13
0.221973547
 23
-0.1109867735
 33
0.0
 40
0.0
 40
0.0
 40
0.0
 40
0.0
 40
0.2284086156
 40
0.4655932607
 40
1.0
 40
1.0
 40
1.0
 40
1.0
 10
-8.5251910752
 20
10.655131957
 30
0.0
 10
-8.5091527895
 20
10.6651217185
 30
0.0
 10
-8.4730734248
 20
10.6805460596
 30
0.0
 10
-8.389804156
 20
10.6890881695
 30
0.0
 10
-8.3261284226
 20
10.6691699815
 30
0.0
 10
-8.2865870361
 20
10.6493992882
 30
0.0
 11
-8.5251910752
 21
10.655131957
 31
0.0
 11
-8.4731060436
 21
10.6775003941
 31
0.0
 11
-8.4146078723
 21
10.6840443384
 31
0.0
 11
-8.2865870361
 21
10.6493992882
 31
0.0
  0
SPLINE
  5
49B
100
AcDbEntity
  8
0
100
AcDbSpline
 62
7
  6
CONTINUOUS
 70
0
 71
3
 72
8
 73
4
 74
2
 42
0.0000001
 43
0.0000001
 44
0.0000000001
 12
-0.0941780676
 22
0.1985075051
 32
0.0
 13
0.0001076369
 23
0.2197151029
 33
0.0
 40
0.0
 40
0.0
 40
0.0
 40
0.0
 40
1.0
 40
1.0
 40
1.0
 40
1.0
 10
-9.4074458478
 20
-23.9262011595
 30
0.0
 10
-9.438838537
 20
-23.8600319911
 30
0.0
 10
-9.4557064768
 20
-23.7850820885
 30
0.0
 10
-9.4556705979
 20
-23.7118437209
 30
0.0
 11
-9.4074458478
 21
-23.9262011595
 31
0.0
 11
-9.4556705979
 21
-23.7118437209
 31
0.0
  0
SPLINE
  5
49C
100
AcDbEntity
  8
0
100
AcDbSpline
 62
7
  6
CONTINUOUS
 70
0
 71
3
 72
9
 73
5
 74
3
 42
0.0000001
 43
0.0000001
 44
0.0000000001
 12
0.3201290066
 22
-0.1600645033
 32
0.0
 13
0.179525194
 23
-0.3096351576
 33
0.0
 40
0.0
 40
0.0
 40
0.0
 40
0.0
 40
0.4704268608
 40
1.0
 40
1.0
 40
1.0
 40
1.0
 10
-8.0788020772
 20
10.5455068088
 30
0.0
 10
-8.0286029827
 20
10.5204072615
 30
0.0
 10
-7.932683611
 20
10.4454266888
 30
0.0
 10
-7.8608352569
 20
10.3486835916
 30
0.0
 10
-7.8291446834
 20
10.2940254374
 30
0.0
 11
-8.0788020772
 21
10.5455068088
 31
0.0
 11
-7.9436838355
 21
10.4450454328
 31
0.0
 11
-7.8291446834
 21
10.2940254374
 31
0.0
  0
SPLINE
  5
49D
100
AcDbEntity
  8
0
100
AcDbSpline
 62
7
  6
CONTINUOUS
 70
0
 71
3
 72
9
 73
5
 74
3
 42
0.0000001
 43
0.0000001
 44
0.0000000001
 12
0.1891999936
 22
-0.326344213
 32
0.0
 13
-0.0000029964
 23
-0.3772229884
 33
0.0
 40
0.0
 40
0.0
 40
0.0
 40
0.0
 40
0.5177262539
 40
1.0
 40
1.0
 40
1.0
 40
1.0
 10
-6.8839291795
 20
8.6637698664
 30
0.0
 10
-6.8512779115
 20
8.6074508774
 30
0.0
 10
-6.800731959
 20
8.4909913717
 30
0.0
 10
-6.7796329327
 20
8.3650946658
 30
0.0
 10
-6.7796334144
 20
8.3044530846
 30
0.0
 11
-6.8839291795
 21
8.6637698664
 31
0.0
 11
-6.8068329463
 21
8.4843330385
 31
0.0
 11
-6.7796334144
 21
8.3044530846
 31
0.0
  0
SPLINE
  5
49E
100
AcDbEntity
  8
0
100
AcDbSpline
 62
7
  6
CONTINUOUS
 70
0
 71
3
 72
9
 73
5
 74
3
 42
0.0000001
 43
0.0000001
 44
0.0000000001
 12
1.5468217134
 22
14.0535137818
 32
0.0
 13
-0.0000000423
 23
14.1383841732
 33
0.0
 40
0.0
 40
0.0
 40
0.0
 40
0.0
 40
0.2550335186
 40
1.0
 40
1.0
 40
1.0
 40
1.0
 10
3.1588983884
 20
-5.9651846418
 30
0.0
 10
3.2903955165
 20
-4.7704789522
 30
0.0
 10
3.7454334977
 20
-0.0796181462
 30
0.0
 10
3.9541804346
 20
4.6360144777
 30
0.0
 10
3.9541804241
 20
8.1468885809
 30
0.0
 11
3.1588983884
 21
-5.9651846418
 31
0.0
 11
3.5064761058
 21
-2.3762142678
 31
0.0
 11
3.9541804241
 21
8.1468885809
 31
0.0
  0
SPLINE
  5
49F
100
AcDbEntity
  8
0
100
AcDbSpline
 62
7
  6
CONTINUOUS
 70
0
 71
3
 72
11
 73
7
 74
5
 42
0.0000001
 43
0.0000001
 44
0.0000000001
 12
4.6329364091
 22
2.6011449729
 32
0.0
 13
0.649137845
 23
5.2733931201
 33
0.0
 40
0.0
 40
0.0
 40
0.0
 40
0.0
 40
0.2298096022
 40
0.4835028067
 40
0.7461800396
 40
1.0
 40
1.0
 40
1.0
 40
1.0
 10
0.4305154384
 20
-10.41063186
 30
0.0
 10
0.7854131961
 20
-10.2113758296
 30
0.0
 10
1.4623288395
 20
-9.6656291989
 30
0.0
 10
2.2732434949
 20
-8.6105651928
 30
0.0
 10
2.8721410891
 20
-7.3751558288
 30
0.0
 10
3.0973005967
 20
-6.4793294703
 30
0.0
 10
3.1522219774
 20
-6.033165326
 30
0.0
 11
0.4305154384
 21
-10.41063186
 31
0.0
 11
1.3946731474
 21
-9.6614333756
 31
0.0
 11
2.2249467232
 21
-8.5995770021
 31
0.0
 11
2.8333856437
 21
-7.3435288662
 31
0.0
 11
3.1522219774
 21
-6.033165326
 31
0.0
  0
SPLINE
  5
4A0
100
AcDbEntity
  8
0
100
AcDbSpline
 62
7
  6
CONTINUOUS
 70
0
 71
3
 72
9
 73
5
 74
3
 42
0.0000001
 43
0.0000001
 44
0.0000000001
 12
-0.0
 22
-0.2832820164
 32
0.0
 13
-0.2293758854
 23
-0.1662389966
 33
0.0
 40
0.0
 40
0.0
 40
0.0
 40
0.0
 40
0.5476081504
 40
1.0
 40
1.0
 40
1.0
 40
1.0
 10
-6.7796299601
 20
-22.9803333348
 30
0.0
 10
-6.7796299601
 20
-23.0320425151
 30
0.0
 10
-6.7922946831
 20
-23.1280081801
 30
0.0
 10
-6.8493198764
 20
-23.210357284
 30
0.0
 10
-6.8839091368
 20
-23.235425673
 30
0.0
 11
-6.7796299601
 21
-22.9803333348
 31
0.0
 11
-6.8068031533
 21
-23.1330624137
 31
0.0
 11
-6.8839091368
 21
-23.235425673
 31
0.0
  0
SPLINE
  5
4A1
100
AcDbEntity
  8
0
100
AcDbSpline
 62
7
  6
CONTINUOUS
 70
0
 71
3
 72
11
 73
7
 74
5
 42
0.0000001
 43
0.0000001
 44
0.0000000001
 12
-0.000004344
 22
1.7955054316
 32
0.0
 13
-1.455976475
 23
1.0507008419
 33
0.0
 40
0.0
 40
0.0
 40
0.0
 40
0.0
 40
0.2771122321
 40
0.5337675233
 40
0.7727564227
 40
1.0
 40
1.0
 40
1.0
 40
1.0
 10
3.9540633988
 20
10.5550321067
 30
0.0
 10
3.9540629976
 20
10.7208842793
 30
0.0
 10
3.9295277991
 20
11.0412428536
 30
0.0
 10
3.8067587803
 20
11.4906204785
 30
0.0
 10
3.5974038378
 20
11.8744160712
 30
0.0
 10
3.3967817574
 20
12.0756353759
 30
0.0
 10
3.2864946565
 20
12.1552237152
 30
0.0
 11
3.9540633988
 21
10.5550321067
 31
0.0
 11
3.912344173
 21
11.0508364983
 31
0.0
 11
3.786576844
 21
11.4941683751
 31
0.0
 11
3.5767664019
 21
11.8684829801
 31
0.0
 11
3.2864946565
 21
12.1552237152
 31
0.0
  0
SPLINE
  5
4A2
100
AcDbEntity
  8
0
100
AcDbSpline
 62
253
  6
CONTINUOUS
 70
0
 71
3
 72
11
 73
7
 74
5
 42
0.0000001
 43
0.0000001
 44
0.0000000001
 12
-0.5085108294
 22
0.2563104688
 32
0.0
 13
-0.4619265289
 23
-0.3330198222
 33
0.0
 40
0.0
 40
0.0
 40
0.0
 40
0.0
 40
0.2767936323
 40
0.5178922042
 40
0.7513237492
 40
1.0
 40
1.0
 40
1.0
 40
1.0
 10
-10.3389857515
 20
18.9861485006
 30
0.0
 10
-10.3859032714
 20
19.0097968691
 30
0.0
 10
-10.4788514219
 20
19.0456463025
 30
0.0
 10
-10.6236029355
 20
19.0552221265
 30
0.0
 10
-10.7582044865
 20
19.0189706805
 30
0.0
 10
-10.8377572797
 20
18.9719153173
 30
0.0
 10
-10.8760473321
 20
18.9443106104
 30
0.0
 11
-10.3389857515
 21
18.9861485006
 31
0.0
 11
-10.4872087355
 21
19.0397622866
 31
0.0
 11
-10.6242784342
 21
19.0476183015
 31
0.0
 11
-10.7529815124
 21
19.0143686982
 31
0.0
 11
-10.8760473321
 21
18.9443106104
 31
0.0
  0
SPLINE
  5
4A3
100
AcDbEntity
  8
0
100
AcDbSpline
 62
253
  6
CONTINUOUS
 70
0
 71
3
 72
9
 73
5
 74
3
 42
0.0000001
 43
0.0000001
 44
0.0000000001
 12
-0.2985630426
 22
-0.2152450772
 32
0.0
 13
-0.2207083866
 23
-0.2945473505
 33
0.0
 40
0.0
 40
0.0
 40
0.0
 40
0.0
 40
0.4680147659
 40
1.0
 40
1.0
 40
1.0
 40
1.0
 10
-10.8760473321
 20
18.9443106104
 30
0.0
 10
-10.9226246363
 20
18.9107313189
 30
0.0
 10
-11.0143603838
 20
18.8281441444
 30
0.0
 10
-11.0930098867
 20
18.7336038434
 30
0.0
 10
-11.1321477542
 20
18.6813722297
 30
0.0
 11
-10.8760473321
 21
18.9443106104
 31
0.0
 11
-11.0056256226
 21
18.8308090979
 31
0.0
 11
-11.1321477542
 21
18.6813722297
 31
0.0
  0
SPLINE
  5
4A4
100
AcDbEntity
  8
0
100
AcDbSpline
 62
7
  6
CONTINUOUS
 70
0
 71
3
 72
9
 73
5
 74
3
 42
0.0000001
 43
0.0000001
 44
0.0000000001
 12
-0.0020263378
 22
-0.5080628813
 32
0.0
 13
0.2548392347
 23
-0.439532663
 33
0.0
 40
0.0
 40
0.0
 40
0.0
 40
0.0
 40
0.2414916368
 40
1.0
 40
1.0
 40
1.0
 40
1.0
 10
-9.4557430264
 20
9.2837802998
 30
0.0
 10
-9.4559061409
 20
9.2428826542
 30
0.0
 10
-9.4404143492
 20
9.0734401613
 30
0.0
 10
-9.3736591899
 20
8.9121505378
 30
0.0
 10
-9.3092266263
 20
8.8010208042
 30
0.0
 11
-9.4557430264
 21
9.2837802998
 31
0.0
 11
-9.4454342768
 21
9.161520225
 31
0.0
 11
-9.3092266263
 21
8.8010208042
 31
0.0
  0
SPLINE
  5
4A5
100
AcDbEntity
  8
0
100
AcDbSpline
 62
253
  6
CONTINUOUS
 70
0
 71
3
 72
10
 73
6
 74
4
 42
0.0000001
 43
0.0000001
 44
0.0000000001
 12
0.2162664143
 22
0.134587735
 32
0.0
 13
0.2325374598
 23
-0.1039776427
 33
0.0
 40
0.0
 40
0.0
 40
0.0
 40
0.0
 40
0.2254444846
 40
0.4625985492
 40
1.0
 40
1.0
 40
1.0
 40
1.0
 10
-9.2200728066
 20
10.2222107537
 30
0.0
 10
-9.2038207832
 20
10.2323247745
 30
0.0
 10
-9.167055448
 20
10.2480319413
 30
0.0
 10
-9.0818051111
 20
10.2577935159
 30
0.0
 10
-9.0158321132
 20
10.2396355995
 30
0.0
 10
-8.9741767905
 20
10.2210096875
 30
0.0
 11
-9.2200728066
 21
10.2222107537
 31
0.0
 11
-9.1673516196
 21
10.2449763328
 31
0.0
 11
-9.1074067506
 21
10.2524515759
 31
0.0
 11
-8.9741767905
 21
10.2210096875
 31
0.0
  0
SPLINE
  5
4A6
100
AcDbEntity
  8
0
100
AcDbSpline
 62
7
  6
CONTINUOUS
 70
0
 71
3
 72
11
 73
7
 74
5
 42
0.0000001
 43
0.0000001
 44
0.0000000001
 12
0.001113125
 22
0.0796162252
 32
0.0
 13
0.0608534652
 23
0.0513501523
 33
0.0
 40
0.0
 40
0.0
 40
0.0
 40
0.0
 40
0.1216415259
 40
0.3294968399
 40
0.6250355977
 40
1.0
 40
1.0
 40
1.0
 40
1.0
 10
-9.4556839282
 20
-23.1975664583
 30
0.0
 10
-9.4556387941
 20
-23.1943382453
 30
0.0
 10
-9.4506274182
 20
-23.1863687873
 30
0.0
 10
-9.439675657
 20
-23.1743764156
 30
0.0
 10
-9.4227145986
 20
-23.1581230077
 30
0.0
 10
-9.4093437564
 20
-23.1464457122
 30
0.0
 10
-9.4017377953
 20
-23.1400275525
 30
0.0
 11
-9.4556839282
 21
-23.1975664583
 31
0.0
 11
-9.4518348055
 21
-23.1886785551
 31
0.0
 11
-9.4410585641
 21
-23.176117339
 31
0.0
 11
-9.4241660343
 21
-23.1597345274
 31
0.0
 11
-9.4017377953
 21
-23.1400275525
 31
0.0
  0
SPLINE
  5
4A7
100
AcDbEntity
  8
0
100
AcDbSpline
 62
7
  6
CONTINUOUS
 70
0
 71
3
 72
9
 73
5
 74
3
 42
0.0000001
 43
0.0000001
 44
0.0000000001
 12
0.0892829151
 22
0.0753398558
 32
0.0
 13
0.0945923089
 23
0.0685552907
 33
0.0
 40
0.0
 40
0.0
 40
0.0
 40
0.0
 40
0.2157603691
 40
1.0
 40
1.0
 40
1.0
 40
1.0
 10
-9.4017377953
 20
-23.1400275525
 30
0.0
 10
-9.3953165571
 20
-23.1346091008
 30
0.0
 10
-9.3651792763
 20
-23.1099419526
 30
0.0
 10
-9.3339543054
 20
-23.0866353137
 30
0.0
 10
-9.3092266263
 20
-23.0687140551
 30
0.0
 11
-9.4017377953
 21
-23.1400275525
 31
0.0
 11
-9.3822610607
 21
-23.1240280499
 31
0.0
 11
-9.3092266263
 21
-23.0687140551
 31
0.0
  0
SPLINE
  5
4A8
100
AcDbEntity
  8
0
100
AcDbSpline
 62
253
  6
CONTINUOUS
 70
0
 71
3
 72
11
 73
7
 74
5
 42
0.0000001
 43
0.0000001
 44
0.0000000001
 12
0.0000720986
 22
-0.2406572409
 32
0.0
 13
0.2152503897
 23
-0.1076251948
 33
0.0
 40
0.0
 40
0.0
 40
0.0
 40
0.0
 40
0.2065624647
 40
0.4344598579
 40
0.6976432832
 40
1.0
 40
1.0
 40
1.0
 40
1.0
 10
-9.4556569676
 20
-23.7119656827
 30
0.0
 10
-9.4556520033
 20
-23.7285359336
 30
0.0
 10
-9.4483712314
 20
-23.7636600104
 30
0.0
 10
-9.4177990644
 20
-23.811595268
 30
0.0
 10
-9.3701483772
 20
-23.8546070418
 30
0.0
 10
-9.33092076
 20
-23.8779116805
 30
0.0
 10
-9.3092266263
 20
-23.8887587474
 30
0.0
 11
-9.4556569676
 21
-23.7119656827
 31
0.0
 11
-9.446070842
 21
-23.7607433965
 31
0.0
 11
-9.4176284524
 21
-23.8076371283
 31
0.0
 11
-9.3713610657
 21
-23.8508910816
 31
0.0
 11
-9.3092266263
 21
-23.8887587474
 31
0.0
  0
SPLINE
  5
4A9
100
AcDbEntity
  8
0
100
AcDbSpline
 62
253
  6
CONTINUOUS
 70
0
 71
3
 72
9
 73
5
 74
3
 42
0.0000001
 43
0.0000001
 44
0.0000000001
 12
-0.0815659848
 22
0.0407483862
 32
0.0
 13
-0.0552441904
 23
0.0725363377
 33
0.0
 40
0.0
 40
0.0
 40
0.0
 40
0.0
 40
0.2455194867
 40
1.0
 40
1.0
 40
1.0
 40
1.0
 10
-9.0252248283
 20
-24.2362232309
 30
0.0
 10
-9.0319001745
 20
-24.2328883899
 30
0.0
 10
-9.0582737375
 20
-24.2176896345
 30
0.0
 10
-9.0807612487
 20
-24.1960737554
 30
0.0
 10
-9.0946548037
 20
-24.1778313377
 30
0.0
 11
-9.0252248283
 21
-24.2362232309
 31
0.0
 11
-9.0446163713
 21
-24.2250383856
 31
0.0
 11
-9.0946548037
 21
-24.1778313377
 31
0.0
  0
SPLINE
  5
4AA
100
AcDbEntity
  8
0
100
AcDbSpline
 62
253
  6
CONTINUOUS
 70
0
 71
3
 72
9
 73
5
 74
3
 42
0.0000001
 43
0.0000001
 44
0.0000000001
 12
-0.1350298589
 22
0.1772959542
 32
0.0
 13
0.0
 23
0.2228607596
 33
0.0
 40
0.0
 40
0.0
 40
0.0
 40
0.0
 40
0.2244328367
 40
1.0
 40
1.0
 40
1.0
 40
1.0
 10
-9.0946548037
 20
-24.1778313377
 30
0.0
 10
-9.1047565152
 20
-24.1645676597
 30
0.0
 10
-9.1432352952
 20
-24.1004251752
 30
0.0
 10
-9.1552137974
 20
-24.0233796575
 30
0.0
 10
-9.1552137974
 20
-23.9657651618
 30
0.0
 11
-9.0946548037
 21
-24.1778313377
 31
0.0
 11
-9.1206934971
 21
-24.1351263732
 31
0.0
 11
-9.1552137974
 21
-23.9657651618
 31
0.0
  0
SPLINE
  5
4AB
100
AcDbEntity
  8
0
100
AcDbSpline
 62
253
  6
CONTINUOUS
 70
0
 71
3
 72
10
 73
6
 74
4
 42
0.0000001
 43
0.0000001
 44
0.0000000001
 12
0.1545510992
 22
0.374624211
 32
0.0
 13
0.3684668844
 23
0.168705355
 33
0.0
 40
0.0
 40
0.0
 40
0.0
 40
0.0
 40
0.3259762776
 40
0.599098396
 40
1.0
 40
1.0
 40
1.0
 40
1.0
 10
-11.1321480581
 20
18.6813715405
 30
0.0
 10
-11.1153547274
 20
18.7220777424
 30
0.0
 10
-11.0828082387
 20
18.7966412209
 30
0.0
 10
-11.0195635414
 20
18.9143698982
 30
0.0
 10
-10.9579768541
 20
18.9901561885
 30
0.0
 10
-10.9087371991
 20
19.0127009376
 30
0.0
 11
-11.1321480581
 21
18.6813715405
 31
0.0
 11
-11.0783549702
 21
18.8020255962
 31
0.0
 11
-11.0245320399
 21
18.898741125
 31
0.0
 11
-10.9087371991
 21
19.0127009376
 31
0.0
  0
SPLINE
  5
4AC
100
AcDbEntity
  8
0
100
AcDbSpline
 62
7
  6
CONTINUOUS
 70
0
 71
3
 72
12
 73
8
 74
6
 42
0.0000001
 43
0.0000001
 44
0.0000000001
 12
-0.4538860846
 22
-0.8271760442
 32
0.0
 13
-0.9008073866
 23
-0.2806756816
 33
0.0
 40
0.0
 40
0.0
 40
0.0
 40
0.0
 40
0.5460453711
 40
0.6731468329
 40
0.7942991539
 40
0.9047530326
 40
1.0
 40
1.0
 40
1.0
 40
1.0
 10
-7.6219363105
 20
-21.8548908901
 30
0.0
 10
-7.7045504423
 20
-22.0054494401
 30
0.0
 10
-7.8334801262
 20
-22.1783618001
 30
0.0
 10
-8.0164093226
 20
-22.3486865345
 30
0.0
 10
-8.1068691561
 20
-22.4165272388
 30
0.0
 10
-8.1951024236
 20
-22.469548541
 30
0.0
 10
-8.2547149504
 20
-22.4956267475
 30
0.0
 10
-8.2833146743
 20
-22.5045379167
 30
0.0
 11
-7.6219363105
 21
-21.8548908901
 31
0.0
 11
-7.9308944508
 21
-22.267179155
 31
0.0
 11
-8.0192032346
 21
-22.3483153056
 31
0.0
 11
-8.1106929691
 21
-22.4168453197
 31
0.0
 11
-8.2003850493
 21
-22.4699134225
 31
0.0
 11
-8.2833146743
 21
-22.5045379167
 31
0.0
  0
SPLINE
  5
4AD
100
AcDbEntity
  8
0
100
AcDbSpline
 62
253
  6
CONTINUOUS
 70
0
 71
3
 72
11
 73
7
 74
5
 42
0.0000001
 43
0.0000001
 44
0.0000000001
 12
0.6055199573
 22
-0.3027599787
 32
0.0
 13
0.6305852674
 23
0.2463336029
 33
0.0
 40
0.0
 40
0.0
 40
0.0
 40
0.0
 40
0.231605306
 40
0.49180193
 40
0.7563583751
 40
1.0
 40
1.0
 40
1.0
 40
1.0
 10
-8.2833204387
 20
-23.3338649217
 30
0.0
 10
-8.236573227
 20
-23.3572385276
 30
0.0
 10
-8.1297775067
 20
-23.3918407294
 30
0.0
 10
-7.9594559967
 20
-23.4118040863
 30
0.0
 10
-7.7855182324
 20
-23.4018573001
 30
0.0
 10
-7.6731485835
 20
-23.3740966213
 30
0.0
 10
-7.6219363105
 20
-23.3540909148
 30
0.0
 11
-8.2833204387
 21
-23.3338649217
 31
0.0
 11
-8.1351098548
 21
-23.3850339362
 31
0.0
 11
-7.9602856732
 21
-23.4066136052
 31
0.0
 11
-7.7815070591
 21
-23.39584619
 31
0.0
 11
-7.6219363105
 21
-23.3540909148
 31
0.0
  0
SPLINE
  5
4AE
100
AcDbEntity
  8
0
100
AcDbSpline
 62
253
  6
CONTINUOUS
 70
0
 71
3
 72
9
 73
5
 74
3
 42
0.0000001
 43
0.0000001
 44
0.0000000001
 12
0.0115721046
 22
-0.2587545295
 32
0.0
 13
-0.2032111725
 23
-0.1606021154
 33
0.0
 40
0.0
 40
0.0
 40
0.0
 40
0.0
 40
0.3054996122
 40
1.0
 40
1.0
 40
1.0
 40
1.0
 10
-7.6219363105
 20
-23.3540909148
 30
0.0
 10
-7.620757886
 20
-23.3804407176
 30
0.0
 10
-7.6219632411
 20
-23.4653074933
 30
0.0
 10
-7.6515698065
 20
-23.5597558855
 30
0.0
 10
-7.6986132192
 20
-23.5969352959
 30
0.0
 11
-7.6219363105
 21
-23.3540909148
 31
0.0
 11
-7.6241450424
 21
-23.4331885041
 31
0.0
 11
-7.6986132192
 21
-23.5969352959
 31
0.0
  0
SPLINE
  5
4AF
100
AcDbEntity
  8
0
100
AcDbSpline
 62
253
  6
CONTINUOUS
 70
0
 71
3
 72
11
 73
7
 74
5
 42
0.0000001
 43
0.0000001
 44
0.0000000001
 12
-0.638990769
 22
-0.2686966895
 32
0.0
 13
-0.3476924674
 23
0.5996808
 33
0.0
 40
0.0
 40
0.0
 40
0.0
 40
0.0
 40
0.2226183412
 40
0.4654517188
 40
0.7279880182
 40
1.0
 40
1.0
 40
1.0
 40
1.0
 10
-7.6986132192
 20
-23.596935296
 30
0.0
 10
-7.7460302409
 20
-23.616874233
 30
0.0
 10
-7.8565742736
 20
-23.6338289384
 30
0.0
 10
-8.022588887
 20
-23.5891439811
 30
0.0
 10
-8.1734701449
 20
-23.4865018767
 30
0.0
 10
-8.251794933
 20
-23.388238376
 30
0.0
 10
-8.2833204387
 20
-23.3338649217
 30
0.0
 11
-7.6986132192
 21
-23.596935296
 31
0.0
 11
-7.8507667722
 21
-23.6226785035
 31
0.0
 11
-8.0141335409
 21
-23.5821092288
 31
0.0
 11
-8.1654980781
 21
-23.4810751854
 31
0.0
 11
-8.2833204387
 21
-23.3338649217
 31
0.0
  0
SPLINE
  5
4B0
100
AcDbEntity
  8
0
100
AcDbSpline
 62
253
  6
CONTINUOUS
 70
0
 71
3
 72
9
 73
5
 74
3
 42
0.0000001
 43
0.0000001
 44
0.0000000001
 12
0.1253755167
 22
-0.2162407794
 32
0.0
 13
0.2000804741
 23
-0.1498228912
 33
0.0
 40
0.0
 40
0.0
 40
0.0
 40
0.0
 40
0.2517064547
 40
1.0
 40
1.0
 40
1.0
 40
1.0
 10
-9.1552137974
 20
-23.9657651618
 30
0.0
 10
-9.1446945218
 20
-23.9839082285
 30
0.0
 10
-9.0993121585
 20
-24.0538312296
 30
0.0
 10
-9.0400955616
 20
-24.1148950464
 30
0.0
 10
-8.9901892525
 20
-24.1522655472
 30
0.0
 11
-9.1552137974
 21
-23.9657651618
 31
0.0
 11
-9.1209719706
 21
-24.0185470862
 31
0.0
 11
-8.9901892525
 21
-24.1522655472
 31
0.0
  0
SPLINE
  5
4B1
100
AcDbEntity
  8
0
100
AcDbSpline
 62
253
  6
CONTINUOUS
 70
0
 71
3
 72
9
 73
5
 74
3
 42
0.0000001
 43
0.0000001
 44
0.0000000001
 12
0.2255292924
 22
-0.1421710173
 32
0.0
 13
0.2665726465
 23
0.0038838162
 33
0.0
 40
0.0
 40
0.0
 40
0.0
 40
0.0
 40
0.2639724431
 40
1.0
 40
1.0
 40
1.0
 40
1.0
 10
-8.9522319536
 20
-24.1783975302
 30
0.0
 10
-8.9323874475
 20
-24.1909072737
 30
0.0
 10
-8.8544922745
 20
-24.2335879552
 30
0.0
 10
-8.7643413544
 20
-24.2559167653
 30
0.0
 10
-8.6989397499
 20
-24.2549639001
 30
0.0
 11
-8.9522319536
 21
-24.1783975302
 31
0.0
 11
-8.890409091
 21
-24.2120221733
 31
0.0
 11
-8.6989397499
 21
-24.2549639001
 31
0.0
  0
SPLINE
  5
4B2
100
AcDbEntity
  8
0
100
AcDbSpline
 62
253
  6
CONTINUOUS
 70
0
 71
3
 72
9
 73
5
 74
3
 42
0.0000001
 43
0.0000001
 44
0.0000000001
 12
0.1090441349
 22
0.0015887128
 32
0.0
 13
0.1032523959
 23
0.0351011409
 33
0.0
 40
0.0
 40
0.0
 40
0.0
 40
0.0
 40
0.2554140764
 40
1.0
 40
1.0
 40
1.0
 40
1.0
 10
-8.6989397499
 20
-24.2549639001
 30
0.0
 10
-8.6896559475
 20
-24.2548286402
 30
0.0
 10
-8.6533444211
 20
-24.2529754539
 30
0.0
 10
-8.617275801
 20
-24.2455712695
 30
0.0
 10
-8.5916490408
 20
-24.2368593311
 30
0.0
 11
-8.6989397499
 21
-24.2549639001
 31
0.0
 11
-8.6711228439
 21
-24.2535198536
 31
0.0
 11
-8.5916490408
 21
-24.2368593311
 31
0.0
  0
SPLINE
  5
4B3
100
AcDbEntity
  8
0
100
AcDbSpline
 62
253
  6
CONTINUOUS
 70
0
 71
3
 72
11
 73
7
 74
5
 42
0.0000001
 43
0.0000001
 44
0.0000000001
 12
-0.0
 22
-0.3147155086
 32
0.0
 13
0.2813043764
 23
-0.1411159069
 33
0.0
 40
0.0
 40
0.0
 40
0.0
 40
0.0
 40
0.2895753039
 40
0.54962149
 40
0.7828322574
 40
1.0
 40
1.0
 40
1.0
 40
1.0
 10
-9.3092266263
 20
-23.8887587474
 30
0.0
 10
-9.3092266263
 20
-23.9191366937
 30
0.0
 10
-9.3042974101
 20
-23.9770085639
 30
0.0
 10
-9.2796194079
 20
-24.056176602
 30
0.0
 10
-9.2383007916
 20
-24.1195678165
 30
0.0
 10
-9.199767605
 20
-24.1489138115
 30
0.0
 10
-9.1794041929
 20
-24.1591290858
 30
0.0
 11
-9.3092266263
 21
-23.8887587474
 31
0.0
 11
-9.3005913493
 21
-23.9794825514
 31
0.0
 11
-9.2751216728
 21
-24.0572589881
 31
0.0
 11
-9.2340593004
 21
-24.1180924842
 31
0.0
 11
-9.1794041929
 21
-24.1591290858
 31
0.0
  0
SPLINE
  5
4B4
100
AcDbEntity
  8
0
100
AcDbSpline
 62
253
  6
CONTINUOUS
 70
0
 71
3
 72
11
 73
7
 74
5
 42
0.0000001
 43
0.0000001
 44
0.0000000001
 12
-0.0762458957
 22
-0.717360559
 32
0.0
 13
-0.6986972087
 23
-0.1795600701
 33
0.0
 40
0.0
 40
0.0
 40
0.0
 40
0.0
 40
0.2984288793
 40
0.5619578885
 40
0.7917977847
 40
1.0
 40
1.0
 40
1.0
 40
1.0
 10
-8.6230283798
 20
-22.1118793929
 30
0.0
 10
-8.6306130389
 20
-22.1832397621
 30
0.0
 10
-8.6564017941
 20
-22.3169264736
 30
0.0
 10
-8.7334832268
 20
-22.4931641209
 30
0.0
 10
-8.8446286948
 20
-22.6242282517
 30
0.0
 10
-8.9415629396
 20
-22.674004724
 30
0.0
 10
-8.9900530419
 20
-22.6864663254
 30
0.0
 11
-8.6230283798
 21
-22.1118793929
 31
0.0
 11
-8.666158667
 21
-22.3228017541
 31
0.0
 11
-8.7453597174
 21
-22.4956284143
 31
0.0
 11
-8.8556380543
 21
-22.6194450986
 31
0.0
 11
-8.9900530419
 21
-22.6864663254
 31
0.0
  0
SPLINE
  5
4B5
100
AcDbEntity
  8
0
100
AcDbSpline
 62
253
  6
CONTINUOUS
 70
0
 71
3
 72
10
 73
6
 74
4
 42
0.0000001
 43
0.0000001
 44
0.0000000001
 12
0.9976602269
 22
-0.2119287845
 32
0.0
 13
0.9500075832
 23
0.3711136349
 33
0.0
 40
0.0
 40
0.0
 40
0.0
 40
0.0
 40
0.5122494193
 40
0.7658514633
 40
1.0
 40
1.0
 40
1.0
 40
1.0
 10
-9.6297802326
 20
-22.1780487155
 30
0.0
 10
-9.4594299419
 20
-22.2142355144
 30
0.0
 10
-9.1952387281
 20
-22.2305445444
 30
0.0
 10
-8.8576402541
 20
-22.1863628484
 30
0.0
 10
-8.6971760083
 20
-22.140844631
 30
0.0
 10
-8.6230283798
 20
-22.1118793929
 30
0.0
 11
-9.6297802326
 21
-22.1780487155
 31
0.0
 11
-9.1085383077
 21
-22.2136184962
 31
0.0
 11
-8.8522081001
 21
-22.1790237024
 31
0.0
 11
-8.6230283798
 21
-22.1118793929
 31
0.0
  0
SPLINE
  5
4B6
100
AcDbEntity
  8
0
100
AcDbSpline
 62
253
  6
CONTINUOUS
 70
0
 71
3
 72
11
 73
7
 74
5
 42
0.0000001
 43
0.0000001
 44
0.0000000001
 12
-0.2152341163
 22
0.1076170582
 32
0.0
 13
-0.0000687113
 23
0.2406390478
 33
0.0
 40
0.0
 40
0.0
 40
0.0
 40
0.0
 40
0.3023273055
 40
0.5655409481
 40
0.7934452743
 40
1.0
 40
1.0
 40
1.0
 40
1.0
 10
-9.3092266263
 20
9.6210654965
 30
0.0
 10
-9.3309170098
 20
9.6319106883
 30
0.0
 10
-9.3701398706
 20
9.6552160817
 30
0.0
 10
-9.4177919078
 20
9.6982195841
 30
0.0
 10
-9.448366834
 20
9.7461510291
 30
0.0
 10
-9.4556489407
 20
9.7812723269
 30
0.0
 10
-9.4556536716
 20
9.7978407044
 30
0.0
 11
-9.3092266263
 21
9.6210654965
 31
0.0
 11
-9.3713499406
 21
9.6589272463
 31
0.0
 11
-9.4176225209
 21
9.7021792799
 31
0.0
 11
-9.4460670487
 21
9.7490688164
 31
0.0
 11
-9.4556536716
 21
9.7978407044
 31
0.0
  0
SPLINE
  5
4B7
100
AcDbEntity
  8
0
100
AcDbSpline
 62
253
  6
CONTINUOUS
 70
0
 71
3
 72
11
 73
7
 74
5
 42
0.0000001
 43
0.0000001
 44
0.0000000001
 12
-0.5976423364
 22
-0.3629798247
 32
0.0
 13
0.0
 23
-0.6992358082
 33
0.0
 40
0.0
 40
0.0
 40
0.0
 40
0.0
 40
0.2348049211
 40
0.493650394
 40
0.7559314795
 40
1.0
 40
1.0
 40
1.0
 40
1.0
 10
-8.986544989
 20
10.2137651012
 30
0.0
 10
-9.0333214429
 20
10.1853552848
 30
0.0
 10
-9.1213305287
 20
10.1083364937
 30
0.0
 10
-9.2225878294
 20
9.9624846225
 30
0.0
 10
-9.290683738
 20
9.7961773963
 30
0.0
 10
-9.3092266263
 20
9.6779526462
 30
0.0
 10
-9.3092266263
 20
9.6210654965
 30
0.0
 11
-8.986544989
 21
10.2137651012
 31
0.0
 11
-9.112093323
 21
10.1079633783
 31
0.0
 11
-9.2163472972
 21
9.9600108677
 31
0.0
 11
-9.2851895332
 21
9.7900256942
 31
0.0
 11
-9.3092266263
 21
9.6210654965
 31
0.0
  0
SPLINE
  5
4B8
100
AcDbEntity
  8
0
100
AcDbSpline
 62
253
  6
CONTINUOUS
 70
0
 71
3
 72
11
 73
7
 74
5
 42
0.0000001
 43
0.0000001
 44
0.0000000001
 12
0.0000000003
 22
0.7134104066
 32
0.0
 13
0.6213428744
 23
0.3505530497
 33
0.0
 40
0.0
 40
0.0
 40
0.0
 40
0.0
 40
0.2453934825
 40
0.5088535427
 40
0.7675249623
 40
1.0
 40
1.0
 40
1.0
 40
1.0
 10
-9.1552137974
 20
9.5440590821
 30
0.0
 10
-9.1552137974
 20
9.6024145034
 30
0.0
 10
-9.1357307652
 20
9.7236320124
 30
0.0
 10
-9.0646295014
 20
9.8933069233
 30
0.0
 10
-8.9594894172
 20
10.0405194437
 30
0.0
 10
-8.8683128643
 20
10.1168383285
 30
0.0
 10
-8.8201639616
 20
10.144003273
 30
0.0
 11
-9.1552137974
 21
9.5440590821
 31
0.0
 11
-9.1299908173
 21
9.7172987949
 31
0.0
 11
-9.0579784896
 21
9.8909114747
 31
0.0
 11
-8.9495305494
 21
10.0402220352
 31
0.0
 11
-8.8201639616
 21
10.144003273
 31
0.0
  0
SPLINE
  5
4B9
100
AcDbEntity
  8
0
100
AcDbSpline
 62
253
  6
CONTINUOUS
 70
0
 71
3
 72
9
 73
5
 74
3
 42
0.0000001
 43
0.0000001
 44
0.0000000001
 12
0.1488515139
 22
-0.0779308928
 32
0.0
 13
0.1183733587
 23
-0.1192381869
 33
0.0
 40
0.0
 40
0.0
 40
0.0
 40
0.0
 40
0.2336861424
 40
1.0
 40
1.0
 40
1.0
 40
1.0
 10
-8.8201639616
 20
10.144003273
 30
0.0
 10
-8.8085691162
 20
10.1379328164
 30
0.0
 10
-8.7601833612
 20
10.1096116341
 30
0.0
 10
-8.7168389887
 20
10.0731505796
 30
0.0
 10
-8.6866019403
 20
10.0426926213
 30
0.0
 11
-8.8201639616
 21
10.144003273
 31
0.0
 11
-8.7862302613
 21
10.1242517687
 31
0.0
 11
-8.6866019403
 21
10.0426926213
 31
0.0
  0
SPLINE
  5
4BA
100
AcDbEntity
  8
0
100
AcDbSpline
 62
253
  6
CONTINUOUS
 70
0
 71
3
 72
9
 73
5
 74
3
 42
0.0000001
 43
0.0000001
 44
0.0000000001
 12
0.1339087914
 22
-0.1348871205
 32
0.0
 13
0.0982499575
 23
-0.1627053949
 33
0.0
 40
0.0
 40
0.0
 40
0.0
 40
0.0
 40
0.2425774679
 40
1.0
 40
1.0
 40
1.0
 40
1.0
 10
-8.6866019403
 20
10.0426926213
 30
0.0
 10
-8.6757741884
 20
10.0317857626
 30
0.0
 10
-8.6326329528
 20
9.9853525534
 30
0.0
 10
-8.5953121551
 20
9.9336008192
 30
0.0
 10
-8.5705065779
 20
9.8925219084
 30
0.0
 11
-8.6866019403
 21
10.0426926213
 31
0.0
 11
-8.6551865019
 21
10.0089454996
 31
0.0
 11
-8.5705065779
 21
9.8925219084
 31
0.0
  0
SPLINE
  5
4BB
100
AcDbEntity
  8
0
100
AcDbSpline
 62
253
  6
CONTINUOUS
 70
0
 71
3
 72
10
 73
6
 74
4
 42
0.0000001
 43
0.0000001
 44
0.0000000001
 12
-0.6010023656
 22
-0.3066880111
 32
0.0
 13
-0.546335169
 23
-0.3959536118
 33
0.0
 40
0.0
 40
0.0
 40
0.0
 40
0.0
 40
0.5306972173
 40
0.7913788392
 40
1.0
 40
1.0
 40
1.0
 40
1.0
 10
-8.5761806524
 20
9.8896328514
 30
0.0
 10
-8.6824974135
 20
9.8353800268
 30
0.0
 10
-8.8377572828
 20
9.7479817137
 30
0.0
 10
-9.0292854745
 20
9.6300972114
 30
0.0
 10
-9.1172214385
 20
9.5715938497
 30
0.0
 10
-9.1552137975
 20
9.5440590823
 30
0.0
 11
-8.5761806524
 21
9.8896328514
 31
0.0
 11
-8.8890726576
 21
9.7155116378
 31
0.0
 11
-9.038655249
 21
9.622978976
 31
0.0
 11
-9.1552137975
 21
9.5440590823
 31
0.0
  0
SPLINE
  5
4BC
100
AcDbEntity
  8
0
100
AcDbSpline
 62
253
  6
CONTINUOUS
 70
0
 71
3
 72
10
 73
6
 74
4
 42
0.0000001
 43
0.0000001
 44
0.0000000001
 12
0.5514881768
 22
0.3996882278
 32
0.0
 13
0.6072266962
 23
0.3084892672
 33
0.0
 40
0.0
 40
0.0
 40
0.0
 40
0.0
 40
0.2088782603
 40
0.4701228336
 40
1.0
 40
1.0
 40
1.0
 40
1.0
 10
-8.2833204387
 20
8.0402654833
 30
0.0
 10
-8.244922475
 20
8.0680942105
 30
0.0
 10
-8.155981471
 20
8.1272238046
 30
0.0
 10
-7.9625878114
 20
8.2461210877
 30
0.0
 10
-7.8058650729
 20
8.33424117
 30
0.0
 10
-7.6986132192
 20
8.3887283096
 30
0.0
 11
-8.2833204387
 21
8.0402654833
 31
0.0
 11
-8.1654980558
 21
8.1199991721
 31
0.0
 11
-8.0141334777
 21
8.213533438
 31
0.0
 11
-7.6986132192
 21
8.3887283096
 31
0.0
  0
SPLINE
  5
4BD
100
AcDbEntity
  8
0
100
AcDbSpline
 62
253
  6
CONTINUOUS
 70
0
 71
3
 72
9
 73
5
 74
3
 42
0.0000001
 43
0.0000001
 44
0.0000000001
 12
0.1564777521
 22
-0.3452015863
 32
0.0
 13
-0.0163629791
 23
-0.378657728
 33
0.0
 40
0.0
 40
0.0
 40
0.0
 40
0.0
 40
0.5145284384
 40
1.0
 40
1.0
 40
1.0
 40
1.0
 10
-7.6986002748
 20
8.3887073234
 30
0.0
 10
-7.671762857
 20
8.329501979
 30
0.0
 10
-7.6321364468
 20
8.2084593688
 30
0.0
 10
-7.6192855978
 20
8.0813120947
 30
0.0
 10
-7.6219335181
 20
8.0200362419
 30
0.0
 11
-7.6986002748
 21
8.3887073234
 31
0.0
 11
-7.6380735761
 21
8.2033261029
 31
0.0
 11
-7.6219335181
 21
8.0200362419
 31
0.0
  0
SPLINE
  5
4BE
100
AcDbEntity
  8
0
100
AcDbSpline
 62
253
  6
CONTINUOUS
 70
0
 71
3
 72
11
 73
7
 74
5
 42
0.0000001
 43
0.0000001
 44
0.0000000001
 12
-0.6305845581
 22
-0.2463285134
 32
0.0
 13
-0.6055177101
 23
0.302758855
 33
0.0
 40
0.0
 40
0.0
 40
0.0
 40
0.0
 40
0.2435948412
 40
0.5081566514
 40
0.7683796831
 40
1.0
 40
1.0
 40
1.0
 40
1.0
 10
-7.6219385235
 20
8.0200386257
 30
0.0
 10
-7.6731409053
 20
8.000037174
 30
0.0
 10
-7.7855001808
 20
7.9722774849
 30
0.0
 10
-7.9594336787
 20
7.9623249835
 30
0.0
 10
-8.1297656001
 20
7.9822865341
 30
0.0
 10
-8.2365703708
 20
8.0168904493
 30
0.0
 10
-8.2833204387
 20
8.0402654833
 30
0.0
 11
-7.6219385235
 21
8.0200386257
 31
0.0
 11
-7.7814774885
 21
7.9782894176
 31
0.0
 11
-7.9602587191
 21
7.9675160883
 31
0.0
 11
-8.1351004168
 21
7.9890944493
 31
0.0
 11
-8.2833204387
 21
8.0402654833
 31
0.0
  0
SPLINE
  5
4BF
100
AcDbEntity
  8
0
100
AcDbSpline
 62
7
  6
CONTINUOUS
 70
0
 71
3
 72
14
 73
10
 74
8
 42
0.0000001
 43
0.0000001
 44
0.0000000001
 12
-0.6625791775
 22
0.6898406229
 32
0.0
 13
-0.5799396973
 23
0.7606321048
 33
0.0
 40
0.0
 40
0.0
 40
0.0
 40
0.0
 40
0.2111160114
 40
0.3292006101
 40
0.4548225737
 40
0.5868455156
 40
0.7234380642
 40
0.8624563324
 40
1.0
 40
1.0
 40
1.0
 40
1.0
 10
-7.6219385235
 20
6.5208417502
 30
0.0
 10
-7.6685655479
 20
6.5693872171
 30
0.0
 10
-7.7428458099
 20
6.6435601849
 30
0.0
 10
-7.8458242573
 20
6.7456604123
 30
0.0
 10
-7.9322247331
 20
6.8286394074
 30
0.0
 10
-8.0223780965
 20
6.9162539894
 30
0.0
 10
-8.111607877
 20
7.010799336
 30
0.0
 10
-8.1998613617
 20
7.1085758896
 30
0.0
 10
-8.2567314277
 20
7.1760667866
 30
0.0
 10
-8.2833204387
 20
7.210940163
 30
0.0
 11
-7.6219385235
 21
6.5208417502
 31
0.0
 11
-7.7639423552
 21
6.6644091129
 31
0.0
 11
-7.8443201984
 21
6.7437603621
 31
0.0
 11
-7.9306746409
 21
6.8273109289
 31
0.0
 11
-8.0206984615
 21
6.9158677952
 31
0.0
 11
-8.1107189216
 21
7.0105563509
 31
0.0
 11
-8.1996189448
 21
7.1094403554
 31
0.0
 11
-8.2833204387
 21
7.210940163
 31
0.0
  0
SPLINE
  5
4C0
100
AcDbEntity
  8
0
100
AcDbSpline
 62
253
  6
CONTINUOUS
 70
0
 71
3
 72
12
 73
8
 74
6
 42
0.0000001
 43
0.0000001
 44
0.0000000001
 12
0.0
 22
-2.9937271669
 32
0.0
 13
-2.6777164566
 23
-1.3387445342
 33
0.0
 40
0.0
 40
0.0
 40
0.0
 40
0.0
 40
0.2895070958
 40
0.5491143013
 40
0.7821797604
 40
0.8921642748
 40
1.0
 40
1.0
 40
1.0
 40
1.0
 10
-21.862559747
 20
-11.1455837314
 30
0.0
 10
-21.862559747
 20
-11.4344854839
 30
0.0
 10
-21.9093370114
 20
-11.9846100692
 30
0.0
 10
-22.143808433
 20
-12.7366053259
 30
0.0
 10
-22.4790080745
 20
-13.2488621584
 30
0.0
 10
-22.8148623389
 20
-13.5513222039
 30
0.0
 10
-23.0008014648
 20
-13.6666122852
 30
0.0
 10
-23.0970526301
 20
-13.7147337811
 30
0.0
 11
-21.862559747
 21
-11.1455837314
 31
0.0
 11
-21.9446366076
 21
-12.0083939033
 31
0.0
 11
-22.1868443387
 21
-12.7468819518
 31
0.0
 11
-22.5773412052
 21
-13.325108106
 31
0.0
 11
-22.8225028229
 21
-13.5449041895
 31
0.0
 11
-23.0970526301
 21
-13.7147337811
 31
0.0
  0
SPLINE
  5
4C1
100
AcDbEntity
  8
0
100
AcDbSpline
 62
253
  6
CONTINUOUS
 70
0
 71
3
 72
23
 73
19
 74
17
 42
0.0000001
 43
0.0000001
 44
0.0000000001
 12
0.0
 22
-11.5438763146
 32
0.0
 13
0.0
 23
11.5438763146
 33
0.0
 40
0.0
 40
0.0
 40
0.0
 40
0.0
 40
0.0634351674
 40
0.1210947318
 40
0.1733525584
 40
0.2216454781
 40
0.2684422256
 40
0.3166639236
 40
0.3687976757
 40
0.4263123227
 40
0.4896016429
 40
0.558191349
 40
0.6309824914
 40
0.7064621826
 40
0.7828778731
 40
0.858404724
 40
0.9312844597
 40
1.0
 40
1.0
 40
1.0
 40
1.0
 10
-22.2161131376
 20
-11.1455837314
 30
0.0
 10
-22.2161131376
 20
-11.3896796401
 30
0.0
 10
-22.2515777142
 20
-11.8569907647
 30
0.0
 10
-22.4274696573
 20
-12.5052857046
 30
0.0
 10
-22.7207438372
 20
-13.0464205846
 30
0.0
 10
-23.1256173998
 20
-13.4559239498
 30
0.0
 10
-23.6266985441
 20
-13.709125395
 30
0.0
 10
-24.1959072387
 20
-13.7916813123
 30
0.0
 10
-24.8040910519
 20
-13.7058270256
 30
0.0
 10
-25.4282355279
 20
-13.4613552007
 30
0.0
 10
-26.0474836382
 20
-13.0702878581
 30
0.0
 10
-26.6406297969
 20
-12.5478720666
 30
0.0
 10
-27.1865031868
 20
-11.9135586588
 30
0.0
 10
-27.6650717106
 20
-11.1909215777
 30
0.0
 10
-28.0585577235
 20
-10.4069581434
 30
0.0
 10
-28.3522268606
 20
-9.5908862053
 30
0.0
 10
-28.535106214
 20
-8.773424134
 30
0.0
 10
-28.5800741683
 20
-8.228017782
 30
0.0
 10
-28.5800741683
 20
-7.963603216
 30
0.0
 11
-22.2161131376
 21
-11.1455837314
 31
0.0
 11
-22.277254273
 21
-11.8753145553
 31
0.0
 11
-22.458328906
 21
-12.5158261838
 31
0.0
 11
-22.7523752365
 21
-13.0425678976
 31
0.0
 11
-23.1480915149
 21
-13.4352521609
 31
0.0
 11
-23.6302833036
 21
-13.67881788
 31
0.0
 11
-24.180410272
 21
-13.7638860579
 31
0.0
 11
-24.7773291643
 21
-13.6871926953
 31
0.0
 11
-25.3980996554
 21
-13.4516869882
 31
0.0
 11
-26.0188675035
 21
-13.066421357
 31
0.0
 11
-26.6157792242
 21
-12.5462007136
 31
0.0
 11
-27.1658979593
 21
-11.9110157555
 31
0.0
 11
-27.6480849859
 21
-11.1852688729
 31
0.0
 11
-28.0438017616
 21
-10.3968734419
 31
0.0
 11
-28.337852132
 21
-9.5760834237
 31
0.0
 11
-28.5189310992
 21
-8.7544869557
 31
0.0
 11
-28.5800741683
 21
-7.963603216
 31
0.0
  0
SPLINE
  5
4C2
100
AcDbEntity
  8
0
100
AcDbSpline
 62
253
  6
CONTINUOUS
 70
0
 71
3
 72
23
 73
19
 74
17
 42
0.0000001
 43
0.0000001
 44
0.0000000001
 12
0.0
 22
11.5438763146
 32
0.0
 13
-0.0
 23
-11.5438763146
 33
0.0
 40
0.0
 40
0.0
 40
0.0
 40
0.0
 40
0.0634351674
 40
0.1210947318
 40
0.1733525584
 40
0.2216454781
 40
0.2684422256
 40
0.3166639236
 40
0.3687976757
 40
0.4263123227
 40
0.4896016429
 40
0.558191349
 40
0.6309824914
 40
0.7064621826
 40
0.7828778731
 40
0.858404724
 40
0.9312844597
 40
1.0
 40
1.0
 40
1.0
 40
1.0
 10
-28.5800741683
 20
-7.963603216
 30
0.0
 10
-28.5800741683
 20
-7.7195073073
 30
0.0
 10
-28.5446095916
 20
-7.2521961827
 30
0.0
 10
-28.3687176486
 20
-6.6039012428
 30
0.0
 10
-28.0754434686
 20
-6.0627663628
 30
0.0
 10
-27.6705699061
 20
-5.6532629975
 30
0.0
 10
-27.1694887618
 20
-5.4000615523
 30
0.0
 10
-26.6002800672
 20
-5.317505635
 30
0.0
 10
-25.992096254
 20
-5.4033599218
 30
0.0
 10
-25.367951778
 20
-5.6478317466
 30
0.0
 10
-24.7487036677
 20
-6.0388990892
 30
0.0
 10
-24.155557509
 20
-6.5613148808
 30
0.0
 10
-23.609684119
 20
-7.1956282885
 30
0.0
 10
-23.1311155953
 20
-7.9182653697
 30
0.0
 10
-22.7376295823
 20
-8.702228804
 30
0.0
 10
-22.4439604452
 20
-9.5183007421
 30
0.0
 10
-22.2610810919
 20
-10.3357628134
 30
0.0
 10
-22.2161131376
 20
-10.8811691653
 30
0.0
 10
-22.2161131376
 20
-11.1455837314
 30
0.0
 11
-28.5800741683
 21
-7.963603216
 31
0.0
 11
-28.5189330329
 21
-7.233872392
 31
0.0
 11
-28.3378583999
 21
-6.5933607636
 31
0.0
 11
-28.0438120694
 21
-6.0666190498
 31
0.0
 11
-27.648095791
 21
-5.6739347865
 31
0.0
 11
-27.1659040023
 21
-5.4303690674
 31
0.0
 11
-26.6157770339
 21
-5.3453008895
 31
0.0
 11
-26.0188581416
 21
-5.4219942521
 31
0.0
 11
-25.3980876505
 21
-5.6574999592
 31
0.0
 11
-24.7773198024
 21
-6.0427655904
 31
0.0
 11
-24.1804080817
 21
-6.5629862338
 31
0.0
 11
-23.6302893466
 21
-7.1981711919
 31
0.0
 11
-23.1481023199
 21
-7.9239180744
 31
0.0
 11
-22.7523855442
 21
-8.7123135055
 31
0.0
 11
-22.4583351739
 21
-9.5331035236
 31
0.0
 11
-22.2772562067
 21
-10.3546999917
 31
0.0
 11
-22.2161131376
 21
-11.1455837314
 31
0.0
  0
SPLINE
  5
4C3
100
AcDbEntity
  8
0
100
AcDbSpline
 62
253
  6
CONTINUOUS
 70
0
 71
3
 72
23
 73
19
 74
17
 42
0.0000001
 43
0.0000001
 44
0.0000000001
 12
-9.9912174246
 22
4.9956087123
 32
0.0
 13
9.9912174246
 23
-4.9956087123
 33
0.0
 40
0.0
 40
0.0
 40
0.0
 40
0.0
 40
0.057515806
 40
0.1096476879
 40
0.157869379
 40
0.2046647666
 40
0.252959047
 40
0.3052168476
 40
0.362878447
 40
0.4263122551
 40
0.4950250296
 40
0.5679048375
 40
0.6434302618
 40
0.7198474516
 40
0.7953257475
 40
0.8681183947
 40
0.9367081494
 40
1.0
 40
1.0
 40
1.0
 40
1.0
 10
-25.3980897461
 20
-5.7835230216
 30
0.0
 10
-25.5896407206
 20
-5.6877475344
 30
0.0
 10
-25.9730221635
 20
-5.5375309508
 30
0.0
 10
-26.5613687861
 20
-5.4545534064
 30
0.0
 10
-27.1121960118
 20
-5.5344115459
 30
0.0
 10
-27.5970588935
 20
-5.7794331461
 30
0.0
 10
-27.9888354921
 20
-6.1757021336
 30
0.0
 10
-28.2726367096
 20
-6.699311378
 30
0.0
 10
-28.4428220274
 20
-7.3267866009
 30
0.0
 10
-28.4966321473
 20
-8.03497218
 30
0.0
 10
-28.4336348693
 20
-8.7985313146
 30
0.0
 10
-28.2566847226
 20
-9.589728741
 30
0.0
 10
-27.9725156015
 20
-10.3793545374
 30
0.0
 10
-27.5917618066
 20
-11.1379794687
 30
0.0
 10
-27.1286955198
 20
-11.8372427265
 30
0.0
 10
-26.6004094222
 20
-12.4510751621
 30
0.0
 10
-26.0266756961
 20
-12.9565041379
 30
0.0
 10
-25.6088867297
 20
-13.2202694373
 30
0.0
 10
-25.3980991828
 20
-13.3256632108
 30
0.0
 11
-25.3980897461
 21
-5.7835230216
 31
0.0
 11
-25.9987953963
 21
-5.5556300645
 31
0.0
 11
-26.5763891065
 21
-5.4814297385
 31
0.0
 11
-27.1087237708
 21
-5.5637456363
 31
0.0
 11
-27.5753051152
 21
-5.7994303687
 31
0.0
 11
-27.958231284
 21
-6.1794275604
 31
0.0
 11
-28.2427683818
 21
-6.6891323916
 31
0.0
 11
-28.4179843691
 21
-7.3089526596
 31
0.0
 11
-28.4771469523
 21
-8.0150671571
 31
0.0
 11
-28.4179848128
 21
-8.7803411648
 31
0.0
 11
-28.2427718994
 21
-9.5753682325
 31
0.0
 11
-27.9582414027
 21
-10.369598518
 31
0.0
 11
-27.5753231451
 21
-11.1325142194
 31
0.0
 11
-27.1087469586
 21
-11.8347805535
 31
0.0
 11
-26.5764128862
 21
-12.4494379466
 31
0.0
 11
-25.9988131402
 21
-12.9528417014
 31
0.0
 11
-25.3980991828
 21
-13.3256632108
 31
0.0
  0
SPLINE
  5
4C4
100
AcDbEntity
  8
0
100
AcDbSpline
 62
253
  6
CONTINUOUS
 70
0
 71
3
 72
23
 73
19
 74
17
 42
0.0000001
 43
0.0000001
 44
0.0000000001
 12
9.8839071461
 22
-4.9419535731
 32
0.0
 13
-9.7125461945
 23
5.2707657899
 33
0.0
 40
0.0
 40
0.0
 40
0.0
 40
0.0
 40
0.0575306799
 40
0.1097281162
 40
0.1580143988
 40
0.2047969389
 40
0.252937283
 40
0.3048862142
 40
0.3621184826
 40
0.4250636645
 40
0.4932996257
 40
0.5657863991
 40
0.6410696465
 40
0.7174526445
 40
0.7931462637
 40
0.8664228305
 40
0.9357510082
 40
1.0
 40
1.0
 40
1.0
 40
1.0
 10
-25.3980991828
 20
-13.3256632108
 30
0.0
 10
-25.2085565502
 20
-13.4204345271
 30
0.0
 10
-24.8292265545
 20
-13.5694640848
 30
0.0
 10
-24.2471768948
 20
-13.6539307412
 30
0.0
 10
-23.7014498447
 20
-13.5794289842
 30
0.0
 10
-23.2192631531
 20
-13.3434834658
 30
0.0
 10
-22.8269654704
 20
-12.9588593144
 30
0.0
 10
-22.5395733423
 20
-12.4483177658
 30
0.0
 10
-22.3629615889
 20
-11.8345764007
 30
0.0
 10
-22.3000231042
 20
-11.1399582376
 30
0.0
 10
-22.3514401398
 20
-10.3888008317
 30
0.0
 10
-22.5147981041
 20
-9.6077783331
 30
0.0
 10
-22.7839874426
 20
-8.8250791355
 30
0.0
 10
-23.1491469725
 20
-8.0692351002
 30
0.0
 10
-23.5968721415
 20
-7.3678909557
 30
0.0
 10
-24.110974091
 20
-6.7466732629
 30
0.0
 10
-24.672584592
 20
-6.2282569494
 30
0.0
 10
-25.0831929666
 20
-5.9521303384
 30
0.0
 10
-25.2912000668
 20
-5.8392498758
 30
0.0
 11
-25.3980991828
 21
-13.3256632108
 31
0.0
 11
-24.8039567945
 21
-13.5518642949
 31
0.0
 11
-24.2321682927
 21
-13.627810135
 31
0.0
 11
-23.7041841941
 21
-13.550668995
 31
0.0
 11
-23.2398820871
 21
-13.3233275247
 31
0.0
 11
-22.8566860142
 21
-12.9543284796
 31
0.0
 11
-22.5690167593
 21
-12.4575429863
 31
0.0
 11
-22.3876847677
 21
-11.8516479361
 31
0.0
 11
-22.3195046584
 21
-11.1594189736
 31
0.0
 11
-22.3670367744
 21
-10.4068740872
 31
0.0
 11
-22.5284939326
 21
-9.6222965677
 31
0.0
 11
-22.7978073409
 21
-8.8351735879
 31
0.0
 11
-23.1648590053
 21
-8.0750857838
 31
0.0
 11
-23.6158383208
 21
-7.3706173592
 31
0.0
 11
-24.1338265614
 21
-6.7482214547
 31
0.0
 11
-24.6992896778
 21
-6.2313246959
 31
0.0
 11
-25.2912000668
 21
-5.8392498758
 31
0.0
  0
SPLINE
  5
4C5
100
AcDbEntity
  8
0
100
AcDbSpline
 62
253
  6
CONTINUOUS
 70
0
 71
3
 72
15
 73
11
 74
9
 42
0.0000001
 43
0.0000001
 44
0.0000000001
 12
6.2525124668
 22
-3.1262562334
 32
0.0
 13
0.0
 23
-6.990521453
 33
0.0
 40
0.0
 40
0.0
 40
0.0
 40
0.0
 40
0.1103240026
 40
0.2298800165
 40
0.3567652898
 40
0.48833393
 40
0.6215366749
 40
0.753188176
 40
0.8802218838
 40
1.0
 40
1.0
 40
1.0
 40
1.0
 10
-25.2213169576
 20
-5.3525844581
 30
0.0
 10
-24.9913828904
 20
-5.4675514917
 30
0.0
 10
-24.5356477128
 20
-5.7552681174
 30
0.0
 10
-23.9098064268
 20
-6.3066063641
 30
0.0
 10
-23.3335291083
 20
-6.9761896815
 30
0.0
 10
-22.8283953244
 20
-7.7389776601
 30
0.0
 10
-22.4130420622
 20
-8.5665028523
 30
0.0
 10
-22.1030650169
 20
-9.4279118952
 30
0.0
 10
-21.9100230448
 20
-10.2907808423
 30
0.0
 10
-21.862559747
 20
-10.866479901
 30
0.0
 10
-21.862559747
 20
-11.1455837314
 30
0.0
 11
-25.2213169576
 21
-5.3525844581
 31
0.0
 11
-24.5660368389
 21
-5.7592683804
 31
0.0
 11
-23.9359865364
 21
-6.308385419
 31
0.0
 11
-23.355293253
 21
-6.9788733497
 31
0.0
 11
-22.8463233457
 21
-7.7449406862
 31
0.0
 11
-22.4286180792
 21
-8.5771516031
 31
0.0
 11
-22.1182340165
 21
-9.4435447551
 31
0.0
 11
-21.9270987909
 21
-10.3107632446
 31
0.0
 11
-21.862559747
 21
-11.1455837314
 31
0.0
  0
SPLINE
  5
4C6
100
AcDbEntity
  8
0
100
AcDbSpline
 62
253
  6
CONTINUOUS
 70
0
 71
3
 72
11
 73
7
 74
5
 42
0.0000001
 43
0.0000001
 44
0.0000000001
 12
1.6720624119
 22
-0.8360312059
 32
0.0
 13
1.6904024488
 23
0.7982984701
 33
0.0
 40
0.0
 40
0.0
 40
0.0
 40
0.0
 40
0.2788829283
 40
0.5351188752
 40
0.7729457154
 40
1.0
 40
1.0
 40
1.0
 40
1.0
 10
-25.2182317789
 20
-13.0192117795
 30
0.0
 10
-25.062795225
 20
-13.0969300565
 30
0.0
 10
-24.7519632309
 20
-13.2231301727
 30
0.0
 10
-24.2756861689
 20
-13.3156601039
 30
0.0
 10
-23.8222587244
 20
-13.2985800609
 30
0.0
 10
-23.5416211447
 20
-13.2112686344
 30
0.0
 10
-23.4136834385
 20
-13.150849605
 30
0.0
 11
-25.2182317789
 21
-13.0192117795
 31
0.0
 11
-24.7336750151
 21
-13.2115932194
 31
0.0
 11
-24.2626682728
 21
-13.2988076881
 31
0.0
 11
-23.818540065
 21
-13.2783555028
 31
0.0
 11
-23.4136834385
 21
-13.150849605
 31
0.0
  0
SPLINE
  5
4C7
100
AcDbEntity
  8
0
100
AcDbSpline
 62
253
  6
CONTINUOUS
 70
0
 71
3
 72
9
 73
5
 74
3
 42
0.0000001
 43
0.0000001
 44
0.0000000001
 12
-0.0923623345
 22
-0.0843872154
 32
0.0
 13
-0.1119104975
 23
-0.0559289147
 33
0.0
 40
0.0
 40
0.0
 40
0.0
 40
0.0
 40
0.2529381408
 40
1.0
 40
1.0
 40
1.0
 40
1.0
 10
-22.6307070448
 20
-9.4707047157
 30
0.0
 10
-22.6384943639
 20
-9.4778196308
 30
0.0
 10
-22.6702004281
 20
-9.5049247332
 30
0.0
 10
-22.7056645494
 20
-9.5276477493
 30
0.0
 10
-22.7335325708
 20
-9.5415752023
 30
0.0
 11
-22.6307070448
 21
-9.4707047157
 31
0.0
 11
-22.6547741416
 21
-9.4912511034
 31
0.0
 11
-22.7335325708
 21
-9.5415752023
 31
0.0
  0
SPLINE
  5
4C8
100
AcDbEntity
  8
0
100
AcDbSpline
 62
253
  6
CONTINUOUS
 70
0
 71
3
 72
11
 73
7
 74
5
 42
0.0000001
 43
0.0000001
 44
0.0000000001
 12
-0.5481152155
 22
0.1068701029
 32
0.0
 13
-0.3139677703
 23
-0.4618178727
 33
0.0
 40
0.0
 40
0.0
 40
0.0
 40
0.0
 40
0.2625658502
 40
0.5077317556
 40
0.7487690667
 40
1.0
 40
1.0
 40
1.0
 40
1.0
 10
-23.5929838891
 20
-7.4978295925
 30
0.0
 10
-23.6409560016
 20
-7.4884761127
 30
0.0
 10
-23.7364731756
 20
-7.4810538405
 30
0.0
 10
-23.8748380832
 20
-7.5109110256
 30
0.0
 10
-23.9950829596
 20
-7.581781238
 30
0.0
 10
-24.0569073335
 20
-7.6514573366
 30
0.0
 10
-24.0832001388
 20
-7.6901316483
 30
0.0
 11
-23.5929838891
 21
-7.4978295925
 31
0.0
 11
-23.739293652
 21
-7.4881987174
 31
0.0
 11
-23.8729144896
 21
-7.51802687
 31
0.0
 11
-23.9889987596
 21
-7.58616422
 31
0.0
 11
-24.0832001388
 21
-7.6901316483
 31
0.0
  0
SPLINE
  5
4C9
100
AcDbEntity
  8
0
100
AcDbSpline
 62
253
  6
CONTINUOUS
 70
0
 71
3
 72
15
 73
11
 74
9
 42
0.0000001
 43
0.0000001
 44
0.0000000001
 12
1.3384782498
 22
-0.6692391249
 32
0.0
 13
-1.4948471637
 23
0.0695484623
 33
0.0
 40
0.0
 40
0.0
 40
0.0
 40
0.0
 40
0.1289864171
 40
0.2735124872
 40
0.4241182162
 40
0.5696074208
 40
0.7002052176
 40
0.8109453211
 40
0.90594548
 40
1.0
 40
1.0
 40
1.0
 40
1.0
 10
-24.2272432344
 20
-8.4060463505
 30
0.0
 10
-24.1696947298
 20
-8.4348206028
 30
0.0
 10
-24.0585135108
 20
-8.5178460978
 30
0.0
 10
-23.9240115327
 20
-8.6831192596
 30
0.0
 10
-23.8231787576
 20
-8.8802479703
 30
0.0
 10
-23.767436829
 20
-9.087495667
 30
0.0
 10
-23.7631721591
 20
-9.2826252803
 30
0.0
 10
-23.812861219
 20
-9.4473204578
 30
0.0
 10
-23.9222214181
 20
-9.560229776
 30
0.0
 10
-24.0207538907
 20
-9.5792601974
 30
0.0
 10
-24.0676196015
 20
-9.5770797483
 30
0.0
 11
-24.2272432344
 21
-8.4060463505
 31
0.0
 11
-24.0702660241
 21
-8.5183684198
 31
0.0
 11
-23.9321883263
 21
-8.6848339119
 31
0.0
 11
-23.8295308046
 21
-8.8854724174
 31
0.0
 11
-23.7746619333
 21
-9.0961644593
 31
0.0
 11
-23.7741731034
 21
-9.2915987726
 31
0.0
 11
-23.8281239513
 21
-9.448289422
 31
0.0
 11
-23.9300326161
 21
-9.5474121847
 31
0.0
 11
-24.0676196015
 21
-9.5770797483
 31
0.0
  0
SPLINE
  5
4CA
100
AcDbEntity
  8
0
100
AcDbSpline
 62
253
  6
CONTINUOUS
 70
0
 71
3
 72
17
 73
13
 74
11
 42
0.0000001
 43
0.0000001
 44
0.0000000001
 12
-0.9596228027
 22
0.4798114013
 32
0.0
 13
0.9596228027
 23
-0.4798114013
 33
0.0
 40
0.0
 40
0.0
 40
0.0
 40
0.0
 40
0.1319133723
 40
0.280358331
 40
0.4325165958
 40
0.5056249912
 40
0.5745618317
 40
0.695493458
 40
0.7953915524
 40
0.8423381359
 40
0.8907175235
 40
1.0
 40
1.0
 40
1.0
 40
1.0
 10
-24.3357678566
 20
-9.386833983
 30
0.0
 10
-24.37796355
 20
-9.3657361363
 30
0.0
 10
-24.4585892807
 20
-9.3026507715
 30
0.0
 10
-24.5516215111
 20
-9.1775125662
 30
0.0
 10
-24.6052393962
 20
-9.0535377733
 30
0.0
 10
-24.6283056515
 20
-8.9505575114
 30
0.0
 10
-24.6359218654
 20
-8.8566687232
 30
0.0
 10
-24.6219238286
 20
-8.7516082929
 30
0.0
 10
-24.564485764
 20
-8.6680445183
 30
0.0
 10
-24.5009470008
 20
-8.6360443402
 30
0.0
 10
-24.4274985727
 20
-8.6253237764
 30
0.0
 10
-24.3707245087
 20
-8.642548842
 30
0.0
 10
-24.3357678566
 20
-8.6600271681
 30
0.0
 11
-24.3357678566
 21
-9.386833983
 31
0.0
 11
-24.4493360965
 21
-9.3023791672
 31
0.0
 11
-24.5455725596
 21
-9.1754777801
 31
0.0
 11
-24.6098931596
 21
-9.0254338933
 31
0.0
 11
-24.6267723653
 21
-8.9488342354
 31
0.0
 11
-24.6324820093
 21
-8.8750932397
 31
0.0
 11
-24.6099016554
 21
-8.7473267849
 31
0.0
 11
-24.5455863805
 21
-8.6615885448
 31
0.0
 11
-24.5006386822
 21
-8.638857585
 31
0.0
 11
-24.4493442261
 21
-8.6309145767
 31
0.0
 11
-24.3357678566
 21
-8.6600271681
 31
0.0
  0
SPLINE
  5
4CB
100
AcDbEntity
  8
0
100
AcDbSpline
 62
253
  6
CONTINUOUS
 70
0
 71
3
 72
17
 73
13
 74
11
 42
0.0000001
 43
0.0000001
 44
0.0000000001
 12
0.9596228027
 22
-0.4798114013
 32
0.0
 13
-0.9596228027
 23
0.4798114013
 33
0.0
 40
0.0
 40
0.0
 40
0.0
 40
0.0
 40
0.1319133723
 40
0.280358331
 40
0.4325165958
 40
0.5056249912
 40
0.5745618317
 40
0.695493458
 40
0.7953915524
 40
0.8423381359
 40
0.8907175235
 40
1.0
 40
1.0
 40
1.0
 40
1.0
 10
-24.3357678566
 20
-8.6600271681
 30
0.0
 10
-24.2935721633
 20
-8.6811250147
 30
0.0
 10
-24.2129464326
 20
-8.7442103796
 30
0.0
 10
-24.1199142022
 20
-8.8693485848
 30
0.0
 10
-24.0662963171
 20
-8.9933233778
 30
0.0
 10
-24.0432300618
 20
-9.0963036397
 30
0.0
 10
-24.0356138479
 20
-9.1901924278
 30
0.0
 10
-24.0496118847
 20
-9.2952528581
 30
0.0
 10
-24.1070499492
 20
-9.3788166328
 30
0.0
 10
-24.1705887124
 20
-9.4108168109
 30
0.0
 10
-24.2440371405
 20
-9.4215373747
 30
0.0
 10
-24.3008112045
 20
-9.404312309
 30
0.0
 10
-24.3357678566
 20
-9.386833983
 30
0.0
 11
-24.3357678566
 21
-8.6600271681
 31
0.0
 11
-24.2221996167
 21
-8.7444819839
 31
0.0
 11
-24.1259631537
 21
-8.8713833709
 31
0.0
 11
-24.0616425536
 21
-9.0214272577
 31
0.0
 11
-24.0447633479
 21
-9.0980269157
 31
0.0
 11
-24.039053704
 21
-9.1717679113
 31
0.0
 11
-24.0616340579
 21
-9.2995343662
 31
0.0
 11
-24.1259493328
 21
-9.3852726062
 31
0.0
 11
-24.170897031
 21
-9.408003566
 31
0.0
 11
-24.2221914871
 21
-9.4159465743
 31
0.0
 11
-24.3357678566
 21
-9.386833983
 31
0.0
  0
SPLINE
  5
4CC
100
AcDbEntity
  8
0
100
AcDbSpline
 62
253
  6
CONTINUOUS
 70
0
 71
3
 72
11
 73
7
 74
5
 42
0.0000001
 43
0.0000001
 44
0.0000000001
 12
0.2446232526
 22
0.3598907657
 32
0.0
 13
0.3892165453
 23
-0.1946082727
 33
0.0
 40
0.0
 40
0.0
 40
0.0
 40
0.0
 40
0.2392814555
 40
0.4712904621
 40
0.7195888925
 40
1.0
 40
1.0
 40
1.0
 40
1.0
 10
-24.6177908441
 20
-8.4767317958
 30
0.0
 10
-24.5982795748
 20
-8.4480267338
 30
0.0
 10
-24.5494130999
 20
-8.3972540303
 30
0.0
 10
-24.4494625394
 20
-8.3577379036
 30
0.0
 10
-24.3367182157
 20
-8.3611597173
 30
0.0
 10
-24.2636234485
 20
-8.3878562435
 30
0.0
 10
-24.2272432344
 20
-8.4060463505
 30
0.0
 11
-24.6177908441
 21
-8.4767317958
 31
0.0
 11
-24.5443811271
 21
-8.4028870572
 31
0.0
 11
-24.4506819672
 21
-8.3652908652
 31
0.0
 11
-24.3426385629
 21
-8.3663787571
 31
0.0
 11
-24.2272432344
 21
-8.4060463505
 31
0.0
  0
SPLINE
  5
4CD
100
AcDbEntity
  8
0
100
AcDbSpline
 62
253
  6
CONTINUOUS
 70
0
 71
3
 72
9
 73
5
 74
3
 42
0.0000001
 43
0.0000001
 44
0.0000000001
 12
0.4291377291
 22
-0.0199675314
 32
0.0
 13
0.2685341457
 23
0.3353316351
 33
0.0
 40
0.0
 40
0.0
 40
0.0
 40
0.0
 40
0.5032455975
 40
1.0
 40
1.0
 40
1.0
 40
1.0
 10
-23.1175872132
 20
-9.6213590738
 30
0.0
 10
-23.0455999889
 20
-9.6247085979
 30
0.0
 10
-22.897842481
 20
-9.6014508907
 30
0.0
 10
-22.7811799447
 20
-9.5073372351
 30
0.0
 10
-22.7367147717
 20
-9.4518114131
 30
0.0
 11
-23.1175872132
 21
-9.6213590738
 31
0.0
 11
-22.9047583504
 21
-9.583355217
 31
0.0
 11
-22.7367147717
 21
-9.4518114131
 31
0.0
  0
SPLINE
  5
4CE
100
AcDbEntity
  8
0
100
AcDbSpline
 62
253
  6
CONTINUOUS
 70
0
 71
3
 72
9
 73
5
 74
3
 42
0.0000001
 43
0.0000001
 44
0.0000000001
 12
0.0794342407
 22
0.0991933958
 32
0.0
 13
0.0553295859
 23
0.1144017713
 33
0.0
 40
0.0
 40
0.0
 40
0.0
 40
0.0
 40
0.2433377908
 40
1.0
 40
1.0
 40
1.0
 40
1.0
 10
-22.7367147717
 20
-9.4518114131
 30
0.0
 10
-22.7302716541
 20
-9.4437655792
 30
0.0
 10
-22.7047950007
 20
-9.4099040341
 30
0.0
 10
-22.6833929524
 20
-9.3730373058
 30
0.0
 10
-22.6694376835
 20
-9.3441828068
 30
0.0
 11
-22.7367147717
 21
-9.4518114131
 31
0.0
 11
-22.7181140597
 21
-9.4271080453
 31
0.0
 11
-22.6694376835
 21
-9.3441828068
 31
0.0
  0
SPLINE
  5
4CF
100
AcDbEntity
  8
0
100
AcDbSpline
 62
253
  6
CONTINUOUS
 70
0
 71
3
 72
9
 73
5
 74
3
 42
0.0000001
 43
0.0000001
 44
0.0000000001
 12
0.112720312
 22
0.0563336314
 32
0.0
 13
0.123853753
 23
0.0232291764
 33
0.0
 40
0.0
 40
0.0
 40
0.0
 40
0.0
 40
0.7470674414
 40
1.0
 40
1.0
 40
1.0
 40
1.0
 10
-23.7889423886
 20
-7.4307555718
 30
0.0
 10
-23.7608724969
 20
-7.4167272312
 30
0.0
 10
-23.7211142684
 20
-7.4019185547
 30
0.0
 10
-23.6801016854
 20
-7.3927961056
 30
0.0
 10
-23.6696594699
 20
-7.3908376339
 30
0.0
 11
-23.7889423886
 21
-7.4307555718
 31
0.0
 11
-23.7007682733
 21
-7.3977746101
 31
0.0
 11
-23.6696594699
 21
-7.3908376339
 31
0.0
  0
SPLINE
  5
4D0
100
AcDbEntity
  8
0
100
AcDbSpline
 62
253
  6
CONTINUOUS
 70
0
 71
3
 72
11
 73
7
 74
5
 42
0.0000001
 43
0.0000001
 44
0.0000000001
 12
1.1969447251
 22
-0.7879475474
 32
0.0
 13
0.1649992651
 23
-1.423486303
 33
0.0
 40
0.0
 40
0.0
 40
0.0
 40
0.0
 40
0.2251178226
 40
0.4864111042
 40
0.7549835385
 40
1.0
 40
1.0
 40
1.0
 40
1.0
 10
-9.3248644943
 20
7.2061773626
 30
0.0
 10
-9.2350466309
 20
7.1470503505
 30
0.0
 10
-9.0636416314
 20
6.9854068683
 30
0.0
 10
-8.8557060501
 20
6.6887866495
 30
0.0
 10
-8.6983683485
 20
6.3518182048
 30
0.0
 10
-8.6365042252
 20
6.1119483159
 30
0.0
 10
-8.6230283798
 20
5.9956891236
 30
0.0
 11
-9.3248644943
 21
7.2061773626
 31
0.0
 11
-9.0844086927
 21
6.9911185875
 31
0.0
 11
-8.8670358783
 21
6.6862371655
 31
0.0
 11
-8.7051851303
 21
6.3370546932
 31
0.0
 11
-8.6230283798
 21
5.9956891236
 31
0.0
  0
SPLINE
  5
4D1
100
AcDbEntity
  8
0
100
AcDbSpline
 62
253
  6
CONTINUOUS
 70
0
 71
3
 72
11
 73
7
 74
5
 42
0.0000001
 43
0.0000001
 44
0.0000000001
 12
-0.0
 22
1.369910006
 32
0.0
 13
1.1483929792
 23
0.7468915516
 33
0.0
 40
0.0
 40
0.0
 40
0.0
 40
0.0
 40
0.2430489453
 40
0.5043158703
 40
0.7632556195
 40
1.0
 40
1.0
 40
1.0
 40
1.0
 10
-9.9457966363
 20
6.0361411098
 30
0.0
 10
-9.9457966363
 20
6.1471261705
 30
0.0
 10
-9.9104474513
 20
6.3778085351
 30
0.0
 10
-9.7800563724
 20
6.7037747622
 30
0.0
 10
-9.5851106657
 20
6.9922970575
 30
0.0
 10
-9.4154896891
 20
7.14723657
 30
0.0
 10
-9.3248644943
 20
7.2061773626
 30
0.0
 11
-9.9457966363
 21
6.0361411098
 31
0.0
 11
-9.8999240394
 21
6.3659211245
 31
0.0
 11
-9.7682815241
 21
6.6987444607
 31
0.0
 11
-9.5679434126
 21
6.9914796071
 31
0.0
 11
-9.3248644943
 21
7.2061773626
 31
0.0
  0
SPLINE
  5
4D2
100
AcDbEntity
  8
0
100
AcDbSpline
 62
253
  6
CONTINUOUS
 70
0
 71
3
 72
11
 73
7
 74
5
 42
0.0000001
 43
0.0000001
 44
0.0000000001
 12
-1.2611722925
 22
-0.4926678923
 32
0.0
 13
-1.2110416024
 23
0.6055208012
 33
0.0
 40
0.0
 40
0.0
 40
0.0
 40
0.0
 40
0.2436413887
 40
0.5082060578
 40
0.7684046884
 40
1.0
 40
1.0
 40
1.0
 40
1.0
 10
-8.6230283798
 20
5.9956891236
 30
0.0
 10
-8.7254529694
 20
5.9556776938
 30
0.0
 10
-8.9501973626
 20
5.9001689743
 30
0.0
 10
-9.2980769271
 20
5.8802296892
 30
0.0
 10
-9.6387161053
 20
5.9202048039
 30
0.0
 10
-9.8523061173
 20
5.9893958502
 30
0.0
 10
-9.9457966363
 20
6.0361411098
 30
0.0
 11
-8.6230283798
 21
5.9956891236
 31
0.0
 11
-8.9421707551
 21
5.9121813758
 31
0.0
 11
-9.2997384673
 21
5.8906271034
 31
0.0
 11
-9.6493872768
 21
5.9338090053
 31
0.0
 11
-9.9457966363
 21
6.0361411098
 31
0.0
  0
SPLINE
  5
4D3
100
AcDbEntity
  8
0
100
AcDbSpline
 62
253
  6
CONTINUOUS
 70
0
 71
3
 72
10
 73
6
 74
4
 42
0.0000001
 43
0.0000001
 44
0.0000000001
 12
1.7871659304
 22
0.2812950778
 32
0.0
 13
1.6203038606
 23
-0.8048008343
 33
0.0
 40
0.0
 40
0.0
 40
0.0
 40
0.0
 40
0.5319647837
 40
0.7780037407
 40
1.0
 40
1.0
 40
1.0
 40
1.0
 10
1.3177919249
 20
12.4564023901
 30
0.0
 10
1.6346950375
 20
12.5062820818
 30
0.0
 10
2.1106958989
 20
12.5260682596
 30
0.0
 10
2.7063045178
 20
12.4227889483
 30
0.0
 10
2.9749332713
 20
12.3287920145
 30
0.0
 10
3.0948337366
 20
12.2692377562
 30
0.0
 11
1.3177919249
 21
12.4564023901
 31
0.0
 11
2.2797341439
 21
12.4865232269
 31
0.0
 11
2.7178232372
 21
12.4076883418
 31
0.0
 11
3.0948337366
 21
12.2692377562
 31
0.0
  0
SPLINE
  5
4D4
100
AcDbEntity
  8
0
100
AcDbSpline
 62
253
  6
CONTINUOUS
 70
0
 71
3
 72
17
 73
13
 74
11
 42
0.0000001
 43
0.0000001
 44
0.0000000001
 12
-7.5937705445
 22
-4.0081133185
 32
0.0
 13
7.6801210125
 23
-3.8400605062
 33
0.0
 40
0.0
 40
0.0
 40
0.0
 40
0.0
 40
0.0449557441
 40
0.0917107615
 40
0.1415815266
 40
0.1953995237
 40
0.3155220604
 40
0.4505746134
 40
0.5944877918
 40
0.7392314646
 40
0.8766031132
 40
1.0
 40
1.0
 40
1.0
 40
1.0
 10
-27.0840187225
 20
-5.8090777155
 30
0.0
 10
-27.1978132576
 20
-5.8691402878
 30
0.0
 10
-27.4151951989
 20
-6.0218885412
 30
0.0
 10
-27.683560167
 20
-6.3300010656
 30
0.0
 10
-27.8920748633
 20
-6.7100995772
 30
0.0
 10
-28.0922952262
 20
-7.3217294719
 30
0.0
 10
-28.1589725086
 20
-8.2162562993
 30
0.0
 10
-27.9767750727
 20
-9.3515994349
 30
0.0
 10
-27.5539182562
 20
-10.4959433146
 30
0.0
 10
-26.9265341661
 20
-11.5498777157
 30
0.0
 10
-26.150072799
 20
-12.4220429438
 30
0.0
 10
-25.5341327865
 20
-12.8612612757
 30
0.0
 10
-25.2182317789
 20
-13.0192117795
 30
0.0
 11
-27.0840187225
 21
-5.8090777155
 31
0.0
 11
-27.4004668531
 21
-6.0301454878
 31
0.0
 11
-27.6661279522
 21
-6.3311454899
 31
0.0
 11
-27.8748171499
 21
-6.7050746347
 31
0.0
 11
-28.0216763929
 21
-7.1432334669
 31
0.0
 11
-28.1177328223
 21
-8.1701995077
 31
0.0
 11
-27.9454192128
 21
-9.3169730466
 31
0.0
 11
-27.5206914161
 21
-10.4774191864
 31
0.0
 11
-26.8828437592
 21
-11.5441218288
 31
0.0
 11
-26.0909482731
 21
-12.4183439112
 31
0.0
 11
-25.2182317789
 21
-13.0192117795
 31
0.0
  0
SPLINE
  5
4D5
100
AcDbEntity
  8
0
100
AcDbSpline
 62
253
  6
CONTINUOUS
 70
0
 71
3
 72
13
 73
9
 74
7
 42
0.0000001
 43
0.0000001
 44
0.0000000001
 12
-1.3857587762
 22
1.6418816493
 32
0.0
 13
-2.1416777997
 23
-0.1712277384
 33
0.0
 40
0.0
 40
0.0
 40
0.0
 40
0.0
 40
0.097958409
 40
0.2086636549
 40
0.3287311245
 40
0.4556212678
 40
0.7225710522
 40
1.0
 40
1.0
 40
1.0
 40
1.0
 10
3.320153077
 20
11.8655209063
 30
0.0
 10
3.2749041687
 20
11.9191329443
 30
0.0
 10
3.1616910928
 20
12.0188334004
 30
0.0
 10
2.963146498
 20
12.1461297644
 30
0.0
 10
2.7312962123
 20
12.2566253985
 30
0.0
 10
2.3831746005
 20
12.3777699112
 30
0.0
 10
1.9080658815
 20
12.4682432596
 30
0.0
 10
1.5158465632
 20
12.4722369277
 30
0.0
 10
1.3177920904
 20
12.4564024173
 30
0.0
 11
3.320153077
 21
11.8655209063
 31
0.0
 11
3.1657829721
 21
12.0085778869
 31
0.0
 11
2.9664502766
 21
12.1383462294
 31
0.0
 11
2.7340164398
 21
12.2502442145
 31
0.0
 11
2.4768093756
 21
12.3406261656
 31
0.0
 11
1.9138186279
 21
12.4501478358
 31
0.0
 11
1.3177920904
 21
12.4564024173
 31
0.0
  0
SPLINE
  5
4D6
100
AcDbEntity
  8
0
100
AcDbSpline
 62
253
  6
CONTINUOUS
 70
0
 71
3
 72
11
 73
7
 74
5
 42
0.0000001
 43
0.0000001
 44
0.0000000001
 12
1.2629436897
 22
-0.9174996691
 32
0.0
 13
0.0027587638
 23
-1.5610332461
 33
0.0
 40
0.0
 40
0.0
 40
0.0
 40
0.0
 40
0.2162098942
 40
0.4514402955
 40
0.7122304919
 40
1.0
 40
1.0
 40
1.0
 40
1.0
 10
3.3202427546
 20
11.8655443509
 30
0.0
 10
3.4112630618
 20
11.7994201821
 30
0.0
 10
3.579636804
 20
11.6294772321
 30
0.0
 10
3.7563479959
 20
11.2992277291
 30
0.0
 10
3.8626395337
 20
10.9025060729
 30
0.0
 10
3.8835013141
 20
10.6162578708
 30
0.0
 10
3.8837659435
 20
10.4665186143
 30
0.0
 11
3.3202427546
 21
11.8655443509
 31
0.0
 11
3.5596133907
 21
11.627603987
 31
0.0
 11
3.7374567826
 21
11.3063411537
 31
0.0
 11
3.8468823793
 21
10.9142203424
 31
0.0
 11
3.8837659435
 21
10.4665186143
 31
0.0
  0
SPLINE
  5
4D7
100
AcDbEntity
  8
0
100
AcDbSpline
 62
253
  6
CONTINUOUS
 70
0
 71
3
 72
9
 73
5
 74
3
 42
0.0000001
 43
0.0000001
 44
0.0000000001
 12
0.0005878153
 22
-14.0448375677
 32
0.0
 13
-1.5291620923
 23
-13.9613439878
 33
0.0
 40
0.0
 40
0.0
 40
0.0
 40
0.0
 40
0.2449090539
 40
1.0
 40
1.0
 40
1.0
 40
1.0
 10
3.8837871881
 20
8.0602023708
 30
0.0
 10
3.8838351752
 20
6.9136330769
 30
0.0
 10
3.8161362286
 20
2.232160553
 30
0.0
 10
3.4827204171
 20
-2.4446243481
 30
0.0
 10
3.0978349335
 20
-5.9586524947
 30
0.0
 11
3.8837871881
 21
8.0602023708
 31
0.0
 11
3.8347371896
 21
4.6208442289
 31
0.0
 11
3.0978349335
 21
-5.9586524947
 31
0.0
  0
LINE
  5
4D8
100
AcDbEntity
  8
0
100
AcDbLine
 62
253
  6
CONTINUOUS
 10
3.0978349335
 20
-5.9586524947
 11
3.090500193
 21
-6.025470357
  0
SPLINE
  5
4D9
100
AcDbEntity
  8
0
100
AcDbSpline
 62
7
  6
CONTINUOUS
 70
0
 71
3
 72
12
 73
8
 74
6
 42
0.0000001
 43
0.0000001
 44
0.0000000001
 12
-0.5806405733
 22
-5.2256076321
 32
0.0
 13
-4.6687818667
 23
-2.4179732176
 33
0.0
 40
0.0
 40
0.0
 40
0.0
 40
0.0
 40
0.2546955861
 40
0.5197168182
 40
0.6496782734
 40
0.7744494802
 40
1.0
 40
1.0
 40
1.0
 40
1.0
 10
3.090500193
 20
-6.025470357
 30
0.0
 10
3.0412046627
 20
-6.4691167565
 30
0.0
 10
2.8227346613
 20
-7.3631064783
 30
0.0
 10
2.3216841068
 20
-8.394967812
 30
0.0
 10
1.7959220959
 20
-9.1413850648
 30
0.0
 10
1.234823645
 20
-9.7695557389
 30
0.0
 10
0.7399380459
 20
-10.1524912327
 30
0.0
 10
0.3889226536
 20
-10.334282938
 30
0.0
 11
3.090500193
 21
-6.025470357
 31
0.0
 11
2.7832810104
 21
-7.3288835561
 31
0.0
 11
2.1747862392
 21
-8.5824199273
 31
0.0
 11
1.7802814799
 21
-9.140339815
 31
0.0
 11
1.3417000978
 21
-9.6281983752
 31
0.0
 11
0.3889226536
 21
-10.334282938
 31
0.0
  0
SPLINE
  5
4DA
100
AcDbEntity
  8
0
100
AcDbSpline
 62
253
  6
CONTINUOUS
 70
0
 71
3
 72
11
 73
7
 74
5
 42
0.0000001
 43
0.0000001
 44
0.0000000001
 12
-0.0055421522
 22
-2.1684146773
 32
0.0
 13
-1.8960113642
 23
-1.0522327856
 33
0.0
 40
0.0
 40
0.0
 40
0.0
 40
0.0
 40
0.2474256817
 40
0.5113121848
 40
0.7690841362
 40
1.0
 40
1.0
 40
1.0
 40
1.0
 10
-3.2284803259
 20
-18.4124589941
 30
0.0
 10
-3.2289374162
 20
-18.5912994874
 30
0.0
 10
-3.2876774867
 20
-18.9615198181
 30
0.0
 10
-3.5035071332
 20
-19.478588126
 30
0.0
 10
-3.8206851055
 20
-19.9259812734
 30
0.0
 10
-4.0974094083
 20
-20.1561344658
 30
0.0
 10
-4.243349109
 20
-20.23712688
 30
0.0
 11
-3.2284803259
 21
-18.4124589941
 31
0.0
 11
-3.3056318379
 21
-18.9434060939
 31
0.0
 11
-3.5240218154
 21
-19.4723090928
 31
0.0
 11
-3.8516924525
 21
-19.9251516088
 31
0.0
 11
-4.243349109
 21
-20.23712688
 31
0.0
  0
SPLINE
  5
4DB
100
AcDbEntity
  8
0
100
AcDbSpline
 62
253
  6
CONTINUOUS
 70
0
 71
3
 72
9
 73
5
 74
3
 42
0.0000001
 43
0.0000001
 44
0.0000000001
 12
0.1027219612
 22
0.0531919973
 32
0.0
 13
0.0002351863
 23
0.1156768541
 33
0.0
 40
0.0
 40
0.0
 40
0.0
 40
0.0
 40
0.5662323193
 40
1.0
 40
1.0
 40
1.0
 40
1.0
 10
3.8837659385
 20
10.4683391223
 30
0.0
 10
3.9031541033
 20
10.4783787983
 30
0.0
 10
3.9362514058
 20
10.500146997
 30
0.0
 10
3.9538757848
 20
10.5383064994
 30
0.0
 10
3.9539097902
 20
10.5550321263
 30
0.0
 11
3.8837659385
 21
10.4683391223
 31
0.0
 11
3.9356747141
 21
10.5082858776
 31
0.0
 11
3.9539097902
 21
10.5550321263
 31
0.0
  0
SPLINE
  5
4DC
100
AcDbEntity
  8
0
100
AcDbSpline
 62
253
  6
CONTINUOUS
 70
0
 71
3
 72
11
 73
7
 74
5
 42
0.0000001
 43
0.0000001
 44
0.0000000001
 12
0.4150021022
 22
0.2149085116
 32
0.0
 13
0.0010440519
 23
0.4673449723
 33
0.0
 40
0.0
 40
0.0
 40
0.0
 40
0.0
 40
0.3061132307
 40
0.5682322134
 40
0.7947740702
 40
1.0
 40
1.0
 40
1.0
 40
1.0
 10
-3.2284276516
 20
-18.4130416515
 30
0.0
 10
-3.1860817735
 20
-18.3911128719
 30
0.0
 10
-3.1102445576
 20
-18.3443973266
 30
0.0
 10
-3.019329836
 20
-18.2587857986
 30
0.0
 10
-2.9618522382
 20
-18.165372424
 30
0.0
 10
-2.9479046294
 20
-18.0976831584
 30
0.0
 10
-2.9478332073
 20
-18.0657127229
 30
0.0
 11
-3.2284276516
 21
-18.4130416515
 31
0.0
 11
-3.1075179504
 21
-18.3365743576
 31
0.0
 11
-3.0196970154
 21
-18.2511705784
 31
0.0
 11
-2.9660927873
 21
-18.1598701037
 31
0.0
 11
-2.9478332073
 21
-18.0657127229
 31
0.0
  0
SPLINE
  5
4DD
100
AcDbEntity
  8
0
100
AcDbSpline
 62
7
  6
CONTINUOUS
 70
0
 71
3
 72
9
 73
5
 74
3
 42
0.0000001
 43
0.0000001
 44
0.0000000001
 12
0.2232215403
 22
-0.0139089252
 32
0.0
 13
0.194783725
 23
0.1099118499
 33
0.0
 40
0.0
 40
0.0
 40
0.0
 40
0.0
 40
0.5693913557
 40
1.0
 40
1.0
 40
1.0
 40
1.0
 10
-3.2284276516
 20
-12.3641337379
 30
0.0
 10
-3.1860608464
 20
-12.3667736118
 30
0.0
 10
-3.1119773391
 20
-12.3692040927
 30
0.0
 10
-3.0359966396
 20
-12.3550900023
 30
0.0
 10
-3.008038121
 20
-12.3393136714
 30
0.0
 11
-3.2284276516
 21
-12.3641337379
 31
0.0
 11
-3.101080747
 21
-12.3641775436
 31
0.0
 11
-3.008038121
 21
-12.3393136714
 31
0.0
  0
SPLINE
  5
4DE
100
AcDbEntity
  8
0
100
AcDbSpline
 62
7
  6
CONTINUOUS
 70
0
 71
3
 72
9
 73
5
 74
3
 42
0.0000001
 43
0.0000001
 44
0.0000000001
 12
0.0007282503
 22
-0.0432340908
 32
0.0
 13
-0.0075999525
 23
-0.0425670962
 33
0.0
 40
0.0
 40
0.0
 40
0.0
 40
0.0
 40
0.2587071087
 40
1.0
 40
1.0
 40
1.0
 40
1.0
 10
0.3889193169
 20
-10.3339116134
 30
0.0
 10
0.388982118
 20
-10.3376399356
 30
0.0
 10
0.3889073749
 20
-10.3520530611
 30
0.0
 10
0.387538362
 20
-10.3664736641
 30
0.0
 10
0.3856604317
 20
-10.3769918927
 30
0.0
 11
0.3889193169
 21
-10.3339116134
 31
0.0
 11
0.3888568202
 21
-10.3450979921
 31
0.0
 11
0.3856604317
 21
-10.3769918927
 31
0.0
  0
SPLINE
  5
4DF
100
AcDbEntity
  8
0
100
AcDbSpline
 62
7
  6
CONTINUOUS
 70
0
 71
3
 72
9
 73
5
 74
3
 42
0.0000001
 43
0.0000001
 44
0.0000000001
 12
-0.0174420597
 22
-0.0976924314
 32
0.0
 13
-0.0816607978
 23
-0.0563875049
 33
0.0
 40
0.0
 40
0.0
 40
0.0
 40
0.0
 40
0.5322592706
 40
1.0
 40
1.0
 40
1.0
 40
1.0
 10
0.3856604317
 20
-10.3769918927
 30
0.0
 10
0.3825658657
 20
-10.3943244601
 30
0.0
 10
0.3723285056
 20
-10.4265357743
 30
0.0
 10
0.3497715465
 20
-10.4524665495
 30
0.0
 10
0.3370395195
 20
-10.461258127
 30
0.0
 11
0.3856604317
 21
-10.3769918927
 31
0.0
 11
0.3681778645
 21
-10.426834725
 31
0.0
 11
0.3370395195
 21
-10.461258127
 31
0.0
  0
SPLINE
  5
4E0
100
AcDbEntity
  8
0
100
AcDbSpline
 62
7
  6
CONTINUOUS
 70
0
 71
3
 72
10
 73
6
 74
4
 42
0.0000001
 43
0.0000001
 44
0.0000000001
 12
0.0896040613
 22
0.030295024
 32
0.0
 13
0.0102700789
 23
0.0940276648
 33
0.0
 40
0.0
 40
0.0
 40
0.0
 40
0.0
 40
0.3172576541
 40
0.7005400428
 40
1.0
 40
1.0
 40
1.0
 40
1.0
 10
3.0917281672
 20
-6.025292974
 30
0.0
 10
3.1012040253
 20
-6.0220891979
 30
0.0
 10
3.1216327319
 20
-6.0136220327
 30
0.0
 10
3.1483705404
 20
-5.9957362838
 30
0.0
 10
3.1590292012
 20
-5.9752964192
 30
0.0
 10
3.1600543603
 20
-5.965910579
 30
0.0
 11
3.0917281672
 21
-6.025292974
 31
0.0
 11
3.1193591471
 21
-6.0135868406
 31
0.0
 11
3.1482177343
 21
-5.9916438028
 31
0.0
 11
3.1600543603
 21
-5.965910579
 31
0.0
  0
SPLINE
  5
4E1
100
AcDbEntity
  8
0
100
AcDbSpline
 62
253
  6
CONTINUOUS
 70
0
 71
3
 72
9
 73
5
 74
3
 42
0.0000001
 43
0.0000001
 44
0.0000000001
 12
0.1027256879
 22
0.0531939271
 32
0.0
 13
0.0002269553
 23
0.1156810673
 33
0.0
 40
0.0
 40
0.0
 40
0.0
 40
0.0
 40
0.5662392912
 40
1.0
 40
1.0
 40
1.0
 40
1.0
 10
3.8837659385
 20
8.0601913592
 30
0.0
 10
3.9031550454
 20
8.0702315231
 30
0.0
 10
3.9362538658
 20
8.092000575
 30
0.0
 10
3.9538769697
 20
8.1301627912
 30
0.0
 10
3.9539097844
 20
8.1468887584
 30
0.0
 11
3.8837659385
 21
8.0601913592
 31
0.0
 11
3.935676819
 21
8.1001405982
 31
0.0
 11
3.9539097844
 21
8.1468887584
 31
0.0
  0
SPLINE
  5
4E2
100
AcDbEntity
  8
0
100
AcDbSpline
 62
253
  6
CONTINUOUS
 70
0
 71
3
 72
11
 73
7
 74
5
 42
0.0000001
 43
0.0000001
 44
0.0000000001
 12
1.9704900671
 22
0.9851613678
 32
0.0
 13
1.9704566019
 23
-0.985228301
 33
0.0
 40
0.0
 40
0.0
 40
0.0
 40
0.0
 40
0.227111417
 40
0.4646734038
 40
0.7207749341
 40
1.0
 40
1.0
 40
1.0
 40
1.0
 10
-27.3455812852
 20
-5.217676471
 30
0.0
 10
-27.1964076881
 20
-5.1430960063
 30
0.0
 10
-26.8676841837
 20
-5.0337012014
 30
0.0
 10
-26.3335813909
 20
-5.006985475
 30
0.0
 10
-25.7714778238
 20
-5.1125995829
 30
0.0
 10
-25.4047172491
 20
-5.2608843123
 30
0.0
 10
-25.2213169576
 20
-5.3525844581
 30
0.0
 11
-27.3455812852
 21
-5.217676471
 31
0.0
 11
-26.8713494748
 21
-5.058179574
 31
0.0
 11
-26.3488896648
 21
-5.027531644
 31
0.0
 11
-25.7934605445
 21
-5.1266354176
 31
0.0
 11
-25.2213169576
 21
-5.3525844581
 31
0.0
  0
SPLINE
  5
4E3
100
AcDbEntity
  8
0
100
AcDbSpline
 62
253
  6
CONTINUOUS
 70
0
 71
3
 72
11
 73
7
 74
5
 42
0.0000001
 43
0.0000001
 44
0.0000000001
 12
0.5314437822
 22
0.2917155187
 32
0.0
 13
-0.0128362332
 23
0.6061069779
 33
0.0
 40
0.0
 40
0.0
 40
0.0
 40
0.0
 40
0.2154631958
 40
0.4467859464
 40
0.705875167
 40
1.0
 40
1.0
 40
1.0
 40
1.0
 10
-4.4797993052
 20
-20.7653318384
 30
0.0
 10
-4.4416304466
 20
-20.7443805191
 30
0.0
 10
-4.3700272047
 20
-20.6858707957
 30
0.0
 10
-4.2941403767
 20
-20.5626722645
 30
0.0
 10
-4.2493354881
 20
-20.4090260246
 30
0.0
 10
-4.2420894314
 20
-20.2966044734
 30
0.0
 10
-4.2433479164
 20
-20.2371807689
 30
0.0
 11
-4.4797993052
 21
-20.7653318384
 31
0.0
 11
-4.3780505971
 21
-20.6834198349
 31
0.0
 11
-4.3026244841
 21
-20.5651932128
 31
0.0
 11
-4.2566767918
 21
-20.4149929876
 31
0.0
 11
-4.2433479164
 21
-20.2371807689
 31
0.0
  0
SPLINE
  5
4E4
100
AcDbEntity
  8
0
100
AcDbSpline
 62
7
  6
CONTINUOUS
 70
0
 71
3
 72
11
 73
7
 74
5
 42
0.0000001
 43
0.0000001
 44
0.0000000001
 12
0.5385473115
 22
0.2958493389
 32
0.0
 13
0.00015892
 23
0.6144591222
 33
0.0
 40
0.0
 40
0.0
 40
0.0
 40
0.0
 40
0.217316834
 40
0.4509528051
 40
0.7109107332
 40
1.0
 40
1.0
 40
1.0
 40
1.0
 10
-6.0572812221
 20
-21.6337216795
 30
0.0
 10
-6.0182694232
 20
-21.6122906656
 30
0.0
 10
-5.9450123015
 20
-21.5525120755
 30
0.0
 10
-5.8669833027
 20
-21.4271527211
 30
0.0
 10
-5.820478504
 20
-21.272211901
 30
0.0
 10
-5.8112512272
 20
-21.1593668737
 30
0.0
 10
-5.8112359132
 20
-21.1001556947
 30
0.0
 11
-6.0572812221
 21
-21.6337216795
 31
0.0
 11
-5.9531814122
 21
-21.5500908905
 31
0.0
 11
-5.8754396288
 21
-21.4294027826
 31
0.0
 11
-5.8274540952
 21
-21.2770473174
 31
0.0
 11
-5.8112359132
 21
-21.1001556947
 31
0.0
  0
SPLINE
  5
4E5
100
AcDbEntity
  8
0
100
AcDbSpline
 62
7
  6
CONTINUOUS
 70
0
 71
3
 72
11
 73
7
 74
5
 42
0.0000001
 43
0.0000001
 44
0.0000000001
 12
0.0002584879
 22
1.4684146608
 32
0.0
 13
-1.3138165771
 23
0.6558412037
 33
0.0
 40
0.0
 40
0.0
 40
0.0
 40
0.0
 40
0.2468209234
 40
0.5117425932
 40
0.7702216918
 40
1.0
 40
1.0
 40
1.0
 40
1.0
 10
-5.8112357419
 20
7.4356619678
 30
0.0
 10
-5.8112144752
 20
7.5564737886
 30
0.0
 10
-5.8523927055
 20
7.8074097855
 30
0.0
 10
-6.0026809857
 20
8.1567246249
 30
0.0
 10
-6.225103544
 20
8.4548244795
 30
0.0
 10
-6.4174983659
 20
8.6047745719
 30
0.0
 10
-6.518127216
 20
8.655007266
 30
0.0
 11
-5.8112357419
 21
7.4356619678
 31
0.0
 11
-5.8645855462
 21
7.7941494389
 31
0.0
 11
-6.0173724547
 21
8.1519045641
 31
0.0
 11
-6.2470893902
 21
8.454049812
 31
0.0
 11
-6.518127216
 21
8.655007266
 31
0.0
  0
SPLINE
  5
4E6
100
AcDbEntity
  8
0
100
AcDbSpline
 62
253
  6
CONTINUOUS
 70
0
 71
3
 72
11
 73
7
 74
5
 42
0.0000001
 43
0.0000001
 44
0.0000000001
 12
0.256797403
 22
-0.185442725
 32
0.0
 13
-0.155713294
 23
-0.2758392295
 33
0.0
 40
0.0
 40
0.0
 40
0.0
 40
0.0
 40
0.2251599203
 40
0.4646419595
 40
0.7243395785
 40
1.0
 40
1.0
 40
1.0
 40
1.0
 10
3.2864880861
 20
12.1552146144
 30
0.0
 10
3.3057615804
 20
12.1412965247
 30
0.0
 10
3.3391780313
 20
12.1027841112
 30
0.0
 10
3.3611679877
 20
12.0275433678
 30
0.0
 10
3.3553578691
 20
11.9445130413
 30
0.0
 10
3.3342727144
 20
11.8910497436
 30
0.0
 10
3.319964717
 20
11.8657037575
 30
0.0
 11
3.2864880861
 21
12.1552146144
 31
0.0
 11
3.3336133908
 21
12.10168114
 31
0.0
 11
3.3562047999
 21
12.0292660638
 31
0.0
 11
3.3514605753
 21
11.9471423916
 31
0.0
 11
3.319964717
 21
11.8657037575
 31
0.0
  0
SPLINE
  5
4E7
100
AcDbEntity
  8
0
100
AcDbSpline
 62
7
  6
CONTINUOUS
 70
0
 71
3
 72
11
 73
7
 74
5
 42
0.0000001
 43
0.0000001
 44
0.0000000001
 12
-0.6477528363
 22
0.3238558065
 32
0.0
 13
-0.0
 23
0.7242004697
 33
0.0
 40
0.0
 40
0.0
 40
0.0
 40
0.0
 40
0.2171555016
 40
0.450419026
 40
0.7102458475
 40
1.0
 40
1.0
 40
1.0
 40
1.0
 10
-23.8264010681
 20
-25.5029254887
 30
0.0
 10
-23.8732887655
 20
-25.479483132
 30
0.0
 10
-23.9620232114
 20
-25.4119954358
 30
0.0
 10
-24.0570851423
 20
-25.2661711251
 30
0.0
 10
-24.1140170991
 20
-25.0840374975
 30
0.0
 10
-24.1253014468
 20
-24.9508628017
 30
0.0
 10
-24.1253014468
 20
-24.8809161039
 30
0.0
 11
-23.8264010681
 21
-25.5029254887
 31
0.0
 11
-23.952237288
 21
-25.408600264
 31
0.0
 11
-24.0467853867
 21
-25.2686079383
 31
0.0
 11
-24.1054294564
 21
-25.089813133
 31
0.0
 11
-24.1253014468
 21
-24.8809161039
 31
0.0
  0
SPLINE
  5
4E8
100
AcDbEntity
  8
0
100
AcDbSpline
 62
7
  6
CONTINUOUS
 70
0
 71
3
 72
14
 73
10
 74
8
 42
0.0000001
 43
0.0000001
 44
0.0000000001
 12
0.1176764414
 22
-1.5885022728
 32
0.0
 13
-1.5879962455
 23
-0.1243187023
 33
0.0
 40
0.0
 40
0.0
 40
0.0
 40
0.0
 40
0.1223259385
 40
0.2547774883
 40
0.3929759314
 40
0.5317305716
 40
0.6657760879
 40
0.7905006467
 40
1.0
 40
1.0
 40
1.0
 40
1.0
 10
-9.6320170277
 20
-26.7667559396
 30
0.0
 10
-9.627218734
 20
-26.8315276167
 30
0.0
 10
-9.6325544092
 20
-26.9677509989
 30
0.0
 10
-9.6774987962
 20
-27.1723767087
 30
0.0
 10
-9.7570468495
 20
-27.3756286318
 30
0.0
 10
-9.866336387
 20
-27.5653397706
 30
0.0
 10
-9.9995860341
 20
-27.7307274117
 30
0.0
 10
-10.1856171424
 20
-27.8951078428
 30
0.0
 10
-10.3563529221
 20
-27.9749014625
 30
0.0
 10
-10.467247651
 20
-27.9835830251
 30
0.0
 11
-9.6320170277
 21
-26.7667559396
 31
0.0
 11
-9.6378295138
 21
-26.9615167134
 31
0.0
 11
-9.6820227159
 21
-27.1678123367
 31
0.0
 11
-9.7618770648
 21
-27.3729477521
 31
0.0
 11
-9.8724784692
 21
-27.5642992995
 31
0.0
 11
-10.0070207198
 21
-27.7300915528
 31
0.0
 11
-10.1572243314
 21
-27.8601219583
 31
0.0
 11
-10.467247651
 21
-27.9835830251
 31
0.0
  0
SPLINE
  5
4E9
100
AcDbEntity
  8
0
100
AcDbSpline
 62
7
  6
CONTINUOUS
 70
0
 71
3
 72
9
 73
5
 74
3
 42
0.0000001
 43
0.0000001
 44
0.0000000001
 12
0.0
 22
-0.2454688462
 32
0.0
 13
0.0584708659
 23
-0.2384032557
 33
0.0
 40
0.0
 40
0.0
 40
0.0
 40
0.0
 40
0.2613004098
 40
1.0
 40
1.0
 40
1.0
 40
1.0
 10
-24.1253014468
 20
11.1457406935
 30
0.0
 10
-24.1253014468
 20
11.1243603235
 30
0.0
 10
-24.1231385334
 20
11.0425733686
 30
0.0
 10
-24.1120707412
 20
10.9608559848
 30
0.0
 10
-24.097673273
 20
10.902153189
 30
0.0
 11
-24.1253014468
 21
11.1457406935
 31
0.0
 11
-24.1235631
 21
11.081623144
 31
0.0
 11
-24.097673273
 21
10.902153189
 31
0.0
  0
SPLINE
  5
4EA
100
AcDbEntity
  8
0
100
AcDbSpline
 62
7
  6
CONTINUOUS
 70
0
 71
3
 72
11
 73
7
 74
5
 42
0.0000001
 43
0.0000001
 44
0.0000000001
 12
0.1142942401
 22
-0.4660118938
 32
0.0
 13
0.4291662468
 23
-0.2145846943
 33
0.0
 40
0.0
 40
0.0
 40
0.0
 40
0.0
 40
0.2757164423
 40
0.5308380262
 40
0.7698715103
 40
1.0
 40
1.0
 40
1.0
 40
1.0
 10
-24.097673273
 20
10.902153189
 30
0.0
 10
-24.087169006
 20
10.8593241419
 30
0.0
 10
-24.0604774358
 20
10.7781993619
 30
0.0
 10
-24.0001914516
 20
10.6698567982
 30
0.0
 10
-23.9223551152
 20
10.58267519
 30
0.0
 10
-23.8593397717
 20
10.5401981646
 30
0.0
 10
-23.826418645
 20
10.5237374808
 30
0.0
 11
-24.097673273
 21
10.902153189
 31
0.0
 11
-24.0554285753
 21
10.776784183
 31
0.0
 11
-23.9950908603
 21
10.6702742672
 31
0.0
 11
-23.9181284319
 21
10.5852363204
 31
0.0
 11
-23.826418645
 21
10.5237374808
 31
0.0
  0
SPLINE
  5
4EB
100
AcDbEntity
  8
0
100
AcDbSpline
 62
7
  6
CONTINUOUS
 70
0
 71
3
 72
11
 73
7
 74
5
 42
0.0000001
 43
0.0000001
 44
0.0000000001
 12
-1.186513913
 22
-0.9021392269
 32
0.0
 13
0.0
 23
-1.4905269036
 33
0.0
 40
0.0
 40
0.0
 40
0.0
 40
0.0
 40
0.2413447176
 40
0.5004165256
 40
0.7592659009
 40
1.0
 40
1.0
 40
1.0
 40
1.0
 10
-23.4811967799
 20
12.4419587985
 30
0.0
 10
-23.576649735
 20
12.3693832862
 30
0.0
 10
-23.7533579123
 20
12.190309854
 30
0.0
 10
-23.9557013454
 20
11.8690064744
 30
0.0
 10
-24.0895083388
 20
11.5139781681
 30
0.0
 10
-24.1253014468
 20
11.2653475773
 30
0.0
 10
-24.1253014468
 20
11.1457406935
 30
0.0
 11
-23.4811967799
 21
12.4419587985
 31
0.0
 11
-23.7370153281
 21
12.1890494966
 31
0.0
 11
-23.9440812028
 21
11.8631074021
 31
0.0
 11
-24.0786575193
 21
11.5015167521
 31
0.0
 11
-24.1253014468
 21
11.1457406935
 31
0.0
  0
SPLINE
  5
4EC
100
AcDbEntity
  8
RACCORDO
100
AcDbSpline
 62
7
  6
CONTINUOUS
 70
0
 71
3
 72
11
 73
7
 74
5
 42
0.0000001
 43
0.0000001
 44
0.0000000001
 12
0.0347537356
 22
-0.1062203519
 32
0.0
 13
-0.0821784004
 23
-0.0757449392
 33
0.0
 40
0.0
 40
0.0
 40
0.0
 40
0.0
 40
0.2210390414
 40
0.4564757888
 40
0.7153808659
 40
1.0
 40
1.0
 40
1.0
 40
1.0
 10
-22.3506129129
 20
13.380135046
 30
0.0
 10
-22.3480522688
 20
13.3723087645
 30
0.0
 10
-22.3457907464
 20
13.3550173407
 30
0.0
 10
-22.3515875241
 20
13.3285691935
 30
0.0
 10
-22.3656536041
 20
13.3028298359
 30
0.0
 10
-22.3793146902
 20
13.2876468087
 30
0.0
 10
-22.3871112052
 20
13.2804606557
 30
0.0
 11
-22.3506129129
 21
13.380135046
 31
0.0
 11
-22.3472596552
 21
13.3556600813
 31
0.0
 11
-22.3525135467
 21
13.3298772277
 31
0.0
 11
-22.3660620393
 21
13.3043095675
 31
0.0
 11
-22.3871112052
 21
13.2804606557
 31
0.0
  0
SPLINE
  5
4ED
100
AcDbEntity
  8
0
100
AcDbSpline
 62
7
  6
CONTINUOUS
 70
0
 71
3
 72
12
 73
8
 74
6
 42
0.0000001
 43
0.0000001
 44
0.0000000001
 12
-0.5957521328
 22
0.2977688258
 32
0.0
 13
-0.489728787
 23
-0.4513896238
 33
0.0
 40
0.0
 40
0.0
 40
0.0
 40
0.0
 40
0.1046476443
 40
0.212021548
 40
0.4429688692
 40
0.7052028723
 40
1.0
 40
1.0
 40
1.0
 40
1.0
 10
-18.3472298955
 20
19.733051716
 30
0.0
 10
-18.368011248
 20
19.7434386513
 30
0.0
 10
-18.4124708612
 20
19.7600780644
 30
0.0
 10
-18.5102094833
 20
19.7753491921
 30
0.0
 10
-18.6451787195
 20
19.756944873
 30
0.0
 10
-18.8056546553
 20
19.6830563246
 30
0.0
 10
-18.9044054786
 20
19.6069575141
 30
0.0
 10
-18.9525290252
 20
19.5626013926
 30
0.0
 11
-18.3472298955
 21
19.733051716
 31
0.0
 11
-18.4124647914
 21
19.757591188
 31
0.0
 11
-18.4830832867
 21
19.7688699316
 31
0.0
 11
-18.635866966
 21
19.751076896
 31
0.0
 11
-18.7957670024
 21
19.6808204245
 31
0.0
 11
-18.9525290252
 21
19.5626013926
 31
0.0
  0
SPLINE
  5
4EE
100
AcDbEntity
  8
0
100
AcDbSpline
 62
7
  6
CONTINUOUS
 70
0
 71
3
 72
11
 73
7
 74
5
 42
0.0000001
 43
0.0000001
 44
0.0000000001
 12
-0.4368348302
 22
-0.4026365509
 32
0.0
 13
0.0
 23
-0.5940882603
 33
0.0
 40
0.0
 40
0.0
 40
0.0
 40
0.0
 40
0.2471232864
 40
0.5061410213
 40
0.7619187816
 40
1.0
 40
1.0
 40
1.0
 40
1.0
 10
-17.0279180036
 20
17.8179799666
 30
0.0
 10
-17.0639020232
 20
17.7848130108
 30
0.0
 10
-17.1297277414
 20
17.7080767349
 30
0.0
 10
-17.2046859636
 20
17.5761808078
 30
0.0
 10
-17.2535416763
 20
17.4344376538
 30
0.0
 10
-17.2663656693
 20
17.3364816663
 30
0.0
 10
-17.2663656693
 20
17.2893345807
 30
0.0
 11
-17.0279180036
 21
17.8179799666
 31
0.0
 11
-17.1243591913
 21
17.7072859425
 31
0.0
 11
-17.2006403212
 21
17.573644416
 31
0.0
 11
-17.2495335682
 21
17.429770721
 31
0.0
 11
-17.2663656693
 21
17.2893345807
 31
0.0
  0
SPLINE
  5
4EF
100
AcDbEntity
  8
0
100
AcDbSpline
 62
7
  6
CONTINUOUS
 70
0
 71
3
 72
11
 73
7
 74
5
 42
0.0000001
 43
0.0000001
 44
0.0000000001
 12
0.0434225203
 22
0.6295786903
 32
0.0
 13
-0.5644907028
 23
0.2821437382
 33
0.0
 40
0.0
 40
0.0
 40
0.0
 40
0.0
 40
0.2934874684
 40
0.5551153077
 40
0.78690814
 40
1.0
 40
1.0
 40
1.0
 40
1.0
 10
-9.6320170277
 20
14.9383642432
 30
0.0
 10
-9.6277690392
 20
14.9999553952
 30
0.0
 10
-9.6298630305
 20
15.1176181199
 30
0.0
 10
-9.6699228912
 20
15.280001087
 30
0.0
 10
-9.7462624647
 20
15.4105153802
 30
0.0
 10
-9.8218523967
 20
15.4703701842
 30
0.0
 10
-9.8619485213
 20
15.4904110288
 30
0.0
 11
-9.6320170277
 21
14.9383642432
 31
0.0
 11
-9.6372970658
 21
15.1235013813
 31
0.0
 11
-9.6793688634
 21
15.2831577619
 31
0.0
 11
-9.7557535798
 21
15.4079086267
 31
0.0
 11
-9.8619485213
 21
15.4904110288
 31
0.0
  0
SPLINE
  5
4F0
100
AcDbEntity
  8
0
100
AcDbSpline
 62
7
  6
CONTINUOUS
 70
0
 71
3
 72
11
 73
7
 74
5
 42
0.0000001
 43
0.0000001
 44
0.0000000001
 12
0.1313124289
 22
0.0656562144
 32
0.0
 13
0.0
 23
0.1468117587
 33
0.0
 40
0.0
 40
0.0
 40
0.0
 40
0.0
 40
0.2294888932
 40
0.4882056407
 40
0.7534262758
 40
1.0
 40
1.0
 40
1.0
 40
1.0
 10
-17.3370763474
 20
16.8117854719
 30
0.0
 10
-17.3270314328
 20
16.8168079293
 30
0.0
 10
-17.3078530159
 20
16.831868856
 30
0.0
 10
-17.2855932879
 20
16.8616624715
 30
0.0
 10
-17.2705758524
 20
16.8965998585
 30
0.0
 10
-17.2663656693
 20
16.9216767107
 30
0.0
 10
-17.2663656693
 20
16.9337433514
 30
0.0
 11
-17.3370763474
 21
16.8117854719
 31
0.0
 11
-17.3100517617
 21
16.8319051206
 31
0.0
 11
-17.2870699239
 21
16.8621461133
 31
0.0
 11
-17.2717605527
 21
16.8979476869
 31
0.0
 11
-17.2663656693
 21
16.9337433514
 31
0.0
  0
SPLINE
  5
4F1
100
AcDbEntity
  8
RACCORDO
100
AcDbSpline
 62
7
  6
CONTINUOUS
 70
0
 71
3
 72
9
 73
5
 74
3
 42
0.0000001
 43
0.0000001
 44
0.0000000001
 12
-0.1137581019
 22
0.0568790509
 32
0.0
 13
-0.0395500869
 23
0.1208797866
 33
0.0
 40
0.0
 40
0.0
 40
0.0
 40
0.0
 40
0.5223123008
 40
1.0
 40
1.0
 40
1.0
 40
1.0
 10
-19.3169753347
 20
15.4065339991
 30
0.0
 10
-19.3367810867
 20
15.4164368751
 30
0.0
 10
-19.3723720895
 20
15.4413401936
 30
0.0
 10
-19.3952316447
 20
15.478876117
 30
0.0
 10
-19.4015291747
 20
15.4981237128
 30
0.0
 11
-19.3169753347
 21
15.4065339991
 31
0.0
 11
-19.3704870558
 21
15.445897797
 31
0.0
 11
-19.4015291747
 21
15.4981237128
 31
0.0
  0
SPLINE
  5
4F2
100
AcDbEntity
  8
RACCORDO
100
AcDbSpline
 62
7
  6
CONTINUOUS
 70
0
 71
3
 72
9
 73
5
 74
3
 42
0.0000001
 43
0.0000001
 44
0.0000000001
 12
-0.2010265959
 22
-0.185288923
 32
0.0
 13
-0.2725132954
 23
-0.0219130341
 33
0.0
 40
0.0
 40
0.0
 40
0.0
 40
0.0
 40
0.2419488487
 40
1.0
 40
1.0
 40
1.0
 40
1.0
 10
-15.7929986842
 20
13.9297055405
 30
0.0
 10
-15.809211402
 20
13.91476206
 30
0.0
 10
-15.8821334436
 20
13.8596544248
 30
0.0
 10
-15.9732800045
 20
13.8294453963
 30
0.0
 10
-16.042139677
 20
13.8239083293
 30
0.0
 11
-15.7929986842
 21
13.9297055405
 31
0.0
 11
-15.8455650596
 21
13.8895531479
 31
0.0
 11
-16.042139677
 21
13.8239083293
 31
0.0
  0
SPLINE
  5
4F3
100
AcDbEntity
  8
RACCORDO
100
AcDbSpline
 62
7
  6
CONTINUOUS
 70
0
 71
3
 72
9
 73
5
 74
3
 42
0.0000001
 43
0.0000001
 44
0.0000000001
 12
-0.1663056357
 22
-0.0133727827
 32
0.0
 13
-0.1492284042
 23
0.0746142021
 33
0.0
 40
0.0
 40
0.0
 40
0.0
 40
0.0
 40
0.269693864
 40
1.0
 40
1.0
 40
1.0
 40
1.0
 10
-16.042139677
 20
13.8239083293
 30
0.0
 10
-16.0570902135
 20
13.8227061435
 30
0.0
 10
-16.1126014934
 20
13.8213001498
 30
0.0
 10
-16.1693780244
 20
13.832735344
 30
0.0
 10
-16.2057054975
 20
13.8508990805
 30
0.0
 11
-16.042139677
 21
13.8239083293
 31
0.0
 11
-16.0871243444
 21
13.8228817687
 31
0.0
 11
-16.2057054975
 21
13.8508990805
 31
0.0
  0
SPLINE
  5
4F4
100
AcDbEntity
  8
RACCORDO
100
AcDbSpline
 62
7
  6
CONTINUOUS
 70
0
 71
3
 72
11
 73
7
 74
5
 42
0.0000001
 43
0.0000001
 44
0.0000000001
 12
-0.1291445707
 22
-0.0645722853
 32
0.0
 13
0.0
 23
-0.1443880195
 33
0.0
 40
0.0
 40
0.0
 40
0.0
 40
0.0
 40
0.3025722896
 40
0.5654862393
 40
0.7934323727
 40
1.0
 40
1.0
 40
1.0
 40
1.0
 10
-19.1188247377
 20
15.9209112768
 30
0.0
 10
-19.1318499271
 20
15.9143986821
 30
0.0
 10
-19.1553919962
 20
15.9004306152
 30
0.0
 10
-19.1839667278
 20
15.8746068617
 30
0.0
 10
-19.2023014195
 20
15.845860718
 30
0.0
 10
-19.2066927033
 20
15.8247872232
 30
0.0
 10
-19.2066927033
 20
15.8148452596
 30
0.0
 11
-19.1188247377
 21
15.9209112768
 31
0.0
 11
-19.156133587
 21
15.8981807946
 31
0.0
 11
-19.1838565631
 21
15.8722477745
 31
0.0
 11
-19.2009282874
 21
15.8441088079
 31
0.0
 11
-19.2066927033
 21
15.8148452596
 31
0.0
  0
SPLINE
  5
4F5
100
AcDbEntity
  8
0
100
AcDbSpline
 62
7
  6
CONTINUOUS
 70
0
 71
3
 72
12
 73
8
 74
6
 42
0.0000001
 43
0.0000001
 44
0.0000000001
 12
-0.5957521328
 22
0.2977688258
 32
0.0
 13
-0.489728787
 23
-0.4513896238
 33
0.0
 40
0.0
 40
0.0
 40
0.0
 40
0.0
 40
0.1046476443
 40
0.212021548
 40
0.4429688692
 40
0.7052028723
 40
1.0
 40
1.0
 40
1.0
 40
1.0
 10
-9.8619485213
 20
15.4904110288
 30
0.0
 10
-9.8827298737
 20
15.5007979642
 30
0.0
 10
-9.9271894869
 20
15.5174373773
 30
0.0
 10
-10.0249281091
 20
15.532708505
 30
0.0
 10
-10.1598973453
 20
15.5143041859
 30
0.0
 10
-10.3203732811
 20
15.4404156375
 30
0.0
 10
-10.4191241044
 20
15.364316827
 30
0.0
 10
-10.467247651
 20
15.3199607054
 30
0.0
 11
-9.8619485213
 21
15.4904110288
 31
0.0
 11
-9.9271834171
 21
15.5149505009
 31
0.0
 11
-9.9978019125
 21
15.5262292445
 31
0.0
 11
-10.1505855917
 21
15.5084362089
 31
0.0
 11
-10.3104856282
 21
15.4381797374
 31
0.0
 11
-10.467247651
 21
15.3199607054
 31
0.0
  0
SPLINE
  5
4F6
100
AcDbEntity
  8
0
100
AcDbSpline
 62
7
  6
CONTINUOUS
 70
0
 71
3
 72
11
 73
7
 74
5
 42
0.0000001
 43
0.0000001
 44
0.0000000001
 12
-1.186513913
 22
-0.9021392269
 32
0.0
 13
0.0
 23
-1.4905269036
 33
0.0
 40
0.0
 40
0.0
 40
0.0
 40
0.0
 40
0.2413447176
 40
0.5004165256
 40
0.7592659009
 40
1.0
 40
1.0
 40
1.0
 40
1.0
 10
-19.379977449
 20
10.3913491331
 30
0.0
 10
-19.4754304041
 20
10.3187736208
 30
0.0
 10
-19.6521385814
 20
10.1397001886
 30
0.0
 10
-19.8544820146
 20
9.8183968089
 30
0.0
 10
-19.988289008
 20
9.4633685027
 30
0.0
 10
-20.0240821159
 20
9.2147379119
 30
0.0
 10
-20.0240821159
 20
9.0951310281
 30
0.0
 11
-19.379977449
 21
10.3913491331
 31
0.0
 11
-19.6357959972
 21
10.1384398312
 31
0.0
 11
-19.8428618719
 21
9.8124977367
 31
0.0
 11
-19.9774381885
 21
9.4509070866
 31
0.0
 11
-20.0240821159
 21
9.0951310281
 31
0.0
  0
SPLINE
  5
4F7
100
AcDbEntity
  8
RACCORDO
100
AcDbSpline
 62
7
  6
CONTINUOUS
 70
0
 71
3
 72
11
 73
7
 74
5
 42
0.0000001
 43
0.0000001
 44
0.0000000001
 12
0.3899459148
 22
-0.1949729574
 32
0.0
 13
0.3899459148
 23
0.1949729574
 33
0.0
 40
0.0
 40
0.0
 40
0.0
 40
0.0
 40
0.2353701082
 40
0.5
 40
0.7646298918
 40
1.0
 40
1.0
 40
1.0
 40
1.0
 10
-16.0075549004
 20
14.1531443238
 30
0.0
 10
-15.9769610297
 20
14.1378473885
 30
0.0
 10
-15.9066499121
 20
14.1160264375
 30
0.0
 10
-15.7954228661
 20
14.1056028552
 30
0.0
 10
-15.68419582
 20
14.1160264375
 30
0.0
 10
-15.6138847024
 20
14.1378473885
 30
0.0
 10
-15.5832908317
 20
14.1531443238
 30
0.0
 11
-16.0075549004
 21
14.1531443238
 31
0.0
 11
-15.9102278958
 21
14.1206284111
 31
0.0
 11
-15.7954228661
 21
14.109210341
 31
0.0
 11
-15.6806178364
 21
14.1206284111
 31
0.0
 11
-15.5832908317
 21
14.1531443238
 31
0.0
  0
SPLINE
  5
4F8
100
AcDbEntity
  8
RACCORDO
100
AcDbSpline
 62
7
  6
CONTINUOUS
 70
0
 71
3
 72
11
 73
7
 74
5
 42
0.0000001
 43
0.0000001
 44
0.0000000001
 12
0.0
 22
-0.1443880195
 32
0.0
 13
0.1291445707
 23
-0.0645722853
 33
0.0
 40
0.0
 40
0.0
 40
0.0
 40
0.0
 40
0.2065676273
 40
0.4345137607
 40
0.6974277104
 40
1.0
 40
1.0
 40
1.0
 40
1.0
 10
-19.2066927033
 20
15.8148452596
 30
0.0
 10
-19.2066927033
 20
15.8049032961
 30
0.0
 10
-19.2023014195
 20
15.7838298012
 30
0.0
 10
-19.1839667278
 20
15.7550836576
 30
0.0
 10
-19.1553919962
 20
15.729259904
 30
0.0
 10
-19.1318499271
 20
15.7152918372
 30
0.0
 10
-19.1188247377
 20
15.7087792425
 30
0.0
 11
-19.2066927033
 21
15.8148452596
 31
0.0
 11
-19.2009282874
 21
15.7855817113
 31
0.0
 11
-19.1838565631
 21
15.7574427448
 31
0.0
 11
-19.156133587
 21
15.7315097247
 31
0.0
 11
-19.1188247377
 21
15.7087792425
 31
0.0
  0
SPLINE
  5
4F9
100
AcDbEntity
  8
RACCORDO
100
AcDbSpline
 62
7
  6
CONTINUOUS
 70
0
 71
3
 72
9
 73
5
 74
3
 42
0.0000001
 43
0.0000001
 44
0.0000000001
 12
0.0568790509
 22
-0.0284395255
 32
0.0
 13
0.0197750434
 23
-0.0604398933
 33
0.0
 40
0.0
 40
0.0
 40
0.0
 40
0.0
 40
0.5223123008
 40
1.0
 40
1.0
 40
1.0
 40
1.0
 10
-22.3928898329
 20
13.4259299029
 30
0.0
 10
-22.3829869569
 20
13.4209784649
 30
0.0
 10
-22.3651914555
 20
13.4085268056
 30
0.0
 10
-22.3537616779
 20
13.3897588439
 30
0.0
 10
-22.3506129129
 20
13.380135046
 30
0.0
 11
-22.3928898329
 21
13.4259299029
 31
0.0
 11
-22.3661339724
 21
13.4062480039
 31
0.0
 11
-22.3506129129
 21
13.380135046
 31
0.0
  0
SPLINE
  5
4FA
100
AcDbEntity
  8
RACCORDO
100
AcDbSpline
 62
7
  6
CONTINUOUS
 70
0
 71
3
 72
11
 73
7
 74
5
 42
0.0000001
 43
0.0000001
 44
0.0000000001
 12
-0.0695074712
 22
0.2124407039
 32
0.0
 13
0.1643568007
 23
0.1514898785
 33
0.0
 40
0.0
 40
0.0
 40
0.0
 40
0.0
 40
0.2210390414
 40
0.4564757888
 40
0.7153808659
 40
1.0
 40
1.0
 40
1.0
 40
1.0
 10
-19.4015291747
 20
15.4981237128
 30
0.0
 10
-19.406650463
 20
15.5137762759
 30
0.0
 10
-19.4111735076
 20
15.5483591234
 30
0.0
 10
-19.3995799524
 20
15.6012554179
 30
0.0
 10
-19.3714477924
 20
15.6527341331
 30
0.0
 10
-19.3441256202
 20
15.6831001875
 30
0.0
 10
-19.3285325901
 20
15.6974724935
 30
0.0
 11
-19.4015291747
 21
15.4981237128
 31
0.0
 11
-19.4082356901
 21
15.5470736423
 31
0.0
 11
-19.3977279072
 21
15.5986393495
 31
0.0
 11
-19.3706309218
 21
15.6497746699
 31
0.0
 11
-19.3285325901
 21
15.6974724935
 31
0.0
  0
ELLIPSE
  5
4FB
100
AcDbEntity
  8
RACCORDO
100
AcDbEllipse
 62
7
  6
CONTINUOUS
 10
-9.9831792858
 20
5.271321271
 30
0.0
 11
-0.2236184038
 21
0.4472098593
 31
0.0
 40
0.6123952257
 41
-2.2555268178
 42
-1.4701601983
  0
ELLIPSE
  5
4FC
100
AcDbEntity
  8
RACCORDO
100
AcDbEllipse
 62
7
  6
CONTINUOUS
 10
-11.8973849619
 20
8.5728376936
 30
0.0
 11
-0.223592727
 21
0.4472262246
 31
0.0
 40
0.6123874982
 41
-1.470060655
 42
-0.6846940354
  0
ELLIPSE
  5
4FD
100
AcDbEntity
  8
RACCORDO
100
AcDbEllipse
 62
7
  6
CONTINUOUS
 10
-11.8973849619
 20
-25.2021200772
 30
0.0
 11
-0.2236051685
 21
0.4472372818
 31
0.0
 40
0.6123496457
 41
-3.1497377481
 42
-3.0409024091
  0
ELLIPSE
  5
4FE
100
AcDbEntity
  8
RACCORDO
100
AcDbEllipse
 62
7
  6
CONTINUOUS
 10
-9.9831792858
 20
-23.8148093306
 30
0.0
 11
-0.2236308425
 21
0.4472209179
 31
0.0
 40
0.6123573717
 41
-3.0409388568
 42
-2.2555722372
  0
ELLIPSE
  5
4FF
100
AcDbEntity
  8
RACCORDO
100
AcDbEllipse
 62
7
  6
CONTINUOUS
 10
-24.8169811595
 20
-22.357331684
 30
0.0
 11
1.133799959
 21
2.2281584479
 31
0.0
 40
0.6176975122
 41
-3.8201824201
 42
-3.1381818826
  0
ELLIPSE
  5
500
100
AcDbEntity
  8
RACCORDO
100
AcDbEllipse
 62
7
  6
CONTINUOUS
 10
-18.4098243371
 20
-25.5609100952
 30
0.0
 11
1.102574558
 21
2.2437731106
 31
0.0
 40
0.607010042
 41
-3.816206176
 42
-3.1457061816
  0
ELLIPSE
  5
501
100
AcDbEntity
  8
RACCORDO
100
AcDbEllipse
 62
7
  6
CONTINUOUS
 10
-24.8169811595
 20
12.2836844674
 30
0.0
 11
1.133799959
 21
2.2281584479
 31
0.0
 40
0.6176975122
 41
0.6890773845
 42
2.2598737113
  0
ELLIPSE
  5
502
100
AcDbEntity
  8
RACCORDO
100
AcDbEllipse
 62
7
  6
CONTINUOUS
 10
-15.3812435869
 20
-27.6365719911
 30
0.0
 11
0.4410298232
 21
0.8975092442
 31
0.0
 40
0.607010042
 41
-4.2684036111
 42
-4.0318637861
  0
ELLIPSE
  5
503
100
AcDbEntity
  8
RACCORDO
100
AcDbEllipse
 62
7
  6
CONTINUOUS
 10
-18.4098243371
 20
9.0801060561
 30
0.0
 11
1.102574558
 21
2.2437731106
 31
0.0
 40
0.607010042
 41
0.6805251943
 42
2.035663911
  0
ELLIPSE
  5
504
100
AcDbEntity
  8
RACCORDO
100
AcDbEllipse
 62
7
  6
CONTINUOUS
 10
-17.7644258298
 20
-26.8156687411
 30
0.0
 11
0.2205149116
 21
0.4487546221
 31
0.0
 40
0.607010042
 41
-4.0318637861
 42
-3.143758814
  0
ELLIPSE
  5
505
100
AcDbEntity
  8
RACCORDO
100
AcDbEllipse
 62
7
  6
CONTINUOUS
 10
-16.3625539222
 20
8.0564708487
 30
0.0
 11
1.102574558
 21
2.2437731106
 31
0.0
 40
0.607010042
 41
0.6805251943
 42
2.2513215211
  0
ELLIPSE
  5
506
100
AcDbEntity
  8
RACCORDO
100
AcDbEllipse
 62
7
  6
CONTINUOUS
 10
-16.3625539222
 20
-26.5845453027
 30
0.0
 11
1.102574558
 21
2.2437731106
 31
0.0
 40
0.607010042
 41
2.2513215211
 42
3.8221178479
  0
ELLIPSE
  5
507
100
AcDbEntity
  8
RACCORDO
100
AcDbEllipse
 62
7
  6
CONTINUOUS
 10
-27.3072415739
 20
8.7299093431
 30
0.0
 11
-0.6708909829
 21
1.3417319178
 31
0.0
 40
0.6123267458
 41
-0.6846978779
 42
0.0076390318
  0
ELLIPSE
  5
508
100
AcDbEntity
  8
RACCORDO
100
AcDbEllipse
 62
7
  6
CONTINUOUS
 10
-19.0996692351
 20
7.6774405921
 30
0.0
 11
0.3155849318
 21
0.1171201238
 31
0.0
 40
0.3622699075
 41
2.5872637284
 42
3.4681637156
  0
ELLIPSE
  5
509
100
AcDbEntity
  8
RACCORDO
100
AcDbEllipse
 62
7
  6
CONTINUOUS
 10
-23.7570456518
 20
10.0061288004
 30
0.0
 11
0.3191796524
 21
0.115286206
 31
0.0
 40
0.3564329403
 41
-2.8146292027
 42
-1.2481961575
  0
ELLIPSE
  5
50A
100
AcDbEntity
  8
RACCORDO
100
AcDbEllipse
 62
7
  6
CONTINUOUS
 10
-15.3812435869
 20
10.1070861892
 30
0.0
 11
0.4410298232
 21
0.8975092442
 31
0.0
 40
0.607010042
 41
2.2513215211
 42
3.8133912016
  0
ELLIPSE
  5
50B
100
AcDbEntity
  8
RACCORDO
100
AcDbEllipse
 62
7
  6
CONTINUOUS
 10
-24.2675937227
 20
11.1672798676
 30
0.0
 11
0.1811490377
 21
0.3571046834
 31
0.0
 40
0.6172574819
 41
-3.4796740637
 42
-2.4624172825
  0
ELLIPSE
  5
50C
100
AcDbEntity
  8
RACCORDO
100
AcDbEllipse
 62
7
  6
CONTINUOUS
 10
-22.7697107447
 20
11.2600492599
 30
0.0
 11
1.133799959
 21
2.2281584479
 31
0.0
 40
0.6176975122
 41
0.6890773845
 42
2.0442161012
  0
ELLIPSE
  5
50D
100
AcDbEntity
  8
RACCORDO
100
AcDbEllipse
 62
7
  6
CONTINUOUS
 10
-22.7697107447
 20
-23.3809668914
 30
0.0
 11
1.133799959
 21
2.2281584479
 31
0.0
 40
0.6176975122
 41
2.4755313213
 42
3.4659232089
  0
ELLIPSE
  5
50E
100
AcDbEntity
  8
RACCORDO
100
AcDbEllipse
 62
7
  6
CONTINUOUS
 10
-13.1590024365
 20
13.0967057864
 30
0.0
 11
0.9999938762
 21
-0.0070751823
 31
0.0
 40
0.4946372042
 41
5.5100134456
 42
6.7181416285
  0
ELLIPSE
  5
50F
100
AcDbEntity
  8
RACCORDO
100
AcDbEllipse
 62
7
  6
CONTINUOUS
 10
-18.1148938067
 20
6.603276845
 30
0.0
 11
0.499996712
 21
0.0035883639
 31
0.0
 40
0.5053247124
 41
3.1379665497
 42
3.9233642311
  0
ELLIPSE
  5
510
100
AcDbEntity
  8
RACCORDO
100
AcDbEllipse
 62
7
  6
CONTINUOUS
 10
-25.9763880323
 20
10.5340239578
 30
0.0
 11
0.499996712
 21
0.0035883639
 31
0.0
 40
0.5053247124
 41
-2.3598210761
 42
-0.7977513956
  0
ELLIPSE
  5
511
100
AcDbEntity
  8
RACCORDO
100
AcDbEllipse
 62
7
  6
CONTINUOUS
 10
-17.7644258298
 20
6.86103907
 30
0.0
 11
0.2205149116
 21
0.4487546221
 31
0.0
 40
0.607010042
 41
0.6892518406
 42
2.2513215211
  0
ELLIPSE
  5
512
100
AcDbEntity
  8
RACCORDO
100
AcDbEllipse
 62
7
  6
CONTINUOUS
 10
-17.4078274138
 20
-24.7985371313
 30
0.0
 11
-0.6708909829
 21
1.3417319178
 31
0.0
 40
0.6123267458
 41
-3.1532161042
 42
-2.2555703571
  0
ELLIPSE
  5
513
100
AcDbEntity
  8
RACCORDO
100
AcDbEllipse
 62
7
  6
CONTINUOUS
 10
-17.4078274138
 20
3.780202263
 30
0.0
 11
-0.670800885
 21
1.3416518308
 31
0.0
 40
0.6124181287
 41
-2.2554606976
 42
-0.6847405232
  0
ELLIPSE
  5
514
100
AcDbEntity
  8
ASSI
100
AcDbEllipse
 62
7
  6
CONTINUOUS
 10
-9.9831792858
 20
5.271321271
 30
0.0
 11
-0.2236184038
 21
0.4472098593
 31
0.0
 40
0.6123952257
 41
-2.2555268178
 42
-1.4701601983
  0
ELLIPSE
  5
515
100
AcDbEntity
  8
ASSI
100
AcDbEllipse
 62
7
  6
CONTINUOUS
 10
-11.8973849619
 20
8.5728376936
 30
0.0
 11
-0.223592727
 21
0.4472262246
 31
0.0
 40
0.6123874982
 41
-1.470060655
 42
-0.6846940354
  0
ELLIPSE
  5
516
100
AcDbEntity
  8
ASSI
100
AcDbEllipse
 62
7
  6
CONTINUOUS
 10
-11.8973849619
 20
-25.2021200772
 30
0.0
 11
-0.2236051685
 21
0.4472372818
 31
0.0
 40
0.6123496457
 41
-3.1497377481
 42
-3.0409024091
  0
ELLIPSE
  5
517
100
AcDbEntity
  8
ASSI
100
AcDbEllipse
 62
7
  6
CONTINUOUS
 10
-9.9831792858
 20
-23.8148093306
 30
0.0
 11
-0.2236308425
 21
0.4472209179
 31
0.0
 40
0.6123573717
 41
-3.0409388568
 42
-2.2555722372
  0
ELLIPSE
  5
518
100
AcDbEntity
  8
ASSI
100
AcDbEllipse
 62
7
  6
CONTINUOUS
 10
-24.8169811595
 20
-22.357331684
 30
0.0
 11
1.133799959
 21
2.2281584479
 31
0.0
 40
0.6176975122
 41
-3.8201824201
 42
-3.1381818826
  0
ELLIPSE
  5
519
100
AcDbEntity
  8
ASSI
100
AcDbEllipse
 62
7
  6
CONTINUOUS
 10
-18.4098243371
 20
-25.5609100952
 30
0.0
 11
1.102574558
 21
2.2437731106
 31
0.0
 40
0.607010042
 41
-3.816206176
 42
-3.1457061816
  0
ELLIPSE
  5
51A
100
AcDbEntity
  8
ASSI
100
AcDbEllipse
 62
7
  6
CONTINUOUS
 10
-7.8972008186
 20
11.9290708719
 30
0.0
 11
0.9999984415
 21
-0.0035500306
 31
0.0
 40
0.4973232868
 41
6.2894216759
 42
7.0703489844
  0
ELLIPSE
  5
51B
100
AcDbEntity
  8
ASSI
100
AcDbEllipse
 62
7
  6
CONTINUOUS
 10
-24.8169811595
 20
12.2836844674
 30
0.0
 11
1.133799959
 21
2.2281584479
 31
0.0
 40
0.6176975122
 41
0.6890773845
 42
2.2598737113
  0
ELLIPSE
  5
51C
100
AcDbEntity
  8
ASSI
100
AcDbEllipse
 62
7
  6
CONTINUOUS
 10
-15.3812435869
 20
-27.6365719911
 30
0.0
 11
0.4410298232
 21
0.8975092442
 31
0.0
 40
0.607010042
 41
-4.2684036111
 42
-4.0318637861
  0
ELLIPSE
  5
51D
100
AcDbEntity
  8
ASSI
100
AcDbEllipse
 62
7
  6
CONTINUOUS
 10
-18.4098243371
 20
9.0801060561
 30
0.0
 11
1.102574558
 21
2.2437731106
 31
0.0
 40
0.607010042
 41
0.6805251943
 42
2.035663911
  0
ELLIPSE
  5
51E
100
AcDbEntity
  8
ASSI
100
AcDbEllipse
 62
7
  6
CONTINUOUS
 10
-17.7644258298
 20
-26.8156687411
 30
0.0
 11
0.2205149116
 21
0.4487546221
 31
0.0
 40
0.607010042
 41
-4.0318637861
 42
-3.143758814
  0
ELLIPSE
  5
51F
100
AcDbEntity
  8
ASSI
100
AcDbEllipse
 62
7
  6
CONTINUOUS
 10
-16.3625539222
 20
8.0564708487
 30
0.0
 11
1.102574558
 21
2.2437731106
 31
0.0
 40
0.607010042
 41
0.6805251943
 42
2.2513215211
  0
ELLIPSE
  5
520
100
AcDbEntity
  8
ASSI
100
AcDbEllipse
 62
7
  6
CONTINUOUS
 10
-16.3625539222
 20
-26.5845453027
 30
0.0
 11
1.102574558
 21
2.2437731106
 31
0.0
 40
0.607010042
 41
-4.0318637861
 42
-2.4610674593
  0
ELLIPSE
  5
521
100
AcDbEntity
  8
ASSI
100
AcDbEllipse
 62
7
  6
CONTINUOUS
 10
-27.3072415739
 20
8.7299093431
 30
0.0
 11
-0.6708909829
 21
1.3417319178
 31
0.0
 40
0.6123267458
 41
-0.6846978779
 42
0.0076390318
  0
ELLIPSE
  5
522
100
AcDbEntity
  8
ASSI
100
AcDbEllipse
 62
7
  6
CONTINUOUS
 10
-19.0996692351
 20
7.6774405921
 30
0.0
 11
0.3155849318
 21
0.1171201238
 31
0.0
 40
0.3622699075
 41
2.5872637284
 42
3.4681637156
  0
ELLIPSE
  5
523
100
AcDbEntity
  8
ASSI
100
AcDbEllipse
 62
7
  6
CONTINUOUS
 10
-23.7570456518
 20
10.0061288004
 30
0.0
 11
0.3191796524
 21
0.115286206
 31
0.0
 40
0.3564329403
 41
-2.8146292027
 42
-1.2481961575
  0
ELLIPSE
  5
524
100
AcDbEntity
  8
ASSI
100
AcDbEllipse
 62
7
  6
CONTINUOUS
 10
-15.3812435869
 20
10.1070861892
 30
0.0
 11
0.4410298232
 21
0.8975092442
 31
0.0
 40
0.607010042
 41
2.2513215211
 42
3.8133912016
  0
ELLIPSE
  5
525
100
AcDbEntity
  8
ASSI
100
AcDbEllipse
 62
7
  6
CONTINUOUS
 10
-24.2675937227
 20
11.1672798676
 30
0.0
 11
0.1811490377
 21
0.3571046834
 31
0.0
 40
0.6172574819
 41
-3.4796740637
 42
-2.4624172825
  0
ELLIPSE
  5
526
100
AcDbEntity
  8
ASSI
100
AcDbEllipse
 62
7
  6
CONTINUOUS
 10
-22.7697107447
 20
11.2600492599
 30
0.0
 11
1.133799959
 21
2.2281584479
 31
0.0
 40
0.6176975122
 41
0.6890773845
 42
2.0442161012
  0
ELLIPSE
  5
527
100
AcDbEntity
  8
ASSI
100
AcDbEllipse
 62
7
  6
CONTINUOUS
 10
-22.7697107447
 20
-23.3809668914
 30
0.0
 11
1.133799959
 21
2.2281584479
 31
0.0
 40
0.6176975122
 41
2.4755313213
 42
3.4659232089
  0
ELLIPSE
  5
528
100
AcDbEntity
  8
ASSI
100
AcDbEllipse
 62
7
  6
CONTINUOUS
 10
-24.2675937227
 20
-24.7601630021
 30
0.0
 11
0.1810046246
 21
0.3569768207
 31
0.0
 40
0.6178108116
 41
-4.6315959171
 42
-4.5699548421
  0
ELLIPSE
  5
529
100
AcDbEntity
  8
ASSI
100
AcDbEllipse
 62
7
  6
CONTINUOUS
 10
-13.1590024365
 20
13.0967057864
 30
0.0
 11
0.9999938762
 21
-0.0070751823
 31
0.0
 40
0.4946372042
 41
5.5100134456
 42
6.7181416285
  0
ELLIPSE
  5
52A
100
AcDbEntity
  8
ASSI
100
AcDbEllipse
 62
7
  6
CONTINUOUS
 10
-18.1148938067
 20
6.603276845
 30
0.0
 11
0.499996712
 21
0.0035883639
 31
0.0
 40
0.5053247124
 41
3.1379665497
 42
3.9233642311
  0
ELLIPSE
  5
52B
100
AcDbEntity
  8
ASSI
100
AcDbEllipse
 62
7
  6
CONTINUOUS
 10
-25.9763880323
 20
10.5340239578
 30
0.0
 11
0.499996712
 21
0.0035883639
 31
0.0
 40
0.5053247124
 41
-2.3598210761
 42
-0.7977513956
  0
ELLIPSE
  5
52C
100
AcDbEntity
  8
ASSI
100
AcDbEllipse
 62
7
  6
CONTINUOUS
 10
-17.7644258298
 20
6.86103907
 30
0.0
 11
0.2205149116
 21
0.4487546221
 31
0.0
 40
0.607010042
 41
0.6892518406
 42
2.2513215211
  0
ELLIPSE
  5
52D
100
AcDbEntity
  8
ASSI
100
AcDbEllipse
 62
7
  6
CONTINUOUS
 10
-17.4078274138
 20
-24.7985371313
 30
0.0
 11
-0.6708909829
 21
1.3417319178
 31
0.0
 40
0.6123267458
 41
-3.1532161042
 42
-2.2555703571
  0
ELLIPSE
  5
52E
100
AcDbEntity
  8
ASSI
100
AcDbEllipse
 62
7
  6
CONTINUOUS
 10
-17.4078274138
 20
3.780202263
 30
0.0
 11
-0.670800885
 21
1.3416518308
 31
0.0
 40
0.6124181287
 41
-2.2554606976
 42
-0.6847405232
  0
ELLIPSE
  5
52F
100
AcDbEntity
  8
0
100
AcDbEllipse
 62
7
  6
CONTINUOUS
 10
-8.0792037425
 20
-23.4884964858
 30
0.0
 11
-0.2235489346
 21
0.4480667051
 31
0.0
 40
0.6115518419
 41
-3.1858562046
 42
-3.0405095638
  0
ELLIPSE
  5
530
100
AcDbEntity
  8
0
100
AcDbEllipse
 62
7
  6
CONTINUOUS
 10
-13.2385580496
 20
13.2119873337
 30
0.0
 11
-0.4511806643
 21
0.8941510684
 31
0.0
 40
0.6128301338
 41
-2.2596307209
 42
-2.0558373642
  0
ELLIPSE
  5
531
100
AcDbEntity
  8
0
100
AcDbEllipse
 62
7
  6
CONTINUOUS
 10
-8.6829398514
 20
6.6812284296
 30
0.0
 11
-0.4445912923
 21
0.8959066538
 31
0.0
 40
0.6213433204
 41
-1.2694429152
 42
-0.6887812081
  0
ENDSEC
  0
SECTION
  2
OBJECTS
  0
DICTIONARY
  5
C
100
AcDbDictionary
280
0
281
1
  3
ACAD_GROUP
350
D
  3
ACAD_MLINESTYLE
350
17
  3
ACAD_LAYOUT
350
1A
  3
ACAD_PLOTSETTINGS
350
19
  3
ACAD_PLOTSTYLENAME
350
E
  0
DICTIONARY
  5
D
102
{ACAD_REACTORS
330
C
102
}
100
AcDbDictionary
280
0
281
1
  0
ACDBDICTIONARYWDFLT
  5
E
102
{ACAD_REACTORS
330
C
102
}
100
AcDbDictionary
281
1
  3
Normal
350
F
100
AcDbDictionaryWithDefault
340
F
  0
DICTIONARY
  5
17
102
{ACAD_REACTORS
330
C
102
}
100
AcDbDictionary
280
0
281
1
  3
Standard
350
18
  0
DICTIONARY
  5
19
102
{ACAD_REACTORS
330
C
102
}
100
AcDbDictionary
281
1
  0
DICTIONARY
  5
1A
102
{ACAD_REACTORS
330
C
102
}
100
AcDbDictionary
281
1
  3
Model
350
532
  3
Layout1
350
533
  0
ACDBPLACEHOLDER
  5
F
102
{ACAD_REACTORS
330
E
102
}
  0
MLINESTYLE
  5
18
102
{ACAD_REACTORS
330
17
102
}
100
AcDbMlineStyle
  2
STANDARD
 70
0
  3

 62
256
 51
90.0
 52
90.0
 71
2
 49
0.5
 62
256
  6
BYLAYER
 49
-0.5
 62
256
  6
BYLAYER
  0
LAYOUT
  5
532
102
{ACAD_REACTORS
330
1A
102
}
100
AcDbPlotSettings
  1

  2
none_device
  4
ANSI_C_(22.00_x_17.00_Inches)
  6

 40
0.0
 41
0.0
 42
0.0
 43
0.0
 44
558.8
 45
431.8
 46
0.0
 47
0.0
 48
0.0
 49
0.0
140
0.0
141
0.0
142
1.0
143
1.0
 70
1024
 72
1
 73
0
 74
0
  7

 75
0
147
1.0
148
0.0
149
0.0
100
AcDbLayout
  1
Model
 70
0
 71
0
 10
0.0
 20
0.0
 11
558.8
 21
431.8
 12
0.0
 22
0.0
 32
0.0
 14
0.0
 24
0.0
 34
0.0
 15
0.0
 25
0.0
 35
0.0
146
0.0
 13
0.0
 23
0.0
 33
0.0
 16
1.0
 26
0.0
 36
0.0
 17
0.0
 27
1.0
 37
0.0
 76
0
330
210
345
0
346
0
  0
LAYOUT
  5
533
102
{ACAD_REACTORS
330
1A
102
}
100
AcDbPlotSettings
  1

  2
none_device
  4
ANSI_C_(22.00_x_17.00_Inches)
  6

 40
0.0
 41
0.0
 42
0.0
 43
0.0
 44
558.8
 45
431.8
 46
0.0
 47
0.0
 48
0.0
 49
0.0
140
0.0
141
0.0
142
1.0
143
1.0
 70
0
 72
1
 73
0
 74
0
  7

 75
0
147
1.0
148
0.0
149
0.0
100
AcDbLayout
  1
Layout1
 70
0
 71
1
 10
0.0
 20
0.0
 11
558.8
 21
431.8
 12
0.0
 22
0.0
 32
0.0
 14
0.0
 24
0.0
 34
0.0
 15
0.0
 25
0.0
 35
0.0
146
0.0
 13
0.0
 23
0.0
 33
0.0
 16
1.0
 26
0.0
 36
0.0
 17
0.0
 27
1.0
 37
0.0
 76
0
330
211
345
0
346
0
  0
ENDSEC
  0
EOF
