  0
SECTION
  2
HEADER
  9
$ACADVER
  1
AC1015
  9
$DWGCODEPAGE
  3
ANSI_1252
  9
$EXTMAX
 10
297.0
 20
210.0
 30
0.0
  9
$EXTMIN
 10
0.0
 20
0.0
 30
0.0
  9
$LIMMIN
 10
0.0
 20
0.0
  9
$LIMMAX
 10
297.0
 20
210.0
  9
$VIEWCTR
 10
148.5
 20
105.0
  9
$VIEWSIZE
 40
210.0
  9
$CLAYER
  8
0
  9
$LTSCALE
 40
16.335
  9
$CELTYPE
  6
BYLAYER
  9
$DIMSCALE
 40
1.0
  9
$DIMASZ
 40
3.0
  9
$DIMEXO
 40
1.85625
  9
$DIMDLI
 40
11.286
  9
$DIMEXE
 40
5.346
  9
$DIMCEN
 40
2.673
  9
$DIMLFAC
 40
1.0
  9
$DIMBLK
  1
_FILLED
  9
$DIMTXT
 40
3.0
  9
$DIMTOL
 70
1
  9
$DIMLIM
 70
0
  9
$DIMTFAC
 40
1.0
  9
$DIMTP
 40
0.01
  9
$DIMTM
 40
0.01
  9
$PDMODE
 70
3
  9
$PDSIZE
 40
3.0
  9
$HANDSEED
  5
570
  9
$TILEMODE
 70
1
  9
$MEASUREMENT
 70
1
  9
$INSUNITS
 70
4
  0
ENDSEC
  0
SECTION
  2
CLASSES
  0
CLASS
  1
ACDBDICTIONARYWDFLT
  2
AcDbDictionaryWithDefault
  3
AutoCAD 2000
 90
0
280
0
281
0
  0
CLASS
  1
ACDBPLACEHOLDER
  2
AcDbPlaceHolder
  3
AutoCAD 2000
 90
0
280
0
281
0
  0
CLASS
  1
LAYOUT
  2
AcDbLayout
  3
AutoCAD 2000
 90
0
280
0
281
0
  0
ENDSEC
  0
SECTION
  2
TABLES
  0
TABLE
  2
VPORT
  5
8
100
AcDbSymbolTable
 70
2
  0
VPORT
  5
1F4
100
AcDbSymbolTableRecord
100
AcDbViewportTableRecord
  2
*ACTIVE
 70
0
 10
0.0
 20
0.0
 11
1.0
 21
1.0
 12
148.5
 22
105.0
 13
0.0
 23
0.0
 14
1.0
 24
1.0
 15
0.0
 25
0.0
 16
0.0
 26
0.0
 36
1.0
 17
0.0
 27
0.0
 37
0.0
 40
210.0
 41
1.4142857143
 42
50.0
 43
0.0
 44
0.0
 50
0.0
 51
0.0
 71
0
 72
100
 73
1
 74
1
 75
0
 76
0
 77
0
 78
0
  0
ENDTAB
  0
TABLE
  2
LTYPE
  5
5
100
AcDbSymbolTable
 70
6
  0
LTYPE
  5
14
100
AcDbSymbolTableRecord
100
AcDbLinetypeTableRecord
  2
BYBLOCK
 70
0
  3

 72
65
 73
0
 40
0.0
  0
LTYPE
  5
15
100
AcDbSymbolTableRecord
100
AcDbLinetypeTableRecord
  2
BYLAYER
 70
0
  3

 72
65
 73
0
 40
0.0
  0
LTYPE
  5
16
100
AcDbSymbolTableRecord
100
AcDbLinetypeTableRecord
  2
CONTINUOUS
 70
64
  3
Solid line
 72
65
 73
0
 40
0.0
  0
LTYPE
  5
1F5
100
AcDbSymbolTableRecord
100
AcDbLinetypeTableRecord
  2
CENTER
 70
64
  3
____ _ ____ _ ____ _ ____ _ ____ _ ____ _ ____
 72
65
 73
4
 40
0.6
 49
0.375
 74
0
 49
-0.075
 74
0
 49
0.075
 74
0
 49
-0.075
 74
0
  0
LTYPE
  5
1F6
100
AcDbSymbolTableRecord
100
AcDbLinetypeTableRecord
  2
HIDDEN
 70
64
  3
- - - - - - - - - - - - - - - - - - - -
 72
65
 73
2
 40
0.2
 49
0.1
 74
0
 49
-0.1
 74
0
  0
LTYPE
  5
1F7
100
AcDbSymbolTableRecord
100
AcDbLinetypeTableRecord
  2
PHANTOM
 70
64
  3
_____ _ _ _____ _ _ _____ _ _ _____
 72
65
 73
6
 40
0.8
 49
0.45
 74
0
 49
-0.05
 74
0
 49
0.1
 74
0
 49
-0.05
 74
0
 49
0.1
 74
0
 49
-0.05
 74
0
  0
LTYPE
  5
1F8
100
AcDbSymbolTableRecord
100
AcDbLinetypeTableRecord
  2
DOT
 70
64
  3
. . . . . . . . . . . . . . . . . . . .
 72
65
 73
2
 40
0.2
 49
0.1
 74
0
 49
-0.1
 74
0
  0
LTYPE
  5
1F9
100
AcDbSymbolTableRecord
100
AcDbLinetypeTableRecord
  2
DASHED
 70
64
  3
- - - - - - - - - - - - - - - - - - - -
 72
65
 73
2
 40
0.2
 49
0.1
 74
0
 49
-0.1
 74
0
  0
ENDTAB
  0
TABLE
  2
LAYER
  5
2
100
AcDbSymbolTable
 70
36
  0
LAYER
  5
10
100
AcDbSymbolTableRecord
100
AcDbLayerTableRecord
  2
0
 70
0
 62
7
  6
CONTINUOUS
370
-3
390
F
  0
LAYER
  5
1FA
100
AcDbSymbolTableRecord
100
AcDbLayerTableRecord
  2
DEFAULT_1
 70
0
 62
7
  6
CENTER
370
-3
390
F
  0
LAYER
  5
1FB
100
AcDbSymbolTableRecord
100
AcDbLayerTableRecord
  2
DEFAULT_2
 70
0
 62
7
  6
HIDDEN
370
-3
390
F
  0
LAYER
  5
1FC
100
AcDbSymbolTableRecord
100
AcDbLayerTableRecord
  2
DEFAULT_3
 70
0
 62
7
  6
PHANTOM
370
-3
390
F
  0
LAYER
  5
1FD
100
AcDbSymbolTableRecord
100
AcDbLayerTableRecord
  2
ASSI
 70
0
 62
7
  6
CONTINUOUS
370
-3
390
F
  0
LAYER
  5
1FE
100
AcDbSymbolTableRecord
100
AcDbLayerTableRecord
  2
COLOR17
 70
0
 62
7
  6
CONTINUOUS
370
-3
390
F
  0
LAYER
  5
1FF
100
AcDbSymbolTableRecord
100
AcDbLayerTableRecord
  2
COLOR3
 70
0
 62
7
  6
CONTINUOUS
370
-3
390
F
  0
LAYER
  5
200
100
AcDbSymbolTableRecord
100
AcDbLayerTableRecord
  2
COLOR5
 70
0
 62
7
  6
CONTINUOUS
370
-3
390
F
  0
LAYER
  5
201
100
AcDbSymbolTableRecord
100
AcDbLayerTableRecord
  2
COORDINATE
 70
0
 62
7
  6
CONTINUOUS
370
-3
390
F
  0
LAYER
  5
202
100
AcDbSymbolTableRecord
100
AcDbLayerTableRecord
  2
COORD_ORIGINE
 70
0
 62
7
  6
CONTINUOUS
370
-3
390
F
  0
LAYER
  5
203
100
AcDbSymbolTableRecord
100
AcDbLayerTableRecord
  2
COPY_PUBLISH
 70
0
 62
7
  6
CONTINUOUS
370
-3
390
F
  0
LAYER
  5
204
100
AcDbSymbolTableRecord
100
AcDbLayerTableRecord
  2
COSMETICI
 70
0
 62
7
  6
CONTINUOUS
370
-3
390
F
  0
LAYER
  5
205
100
AcDbSymbolTableRecord
100
AcDbLayerTableRecord
  2
CURVE
 70
0
 62
7
  6
CONTINUOUS
370
-3
390
F
  0
LAYER
  5
206
100
AcDbSymbolTableRecord
100
AcDbLayerTableRecord
  2
DRAFT
 70
0
 62
7
  6
CONTINUOUS
370
-3
390
F
  0
LAYER
  5
207
100
AcDbSymbolTableRecord
100
AcDbLayerTableRecord
  2
IGES
 70
0
 62
7
  6
CONTINUOUS
370
-3
390
F
  0
LAYER
  5
208
100
AcDbSymbolTableRecord
100
AcDbLayerTableRecord
  2
IMPORT_IGES
 70
0
 62
7
  6
CONTINUOUS
370
-3
390
F
  0
LAYER
  5
209
100
AcDbSymbolTableRecord
100
AcDbLayerTableRecord
  2
INC_LASER
 70
0
 62
7
  6
CONTINUOUS
370
-3
390
F
  0
LAYER
  5
20A
100
AcDbSymbolTableRecord
100
AcDbLayerTableRecord
  2
NOTE
 70
0
 62
7
  6
CONTINUOUS
370
-3
390
F
  0
LAYER
  5
20B
100
AcDbSymbolTableRecord
100
AcDbLayerTableRecord
  2
PIANI
 70
0
 62
7
  6
CONTINUOUS
370
-3
390
F
  0
LAYER
  5
20C
100
AcDbSymbolTableRecord
100
AcDbLayerTableRecord
  2
PIANI_AUSILIARI
 70
0
 62
7
  6
CONTINUOUS
370
-3
390
F
  0
LAYER
  5
20D
100
AcDbSymbolTableRecord
100
AcDbLayerTableRecord
  2
PIANI_ORIGINE
 70
0
 62
7
  6
CONTINUOUS
370
-3
390
F
  0
LAYER
  5
20E
100
AcDbSymbolTableRecord
100
AcDbLayerTableRecord
  2
PUNTI
 70
0
 62
7
  6
CONTINUOUS
370
-3
390
F
  0
LAYER
  5
20F
100
AcDbSymbolTableRecord
100
AcDbLayerTableRecord
  2
RACCORDO
 70
0
 62
7
  6
CONTINUOUS
370
-3
390
F
  0
LAYER
  5
210
100
AcDbSymbolTableRecord
100
AcDbLayerTableRecord
  2
SIMBOLI
 70
0
 62
7
  6
CONTINUOUS
370
-3
390
F
  0
LAYER
  5
211
100
AcDbSymbolTableRecord
100
AcDbLayerTableRecord
  2
SMUSSO
 70
0
 62
7
  6
CONTINUOUS
370
-3
390
F
  0
LAYER
  5
212
100
AcDbSymbolTableRecord
100
AcDbLayerTableRecord
  2
SNAPLINE
 70
0
 62
7
  6
CONTINUOUS
370
-3
390
F
  0
LAYER
  5
213
100
AcDbSymbolTableRecord
100
AcDbLayerTableRecord
  2
SUPERFICI
 70
0
 62
7
  6
CONTINUOUS
370
-3
390
F
  0
LAYER
  5
214
100
AcDbSymbolTableRecord
100
AcDbLayerTableRecord
  2
TRASH
 70
0
 62
7
  6
CONTINUOUS
370
-3
390
F
  0
LAYER
  5
215
100
AcDbSymbolTableRecord
100
AcDbLayerTableRecord
  2
XSEC_DATUMS
 70
0
 62
7
  6
CONTINUOUS
370
-3
390
F
  0
LAYER
  5
216
100
AcDbSymbolTableRecord
100
AcDbLayerTableRecord
  2
___SHELL
 70
0
 62
7
  6
CONTINUOUS
370
-3
390
F
  0
ENDTAB
  0
TABLE
  2
STYLE
  5
3
100
AcDbSymbolTable
 70
1
  0
STYLE
  5
11
100
AcDbSymbolTableRecord
100
AcDbTextStyleTableRecord
  2
STANDARD
 70
0
 40
0.0
 41
0.8
 50
0.0
 71
0
 42
0.2
  3
txt
  4

  0
STYLE
  5
217
100
AcDbSymbolTableRecord
100
AcDbTextStyleTableRecord
  2
TEXTSTYLE_1
 70
0
 40
0.0
 41
0.8
 50
0.0
 71
0
 42
0.2
  3
gdt
  4

  0
ENDTAB
  0
TABLE
  2
VIEW
  5
6
100
AcDbSymbolTable
 70
0
  0
ENDTAB
  0
TABLE
  2
UCS
  5
7
100
AcDbSymbolTable
 70
0
  0
ENDTAB
  0
TABLE
  2
APPID
  5
9
100
AcDbSymbolTable
 70
1
  0
APPID
  5
218
100
AcDbSymbolTableRecord
100
AcDbRegAppTableRecord
  2
ACAD
 70
0
  0
ENDTAB
  0
TABLE
  2
BLOCK_RECORD
  5
1
100
AcDbSymbolTable
 70
0
  0
BLOCK_RECORD
  5
219
100
AcDbSymbolTableRecord
100
AcDbBlockTableRecord
  2
*Model_Space
  0
BLOCK_RECORD
  5
21A
100
AcDbSymbolTableRecord
100
AcDbBlockTableRecord
  2
*Paper_Space
  0
ENDTAB
  0
TABLE
  2
DIMSTYLE
  5
A
100
AcDbSymbolTable
 70
1
100
AcDbDimStyleTable
 71
0
  0
DIMSTYLE
105
21B
100
AcDbSymbolTableRecord
100
AcDbDimStyleTableRecord
  2
STANDARD
 70
0
  3

  4

 40
1.0
 41
3.0
 42
0.0625
 43
0.38
 44
0.18
 45
0.0
 46
0.0
 47
0.01
 48
0.01
140
3.0
141
0.09
142
0.0
143
25.4
144
1.0
145
0.0
146
1.0
147
0.09
 71
1.0
 72
0.0
 73
0
 74
0
 75
0
 76
0
 77
1
 78
8
170
0
171
2
172
0
173
0
174
0
175
0
176
0
177
0
178
0
270
2
271
2
272
2
273
2
274
2
275
0
280
0
281
0
282
0
283
1
284
8
285
0
286
0
287
3
288
0
340
11
  0
ENDTAB
  0
ENDSEC
  0
SECTION
  2
BLOCKS
  0
BLOCK
  5
20
100
AcDbEntity
  8
0
100
AcDbBlockBegin
  2
*Model_Space
 70
0
 10
0.0
 20
0.0
 30
0.0
  3
*Model_Space
  1

  0
ENDBLK
  5
21
100
AcDbEntity
  8
0
100
AcDbBlockEnd
  0
BLOCK
  5
1C
100
AcDbEntity
  8
0
100
AcDbBlockBegin
  2
*Paper_Space
 70
0
 10
0.0
 20
0.0
 30
0.0
  3
*Paper_Space
  1

  0
ENDBLK
  5
1D
100
AcDbEntity
  8
0
100
AcDbBlockEnd
  0
ENDSEC
  0
SECTION
  2
ENTITIES
  0
LWPOLYLINE
  5
21C
100
AcDbEntity
  8
RACCORDO
100
AcDbPolyline
 62
253
  6
CONTINUOUS
 90
24
 70
0
 10
-39.4707451809
 20
23.2660308076
 10
-39.5267580409
 20
23.2212678517
 10
-39.5842385415
 20
23.1710605541
 10
-39.642873826
 20
23.1151512005
 10
-39.7023180299
 20
23.053308981
 10
-39.7613340156
 20
22.9863690605
 10
-39.8195616447
 20
22.9143659897
 10
-39.876620231
 20
22.8373723478
 10
-39.9313821547
 20
22.7566571188
 10
-39.9835416198
 20
22.6725318753
 10
-40.0328139439
 20
22.5852977969
 10
-40.0783469372
 20
22.4964820534
 10
-40.1200138919
 20
22.4065134575
 10
-40.1576989707
 20
22.3158194323
 10
-40.1908870011
 20
22.2260537177
 10
-40.219681238
 20
22.1376311993
 10
-40.2442003347
 20
22.0509272745
 10
-40.2643074123
 20
21.9675193345
 10
-40.2803331532
 20
21.887665761
 10
-40.2926097745
 20
21.8115700901
 10
-40.3013356403
 20
21.7405986285
 10
-40.3069640937
 20
21.6751925014
 10
-40.3100259984
 20
21.6149188082
 10
-40.3109654616
 20
21.5597124943
  0
LWPOLYLINE
  5
21D
100
AcDbEntity
  8
RACCORDO
100
AcDbPolyline
 62
253
  6
CONTINUOUS
 90
6
 70
0
 10
-36.5513951399
 20
26.2104925069
 10
-36.5899250648
 20
26.1883511789
 10
-36.6241901978
 20
26.1649501852
 10
-36.6541905388
 20
26.1402895259
 10
-36.6801163976
 20
26.1141601815
 10
-36.7017774645
 20
26.0867711714
  0
LWPOLYLINE
  5
21E
100
AcDbEntity
  8
RACCORDO
100
AcDbPolyline
 62
7
  6
CONTINUOUS
 90
12
 70
0
 10
-36.6665511538
 20
26.2158452159
 10
-36.7167491638
 20
26.1872323143
 10
-36.7699597817
 20
26.1512865257
 10
-36.8174998794
 20
26.1126532621
 10
-36.8594395467
 20
26.0714120179
 10
-36.8958240757
 20
26.0275836169
 10
-36.926559654
 20
25.9812057345
 10
-36.9513325682
 20
25.9326436526
 10
-36.9698123356
 20
25.8826754946
 10
-36.9819394464
 20
25.8318574639
 10
-36.9877308079
 20
25.7807512953
 10
-36.9882928094
 20
25.7594269935
  0
LINE
  5
21F
100
AcDbEntity
  8
RACCORDO
100
AcDbLine
 62
7
  6
CONTINUOUS
 10
-32.4317148996
 20
28.4453662929
 11
-36.6666239073
 21
26.2158242143
  0
LINE
  5
220
100
AcDbEntity
  8
RACCORDO
100
AcDbLine
 62
253
  6
CONTINUOUS
 10
-32.318113211
 20
28.4391779813
 11
-36.5513951399
 21
26.2104925069
  0
LINE
  5
221
100
AcDbEntity
  8
RACCORDO
100
AcDbLine
 62
7
  6
CONTINUOUS
 10
-32.4281889879
 20
28.4471308634
 11
-32.4316771481
 21
28.4453861679
  0
LINE
  5
222
100
AcDbEntity
  8
RACCORDO
100
AcDbLine
 62
7
  6
CONTINUOUS
 10
-32.4281449152
 20
28.4471517532
 11
-25.9531314157
 21
31.5191610744
  0
LINE
  5
223
100
AcDbEntity
  8
RACCORDO
100
AcDbLine
 62
253
  6
CONTINUOUS
 10
-32.318113211
 20
28.4391779813
 11
-25.8430688273
 21
31.5112019552
  0
LWPOLYLINE
  5
224
100
AcDbEntity
  8
RACCORDO
100
AcDbPolyline
 62
253
  6
CONTINUOUS
 90
32
 70
0
 10
-36.7017774645
 20
26.0867711714
 10
-36.7186028105
 20
26.0587495536
 10
-36.7304644141
 20
26.0300778505
 10
-36.7374902967
 20
26.0007735397
 10
-36.7394935934
 20
25.9715161111
 10
-36.736345039
 20
25.9423101872
 10
-36.7281738986
 20
25.9131511455
 10
-36.7151811034
 20
25.8847046094
 10
-36.6972615553
 20
25.8569965337
 10
-36.6745203524
 20
25.8300009636
 10
-36.6474737204
 20
25.8043056572
 10
-36.6160284902
 20
25.7799378245
 10
-36.5802778309
 20
25.7568702554
 10
-36.5410174758
 20
25.7356090785
 10
-36.4981735518
 20
25.7161942155
 10
-36.4518199321
 20
25.6985857447
 10
-36.4029739693
 20
25.6831700284
 10
-36.3515863098
 20
25.6699937817
 10
-36.2977063073
 20
25.6590102895
 10
-36.2424993757
 20
25.65046577
 10
-36.1859169786
 20
25.6444119779
 10
-36.1280076523
 20
25.6407971585
 10
-36.0700824205
 20
25.6397122647
 10
-36.0121310957
 20
25.6412215809
 10
-35.9541638653
 20
25.6452608227
 10
-35.8975223154
 20
25.6517280906
 10
-35.8422398159
 20
25.660688151
 10
-35.7882829968
 20
25.6720762374
 10
-35.7368933336
 20
25.6855961512
 10
-35.6884846518
 20
25.7011491594
 10
-35.6426431259
 20
25.718833995
 10
-35.599368756
 20
25.7386506579
  0
LWPOLYLINE
  5
225
100
AcDbEntity
  8
RACCORDO
100
AcDbPolyline
 62
253
  6
CONTINUOUS
 90
5
 70
0
 10
-39.2766789764
 20
23.3910892977
 10
-39.3203949297
 20
23.3668749587
 10
-39.3673538997
 20
23.3383263673
 10
-39.4174241077
 20
23.3049577555
 10
-39.4707451809
 20
23.2660308076
  0
LWPOLYLINE
  5
226
100
AcDbEntity
  8
RACCORDO
100
AcDbPolyline
 62
7
  6
CONTINUOUS
 90
19
 70
0
 10
-39.3918857959
 20
23.3964206694
 10
-39.4191118001
 20
23.3815459591
 10
-39.5153962408
 20
23.32196564
 10
-39.60906661
 20
23.2531664039
 10
-39.6997668639
 20
23.1756433775
 10
-39.7869526499
 20
23.0900590032
 10
-39.8698393504
 20
22.997381072
 10
-39.9478771765
 20
22.89850468
 10
-40.0207550002
 20
22.7940262441
 10
-40.0880589415
 20
22.6847224472
 10
-40.1493526248
 20
22.5714104654
 10
-40.2042910448
 20
22.4548395279
 10
-40.2525485553
 20
22.3357016416
 10
-40.2937771501
 20
22.2147879075
 10
-40.3276470286
 20
22.0929023881
 10
-40.3538783432
 20
21.970702502
 10
-40.3721717305
 20
21.8489074856
 10
-40.3822166486
 20
21.7283517418
 10
-40.384187947
 20
21.648039876
  0
LINE
  5
227
100
AcDbEntity
  8
RACCORDO
100
AcDbLine
 62
7
  6
CONTINUOUS
 10
-36.988294155
 20
24.6722939326
 11
-39.3920423806
 21
23.3963387528
  0
LINE
  5
228
100
AcDbEntity
  8
RACCORDO
100
AcDbLine
 62
253
  6
CONTINUOUS
 10
-36.9882146907
 20
24.6058495742
 11
-39.2766789764
 21
23.3910892977
  0
LINE
  5
229
100
AcDbEntity
  8
RACCORDO
100
AcDbLine
 62
7
  6
CONTINUOUS
 10
-26.7296883179
 20
28.6592787943
 11
-35.4229073158
 21
24.277343213
  0
LINE
  5
22A
100
AcDbEntity
  8
RACCORDO
100
AcDbLine
 62
253
  6
CONTINUOUS
 10
-35.599368756
 20
25.7386506579
 11
-31.2574543868
 21
27.9088485692
  0
LINE
  5
22B
100
AcDbEntity
  8
RACCORDO
100
AcDbLine
 62
253
  6
CONTINUOUS
 10
-35.4229073158
 20
25.4336103389
 11
-31.0822378408
 21
27.6031860209
  0
LINE
  5
22C
100
AcDbEntity
  8
RACCORDO
100
AcDbLine
 62
253
  6
CONTINUOUS
 10
-31.2574759269
 20
27.9088593393
 11
-24.8379774497
 21
31.0086562664
  0
LINE
  5
22D
100
AcDbEntity
  8
RACCORDO
100
AcDbLine
 62
253
  6
CONTINUOUS
 10
-31.0822378408
 20
27.6031860209
 11
-24.661183253
 21
30.7037343505
  0
LINE
  5
22E
100
AcDbEntity
  8
DRAFT
100
AcDbLine
 62
7
  6
CONTINUOUS
 10
-24.661183253
 20
29.6493348751
 11
-26.7296883179
 21
28.6592787943
  0
LWPOLYLINE
  5
22F
100
AcDbEntity
  8
RACCORDO
100
AcDbPolyline
 62
253
  6
CONTINUOUS
 90
13
 70
0
 10
-23.4060329174
 20
-22.9736459021
 10
-23.3817348897
 20
-22.9843159412
 10
-23.3548854838
 20
-22.993328467
 10
-23.3259339625
 20
-23.0005326759
 10
-23.2953647626
 20
-23.005808022
 10
-23.263689389
 20
-23.0090662345
 10
-23.231437856
 20
-23.0102527948
 10
-23.1991498183
 20
-23.0093478486
 10
-23.1673655417
 20
-23.0063665381
 10
-23.1366168627
 20
-23.0013587486
 10
-23.1074182893
 20
-22.9944082738
 10
-23.0802583922
 20
-22.9856314139
 10
-23.0555916295
 20
-22.9751750295
  0
LWPOLYLINE
  5
230
100
AcDbEntity
  8
RACCORDO
100
AcDbPolyline
 62
253
  6
CONTINUOUS
 90
25
 70
0
 10
-26.9441070603
 20
-20.6288611129
 10
-26.9301804789
 20
-20.6352573605
 10
-26.9164176175
 20
-20.6404826438
 10
-26.902818476
 20
-20.644536963
 10
-26.8893227695
 20
-20.6474298844
 10
-26.875990783
 20
-20.6491518417
 10
-26.8630033709
 20
-20.6496741351
 10
-26.850367305
 20
-20.6489791198
 10
-26.8380758135
 20
-20.6470844407
 10
-26.8262894361
 20
-20.6440143333
 10
-26.8150164276
 20
-20.6397538421
 10
-26.8042485331
 20
-20.6343179225
 10
-26.7941215274
 20
-20.6277756769
 10
-26.7846431284
 20
-20.6201133164
 10
-26.7758056182
 20
-20.6113446298
 10
-26.7677216176
 20
-20.6015800861
 10
-26.7604001327
 20
-20.5908050939
 10
-26.7538321575
 20
-20.5790342446
 10
-26.7481032948
 20
-20.5664217818
 10
-26.7432253256
 20
-20.5529547532
 10
-26.7391864689
 20
-20.5386461111
 10
-26.7360369847
 20
-20.5236889556
 10
-26.733793626
 20
-20.5081476535
 10
-26.7324396398
 20
-20.4919578379
 10
-26.7319750259
 20
-20.475119509
  0
LWPOLYLINE
  5
231
100
AcDbEntity
  8
RACCORDO
100
AcDbPolyline
 62
7
  6
CONTINUOUS
 90
12
 70
0
 10
-23.0120133353
 20
-23.7870362744
 10
-22.9654190614
 20
-23.8084683901
 10
-22.8945960165
 20
-23.833962377
 10
-22.8201779289
 20
-23.8525057362
 10
-22.7427064383
 20
-23.8637410587
 10
-22.6629437498
 20
-23.8674018459
 10
-22.581366603
 20
-23.8633718305
 10
-22.4983411079
 20
-23.8515997183
 10
-22.4143833066
 20
-23.8320781471
 10
-22.3298787388
 20
-23.8048429359
 10
-22.2451275658
 20
-23.7699180914
 10
-22.2329863653
 20
-23.7642878248
  0
LINE
  5
232
100
AcDbEntity
  8
RACCORDO
100
AcDbLine
 62
7
  6
CONTINUOUS
 10
-23.0105147387
 20
-23.7877958028
 11
-39.9268041212
 21
-15.3296511115
  0
LINE
  5
233
100
AcDbEntity
  8
RACCORDO
100
AcDbLine
 62
253
  6
CONTINUOUS
 10
-23.4060329174
 20
-22.9736459021
 11
-40.3109654616
 21
-14.52117963
  0
LINE
  5
234
100
AcDbEntity
  8
RACCORDO
100
AcDbLine
 62
7
  6
CONTINUOUS
 10
-38.0051796512
 20
-15.3859738628
 11
-26.7621818217
 21
-21.0074727775
  0
LINE
  5
235
100
AcDbEntity
  8
RACCORDO
100
AcDbLine
 62
253
  6
CONTINUOUS
 10
-26.20164494
 20
-21.1247853479
 11
-26.2617814487
 21
-21.0947170935
  0
LINE
  5
236
100
AcDbEntity
  8
RACCORDO
100
AcDbLine
 62
253
  6
CONTINUOUS
 10
-38.1871048811
 20
-15.0073622025
 11
-26.9441070603
 21
-20.6288611129
  0
LINE
  5
237
100
AcDbEntity
  8
RACCORDO
100
AcDbLine
 62
253
  6
CONTINUOUS
 10
-39.9342548699
 20
-15.325854033
 11
-39.9273157714
 21
-15.3293949402
  0
LWPOLYLINE
  5
238
100
AcDbEntity
  8
RACCORDO
100
AcDbPolyline
 62
253
  6
CONTINUOUS
 90
17
 70
0
 10
-23.0120202534
 20
-23.7870403363
 10
-23.0181576457
 20
-23.7839034604
 10
-23.0717110439
 20
-23.7523781723
 10
-23.1222568408
 20
-23.7148423017
 10
-23.1689155198
 20
-23.6719665975
 10
-23.211561073
 20
-23.6240586739
 10
-23.2500920492
 20
-23.5714433932
 10
-23.283988007
 20
-23.5152644324
 10
-23.3133521928
 20
-23.456043359
 10
-23.3383205976
 20
-23.3942820731
 10
-23.3587766111
 20
-23.3314291206
 10
-23.37505138
 20
-23.2680689054
 10
-23.3874892942
 20
-23.2047423939
 10
-23.3963244767
 20
-23.1430335427
 10
-23.4020242198
 20
-23.0838411275
 10
-23.4051118154
 20
-23.0272533143
 10
-23.4060329174
 20
-22.9736459021
  0
LWPOLYLINE
  5
239
100
AcDbEntity
  8
RACCORDO
100
AcDbPolyline
 62
7
  6
CONTINUOUS
 90
19
 70
0
 10
-38.0051796512
 20
-15.3859738628
 10
-38.0612529646
 20
-15.3555430946
 10
-38.1160962906
 20
-15.3208766095
 10
-38.1695581089
 20
-15.2819430146
 10
-38.2220024312
 20
-15.2382280452
 10
-38.272657231
 20
-15.1900761339
 10
-38.3199618016
 20
-15.1389733682
 10
-38.3638677144
 20
-15.0852145974
 10
-38.4046436143
 20
-15.0286087541
 10
-38.4416453018
 20
-14.9702208655
 10
-38.4749384644
 20
-14.9102256397
 10
-38.5046972716
 20
-14.8484504377
 10
-38.5306329116
 20
-14.7856036755
 10
-38.5528201965
 20
-14.7216078663
 10
-38.571230164
 20
-14.656446082
 10
-38.5855957641
 20
-14.5910161789
 10
-38.5958902372
 20
-14.525621733
 10
-38.6021461686
 20
-14.4599424873
 10
-38.6042621687
 20
-14.3940012041
  0
LWPOLYLINE
  5
23A
100
AcDbEntity
  8
RACCORDO
100
AcDbPolyline
 62
253
  6
CONTINUOUS
 90
10
 70
0
 10
-38.3992369155
 20
-14.6414885642
 10
-38.4404931474
 20
-14.6189769347
 10
-38.4776683798
 20
-14.5947531048
 10
-38.5104796829
 20
-14.5690014292
 10
-38.5386773387
 20
-14.5419178911
 10
-38.5620467409
 20
-14.5137086102
 10
-38.5804100286
 20
-14.4845882739
 10
-38.5936274404
 20
-14.454778504
 10
-38.6015983772
 20
-14.4245061698
 10
-38.6042621687
 20
-14.3940016624
  0
LWPOLYLINE
  5
23B
100
AcDbEntity
  8
RACCORDO
100
AcDbPolyline
 62
253
  6
CONTINUOUS
 90
7
 70
0
 10
-40.3109654616
 20
-14.52117963
 10
-40.3323055781
 20
-14.5090305912
 10
-40.3503306502
 20
-14.4956058626
 10
-40.364739072
 20
-14.4811300776
 10
-40.3752897545
 20
-14.4658454555
 10
-40.3818061583
 20
-14.4500077511
 10
-40.3841887664
 20
-14.4327912814
  0
LWPOLYLINE
  5
23C
100
AcDbEntity
  8
RACCORDO
100
AcDbPolyline
 62
253
  6
CONTINUOUS
 90
3
 70
0
 10
-38.0421301343
 20
-15.3635355341
 10
-38.0102937687
 20
-15.38334641
 10
-38.0051796512
 20
-15.3859738628
  0
LINE
  5
23D
100
AcDbEntity
  8
0
100
AcDbLine
 62
7
  6
CONTINUOUS
 10
-28.8179400304
 20
26.6941943491
 11
-28.4543718978
 21
26.8759784154
  0
LINE
  5
23E
100
AcDbEntity
  8
0
100
AcDbLine
 62
7
  6
CONTINUOUS
 10
-23.797481884
 20
27.8426946302
 11
-23.7267712059
 21
27.8780499693
  0
LINE
  5
23F
100
AcDbEntity
  8
DRAFT
100
AcDbLine
 62
7
  6
CONTINUOUS
 10
-21.7468722185
 20
28.1921793579
 11
-22.2244408396
 21
27.9595203268
  0
LWPOLYLINE
  5
240
100
AcDbEntity
  8
0
100
AcDbPolyline
 62
7
  6
CONTINUOUS
 90
10
 70
0
 10
-28.4543718978
 20
26.8759784154
 10
-28.4370625965
 20
26.8842600317
 10
-28.41981628
 20
26.8917762152
 10
-28.4026329482
 20
26.8985269658
 10
-28.3854918362
 20
26.9045186381
 10
-28.368413709
 20
26.9097448775
 10
-28.3514608613
 20
26.9141866207
 10
-28.3346540578
 20
26.9178375132
 10
-28.3179725338
 20
26.9207039095
 10
-28.3014162893
 20
26.9227858096
  0
LWPOLYLINE
  5
241
100
AcDbEntity
  8
RACCORDO
100
AcDbPolyline
 62
253
  6
CONTINUOUS
 90
19
 70
0
 10
-26.7319750259
 20
-20.475119509
 10
-26.6869516059
 20
-20.4957476907
 10
-26.6385037845
 20
-20.5143353511
 10
-26.5870002791
 20
-20.5307410269
 10
-26.5328330623
 20
-20.544839861
 10
-26.4764143794
 20
-20.5565245528
 10
-26.4181736107
 20
-20.5657061748
 10
-26.3585540035
 20
-20.5723148491
 10
-26.298009299
 20
-20.5763002799
 10
-26.2370002791
 20
-20.5776321356
 10
-26.1759912592
 20
-20.5763002799
 10
-26.1154465547
 20
-20.5723148491
 10
-26.0558269475
 20
-20.5657061748
 10
-25.9975861788
 20
-20.5565245528
 10
-25.9411674959
 20
-20.544839861
 10
-25.8870002791
 20
-20.5307410269
 10
-25.8354967736
 20
-20.5143353511
 10
-25.7870489523
 20
-20.4957476907
 10
-25.7420255323
 20
-20.475119509
  0
LWPOLYLINE
  5
242
100
AcDbEntity
  8
RACCORDO
100
AcDbPolyline
 62
253
  6
CONTINUOUS
 90
7
 70
0
 10
-25.3457064246
 20
-20.5044482986
 10
-25.3628671604
 20
-20.4946714372
 10
-25.3773445317
 20
-20.4838635174
 10
-25.3888935682
 20
-20.4722074197
 10
-25.3973188496
 20
-20.4599003771
 10
-25.402477813
 20
-20.4471506365
 10
-25.4042850684
 20
-20.4337376205
  0
LWPOLYLINE
  5
243
100
AcDbEntity
  8
RACCORDO
100
AcDbPolyline
 62
7
  6
CONTINUOUS
 90
11
 70
0
 10
-40.3837316034
 20
-14.4708052303
 10
-40.376262136
 20
-14.588293333
 10
-40.3597290792
 20
-14.7004307468
 10
-40.3341967954
 20
-14.8067947097
 10
-40.2998160628
 20
-14.9066356542
 10
-40.2569442598
 20
-14.9989288709
 10
-40.2060110219
 20
-15.0830135829
 10
-40.1473177623
 20
-15.158508303
 10
-40.0813800693
 20
-15.2248433826
 10
-40.0088371115
 20
-15.2814472671
 10
-39.9273085117
 20
-15.3293911053
  0
LWPOLYLINE
  5
244
100
AcDbEntity
  8
RACCORDO
100
AcDbPolyline
 62
253
  6
CONTINUOUS
 90
15
 70
0
 10
-40.3109654616
 20
-14.52117963
 10
-40.3100449085
 20
-14.5748907036
 10
-40.3070402239
 20
-14.6315128878
 10
-40.3015074486
 20
-14.690670785
 10
-40.2929156139
 20
-14.7522800476
 10
-40.2808096918
 20
-14.8154401274
 10
-40.2649868936
 20
-14.8785591935
 10
-40.2451116185
 20
-14.9410945472
 10
-40.2208481707
 20
-15.0024670265
 10
-40.1923229941
 20
-15.0612299118
 10
-40.1594095173
 20
-15.1168790354
 10
-40.1219976333
 20
-15.1688989106
 10
-40.0805913256
 20
-15.2161585892
 10
-40.0352995072
 20
-15.258330669
 10
-39.9862409569
 20
-15.2951123173
  0
LINE
  5
245
100
AcDbEntity
  8
RACCORDO
100
AcDbLine
 62
7
  6
CONTINUOUS
 10
-40.3841878969
 20
-14.432701401
 11
-40.3837316034
 21
-14.4708052303
  0
LINE
  5
246
100
AcDbEntity
  8
RACCORDO
100
AcDbLine
 62
7
  6
CONTINUOUS
 10
-40.3841887664
 20
21.648100842
 11
-40.3841887664
 21
-14.4327912821
  0
LINE
  5
247
100
AcDbEntity
  8
RACCORDO
100
AcDbLine
 62
7
  6
CONTINUOUS
 10
-40.3841887664
 20
-14.4327912814
 11
-40.3841887017
 21
-14.4327014008
  0
LINE
  5
248
100
AcDbEntity
  8
DRAFT
100
AcDbLine
 62
7
  6
CONTINUOUS
 10
-23.6806430216
 20
25.6463924606
 11
-24.3846795904
 21
25.2790666052
  0
LINE
  5
249
100
AcDbEntity
  8
DRAFT
100
AcDbLine
 62
7
  6
CONTINUOUS
 10
-27.6388852767
 20
23.581208936
 11
-28.0417199824
 21
23.3710329175
  0
LINE
  5
24A
100
AcDbEntity
  8
DRAFT
100
AcDbLine
 62
7
  6
CONTINUOUS
 10
-22.2239515659
 20
27.0559294712
 11
-22.1538579706
 21
27.0915933516
  0
LWPOLYLINE
  5
24B
100
AcDbEntity
  8
RACCORDO
100
AcDbPolyline
 62
253
  6
CONTINUOUS
 90
8
 70
0
 10
-37.515353439
 20
-7.309140658
 10
-37.5141569465
 20
-7.3310253247
 10
-37.5105877149
 20
-7.3513431895
 10
-37.5047061389
 20
-7.3697504544
 10
-37.4966117405
 20
-7.385935651
 10
-37.4864414846
 20
-7.3996249102
 10
-37.4743674618
 20
-7.4105865966
 10
-37.4633748019
 20
-7.4173154181
  0
LWPOLYLINE
  5
24C
100
AcDbEntity
  8
RACCORDO
100
AcDbPolyline
 62
253
  6
CONTINUOUS
 90
10
 70
0
 10
-38.1871048811
 20
-15.0073622025
 10
-38.1852213528
 20
-15.0592557994
 10
-38.1795851025
 20
-15.1088709264
 10
-38.1702390256
 20
-15.1558299824
 10
-38.1572542514
 20
-15.1997755805
 10
-38.1407296017
 20
-15.2403732683
 10
-38.1207908393
 20
-15.2773140729
 10
-38.09758971
 20
-15.3103168524
 10
-38.0713027886
 20
-15.3391304357
 10
-38.0421301343
 20
-15.3635355341
  0
LWPOLYLINE
  5
24D
100
AcDbEntity
  8
RACCORDO
100
AcDbPolyline
 62
253
  6
CONTINUOUS
 90
25
 70
0
 10
-38.3992369155
 20
-14.6414885642
 10
-38.3987739267
 20
-14.6587765676
 10
-38.3974216881
 20
-14.6763086809
 10
-38.3951801995
 20
-14.694084904
 10
-38.3920326609
 20
-14.7121874706
 10
-38.3879958724
 20
-14.730534147
 10
-38.3831202344
 20
-14.7488782323
 10
-38.3773941045
 20
-14.7672172542
 10
-38.3708291251
 20
-14.7855536851
 10
-38.3635106244
 20
-14.8036482407
 10
-38.3554297615
 20
-14.8214952316
 10
-38.3465953772
 20
-14.8391003472
 10
-38.3371193233
 20
-14.8562413725
 10
-38.3269934919
 20
-14.8729129087
 10
-38.3162259909
 20
-14.8891203546
 10
-38.3049529949
 20
-14.9046576907
 10
-38.2931662669
 20
-14.9195180058
 10
-38.2808740441
 20
-14.9337082112
 10
-38.2682372129
 20
-14.947043022
 10
-38.2552500076
 20
-14.9595108924
 10
-38.2419181939
 20
-14.9711233682
 10
-38.228419956
 20
-14.9817298019
 10
-38.2148146886
 20
-14.9912799776
 10
-38.201042997
 20
-14.9998241111
 10
-38.1871048811
 20
-15.0073622025
  0
LINE
  5
24E
100
AcDbEntity
  8
RACCORDO
100
AcDbLine
 62
253
  6
CONTINUOUS
 10
-40.3109654616
 20
21.5597124943
 11
-40.3109654616
 21
-14.52117963
  0
LINE
  5
24F
100
AcDbEntity
  8
RACCORDO
100
AcDbLine
 62
7
  6
CONTINUOUS
 10
-38.6042621687
 20
-8.4184259047
 11
-38.6042621687
 21
-14.3940012018
  0
LINE
  5
250
100
AcDbEntity
  8
RACCORDO
100
AcDbLine
 62
253
  6
CONTINUOUS
 10
-38.3992369155
 20
-8.6659132781
 11
-38.3992369155
 21
-14.6414885642
  0
LWPOLYLINE
  5
251
100
AcDbEntity
  8
RACCORDO
100
AcDbPolyline
 62
7
  6
CONTINUOUS
 90
16
 70
0
 10
-38.6042621687
 20
-8.4184259047
 10
-38.6017497702
 20
-8.3473355672
 10
-38.5943379537
 20
-8.2781390218
 10
-38.5822283997
 20
-8.2111053618
 10
-38.5656754148
 20
-8.1465929607
 10
-38.5448897524
 20
-8.0846772166
 10
-38.5199867971
 20
-8.0252757694
 10
-38.4912569028
 20
-7.9687661558
 10
-38.458924398
 20
-7.915288445
 10
-38.4229041713
 20
-7.8645694869
 10
-38.3833906877
 20
-7.8168667544
 10
-38.3406663145
 20
-7.7724817819
 10
-38.2946645459
 20
-7.7313553091
 10
-38.2455204137
 20
-7.6936894325
 10
-38.1936385442
 20
-7.6598506185
 10
-38.1393437298
 20
-7.6300647308
  0
LWPOLYLINE
  5
252
100
AcDbEntity
  8
ASSI
100
AcDbPolyline
 62
7
  6
CONTINUOUS
 90
6
 70
0
 10
-20.6416386579
 20
27.2265122866
 10
-20.625207426
 20
27.2379717997
 10
-20.6125631355
 20
27.2465976844
 10
-20.6039649416
 20
27.2522940042
 10
-20.5997555682
 20
27.2550304323
 10
-20.5993508537
 20
27.2552813354
  0
LWPOLYLINE
  5
253
100
AcDbEntity
  8
ASSI
100
AcDbPolyline
 62
7
  6
CONTINUOUS
 90
20
 70
0
 10
-22.2742892364
 20
24.0239639971
 10
-22.2603756302
 20
24.0287084928
 10
-22.2280449091
 20
24.0380295947
 10
-22.1942320597
 20
24.0461712998
 10
-22.1594991229
 20
24.0529982756
 10
-22.1238307199
 20
24.0584885469
 10
-22.0872422296
 20
24.062664089
 10
-22.05034183
 20
24.0654554955
 10
-22.0131243077
 20
24.066839631
 10
-21.9755948762
 20
24.066839631
 10
-21.9383773539
 20
24.0654554955
 10
-21.9014769543
 20
24.062664089
 10
-21.864888464
 20
24.0584885469
 10
-21.829220061
 20
24.0529982756
 10
-21.7944871243
 20
24.0461712998
 10
-21.7606742748
 20
24.0380295947
 10
-21.7283435537
 20
24.0287084928
 10
-21.6976823079
 20
24.0182531049
 10
-21.6685031905
 20
24.00661832
 10
-21.6408062014
 20
23.9938041383
  0
LINE
  5
254
100
AcDbEntity
  8
DRAFT
100
AcDbLine
 62
7
  6
CONTINUOUS
 10
-14.9586471192
 20
-16.1806093217
 11
-8.7057694415
 21
-15.7799543517
  0
LINE
  5
255
100
AcDbEntity
  8
DRAFT
100
AcDbLine
 62
7
  6
CONTINUOUS
 10
-14.9586471192
 20
-15.8687229203
 11
-9.1270495869
 21
-15.569314279
  0
LWPOLYLINE
  5
256
100
AcDbEntity
  8
RACCORDO
100
AcDbPolyline
 62
253
  6
CONTINUOUS
 90
19
 70
0
 10
-26.7319750259
 20
-14.4995442229
 10
-26.6869517625
 20
-14.5201723366
 10
-26.6385040986
 20
-14.5387599507
 10
-26.5870007439
 20
-14.5551656005
 10
-26.5328336647
 20
-14.5692644269
 10
-26.4764151002
 20
-14.5809491267
 10
-26.4181744258
 20
-14.5901307696
 10
-26.3585548845
 20
-14.5967394748
 10
-26.2980102154
 20
-14.6007249428
 10
-26.2370012003
 20
-14.6020568384
 10
-26.175992154
 20
-14.6007250221
 10
-26.1154473933
 20
-14.5967396266
 10
-26.055827705
 20
-14.5901309805
 10
-25.9975868328
 20
-14.5809493772
 10
-25.9411680282
 20
-14.5692646918
 10
-25.88700068
 20
-14.5551658508
 10
-25.8354970393
 20
-14.5387601541
 10
-25.7870490826
 20
-14.5201724574
 10
-25.7420255323
 20
-14.4995442234
  0
LWPOLYLINE
  5
257
100
AcDbEntity
  8
RACCORDO
100
AcDbPolyline
 62
253
  6
CONTINUOUS
 90
25
 70
0
 10
-38.1871048811
 20
-8.5121716741
 10
-38.2010314625
 20
-8.5057754266
 10
-38.2147943239
 20
-8.5005501432
 10
-38.2283934654
 20
-8.4964958241
 10
-38.2418891719
 20
-8.4936029026
 10
-38.2552211584
 20
-8.4918809454
 10
-38.2682085705
 20
-8.4913586519
 10
-38.2808446364
 20
-8.4920536672
 10
-38.2931361279
 20
-8.4939483463
 10
-38.3049225054
 20
-8.4970184537
 10
-38.3161955139
 20
-8.501278945
 10
-38.3269634083
 20
-8.5067148645
 10
-38.337090414
 20
-8.5132571101
 10
-38.346568813
 20
-8.5209194707
 10
-38.3554063232
 20
-8.5296881573
 10
-38.3634903238
 20
-8.5394527009
 10
-38.3708118087
 20
-8.5502276932
 10
-38.3773797839
 20
-8.5619985424
 10
-38.3831086466
 20
-8.5746110052
 10
-38.3879866158
 20
-8.5880780338
 10
-38.3920254725
 20
-8.6023866759
 10
-38.3951749568
 20
-8.6173438314
 10
-38.3974183154
 20
-8.6328851336
 10
-38.3987723016
 20
-8.6490749491
 10
-38.3992369155
 20
-8.6659132781
  0
LINE
  5
258
100
AcDbEntity
  8
RACCORDO
100
AcDbLine
 62
253
  6
CONTINUOUS
 10
-26.9441070603
 20
-14.1336705845
 11
-38.1871048811
 21
-8.5121716741
  0
LINE
  5
259
100
AcDbEntity
  8
RACCORDO
100
AcDbLine
 62
253
  6
CONTINUOUS
 10
-26.4491323134
 20
-13.2799654285
 11
-37.6921301343
 21
-7.6584665181
  0
LWPOLYLINE
  5
25A
100
AcDbEntity
  8
RACCORDO
100
AcDbPolyline
 62
253
  6
CONTINUOUS
 90
10
 70
0
 10
-38.3992369155
 20
-8.6659132781
 10
-38.4404932788
 20
-8.643401568
 10
-38.4776685997
 20
-8.6191776574
 10
-38.5104799513
 20
-8.5934259047
 10
-38.5386776196
 20
-8.5663422963
 10
-38.5620470032
 20
-8.5381329548
 10
-38.5804102471
 20
-8.5090125704
 10
-38.5936275958
 20
-8.4792027668
 10
-38.6015984573
 20
-8.4489304146
 10
-38.6042621687
 20
-8.4184259047
  0
LWPOLYLINE
  5
25B
100
AcDbEntity
  8
RACCORDO
100
AcDbPolyline
 62
253
  6
CONTINUOUS
 90
7
 70
0
 10
-25.3457064246
 20
-14.4422704721
 10
-25.3628671537
 20
-14.4324936151
 10
-25.3773445219
 20
-14.4216856994
 10
-25.3888935581
 20
-14.4100296053
 10
-25.3973188417
 20
-14.3977225651
 10
-25.4024778087
 20
-14.3849728257
 10
-25.4042850684
 20
-14.371559794
  0
LWPOLYLINE
  5
25C
100
AcDbEntity
  8
RACCORDO
100
AcDbPolyline
 62
253
  6
CONTINUOUS
 90
29
 70
0
 10
-36.988294155
 20
25.7589897259
 10
-36.9882394089
 20
25.753940376
 10
-36.9839121728
 20
25.7138746312
 10
-36.972703455
 20
25.6741722294
 10
-36.9547129027
 20
25.6351578847
 10
-36.9301001861
 20
25.5971353086
 10
-36.8990585834
 20
25.5603708533
 10
-36.8618150137
 20
25.5251220213
 10
-36.8186489123
 20
25.4916482712
 10
-36.7698897515
 20
25.460199748
 10
-36.7158920873
 20
25.4310034164
 10
-36.6570590746
 20
25.4042775511
 10
-36.5938302366
 20
25.3802210661
 10
-36.526661675
 20
25.3590080996
 10
-36.4560584781
 20
25.3408014625
 10
-36.3825405992
 20
25.3257374251
 10
-36.306618938
 20
25.3139238428
 10
-36.2288330235
 20
25.3054556129
 10
-36.1497861142
 20
25.300408179
 10
-36.0701056792
 20
25.298823422
 10
-35.9903750921
 20
25.3007187412
 10
-35.9112088847
 20
25.3060843936
 10
-35.833281278
 20
25.3148677573
 10
-35.7572081553
 20
25.3269913778
 10
-35.6835190643
 20
25.3423620201
 10
-35.6127351106
 20
25.3608594786
 10
-35.5453737173
 20
25.3823443419
 10
-35.4819417507
 20
25.4066554073
 10
-35.4229073158
 20
25.4336103389
  0
LINE
  5
25D
100
AcDbEntity
  8
RACCORDO
100
AcDbLine
 62
7
  6
CONTINUOUS
 10
-36.988294155
 20
24.5997350138
 11
-36.988294155
 21
25.7589941283
  0
LINE
  5
25E
100
AcDbEntity
  8
RACCORDO
100
AcDbLine
 62
253
  6
CONTINUOUS
 10
-36.7790756089
 20
-1.4585466658
 11
-36.7790756089
 21
6.2642277831
  0
LINE
  5
25F
100
AcDbEntity
  8
RACCORDO
100
AcDbLine
 62
253
  6
CONTINUOUS
 10
-36.0750675862
 20
-1.0270863687
 11
-36.0750675862
 21
5.706760168
  0
LWPOLYLINE
  5
260
100
AcDbEntity
  8
RACCORDO
100
AcDbPolyline
 62
253
  6
CONTINUOUS
 90
19
 70
0
 10
-38.1871048811
 20
-8.5121716741
 10
-38.1852213672
 20
-8.4583947306
 10
-38.1795851531
 20
-8.4031435203
 10
-38.1702391288
 20
-8.3468385344
 10
-38.1572544183
 20
-8.2899082845
 10
-38.1407298382
 20
-8.2327860419
 10
-38.1207911457
 20
-8.17590654
 10
-38.0975900815
 20
-8.119702665
 10
-38.0713032156
 20
-8.0646021632
 10
-38.0421306039
 20
-8.0110243857
 10
-38.0102942641
 20
-7.9593770931
 10
-37.9760364874
 20
-7.9100533558
 10
-37.9396179958
 20
-7.8634285632
 10
-37.9013159545
 20
-7.8198575615
 10
-37.8614218644
 20
-7.7796719568
 10
-37.8202393465
 20
-7.7431775933
 10
-37.7780818261
 20
-7.7106522199
 10
-37.7352701473
 20
-7.6823433776
 10
-37.6921301339
 20
-7.6584665183
  0
LWPOLYLINE
  5
261
100
AcDbEntity
  8
RACCORDO
100
AcDbPolyline
 62
253
  6
CONTINUOUS
 90
36
 70
0
 10
-38.3639125573
 20
-7.7966315534
 10
-38.3599325006
 20
-7.7646638502
 10
-38.3541469523
 20
-7.7292848849
 10
-38.3468984124
 20
-7.693503169
 10
-38.3382244431
 20
-7.6573628406
 10
-38.3278910808
 20
-7.6216055676
 10
-38.3158526718
 20
-7.5862494286
 10
-38.3021548698
 20
-7.5512763451
 10
-38.2867006712
 20
-7.5173737496
 10
-38.2694364455
 20
-7.48457023
 10
-38.2504158233
 20
-7.4528371985
 10
-38.229702693
 20
-7.4227763241
 10
-38.2072456111
 20
-7.3944386746
 10
-38.1830960212
 20
-7.3677731822
 10
-38.1574721427
 20
-7.3432283128
 10
-38.1303261907
 20
-7.3208676767
 10
-38.1017059503
 20
-7.3006276635
 10
-38.0719729959
 20
-7.2827659085
 10
-38.041082684
 20
-7.2673564702
 10
-38.0090796582
 20
-7.2543252901
 10
-37.9764594235
 20
-7.2437078285
 10
-37.9431974495
 20
-7.2355872106
 10
-37.9093182666
 20
-7.2298803112
 10
-37.8753909709
 20
-7.2263732154
 10
-37.8414170301
 20
-7.2251400659
 10
-37.8073949765
 20
-7.22610672
 10
-37.7738895038
 20
-7.228836835
 10
-37.7408806354
 20
-7.2333977326
 10
-37.7083883479
 20
-7.2397220911
 10
-37.6770372646
 20
-7.2471716024
 10
-37.6469908472
 20
-7.2557216308
 10
-37.618085634
 20
-7.265396812
 10
-37.5904558628
 20
-7.2756327454
 10
-37.5641462795
 20
-7.2862412974
 10
-37.5391121383
 20
-7.2974106016
 10
-37.515353439
 20
-7.309140658
  0
LINE
  5
262
100
AcDbEntity
  8
DRAFT
100
AcDbLine
 62
7
  6
CONTINUOUS
 10
-18.9711004098
 20
22.4021489918
 11
-20.5447906905
 21
21.6089089461
  0
LINE
  5
263
100
AcDbEntity
  8
DRAFT
100
AcDbLine
 62
7
  6
CONTINUOUS
 10
-20.9554114944
 20
21.4019299305
 11
-22.5230922665
 21
20.6117190595
  0
LINE
  5
264
100
AcDbEntity
  8
RACCORDO
100
AcDbLine
 62
253
  6
CONTINUOUS
 10
-22.4299180686
 20
21.9810739543
 11
-22.2718088053
 21
22.060128586
  0
LINE
  5
265
100
AcDbEntity
  8
0
100
AcDbLine
 62
7
  6
CONTINUOUS
 10
-20.3326586562
 20
22.451553662
 11
-19.9690905236
 21
22.6333377283
  0
LINE
  5
266
100
AcDbEntity
  8
0
100
AcDbLine
 62
7
  6
CONTINUOUS
 10
-20.3326586562
 20
22.1051435005
 11
-19.9690905236
 21
22.2869275668
  0
LINE
  5
267
100
AcDbEntity
  8
0
100
AcDbLine
 62
253
  6
CONTINUOUS
 10
-20.5447906905
 20
21.7392698622
 11
-20.827633403
 21
21.597848506
  0
LINE
  5
268
100
AcDbEntity
  8
0
100
AcDbLine
 62
7
  6
CONTINUOUS
 10
-20.5447906905
 20
21.4794622411
 11
-20.827633403
 21
21.3380408848
  0
LINE
  5
269
100
AcDbEntity
  8
DRAFT
100
AcDbLine
 62
7
  6
CONTINUOUS
 10
-16.6028881153
 20
24.2453977459
 11
-16.5315603545
 21
24.2804445436
  0
LWPOLYLINE
  5
26A
100
AcDbEntity
  8
0
100
AcDbPolyline
 62
7
  6
CONTINUOUS
 90
10
 70
0
 10
-19.9690905236
 20
22.6333377283
 10
-19.9517812223
 20
22.6416193446
 10
-19.9345349057
 20
22.6491355281
 10
-19.9173515739
 20
22.6558862787
 10
-19.900210462
 20
22.661877951
 10
-19.8831323348
 20
22.6671041904
 10
-19.866179487
 20
22.6715459336
 10
-19.8493726836
 20
22.6751968261
 10
-19.8326911596
 20
22.6780632224
 10
-19.816134915
 20
22.6801451224
  0
LWPOLYLINE
  5
26B
100
AcDbEntity
  8
0
100
AcDbPolyline
 62
7
  6
CONTINUOUS
 90
10
 70
0
 10
-19.9690905236
 20
22.2869275668
 10
-19.9616722516
 20
22.2904768309
 10
-19.9542809731
 20
22.2936980524
 10
-19.946916688
 20
22.2965912313
 10
-19.9395704972
 20
22.2991590908
 10
-19.9322512998
 20
22.3013989077
 10
-19.9249857936
 20
22.3033025119
 10
-19.9177828779
 20
22.3048671801
 10
-19.9106336533
 20
22.3060956357
 10
-19.9035381199
 20
22.3069878786
  0
LWPOLYLINE
  5
26C
100
AcDbEntity
  8
RACCORDO
100
AcDbPolyline
 62
7
  6
CONTINUOUS
 90
12
 70
0
 10
-22.3784853552
 20
22.0744136015
 10
-22.3709802325
 20
22.0776691456
 10
-22.3637149349
 20
22.0799627025
 10
-22.3561618539
 20
22.0815455638
 10
-22.3483242417
 20
22.0824257611
 10
-22.3402913422
 20
22.0825932719
 10
-22.3320609233
 20
22.0820399502
 10
-22.3236352171
 20
22.080773942
 10
-22.315110164
 20
22.0788096628
 10
-22.306517744
 20
22.0761519178
 10
-22.2978259771
 20
22.0727959019
 10
-22.2890348633
 20
22.068741615
  0
LWPOLYLINE
  5
26D
100
AcDbEntity
  8
RACCORDO
100
AcDbPolyline
 62
7
  6
CONTINUOUS
 90
3
 70
0
 10
-37.4633748019
 20
-7.4173154181
 10
-37.5085183744
 20
-7.3965952111
 10
-37.553122417
 20
-7.3798565449
  0
LWPOLYLINE
  5
26E
100
AcDbEntity
  8
RACCORDO
100
AcDbPolyline
 62
253
  6
CONTINUOUS
 90
12
 70
0
 10
-37.6921301343
 20
-7.6584665181
 10
-37.7383895632
 20
-7.6371920286
 10
-37.7844453884
 20
-7.6197209704
 10
-37.8301004371
 20
-7.606126824
 10
-37.8751554661
 20
-7.5964670971
 10
-37.9194218572
 20
-7.5907803868
 10
-37.9627216719
 20
-7.5890897041
 10
-38.0048766915
 20
-7.591404805
 10
-38.0456977683
 20
-7.5977181767
 10
-38.0849982989
 20
-7.6080009613
 10
-38.1226052881
 20
-7.6222050651
 10
-38.1393437298
 20
-7.6300647308
  0
LINE
  5
26F
100
AcDbEntity
  8
RACCORDO
100
AcDbLine
 62
7
  6
CONTINUOUS
 10
-37.4633748019
 20
-7.4173154181
 11
-26.1496663029
 21
-13.0741696676
  0
LINE
  5
270
100
AcDbEntity
  8
RACCORDO
100
AcDbLine
 62
253
  6
CONTINUOUS
 10
-37.515353439
 20
-7.309140658
 11
-26.20164494
 21
-12.9659949075
  0
LWPOLYLINE
  5
271
100
AcDbEntity
  8
RACCORDO
100
AcDbPolyline
 62
253
  6
CONTINUOUS
 90
7
 70
0
 10
-26.20164494
 20
-12.9659949075
 10
-26.1763122493
 20
-12.9788578887
 10
-26.14974889
 20
-12.9936574334
 10
-26.1219548622
 20
-13.0103935416
 10
-26.0928115212
 20
-13.0289840163
 10
-26.0624375117
 20
-13.0495110544
 10
-26.0311887673
 20
-13.0722212473
  0
LWPOLYLINE
  5
272
100
AcDbEntity
  8
RACCORDO
100
AcDbPolyline
 62
253
  6
CONTINUOUS
 90
28
 70
0
 10
-26.0311887673
 20
-13.0722212473
 10
-25.9990139145
 20
-13.0971862857
 10
-25.9659643268
 20
-13.1243344789
 10
-25.9325500582
 20
-13.1536973458
 10
-25.8987672317
 20
-13.1853327386
 10
-25.8646197243
 20
-13.2191828051
 10
-25.8306292209
 20
-13.2551055073
 10
-25.7967971686
 20
-13.2931658053
 10
-25.7631221204
 20
-13.3332987389
 10
-25.7301214192
 20
-13.3751673896
 10
-25.69781576
 20
-13.4188244151
 10
-25.6661844478
 20
-13.4642171576
 10
-25.6356827413
 20
-13.5108507246
 10
-25.6063430699
 20
-13.5587674258
 10
-25.578133004
 20
-13.6079249514
 10
-25.5514105144
 20
-13.6577014797
 10
-25.5262178437
 20
-13.7081305661
 10
-25.5025127491
 20
-13.759178655
 10
-25.480526473
 20
-13.8101232582
 10
-25.4603168722
 20
-13.8609654907
 10
-25.4418260898
 20
-13.9117042375
 10
-25.4251117977
 20
-13.9616136649
 10
-25.410235132
 20
-14.0106614075
 10
-25.3971349566
 20
-14.0588798309
 10
-25.3856855342
 20
-14.1056401979
 10
-25.3759336774
 20
-14.1509435686
 10
-25.3678325737
 20
-14.1947888829
 10
-25.361116048
 20
-14.2365442242
  0
LINE
  5
273
100
AcDbEntity
  8
RACCORDO
100
AcDbLine
 62
253
  6
CONTINUOUS
 10
-35.4229073158
 20
24.277343213
 11
-35.4229073158
 21
25.4336103389
  0
LINE
  5
274
100
AcDbEntity
  8
DRAFT
100
AcDbLine
 62
7
  6
CONTINUOUS
 10
-35.3586777564
 20
5.3485652531
 11
-35.3586777564
 21
-0.6674985408
  0
LINE
  5
275
100
AcDbEntity
  8
IMPORT_IGES
100
AcDbLine
 62
253
  6
CONTINUOUS
 10
-34.9344136877
 20
-0.5967878627
 11
-34.9344136877
 21
5.1364332187
  0
LINE
  5
276
100
AcDbEntity
  8
RACCORDO
100
AcDbLine
 62
253
  6
CONTINUOUS
 10
-34.7991766216
 20
-3.8341368055
 11
-34.7991766216
 21
-2.4484961595
  0
LINE
  5
277
100
AcDbEntity
  8
IMPORT_IGES
100
AcDbLine
 62
253
  6
CONTINUOUS
 10
-34.510149619
 20
4.9243011844
 11
-34.510149619
 21
-0.3369802415
  0
LINE
  5
278
100
AcDbEntity
  8
RACCORDO
100
AcDbLine
 62
253
  6
CONTINUOUS
 10
-34.0951685988
 20
-3.4026765084
 11
-34.0951685988
 21
-2.0170358624
  0
LINE
  5
279
100
AcDbEntity
  8
RACCORDO
100
AcDbLine
 62
253
  6
CONTINUOUS
 10
-33.9860038232
 20
-5.4098574998
 11
-33.9860038232
 21
-4.2407232047
  0
LINE
  5
27A
100
AcDbEntity
  8
0
100
AcDbLine
 62
7
  6
CONTINUOUS
 10
-15.0293577973
 20
23.4586325869
 11
-14.9586471192
 21
23.4939879259
  0
LINE
  5
27B
100
AcDbEntity
  8
DRAFT
100
AcDbLine
 62
7
  6
CONTINUOUS
 10
-12.9787481318
 20
23.8081173145
 11
-15.0293577973
 21
22.809113534
  0
LWPOLYLINE
  5
27C
100
AcDbEntity
  8
RACCORDO
100
AcDbPolyline
 62
7
  6
CONTINUOUS
 90
3
 70
0
 10
-37.553122417
 20
-7.3798565449
 10
-37.5967600644
 20
-7.3672717887
 10
-37.6388372235
 20
-7.358965799
  0
LINE
  5
27D
100
AcDbEntity
  8
RACCORDO
100
AcDbLine
 62
253
  6
CONTINUOUS
 10
-29.7309945558
 20
-7.5373621335
 11
-33.9860038232
 21
-5.4098574998
  0
LINE
  5
27E
100
AcDbEntity
  8
RACCORDO
100
AcDbLine
 62
253
  6
CONTINUOUS
 10
-29.8774411652
 20
-6.6806745204
 11
-33.2819958005
 21
-4.9783972027
  0
LWPOLYLINE
  5
27F
100
AcDbEntity
  8
RACCORDO
100
AcDbPolyline
 62
7
  6
CONTINUOUS
 90
13
 70
0
 10
-29.7309945558
 20
-7.5373621335
 10
-29.75213805
 20
-7.4996176974
 10
-29.7719660501
 20
-7.4608736432
 10
-29.790426389
 20
-7.4212143059
 10
-29.8075793753
 20
-7.3806892643
 10
-29.8232781827
 20
-7.339451704
 10
-29.8371664106
 20
-7.2977580125
 10
-29.849228074
 20
-7.2557731076
 10
-29.859434329
 20
-7.2136035575
 10
-29.867402492
 20
-7.1714379315
 10
-29.8731537636
 20
-7.12947133
 10
-29.8766504982
 20
-7.0878625724
 10
-29.8774888618
 20
-7.0546307712
  0
LINE
  5
280
100
AcDbEntity
  8
DRAFT
100
AcDbLine
 62
7
  6
CONTINUOUS
 10
-33.3787787691
 20
-1.6574480344
 11
-33.3787787691
 21
-3.0430886805
  0
LINE
  5
281
100
AcDbEntity
  8
RACCORDO
100
AcDbLine
 62
253
  6
CONTINUOUS
 10
-33.2819958005
 20
-4.9783972027
 11
-33.2819958005
 21
-3.8092629076
  0
LINE
  5
282
100
AcDbEntity
  8
IMPORT_IGES
100
AcDbLine
 62
253
  6
CONTINUOUS
 10
-32.9545147004
 20
-2.9290767322
 11
-32.9545147004
 21
-1.5867373563
  0
LINE
  5
283
100
AcDbEntity
  8
DRAFT
100
AcDbLine
 62
7
  6
CONTINUOUS
 10
-32.5656059707
 20
-3.4496750797
 11
-32.5656059707
 21
-4.6188093748
  0
LINE
  5
284
100
AcDbEntity
  8
IMPORT_IGES
100
AcDbLine
 62
253
  6
CONTINUOUS
 10
-32.5302506316
 20
-1.3269297352
 11
-32.5302506316
 21
-2.6692691111
  0
LINE
  5
285
100
AcDbEntity
  8
IMPORT_IGES
100
AcDbLine
 62
253
  6
CONTINUOUS
 10
-32.1590195715
 20
-4.5904449646
 11
-32.1590195715
 21
-3.3268242966
  0
LINE
  5
286
100
AcDbEntity
  8
IMPORT_IGES
100
AcDbLine
 62
253
  6
CONTINUOUS
 10
-31.7347555028
 20
-3.0670166755
 11
-31.7347555028
 21
-4.5208297223
  0
LINE
  5
287
100
AcDbEntity
  8
IMPORT_IGES
100
AcDbLine
 62
7
  6
CONTINUOUS
 10
-31.3988797817
 20
-2.240113145
 11
-31.3988797817
 21
-2.1035836861
  0
LINE
  5
288
100
AcDbEntity
  8
RACCORDO
100
AcDbLine
 62
253
  6
CONTINUOUS
 10
-26.9156733751
 20
26.4256324553
 11
-26.9323584085
 21
26.354397755
  0
LWPOLYLINE
  5
289
100
AcDbEntity
  8
RACCORDO
100
AcDbPolyline
 62
7
  6
CONTINUOUS
 90
12
 70
0
 10
-26.9689752647
 20
26.4005299046
 10
-26.9683200989
 20
26.4026678902
 10
-26.9665636101
 20
26.4060895015
 10
-26.9639754439
 20
26.4092898311
 10
-26.9605661192
 20
26.4122716777
 10
-26.9563791231
 20
26.4149970068
 10
-26.9514044938
 20
26.4174625325
 10
-26.9456521931
 20
26.4196715407
 10
-26.9391955936
 20
26.4215958548
 10
-26.9320591529
 20
26.4232260824
 10
-26.9242184134
 20
26.4245716159
 10
-26.9156733751
 20
26.4256324553
  0
LWPOLYLINE
  5
28A
100
AcDbEntity
  8
RACCORDO
100
AcDbPolyline
 62
253
  6
CONTINUOUS
 90
6
 70
0
 10
-20.4628753921
 20
18.1704039759
 10
-20.5017841584
 20
18.1484314187
 10
-20.5364504093
 20
18.1251803811
 10
-20.5668741447
 20
18.100650863
 10
-20.5932492705
 20
18.074634675
 10
-20.615381881
 20
18.0473400066
  0
LWPOLYLINE
  5
28B
100
AcDbEntity
  8
RACCORDO
100
AcDbPolyline
 62
7
  6
CONTINUOUS
 90
12
 70
0
 10
-20.5764545816
 20
18.1765791883
 10
-20.6280214768
 20
18.1476415111
 10
-20.6819548754
 20
18.1116941583
 10
-20.7301419511
 20
18.0730255858
 10
-20.772662669
 20
18.0317180985
 10
-20.8095712494
 20
17.9877884558
 10
-20.8407740006
 20
17.9412746688
 10
-20.8659594317
 20
17.8925399549
 10
-20.8847953639
 20
17.8423532299
 10
-20.8972137227
 20
17.7912717451
 10
-20.9032216922
 20
17.7398666714
 10
-20.9038539188
 20
17.7172403221
  0
LINE
  5
28C
100
AcDbEntity
  8
RACCORDO
100
AcDbLine
 62
7
  6
CONTINUOUS
 10
-16.3100387221
 20
20.3841655077
 11
-20.5765299386
 21
18.1765573325
  0
LINE
  5
28D
100
AcDbEntity
  8
RACCORDO
100
AcDbLine
 62
253
  6
CONTINUOUS
 10
-16.1960880249
 20
20.3781653883
 11
-20.4628753921
 21
18.1704039759
  0
LINE
  5
28E
100
AcDbEntity
  8
RACCORDO
100
AcDbLine
 62
253
  6
CONTINUOUS
 10
-15.1354292008
 20
19.8478359762
 11
-8.8825515231
 21
23.0309433031
  0
LINE
  5
28F
100
AcDbEntity
  8
RACCORDO
100
AcDbLine
 62
253
  6
CONTINUOUS
 10
-14.9586471192
 20
19.5429596879
 11
-8.7057694415
 21
22.7260670148
  0
LINE
  5
290
100
AcDbEntity
  8
RACCORDO
100
AcDbLine
 62
7
  6
CONTINUOUS
 10
-16.3088609346
 20
20.3847648439
 11
-16.3100259869
 21
20.3841720972
  0
LINE
  5
291
100
AcDbEntity
  8
RACCORDO
100
AcDbLine
 62
7
  6
CONTINUOUS
 10
-16.3088454037
 20
20.38477263
 11
-9.9994692885
 21
23.5405834387
  0
LINE
  5
292
100
AcDbEntity
  8
RACCORDO
100
AcDbLine
 62
253
  6
CONTINUOUS
 10
-16.1960664848
 20
20.3781546182
 11
-9.8876429007
 21
23.5334889919
  0
LINE
  5
293
100
AcDbEntity
  8
RACCORDO
100
AcDbLine
 62
253
  6
CONTINUOUS
 10
-19.519120965
 20
17.6943554194
 11
-15.1354292008
 21
19.8478359762
  0
LINE
  5
294
100
AcDbEntity
  8
RACCORDO
100
AcDbLine
 62
253
  6
CONTINUOUS
 10
-19.3442222483
 20
17.3885539316
 11
-14.9586471192
 21
19.5429596879
  0
LWPOLYLINE
  5
295
100
AcDbEntity
  8
RACCORDO
100
AcDbPolyline
 62
7
  6
CONTINUOUS
 90
6
 70
0
 10
-37.6388372235
 20
-7.358965799
 10
-37.6791959977
 20
-7.3548953224
 10
-37.7180313505
 20
-7.3550498388
 10
-37.7551875174
 20
-7.3595315302
 10
-37.7902980954
 20
-7.3683929704
 10
-37.8233182866
 20
-7.3816958618
  0
LINE
  5
296
100
AcDbEntity
  8
RACCORDO
100
AcDbLine
 62
253
  6
CONTINUOUS
 10
-28.9178217575
 20
-6.7748142376
 11
-29.7309945558
 21
-6.3682278384
  0
LINE
  5
297
100
AcDbEntity
  8
RACCORDO
100
AcDbLine
 62
253
  6
CONTINUOUS
 10
-33.9860038232
 20
-4.2407232047
 11
-34.7991766216
 21
-3.8341368055
  0
LINE
  5
298
100
AcDbEntity
  8
DRAFT
100
AcDbLine
 62
7
  6
CONTINUOUS
 10
-32.5656059707
 20
-4.6188093748
 11
-29.8774411652
 21
-5.9628917775
  0
LINE
  5
299
100
AcDbEntity
  8
IMPORT_IGES
100
AcDbLine
 62
7
  6
CONTINUOUS
 10
-29.8773461627
 20
-5.8852110779
 11
-32.5656059707
 21
-4.5410811739
  0
LINE
  5
29A
100
AcDbEntity
  8
IMPORT_IGES
100
AcDbLine
 62
253
  6
CONTINUOUS
 10
-32.5656059707
 20
-4.4178030117
 11
-29.8644371405
 21
-5.7683874267
  0
LINE
  5
29B
100
AcDbEntity
  8
IMPORT_IGES
100
AcDbLine
 62
7
  6
CONTINUOUS
 10
-29.8568228478
 20
-5.7415433264
 11
-32.1590195715
 21
-4.5904449646
  0
LINE
  5
29C
100
AcDbEntity
  8
RACCORDO
100
AcDbLine
 62
253
  6
CONTINUOUS
 10
-29.0642683669
 20
-5.9181266244
 11
-29.7340663898
 21
-5.583227613
  0
LINE
  5
29D
100
AcDbEntity
  8
RACCORDO
100
AcDbLine
 62
253
  6
CONTINUOUS
 10
-33.2819958005
 20
-3.8092629076
 11
-34.0951685988
 21
-3.4026765084
  0
LINE
  5
29E
100
AcDbEntity
  8
DRAFT
100
AcDbLine
 62
7
  6
CONTINUOUS
 10
-12.1298556057
 20
-14.2329676337
 11
-9.4264213424
 21
-15.5846847654
  0
LINE
  5
29F
100
AcDbEntity
  8
DRAFT
100
AcDbLine
 62
7
  6
CONTINUOUS
 10
-8.7057694415
 20
-15.7799543517
 11
-9.1270495869
 21
-15.569314279
  0
LINE
  5
2A0
100
AcDbEntity
  8
RACCORDO
100
AcDbLine
 62
253
  6
CONTINUOUS
 10
-26.9379227701
 20
-6.3791230852
 11
-28.9178217575
 21
-5.3891735916
  0
LINE
  5
2A1
100
AcDbEntity
  8
RACCORDO
100
AcDbLine
 62
253
  6
CONTINUOUS
 10
-34.7991766216
 20
-2.4484961595
 11
-36.7790756089
 21
-1.4585466658
  0
LINE
  5
2A2
100
AcDbEntity
  8
DRAFT
100
AcDbLine
 62
7
  6
CONTINUOUS
 10
-33.3787787691
 20
-3.0430886805
 11
-32.5656059707
 21
-3.4496750797
  0
LINE
  5
2A3
100
AcDbEntity
  8
IMPORT_IGES
100
AcDbLine
 62
253
  6
CONTINUOUS
 10
-32.1590195715
 20
-3.3268242966
 11
-32.9545147004
 21
-2.9290767322
  0
LINE
  5
2A4
100
AcDbEntity
  8
RACCORDO
100
AcDbLine
 62
253
  6
CONTINUOUS
 10
-27.0843693795
 20
-5.522435472
 11
-28.9208935914
 21
-4.6041733661
  0
LINE
  5
2A5
100
AcDbEntity
  8
RACCORDO
100
AcDbLine
 62
253
  6
CONTINUOUS
 10
-34.0951685988
 20
-2.0170358624
 11
-36.0750675862
 21
-1.0270863687
  0
LINE
  5
2A6
100
AcDbEntity
  8
IMPORT_IGES
100
AcDbLine
 62
253
  6
CONTINUOUS
 10
-32.5302506316
 20
-2.6692691111
 11
-31.7347555028
 21
-3.0670166755
  0
LINE
  5
2A7
100
AcDbEntity
  8
IMPORT_IGES
100
AcDbLine
 62
253
  6
CONTINUOUS
 10
-28.870973039
 20
-4.4989079074
 11
-28.7931694586
 21
-4.5378096976
  0
LINE
  5
2A8
100
AcDbEntity
  8
ASSI
100
AcDbLine
 62
7
  6
CONTINUOUS
 10
-13.053515942
 20
-12.3709145933
 11
-12.3419847322
 21
-12.7266801982
  0
LINE
  5
2A9
100
AcDbEntity
  8
IMPORT_IGES
100
AcDbLine
 62
7
  6
CONTINUOUS
 10
-30.6033846529
 20
-3.5838630053
 11
-28.8221339438
 21
-4.4744883598
  0
LWPOLYLINE
  5
2AA
100
AcDbEntity
  8
RACCORDO
100
AcDbPolyline
 62
7
  6
CONTINUOUS
 90
15
 70
0
 10
-36.7790756089
 20
6.2642277831
 10
-36.7567675046
 20
6.2270292975
 10
-36.7328559479
 20
6.1903337757
 10
-36.7073789283
 20
6.1542123792
 10
-36.6803932134
 20
6.118609422
 10
-36.6519563947
 20
6.0837242878
 10
-36.6221251145
 20
6.0500129819
 10
-36.5910244138
 20
6.0175538207
 10
-36.5587243913
 20
5.9864108866
 10
-36.525211226
 20
5.9570318044
 10
-36.4906529974
 20
5.9294748021
 10
-36.4551608691
 20
5.9038377184
 10
-36.4186512368
 20
5.8806631789
 10
-36.3813525826
 20
5.8599792656
 10
-36.3763257359
 20
5.8573992341
  0
LWPOLYLINE
  5
2AB
100
AcDbEntity
  8
RACCORDO
100
AcDbPolyline
 62
7
  6
CONTINUOUS
 90
13
 70
0
 10
-29.7309945558
 20
-6.3682278384
 10
-29.75213805
 20
-6.3304834023
 10
-29.7719660501
 20
-6.2917393481
 10
-29.790426389
 20
-6.2520800108
 10
-29.8075793753
 20
-6.2115549692
 10
-29.8232781827
 20
-6.1703174089
 10
-29.8371664106
 20
-6.1286237174
 10
-29.849228074
 20
-6.0866388125
 10
-29.859434329
 20
-6.0444692624
 10
-29.867402492
 20
-6.0023036364
 10
-29.8731537636
 20
-5.9603370349
 10
-29.8766504982
 20
-5.9187282773
 10
-29.8774888618
 20
-5.8854964761
  0
LWPOLYLINE
  5
2AC
100
AcDbEntity
  8
RACCORDO
100
AcDbPolyline
 62
7
  6
CONTINUOUS
 90
13
 70
0
 10
-28.9178217575
 20
-5.3891735916
 10
-28.9389652517
 20
-5.3514291554
 10
-28.9587932517
 20
-5.3126851012
 10
-28.9772535906
 20
-5.2730257639
 10
-28.994406577
 20
-5.2325007224
 10
-29.0101053843
 20
-5.191263162
 10
-29.0239936122
 20
-5.1495694705
 10
-29.0360552756
 20
-5.1075845656
 10
-29.0462615307
 20
-5.0654150156
 10
-29.0542296936
 20
-5.0232493895
 10
-29.0599809653
 20
-4.981282788
 10
-29.0634776998
 20
-4.9396740305
 10
-29.0643160634
 20
-4.9064422292
  0
LWPOLYLINE
  5
2AD
100
AcDbEntity
  8
RACCORDO
100
AcDbPolyline
 62
7
  6
CONTINUOUS
 90
13
 70
0
 10
-28.9178217575
 20
-6.7748142376
 10
-28.9388034925
 20
-6.7369525673
 10
-28.9586615446
 20
-6.6982302932
 10
-28.9772535906
 20
-6.65866641
 10
-28.9944320286
 20
-6.6181598144
 10
-29.0100570654
 20
-6.5768687892
 10
-29.0239936122
 20
-6.5352101166
 10
-29.0360829738
 20
-6.4932452858
 10
-29.0461990477
 20
-6.4510103774
 10
-29.0542296936
 20
-6.4088900355
 10
-29.0600081994
 20
-6.3669431719
 10
-29.0633891442
 20
-6.3252504963
 10
-29.0642683142
 20
-6.2920482692
  0
LINE
  5
2AE
100
AcDbEntity
  8
IMPORT_IGES
100
AcDbLine
 62
7
  6
CONTINUOUS
 10
-30.6033846529
 20
-2.7611388717
 11
-30.6033846529
 21
-3.5838630053
  0
LINE
  5
2AF
100
AcDbEntity
  8
RACCORDO
100
AcDbLine
 62
7
  6
CONTINUOUS
 10
-29.8774411652
 20
-5.8856596272
 11
-29.8774411652
 21
-7.0547939223
  0
LINE
  5
2B0
100
AcDbEntity
  8
RACCORDO
100
AcDbLine
 62
253
  6
CONTINUOUS
 10
-29.7309945558
 20
-6.3682278384
 11
-29.7309945558
 21
-7.5373621335
  0
LINE
  5
2B1
100
AcDbEntity
  8
0
100
AcDbLine
 62
7
  6
CONTINUOUS
 10
-29.3129147772
 20
25.5806815719
 11
-29.3129147772
 21
25.8404891931
  0
LINE
  5
2B2
100
AcDbEntity
  8
RACCORDO
100
AcDbLine
 62
7
  6
CONTINUOUS
 10
-29.0642683669
 20
-4.9066053803
 11
-29.0642683669
 21
-6.2922460263
  0
LINE
  5
2B3
100
AcDbEntity
  8
RACCORDO
100
AcDbLine
 62
253
  6
CONTINUOUS
 10
-28.9178217575
 20
-5.3891735916
 11
-28.9178217575
 21
-6.7748142376
  0
LWPOLYLINE
  5
2B4
100
AcDbEntity
  8
RACCORDO
100
AcDbPolyline
 62
7
  6
CONTINUOUS
 90
11
 70
0
 10
-29.8774888618
 20
-5.8854964761
 10
-29.8773939526
 20
-5.8776507466
 10
-29.8754579477
 20
-5.837343112
 10
-29.8707873237
 20
-5.7980537308
 10
-29.8626535935
 20
-5.7600551867
 10
-29.8511826518
 20
-5.7236364365
 10
-29.8363458268
 20
-5.6892259464
 10
-29.8171713884
 20
-5.6574434214
 10
-29.7934253619
 20
-5.6288616669
 10
-29.7656440522
 20
-5.6039396553
 10
-29.7340663898
 20
-5.583227613
  0
LWPOLYLINE
  5
2B5
100
AcDbEntity
  8
RACCORDO
100
AcDbPolyline
 62
7
  6
CONTINUOUS
 90
11
 70
0
 10
-29.0643160634
 20
-4.9064422292
 10
-29.0642211542
 20
-4.8985964997
 10
-29.0622851493
 20
-4.8582888651
 10
-29.0576145253
 20
-4.8189994839
 10
-29.0494807951
 20
-4.7810009399
 10
-29.0380098535
 20
-4.7445821897
 10
-29.0231730284
 20
-4.7101716995
 10
-29.00399859
 20
-4.6783891745
 10
-28.9802525636
 20
-4.6498074201
 10
-28.9524712538
 20
-4.6248854084
 10
-28.9208935914
 20
-4.6041733661
  0
LWPOLYLINE
  5
2B6
100
AcDbEntity
  8
0
100
AcDbPolyline
 62
7
  6
CONTINUOUS
 90
19
 70
0
 10
-29.3129147772
 20
25.8404891931
 10
-29.3109130844
 20
25.8949783336
 10
-29.3052911326
 20
25.9500895454
 10
-29.2960489217
 20
26.0058228285
 10
-29.2830616441
 20
26.0626096181
 10
-29.2664541074
 20
26.120018479
 10
-29.2466007354
 20
26.1767551053
 10
-29.2234277952
 20
26.2328042266
 10
-29.1970090196
 20
26.2881811134
 10
-29.1679400304
 20
26.3416372715
 10
-29.1361606252
 20
26.3931290695
 10
-29.1017310065
 20
26.4427001388
 10
-29.0654274038
 20
26.4892328798
 10
-29.0272072476
 20
26.5326582735
 10
-28.9871131074
 20
26.5730453389
 10
-28.9460489217
 20
26.6094835335
 10
-28.9043160034
 20
26.6416693429
 10
-28.8616130397
 20
26.6699062815
 10
-28.8179400304
 20
26.6941943491
  0
LINE
  5
2B7
100
AcDbEntity
  8
RACCORDO
100
AcDbLine
 62
253
  6
CONTINUOUS
 10
-24.9654276904
 20
26.6246672524
 11
-25.0528308953
 21
26.2515100085
  0
LINE
  5
2B8
100
AcDbEntity
  8
RACCORDO
100
AcDbLine
 62
253
  6
CONTINUOUS
 10
-24.6895066317
 20
26.567683112
 11
-24.7769098366
 21
26.1945258681
  0
LWPOLYLINE
  5
2B9
100
AcDbEntity
  8
RACCORDO
100
AcDbPolyline
 62
253
  6
CONTINUOUS
 90
11
 70
0
 10
-38.0076065296
 20
-7.5641961307
 10
-38.0046787583
 20
-7.5586108343
 10
-37.9887851612
 20
-7.5321898213
 10
-37.9714704341
 20
-7.5070751201
 10
-37.9527359026
 20
-7.4833660555
 10
-37.9325848698
 20
-7.4611585443
 10
-37.9111617853
 20
-7.4406701498
 10
-37.8885004413
 20
-7.4219616296
 10
-37.8646406496
 20
-7.4050929108
 10
-37.8397843634
 20
-7.3902069587
 10
-37.823318284
 20
-7.3816958605
  0
LINE
  5
2BA
100
AcDbEntity
  8
RACCORDO
100
AcDbLine
 62
253
  6
CONTINUOUS
 10
-22.3412130677
 20
14.9233563434
 11
-19.9714389278
 21
16.0974616927
  0
LINE
  5
2BB
100
AcDbEntity
  8
RACCORDO
100
AcDbLine
 62
253
  6
CONTINUOUS
 10
-22.2036066323
 20
14.5989423486
 11
-19.3442222483
 21
16.0157706855
  0
LWPOLYLINE
  5
2BC
100
AcDbEntity
  8
IMPORT_IGES
100
AcDbPolyline
 62
253
  6
CONTINUOUS
 90
6
 70
0
 10
-7.8607320065
 20
18.9496467266
 10
-7.8425296492
 20
18.9573067922
 10
-7.8246915436
 20
18.9619471876
 10
-7.8075077028
 20
18.9635228588
 10
-7.7913321122
 20
18.9620551688
 10
-7.7763266543
 20
18.9576152032
  0
LINE
  5
2BD
100
AcDbEntity
  8
IMPORT_IGES
100
AcDbLine
 62
253
  6
CONTINUOUS
 10
-13.6026800909
 20
-4.8408170071
 11
-13.9495754058
 21
-4.8763219564
  0
LINE
  5
2BE
100
AcDbEntity
  8
IMPORT_IGES
100
AcDbLine
 62
7
  6
CONTINUOUS
 10
-13.8596314689
 20
-4.9132024183
 11
-14.1715125235
 21
-4.9448560268
  0
LWPOLYLINE
  5
2BF
100
AcDbEntity
  8
IMPORT_IGES
100
AcDbPolyline
 62
7
  6
CONTINUOUS
 90
7
 70
0
 10
-31.476707564
 20
-2.2012774574
 10
-31.4815765716
 20
-2.1989975679
 10
-31.5046343416
 20
-2.191549356
 10
-31.529205081
 20
-2.1888464734
 10
-31.5549610233
 20
-2.1910355542
 10
-31.582229935
 20
-2.1979699642
 10
-31.6110118161
 20
-2.2096497033
  0
LINE
  5
2C0
100
AcDbEntity
  8
DRAFT
100
AcDbLine
 62
7
  6
CONTINUOUS
 10
-35.3586777564
 20
-0.6674985408
 11
-33.3787787691
 21
-1.6574480344
  0
LINE
  5
2C1
100
AcDbEntity
  8
DRAFT
100
AcDbLine
 62
7
  6
CONTINUOUS
 10
-28.2168992664
 20
-4.2383877858
 11
-27.0843693795
 21
-4.8046527292
  0
LINE
  5
2C2
100
AcDbEntity
  8
IMPORT_IGES
100
AcDbLine
 62
253
  6
CONTINUOUS
 10
-27.0843693795
 20
-4.5218100167
 11
-28.0754779102
 21
-4.0262557514
  0
LINE
  5
2C3
100
AcDbEntity
  8
IMPORT_IGES
100
AcDbLine
 62
253
  6
CONTINUOUS
 10
-32.9545147004
 20
-1.5867373563
 11
-34.9344136877
 21
-0.5967878627
  0
LINE
  5
2C4
100
AcDbEntity
  8
IMPORT_IGES
100
AcDbLine
 62
253
  6
CONTINUOUS
 10
-31.6110118161
 20
-2.2096497033
 11
-30.8155166873
 21
-2.6073972677
  0
LINE
  5
2C5
100
AcDbEntity
  8
IMPORT_IGES
100
AcDbLine
 62
7
  6
CONTINUOUS
 10
-30.6813526086
 20
-2.5988767315
 11
-31.4768477375
 21
-2.2011291671
  0
LINE
  5
2C6
100
AcDbEntity
  8
IMPORT_IGES
100
AcDbLine
 62
253
  6
CONTINUOUS
 10
-28.0754779102
 20
-3.5543160959
 11
-27.0843693795
 21
-4.0498703612
  0
LINE
  5
2C7
100
AcDbEntity
  8
IMPORT_IGES
100
AcDbLine
 62
253
  6
CONTINUOUS
 10
-32.5302506316
 20
-1.3269297352
 11
-34.510149619
 21
-0.3369802415
  0
LWPOLYLINE
  5
2C8
100
AcDbEntity
  8
IMPORT_IGES
100
AcDbPolyline
 62
7
  6
CONTINUOUS
 90
8
 70
0
 10
-30.6812124351
 20
-2.5990250218
 10
-30.6655199412
 20
-2.6084987703
 10
-30.6475289381
 20
-2.6246858623
 10
-30.6320342034
 20
-2.6451783806
 10
-30.6197963466
 20
-2.6691523392
 10
-30.6110689042
 20
-2.6963330763
 10
-30.6055983396
 20
-2.7269952538
 10
-30.6033846529
 20
-2.7611388717
  0
LWPOLYLINE
  5
2C9
100
AcDbEntity
  8
RACCORDO
100
AcDbPolyline
 62
7
  6
CONTINUOUS
 90
13
 70
0
 10
-26.9379227701
 20
-6.3791230852
 10
-26.9589045052
 20
-6.341261415
 10
-26.9787625573
 20
-6.3025391408
 10
-26.9973546033
 20
-6.2629752576
 10
-27.0145330413
 20
-6.222468662
 10
-27.0301580781
 20
-6.1811776368
 10
-27.0440946249
 20
-6.1395189642
 10
-27.0561839864
 20
-6.0975541334
 10
-27.0663000603
 20
-6.055319225
 10
-27.0743307063
 20
-6.0131988831
 10
-27.0801092121
 20
-5.9712520195
 10
-27.0834901569
 20
-5.9295593439
 10
-27.0843693268
 20
-5.8963571168
  0
LWPOLYLINE
  5
2CA
100
AcDbEntity
  8
RACCORDO
100
AcDbPolyline
 62
253
  6
CONTINUOUS
 90
8
 70
0
 10
-26.20164494
 20
-12.9659949075
 10
-26.2004484465
 20
-12.9878795831
 10
-26.1968792123
 20
-13.0081974536
 10
-26.1909976329
 20
-13.0266047212
 10
-26.1829032309
 20
-13.0427899178
 10
-26.172732972
 20
-13.0564791747
 10
-26.1606589471
 20
-13.0674408576
 10
-26.1496663029
 20
-13.0741696676
  0
LWPOLYLINE
  5
2CB
100
AcDbEntity
  8
RACCORDO
100
AcDbPolyline
 62
253
  6
CONTINUOUS
 90
12
 70
0
 10
-26.9441070603
 20
-20.6288611129
 10
-26.9422235427
 20
-20.6807545407
 10
-26.9365873252
 20
-20.7303695352
 10
-26.9272412981
 20
-20.7773284954
 10
-26.9142565851
 20
-20.8212740335
 10
-26.8977320029
 20
-20.8618716949
 10
-26.8777933088
 20
-20.8988125036
 10
-26.8545922435
 20
-20.9318153138
 10
-26.8283053769
 20
-20.9606289494
 10
-26.7991327651
 20
-20.9850341152
 10
-26.7672964255
 20
-21.0048450681
 10
-26.7621818346
 20
-21.0074727711
  0
LWPOLYLINE
  5
2CC
100
AcDbEntity
  8
RACCORDO
100
AcDbPolyline
 62
253
  6
CONTINUOUS
 90
25
 70
0
 10
-26.7319750259
 20
-14.4995442229
 10
-26.7324380147
 20
-14.4822562194
 10
-26.7337902533
 20
-14.4647241061
 10
-26.7360317419
 20
-14.446947883
 10
-26.7391792805
 20
-14.4288453164
 10
-26.743216069
 20
-14.41049864
 10
-26.748091707
 20
-14.3921545547
 10
-26.7538178369
 20
-14.3738155328
 10
-26.7603828163
 20
-14.355479102
 10
-26.767701317
 20
-14.3373845463
 10
-26.77578218
 20
-14.3195375555
 10
-26.7846165642
 20
-14.3019324398
 10
-26.7940926181
 20
-14.2847914146
 10
-26.8042184495
 20
-14.2681198783
 10
-26.8149859506
 20
-14.2519124325
 10
-26.8262589465
 20
-14.2363750963
 10
-26.8380456745
 20
-14.2215147813
 10
-26.8503378973
 20
-14.2073245759
 10
-26.8629747285
 20
-14.1939897651
 10
-26.8759619338
 20
-14.1815218946
 10
-26.8892937475
 20
-14.1699094188
 10
-26.9027919854
 20
-14.1593029851
 10
-26.9163972528
 20
-14.1497528094
 10
-26.9301689444
 20
-14.1412086759
 10
-26.9441070603
 20
-14.1336705845
  0
LWPOLYLINE
  5
2CD
100
AcDbEntity
  8
IMPORT_IGES
100
AcDbPolyline
 62
7
  6
CONTINUOUS
 90
9
 70
0
 10
-28.1633457688
 20
-3.7362418514
 10
-28.1631930822
 20
-3.7472967527
 10
-28.1605920797
 20
-3.7832788944
 10
-28.1547160871
 20
-3.8211993866
 10
-28.1455318213
 20
-3.8607893377
 10
-28.1329885396
 20
-3.9013446699
 10
-28.1170749938
 20
-3.9424921374
 10
-28.0978669303
 20
-3.9841984889
 10
-28.0754779102
 20
-4.0262557514
  0
LINE
  5
2CE
100
AcDbEntity
  8
IMPORT_IGES
100
AcDbLine
 62
7
  6
CONTINUOUS
 10
-28.1633458758
 20
-3.7386560853
 11
-28.1633458758
 21
-4.2651644811
  0
LINE
  5
2CF
100
AcDbEntity
  8
IMPORT_IGES
100
AcDbLine
 62
253
  6
CONTINUOUS
 10
-28.0754779102
 20
-4.0262557514
 11
-28.0754779102
 21
-4.3090984639
  0
LINE
  5
2D0
100
AcDbEntity
  8
RACCORDO
100
AcDbLine
 62
7
  6
CONTINUOUS
 10
-27.0843693795
 20
1.2146365431
 11
-27.0843693795
 21
-5.8965548739
  0
LINE
  5
2D1
100
AcDbEntity
  8
RACCORDO
100
AcDbLine
 62
253
  6
CONTINUOUS
 10
-26.9379227701
 20
1.3436513637
 11
-26.9379227701
 21
-6.3791230852
  0
LINE
  5
2D2
100
AcDbEntity
  8
RACCORDO
100
AcDbLine
 62
253
  6
CONTINUOUS
 10
-26.7319750259
 20
-20.475119509
 11
-26.7319750259
 21
-14.4995442229
  0
LWPOLYLINE
  5
2D3
100
AcDbEntity
  8
IMPORT_IGES
100
AcDbPolyline
 62
7
  6
CONTINUOUS
 90
4
 70
0
 10
-28.9543856969
 20
-4.6266028139
 10
-28.9476876028
 20
-4.5978937199
 10
-28.9380680956
 20
-4.5716734422
 10
-28.9254188873
 20
-4.5484437538
  0
LINE
  5
2D4
100
AcDbEntity
  8
RACCORDO
100
AcDbLine
 62
253
  6
CONTINUOUS
 10
-22.6388969663
 20
25.5423782793
 11
-22.6593282258
 21
25.4551495272
  0
LINE
  5
2D5
100
AcDbEntity
  8
RACCORDO
100
AcDbLine
 62
253
  6
CONTINUOUS
 10
-22.8851647223
 20
24.4103781289
 11
-22.9018497558
 21
24.3391434286
  0
LWPOLYLINE
  5
2D6
100
AcDbEntity
  8
RACCORDO
100
AcDbPolyline
 62
7
  6
CONTINUOUS
 90
12
 70
0
 10
-22.9384666119
 20
24.3852755782
 10
-22.9378114461
 20
24.3874135638
 10
-22.9360549573
 20
24.3908351751
 10
-22.9334667911
 20
24.3940355047
 10
-22.9300574664
 20
24.3970173513
 10
-22.9258704703
 20
24.3997426805
 10
-22.920895841
 20
24.4022082061
 10
-22.9151435403
 20
24.4044172143
 10
-22.9086869408
 20
24.4063415284
 10
-22.9015505001
 20
24.4079717561
 10
-22.8937097606
 20
24.4093172896
 10
-22.8851647223
 20
24.4103781289
  0
LWPOLYLINE
  5
2D7
100
AcDbEntity
  8
RACCORDO
100
AcDbPolyline
 62
7
  6
CONTINUOUS
 90
12
 70
0
 10
-22.5786734228
 20
25.4830436141
 10
-22.5793285886
 20
25.4809056285
 10
-22.5810850774
 20
25.4774840172
 10
-22.5836732436
 20
25.4742836876
 10
-22.5870825683
 20
25.471301841
 10
-22.5912695644
 20
25.4685765119
 10
-22.5962441937
 20
25.4661109862
 10
-22.6019964944
 20
25.463901978
 10
-22.6084530939
 20
25.4619776639
 10
-22.6155895346
 20
25.4603474363
 10
-22.6234302741
 20
25.4590019028
 10
-22.6319753124
 20
25.4579410634
  0
LWPOLYLINE
  5
2D8
100
AcDbEntity
  8
RACCORDO
100
AcDbPolyline
 62
253
  6
CONTINUOUS
 90
32
 70
0
 10
-20.615381881
 20
18.0473400066
 10
-20.6326902587
 20
18.0193914261
 10
-20.645046699
 20
17.990770892
 10
-20.6525789065
 20
17.9614964457
 10
-20.6550882787
 20
17.9322467798
 10
-20.6524454845
 20
17.9030259478
 10
-20.6447798549
 20
17.8738298961
 10
-20.6322807802
 20
17.8453251565
 10
-20.6148427247
 20
17.8175372224
 10
-20.5925712241
 20
17.7904406003
 10
-20.565972276
 20
17.7646253417
 10
-20.5349522508
 20
17.7401182476
 10
-20.4996047781
 20
17.7168925169
 10
-20.4607167442
 20
17.695457798
 10
-20.4182135937
 20
17.6758536891
 10
-20.3721698819
 20
17.6580405919
 10
-20.3235961622
 20
17.6424093596
 10
-20.2724422781
 20
17.6290064917
 10
-20.218758386
 20
17.6177854888
 10
-20.1637055079
 20
17.608997706
 10
-20.1072342172
 20
17.6026946865
 10
-20.0493939405
 20
17.5988248871
 10
-19.9914939799
 20
17.5974850337
 10
-19.9335230364
 20
17.598739368
 10
-19.875492409
 20
17.6025236483
 10
-19.8187452957
 20
17.6087418756
 10
-19.7633139423
 20
17.6174589653
 10
-19.7091661031
 20
17.6286100019
 10
-19.6575482396
 20
17.6419042402
 10
-19.6088758391
 20
17.657244765
 10
-19.5627334142
 20
17.6747284914
 10
-19.519120965
 20
17.6943554194
  0
LWPOLYLINE
  5
2D9
100
AcDbEntity
  8
IMPORT_IGES
100
AcDbPolyline
 62
253
  6
CONTINUOUS
 90
16
 70
0
 10
-7.8607525795
 20
19.2324848955
 10
-7.8905085989
 20
19.2152186659
 10
-7.9158545441
 20
19.197444939
 10
-7.9367904153
 20
19.1791637146
 10
-7.9531986889
 20
19.1603214397
 10
-7.9651968884
 20
19.1409716674
 10
-7.9731375847
 20
19.1212750568
 10
-7.9771330802
 20
19.1010441874
 10
-7.9770710724
 20
19.0804664796
 10
-7.9729672251
 20
19.0602648535
 10
-7.964929065
 20
19.0406341056
 10
-7.9528490654
 20
19.0213794394
 10
-7.9364203107
 20
19.0026393857
 10
-7.9155404957
 20
18.9844601213
 10
-7.8903119255
 20
18.9667954693
 10
-7.8607346003
 20
18.9496454297
  0
LINE
  5
2DA
100
AcDbEntity
  8
IMPORT_IGES
100
AcDbLine
 62
253
  6
CONTINUOUS
 10
-7.7365768106
 20
18.9804501977
 11
-7.7193262416
 21
18.989837592
  0
LWPOLYLINE
  5
2DB
100
AcDbEntity
  8
IMPORT_IGES
100
AcDbPolyline
 62
253
  6
CONTINUOUS
 90
16
 70
0
 10
-7.7193498003
 20
18.9903198298
 10
-7.6763782486
 20
19.0131226383
 10
-7.6313383214
 20
19.0344495669
 10
-7.5842300187
 20
19.0543006157
 10
-7.5350925367
 20
19.0730200859
 10
-7.4838866792
 20
19.0902636763
 10
-7.4304948582
 20
19.1049984825
 10
-7.3742491562
 20
19.117305985
 10
-7.3158174906
 20
19.1271047033
 10
-7.2570860255
 20
19.1331172918
 10
-7.1984263058
 20
19.135226773
 10
-7.1394667864
 20
19.1335501244
 10
-7.080978996
 20
19.1271609331
 10
-7.0232201106
 20
19.1157503949
 10
-6.9659329541
 20
19.0996273139
 10
-6.9091175265
 20
19.0787916903
  0
LINE
  5
2DC
100
AcDbEntity
  8
IMPORT_IGES
100
AcDbLine
 62
253
  6
CONTINUOUS
 10
-7.819608554
 20
19.2530565966
 11
-7.8607525795
 21
19.2324848955
  0
LINE
  5
2DD
100
AcDbEntity
  8
IMPORT_IGES
100
AcDbLine
 62
253
  6
CONTINUOUS
 10
-14.3198716679
 20
14.75082143
 11
-14.1867874013
 21
14.8173670174
  0
LINE
  5
2DE
100
AcDbEntity
  8
IMPORT_IGES
100
AcDbLine
 62
253
  6
CONTINUOUS
 10
-13.7177783077
 20
14.5799385759
 11
-14.0810914937
 21
14.3982725532
  0
LINE
  5
2DF
100
AcDbEntity
  8
IMPORT_IGES
100
AcDbLine
 62
253
  6
CONTINUOUS
 10
-6.4113864416
 20
18.2249739441
 11
-12.0880554914
 21
15.3866366968
  0
LINE
  5
2E0
100
AcDbEntity
  8
IMPORT_IGES
100
AcDbLine
 62
253
  6
CONTINUOUS
 10
-6.3053001478
 20
18.1371502338
 11
-11.9937447856
 21
15.2929345964
  0
LINE
  5
2E1
100
AcDbEntity
  8
IMPORT_IGES
100
AcDbLine
 62
7
  6
CONTINUOUS
 10
-13.629910342
 20
14.3412381734
 11
-13.4322200277
 21
14.4400833306
  0
LINE
  5
2E2
100
AcDbEntity
  8
IMPORT_IGES
100
AcDbLine
 62
7
  6
CONTINUOUS
 10
-13.2349217118
 20
14.3414341727
 11
-13.293514239
 21
14.3136433825
  0
LINE
  5
2E3
100
AcDbEntity
  8
IMPORT_IGES
100
AcDbLine
 62
7
  6
CONTINUOUS
 10
-13.7177783077
 20
14.1124123672
 11
-13.8540565095
 21
14.0477747914
  0
LWPOLYLINE
  5
2E4
100
AcDbEntity
  8
IMPORT_IGES
100
AcDbPolyline
 62
253
  6
CONTINUOUS
 90
8
 70
0
 10
-6.3052961883
 20
18.1371454527
 10
-6.2879806371
 20
18.1452278914
 10
-6.2718472352
 20
18.1514111615
 10
-6.2573634097
 20
18.1554684279
 10
-6.2450741495
 20
18.1572747724
 10
-6.2350379009
 20
18.1569094868
 10
-6.2270965374
 20
18.1543449752
 10
-6.222217819
 20
18.1503914941
  0
LWPOLYLINE
  5
2E5
100
AcDbEntity
  8
IMPORT_IGES
100
AcDbPolyline
 62
253
  6
CONTINUOUS
 90
5
 70
0
 10
-11.6442830313
 20
16.1870041396
 10
-11.6323571261
 20
16.1917267949
 10
-11.6207045137
 20
16.1938375145
 10
-11.609672353
 20
16.193227009
 10
-11.5996344639
 20
16.1898817713
  0
LWPOLYLINE
  5
2E6
100
AcDbEntity
  8
IMPORT_IGES
100
AcDbPolyline
 62
253
  6
CONTINUOUS
 90
14
 70
0
 10
-5.183997048
 20
17.277202694
 10
-5.2172608759
 20
17.2643680235
 10
-5.2516879826
 20
17.2553968749
 10
-5.287278368
 20
17.2502892483
 10
-5.3240992656
 20
17.2491025394
 10
-5.362083442
 20
17.2517793524
 10
-5.4010291969
 20
17.2581474998
 10
-5.4414418336
 20
17.2682834887
 10
-5.4828160488
 20
17.282110812
 10
-5.5234342321
 20
17.2992277608
 10
-5.5625181012
 20
17.3193099779
 10
-5.6008459383
 20
17.3426818205
 10
-5.6390349801
 20
17.3699146502
 10
-5.6772909719
 20
17.4011989209
  0
LINE
  5
2E7
100
AcDbEntity
  8
IMPORT_IGES
100
AcDbLine
 62
253
  6
CONTINUOUS
 10
-14.3885878676
 20
-4.9290746307
 11
-14.4140290778
 21
-4.9237989135
  0
LWPOLYLINE
  5
2E8
100
AcDbEntity
  8
IMPORT_IGES
100
AcDbPolyline
 62
7
  6
CONTINUOUS
 90
5
 70
0
 10
-14.4149373298
 20
-4.923541536
 10
-14.3406886213
 20
-4.9398991802
 10
-14.2721510054
 20
-4.9472232095
 10
-14.2065663192
 20
-4.9474644907
 10
-14.169558574
 20
-4.9446584366
  0
LINE
  5
2E9
100
AcDbEntity
  8
IMPORT_IGES
100
AcDbLine
 62
7
  6
CONTINUOUS
 10
-14.9586471192
 20
-4.7709500603
 11
-14.4140290778
 21
-4.9237989135
  0
LINE
  5
2EA
100
AcDbEntity
  8
IMPORT_IGES
100
AcDbLine
 62
253
  6
CONTINUOUS
 10
-14.1208654087
 20
-4.7455428862
 11
-14.9083668257
 21
-4.5245280109
  0
LWPOLYLINE
  5
2EB
100
AcDbEntity
  8
RACCORDO
100
AcDbPolyline
 62
253
  6
CONTINUOUS
 90
5
 70
0
 10
-25.361116048
 20
-14.2365442242
 10
-25.3558307184
 20
-14.2759860846
 10
-25.3519299669
 20
-14.313337972
 10
-25.3490077647
 20
-14.3486384937
 10
-25.3469287687
 20
-14.3819005189
  0
LINE
  5
2EC
100
AcDbEntity
  8
RACCORDO
100
AcDbLine
 62
7
  6
CONTINUOUS
 10
-27.7106301117
 20
24.6214299759
 11
-27.6094834357
 21
23.1549146441
  0
LINE
  5
2ED
100
AcDbEntity
  8
RACCORDO
100
AcDbLine
 62
253
  6
CONTINUOUS
 10
-25.3469287687
 20
-14.3819005189
 11
-25.3458283221
 21
-14.4131111783
  0
LWPOLYLINE
  5
2EE
100
AcDbEntity
  8
RACCORDO
100
AcDbPolyline
 62
7
  6
CONTINUOUS
 90
19
 70
0
 10
-25.4042850684
 20
-14.371559794
 10
-25.4070281016
 20
-14.2929089449
 10
-25.4153595666
 20
-14.2107591027
 10
-25.4293760409
 20
-14.1258528199
 10
-25.4491036705
 20
-14.0389510798
 10
-25.474473387
 20
-13.9509228159
 10
-25.5053118485
 20
-13.8626984865
 10
-25.5414076838
 20
-13.7750841548
 10
-25.5824605174
 20
-13.6889376775
 10
-25.6280295221
 20
-13.6052212763
 10
-25.6776756131
 20
-13.5247107893
 10
-25.7309119539
 20
-13.4481354366
 10
-25.7870938229
 20
-13.3763115339
 10
-25.8455890788
 20
-13.3098815976
 10
-25.9058025887
 20
-13.2493342846
 10
-25.9670261767
 20
-13.1951694704
 10
-26.0285312204
 20
-13.1477778649
 10
-26.0896367662
 20
-13.1073986552
 10
-26.1496663029
 20
-13.0741696676
  0
LWPOLYLINE
  5
2EF
100
AcDbEntity
  8
RACCORDO
100
AcDbPolyline
 62
253
  6
CONTINUOUS
 90
25
 70
0
 10
-25.7420255323
 20
-14.4995442229
 10
-25.7435403171
 20
-14.4421308321
 10
-25.7480774698
 20
-14.38345562
 10
-25.7556164913
 20
-14.3237703226
 10
-25.7661229959
 20
-14.2633361546
 10
-25.7795514948
 20
-14.2024068697
 10
-25.7958481335
 20
-14.1412273243
 10
-25.8149481202
 20
-14.0800481869
 10
-25.8367681014
 20
-14.0191427918
 10
-25.8612083343
 20
-13.9587895521
 10
-25.8881589255
 20
-13.8992552893
 10
-25.917506794
 20
-13.8407856758
 10
-25.9491301638
 20
-13.7836221041
 10
-25.9828938219
 20
-13.7280090847
 10
-26.0186531874
 20
-13.6741848487
 10
-26.0562605612
 20
-13.6223727664
 10
-26.0955615052
 20
-13.5727885529
 10
-26.136383015
 20
-13.5256532989
 10
-26.1785380825
 20
-13.4811828651
 10
-26.2218369388
 20
-13.4395743642
 10
-26.2661018956
 20
-13.4009955516
 10
-26.3111563947
 20
-13.3656002136
 10
-26.3568123343
 20
-13.3335382595
 10
-26.4028700335
 20
-13.3049520224
 10
-26.4491323134
 20
-13.2799654285
  0
LINE
  5
2F0
100
AcDbEntity
  8
0
100
AcDbLine
 62
7
  6
CONTINUOUS
 10
-25.9040799863
 20
-19.4962831536
 11
-25.9040799863
 21
-15.5991688366
  0
LINE
  5
2F1
100
AcDbEntity
  8
0
100
AcDbLine
 62
253
  6
CONTINUOUS
 10
-25.7420255323
 20
-20.475119509
 11
-25.7420255323
 21
-19.4358890244
  0
LINE
  5
2F2
100
AcDbEntity
  8
0
100
AcDbLine
 62
253
  6
CONTINUOUS
 10
-25.7420255323
 20
-15.5387747074
 11
-25.7420255323
 21
-14.4995442229
  0
LINE
  5
2F3
100
AcDbEntity
  8
RACCORDO
100
AcDbLine
 62
7
  6
CONTINUOUS
 10
-25.4042850684
 20
-14.371559794
 11
-25.4042850684
 21
-20.4337376205
  0
LINE
  5
2F4
100
AcDbEntity
  8
RACCORDO
100
AcDbLine
 62
253
  6
CONTINUOUS
 10
-25.3458283221
 20
-14.4131111783
 11
-25.3457064246
 21
-20.5044482986
  0
LINE
  5
2F5
100
AcDbEntity
  8
RACCORDO
100
AcDbLine
 62
7
  6
CONTINUOUS
 10
-24.661183253
 20
29.6493348751
 11
-24.661183253
 21
30.7037343505
  0
LWPOLYLINE
  5
2F6
100
AcDbEntity
  8
RACCORDO
100
AcDbPolyline
 62
253
  6
CONTINUOUS
 90
40
 70
0
 10
-25.3457064246
 20
-20.5044482986
 10
-25.3458669771
 20
-20.5353941054
 10
-25.3471063088
 20
-20.5673077777
 10
-25.3494244196
 20
-20.6001893153
 10
-25.3527057594
 20
-20.6342418028
 10
-25.3570658784
 20
-20.6692621556
 10
-25.3628514268
 20
-20.7046411209
 10
-25.3700999666
 20
-20.7404228369
 10
-25.3787739359
 20
-20.7765631653
 10
-25.3891072983
 20
-20.8123204382
 10
-25.4011457072
 20
-20.8476765772
 10
-25.4148435093
 20
-20.8826496608
 10
-25.4302977078
 20
-20.9165522563
 10
-25.4475619335
 20
-20.9493557759
 10
-25.4665825557
 20
-20.9810888074
 10
-25.487295686
 20
-21.0111496818
 10
-25.5097527679
 20
-21.0394873313
 10
-25.5339023579
 20
-21.0661528237
 10
-25.5595262363
 20
-21.090697693
 10
-25.5866721883
 20
-21.1130583292
 10
-25.6152924288
 20
-21.1332983424
 10
-25.6450253832
 20
-21.1511600973
 10
-25.675915695
 20
-21.1665695357
 10
-25.7079187208
 20
-21.1796007158
 10
-25.7405389555
 20
-21.1902181773
 10
-25.7738009295
 20
-21.1983387953
 10
-25.8076801124
 20
-21.2040456947
 10
-25.8416074081
 20
-21.2075527905
 10
-25.875581349
 20
-21.20878594
 10
-25.9096034025
 20
-21.2078192859
 10
-25.9431088752
 20
-21.2050891709
 10
-25.9761177436
 20
-21.2005282733
 10
-26.0086100311
 20
-21.1942039148
 10
-26.0399611144
 20
-21.1867544035
 10
-26.0700075318
 20
-21.1782043751
 10
-26.098912745
 20
-21.1685291939
 10
-26.1265425162
 20
-21.1582932605
 10
-26.1528520995
 20
-21.1476847085
 10
-26.1778862408
 20
-21.1365154043
 10
-26.20164494
 20
-21.1247853479
  0
LWPOLYLINE
  5
2F7
100
AcDbEntity
  8
RACCORDO
100
AcDbPolyline
 62
253
  6
CONTINUOUS
 90
19
 70
0
 10
-26.9441070603
 20
-14.1336705845
 10
-26.9422235319
 20
-14.0798934593
 10
-26.9365872817
 20
-14.024642082
 10
-26.9272412048
 20
-13.9683369492
 10
-26.9142564305
 20
-13.9114065768
 10
-26.8977317809
 20
-13.8542842393
 10
-26.8777930184
 20
-13.7974046723
 10
-26.8545918892
 20
-13.7412007636
 10
-26.8283049677
 20
-13.6861002588
 10
-26.7991323134
 20
-13.6325225061
 10
-26.7672959478
 20
-13.5808752646
 10
-26.7330381648
 20
-13.5315516009
 10
-26.6966196869
 20
-13.4849268978
 10
-26.6583176806
 20
-13.4413559976
 10
-26.6184236473
 20
-13.4011705011
 10
-26.5772412048
 20
-13.3646762442
 10
-26.5350837762
 20
-13.3321509702
 10
-26.4922722051
 20
-13.303842216
 10
-26.4491323134
 20
-13.2799654285
  0
LWPOLYLINE
  5
2F8
100
AcDbEntity
  8
RACCORDO
100
AcDbPolyline
 62
253
  6
CONTINUOUS
 90
3
 70
0
 10
-26.20164494
 20
-21.1247853479
 10
-26.2004484475
 20
-21.1017041886
 10
-26.1977761387
 20
-21.0838197514
  0
LINE
  5
2F9
100
AcDbEntity
  8
RACCORDO
100
AcDbLine
 62
253
  6
CONTINUOUS
 10
-20.9349190376
 20
24.609412926
 11
-21.0223222425
 21
24.2362556821
  0
LINE
  5
2FA
100
AcDbEntity
  8
RACCORDO
100
AcDbLine
 62
253
  6
CONTINUOUS
 10
-20.658997979
 20
24.5524287856
 11
-20.7464011839
 21
24.1792715417
  0
LWPOLYLINE
  5
2FB
100
AcDbEntity
  8
RACCORDO
100
AcDbPolyline
 62
7
  6
CONTINUOUS
 90
12
 70
0
 10
-18.54816477
 20
23.4677892877
 10
-18.5488199359
 20
23.4656513021
 10
-18.5505764247
 20
23.4622296908
 10
-18.5531645909
 20
23.4590293612
 10
-18.5565739156
 20
23.4560475146
 10
-18.5607609117
 20
23.4533221855
 10
-18.565735541
 20
23.4508566598
 10
-18.5714878417
 20
23.4486476516
 10
-18.5779444411
 20
23.4467233376
 10
-18.5850808819
 20
23.4450931099
 10
-18.5929216214
 20
23.4437475764
 10
-18.6014666597
 20
23.442686737
  0
LWPOLYLINE
  5
2FC
100
AcDbEntity
  8
RACCORDO
100
AcDbPolyline
 62
7
  6
CONTINUOUS
 90
4
 70
0
 10
-36.7790756089
 20
-1.4585466658
 10
-36.7327242408
 20
-1.4257196067
 10
-36.7073789283
 20
-1.4079630951
 10
-36.680418665
 20
-1.3894946783
  0
LINE
  5
2FD
100
AcDbEntity
  8
IMPORT_IGES
100
AcDbLine
 62
7
  6
CONTINUOUS
 10
-34.9344136877
 20
-0.5967878627
 11
-34.8821491405
 21
-0.5604542025
  0
LWPOLYLINE
  5
2FE
100
AcDbEntity
  8
IMPORT_IGES
100
AcDbPolyline
 62
7
  6
CONTINUOUS
 90
13
 70
0
 10
-34.8821491405
 20
-0.5604542025
 10
-34.8539501661
 20
-0.541063326
 10
-34.824457202
 20
-0.5214835885
 10
-34.794010233
 20
-0.5019408065
 10
-34.7632209571
 20
-0.4823937465
 10
-34.7323568171
 20
-0.46313225
 10
-34.7015509739
 20
-0.4444279976
 10
-34.6711689656
 20
-0.4262031636
 10
-34.6414084322
 20
-0.4086939293
 10
-34.6124606336
 20
-0.3921377973
 10
-34.5846433269
 20
-0.3764921581
 10
-34.5581935451
 20
-0.361905775
 10
-34.5332874839
 20
-0.3486732177
  0
LWPOLYLINE
  5
2FF
100
AcDbEntity
  8
RACCORDO
100
AcDbPolyline
 62
7
  6
CONTINUOUS
 90
3
 70
0
 10
-36.680418665
 20
-1.3894946783
 10
-36.6221251145
 20
-1.3505037194
 10
-36.591052112
 20
-1.3300861475
  0
LWPOLYLINE
  5
300
100
AcDbEntity
  8
RACCORDO
100
AcDbPolyline
 62
7
  6
CONTINUOUS
 90
3
 70
0
 10
-36.591052112
 20
-1.3300861475
 10
-36.525211226
 20
-1.2877586233
 10
-36.4906802316
 20
-1.2659331548
  0
LWPOLYLINE
  5
301
100
AcDbEntity
  8
RACCORDO
100
AcDbPolyline
 62
7
  6
CONTINUOUS
 90
3
 70
0
 10
-36.4906802316
 20
-1.2659331548
 10
-36.4186512368
 20
-1.2213814584
 10
-36.3813810223
 20
-1.1987409286
  0
LWPOLYLINE
  5
302
100
AcDbEntity
  8
IMPORT_IGES
100
AcDbPolyline
 62
253
  6
CONTINUOUS
 90
10
 70
0
 10
-11.9978339239
 20
16.0102287928
 10
-12.0097595788
 20
16.0030251501
 10
-12.0214120036
 20
15.9934829326
 10
-12.0324440354
 20
15.9818400319
 10
-12.0424990511
 20
15.9684311046
 10
-12.0512801391
 20
15.9536057766
 10
-12.0585334222
 20
15.9376987554
 10
-12.0639854273
 20
15.9211443454
 10
-12.0673830948
 20
15.9044856001
 10
-12.0685450006
 20
15.8882696733
  0
LWPOLYLINE
  5
303
100
AcDbEntity
  8
IMPORT_IGES
100
AcDbPolyline
 62
253
  6
CONTINUOUS
 90
10
 70
0
 10
-7.967580769
 20
18.0253553703
 10
-7.9795068256
 20
18.0181520068
 10
-7.991159552
 20
18.0086100243
 10
-8.0021917885
 20
17.9969672956
 10
-8.0122468753
 20
17.9835584305
 10
-8.0210279288
 20
17.9687330722
 10
-8.0282811753
 20
17.9528260192
 10
-8.0337331804
 20
17.9362716091
 10
-8.0371308479
 20
17.9196128639
 10
-8.0382927537
 20
17.903396937
  0
LWPOLYLINE
  5
304
100
AcDbEntity
  8
IMPORT_IGES
100
AcDbPolyline
 62
7
  6
CONTINUOUS
 90
10
 70
0
 10
-14.6354238144
 20
12.4851807634
 10
-14.6661702459
 20
12.4678996057
 10
-14.6964108237
 20
12.4477055212
 10
-14.7261455477
 20
12.4245985099
 10
-14.7556894976
 20
12.3982502084
 10
-14.7847275938
 20
12.3689889801
 10
-14.8123145975
 20
12.337799915
 10
-14.838135429
 20
12.3050113766
 10
-14.862505168
 20
12.2702950014
 10
-14.8854238145
 20
12.2336507895
  0
LWPOLYLINE
  5
305
100
AcDbEntity
  8
IMPORT_IGES
100
AcDbPolyline
 62
7
  6
CONTINUOUS
 90
5
 70
0
 10
-14.797311947
 20
12.6542893055
 10
-14.8467236424
 20
12.6270559401
 10
-14.8957576678
 20
12.5947562703
 10
-14.9440416551
 20
12.5576365314
 10
-14.9586471192
 20
12.5447376923
  0
LINE
  5
306
100
AcDbEntity
  8
IMPORT_IGES
100
AcDbLine
 62
7
  6
CONTINUOUS
 10
-13.366315715
 20
14.4071311742
 11
-13.6114358122
 21
14.2845711256
  0
LINE
  5
307
100
AcDbEntity
  8
IMPORT_IGES
100
AcDbLine
 62
253
  6
CONTINUOUS
 10
-5.9902814349
 20
17.8720194277
 11
-5.836490651
 21
17.9489140659
  0
LINE
  5
308
100
AcDbEntity
  8
IMPORT_IGES
100
AcDbLine
 62
7
  6
CONTINUOUS
 10
-12.9895992906
 20
14.2187729621
 11
-13.2173742045
 21
14.1048795933
  0
LINE
  5
309
100
AcDbEntity
  8
IMPORT_IGES
100
AcDbLine
 62
253
  6
CONTINUOUS
 10
-12.9139951952
 20
14.1809709144
 11
-13.1417701091
 21
14.0670775456
  0
LINE
  5
30A
100
AcDbEntity
  8
IMPORT_IGES
100
AcDbLine
 62
253
  6
CONTINUOUS
 10
-12.5544836323
 20
13.7734343072
 11
-14.1448568238
 21
12.9782477115
  0
LINE
  5
30B
100
AcDbEntity
  8
IMPORT_IGES
100
AcDbLine
 62
7
  6
CONTINUOUS
 10
-5.3442256327
 20
17.341406596
 11
-5.00093277
 21
17.5130530794
  0
LINE
  5
30C
100
AcDbEntity
  8
IMPORT_IGES
100
AcDbLine
 62
253
  6
CONTINUOUS
 10
-12.5063812413
 20
13.7483758503
 11
-12.2775990921
 21
13.8627728628
  0
LINE
  5
30D
100
AcDbEntity
  8
IMPORT_IGES
100
AcDbLine
 62
253
  6
CONTINUOUS
 10
-5.183997048
 20
17.277202694
 11
-4.8407745499
 21
17.448813943
  0
LINE
  5
30E
100
AcDbEntity
  8
IMPORT_IGES
100
AcDbLine
 62
7
  6
CONTINUOUS
 10
-14.6354238223
 20
12.4854772696
 11
-11.7800214814
 21
13.9131784401
  0
LINE
  5
30F
100
AcDbEntity
  8
IMPORT_IGES
100
AcDbLine
 62
253
  6
CONTINUOUS
 10
-4.1474039699
 20
17.1253212617
 11
-11.207911915
 21
13.5951004971
  0
LINE
  5
310
100
AcDbEntity
  8
IMPORT_IGES
100
AcDbLine
 62
253
  6
CONTINUOUS
 10
-4.0413702633
 20
16.8518386716
 11
-13.9600317788
 21
11.8925067947
  0
LINE
  5
311
100
AcDbEntity
  8
IMPORT_IGES
100
AcDbLine
 62
7
  6
CONTINUOUS
 10
-14.1721315175
 20
12.2538311093
 11
-11.3117858683
 21
13.6762380595
  0
LINE
  5
312
100
AcDbEntity
  8
IMPORT_IGES
100
AcDbLine
 62
253
  6
CONTINUOUS
 10
-14.1448568238
 20
12.9782477115
 11
-14.7973119465
 21
12.6542893058
  0
LINE
  5
313
100
AcDbEntity
  8
IMPORT_IGES
100
AcDbLine
 62
7
  6
CONTINUOUS
 10
-14.9586471192
 20
13.4887721827
 11
-13.4459520404
 21
14.2191685113
  0
LWPOLYLINE
  5
314
100
AcDbEntity
  8
IMPORT_IGES
100
AcDbPolyline
 62
7
  6
CONTINUOUS
 90
18
 70
0
 10
-5.3442170585
 20
17.3414108014
 10
-5.3469133061
 20
17.3402000261
 10
-5.3544707312
 20
17.3377338807
 10
-5.3654202726
 20
17.3355890116
 10
-5.3796899729
 20
17.3343853561
 10
-5.3972247122
 20
17.3346605182
 10
-5.4174981378
 20
17.3368631486
 10
-5.4398873324
 20
17.3412503796
 10
-5.4640194567
 20
17.3479905966
 10
-5.4893028416
 20
17.3571226333
 10
-5.514977427
 20
17.3684931027
 10
-5.5405267813
 20
17.3819043486
 10
-5.5656654325
 20
17.3972159277
 10
-5.5901455803
 20
17.4142977458
 10
-5.6134238319
 20
17.4327587288
 10
-5.6354725131
 20
17.4525541121
 10
-5.6567037791
 20
17.4741805348
 10
-5.6701973157
 20
17.4895352195
  0
LWPOLYLINE
  5
315
100
AcDbEntity
  8
IMPORT_IGES
100
AcDbPolyline
 62
253
  6
CONTINUOUS
 90
10
 70
0
 10
-5.0008117517
 20
17.5131134522
 10
-4.9951881623
 20
17.5156302321
 10
-4.9788329186
 20
17.5201460258
 10
-4.9608965989
 20
17.5211622875
 10
-4.9416017707
 20
17.5184568503
 10
-4.9213586274
 20
17.5118847897
 10
-4.9006920085
 20
17.5014680798
 10
-4.8800834725
 20
17.4873443101
 10
-4.8599543042
 20
17.4696948397
 10
-4.840779372
 20
17.4488123012
  0
LINE
  5
316
100
AcDbEntity
  8
RACCORDO
100
AcDbLine
 62
7
  6
CONTINUOUS
 10
-36.3769954401
 20
5.8577240949
 11
-27.0856595709
 21
1.2120561603
  0
LINE
  5
317
100
AcDbEntity
  8
RACCORDO
100
AcDbLine
 62
253
  6
CONTINUOUS
 10
-36.7790756089
 20
6.2642277831
 11
-26.9379227701
 21
1.3436513637
  0
LWPOLYLINE
  5
318
100
AcDbEntity
  8
RACCORDO
100
AcDbPolyline
 62
253
  6
CONTINUOUS
 90
27
 70
0
 10
-20.9038561619
 20
-23.3403680133
 10
-20.9002190095
 20
-23.3808047151
 10
-20.8896990202
 20
-23.4201217648
 10
-20.8723875209
 20
-23.4588341251
 10
-20.8484377379
 20
-23.4966396257
 10
-20.8180380803
 20
-23.5332688695
 10
-20.7814106277
 20
-23.5684688002
 10
-20.7388299112
 20
-23.6019798616
 10
-20.6906205928
 20
-23.6335491937
 10
-20.6371329219
 20
-23.6629500819
 10
-20.5787661606
 20
-23.6899635301
 10
-20.515955911
 20
-23.7143873473
 10
-20.4491542906
 20
-23.7360434823
 10
-20.3788627295
 20
-23.7547679621
 10
-20.3055992299
 20
-23.7704205015
 10
-20.2298738712
 20
-23.7828849316
 10
-20.1522218028
 20
-23.7920653658
 10
-20.0732480776
 20
-23.7978816994
 10
-19.993589833
 20
-23.8002795878
 10
-19.9138335009
 20
-23.7992415414
 10
-19.8345907183
 20
-23.7947747334
 10
-19.7565371282
 20
-23.7869170594
 10
-19.680297507
 20
-23.7757463546
 10
-19.6063925995
 20
-23.7613535657
 10
-19.5353209864
 20
-23.7438371772
 10
-19.4675965855
 20
-23.7233251989
 10
-19.4037390286
 20
-23.6999812843
  0
LWPOLYLINE
  5
319
100
AcDbEntity
  8
RACCORDO
100
AcDbPolyline
 62
7
  6
CONTINUOUS
 90
24
 70
0
 10
-20.9038521564
 20
-23.3402956479
 10
-20.9014965118
 20
-23.3842738879
 10
-20.8905723696
 20
-23.4445382373
 10
-20.8707607405
 20
-23.5036223159
 10
-20.8422244202
 20
-23.5605901327
 10
-20.8051955323
 20
-23.6148151808
 10
-20.7601789406
 20
-23.6655463619
 10
-20.7069545356
 20
-23.7128841831
 10
-20.6459194466
 20
-23.7563060125
 10
-20.5788903023
 20
-23.7947387961
 10
-20.5066920552
 20
-23.8281304489
 10
-20.4293249093
 20
-23.8567974256
 10
-20.3481012807
 20
-23.8804550324
 10
-20.263967694
 20
-23.8990767071
 10
-20.1772614442
 20
-23.91277384
 10
-20.0888935379
 20
-23.9214773643
 10
-19.9996194062
 20
-23.9251994659
 10
-19.9101575962
 20
-23.9239175134
 10
-19.8215232816
 20
-23.9176482386
 10
-19.734438685
 20
-23.9064330072
 10
-19.6496128016
 20
-23.890272246
 10
-19.5677882498
 20
-23.8692056693
 10
-19.4895013326
 20
-23.8431670526
 10
-19.4103949373
 20
-23.8097619295
  0
LINE
  5
31A
100
AcDbEntity
  8
DRAFT
100
AcDbLine
 62
7
  6
CONTINUOUS
 10
-23.797481884
 20
27.3824405482
 11
-23.797481884
 21
27.8426946302
  0
LINE
  5
31B
100
AcDbEntity
  8
RACCORDO
100
AcDbLine
 62
253
  6
CONTINUOUS
 10
-23.4060329174
 20
-22.9736459021
 11
-23.4060329174
 21
13.1072462222
  0
LINE
  5
31C
100
AcDbEntity
  8
RACCORDO
100
AcDbLine
 62
253
  6
CONTINUOUS
 10
-23.0554759478
 20
-23.0204244587
 11
-23.0555916295
 21
13.1057170948
  0
LINE
  5
31D
100
AcDbEntity
  8
DRAFT
100
AcDbLine
 62
7
  6
CONTINUOUS
 10
-22.2239515659
 20
26.6720890334
 11
-22.2239515659
 21
27.0559294712
  0
LWPOLYLINE
  5
31E
100
AcDbEntity
  8
RACCORDO
100
AcDbPolyline
 62
253
  6
CONTINUOUS
 90
27
 70
0
 10
-23.0555916295
 20
13.1057170948
 10
-23.0554463676
 20
13.1517514664
 10
-23.0526791295
 20
13.2020018448
 10
-23.0472899151
 20
13.2564682301
 10
-23.0395636566
 20
13.3156032734
 10
-23.0292154218
 20
13.3789543236
 10
-23.0153904141
 20
13.4451634268
 10
-22.9978895869
 20
13.5143861848
 10
-22.9769119867
 20
13.5864669959
 10
-22.952199956
 20
13.6595811012
 10
-22.9235180825
 20
13.7337989774
 10
-22.8911017785
 20
13.8090501478
 10
-22.8553996232
 20
13.8832984225
 10
-22.816201016
 20
13.9564808547
 10
-22.7737165576
 20
14.0286603912
 10
-22.7290266295
 20
14.0979896826
 10
-22.6819824377
 20
14.1642928844
 10
-22.6327327762
 20
14.227745841
 10
-22.582804408
 20
14.2870287371
 10
-22.5321560873
 20
14.3418713197
 10
-22.48082906
 20
14.3925438417
 10
-22.430473827
 20
14.4385372469
 10
-22.381135141
 20
14.4795836325
 10
-22.3327682494
 20
14.5159509013
 10
-22.2868893959
 20
14.5479337045
 10
-22.2440039951
 20
14.5756302593
 10
-22.2036066323
 20
14.5989423486
  0
LWPOLYLINE
  5
31F
100
AcDbEntity
  8
RACCORDO
100
AcDbPolyline
 62
253
  6
CONTINUOUS
 90
28
 70
0
 10
-23.4060329174
 20
13.1072462222
 10
-23.4050849232
 20
13.1625541283
 10
-23.4019185002
 20
13.2228662536
 10
-23.3960912524
 20
13.2882463756
 10
-23.3870844034
 20
13.359128924
 10
-23.374437103
 20
13.4350687767
 10
-23.3579230166
 20
13.5146904558
 10
-23.3372051159
 20
13.5977866046
 10
-23.3119616938
 20
13.6841020376
 10
-23.2823208223
 20
13.7720614413
 10
-23.2481570021
 20
13.8612858764
 10
-23.2093762452
 20
13.9513653216
 10
-23.1665072052
 20
14.040660942
 10
-23.1196585881
 20
14.1287426015
 10
-23.0689643342
 20
14.2151861848
 10
-23.0153098473
 20
14.2984898646
 10
-22.958973854
 20
14.3783502908
 10
-22.9002664305
 20
14.4544587702
 10
-22.8403624373
 20
14.5255776485
 10
-22.7796399752
 20
14.5916327469
 10
-22.7184596462
 20
14.6525891146
 10
-22.6581097788
 20
14.7076426502
 10
-22.5989372325
 20
14.7570226336
 10
-22.5412526424
 20
14.8009836687
 10
-22.4863264788
 20
14.8391608784
 10
-22.4347332824
 20
14.8718385587
 10
-22.3863181026
 20
14.899742561
 10
-22.3412130677
 20
14.9233563434
  0
LINE
  5
320
100
AcDbEntity
  8
RACCORDO
100
AcDbLine
 62
7
  6
CONTINUOUS
 10
-22.5310647445
 20
20.6157052985
 11
-22.4299180686
 21
21.9810739543
  0
LINE
  5
321
100
AcDbEntity
  8
RACCORDO
100
AcDbLine
 62
7
  6
CONTINUOUS
 10
-22.2487495883
 20
20.7500052276
 11
-22.1559855896
 21
22.0022169781
  0
LWPOLYLINE
  5
322
100
AcDbEntity
  8
RACCORDO
100
AcDbPolyline
 62
7
  6
CONTINUOUS
 90
14
 70
0
 10
-22.4299180686
 20
21.9810739543
 10
-22.428874287
 20
21.9912482203
 10
-22.4273116017
 20
22.0009852938
 10
-22.4252300126
 20
22.0102851747
 10
-22.4226176349
 20
22.0191799642
 10
-22.4194863533
 20
22.0276375612
 10
-22.4158718228
 20
22.0355616623
 10
-22.4117685196
 20
22.0429461694
 10
-22.4071819674
 20
22.0497971806
 10
-22.4021643914
 20
22.0560366859
 10
-22.3967108652
 20
22.0616576958
 10
-22.3908263152
 20
22.0666671998
 10
-22.3845777467
 20
22.0710081566
 10
-22.3784853552
 20
22.0744136015
  0
LINE
  5
323
100
AcDbEntity
  8
0
100
AcDbLine
 62
253
  6
CONTINUOUS
 10
-19.9035381199
 20
22.3069878786
 11
-19.816134915
 21
22.6801451224
  0
LINE
  5
324
100
AcDbEntity
  8
RACCORDO
100
AcDbLine
 62
253
  6
CONTINUOUS
 10
-18.6083883135
 20
23.5271239529
 11
-18.6288195731
 21
23.4398952008
  0
LWPOLYLINE
  5
325
100
AcDbEntity
  8
RACCORDO
100
AcDbPolyline
 62
7
  6
CONTINUOUS
 90
12
 70
0
 10
-16.6805715984
 20
23.9383519128
 10
-16.6799164326
 20
23.9404898984
 10
-16.6781599438
 20
23.9439115098
 10
-16.6755717776
 20
23.9471118394
 10
-16.6721624529
 20
23.950093686
 10
-16.6679754568
 20
23.9528190151
 10
-16.6630008275
 20
23.9552845408
 10
-16.6572485268
 20
23.957493549
 10
-16.6507919273
 20
23.959417863
 10
-16.6436554866
 20
23.9610480907
 10
-16.6358147471
 20
23.9623936242
 10
-16.6272697088
 20
23.9634544635
  0
LINE
  5
326
100
AcDbEntity
  8
DRAFT
100
AcDbLine
 62
7
  6
CONTINUOUS
 10
-8.7057694415
 20
20.2046692245
 11
-14.9586471192
 21
14.1302798108
  0
LINE
  5
327
100
AcDbEntity
  8
IMPORT_IGES
100
AcDbLine
 62
7
  6
CONTINUOUS
 10
-9.3882303097
 20
17.9578614742
 11
-10.8368764368
 21
16.5611194597
  0
LINE
  5
328
100
AcDbEntity
  8
IMPORT_IGES
100
AcDbLine
 62
7
  6
CONTINUOUS
 10
-10.8368764368
 20
16.387914379
 11
-9.3882303097
 21
17.7846563934
  0
LINE
  5
329
100
AcDbEntity
  8
IMPORT_IGES
100
AcDbLine
 62
7
  6
CONTINUOUS
 10
-11.3178391556
 20
16.8016008192
 11
-10.2621570156
 21
17.7337549401
  0
LWPOLYLINE
  5
32A
100
AcDbEntity
  8
IMPORT_IGES
100
AcDbPolyline
 62
253
  6
CONTINUOUS
 90
13
 70
0
 10
-5.836490651
 20
17.9489140659
 10
-5.7883858282
 20
17.986558754
 10
-5.7433938788
 20
18.0203745131
 10
-5.7015148028
 20
18.0503613432
 10
-5.6633916283
 20
18.0764437895
 10
-5.6283813273
 20
18.0986973067
 10
-5.5945548151
 20
18.1173482591
 10
-5.5614563103
 20
18.1328678154
 10
-5.5295415943
 20
18.1447848067
 10
-5.4982489279
 20
18.151912091
 10
-5.4673910645
 20
18.1538539543
 10
-5.4371552507
 20
18.1510061105
 10
-5.4075414863
 20
18.1433685596
  0
LWPOLYLINE
  5
32B
100
AcDbEntity
  8
IMPORT_IGES
100
AcDbPolyline
 62
7
  6
CONTINUOUS
 90
3
 70
0
 10
-32.9545147004
 20
-1.5867373563
 10
-32.9295130712
 20
-1.5684360282
 10
-32.902554594
 20
-1.5498786133
  0
LWPOLYLINE
  5
32C
100
AcDbEntity
  8
RACCORDO
100
AcDbPolyline
 62
7
  6
CONTINUOUS
 90
3
 70
0
 10
-34.7991766216
 20
-2.4484961595
 10
-34.7768685173
 20
-2.4322794089
 10
-34.7529569606
 20
-2.4154419392
  0
LWPOLYLINE
  5
32D
100
AcDbEntity
  8
RACCORDO
100
AcDbPolyline
 62
7
  6
CONTINUOUS
 90
13
 70
0
 10
-26.9379227701
 20
1.3436513637
 10
-26.9590662643
 20
1.3283767911
 10
-26.9788942644
 20
1.3135142415
 10
-26.9973546033
 20
1.2992002167
 10
-27.0145075896
 20
1.2856354384
 10
-27.030206397
 20
1.2729084673
 10
-27.0440946249
 20
1.2609977371
 10
-27.0561562883
 20
1.2500858347
 10
-27.0663625433
 20
1.2403064883
 10
-27.0743307063
 20
1.2315915445
 10
-27.0800819779
 20
1.2241559375
 10
-27.0835787125
 20
1.2181550981
 10
-27.0844170761
 20
1.214291548
  0
LWPOLYLINE
  5
32E
100
AcDbEntity
  8
RACCORDO
100
AcDbPolyline
 62
7
  6
CONTINUOUS
 90
4
 70
0
 10
-34.7991766216
 20
-3.8341368055
 10
-34.7528252535
 20
-3.8013097464
 10
-34.727479941
 20
-3.7835532348
 10
-34.7005196777
 20
-3.7650848181
  0
LWPOLYLINE
  5
32F
100
AcDbEntity
  8
RACCORDO
100
AcDbPolyline
 62
7
  6
CONTINUOUS
 90
4
 70
0
 10
-34.7529569606
 20
-2.4154419392
 10
-34.700494226
 20
-2.3794880696
 10
-34.6720574074
 20
-2.3602279721
 10
-34.6422261272
 20
-2.340453213
  0
LWPOLYLINE
  5
330
100
AcDbEntity
  8
IMPORT_IGES
100
AcDbPolyline
 62
7
  6
CONTINUOUS
 90
4
 70
0
 10
-32.902554594
 20
-1.5498786133
 10
-32.8444615009
 20
-1.5115998888
 10
-32.8141360828
 20
-1.4918474624
 10
-32.7833203355
 20
-1.472346059
  0
LWPOLYLINE
  5
331
100
AcDbEntity
  8
RACCORDO
100
AcDbPolyline
 62
7
  6
CONTINUOUS
 90
3
 70
0
 10
-34.6422261272
 20
-2.340453213
 10
-34.578825404
 20
-2.2990565532
 10
-34.5453122387
 20
-2.277708117
  0
LWPOLYLINE
  5
332
100
AcDbEntity
  8
RACCORDO
100
AcDbPolyline
 62
7
  6
CONTINUOUS
 90
3
 70
0
 10
-34.5453122387
 20
-2.277708117
 10
-34.4752618817
 20
-2.2336734815
 10
-34.4387522495
 20
-2.2113309521
  0
LWPOLYLINE
  5
333
100
AcDbEntity
  8
IMPORT_IGES
100
AcDbPolyline
 62
7
  6
CONTINUOUS
 90
9
 70
0
 10
-32.7833203355
 20
-1.472346059
 10
-32.7216811324
 20
-1.4343272221
 10
-32.691270122
 20
-1.4161524094
 10
-32.6614727115
 20
-1.3987067787
 10
-32.6325981808
 20
-1.3820242783
 10
-32.60475433
 20
-1.3664244208
 10
-32.5781877411
 20
-1.3520395001
 10
-32.5532583409
 20
-1.3388471968
 10
-32.5302506316
 20
-1.3269297352
  0
LWPOLYLINE
  5
334
100
AcDbEntity
  8
RACCORDO
100
AcDbPolyline
 62
7
  6
CONTINUOUS
 90
3
 70
0
 10
-34.4387522495
 20
-2.2113309521
 10
-34.3635461355
 20
-2.1658759164
 10
-34.3249215347
 20
-2.1432805701
  0
LWPOLYLINE
  5
335
100
AcDbEntity
  8
RACCORDO
100
AcDbPolyline
 62
7
  6
CONTINUOUS
 90
3
 70
0
 10
-36.3813810223
 20
-1.1987409286
 10
-36.304820522
 20
-1.1533310764
 10
-36.2658224039
 20
-1.1306759145
  0
LWPOLYLINE
  5
336
100
AcDbEntity
  8
RACCORDO
100
AcDbPolyline
 62
7
  6
CONTINUOUS
 90
3
 70
0
 10
-34.3249215347
 20
-2.1432805701
 10
-34.2467488991
 20
-2.0981909228
 10
-34.2076372423
 20
-2.0765698484
  0
LWPOLYLINE
  5
337
100
AcDbEntity
  8
IMPORT_IGES
100
AcDbPolyline
 62
7
  6
CONTINUOUS
 90
10
 70
0
 10
-13.9600317788
 20
11.8925067947
 10
-13.9724863443
 20
11.8853894966
 10
-13.9846443493
 20
11.8771812256
 10
-13.9965057936
 20
11.8678819816
 10
-14.008149891
 20
11.8574088349
 10
-14.0194974278
 20
11.8458447152
 10
-14.0303107631
 20
11.833438412
 10
-14.0405106833
 20
11.8202728549
 10
-14.0501764021
 20
11.8062651142
 10
-14.0593079193
 20
11.7914151899
  0
LWPOLYLINE
  5
338
100
AcDbEntity
  8
IMPORT_IGES
100
AcDbPolyline
 62
253
  6
CONTINUOUS
 90
8
 70
0
 10
-3.9093673706
 20
17.4790503926
 10
-3.8921105114
 20
17.4887858314
 10
-3.8775728647
 20
17.4996292197
 10
-3.8660017295
 20
17.5113868429
 10
-3.8575946167
 20
17.5238701076
 10
-3.8524923065
 20
17.5368429225
 10
-3.8507789515
 20
17.5500256203
 10
-3.8507983014
 20
17.551445515
  0
LWPOLYLINE
  5
339
100
AcDbEntity
  8
RACCORDO
100
AcDbPolyline
 62
7
  6
CONTINUOUS
 90
5
 70
0
 10
-36.2658224039
 20
-1.1306759145
 10
-36.1875362296
 20
-1.0866203547
 10
-36.149286939
 20
-1.0652902323
 10
-36.1117177477
 20
-1.0452621615
 10
-36.0750675862
 20
-1.0270863687
  0
LINE
  5
33A
100
AcDbEntity
  8
RACCORDO
100
AcDbLine
 62
7
  6
CONTINUOUS
 10
-35.3586777564
 20
-0.6674985408
 11
-36.0750675862
 21
-1.0270863687
  0
LINE
  5
33B
100
AcDbEntity
  8
IMPORT_IGES
100
AcDbLine
 62
7
  6
CONTINUOUS
 10
-34.5332874839
 20
-0.3486732177
 11
-29.2488681931
 21
2.2936604714
  0
LWPOLYLINE
  5
33C
100
AcDbEntity
  8
IMPORT_IGES
100
AcDbPolyline
 62
253
  6
CONTINUOUS
 90
3
 70
0
 10
-14.9029007818
 20
10.2290342483
 10
-14.9319827527
 20
10.2162213543
 10
-14.9586471192
 20
10.2071640631
  0
LINE
  5
33D
100
AcDbEntity
  8
RACCORDO
100
AcDbLine
 62
7
  6
CONTINUOUS
 10
-21.7468722185
 20
28.1921793579
 11
-21.7468722185
 21
27.8290423027
  0
LINE
  5
33E
100
AcDbEntity
  8
ASSI
100
AcDbLine
 62
253
  6
CONTINUOUS
 10
-21.6408062014
 20
23.7072224795
 11
-21.6408062014
 21
23.9938041383
  0
LINE
  5
33F
100
AcDbEntity
  8
RACCORDO
100
AcDbLine
 62
7
  6
CONTINUOUS
 10
-20.9038561619
 20
-23.3403680133
 11
-20.9038562427
 21
-23.1392807306
  0
LINE
  5
340
100
AcDbEntity
  8
RACCORDO
100
AcDbLine
 62
7
  6
CONTINUOUS
 10
-20.9038562427
 20
16.557512282
 11
-20.9038562427
 21
17.7167723357
  0
LINE
  5
341
100
AcDbEntity
  8
ASSI
100
AcDbLine
 62
253
  6
CONTINUOUS
 10
-20.8860565112
 20
26.7217040999
 11
-20.8860565112
 21
27.166531307
  0
LINE
  5
342
100
AcDbEntity
  8
0
100
AcDbLine
 62
7
  6
CONTINUOUS
 10
-20.827633403
 20
21.3380408848
 11
-20.827633403
 21
21.597848506
  0
LINE
  5
343
100
AcDbEntity
  8
ASSI
100
AcDbLine
 62
7
  6
CONTINUOUS
 10
-20.5993069604
 20
26.7513448794
 11
-20.5993069604
 21
27.2518064993
  0
LINE
  5
344
100
AcDbEntity
  8
0
100
AcDbLine
 62
7
  6
CONTINUOUS
 10
-20.5447906905
 20
21.4794622411
 11
-20.5447906905
 21
21.7392698622
  0
LINE
  5
345
100
AcDbEntity
  8
0
100
AcDbLine
 62
253
  6
CONTINUOUS
 10
-20.3326586562
 20
22.1051435005
 11
-20.3326586562
 21
22.451553662
  0
LINE
  5
346
100
AcDbEntity
  8
0
100
AcDbLine
 62
253
  6
CONTINUOUS
 10
-19.9690905236
 20
22.2869275668
 11
-19.9690905236
 21
22.6333377283
  0
LWPOLYLINE
  5
347
100
AcDbEntity
  8
0
100
AcDbPolyline
 62
7
  6
CONTINUOUS
 90
19
 70
0
 10
-20.827633403
 20
21.597848506
 10
-20.8256317102
 20
21.6523376465
 10
-20.8200097583
 20
21.7074488583
 10
-20.8107675475
 20
21.7631821413
 10
-20.7977802698
 20
21.819968931
 10
-20.7811727332
 20
21.8773777918
 10
-20.7613193612
 20
21.9341144182
 10
-20.7381464209
 20
21.9901635395
 10
-20.7117276453
 20
22.0455404263
 10
-20.6826586562
 20
22.0989965844
 10
-20.650879251
 20
22.1504883823
 10
-20.6164496323
 20
22.2000594516
 10
-20.5801460296
 20
22.2465921927
 10
-20.5419258733
 20
22.2900175864
 10
-20.5018317332
 20
22.3304046518
 10
-20.4607675475
 20
22.3668428463
 10
-20.4190346292
 20
22.3990286558
 10
-20.3763316654
 20
22.4272655943
 10
-20.3326586562
 20
22.451553662
  0
LWPOLYLINE
  5
348
100
AcDbEntity
  8
0
100
AcDbPolyline
 62
7
  6
CONTINUOUS
 90
16
 70
0
 10
-20.5447906905
 20
21.7392698622
 10
-20.5435241583
 20
21.7675379909
 10
-20.5400633314
 20
21.7960300611
 10
-20.5344082098
 20
21.8247460728
 10
-20.5264495548
 20
21.8540032222
 10
-20.5162966052
 20
21.8834843131
 10
-20.504277077
 20
21.9122377571
 10
-20.4903300658
 20
21.9402398119
 10
-20.474516476
 20
21.9675142197
 10
-20.4573467375
 20
21.9931806195
 10
-20.4387766006
 20
22.0171865434
 10
-20.418850315
 20
22.0395844592
 10
-20.3982110598
 20
22.0596514086
 10
-20.3770732282
 20
22.0771464056
 10
-20.355222427
 20
22.0923104362
 10
-20.3326586562
 20
22.1051435005
  0
LINE
  5
349
100
AcDbEntity
  8
RACCORDO
100
AcDbLine
 62
253
  6
CONTINUOUS
 10
-16.6272697088
 20
23.9634544635
 11
-16.6439547423
 21
23.8922197633
  0
LINE
  5
34A
100
AcDbEntity
  8
0
100
AcDbLine
 62
7
  6
CONTINUOUS
 10
-15.1707791535
 20
23.154232797
 11
-15.2581823584
 21
22.7810755531
  0
LINE
  5
34B
100
AcDbEntity
  8
IMPORT_IGES
100
AcDbLine
 62
7
  6
CONTINUOUS
 10
-14.8854238145
 20
12.2336507895
 11
-14.9586471192
 21
12.1073592703
  0
LWPOLYLINE
  5
34C
100
AcDbEntity
  8
IMPORT_IGES
100
AcDbPolyline
 62
7
  6
CONTINUOUS
 90
3
 70
0
 10
-28.9254188873
 20
-4.5484437538
 10
-28.9098119183
 20
-4.5284359643
 10
-28.891588477
 20
-4.5118620971
  0
LINE
  5
34D
100
AcDbEntity
  8
IMPORT_IGES
100
AcDbLine
 62
7
  6
CONTINUOUS
 10
-30.6033846529
 20
-3.5838630053
 11
-31.7347555028
 21
-4.5208297223
  0
LWPOLYLINE
  5
34E
100
AcDbEntity
  8
IMPORT_IGES
100
AcDbPolyline
 62
7
  6
CONTINUOUS
 90
3
 70
0
 10
-32.1590195715
 20
-3.3268242966
 10
-32.1340179424
 20
-3.3085229685
 10
-32.1070594652
 20
-3.2899655536
  0
LWPOLYLINE
  5
34F
100
AcDbEntity
  8
RACCORDO
100
AcDbPolyline
 62
7
  6
CONTINUOUS
 90
3
 70
0
 10
-33.9860038232
 20
-4.2407232047
 10
-33.9636957189
 20
-4.2245064541
 10
-33.9397841622
 20
-4.2076689844
  0
LWPOLYLINE
  5
350
100
AcDbEntity
  8
RACCORDO
100
AcDbPolyline
 62
7
  6
CONTINUOUS
 90
4
 70
0
 10
-33.9860038232
 20
-5.4098574998
 10
-33.9396524551
 20
-5.3770304407
 10
-33.9143071426
 20
-5.3592739291
 10
-33.8873468793
 20
-5.3408055123
  0
LWPOLYLINE
  5
351
100
AcDbEntity
  8
RACCORDO
100
AcDbPolyline
 62
7
  6
CONTINUOUS
 90
4
 70
0
 10
-33.9397841622
 20
-4.2076689844
 10
-33.8873214277
 20
-4.1717151148
 10
-33.8588846091
 20
-4.1524550174
 10
-33.8290533288
 20
-4.1326802583
  0
LWPOLYLINE
  5
352
100
AcDbEntity
  8
IMPORT_IGES
100
AcDbPolyline
 62
7
  6
CONTINUOUS
 90
4
 70
0
 10
-32.8982615963
 20
-2.8896629743
 10
-32.9178427967
 20
-2.9029761071
 10
-32.9366532687
 20
-2.9161109718
 10
-32.9545147004
 20
-2.9290767322
  0
LWPOLYLINE
  5
353
100
AcDbEntity
  8
RACCORDO
100
AcDbPolyline
 62
7
  6
CONTINUOUS
 90
3
 70
0
 10
-34.7005196777
 20
-3.7650848181
 10
-34.6422261272
 20
-3.7260938591
 10
-34.6111531246
 20
-3.7056762872
  0
LWPOLYLINE
  5
354
100
AcDbEntity
  8
RACCORDO
100
AcDbPolyline
 62
7
  6
CONTINUOUS
 90
3
 70
0
 10
-33.8873468793
 20
-5.3408055123
 10
-33.8290533288
 20
-5.3018145534
 10
-33.7979803263
 20
-5.2813969815
  0
LWPOLYLINE
  5
355
100
AcDbEntity
  8
IMPORT_IGES
100
AcDbPolyline
 62
7
  6
CONTINUOUS
 90
4
 70
0
 10
-32.1070594652
 20
-3.2899655536
 10
-32.0489663721
 20
-3.2516868291
 10
-32.018640954
 20
-3.2319344027
 10
-31.9878252067
 20
-3.2124329992
  0
LWPOLYLINE
  5
356
100
AcDbEntity
  8
IMPORT_IGES
100
AcDbPolyline
 62
7
  6
CONTINUOUS
 90
3
 70
0
 10
-32.8365757419
 20
-2.8486850091
 10
-32.8574490287
 20
-2.8623396591
 10
-32.8982615963
 20
-2.8896629743
  0
LWPOLYLINE
  5
357
100
AcDbEntity
  8
RACCORDO
100
AcDbPolyline
 62
7
  6
CONTINUOUS
 90
3
 70
0
 10
-33.8290533288
 20
-4.1326802583
 10
-33.7656526056
 20
-4.0912835984
 10
-33.7321394403
 20
-4.0699351622
  0
LWPOLYLINE
  5
358
100
AcDbEntity
  8
RACCORDO
100
AcDbPolyline
 62
7
  6
CONTINUOUS
 90
3
 70
0
 10
-34.6111531246
 20
-3.7056762872
 10
-34.5453122387
 20
-3.663348763
 10
-34.5107812443
 20
-3.6415232945
  0
LWPOLYLINE
  5
359
100
AcDbEntity
  8
RACCORDO
100
AcDbPolyline
 62
7
  6
CONTINUOUS
 90
3
 70
0
 10
-33.7979803263
 20
-5.2813969815
 10
-33.7321394403
 20
-5.2390694573
 10
-33.6976084459
 20
-5.2172439888
  0
LWPOLYLINE
  5
35A
100
AcDbEntity
  8
RACCORDO
100
AcDbPolyline
 62
7
  6
CONTINUOUS
 90
3
 70
0
 10
-33.7321394403
 20
-4.0699351622
 10
-33.6620890834
 20
-4.0259005267
 10
-33.6255794511
 20
-4.0035579973
  0
LWPOLYLINE
  5
35B
100
AcDbEntity
  8
RACCORDO
100
AcDbPolyline
 62
7
  6
CONTINUOUS
 90
3
 70
0
 10
-34.5107812443
 20
-3.6415232945
 10
-34.4387522495
 20
-3.5969715981
 10
-34.401482035
 20
-3.5743310683
  0
LWPOLYLINE
  5
35C
100
AcDbEntity
  8
IMPORT_IGES
100
AcDbPolyline
 62
7
  6
CONTINUOUS
 90
9
 70
0
 10
-31.9878252067
 20
-3.2124329992
 10
-31.9261860036
 20
-3.1744141623
 10
-31.8957749932
 20
-3.1562393497
 10
-31.8659775827
 20
-3.138793719
 10
-31.837103052
 20
-3.1221112185
 10
-31.8092592012
 20
-3.106511361
 10
-31.7826926123
 20
-3.0921264404
 10
-31.7577632121
 20
-3.0789341371
 10
-31.7347555028
 20
-3.0670166755
  0
LWPOLYLINE
  5
35D
100
AcDbEntity
  8
RACCORDO
100
AcDbPolyline
 62
7
  6
CONTINUOUS
 90
3
 70
0
 10
-33.6255794511
 20
-4.0035579973
 10
-33.5503733371
 20
-3.9581029617
 10
-33.5117487363
 20
-3.9355076153
  0
LWPOLYLINE
  5
35E
100
AcDbEntity
  8
RACCORDO
100
AcDbPolyline
 62
7
  6
CONTINUOUS
 90
3
 70
0
 10
-34.401482035
 20
-3.5743310683
 10
-34.3249215347
 20
-3.5289212161
 10
-34.2859234166
 20
-3.5062660542
  0
LWPOLYLINE
  5
35F
100
AcDbEntity
  8
RACCORDO
100
AcDbPolyline
 62
7
  6
CONTINUOUS
 90
3
 70
0
 10
-33.5117487363
 20
-3.9355076153
 10
-33.4335761008
 20
-3.890417968
 10
-33.3944644439
 20
-3.8687968936
  0
LWPOLYLINE
  5
360
100
AcDbEntity
  8
RACCORDO
100
AcDbPolyline
 62
7
  6
CONTINUOUS
 90
5
 70
0
 10
-34.2859234166
 20
-3.5062660542
 10
-34.2076372423
 20
-3.4622104945
 10
-34.1693879517
 20
-3.4408803721
 10
-34.1318187603
 20
-3.4208523012
 10
-34.0951685988
 20
-3.4026765084
  0
LWPOLYLINE
  5
361
100
AcDbEntity
  8
RACCORDO
100
AcDbPolyline
 62
7
  6
CONTINUOUS
 90
3
 70
0
 10
-34.2076372423
 20
-2.0765698484
 10
-34.1312314567
 20
-2.036224604
 10
-34.0951685988
 20
-2.0170358624
  0
LWPOLYLINE
  5
362
100
AcDbEntity
  8
IMPORT_IGES
100
AcDbPolyline
 62
7
  6
CONTINUOUS
 90
17
 70
0
 10
-32.5419250228
 20
-2.6751460543
 10
-32.5543034676
 20
-2.6815500073
 10
-32.5673669029
 20
-2.6884553826
 10
-32.5810633563
 20
-2.6958009973
 10
-32.5953933244
 20
-2.7035986667
 10
-32.610419591
 20
-2.7119250735
 10
-32.6261225988
 20
-2.720745034
 10
-32.6424624746
 20
-2.7300277652
 10
-32.659476794
 20
-2.7398425755
 10
-32.6771161029
 20
-2.7501456122
 10
-32.6953387308
 20
-2.7609031438
 10
-32.7141905935
 20
-2.772184121
 10
-32.7336292166
 20
-2.7839666345
 10
-32.7535558121
 20
-2.7961775424
 10
-32.7739184163
 20
-2.8087973839
 10
-32.7946462321
 20
-2.8218334112
 10
-32.8365757419
 20
-2.8486850091
  0
LINE
  5
363
100
AcDbEntity
  8
RACCORDO
100
AcDbLine
 62
7
  6
CONTINUOUS
 10
-33.3787787691
 20
-1.6574480344
 11
-34.0951685988
 21
-2.0170358624
  0
LINE
  5
364
100
AcDbEntity
  8
RACCORDO
100
AcDbLine
 62
7
  6
CONTINUOUS
 10
-33.3787787691
 20
-3.0430886805
 11
-34.0951685988
 21
-3.4026765084
  0
LINE
  5
365
100
AcDbEntity
  8
IMPORT_IGES
100
AcDbLine
 62
7
  6
CONTINUOUS
 10
-32.5302506316
 20
-1.3269297352
 11
-27.2689692058
 21
1.3037109778
  0
LINE
  5
366
100
AcDbEntity
  8
IMPORT_IGES
100
AcDbLine
 62
7
  6
CONTINUOUS
 10
-0.660575584
 20
13.4764454917
 11
-1.1909056699
 21
13.2112804488
  0
LINE
  5
367
100
AcDbEntity
  8
IMPORT_IGES
100
AcDbLine
 62
253
  6
CONTINUOUS
 10
-0.9225775126
 20
13.1942393764
 11
-0.3922474267
 21
13.4594044194
  0
LINE
  5
368
100
AcDbEntity
  8
IMPORT_IGES
100
AcDbLine
 62
7
  6
CONTINUOUS
 10
-32.5419250228
 20
-2.6751460543
 11
-31.6110118161
 21
-2.2096497033
  0
LINE
  5
369
100
AcDbEntity
  8
IMPORT_IGES
100
AcDbLine
 62
7
  6
CONTINUOUS
 10
-27.0843693795
 20
0.053671515
 11
-31.3988797817
 21
-2.1035836861
  0
LINE
  5
36A
100
AcDbEntity
  8
IMPORT_IGES
100
AcDbLine
 62
253
  6
CONTINUOUS
 10
-0.6603648409
 20
13.4765507254
 11
-0.660575584
 21
13.4764454917
  0
LWPOLYLINE
  5
36B
100
AcDbEntity
  8
IMPORT_IGES
100
AcDbPolyline
 62
7
  6
CONTINUOUS
 90
8
 70
0
 10
-1.190733936
 20
13.2113176782
 10
-1.1721127426
 20
13.2196219057
 10
-1.1350812316
 20
13.2305101453
 10
-1.0953317922
 20
13.2355063038
 10
-1.0540846755
 20
13.2343984947
 10
-1.0117466319
 20
13.2271160894
 10
-0.9679109109
 20
13.2137297167
 10
-0.9225775126
 20
13.1942393764
  0
LWPOLYLINE
  5
36C
100
AcDbEntity
  8
IMPORT_IGES
100
AcDbPolyline
 62
253
  6
CONTINUOUS
 90
5
 70
0
 10
-0.3922474267
 20
13.4594044194
 10
-0.3648027653
 20
13.4709432463
 10
-0.3379325391
 20
13.4779012895
 10
-0.3120758793
 20
13.4802211021
 10
-0.287772802
 20
13.477948195
  0
LWPOLYLINE
  5
36D
100
AcDbEntity
  8
IMPORT_IGES
100
AcDbPolyline
 62
253
  6
CONTINUOUS
 90
7
 70
0
 10
-0.1447600533
 20
13.3356607327
 10
-0.1173153919
 20
13.3471995596
 10
-0.0904451657
 20
13.3541576028
 10
-0.0645885059
 20
13.3564774154
 10
-0.0402854286
 20
13.3542045083
 10
-0.0177693815
 20
13.3474591245
 10
-0.0107308623
 20
13.3442485997
  0
LWPOLYLINE
  5
36E
100
AcDbEntity
  8
IMPORT_IGES
100
AcDbPolyline
 62
7
  6
CONTINUOUS
 90
9
 70
0
 10
-13.9256413062
 20
1.5443076449
 10
-13.8885932824
 20
1.5295681013
 10
-13.8503007262
 20
1.5149769049
 10
-13.8110857296
 20
1.5009152156
 10
-13.7717323372
 20
1.487791472
 10
-13.733232383
 20
1.4754952699
 10
-13.696320124
 20
1.4643515777
 10
-13.6614467012
 20
1.4551133159
 10
-13.6291761698
 20
1.4483653866
  0
LINE
  5
36F
100
AcDbEntity
  8
IMPORT_IGES
100
AcDbLine
 62
7
  6
CONTINUOUS
 10
-13.9567501209
 20
1.5574766298
 11
-13.9256413062
 21
1.5443076449
  0
LINE
  5
370
100
AcDbEntity
  8
IMPORT_IGES
100
AcDbLine
 62
7
  6
CONTINUOUS
 10
-14.7818704239
 20
1.1614683169
 11
-14.9586471192
 21
1.2498566645
  0
LWPOLYLINE
  5
371
100
AcDbEntity
  8
RACCORDO
100
AcDbPolyline
 62
253
  6
CONTINUOUS
 90
28
 70
0
 10
-20.9038562427
 20
17.7167713712
 10
-20.9002221678
 20
17.675676424
 10
-20.8897030975
 20
17.6359241606
 10
-20.8723909023
 20
17.5968302101
 10
-20.8484399575
 20
17.558698967
 10
-20.818038874
 20
17.5217976187
 10
-20.7814101165
 20
17.4863847107
 10
-20.7388285928
 20
17.4527209097
 10
-20.6906193863
 20
17.4210577898
 10
-20.6371330949
 20
17.3916239209
 10
-20.5787690604
 20
17.3646393284
 10
-20.5159633062
 20
17.3403048362
 10
-20.4491688604
 20
17.3187966325
 10
-20.3788879611
 20
17.3002797272
 10
-20.3056381529
 20
17.2848926524
 10
-20.2299283839
 20
17.2727455501
 10
-20.1522965172
 20
17.2639356701
 10
-20.0733444604
 20
17.258541083
 10
-19.9936988441
 20
17.2566064622
 10
-19.9139427262
 20
17.2581517557
 10
-19.8346907746
 20
17.2631698982
 10
-19.7566179882
 20
17.2716112545
 10
-19.6803415821
 20
17.2834010662
 10
-19.6063927073
 20
17.2984484068
 10
-19.535294422
 20
17.3166353742
 10
-19.4675665209
 20
17.3378248284
 10
-19.4037187065
 20
17.3618577763
 10
-19.3442222483
 20
17.3885539316
  0
LINE
  5
372
100
AcDbEntity
  8
RACCORDO
100
AcDbLine
 62
253
  6
CONTINUOUS
 10
-19.3442222483
 20
17.3885539316
 11
-19.3442222483
 21
16.0157706855
  0
LINE
  5
373
100
AcDbEntity
  8
RACCORDO
100
AcDbLine
 62
253
  6
CONTINUOUS
 10
-19.3442222483
 20
-22.3012008696
 11
-19.3442222483
 21
-23.6739841157
  0
LWPOLYLINE
  5
374
100
AcDbEntity
  8
RACCORDO
100
AcDbPolyline
 62
253
  6
CONTINUOUS
 90
8
 70
0
 10
-19.3442222483
 20
-23.6739841157
 10
-19.3458715766
 20
-23.7015509665
 10
-19.3504636782
 20
-23.7271079394
 10
-19.3579199931
 20
-23.7502178152
 10
-19.3681129615
 20
-23.7704852389
 10
-19.3808682057
 20
-23.7875634828
 10
-19.3959675137
 20
-23.8011603787
 10
-19.4103890017
 20
-23.8097743578
  0
LWPOLYLINE
  5
375
100
AcDbEntity
  8
IMPORT_IGES
100
AcDbPolyline
 62
7
  6
CONTINUOUS
 90
10
 70
0
 10
-14.8632235479
 20
10.3730909253
 10
-14.8713629974
 20
10.3574553969
 10
-14.8785930708
 20
10.3416402668
 10
-14.8849137681
 20
10.3256455351
 10
-14.8903562107
 20
10.3093553227
 10
-14.8948892772
 20
10.2928855086
 10
-14.8984196039
 20
10.2765837304
 10
-14.9009160697
 20
10.2605658672
 10
-14.9024097956
 20
10.2447160398
 10
-14.9029007818
 20
10.2290342483
  0
LINE
  5
376
100
AcDbEntity
  8
IMPORT_IGES
100
AcDbLine
 62
253
  6
CONTINUOUS
 10
-14.4213977126
 20
12.0016621457
 11
-14.9586471192
 21
11.0538104119
  0
LINE
  5
377
100
AcDbEntity
  8
IMPORT_IGES
100
AcDbLine
 62
253
  6
CONTINUOUS
 10
-14.8632235479
 20
10.3730909253
 11
-14.0593079193
 21
11.7914151899
  0
LWPOLYLINE
  5
378
100
AcDbEntity
  8
IMPORT_IGES
100
AcDbPolyline
 62
7
  6
CONTINUOUS
 90
10
 70
0
 10
-14.4213977123
 20
12.0016621456
 10
-14.3988035639
 20
12.038625606
 10
-14.3744645079
 20
12.0739200961
 10
-14.3485669113
 20
12.1072776834
 10
-14.3213101124
 20
12.1384447618
 10
-14.2929011682
 20
12.1671852672
 10
-14.2635530276
 20
12.1932818842
 10
-14.2334880758
 20
12.2165361698
 10
-14.2029366734
 20
12.2367706597
 10
-14.1721315036
 20
12.2538311024
  0
LWPOLYLINE
  5
379
100
AcDbEntity
  8
IMPORT_IGES
100
AcDbPolyline
 62
253
  6
CONTINUOUS
 90
4
 70
0
 10
-7.7664088967
 20
18.9528841285
 10
-7.7626802293
 20
18.9583598131
 10
-7.751110507
 20
18.9698953931
 10
-7.7365768106
 20
18.9804501977
  0
LWPOLYLINE
  5
37A
100
AcDbEntity
  8
IMPORT_IGES
100
AcDbPolyline
 62
253
  6
CONTINUOUS
 90
3
 70
0
 10
-4.8068730736
 20
17.4898294484
 10
-4.8176767311
 20
17.4778377151
 10
-4.8289953645
 20
17.4641151901
  0
LINE
  5
37B
100
AcDbEntity
  8
IMPORT_IGES
100
AcDbLine
 62
7
  6
CONTINUOUS
 10
-28.891588477
 20
-4.5118620971
 11
-28.870973039
 21
-4.4989079074
  0
LWPOLYLINE
  5
37C
100
AcDbEntity
  8
IMPORT_IGES
100
AcDbPolyline
 62
7
  6
CONTINUOUS
 90
9
 70
0
 10
-28.0754779102
 20
-3.5543160959
 10
-28.0960986286
 20
-3.5672490792
 10
-28.1142311552
 20
-3.5836955589
 10
-28.1297024595
 20
-3.6035194023
 10
-28.142347214
 20
-3.6266452441
 10
-28.1520865621
 20
-3.6528543075
 10
-28.158871034
 20
-3.6817957942
 10
-28.1625965307
 20
-3.7133339808
 10
-28.1633457688
 20
-3.7362418514
  0
LWPOLYLINE
  5
37D
100
AcDbEntity
  8
RACCORDO
100
AcDbPolyline
 62
7
  6
CONTINUOUS
 90
3
 70
0
 10
-33.6976084459
 20
-5.2172439888
 10
-33.6255794511
 20
-5.1726922924
 10
-33.5883092367
 20
-5.1500517626
  0
LWPOLYLINE
  5
37E
100
AcDbEntity
  8
RACCORDO
100
AcDbPolyline
 62
7
  6
CONTINUOUS
 90
3
 70
0
 10
-33.5883092367
 20
-5.1500517626
 10
-33.5117487363
 20
-5.1046419104
 10
-33.4727506182
 20
-5.0819867485
  0
LWPOLYLINE
  5
37F
100
AcDbEntity
  8
IMPORT_IGES
100
AcDbPolyline
 62
253
  6
CONTINUOUS
 90
16
 70
0
 10
-1.2761309667
 20
12.1514373091
 10
-1.2389044494
 20
12.1724575253
 10
-1.2024758983
 20
12.1977655039
 10
-1.1672226606
 20
12.226947195
 10
-1.1336944882
 20
12.2593503758
 10
-1.1019747648
 20
12.2946932542
 10
-1.07178035
 20
12.3332681035
 10
-1.0433107773
 20
12.3749886204
 10
-1.0170978306
 20
12.4192585229
 10
-0.9934482722
 20
12.4657224669
 10
-0.972676832
 20
12.5139756647
 10
-0.9551323863
 20
12.5634556338
 10
-0.9411326945
 20
12.6135138991
 10
-0.9309205323
 20
12.6635420652
 10
-0.9246835087
 20
12.7129815868
 10
-0.9225775126
 20
12.7612266745
  0
LWPOLYLINE
  5
380
100
AcDbEntity
  8
RACCORDO
100
AcDbPolyline
 62
7
  6
CONTINUOUS
 90
5
 70
0
 10
-33.4727506182
 20
-5.0819867485
 10
-33.3944644439
 20
-5.0379311887
 10
-33.3562151533
 20
-5.0166010663
 10
-33.318645962
 20
-4.9965729955
 10
-33.2819958005
 20
-4.9783972027
  0
LWPOLYLINE
  5
381
100
AcDbEntity
  8
RACCORDO
100
AcDbPolyline
 62
7
  6
CONTINUOUS
 90
3
 70
0
 10
-33.3944644439
 20
-3.8687968936
 10
-33.3180586584
 20
-3.8284516493
 10
-33.2819958005
 20
-3.8092629076
  0
LINE
  5
382
100
AcDbEntity
  8
RACCORDO
100
AcDbLine
 62
7
  6
CONTINUOUS
 10
-32.5656059707
 20
-3.4496750797
 11
-33.2819958005
 21
-3.8092629076
  0
LINE
  5
383
100
AcDbEntity
  8
RACCORDO
100
AcDbLine
 62
7
  6
CONTINUOUS
 10
-32.5656059707
 20
-4.6188093748
 11
-33.2819958005
 21
-4.9783972027
  0
LINE
  5
384
100
AcDbEntity
  8
IMPORT_IGES
100
AcDbLine
 62
253
  6
CONTINUOUS
 10
-0.1447600533
 20
13.3356607327
 11
-0.6750901392
 21
13.0704956897
  0
LINE
  5
385
100
AcDbEntity
  8
IMPORT_IGES
100
AcDbLine
 62
7
  6
CONTINUOUS
 10
-30.7992876474
 20
-2.5399092122
 11
-27.0843693795
 21
-0.6824500782
  0
LINE
  5
386
100
AcDbEntity
  8
IMPORT_IGES
100
AcDbLine
 62
7
  6
CONTINUOUS
 10
-30.8155166873
 20
-2.6073972677
 11
-31.7347555028
 21
-3.0670166755
  0
LINE
  5
387
100
AcDbEntity
  8
IMPORT_IGES
100
AcDbLine
 62
253
  6
CONTINUOUS
 10
-1.3310346901
 20
12.1239854546
 11
-1.2761309737
 21
12.1514373126
  0
LINE
  5
388
100
AcDbEntity
  8
IMPORT_IGES
100
AcDbLine
 62
7
  6
CONTINUOUS
 10
-14.9586471192
 20
5.2570504747
 11
-14.7818704239
 21
5.3454388224
  0
LINE
  5
389
100
AcDbEntity
  8
IMPORT_IGES
100
AcDbLine
 62
253
  6
CONTINUOUS
 10
-1.0286448827
 20
12.0276942671
 11
-1.2374841334
 21
11.9232746978
  0
LINE
  5
38A
100
AcDbEntity
  8
IMPORT_IGES
100
AcDbLine
 62
7
  6
CONTINUOUS
 10
-30.6033846529
 20
-2.7883678764
 11
-27.0843693795
 21
-1.0288602397
  0
LINE
  5
38B
100
AcDbEntity
  8
IMPORT_IGES
100
AcDbLine
 62
253
  6
CONTINUOUS
 10
0.2795040154
 20
12.6039134561
 11
-0.2508260705
 21
12.3387484132
  0
LINE
  5
38C
100
AcDbEntity
  8
IMPORT_IGES
100
AcDbLine
 62
253
  6
CONTINUOUS
 10
-0.880694035
 20
11.1577890271
 11
-0.6043794611
 21
11.295946314
  0
LINE
  5
38D
100
AcDbEntity
  8
RACCORDO
100
AcDbLine
 62
7
  6
CONTINUOUS
 10
-38.1393437298
 20
-7.6300647308
 11
-37.6089466182
 21
-7.364866175
  0
LINE
  5
38E
100
AcDbEntity
  8
RACCORDO
100
AcDbLine
 62
253
  6
CONTINUOUS
 10
-37.6921301343
 20
-7.6584665181
 11
-37.3366013681
 21
-7.4807021349
  0
LWPOLYLINE
  5
38F
100
AcDbEntity
  8
IMPORT_IGES
100
AcDbPolyline
 62
7
  6
CONTINUOUS
 90
7
 70
0
 10
-30.8155166873
 20
-2.6073972677
 10
-30.7867348062
 20
-2.5957175286
 10
-30.7594658945
 20
-2.5887831186
 10
-30.7337099521
 20
-2.5865940378
 10
-30.7091392128
 20
-2.5892969205
 10
-30.6860814427
 20
-2.5967451323
 10
-30.6812124351
 20
-2.5990250218
  0
LWPOLYLINE
  5
390
100
AcDbEntity
  8
IMPORT_IGES
100
AcDbPolyline
 62
253
  6
CONTINUOUS
 90
5
 70
0
 10
-14.9586471192
 20
6.2705329106
 10
-14.944821428
 20
6.2729754298
 10
-14.9096267604
 20
6.2818361431
 10
-14.876957216
 20
6.2928588268
 10
-14.8473833449
 20
6.3058619957
  0
LWPOLYLINE
  5
391
100
AcDbEntity
  8
IMPORT_IGES
100
AcDbPolyline
 62
7
  6
CONTINUOUS
 90
6
 70
0
 10
-2.2859173514
 20
3.1486668913
 10
-2.2429098615
 20
3.1429313972
 10
-2.1798838648
 20
3.1407688568
 10
-2.1262427863
 20
3.14567253
 10
-2.0810829779
 20
3.1579498974
 10
-2.0589069223
 20
3.1679301924
  0
LWPOLYLINE
  5
392
100
AcDbEntity
  8
IMPORT_IGES
100
AcDbPolyline
 62
253
  6
CONTINUOUS
 90
7
 70
0
 10
-14.9586471192
 20
0.1395632005
 10
-14.9511077946
 20
0.1326088479
 10
-14.9241511636
 20
0.1057594319
 10
-14.8994925613
 20
0.0790809138
 10
-14.8775630742
 20
0.0530413588
 10
-14.858741218
 20
0.0280920981
 10
-14.8433534407
 20
0.0046675984
  0
LINE
  5
393
100
AcDbEntity
  8
DRAFT
100
AcDbLine
 62
7
  6
CONTINUOUS
 10
-16.6028881153
 20
23.8702872779
 11
-16.6028881153
 21
24.2453977459
  0
LINE
  5
394
100
AcDbEntity
  8
IMPORT_IGES
100
AcDbLine
 62
7
  6
CONTINUOUS
 10
-11.7825373801
 20
13.9123346592
 11
-11.7543123174
 21
13.9863215904
  0
LWPOLYLINE
  5
395
100
AcDbEntity
  8
IMPORT_IGES
100
AcDbPolyline
 62
253
  6
CONTINUOUS
 90
10
 70
0
 10
-12.1598556669
 20
15.2999786644
 10
-12.1547825071
 20
15.3124830812
 10
-12.1487056726
 20
15.3247407984
 10
-12.1417287851
 20
15.3364885754
 10
-12.1340704366
 20
15.3473820095
 10
-12.1258412402
 20
15.3573240419
 10
-12.1169730735
 20
15.3663942618
 10
-12.1075464521
 20
15.3744523204
 10
-12.0978378734
 20
15.3812378866
 10
-12.088052769
 20
15.3866353355
  0
LWPOLYLINE
  5
396
100
AcDbEntity
  8
IMPORT_IGES
100
AcDbPolyline
 62
253
  6
CONTINUOUS
 90
7
 70
0
 10
-14.8473835448
 20
6.3058618957
 10
-14.8632404398
 20
6.2699115756
 10
-14.8825082197
 20
6.2364133336
 10
-14.9048370296
 20
6.2059417841
 10
-14.9298116572
 20
6.1790287235
 10
-14.9569999137
 20
6.1561088479
 10
-14.9586471192
 20
6.1550528519
  0
LINE
  5
397
100
AcDbEntity
  8
IMPORT_IGES
100
AcDbLine
 62
253
  6
CONTINUOUS
 10
-4.8289953645
 20
17.4641151901
 11
-4.8407741008
 21
17.4488134009
  0
LWPOLYLINE
  5
398
100
AcDbEntity
  8
IMPORT_IGES
100
AcDbPolyline
 62
7
  6
CONTINUOUS
 90
12
 70
0
 10
-13.632712562
 20
6.0172620459
 10
-13.6639700479
 20
5.9834217793
 10
-13.69798727
 20
5.9521853415
 10
-13.7343325251
 20
5.9241546906
 10
-13.7727560021
 20
5.899860052
 10
-13.8125166255
 20
5.8797440628
 10
-13.8523623677
 20
5.8640899751
 10
-13.8916677562
 20
5.8530360561
 10
-13.9299219378
 20
5.8467304433
 10
-13.9660203122
 20
5.8451093396
 10
-13.9992831344
 20
5.8478846221
 10
-14.0175456165
 20
5.8514681189
  0
LWPOLYLINE
  5
399
100
AcDbEntity
  8
IMPORT_IGES
100
AcDbPolyline
 62
253
  6
CONTINUOUS
 90
7
 70
0
 10
-0.616739237
 20
9.4445116312
 10
-0.5994793776
 20
9.4545361279
 10
-0.5849135028
 20
9.4659789052
 10
-0.5732908387
 20
9.4786441738
 10
-0.5648102523
 20
9.4923152275
 10
-0.5596168488
 20
9.5067581508
 10
-0.5582316247
 20
9.5146260858
  0
LWPOLYLINE
  5
39A
100
AcDbEntity
  8
IMPORT_IGES
100
AcDbPolyline
 62
7
  6
CONTINUOUS
 90
7
 70
0
 10
-0.7650896609
 20
10.0574391392
 10
-0.7391702934
 20
10.0722156588
 10
-0.7173464533
 20
10.0885608932
 10
-0.6999886451
 20
10.1061908662
 10
-0.6873893384
 20
10.124794955
 10
-0.6797617062
 20
10.1440528991
 10
-0.6772390002
 20
10.1624217601
  0
LWPOLYLINE
  5
39B
100
AcDbEntity
  8
IMPORT_IGES
100
AcDbPolyline
 62
253
  6
CONTINUOUS
 90
7
 70
0
 10
0.2795040154
 20
10.525452487
 10
0.3051658535
 20
10.5400662294
 10
0.3267475742
 20
10.5561455951
 10
0.3439424159
 20
10.5734048341
 10
0.3564679826
 20
10.5914451281
 10
0.3642843091
 20
10.6100530119
 10
0.3672693185
 20
10.6288065052
  0
LWPOLYLINE
  5
39C
100
AcDbEntity
  8
IMPORT_IGES
100
AcDbPolyline
 62
7
  6
CONTINUOUS
 90
11
 70
0
 10
0.0196108297
 20
9.9845786865
 10
0.0680148516
 20
10.0118464476
 10
0.1142965689
 20
10.044345748
 10
0.1579573587
 20
10.082021414
 10
0.1984419607
 20
10.1246694198
 10
0.2353912253
 20
10.1721853699
 10
0.2686039872
 20
10.2247090233
 10
0.2978079625
 20
10.2824528807
 10
0.3223915292
 20
10.3449565685
 10
0.3418239337
 20
10.411399211
 10
0.3558880771
 20
10.4813520369
  0
LINE
  5
39D
100
AcDbEntity
  8
RACCORDO
100
AcDbLine
 62
7
  6
CONTINUOUS
 10
-28.2168992664
 20
-4.2383877858
 11
-28.9208935914
 21
-4.6041733661
  0
LINE
  5
39E
100
AcDbEntity
  8
RACCORDO
100
AcDbLine
 62
7
  6
CONTINUOUS
 10
-29.0642683669
 20
-5.2352099517
 11
-29.7340663898
 21
-5.583227613
  0
LINE
  5
39F
100
AcDbEntity
  8
IMPORT_IGES
100
AcDbLine
 62
253
  6
CONTINUOUS
 10
0.0199480543
 20
9.9847475109
 11
0.0196108297
 21
9.9845786865
  0
LINE
  5
3A0
100
AcDbEntity
  8
IMPORT_IGES
100
AcDbLine
 62
7
  6
CONTINUOUS
 10
-27.0843693795
 20
-3.0587618306
 11
-28.0754779102
 21
-3.5543160959
  0
LINE
  5
3A1
100
AcDbEntity
  8
IMPORT_IGES
100
AcDbLine
 62
7
  6
CONTINUOUS
 10
-13.5990778535
 20
3.6404450429
 11
-0.7650896609
 21
10.0574391392
  0
LINE
  5
3A2
100
AcDbEntity
  8
IMPORT_IGES
100
AcDbLine
 62
253
  6
CONTINUOUS
 10
-0.6789066038
 20
10.0462471774
 11
0.2795040154
 21
10.525452487
  0
LINE
  5
3A3
100
AcDbEntity
  8
IMPORT_IGES
100
AcDbLine
 62
7
  6
CONTINUOUS
 10
-3.5156117279
 20
8.5954521394
 11
-13.5989544276
 21
3.5537807895
  0
LINE
  5
3A4
100
AcDbEntity
  8
IMPORT_IGES
100
AcDbLine
 62
7
  6
CONTINUOUS
 10
0.0196108297
 20
9.9845786865
 11
-0.6848478128
 21
9.6323493653
  0
LINE
  5
3A5
100
AcDbEntity
  8
IMPORT_IGES
100
AcDbLine
 62
7
  6
CONTINUOUS
 10
-28.1633458758
 20
-4.1450943258
 11
-28.870973039
 21
-4.4989079074
  0
LINE
  5
3A6
100
AcDbEntity
  8
IMPORT_IGES
100
AcDbLine
 62
253
  6
CONTINUOUS
 10
-0.6880559404
 20
9.4088532794
 11
-0.616739237
 21
9.4445116311
  0
LINE
  5
3A7
100
AcDbEntity
  8
IMPORT_IGES
100
AcDbLine
 62
7
  6
CONTINUOUS
 10
-14.7818704239
 20
1.1614683169
 11
-14.9586471192
 21
1.0730799692
  0
LINE
  5
3A8
100
AcDbEntity
  8
IMPORT_IGES
100
AcDbLine
 62
7
  6
CONTINUOUS
 10
-14.9586471192
 20
5.9820504747
 11
-13.9333422864
 21
5.7697028911
  0
LINE
  5
3A9
100
AcDbEntity
  8
IMPORT_IGES
100
AcDbLine
 62
7
  6
CONTINUOUS
 10
-14.9586471192
 20
6.0750678453
 11
-14.0150307164
 21
5.8508692121
  0
LINE
  5
3AA
100
AcDbEntity
  8
IMPORT_IGES
100
AcDbLine
 62
253
  6
CONTINUOUS
 10
-13.6327125701
 20
6.0172620245
 11
-14.8473834817
 21
6.3058619273
  0
LINE
  5
3AB
100
AcDbEntity
  8
IMPORT_IGES
100
AcDbLine
 62
7
  6
CONTINUOUS
 10
-13.9333422864
 20
5.7697028911
 11
-14.1686944092
 21
5.8873789525
  0
LINE
  5
3AC
100
AcDbEntity
  8
IMPORT_IGES
100
AcDbLine
 62
7
  6
CONTINUOUS
 10
-14.0561687852
 20
5.8606434156
 11
-14.0557293895
 21
5.8308964426
  0
LINE
  5
3AD
100
AcDbEntity
  8
IMPORT_IGES
100
AcDbLine
 62
253
  6
CONTINUOUS
 10
-14.8473834817
 20
6.3058619273
 11
-14.9029007818
 21
10.2290342483
  0
LINE
  5
3AE
100
AcDbEntity
  8
IMPORT_IGES
100
AcDbLine
 62
253
  6
CONTINUOUS
 10
-13.6327125701
 20
6.0172620245
 11
-13.5990778535
 21
3.6404450429
  0
LINE
  5
3AF
100
AcDbEntity
  8
DRAFT
100
AcDbLine
 62
7
  6
CONTINUOUS
 10
-15.0293577973
 20
22.809113534
 11
-15.0293577973
 21
23.4586325869
  0
LINE
  5
3B0
100
AcDbEntity
  8
RACCORDO
100
AcDbLine
 62
7
  6
CONTINUOUS
 10
-14.9586471192
 20
-21.5932891988
 11
-14.9586471192
 21
-16.1806093217
  0
LINE
  5
3B1
100
AcDbEntity
  8
DRAFT
100
AcDbLine
 62
7
  6
CONTINUOUS
 10
-14.9586471192
 20
-16.1806093217
 11
-14.9586471192
 21
14.1302798108
  0
LINE
  5
3B2
100
AcDbEntity
  8
RACCORDO
100
AcDbLine
 62
7
  6
CONTINUOUS
 10
-14.9586471192
 20
14.1302798108
 11
-14.9586471192
 21
19.5429596879
  0
LINE
  5
3B3
100
AcDbEntity
  8
IMPORT_IGES
100
AcDbLine
 62
7
  6
CONTINUOUS
 10
-14.7818704239
 20
5.3454388224
 11
-14.7818704239
 21
1.1614683169
  0
LINE
  5
3B4
100
AcDbEntity
  8
IMPORT_IGES
100
AcDbLine
 62
7
  6
CONTINUOUS
 10
-13.9333422864
 20
5.7697028911
 11
-13.9333422864
 21
1.5857323856
  0
LINE
  5
3B5
100
AcDbEntity
  8
IMPORT_IGES
100
AcDbLine
 62
253
  6
CONTINUOUS
 10
-13.7177783077
 20
14.5799385759
 11
-13.7177783077
 21
14.1124123672
  0
LINE
  5
3B6
100
AcDbEntity
  8
IMPORT_IGES
100
AcDbLine
 62
7
  6
CONTINUOUS
 10
-13.629910342
 20
14.5389284878
 11
-13.629910342
 21
14.2146244073
  0
LINE
  5
3B7
100
AcDbEntity
  8
IMPORT_IGES
100
AcDbLine
 62
253
  6
CONTINUOUS
 10
-14.8433534407
 20
0.0046675984
 11
-14.9083668257
 21
-4.5245280109
  0
LINE
  5
3B8
100
AcDbEntity
  8
IMPORT_IGES
100
AcDbLine
 62
253
  6
CONTINUOUS
 10
-13.5989544276
 20
3.5537807895
 11
-13.6291761698
 21
1.4483653866
  0
LWPOLYLINE
  5
3B9
100
AcDbEntity
  8
RACCORDO
100
AcDbPolyline
 62
7
  6
CONTINUOUS
 90
8
 70
0
 10
-14.9586471192
 20
-21.5932891988
 10
-14.9601602621
 20
-21.6207927518
 10
-14.9646714214
 20
-21.6463121606
 10
-14.9721047226
 20
-21.6694115217
 10
-14.9823319144
 20
-21.6896951434
 10
-14.9951788751
 20
-21.7068163769
 10
-15.010428504
 20
-21.7204837033
 10
-15.0218652637
 20
-21.727591592
  0
LWPOLYLINE
  5
3BA
100
AcDbEntity
  8
IMPORT_IGES
100
AcDbPolyline
 62
253
  6
CONTINUOUS
 90
10
 70
0
 10
-12.0685452858
 20
15.8882698156
 10
-12.0695581451
 20
15.8731575169
 10
-12.0725919618
 20
15.8573693968
 10
-12.077594286
 20
15.8413568434
 10
-12.084437581
 20
15.8256204134
 10
-12.0929575969
 20
15.8106058942
 10
-12.1029845288
 20
15.796709091
 10
-12.1142753423
 20
15.7843864195
 10
-12.1264900144
 20
15.7741178402
 10
-12.1392558662
 20
15.7663118876
  0
LWPOLYLINE
  5
3BB
100
AcDbEntity
  8
IMPORT_IGES
100
AcDbPolyline
 62
253
  6
CONTINUOUS
 90
19
 70
0
 10
-11.5710656023
 20
16.0985940113
 10
-11.5732167577
 20
16.0825265965
 10
-11.5795361118
 20
16.0664815862
 10
-11.5897603781
 20
16.051190993
 10
-11.6041073448
 20
16.0366542922
 10
-11.6223592236
 20
16.0228720085
 10
-11.6435993634
 20
16.0105777289
 10
-11.6679842704
 20
15.9998643015
 10
-11.6953574383
 20
15.9906388781
 10
-11.7243326968
 20
15.9833565011
 10
-11.754941224
 20
15.9781113052
 10
-11.7871518418
 20
15.9748091558
 10
-11.8194848456
 20
15.9736226911
 10
-11.8520121934
 20
15.9746483235
 10
-11.8846619272
 20
15.9777896405
 10
-11.9157384688
 20
15.9829300439
 10
-11.9446766256
 20
15.9900306673
 10
-11.9720415903
 20
15.999130377
 10
-11.9978333628
 20
16.0102291729
  0
LWPOLYLINE
  5
3BC
100
AcDbEntity
  8
IMPORT_IGES
100
AcDbPolyline
 62
253
  6
CONTINUOUS
 90
13
 70
0
 10
-6.9091313613
 20
19.0787617075
 10
-6.8993235254
 20
19.1032845754
 10
-6.8921392686
 20
19.1286387575
 10
-6.8877240111
 20
19.1543838158
 10
-6.8861752664
 20
19.1802228212
 10
-6.8875773768
 20
19.2055331277
 10
-6.8918212041
 20
19.2294240125
 10
-6.8985992544
 20
19.2512801242
 10
-6.9077070917
 20
19.2711078163
 10
-6.9191050766
 20
19.2889839909
 10
-6.9327054073
 20
19.3047019221
 10
-6.9482331901
 20
19.3178854773
 10
-6.9654424278
 20
19.328311486
  0
LINE
  5
3BD
100
AcDbEntity
  8
IMPORT_IGES
100
AcDbLine
 62
7
  6
CONTINUOUS
 10
-13.9333422864
 20
1.5857323856
 11
-14.9586471192
 21
0.3480799692
  0
LINE
  5
3BE
100
AcDbEntity
  8
IMPORT_IGES
100
AcDbLine
 62
253
  6
CONTINUOUS
 10
-14.8433534407
 20
0.0046675984
 11
-13.6291761698
 21
1.4483653866
  0
LWPOLYLINE
  5
3BF
100
AcDbEntity
  8
IMPORT_IGES
100
AcDbPolyline
 62
253
  6
CONTINUOUS
 90
3
 70
0
 10
0.0799587772
 20
10.022255853
 10
0.0352181631
 20
9.9928472312
 10
0.0199480543
 20
9.9847475109
  0
LWPOLYLINE
  5
3C0
100
AcDbEntity
  8
IMPORT_IGES
100
AcDbPolyline
 62
253
  6
CONTINUOUS
 90
5
 70
0
 10
-14.8433534407
 20
0.0046675984
 10
-14.8728277416
 20
-0.0082196656
 10
-14.9054359602
 20
-0.0190024825
 10
-14.9406244518
 20
-0.0274936365
 10
-14.9586471192
 20
-0.03042756
  0
LWPOLYLINE
  5
3C1
100
AcDbEntity
  8
RACCORDO
100
AcDbPolyline
 62
253
  6
CONTINUOUS
 90
13
 70
0
 10
-23.4060329174
 20
13.1072462222
 10
-23.3817348407
 20
13.0965761642
 10
-23.3548853842
 20
13.0875636281
 10
-23.3259338149
 20
13.0803594172
 10
-23.2953645714
 20
13.0750840759
 10
-23.2636891632
 20
13.0718258739
 10
-23.2314376123
 20
13.0706393281
 10
-23.1991495756
 20
13.0715442901
 10
-23.1673653176
 20
13.0745256146
 10
-23.1366166763
 20
13.0795334127
 10
-23.1074181572
 20
13.0864838872
 10
-23.0802583244
 20
13.0952607354
 10
-23.0555916295
 20
13.1057170948
  0
LINE
  5
3C2
100
AcDbEntity
  8
RACCORDO
100
AcDbLine
 62
253
  6
CONTINUOUS
 10
-23.4060329174
 20
13.1072462222
 11
-40.3109654616
 21
21.5597124943
  0
LWPOLYLINE
  5
3C3
100
AcDbEntity
  8
RACCORDO
100
AcDbPolyline
 62
253
  6
CONTINUOUS
 90
7
 70
0
 10
-40.3109654616
 20
21.5597124943
 10
-40.3323055398
 20
21.5718615082
 10
-40.3503305916
 20
21.5852862111
 10
-40.3647390093
 20
21.5997619718
 10
-40.3752897014
 20
21.6150465717
 10
-40.3818061264
 20
21.6308842585
 10
-40.3841887366
 20
21.6480398757
  0
LWPOLYLINE
  5
3C4
100
AcDbEntity
  8
IMPORT_IGES
100
AcDbPolyline
 62
7
  6
CONTINUOUS
 90
6
 70
0
 10
-11.4710588044
 20
16.0120942241
 10
-11.472276513
 20
16.0318799284
 10
-11.4776838067
 20
16.0580806863
 10
-11.4875711543
 20
16.0839589367
 10
-11.501856267
 20
16.1087518756
 10
-11.5202990281
 20
16.1319099165
  0
LINE
  5
3C5
100
AcDbEntity
  8
RACCORDO
100
AcDbLine
 62
7
  6
CONTINUOUS
 10
-12.1298556057
 20
-14.2329676337
 11
-12.1298556057
 21
-13.0925488212
  0
LINE
  5
3C6
100
AcDbEntity
  8
IMPORT_IGES
100
AcDbLine
 62
7
  6
CONTINUOUS
 10
-11.3178391556
 20
16.8016008192
 11
-11.3178391556
 21
16.6283957384
  0
LINE
  5
3C7
100
AcDbEntity
  8
IMPORT_IGES
100
AcDbLine
 62
7
  6
CONTINUOUS
 10
-10.8368764368
 20
16.5611194597
 11
-10.8368764368
 21
16.387914379
  0
LWPOLYLINE
  5
3C8
100
AcDbEntity
  8
IMPORT_IGES
100
AcDbPolyline
 62
253
  6
CONTINUOUS
 90
20
 70
0
 10
-11.471058768
 20
16.0120225191
 10
-11.4712131424
 20
16.0068168503
 10
-11.476059358
 20
15.9825376369
 10
-11.4875252799
 20
15.9589681653
 10
-11.5050801954
 20
15.9367518183
 10
-11.5280522332
 20
15.9162966762
 10
-11.5558061596
 20
15.8978418517
 10
-11.5875515889
 20
15.8816544296
 10
-11.6223117457
 20
15.8679656558
 10
-11.6595027992
 20
15.8567724496
 10
-11.6990223358
 20
15.8479963173
 10
-11.7403297008
 20
15.8417326791
 10
-11.7826988778
 20
15.8380681635
 10
-11.825882557
 20
15.8370305516
 10
-11.8691855572
 20
15.8386762452
 10
-11.9119751094
 20
15.8430211649
 10
-11.9540536185
 20
15.8501402374
 10
-11.9948025785
 20
15.8600985852
 10
-12.0332392584
 20
15.8728382863
 10
-12.0685309794
 20
15.8882626631
  0
LWPOLYLINE
  5
3C9
100
AcDbEntity
  8
IMPORT_IGES
100
AcDbPolyline
 62
253
  6
CONTINUOUS
 90
4
 70
0
 10
-14.9083668257
 20
-4.5245280109
 10
-14.9253144296
 20
-4.5590593234
 10
-14.9455420876
 20
-4.5911696059
 10
-14.9586471192
 20
-4.6076541212
  0
LWPOLYLINE
  5
3CA
100
AcDbEntity
  8
IMPORT_IGES
100
AcDbPolyline
 62
253
  6
CONTINUOUS
 90
7
 70
0
 10
-14.1208654087
 20
-4.7455428862
 10
-14.1378280681
 20
-4.7801011875
 10
-14.1580674469
 20
-4.8122222737
 10
-14.1812436878
 20
-4.8413667711
 10
-14.206967618
 20
-4.8670452887
 10
-14.2348072842
 20
-4.8888266358
 10
-14.2642952057
 20
-4.9063450625
  0
LWPOLYLINE
  5
3CB
100
AcDbEntity
  8
IMPORT_IGES
100
AcDbPolyline
 62
7
  6
CONTINUOUS
 90
12
 70
0
 10
-1.3396671905
 20
3.5278841771
 10
-1.3121236624
 20
3.5422380976
 10
-1.2190579567
 20
3.6003568502
 10
-1.1321041644
 20
3.6705340246
 10
-1.0525099869
 20
3.7521942115
 10
-0.9808576567
 20
3.8451970834
 10
-0.917763165
 20
3.9494576589
 10
-0.8641705119
 20
4.0642416907
 10
-0.820874837
 20
4.1885088448
 10
-0.7883348215
 20
4.3215152649
 10
-0.7668842149
 20
4.46284179
 10
-0.7569131625
 20
4.6118365871
  0
LINE
  5
3CC
100
AcDbEntity
  8
IMPORT_IGES
100
AcDbLine
 62
7
  6
CONTINUOUS
 10
-2.1036172696
 20
3.876031721
 11
-0.8447845881
 21
4.5054452821
  0
LINE
  5
3CD
100
AcDbEntity
  8
IMPORT_IGES
100
AcDbLine
 62
7
  6
CONTINUOUS
 10
-1.3393033975
 20
3.5280659442
 11
-2.0607010997
 21
3.1673670931
  0
LWPOLYLINE
  5
3CE
100
AcDbEntity
  8
IMPORT_IGES
100
AcDbPolyline
 62
7
  6
CONTINUOUS
 90
5
 70
0
 10
-0.4908480781
 20
13.5200239511
 10
-0.5353544846
 20
13.515808555
 10
-0.5788791689
 20
13.50700267
 10
-0.6207583376
 20
13.4937980497
 10
-0.660575584
 20
13.4764454917
  0
LINE
  5
3CF
100
AcDbEntity
  8
IMPORT_IGES
100
AcDbLine
 62
253
  6
CONTINUOUS
 10
-2.2765302343
 20
3.802625907
 11
-2.0375021713
 21
3.6831119551
  0
LINE
  5
3D0
100
AcDbEntity
  8
IMPORT_IGES
100
AcDbLine
 62
253
  6
CONTINUOUS
 10
-2.147352477
 20
4.2400894238
 11
-2.2693749832
 21
4.3011006768
  0
LINE
  5
3D1
100
AcDbEntity
  8
RACCORDO
100
AcDbLine
 62
253
  6
CONTINUOUS
 10
-22.3412130677
 20
14.9233563434
 11
-39.2766789764
 21
23.3910892977
  0
LWPOLYLINE
  5
3D2
100
AcDbEntity
  8
RACCORDO
100
AcDbPolyline
 62
253
  6
CONTINUOUS
 90
13
 70
0
 10
-22.3412130677
 20
14.9233563434
 10
-22.3185320341
 20
14.9097721802
 10
-22.2962073225
 20
14.8927328053
 10
-22.2746208261
 20
14.8725296993
 10
-22.2541418101
 20
14.8495084626
 10
-22.2351205946
 20
14.8240629035
 10
-22.2178825624
 20
14.7966283014
 10
-22.2027225924
 20
14.7676739608
 10
-22.1899000156
 20
14.7376951834
 10
-22.1796341788
 20
14.7072047953
 10
-22.1721006927
 20
14.6767243741
 10
-22.1674284273
 20
14.6467753273
 10
-22.1656973077
 20
14.6178699723
  0
LWPOLYLINE
  5
3D3
100
AcDbEntity
  8
IMPORT_IGES
100
AcDbPolyline
 62
253
  6
CONTINUOUS
 90
5
 70
0
 10
-14.9586471192
 20
10.4358796764
 10
-14.939528538
 20
10.4240088114
 10
-14.9111688651
 20
10.4058077501
 10
-14.8855644706
 20
10.3887261607
 10
-14.8632239095
 20
10.3730911858
  0
LWPOLYLINE
  5
3D4
100
AcDbEntity
  8
IMPORT_IGES
100
AcDbPolyline
 62
253
  6
CONTINUOUS
 90
6
 70
0
 10
-3.534316514
 20
0.5712589752
 10
-3.5171479864
 20
0.5583908355
 10
-3.5038223571
 20
0.5476070924
 10
-3.4945094714
 20
0.5390580573
 10
-3.4893265241
 20
0.5328808583
 10
-3.4883564867
 20
0.5288558411
  0
LWPOLYLINE
  5
3D5
100
AcDbEntity
  8
IMPORT_IGES
100
AcDbPolyline
 62
253
  6
CONTINUOUS
 90
6
 70
0
 10
-2.4234893903
 20
2.4447555752
 10
-2.4061871335
 20
2.4317836336
 10
-2.3927486582
 20
2.4208927333
 10
-2.383400307
 20
2.412266308
 10
-2.3782995319
 20
2.4060496529
 10
-2.3775382979
 20
2.4023371725
  0
LWPOLYLINE
  5
3D6
100
AcDbEntity
  8
IMPORT_IGES
100
AcDbPolyline
 62
253
  6
CONTINUOUS
 90
3
 70
0
 10
-14.6378130364
 20
12.4838378913
 10
-14.6478364548
 20
12.502932075
 10
-14.6686257046
 20
12.535807036
  0
LINE
  5
3D7
100
AcDbEntity
  8
IMPORT_IGES
100
AcDbLine
 62
7
  6
CONTINUOUS
 10
-9.3882303097
 20
17.7846563934
 11
-9.3882303097
 21
17.9578614742
  0
LINE
  5
3D8
100
AcDbEntity
  8
RACCORDO
100
AcDbLine
 62
7
  6
CONTINUOUS
 10
-8.7057694415
 20
-18.301352142
 11
-8.7057694415
 21
-15.7799543517
  0
LINE
  5
3D9
100
AcDbEntity
  8
RACCORDO
100
AcDbLine
 62
7
  6
CONTINUOUS
 10
-8.7057694415
 20
20.2046692245
 11
-8.7057694415
 21
22.7260670148
  0
LWPOLYLINE
  5
3DA
100
AcDbEntity
  8
IMPORT_IGES
100
AcDbPolyline
 62
253
  6
CONTINUOUS
 90
10
 70
0
 10
-8.0382921837
 20
17.9033966517
 10
-8.0393049162
 20
17.8882842897
 10
-8.0423386379
 20
17.8724961221
 10
-8.0473408988
 20
17.8564835371
 10
-8.0541841727
 20
17.8407470964
 10
-8.0627041991
 20
17.8257325825
 10
-8.0727311415
 20
17.8118357846
 10
-8.0840219551
 20
17.7995131131
 10
-8.0962366272
 20
17.7892445338
 10
-8.109002479
 20
17.7814385812
  0
LWPOLYLINE
  5
3DB
100
AcDbEntity
  8
IMPORT_IGES
100
AcDbPolyline
 62
253
  6
CONTINUOUS
 90
19
 70
0
 10
-7.5408122151
 20
18.1137208632
 10
-7.5429633321
 20
18.0976534387
 10
-7.5492826522
 20
18.0816084161
 10
-7.5595068902
 20
18.0663178093
 10
-7.5738538348
 20
18.0517810935
 10
-7.5921056973
 20
18.0379987936
 10
-7.6133458264
 20
18.025704498
 10
-7.6377307289
 20
18.014991055
 10
-7.665103898
 20
18.0057656164
 10
-7.6940791619
 20
17.9984832257
 10
-7.7246876989
 20
17.9932380178
 10
-7.7568983306
 20
17.989935858
 10
-7.7892313503
 20
17.9887493851
 10
-7.8217587162
 20
17.9897750116
 10
-7.8544084702
 20
17.9929163251
 10
-7.8854850312
 20
17.9980567272
 10
-7.9144232056
 20
18.0051573517
 10
-7.941788187
 20
18.0142570648
 10
-7.9675799756
 20
18.0253558665
  0
LWPOLYLINE
  5
3DC
100
AcDbEntity
  8
IMPORT_IGES
100
AcDbPolyline
 62
253
  6
CONTINUOUS
 90
10
 70
0
 10
-4.1474039698
 20
17.1253212618
 10
-4.1411925199
 20
17.1432397624
 10
-4.1358171781
 20
17.1598001729
 10
-4.1313408004
 20
17.174836557
 10
-4.1278100203
 20
17.1882475591
 10
-4.1252959228
 20
17.1998081336
 10
-4.1238460853
 20
17.2092608432
 10
-4.1234493719
 20
17.2165361477
 10
-4.124083521
 20
17.2216625443
 10
-4.1257240501
 20
17.2246385696
  0
LWPOLYLINE
  5
3DD
100
AcDbEntity
  8
IMPORT_IGES
100
AcDbPolyline
 62
253
  6
CONTINUOUS
 90
9
 70
0
 10
-2.4174840977
 20
16.1634528471
 10
-2.4032943763
 20
16.199114177
 10
-2.3928354938
 20
16.2357418476
 10
-2.3862435447
 20
16.2727327621
 10
-2.3835932242
 20
16.3093103901
 10
-2.3848499634
 20
16.3450738778
 10
-2.3900615044
 20
16.3799588924
 10
-2.3993433397
 20
16.4135364535
 10
-2.412652934
 20
16.4449569842
  0
LWPOLYLINE
  5
3DE
100
AcDbEntity
  8
IMPORT_IGES
100
AcDbPolyline
 62
253
  6
CONTINUOUS
 90
8
 70
0
 10
-13.926280148
 20
-4.8541015398
 10
-13.9164838508
 20
-4.8403666091
 10
-13.9080197175
 20
-4.8250107673
 10
-13.9009493683
 20
-4.8081457458
 10
-13.8953242892
 20
-4.7898943237
 10
-13.8911854149
 20
-4.7703893335
 10
-13.8885628521
 20
-4.7497726743
 10
-13.8874756833
 20
-4.7281943593
  0
LWPOLYLINE
  5
3DF
100
AcDbEntity
  8
IMPORT_IGES
100
AcDbPolyline
 62
253
  6
CONTINUOUS
 90
3
 70
0
 10
-13.9495749083
 20
-4.8763215959
 10
-13.9373373236
 20
-4.8661156665
 10
-13.926280148
 20
-4.8541015398
  0
LINE
  5
3E0
100
AcDbEntity
  8
IMPORT_IGES
100
AcDbLine
 62
253
  6
CONTINUOUS
 10
-5.7526807915
 20
-0.9429138454
 11
-5.793745707
 21
-0.9696824941
  0
LINE
  5
3E1
100
AcDbEntity
  8
IMPORT_IGES
100
AcDbLine
 62
7
  6
CONTINUOUS
 10
-5.771407132
 20
-0.9561302129
 11
-5.7451807638
 21
-0.9390381878
  0
LINE
  5
3E2
100
AcDbEntity
  8
IMPORT_IGES
100
AcDbLine
 62
7
  6
CONTINUOUS
 10
-5.7451807638
 20
-0.9390381878
 11
-5.7186939953
 21
-0.9220108374
  0
LINE
  5
3E3
100
AcDbEntity
  8
IMPORT_IGES
100
AcDbLine
 62
253
  6
CONTINUOUS
 10
-5.7119910168
 20
-0.9168443725
 11
-5.7526807915
 21
-0.9429138454
  0
LINE
  5
3E4
100
AcDbEntity
  8
IMPORT_IGES
100
AcDbLine
 62
7
  6
CONTINUOUS
 10
-5.7905458976
 20
-0.9685784484
 11
-5.7835171969
 21
-0.9640902802
  0
LWPOLYLINE
  5
3E5
100
AcDbEntity
  8
IMPORT_IGES
100
AcDbPolyline
 62
7
  6
CONTINUOUS
 90
11
 70
0
 10
-5.7186939953
 20
-0.9220108374
 10
-5.6918517374
 20
-0.9049856643
 10
-5.6648008886
 20
-0.8880520802
 10
-5.6376431522
 20
-0.8712647953
 10
-5.6102230121
 20
-0.854527214
 10
-5.5826159991
 20
-0.8378979326
 10
-5.5550324182
 20
-0.8215061735
 10
-5.527614164
 20
-0.8054362411
 10
-5.5005297175
 20
-0.7898048938
 10
-5.4740299808
 20
-0.7747646909
 10
-5.4485432652
 20
-0.7605523565
  0
LINE
  5
3E6
100
AcDbEntity
  8
IMPORT_IGES
100
AcDbLine
 62
7
  6
CONTINUOUS
 10
-3.7766595492
 20
0.2107326979
 11
-4.9362374612
 21
-0.4993608525
  0
LINE
  5
3E7
100
AcDbEntity
  8
IMPORT_IGES
100
AcDbLine
 62
7
  6
CONTINUOUS
 10
-4.9387242994
 20
-0.5008837028
 11
-4.9391118367
 21
-0.5011204129
  0
LWPOLYLINE
  5
3E8
100
AcDbEntity
  8
IMPORT_IGES
100
AcDbPolyline
 62
253
  6
CONTINUOUS
 90
3
 70
0
 10
-5.793745707
 20
-0.9696824941
 10
-5.8092534092
 20
-0.9791056337
 10
-5.8114962614
 20
-0.980256094
  0
LINE
  5
3E9
100
AcDbEntity
  8
IMPORT_IGES
100
AcDbLine
 62
253
  6
CONTINUOUS
 10
-3.7999795899
 20
0.1984760633
 11
-4.9762092673
 21
-0.5217618048
  0
LINE
  5
3EA
100
AcDbEntity
  8
IMPORT_IGES
100
AcDbLine
 62
253
  6
CONTINUOUS
 10
-5.3494967431
 20
-0.707273232
 11
-5.3600860478
 21
-0.7137001869
  0
LWPOLYLINE
  5
3EB
100
AcDbEntity
  8
IMPORT_IGES
100
AcDbPolyline
 62
7
  6
CONTINUOUS
 90
11
 70
0
 10
-2.0589069223
 20
3.1679301924
 10
-2.0426430194
 20
3.1773816985
 10
-2.0099231361
 20
3.203798064
 10
-1.9839231027
 20
3.2373688633
 10
-1.9658808228
 20
3.2783844441
 10
-1.9558279533
 20
3.3268781475
 10
-1.9537328374
 20
3.3828166323
 10
-1.9607384079
 20
3.4463902231
 10
-1.9772256425
 20
3.5176623612
 10
-2.0028135637
 20
3.5965696052
 10
-2.0375021713
 20
3.6831119551
  0
LWPOLYLINE
  5
3EC
100
AcDbEntity
  8
IMPORT_IGES
100
AcDbPolyline
 62
253
  6
CONTINUOUS
 90
7
 70
0
 10
-2.3803225276
 20
2.5870679881
 10
-2.3546613077
 20
2.601719121
 10
-2.3330792368
 20
2.6179105382
 10
-2.315883146
 20
2.6353537248
 10
-2.3033555494
 20
2.6536444089
 10
-2.2955365109
 20
2.6725650504
 10
-2.292453452
 20
2.6933257949
  0
LWPOLYLINE
  5
3ED
100
AcDbEntity
  8
IMPORT_IGES
100
AcDbPolyline
 62
253
  6
CONTINUOUS
 90
8
 70
0
 10
-5.4429977045
 20
-0.7567152261
 10
-5.4781157894
 20
-0.7763340956
 10
-5.5150658114
 20
-0.7974421213
 10
-5.5529833262
 20
-0.8195582386
 10
-5.5917776363
 20
-0.8426250646
 10
-5.6315394392
 20
-0.8666999821
 10
-5.6716763829
 20
-0.8914740754
 10
-5.7119910168
 20
-0.9168443725
  0
LINE
  5
3EE
100
AcDbEntity
  8
IMPORT_IGES
100
AcDbLine
 62
7
  6
CONTINUOUS
 10
-5.8113466953
 20
-0.9801812845
 11
-5.7905458976
 21
-0.9685784484
  0
LWPOLYLINE
  5
3EF
100
AcDbEntity
  8
IMPORT_IGES
100
AcDbPolyline
 62
7
  6
CONTINUOUS
 90
5
 70
0
 10
-5.4485432652
 20
-0.7605523565
 10
-5.424354881
 20
-0.7473160639
 10
-5.4016507139
 20
-0.7351435477
 10
-5.3808482681
 20
-0.7242443565
 10
-5.3621263882
 20
-0.7147026574
  0
LINE
  5
3F0
100
AcDbEntity
  8
IMPORT_IGES
100
AcDbLine
 62
253
  6
CONTINUOUS
 10
-5.7937471361
 20
-0.9696835101
 11
-5.7835671949
 21
-0.9641232801
  0
LINE
  5
3F1
100
AcDbEntity
  8
IMPORT_IGES
100
AcDbLine
 62
253
  6
CONTINUOUS
 10
-5.4099997049
 20
-0.7387458675
 11
-5.4429977045
 21
-0.7567152261
  0
LINE
  5
3F2
100
AcDbEntity
  8
IMPORT_IGES
100
AcDbLine
 62
253
  6
CONTINUOUS
 10
-4.9391118367
 20
-0.5011204129
 11
-4.9656519861
 21
-0.5153508536
  0
LINE
  5
3F3
100
AcDbEntity
  8
IMPORT_IGES
100
AcDbLine
 62
253
  6
CONTINUOUS
 10
-3.7999771224
 20
0.1984769661
 11
-3.7793919754
 21
0.2090625854
  0
LWPOLYLINE
  5
3F4
100
AcDbEntity
  8
IMPORT_IGES
100
AcDbPolyline
 62
253
  6
CONTINUOUS
 90
3
 70
0
 10
-5.349499517
 20
-0.707274619
 10
-5.3788336424
 20
-0.7222656652
 10
-5.4099997049
 20
-0.7387458675
  0
LWPOLYLINE
  5
3F5
100
AcDbEntity
  8
IMPORT_IGES
100
AcDbPolyline
 62
7
  6
CONTINUOUS
 90
4
 70
0
 10
-4.9761816288
 20
-0.5217626528
 10
-4.9711377657
 20
-0.519199117
 10
-4.9434341937
 20
-0.5037392322
 10
-4.9396234692
 20
-0.5014328493
  0
LINE
  5
3F6
100
AcDbEntity
  8
IMPORT_IGES
100
AcDbLine
 62
7
  6
CONTINUOUS
 10
-13.3971791796
 20
-4.7379592718
 11
-13.6026800909
 21
-4.8408170071
  0
LINE
  5
3F7
100
AcDbEntity
  8
IMPORT_IGES
100
AcDbLine
 62
253
  6
CONTINUOUS
 10
-13.8874756833
 20
-4.7281943593
 11
-3.7378695454
 21
0.3466087096
  0
LINE
  5
3F8
100
AcDbEntity
  8
IMPORT_IGES
100
AcDbLine
 62
253
  6
CONTINUOUS
 10
-3.7999795899
 20
0.1984760633
 11
-13.9889562482
 21
-4.8960646402
  0
LINE
  5
3F9
100
AcDbEntity
  8
IMPORT_IGES
100
AcDbLine
 62
253
  6
CONTINUOUS
 10
-4.9656519861
 20
-0.5153508536
 11
-5.349499517
 21
-0.707274619
  0
LINE
  5
3FA
100
AcDbEntity
  8
IMPORT_IGES
100
AcDbLine
 62
7
  6
CONTINUOUS
 10
-4.9762092672
 20
-0.5217618048
 11
-5.3621263882
 21
-0.7147026574
  0
LINE
  5
3FB
100
AcDbEntity
  8
IMPORT_IGES
100
AcDbLine
 62
253
  6
CONTINUOUS
 10
-5.793745707
 20
-0.9696824941
 11
-13.196511763
 21
-4.6710655221
  0
LINE
  5
3FC
100
AcDbEntity
  8
IMPORT_IGES
100
AcDbLine
 62
7
  6
CONTINUOUS
 10
-5.8114962614
 20
-0.980256094
 11
-13.1791669961
 21
-4.6640916328
  0
LWPOLYLINE
  5
3FD
100
AcDbEntity
  8
IMPORT_IGES
100
AcDbPolyline
 62
7
  6
CONTINUOUS
 90
9
 70
0
 10
-13.6031574306
 20
-4.8411629566
 10
-13.634220338
 20
-4.8556927504
 10
-13.6663878533
 20
-4.8687339675
 10
-13.6996599765
 20
-4.8802866078
 10
-13.7340331099
 20
-4.8903931552
 10
-13.7695108514
 20
-4.8990111258
 10
-13.8061039936
 20
-4.9060130685
 10
-13.8438210445
 20
-4.9114484831
 10
-13.8585885673
 20
-4.9131199583
  0
LWPOLYLINE
  5
3FE
100
AcDbEntity
  8
IMPORT_IGES
100
AcDbPolyline
 62
253
  6
CONTINUOUS
 90
5
 70
0
 10
-14.2642952057
 20
-4.9063450625
 10
-14.2949362248
 20
-4.9193064015
 10
-14.3262158209
 20
-4.9274930073
 10
-14.3576087507
 20
-4.9307674116
 10
-14.3885878676
 20
-4.9290746307
  0
LWPOLYLINE
  5
3FF
100
AcDbEntity
  8
IMPORT_IGES
100
AcDbPolyline
 62
253
  6
CONTINUOUS
 90
10
 70
0
 10
-13.8874756833
 20
-4.7281943593
 10
-13.9138715544
 20
-4.7390424841
 10
-13.9401615195
 20
-4.7475531265
 10
-13.9663455785
 20
-4.7537262865
 10
-13.9924370833
 20
-4.7574188244
 10
-14.018422682
 20
-4.75877388
 10
-14.0442623195
 20
-4.758220872
 10
-14.0699426438
 20
-4.7559029403
 10
-14.0954770069
 20
-4.751676945
 10
-14.1208654087
 20
-4.7455428862
  0
LWPOLYLINE
  5
400
100
AcDbEntity
  8
IMPORT_IGES
100
AcDbPolyline
 62
253
  6
CONTINUOUS
 90
6
 70
0
 10
-13.9889562482
 20
-4.8960646402
 10
-14.0287748796
 20
-4.9123102703
 10
-14.0686833071
 20
-4.9252335193
 10
-14.1075664746
 20
-4.9348620185
 10
-14.1459406363
 20
-4.9416978472
 10
-14.1695903832
 20
-4.9446565836
  0
LINE
  5
401
100
AcDbEntity
  8
IMPORT_IGES
100
AcDbLine
 62
7
  6
CONTINUOUS
 10
-13.196511763
 20
-4.6710655221
 11
-13.3971791796
 21
-4.7379592718
  0
LWPOLYLINE
  5
402
100
AcDbEntity
  8
IMPORT_IGES
100
AcDbPolyline
 62
253
  6
CONTINUOUS
 90
3
 70
0
 10
-14.9586471192
 20
-4.5442944292
 10
-14.9378671312
 20
-4.5374251891
 10
-14.9083668257
 20
-4.5245280109
  0
LINE
  5
403
100
AcDbEntity
  8
IMPORT_IGES
100
AcDbLine
 62
7
  6
CONTINUOUS
 10
-11.894734515
 20
17.1067330931
 11
-10.5484407963
 21
17.4809699437
  0
LINE
  5
404
100
AcDbEntity
  8
IMPORT_IGES
100
AcDbLine
 62
7
  6
CONTINUOUS
 10
-10.2621570156
 20
17.7337549401
 11
-11.6449721079
 21
17.3493660374
  0
LINE
  5
405
100
AcDbEntity
  8
IMPORT_IGES
100
AcDbLine
 62
7
  6
CONTINUOUS
 10
-11.1911623157
 20
17.7902218385
 11
-9.7784033463
 21
18.1529479925
  0
LWPOLYLINE
  5
406
100
AcDbEntity
  8
IMPORT_IGES
100
AcDbPolyline
 62
253
  6
CONTINUOUS
 90
10
 70
0
 10
-11.9937447884
 20
15.2929345918
 10
-12.0060173244
 20
15.290779961
 10
-12.0188893778
 20
15.2875649821
 10
-12.0320702245
 20
15.2833300549
 10
-12.0451343572
 20
15.2782132345
 10
-12.0578848807
 20
15.2723168746
 10
-12.0703520969
 20
15.2656283072
 10
-12.0823318322
 20
15.2582307137
 10
-12.093435795
 20
15.2503598991
 10
-12.1034338007
 20
15.2422153165
  0
LWPOLYLINE
  5
407
100
AcDbEntity
  8
IMPORT_IGES
100
AcDbPolyline
 62
7
  6
CONTINUOUS
 90
11
 70
0
 10
-5.8364922523
 20
17.948914843
 10
-5.7910434707
 20
17.9567208666
 10
-5.7681933731
 20
17.9604101086
 10
-5.7456817495
 20
17.9634526802
 10
-5.7235717761
 20
17.9657896219
 10
-5.7016881378
 20
17.9677993306
 10
-5.6800658689
 20
17.9693915193
 10
-5.658848151
 20
17.9704252069
 10
-5.6379916603
 20
17.9712644426
 10
-5.6174961265
 20
17.9718415398
 10
-5.5588697273
 20
17.9726521217
  0
LWPOLYLINE
  5
408
100
AcDbEntity
  8
IMPORT_IGES
100
AcDbPolyline
 62
253
  6
CONTINUOUS
 90
10
 70
0
 10
-1.1436846277
 20
12.8317270768
 10
-1.1674954788
 20
12.8344738307
 10
-1.1910137694
 20
12.8361839527
 10
-1.2142394994
 20
12.8368574428
 10
-1.2371952069
 20
12.8364929076
 10
-1.259858354
 20
12.8350917404
 10
-1.2821613263
 20
12.8326581216
 10
-1.304081586
 20
12.8291934446
 10
-1.325641671
 20
12.824696316
 10
-1.3468415813
 20
12.8191667359
  0
LWPOLYLINE
  5
409
100
AcDbEntity
  8
RACCORDO
100
AcDbPolyline
 62
253
  6
CONTINUOUS
 90
7
 70
0
 10
-39.2766789764
 20
23.3910892977
 10
-39.3001336001
 20
23.4005729554
 10
-39.3231553277
 20
23.4062067804
 10
-39.3453503417
 20
23.4078944016
 10
-39.3663389686
 20
23.4056069527
 10
-39.3857621694
 20
23.3993835665
 10
-39.3918862164
 20
23.3964214624
  0
LWPOLYLINE
  5
40A
100
AcDbEntity
  8
IMPORT_IGES
100
AcDbPolyline
 62
253
  6
CONTINUOUS
 90
13
 70
0
 10
-14.4213977465
 20
12.001662162
 10
-14.3926901416
 20
11.9875472876
 10
-14.3621062732
 20
11.9719373394
 10
-14.3301701563
 20
11.9551064126
 10
-14.2975914949
 20
11.9374397502
 10
-14.2647347845
 20
11.9191441297
 10
-14.2316022736
 20
11.9002127242
 10
-14.1985267965
 20
11.8808129033
 10
-14.1663227323
 20
11.8614006363
 10
-14.1357257273
 20
11.8424046112
 10
-14.1073509759
 20
11.824196194
 10
-14.0817046593
 20
11.807088673
 10
-14.0593075578
 20
11.7914149294
  0
LINE
  5
40B
100
AcDbEntity
  8
IMPORT_IGES
100
AcDbLine
 62
253
  6
CONTINUOUS
 10
-14.8854186672
 20
12.2336596673
 11
-14.4213977126
 21
12.0016621457
  0
LINE
  5
40C
100
AcDbEntity
  8
IMPORT_IGES
100
AcDbLine
 62
253
  6
CONTINUOUS
 10
-14.6354238223
 20
12.4854772696
 11
-14.1721315175
 21
12.2538311093
  0
LINE
  5
40D
100
AcDbEntity
  8
IMPORT_IGES
100
AcDbLine
 62
253
  6
CONTINUOUS
 10
-14.9586471192
 20
12.734956892
 11
-14.7973119465
 21
12.6542893058
  0
LINE
  5
40E
100
AcDbEntity
  8
IMPORT_IGES
100
AcDbLine
 62
7
  6
CONTINUOUS
 10
-2.0979224889
 20
7.6836570817
 11
-2.6283482169
 21
7.9488699472
  0
LINE
  5
40F
100
AcDbEntity
  8
IMPORT_IGES
100
AcDbLine
 62
7
  6
CONTINUOUS
 10
-3.6023376942
 20
8.6388151226
 11
-3.5156117279
 21
8.5954521394
  0
LWPOLYLINE
  5
410
100
AcDbEntity
  8
IMPORT_IGES
100
AcDbPolyline
 62
253
  6
CONTINUOUS
 90
13
 70
0
 10
-14.1721315798
 20
12.253831095
 10
-14.1451188123
 20
12.2382096698
 10
-14.1186068332
 20
12.2186624774
 10
-14.0930207465
 20
12.195532808
 10
-14.0688733557
 20
12.1693450365
 10
-14.0464194467
 20
12.1404392147
 10
-14.0257341676
 20
12.1088452361
 10
-14.0071188831
 20
12.0747844311
 10
-13.9911122175
 20
12.0389685162
 10
-13.978146731
 20
12.0021729424
 10
-13.9685161783
 20
11.9650934953
 10
-13.9624215746
 20
11.9283168299
 10
-13.9600317842
 20
11.8925071727
  0
LWPOLYLINE
  5
411
100
AcDbEntity
  8
IMPORT_IGES
100
AcDbPolyline
 62
7
  6
CONTINUOUS
 90
8
 70
0
 10
-14.144856393
 20
12.9782474961
 10
-14.1172248249
 20
12.9621518338
 10
-14.0900714541
 20
12.9418835038
 10
-14.0638603092
 20
12.9177895873
 10
-14.0390400412
 20
12.8902822522
 10
-14.0160343378
 20
12.8598326509
 10
-13.9952346622
 20
12.826962864
 10
-13.9863367301
 20
12.8100208157
  0
LWPOLYLINE
  5
412
100
AcDbEntity
  8
RACCORDO
100
AcDbPolyline
 62
253
  6
CONTINUOUS
 90
13
 70
0
 10
-35.599368756
 20
25.7386506579
 10
-35.5764873166
 20
25.7251653823
 10
-35.5539762401
 20
25.7082172765
 10
-35.5322206674
 20
25.6880963048
 10
-35.5115928135
 20
25.665146716
 10
-35.4924455994
 20
25.6397611534
 10
-35.4751066138
 20
25.6123739373
 10
-35.4598725085
 20
25.5834536343
 10
-35.4470039233
 20
25.5534950404
 10
-35.4367210261
 20
25.5230107159
 10
-35.4291997467
 20
25.4925222154
 10
-35.4245687662
 20
25.4625511653
 10
-35.4229073158
 20
25.4336103389
  0
LWPOLYLINE
  5
413
100
AcDbEntity
  8
IMPORT_IGES
100
AcDbPolyline
 62
253
  6
CONTINUOUS
 90
6
 70
0
 10
-14.6686257046
 20
12.535807036
 10
-14.6916168117
 20
12.566263881
 10
-14.7164163918
 20
12.5937814851
 10
-14.7426001172
 20
12.6178890143
 10
-14.7697199771
 20
12.6381739822
 10
-14.7973119432
 20
12.6542893074
  0
LINE
  5
414
100
AcDbEntity
  8
IMPORT_IGES
100
AcDbLine
 62
7
  6
CONTINUOUS
 10
-13.8419292748
 20
14.0279731261
 11
-14.000587437
 21
14.2870343127
  0
LWPOLYLINE
  5
415
100
AcDbEntity
  8
IMPORT_IGES
100
AcDbPolyline
 62
7
  6
CONTINUOUS
 90
6
 70
0
 10
-7.4408054172
 20
18.0272209169
 10
-7.4420231206
 20
18.0470065802
 10
-7.447430408
 20
18.0732073404
 10
-7.4573177494
 20
18.0990855932
 10
-7.4716028564
 20
18.123878535
 10
-7.4900456124
 20
18.1470365791
  0
LINE
  5
416
100
AcDbEntity
  8
IMPORT_IGES
100
AcDbLine
 62
7
  6
CONTINUOUS
 10
-7.7183746095
 20
18.9288669849
 11
-7.7193498003
 21
18.9903198298
  0
LWPOLYLINE
  5
417
100
AcDbEntity
  8
IMPORT_IGES
100
AcDbPolyline
 62
7
  6
CONTINUOUS
 90
6
 70
0
 10
-5.1933396115
 20
17.9303633801
 10
-5.192409028
 20
17.9476755882
 10
-5.1892810368
 20
17.9653445292
 10
-5.18399005
 20
17.9830865584
 10
-5.1765950923
 20
18.0005727871
 10
-5.1671993222
 20
18.0174952547
  0
LWPOLYLINE
  5
418
100
AcDbEntity
  8
IMPORT_IGES
100
AcDbPolyline
 62
253
  6
CONTINUOUS
 90
16
 70
0
 10
-5.5474101899
 20
17.6826712555
 10
-5.5459543751
 20
17.7082287132
 10
-5.5416593544
 20
17.7344762148
 10
-5.5346884909
 20
17.7608637449
 10
-5.5253394025
 20
17.7866524053
 10
-5.5138133576
 20
17.8115698373
 10
-5.5000283586
 20
17.8357463749
 10
-5.484059541
 20
17.8587859516
 10
-5.4662339061
 20
17.8799783649
 10
-5.4467561338
 20
17.8988648509
 10
-5.4258970479
 20
17.9149203838
 10
-5.4041741571
 20
17.9274905445
 10
-5.3822475602
 20
17.9360081622
 10
-5.360709705
 20
17.9401156494
 10
-5.340067596
 20
17.9395840533
 10
-5.3208888278
 20
17.934270266
  0
LINE
  5
419
100
AcDbEntity
  8
IMPORT_IGES
100
AcDbLine
 62
7
  6
CONTINUOUS
 10
-3.7085711156
 20
0.259990084
 11
-3.668365133
 21
0.2961122683
  0
LINE
  5
41A
100
AcDbEntity
  8
IMPORT_IGES
100
AcDbLine
 62
253
  6
CONTINUOUS
 10
-3.7877409491
 20
0.2086824088
 11
-3.799978779
 21
0.1984763581
  0
LINE
  5
41B
100
AcDbEntity
  8
IMPORT_IGES
100
AcDbLine
 62
7
  6
CONTINUOUS
 10
-3.75066451
 20
0.2278450399
 11
-3.7085711156
 21
0.259990084
  0
LINE
  5
41C
100
AcDbEntity
  8
IMPORT_IGES
100
AcDbLine
 62
7
  6
CONTINUOUS
 10
-5.7835671949
 20
-0.9641232801
 11
-5.771407132
 21
-0.9561302129
  0
LINE
  5
41D
100
AcDbEntity
  8
IMPORT_IGES
100
AcDbLine
 62
7
  6
CONTINUOUS
 10
-3.7789038911
 20
0.2093476354
 11
-3.75066451
 21
0.2278450399
  0
LINE
  5
41E
100
AcDbEntity
  8
RACCORDO
100
AcDbLine
 62
253
  6
CONTINUOUS
 10
-26.4491323134
 20
-13.2799654285
 11
-26.0964528086
 21
-13.103625676
  0
LINE
  5
41F
100
AcDbEntity
  8
RACCORDO
100
AcDbLine
 62
253
  6
CONTINUOUS
 10
-25.7420255323
 20
-14.4995442229
 11
-25.4056865655
 21
-14.3313747395
  0
LWPOLYLINE
  5
420
100
AcDbEntity
  8
IMPORT_IGES
100
AcDbPolyline
 62
7
  6
CONTINUOUS
 90
13
 70
0
 10
-5.5588697273
 20
17.9726521217
 10
-5.5051400513
 20
17.9730928372
 10
-5.488501628
 20
17.973037405
 10
-5.4725061179
 20
17.9728091101
 10
-5.4572745231
 20
17.9723826339
 10
-5.4428436056
 20
17.9716718155
 10
-5.4291248963
 20
17.9705882342
 10
-5.4162776081
 20
17.9691652519
 10
-5.4044006701
 20
17.9674018606
 10
-5.3932835372
 20
17.9651727528
 10
-5.3829127998
 20
17.9624792745
 10
-5.3735083891
 20
17.9594549778
 10
-5.3651741054
 20
17.9561842948
  0
LWPOLYLINE
  5
421
100
AcDbEntity
  8
RACCORDO
100
AcDbPolyline
 62
7
  6
CONTINUOUS
 90
7
 70
0
 10
-19.9714389278
 20
16.0974616927
 10
-19.9090496288
 20
16.0969546394
 10
-19.847788707
 20
16.0927891032
 10
-19.7881497903
 20
16.0861491517
 10
-19.7304856086
 20
16.0784389126
 10
-19.6748444568
 20
16.0703396779
 10
-19.6211772139
 20
16.0616036215
  0
LWPOLYLINE
  5
422
100
AcDbEntity
  8
RACCORDO
100
AcDbPolyline
 62
7
  6
CONTINUOUS
 90
3
 70
0
 10
-19.4275721532
 20
16.0280590002
 10
-19.3848061096
 20
16.0212548482
 10
-19.3442222483
 20
16.0157706855
  0
LINE
  5
423
100
AcDbEntity
  8
RACCORDO
100
AcDbLine
 62
7
  6
CONTINUOUS
 10
-19.6211772139
 20
16.0616036215
 11
-19.4275721532
 21
16.0280590002
  0
LWPOLYLINE
  5
424
100
AcDbEntity
  8
RACCORDO
100
AcDbPolyline
 62
253
  6
CONTINUOUS
 90
7
 70
0
 10
-20.4628753921
 20
18.1704039759
 10
-20.4861370996
 20
18.1799904909
 10
-20.5089800153
 20
18.1857199162
 10
-20.5310133345
 20
18.1874941013
 10
-20.5518600945
 20
18.1852825538
 10
-20.571163581
 20
18.1791229699
 10
-20.5764615719
 20
18.1765926721
  0
LWPOLYLINE
  5
425
100
AcDbEntity
  8
IMPORT_IGES
100
AcDbPolyline
 62
253
  6
CONTINUOUS
 90
3
 70
0
 10
-13.2288212844
 20
15.8107278029
 10
-13.1461601069
 20
15.770803994
 10
-12.1598556711
 20
15.2999786652
  0
LINE
  5
426
100
AcDbEntity
  8
IMPORT_IGES
100
AcDbLine
 62
7
  6
CONTINUOUS
 10
-13.4459520404
 20
14.2191685113
 11
-12.5544836323
 21
13.7734343072
  0
LINE
  5
427
100
AcDbEntity
  8
IMPORT_IGES
100
AcDbLine
 62
7
  6
CONTINUOUS
 10
-12.079215864
 20
13.7635812488
 11
-14.2294253282
 21
14.8386859808
  0
LINE
  5
428
100
AcDbEntity
  8
IMPORT_IGES
100
AcDbLine
 62
253
  6
CONTINUOUS
 10
-14.1456455588
 20
14.9200742584
 11
-11.9559377018
 21
13.8252203299
  0
LINE
  5
429
100
AcDbEntity
  8
IMPORT_IGES
100
AcDbLine
 62
253
  6
CONTINUOUS
 10
-14.0752459631
 20
14.9884642991
 11
-11.8523478633
 21
13.8770152491
  0
LINE
  5
42A
100
AcDbEntity
  8
IMPORT_IGES
100
AcDbLine
 62
253
  6
CONTINUOUS
 10
-13.9676489847
 20
15.0929899241
 11
-11.7543123174
 21
13.9863215904
  0
LINE
  5
42B
100
AcDbEntity
  8
DRAFT
100
AcDbLine
 62
7
  6
CONTINUOUS
 10
-22.5230922665
 20
20.6117190595
 11
-28.0417199824
 21
23.3710329175
  0
LINE
  5
42C
100
AcDbEntity
  8
IMPORT_IGES
100
AcDbLine
 62
7
  6
CONTINUOUS
 10
-11.7800214814
 20
13.9131784401
 11
-11.3117858683
 21
13.6762380595
  0
LINE
  5
42D
100
AcDbEntity
  8
IMPORT_IGES
100
AcDbLine
 62
253
  6
CONTINUOUS
 10
-12.0880554914
 20
15.3866366968
 11
-13.1191982737
 21
15.917221627
  0
LWPOLYLINE
  5
42E
100
AcDbEntity
  8
IMPORT_IGES
100
AcDbPolyline
 62
253
  6
CONTINUOUS
 90
10
 70
0
 10
-12.088052769
 20
15.3866353356
 10
-12.0760262227
 20
15.3798934962
 10
-12.0642870645
 20
15.3721636113
 10
-12.0528769495
 20
15.3634689207
 10
-12.0418325625
 20
15.3538290828
 10
-12.0312003351
 20
15.3432787673
 10
-12.0210352267
 20
15.3318719508
 10
-12.0113808588
 20
15.3196545198
 10
-12.0022704646
 20
15.306659747
 10
-11.9937408717
 20
15.2929298718
  0
LWPOLYLINE
  5
42F
100
AcDbEntity
  8
RACCORDO
100
AcDbPolyline
 62
253
  6
CONTINUOUS
 90
13
 70
0
 10
-19.519120965
 20
17.6943554194
 10
-19.4964443591
 20
17.6807696744
 10
-19.4741345831
 20
17.6637230861
 10
-19.4525733044
 20
17.6435072813
 10
-19.4321293852
 20
17.6204681044
 10
-19.4131525726
 20
17.5949997009
 10
-19.3959675147
 20
17.5675377749
 10
-19.3808682071
 20
17.5385521346
 10
-19.368112963
 20
17.5085386556
 10
-19.3579199947
 20
17.4780107972
 10
-19.3504636795
 20
17.4474908187
 10
-19.3458715774
 20
17.4175008444
 10
-19.3442222483
 20
17.3885539316
  0
LINE
  5
430
100
AcDbEntity
  8
IMPORT_IGES
100
AcDbLine
 62
7
  6
CONTINUOUS
 10
-2.3067220435
 20
7.7144888939
 11
-3.5156117279
 21
8.5954521394
  0
LINE
  5
431
100
AcDbEntity
  8
IMPORT_IGES
100
AcDbLine
 62
7
  6
CONTINUOUS
 10
-3.4874508826
 20
8.6962585284
 11
-2.0979224889
 21
7.6836570817
  0
LWPOLYLINE
  5
432
100
AcDbEntity
  8
IMPORT_IGES
100
AcDbPolyline
 62
7
  6
CONTINUOUS
 90
10
 70
0
 10
-11.2079313701
 20
13.5951239748
 10
-11.2202169459
 20
13.6070466782
 10
-11.2325260431
 20
13.6182806731
 10
-11.2448109893
 20
13.6288100237
 10
-11.2571633158
 20
13.6386808467
 10
-11.2694049162
 20
13.6478174993
 10
-11.281074076
 20
13.6560784872
 10
-11.2919829905
 20
13.6634759156
 10
-11.3022313334
 20
13.6701181076
 10
-11.3117868646
 20
13.6760644466
  0
LWPOLYLINE
  5
433
100
AcDbEntity
  8
IMPORT_IGES
100
AcDbPolyline
 62
253
  6
CONTINUOUS
 90
4
 70
0
 10
-11.5898846148
 20
16.146198669
 10
-11.5795866997
 20
16.1308266252
 10
-11.5732420517
 20
16.114699116
 10
-11.5710656023
 20
16.0985940113
  0
LWPOLYLINE
  5
434
100
AcDbEntity
  8
IMPORT_IGES
100
AcDbPolyline
 62
253
  6
CONTINUOUS
 90
10
 70
0
 10
-12.1034338095
 20
15.2422153202
 10
-12.1076422519
 20
15.2500573435
 10
-12.1123600227
 20
15.2575962187
 10
-12.1175871222
 20
15.2648319457
 10
-12.1233157704
 20
15.2718349517
 10
-12.1295537471
 20
15.2785348096
 10
-12.1363243916
 20
15.2847202381
 10
-12.1436354837
 20
15.2903208099
 10
-12.1514792435
 20
15.2954069523
 10
-12.1598556711
 20
15.2999786652
  0
LINE
  5
435
100
AcDbEntity
  8
IMPORT_IGES
100
AcDbLine
 62
7
  6
CONTINUOUS
 10
-12.1034338095
 20
15.2422153202
 11
-11.9266691802
 21
14.8946832499
  0
LINE
  5
436
100
AcDbEntity
  8
IMPORT_IGES
100
AcDbLine
 62
7
  6
CONTINUOUS
 10
-11.5766019197
 20
14.1989832203
 11
-11.3117520726
 21
13.6760902606
  0
LWPOLYLINE
  5
437
100
AcDbEntity
  8
IMPORT_IGES
100
AcDbPolyline
 62
7
  6
CONTINUOUS
 90
3
 70
0
 10
-11.9266691802
 20
14.8946832499
 10
-11.7512559076
 20
14.5469600141
 10
-11.5766019197
 20
14.1989832203
  0
LINE
  5
438
100
AcDbEntity
  8
IMPORT_IGES
100
AcDbLine
 62
253
  6
CONTINUOUS
 10
-11.207911915
 20
13.5951004971
 11
-11.7235874465
 21
14.7080924366
  0
LINE
  5
439
100
AcDbEntity
  8
IMPORT_IGES
100
AcDbLine
 62
253
  6
CONTINUOUS
 10
-11.7235874465
 20
14.7080924366
 11
-11.9937447856
 21
15.2929345964
  0
LINE
  5
43A
100
AcDbEntity
  8
IMPORT_IGES
100
AcDbLine
 62
253
  6
CONTINUOUS
 10
-5.5301512162
 20
17.3764580562
 11
-5.5474160064
 21
17.682673756
  0
LINE
  5
43B
100
AcDbEntity
  8
IMPORT_IGES
100
AcDbLine
 62
253
  6
CONTINUOUS
 10
-5.8282620051
 20
17.6781741494
 11
-5.8364907373
 21
17.9489229058
  0
LWPOLYLINE
  5
43C
100
AcDbEntity
  8
IMPORT_IGES
100
AcDbPolyline
 62
7
  6
CONTINUOUS
 90
13
 70
0
 10
-1.4448740092
 20
12.3682253255
 10
-1.4351123734
 20
12.3938250415
 10
-1.4187369082
 20
12.4402195136
 10
-1.4041585204
 20
12.4850632467
 10
-1.3914020915
 20
12.5283529575
 10
-1.38044274
 20
12.5700919293
 10
-1.3711021922
 20
12.6102737363
 10
-1.363389751
 20
12.6488771454
 10
-1.3572961134
 20
12.6859233898
 10
-1.3526150959
 20
12.7214697437
 10
-1.3492779709
 20
12.7555352983
 10
-1.347353466
 20
12.7881009624
 10
-1.3468415813
 20
12.8191667359
  0
LINE
  5
43D
100
AcDbEntity
  8
IMPORT_IGES
100
AcDbLine
 62
253
  6
CONTINUOUS
 10
-2.4234893903
 20
2.4447555752
 11
-3.534316514
 21
0.5712589753
  0
LINE
  5
43E
100
AcDbEntity
  8
IMPORT_IGES
100
AcDbLine
 62
7
  6
CONTINUOUS
 10
-3.48836545
 20
0.5288405247
 11
-2.3775383517
 21
2.4023370819
  0
LWPOLYLINE
  5
43F
100
AcDbEntity
  8
IMPORT_IGES
100
AcDbPolyline
 62
253
  6
CONTINUOUS
 90
3
 70
0
 10
-3.534316514
 20
0.5712589753
 10
-3.5548087399
 20
0.5378651111
 10
-3.5763453174
 20
0.5059853537
  0
LINE
  5
440
100
AcDbEntity
  8
IMPORT_IGES
100
AcDbLine
 62
7
  6
CONTINUOUS
 10
-3.5203066241
 20
0.477684964
 11
-3.4883545717
 21
0.5288566589
  0
LWPOLYLINE
  5
441
100
AcDbEntity
  8
IMPORT_IGES
100
AcDbPolyline
 62
253
  6
CONTINUOUS
 90
8
 70
0
 10
-3.5763453174
 20
0.5059853537
 10
-3.5989262465
 20
0.475619703
 10
-3.6232357367
 20
0.4459760601
 10
-3.6485895785
 20
0.4178465238
 10
-3.6729351431
 20
0.393607391
 10
-3.695588221
 20
0.3740507605
 10
-3.7172330218
 20
0.3583845334
 10
-3.7378695454
 20
0.3466087096
  0
LWPOLYLINE
  5
442
100
AcDbEntity
  8
IMPORT_IGES
100
AcDbPolyline
 62
7
  6
CONTINUOUS
 90
5
 70
0
 10
-3.668365133
 20
0.2961122683
 10
-3.629431086
 20
0.3361622679
 10
-3.5915055979
 20
0.3801844334
 10
-3.5550887662
 20
0.4274573103
 10
-3.5203066241
 20
0.477684964
  0
LINE
  5
443
100
AcDbEntity
  8
0
100
AcDbLine
 62
7
  6
CONTINUOUS
 10
-25.4042850684
 20
-15.3699044755
 11
-25.7420255323
 21
-15.5387747074
  0
LWPOLYLINE
  5
444
100
AcDbEntity
  8
IMPORT_IGES
100
AcDbPolyline
 62
7
  6
CONTINUOUS
 90
6
 70
0
 10
-4.8442987579
 20
17.5427202545
 10
-4.8787291218
 20
17.5439257873
 10
-4.9135166692
 20
17.5408720119
 10
-4.9480614851
 20
17.5334692272
 10
-4.9816044105
 20
17.5218745652
 10
-5.0007629941
 20
17.5131411082
  0
LWPOLYLINE
  5
445
100
AcDbEntity
  8
IMPORT_IGES
100
AcDbPolyline
 62
253
  6
CONTINUOUS
 90
7
 70
0
 10
-4.7567279528
 20
17.5190402718
 10
-4.762954768
 20
17.5196474096
 10
-4.7700487225
 20
17.5179630281
 10
-4.7780051074
 20
17.5140509512
 10
-4.7868733173
 20
17.5080149607
 10
-4.7965697995
 20
17.4999256567
 10
-4.8068730736
 20
17.4898294484
  0
LINE
  5
446
100
AcDbEntity
  8
IMPORT_IGES
100
AcDbLine
 62
7
  6
CONTINUOUS
 10
-4.8104897208
 20
17.5373048261
 11
-4.8442987579
 21
17.5427202545
  0
LWPOLYLINE
  5
447
100
AcDbEntity
  8
IMPORT_IGES
100
AcDbPolyline
 62
253
  6
CONTINUOUS
 90
3
 70
0
 10
-0.287772802
 20
13.477948195
 10
-0.2652567549
 20
13.4712028112
 10
-0.2582182358
 20
13.4679922864
  0
LWPOLYLINE
  5
448
100
AcDbEntity
  8
IMPORT_IGES
100
AcDbPolyline
 62
7
  6
CONTINUOUS
 90
5
 70
0
 10
-0.3050649239
 20
13.4886387019
 10
-0.352310648
 20
13.5040967321
 10
-0.3993773017
 20
13.5143732375
 10
-0.4456082724
 20
13.5195953316
 10
-0.4908480781
 20
13.5200239511
  0
LWPOLYLINE
  5
449
100
AcDbEntity
  8
RACCORDO
100
AcDbPolyline
 62
253
  6
CONTINUOUS
 90
7
 70
0
 10
-36.5513951399
 20
26.2104925069
 10
-36.5748546197
 20
26.2199750331
 10
-36.5978919594
 20
26.225602546
 10
-36.6201130583
 20
26.2272786462
 10
-36.6411377709
 20
26.2249745215
 10
-36.6606063654
 20
26.2187294491
 10
-36.6665582824
 20
26.2158587313
  0
LWPOLYLINE
  5
44A
100
AcDbEntity
  8
IMPORT_IGES
100
AcDbPolyline
 62
253
  6
CONTINUOUS
 90
3
 70
0
 10
-1.2761309032
 20
12.1514372773
 10
-1.3208026901
 20
12.1708847879
 10
-1.3582179388
 20
12.1823065443
  0
LWPOLYLINE
  5
44B
100
AcDbEntity
  8
IMPORT_IGES
100
AcDbPolyline
 62
253
  6
CONTINUOUS
 90
27
 70
0
 10
-12.1392554539
 20
15.7663126041
 10
-12.0988196111
 20
15.748557458
 10
-12.0559248672
 20
15.733566816
 10
-12.0105712223
 20
15.7213406781
 10
-11.962050051
 20
15.71180998
 10
-11.9110699785
 20
15.7050437859
 10
-11.8597568807
 20
15.7012492888
 10
-11.8082547993
 20
15.7005211664
 10
-11.7564196926
 20
15.7027647409
 10
-11.70594531
 20
15.7079031718
 10
-11.656711088
 20
15.7160516149
 10
-11.6088375903
 20
15.7270949144
 10
-11.5643802571
 20
15.7406107623
 10
-11.523524108
 20
15.7567061742
 10
-11.4860841234
 20
15.7752741344
 10
-11.4535606856
 20
15.7955712885
 10
-11.4261625986
 20
15.8176692566
 10
-11.4036810584
 20
15.8414964186
 10
-11.3869900343
 20
15.8660945592
 10
-11.3762919097
 20
15.8914457208
 10
-11.3713843013
 20
15.9175678611
 10
-11.3725340283
 20
15.9435566375
 10
-11.3799895103
 20
15.969494723
 10
-11.3935023278
 20
15.9952994446
 10
-11.4125940407
 20
16.0198184409
 10
-11.4371051691
 20
16.0426675916
 10
-11.4671951931
 20
16.064231017
  0
LWPOLYLINE
  5
44C
100
AcDbEntity
  8
IMPORT_IGES
100
AcDbPolyline
 62
7
  6
CONTINUOUS
 90
10
 70
0
 10
-0.9225775127
 20
12.7612266745
 10
-0.9475294923
 20
12.7730590352
 10
-0.9724037384
 20
12.7838975161
 10
-0.9972002509
 20
12.7937421173
 10
-1.0219435593
 20
12.80260066
 10
-1.0466091343
 20
12.810465323
 10
-1.0711233874
 20
12.8173126426
 10
-1.0954617893
 20
12.8231347975
 10
-1.1196488694
 20
12.8279396089
 10
-1.1436846277
 20
12.8317270768
  0
LINE
  5
44D
100
AcDbEntity
  8
IMPORT_IGES
100
AcDbLine
 62
253
  6
CONTINUOUS
 10
-11.5996344639
 20
16.1898817713
 11
-11.5995582368
 21
16.1898437588
  0
LINE
  5
44E
100
AcDbEntity
  8
IMPORT_IGES
100
AcDbLine
 62
253
  6
CONTINUOUS
 10
-12.1392554539
 20
15.7663126041
 11
-12.8887715742
 21
16.1410708011
  0
LINE
  5
44F
100
AcDbEntity
  8
IMPORT_IGES
100
AcDbLine
 62
253
  6
CONTINUOUS
 10
-12.7818623201
 20
16.2449283328
 11
-12.0685452858
 21
15.8882698156
  0
LINE
  5
450
100
AcDbEntity
  8
IMPORT_IGES
100
AcDbLine
 62
253
  6
CONTINUOUS
 10
-12.6749509354
 20
16.3487879342
 11
-11.9978333628
 21
16.0102291729
  0
LINE
  5
451
100
AcDbEntity
  8
IMPORT_IGES
100
AcDbLine
 62
253
  6
CONTINUOUS
 10
-11.6442830313
 20
16.1870041396
 11
-12.4346784919
 21
16.5822018058
  0
LINE
  5
452
100
AcDbEntity
  8
IMPORT_IGES
100
AcDbLine
 62
7
  6
CONTINUOUS
 10
-11.5995607127
 20
16.1898449969
 11
-12.4175511721
 21
16.5988402266
  0
LINE
  5
453
100
AcDbEntity
  8
RACCORDO
100
AcDbLine
 62
7
  6
CONTINUOUS
 10
-20.827633403
 20
21.3380408848
 11
-22.2890348633
 21
22.068741615
  0
LINE
  5
454
100
AcDbEntity
  8
RACCORDO
100
AcDbLine
 62
7
  6
CONTINUOUS
 10
-27.851513317
 20
24.8499808418
 11
-29.3129147772
 21
25.5806815719
  0
LINE
  5
455
100
AcDbEntity
  8
IMPORT_IGES
100
AcDbLine
 62
7
  6
CONTINUOUS
 10
-10.8368764368
 20
16.387914379
 11
-11.3178391556
 21
16.6283957384
  0
LINE
  5
456
100
AcDbEntity
  8
IMPORT_IGES
100
AcDbLine
 62
7
  6
CONTINUOUS
 10
-10.8368764368
 20
16.5611194597
 11
-11.3178391556
 21
16.8016008192
  0
LINE
  5
457
100
AcDbEntity
  8
0
100
AcDbLine
 62
253
  6
CONTINUOUS
 10
-20.827633403
 20
21.597848506
 11
-29.3129147772
 21
25.8404891931
  0
LINE
  5
458
100
AcDbEntity
  8
IMPORT_IGES
100
AcDbLine
 62
253
  6
CONTINUOUS
 10
-1.2761309737
 20
12.1514373126
 11
-1.0286448827
 21
12.0276942671
  0
LWPOLYLINE
  5
459
100
AcDbEntity
  8
RACCORDO
100
AcDbPolyline
 62
7
  6
CONTINUOUS
 90
25
 70
0
 10
-27.851513317
 20
24.8499808418
 10
-27.8427222031
 20
24.8452440149
 10
-27.8340304362
 20
24.8399082639
 10
-27.8254380163
 20
24.8339735889
 10
-27.8169129631
 20
24.827412815
 10
-27.8084872569
 20
24.820253117
 10
-27.800256838
 20
24.8125760199
 10
-27.7922239386
 20
24.8043756096
 10
-27.7843863263
 20
24.7956578
 10
-27.7768332453
 20
24.7865218577
 10
-27.7695679477
 20
24.7769630032
 10
-27.7625871814
 20
24.7669860159
 10
-27.7559704335
 20
24.7567045
 10
-27.749721865
 20
24.7461149747
 10
-27.7438373151
 20
24.7352209207
 10
-27.7383837888
 20
24.7241463845
 10
-27.7333662129
 20
24.7128893033
 10
-27.7287796607
 20
24.7014517399
 10
-27.7246763575
 20
24.6899639296
 10
-27.7210618269
 20
24.678425298
 10
-27.7179305454
 20
24.6668364195
 10
-27.7153181676
 20
24.6553292522
 10
-27.7132365785
 20
24.6439477822
 10
-27.7116738932
 20
24.6326480234
 10
-27.7106301117
 20
24.6214299759
  0
LINE
  5
45A
100
AcDbEntity
  8
IMPORT_IGES
100
AcDbLine
 62
253
  6
CONTINUOUS
 10
-11.4671951931
 20
16.064231017
 11
-11.4835960546
 21
16.0735548698
  0
LINE
  5
45B
100
AcDbEntity
  8
IMPORT_IGES
100
AcDbLine
 62
7
  6
CONTINUOUS
 10
-11.5691817075
 20
16.1725756961
 11
-11.5995464076
 21
16.1898378439
  0
LWPOLYLINE
  5
45C
100
AcDbEntity
  8
RACCORDO
100
AcDbPolyline
 62
7
  6
CONTINUOUS
 90
13
 70
0
 10
-15.1354292008
 20
19.8478359762
 10
-15.1123466922
 20
19.8344525685
 10
-15.0896702301
 20
19.8175889503
 10
-15.0677814303
 20
19.7975364032
 10
-15.0470448868
 20
19.774642443
 10
-15.0278147148
 20
19.7492989615
 10
-15.010428504
 20
19.7219355773
 10
-14.995183019
 20
19.6930206939
 10
-14.9823340556
 20
19.6630514984
 10
-14.9721047226
 20
19.6325396144
 10
-14.9646710177
 20
19.6020067501
 10
-14.9601589513
 20
19.5719757285
 10
-14.9586471192
 20
19.5429596879
  0
LWPOLYLINE
  5
45D
100
AcDbEntity
  8
IMPORT_IGES
100
AcDbPolyline
 62
253
  6
CONTINUOUS
 90
4
 70
0
 10
-11.6442830313
 20
16.1870041396
 10
-11.6221969587
 20
16.1741577813
 10
-11.6040641532
 20
16.1605559578
 10
-11.5898846148
 20
16.146198669
  0
LWPOLYLINE
  5
45E
100
AcDbEntity
  8
RACCORDO
100
AcDbPolyline
 62
7
  6
CONTINUOUS
 90
13
 70
0
 10
-31.2574759269
 20
27.9088593393
 10
-31.2345987127
 20
27.895369653
 10
-31.2121152685
 20
27.8784047587
 10
-31.1904097956
 20
27.8582556011
 10
-31.1698514661
 20
27.8352687072
 10
-31.1507920115
 20
27.8098373734
 10
-31.1335598995
 20
27.7823946832
 10
-31.1184471561
 20
27.7534109659
 10
-31.1057113453
 20
27.7233832843
 10
-31.0955750488
 20
27.6928239424
 10
-31.0882113499
 20
27.6622561616
 10
-31.0837410965
 20
27.6322050568
 10
-31.0822378408
 20
27.6031860209
  0
LWPOLYLINE
  5
45F
100
AcDbEntity
  8
IMPORT_IGES
100
AcDbPolyline
 62
7
  6
CONTINUOUS
 90
3
 70
0
 10
-11.5202990281
 20
16.1319099165
 10
-11.5427537542
 20
16.1532199266
 10
-11.5691817075
 20
16.1725756961
  0
LWPOLYLINE
  5
460
100
AcDbEntity
  8
IMPORT_IGES
100
AcDbPolyline
 62
253
  6
CONTINUOUS
 90
8
 70
0
 10
-2.27499527
 20
16.2119561082
 10
-2.2743356921
 20
16.2035591543
 10
-2.2761335991
 20
16.1812477518
 10
-2.2831126895
 20
16.1585790684
 10
-2.2952441282
 20
16.1360732365
 10
-2.3123647483
 20
16.1141756747
 10
-2.334268881
 20
16.0932514895
 10
-2.3606381333
 20
16.073700395
  0
LINE
  5
461
100
AcDbEntity
  8
IMPORT_IGES
100
AcDbLine
 62
253
  6
CONTINUOUS
 10
-3.902724698
 20
17.237119231
 11
-3.9095059733
 21
17.4789770421
  0
LINE
  5
462
100
AcDbEntity
  8
IMPORT_IGES
100
AcDbLine
 62
7
  6
CONTINUOUS
 10
-3.8412546839
 20
17.2063842239
 11
-3.8507986088
 21
17.5514566334
  0
LWPOLYLINE
  5
463
100
AcDbEntity
  8
IMPORT_IGES
100
AcDbPolyline
 62
7
  6
CONTINUOUS
 90
10
 70
0
 10
-2.147351808
 20
4.2400897583
 10
-2.1473634253
 20
4.1964503312
 10
-2.1461530253
 20
4.153573069
 10
-2.1437206081
 20
4.1114579717
 10
-2.1400604875
 20
4.0700584144
 10
-2.1351783496
 20
4.0294210219
 10
-2.129091253
 20
3.9896856689
 10
-2.1218048839
 20
3.9508989802
 10
-2.1133135561
 20
3.9130143309
 10
-2.1036172696
 20
3.876031721
  0
LINE
  5
464
100
AcDbEntity
  8
IMPORT_IGES
100
AcDbLine
 62
253
  6
CONTINUOUS
 10
-2.3803225276
 20
2.5870679872
 11
-2.3067220435
 21
7.7144888939
  0
LINE
  5
465
100
AcDbEntity
  8
IMPORT_IGES
100
AcDbLine
 62
7
  6
CONTINUOUS
 10
-2.2924531553
 20
2.6933462758
 11
-2.2214578095
 21
7.6392786955
  0
LINE
  5
466
100
AcDbEntity
  8
IMPORT_IGES
100
AcDbLine
 62
7
  6
CONTINUOUS
 10
-2.0979225097
 20
7.6836570968
 11
-2.147352477
 21
4.2400894238
  0
LINE
  5
467
100
AcDbEntity
  8
IMPORT_IGES
100
AcDbLine
 62
7
  6
CONTINUOUS
 10
-2.2924527141
 20
2.6933473127
 11
-2.2940507193
 21
2.6594496358
  0
LWPOLYLINE
  5
468
100
AcDbEntity
  8
IMPORT_IGES
100
AcDbPolyline
 62
7
  6
CONTINUOUS
 90
10
 70
0
 10
-1.3468415813
 20
12.8867561687
 10
-1.3442468757
 20
12.9409885858
 10
-1.3372792438
 20
12.9911987306
 10
-1.3259386856
 20
13.037386603
 10
-1.3100011694
 20
13.079938285
 10
-1.2896907268
 20
13.1184676946
 10
-1.2656794533
 20
13.1518165861
 10
-1.2378637465
 20
13.1798360652
 10
-1.2063472088
 20
13.202675026
 10
-1.190733936
 20
13.2113176782
  0
LWPOLYLINE
  5
469
100
AcDbEntity
  8
IMPORT_IGES
100
AcDbPolyline
 62
253
  6
CONTINUOUS
 90
3
 70
0
 10
-3.7378695454
 20
0.3466087096
 10
-3.7389609441
 20
0.3250282794
 10
-3.7415866794
 20
0.3044100343
  0
LWPOLYLINE
  5
46A
100
AcDbEntity
  8
IMPORT_IGES
100
AcDbPolyline
 62
253
  6
CONTINUOUS
 90
10
 70
0
 10
-2.3803225276
 20
2.5870679872
 10
-2.3811117863
 20
2.571611178
 10
-2.382930834
 20
2.5559730587
 10
-2.3857796706
 20
2.5401536291
 10
-2.3896956618
 20
2.524029703
 10
-2.3946414419
 20
2.5077244666
 10
-2.4005049145
 20
2.4916074797
 10
-2.407248714
 20
2.4758019288
 10
-2.4149102059
 20
2.4601846273
 10
-2.4234893903
 20
2.4447555752
  0
LWPOLYLINE
  5
46B
100
AcDbEntity
  8
IMPORT_IGES
100
AcDbPolyline
 62
253
  6
CONTINUOUS
 90
7
 70
0
 10
-0.6799511281
 20
10.356229266
 10
-0.6819458683
 20
10.3382652522
 10
-0.6891114125
 20
10.3191073006
 10
-0.7014589958
 20
10.3003980591
 10
-0.7188439503
 20
10.2825100543
 10
-0.7410683327
 20
10.2657571264
 10
-0.7678208178
 20
10.2504719503
  0
LWPOLYLINE
  5
46C
100
AcDbEntity
  8
IMPORT_IGES
100
AcDbPolyline
 62
7
  6
CONTINUOUS
 90
9
 70
0
 10
-2.2940507193
 20
2.6594496358
 10
-2.2977972418
 20
2.6257754128
 10
-2.3035999555
 20
2.592367163
 10
-2.3114334148
 20
2.5590925617
 10
-2.321239241
 20
2.5261114223
 10
-2.3328297493
 20
2.49389257
 10
-2.3460706489
 20
2.4625962467
 10
-2.36097709
 20
2.4320737035
 10
-2.3775397342
 20
2.4023380449
  0
LINE
  5
46D
100
AcDbEntity
  8
IMPORT_IGES
100
AcDbLine
 62
7
  6
CONTINUOUS
 10
-0.5887443725
 20
9.3051404101
 11
-0.5582316247
 21
9.5146260858
  0
LWPOLYLINE
  5
46E
100
AcDbEntity
  8
IMPORT_IGES
100
AcDbPolyline
 62
253
  6
CONTINUOUS
 90
7
 70
0
 10
-3.7415866794
 20
0.3044100343
 10
-3.7457276684
 20
0.2849039875
 10
-3.7513534427
 20
0.26665224
 10
-3.7584234249
 20
0.2497874179
 10
-3.7668872267
 20
0.2344317069
 10
-3.7766836128
 20
0.2206966649
 10
-3.7877409491
 20
0.2086824088
  0
LWPOLYLINE
  5
46F
100
AcDbEntity
  8
IMPORT_IGES
100
AcDbPolyline
 62
253
  6
CONTINUOUS
 90
3
 70
0
 10
-0.6936041073
 20
9.0223369765
 10
-0.6503392665
 20
9.2182692108
 10
-0.616739237
 20
9.4445116311
  0
LWPOLYLINE
  5
470
100
AcDbEntity
  8
IMPORT_IGES
100
AcDbPolyline
 62
7
  6
CONTINUOUS
 90
4
 70
0
 10
-0.695584069
 20
8.8844017802
 10
-0.6852585149
 20
8.9129450835
 10
-0.6311505552
 20
9.1043457569
 10
-0.5887443725
 20
9.3051404101
  0
LWPOLYLINE
  5
471
100
AcDbEntity
  8
RACCORDO
100
AcDbPolyline
 62
7
  6
CONTINUOUS
 90
9
 70
0
 10
-19.3442222483
 20
-22.3012008696
 10
-19.3848061096
 20
-22.3436507644
 10
-19.4275721532
 20
-22.3849565826
 10
-19.4725838866
 20
-22.4247332661
 10
-19.5199301049
 20
-22.4625429878
 10
-19.5695163766
 20
-22.4980722973
 10
-19.6211772139
 20
-22.530995405
 10
-19.6748444568
 20
-22.5607574074
 10
-19.7000508639
 20
-22.5731994959
  0
LWPOLYLINE
  5
472
100
AcDbEntity
  8
RACCORDO
100
AcDbPolyline
 62
7
  6
CONTINUOUS
 90
13
 70
0
 10
-25.605822966
 20
-20.9083015809
 10
-25.5754097408
 20
-20.8898961446
 10
-25.5472887972
 20
-20.8671654101
 10
-25.5214375559
 20
-20.8401815813
 10
-25.4980293745
 20
-20.809262059
 10
-25.4770801465
 20
-20.7745953274
 10
-25.4584901219
 20
-20.7360390578
 10
-25.4424635379
 20
-20.6939333396
 10
-25.4291482772
 20
-20.6486459858
 10
-25.4185012176
 20
-20.5997904213
 10
-25.4106763981
 20
-20.5473399047
 10
-25.4058976647
 20
-20.4918688574
 10
-25.4042850684
 20
-20.4337376205
  0
LINE
  5
473
100
AcDbEntity
  8
RACCORDO
100
AcDbLine
 62
7
  6
CONTINUOUS
 10
-25.4042850684
 20
-18.9134654019
 11
-25.9040799863
 21
-19.1633628609
  0
LINE
  5
474
100
AcDbEntity
  8
0
100
AcDbLine
 62
7
  6
CONTINUOUS
 10
-25.4042850684
 20
-19.2670187925
 11
-25.7420255323
 21
-19.4358890244
  0
LINE
  5
475
100
AcDbEntity
  8
RACCORDO
100
AcDbLine
 62
253
  6
CONTINUOUS
 10
-14.9586471192
 20
-14.0319159686
 11
-12.3419847322
 21
-12.7266801982
  0
LINE
  5
476
100
AcDbEntity
  8
RACCORDO
100
AcDbLine
 62
253
  6
CONTINUOUS
 10
-14.9586471192
 20
-14.5035982132
 11
-12.1298556057
 21
-13.0925488212
  0
LINE
  5
477
100
AcDbEntity
  8
ASSI
100
AcDbLine
 62
7
  6
CONTINUOUS
 10
-14.464017426
 20
-12.3645574498
 11
-14.9586471192
 21
-12.6061404448
  0
LWPOLYLINE
  5
478
100
AcDbEntity
  8
0
100
AcDbPolyline
 62
7
  6
CONTINUOUS
 90
7
 70
0
 10
-25.9040799863
 20
-15.5991688366
 10
-25.8749157691
 20
-15.5908405021
 10
-25.8466136086
 20
-15.5818172261
 10
-25.8191735046
 20
-15.5720990087
 10
-25.7925954572
 20
-15.5616858497
 10
-25.7668794664
 20
-15.5505777493
 10
-25.7420255323
 20
-15.5387747074
  0
LINE
  5
479
100
AcDbEntity
  8
0
100
AcDbLine
 62
7
  6
CONTINUOUS
 10
-19.9035381199
 20
22.3069878786
 11
-15.2581823584
 21
22.7810755531
  0
LINE
  5
47A
100
AcDbEntity
  8
IMPORT_IGES
100
AcDbLine
 62
7
  6
CONTINUOUS
 10
-4.7777077164
 20
17.5277507327
 11
-4.8104897208
 21
17.5373048261
  0
LWPOLYLINE
  5
47B
100
AcDbEntity
  8
IMPORT_IGES
100
AcDbPolyline
 62
253
  6
CONTINUOUS
 90
4
 70
0
 10
-3.3123423544
 20
16.9299970313
 10
-3.3294086527
 20
16.9349754072
 10
-3.3477080462
 20
16.9361229705
 10
-3.3668368613
 20
16.9335194598
  0
LWPOLYLINE
  5
47C
100
AcDbEntity
  8
IMPORT_IGES
100
AcDbPolyline
 62
253
  6
CONTINUOUS
 90
5
 70
0
 10
-7.5693060445
 20
18.2049710499
 10
-7.577757572
 20
18.2080056978
 10
-7.5890486427
 20
18.2090374738
 10
-7.6012636937
 20
18.2070911313
 10
-7.6140300249
 20
18.2021307423
  0
LINE
  5
47D
100
AcDbEntity
  8
IMPORT_IGES
100
AcDbLine
 62
7
  6
CONTINUOUS
 10
-4.7640060552
 20
17.5223938789
 11
-4.7777077164
 21
17.5277507327
  0
LWPOLYLINE
  5
47E
100
AcDbEntity
  8
IMPORT_IGES
100
AcDbPolyline
 62
253
  6
CONTINUOUS
 90
3
 70
0
 10
-3.2324070937
 20
16.8757462381
 10
-3.2539367703
 20
16.8841998973
 10
-3.2805816181
 20
16.8950154006
  0
LWPOLYLINE
  5
47F
100
AcDbEntity
  8
RACCORDO
100
AcDbPolyline
 62
7
  6
CONTINUOUS
 90
7
 70
0
 10
-16.1960880249
 20
20.3781653883
 10
-16.2193606943
 20
20.3877453777
 10
-16.2422340947
 20
20.3934587928
 10
-16.2643174231
 20
20.3952072985
 10
-16.2852353633
 20
20.3929593944
 10
-16.3046294118
 20
20.3867533178
 10
-16.3088609346
 20
20.3847648439
  0
LINE
  5
480
100
AcDbEntity
  8
IMPORT_IGES
100
AcDbLine
 62
253
  6
CONTINUOUS
 10
-3.2805816181
 20
16.8950154006
 11
-3.3123416371
 21
16.908192748
  0
LWPOLYLINE
  5
481
100
AcDbEntity
  8
RACCORDO
100
AcDbPolyline
 62
7
  6
CONTINUOUS
 90
7
 70
0
 10
-32.318113211
 20
28.4391779813
 10
-32.3411770083
 20
28.4488677265
 10
-32.3638576257
 20
28.4546826481
 10
-32.3857609814
 20
28.4565261788
 10
-32.4065029054
 20
28.4543714523
 10
-32.4257276092
 20
28.4482554087
 10
-32.4281889879
 20
28.4471308634
  0
LINE
  5
482
100
AcDbEntity
  8
IMPORT_IGES
100
AcDbLine
 62
7
  6
CONTINUOUS
 10
-4.7641614129
 20
17.5224575415
 11
-3.312239118
 21
16.9084356411
  0
LINE
  5
483
100
AcDbEntity
  8
IMPORT_IGES
100
AcDbLine
 62
253
  6
CONTINUOUS
 10
-2.5019187223
 20
16.5362923601
 11
-4.1255054852
 21
17.2245280955
  0
LINE
  5
484
100
AcDbEntity
  8
IMPORT_IGES
100
AcDbLine
 62
253
  6
CONTINUOUS
 10
-4.0413702633
 20
16.8518386716
 11
-2.4174842086
 21
16.1634526046
  0
LWPOLYLINE
  5
485
100
AcDbEntity
  8
IMPORT_IGES
100
AcDbPolyline
 62
253
  6
CONTINUOUS
 90
7
 70
0
 10
-0.3922474267
 20
13.4594044194
 10
-0.4369192136
 20
13.4788519299
 10
-0.4806334496
 20
13.4921965788
 10
-0.5229373179
 20
13.4994824093
 10
-0.5631711191
 20
13.5008323907
 10
-0.60123479
 20
13.496484609
 10
-0.6374680905
 20
13.4864280918
  0
LWPOLYLINE
  5
486
100
AcDbEntity
  8
IMPORT_IGES
100
AcDbPolyline
 62
253
  6
CONTINUOUS
 90
27
 70
0
 10
-8.1090020667
 20
17.7814392978
 10
-8.0685662239
 20
17.7636841516
 10
-8.02567148
 20
17.7486935096
 10
-7.980317835
 20
17.7364673717
 10
-7.9317966637
 20
17.7269366736
 10
-7.8808165913
 20
17.7201704796
 10
-7.8295034935
 20
17.7163759824
 10
-7.7780014121
 20
17.71564786
 10
-7.7261663053
 20
17.7178914345
 10
-7.6756919228
 20
17.7230298654
 10
-7.6264577008
 20
17.7311783085
 10
-7.5785842031
 20
17.742221608
 10
-7.5341268699
 20
17.755737456
 10
-7.4932707208
 20
17.7718328678
 10
-7.4558307362
 20
17.790400828
 10
-7.4233072984
 20
17.8106979821
 10
-7.3959092114
 20
17.8327959502
 10
-7.3734276712
 20
17.8566231122
 10
-7.3567366471
 20
17.8812212528
 10
-7.3460385225
 20
17.9065724144
 10
-7.3411309141
 20
17.9326945547
 10
-7.3422806411
 20
17.9586833312
 10
-7.3497361231
 20
17.9846214166
 10
-7.3632489406
 20
18.0104261382
 10
-7.3823406535
 20
18.0349451345
 10
-7.4068517819
 20
18.0577942852
 10
-7.4369418059
 20
18.0793577106
  0
LWPOLYLINE
  5
487
100
AcDbEntity
  8
IMPORT_IGES
100
AcDbPolyline
 62
253
  6
CONTINUOUS
 90
19
 70
0
 10
-8.0382913466
 20
17.9033946888
 10
-8.0046699231
 20
17.8886100239
 10
-7.9667206061
 20
17.8758509605
 10
-7.9248832872
 20
17.8654904498
 10
-7.8792960913
 20
17.8578263899
 10
-7.8310861559
 20
17.853303502
 10
-7.782483737
 20
17.8521900948
 10
-7.7348485333
 20
17.8543916503
 10
-7.6886400499
 20
17.8597621266
 10
-7.6447637436
 20
17.8681030179
 10
-7.6039356388
 20
17.8791712859
 10
-7.5667826269
 20
17.8926844915
 10
-7.5339040897
 20
17.9082901642
 10
-7.5057828237
 20
17.9255751987
 10
-7.4825710219
 20
17.9442376982
 10
-7.4643056175
 20
17.9640971766
 10
-7.4512188849
 20
17.9847701975
 10
-7.4433744289
 20
18.0059761844
 10
-7.4408053803
 20
18.0271406153
  0
LINE
  5
488
100
AcDbEntity
  8
IMPORT_IGES
100
AcDbLine
 62
7
  6
CONTINUOUS
 10
-0.2580833481
 20
13.4679249555
 11
-0.3050649239
 21
13.4886387019
  0
LWPOLYLINE
  5
489
100
AcDbEntity
  8
RACCORDO
100
AcDbPolyline
 62
7
  6
CONTINUOUS
 90
25
 70
0
 10
-20.7464011839
 20
24.1792715417
 10
-20.7560138249
 20
24.1838983365
 10
-20.7660719289
 20
24.1884087423
 10
-20.7765754959
 20
24.1928027591
 10
-20.7875731795
 20
24.1970981553
 10
-20.799016326
 20
24.2012771626
 10
-20.8107589741
 20
24.2052864763
 10
-20.8228049604
 20
24.2091239226
 10
-20.8351504482
 20
24.2127916753
 10
-20.8476379667
 20
24.2162429509
 10
-20.8602693351
 20
24.2194749765
 10
-20.8730427342
 20
24.2224905249
 10
-20.8857952346
 20
24.2252511319
 10
-20.8985265688
 20
24.2277535317
 10
-20.9112370045
 20
24.2300009901
 10
-20.9237644155
 20
24.2319648399
 10
-20.9361064574
 20
24.2336414482
 10
-20.9482654747
 20
24.2350344479
 10
-20.960086375
 20
24.2361260708
 10
-20.9715648269
 20
24.2369124565
 10
-20.9827051617
 20
24.2373974653
 10
-20.9933652805
 20
24.237574911
 10
-21.0034978171
 20
24.2374427312
 10
-21.0131501378
 20
24.2370029883
 10
-21.0223222425
 20
24.2362556821
  0
LWPOLYLINE
  5
48A
100
AcDbEntity
  8
RACCORDO
100
AcDbPolyline
 62
7
  6
CONTINUOUS
 90
25
 70
0
 10
-24.7769098366
 20
26.1945258681
 10
-24.7865224777
 20
26.1991526628
 10
-24.7965805817
 20
26.2036630686
 10
-24.8070841486
 20
26.2080570855
 10
-24.8180818322
 20
26.2123524817
 10
-24.8295249787
 20
26.216531489
 10
-24.8412676269
 20
26.2205408027
 10
-24.8533136131
 20
26.224378249
 10
-24.865659101
 20
26.2280460017
 10
-24.8781466194
 20
26.2314972773
 10
-24.8907779879
 20
26.2347293029
 10
-24.9035513869
 20
26.2377448513
 10
-24.9163038874
 20
26.2405054583
 10
-24.9290352216
 20
26.2430078581
 10
-24.9417456572
 20
26.2452553165
 10
-24.9542730683
 20
26.2472191663
 10
-24.9666151102
 20
26.2488957746
 10
-24.9787741275
 20
26.2502887743
 10
-24.9905950277
 20
26.2513803972
 10
-25.0020734796
 20
26.2521667828
 10
-25.0132138144
 20
26.2526517917
 10
-25.0238739333
 20
26.2528292373
 10
-25.0340064699
 20
26.2526970576
 10
-25.0436587906
 20
26.2522573147
 10
-25.0528308953
 20
26.2515100085
  0
LINE
  5
48B
100
AcDbEntity
  8
IMPORT_IGES
100
AcDbLine
 62
253
  6
CONTINUOUS
 10
-0.0107308623
 20
13.3442485997
 11
-0.0105959746
 21
13.3441812688
  0
LINE
  5
48C
100
AcDbEntity
  8
IMPORT_IGES
100
AcDbLine
 62
253
  6
CONTINUOUS
 10
-0.2582182358
 20
13.4679922864
 11
-0.2580833481
 21
13.4679249555
  0
LINE
  5
48D
100
AcDbEntity
  8
RACCORDO
100
AcDbLine
 62
7
  6
CONTINUOUS
 10
-16.1960880249
 20
20.3781653883
 11
-15.1354292008
 21
19.8478359762
  0
LINE
  5
48E
100
AcDbEntity
  8
RACCORDO
100
AcDbLine
 62
7
  6
CONTINUOUS
 10
-31.2574543868
 20
27.9088485692
 11
-32.318113211
 21
28.4391779813
  0
LINE
  5
48F
100
AcDbEntity
  8
0
100
AcDbLine
 62
253
  6
CONTINUOUS
 10
-20.3326586562
 20
22.451553662
 11
-28.8179400304
 21
26.6941943491
  0
LINE
  5
490
100
AcDbEntity
  8
IMPORT_IGES
100
AcDbLine
 62
253
  6
CONTINUOUS
 10
-0.9225775127
 20
12.7612266745
 11
-0.6750901392
 21
12.6374829877
  0
LINE
  5
491
100
AcDbEntity
  8
0
100
AcDbLine
 62
253
  6
CONTINUOUS
 10
-19.9690905236
 20
22.6333377283
 11
-28.4543718978
 21
26.8759784154
  0
LINE
  5
492
100
AcDbEntity
  8
IMPORT_IGES
100
AcDbLine
 62
7
  6
CONTINUOUS
 10
-0.6750901392
 20
13.0704956897
 11
-0.9225775126
 21
13.1942393764
  0
LINE
  5
493
100
AcDbEntity
  8
0
100
AcDbLine
 62
253
  6
CONTINUOUS
 10
-19.816134915
 20
22.6801451224
 11
-28.3014162893
 21
26.9227858096
  0
LINE
  5
494
100
AcDbEntity
  8
ASSI
100
AcDbLine
 62
7
  6
CONTINUOUS
 10
-19.0603456603
 20
22.3571637063
 11
-19.1199368483
 21
22.3869593003
  0
LINE
  5
495
100
AcDbEntity
  8
RACCORDO
100
AcDbLine
 62
7
  6
CONTINUOUS
 10
-20.827633403
 20
23.3006360803
 11
-22.8782430684
 21
24.3259409131
  0
LINE
  5
496
100
AcDbEntity
  8
RACCORDO
100
AcDbLine
 62
7
  6
CONTINUOUS
 10
-24.8581420558
 20
25.3158904067
 11
-26.9087517212
 21
26.3411952394
  0
LINE
  5
497
100
AcDbEntity
  8
ASSI
100
AcDbLine
 62
7
  6
CONTINUOUS
 10
-20.2102072714
 20
23.2785046733
 11
-21.6408062014
 21
23.9938041383
  0
LINE
  5
498
100
AcDbEntity
  8
IMPORT_IGES
100
AcDbLine
 62
253
  6
CONTINUOUS
 10
-0.3922474267
 20
13.4594044194
 11
-0.1447600533
 21
13.3356607327
  0
LINE
  5
499
100
AcDbEntity
  8
IMPORT_IGES
100
AcDbLine
 62
7
  6
CONTINUOUS
 10
-9.7784033463
 20
18.1529479925
 11
-9.3882303097
 21
17.9578614742
  0
LINE
  5
49A
100
AcDbEntity
  8
IMPORT_IGES
100
AcDbLine
 62
7
  6
CONTINUOUS
 10
-0.2580833481
 20
13.4679249555
 11
-0.0105959746
 21
13.3441812688
  0
LINE
  5
49B
100
AcDbEntity
  8
IMPORT_IGES
100
AcDbLine
 62
253
  6
CONTINUOUS
 10
-8.1090020667
 20
17.7814392978
 11
-10.1498134911
 21
18.8018453824
  0
LINE
  5
49C
100
AcDbEntity
  8
RACCORDO
100
AcDbLine
 62
7
  6
CONTINUOUS
 10
-24.7769098366
 20
26.1945258681
 11
-23.1898674481
 21
25.4010046739
  0
LINE
  5
49D
100
AcDbEntity
  8
RACCORDO
100
AcDbLine
 62
7
  6
CONTINUOUS
 10
-20.7464011839
 20
24.1792715417
 11
-19.1593587953
 21
23.3857503475
  0
LINE
  5
49E
100
AcDbEntity
  8
IMPORT_IGES
100
AcDbLine
 62
253
  6
CONTINUOUS
 10
-8.0382927537
 20
17.903396937
 11
-10.042904397
 21
18.9057027586
  0
LINE
  5
49F
100
AcDbEntity
  8
IMPORT_IGES
100
AcDbLine
 62
253
  6
CONTINUOUS
 10
-9.9359931449
 20
19.0095622312
 11
-7.9675799756
 21
18.0253558665
  0
LINE
  5
4A0
100
AcDbEntity
  8
RACCORDO
100
AcDbLine
 62
7
  6
CONTINUOUS
 10
-24.6895066317
 20
26.567683112
 11
-22.6388969663
 21
25.5423782793
  0
LINE
  5
4A1
100
AcDbEntity
  8
RACCORDO
100
AcDbLine
 62
7
  6
CONTINUOUS
 10
-20.658997979
 20
24.5524287856
 11
-18.6083883135
 21
23.5271239529
  0
LINE
  5
4A2
100
AcDbEntity
  8
IMPORT_IGES
100
AcDbLine
 62
253
  6
CONTINUOUS
 10
-7.6140307851
 20
18.2021304617
 11
-9.6957211134
 21
19.2429757025
  0
LINE
  5
4A3
100
AcDbEntity
  8
IMPORT_IGES
100
AcDbLine
 62
7
  6
CONTINUOUS
 10
-7.5693073255
 20
18.2049716905
 11
-9.6785932491
 21
19.2596146523
  0
LWPOLYLINE
  5
4A4
100
AcDbEntity
  8
RACCORDO
100
AcDbPolyline
 62
7
  6
CONTINUOUS
 90
15
 70
0
 10
-26.9087517212
 20
26.3411952394
 10
-26.9177679867
 20
26.345882898
 10
-26.9261031747
 20
26.3505691382
 10
-26.9337572851
 20
26.35525396
 10
-26.9407571842
 20
26.3599573551
 10
-26.9470760058
 20
26.3646593319
 10
-26.952633151
 20
26.3692999149
 10
-26.957418863
 20
26.3738783177
 10
-26.9614428987
 20
26.3783953268
 10
-26.9646539301
 20
26.3827933261
 10
-26.9670415427
 20
26.3870707911
 10
-26.9686161511
 20
26.3912292463
 10
-26.9693576704
 20
26.3952156493
 10
-26.9692554291
 20
26.3990277959
 10
-26.9689752647
 20
26.4005299046
  0
LWPOLYLINE
  5
4A5
100
AcDbEntity
  8
RACCORDO
100
AcDbPolyline
 62
7
  6
CONTINUOUS
 90
15
 70
0
 10
-22.8782430684
 20
24.3259409131
 10
-22.8872593339
 20
24.3306285716
 10
-22.8955945219
 20
24.3353148118
 10
-22.9032486323
 20
24.3399996336
 10
-22.9102485314
 20
24.3447030288
 10
-22.916567353
 20
24.3494050055
 10
-22.9221244982
 20
24.3540455885
 10
-22.9269102102
 20
24.3586239914
 10
-22.9309342459
 20
24.3631410004
 10
-22.9341452773
 20
24.3675389997
 10
-22.9365328899
 20
24.3718164647
 10
-22.9381074983
 20
24.37597492
 10
-22.9388490177
 20
24.3799613229
 10
-22.9387467764
 20
24.3837734695
 10
-22.9384666119
 20
24.3852755782
  0
LWPOLYLINE
  5
4A6
100
AcDbEntity
  8
RACCORDO
100
AcDbPolyline
 62
7
  6
CONTINUOUS
 90
15
 70
0
 10
-22.6388969663
 20
25.5423782793
 10
-22.6298807008
 20
25.5376906207
 10
-22.6215455128
 20
25.5330043805
 10
-22.6138914024
 20
25.5283195587
 10
-22.6068915033
 20
25.5236161636
 10
-22.6005726817
 20
25.5189141868
 10
-22.5950155365
 20
25.5142736038
 10
-22.5902298245
 20
25.509695201
 10
-22.5862057888
 20
25.5051781919
 10
-22.5829947574
 20
25.5007801926
 10
-22.5806071448
 20
25.4965027276
 10
-22.5790325364
 20
25.4923442724
 10
-22.5782910171
 20
25.4883578695
 10
-22.5783932584
 20
25.4845457228
 10
-22.5786734228
 20
25.4830436141
  0
LWPOLYLINE
  5
4A7
100
AcDbEntity
  8
RACCORDO
100
AcDbPolyline
 62
7
  6
CONTINUOUS
 90
15
 70
0
 10
-18.6083883135
 20
23.5271239529
 10
-18.599372048
 20
23.5224362943
 10
-18.5910368601
 20
23.5177500541
 10
-18.5833827497
 20
23.5130652324
 10
-18.5763828506
 20
23.5083618372
 10
-18.570064029
 20
23.5036598604
 10
-18.5645068837
 20
23.4990192774
 10
-18.5597211717
 20
23.4944408746
 10
-18.5556971361
 20
23.4899238655
 10
-18.5524861047
 20
23.4855258662
 10
-18.550098492
 20
23.4812484012
 10
-18.5485238837
 20
23.477089946
 10
-18.5477823643
 20
23.4731035431
 10
-18.5478846056
 20
23.4692913964
 10
-18.54816477
 20
23.4677892877
  0
LWPOLYLINE
  5
4A8
100
AcDbEntity
  8
IMPORT_IGES
100
AcDbPolyline
 62
7
  6
CONTINUOUS
 90
10
 70
0
 10
-0.6750901392
 20
12.6374829877
 10
-0.6249732669
 20
12.6101226385
 10
-0.5754583409
 20
12.5793038811
 10
-0.5265453612
 20
12.5450267157
 10
-0.4780447828
 20
12.5071273707
 10
-0.4301461506
 20
12.4657696175
 10
-0.3834180998
 20
12.4214447705
 10
-0.3380501754
 20
12.374316601
 10
-0.2938528323
 20
12.3242213377
 10
-0.2508260705
 20
12.2711589804
  0
LWPOLYLINE
  5
4A9
100
AcDbEntity
  8
IMPORT_IGES
100
AcDbPolyline
 62
253
  6
CONTINUOUS
 90
4
 70
0
 10
-0.1447600533
 20
13.3356607327
 10
-0.1000882664
 20
13.3104364563
 10
-0.0563740305
 20
13.2800668692
 10
-0.0140701621
 20
13.2450488315
  0
LINE
  5
4AA
100
AcDbEntity
  8
IMPORT_IGES
100
AcDbLine
 62
253
  6
CONTINUOUS
 10
-7.4369418059
 20
18.0793577106
 11
-7.4533426666
 21
18.0886815629
  0
LWPOLYLINE
  5
4AB
100
AcDbEntity
  8
IMPORT_IGES
100
AcDbPolyline
 62
7
  6
CONTINUOUS
 90
16
 70
0
 10
-0.6750901392
 20
13.0704956897
 10
-0.6297502719
 20
13.0446479037
 10
-0.5859093366
 20
13.0141938647
 10
-0.5435673332
 20
12.9791335725
 10
-0.5023175665
 20
12.9389892978
 10
-0.4625667318
 20
12.8942387701
 10
-0.4255349145
 20
12.8463151774
 10
-0.3913013909
 20
12.7951312713
 10
-0.3597868848
 20
12.7407743004
 10
-0.3319736532
 20
12.6849391976
 10
-0.3079653917
 20
12.6275809138
 10
-0.2876584047
 20
12.5687444983
 10
-0.2717238621
 20
12.5102600323
 10
-0.2603854872
 20
12.452737543
 10
-0.2534195567
 20
12.3955670032
 10
-0.2508260705
 20
12.3387484131
  0
LWPOLYLINE
  5
4AC
100
AcDbEntity
  8
IMPORT_IGES
100
AcDbPolyline
 62
7
  6
CONTINUOUS
 90
13
 70
0
 10
-0.0105959746
 20
13.3441812688
 10
0.0436390567
 20
13.3131394306
 10
0.0945599763
 20
13.2762616238
 10
0.142049679
 20
13.234062528
 10
0.186403166
 20
13.1864598896
 10
0.2270615348
 20
13.1340329159
 10
0.2628373381
 20
13.0785515688
 10
0.2935321539
 20
13.0208400486
 10
0.3193017694
 20
12.9608820623
 10
0.3397942961
 20
12.899505251
 10
0.3548159129
 20
12.8371400746
 10
0.3641485218
 20
12.7738523145
 10
0.3673719811
 20
12.7099794732
  0
LWPOLYLINE
  5
4AD
100
AcDbEntity
  8
IMPORT_IGES
100
AcDbPolyline
 62
253
  6
CONTINUOUS
 90
4
 70
0
 10
-7.5596313679
 20
18.1613255331
 10
-7.5493333408
 20
18.145953527
 10
-7.5429886764
 20
18.1298259942
 10
-7.5408122151
 20
18.1137208632
  0
LWPOLYLINE
  5
4AE
100
AcDbEntity
  8
IMPORT_IGES
100
AcDbPolyline
 62
7
  6
CONTINUOUS
 90
10
 70
0
 10
-2.1036157005
 20
3.8760348934
 10
-2.0970349358
 20
3.8522147705
 10
-2.0902747302
 20
3.828952675
 10
-2.0833322434
 20
3.8062676758
 10
-2.076212842
 20
3.7841889325
 10
-2.0689069177
 20
3.7627253697
 10
-2.0613881641
 20
3.7418674511
 10
-2.0536453383
 20
3.7216268316
 10
-2.0456840103
 20
3.7020345506
 10
-2.0375021713
 20
3.6831119551
  0
LWPOLYLINE
  5
4AF
100
AcDbEntity
  8
IMPORT_IGES
100
AcDbPolyline
 62
253
  6
CONTINUOUS
 90
7
 70
0
 10
-4.121044671
 20
18.0502554229
 10
-4.1175876561
 20
18.0267535065
 10
-4.1168151318
 20
18.0027950855
 10
-4.1186642169
 20
17.9783540638
 10
-4.1231486839
 20
17.9536738542
 10
-4.1302016116
 20
17.9292999822
 10
-4.139717074
 20
17.9056300209
  0
LWPOLYLINE
  5
4B0
100
AcDbEntity
  8
IMPORT_IGES
100
AcDbPolyline
 62
253
  6
CONTINUOUS
 90
8
 70
0
 10
-1.9578074858
 20
13.6419623807
 10
-1.957157501
 20
13.6336104768
 10
-1.9589554362
 20
13.6113525766
 10
-1.9659112254
 20
13.5887348503
 10
-1.9780123682
 20
13.566254002
 10
-1.9951186738
 20
13.5443489684
 10
-2.0170368283
 20
13.5233950326
 10
-2.0434615039
 20
13.5037974672
  0
LWPOLYLINE
  5
4B1
100
AcDbEntity
  8
IMPORT_IGES
100
AcDbPolyline
 62
253
  6
CONTINUOUS
 90
16
 70
0
 10
-0.6043794611
 20
11.295946314
 10
-0.6067378274
 20
11.3518371732
 10
-0.613688263
 20
11.4088513033
 10
-0.6250099429
 20
11.466323703
 10
-0.6403331386
 20
11.5232615394
 10
-0.659422601
 20
11.5794246354
 10
-0.6824259968
 20
11.6353029463
 10
-0.7093565197
 20
11.6906098099
 10
-0.7398904493
 20
11.7444018052
 10
-0.7738299019
 20
11.7961291406
 10
-0.8109324542
 20
11.8452080473
 10
-0.8508178958
 20
11.8909356723
 10
-0.8930065087
 20
11.9326051412
 10
-0.937021116
 20
11.9696210613
 10
-0.9824063654
 20
12.0014800338
 10
-1.0286450724
 20
12.0276943619
  0
LINE
  5
4B2
100
AcDbEntity
  8
IMPORT_IGES
100
AcDbLine
 62
253
  6
CONTINUOUS
 10
-0.7650891831
 20
10.0574393781
 11
-0.7678235124
 21
10.2504705952
  0
LINE
  5
4B3
100
AcDbEntity
  8
IMPORT_IGES
100
AcDbLine
 62
7
  6
CONTINUOUS
 10
-0.6772388221
 20
10.1645625757
 11
-0.6799511692
 21
10.3562321771
  0
LINE
  5
4B4
100
AcDbEntity
  8
IMPORT_IGES
100
AcDbLine
 62
7
  6
CONTINUOUS
 10
-1.3468415813
 20
12.8191667359
 11
-1.3468415813
 21
12.8867561687
  0
LINE
  5
4B5
100
AcDbEntity
  8
IMPORT_IGES
100
AcDbLine
 62
7
  6
CONTINUOUS
 10
-0.2508260705
 20
12.3387484131
 11
-0.2508260705
 21
12.2711589804
  0
LINE
  5
4B6
100
AcDbEntity
  8
IMPORT_IGES
100
AcDbLine
 62
253
  6
CONTINUOUS
 10
0.2795040154
 20
10.525452487
 11
0.2795040154
 21
12.6039134561
  0
LINE
  5
4B7
100
AcDbEntity
  8
IMPORT_IGES
100
AcDbLine
 62
7
  6
CONTINUOUS
 10
0.3673719811
 20
12.7099794732
 11
0.3673719811
 21
10.6315185041
  0
LINE
  5
4B8
100
AcDbEntity
  8
IMPORT_IGES
100
AcDbLine
 62
7
  6
CONTINUOUS
 10
-0.6772390002
 20
10.1624217601
 11
-0.677238794
 21
10.1645605805
  0
LINE
  5
4B9
100
AcDbEntity
  8
IMPORT_IGES
100
AcDbLine
 62
253
  6
CONTINUOUS
 10
0.3673719718
 20
10.6314813239
 11
0.3673719811
 21
10.6315185041
  0
LINE
  5
4BA
100
AcDbEntity
  8
IMPORT_IGES
100
AcDbLine
 62
253
  6
CONTINUOUS
 10
-0.7650896609
 20
10.0574391392
 11
-0.8447845881
 21
4.5054452821
  0
LINE
  5
4BB
100
AcDbEntity
  8
IMPORT_IGES
100
AcDbLine
 62
7
  6
CONTINUOUS
 10
-0.6772390864
 20
10.1624157567
 11
-0.7568989079
 21
4.6128675532
  0
LINE
  5
4BC
100
AcDbEntity
  8
IMPORT_IGES
100
AcDbLine
 62
253
  6
CONTINUOUS
 10
0.367337144
 20
10.6292326227
 11
0.3673719718
 21
10.6314813239
  0
LWPOLYLINE
  5
4BD
100
AcDbEntity
  8
IMPORT_IGES
100
AcDbPolyline
 62
7
  6
CONTINUOUS
 90
22
 70
0
 10
-0.2508260705
 20
12.2711589804
 10
-0.2513382763
 20
12.2400926532
 10
-0.2532626468
 20
12.2075281749
 10
-0.2565991818
 20
12.1734655454
 10
-0.2612789585
 20
12.1379250044
 10
-0.2673708998
 20
12.1008863123
 10
-0.2750817745
 20
12.0622887501
 10
-0.2844211485
 20
12.0221093507
 10
-0.2953794558
 20
11.9803710812
 10
-0.308134768
 20
11.9370821241
 10
-0.3227115839
 20
11.8922404448
 10
-0.3390854045
 20
11.8458480779
 10
-0.3573608049
 20
11.7979193095
 10
-0.377588305
 20
11.7484579258
 10
-0.3997173848
 20
11.6974601406
 10
-0.4237010595
 20
11.6449288817
 10
-0.4496005628
 20
11.5909243074
 10
-0.477354661
 20
11.5353862594
 10
-0.5067326685
 20
11.4781371908
 10
-0.5376576901
 20
11.4191179192
 10
-0.5702066209
 20
11.3583876269
 10
-0.6043794611
 20
11.295946314
  0
LINE
  5
4BE
100
AcDbEntity
  8
IMPORT_IGES
100
AcDbLine
 62
7
  6
CONTINUOUS
 10
-0.7568989505
 20
4.6128645879
 11
-0.7569197794
 21
4.6118540552
  0
LINE
  5
4BF
100
AcDbEntity
  8
IMPORT_IGES
100
AcDbLine
 62
253
  6
CONTINUOUS
 10
-0.844785443
 20
4.5054225919
 11
-0.8450751069
 21
4.4955886256
  0
LINE
  5
4C0
100
AcDbEntity
  8
IMPORT_IGES
100
AcDbLine
 62
253
  6
CONTINUOUS
 10
-0.8450751069
 20
4.4955886256
 11
-0.8454139165
 21
4.4857856325
  0
LWPOLYLINE
  5
4C1
100
AcDbEntity
  8
IMPORT_IGES
100
AcDbPolyline
 62
253
  6
CONTINUOUS
 90
10
 70
0
 10
0.2795040154
 20
10.525452487
 10
0.2767643836
 20
10.4506620879
 10
0.2686891956
 20
10.3799749843
 10
0.2555206397
 20
10.3138069254
 10
0.2376510027
 20
10.2528553395
 10
0.2153164265
 20
10.1970156056
 10
0.1883209602
 20
10.1456536694
 10
0.1566086826
 20
10.0990011111
 10
0.1204582848
 20
10.0577609269
 10
0.0799587772
 20
10.022255853
  0
LINE
  5
4C2
100
AcDbEntity
  8
IMPORT_IGES
100
AcDbLine
 62
7
  6
CONTINUOUS
 10
0.3644678565
 20
10.5548013005
 11
0.3673719811
 21
10.6315185041
  0
LINE
  5
4C3
100
AcDbEntity
  8
IMPORT_IGES
100
AcDbLine
 62
253
  6
CONTINUOUS
 10
-0.8454139165
 20
4.4857856325
 11
-0.8458018455
 21
4.4760128355
  0
LWPOLYLINE
  5
4C4
100
AcDbEntity
  8
IMPORT_IGES
100
AcDbPolyline
 62
253
  6
CONTINUOUS
 90
16
 70
0
 10
-0.6750901392
 20
12.6374829878
 10
-0.6770554348
 20
12.5909073884
 10
-0.6828474364
 20
12.5433957323
 10
-0.6922821249
 20
12.4955021833
 10
-0.7050513961
 20
12.4480540963
 10
-0.7209592106
 20
12.4012516176
 10
-0.740128623
 20
12.3546864539
 10
-0.7625706281
 20
12.3085974882
 10
-0.7880154614
 20
12.2637708995
 10
-0.8162982211
 20
12.2206648443
 10
-0.847216837
 20
12.1797657714
 10
-0.8804545225
 20
12.1416594087
 10
-0.915611675
 20
12.106934882
 10
-0.9522907045
 20
12.0760883746
 10
-0.9901121015
 20
12.0495393643
 10
-1.0286448827
 20
12.0276942671
  0
LWPOLYLINE
  5
4C5
100
AcDbEntity
  8
IMPORT_IGES
100
AcDbPolyline
 62
253
  6
CONTINUOUS
 90
3
 70
0
 10
-0.8458018455
 20
4.4760128355
 10
-0.8462390448
 20
4.4662661706
 10
-0.8464761094
 20
4.4614030276
  0
LWPOLYLINE
  5
4C6
100
AcDbEntity
  8
IMPORT_IGES
100
AcDbPolyline
 62
253
  6
CONTINUOUS
 90
11
 70
0
 10
-0.8464761094
 20
4.4614030276
 10
-0.857693462
 20
4.3314739119
 10
-0.878407844
 20
4.2057153681
 10
-0.9089227606
 20
4.0853403354
 10
-0.9496848181
 20
3.9710670702
 10
-1.0007021658
 20
3.8648007941
 10
-1.0610812584
 20
3.7691300859
 10
-1.1302202134
 20
3.6850005294
 10
-1.2077216054
 20
3.6128886532
 10
-1.2922934995
 20
3.55381653
 10
-1.3396677236
 20
3.5278839109
  0
LWPOLYLINE
  5
4C7
100
AcDbEntity
  8
IMPORT_IGES
100
AcDbPolyline
 62
253
  6
CONTINUOUS
 90
7
 70
0
 10
0.3673719811
 20
12.7099794732
 10
0.3653725935
 20
12.6926904958
 10
0.3582093709
 20
12.673190845
 10
0.3458635584
 20
12.6542066274
 10
0.3284798613
 20
12.6361169745
 10
0.3062562315
 20
12.6192404038
 10
0.2795040154
 20
12.6039134561
  0
LINE
  5
4C8
100
AcDbEntity
  8
IMPORT_IGES
100
AcDbLine
 62
7
  6
CONTINUOUS
 10
0.3558880771
 20
10.4813520369
 11
0.3644678565
 21
10.5548013005
  0
LWPOLYLINE
  5
4C9
100
AcDbEntity
  8
IMPORT_IGES
100
AcDbPolyline
 62
7
  6
CONTINUOUS
 90
7
 70
0
 10
-0.7569197794
 20
4.6118540552
 10
-0.7594489161
 20
4.5937723763
 10
-0.7670616465
 20
4.5739869559
 10
-0.7796262819
 20
4.5549431308
 10
-0.7969663541
 20
4.5369608981
 10
-0.8188034358
 20
4.520359057
 10
-0.8447849305
 20
4.5054291845
  0
LWPOLYLINE
  5
4CA
100
AcDbEntity
  8
RACCORDO
100
AcDbPolyline
 62
253
  6
CONTINUOUS
 90
15
 70
0
 10
-26.0019158315
 20
-21.0159918661
 10
-25.9828981372
 20
-21.0057888349
 10
-25.9491344631
 20
-20.983940112
 10
-25.9175105785
 20
-20.9584001872
 10
-25.8881619737
 20
-20.9292783901
 10
-25.8612107317
 20
-20.8966945729
 10
-25.8367699342
 20
-20.8607813421
 10
-25.814949472
 20
-20.8216956383
 10
-25.7958492491
 20
-20.7796165471
 10
-25.7795527344
 20
-20.7347347523
 10
-25.7661243588
 20
-20.6872356613
 10
-25.7556176086
 20
-20.6373087696
 10
-25.748078092
 20
-20.5851616502
 10
-25.7435405041
 20
-20.5310215132
 10
-25.7420255323
 20
-20.475119509
  0
LINE
  5
4CB
100
AcDbEntity
  8
RACCORDO
100
AcDbLine
 62
253
  6
CONTINUOUS
 10
-25.6058229633
 20
-20.9083015794
 11
-25.6058709072
 21
-20.9083262123
  0
LINE
  5
4CC
100
AcDbEntity
  8
DRAFT
100
AcDbLine
 62
7
  6
CONTINUOUS
 10
-12.1298556057
 20
-14.2329676337
 11
-14.9586471192
 21
-15.6500957476
  0
LINE
  5
4CD
100
AcDbEntity
  8
RACCORDO
100
AcDbLine
 62
253
  6
CONTINUOUS
 10
-25.7420255323
 20
-20.475119509
 11
-25.4042850684
 21
-20.306249277
  0
LINE
  5
4CE
100
AcDbEntity
  8
RACCORDO
100
AcDbLine
 62
7
  6
CONTINUOUS
 10
-26.0019187179
 20
-21.0159933094
 11
-25.4637250623
 21
-20.7468964816
  0
LWPOLYLINE
  5
4CF
100
AcDbEntity
  8
RACCORDO
100
AcDbPolyline
 62
253
  6
CONTINUOUS
 90
11
 70
0
 10
-25.6058709072
 20
-20.9083262123
 10
-25.6226356554
 20
-20.9164240698
 10
-25.6492995071
 20
-20.9273086508
 10
-25.6765637285
 20
-20.9361238317
 10
-25.7043471395
 20
-20.9429128452
 10
-25.7325651969
 20
-20.9477218077
 10
-25.7609128865
 20
-20.9505866174
 10
-25.7892975157
 20
-20.9516051499
 10
-25.8176374868
 20
-20.9508775941
 10
-25.8456257494
 20
-20.9485307139
 10
-25.8623487301
 20
-20.9462083154
  0
LWPOLYLINE
  5
4D0
100
AcDbEntity
  8
RACCORDO
100
AcDbPolyline
 62
7
  6
CONTINUOUS
 90
13
 70
0
 10
-26.0019187179
 20
-21.0159933094
 10
-26.0586262243
 20
-21.0416807028
 10
-26.1176838495
 20
-21.0631318952
 10
-26.1787427622
 20
-21.0800946532
 10
-26.2413388361
 20
-21.092345581
 10
-26.3051444211
 20
-21.0997475578
 10
-26.3700070797
 20
-21.1021897602
 10
-26.4354688953
 20
-21.0995551339
 10
-26.5011353091
 20
-21.0917800207
 10
-26.5670040451
 20
-21.0787508276
 10
-26.6328194723
 20
-21.0603502801
 10
-26.6980208911
 20
-21.0365794437
 10
-26.7621818179
 20
-21.0074727794
  0
LWPOLYLINE
  5
4D1
100
AcDbEntity
  8
0
100
AcDbPolyline
 62
7
  6
CONTINUOUS
 90
7
 70
0
 10
-25.9040799863
 20
-19.4962831536
 10
-25.8749157691
 20
-19.4879548191
 10
-25.8466136086
 20
-19.4789315431
 10
-25.8191735046
 20
-19.4692133257
 10
-25.7925954572
 20
-19.4588001667
 10
-25.7668794664
 20
-19.4476920663
 10
-25.7420255323
 20
-19.4358890244
  0
LINE
  5
4D2
100
AcDbEntity
  8
0
100
AcDbLine
 62
7
  6
CONTINUOUS
 10
-19.816134915
 20
22.6801451224
 11
-15.1707791535
 21
23.154232797
  0
LINE
  5
4D3
100
AcDbEntity
  8
RACCORDO
100
AcDbLine
 62
7
  6
CONTINUOUS
 10
-18.6014666597
 20
23.442686737
 11
-20.5517123444
 21
23.24365194
  0
LINE
  5
4D4
100
AcDbEntity
  8
RACCORDO
100
AcDbLine
 62
7
  6
CONTINUOUS
 10
-16.6028881153
 20
23.965942758
 11
-16.6272697088
 21
23.9634544635
  0
LINE
  5
4D5
100
AcDbEntity
  8
RACCORDO
100
AcDbLine
 62
7
  6
CONTINUOUS
 10
-22.4146757915
 20
24.0941572746
 11
-21.0223222425
 21
24.2362556821
  0
LINE
  5
4D6
100
AcDbEntity
  8
RACCORDO
100
AcDbLine
 62
7
  6
CONTINUOUS
 10
-22.8851647223
 20
24.4103781289
 11
-20.9349190376
 21
24.609412926
  0
LWPOLYLINE
  5
4D7
100
AcDbEntity
  8
RACCORDO
100
AcDbPolyline
 62
7
  6
CONTINUOUS
 90
25
 70
0
 10
-20.5517123444
 20
23.24365194
 10
-20.5608844491
 20
23.2429046338
 10
-20.5705367697
 20
23.2424648909
 10
-20.5806693063
 20
23.2423327111
 10
-20.5913294252
 20
23.2425101568
 10
-20.60246976
 20
23.2429951656
 10
-20.6139482119
 20
23.2437815513
 10
-20.6257691121
 20
23.2448731742
 10
-20.6379281294
 20
23.2462661739
 10
-20.6502701714
 20
23.2479427822
 10
-20.6627975824
 20
23.249906632
 10
-20.675508018
 20
23.2521540904
 10
-20.6882393522
 20
23.2546564902
 10
-20.7009918527
 20
23.2574170972
 10
-20.7137652517
 20
23.2604326456
 10
-20.7263966202
 20
23.2636646711
 10
-20.7388841386
 20
23.2671159468
 10
-20.7512296265
 20
23.2707836995
 10
-20.7632756128
 20
23.2746211458
 10
-20.7750182609
 20
23.2786304595
 10
-20.7864614074
 20
23.2828094668
 10
-20.797459091
 20
23.287104863
 10
-20.8079626579
 20
23.2914988798
 10
-20.8180207619
 20
23.2960092856
 10
-20.827633403
 20
23.3006360803
  0
LWPOLYLINE
  5
4D8
100
AcDbEntity
  8
RACCORDO
100
AcDbPolyline
 62
7
  6
CONTINUOUS
 90
25
 70
0
 10
-20.9349190376
 20
24.609412926
 10
-20.9257469329
 20
24.6101602322
 10
-20.9160946122
 20
24.6105999751
 10
-20.9059620756
 20
24.6107321548
 10
-20.8953019568
 20
24.6105547092
 10
-20.884161622
 20
24.6100697003
 10
-20.8726831701
 20
24.6092833147
 10
-20.8608622699
 20
24.6081916917
 10
-20.8487032525
 20
24.606798692
 10
-20.8363612106
 20
24.6051220838
 10
-20.8238337996
 20
24.603158234
 10
-20.8111233639
 20
24.6009107756
 10
-20.7983920297
 20
24.5984083758
 10
-20.7856395293
 20
24.5956477688
 10
-20.7728661302
 20
24.5926322203
 10
-20.7602347618
 20
24.5894001948
 10
-20.7477472433
 20
24.5859489192
 10
-20.7354017555
 20
24.5822811665
 10
-20.7233557692
 20
24.5784437202
 10
-20.7116131211
 20
24.5744344065
 10
-20.7001699746
 20
24.5702553992
 10
-20.689172291
 20
24.565960003
 10
-20.678668724
 20
24.5615659861
 10
-20.66861062
 20
24.5570555803
 10
-20.658997979
 20
24.5524287856
  0
LINE
  5
4D9
100
AcDbEntity
  8
DRAFT
100
AcDbLine
 62
7
  6
CONTINUOUS
 10
-14.9586471192
 20
23.4939879259
 11
-13.4563167529
 21
23.5754582835
  0
LINE
  5
4DA
100
AcDbEntity
  8
ASSI
100
AcDbLine
 62
7
  6
CONTINUOUS
 10
-16.5315603545
 20
24.2804445436
 11
-15.2414362167
 21
24.3442211597
  0
LWPOLYLINE
  5
4DB
100
AcDbEntity
  8
IMPORT_IGES
100
AcDbPolyline
 62
7
  6
CONTINUOUS
 90
10
 70
0
 10
-6.9654191985
 20
19.3282998659
 10
-7.0492185527
 20
19.3582067819
 10
-7.1368973578
 20
19.3786152773
 10
-7.2280069499
 20
19.389422457
 10
-7.3220810591
 20
19.3905756223
 10
-7.4186370632
 20
19.3820699668
 10
-7.5171788199
 20
19.3639471435
 10
-7.6172004525
 20
19.3362991485
 10
-7.7181886032
 20
19.2992692939
 10
-7.8196241686
 20
19.2530478993
  0
LINE
  5
4DC
100
AcDbEntity
  8
IMPORT_IGES
100
AcDbLine
 62
253
  6
CONTINUOUS
 10
-5.3651760928
 20
17.9561800655
 11
-5.2118161881
 21
17.8912412266
  0
LINE
  5
4DD
100
AcDbEntity
  8
IMPORT_IGES
100
AcDbLine
 62
253
  6
CONTINUOUS
 10
-5.2538683413
 20
18.0782829289
 11
-5.4075414863
 21
18.1433685596
  0
LINE
  5
4DE
100
AcDbEntity
  8
IMPORT_IGES
100
AcDbLine
 62
253
  6
CONTINUOUS
 10
-6.9091175265
 20
19.0787916903
 11
-4.1397032392
 21
17.9056600036
  0
LINE
  5
4DF
100
AcDbEntity
  8
IMPORT_IGES
100
AcDbLine
 62
253
  6
CONTINUOUS
 10
-4.1960055897
 20
18.1551684653
 11
-6.9654191803
 21
19.3282998568
  0
LWPOLYLINE
  5
4E0
100
AcDbEntity
  8
IMPORT_IGES
100
AcDbPolyline
 62
253
  6
CONTINUOUS
 90
3
 70
0
 10
-5.2118169014
 20
17.8912415282
 10
-5.2030430067
 20
17.8872608821
 10
-5.2008383709
 20
17.8861760674
  0
LINE
  5
4E1
100
AcDbEntity
  8
IMPORT_IGES
100
AcDbLine
 62
253
  6
CONTINUOUS
 10
-7.7763266543
 20
18.9576152032
 11
-7.7713818751
 21
18.9553705426
  0
LINE
  5
4E2
100
AcDbEntity
  8
IMPORT_IGES
100
AcDbLine
 62
7
  6
CONTINUOUS
 10
-2.4916249991
 20
16.5315680606
 11
-2.5019190498
 21
16.5362925003
  0
LINE
  5
4E3
100
AcDbEntity
  8
IMPORT_IGES
100
AcDbLine
 62
7
  6
CONTINUOUS
 10
-4.1960054213
 20
18.155168381
 11
-4.1750154807
 21
18.1455200197
  0
LINE
  5
4E4
100
AcDbEntity
  8
IMPORT_IGES
100
AcDbLine
 62
253
  6
CONTINUOUS
 10
-4.7567279413
 20
17.5190402661
 11
-4.7639685298
 21
17.5223762253
  0
LINE
  5
4E5
100
AcDbEntity
  8
IMPORT_IGES
100
AcDbLine
 62
253
  6
CONTINUOUS
 10
-3.3123415839
 20
16.9081927246
 11
-3.3195452553
 21
16.9115130777
  0
LWPOLYLINE
  5
4E6
100
AcDbEntity
  8
0
100
AcDbPolyline
 62
7
  6
CONTINUOUS
 90
5
 70
0
 10
-20.3898547536
 20
26.7167426089
 10
-20.409590483
 20
26.725841102
 10
-20.4414440445
 20
26.7374408646
 10
-20.4747256673
 20
26.7459519769
 10
-20.5094353515
 20
26.7513744391
  0
LINE
  5
4E7
100
AcDbEntity
  8
IMPORT_IGES
100
AcDbLine
 62
253
  6
CONTINUOUS
 10
-4.8407745499
 20
17.448813943
 11
-4.1474039699
 21
17.1253212617
  0
LINE
  5
4E8
100
AcDbEntity
  8
IMPORT_IGES
100
AcDbLine
 62
253
  6
CONTINUOUS
 10
-4.1255054852
 20
17.2245280955
 11
-4.7567279528
 21
17.5190402718
  0
LWPOLYLINE
  5
4E9
100
AcDbEntity
  8
IMPORT_IGES
100
AcDbPolyline
 62
253
  6
CONTINUOUS
 90
7
 70
0
 10
-6.3219855917
 20
18.2306724617
 10
-6.3237638773
 20
18.2315312521
 10
-6.3391295485
 20
18.2367858933
 10
-6.3558696602
 20
18.2388268592
 10
-6.3736856851
 20
18.2375553303
 10
-6.3923007825
 20
18.2329317268
 10
-6.4113891587
 20
18.2249725425
  0
LWPOLYLINE
  5
4EA
100
AcDbEntity
  8
ASSI
100
AcDbPolyline
 62
7
  6
CONTINUOUS
 90
6
 70
0
 10
-14.5428283312
 20
24.2270200562
 10
-14.5701849879
 20
24.2402380464
 10
-14.6370269878
 20
24.2688145459
 10
-14.7024958366
 20
24.2915575968
 10
-14.7663727993
 20
24.3085537585
 10
-14.8284009221
 20
24.3198934187
  0
LINE
  5
4EB
100
AcDbEntity
  8
IMPORT_IGES
100
AcDbLine
 62
253
  6
CONTINUOUS
 10
-5.3351336658
 20
17.941366927
 11
-5.3651760928
 21
17.9561800655
  0
LINE
  5
4EC
100
AcDbEntity
  8
IMPORT_IGES
100
AcDbLine
 62
253
  6
CONTINUOUS
 10
-5.1045536216
 20
17.4612426535
 11
-5.5474160064
 21
17.682673756
  0
LINE
  5
4ED
100
AcDbEntity
  8
IMPORT_IGES
100
AcDbLine
 62
253
  6
CONTINUOUS
 10
-7.8607346003
 20
18.9496454297
 11
-6.4113864416
 21
18.2249739441
  0
LINE
  5
4EE
100
AcDbEntity
  8
IMPORT_IGES
100
AcDbLine
 62
7
  6
CONTINUOUS
 10
-7.7713818751
 20
18.9553705426
 11
-6.3219464396
 21
18.2306528999
  0
LINE
  5
4EF
100
AcDbEntity
  8
IMPORT_IGES
100
AcDbLine
 62
253
  6
CONTINUOUS
 10
-5.3351336658
 20
17.941366927
 11
-3.3123423357
 21
16.9299970234
  0
LINE
  5
4F0
100
AcDbEntity
  8
IMPORT_IGES
100
AcDbLine
 62
253
  6
CONTINUOUS
 10
-5.2118161881
 20
17.8912412266
 11
-5.2008341569
 21
17.8861739604
  0
LINE
  5
4F1
100
AcDbEntity
  8
IMPORT_IGES
100
AcDbLine
 62
7
  6
CONTINUOUS
 10
-2.4910251955
 20
16.5312694797
 11
-5.2008341569
 21
17.8861739604
  0
LINE
  5
4F2
100
AcDbEntity
  8
DRAFT
100
AcDbLine
 62
7
  6
CONTINUOUS
 10
-26.7296883179
 20
28.6592787943
 11
-24.1118461399
 21
27.3503577053
  0
LINE
  5
4F3
100
AcDbEntity
  8
DRAFT
100
AcDbLine
 62
7
  6
CONTINUOUS
 10
-15.2283146718
 20
22.9085919713
 11
-13.2453058522
 21
21.9170875615
  0
LINE
  5
4F4
100
AcDbEntity
  8
IMPORT_IGES
100
AcDbLine
 62
253
  6
CONTINUOUS
 10
-7.819608554
 20
19.2530565966
 11
-9.0513676263
 21
19.8689361327
  0
LINE
  5
4F5
100
AcDbEntity
  8
RACCORDO
100
AcDbLine
 62
7
  6
CONTINUOUS
 10
-23.6560605278
 20
27.3968734841
 11
-22.2064916263
 21
26.6720890334
  0
LINE
  5
4F6
100
AcDbEntity
  8
RACCORDO
100
AcDbLine
 62
7
  6
CONTINUOUS
 10
-15.1707791535
 20
23.154232797
 11
-16.6203480549
 21
23.8790172477
  0
LINE
  5
4F7
100
AcDbEntity
  8
IMPORT_IGES
100
AcDbLine
 62
253
  6
CONTINUOUS
 10
-6.9654191803
 20
19.3282998568
 11
-8.7082471363
 21
20.1997138347
  0
LINE
  5
4F8
100
AcDbEntity
  8
DRAFT
100
AcDbLine
 62
7
  6
CONTINUOUS
 10
-23.797481884
 20
27.8426946302
 11
-22.2239515659
 21
27.0559294712
  0
LINE
  5
4F9
100
AcDbEntity
  8
DRAFT
100
AcDbLine
 62
7
  6
CONTINUOUS
 10
-16.6028881153
 20
24.2453977459
 11
-15.0293577973
 21
23.4586325869
  0
LINE
  5
4FA
100
AcDbEntity
  8
DRAFT
100
AcDbLine
 62
7
  6
CONTINUOUS
 10
-23.7267712059
 20
27.8780499693
 11
-22.1538579706
 21
27.0915933516
  0
LINE
  5
4FB
100
AcDbEntity
  8
DRAFT
100
AcDbLine
 62
7
  6
CONTINUOUS
 10
-16.5315603545
 20
24.2804445436
 11
-14.9586471192
 21
23.4939879259
  0
LINE
  5
4FC
100
AcDbEntity
  8
IMPORT_IGES
100
AcDbLine
 62
253
  6
CONTINUOUS
 10
-8.7057694415
 20
20.4100501108
 11
-4.1960055897
 21
18.1551684653
  0
LINE
  5
4FD
100
AcDbEntity
  8
IMPORT_IGES
100
AcDbLine
 62
7
  6
CONTINUOUS
 10
-8.7057694415
 20
20.4108983085
 11
-4.1741501883
 21
18.1450886819
  0
LINE
  5
4FE
100
AcDbEntity
  8
0
100
AcDbLine
 62
253
  6
CONTINUOUS
 10
-15.7327934361
 20
24.319931171
 11
-20.5956208529
 21
26.7513448794
  0
LINE
  5
4FF
100
AcDbEntity
  8
0
100
AcDbLine
 62
7
  6
CONTINUOUS
 10
-20.389785828
 20
26.7167255526
 11
-15.6084871027
 21
24.3260761899
  0
LINE
  5
500
100
AcDbEntity
  8
ASSI
100
AcDbLine
 62
253
  6
CONTINUOUS
 10
-22.1190818334
 20
27.9652338743
 11
-20.6416386579
 21
27.2265122866
  0
LINE
  5
501
100
AcDbEntity
  8
ASSI
100
AcDbLine
 62
253
  6
CONTINUOUS
 10
-14.8284009221
 20
24.3198934187
 11
-13.3971650241
 21
23.6042754697
  0
LINE
  5
502
100
AcDbEntity
  8
RACCORDO
100
AcDbLine
 62
7
  6
CONTINUOUS
 10
-21.9547867671
 20
27.932999577
 11
-20.6020523238
 21
27.2566323553
  0
LINE
  5
503
100
AcDbEntity
  8
RACCORDO
100
AcDbLine
 62
7
  6
CONTINUOUS
 10
-14.5394052424
 20
24.2253088146
 11
-13.3466032851
 21
23.628907836
  0
LINE
  5
504
100
AcDbEntity
  8
IMPORT_IGES
100
AcDbLine
 62
7
  6
CONTINUOUS
 10
-6.321812506
 20
18.2305857658
 11
-6.3219855917
 21
18.2306724617
  0
LINE
  5
505
100
AcDbEntity
  8
IMPORT_IGES
100
AcDbLine
 62
7
  6
CONTINUOUS
 10
-5.2008383709
 20
17.8861760674
 11
-5.200532705
 21
17.8860228954
  0
LWPOLYLINE
  5
506
100
AcDbEntity
  8
IMPORT_IGES
100
AcDbPolyline
 62
253
  6
CONTINUOUS
 90
5
 70
0
 10
-3.3123423357
 20
16.9299970234
 10
-3.283686197
 20
16.9154656599
 10
-3.2590264821
 20
16.9027438211
 10
-3.2383631911
 20
16.891831507
 10
-3.2216888889
 20
16.882721359
  0
LWPOLYLINE
  5
507
100
AcDbEntity
  8
IMPORT_IGES
100
AcDbPolyline
 62
7
  6
CONTINUOUS
 90
4
 70
0
 10
-7.7713079652
 20
18.9553327666
 10
-7.773672866
 20
18.9565364728
 10
-7.7842408328
 20
18.9625262
 10
-7.7899126439
 20
18.9663353868
  0
LWPOLYLINE
  5
508
100
AcDbEntity
  8
RACCORDO
100
AcDbPolyline
 62
7
  6
CONTINUOUS
 90
15
 70
0
 10
-16.6203480549
 20
23.8790172477
 10
-16.6293643204
 20
23.8837049063
 10
-16.6376995084
 20
23.8883911464
 10
-16.6453536188
 20
23.8930759682
 10
-16.6523535179
 20
23.8977793634
 10
-16.6586723395
 20
23.9024813401
 10
-16.6642294847
 20
23.9071219232
 10
-16.6690151967
 20
23.911700326
 10
-16.6730392324
 20
23.916217335
 10
-16.6762502638
 20
23.9206153343
 10
-16.6786378764
 20
23.9248927993
 10
-16.6802124848
 20
23.9290512546
 10
-16.6809540042
 20
23.9330376575
 10
-16.6808517629
 20
23.9368498041
 10
-16.6805715984
 20
23.9383519128
  0
LINE
  5
509
100
AcDbEntity
  8
IMPORT_IGES
100
AcDbLine
 62
7
  6
CONTINUOUS
 10
-4.1750228974
 20
18.1455223742
 11
-4.1552444008
 21
18.135128095
  0
LWPOLYLINE
  5
50A
100
AcDbEntity
  8
IMPORT_IGES
100
AcDbPolyline
 62
253
  6
CONTINUOUS
 90
10
 70
0
 10
-4.1397032392
 20
17.9056600036
 10
-4.0952302794
 20
17.8821465827
 10
-4.0552838205
 20
17.852290764
 10
-4.0198638625
 20
17.8160925476
 10
-3.9887072446
 20
17.7730606687
 10
-3.9620771276
 20
17.723686392
 10
-3.9407629937
 20
17.6694435116
 10
-3.9250280037
 20
17.6108232922
 10
-3.9146089969
 20
17.547334469
 10
-3.9095059733
 20
17.4789770421
  0
LINE
  5
50B
100
AcDbEntity
  8
IMPORT_IGES
100
AcDbLine
 62
7
  6
CONTINUOUS
 10
-2.4916277406
 20
16.5315685414
 11
-2.4733147557
 21
16.5218149691
  0
LINE
  5
50C
100
AcDbEntity
  8
IMPORT_IGES
100
AcDbLine
 62
253
  6
CONTINUOUS
 10
-6.3990871771
 20
18.21839576
 11
-6.4113786058
 21
18.2249779618
  0
LINE
  5
50D
100
AcDbEntity
  8
IMPORT_IGES
100
AcDbLine
 62
7
  6
CONTINUOUS
 10
-6.3023812628
 20
18.2198833446
 11
-6.3220252537
 21
18.230679309
  0
LINE
  5
50E
100
AcDbEntity
  8
IMPORT_IGES
100
AcDbLine
 62
7
  6
CONTINUOUS
 10
-7.5389282834
 20
18.1877023659
 11
-7.5692929893
 21
18.204964522
  0
LWPOLYLINE
  5
50F
100
AcDbEntity
  8
IMPORT_IGES
100
AcDbPolyline
 62
253
  6
CONTINUOUS
 90
9
 70
0
 10
-3.2216888889
 20
16.882721359
 10
-3.2090110106
 20
16.8754207357
 10
-3.2003518612
 20
16.8699517131
 10
-3.1957347195
 20
16.866317913
 10
-3.1951363067
 20
16.8645157136
 10
-3.1985090909
 20
16.8645563253
 10
-3.2054559035
 20
16.8662704741
 10
-3.216373913
 20
16.869827434
 10
-3.2324070937
 20
16.8757462381
  0
LWPOLYLINE
  5
510
100
AcDbEntity
  8
IMPORT_IGES
100
AcDbPolyline
 62
253
  6
CONTINUOUS
 90
19
 70
0
 10
-5.54741019
 20
17.6826713453
 10
-5.5606581309
 20
17.6903388984
 10
-5.5751834373
 20
17.699656475
 10
-5.5909015168
 20
17.7105738871
 10
-5.6081051543
 20
17.7235814791
 10
-5.6263072567
 20
17.7380601661
 10
-5.6441024191
 20
17.7524478288
 10
-5.6603870698
 20
17.7661672577
 10
-5.6758522068
 20
17.7800777694
 10
-5.6917612835
 20
17.7947790281
 10
-5.7084845473
 20
17.810444396
 10
-5.7254369826
 20
17.8267922595
 10
-5.7424652653
 20
17.843599934
 10
-5.7594702723
 20
17.8609146971
 10
-5.7762517512
 20
17.8786311751
 10
-5.7925065027
 20
17.8963231511
 10
-5.8080407664
 20
17.9138595328
 10
-5.8227521942
 20
17.9313852725
 10
-5.836490651
 20
17.9489140658
  0
LWPOLYLINE
  5
511
100
AcDbEntity
  8
IMPORT_IGES
100
AcDbPolyline
 62
253
  6
CONTINUOUS
 90
13
 70
0
 10
-7.8607526961
 20
19.2324845068
 10
-7.8426276512
 20
19.2219935729
 10
-7.8248644644
 20
19.2088705369
 10
-7.8077492827
 20
19.1933577842
 10
-7.7916320227
 20
19.1758266627
 10
-7.7766715447
 20
19.1565067215
 10
-7.7628945097
 20
19.1353929777
 10
-7.7505072236
 20
19.1126423397
 10
-7.739865007
 20
19.0887227921
 10
-7.73123982
 20
19.0640903822
 10
-7.7248422359
 20
19.039191067
 10
-7.7208345344
 20
19.014447382
 10
-7.7193500517
 20
18.9903199528
  0
LWPOLYLINE
  5
512
100
AcDbEntity
  8
IMPORT_IGES
100
AcDbPolyline
 62
253
  6
CONTINUOUS
 90
4
 70
0
 10
-7.6140307851
 20
18.2021304617
 10
-7.5919442833
 20
18.1892843456
 10
-7.5738111442
 20
18.1756827028
 10
-7.5596313679
 20
18.1613255331
  0
LWPOLYLINE
  5
513
100
AcDbEntity
  8
IMPORT_IGES
100
AcDbPolyline
 62
253
  6
CONTINUOUS
 90
13
 70
0
 10
-5.3651760354
 20
17.9561801998
 10
-5.3782152134
 20
17.9640679074
 10
-5.3899379498
 20
17.9740364761
 10
-5.4001669987
 20
17.9858977714
 10
-5.4087135577
 20
17.9993623513
 10
-5.4155161933
 20
18.0142511386
 10
-5.4205495524
 20
18.0305710102
 10
-5.4236794222
 20
18.0482125027
 10
-5.4247446497
 20
18.0668032967
 10
-5.4236651243
 20
18.0859593575
 10
-5.4204220197
 20
18.105323189
 10
-5.4150294405
 20
18.1245776883
 10
-5.4075421261
 20
18.1433689131
  0
LWPOLYLINE
  5
514
100
AcDbEntity
  8
IMPORT_IGES
100
AcDbPolyline
 62
253
  6
CONTINUOUS
 90
13
 70
0
 10
-4.1258057419
 20
17.2246779849
 10
-4.1001281459
 20
17.2091083449
 10
-4.0768257925
 20
17.1892904972
 10
-4.0563193735
 20
17.165489452
 10
-4.0389785439
 20
17.1380178644
 10
-4.0251629798
 20
17.1073063952
 10
-4.0151812186
 20
17.0739246652
 10
-4.0092275541
 20
17.0384233363
 10
-4.0074293773
 20
17.001395167
 10
-4.0098319498
 20
16.9635673989
 10
-4.0163796489
 20
16.9256202023
 10
-4.0269545346
 20
16.8881654948
 10
-4.0413703152
 20
16.8518385579
  0
LWPOLYLINE
  5
515
100
AcDbEntity
  8
IMPORT_IGES
100
AcDbPolyline
 62
253
  6
CONTINUOUS
 90
4
 70
0
 10
-5.211816098
 20
17.8912414156
 10
-5.2247018091
 20
17.8990882597
 10
-5.2363231437
 20
17.9089979268
 10
-5.2464967553
 20
17.9208020933
  0
LWPOLYLINE
  5
516
100
AcDbEntity
  8
IMPORT_IGES
100
AcDbPolyline
 62
253
  6
CONTINUOUS
 90
4
 70
0
 10
-4.196028812
 20
18.1551800838
 10
-4.1782395
 20
18.1443332531
 10
-4.1622086553
 20
18.130483567
 10
-4.148231224
 20
18.1138532315
  0
LINE
  5
517
100
AcDbEntity
  8
IMPORT_IGES
100
AcDbLine
 62
253
  6
CONTINUOUS
 10
-2.4747749215
 20
16.5196534503
 11
-2.501911325
 21
16.5362886326
  0
LWPOLYLINE
  5
518
100
AcDbEntity
  8
IMPORT_IGES
100
AcDbPolyline
 62
253
  6
CONTINUOUS
 90
16
 70
0
 10
-7.8196250581
 20
19.2530483445
 10
-7.8015584412
 20
19.2419443744
 10
-7.7841669356
 20
19.2287787551
 10
-7.7676801311
 20
19.2140694298
 10
-7.7520747767
 20
19.1985291585
 10
-7.7376157206
 20
19.1823959465
 10
-7.724917424
 20
19.1653466984
 10
-7.7138720063
 20
19.1475507673
 10
-7.7046710254
 20
19.1293962114
 10
-7.6983500394
 20
19.1107895661
 10
-7.6952350146
 20
19.0921576903
 10
-7.6948073286
 20
19.0734713807
 10
-7.696939295
 20
19.0539021867
 10
-7.7016956719
 20
19.033264434
 10
-7.7091525355
 20
19.0120218709
 10
-7.7193500517
 20
18.9903199528
  0
LINE
  5
519
100
AcDbEntity
  8
IMPORT_IGES
100
AcDbLine
 62
7
  6
CONTINUOUS
 10
-4.1552444008
 20
18.135128095
 11
-4.1094336607
 21
18.1064648398
  0
LINE
  5
51A
100
AcDbEntity
  8
IMPORT_IGES
100
AcDbLine
 62
7
  6
CONTINUOUS
 10
-2.4733147557
 20
16.5218149691
 11
-2.4360297156
 21
16.4976170096
  0
LINE
  5
51B
100
AcDbEntity
  8
IMPORT_IGES
100
AcDbLine
 62
7
  6
CONTINUOUS
 10
-6.2736453658
 20
18.2002155462
 11
-6.3023812628
 21
18.2198833446
  0
LINE
  5
51C
100
AcDbEntity
  8
IMPORT_IGES
100
AcDbLine
 62
253
  6
CONTINUOUS
 10
-4.5001661206
 20
17.5358399423
 11
-5.1672024576
 21
18.017489763
  0
LWPOLYLINE
  5
51D
100
AcDbEntity
  8
IMPORT_IGES
100
AcDbPolyline
 62
253
  6
CONTINUOUS
 90
4
 70
0
 10
-6.362444157
 20
18.1935037193
 10
-6.3745887044
 20
18.2026459944
 10
-6.3868099265
 20
18.2109452533
 10
-6.3990871771
 20
18.21839576
  0
LWPOLYLINE
  5
51E
100
AcDbEntity
  8
IMPORT_IGES
100
AcDbPolyline
 62
253
  6
CONTINUOUS
 90
8
 70
0
 10
-5.6702351028
 20
17.4895762408
 10
-5.6738363321
 20
17.4927230652
 10
-5.6813019116
 20
17.4956217968
 10
-5.6911026079
 20
17.4962890342
 10
-5.7034356901
 20
17.4946500111
 10
-5.7182724577
 20
17.4905467591
 10
-5.7350931719
 20
17.4840431007
 10
-5.7533872976
 20
17.4753492345
  0
LINE
  5
51F
100
AcDbEntity
  8
IMPORT_IGES
100
AcDbLine
 62
253
  6
CONTINUOUS
 10
-5.6772909719
 20
17.4011989209
 11
-5.7154081684
 21
17.4363441786
  0
LWPOLYLINE
  5
520
100
AcDbEntity
  8
IMPORT_IGES
100
AcDbPolyline
 62
7
  6
CONTINUOUS
 90
3
 70
0
 10
-7.4900456124
 20
18.1470365791
 10
-7.512500334
 20
18.1683465928
 10
-7.5389282834
 20
18.1877023659
  0
LWPOLYLINE
  5
521
100
AcDbEntity
  8
IMPORT_IGES
100
AcDbPolyline
 62
253
  6
CONTINUOUS
 90
13
 70
0
 10
-0.0140701621
 20
13.2450488315
 10
0.0261636391
 20
13.2061650117
 10
0.06422731
 20
13.1637535591
 10
0.1004606105
 20
13.1174637413
 10
0.1346240977
 20
13.067399121
 10
0.1660796338
 20
13.014275238
 10
0.1944591039
 20
12.9585185052
 10
0.2193848321
 20
12.9006146679
 10
0.2404381669
 20
12.8412387049
 10
0.2572377971
 20
12.7811687866
 10
0.2694923917
 20
12.7211349872
 10
0.2769768201
 20
12.6618075613
 10
0.2795040154
 20
12.603913456
  0
LWPOLYLINE
  5
522
100
AcDbEntity
  8
IMPORT_IGES
100
AcDbPolyline
 62
253
  6
CONTINUOUS
 90
10
 70
0
 10
-5.1672024576
 20
18.017489763
 10
-5.1755288118
 20
18.0259893254
 10
-5.1841858888
 20
18.0340590994
 10
-5.1931736886
 20
18.0416990851
 10
-5.2024987788
 20
18.0489178199
 10
-5.2121545918
 20
18.0557067663
 10
-5.2221214249
 20
18.0620403117
 10
-5.2323927103
 20
18.0679099185
 10
-5.2429750158
 20
18.0733241242
 10
-5.2538683413
 20
18.0782829289
  0
LINE
  5
523
100
AcDbEntity
  8
IMPORT_IGES
100
AcDbLine
 62
253
  6
CONTINUOUS
 10
-5.7154081684
 20
17.4363441786
 11
-5.7533865694
 21
17.4753504235
  0
LWPOLYLINE
  5
524
100
AcDbEntity
  8
IMPORT_IGES
100
AcDbPolyline
 62
7
  6
CONTINUOUS
 90
3
 70
0
 10
-6.222209124
 20
18.1503735276
 10
-6.2473767864
 20
18.1774971862
 10
-6.2736453658
 20
18.2002155462
  0
LWPOLYLINE
  5
525
100
AcDbEntity
  8
IMPORT_IGES
100
AcDbPolyline
 62
253
  6
CONTINUOUS
 90
10
 70
0
 10
-5.183997048
 20
17.277202694
 10
-5.2013762651
 20
17.2963094294
 10
-5.2195776122
 20
17.3127691918
 10
-5.2382436539
 20
17.3263535336
 10
-5.2568785484
 20
17.3368284039
 10
-5.2752957522
 20
17.3442122674
 10
-5.293608051
 20
17.3485323603
 10
-5.3115808386
 20
17.3495768898
 10
-5.3287340607
 20
17.347152853
 10
-5.3441350906
 20
17.3414519167
  0
LWPOLYLINE
  5
526
100
AcDbEntity
  8
IMPORT_IGES
100
AcDbPolyline
 62
253
  6
CONTINUOUS
 90
6
 70
0
 10
-6.3053126271
 20
18.1371374524
 10
-6.316094084
 20
18.1496515807
 10
-6.3272290069
 20
18.1615872473
 10
-6.3386828831
 20
18.1728983294
 10
-6.3504406719
 20
18.1835585042
 10
-6.362444157
 20
18.1935037193
  0
LINE
  5
527
100
AcDbEntity
  8
IMPORT_IGES
100
AcDbLine
 62
253
  6
CONTINUOUS
 10
-5.7533865694
 20
17.4753504235
 11
-5.8767591637
 21
17.6220495973
  0
LINE
  5
528
100
AcDbEntity
  8
IMPORT_IGES
100
AcDbLine
 62
7
  6
CONTINUOUS
 10
-5.6702351028
 20
17.4895762408
 11
-5.9846377886
 21
17.8652550661
  0
LINE
  5
529
100
AcDbEntity
  8
IMPORT_IGES
100
AcDbLine
 62
253
  6
CONTINUOUS
 10
-6.1212739157
 20
17.9165693779
 11
-6.3053001478
 21
18.1371502338
  0
LINE
  5
52A
100
AcDbEntity
  8
IMPORT_IGES
100
AcDbLine
 62
7
  6
CONTINUOUS
 10
-5.9846377886
 20
17.8652550661
 11
-6.222217819
 21
18.1503914941
  0
LWPOLYLINE
  5
52B
100
AcDbEntity
  8
IMPORT_IGES
100
AcDbPolyline
 62
253
  6
CONTINUOUS
 90
3
 70
0
 10
-5.8767591637
 20
17.6220495973
 10
-5.9992922865
 20
17.7691703685
 10
-6.1212739157
 20
17.9165693779
  0
LWPOLYLINE
  5
52C
100
AcDbEntity
  8
IMPORT_IGES
100
AcDbPolyline
 62
253
  6
CONTINUOUS
 90
10
 70
0
 10
-4.1474234232
 20
17.1253447424
 10
-4.1274191977
 20
17.0992948962
 10
-4.108958581
 20
17.0712949928
 10
-4.0922948967
 20
17.0416864853
 10
-4.0776676881
 20
17.0108502582
 10
-4.0652807182
 20
16.9791645927
 10
-4.0553082602
 20
16.946998242
 10
-4.0479131402
 20
16.9147597552
 10
-4.0432339017
 20
16.8828943096
 10
-4.0413702614
 20
16.8518386757
  0
LWPOLYLINE
  5
52D
100
AcDbEntity
  8
IMPORT_IGES
100
AcDbPolyline
 62
253
  6
CONTINUOUS
 90
10
 70
0
 10
-5.2464967553
 20
17.9208020933
 10
-5.2550306931
 20
17.934241633
 10
-5.2618415534
 20
17.949142052
 10
-5.2668798873
 20
17.9654761297
 10
-5.2700098098
 20
17.9831181019
 10
-5.2710749785
 20
18.0017094737
 10
-5.2699952521
 20
18.0208662486
 10
-5.2667517607
 20
18.040230919
 10
-5.2613585759
 20
18.0594863152
 10
-5.2538704147
 20
18.0782784342
  0
LWPOLYLINE
  5
52E
100
AcDbEntity
  8
IMPORT_IGES
100
AcDbPolyline
 62
7
  6
CONTINUOUS
 90
5
 70
0
 10
-5.1781522856
 20
17.8748330248
 10
-5.1829374818
 20
17.8831184658
 10
-5.1885574836
 20
17.8978048521
 10
-5.1920464432
 20
17.9136449307
 10
-5.1933396115
 20
17.9303633801
  0
LINE
  5
52F
100
AcDbEntity
  8
IMPORT_IGES
100
AcDbLine
 62
253
  6
CONTINUOUS
 10
-1.9043183939
 20
12.9973704802
 11
-0.8827103731
 21
10.8055297622
  0
LINE
  5
530
100
AcDbEntity
  8
IMPORT_IGES
100
AcDbLine
 62
7
  6
CONTINUOUS
 10
-0.8228956372
 20
11.0337837773
 11
-1.8445043251
 21
13.2256237839
  0
LWPOLYLINE
  5
531
100
AcDbEntity
  8
IMPORT_IGES
100
AcDbPolyline
 62
253
  6
CONTINUOUS
 90
10
 70
0
 10
-1.9043183939
 20
12.9973704802
 10
-1.926542332
 20
13.0476652882
 10
-1.9470878254
 20
13.0995005028
 10
-1.9659548742
 20
13.152876124
 10
-1.9831601124
 20
13.207854389
 10
-1.998686906
 20
13.2643730606
 10
-2.012485353
 20
13.3222454274
 10
-2.0245388193
 20
13.3814092524
 10
-2.034863939
 20
13.4419267727
 10
-2.043460712
 20
13.5037979883
  0
LWPOLYLINE
  5
532
100
AcDbEntity
  8
IMPORT_IGES
100
AcDbPolyline
 62
7
  6
CONTINUOUS
 90
10
 70
0
 10
-0.8229023708
 20
11.0337870633
 10
-0.7943194125
 20
10.9678503536
 10
-0.7687972229
 20
10.8992330888
 10
-0.746388239
 20
10.8280410072
 10
-0.7271141345
 20
10.7542642627
 10
-0.711057772
 20
10.6781140943
 10
-0.6983149172
 20
10.6000596844
 10
-0.6888960193
 20
10.520361984
 10
-0.682775932
 20
10.4390381901
 10
-0.6799505854
 20
10.3562289923
  0
LWPOLYLINE
  5
533
100
AcDbEntity
  8
IMPORT_IGES
100
AcDbPolyline
 62
7
  6
CONTINUOUS
 90
8
 70
0
 10
-1.8445197917
 20
13.2256639895
 10
-1.8681918951
 20
13.2803198632
 10
-1.8880659561
 20
13.333430754
 10
-1.9059929129
 20
13.3890725528
 10
-1.9218960515
 20
13.4471154831
 10
-1.9356984344
 20
13.5073818563
 10
-1.9473466095
 20
13.5697234584
 10
-1.9568043609
 20
13.6340028416
  0
LWPOLYLINE
  5
534
100
AcDbEntity
  8
IMPORT_IGES
100
AcDbPolyline
 62
253
  6
CONTINUOUS
 90
10
 70
0
 10
-0.8827103731
 20
10.8055297622
 10
-0.8597978805
 20
10.7521292528
 10
-0.8394010117
 20
10.6965586421
 10
-0.8215197667
 20
10.6388179302
 10
-0.806125882
 20
10.5787712257
 10
-0.793247621
 20
10.51655442
 10
-0.7829697745
 20
10.4525751867
 10
-0.775320606
 20
10.3869694171
 10
-0.770271852
 20
10.3196012199
 10
-0.7678235124
 20
10.2504705952
  0
LWPOLYLINE
  5
535
100
AcDbEntity
  8
IMPORT_IGES
100
AcDbPolyline
 62
253
  6
CONTINUOUS
 90
9
 70
0
 10
-1.8445165494
 20
13.2256500041
 10
-1.8355930958
 20
13.2009594393
 10
-1.8310186924
 20
13.1741129214
 10
-1.831143744
 20
13.1455106686
 10
-1.8361789809
 20
13.1157801104
 10
-1.8461481867
 20
13.085551227
 10
-1.8609497671
 20
13.0553976696
 10
-1.8804269721
 20
13.0258197278
 10
-1.9043187275
 20
12.9973701246
  0
LWPOLYLINE
  5
536
100
AcDbEntity
  8
IMPORT_IGES
100
AcDbPolyline
 62
253
  6
CONTINUOUS
 90
9
 70
0
 10
-0.8228979876
 20
11.0337888198
 10
-0.8139847021
 20
11.009120539
 10
-0.8094099944
 20
10.9822727926
 10
-0.8095351609
 20
10.9536694653
 10
-0.8145708406
 20
10.9239379104
 10
-0.8245405667
 20
10.8937086143
 10
-0.8393423771
 20
10.8635553991
 10
-0.8588193
 20
10.8339783607
 10
-0.8827100395
 20
10.8055301178
  0
LWPOLYLINE
  5
537
100
AcDbEntity
  8
IMPORT_IGES
100
AcDbPolyline
 62
253
  6
CONTINUOUS
 90
5
 70
0
 10
-0.6295602795
 20
9.6599931319
 10
-0.6222244196
 20
9.6232462814
 10
-0.6149503241
 20
9.5613264152
 10
-0.6131140492
 20
9.5014914061
 10
-0.616739237
 20
9.4445116311
  0
LWPOLYLINE
  5
538
100
AcDbEntity
  8
IMPORT_IGES
100
AcDbPolyline
 62
7
  6
CONTINUOUS
 90
5
 70
0
 10
-0.5641170839
 20
9.6927147297
 10
-0.5625270901
 20
9.6845480415
 10
-0.5560806189
 20
9.6273058393
 10
-0.5545652495
 20
9.5705252612
 10
-0.5582316247
 20
9.5146260858
  0
LWPOLYLINE
  5
539
100
AcDbEntity
  8
IMPORT_IGES
100
AcDbPolyline
 62
7
  6
CONTINUOUS
 90
10
 70
0
 10
-2.3606389251
 20
16.073699874
 10
-2.3631911349
 20
16.0879232403
 10
-2.3667205115
 20
16.101138853
 10
-2.3712270549
 20
16.113346712
 10
-2.3767590097
 20
16.1246200927
 10
-2.3832681312
 20
16.1348857199
 10
-2.3906096853
 20
16.1439237672
 10
-2.3987354272
 20
16.1516609595
 10
-2.4076936016
 20
16.1581705719
 10
-2.4174842086
 20
16.1634526046
  0
LINE
  5
53A
100
AcDbEntity
  8
IMPORT_IGES
100
AcDbLine
 62
253
  6
CONTINUOUS
 10
-2.3606389251
 20
16.073699874
 11
-2.043460712
 21
13.5037979883
  0
LINE
  5
53B
100
AcDbEntity
  8
IMPORT_IGES
100
AcDbLine
 62
7
  6
CONTINUOUS
 10
-1.9568043609
 20
13.6340028416
 11
-2.2749962033
 21
16.2119636726
  0
LWPOLYLINE
  5
53C
100
AcDbEntity
  8
RACCORDO
100
AcDbPolyline
 62
253
  6
CONTINUOUS
 90
8
 70
0
 10
-22.2329774241
 20
-23.7642846249
 10
-22.2178824395
 20
-23.7553499872
 10
-22.2027224857
 20
-23.7417236673
 10
-22.1898999321
 20
-23.7246132431
 10
-22.179634123
 20
-23.7043114173
 10
-22.1721006638
 20
-23.6811654842
 10
-22.1674284188
 20
-23.6555713876
 10
-22.1656973077
 20
-23.6279669497
  0
LINE
  5
53D
100
AcDbEntity
  8
RACCORDO
100
AcDbLine
 62
7
  6
CONTINUOUS
 10
-22.6319753124
 20
25.4579410634
 11
-24.5822209971
 21
25.2589062663
  0
LINE
  5
53E
100
AcDbEntity
  8
RACCORDO
100
AcDbLine
 62
7
  6
CONTINUOUS
 10
-26.4451844443
 20
26.109411601
 11
-25.0528308953
 21
26.2515100085
  0
LINE
  5
53F
100
AcDbEntity
  8
RACCORDO
100
AcDbLine
 62
7
  6
CONTINUOUS
 10
-20.5956208529
 20
26.7513448794
 11
-21.9305705677
 21
26.615104893
  0
LINE
  5
540
100
AcDbEntity
  8
RACCORDO
100
AcDbLine
 62
7
  6
CONTINUOUS
 10
-26.9156733751
 20
26.4256324553
 11
-24.9654276904
 21
26.6246672524
  0
LWPOLYLINE
  5
541
100
AcDbEntity
  8
RACCORDO
100
AcDbPolyline
 62
7
  6
CONTINUOUS
 90
25
 70
0
 10
-24.5822209971
 20
25.2589062663
 10
-24.5913931018
 20
25.2581589602
 10
-24.6010454225
 20
25.2577192172
 10
-24.6111779591
 20
25.2575870375
 10
-24.6218380779
 20
25.2577644832
 10
-24.6329784127
 20
25.258249492
 10
-24.6444568647
 20
25.2590358776
 10
-24.6562777649
 20
25.2601275006
 10
-24.6684367822
 20
25.2615205003
 10
-24.6807788241
 20
25.2631971086
 10
-24.6933062352
 20
25.2651609584
 10
-24.7060166708
 20
25.2674084167
 10
-24.718748005
 20
25.2699108165
 10
-24.7315005055
 20
25.2726714235
 10
-24.7442739045
 20
25.275686972
 10
-24.7569052729
 20
25.2789189975
 10
-24.7693927914
 20
25.2823702732
 10
-24.7817382793
 20
25.2860380259
 10
-24.7937842655
 20
25.2898754722
 10
-24.8055269136
 20
25.2938847859
 10
-24.8169700602
 20
25.2980637931
 10
-24.8279677438
 20
25.3023591893
 10
-24.8384713107
 20
25.3067532062
 10
-24.8485294147
 20
25.311263612
 10
-24.8581420558
 20
25.3158904067
  0
LWPOLYLINE
  5
542
100
AcDbEntity
  8
RACCORDO
100
AcDbPolyline
 62
7
  6
CONTINUOUS
 90
25
 70
0
 10
-21.9305705677
 20
26.615104893
 10
-21.9397426724
 20
26.6143575868
 10
-21.949394993
 20
26.6139178439
 10
-21.9595275296
 20
26.6137856642
 10
-21.9701876485
 20
26.6139631098
 10
-21.9813279833
 20
26.6144481187
 10
-21.9928064352
 20
26.6152345043
 10
-22.0046273354
 20
26.6163261272
 10
-22.0167863528
 20
26.6177191269
 10
-22.0291283947
 20
26.6193957352
 10
-22.0416558057
 20
26.621359585
 10
-22.0543662414
 20
26.6236070434
 10
-22.0670975756
 20
26.6261094432
 10
-22.079850076
 20
26.6288700502
 10
-22.0926234751
 20
26.6318855986
 10
-22.1052548435
 20
26.6351176242
 10
-22.117742362
 20
26.6385688998
 10
-22.1300878498
 20
26.6422366525
 10
-22.1421338361
 20
26.6460740988
 10
-22.1538764842
 20
26.6500834125
 10
-22.1653196307
 20
26.6542624198
 10
-22.1763173143
 20
26.658557816
 10
-22.1868208812
 20
26.6629518329
 10
-22.1968789852
 20
26.6674622387
 10
-22.2064916263
 20
26.6720890334
  0
LWPOLYLINE
  5
543
100
AcDbEntity
  8
RACCORDO
100
AcDbPolyline
 62
7
  6
CONTINUOUS
 90
25
 70
0
 10
-24.9654276904
 20
26.6246672524
 10
-24.9562555857
 20
26.6254145585
 10
-24.946603265
 20
26.6258543015
 10
-24.9364707284
 20
26.6259864812
 10
-24.9258106096
 20
26.6258090356
 10
-24.9146702748
 20
26.6253240267
 10
-24.9031918228
 20
26.6245376411
 10
-24.8913709226
 20
26.6234460181
 10
-24.8792119053
 20
26.6220530184
 10
-24.8668698634
 20
26.6203764102
 10
-24.8543424523
 20
26.6184125603
 10
-24.8416320167
 20
26.616165102
 10
-24.8289006825
 20
26.6136627022
 10
-24.816148182
 20
26.6109020952
 10
-24.803374783
 20
26.6078865467
 10
-24.7907434146
 20
26.6046545212
 10
-24.7782558961
 20
26.6012032456
 10
-24.7659104082
 20
26.5975354929
 10
-24.753864422
 20
26.5936980465
 10
-24.7421217739
 20
26.5896887329
 10
-24.7306786273
 20
26.5855097256
 10
-24.7196809437
 20
26.5812143294
 10
-24.7091773768
 20
26.5768203125
 10
-24.6991192728
 20
26.5723099067
 10
-24.6895066317
 20
26.567683112
  0
LWPOLYLINE
  5
544
100
AcDbEntity
  8
0
100
AcDbPolyline
 62
7
  6
CONTINUOUS
 90
7
 70
0
 10
-20.5094353515
 20
26.7513744391
 10
-20.5233838941
 20
26.7526219191
 10
-20.5374987198
 20
26.7533684364
 10
-20.5517798285
 20
26.7536139911
 10
-20.5662272203
 20
26.7533585831
 10
-20.5808408951
 20
26.7526022126
 10
-20.5956208529
 20
26.7513448794
  0
LINE
  5
545
100
AcDbEntity
  8
DRAFT
100
AcDbLine
 62
7
  6
CONTINUOUS
 10
-24.661183253
 20
29.6493348751
 11
-21.7468722185
 21
28.1921793579
  0
LINE
  5
546
100
AcDbEntity
  8
DRAFT
100
AcDbLine
 62
7
  6
CONTINUOUS
 10
-12.9787481318
 20
23.8081173145
 11
-11.2213573998
 21
22.9294219485
  0
LINE
  5
547
100
AcDbEntity
  8
RACCORDO
100
AcDbLine
 62
7
  6
CONTINUOUS
 10
-8.8825515231
 20
23.0309433031
 11
-9.8876429007
 21
23.5334889919
  0
LINE
  5
548
100
AcDbEntity
  8
RACCORDO
100
AcDbLine
 62
7
  6
CONTINUOUS
 10
-24.8379774497
 20
31.0086562664
 11
-25.8430688273
 21
31.5112019552
  0
LWPOLYLINE
  5
549
100
AcDbEntity
  8
IMPORT_IGES
100
AcDbPolyline
 62
7
  6
CONTINUOUS
 90
11
 70
0
 10
-4.1094336607
 20
18.1064648398
 10
-4.0661370233
 20
18.0724944586
 10
-4.02585548
 20
18.0333739602
 10
-3.9889403756
 20
17.9892082581
 10
-3.9556138044
 20
17.9399349171
 10
-3.9261001212
 20
17.885356417
 10
-3.9009587767
 20
17.8258887278
 10
-3.8807200017
 20
17.7624195964
 10
-3.86556752
 20
17.6954557288
 10
-3.8555503338
 20
17.625028733
 10
-3.8508014749
 20
17.5514449093
  0
LWPOLYLINE
  5
54A
100
AcDbEntity
  8
IMPORT_IGES
100
AcDbPolyline
 62
7
  6
CONTINUOUS
 90
8
 70
0
 10
-2.4360297156
 20
16.4976170096
 10
-2.4012972244
 20
16.46873462
 10
-2.3698560399
 20
16.4355737247
 10
-2.3421261957
 20
16.3984110644
 10
-2.3182985849
 20
16.3571595855
 10
-2.2988154685
 20
16.3119481
 10
-2.2842527979
 20
16.2633698076
 10
-2.2749989917
 20
16.2119546166
  0
LWPOLYLINE
  5
54B
100
AcDbEntity
  8
IMPORT_IGES
100
AcDbPolyline
 62
253
  6
CONTINUOUS
 90
4
 70
0
 10
-4.148231224
 20
18.1138532315
 10
-4.1365056567
 20
18.0945925278
 10
-4.1273520419
 20
18.0731236551
 10
-4.121044671
 20
18.0502554229
  0
LWPOLYLINE
  5
54C
100
AcDbEntity
  8
IMPORT_IGES
100
AcDbPolyline
 62
253
  6
CONTINUOUS
 90
4
 70
0
 10
-2.412652934
 20
16.4449569842
 10
-2.4298268202
 20
16.47349982
 10
-2.4506252637
 20
16.4985647597
 10
-2.4747749215
 20
16.5196534503
  0
LINE
  5
54D
100
AcDbEntity
  8
RACCORDO
100
AcDbLine
 62
253
  6
CONTINUOUS
 10
-14.9586471192
 20
-21.5932891988
 11
-8.7057694415
 21
-18.301352142
  0
LINE
  5
54E
100
AcDbEntity
  8
RACCORDO
100
AcDbLine
 62
7
  6
CONTINUOUS
 10
-15.0218275122
 20
-21.7275717171
 11
-8.7689729474
 21
-18.4356468285
  0
LINE
  5
54F
100
AcDbEntity
  8
RACCORDO
100
AcDbLine
 62
7
  6
CONTINUOUS
 10
-15.0218652637
 20
-21.727591592
 11
-15.0253534238
 21
-21.7293362875
  0
LINE
  5
550
100
AcDbEntity
  8
RACCORDO
100
AcDbLine
 62
253
  6
CONTINUOUS
 10
-19.3442222483
 20
-23.6739841157
 11
-14.9586471192
 21
-21.5932891988
  0
LINE
  5
551
100
AcDbEntity
  8
RACCORDO
100
AcDbLine
 62
7
  6
CONTINUOUS
 10
-19.4107257376
 20
-23.8099349606
 11
-15.0253974965
 21
-21.7293571774
  0
LINE
  5
552
100
AcDbEntity
  8
RACCORDO
100
AcDbLine
 62
7
  6
CONTINUOUS
 10
-19.7002175278
 20
-22.5732835178
 11
-22.2329774305
 21
-23.7642846279
  0
LWPOLYLINE
  5
553
100
AcDbEntity
  8
RACCORDO
100
AcDbPolyline
 62
253
  6
CONTINUOUS
 90
27
 70
0
 10
-19.3442222483
 20
-22.3012008696
 10
-22.2040147611
 20
-23.6458178575
 10
-22.244786669
 20
-23.6616314477
 10
-22.2880130314
 20
-23.6754077203
 10
-22.3342016624
 20
-23.6877305039
 10
-22.3828447479
 20
-23.6980159698
 10
-22.4324188457
 20
-23.7045126327
 10
-22.4829689847
 20
-23.7069915123
 10
-22.534450136
 20
-23.7056815889
 10
-22.5852037707
 20
-23.6995183166
 10
-22.6351841153
 20
-23.6881882351
 10
-22.6844369433
 20
-23.6720048048
 10
-22.7314410469
 20
-23.6508438619
 10
-22.7760444961
 20
-23.6243850953
 10
-22.818399221
 20
-23.592948816
 10
-22.8574398044
 20
-23.5573717935
 10
-22.8929534263
 20
-23.5173886218
 10
-22.9251529067
 20
-23.4732647067
 10
-22.9536112883
 20
-23.4266330352
 10
-22.9780920641
 20
-23.377341351
 10
-22.9988317411
 20
-23.3255419103
 10
-23.0161128822
 20
-23.2733244682
 10
-23.029738711
 20
-23.2206539904
 10
-23.0399060039
 20
-23.1675655113
 10
-23.047487653
 20
-23.1162538898
 10
-23.0527746223
 20
-23.0674507454
 10
-23.0554759478
 20
-23.0204244587
  0
LINE
  5
554
100
AcDbEntity
  8
RACCORDO
100
AcDbLine
 62
253
  6
CONTINUOUS
 10
-19.4037390286
 20
-23.6999812843
 11
-19.3442222483
 21
-23.6739841157
  0
LINE
  5
555
100
AcDbEntity
  8
0
100
AcDbLine
 62
7
  6
CONTINUOUS
 10
-28.3014162893
 20
26.9227858096
 11
-23.6560605278
 21
27.3968734841
  0
LINE
  5
556
100
AcDbEntity
  8
ASSI
100
AcDbLine
 62
7
  6
CONTINUOUS
 10
-22.1538579706
 20
27.0915933516
 11
-20.8860565112
 21
27.166531307
  0
LINE
  5
557
100
AcDbEntity
  8
DRAFT
100
AcDbLine
 62
7
  6
CONTINUOUS
 10
-23.7267712059
 20
27.8780499693
 11
-22.2244408396
 21
27.9595203268
  0
LINE
  5
558
100
AcDbEntity
  8
RACCORDO
100
AcDbLine
 62
7
  6
CONTINUOUS
 10
-22.1190818334
 20
27.9652338743
 11
-22.2244408396
 21
27.9595203268
  0
LWPOLYLINE
  5
559
100
AcDbEntity
  8
RACCORDO
100
AcDbPolyline
 62
7
  6
CONTINUOUS
 90
8
 70
0
 10
-22.1190818334
 20
27.9652338743
 10
-22.0921739475
 20
27.9657174475
 10
-22.0659697722
 20
27.9642781915
 10
-22.0404693074
 20
27.9609161064
 10
-22.0156102404
 20
27.9556125503
 10
-21.991454884
 20
27.9483861651
 10
-21.9681901758
 20
27.9392928755
 10
-21.954813574
 20
27.9330083947
  0
ELLIPSE
  5
55A
100
AcDbEntity
  8
IMPORT_IGES
100
AcDbEllipse
 62
7
  6
CONTINUOUS
 10
-13.6965118886
 20
-4.5873538824
 30
0.0
 11
0.5384358886
 21
-0.0547002141
 31
0.0
 40
0.1703160628
 41
-0.3632055326
 42
-0.2624822218
  0
ELLIPSE
  5
55B
100
AcDbEntity
  8
IMPORT_IGES
100
AcDbEllipse
 62
7
  6
CONTINUOUS
 10
-2.5188863915
 20
7.8205710679
 30
0.0
 11
0.2970260391
 21
-0.1836219405
 31
0.0
 40
0.0829501116
 41
0.0479465802
 42
0.8277528762
  0
ELLIPSE
  5
55C
100
AcDbEntity
  8
IMPORT_IGES
100
AcDbEllipse
 62
7
  6
CONTINUOUS
 10
-13.8111187756
 20
3.6598629635
 30
0.0
 11
0.3000228497
 21
-0.0000304656
 31
0.0
 40
0.4999999903
 41
-1.9909770138
 42
-0.785271233
  0
ELLIPSE
  5
55D
100
AcDbEntity
  8
IMPORT_IGES
100
AcDbEllipse
 62
7
  6
CONTINUOUS
 10
-13.5056462733
 20
14.4197093997
 30
0.0
 11
0.2999899059
 21
-0.0050528313
 31
0.0
 40
0.4870476356
 41
-1.9904499309
 42
-0.7771948395
  0
ELLIPSE
  5
55E
100
AcDbEntity
  8
IMPORT_IGES
100
AcDbEllipse
 62
7
  6
CONTINUOUS
 10
-15.3151172456
 20
12.8668988862
 30
0.0
 11
0.9919983524
 21
1.7386465091
 31
0.0
 40
0.6500195766
 41
5.9398720091
 42
6.36639551
  0
ELLIPSE
  5
55F
100
AcDbEntity
  8
IMPORT_IGES
100
AcDbEllipse
 62
7
  6
CONTINUOUS
 10
-13.929910342
 20
14.2184783844
 30
0.0
 11
0.2999899059
 21
-0.0050528313
 31
0.0
 40
0.4870476356
 41
-0.7771948395
 42
0.0082045976
  0
ELLIPSE
  5
560
100
AcDbEntity
  8
IMPORT_IGES
100
AcDbEllipse
 62
7
  6
CONTINUOUS
 10
-13.8112422015
 20
3.7465272169
 30
0.0
 11
0.3000228497
 21
-0.0000304656
 31
0.0
 40
0.4999999903
 41
-1.9911361521
 42
-0.785271233
  0
ELLIPSE
  5
561
100
AcDbEntity
  8
IMPORT_IGES
100
AcDbEllipse
 62
7
  6
CONTINUOUS
 10
-12.3423520288
 20
13.6196929187
 30
0.0
 11
0.2996199708
 21
-0.1851753256
 31
0.0
 40
0.0815198604
 41
1.5570317333
 42
2.4065339704
  0
ELLIPSE
  5
562
100
AcDbEntity
  8
IMPORT_IGES
100
AcDbEllipse
 62
7
  6
CONTINUOUS
 10
-31.9468875372
 20
-4.4147637051
 30
0.0
 11
0.2952573947
 21
0.0837317531
 31
0.0
 40
0.6345570966
 41
-2.5342423105
 42
-0.9634459838
  0
ELLIPSE
  5
563
100
AcDbEntity
  8
RACCORDO
100
AcDbEllipse
 62
7
  6
CONTINUOUS
 10
-12.3419905479
 20
-12.9864884729
 30
0.0
 11
-0.1341626742
 21
0.2683289524
 31
0.0
 40
0.6123888851
 41
-2.2554957904
 42
-0.684726879
  0
ELLIPSE
  5
564
100
AcDbEntity
  8
RACCORDO
100
AcDbEllipse
 62
7
  6
CONTINUOUS
 10
-9.8876536707
 20
23.3169827497
 30
0.0
 11
-0.1118036727
 21
0.2236066626
 31
0.0
 40
0.6124106691
 41
-0.6847510358
 42
0.0000786462
  0
ELLIPSE
  5
565
100
AcDbEntity
  8
RACCORDO
100
AcDbEllipse
 62
7
  6
CONTINUOUS
 10
-25.8430472856
 20
31.2946795571
 30
0.0
 11
-0.1118513215
 21
0.2236206384
 31
0.0
 40
0.6123149896
 41
-0.6848229515
 42
-0.0127869341
  0
ELLIPSE
  5
566
100
AcDbEntity
  8
ASSI
100
AcDbEllipse
 62
7
  6
CONTINUOUS
 10
-13.7606227232
 20
-12.7199334441
 30
0.0
 11
0.9999977637
 21
-0.0042570351
 31
0.0
 40
0.4967868151
 41
0.7875130039
 42
2.3530733429
  0
ELLIPSE
  5
567
100
AcDbEntity
  8
RACCORDO
100
AcDbEllipse
 62
7
  6
CONTINUOUS
 10
-8.8825730648
 20
22.8144424468
 30
0.0
 11
-0.1118273057
 21
0.2235992763
 31
0.0
 40
0.6124612094
 41
-2.2555657388
 42
-0.6848912518
  0
ELLIPSE
  5
568
100
AcDbEntity
  8
RACCORDO
100
AcDbEllipse
 62
7
  6
CONTINUOUS
 10
-24.8379666797
 20
30.7921392542
 30
0.0
 11
-0.1118156852
 21
0.2236173411
 31
0.0
 40
0.6123375618
 41
-2.2555741646
 42
-0.6847169156
  0
ELLIPSE
  5
569
100
AcDbEntity
  8
ASSI
100
AcDbEllipse
 62
7
  6
CONTINUOUS
 10
-14.5405269524
 20
23.9903466043
 30
0.0
 11
0.9980068092
 21
-0.2399287748
 31
0.0
 40
0.2630210944
 41
1.9259507046
 42
2.410616134
  0
ELLIPSE
  5
56A
100
AcDbEntity
  8
RACCORDO
100
AcDbEllipse
 62
7
  6
CONTINUOUS
 10
-8.8825730648
 20
-18.2129239506
 30
0.0
 11
-0.1118513215
 21
0.2236206384
 31
0.0
 40
0.6123149896
 41
-3.1288213461
 42
-2.2557411181
  0
ELLIPSE
  5
56B
100
AcDbEntity
  8
ASSI
100
AcDbEllipse
 62
7
  6
CONTINUOUS
 10
-21.5993069604
 20
27.5197366083
 30
0.0
 11
0.9980068092
 21
-0.2399287748
 31
0.0
 40
0.2630210944
 41
-0.7135232271
 42
-0.2288577977
  0
ELLIPSE
  5
56C
100
AcDbEntity
  8
RACCORDO
100
AcDbEllipse
 62
7
  6
CONTINUOUS
 10
-36.0679706127
 20
24.6056266409
 30
0.0
 11
0.9203147651
 21
0.00793744
 31
0.0
 40
0.5063849754
 41
3.1375226195
 42
5.4846931061
  0
ELLIPSE
  5
56D
100
AcDbEntity
  8
RACCORDO
100
AcDbEllipse
 62
7
  6
CONTINUOUS
 10
-19.9835327004
 20
16.5634076847
 30
0.0
 11
0.9203147651
 21
0.00793744
 31
0.0
 40
0.5063849754
 41
3.1372906633
 42
4.7211627509
  0
ENDSEC
  0
SECTION
  2
OBJECTS
  0
DICTIONARY
  5
C
100
AcDbDictionary
280
0
281
1
  3
ACAD_GROUP
350
D
  3
ACAD_MLINESTYLE
350
17
  3
ACAD_LAYOUT
350
1A
  3
ACAD_PLOTSETTINGS
350
19
  3
ACAD_PLOTSTYLENAME
350
E
  0
DICTIONARY
  5
D
102
{ACAD_REACTORS
330
C
102
}
100
AcDbDictionary
280
0
281
1
  0
ACDBDICTIONARYWDFLT
  5
E
102
{ACAD_REACTORS
330
C
102
}
100
AcDbDictionary
281
1
  3
Normal
350
F
100
AcDbDictionaryWithDefault
340
F
  0
DICTIONARY
  5
17
102
{ACAD_REACTORS
330
C
102
}
100
AcDbDictionary
280
0
281
1
  3
Standard
350
18
  0
DICTIONARY
  5
19
102
{ACAD_REACTORS
330
C
102
}
100
AcDbDictionary
281
1
  0
DICTIONARY
  5
1A
102
{ACAD_REACTORS
330
C
102
}
100
AcDbDictionary
281
1
  3
Model
350
56E
  3
Layout1
350
56F
  0
ACDBPLACEHOLDER
  5
F
102
{ACAD_REACTORS
330
E
102
}
  0
MLINESTYLE
  5
18
102
{ACAD_REACTORS
330
17
102
}
100
AcDbMlineStyle
  2
STANDARD
 70
0
  3

 62
256
 51
90.0
 52
90.0
 71
2
 49
0.5
 62
256
  6
BYLAYER
 49
-0.5
 62
256
  6
BYLAYER
  0
LAYOUT
  5
56E
102
{ACAD_REACTORS
330
1A
102
}
100
AcDbPlotSettings
  1

  2
none_device
  4
ISO_A4_(297.00_x_210.00_MM)
  6

 40
0.0
 41
0.0
 42
0.0
 43
0.0
 44
297.0
 45
210.0
 46
0.0
 47
0.0
 48
0.0
 49
0.0
140
0.0
141
0.0
142
1.0
143
1.0
 70
1024
 72
1
 73
0
 74
0
  7

 75
0
147
1.0
148
0.0
149
0.0
100
AcDbLayout
  1
Model
 70
0
 71
0
 10
0.0
 20
0.0
 11
297.0
 21
210.0
 12
0.0
 22
0.0
 32
0.0
 14
0.0
 24
0.0
 34
0.0
 15
0.0
 25
0.0
 35
0.0
146
0.0
 13
0.0
 23
0.0
 33
0.0
 16
1.0
 26
0.0
 36
0.0
 17
0.0
 27
1.0
 37
0.0
 76
0
330
219
345
0
346
0
  0
LAYOUT
  5
56F
102
{ACAD_REACTORS
330
1A
102
}
100
AcDbPlotSettings
  1

  2
none_device
  4
ISO_A4_(297.00_x_210.00_MM)
  6

 40
0.0
 41
0.0
 42
0.0
 43
0.0
 44
297.0
 45
210.0
 46
0.0
 47
0.0
 48
0.0
 49
0.0
140
0.0
141
0.0
142
1.0
143
1.0
 70
0
 72
1
 73
0
 74
0
  7

 75
0
147
1.0
148
0.0
149
0.0
100
AcDbLayout
  1
Layout1
 70
0
 71
1
 10
0.0
 20
0.0
 11
297.0
 21
210.0
 12
0.0
 22
0.0
 32
0.0
 14
0.0
 24
0.0
 34
0.0
 15
0.0
 25
0.0
 35
0.0
146
0.0
 13
0.0
 23
0.0
 33
0.0
 16
1.0
 26
0.0
 36
0.0
 17
0.0
 27
1.0
 37
0.0
 76
0
330
21A
345
0
346
0
  0
ENDSEC
  0
EOF
