0
SECTION
2
HEADER
9
$ACADVER
1
AC1014
9
$HANDSEED
5
       407
9
$EXTMAX
10
297.0000000000
20
210.0000000000
9
$EXTMIN
10
0.0000000000
20
0.0000000000
9
$LIMMIN
10
0.0000000000
20
0.0000000000
9
$LIMMAX
10
297.0000000000
20
210.0000000000
9
$VIEWCTR
10
148.5000000000
20
105.0000000000
9
$VIEWSIZE
40
210.0000000000
9
$CLAYER
8
0
9
$LTSCALE
40
16.3350000000
9
$CELTYPE
6
BYLAYER
9
$DIMSCALE
40
1
9
$DIMASZ
40
3.0000000000
9
$DIMEXO
40
1.8562500000
9
$DIMDLI
40
11.2860000000
9
$DIMEXE
40
5.3460000000
9
$DIMCEN
40
2.6730000000
9
$DIMLFAC
40
1.0000000000
9
$DIMTXT
40
3.0000000000
9
$DIMTOL
70
1
9
$DIMLIM
70
0
9
$DIMTFAC
40
1.0000000000
9
$DIMTP
40
0.0100000000
9
$DIMTM
40
0.0100000000
9
$MEASUREMENT
70
1
0
ENDSEC
0
SECTION
2
CLASSES
0
ENDSEC
0
SECTION
2
TABLES
0
TABLE
2
VPORT
5
8
100
AcDbSymbolTable
70
2
0
VPORT
5
1F4
100
AcDbSymbolTableRecord
100
AcDbViewportTableRecord
2
*ACTIVE
70
0
10
0.0
20
0.0
11
1.0
21
1.0
12
148.5000000000
22
105.0000000000
13
0.0
23
0.0
14
1.0
24
1.0
15
0.0
25
0.0
16
0.0
26
0.0
36
1.0
17
0.0
27
0.0
37
0.0
40
210.0000000000
41
1.4142857143
42
50.0
43
0.0
44
0.0
50
0.0
51
0.0
71
0
72
100
73
1
74
1
75
0
76
0
77
0
78
0
0
ENDTAB
0
TABLE
2
LTYPE
5
5
100
AcDbSymbolTable
70
6
0
LTYPE
5
14
100
AcDbSymbolTableRecord
100
AcDbLinetypeTableRecord
2
BYBLOCK
70
0
3

72
65
73
0
40
0.0
0
LTYPE
5
15
100
AcDbSymbolTableRecord
100
AcDbLinetypeTableRecord
2
BYLAYER
70
0
3

72
65
73
0
40
0.0
0
LTYPE
5
16
100
AcDbSymbolTableRecord
100
AcDbLinetypeTableRecord
2
CONTINUOUS
70
64
3
Solid line
72
65
73
0
40
0
0
LTYPE
5
1F5
100
AcDbSymbolTableRecord
100
AcDbLinetypeTableRecord
2
CENTER
70
64
3
____ _ ____ _ ____ _ ____ _ ____ _ ____ _ ____
72
65
73
4
40
0.6
49
0.375
74
0
49
-0.075
74
0
49
0.075
74
0
49
-0.075
74
0
0
LTYPE
5
1F6
100
AcDbSymbolTableRecord
100
AcDbLinetypeTableRecord
2
HIDDEN
70
64
3
- - - - - - - - - - - - - - - - - - - -
72
65
73
2
40
0.2
49
0.1
74
0
49
-0.1
74
0
0
LTYPE
5
1F7
100
AcDbSymbolTableRecord
100
AcDbLinetypeTableRecord
2
PHANTOM
70
64
3
_____ _ _ _____ _ _ _____ _ _ _____
72
65
73
6
40
0.8
49
0.45
74
0
49
-0.05
74
0
49
0.1
74
0
49
-0.05
74
0
49
0.1
74
0
49
-0.05
74
0
0
LTYPE
5
1F8
100
AcDbSymbolTableRecord
100
AcDbLinetypeTableRecord
2
DOT
70
64
3
. . . . . . . . . . . . . . . . . . . .
72
65
73
2
40
0.2
49
0.1
74
0
49
-0.1
74
0
0
LTYPE
5
1F9
100
AcDbSymbolTableRecord
100
AcDbLinetypeTableRecord
2
DASHED
70
64
3
- - - - - - - - - - - - - - - - - - - -
72
65
73
2
40
0.2
49
0.1
74
0
49
-0.1
74
0
0
ENDTAB
0
TABLE
2
LAYER
5
2
100
AcDbSymbolTable
70
36
0
LAYER
5
10
100
AcDbSymbolTableRecord
100
AcDbLayerTableRecord
2
0
70
0
62
7
6
CONTINUOUS
0
LAYER
5
1FA
100
AcDbSymbolTableRecord
100
AcDbLayerTableRecord
2
DEFAULT_1
70
0
62
7
6
CENTER
0
LAYER
5
1FB
100
AcDbSymbolTableRecord
100
AcDbLayerTableRecord
2
DEFAULT_2
70
0
62
8
6
HIDDEN
0
LAYER
5
1FC
100
AcDbSymbolTableRecord
100
AcDbLayerTableRecord
2
DEFAULT_3
70
0
62
7
6
PHANTOM
0
LAYER
5
1FD
100
AcDbSymbolTableRecord
100
AcDbLayerTableRecord
2
ASSI
70
0
62
7
6
CONTINUOUS
0
LAYER
5
1FE
100
AcDbSymbolTableRecord
100
AcDbLayerTableRecord
2
COORDINATE
70
0
62
7
6
CONTINUOUS
0
LAYER
5
1FF
100
AcDbSymbolTableRecord
100
AcDbLayerTableRecord
2
COORD_ORIGINE
70
0
62
7
6
CONTINUOUS
0
LAYER
5
200
100
AcDbSymbolTableRecord
100
AcDbLayerTableRecord
2
COSMETICI
70
0
62
7
6
CONTINUOUS
0
LAYER
5
201
100
AcDbSymbolTableRecord
100
AcDbLayerTableRecord
2
CURVE
70
0
62
7
6
CONTINUOUS
0
LAYER
5
202
100
AcDbSymbolTableRecord
100
AcDbLayerTableRecord
2
DRAFT
70
0
62
7
6
CONTINUOUS
0
LAYER
5
203
100
AcDbSymbolTableRecord
100
AcDbLayerTableRecord
2
IGES
70
0
62
7
6
CONTINUOUS
0
LAYER
5
204
100
AcDbSymbolTableRecord
100
AcDbLayerTableRecord
2
INC_LASER
70
0
62
7
6
CONTINUOUS
0
LAYER
5
205
100
AcDbSymbolTableRecord
100
AcDbLayerTableRecord
2
NOTE
70
0
62
7
6
CONTINUOUS
0
LAYER
5
206
100
AcDbSymbolTableRecord
100
AcDbLayerTableRecord
2
PIANI
70
0
62
7
6
CONTINUOUS
0
LAYER
5
207
100
AcDbSymbolTableRecord
100
AcDbLayerTableRecord
2
PIANI_AUSILIARI
70
0
62
7
6
CONTINUOUS
0
LAYER
5
208
100
AcDbSymbolTableRecord
100
AcDbLayerTableRecord
2
PIANI_ORIGINE
70
0
62
7
6
CONTINUOUS
0
LAYER
5
209
100
AcDbSymbolTableRecord
100
AcDbLayerTableRecord
2
PUNTI
70
0
62
7
6
CONTINUOUS
0
LAYER
5
20A
100
AcDbSymbolTableRecord
100
AcDbLayerTableRecord
2
RACCORDO
70
0
62
7
6
CONTINUOUS
0
LAYER
5
20B
100
AcDbSymbolTableRecord
100
AcDbLayerTableRecord
2
SMUSSO
70
0
62
7
6
CONTINUOUS
0
LAYER
5
20C
100
AcDbSymbolTableRecord
100
AcDbLayerTableRecord
2
SUPERFICI
70
0
62
7
6
CONTINUOUS
0
LAYER
5
20D
100
AcDbSymbolTableRecord
100
AcDbLayerTableRecord
2
TRASH
70
0
62
7
6
CONTINUOUS
0
LAYER
5
20E
100
AcDbSymbolTableRecord
100
AcDbLayerTableRecord
2
XSEC_DATUMS
70
0
62
7
6
CONTINUOUS
0
LAYER
5
20F
100
AcDbSymbolTableRecord
100
AcDbLayerTableRecord
2
Z030080
70
0
62
7
6
CONTINUOUS
0
LAYER
5
210
100
AcDbSymbolTableRecord
100
AcDbLayerTableRecord
2
Z030090
70
0
62
7
6
CONTINUOUS
0
LAYER
5
211
100
AcDbSymbolTableRecord
100
AcDbLayerTableRecord
2
Z030100
70
0
62
7
6
CONTINUOUS
0
LAYER
5
212
100
AcDbSymbolTableRecord
100
AcDbLayerTableRecord
2
Z030110
70
0
62
7
6
CONTINUOUS
0
ENDTAB
0
TABLE
2
STYLE
5
3
100
AcDbSymbolTable
70
1
0
STYLE
5
11
100
AcDbSymbolTableRecord
100
AcDbTextStyleTableRecord
2
STANDARD
70
0
40
0.0
41
0.8000000000
50
0.0
71
0
42
0.2
3
txt
4

0
ENDTAB
0
TABLE
2
VIEW
5
6
100
AcDbSymbolTable
70
0
0
ENDTAB
0
TABLE
2
UCS
5
7
100
AcDbSymbolTable
70
0
0
ENDTAB
0
TABLE
2
APPID
5
9
100
AcDbSymbolTable
70
1
0
APPID
5
213
100
AcDbSymbolTableRecord
100
AcDbRegAppTableRecord
2
ACAD
70
0
0
ENDTAB
0
TABLE
2
DIMSTYLE
5
A
100
AcDbSymbolTable
70
1
0
DIMSTYLE
105
214
100
AcDbSymbolTableRecord
100
AcDbDimStyleTableRecord
2
STANDARD
70
0
3

4

5

6

7

40
1.0
41
3.0000000000
42
0.0625
43
0.38
44
0.18
45
0.0
46
0.0
47
0.0100000000
48
0.0100000000
140
3.0000000000
141
0.09
142
0.0
143
25.4
144
1.0000000000
145
0.0
146
1.0000000000
147
0.09
71
1
72
0
73
0
74
0
75
0
76
0
77
1
78
8
170
0
171
2
172
0
173
0
174
0
175
0
176
0
177
0
178
0
270
2
271
2
272
2
273
2
274
2
340
11
275
0
280
0
281
0
282
0
283
1
284
8
285
0
286
0
287
3
288
0
0
ENDTAB
0
TABLE
2
BLOCK_RECORD
5
1
100
AcDbSymbolTable
70
0
0
BLOCK_RECORD
5
1B
100
AcDbSymbolTableRecord
100
AcDbBlockTableRecord
2
*MODEL_SPACE
0
BLOCK_RECORD
5
1C
100
AcDbSymbolTableRecord
100
AcDbBlockTableRecord
2
*PAPER_SPACE
0
ENDTAB
0
ENDSEC
0
SECTION
2
BLOCKS
0
BLOCK
5
1E
100
AcDbEntity
8
0
100
AcDbBlockBegin
2
*MODEL_SPACE
70
0
10
0.0
20
0.0
30
0.0
3
*MODEL_SPACE
1

0
ENDBLK
5
1F
100
AcDbEntity
8
0
100
AcDbBlockEnd
0
BLOCK
5
20
100
AcDbEntity
8
0
100
AcDbBlockBegin
2
*PAPER_SPACE
70
0
10
0.0
20
0.0
30
0.0
3
*PAPER_SPACE
1

0
ENDBLK
5
21
100
AcDbEntity
8
0
100
AcDbBlockEnd
0
ENDSEC
0
SECTION
2
ENTITIES
0
LINE
5
215
100
AcDbEntity
8
0
100
AcDbLine
62
7
6
CONTINUOUS
10
-30.6119109899
20
15.0968946183
11
-34.8652874067
21
12.8576300485
0
LINE
5
216
100
AcDbEntity
8
0
100
AcDbLine
62
9
6
CONTINUOUS
10
-30.4983093013
20
15.0907063067
11
-34.7500586401
21
12.8522983406
0
LINE
5
217
100
AcDbEntity
8
0
100
AcDbLine
62
7
6
CONTINUOUS
10
-30.6083850782
20
15.0986591887
11
-30.6118732384
21
15.0969144932
0
LINE
5
218
100
AcDbEntity
8
0
100
AcDbLine
62
7
6
CONTINUOUS
10
-30.6083410056
20
15.0986800786
11
-24.1333275060
21
18.1706893998
0
LINE
5
219
100
AcDbEntity
8
0
100
AcDbLine
62
9
6
CONTINUOUS
10
-30.4983093013
20
15.0907063067
11
-24.0232649176
21
18.1627302805
0
LINE
5
21A
100
AcDbEntity
8
0
100
AcDbLine
62
7
6
CONTINUOUS
10
-35.1793649629
20
11.3180497515
11
-37.5722384709
21
10.0478670782
0
LINE
5
21B
100
AcDbEntity
8
0
100
AcDbLine
62
9
6
CONTINUOUS
10
-35.1793643075
20
11.2515635598
11
-37.4568750667
21
10.0426176231
0
LINE
5
21C
100
AcDbEntity
8
0
100
AcDbLine
62
7
6
CONTINUOUS
10
-24.8722366271
20
15.2919832292
11
-33.6655765124
21
10.9353201935
0
LINE
5
21D
100
AcDbEntity
8
0
100
AcDbLine
62
9
6
CONTINUOUS
10
-33.8404752291
20
12.3975066351
11
-29.4376599021
21
14.5603816071
0
LINE
5
21E
100
AcDbEntity
8
0
100
AcDbLine
62
9
6
CONTINUOUS
10
-33.6655765124
20
12.0917051473
11
-29.2640168512
21
14.2539632757
0
LINE
5
21F
100
AcDbEntity
8
0
100
AcDbLine
62
9
6
CONTINUOUS
10
-29.4377029856
20
14.5604031488
11
-22.9626586019
21
17.6324271227
0
LINE
5
220
100
AcDbEntity
8
0
100
AcDbLine
62
9
6
CONTINUOUS
10
-29.2640168512
20
14.2539632757
11
-22.7858334368
21
17.3274765332
0
LINE
5
221
100
AcDbEntity
8
0
100
AcDbLine
62
7
6
CONTINUOUS
10
-22.7858334368
20
16.2730902472
11
-24.8722366271
21
15.2919832292
0
LINE
5
222
100
AcDbEntity
8
0
100
AcDbLine
62
7
6
CONTINUOUS
10
-21.1907108290
20
-37.1362674774
11
-38.1070002115
21
-28.6781227862
0
LINE
5
223
100
AcDbEntity
8
0
100
AcDbLine
62
9
6
CONTINUOUS
10
-21.5862290077
20
-36.3221175767
11
-38.4911615520
21
-27.8696513046
0
LINE
5
224
100
AcDbEntity
8
0
100
AcDbLine
62
7
6
CONTINUOUS
10
-36.1853757415
20
-28.7344455374
11
-24.9423779120
21
-34.3559444521
0
LINE
5
225
100
AcDbEntity
8
0
100
AcDbLine
62
9
6
CONTINUOUS
10
-24.3818410303
20
-34.4732570225
11
-24.4419775390
21
-34.4431887682
0
LINE
5
226
100
AcDbEntity
8
0
100
AcDbLine
62
9
6
CONTINUOUS
10
-36.3673009714
20
-28.3558338771
11
-25.1243031506
21
-33.9773327876
0
LINE
5
227
100
AcDbEntity
8
0
100
AcDbLine
62
7
6
CONTINUOUS
10
-26.9981361207
20
13.3446646238
11
-26.6345679881
21
13.5264486901
0
LINE
5
228
100
AcDbEntity
8
0
100
AcDbLine
62
7
6
CONTINUOUS
10
-21.9776779743
20
14.4942229556
11
-21.9069672962
21
14.5295782946
0
LINE
5
229
100
AcDbEntity
8
0
100
AcDbLine
62
7
6
CONTINUOUS
10
-19.9270683089
20
14.8437076833
11
-20.4046369299
21
14.6110486522
0
LINE
5
22A
100
AcDbEntity
8
0
100
AcDbLine
62
7
6
CONTINUOUS
10
-38.5643848567
20
8.2996291673
11
-38.5643848567
21
-27.7812629568
0
LINE
5
22B
100
AcDbEntity
8
0
100
AcDbLine
62
9
6
CONTINUOUS
10
-38.4911615520
20
8.2112408197
11
-38.4911615520
21
-27.8696513046
0
LINE
5
22C
100
AcDbEntity
8
0
100
AcDbLine
62
7
6
CONTINUOUS
10
-38.5643848567
20
-27.7812629560
11
-38.5643847920
21
-27.7811730739
0
LINE
5
22D
100
AcDbEntity
8
0
100
AcDbLine
62
7
6
CONTINUOUS
10
-21.8618746474
20
12.2973805030
11
-22.5673967319
21
11.9292795907
0
LINE
5
22E
100
AcDbEntity
8
0
100
AcDbLine
62
7
6
CONTINUOUS
10
-25.8191518068
20
10.2327005099
11
-26.2219160727
21
10.0225612428
0
LINE
5
22F
100
AcDbEntity
8
0
100
AcDbLine
62
7
6
CONTINUOUS
10
-20.4041476562
20
13.7074577965
11
-20.3340540609
21
13.7431216770
0
LINE
5
230
100
AcDbEntity
8
0
100
AcDbLine
62
7
6
CONTINUOUS
10
-36.7844582590
20
-21.7668975793
11
-36.7844582590
21
-27.7424728764
0
LINE
5
231
100
AcDbEntity
8
0
100
AcDbLine
62
9
6
CONTINUOUS
10
-36.5794330058
20
-22.0143849527
11
-36.5794330058
21
-27.9899602388
0
LINE
5
232
100
AcDbEntity
8
0
100
AcDbLine
62
7
6
CONTINUOUS
10
-35.1793649629
20
11.2510165618
11
-35.1793649629
21
12.4103082379
0
LINE
5
233
100
AcDbEntity
8
0
100
AcDbLine
62
7
6
CONTINUOUS
10
-13.1388432095
20
-29.5290809963
11
-6.8859655318
21
-29.1284260263
0
LINE
5
234
100
AcDbEntity
8
0
100
AcDbLine
62
7
6
CONTINUOUS
10
-13.1388432095
20
-29.2171945949
11
-7.3072456772
21
-28.9177859536
0
LINE
5
235
100
AcDbEntity
8
0
100
AcDbLine
62
9
6
CONTINUOUS
10
-25.1243031506
20
-27.4821422592
11
-36.3673009714
21
-21.8606433488
0
LINE
5
236
100
AcDbEntity
8
0
100
AcDbLine
62
9
6
CONTINUOUS
10
-24.6293284037
20
-26.6284371031
11
-35.8723262246
21
-21.0069381927
0
LINE
5
237
100
AcDbEntity
8
0
100
AcDbLine
62
7
6
CONTINUOUS
10
-35.6435708922
20
-20.7657870927
11
-24.3298623932
21
-26.4226413422
0
LINE
5
238
100
AcDbEntity
8
0
100
AcDbLine
62
9
6
CONTINUOUS
10
-34.9592716992
20
-14.8070183405
11
-34.9592716992
21
-7.0842438915
0
LINE
5
239
100
AcDbEntity
8
0
100
AcDbLine
62
9
6
CONTINUOUS
10
-34.2552636765
20
-14.3755580434
11
-34.2552636765
21
-7.6417115067
0
LINE
5
23A
100
AcDbEntity
8
0
100
AcDbLine
62
9
6
CONTINUOUS
10
-33.6655765124
20
10.9353201935
11
-33.6655765124
21
12.0917051473
0
LINE
5
23B
100
AcDbEntity
8
0
100
AcDbLine
62
7
6
CONTINUOUS
10
-33.5388738467
20
-7.9999064216
11
-33.5388738467
21
-14.0159702154
0
LINE
5
23C
100
AcDbEntity
8
0
100
AcDbLine
62
9
6
CONTINUOUS
10
-32.9793727119
20
-17.1826084802
11
-32.9793727119
21
-15.7969678341
0
LINE
5
23D
100
AcDbEntity
8
0
100
AcDbLine
62
7
6
CONTINUOUS
10
-32.7964117265
20
-8.3711374817
11
-32.7964117265
21
-13.6165270453
0
LINE
5
23E
100
AcDbEntity
8
0
100
AcDbLine
62
7
6
CONTINUOUS
10
-17.1539284188
20
9.0523506627
11
-18.7249867808
21
8.2604372715
0
LINE
5
23F
100
AcDbEntity
8
0
100
AcDbLine
62
7
6
CONTINUOUS
10
-19.1366613532
20
8.0529270894
11
-20.7032883568
21
7.2632473849
0
LINE
5
240
100
AcDbEntity
8
0
100
AcDbLine
62
7
6
CONTINUOUS
10
-14.3409247375
20
11.7780401963
11
-14.8662976969
21
11.5153537166
0
LINE
5
241
100
AcDbEntity
8
0
100
AcDbLine
62
9
6
CONTINUOUS
10
-20.6101141589
20
8.6315442290
11
-20.4520048956
21
8.7105988606
0
LINE
5
242
100
AcDbEntity
8
0
100
AcDbLine
62
7
6
CONTINUOUS
10
-18.5128547465
20
9.1020239367
11
-18.1492866139
21
9.2838080030
0
LINE
5
243
100
AcDbEntity
8
0
100
AcDbLine
62
7
6
CONTINUOUS
10
-18.5128547465
20
8.7556137752
11
-18.1492866139
21
8.9373978415
0
LINE
5
244
100
AcDbEntity
8
0
100
AcDbLine
62
9
6
CONTINUOUS
10
-18.7249867808
20
8.3897401369
11
-19.0078294933
21
8.2483187806
0
LINE
5
245
100
AcDbEntity
8
0
100
AcDbLine
62
7
6
CONTINUOUS
10
-18.7249867808
20
8.1299325157
11
-19.0078294933
21
7.9885111595
0
LINE
5
246
100
AcDbEntity
8
0
100
AcDbLine
62
7
6
CONTINUOUS
10
-14.7830842056
20
10.8969260712
11
-14.7117564448
21
10.9319728689
0
LINE
5
247
100
AcDbEntity
8
0
100
AcDbLine
62
9
6
CONTINUOUS
10
-35.6955495293
20
-20.6576123326
11
-24.3818410303
21
-26.3144665821
0
LINE
5
248
100
AcDbEntity
8
0
100
AcDbLine
62
7
6
CONTINUOUS
10
-32.5842796921
20
-8.4772034989
11
-32.5842796921
21
-13.5104610282
0
LINE
5
249
100
AcDbEntity
8
0
100
AcDbLine
62
7
6
CONTINUOUS
10
-32.5489243530
20
-8.4948811684
11
-32.5489243530
21
-13.4927833586
0
LINE
5
24A
100
AcDbEntity
8
0
100
AcDbLine
62
9
6
CONTINUOUS
10
-32.2753646891
20
-16.7511481831
11
-32.2753646891
21
-15.3655075370
0
LINE
5
24B
100
AcDbEntity
8
0
100
AcDbLine
62
9
6
CONTINUOUS
10
-32.1661999135
20
-18.7583291745
11
-32.1661999135
21
-17.5891948794
0
LINE
5
24C
100
AcDbEntity
8
0
100
AcDbLine
62
7
6
CONTINUOUS
10
-31.5589748594
20
-15.0059197091
11
-31.5589748594
21
-16.3915603551
0
LINE
5
24D
100
AcDbEntity
8
0
100
AcDbLine
62
9
6
CONTINUOUS
10
-31.4621918908
20
-18.3268688774
11
-31.4621918908
21
-17.1577345823
0
LINE
5
24E
100
AcDbEntity
8
0
100
AcDbLine
62
7
6
CONTINUOUS
10
-30.8872234172
20
-14.5711211999
11
-30.8872234172
21
-15.9567618460
0
LINE
5
24F
100
AcDbEntity
8
0
100
AcDbLine
62
7
6
CONTINUOUS
10
-30.7458020610
20
-16.7981467543
11
-30.7458020610
21
-17.9672810494
0
LINE
5
250
100
AcDbEntity
8
0
100
AcDbLine
62
7
6
CONTINUOUS
10
-30.6750913829
20
-14.4650551828
11
-30.6750913829
21
-15.8506958288
0
LINE
5
251
100
AcDbEntity
8
0
100
AcDbLine
62
7
6
CONTINUOUS
10
-30.6397360438
20
-14.4473775132
11
-30.6397360438
21
-15.8330181593
0
LINE
5
252
100
AcDbEntity
8
0
100
AcDbLine
62
7
6
CONTINUOUS
10
-14.4905905129
20
7.0354907729
11
-8.2358040677
21
10.2195697823
0
LINE
5
253
100
AcDbEntity
8
0
100
AcDbLine
62
7
6
CONTINUOUS
10
-13.2095538876
20
10.1101609122
11
-13.1388432095
21
10.1455162513
0
LINE
5
254
100
AcDbEntity
8
0
100
AcDbLine
62
7
6
CONTINUOUS
10
-11.9367616814
20
10.5759586683
11
-12.0273030354
21
10.5306879913
0
LINE
5
255
100
AcDbEntity
8
0
100
AcDbLine
62
7
6
CONTINUOUS
10
-11.1589442221
20
10.4596456399
11
-13.2095538876
21
9.4606418594
0
LINE
5
256
100
AcDbEntity
8
0
100
AcDbLine
62
9
6
CONTINUOUS
10
-27.9111906461
20
-20.8858338082
11
-32.1661999135
21
-18.7583291745
0
LINE
5
257
100
AcDbEntity
8
0
100
AcDbLine
62
9
6
CONTINUOUS
10
-28.0576372555
20
-20.0291461950
11
-31.4621918908
21
-18.3268688774
0
LINE
5
258
100
AcDbEntity
8
0
100
AcDbLine
62
9
6
CONTINUOUS
10
-27.0980178478
20
-20.1232859123
11
-27.9111906461
21
-19.7166995131
0
LINE
5
259
100
AcDbEntity
8
0
100
AcDbLine
62
9
6
CONTINUOUS
10
-32.1661999135
20
-17.5891948794
11
-32.9793727119
21
-17.1826084802
0
LINE
5
25A
100
AcDbEntity
8
0
100
AcDbLine
62
7
6
CONTINUOUS
10
-30.7458020610
20
-17.9672810494
11
-28.0576372555
21
-19.3113634522
0
LINE
5
25B
100
AcDbEntity
8
0
100
AcDbLine
62
7
6
CONTINUOUS
10
-28.0576372555
20
-19.2768108152
11
-30.7458020610
21
-17.9327284124
0
LINE
5
25C
100
AcDbEntity
8
0
100
AcDbLine
62
7
6
CONTINUOUS
10
-30.0033399408
20
-16.3987035842
11
-30.0033399408
21
-17.4379340688
0
LINE
5
25D
100
AcDbEntity
8
0
100
AcDbLine
62
7
6
CONTINUOUS
10
-29.7912079064
20
-16.2926375671
11
-29.7912079064
21
-17.3318680516
0
LINE
5
25E
100
AcDbEntity
8
0
100
AcDbLine
62
7
6
CONTINUOUS
10
-29.7558525673
20
-16.2749598975
11
-29.7558525673
21
-17.3141903821
0
LINE
5
25F
100
AcDbEntity
8
0
100
AcDbLine
62
7
6
CONTINUOUS
10
-29.0487457862
20
-15.9214065069
11
-29.0487457862
21
-16.9606369915
0
LINE
5
260
100
AcDbEntity
8
0
100
AcDbLine
62
7
6
CONTINUOUS
10
-28.0576372555
20
-19.2341313018
11
-28.0576372555
21
-20.4032655969
0
LINE
5
261
100
AcDbEntity
8
0
100
AcDbLine
62
9
6
CONTINUOUS
10
-25.0958694654
20
13.0761027299
11
-25.1125544988
21
13.0048680297
0
LINE
5
262
100
AcDbEntity
8
0
100
AcDbLine
62
9
6
CONTINUOUS
10
-23.1456237807
20
13.2751375270
11
-23.2330269856
21
12.9019802832
0
LINE
5
263
100
AcDbEntity
8
0
100
AcDbLine
62
7
6
CONTINUOUS
10
-14.4918001828
20
7.0348644924
11
-18.7432527956
21
4.7966127430
0
LINE
5
264
100
AcDbEntity
8
0
100
AcDbLine
62
9
6
CONTINUOUS
10
-14.3762746902
20
7.0296890011
11
-18.6280240290
21
4.7912810351
0
LINE
5
265
100
AcDbEntity
8
0
100
AcDbLine
62
7
6
CONTINUOUS
10
-14.4906053655
20
7.0354831941
11
-14.4917879474
21
7.0348709340
0
LINE
5
266
100
AcDbEntity
8
0
100
AcDbLine
62
9
6
CONTINUOUS
10
-14.3762316068
20
7.0296674594
11
-8.1233539291
21
10.2127747863
0
LINE
5
267
100
AcDbEntity
8
0
100
AcDbLine
62
9
6
CONTINUOUS
10
-13.3156252911
20
6.4993643016
11
-7.0627476134
21
9.6824716284
0
LINE
5
268
100
AcDbEntity
8
0
100
AcDbLine
62
9
6
CONTINUOUS
10
-13.1388432095
20
6.1944880133
11
-6.8859655318
21
9.3775953402
0
LINE
5
269
100
AcDbEntity
8
0
100
AcDbLine
62
9
6
CONTINUOUS
10
-20.5214091580
20
1.5748846687
11
-18.1629777268
21
2.7433702695
0
LINE
5
26A
100
AcDbEntity
8
0
100
AcDbLine
62
9
6
CONTINUOUS
10
-17.7184406181
20
4.3364893296
11
-13.3156252911
21
6.4993643016
0
LINE
5
26B
100
AcDbEntity
8
0
100
AcDbLine
62
9
6
CONTINUOUS
10
-17.5435419013
20
4.0306878418
11
-13.1388432095
21
6.1944880133
0
LINE
5
26C
100
AcDbEntity
8
0
100
AcDbLine
62
9
6
CONTINUOUS
10
-27.2444644572
20
-19.2665982991
11
-27.9142624801
21
-18.9316992876
0
LINE
5
26D
100
AcDbEntity
8
0
100
AcDbLine
62
9
6
CONTINUOUS
10
-31.4621918908
20
-17.1577345823
11
-32.2753646891
21
-16.7511481831
0
LINE
5
26E
100
AcDbEntity
8
0
100
AcDbLine
62
7
6
CONTINUOUS
10
-10.3100516960
20
-27.5814393084
11
-7.6066174327
21
-28.9331564400
0
LINE
5
26F
100
AcDbEntity
8
0
100
AcDbLine
62
7
6
CONTINUOUS
10
-6.8859655318
20
-29.1284260263
11
-7.3072456772
21
-28.9177859536
0
LINE
5
270
100
AcDbEntity
8
0
100
AcDbLine
62
7
6
CONTINUOUS
10
-30.0033399408
20
-17.4379340688
11
-27.4736655144
21
-18.7027712820
0
LINE
5
271
100
AcDbEntity
8
0
100
AcDbLine
62
9
6
CONTINUOUS
10
-25.1181188604
20
-19.7275947599
11
-27.0980178478
21
-18.7376452662
0
LINE
5
272
100
AcDbEntity
8
0
100
AcDbLine
62
9
6
CONTINUOUS
10
-32.9793727119
20
-15.7969678341
11
-34.9592716992
21
-14.8070183405
0
LINE
5
273
100
AcDbEntity
8
0
100
AcDbLine
62
7
6
CONTINUOUS
10
-29.7912079064
20
-17.3318680516
11
-27.2656084806
21
-18.5946677645
0
LINE
5
274
100
AcDbEntity
8
0
100
AcDbLine
62
7
6
CONTINUOUS
10
-29.7558525673
20
-17.3141903821
11
-27.2444644572
21
-18.5698844372
0
LINE
5
275
100
AcDbEntity
8
0
100
AcDbLine
62
7
6
CONTINUOUS
10
-31.5589748594
20
-16.3915603551
11
-30.7458020610
21
-16.7981467543
0
LINE
5
276
100
AcDbEntity
8
0
100
AcDbLine
62
9
6
CONTINUOUS
10
-25.2645654698
20
-18.8709071467
11
-27.1010896817
21
-17.9526450407
0
LINE
5
277
100
AcDbEntity
8
0
100
AcDbLine
62
9
6
CONTINUOUS
10
-32.2753646891
20
-15.3655075370
11
-34.2552636765
21
-14.3755580434
0
LINE
5
278
100
AcDbEntity
8
0
100
AcDbLine
62
7
6
CONTINUOUS
10
-30.8872234172
20
-15.9567618460
11
-30.0033399408
21
-16.3987035842
0
LINE
5
279
100
AcDbEntity
8
0
100
AcDbLine
62
7
6
CONTINUOUS
10
-27.1042021379
20
-17.8482724857
11
-27.0002484294
21
-17.9002493399
0
LINE
5
27A
100
AcDbEntity
8
0
100
AcDbLine
62
7
6
CONTINUOUS
10
-11.2337120323
20
-25.7193862680
11
-10.5221808225
21
-26.0751518729
0
LINE
5
27B
100
AcDbEntity
8
0
100
AcDbLine
62
7
6
CONTINUOUS
10
-30.6750913829
20
-15.8506958288
11
-29.7912079064
21
-16.2926375671
0
LINE
5
27C
100
AcDbEntity
8
0
100
AcDbLine
62
7
6
CONTINUOUS
10
-26.8920701035
20
-17.7422064685
11
-26.7921913956
21
-17.7921458224
0
LINE
5
27D
100
AcDbEntity
8
0
100
AcDbLine
62
7
6
CONTINUOUS
10
-30.6397360438
20
-15.8330181593
11
-29.7558525673
21
-16.2749598975
0
LINE
5
27E
100
AcDbEntity
8
0
100
AcDbLine
62
7
6
CONTINUOUS
10
-26.8567147645
20
-17.7245287990
11
-26.7575152233
21
-17.7741285695
0
LINE
5
27F
100
AcDbEntity
8
0
100
AcDbLine
62
7
6
CONTINUOUS
10
-33.5388738467
20
-14.0159702154
11
-31.5589748594
21
-15.0059197091
0
LINE
5
280
100
AcDbEntity
8
0
100
AcDbLine
62
7
6
CONTINUOUS
10
-26.3970953567
20
-17.5868594604
11
-25.2645654698
21
-18.1531244039
0
LINE
5
281
100
AcDbEntity
8
0
100
AcDbLine
62
9
6
CONTINUOUS
10
-27.9111906461
20
-19.7166995131
11
-27.9111906461
21
-20.8858338082
0
LINE
5
282
100
AcDbEntity
8
0
100
AcDbLine
62
7
6
CONTINUOUS
10
-27.4931108676
20
12.2311518466
11
-27.4931108676
21
12.4909594677
0
LINE
5
283
100
AcDbEntity
8
0
100
AcDbLine
62
7
6
CONTINUOUS
10
-27.2444644572
20
-18.2550770549
11
-27.2444644572
21
-19.6407177010
0
LINE
5
284
100
AcDbEntity
8
0
100
AcDbLine
62
7
6
CONTINUOUS
10
-27.1042021379
20
-17.9526450407
11
-27.1042021379
21
-17.8482724857
0
LINE
5
285
100
AcDbEntity
8
0
100
AcDbLine
62
9
6
CONTINUOUS
10
-27.0980178478
20
-18.7376452662
11
-27.0980178478
21
-20.1232859123
0
LINE
5
286
100
AcDbEntity
8
0
100
AcDbLine
62
7
6
CONTINUOUS
10
-26.8567147645
20
-17.7598841380
11
-26.8567147645
21
-17.7245287990
0
LINE
5
287
100
AcDbEntity
8
0
100
AcDbLine
62
7
6
CONTINUOUS
10
-26.2203186614
20
-17.6752478081
11
-26.2203186614
21
-16.9045735778
0
LINE
5
288
100
AcDbEntity
8
0
100
AcDbLine
62
7
6
CONTINUOUS
10
-25.9728312880
20
-16.8161852302
11
-25.9728312880
21
-16.7808298911
0
LINE
5
289
100
AcDbEntity
8
0
100
AcDbLine
62
9
6
CONTINUOUS
10
-22.8697027220
20
13.2181533866
11
-22.9571059269
21
12.8449961428
0
LINE
5
28A
100
AcDbEntity
8
0
100
AcDbLine
62
9
6
CONTINUOUS
10
-20.8190930566
20
12.1928485539
11
-20.8395243161
21
12.1056198018
0
LINE
5
28B
100
AcDbEntity
8
0
100
AcDbLine
62
9
6
CONTINUOUS
10
-21.0653608126
20
11.0608484036
11
-21.0820458461
21
10.9896137033
0
LINE
5
28C
100
AcDbEntity
8
0
100
AcDbLine
62
7
6
CONTINUOUS
10
-6.9879713589
20
6.7571034770
11
-5.4313792945
21
7.5353995092
0
LINE
5
28D
100
AcDbEntity
8
0
100
AcDbLine
62
7
6
CONTINUOUS
10
-5.6435113289
20
7.1695258708
11
-6.7979172701
21
6.5923229002
0
LINE
5
28E
100
AcDbEntity
8
0
100
AcDbLine
62
7
6
CONTINUOUS
10
-5.0071152258
20
6.9335560431
11
-5.2192472602
21
6.8274900259
0
LINE
5
28F
100
AcDbEntity
8
0
100
AcDbLine
62
9
6
CONTINUOUS
10
-20.3458933980
20
1.2693982976
11
-17.5435419013
21
2.6578242356
0
LINE
5
290
100
AcDbEntity
8
0
100
AcDbLine
62
7
6
CONTINUOUS
10
-29.9326292626
20
-15.4794647687
11
-29.0487457862
21
-15.9214065069
0
LINE
5
291
100
AcDbEntity
8
0
100
AcDbLine
62
7
6
CONTINUOUS
10
-32.7964117265
20
-13.6165270453
11
-30.8872234172
21
-14.5711211999
0
LINE
5
292
100
AcDbEntity
8
0
100
AcDbLine
62
7
6
CONTINUOUS
10
-26.2203186614
20
-16.9045735778
11
-25.2645654698
21
-17.3824501736
0
LINE
5
293
100
AcDbEntity
8
0
100
AcDbLine
62
7
6
CONTINUOUS
10
-32.5842796921
20
-13.5104610282
11
-30.6750913829
21
-14.4650551828
0
LINE
5
294
100
AcDbEntity
8
0
100
AcDbLine
62
7
6
CONTINUOUS
10
-26.0081866271
20
-16.7985075607
11
-25.2645654698
21
-17.1703181393
0
LINE
5
295
100
AcDbEntity
8
0
100
AcDbLine
62
7
6
CONTINUOUS
10
-32.5489243530
20
-13.4927833586
11
-30.6397360438
21
-14.4473775132
0
LINE
5
296
100
AcDbEntity
8
0
100
AcDbLine
62
7
6
CONTINUOUS
10
-25.9728312880
20
-16.7808298911
11
-25.2645654698
21
-17.1349628002
0
LINE
5
297
100
AcDbEntity
8
0
100
AcDbLine
62
7
6
CONTINUOUS
10
-25.8908262020
20
11.2719002505
11
-25.7897551070
21
9.8064807600
0
LINE
5
298
100
AcDbEntity
8
0
100
AcDbLine
62
7
6
CONTINUOUS
10
-25.2645654698
20
-12.1338351316
11
-25.2645654698
21
-19.2450265486
0
LINE
5
299
100
AcDbEntity
8
0
100
AcDbLine
62
9
6
CONTINUOUS
10
-25.1181188604
20
-12.0048203109
11
-25.1181188604
21
-19.7275947599
0
LINE
5
29A
100
AcDbEntity
8
0
100
AcDbLine
62
9
6
CONTINUOUS
10
-24.9121711162
20
-33.8235911836
11
-24.9121711162
21
-27.8480158975
0
LINE
5
29B
100
AcDbEntity
8
0
100
AcDbLine
62
7
6
CONTINUOUS
10
-24.0842760766
20
-32.8447548283
11
-24.0842760766
21
-28.9476405113
0
LINE
5
29C
100
AcDbEntity
8
0
100
AcDbLine
62
9
6
CONTINUOUS
10
-23.9222216226
20
-33.8235911836
11
-23.9222216226
21
-32.7843606991
0
LINE
5
29D
100
AcDbEntity
8
0
100
AcDbLine
62
9
6
CONTINUOUS
10
-23.9222216226
20
-28.8872463820
11
-23.9222216226
21
-27.8480158975
0
LINE
5
29E
100
AcDbEntity
8
0
100
AcDbLine
62
7
6
CONTINUOUS
10
-23.5844811587
20
-27.7200314687
11
-23.5844811587
21
-33.7822092951
0
LINE
5
29F
100
AcDbEntity
8
0
100
AcDbLine
62
9
6
CONTINUOUS
10
-23.5259025149
20
-27.7907421468
11
-23.5259025149
21
-33.8529199733
0
LINE
5
2A0
100
AcDbEntity
8
0
100
AcDbLine
62
9
6
CONTINUOUS
10
-19.1151151279
20
11.2598832007
11
-19.2025183328
21
10.8867259568
0
LINE
5
2A1
100
AcDbEntity
8
0
100
AcDbLine
62
9
6
CONTINUOUS
10
-18.8391940693
20
11.2028990603
11
-18.9265972742
21
10.8297418164
0
LINE
5
2A2
100
AcDbEntity
8
0
100
AcDbLine
62
7
6
CONTINUOUS
10
-4.1585870884
20
6.6868713717
11
-5.5728006508
21
5.9797645906
0
LINE
5
2A3
100
AcDbEntity
8
0
100
AcDbLine
62
7
6
CONTINUOUS
10
-9.5325986254
20
1.5957025472
11
-1.7544240324
21
5.4847898437
0
LINE
5
2A4
100
AcDbEntity
8
0
100
AcDbLine
62
7
6
CONTINUOUS
10
-22.7858334368
20
16.2730902472
11
-22.7858334368
21
17.3274765332
0
LINE
5
2A5
100
AcDbEntity
8
0
100
AcDbLine
62
7
6
CONTINUOUS
10
-21.9776779743
20
14.0329108228
11
-21.9776779743
21
14.4942229556
0
LINE
5
2A6
100
AcDbEntity
8
0
100
AcDbLine
62
9
6
CONTINUOUS
10
-21.5862290077
20
-36.3221175767
11
-21.5862290077
21
-0.2412254525
0
LINE
5
2A7
100
AcDbEntity
8
0
100
AcDbLine
62
9
6
CONTINUOUS
10
-21.2357877198
20
-36.3236467041
11
-21.2357877198
21
-0.2427545799
0
LINE
5
2A8
100
AcDbEntity
8
0
100
AcDbLine
62
7
6
CONTINUOUS
10
-20.7111852539
20
7.2671958334
11
-20.6101141589
21
8.6315442290
0
LINE
5
2A9
100
AcDbEntity
8
0
100
AcDbLine
62
7
6
CONTINUOUS
10
-20.4288642577
20
7.4015745943
11
-20.3361816799
21
8.6526872528
0
LINE
5
2AA
100
AcDbEntity
8
0
100
AcDbLine
62
9
6
CONTINUOUS
10
-18.0837342102
20
8.9574581532
11
-17.9963310053
21
9.3306153971
0
LINE
5
2AB
100
AcDbEntity
8
0
100
AcDbLine
62
9
6
CONTINUOUS
10
-16.7885844038
20
10.1775942275
11
-16.8090156634
21
10.0903654754
0
LINE
5
2AC
100
AcDbEntity
8
0
100
AcDbLine
62
7
6
CONTINUOUS
10
-6.8859655318
20
6.8561975499
11
-13.1388432095
21
0.7818081362
0
LINE
5
2AD
100
AcDbEntity
8
0
100
AcDbLine
62
7
6
CONTINUOUS
10
-9.3204665911
20
1.4419609432
11
-1.7544240324
21
5.2249822226
0
LINE
5
2AE
100
AcDbEntity
8
0
100
AcDbLine
62
7
6
CONTINUOUS
10
-1.6483580152
20
5.0420454034
11
-9.2144005739
21
1.2590241241
0
LINE
5
2AF
100
AcDbEntity
8
0
100
AcDbLine
62
7
6
CONTINUOUS
10
-9.0022685395
20
1.1529581069
11
-1.2240939465
21
5.0420454034
0
LINE
5
2B0
100
AcDbEntity
8
0
100
AcDbLine
62
7
6
CONTINUOUS
10
-1.2240939465
20
4.9866225131
11
-0.5169871653
21
5.3401759037
0
LINE
5
2B1
100
AcDbEntity
8
0
100
AcDbLine
62
7
6
CONTINUOUS
10
-0.3048551309
20
4.5270031053
11
-1.2240939465
21
4.0673836976
0
LINE
5
2B2
100
AcDbEntity
8
0
100
AcDbLine
62
7
6
CONTINUOUS
10
-34.5571915304
20
-7.4907475797
11
-25.2658556612
21
-12.1364155143
0
LINE
5
2B3
100
AcDbEntity
8
0
100
AcDbLine
62
9
6
CONTINUOUS
10
-34.9592716992
20
-7.0842438915
11
-25.1181188604
21
-12.0048203109
0
LINE
5
2B4
100
AcDbEntity
8
0
100
AcDbLine
62
7
6
CONTINUOUS
10
-20.4041476562
20
13.3225593080
11
-20.4041476562
21
13.7074577965
0
LINE
5
2B5
100
AcDbEntity
8
0
100
AcDbLine
62
7
6
CONTINUOUS
10
-19.9270683089
20
14.8437076833
11
-19.9270683089
21
14.4805706281
0
LINE
5
2B6
100
AcDbEntity
8
0
100
AcDbLine
62
9
6
CONTINUOUS
10
-19.8210022917
20
10.3576927542
11
-19.8210022917
21
10.6442744130
0
LINE
5
2B7
100
AcDbEntity
8
0
100
AcDbLine
62
9
6
CONTINUOUS
10
-19.0662526016
20
13.3721743745
11
-19.0662526016
21
13.8180596323
0
LINE
5
2B8
100
AcDbEntity
8
0
100
AcDbLine
62
7
6
CONTINUOUS
10
-19.0573295004
20
-36.7081763308
11
-19.0573303518
21
-36.4751867020
0
LINE
5
2B9
100
AcDbEntity
8
0
100
AcDbLine
62
7
6
CONTINUOUS
10
-19.0573303518
20
3.1900058219
11
-19.0573303518
21
4.3492909324
0
LINE
5
2BA
100
AcDbEntity
8
0
100
AcDbLine
62
7
6
CONTINUOUS
10
-19.0078294933
20
7.9885111595
11
-19.0078294933
21
8.2483187806
0
LINE
5
2BB
100
AcDbEntity
8
0
100
AcDbLine
62
7
6
CONTINUOUS
10
-18.7795030507
20
13.4018151541
11
-18.7795030507
21
13.9033348235
0
LINE
5
2BC
100
AcDbEntity
8
0
100
AcDbLine
62
7
6
CONTINUOUS
10
-18.7249867808
20
8.1299325157
11
-18.7249867808
21
8.3897401369
0
LINE
5
2BD
100
AcDbEntity
8
0
100
AcDbLine
62
9
6
CONTINUOUS
10
-18.5128547465
20
8.7556137752
11
-18.5128547465
21
9.1020239367
0
LINE
5
2BE
100
AcDbEntity
8
0
100
AcDbLine
62
9
6
CONTINUOUS
10
-14.8074657991
20
10.6139247382
11
-14.8241508326
21
10.5426900379
0
LINE
5
2BF
100
AcDbEntity
8
0
100
AcDbLine
62
7
6
CONTINUOUS
10
-33.5388738467
20
-14.0159702154
11
-34.2552636765
21
-14.3755580434
0
LINE
5
2C0
100
AcDbEntity
8
0
100
AcDbLine
62
7
6
CONTINUOUS
10
-13.1388432095
20
-3.4744784858
11
-9.2144005739
21
-1.5122571680
0
LINE
5
2C1
100
AcDbEntity
8
0
100
AcDbLine
62
7
6
CONTINUOUS
10
-13.1388432095
20
-3.6866105202
11
-9.0022685395
21
-1.6183231852
0
LINE
5
2C2
100
AcDbEntity
8
0
100
AcDbLine
62
7
6
CONTINUOUS
10
-32.7964117265
20
-13.6165270453
11
-32.5842796921
21
-13.5104610282
0
LINE
5
2C3
100
AcDbEntity
8
0
100
AcDbLine
62
7
6
CONTINUOUS
10
-32.5489243530
20
-13.4927833586
11
-27.5510221628
21
-10.9938322635
0
LINE
5
2C4
100
AcDbEntity
8
0
100
AcDbLine
62
9
6
CONTINUOUS
10
-18.1492866139
20
8.9373978415
11
-18.1492866139
21
9.2838080030
0
LINE
5
2C5
100
AcDbEntity
8
0
100
AcDbLine
62
9
6
CONTINUOUS
10
-17.5435419013
20
4.0306878418
11
-17.5435419013
21
2.6578242356
0
LINE
5
2C6
100
AcDbEntity
8
0
100
AcDbLine
62
9
6
CONTINUOUS
10
-17.5435419013
20
-35.6586651789
11
-17.5435419013
21
-37.0315287850
0
LINE
5
2C7
100
AcDbEntity
8
0
100
AcDbLine
62
7
6
CONTINUOUS
10
-13.3509752438
20
9.8047030716
11
-13.4383784487
21
9.4315458278
0
LINE
5
2C8
100
AcDbEntity
8
0
100
AcDbLine
62
7
6
CONTINUOUS
10
-31.5589748594
20
-15.0059197091
11
-32.2753646891
21
-15.3655075370
0
LINE
5
2C9
100
AcDbEntity
8
0
100
AcDbLine
62
7
6
CONTINUOUS
10
-31.5589748594
20
-16.3915603551
11
-32.2753646891
21
-16.7511481831
0
LINE
5
2CA
100
AcDbEntity
8
0
100
AcDbLine
62
7
6
CONTINUOUS
10
-30.7458020610
20
-16.7981467543
11
-31.4621918908
21
-17.1577345823
0
LINE
5
2CB
100
AcDbEntity
8
0
100
AcDbLine
62
7
6
CONTINUOUS
10
-30.8872234172
20
-14.5711211999
11
-30.6750913829
21
-14.4650551828
0
LINE
5
2CC
100
AcDbEntity
8
0
100
AcDbLine
62
7
6
CONTINUOUS
10
-30.6397360438
20
-14.4473775132
11
-25.6418338536
21
-11.9484264181
0
LINE
5
2CD
100
AcDbEntity
8
0
100
AcDbLine
62
7
6
CONTINUOUS
10
-1.2240939465
20
-0.2459676677
11
0.4729623284
21
0.6025604698
0
LINE
5
2CE
100
AcDbEntity
8
0
100
AcDbLine
62
7
6
CONTINUOUS
10
1.1800691096
20
0.9561138603
11
4.0084962343
21
2.3703274227
0
LINE
5
2CF
100
AcDbEntity
8
0
100
AcDbLine
62
7
6
CONTINUOUS
10
-1.2240939465
20
-0.5057752888
11
0.4729623284
21
0.3427528486
0
LINE
5
2D0
100
AcDbEntity
8
0
100
AcDbLine
62
7
6
CONTINUOUS
10
1.4398767307
20
0.8262100498
11
4.0084962343
21
2.1105198016
0
LINE
5
2D1
100
AcDbEntity
8
0
100
AcDbLine
62
7
6
CONTINUOUS
10
-30.8872234172
20
-15.9567618460
11
-30.6750913829
21
-15.8506958288
0
LINE
5
2D2
100
AcDbEntity
8
0
100
AcDbLine
62
7
6
CONTINUOUS
10
-30.6397360438
20
-15.8330181593
11
-29.9326292626
21
-15.4794647687
0
LINE
5
2D3
100
AcDbEntity
8
0
100
AcDbLine
62
7
6
CONTINUOUS
10
5.6348418310
20
2.2642614055
11
4.9277350499
21
1.9107080149
0
LINE
5
2D4
100
AcDbEntity
8
0
100
AcDbLine
62
7
6
CONTINUOUS
10
2.0993079251
20
0.4964944526
11
1.3922011439
21
0.1429410620
0
LINE
5
2D5
100
AcDbEntity
8
0
100
AcDbLine
62
7
6
CONTINUOUS
10
-25.2645654698
20
-13.2320354127
11
-29.8460267223
21
-15.5227660389
0
LINE
5
2D6
100
AcDbEntity
8
0
100
AcDbLine
62
7
6
CONTINUOUS
10
5.6348418310
20
2.0044537844
11
4.9277350499
21
1.6509003938
0
LINE
5
2D7
100
AcDbEntity
8
0
100
AcDbLine
62
7
6
CONTINUOUS
10
2.0993079251
20
0.2366868314
11
1.3922011439
21
-0.1168665592
0
LINE
5
2D8
100
AcDbEntity
8
0
100
AcDbLine
62
7
6
CONTINUOUS
10
-30.0033399408
20
-16.3987035842
11
-29.7912079064
21
-16.2926375671
0
LINE
5
2D9
100
AcDbEntity
8
0
100
AcDbLine
62
7
6
CONTINUOUS
10
-29.7558525673
20
-16.2749598975
11
-29.0487457862
21
-15.9214065069
0
LINE
5
2DA
100
AcDbEntity
8
0
100
AcDbLine
62
7
6
CONTINUOUS
10
-14.7830842056
20
10.5207575525
11
-14.7830842056
21
10.8969260712
0
LINE
5
2DB
100
AcDbEntity
8
0
100
AcDbLine
62
7
6
CONTINUOUS
10
-26.3970953567
20
-17.5868594604
11
-27.1010896817
21
-17.9526450407
0
LINE
5
2DC
100
AcDbEntity
8
0
100
AcDbLine
62
7
6
CONTINUOUS
10
-30.7458020610
20
-17.9672810494
11
-31.4621918908
21
-18.3268688774
0
LINE
5
2DD
100
AcDbEntity
8
0
100
AcDbLine
62
7
6
CONTINUOUS
10
-30.0033399408
20
-17.4379340688
11
-29.7912079064
21
-17.3318680516
0
LINE
5
2DE
100
AcDbEntity
8
0
100
AcDbLine
62
7
6
CONTINUOUS
10
-29.7558525673
20
-17.3141903821
11
-29.0487457862
21
-16.9606369915
0
LINE
5
2DF
100
AcDbEntity
8
0
100
AcDbLine
62
7
6
CONTINUOUS
10
-36.3195398201
20
-20.9785364055
11
-35.7891419906
21
-20.7133374907
0
LINE
5
2E0
100
AcDbEntity
8
0
100
AcDbLine
62
9
6
CONTINUOUS
10
-35.8723262246
20
-21.0069381927
11
-35.5167974584
21
-20.8291738096
0
LINE
5
2E1
100
AcDbEntity
8
0
100
AcDbLine
62
7
6
CONTINUOUS
10
-26.2203186614
20
-16.9045735778
11
-26.0081866271
21
-16.7985075607
0
LINE
5
2E2
100
AcDbEntity
8
0
100
AcDbLine
62
7
6
CONTINUOUS
10
-25.9728312880
20
-16.7808298911
11
-25.2645654698
21
-16.4266969821
0
LINE
5
2E3
100
AcDbEntity
8
0
100
AcDbLine
62
7
6
CONTINUOUS
10
-27.1042021379
20
-17.8482724857
11
-26.8920701035
21
-17.7422064685
0
LINE
5
2E4
100
AcDbEntity
8
0
100
AcDbLine
62
7
6
CONTINUOUS
10
-26.8567147645
20
-17.7245287990
11
-26.2203186614
21
-17.4063307474
0
LINE
5
2E5
100
AcDbEntity
8
0
100
AcDbLine
62
7
6
CONTINUOUS
10
-13.2095538876
20
9.4606418594
11
-13.2095538876
21
10.1101609122
0
LINE
5
2E6
100
AcDbEntity
8
0
100
AcDbLine
62
7
6
CONTINUOUS
10
-13.1388432095
20
-34.9417608734
11
-13.1388432095
21
6.1944880133
0
LINE
5
2E7
100
AcDbEntity
8
0
100
AcDbLine
62
7
6
CONTINUOUS
10
-11.9367616814
20
10.4854173144
11
-11.9367616814
21
10.5759586683
0
LINE
5
2E8
100
AcDbEntity
8
0
100
AcDbLine
62
7
6
CONTINUOUS
10
-27.2444644572
20
-18.5836816264
11
-27.9142624801
21
-18.9316992876
0
LINE
5
2E9
100
AcDbEntity
8
0
100
AcDbLine
62
7
6
CONTINUOUS
10
-1.4362259808
20
-5.7161330803
11
-2.0726220839
21
-6.0343311318
0
LINE
5
2EA
100
AcDbEntity
8
0
100
AcDbLine
62
7
6
CONTINUOUS
10
-10.3100516960
20
-27.5814393084
11
-10.3100516960
21
-26.4410204959
0
LINE
5
2EB
100
AcDbEntity
8
0
100
AcDbLine
62
7
6
CONTINUOUS
10
-9.5325986254
20
-1.6713561938
11
-9.5325986254
21
1.5957025472
0
LINE
5
2EC
100
AcDbEntity
8
0
100
AcDbLine
62
7
6
CONTINUOUS
10
-9.3204665911
20
1.4419609432
11
-9.3204665911
21
-1.5652901766
0
LINE
5
2ED
100
AcDbEntity
8
0
100
AcDbLine
62
7
6
CONTINUOUS
10
-9.2144005739
20
1.2590241241
11
-9.2144005739
21
-1.5122571680
0
LINE
5
2EE
100
AcDbEntity
8
0
100
AcDbLine
62
7
6
CONTINUOUS
10
-9.1790452348
20
1.2767017936
11
-9.1790452348
21
1.5126716214
0
LINE
5
2EF
100
AcDbEntity
8
0
100
AcDbLine
62
9
6
CONTINUOUS
10
-21.5862290077
20
-0.2412254525
11
-38.4911615520
21
8.2112408197
0
LINE
5
2F0
100
AcDbEntity
8
0
100
AcDbLine
62
7
6
CONTINUOUS
10
-9.0022685395
20
1.1529581069
11
-9.0022685395
21
-1.6183231852
0
LINE
5
2F1
100
AcDbEntity
8
0
100
AcDbLine
62
7
6
CONTINUOUS
10
-7.7294763334
20
2.0014862443
11
-7.7294763334
21
2.2374560721
0
LINE
5
2F2
100
AcDbEntity
8
0
100
AcDbLine
62
7
6
CONTINUOUS
10
-6.8859655318
20
-31.6498238166
11
-6.8859655318
21
-29.1284260263
0
LINE
5
2F3
100
AcDbEntity
8
0
100
AcDbLine
62
7
6
CONTINUOUS
10
-6.8859655318
20
6.8561975499
11
-6.8859655318
21
9.3775953402
0
LINE
5
2F4
100
AcDbEntity
8
0
100
AcDbLine
62
9
6
CONTINUOUS
10
-20.5214091580
20
1.5748846687
11
-37.4568750667
21
10.0426176231
0
LINE
5
2F5
100
AcDbEntity
8
0
100
AcDbLine
62
7
6
CONTINUOUS
10
-5.6435113289
20
6.0151199296
11
-5.6435113289
21
7.1695258708
0
LINE
5
2F6
100
AcDbEntity
8
0
100
AcDbLine
62
7
6
CONTINUOUS
10
-5.4313792945
20
7.5353995092
11
-5.4313792945
21
6.0504752687
0
LINE
5
2F7
100
AcDbEntity
8
0
100
AcDbLine
62
7
6
CONTINUOUS
10
-5.2192472602
20
6.1565412858
11
-5.2192472602
21
6.8274900259
0
LINE
5
2F8
100
AcDbEntity
8
0
100
AcDbLine
62
9
6
CONTINUOUS
10
-24.6293284037
20
-26.6284371031
11
-24.2766488989
21
-26.4520973507
0
LINE
5
2F9
100
AcDbEntity
8
0
100
AcDbLine
62
9
6
CONTINUOUS
10
-2.2847541183
20
-16.0130867522
11
-13.1388432095
21
-21.4401312978
0
LINE
5
2FA
100
AcDbEntity
8
0
100
AcDbLine
62
7
6
CONTINUOUS
10
-12.0781830377
20
-0.4224017810
11
-9.5564364188
21
-1.6832750905
0
LINE
5
2FB
100
AcDbEntity
8
0
100
AcDbLine
62
7
6
CONTINUOUS
10
-9.0022685395
20
-1.6183231852
11
-9.2144005739
21
-1.5122571680
0
LINE
5
2FC
100
AcDbEntity
8
0
100
AcDbLine
62
7
6
CONTINUOUS
10
-2.2847541183
20
-16.0130867522
11
-2.2847541183
21
-6.4002047701
0
LINE
5
2FD
100
AcDbEntity
8
0
100
AcDbLine
62
7
6
CONTINUOUS
10
-2.4414684425
20
-16.2147220765
11
-13.1388432095
21
-21.5634094600
0
LINE
5
2FE
100
AcDbEntity
8
0
100
AcDbLine
62
9
6
CONTINUOUS
10
-23.9222216226
20
-27.8480158975
11
-23.5858826558
21
-27.6798464141
0
LINE
5
2FF
100
AcDbEntity
8
0
100
AcDbLine
62
7
6
CONTINUOUS
10
-23.5844811587
20
-28.7183761501
11
-23.9222216226
21
-28.8872463820
0
LINE
5
300
100
AcDbEntity
8
0
100
AcDbLine
62
7
6
CONTINUOUS
10
-9.2144005739
20
1.2590241241
11
-9.0022685395
21
1.1529581069
0
LINE
5
301
100
AcDbEntity
8
0
100
AcDbLine
62
7
6
CONTINUOUS
10
-11.3603201379
20
2.5095633034
11
-9.5325986254
21
1.5957025472
0
LINE
5
302
100
AcDbEntity
8
0
100
AcDbLine
62
7
6
CONTINUOUS
10
-20.7032883568
20
7.2632473849
11
-26.2219160727
21
10.0225612428
0
LINE
5
303
100
AcDbEntity
8
0
100
AcDbLine
62
7
6
CONTINUOUS
10
-1.7544240324
20
5.2249822226
11
-1.7544240324
21
5.4847898437
0
LINE
5
304
100
AcDbEntity
8
0
100
AcDbLine
62
7
6
CONTINUOUS
10
-1.2240939465
20
-5.3502594420
11
-1.2240939465
21
5.0420454034
0
LINE
5
305
100
AcDbEntity
8
0
100
AcDbLine
62
7
6
CONTINUOUS
10
-12.6442135163
20
-25.7130291245
11
-13.1388432095
21
-25.9546121194
0
LINE
5
306
100
AcDbEntity
8
0
100
AcDbLine
62
7
6
CONTINUOUS
10
-19.0078294933
20
7.9885111595
11
-20.4692309536
21
8.7192118896
0
LINE
5
307
100
AcDbEntity
8
0
100
AcDbLine
62
7
6
CONTINUOUS
10
-26.0317094073
20
11.5004511165
11
-27.4931108676
21
12.2311518466
0
LINE
5
308
100
AcDbEntity
8
0
100
AcDbLine
62
9
6
CONTINUOUS
10
-19.0078294933
20
8.2483187806
11
-27.4931108676
21
12.4909594677
0
LINE
5
309
100
AcDbEntity
8
0
100
AcDbLine
62
7
6
CONTINUOUS
10
-14.3762746902
20
7.0296890011
11
-13.3156252911
21
6.4993643016
0
LINE
5
30A
100
AcDbEntity
8
0
100
AcDbLine
62
7
6
CONTINUOUS
10
-29.4376599021
20
14.5603816071
11
-30.4983093013
21
15.0907063067
0
LINE
5
30B
100
AcDbEntity
8
0
100
AcDbLine
62
9
6
CONTINUOUS
10
-18.5128547465
20
9.1020239367
11
-26.9981361207
21
13.3446646238
0
LINE
5
30C
100
AcDbEntity
8
0
100
AcDbLine
62
9
6
CONTINUOUS
10
-18.1492866139
20
9.2838080030
11
-26.6345679881
21
13.5264486901
0
LINE
5
30D
100
AcDbEntity
8
0
100
AcDbLine
62
9
6
CONTINUOUS
10
-17.9963310053
20
9.3306153971
11
-26.4816123796
21
13.5732560842
0
LINE
5
30E
100
AcDbEntity
8
0
100
AcDbLine
62
7
6
CONTINUOUS
10
-17.2415955192
20
9.0081608652
11
-17.3001329386
21
9.0374295749
0
LINE
5
30F
100
AcDbEntity
8
0
100
AcDbLine
62
7
6
CONTINUOUS
10
-19.0078294933
20
9.9511063550
11
-21.0584391588
21
10.9764111877
0
LINE
5
310
100
AcDbEntity
8
0
100
AcDbLine
62
7
6
CONTINUOUS
10
-23.0383381461
20
11.9663606814
11
-25.0889478115
21
12.9916655141
0
LINE
5
311
100
AcDbEntity
8
0
100
AcDbLine
62
7
6
CONTINUOUS
10
1.3922011439
20
-0.1168665592
11
0.4729623284
21
0.3427528486
0
LINE
5
312
100
AcDbEntity
8
0
100
AcDbLine
62
7
6
CONTINUOUS
10
-18.3904033617
20
9.9289749480
11
-19.8210022917
21
10.6442744130
0
LINE
5
313
100
AcDbEntity
8
0
100
AcDbLine
62
7
6
CONTINUOUS
10
1.3922011439
20
0.1429410620
11
0.4729623284
21
0.6025604698
0
LINE
5
314
100
AcDbEntity
8
0
100
AcDbLine
62
7
6
CONTINUOUS
10
0.4729623284
20
0.3427528486
11
0.4729623284
21
0.6025604698
0
LINE
5
315
100
AcDbEntity
8
0
100
AcDbLine
62
7
6
CONTINUOUS
10
1.3922011439
20
-0.1168665592
11
1.3922011439
21
0.1429410620
0
LINE
5
316
100
AcDbEntity
8
0
100
AcDbLine
62
7
6
CONTINUOUS
10
2.0993079251
20
0.2366868314
11
2.0993079251
21
0.4964944526
0
LINE
5
317
100
AcDbEntity
8
0
100
AcDbLine
62
9
6
CONTINUOUS
10
-23.7860190536
20
-34.2567732541
11
-23.7860669973
21
-34.2567978869
0
LINE
5
318
100
AcDbEntity
8
0
100
AcDbLine
62
7
6
CONTINUOUS
10
-10.3100516960
20
-27.5814393084
11
-13.1388432095
21
-28.9985674222
0
LINE
5
319
100
AcDbEntity
8
0
100
AcDbLine
62
7
6
CONTINUOUS
10
-23.5844811587
20
-32.2619370766
11
-24.0842760766
21
-32.5118345355
0
LINE
5
31A
100
AcDbEntity
8
0
100
AcDbLine
62
7
6
CONTINUOUS
10
-23.5844811587
20
-32.6154904671
11
-23.9222216226
21
-32.7843606991
0
LINE
5
31B
100
AcDbEntity
8
0
100
AcDbLine
62
9
6
CONTINUOUS
10
-23.9222216226
20
-33.8235911836
11
-23.5844811587
21
-33.6547209517
0
LINE
5
31C
100
AcDbEntity
8
0
100
AcDbLine
62
7
6
CONTINUOUS
10
-24.1821148082
20
-34.3644649840
11
-23.6439202828
21
-34.0953677213
0
LINE
5
31D
100
AcDbEntity
8
0
100
AcDbLine
62
9
6
CONTINUOUS
10
-13.1388432095
20
-27.3803876432
11
-10.5221808225
21
-26.0751518729
0
LINE
5
31E
100
AcDbEntity
8
0
100
AcDbLine
62
9
6
CONTINUOUS
10
-13.1388432095
20
-27.8520698879
11
-10.3100516960
21
-26.4410204959
0
LINE
5
31F
100
AcDbEntity
8
0
100
AcDbLine
62
7
6
CONTINUOUS
10
-18.0837342102
20
8.9574581532
11
-13.4383784487
21
9.4315458278
0
LINE
5
320
100
AcDbEntity
8
0
100
AcDbLine
62
7
6
CONTINUOUS
10
-17.9963310053
20
9.3306153971
11
-13.3509752438
21
9.8047030716
0
LINE
5
321
100
AcDbEntity
8
0
100
AcDbLine
62
7
6
CONTINUOUS
10
-22.9571059269
20
12.8449961428
11
-21.3700635384
21
12.0514749485
0
LINE
5
322
100
AcDbEntity
8
0
100
AcDbLine
62
7
6
CONTINUOUS
10
-18.9265972742
20
10.8297418164
11
-17.3395548857
21
10.0362206221
0
LINE
5
323
100
AcDbEntity
8
0
100
AcDbLine
62
7
6
CONTINUOUS
10
1.1800691096
20
0.9561138603
11
2.0993079251
21
0.4964944526
0
LINE
5
324
100
AcDbEntity
8
0
100
AcDbLine
62
7
6
CONTINUOUS
10
-22.8697027220
20
13.2181533866
11
-20.8190930566
21
12.1928485539
0
LINE
5
325
100
AcDbEntity
8
0
100
AcDbLine
62
7
6
CONTINUOUS
10
-18.8391940693
20
11.2028990603
11
-16.7885844038
21
10.1775942275
0
LINE
5
326
100
AcDbEntity
8
0
100
AcDbLine
62
7
6
CONTINUOUS
10
-24.8722366271
20
15.2919832292
11
-22.2902848351
21
14.0010073331
0
LINE
5
327
100
AcDbEntity
8
0
100
AcDbLine
62
7
6
CONTINUOUS
10
-13.4082889195
20
9.5600093754
11
-11.4524550830
21
8.5820924571
0
LINE
5
328
100
AcDbEntity
8
0
100
AcDbLine
62
7
6
CONTINUOUS
10
-3.2408067820
20
4.4817908478
11
-3.1103327289
21
4.4165538212
0
LINE
5
329
100
AcDbEntity
8
0
100
AcDbLine
62
7
6
CONTINUOUS
10
-21.8362566181
20
14.0473437587
11
-20.3866877166
21
13.3225593080
0
LINE
5
32A
100
AcDbEntity
8
0
100
AcDbLine
62
7
6
CONTINUOUS
10
-13.3509752438
20
9.8047030716
11
-14.8005441453
21
10.5294875223
0
LINE
5
32B
100
AcDbEntity
8
0
100
AcDbLine
62
7
6
CONTINUOUS
10
-7.0353758200
20
6.7110521752
11
-5.5728006508
21
5.9797645906
0
LINE
5
32C
100
AcDbEntity
8
0
100
AcDbLine
62
7
6
CONTINUOUS
10
-21.9776779743
20
14.4942229556
11
-20.4041476562
21
13.7074577965
0
LINE
5
32D
100
AcDbEntity
8
0
100
AcDbLine
62
7
6
CONTINUOUS
10
-14.7830842056
20
10.8969260712
11
-13.2095538876
21
10.1101609122
0
LINE
5
32E
100
AcDbEntity
8
0
100
AcDbLine
62
7
6
CONTINUOUS
10
-21.9069672962
20
14.5295782946
11
-20.3340540609
21
13.7431216770
0
LINE
5
32F
100
AcDbEntity
8
0
100
AcDbLine
62
7
6
CONTINUOUS
10
-14.7117564448
20
10.9319728689
11
-13.1388432095
21
10.1455162513
0
LINE
5
330
100
AcDbEntity
8
0
100
AcDbLine
62
7
6
CONTINUOUS
10
4.0084962343
20
2.1105198016
11
4.0084962343
21
2.3703274227
0
LINE
5
331
100
AcDbEntity
8
0
100
AcDbLine
62
7
6
CONTINUOUS
10
4.9277350499
20
1.6509003938
11
4.9277350499
21
1.9107080149
0
LINE
5
332
100
AcDbEntity
8
0
100
AcDbLine
62
7
6
CONTINUOUS
10
-16.7816627500
20
10.0931570117
11
-18.7319084347
21
9.8941222146
0
LINE
5
333
100
AcDbEntity
8
0
100
AcDbLine
62
7
6
CONTINUOUS
10
-14.7830842056
20
10.6164130326
11
-14.8074657991
21
10.6139247382
0
LINE
5
334
100
AcDbEntity
8
0
100
AcDbLine
62
7
6
CONTINUOUS
10
-20.5948718818
20
10.7446275492
11
-19.2025183328
21
10.8867259568
0
LINE
5
335
100
AcDbEntity
8
0
100
AcDbLine
62
7
6
CONTINUOUS
10
-21.0653608126
20
11.0608484036
11
-19.1151151279
21
11.2598832007
0
LINE
5
336
100
AcDbEntity
8
0
100
AcDbLine
62
7
6
CONTINUOUS
10
-13.1388432095
20
10.1455162513
11
-11.6365128432
21
10.2269866088
0
LINE
5
337
100
AcDbEntity
8
0
100
AcDbLine
62
7
6
CONTINUOUS
10
-14.7117564448
20
10.9319728689
11
-13.4216323070
21
10.9957494850
0
LINE
5
338
100
AcDbEntity
8
0
100
AcDbLine
62
9
6
CONTINUOUS
10
-13.9149152350
20
10.9713642999
11
-18.7758169433
21
13.4018151541
0
LINE
5
339
100
AcDbEntity
8
0
100
AcDbLine
62
7
6
CONTINUOUS
10
-18.5699819183
20
13.3671958273
11
-13.7906089016
21
10.9775093189
0
LINE
5
33A
100
AcDbEntity
8
0
100
AcDbLine
62
7
6
CONTINUOUS
10
4.9277350499
20
1.6509003938
11
4.0084962343
21
2.1105198016
0
LINE
5
33B
100
AcDbEntity
8
0
100
AcDbLine
62
7
6
CONTINUOUS
10
-0.5646627521
20
4.3970992948
11
-1.2240939465
21
4.7268148920
0
LINE
5
33C
100
AcDbEntity
8
0
100
AcDbLine
62
7
6
CONTINUOUS
10
-5.2192472602
20
6.8274900259
11
-4.5482985201
21
6.4920156559
0
LINE
5
33D
100
AcDbEntity
8
0
100
AcDbLine
62
7
6
CONTINUOUS
10
-1.8843278429
20
5.1600303173
11
-1.6483580152
21
5.0420454034
0
LINE
5
33E
100
AcDbEntity
8
0
100
AcDbLine
62
7
6
CONTINUOUS
10
4.9277350499
20
1.9107080149
11
4.0084962343
21
2.3703274227
0
LINE
5
33F
100
AcDbEntity
8
0
100
AcDbLine
62
7
6
CONTINUOUS
10
-0.3048551309
20
4.5270031053
11
-1.2240939465
21
4.9866225131
0
LINE
5
340
100
AcDbEntity
8
0
100
AcDbLine
62
7
6
CONTINUOUS
10
-1.2240939465
20
5.0420454034
11
-1.7544240324
21
5.3072104464
0
LINE
5
341
100
AcDbEntity
8
0
100
AcDbLine
62
7
6
CONTINUOUS
10
-4.3361664857
20
6.5980816731
11
-5.0071152258
21
6.9335560431
0
LINE
5
342
100
AcDbEntity
8
0
100
AcDbLine
62
9
6
CONTINUOUS
10
-20.2992779237
20
14.6167621997
11
-18.8218347482
21
13.8780406120
0
LINE
5
343
100
AcDbEntity
8
0
100
AcDbLine
62
9
6
CONTINUOUS
10
-13.0085970124
20
10.9714217440
11
-11.5773611144
21
10.2558037951
0
LINE
5
344
100
AcDbEntity
8
0
100
AcDbLine
62
7
6
CONTINUOUS
10
-20.1349828574
20
14.5845279023
11
-18.7822484149
21
13.9081606811
0
LINE
5
345
100
AcDbEntity
8
0
100
AcDbLine
62
7
6
CONTINUOUS
10
-12.7196013320
20
10.8768371396
11
-11.5267993754
21
10.2804361614
0
LINE
5
346
100
AcDbEntity
8
0
100
AcDbLine
62
7
6
CONTINUOUS
10
-1.7544240324
20
5.4847898437
11
-4.1585870884
21
6.6868713717
0
LINE
5
347
100
AcDbEntity
8
0
100
AcDbLine
62
7
6
CONTINUOUS
10
-11.9367616814
20
10.5759586683
11
-14.3409247375
21
11.7780401963
0
LINE
5
348
100
AcDbEntity
8
0
100
AcDbLine
62
7
6
CONTINUOUS
10
-5.4313792945
20
7.5353995092
11
-6.8859655318
21
8.2626926278
0
LINE
5
349
100
AcDbEntity
8
0
100
AcDbLine
62
7
6
CONTINUOUS
10
-22.7858334368
20
16.2730902472
11
-19.9270683089
21
14.8437076833
0
LINE
5
34A
100
AcDbEntity
8
0
100
AcDbLine
62
7
6
CONTINUOUS
10
-11.1589442221
20
10.4596456399
11
-9.4463275727
21
9.6033373152
0
LINE
5
34B
100
AcDbEntity
8
0
100
AcDbLine
62
7
6
CONTINUOUS
10
-0.5169871653
20
5.3401759037
11
5.6348418310
21
2.2642614055
0
LINE
5
34C
100
AcDbEntity
8
0
100
AcDbLine
62
7
6
CONTINUOUS
10
-7.0627476134
20
9.6824716284
11
-8.1233539291
21
10.2127747863
0
LINE
5
34D
100
AcDbEntity
8
0
100
AcDbLine
62
7
6
CONTINUOUS
10
-22.9626586019
20
17.6324271227
11
-24.0232649176
21
18.1627302805
0
LINE
5
34E
100
AcDbEntity
8
0
100
AcDbLine
62
7
6
CONTINUOUS
10
5.6348418310
20
2.0044537844
11
5.6348418310
21
2.2642614055
0
LINE
5
34F
100
AcDbEntity
8
0
100
AcDbLine
62
9
6
CONTINUOUS
10
-17.5435419013
20
-35.6586651789
11
-20.3458933980
21
-36.9764386243
0
LINE
5
350
100
AcDbEntity
8
0
100
AcDbLine
62
7
6
CONTINUOUS
10
-17.8949753533
20
-35.9286026804
11
-20.4131735208
21
-37.1127563026
0
LINE
5
351
100
AcDbEntity
8
0
100
AcDbLine
62
7
6
CONTINUOUS
10
-20.8121714028
20
12.1084113381
11
-22.7624170874
21
11.9093765410
0
LINE
5
352
100
AcDbEntity
8
0
100
AcDbLine
62
7
6
CONTINUOUS
10
-24.6253805346
20
12.7598818756
11
-23.2330269856
21
12.9019802832
0
LINE
5
353
100
AcDbEntity
8
0
100
AcDbLine
62
7
6
CONTINUOUS
10
-18.7758169433
20
13.4018151541
11
-20.1107666580
21
13.2655751676
0
LINE
5
354
100
AcDbEntity
8
0
100
AcDbLine
62
7
6
CONTINUOUS
10
-25.0958694654
20
13.0761027299
11
-23.1456237807
21
13.2751375270
0
LINE
5
355
100
AcDbEntity
8
0
100
AcDbLine
62
7
6
CONTINUOUS
10
-20.3340540609
20
13.7431216770
11
-19.0662526016
21
13.8180596323
0
LINE
5
356
100
AcDbEntity
8
0
100
AcDbLine
62
9
6
CONTINUOUS
10
-13.1388432095
20
-34.9417608734
11
-6.8859655318
21
-31.6498238166
0
LINE
5
357
100
AcDbEntity
8
0
100
AcDbLine
62
7
6
CONTINUOUS
10
-13.2020236025
20
-35.0760433917
11
-6.9491690377
21
-31.7841185031
0
LINE
5
358
100
AcDbEntity
8
0
100
AcDbLine
62
7
6
CONTINUOUS
10
-13.2020613540
20
-35.0760632667
11
-13.2055495141
21
-35.0778079621
0
LINE
5
359
100
AcDbEntity
8
0
100
AcDbLine
62
9
6
CONTINUOUS
10
-17.5435419013
20
-37.0315287850
11
-13.1388432095
21
-34.9417608734
0
LINE
5
35A
100
AcDbEntity
8
0
100
AcDbLine
62
7
6
CONTINUOUS
10
-17.6100453900
20
-37.1674796296
11
-13.2055935868
21
-35.0778288520
0
LINE
5
35B
100
AcDbEntity
8
0
100
AcDbLine
62
7
6
CONTINUOUS
10
-26.4816123796
20
13.5732560842
11
-21.8362566181
21
14.0473437587
0
LINE
5
35C
100
AcDbEntity
8
0
100
AcDbLine
62
7
6
CONTINUOUS
10
-20.2992779237
20
14.6167621997
11
-21.9069672962
21
14.5295782946
0
SPLINE
5
35D
100
AcDbEntity
8
0
100
AcDbSpline
62
7
6
CONTINUOUS
70
0
71
3
72
11
73
7
74
5
42
0.0000001000
43
0.0000001000
44
0.0000000001
12
0.0832820003
22
0.0415822957
32
0.0000000000
13
0.0829422948
23
-0.0414711474
33
0.0000000000
40
0.0000000000
40
0.0000000000
40
0.0000000000
40
0.0000000000
40
0.1698017477
40
0.4239833087
40
0.6985785075
40
1.0000000000
40
1.0000000000
40
1.0000000000
40
1.0000000000
10
-20.5586811025
20
8.7248831891
30
0.0000000000
10
-20.5539672928
20
8.7272367713
30
0.0000000000
10
-20.5415771669
20
8.7318852244
30
0.0000000000
10
-20.5198066762
20
8.7341293198
30
0.0000000000
10
-20.4942373350
20
8.7300002545
30
0.0000000000
10
-20.4775644837
20
8.7233786547
30
0.0000000000
10
-20.4692309536
20
8.7192118896
30
0.0000000000
11
-20.5586811025
21
8.7248831891
31
0.0000000000
11
-20.5439110252
21
8.7304329771
31
0.0000000000
11
-20.5204874325
21
8.7330635466
31
0.0000000000
11
-20.4953062543
21
8.7292799374
31
0.0000000000
11
-20.4692309536
21
8.7192118896
31
0.0000000000
0
SPLINE
5
35E
100
AcDbEntity
8
0
100
AcDbSpline
62
7
6
CONTINUOUS
70
0
71
3
72
11
73
7
74
5
42
0.0000001000
43
0.0000001000
44
0.0000000001
12
-0.0145939321
22
-0.0613302985
32
0.0000000000
13
-0.0614548224
23
-0.0062718499
33
0.0000000000
40
0.0000000000
40
0.0000000000
40
0.0000000000
40
0.0000000000
40
0.0966540175
40
0.3156819854
40
0.6136554429
40
1.0000000000
40
1.0000000000
40
1.0000000000
40
1.0000000000
10
-16.7284610807
20
10.1182834105
30
0.0000000000
10
-16.7289312681
20
10.1163074705
30
0.0000000000
10
-16.7314932763
20
10.1100830095
30
0.0000000000
10
-16.7421221803
20
10.1022144672
30
0.0000000000
10
-16.7597372528
20
10.0961388279
30
0.0000000000
10
-16.7737485046
20
10.0939647100
30
0.0000000000
10
-16.7816627500
20
10.0931570117
30
0.0000000000
11
-16.7284610807
21
10.1182834105
31
0.0000000000
11
-16.7307725150
21
10.1126999655
31
0.0000000000
11
-16.7409570020
21
10.1037924601
31
0.0000000000
11
-16.7581405314
21
10.0971936122
31
0.0000000000
11
-16.7816627500
21
10.0931570117
31
0.0000000000
0
SPLINE
5
35F
100
AcDbEntity
8
0
100
AcDbSpline
62
7
6
CONTINUOUS
70
0
71
3
72
11
73
7
74
5
42
0.0000001000
43
0.0000001000
44
0.0000000001
12
-0.0145939321
22
-0.0613302985
32
0.0000000000
13
-0.0614548224
23
-0.0062718499
33
0.0000000000
40
0.0000000000
40
0.0000000000
40
0.0000000000
40
0.0000000000
40
0.0966540175
40
0.3156819854
40
0.6136554429
40
1.0000000000
40
1.0000000000
40
1.0000000000
40
1.0000000000
10
-20.7589697335
20
12.1335377368
30
0.0000000000
10
-20.7594399209
20
12.1315617969
30
0.0000000000
10
-20.7620019290
20
12.1253373359
30
0.0000000000
10
-20.7726308330
20
12.1174687936
30
0.0000000000
10
-20.7902459056
20
12.1113931543
30
0.0000000000
10
-20.8042571574
20
12.1092190364
30
0.0000000000
10
-20.8121714028
20
12.1084113381
30
0.0000000000
11
-20.7589697335
21
12.1335377368
31
0.0000000000
11
-20.7612811677
21
12.1279542918
31
0.0000000000
11
-20.7714656547
21
12.1190467865
31
0.0000000000
11
-20.7886491842
21
12.1124479386
31
0.0000000000
11
-20.8121714028
21
12.1084113381
31
0.0000000000
0
SPLINE
5
360
100
AcDbEntity
8
0
100
AcDbSpline
62
7
6
CONTINUOUS
70
0
71
3
72
9
73
5
74
3
42
0.0000001000
43
0.0000001000
44
0.0000000001
12
-0.1119495102
22
0.0560459254
32
0.0000000000
13
-0.1239910689
23
0.0133468475
33
0.0000000000
40
0.0000000000
40
0.0000000000
40
0.0000000000
40
0.0000000000
40
0.1736013343
40
1.0000000000
40
1.0000000000
40
1.0000000000
40
1.0000000000
10
-18.5700485826
20
13.3672174005
30
0.0000000000
10
-18.5765267774
20
13.3704606163
30
0.0000000000
10
-18.6144473490
20
13.3879414167
30
0.0000000000
10
-18.6554760905
20
13.3981681081
30
0.0000000000
10
-18.6896314418
20
13.4018447138
30
0.0000000000
11
-18.5700485826
21
13.3672174005
31
0.0000000000
11
-18.5897865733
21
13.3763113767
31
0.0000000000
11
-18.6896314418
21
13.4018447138
31
0.0000000000
0
SPLINE
5
361
100
AcDbEntity
8
0
100
AcDbSpline
62
7
6
CONTINUOUS
70
0
71
3
72
9
73
5
74
3
42
0.0000001000
43
0.0000001000
44
0.0000000001
12
-0.0858076653
22
0.0092366477
32
0.0000000000
13
-0.0858574017
23
-0.0087622860
33
0.0000000000
40
0.0000000000
40
0.0000000000
40
0.0000000000
40
0.0000000000
40
0.4913326222
40
1.0000000000
40
1.0000000000
40
1.0000000000
40
1.0000000000
10
-18.6896314418
20
13.4018447138
30
0.0000000000
10
-18.7036848102
20
13.4033574692
30
0.0000000000
10
-18.7324778127
20
13.4048388438
30
0.0000000000
10
-18.7612593235
20
13.4033008504
30
0.0000000000
10
-18.7758169433
20
13.4018151541
30
0.0000000000
11
-18.6896314418
21
13.4018447138
31
0.0000000000
11
-18.7319759188
21
13.4040842657
31
0.0000000000
11
-18.7758169433
21
13.4018151541
31
0.0000000000
0
SPLINE
5
362
100
AcDbEntity
8
0
100
AcDbSpline
62
7
6
CONTINUOUS
70
0
71
3
72
15
73
11
74
9
42
0.0000001000
43
0.0000001000
44
0.0000000001
12
-0.2830840723
22
-0.0288905041
32
0.0000000000
13
-0.2545132660
23
0.1272566330
33
0.0000000000
40
0.0000000000
40
0.0000000000
40
0.0000000000
40
0.0000000000
40
0.1018680046
40
0.2189296968
40
0.3474096568
40
0.4829133080
40
0.6206942281
40
0.7558954912
40
0.8837854688
40
1.0000000000
40
1.0000000000
40
1.0000000000
40
1.0000000000
10
-20.1107666580
20
13.2655751676
30
0.0000000000
10
-20.1203790612
20
13.2645941616
30
0.0000000000
10
-20.1411750439
20
13.2638196108
30
0.0000000000
10
-20.1741152525
20
13.2653945677
30
0.0000000000
10
-20.2100392662
20
13.2695934545
30
0.0000000000
10
-20.2475786479
20
13.2762691211
30
0.0000000000
10
-20.2853070654
20
13.2851748904
30
0.0000000000
10
-20.3217881431
20
13.2959712521
30
0.0000000000
10
-20.3556319589
20
13.3082406283
30
0.0000000000
10
-20.3768283367
20
13.3176296180
30
0.0000000000
10
-20.3866877166
20
13.3225593080
30
0.0000000000
11
-20.1107666580
21
13.2655751676
31
0.0000000000
11
-20.1397236200
21
13.2642559388
31
0.0000000000
11
-20.1730025255
21
13.2657047789
31
0.0000000000
11
-20.2093244850
21
13.2698660099
31
0.0000000000
11
-20.2472936659
21
13.2765797178
31
0.0000000000
11
-20.2854509338
21
13.2855878988
31
0.0000000000
11
-20.3223299264
21
13.2965443735
31
0.0000000000
11
-20.3565134046
21
13.3090280906
31
0.0000000000
11
-20.3866877166
21
13.3225593080
31
0.0000000000
0
SPLINE
5
363
100
AcDbEntity
8
0
100
AcDbSpline
62
7
6
CONTINUOUS
70
0
71
3
72
10
73
6
74
4
42
0.0000001000
43
0.0000001000
44
0.0000000001
12
0.1437626329
22
0.0718813165
32
0.0000000000
13
0.1599009443
23
0.0163188937
33
0.0000000000
40
0.0000000000
40
0.0000000000
40
0.0000000000
40
0.0000000000
40
0.3511381091
40
0.6840818606
40
1.0000000000
40
1.0000000000
40
1.0000000000
40
1.0000000000
10
-26.6345679881
20
13.5264486901
30
0.0000000000
10
-26.6177411418
20
13.5348621133
30
0.0000000000
10
-26.5841061515
20
13.5496346485
30
0.0000000000
10
-26.5328157124
20
13.5655129739
30
0.0000000000
10
-26.4984509158
20
13.5715376060
30
0.0000000000
10
-26.4816123796
20
13.5732560842
30
0.0000000000
11
-26.6345679881
21
13.5264486901
31
0.0000000000
11
-26.5828290385
21
13.5489972405
31
0.0000000000
11
-26.5316569516
21
13.5646568953
31
0.0000000000
11
-26.4816123796
21
13.5732560842
31
0.0000000000
0
SPLINE
5
364
100
AcDbEntity
8
0
100
AcDbSpline
62
7
6
CONTINUOUS
70
0
71
3
72
12
73
8
74
6
42
0.0000001000
43
0.0000001000
44
0.0000000001
12
-0.0794482303
22
0.0397241152
32
0.0000000000
13
0.0209848366
23
0.0881877676
33
0.0000000000
40
0.0000000000
40
0.0000000000
40
0.0000000000
40
0.0000000000
40
0.3229543341
40
0.5878371421
40
0.7912834233
40
0.9408237800
40
1.0000000000
40
1.0000000000
40
1.0000000000
40
1.0000000000
10
-14.8005441453
20
10.5294875223
30
0.0000000000
10
-14.8090968620
20
10.5337638807
30
0.0000000000
10
-14.8243625818
20
10.5421690294
30
0.0000000000
10
-14.8434803163
20
10.5559220760
30
0.0000000000
10
-14.8561850490
20
10.5691451318
30
0.0000000000
10
-14.8616823760
20
10.5807315854
30
0.0000000000
10
-14.8610814028
20
10.5870587998
30
0.0000000000
10
-14.8606674683
20
10.5887983394
30
0.0000000000
11
-14.8005441453
21
10.5294875223
31
0.0000000000
11
-14.8255497091
21
10.5435462429
31
0.0000000000
11
-14.8444255750
21
10.5575921978
31
0.0000000000
11
-14.8564463541
21
10.5710856090
31
0.0000000000
11
-14.8611500945
21
10.5835079322
31
0.0000000000
11
-14.8606674683
21
10.5887983394
31
0.0000000000
0
SPLINE
5
365
100
AcDbEntity
8
0
100
AcDbSpline
62
7
6
CONTINUOUS
70
0
71
3
72
13
73
9
74
7
42
0.0000001000
43
0.0000001000
44
0.0000000001
12
0.0000000000
22
1.0295482093
32
0.0000000000
13
0.9208559129
23
0.4604279564
33
0.0000000000
40
0.0000000000
40
0.0000000000
40
0.0000000000
40
0.0000000000
40
0.1614219316
40
0.3342559043
40
0.5116973510
40
0.6862432064
40
0.8508246292
40
1.0000000000
40
1.0000000000
40
1.0000000000
40
1.0000000000
10
-27.4931108676
20
12.4909594677
30
0.0000000000
10
-27.4931108676
20
12.5463566880
30
0.0000000000
10
-27.4804232897
20
12.6612293878
30
0.0000000000
10
-27.4307309714
20
12.8304247146
30
0.0000000000
10
-27.3527995147
20
12.9936462255
30
0.0000000000
10
-27.2516458655
20
13.1402148938
30
0.0000000000
10
-27.1338988299
20
13.2606146422
30
0.0000000000
10
-27.0439257948
20
13.3217697868
30
0.0000000000
10
-26.9981361207
20
13.3446646238
30
0.0000000000
11
-27.4931108676
21
12.4909594677
31
0.0000000000
11
-27.4762450120
21
12.6562931031
31
0.0000000000
11
-27.4267968257
21
12.8272253800
31
0.0000000000
11
-27.3481361207
21
12.9921075461
31
0.0000000000
11
-27.2456234941
21
13.1397031544
31
0.0000000000
11
-27.1262450120
21
13.2599538081
31
0.0000000000
11
-26.9981361207
21
13.3446646238
31
0.0000000000
0
SPLINE
5
366
100
AcDbEntity
8
0
100
AcDbSpline
62
7
6
CONTINUOUS
70
0
71
3
72
15
73
11
74
9
42
0.0000001000
43
0.0000001000
44
0.0000000001
12
0.2495447045
22
-0.1247723523
32
0.0000000000
13
0.0191971987
23
-0.2783382241
33
0.0000000000
40
0.0000000000
40
0.0000000000
40
0.0000000000
40
0.0000000000
40
0.1096655338
40
0.2281053033
40
0.3536807021
40
0.4841159681
40
0.6167482564
40
0.7487500837
40
0.8773406044
40
1.0000000000
40
1.0000000000
40
1.0000000000
40
1.0000000000
10
-26.0317094073
20
11.5004511165
30
0.0000000000
10
-26.0225872562
20
11.4958900409
30
0.0000000000
10
-26.0044860378
20
11.4846041693
30
0.0000000000
10
-25.9794505426
20
11.4631177302
30
0.0000000000
10
-25.9561839349
20
11.4370806235
30
0.0000000000
10
-25.9354642870
20
11.4073661369
30
0.0000000000
10
-25.9179762886
20
11.3749651951
30
0.0000000000
10
-25.9043055475
20
11.3409596647
30
0.0000000000
10
-25.8949106059
20
11.3064956683
30
0.0000000000
10
-25.8916111076
20
11.2832805166
30
0.0000000000
10
-25.8908262020
20
11.2719002505
30
0.0000000000
11
-26.0317094073
21
11.5004511165
31
0.0000000000
11
-26.0056341066
21
11.4844438636
31
0.0000000000
11
-25.9804529283
21
11.4630462945
31
0.0000000000
11
-25.9570293357
21
11.4369921323
31
0.0000000000
11
-25.9361665239
21
11.4071747747
31
0.0000000000
11
-25.9185798791
21
11.3746166592
31
0.0000000000
11
-25.9048724478
21
11.3404342043
31
0.0000000000
11
-25.8955142579
21
11.3057995268
31
0.0000000000
11
-25.8908262020
21
11.2719002505
31
0.0000000000
0
SPLINE
5
367
100
AcDbEntity
8
0
100
AcDbSpline
62
7
6
CONTINUOUS
70
0
71
3
72
15
73
11
74
9
42
0.0000001000
43
0.0000001000
44
0.0000000001
12
-0.2830840723
22
-0.0288905041
32
0.0000000000
13
-0.2545132660
23
0.1272566330
33
0.0000000000
40
0.0000000000
40
0.0000000000
40
0.0000000000
40
0.0000000000
40
0.1018680046
40
0.2189296968
40
0.3474096568
40
0.4829133080
40
0.6206942281
40
0.7558954912
40
0.8837854688
40
1.0000000000
40
1.0000000000
40
1.0000000000
40
1.0000000000
10
-18.7319084347
20
9.8941222146
30
0.0000000000
10
-18.7415208379
20
9.8931412086
30
0.0000000000
10
-18.7623168206
20
9.8923666578
30
0.0000000000
10
-18.7952570291
20
9.8939416146
30
0.0000000000
10
-18.8311810428
20
9.8981405015
30
0.0000000000
10
-18.8687204246
20
9.9048161681
30
0.0000000000
10
-18.9064488421
20
9.9137219374
30
0.0000000000
10
-18.9429299198
20
9.9245182991
30
0.0000000000
10
-18.9767737355
20
9.9367876753
30
0.0000000000
10
-18.9979701134
20
9.9461766650
30
0.0000000000
10
-19.0078294933
20
9.9511063550
30
0.0000000000
11
-18.7319084347
21
9.8941222146
31
0.0000000000
11
-18.7608653966
21
9.8928029858
31
0.0000000000
11
-18.7941443022
21
9.8942518259
31
0.0000000000
11
-18.8304662617
21
9.8984130568
31
0.0000000000
11
-18.8684354426
21
9.9051267648
31
0.0000000000
11
-18.9065927105
21
9.9141349458
31
0.0000000000
11
-18.9434717031
21
9.9250914205
31
0.0000000000
11
-18.9776551813
21
9.9375751376
31
0.0000000000
11
-19.0078294933
21
9.9511063550
31
0.0000000000
0
SPLINE
5
368
100
AcDbEntity
8
0
100
AcDbSpline
62
7
6
CONTINUOUS
70
0
71
3
72
15
73
11
74
9
42
0.0000001000
43
0.0000001000
44
0.0000000001
12
-0.2830840723
22
-0.0288905041
32
0.0000000000
13
-0.2545132660
23
0.1272566330
33
0.0000000000
40
0.0000000000
40
0.0000000000
40
0.0000000000
40
0.0000000000
40
0.1018680046
40
0.2189296968
40
0.3474096568
40
0.4829133080
40
0.6206942281
40
0.7558954912
40
0.8837854688
40
1.0000000000
40
1.0000000000
40
1.0000000000
40
1.0000000000
10
-22.7624170874
20
11.9093765410
30
0.0000000000
10
-22.7720294906
20
11.9083955350
30
0.0000000000
10
-22.7928254733
20
11.9076209841
30
0.0000000000
10
-22.8257656819
20
11.9091959410
30
0.0000000000
10
-22.8616896956
20
11.9133948279
30
0.0000000000
10
-22.8992290774
20
11.9200704944
30
0.0000000000
10
-22.9369574948
20
11.9289762638
30
0.0000000000
10
-22.9734385726
20
11.9397726255
30
0.0000000000
10
-23.0072823883
20
11.9520420017
30
0.0000000000
10
-23.0284787661
20
11.9614309914
30
0.0000000000
10
-23.0383381461
20
11.9663606814
30
0.0000000000
11
-22.7624170874
21
11.9093765410
31
0.0000000000
11
-22.7913740494
21
11.9080573122
31
0.0000000000
11
-22.8246529550
21
11.9095061523
31
0.0000000000
11
-22.8609749144
21
11.9136673832
31
0.0000000000
11
-22.8989440953
21
11.9203810912
31
0.0000000000
11
-22.9371013632
21
11.9293892722
31
0.0000000000
11
-22.9739803558
21
11.9403457468
31
0.0000000000
11
-23.0081638341
21
11.9528294640
31
0.0000000000
11
-23.0383381461
21
11.9663606814
31
0.0000000000
0
SPLINE
5
369
100
AcDbEntity
8
0
100
AcDbSpline
62
7
6
CONTINUOUS
70
0
71
3
72
12
73
8
74
6
42
0.0000001000
43
0.0000001000
44
0.0000000001
12
-0.0794482303
22
0.0397241152
32
0.0000000000
13
0.0209848366
23
0.0881877676
33
0.0000000000
40
0.0000000000
40
0.0000000000
40
0.0000000000
40
0.0000000000
40
0.3229543341
40
0.5878371421
40
0.7912834233
40
0.9408237800
40
1.0000000000
40
1.0000000000
40
1.0000000000
40
1.0000000000
10
-21.0584391588
20
10.9764111877
30
0.0000000000
10
-21.0669918755
20
10.9806875461
30
0.0000000000
10
-21.0822575953
20
10.9890926948
30
0.0000000000
10
-21.1013753298
20
11.0028457414
30
0.0000000000
10
-21.1140800625
20
11.0160687972
30
0.0000000000
10
-21.1195773895
20
11.0276552507
30
0.0000000000
10
-21.1189764163
20
11.0339824652
30
0.0000000000
10
-21.1185624818
20
11.0357220048
30
0.0000000000
11
-21.0584391588
21
10.9764111877
31
0.0000000000
11
-21.0834447226
21
10.9904699082
31
0.0000000000
11
-21.1023205885
21
11.0045158632
31
0.0000000000
11
-21.1143413676
21
11.0180092744
31
0.0000000000
11
-21.1190451080
21
11.0304315975
31
0.0000000000
11
-21.1185624818
21
11.0357220048
31
0.0000000000
0
SPLINE
5
36A
100
AcDbEntity
8
0
100
AcDbSpline
62
7
6
CONTINUOUS
70
0
71
3
72
12
73
8
74
6
42
0.0000001000
43
0.0000001000
44
0.0000000001
12
-0.0794482303
22
0.0397241152
32
0.0000000000
13
0.0209848366
23
0.0881877676
33
0.0000000000
40
0.0000000000
40
0.0000000000
40
0.0000000000
40
0.0000000000
40
0.3229543341
40
0.5878371421
40
0.7912834233
40
0.9408237800
40
1.0000000000
40
1.0000000000
40
1.0000000000
40
1.0000000000
10
-25.0889478115
20
12.9916655141
30
0.0000000000
10
-25.0975005283
20
12.9959418725
30
0.0000000000
10
-25.1127662480
20
13.0043470212
30
0.0000000000
10
-25.1318839826
20
13.0181000678
30
0.0000000000
10
-25.1445887153
20
13.0313231235
30
0.0000000000
10
-25.1500860423
20
13.0429095771
30
0.0000000000
10
-25.1494850690
20
13.0492367916
30
0.0000000000
10
-25.1490711346
20
13.0509763312
30
0.0000000000
11
-25.0889478115
21
12.9916655141
31
0.0000000000
11
-25.1139533754
21
13.0057242346
31
0.0000000000
11
-25.1328292413
21
13.0197701896
31
0.0000000000
11
-25.1448500204
21
13.0332636007
31
0.0000000000
11
-25.1495537608
21
13.0456859239
31
0.0000000000
11
-25.1490711346
21
13.0509763312
31
0.0000000000
0
SPLINE
5
36B
100
AcDbEntity
8
0
100
AcDbSpline
62
7
6
CONTINUOUS
70
0
71
3
72
11
73
7
74
5
42
0.0000001000
43
0.0000001000
44
0.0000000001
12
0.0145939321
22
0.0613302985
32
0.0000000000
13
0.0614548224
23
0.0062718499
33
0.0000000000
40
0.0000000000
40
0.0000000000
40
0.0000000000
40
0.0000000000
40
0.0966540175
40
0.3156819854
40
0.6136554429
40
1.0000000000
40
1.0000000000
40
1.0000000000
40
1.0000000000
10
-14.8606674683
20
10.5887983394
30
0.0000000000
10
-14.8601972810
20
10.5907742793
30
0.0000000000
10
-14.8576352728
20
10.5969987403
30
0.0000000000
10
-14.8470063688
20
10.6048672826
30
0.0000000000
10
-14.8293912963
20
10.6109429220
30
0.0000000000
10
-14.8153800445
20
10.6131170398
30
0.0000000000
10
-14.8074657991
20
10.6139247382
30
0.0000000000
11
-14.8606674683
21
10.5887983394
31
0.0000000000
11
-14.8583560341
21
10.5943817844
31
0.0000000000
11
-14.8481715471
21
10.6032892897
31
0.0000000000
11
-14.8309880176
21
10.6098881377
31
0.0000000000
11
-14.8074657991
21
10.6139247382
31
0.0000000000
0
SPLINE
5
36C
100
AcDbEntity
8
0
100
AcDbSpline
62
7
6
CONTINUOUS
70
0
71
3
72
11
73
7
74
5
42
0.0000001000
43
0.0000001000
44
0.0000000001
12
0.0145939321
22
0.0613302985
32
0.0000000000
13
0.0614548224
23
0.0062718499
33
0.0000000000
40
0.0000000000
40
0.0000000000
40
0.0000000000
40
0.0000000000
40
0.0966540175
40
0.3156819854
40
0.6136554429
40
1.0000000000
40
1.0000000000
40
1.0000000000
40
1.0000000000
10
-25.1490711346
20
13.0509763312
30
0.0000000000
10
-25.1486009472
20
13.0529522711
30
0.0000000000
10
-25.1460389391
20
13.0591767321
30
0.0000000000
10
-25.1354100351
20
13.0670452744
30
0.0000000000
10
-25.1177949625
20
13.0731209137
30
0.0000000000
10
-25.1037837107
20
13.0752950316
30
0.0000000000
10
-25.0958694654
20
13.0761027299
30
0.0000000000
11
-25.1490711346
21
13.0509763312
31
0.0000000000
11
-25.1467597004
21
13.0565597762
31
0.0000000000
11
-25.1365752134
21
13.0654672815
31
0.0000000000
11
-25.1193916839
21
13.0720661294
31
0.0000000000
11
-25.0958694654
21
13.0761027299
31
0.0000000000
0
SPLINE
5
36D
100
AcDbEntity
8
0
100
AcDbSpline
62
7
6
CONTINUOUS
70
0
71
3
72
12
73
8
74
6
42
0.0000001000
43
0.0000001000
44
0.0000000001
12
0.0794482303
22
-0.0397241152
32
0.0000000000
13
-0.0209848366
23
-0.0881877676
33
0.0000000000
40
0.0000000000
40
0.0000000000
40
0.0000000000
40
0.0000000000
40
0.3229543341
40
0.5878371421
40
0.7912834233
40
0.9408237800
40
1.0000000000
40
1.0000000000
40
1.0000000000
40
1.0000000000
10
-16.7885844038
20
10.1775942275
30
0.0000000000
10
-16.7800316871
20
10.1733178692
30
0.0000000000
10
-16.7647659673
20
10.1649127204
30
0.0000000000
10
-16.7456482328
20
10.1511596739
30
0.0000000000
10
-16.7329435000
20
10.1379366181
30
0.0000000000
10
-16.7274461731
20
10.1263501645
30
0.0000000000
10
-16.7280471463
20
10.1200229500
30
0.0000000000
10
-16.7284610807
20
10.1182834105
30
0.0000000000
11
-16.7885844038
21
10.1775942275
31
0.0000000000
11
-16.7635788400
21
10.1635355070
31
0.0000000000
11
-16.7447029740
21
10.1494895521
31
0.0000000000
11
-16.7326821950
21
10.1359961409
31
0.0000000000
11
-16.7279784546
21
10.1235738177
31
0.0000000000
11
-16.7284610807
21
10.1182834105
31
0.0000000000
0
SPLINE
5
36E
100
AcDbEntity
8
0
100
AcDbSpline
62
7
6
CONTINUOUS
70
0
71
3
72
12
73
8
74
6
42
0.0000001000
43
0.0000001000
44
0.0000000001
12
0.0794482303
22
-0.0397241152
32
0.0000000000
13
-0.0209848366
23
-0.0881877676
33
0.0000000000
40
0.0000000000
40
0.0000000000
40
0.0000000000
40
0.0000000000
40
0.3229543341
40
0.5878371421
40
0.7912834233
40
0.9408237800
40
1.0000000000
40
1.0000000000
40
1.0000000000
40
1.0000000000
10
-20.8190930566
20
12.1928485539
30
0.0000000000
10
-20.8105403398
20
12.1885721955
30
0.0000000000
10
-20.7952746201
20
12.1801670468
30
0.0000000000
10
-20.7761568856
20
12.1664140003
30
0.0000000000
10
-20.7634521528
20
12.1531909445
30
0.0000000000
10
-20.7579548258
20
12.1416044909
30
0.0000000000
10
-20.7585557991
20
12.1352772764
30
0.0000000000
10
-20.7589697335
20
12.1335377368
30
0.0000000000
11
-20.8190930566
21
12.1928485539
31
0.0000000000
11
-20.7940874927
21
12.1787898334
31
0.0000000000
11
-20.7752116268
21
12.1647438784
31
0.0000000000
11
-20.7631908477
21
12.1512504673
31
0.0000000000
11
-20.7584871074
21
12.1388281441
31
0.0000000000
11
-20.7589697335
21
12.1335377368
31
0.0000000000
0
SPLINE
5
36F
100
AcDbEntity
8
0
100
AcDbSpline
62
7
6
CONTINUOUS
70
0
71
3
72
15
73
11
74
9
42
0.0000001000
43
0.0000001000
44
0.0000000001
12
0.2830840723
22
0.0288905041
32
0.0000000000
13
0.2545132660
23
-0.1272566330
33
0.0000000000
40
0.0000000000
40
0.0000000000
40
0.0000000000
40
0.0000000000
40
0.1018680046
40
0.2189296968
40
0.3474096568
40
0.4829133080
40
0.6206942281
40
0.7558954912
40
0.8837854688
40
1.0000000000
40
1.0000000000
40
1.0000000000
40
1.0000000000
10
-19.1151151279
20
11.2598832007
30
0.0000000000
10
-19.1055027247
20
11.2608642067
30
0.0000000000
10
-19.0847067420
20
11.2616387575
30
0.0000000000
10
-19.0517665334
20
11.2600638006
30
0.0000000000
10
-19.0158425197
20
11.2558649137
30
0.0000000000
10
-18.9783031380
20
11.2491892472
30
0.0000000000
10
-18.9405747205
20
11.2402834778
30
0.0000000000
10
-18.9040936428
20
11.2294871161
30
0.0000000000
10
-18.8702498270
20
11.2172177399
30
0.0000000000
10
-18.8490534492
20
11.2078287502
30
0.0000000000
10
-18.8391940693
20
11.2028990603
30
0.0000000000
11
-19.1151151279
21
11.2598832007
31
0.0000000000
11
-19.0861581659
21
11.2612024295
31
0.0000000000
11
-19.0528792604
21
11.2597535894
31
0.0000000000
11
-19.0165573009
21
11.2555923584
31
0.0000000000
11
-18.9785881200
21
11.2488786504
31
0.0000000000
11
-18.9404308521
21
11.2398704695
31
0.0000000000
11
-18.9035518595
21
11.2289139948
31
0.0000000000
11
-18.8693683813
21
11.2164302777
31
0.0000000000
11
-18.8391940693
21
11.2028990603
31
0.0000000000
0
SPLINE
5
370
100
AcDbEntity
8
0
100
AcDbSpline
62
7
6
CONTINUOUS
70
0
71
3
72
15
73
11
74
9
42
0.0000001000
43
0.0000001000
44
0.0000000001
12
0.2830840723
22
0.0288905041
32
0.0000000000
13
0.2545132660
23
-0.1272566330
33
0.0000000000
40
0.0000000000
40
0.0000000000
40
0.0000000000
40
0.0000000000
40
0.1018680046
40
0.2189296968
40
0.3474096568
40
0.4829133080
40
0.6206942281
40
0.7558954912
40
0.8837854688
40
1.0000000000
40
1.0000000000
40
1.0000000000
40
1.0000000000
10
-23.1456237807
20
13.2751375270
30
0.0000000000
10
-23.1360113775
20
13.2761185330
30
0.0000000000
10
-23.1152153948
20
13.2768930839
30
0.0000000000
10
-23.0822751862
20
13.2753181270
30
0.0000000000
10
-23.0463511725
20
13.2711192401
30
0.0000000000
10
-23.0088117907
20
13.2644435736
30
0.0000000000
10
-22.9710833733
20
13.2555378042
30
0.0000000000
10
-22.9346022955
20
13.2447414425
30
0.0000000000
10
-22.9007584798
20
13.2324720663
30
0.0000000000
10
-22.8795621020
20
13.2230830766
30
0.0000000000
10
-22.8697027220
20
13.2181533866
30
0.0000000000
11
-23.1456237807
21
13.2751375270
31
0.0000000000
11
-23.1166668187
21
13.2764567558
31
0.0000000000
11
-23.0833879132
21
13.2750079157
31
0.0000000000
11
-23.0470659537
21
13.2708466848
31
0.0000000000
11
-23.0090967728
21
13.2641329768
31
0.0000000000
11
-22.9709395049
21
13.2551247958
31
0.0000000000
11
-22.9340605123
21
13.2441683212
31
0.0000000000
11
-22.8998770340
21
13.2316846040
31
0.0000000000
11
-22.8697027220
21
13.2181533866
31
0.0000000000
0
SPLINE
5
371
100
AcDbEntity
8
0
100
AcDbSpline
62
7
6
CONTINUOUS
70
0
71
3
72
10
73
6
74
4
42
0.0000001000
43
0.0000001000
44
0.0000000001
12
0.1437626329
22
0.0718813165
32
0.0000000000
13
0.1599009443
23
0.0163188937
33
0.0000000000
40
0.0000000000
40
0.0000000000
40
0.0000000000
40
0.0000000000
40
0.3511381091
40
0.6840818606
40
1.0000000000
40
1.0000000000
40
1.0000000000
40
1.0000000000
10
-18.1492866139
20
9.2838080030
30
0.0000000000
10
-18.1324597675
20
9.2922214262
30
0.0000000000
10
-18.0988247773
20
9.3069939614
30
0.0000000000
10
-18.0475343381
20
9.3228722868
30
0.0000000000
10
-18.0131695416
20
9.3288969189
30
0.0000000000
10
-17.9963310053
20
9.3306153971
30
0.0000000000
11
-18.1492866139
21
9.2838080030
31
0.0000000000
11
-18.0975476642
21
9.3063565534
31
0.0000000000
11
-18.0463755774
21
9.3220162082
31
0.0000000000
11
-17.9963310053
21
9.3306153971
31
0.0000000000
0
SPLINE
5
372
100
AcDbEntity
8
0
100
AcDbSpline
62
7
6
CONTINUOUS
70
0
71
3
72
11
73
7
74
5
42
0.0000001000
43
0.0000001000
44
0.0000000001
12
0.0145939321
22
0.0613302985
32
0.0000000000
13
0.0614548224
23
0.0062718499
33
0.0000000000
40
0.0000000000
40
0.0000000000
40
0.0000000000
40
0.0000000000
40
0.0966540175
40
0.3156819854
40
0.6136554429
40
1.0000000000
40
1.0000000000
40
1.0000000000
40
1.0000000000
10
-21.1185624818
20
11.0357220048
30
0.0000000000
10
-21.1180922945
20
11.0376979447
30
0.0000000000
10
-21.1155302863
20
11.0439224057
30
0.0000000000
10
-21.1049013823
20
11.0517909480
30
0.0000000000
10
-21.0872863098
20
11.0578665874
30
0.0000000000
10
-21.0732750580
20
11.0600407052
30
0.0000000000
10
-21.0653608126
20
11.0608484036
30
0.0000000000
11
-21.1185624818
21
11.0357220048
31
0.0000000000
11
-21.1162510476
21
11.0413054498
31
0.0000000000
11
-21.1060665606
21
11.0502129551
31
0.0000000000
11
-21.0888830311
21
11.0568118030
31
0.0000000000
11
-21.0653608126
21
11.0608484036
31
0.0000000000
0
SPLINE
5
373
100
AcDbEntity
8
0
100
AcDbSpline
62
7
6
CONTINUOUS
70
0
71
3
72
13
73
9
74
7
42
0.0000001000
43
0.0000001000
44
0.0000000001
12
0.0000000000
22
1.0295482093
32
0.0000000000
13
0.9208559129
23
0.4604279564
33
0.0000000000
40
0.0000000000
40
0.0000000000
40
0.0000000000
40
0.0000000000
40
0.1614219316
40
0.3342559043
40
0.5116973510
40
0.6862432064
40
0.8508246292
40
1.0000000000
40
1.0000000000
40
1.0000000000
40
1.0000000000
10
-19.0078294933
20
8.2483187806
30
0.0000000000
10
-19.0078294933
20
8.3037160008
30
0.0000000000
10
-18.9951419155
20
8.4185887007
30
0.0000000000
10
-18.9454495971
20
8.5877840274
30
0.0000000000
10
-18.8675181405
20
8.7510055383
30
0.0000000000
10
-18.7663644913
20
8.8975742067
30
0.0000000000
10
-18.6486174557
20
9.0179739550
30
0.0000000000
10
-18.5586444206
20
9.0791290996
30
0.0000000000
10
-18.5128547465
20
9.1020239367
30
0.0000000000
11
-19.0078294933
21
8.2483187806
31
0.0000000000
11
-18.9909636378
21
8.4136524160
31
0.0000000000
11
-18.9415154515
21
8.5845846929
31
0.0000000000
11
-18.8628547465
21
8.7494668590
31
0.0000000000
11
-18.7603421199
21
8.8970624673
31
0.0000000000
11
-18.6409636378
21
9.0173131210
31
0.0000000000
11
-18.5128547465
21
9.1020239367
31
0.0000000000
0
SPLINE
5
374
100
AcDbEntity
8
0
100
AcDbSpline
62
7
6
CONTINUOUS
70
0
71
3
72
12
73
8
74
6
42
0.0000001000
43
0.0000001000
44
0.0000000001
12
0.0082175243
22
0.1109275219
32
0.0000000000
13
0.0998959363
23
0.0498775528
33
0.0000000000
40
0.0000000000
40
0.0000000000
40
0.0000000000
40
0.0000000000
40
0.2659770126
40
0.5082935587
40
0.7298118726
40
0.9374528333
40
1.0000000000
40
1.0000000000
40
1.0000000000
40
1.0000000000
10
-20.6101141589
20
8.6315442290
30
0.0000000000
10
-20.6093856014
20
8.6413789526
30
0.0000000000
10
-20.6065324390
20
8.6601223716
30
0.0000000000
10
-20.5973309807
20
8.6857789459
30
0.0000000000
10
-20.5835562524
20
8.7068483487
30
0.0000000000
10
-20.5695513188
20
8.7189363483
30
0.0000000000
10
-20.5607638384
20
8.7238432892
30
0.0000000000
10
-20.5586811025
20
8.7248831891
30
0.0000000000
11
-20.6101141589
21
8.6315442290
31
0.0000000000
11
-20.6054261029
21
8.6607554493
31
0.0000000000
11
-20.5960679131
21
8.6860319369
31
0.0000000000
11
-20.5823604817
21
8.7065069605
31
0.0000000000
11
-20.5647738370
21
8.7214784312
31
0.0000000000
11
-20.5586811025
21
8.7248831891
31
0.0000000000
0
SPLINE
5
375
100
AcDbEntity
8
0
100
AcDbSpline
62
7
6
CONTINUOUS
70
0
71
3
72
11
73
7
74
5
42
0.0000001000
43
0.0000001000
44
0.0000000001
12
-0.7037289592
22
-0.3518644796
32
0.0000000000
13
-0.7037289648
23
0.3518644693
33
0.0000000000
40
0.0000000000
40
0.0000000000
40
0.0000000000
40
0.0000000000
40
0.2390519245
40
0.4837622123
40
0.7359079323
40
1.0000000000
40
1.0000000000
40
1.0000000000
40
1.0000000000
10
-24.1821148082
20
-34.3644649840
30
0.0000000000
10
-24.2381907289
20
-34.3925029444
30
0.0000000000
10
-24.3587298658
20
-34.4361930461
30
0.0000000000
10
-24.5521814464
20
-34.4583262048
30
0.0000000000
10
-24.7520658806
20
-34.4342316387
30
0.0000000000
10
-24.8804281624
20
-34.3869193258
30
0.0000000000
10
-24.9423779082
20
-34.3559444541
30
0.0000000000
11
-24.1821148082
21
-34.3644649840
31
0.0000000000
11
-24.3589388525
21
-34.4285663279
31
0.0000000000
11
-24.5502031700
21
-34.4506614349
31
0.0000000000
11
-24.7472001354
21
-34.4272225022
31
0.0000000000
11
-24.9423779082
21
-34.3559444541
31
0.0000000000
0
SPLINE
5
376
100
AcDbEntity
8
0
100
AcDbSpline
62
7
6
CONTINUOUS
70
0
71
3
72
13
73
9
74
7
42
0.0000001000
43
0.0000001000
44
0.0000000001
12
-1.0868510653
22
0.5434255327
32
0.0000000000
13
-0.0000000160
23
1.2151364321
33
0.0000000000
40
0.0000000000
40
0.0000000000
40
0.0000000000
40
0.0000000000
40
0.1600906564
40
0.3308639647
40
0.5020782763
40
0.6707380457
40
0.8371398646
40
1.0000000000
40
1.0000000000
40
1.0000000000
40
1.0000000000
10
-36.1853757415
20
-28.7344455374
30
0.0000000000
10
-36.2433739750
20
-28.7054464207
30
0.0000000000
10
-36.3572947438
20
-28.6329045338
30
0.0000000000
10
-36.5051321137
20
-28.4915042580
30
0.0000000000
10
-36.6264839411
20
-28.3226398141
30
0.0000000000
10
-36.7159825723
20
-28.1370097137
30
0.0000000000
10
-36.7714380181
20
-27.9420884551
30
0.0000000000
10
-36.7844582581
20
-27.8084386400
30
0.0000000000
10
-36.7844582590
20
-27.7424728787
30
0.0000000000
11
-36.1853757415
21
-28.7344455374
31
0.0000000000
11
-36.3497541992
21
-28.6304146892
31
0.0000000000
11
-36.5001578919
21
-28.4874450429
31
0.0000000000
11
-36.6218413921
21
-28.3186925401
31
0.0000000000
11
-36.7108290019
21
-28.1340753501
31
0.0000000000
11
-36.7657918544
21
-27.9394878536
31
0.0000000000
11
-36.7844582590
21
-27.7424728787
31
0.0000000000
0
SPLINE
5
377
100
AcDbEntity
8
0
100
AcDbSpline
62
7
6
CONTINUOUS
70
0
71
3
72
12
73
8
74
6
42
0.0000001000
43
0.0000001000
44
0.0000000001
12
0.0000000000
22
0.9625575815
32
0.0000000000
13
0.8609376738
23
0.4304688369
33
0.0000000000
40
0.0000000000
40
0.0000000000
40
0.0000000000
40
0.0000000000
40
0.2165980715
40
0.4201974839
40
0.6152548528
40
0.8073568330
40
1.0000000000
40
1.0000000000
40
1.0000000000
40
1.0000000000
10
-36.7844582590
20
-21.7668975793
30
0.0000000000
10
-36.7844582590
20
-21.6974015407
30
0.0000000000
10
-36.7705426461
20
-21.5620584504
30
0.0000000000
10
-36.7078035690
20
-21.3732862068
30
0.0000000000
10
-36.6092150016
20
-21.2095405444
30
0.0000000000
10
-36.4792883568
20
-21.0743180606
30
0.0000000000
10
-36.3748244068
20
-21.0061786988
30
0.0000000000
10
-36.3195398201
20
-20.9785364055
30
0.0000000000
11
-36.7844582590
21
-21.7668975793
31
0.0000000000
11
-36.7624244900
21
-21.5595770365
31
0.0000000000
11
-36.7001828874
21
-21.3737474441
31
0.0000000000
11
-36.6031002616
21
-21.2130411616
31
0.0000000000
11
-36.4748606362
21
-21.0798269838
31
0.0000000000
11
-36.3195398201
21
-20.9785364055
31
0.0000000000
0
SPLINE
5
378
100
AcDbEntity
8
0
100
AcDbSpline
62
7
6
CONTINUOUS
70
0
71
3
72
9
73
5
74
3
42
0.0000001000
43
0.0000001000
44
0.0000000001
12
0.1671547881
22
0.0451872072
32
0.0000000000
13
0.1548744185
23
0.0774372093
33
0.0000000000
40
0.0000000000
40
0.0000000000
40
0.0000000000
40
0.0000000000
40
0.5146679629
40
1.0000000000
40
1.0000000000
40
1.0000000000
40
1.0000000000
10
-24.0842760766
20
-28.9476405113
30
0.0000000000
10
-24.0555996718
20
-28.9398883753
30
0.0000000000
10
-24.0004778818
20
-28.9224892757
30
0.0000000000
10
-23.9472767949
20
-28.8997739682
30
0.0000000000
10
-23.9222216226
20
-28.8872463820
30
0.0000000000
11
-24.0842760766
21
-28.9476405113
31
0.0000000000
11
-23.9993695949
21
-28.9205706833
31
0.0000000000
11
-23.9222216226
21
-28.8872463820
31
0.0000000000
0
SPLINE
5
379
100
AcDbEntity
8
0
100
AcDbSpline
62
9
6
CONTINUOUS
70
0
71
3
72
13
73
9
74
7
42
0.0000001000
43
0.0000001000
44
0.0000000001
12
0.0000000000
22
1.0295482093
32
0.0000000000
13
0.9208559129
23
0.4604279564
33
0.0000000000
40
0.0000000000
40
0.0000000000
40
0.0000000000
40
0.0000000000
40
0.1614219316
40
0.3342559043
40
0.5116973510
40
0.6862432064
40
0.8508246292
40
1.0000000000
40
1.0000000000
40
1.0000000000
40
1.0000000000
10
-25.1243031506
20
-27.4821422592
30
0.0000000000
10
-25.1243031506
20
-27.4267450390
30
0.0000000000
10
-25.1116155728
20
-27.3118723391
30
0.0000000000
10
-25.0619232544
20
-27.1426770124
30
0.0000000000
10
-24.9839917977
20
-26.9794555015
30
0.0000000000
10
-24.8828381486
20
-26.8328868331
30
0.0000000000
10
-24.7650911130
20
-26.7124870848
30
0.0000000000
10
-24.6751180778
20
-26.6513319402
30
0.0000000000
10
-24.6293284037
20
-26.6284371031
30
0.0000000000
11
-25.1243031506
21
-27.4821422592
31
0.0000000000
11
-25.1074372951
21
-27.3168086238
31
0.0000000000
11
-25.0579891087
21
-27.1458763469
31
0.0000000000
11
-24.9793284037
21
-26.9809941808
31
0.0000000000
11
-24.8768157772
21
-26.8333985725
31
0.0000000000
11
-24.7574372951
21
-26.7131479188
31
0.0000000000
11
-24.6293284037
21
-26.6284371031
31
0.0000000000
0
SPLINE
5
37A
100
AcDbEntity
8
0
100
AcDbSpline
62
9
6
CONTINUOUS
70
0
71
3
72
15
73
11
74
9
42
0.0000001000
43
0.0000001000
44
0.0000000001
12
-0.2934493762
22
0.1467246881
32
0.0000000000
13
0.0000000000
23
-0.3280863766
33
0.0000000000
40
0.0000000000
40
0.0000000000
40
0.0000000000
40
0.0000000000
40
0.1346116025
40
0.2569731317
40
0.3701982823
40
0.4800299252
40
0.5933870116
40
0.7161030409
40
0.8514445920
40
1.0000000000
40
1.0000000000
40
1.0000000000
40
1.0000000000
10
-36.3673009714
20
-21.8606433488
30
0.0000000000
10
-36.3804682017
20
-21.8540597336
30
0.0000000000
10
-36.4068543572
20
-21.8437148258
30
0.0000000000
10
-36.4473726335
20
-21.8379773549
30
0.0000000000
10
-36.4853529266
20
-21.8434645934
30
0.0000000000
10
-36.5187874593
20
-21.8603493842
30
0.0000000000
10
-36.5458016469
20
-21.8876709908
30
0.0000000000
10
-36.5653621172
20
-21.9237806083
30
0.0000000000
10
-36.5770739251
20
-21.9670020529
30
0.0000000000
10
-36.5794330058
20
-21.9981386175
30
0.0000000000
10
-36.5794330058
20
-22.0143849527
30
0.0000000000
11
-36.3673009714
21
-21.8606433488
31
0.0000000000
11
-36.4085895557
21
-21.8449674987
31
0.0000000000
11
-36.4484046608
21
-21.8398303265
31
0.0000000000
11
-36.4851185957
21
-21.8454901284
31
0.0000000000
11
-36.5172865043
21
-21.8617287848
31
0.0000000000
11
-36.5436864141
21
-21.8879243756
31
0.0000000000
11
-36.5633047369
21
-21.9230826799
31
0.0000000000
11
-36.5753710471
21
-21.9658155060
31
0.0000000000
11
-36.5794330058
21
-22.0143849527
31
0.0000000000
0
SPLINE
5
37B
100
AcDbEntity
8
0
100
AcDbSpline
62
9
6
CONTINUOUS
70
0
71
3
72
11
73
7
74
5
42
0.0000001000
43
0.0000001000
44
0.0000000001
12
-0.4145391865
22
0.2072695934
32
0.0000000000
13
-0.4163942210
23
-0.2082351517
33
0.0000000000
40
0.0000000000
40
0.0000000000
40
0.0000000000
40
0.0000000000
40
0.3183911282
40
0.6068918003
40
0.8738576936
40
1.0000000000
40
1.0000000000
40
1.0000000000
40
1.0000000000
10
-35.8723262246
20
-21.0069381927
30
0.0000000000
10
-35.9163214244
20
-20.9849405928
30
0.0000000000
10
-36.0043645757
20
-20.9504464439
30
0.0000000000
10
-36.1394849214
20
-20.9313881669
30
0.0000000000
10
-36.2453474060
20
-20.9467399927
30
0.0000000000
10
-36.3020119911
20
-20.9698196841
30
0.0000000000
10
-36.3195203002
20
-20.9785754382
30
0.0000000000
11
-35.8723262246
21
-21.0069381927
31
0.0000000000
11
-36.0102965274
21
-20.9545984987
31
0.0000000000
11
-36.1429177622
21
-20.9375613787
31
0.0000000000
11
-36.2651943892
21
-20.9564726360
31
0.0000000000
11
-36.3195203002
21
-20.9785754382
31
0.0000000000
0
SPLINE
5
37C
100
AcDbEntity
8
0
100
AcDbSpline
62
9
6
CONTINUOUS
70
0
71
3
72
13
73
9
74
7
42
0.0000001000
43
0.0000001000
44
0.0000000001
12
-0.0000000381
22
1.0295482156
32
0.0000000000
13
0.9208559355
23
0.4604279252
33
0.0000000000
40
0.0000000000
40
0.0000000000
40
0.0000000000
40
0.0000000000
40
0.1614214415
40
0.3342550947
40
0.5116964618
40
0.6862424767
40
0.8508242309
40
1.0000000000
40
1.0000000000
40
1.0000000000
40
1.0000000000
10
-36.3673009714
20
-21.8606433488
30
0.0000000000
10
-36.3673009735
20
-21.8052462964
30
0.0000000000
10
-36.3546134676
20
-21.6903738742
30
0.0000000000
10
-36.3049213464
20
-21.5211788091
30
0.0000000000
10
-36.2269900495
20
-21.3579573129
30
0.0000000000
10
-36.1258364288
20
-21.2113884503
30
0.0000000000
10
-36.0080892520
20
-21.0909884074
30
0.0000000000
10
-35.9181160217
20
-21.0298330895
30
0.0000000000
10
-35.8723262242
20
-21.0069381929
30
0.0000000000
11
-36.3673009714
21
-21.8606433488
31
0.0000000000
11
-36.3504352191
21
-21.6953102090
31
0.0000000000
11
-36.3009872360
21
-21.5243782146
31
0.0000000000
11
-36.2223266942
21
-21.3594960603
31
0.0000000000
11
-36.1198140861
21
-21.2119002378
31
0.0000000000
11
-36.0004354368
21
-21.0916492679
31
0.0000000000
11
-35.8723262242
21
-21.0069381929
31
0.0000000000
0
SPLINE
5
37D
100
AcDbEntity
8
0
100
AcDbSpline
62
9
6
CONTINUOUS
70
0
71
3
72
10
73
6
74
4
42
0.0000001000
43
0.0000001000
44
0.0000000001
12
-0.3005874192
22
0.1502937096
32
0.0000000000
13
0.0000000000
23
0.3375846797
33
0.0000000000
40
0.0000000000
40
0.0000000000
40
0.0000000000
40
0.0000000000
40
0.3950875622
40
0.7212632404
40
1.0000000000
40
1.0000000000
40
1.0000000000
40
1.0000000000
10
-36.5794330058
20
-22.0143849527
30
0.0000000000
10
-36.6190191227
20
-21.9945918943
30
0.0000000000
10
-36.6883375395
20
-21.9515284518
30
0.0000000000
10
-36.7646475592
20
-21.8663330564
30
0.0000000000
10
-36.7844582590
20
-21.7982633325
30
0.0000000000
10
-36.7844582590
20
-21.7668975793
30
0.0000000000
11
-36.5794330058
21
-22.0143849527
31
0.0000000000
11
-36.6906760416
21
-21.9418975793
31
0.0000000000
11
-36.7606063374
21
-21.8574842451
31
0.0000000000
11
-36.7844582590
21
-21.7668975793
31
0.0000000000
0
SPLINE
5
37E
100
AcDbEntity
8
0
100
AcDbSpline
62
9
6
CONTINUOUS
70
0
71
3
72
12
73
8
74
6
42
0.0000001000
43
0.0000001000
44
0.0000000001
12
0.5661440150
22
0.2831297249
32
0.0000000000
13
-0.0000000001
23
0.6301510482
33
0.0000000000
40
0.0000000000
40
0.0000000000
40
0.0000000000
40
0.0000000000
40
0.0976850154
40
0.2942478993
40
0.5070337685
40
0.7417162148
40
1.0000000000
40
1.0000000000
40
1.0000000000
40
1.0000000000
10
-24.1821314421
20
-34.3644245080
30
0.0000000000
10
-24.1636968465
20
-34.3552053309
30
0.0000000000
10
-24.1104203300
20
-34.3229275923
30
0.0000000000
10
-24.0343673696
20
-34.2460089876
30
0.0000000000
10
-23.9691941827
20
-34.1257643575
30
0.0000000000
10
-23.9301053044
20
-33.9816900545
30
0.0000000000
10
-23.9222216226
20
-33.8778437830
30
0.0000000000
10
-23.9222216226
20
-33.8235911836
30
0.0000000000
11
-24.1821314421
21
-34.3644245080
31
0.0000000000
11
-24.1293305534
21
-34.3324117867
31
0.0000000000
11
-24.0414068220
21
-34.2451662476
31
0.0000000000
11
-23.9760453394
21
-34.1280882218
31
0.0000000000
11
-23.9358136989
21
-33.9857804443
31
0.0000000000
11
-23.9222216226
21
-33.8235911836
31
0.0000000000
0
SPLINE
5
37F
100
AcDbEntity
8
0
100
AcDbSpline
62
9
6
CONTINUOUS
70
0
71
3
72
15
73
11
74
9
42
0.0000001000
43
0.0000001000
44
0.0000000001
12
0.0000000000
22
-0.4415069424
32
0.0000000000
13
0.3948958143
23
-0.1974479071
33
0.0000000000
40
0.0000000000
40
0.0000000000
40
0.0000000000
40
0.0000000000
40
0.1194829538
40
0.2465587058
40
0.3783225596
40
0.5116009549
40
0.6432581239
40
0.7702695370
40
0.8898759691
40
1.0000000000
40
1.0000000000
40
1.0000000000
40
1.0000000000
10
-36.5794330058
20
-27.9899602388
30
0.0000000000
10
-36.5794330058
20
-28.0075444234
30
0.0000000000
10
-36.5764457535
20
-28.0438669258
30
0.0000000000
10
-36.5642732703
20
-28.0983474517
30
0.0000000000
10
-36.5446942236
20
-28.1527880312
30
0.0000000000
10
-36.5184481173
20
-28.2050920079
30
0.0000000000
10
-36.4865218557
20
-28.2533044535
30
0.0000000000
10
-36.4500961794
20
-28.2956208781
30
0.0000000000
10
-36.4105639649
20
-28.3304316645
30
0.0000000000
10
-36.3817968111
20
-28.3485859573
30
0.0000000000
10
-36.3673009714
20
-28.3558338771
30
0.0000000000
11
-36.5794330058
21
-27.9899602388
31
0.0000000000
11
-36.5753762898
21
-28.0425565787
31
0.0000000000
11
-36.5633163247
21
-28.0973499070
31
0.0000000000
11
-36.5437067148
21
-28.1521199154
31
0.0000000000
11
-36.5173154136
21
-28.2047130471
31
0.0000000000
11
-36.4851490852
21
-28.2531293654
31
0.0000000000
11
-36.4484333032
21
-28.2955146966
31
0.0000000000
11
-36.4086160463
21
-28.3302014766
31
0.0000000000
11
-36.3673009714
21
-28.3558338771
31
0.0000000000
0
SPLINE
5
380
100
AcDbEntity
8
0
100
AcDbSpline
62
9
6
CONTINUOUS
70
0
71
3
72
10
73
6
74
4
42
0.0000001000
43
0.0000001000
44
0.0000000001
12
-0.3005870164
22
0.1502934915
32
0.0000000000
13
-0.0000008573
23
0.3375842196
33
0.0000000000
40
0.0000000000
40
0.0000000000
40
0.0000000000
40
0.0000000000
40
0.3950870439
40
0.7212628513
40
1.0000000000
40
1.0000000000
40
1.0000000000
40
1.0000000000
10
-36.5794330058
20
-27.9899602388
30
0.0000000000
10
-36.6190190177
20
-27.9701672351
30
0.0000000000
10
-36.6883373093
20
-27.9271038937
30
0.0000000000
10
-36.7646473157
20
-27.8419087222
30
0.0000000000
10
-36.7844581793
20
-27.7738390913
30
0.0000000000
10
-36.7844582590
20
-27.7424733371
30
0.0000000000
11
-36.5794330058
21
-27.9899602388
31
0.0000000000
11
-36.6906757732
21
-27.9174731039
31
0.0000000000
11
-36.7606061189
21
-27.8330599486
31
0.0000000000
11
-36.7844582590
21
-27.7424733371
31
0.0000000000
0
SPLINE
5
381
100
AcDbEntity
8
0
100
AcDbSpline
62
9
6
CONTINUOUS
70
0
71
3
72
11
73
7
74
5
42
0.0000001000
43
0.0000001000
44
0.0000000001
12
0.0000000000
22
-0.4402703408
32
0.0000000000
13
0.3972664066
23
-0.1977811180
33
0.0000000000
40
0.0000000000
40
0.0000000000
40
0.0000000000
40
0.0000000000
40
0.3393884870
40
0.6373012225
40
0.9023924640
40
1.0000000000
40
1.0000000000
40
1.0000000000
40
1.0000000000
10
-36.3673009714
20
-28.3558338771
30
0.0000000000
10
-36.3673009714
20
-28.4056414388
30
0.0000000000
10
-36.3580195086
20
-28.4997014903
30
0.0000000000
10
-36.3100256868
20
-28.6252911514
30
0.0000000000
10
-36.2443281311
20
-28.7001614425
30
0.0000000000
10
-36.1982507983
20
-28.7279094447
30
0.0000000000
10
-36.1853253999
20
-28.7343444206
30
0.0000000000
11
-36.3673009714
21
-28.3558338771
31
0.0000000000
11
-36.3504351159
21
-28.5043016570
31
0.0000000000
11
-36.3009869296
21
-28.6257857475
31
0.0000000000
11
-36.2223262246
21
-28.7120072087
31
0.0000000000
11
-36.1853253999
21
-28.7343444206
31
0.0000000000
0
SPLINE
5
382
100
AcDbEntity
8
0
100
AcDbSpline
62
9
6
CONTINUOUS
70
0
71
3
72
15
73
11
74
9
42
0.0000001000
43
0.0000001000
44
0.0000000001
12
0.2934493762
22
-0.1467246881
32
0.0000000000
13
-0.0000000000
23
0.3280863766
33
0.0000000000
40
0.0000000000
40
0.0000000000
40
0.0000000000
40
0.0000000000
40
0.1346116025
40
0.2569731317
40
0.3701982823
40
0.4800299252
40
0.5933870116
40
0.7161030409
40
0.8514445920
40
1.0000000000
40
1.0000000000
40
1.0000000000
40
1.0000000000
10
-25.1243031506
20
-33.9773327876
30
0.0000000000
10
-25.1111359203
20
-33.9839164027
30
0.0000000000
10
-25.0847497649
20
-33.9942613105
30
0.0000000000
10
-25.0442314886
20
-33.9999987815
30
0.0000000000
10
-25.0062511955
20
-33.9945115430
30
0.0000000000
10
-24.9728166628
20
-33.9776267521
30
0.0000000000
10
-24.9458024751
20
-33.9503051455
30
0.0000000000
10
-24.9262420048
20
-33.9141955280
30
0.0000000000
10
-24.9145301970
20
-33.8709740834
30
0.0000000000
10
-24.9121711162
20
-33.8398375188
30
0.0000000000
10
-24.9121711162
20
-33.8235911836
30
0.0000000000
11
-25.1243031506
21
-33.9773327876
31
0.0000000000
11
-25.0830145663
21
-33.9930086376
31
0.0000000000
11
-25.0431994612
21
-33.9981458098
31
0.0000000000
11
-25.0064855264
21
-33.9924860080
31
0.0000000000
11
-24.9743176177
21
-33.9762473516
31
0.0000000000
11
-24.9479177079
21
-33.9500517607
31
0.0000000000
11
-24.9282993851
21
-33.9148934565
31
0.0000000000
11
-24.9162330750
21
-33.8721606303
31
0.0000000000
11
-24.9121711162
21
-33.8235911836
31
0.0000000000
0
SPLINE
5
383
100
AcDbEntity
8
0
100
AcDbSpline
62
9
6
CONTINUOUS
70
0
71
3
72
11
73
7
74
5
42
0.0000001000
43
0.0000001000
44
0.0000000001
12
0.0000000163
22
-0.4402703358
32
0.0000000000
13
0.3972663949
23
-0.1977811669
33
0.0000000000
40
0.0000000000
40
0.0000000000
40
0.0000000000
40
0.0000000000
40
0.3393875700
40
0.6372999670
40
0.9023912170
40
1.0000000000
40
1.0000000000
40
1.0000000000
40
1.0000000000
10
-25.1243031506
20
-33.9773327876
30
0.0000000000
10
-25.1243031487
20
-34.0271402140
30
0.0000000000
10
-25.1150217257
20
-34.1212000747
30
0.0000000000
10
-25.0670281085
20
-34.2467895998
30
0.0000000000
10
-25.0013306133
20
-34.3216601159
30
0.0000000000
10
-24.9552531458
20
-34.3494082678
30
0.0000000000
10
-24.9423275827
20
-34.3558433274
30
0.0000000000
11
-25.1243031506
21
-33.9773327876
31
0.0000000000
11
-25.1074373884
21
-34.1258001700
31
0.0000000000
11
-25.0579893991
21
-34.2472841782
31
0.0000000000
11
-24.9793288554
21
-34.3335057898
31
0.0000000000
11
-24.9423275827
21
-34.3558433274
31
0.0000000000
0
SPLINE
5
384
100
AcDbEntity
8
0
100
AcDbSpline
62
9
6
CONTINUOUS
70
0
71
3
72
13
73
9
74
7
42
0.0000001000
43
0.0000001000
44
0.0000000001
12
0.9109801728
22
-0.4554900864
32
0.0000000000
13
0.9109801728
23
0.4554900864
33
0.0000000000
40
0.0000000000
40
0.0000000000
40
0.0000000000
40
0.0000000000
40
0.1524570658
40
0.3217337100
40
0.5000000000
40
0.6782662900
40
0.8475429342
40
1.0000000000
40
1.0000000000
40
1.0000000000
40
1.0000000000
10
-24.9121711162
20
-33.8235911836
30
0.0000000000
10
-24.8658759948
20
-33.8467387443
30
0.0000000000
10
-24.7627708728
20
-33.8849322224
30
0.0000000000
10
-24.5958610121
20
-33.9185219927
30
0.0000000000
10
-24.4171963694
20
-33.9299927757
30
0.0000000000
10
-24.2385317266
20
-33.9185219927
30
0.0000000000
10
-24.0716218660
20
-33.8849322224
30
0.0000000000
10
-23.9685167439
20
-33.8467387443
30
0.0000000000
10
-23.9222216226
20
-33.8235911836
30
0.0000000000
11
-24.9121711162
21
-33.8235911836
31
0.0000000000
11
-24.7671963694
21
-33.8792127015
31
0.0000000000
11
-24.5983697010
21
-33.9141778494
31
0.0000000000
11
-24.4171963694
21
-33.9261038102
31
0.0000000000
11
-24.2360230378
21
-33.9141778494
31
0.0000000000
11
-24.0671963694
21
-33.8792127015
31
0.0000000000
11
-23.9222216226
21
-33.8235911836
31
0.0000000000
0
SPLINE
5
385
100
AcDbEntity
8
0
100
AcDbSpline
62
9
6
CONTINUOUS
70
0
71
3
72
15
73
11
74
9
42
0.0000001000
43
0.0000001000
44
0.0000000001
12
0.0000000000
22
0.4415069424
32
0.0000000000
13
-0.3948958143
23
0.1974479071
33
0.0000000000
40
0.0000000000
40
0.0000000000
40
0.0000000000
40
0.0000000000
40
0.1194829538
40
0.2465587058
40
0.3783225596
40
0.5116009549
40
0.6432581239
40
0.7702695370
40
0.8898759691
40
1.0000000000
40
1.0000000000
40
1.0000000000
40
1.0000000000
10
-24.9121711162
20
-27.8480158975
30
0.0000000000
10
-24.9121711162
20
-27.8304317130
30
0.0000000000
10
-24.9151583685
20
-27.7941092105
30
0.0000000000
10
-24.9273308517
20
-27.7396286847
30
0.0000000000
10
-24.9469098984
20
-27.6851881052
30
0.0000000000
10
-24.9731560047
20
-27.6328841285
30
0.0000000000
10
-25.0050822663
20
-27.5846716829
30
0.0000000000
10
-25.0415079426
20
-27.5423552582
30
0.0000000000
10
-25.0810401572
20
-27.5075444719
30
0.0000000000
10
-25.1098073110
20
-27.4893901790
30
0.0000000000
10
-25.1243031506
20
-27.4821422592
30
0.0000000000
11
-24.9121711162
21
-27.8480158975
31
0.0000000000
11
-24.9162278322
21
-27.7954195577
31
0.0000000000
11
-24.9282877973
21
-27.7406262294
31
0.0000000000
11
-24.9478974073
21
-27.6858562210
31
0.0000000000
11
-24.9742887084
21
-27.6332630892
31
0.0000000000
11
-25.0064550368
21
-27.5848467710
31
0.0000000000
11
-25.0431708188
21
-27.5424614397
31
0.0000000000
11
-25.0829880757
21
-27.5077746598
31
0.0000000000
11
-25.1243031506
21
-27.4821422592
31
0.0000000000
0
SPLINE
5
386
100
AcDbEntity
8
0
100
AcDbSpline
62
9
6
CONTINUOUS
70
0
71
3
72
15
73
11
74
9
42
0.0000001000
43
0.0000001000
44
0.0000000001
12
0.0000000004
22
1.4716894208
32
0.0000000000
13
-1.3163190347
23
0.6581595171
33
0.0000000000
40
0.0000000000
40
0.0000000000
40
0.0000000000
40
0.0000000000
40
0.1197933110
40
0.2468064309
40
0.3784866639
40
0.5116632679
40
0.6432080439
40
0.7701227032
40
0.8896570936
40
1.0000000000
40
1.0000000000
40
1.0000000000
40
1.0000000000
10
-23.9222216226
20
-27.8480158975
30
0.0000000000
10
-23.9222216225
20
-27.7892497147
30
0.0000000000
10
-23.9322163370
20
-27.6680526765
30
0.0000000000
10
-23.9728562297
20
-27.4863843573
30
0.0000000000
10
-24.0381152788
20
-27.3050442598
30
0.0000000000
10
-24.1255532145
20
-27.1308378507
30
0.0000000000
10
-24.2318909256
20
-26.9702591714
30
0.0000000000
10
-24.3532040705
20
-26.8292967517
30
0.0000000000
10
-24.4849714515
20
-26.7132190029
30
0.0000000000
10
-24.5809129144
20
-26.6526448478
30
0.0000000000
10
-24.6293284037
20
-26.6284371031
30
0.0000000000
11
-23.9222216226
21
-27.8480158975
31
0.0000000000
11
-23.9358125816
21
-27.6722419972
31
0.0000000000
11
-23.9760442238
21
-27.4896989990
31
0.0000000000
11
-24.0414044246
21
-27.3072612267
31
0.0000000000
11
-24.1293262541
21
-27.1320937788
31
0.0000000000
11
-24.2364566515
21
-26.9708444410
31
0.0000000000
11
-24.3587341728
21
-26.8296545397
31
0.0000000000
11
-24.4913524850
21
-26.7140718883
31
0.0000000000
11
-24.6293284037
21
-26.6284371031
31
0.0000000000
0
SPLINE
5
387
100
AcDbEntity
8
0
100
AcDbSpline
62
9
6
CONTINUOUS
70
0
71
3
72
13
73
9
74
7
42
0.0000001000
43
0.0000001000
44
0.0000000001
12
0.9109801876
22
-0.4554900433
32
0.0000000000
13
0.9109801880
23
0.4554900425
33
0.0000000000
40
0.0000000000
40
0.0000000000
40
0.0000000000
40
0.0000000000
40
0.1524565913
40
0.3217329039
40
0.4999990980
40
0.6782655428
40
0.8475425272
40
1.0000000000
40
1.0000000000
40
1.0000000000
40
1.0000000000
10
-24.9121711162
20
-27.8480158975
30
0.0000000000
10
-24.8658761382
20
-27.8711633840
30
0.0000000000
10
-24.7627712896
20
-27.9093567940
30
0.0000000000
10
-24.5958617495
20
-27.9429465923
30
0.0000000000
10
-24.4171972080
20
-27.9544174794
30
0.0000000000
10
-24.2385324231
20
-27.9429467967
30
0.0000000000
10
-24.0716222441
20
-27.9093570536
30
0.0000000000
10
-23.9685168683
20
-27.8711635183
30
0.0000000000
10
-23.9222216226
20
-27.8480158980
30
0.0000000000
11
-24.9121711162
21
-27.8480158975
31
0.0000000000
11
-24.7671968343
21
-27.9036372752
31
0.0000000000
11
-24.5983705161
21
-27.9386024443
31
0.0000000000
11
-24.4171972906
21
-27.9505285131
31
0.0000000000
11
-24.2360237953
21
-27.9386026552
31
0.0000000000
11
-24.0671967703
21
-27.9036375255
31
0.0000000000
11
-23.9222216226
21
-27.8480158980
31
0.0000000000
0
SPLINE
5
388
100
AcDbEntity
8
0
100
AcDbSpline
62
7
6
CONTINUOUS
70
0
71
3
72
9
73
5
74
3
42
0.0000001000
43
0.0000001000
44
0.0000000001
12
0.1671547881
22
0.0451872072
32
0.0000000000
13
0.1548744185
23
0.0774372093
33
0.0000000000
40
0.0000000000
40
0.0000000000
40
0.0000000000
40
0.0000000000
40
0.5146679629
40
1.0000000000
40
1.0000000000
40
1.0000000000
40
1.0000000000
10
-24.0842760766
20
-32.8447548283
30
0.0000000000
10
-24.0555996718
20
-32.8370026923
30
0.0000000000
10
-24.0004778818
20
-32.8196035927
30
0.0000000000
10
-23.9472767949
20
-32.7968882853
30
0.0000000000
10
-23.9222216226
20
-32.7843606991
30
0.0000000000
11
-24.0842760766
21
-32.8447548283
31
0.0000000000
11
-23.9993695949
21
-32.8176850003
31
0.0000000000
11
-23.9222216226
21
-32.7843606991
31
0.0000000000
0
SPLINE
5
389
100
AcDbEntity
8
0
100
AcDbSpline
62
7
6
CONTINUOUS
70
0
71
3
72
11
73
7
74
5
42
0.0000001000
43
0.0000001000
44
0.0000000001
12
0.2396703768
22
0.1194177922
32
0.0000000000
13
0.0000000000
23
0.2674352735
33
0.0000000000
40
0.0000000000
40
0.0000000000
40
0.0000000000
40
0.0000000000
40
0.1604268734
40
0.4454209176
40
0.7220007722
40
1.0000000000
40
1.0000000000
40
1.0000000000
40
1.0000000000
10
-2.4412179135
20
-16.2146042048
30
0.0000000000
10
-2.4284013904
20
-16.2082182638
30
0.0000000000
10
-2.3936709691
20
-16.1887833348
30
0.0000000000
10
-2.3425040032
20
-16.1488362272
30
0.0000000000
10
-2.2971071281
20
-16.0877911670
30
0.0000000000
10
-2.2847541183
20
-16.0378690187
30
0.0000000000
10
-2.2847541183
20
-16.0130867522
30
0.0000000000
11
-2.4412179135
21
-16.2146042048
31
0.0000000000
11
-2.4037942034
21
-16.1935427577
31
0.0000000000
11
-2.3443370777
21
-16.1458567909
31
0.0000000000
11
-2.3015697999
21
-16.0855069113
31
0.0000000000
11
-2.2847541183
21
-16.0130867522
31
0.0000000000
0
SPLINE
5
38A
100
AcDbEntity
8
0
100
AcDbSpline
62
7
6
CONTINUOUS
70
0
71
3
72
12
73
8
74
6
42
0.0000001000
43
0.0000001000
44
0.0000000001
12
0.0000000000
22
0.4409637184
32
0.0000000000
13
0.3944099400
23
0.1972049700
33
0.0000000000
40
0.0000000000
40
0.0000000000
40
0.0000000000
40
0.0000000000
40
0.1943894074
40
0.4051922094
40
0.6169088013
40
0.8200336078
40
1.0000000000
40
1.0000000000
40
1.0000000000
40
1.0000000000
10
-2.2847541183
20
-6.4002047701
30
0.0000000000
10
-2.2847541183
20
-6.3716318782
30
0.0000000000
10
-2.2768625370
20
-6.3119765675
30
0.0000000000
10
-2.2468396652
20
-6.2258700153
30
0.0000000000
10
-2.2005770959
20
-6.1457232339
30
0.0000000000
10
-2.1426537489
20
-6.0794865559
30
0.0000000000
10
-2.0962822619
20
-6.0461612208
30
0.0000000000
10
-2.0726220839
20
-6.0343311318
30
0.0000000000
11
-2.2847541183
21
-6.4002047701
31
0.0000000000
11
-2.2744599727
21
-6.3151064625
31
0.0000000000
11
-2.2442256390
21
-6.2272043861
31
0.0000000000
11
-2.1974093225
21
-6.1464318781
31
0.0000000000
11
-2.1378498920
21
-6.0795321086
31
0.0000000000
11
-2.0726220839
21
-6.0343311318
31
0.0000000000
0
SPLINE
5
38B
100
AcDbEntity
8
0
100
AcDbSpline
62
7
6
CONTINUOUS
70
0
71
3
72
12
73
8
74
6
42
0.0000001000
43
0.0000001000
44
0.0000000001
12
0.3944099485
22
0.1972049743
32
0.0000000000
13
0.0000000000
23
0.4409637280
33
0.0000000000
40
0.0000000000
40
0.0000000000
40
0.0000000000
40
0.0000000000
40
0.1801238002
40
0.3827869496
40
0.5944974290
40
0.8057778055
40
1.0000000000
40
1.0000000000
40
1.0000000000
40
1.0000000000
10
-1.4362259808
20
-5.7161330803
30
0.0000000000
10
-1.4125451079
20
-5.7042926438
30
0.0000000000
10
-1.3662135763
20
-5.6709868727
30
0.0000000000
10
-1.3083159302
20
-5.6047936420
30
0.0000000000
10
-1.2620306536
20
-5.5246579992
30
0.0000000000
10
-1.2319850294
20
-5.4385083728
30
0.0000000000
10
-1.2240939465
20
-5.3788077563
30
0.0000000000
10
-1.2240939465
20
-5.3502594420
30
0.0000000000
11
-1.4362259808
21
-5.7161330803
31
0.0000000000
11
-1.3709460709
21
-5.6708854234
31
0.0000000000
11
-1.3115174411
21
-5.6041417634
31
0.0000000000
11
-1.2646796457
21
-5.5233848221
31
0.0000000000
11
-1.2343712483
21
-5.4352855163
31
0.0000000000
11
-1.2240939465
21
-5.3502594420
31
0.0000000000
0
SPLINE
5
38C
100
AcDbEntity
8
0
100
AcDbSpline
62
7
6
CONTINUOUS
70
0
71
3
72
8
73
4
74
2
42
0.0000001000
43
0.0000001000
44
0.0000000001
12
-0.0793620272
22
0.0728329608
32
0.0000000000
13
-0.0962311087
23
0.0481727015
33
0.0000000000
40
0.0000000000
40
0.0000000000
40
0.0000000000
40
0.0000000000
40
1.0000000000
40
1.0000000000
40
1.0000000000
40
1.0000000000
10
-3.0220687395
20
4.3554186851
30
0.0000000000
10
-3.0485227486
20
4.3796963388
30
0.0000000000
10
-3.0782439781
20
4.4004890727
30
0.0000000000
10
-3.1103210143
20
4.4165466399
30
0.0000000000
11
-3.0220687395
21
4.3554186851
31
0.0000000000
11
-3.1103210143
21
4.4165466399
31
0.0000000000
0
SPLINE
5
38D
100
AcDbEntity
8
0
100
AcDbSpline
62
7
6
CONTINUOUS
70
0
71
3
72
10
73
6
74
4
42
0.0000001000
43
0.0000001000
44
0.0000000001
12
-0.1665377100
22
0.0833677539
32
0.0000000000
13
-0.1860381753
23
-0.0000409498
33
0.0000000000
40
0.0000000000
40
0.0000000000
40
0.0000000000
40
0.0000000000
40
0.0320592269
40
0.7863437130
40
1.0000000000
40
1.0000000000
40
1.0000000000
40
1.0000000000
10
-3.1103210143
20
4.4165466399
30
0.0000000000
10
-3.1121007044
20
4.4174375418
30
0.0000000000
10
-3.1559305334
20
4.4389319293
30
0.0000000000
10
-3.2170983367
20
4.4549514412
30
0.0000000000
10
-3.2771201985
20
4.4575637092
30
0.0000000000
10
-3.2903696071
20
4.4575607928
30
0.0000000000
11
-3.1103210143
21
4.4165466399
31
0.0000000000
11
-3.1156816840
21
4.4191754044
31
0.0000000000
11
-3.2506623217
21
4.4557822647
31
0.0000000000
11
-3.2903696071
21
4.4575607928
31
0.0000000000
0
SPLINE
5
38E
100
AcDbEntity
8
0
100
AcDbSpline
62
7
6
CONTINUOUS
70
0
71
3
72
11
73
7
74
5
42
0.0000001000
43
0.0000001000
44
0.0000000001
12
0.4275306123
22
0.2196974176
32
0.0000000000
13
0.0270397507
23
0.4805680293
33
0.0000000000
40
0.0000000000
40
0.0000000000
40
0.0000000000
40
0.0000000000
40
0.2256180775
40
0.4787788813
40
0.7741874474
40
1.0000000000
40
1.0000000000
40
1.0000000000
40
1.0000000000
10
-23.7860190563
20
-34.2567732555
30
0.0000000000
10
-23.7538661781
20
-34.2402506859
30
0.0000000000
10
-23.6932405016
20
-34.1894450431
30
0.0000000000
10
-23.6309292965
20
-34.0802444588
30
0.0000000000
10
-23.5974785660
20
-33.9597960718
30
0.0000000000
10
-23.5881167256
20
-33.8765177305
30
0.0000000000
10
-23.5860814206
20
-33.8403449660
30
0.0000000000
11
-23.7860190563
21
-34.2567732555
31
0.0000000000
11
-23.7016336637
21
-34.1886532765
31
0.0000000000
11
-23.6386862216
21
-34.0845107543
31
0.0000000000
11
-23.5986973105
21
-33.9482621098
31
0.0000000000
11
-23.5860814206
21
-33.8403449660
31
0.0000000000
0
SPLINE
5
38F
100
AcDbEntity
8
0
100
AcDbSpline
62
7
6
CONTINUOUS
70
0
71
3
72
8
73
4
74
2
42
0.0000001000
43
0.0000001000
44
0.0000000001
12
0.0032693226
22
0.0581045265
32
0.0000000000
13
0.0000000000
23
0.0581175762
33
0.0000000000
40
0.0000000000
40
0.0000000000
40
0.0000000000
40
0.0000000000
40
1.0000000000
40
1.0000000000
40
1.0000000000
40
1.0000000000
10
-23.5860814206
20
-33.8403449660
30
0.0000000000
10
-23.5849916464
20
-33.8209767905
30
0.0000000000
10
-23.5844811587
20
-33.8015818206
30
0.0000000000
10
-23.5844811587
20
-33.7822092951
30
0.0000000000
11
-23.5860814206
21
-33.8403449660
31
0.0000000000
11
-23.5844811587
21
-33.7822092951
31
0.0000000000
0
SPLINE
5
390
100
AcDbEntity
8
0
100
AcDbSpline
62
7
6
CONTINUOUS
70
0
71
3
72
8
73
4
74
2
42
0.0000001000
43
0.0000001000
44
0.0000000001
12
-0.0443881294
22
0.0221940647
32
0.0000000000
13
-0.0458878676
23
0.0191594249
33
0.0000000000
40
0.0000000000
40
0.0000000000
40
0.0000000000
40
0.0000000000
40
1.0000000000
40
1.0000000000
40
1.0000000000
40
1.0000000000
10
-35.6435708922
20
-20.7657870927
30
0.0000000000
10
-35.6583669353
20
-20.7583890711
30
0.0000000000
10
-35.6734225804
20
-20.7514452813
30
0.0000000000
10
-35.6887185363
20
-20.7450588063
30
0.0000000000
11
-35.6435708922
21
-20.7657870927
31
0.0000000000
11
-35.6887185363
21
-20.7450588063
31
0.0000000000
0
SPLINE
5
391
100
AcDbEntity
8
0
100
AcDbSpline
62
7
6
CONTINUOUS
70
0
71
3
72
8
73
4
74
2
42
0.0000001000
43
0.0000001000
44
0.0000000001
12
-0.0439562345
22
0.0183529159
32
0.0000000000
13
-0.0452283964
23
0.0150128034
33
0.0000000000
40
0.0000000000
40
0.0000000000
40
0.0000000000
40
0.0000000000
40
1.0000000000
40
1.0000000000
40
1.0000000000
40
1.0000000000
10
-35.6887185363
20
-20.7450588063
30
0.0000000000
10
-35.7033706144
20
-20.7389411677
30
0.0000000000
10
-35.7182431976
20
-20.7333349116
30
0.0000000000
10
-35.7333193297
20
-20.7283306438
30
0.0000000000
11
-35.6887185363
21
-20.7450588063
31
0.0000000000
11
-35.7333193297
21
-20.7283306438
31
0.0000000000
0
SPLINE
5
392
100
AcDbEntity
8
0
100
AcDbSpline
62
7
6
CONTINUOUS
70
0
71
3
72
9
73
5
74
3
42
0.0000001000
43
0.0000001000
44
0.0000000001
12
-0.0837366161
22
0.0277910690
32
0.0000000000
13
-0.0873422825
23
0.0132290229
33
0.0000000000
40
0.0000000000
40
0.0000000000
40
0.0000000000
40
0.0000000000
40
0.5143989617
40
1.0000000000
40
1.0000000000
40
1.0000000000
40
1.0000000000
10
-35.7333429753
20
-20.7283227955
30
0.0000000000
10
-35.7477009848
20
-20.7235575632
30
0.0000000000
10
-35.7759720676
20
-20.7153553698
30
0.0000000000
10
-35.8048854638
20
-20.7095125099
30
0.0000000000
10
-35.8190232981
20
-20.7073711675
30
0.0000000000
11
-35.7333429753
21
-20.7283227955
31
0.0000000000
11
-35.7769561762
21
-20.7157434582
31
0.0000000000
11
-35.8190232981
21
-20.7073711675
31
0.0000000000
0
SPLINE
5
393
100
AcDbEntity
8
0
100
AcDbSpline
62
7
6
CONTINUOUS
70
0
71
3
72
9
73
5
74
3
42
0.0000001000
43
0.0000001000
44
0.0000000001
12
-0.1863242313
22
0.0282210111
32
0.0000000000
13
-0.1688481734
23
-0.0821069896
33
0.0000000000
40
0.0000000000
40
0.0000000000
40
0.0000000000
40
0.0000000000
40
0.4215471696
40
1.0000000000
40
1.0000000000
40
1.0000000000
40
1.0000000000
10
-35.8190232981
20
-20.7073711675
30
0.0000000000
10
-35.8452047822
20
-20.7034056717
30
0.0000000000
10
-35.9081057243
20
-20.6996605213
30
0.0000000000
10
-35.9709574756
20
-20.7143358629
30
0.0000000000
10
-36.0035143769
20
-20.7301675364
30
0.0000000000
11
-35.8190232981
21
-20.7073711675
31
0.0000000000
11
-35.8982274691
21
-20.7035215152
31
0.0000000000
11
-36.0035143769
21
-20.7301675364
31
0.0000000000
0
SPLINE
5
394
100
AcDbEntity
8
0
100
AcDbSpline
62
7
6
CONTINUOUS
70
0
71
3
72
11
73
7
74
5
42
0.0000001000
43
0.0000001000
44
0.0000000001
12
-0.5079603644
22
-0.2672455871
32
0.0000000000
13
-0.0010429396
23
-0.5757463459
33
0.0000000000
40
0.0000000000
40
0.0000000000
40
0.0000000000
40
0.0000000000
40
0.2050238892
40
0.5074638855
40
0.7866485161
40
1.0000000000
40
1.0000000000
40
1.0000000000
40
1.0000000000
10
-18.7432009134
20
4.7966620989
30
0.0000000000
10
-18.7779155832
20
4.7783981890
30
0.0000000000
10
-18.8608071147
20
4.7273078933
30
0.0000000000
10
-18.9711420610
20
4.6223977319
30
0.0000000000
10
-19.0429810324
20
4.4851466757
30
0.0000000000
10
-19.0572369876
20
4.3906638409
30
0.0000000000
10
-19.0573111585
20
4.3497183952
30
0.0000000000
11
-18.7432009134
21
4.7966620989
31
0.0000000000
11
-18.8429824953
21
4.7344080612
31
0.0000000000
11
-18.9665573095
21
4.6131181765
31
0.0000000000
11
-19.0392100300
21
4.4707452753
31
0.0000000000
11
-19.0573111585
21
4.3497183952
31
0.0000000000
0
SPLINE
5
395
100
AcDbEntity
8
0
100
AcDbSpline
62
7
6
CONTINUOUS
70
0
71
3
72
11
73
7
74
5
42
0.0000001000
43
0.0000001000
44
0.0000000001
12
-0.5079603644
22
-0.2672455871
32
0.0000000000
13
-0.0010429396
23
-0.5757463459
33
0.0000000000
40
0.0000000000
40
0.0000000000
40
0.0000000000
40
0.0000000000
40
0.2050238892
40
0.5074638855
40
0.7866485161
40
1.0000000000
40
1.0000000000
40
1.0000000000
40
1.0000000000
10
-34.8652355244
20
12.8576794045
30
0.0000000000
10
-34.8999501942
20
12.8394154946
30
0.0000000000
10
-34.9828417257
20
12.7883251988
30
0.0000000000
10
-35.0931766721
20
12.6834150374
30
0.0000000000
10
-35.1650156434
20
12.5461639813
30
0.0000000000
10
-35.1792715987
20
12.4516811465
30
0.0000000000
10
-35.1793457696
20
12.4107357007
30
0.0000000000
11
-34.8652355244
21
12.8576794045
31
0.0000000000
11
-34.9650171064
21
12.7954253667
31
0.0000000000
11
-35.0885919205
21
12.6741354821
31
0.0000000000
11
-35.1612446411
21
12.5317625808
31
0.0000000000
11
-35.1793457696
21
12.4107357007
31
0.0000000000
0
SPLINE
5
396
100
AcDbEntity
8
0
100
AcDbSpline
62
7
6
CONTINUOUS
70
0
71
3
72
8
73
4
74
2
42
0.0000001000
43
0.0000001000
44
0.0000000001
12
0.0001013838
22
-0.0388055662
32
0.0000000000
13
0.0037922280
23
-0.0386250789
33
0.0000000000
40
0.0000000000
40
0.0000000000
40
0.0000000000
40
0.0000000000
40
1.0000000000
40
1.0000000000
40
1.0000000000
40
1.0000000000
10
-19.0573129165
20
-36.7082378982
30
0.0000000000
10
-19.0572791219
20
-36.7211730869
30
0.0000000000
10
-19.0566198333
20
-36.7341059188
30
0.0000000000
10
-19.0553557573
20
-36.7469809451
30
0.0000000000
11
-19.0573129165
21
-36.7082378982
31
0.0000000000
11
-19.0553557573
21
-36.7469809451
31
0.0000000000
0
SPLINE
5
397
100
AcDbEntity
8
0
100
AcDbSpline
62
7
6
CONTINUOUS
70
0
71
3
72
15
73
11
74
9
42
0.0000001000
43
0.0000001000
44
0.0000000001
12
0.1670632549
22
-1.7015937429
32
0.0000000000
13
1.5346799624
23
0.7293206506
33
0.0000000000
40
0.0000000000
40
0.0000000000
40
0.0000000000
40
0.0000000000
40
0.0716525767
40
0.1841812243
40
0.3113812730
40
0.4526286894
40
0.6037039358
40
0.7576706441
40
0.9058418903
40
1.0000000000
40
1.0000000000
40
1.0000000000
40
1.0000000000
10
-19.0553557573
20
-36.7469809451
30
0.0000000000
10
-19.0513655864
20
-36.7876221372
30
0.0000000000
10
-19.0256188969
20
-36.8906088037
30
0.0000000000
10
-18.9220507801
20
-37.0388051506
30
0.0000000000
10
-18.7418086339
20
-37.1628930732
30
0.0000000000
10
-18.5168980808
20
-37.2439287767
30
0.0000000000
10
-18.2662327992
20
-37.2826967754
30
0.0000000000
10
-18.0087701661
20
-37.2791678457
30
0.0000000000
10
-17.7873784868
20
-37.2382635283
30
0.0000000000
10
-17.6578815805
20
-37.1902340291
30
0.0000000000
10
-17.6097140591
20
-37.1673435445
30
0.0000000000
11
-19.0553557573
21
-36.7469809451
31
0.0000000000
11
-19.0259580985
21
-36.8654325842
31
0.0000000000
11
-18.9195094061
21
-37.0238877124
31
0.0000000000
11
-18.7446571325
21
-37.1503287204
31
0.0000000000
11
-18.5204227850
21
-37.2347759025
31
0.0000000000
11
-18.2673766687
21
-37.2753634467
31
0.0000000000
11
-18.0062177880
21
-37.2716352732
31
0.0000000000
11
-17.7594026060
21
-37.2240831715
31
0.0000000000
11
-17.6097140591
21
-37.1673435445
31
0.0000000000
0
SPLINE
5
398
100
AcDbEntity
8
0
100
AcDbSpline
62
7
6
CONTINUOUS
70
0
71
3
72
11
73
7
74
5
42
0.0000001000
43
0.0000001000
44
0.0000000001
12
0.7218563371
22
-0.3626942351
32
0.0000000000
13
0.7294507156
23
0.3430598736
33
0.0000000000
40
0.0000000000
40
0.0000000000
40
0.0000000000
40
0.0000000000
40
0.1566078853
40
0.4475530617
40
0.7596361060
40
1.0000000000
40
1.0000000000
40
1.0000000000
40
1.0000000000
10
-21.1921867744
20
-37.1354628462
30
0.0000000000
10
-21.1545039762
20
-37.1543964386
30
0.0000000000
10
-21.0420360165
20
-37.1994378986
30
0.0000000000
10
-20.8372591619
20
-37.2275864755
30
0.0000000000
10
-20.6110013567
20
-37.1931708638
30
0.0000000000
10
-20.4716255857
20
-37.1402488953
30
0.0000000000
10
-20.4131810476
20
-37.1127624929
30
0.0000000000
11
-21.1921867744
21
-37.1354628462
31
0.0000000000
11
-21.0747927527
21
-37.1824338555
31
0.0000000000
11
-20.8431399874
21
-37.2158735209
31
0.0000000000
11
-20.5945789826
21
-37.1805497068
31
0.0000000000
11
-20.4131810476
21
-37.1127624929
31
0.0000000000
0
SPLINE
5
399
100
AcDbEntity
8
0
100
AcDbSpline
62
7
6
CONTINUOUS
70
0
71
3
72
13
73
9
74
7
42
0.0000001000
43
0.0000001000
44
0.0000000001
12
-1.8528809782
22
-0.9831555709
32
0.0000000000
13
0.0003377507
23
-2.0956418429
33
0.0000000000
40
0.0000000000
40
0.0000000000
40
0.0000000000
40
0.0000000000
40
0.1239778617
40
0.2983509482
40
0.4803630512
40
0.6645513938
40
0.8453808158
40
1.0000000000
40
1.0000000000
40
1.0000000000
40
1.0000000000
10
-37.5720838392
20
10.0479526791
30
0.0000000000
10
-37.6486559131
20
10.0073228373
30
0.0000000000
10
-37.8233033943
20
9.8902579063
30
0.0000000000
10
-38.0621532926
20
9.6520192996
30
0.0000000000
10
-38.2782263926
20
9.3402130766
30
0.0000000000
10
-38.4418437110
20
8.9931347337
30
0.0000000000
10
-38.5407777412
20
8.6423385766
30
0.0000000000
10
-38.5644041763
20
8.4075770108
30
0.0000000000
10
-38.5643867687
20
8.2995682001
30
0.0000000000
11
-37.5720838392
21
10.0479526791
31
0.0000000000
11
-37.7892620056
21
9.9046952809
31
0.0000000000
11
-38.0500350293
21
9.6489098874
31
0.0000000000
11
-38.2682548572
21
9.3362510748
31
0.0000000000
11
-38.4327446304
21
8.9872300079
31
0.0000000000
11
-38.5340744784
21
8.6222305818
31
0.0000000000
11
-38.5643867687
21
8.2995682001
31
0.0000000000
0
SPLINE
5
39A
100
AcDbEntity
8
0
100
AcDbSpline
62
7
6
CONTINUOUS
70
0
71
3
72
8
73
4
74
2
42
0.0000001000
43
0.0000001000
44
0.0000000001
12
-0.0000270479
22
-0.0929666253
32
0.0000000000
13
0.0056154116
23
-0.0928701481
33
0.0000000000
40
0.0000000000
40
0.0000000000
40
0.0000000000
40
0.0000000000
40
1.0000000000
40
1.0000000000
40
1.0000000000
40
1.0000000000
10
-38.5643982744
20
-27.7811730699
30
0.0000000000
10
-38.5644072904
20
-27.8121619450
30
0.0000000000
10
-38.5635157950
20
-27.8431718608
30
0.0000000000
10
-38.5616439911
20
-27.8741285768
30
0.0000000000
11
-38.5643982744
21
-27.7811730699
31
0.0000000000
11
-38.5616439911
21
-27.8741285768
31
0.0000000000
0
SPLINE
5
39B
100
AcDbEntity
8
0
100
AcDbSpline
62
9
6
CONTINUOUS
70
0
71
3
72
8
73
4
74
2
42
0.0000001000
43
0.0000001000
44
0.0000000001
12
0.0000000000
22
0.0411336191
32
0.0000000000
13
0.0070603958
23
0.0407035873
33
0.0000000000
40
0.0000000000
40
0.0000000000
40
0.0000000000
40
0.0000000000
40
1.0000000000
40
1.0000000000
40
1.0000000000
40
1.0000000000
10
-24.3818410303
20
-34.4732570225
30
0.0000000000
10
-24.3818410303
20
-34.4595458162
30
0.0000000000
10
-24.3805455708
20
-34.4458211490
30
0.0000000000
10
-24.3781921056
20
-34.4322532865
30
0.0000000000
11
-24.3818410303
21
-34.4732570225
31
0.0000000000
11
-24.3781921056
21
-34.4322532865
31
0.0000000000
0
SPLINE
5
39C
100
AcDbEntity
8
0
100
AcDbSpline
62
9
6
CONTINUOUS
70
0
71
3
72
8
73
4
74
2
42
0.0000001000
43
0.0000001000
44
0.0000000001
12
0.0014194038
22
-0.0311957212
32
0.0000000000
13
0.0006971286
23
-0.0312166613
33
0.0000000000
40
0.0000000000
40
0.0000000000
40
0.0000000000
40
0.0000000000
40
1.0000000000
40
1.0000000000
40
1.0000000000
40
1.0000000000
10
-23.5272900807
20
-27.7303797057
30
0.0000000000
10
-23.5268169461
20
-27.7407782794
30
0.0000000000
10
-23.5264621031
20
-27.7511818847
30
0.0000000000
10
-23.5262297269
20
-27.7615874385
30
0.0000000000
11
-23.5272900807
21
-27.7303797057
31
0.0000000000
11
-23.5262297269
21
-27.7615874385
31
0.0000000000
0
SPLINE
5
39D
100
AcDbEntity
8
0
100
AcDbSpline
62
9
6
CONTINUOUS
70
0
71
3
72
8
73
4
74
2
42
0.0000001000
43
0.0000001000
44
0.0000000001
12
0.0006510234
22
-0.0291521213
32
0.0000000000
13
0.0000000000
23
-0.0291547844
33
0.0000000000
40
0.0000000000
40
0.0000000000
40
0.0000000000
40
0.0000000000
40
1.0000000000
40
1.0000000000
40
1.0000000000
40
1.0000000000
10
-23.5262297269
20
-27.7615874385
30
0.0000000000
10
-23.5260127191
20
-27.7713048122
30
0.0000000000
10
-23.5259025149
20
-27.7810238853
30
0.0000000000
10
-23.5259025149
20
-27.7907421468
30
0.0000000000
11
-23.5262297269
21
-27.7615874385
31
0.0000000000
11
-23.5259025149
21
-27.7907421468
31
0.0000000000
0
SPLINE
5
39E
100
AcDbEntity
8
0
100
AcDbSpline
62
9
6
CONTINUOUS
70
0
71
3
72
9
73
5
74
3
42
0.0000001000
43
0.0000001000
44
0.0000000001
12
-0.1063999952
22
0.0513591218
32
0.0000000000
13
-0.1062522322
23
-0.0543899091
33
0.0000000000
40
0.0000000000
40
0.0000000000
40
0.0000000000
40
0.0000000000
40
0.5987325233
40
1.0000000000
40
1.0000000000
40
1.0000000000
40
1.0000000000
10
-18.6280240290
20
4.7912810351
30
0.0000000000
10
-18.6492590749
20
4.8015311606
30
0.0000000000
10
-18.6886471469
20
4.8134394492
30
0.0000000000
10
-18.7289196685
20
4.8038019558
30
0.0000000000
10
-18.7431315235
20
4.7965269886
30
0.0000000000
11
-18.6280240290
21
4.7912810351
31
0.0000000000
11
-18.6967419724
21
4.8080671744
31
0.0000000000
11
-18.7431315235
21
4.7965269886
31
0.0000000000
0
SPLINE
5
39F
100
AcDbEntity
8
0
100
AcDbSpline
62
9
6
CONTINUOUS
70
0
71
3
72
9
73
5
74
3
42
0.0000001000
43
0.0000001000
44
0.0000000001
12
-0.1063999952
22
0.0513591218
32
0.0000000000
13
-0.1062522322
23
-0.0543899091
33
0.0000000000
40
0.0000000000
40
0.0000000000
40
0.0000000000
40
0.0000000000
40
0.5987325233
40
1.0000000000
40
1.0000000000
40
1.0000000000
40
1.0000000000
10
-34.7500586401
20
12.8522983406
30
0.0000000000
10
-34.7712936859
20
12.8625484661
30
0.0000000000
10
-34.8106817579
20
12.8744567547
30
0.0000000000
10
-34.8509542795
20
12.8648192613
30
0.0000000000
10
-34.8651661346
20
12.8575442941
30
0.0000000000
11
-34.7500586401
21
12.8522983406
31
0.0000000000
11
-34.8187765835
21
12.8690844799
31
0.0000000000
11
-34.8651661346
21
12.8575442941
31
0.0000000000
0
SPLINE
5
3A0
100
AcDbEntity
8
0
100
AcDbSpline
62
9
6
CONTINUOUS
70
0
71
3
72
15
73
11
74
9
42
0.0000001000
43
0.0000001000
44
0.0000000001
12
-0.0096537610
22
-1.5140735807
32
0.0000000000
13
1.4529186467
23
0.3766099159
33
0.0000000000
40
0.0000000000
40
0.0000000000
40
0.0000000000
40
0.0000000000
40
0.0230790193
40
0.1125600385
40
0.2217021726
40
0.3542157257
40
0.5066724359
40
0.6716605683
40
0.8396562573
40
1.0000000000
40
1.0000000000
40
1.0000000000
40
1.0000000000
10
-19.0570059974
20
-36.7081420116
30
0.0000000000
10
-19.0570802639
20
-36.7197897895
30
0.0000000000
10
-19.0531093715
20
-36.7764574223
30
0.0000000000
10
-19.0009007441
20
-36.8798643711
30
0.0000000000
10
-18.8723599365
20
-36.9877394575
30
0.0000000000
10
-18.6935045717
20
-37.0732619174
30
0.0000000000
10
-18.4754641516
20
-37.1314576868
30
0.0000000000
10
-18.2337750358
20
-37.1583787542
30
0.0000000000
10
-17.9867277889
20
-37.1517347526
30
0.0000000000
10
-17.8245760212
20
-37.1242408871
30
0.0000000000
10
-17.7469205500
20
-37.1041118727
30
0.0000000000
11
-19.0570059974
21
-36.7081420116
31
0.0000000000
11
-19.0545044855
21
-36.7428525746
31
0.0000000000
11
-18.9993755102
21
-36.8650240969
31
0.0000000000
11
-18.8781967677
21
-36.9747639776
31
0.0000000000
11
-18.7006596546
21
-37.0635323834
31
0.0000000000
11
-18.4805630374
21
-37.1244275718
31
0.0000000000
11
-18.2350352346
21
-37.1525774401
31
0.0000000000
11
-17.9834909564
21
-37.1455917508
31
0.0000000000
11
-17.7469205500
21
-37.1041118727
31
0.0000000000
0
SPLINE
5
3A1
100
AcDbEntity
8
0
100
AcDbSpline
62
9
6
CONTINUOUS
70
0
71
3
72
13
73
9
74
7
42
0.0000001000
43
0.0000001000
44
0.0000000001
12
-0.8510450806
22
0.4283412327
32
0.0000000000
13
0.0000004486
23
0.9492857112
33
0.0000000000
40
0.0000000000
40
0.0000000000
40
0.0000000000
40
0.0000000000
40
0.0072343698
40
0.2050363559
40
0.4098378562
40
0.6189066411
40
0.8212702143
40
1.0000000000
40
1.0000000000
40
1.0000000000
40
1.0000000000
10
-21.1922160088
20
-37.1355113249
30
0.0000000000
10
-21.1942682671
20
-37.1344783986
30
0.0000000000
10
-21.2522549781
20
-37.1048497444
30
0.0000000000
10
-21.3577864221
20
-37.0256090482
30
0.0000000000
10
-21.4720332011
20
-36.8662808685
30
0.0000000000
10
-21.5442514528
20
-36.6835321254
30
0.0000000000
10
-21.5797251124
20
-36.4993889595
30
0.0000000000
10
-21.5862290344
20
-36.3786727873
30
0.0000000000
10
-21.5862290077
20
-36.3221175767
30
0.0000000000
11
-21.1922160088
21
-37.1355113249
31
0.0000000000
11
-21.1983537360
21
-37.1323751351
31
0.0000000000
11
-21.3491116101
21
-37.0204382722
31
0.0000000000
11
-21.4641840973
21
-36.8637361070
31
0.0000000000
11
-21.5389727014
21
-36.6799007952
31
0.0000000000
11
-21.5765205670
21
-36.4915052173
31
0.0000000000
11
-21.5862290077
21
-36.3221175767
31
0.0000000000
0
SPLINE
5
3A2
100
AcDbEntity
8
0
100
AcDbSpline
62
9
6
CONTINUOUS
70
0
71
3
72
10
73
6
74
4
42
0.0000001000
43
0.0000001000
44
0.0000000001
12
-0.0009118232
22
-0.1577059814
32
0.0000000000
13
-0.1448581400
23
-0.0674147168
33
0.0000000000
40
0.0000000000
40
0.0000000000
40
0.0000000000
40
0.0000000000
40
0.4911243064
40
0.8942899211
40
1.0000000000
40
1.0000000000
40
1.0000000000
40
1.0000000000
10
-17.5435419013
20
-37.0315287850
30
0.0000000000
10
-17.5436911742
20
-37.0573465319
30
0.0000000000
10
-17.5501804812
20
-37.1049671673
30
0.0000000000
10
-17.5812431393
20
-37.1512151553
30
0.0000000000
10
-17.6047040853
20
-37.1647656411
30
0.0000000000
10
-17.6098084071
20
-37.1671411128
30
0.0000000000
11
-17.5435419013
21
-37.0315287850
31
0.0000000000
11
-17.5572396447
21
-37.1077624841
31
0.0000000000
11
-17.5952871661
21
-37.1587050478
31
0.0000000000
11
-17.6098084071
21
-37.1671411128
31
0.0000000000
0
SPLINE
5
3A3
100
AcDbEntity
8
0
100
AcDbSpline
62
9
6
CONTINUOUS
70
0
71
3
72
9
73
5
74
3
42
0.0000001000
43
0.0000001000
44
0.0000000001
12
-0.1064534716
22
0.0513772372
32
0.0000000000
13
-0.1061670630
23
-0.0546357054
33
0.0000000000
40
0.0000000000
40
0.0000000000
40
0.0000000000
40
0.0000000000
40
0.5981040206
40
1.0000000000
40
1.0000000000
40
1.0000000000
40
1.0000000000
10
-37.4568750667
20
10.0426176231
30
0.0000000000
10
-37.4780984832
20
10.0528606005
30
0.0000000000
10
-37.5174877593
20
10.0648043190
30
0.0000000000
10
-37.5578000261
20
10.0551533158
30
0.0000000000
10
-37.5720227313
20
10.0478340257
30
0.0000000000
11
-37.4568750667
21
10.0426176231
31
0.0000000000
11
-37.5255464320
21
10.0594227270
31
0.0000000000
11
-37.5720227313
21
10.0478340257
31
0.0000000000
0
SPLINE
5
3A4
100
AcDbEntity
8
0
100
AcDbSpline
62
9
6
CONTINUOUS
70
0
71
3
72
10
73
6
74
4
42
0.0000001000
43
0.0000001000
44
0.0000000001
12
-0.1065944503
22
0.0532972252
32
0.0000000000
13
0.0003877998
23
0.1184590193
33
0.0000000000
40
0.0000000000
40
0.0000000000
40
0.0000000000
40
0.0000000000
40
0.5626030211
40
0.9913052346
40
1.0000000000
40
1.0000000000
40
1.0000000000
40
1.0000000000
10
-38.4911615520
20
8.2112408197
30
0.0000000000
10
-38.5111516719
20
8.2212358796
30
0.0000000000
10
-38.5452231887
20
8.2428426106
30
0.0000000000
10
-38.5642777548
20
8.2819554217
30
0.0000000000
10
-38.5643827641
20
8.2992248654
30
0.0000000000
10
-38.5643816402
20
8.2995681898
30
0.0000000000
11
-38.4911615520
21
8.2112408197
31
0.0000000000
11
-38.5449350996
21
8.2512902971
31
0.0000000000
11
-38.5643753374
21
8.2985383504
31
0.0000000000
11
-38.5643816402
21
8.2995681898
31
0.0000000000
0
SPLINE
5
3A5
100
AcDbEntity
8
0
100
AcDbSpline
62
9
6
CONTINUOUS
70
0
71
3
72
12
73
8
74
6
42
0.0000001000
43
0.0000001000
44
0.0000000001
12
0.0000000056
22
-0.8705673285
32
0.0000000000
13
0.7258625886
23
-0.4873271782
33
0.0000000000
40
0.0000000000
40
0.0000000000
40
0.0000000000
40
0.0000000000
40
0.1949933501
40
0.4148555174
40
0.6406767158
40
0.8600914992
40
1.0000000000
40
1.0000000000
40
1.0000000000
40
1.0000000000
10
-38.4911615520
20
-27.8696513046
30
0.0000000000
10
-38.4911615516
20
-27.9262362512
30
0.0000000000
10
-38.4848545057
20
-28.0467439960
30
0.0000000000
10
-38.4504451800
20
-28.2302089422
30
0.0000000000
10
-38.3804932127
20
-28.4116429624
30
0.0000000000
10
-38.2816540395
20
-28.5524196107
30
0.0000000000
10
-38.2010144332
20
-28.6203157904
30
0.0000000000
10
-38.1671629843
20
-28.6430428621
30
0.0000000000
11
-38.4911615520
21
-27.8696513046
31
0.0000000000
11
-38.4817035389
21
-28.0391424596
31
0.0000000000
11
-38.4451829839
21
-28.2270308681
31
0.0000000000
11
-38.3725190844
21
-28.4097015864
31
0.0000000000
11
-38.2607874159
21
-28.5646302638
31
0.0000000000
11
-38.1671629843
21
-28.6430428621
31
0.0000000000
0
SPLINE
5
3A6
100
AcDbEntity
8
0
100
AcDbSpline
62
9
6
CONTINUOUS
70
0
71
3
72
9
73
5
74
3
42
0.0000001000
43
0.0000001000
44
0.0000000001
12
0.0574037839
22
-0.0385395590
32
0.0000000000
13
0.0617938523
23
-0.0309482043
33
0.0000000000
40
0.0000000000
40
0.0000000000
40
0.0000000000
40
0.0000000000
40
0.8872744102
40
1.0000000000
40
1.0000000000
40
1.0000000000
40
1.0000000000
10
-38.1671629843
20
-28.6430428621
30
0.0000000000
10
-38.1501853481
20
-28.6544412502
30
0.0000000000
10
-38.1303553242
20
-28.6662361716
30
0.0000000000
10
-38.1098329683
20
-28.6767021649
30
0.0000000000
10
-38.1075110522
20
-28.6778650498
30
0.0000000000
11
-38.1671629843
21
-28.6430428621
31
0.0000000000
11
-38.1144509602
21
-28.6743257076
31
0.0000000000
11
-38.1075110522
21
-28.6778650498
31
0.0000000000
0
SPLINE
5
3A7
100
AcDbEntity
8
0
100
AcDbSpline
62
7
6
CONTINUOUS
70
0
71
3
72
8
73
4
74
2
42
0.0000001000
43
0.0000001000
44
0.0000000001
12
0.0315555124
22
0.0162155981
32
0.0000000000
13
0.0291154472
23
0.0205902733
33
0.0000000000
40
0.0000000000
40
0.0000000000
40
0.0000000000
40
0.0000000000
40
1.0000000000
40
1.0000000000
40
1.0000000000
40
1.0000000000
10
-23.7860190563
20
-34.2567732555
30
0.0000000000
10
-23.7755005522
20
-34.2513680561
30
0.0000000000
10
-23.7653655772
20
-34.2451688984
30
0.0000000000
10
-23.7556604281
20
-34.2383054740
30
0.0000000000
11
-23.7860190563
21
-34.2567732555
31
0.0000000000
11
-23.7556604281
21
-34.2383054740
31
0.0000000000
0
SPLINE
5
3A8
100
AcDbEntity
8
0
100
AcDbSpline
62
7
6
CONTINUOUS
70
0
71
3
72
8
73
4
74
2
42
0.0000001000
43
0.0000001000
44
0.0000000001
12
0.0300627532
22
0.1643039481
32
0.0000000000
13
0.0000000000
23
0.1666809382
33
0.0000000000
40
0.0000000000
40
0.0000000000
40
0.0000000000
40
0.0000000000
40
1.0000000000
40
1.0000000000
40
1.0000000000
40
1.0000000000
10
-23.5987010518
20
-33.9482825615
30
0.0000000000
10
-23.5886801341
20
-33.8935145788
30
0.0000000000
10
-23.5844811587
20
-33.8377696079
30
0.0000000000
10
-23.5844811587
20
-33.7822092951
30
0.0000000000
11
-23.5987010518
21
-33.9482825615
31
0.0000000000
11
-23.5844811587
21
-33.7822092951
31
0.0000000000
0
SPLINE
5
3A9
100
AcDbEntity
8
0
100
AcDbSpline
62
7
6
CONTINUOUS
70
0
71
3
72
13
73
9
74
7
42
0.0000001000
43
0.0000001000
44
0.0000000001
12
0.0000000000
22
1.5592566590
32
0.0000000000
13
-1.3946415536
23
0.6973207768
33
0.0000000000
40
0.0000000000
40
0.0000000000
40
0.0000000000
40
0.0000000000
40
0.1583990444
40
0.3340540971
40
0.5169787439
40
0.6957493191
40
0.8594937548
40
1.0000000000
40
1.0000000000
40
1.0000000000
40
1.0000000000
10
-23.5844811587
20
-27.7200314687
30
0.0000000000
10
-23.5844811587
20
-27.6377032137
30
0.0000000000
10
-23.6039038821
20
-27.4638763405
30
0.0000000000
10
-23.6798833091
20
-27.2049741930
30
0.0000000000
10
-23.8006536507
20
-26.9518278923
30
0.0000000000
10
-23.9564504032
20
-26.7260005609
30
0.0000000000
10
-24.1327186654
20
-26.5455336653
30
0.0000000000
10
-24.2645437772
20
-26.4553006502
30
0.0000000000
10
-24.3298623932
20
-26.4226413422
30
0.0000000000
11
-23.5844811587
21
-27.7200314687
31
0.0000000000
11
-23.6095721312
21
-27.4743244945
31
0.0000000000
11
-23.6855079388
21
-27.2111701611
31
0.0000000000
11
-23.8082256124
21
-26.9536929509
31
0.0000000000
11
-23.9672899132
21
-26.7247832085
31
0.0000000000
11
-24.1472222670
21
-26.5436411451
31
0.0000000000
11
-24.3298623932
21
-26.4226413422
31
0.0000000000
0
SPLINE
5
3AA
100
AcDbEntity
8
0
100
AcDbSpline
62
7
6
CONTINUOUS
70
0
71
3
72
8
73
4
74
2
42
0.0000001000
43
0.0000001000
44
0.0000000001
12
-0.0869299313
22
0.0434649656
32
0.0000000000
13
-0.0924693366
23
0.0306893039
33
0.0000000000
40
0.0000000000
40
0.0000000000
40
0.0000000000
40
0.0000000000
40
1.0000000000
40
1.0000000000
40
1.0000000000
40
1.0000000000
10
-35.6435708922
20
-20.7657870927
30
0.0000000000
10
-35.6725475359
20
-20.7512987708
30
0.0000000000
10
-35.7025198465
20
-20.7385525136
30
0.0000000000
10
-35.7333429587
20
-20.7283227456
30
0.0000000000
11
-35.6435708922
21
-20.7657870927
31
0.0000000000
11
-35.7333429587
21
-20.7283227456
31
0.0000000000
0
SPLINE
5
3AB
100
AcDbEntity
8
0
100
AcDbSpline
62
7
6
CONTINUOUS
70
0
71
3
72
9
73
5
74
3
42
0.0000001000
43
0.0000001000
44
0.0000000001
12
-0.0837743518
22
0.0278035577
32
0.0000000000
13
-0.0873830500
23
0.0132270342
33
0.0000000000
40
0.0000000000
40
0.0000000000
40
0.0000000000
40
0.0000000000
40
0.5145387661
40
1.0000000000
40
1.0000000000
40
1.0000000000
40
1.0000000000
10
-35.7333429587
20
-20.7283227456
30
0.0000000000
10
-35.7477113426
20
-20.7235540762
30
0.0000000000
10
-35.7759954396
20
-20.7153489950
30
0.0000000000
10
-35.8049224303
20
-20.7095057014
30
0.0000000000
10
-35.8190627914
20
-20.7073652973
30
0.0000000000
11
-35.7333429587
21
-20.7283227456
31
0.0000000000
11
-35.7769880776
21
-20.7157356951
31
0.0000000000
11
-35.8190627914
21
-20.7073652973
31
0.0000000000
0
SPLINE
5
3AC
100
AcDbEntity
8
0
100
AcDbSpline
62
7
6
CONTINUOUS
70
0
71
3
72
9
73
5
74
3
42
0.0000001000
43
0.0000001000
44
0.0000000001
12
-0.1510314105
22
0.0228613860
32
0.0000000000
13
-0.1456117515
23
-0.0468898261
33
0.0000000000
40
0.0000000000
40
0.0000000000
40
0.0000000000
40
0.0000000000
40
0.5200767076
40
1.0000000000
40
1.0000000000
40
1.0000000000
40
1.0000000000
10
-35.8190627914
20
-20.7073652973
30
0.0000000000
10
-35.8452454310
20
-20.7034020725
30
0.0000000000
10
-35.8962315146
20
-20.7003717684
30
0.0000000000
10
-35.9471831884
20
-20.7094457563
30
0.0000000000
10
-35.9704773455
20
-20.7169469296
30
0.0000000000
11
-35.8190627914
21
-20.7073652973
31
0.0000000000
11
-35.8982694728
21
-20.7035240576
31
0.0000000000
11
-35.9704773455
21
-20.7169469296
31
0.0000000000
0
SPLINE
5
3AD
100
AcDbEntity
8
0
100
AcDbSpline
62
7
6
CONTINUOUS
70
0
71
3
72
8
73
4
74
2
42
0.0000001000
43
0.0000001000
44
0.0000000001
12
-0.0339919479
22
-0.0109460707
32
0.0000000000
13
-0.0319496722
23
-0.0155363919
33
0.0000000000
40
0.0000000000
40
0.0000000000
40
0.0000000000
40
0.0000000000
40
1.0000000000
40
1.0000000000
40
1.0000000000
40
1.0000000000
10
-35.9704773455
20
-20.7169469296
30
0.0000000000
10
-35.9818079948
20
-20.7205956198
30
0.0000000000
10
-35.9928644861
20
-20.7249887391
30
0.0000000000
10
-36.0035143769
20
-20.7301675364
30
0.0000000000
11
-35.9704773455
21
-20.7169469296
31
0.0000000000
11
-36.0035143769
21
-20.7301675364
31
0.0000000000
0
SPLINE
5
3AE
100
AcDbEntity
8
0
100
AcDbSpline
62
7
6
CONTINUOUS
70
0
71
3
72
12
73
8
74
6
42
0.0000001000
43
0.0000001000
44
0.0000000001
12
0.3944039289
22
-0.1972019645
32
0.0000000000
13
-0.0000000000
23
-0.4409569978
33
0.0000000000
40
0.0000000000
40
0.0000000000
40
0.0000000000
40
0.0000000000
40
0.1810360453
40
0.3827608692
40
0.5944222231
40
0.8047554711
40
1.0000000000
40
1.0000000000
40
1.0000000000
40
1.0000000000
10
-10.5221808225
20
-26.0751518729
30
0.0000000000
10
-10.4983803800
20
-26.0870520941
30
0.0000000000
10
-10.4520716280
20
-26.1203947232
30
0.0000000000
10
-10.3942149265
20
-26.1865934075
30
0.0000000000
10
-10.3480683889
20
-26.2664804980
30
0.0000000000
10
-10.3179841481
20
-26.3526100394
30
0.0000000000
10
-10.3100516960
20
-26.4123223488
30
0.0000000000
10
-10.3100516960
20
-26.4410204959
30
0.0000000000
11
-10.5221808225
21
-26.0751518729
31
0.0000000000
11
-10.4566000190
21
-26.1206693989
31
0.0000000000
11
-10.3974802696
21
-26.1871322359
31
0.0000000000
11
-10.3506503421
21
-26.2678670512
31
0.0000000000
11
-10.3204318287
21
-26.3555540951
31
0.0000000000
11
-10.3100516960
21
-26.4410204959
31
0.0000000000
0
SPLINE
5
3AF
100
AcDbEntity
8
0
100
AcDbSpline
62
7
6
CONTINUOUS
70
0
71
3
72
11
73
7
74
5
42
0.0000001000
43
0.0000001000
44
0.0000000001
12
-0.0000475733
22
0.3505648793
32
0.0000000000
13
0.3105859164
23
0.1613760873
33
0.0000000000
40
0.0000000000
40
0.0000000000
40
0.0000000000
40
0.0000000000
40
0.0223782433
40
0.3609867139
40
0.6816646116
40
1.0000000000
40
1.0000000000
40
1.0000000000
40
1.0000000000
10
-28.0576385113
20
-19.2339681444
30
0.0000000000
10
-28.0576388662
20
-19.2313531357
30
0.0000000000
10
-28.0573798582
20
-19.1891656332
30
0.0000000000
10
-28.0486796968
20
-19.1094278351
30
0.0000000000
10
-28.0047154730
20
-19.0017962540
30
0.0000000000
10
-27.9472193095
20
-18.9488231941
30
0.0000000000
10
-27.9142624801
20
-18.9316992876
30
0.0000000000
11
-28.0576385113
21
-19.2339681444
31
0.0000000000
11
-28.0575900429
21
-19.2261224212
31
0.0000000000
11
-28.0428496838
21
-19.1085268614
31
0.0000000000
11
-27.9973674787
21
-19.0059150960
31
0.0000000000
11
-27.9142624801
21
-18.9316992876
31
0.0000000000
0
SPLINE
5
3B0
100
AcDbEntity
8
0
100
AcDbSpline
62
7
6
CONTINUOUS
70
0
71
3
72
11
73
7
74
5
42
0.0000001000
43
0.0000001000
44
0.0000000001
12
-0.0000475733
22
0.3505648793
32
0.0000000000
13
0.3105859164
23
0.1613760873
33
0.0000000000
40
0.0000000000
40
0.0000000000
40
0.0000000000
40
0.0000000000
40
0.0223782433
40
0.3609867139
40
0.6816646116
40
1.0000000000
40
1.0000000000
40
1.0000000000
40
1.0000000000
10
-27.2444657130
20
-18.2549138976
30
0.0000000000
10
-27.2444660679
20
-18.2522988889
30
0.0000000000
10
-27.2442070598
20
-18.2101113864
30
0.0000000000
10
-27.2355068984
20
-18.1303735883
30
0.0000000000
10
-27.1915426747
20
-18.0227420071
30
0.0000000000
10
-27.1340465112
20
-17.9697689472
30
0.0000000000
10
-27.1010896817
20
-17.9526450407
30
0.0000000000
11
-27.2444657130
21
-18.2549138976
31
0.0000000000
11
-27.2444172446
21
-18.2470681744
31
0.0000000000
11
-27.2296768854
21
-18.1294726145
31
0.0000000000
11
-27.1841946804
21
-18.0268608492
31
0.0000000000
11
-27.1010896817
21
-17.9526450407
31
0.0000000000
0
SPLINE
5
3B1
100
AcDbEntity
8
0
100
AcDbSpline
62
7
6
CONTINUOUS
70
0
71
3
72
11
73
7
74
5
42
0.0000001000
43
0.0000001000
44
0.0000000001
12
0.1043645528
22
0.0531237034
32
0.0000000000
13
0.1042732373
23
-0.0521366186
33
0.0000000000
40
0.0000000000
40
0.0000000000
40
0.0000000000
40
0.0000000000
40
0.1313512282
40
0.3966806850
40
0.6835365918
40
1.0000000000
40
1.0000000000
40
1.0000000000
40
1.0000000000
10
-8.2357951984
20
10.2195620299
30
0.0000000000
10
-8.2312257277
20
10.2218879845
30
0.0000000000
10
-8.2168585954
20
10.2277984237
30
0.0000000000
10
-8.1901545903
20
10.2316678085
30
0.0000000000
10
-8.1563691979
20
10.2269005136
30
0.0000000000
10
-8.1343534838
20
10.2182745636
30
0.0000000000
10
-8.1233539291
20
10.2127747863
30
0.0000000000
11
-8.2357951984
21
10.2195620299
31
0.0000000000
11
-8.2215871549
21
10.2254003477
31
0.0000000000
11
-8.1910176571
21
10.2301245319
31
0.0000000000
11
-8.1578485300
21
10.2258615084
31
0.0000000000
11
-8.1233539291
21
10.2127747863
31
0.0000000000
0
SPLINE
5
3B2
100
AcDbEntity
8
0
100
AcDbSpline
62
7
6
CONTINUOUS
70
0
71
3
72
11
73
7
74
5
42
0.0000001000
43
0.0000001000
44
0.0000000001
12
-0.5079542441
22
-0.2672421424
32
0.0000000000
13
-0.0010605818
23
-0.5757592611
33
0.0000000000
40
0.0000000000
40
0.0000000000
40
0.0000000000
40
0.0000000000
40
0.2045353391
40
0.5087510583
40
0.7895391075
40
1.0000000000
40
1.0000000000
40
1.0000000000
40
1.0000000000
10
-18.7431999690
20
4.7966642380
30
0.0000000000
10
-18.7778315002
20
4.7784440839
30
0.0000000000
10
-18.8609367068
20
4.7272379653
30
0.0000000000
10
-18.9716671717
20
4.6219034294
30
0.0000000000
10
-19.0432210920
20
4.4843517181
30
0.0000000000
10
-19.0572338392
20
4.3901096173
30
0.0000000000
10
-19.0573082428
20
4.3497180146
30
0.0000000000
11
-18.7431999690
21
4.7966642380
31
0.0000000000
11
-18.8427538916
21
4.7345768289
31
0.0000000000
11
-18.9669962577
21
4.6125278584
31
0.0000000000
11
-19.0396884937
21
4.4691539224
31
0.0000000000
11
-19.0573082428
21
4.3497180146
31
0.0000000000
0
SPLINE
5
3B3
100
AcDbEntity
8
0
100
AcDbSpline
62
7
6
CONTINUOUS
70
0
71
3
72
11
73
7
74
5
42
0.0000001000
43
0.0000001000
44
0.0000000001
12
0.1033952241
22
0.0490938610
32
0.0000000000
13
0.1019171495
23
-0.0509585748
33
0.0000000000
40
0.0000000000
40
0.0000000000
40
0.0000000000
40
0.0000000000
40
0.1114665735
40
0.3828695078
40
0.6762931728
40
1.0000000000
40
1.0000000000
40
1.0000000000
40
1.0000000000
10
-24.1333301438
20
18.1706765461
30
0.0000000000
10
-24.1294884400
20
18.1725006542
30
0.0000000000
10
-24.1158745109
20
18.1778809422
30
0.0000000000
10
-24.0900502221
20
18.1816213432
30
0.0000000000
10
-24.0562726126
20
18.1768533043
30
0.0000000000
10
-24.0342620100
20
18.1682288267
30
0.0000000000
10
-24.0232649176
20
18.1627302805
30
0.0000000000
11
-24.1333301438
21
18.1706765461
31
0.0000000000
11
-24.1214762028
21
18.1753568830
31
0.0000000000
11
-24.0909132595
21
18.1800784739
31
0.0000000000
11
-24.0577515381
21
18.1758147546
31
0.0000000000
11
-24.0232649176
21
18.1627302805
31
0.0000000000
0
SPLINE
5
3B4
100
AcDbEntity
8
0
100
AcDbSpline
62
7
6
CONTINUOUS
70
0
71
3
72
11
73
7
74
5
42
0.0000001000
43
0.0000001000
44
0.0000000001
12
-0.5079542441
22
-0.2672421424
32
0.0000000000
13
-0.0010605818
23
-0.5757592611
33
0.0000000000
40
0.0000000000
40
0.0000000000
40
0.0000000000
40
0.0000000000
40
0.2045353391
40
0.5087510583
40
0.7895391075
40
1.0000000000
40
1.0000000000
40
1.0000000000
40
1.0000000000
10
-34.8652345801
20
12.8576815435
30
0.0000000000
10
-34.8998661113
20
12.8394613895
30
0.0000000000
10
-34.9829713178
20
12.7882552708
30
0.0000000000
10
-35.0937017827
20
12.6829207349
30
0.0000000000
10
-35.1652557031
20
12.5453690236
30
0.0000000000
10
-35.1792684502
20
12.4511269228
30
0.0000000000
10
-35.1793428539
20
12.4107353202
30
0.0000000000
11
-34.8652345801
21
12.8576815435
31
0.0000000000
11
-34.9647885026
21
12.7955941344
31
0.0000000000
11
-35.0890308687
21
12.6735451640
31
0.0000000000
11
-35.1617231047
21
12.5301712279
31
0.0000000000
11
-35.1793428539
21
12.4107353202
31
0.0000000000
0
SPLINE
5
3B5
100
AcDbEntity
8
0
100
AcDbSpline
62
7
6
CONTINUOUS
70
0
71
3
72
8
73
4
74
2
42
0.0000001000
43
0.0000001000
44
0.0000000001
12
0.0001104806
22
-0.0387681768
32
0.0000000000
13
0.0037863856
23
-0.0385895278
33
0.0000000000
40
0.0000000000
40
0.0000000000
40
0.0000000000
40
0.0000000000
40
1.0000000000
40
1.0000000000
40
1.0000000000
40
1.0000000000
10
-19.0573079827
20
-36.7082736582
30
0.0000000000
10
-19.0572711559
20
-36.7211963838
30
0.0000000000
10
-19.0566117549
20
-36.7341171663
30
0.0000000000
10
-19.0553496263
20
-36.7469803422
30
0.0000000000
11
-19.0573079827
21
-36.7082736582
31
0.0000000000
11
-19.0553496263
21
-36.7469803422
31
0.0000000000
0
SPLINE
5
3B6
100
AcDbEntity
8
0
100
AcDbSpline
62
7
6
CONTINUOUS
70
0
71
3
72
15
73
11
74
9
42
0.0000001000
43
0.0000001000
44
0.0000000001
12
0.1669729685
22
-1.7017305582
32
0.0000000000
13
1.5347308975
23
0.7293504996
33
0.0000000000
40
0.0000000000
40
0.0000000000
40
0.0000000000
40
0.0000000000
40
0.0700156917
40
0.1827792609
40
0.3102184726
40
0.4518499852
40
0.6033746935
40
0.7578082730
40
0.9063856533
40
1.0000000000
40
1.0000000000
40
1.0000000000
40
1.0000000000
10
-19.0553496263
20
-36.7469803422
30
0.0000000000
10
-19.0514527170
20
-36.7866962896
30
0.0000000000
10
-19.0262798346
20
-36.8889430108
30
0.0000000000
10
-18.9238527900
20
-37.0371765740
30
0.0000000000
10
-18.7435392369
20
-37.1621011896
30
0.0000000000
10
-18.5181540093
20
-37.2436671714
30
0.0000000000
10
-18.2667778065
20
-37.2827027117
30
0.0000000000
10
-18.0085602477
20
-37.2791894068
30
0.0000000000
10
-17.7869987249
20
-37.2381649193
30
0.0000000000
10
-17.6575979952
20
-37.1901008711
30
0.0000000000
10
-17.6097070518
20
-37.1673416476
30
0.0000000000
11
-19.0553496263
21
-36.7469803422
31
0.0000000000
11
-19.0270055107
21
-36.8628422758
31
0.0000000000
11
-18.9211785016
21
-37.0221881954
31
0.0000000000
11
-18.7463999222
21
-37.1494157131
31
0.0000000000
11
-18.5216935235
21
-37.2344463748
31
0.0000000000
11
-18.2679260428
21
-37.2753243642
31
0.0000000000
11
-18.0059790969
21
-37.2716113292
31
0.0000000000
11
-17.7585127392
21
-37.2238189566
31
0.0000000000
11
-17.6097070518
21
-37.1673416476
31
0.0000000000
0
SPLINE
5
3B7
100
AcDbEntity
8
0
100
AcDbSpline
62
7
6
CONTINUOUS
70
0
71
3
72
11
73
7
74
5
42
0.0000001000
43
0.0000001000
44
0.0000000001
12
0.7109262089
22
-0.3572200567
32
0.0000000000
13
0.7217659299
23
0.3308693635
33
0.0000000000
40
0.0000000000
40
0.0000000000
40
0.0000000000
40
0.0000000000
40
0.1577451968
40
0.4541694103
40
0.7721538539
40
1.0000000000
40
1.0000000000
40
1.0000000000
40
1.0000000000
10
-21.1921863275
20
-37.1354619569
30
0.0000000000
10
-21.1548045959
20
-37.1542452063
30
0.0000000000
10
-21.0424443566
20
-37.1993356619
30
0.0000000000
10
-20.8374551851
20
-37.2276713292
30
0.0000000000
10
-20.6149288147
20
-37.1937594172
30
0.0000000000
10
-20.4790944156
20
-37.1430444623
30
0.0000000000
10
-20.4242772204
20
-37.1179153592
30
0.0000000000
11
-21.1921863275
21
-37.1354619569
31
0.0000000000
11
-21.0757625742
21
-37.1821385164
31
0.0000000000
11
-20.8433611230
21
-37.2158739703
31
0.0000000000
11
-20.5939566224
21
-37.1803768202
31
0.0000000000
11
-20.4242772204
21
-37.1179153592
31
0.0000000000
0
SPLINE
5
3B8
100
AcDbEntity
8
0
100
AcDbSpline
62
7
6
CONTINUOUS
70
0
71
3
72
8
73
4
74
2
42
0.0000001000
43
0.0000001000
44
0.0000000001
12
0.0111225273
22
0.0050987493
32
0.0000000000
13
0.0110704195
23
0.0052064399
33
0.0000000000
40
0.0000000000
40
0.0000000000
40
0.0000000000
40
0.0000000000
40
1.0000000000
40
1.0000000000
40
1.0000000000
40
1.0000000000
10
-20.4242772204
20
-37.1179153592
30
0.0000000000
10
-20.4205697113
20
-37.1162157761
30
0.0000000000
10
-20.4168708212
20
-37.1144980824
30
0.0000000000
10
-20.4131806813
20
-37.1127626024
30
0.0000000000
11
-20.4242772204
21
-37.1179153592
31
0.0000000000
11
-20.4131806813
21
-37.1127626024
31
0.0000000000
0
SPLINE
5
3B9
100
AcDbEntity
8
0
100
AcDbSpline
62
7
6
CONTINUOUS
70
0
71
3
72
13
73
9
74
7
42
0.0000001000
43
0.0000001000
44
0.0000000001
12
-1.8529379112
22
-0.9831873660
32
0.0000000000
13
0.0003429193
23
-2.0956519383
33
0.0000000000
40
0.0000000000
40
0.0000000000
40
0.0000000000
40
0.0000000000
40
0.1233424083
40
0.2978921333
40
0.4801125646
40
0.6645199752
40
0.8455596152
40
1.0000000000
40
1.0000000000
40
1.0000000000
40
1.0000000000
10
-37.5720816844
20
10.0479539146
30
0.0000000000
10
-37.6482636258
20
10.0075310154
30
0.0000000000
10
-37.8226992819
20
9.8907376139
30
0.0000000000
10
-38.0615704736
20
9.6527623725
30
0.0000000000
10
-38.2779889697
20
9.3406755260
30
0.0000000000
10
-38.4418413529
20
8.9932108845
30
0.0000000000
10
-38.5408017532
20
8.6422374070
30
0.0000000000
10
-38.5644045282
20
8.4074514310
30
0.0000000000
10
-38.5643868747
20
8.2995670004
30
0.0000000000
11
-37.5720816844
21
10.0479539146
31
0.0000000000
11
-37.7882180520
21
9.9055234435
31
0.0000000000
11
-38.0494167174
21
9.6496458788
31
0.0000000000
11
-38.2679924462
21
9.3367052651
31
0.0000000000
11
-38.4327216885
21
8.9872915443
31
0.0000000000
11
-38.5341418308
21
8.6218618243
31
0.0000000000
11
-38.5643868747
21
8.2995670004
31
0.0000000000
0
SPLINE
5
3BA
100
AcDbEntity
8
0
100
AcDbSpline
62
7
6
CONTINUOUS
70
0
71
3
72
8
73
4
74
2
42
0.0000001000
43
0.0000001000
44
0.0000000001
12
-0.0000276361
22
-0.0929440436
32
0.0000000000
13
0.0056126064
23
-0.0928470527
33
0.0000000000
40
0.0000000000
40
0.0000000000
40
0.0000000000
40
0.0000000000
40
1.0000000000
40
1.0000000000
40
1.0000000000
40
1.0000000000
10
-38.5643990595
20
-27.7811730697
30
0.0000000000
10
-38.5644082715
20
-27.8121544176
30
0.0000000000
10
-38.5635173064
20
-27.8431566202
30
0.0000000000
10
-38.5616464376
20
-27.8741056378
30
0.0000000000
11
-38.5643990595
21
-27.7811730697
31
0.0000000000
11
-38.5616464376
21
-27.8741056378
31
0.0000000000
0
SPLINE
5
3BB
100
AcDbEntity
8
0
100
AcDbSpline
62
7
6
CONTINUOUS
70
0
71
3
72
11
73
7
74
5
42
0.0000001000
43
0.0000001000
44
0.0000000001
12
0.0582722010
22
-0.9639731959
32
0.0000000000
13
0.8662818763
23
-0.4350405702
33
0.0000000000
40
0.0000000000
40
0.0000000000
40
0.0000000000
40
0.0000000000
40
0.1830790237
40
0.5128188899
40
0.8114793533
40
1.0000000000
40
1.0000000000
40
1.0000000000
40
1.0000000000
10
-38.5616464376
20
-27.8741056378
30
0.0000000000
10
-38.5580902984
20
-27.9329333950
30
0.0000000000
10
-38.5382122848
20
-28.0971763636
30
0.0000000000
10
-38.4560036038
20
-28.3483739932
30
0.0000000000
10
-38.2934590666
20
-28.5617047386
30
0.0000000000
10
-38.1618696370
20
-28.6504654375
30
0.0000000000
10
-38.1074322972
20
-28.6778034807
30
0.0000000000
11
-38.5616464376
21
-27.8741056378
31
0.0000000000
11
-38.5398092420
21
-28.0495039543
31
0.0000000000
11
-38.4359566434
21
-28.3496177938
31
0.0000000000
11
-38.2585208207
21
-28.5760121219
31
0.0000000000
11
-38.1074322972
21
-28.6778034807
31
0.0000000000
0
SPLINE
5
3BC
100
AcDbEntity
8
0
100
AcDbSpline
62
7
6
CONTINUOUS
70
0
71
3
72
9
73
5
74
3
42
0.0000001000
43
0.0000001000
44
0.0000000001
12
-0.2696489796
22
0.1345965730
32
0.0000000000
13
-0.2980938809
23
0.0416094333
33
0.0000000000
40
0.0000000000
40
0.0000000000
40
0.0000000000
40
0.0000000000
40
0.3419135205
40
1.0000000000
40
1.0000000000
40
1.0000000000
40
1.0000000000
10
-12.7230088496
20
10.8785795591
30
0.0000000000
10
-12.7537410603
20
10.8939196885
30
0.0000000000
10
-12.8455874508
20
10.9348732722
30
0.0000000000
10
-12.9432064949
20
10.9622942089
30
0.0000000000
10
-13.0085970124
20
10.9714217440
30
0.0000000000
11
-12.7230088496
21
10.8785795591
31
0.0000000000
11
-12.8172229570
21
10.9203428243
31
0.0000000000
11
-13.0085970124
21
10.9714217440
31
0.0000000000
0
SPLINE
5
3BD
100
AcDbEntity
8
0
100
AcDbSpline
62
7
6
CONTINUOUS
70
0
71
3
72
13
73
9
74
7
42
0.0000001000
43
0.0000001000
44
0.0000000001
12
-1.2972681779
22
0.6486340889
32
0.0000000000
13
-1.3032528405
23
-0.6365241083
33
0.0000000000
40
0.0000000000
40
0.0000000000
40
0.0000000000
40
0.0000000000
40
0.1524391030
40
0.3216883281
40
0.4999243851
40
0.6781789669
40
0.8474812059
40
1.0000000000
40
1.0000000000
40
1.0000000000
40
1.0000000000
10
-11.2337120323
20
-25.7193862680
30
0.0000000000
10
-11.2996301648
20
-25.6864272017
30
0.0000000000
10
-11.4463581854
20
-25.6318970330
30
0.0000000000
10
-11.6838692576
20
-25.5834576532
30
0.0000000000
10
-11.9381810710
20
-25.5661382854
30
0.0000000000
10
-12.1926639282
20
-25.5811668157
30
0.0000000000
10
-12.4306755273
20
-25.6274661081
30
0.0000000000
10
-12.5779566657
20
-25.6806684947
30
0.0000000000
10
-12.6442135163
20
-25.7130291245
30
0.0000000000
11
-11.2337120323
21
-25.7193862680
31
0.0000000000
11
-11.4400614970
21
-25.6399923102
31
0.0000000000
11
-11.6803109066
21
-25.5896002475
31
0.0000000000
11
-11.9381967531
21
-25.5716216378
31
0.0000000000
11
-12.1962611588
21
-25.5872739514
31
0.0000000000
11
-12.4370335443
21
-25.6354979393
31
0.0000000000
11
-12.6442135163
21
-25.7130291245
31
0.0000000000
0
SPLINE
5
3BE
100
AcDbEntity
8
0
100
AcDbSpline
62
7
6
CONTINUOUS
70
0
71
3
72
15
73
11
74
9
42
0.0000001000
43
0.0000001000
44
0.0000000001
12
0.3290683707
22
-0.1645341854
32
0.0000000000
13
-0.0000000000
23
-0.3679096231
33
0.0000000000
40
0.0000000000
40
0.0000000000
40
0.0000000000
40
0.0000000000
40
0.1103204857
40
0.2298781740
40
0.3567595686
40
0.4883275151
40
0.6215317634
40
0.7531836465
40
0.8802241246
40
1.0000000000
40
1.0000000000
40
1.0000000000
40
1.0000000000
10
-7.0627476134
20
9.6824716284
30
0.0000000000
10
-7.0506466192
20
9.6764211314
30
0.0000000000
10
-7.0266613681
20
9.6612793436
30
0.0000000000
10
-6.9937216380
20
9.6322657056
30
0.0000000000
10
-6.9633906029
20
9.5970275826
30
0.0000000000
10
-6.9368027483
20
9.5568845025
30
0.0000000000
10
-6.9149407784
20
9.5133328558
30
0.0000000000
10
-6.8986240417
20
9.4679968831
30
0.0000000000
10
-6.8884640516
20
9.4225836619
30
0.0000000000
10
-6.8859655318
20
9.3922842392
30
0.0000000000
10
-6.8859655318
20
9.3775953402
30
0.0000000000
11
-7.0627476134
21
9.6824716284
31
0.0000000000
11
-7.0282609502
21
9.6610694502
31
0.0000000000
11
-6.9950991440
21
9.6321713515
31
0.0000000000
11
-6.9645361328
21
9.5968866881
31
0.0000000000
11
-6.9377466222
21
9.5565707218
31
0.0000000000
11
-6.9157604132
21
9.5127722641
31
0.0000000000
11
-6.8994229836
21
9.4671747425
31
0.0000000000
11
-6.8893624845
21
9.4215309125
31
0.0000000000
11
-6.8859655318
21
9.3775953402
31
0.0000000000
0
SPLINE
5
3BF
100
AcDbEntity
8
0
100
AcDbSpline
62
7
6
CONTINUOUS
70
0
71
3
72
15
73
11
74
9
42
0.0000001000
43
0.0000001000
44
0.0000000001
12
0.3291469738
22
-0.1645734869
32
0.0000000000
13
-0.0000000000
23
-0.3679975040
33
0.0000000000
40
0.0000000000
40
0.0000000000
40
0.0000000000
40
0.0000000000
40
0.1103207389
40
0.2298794119
40
0.3567608465
40
0.4883280796
40
0.6215314413
40
0.7531829454
40
0.8802240216
40
1.0000000000
40
1.0000000000
40
1.0000000000
40
1.0000000000
10
-22.9626586019
20
17.6324271227
30
0.0000000000
10
-22.9505546895
20
17.6263751665
30
0.0000000000
10
-22.9265638762
20
17.6112291121
30
0.0000000000
10
-22.8936170664
20
17.5822074295
30
0.0000000000
10
-22.8632795835
20
17.5469601842
30
0.0000000000
10
-22.8366858201
20
17.5068074919
30
0.0000000000
10
-22.8148183867
20
17.4632458699
30
0.0000000000
10
-22.7984968020
20
17.4178995179
30
0.0000000000
10
-22.7883331310
20
17.3724756948
30
0.0000000000
10
-22.7858334368
20
17.3421689536
30
0.0000000000
10
-22.7858334368
20
17.3274765332
30
0.0000000000
11
-22.9626586019
21
17.6324271227
31
0.0000000000
11
-22.9281639706
21
17.6110192212
31
0.0000000000
11
-22.8949947830
21
17.5821130488
31
0.0000000000
11
-22.8644252368
21
17.5468192746
31
0.0000000000
11
-22.8376297883
21
17.5064936868
31
0.0000000000
11
-22.8156381282
21
17.4626852324
31
0.0000000000
11
-22.7992959042
21
17.4170772869
31
0.0000000000
11
-22.7892318125
21
17.3714225909
31
0.0000000000
11
-22.7858334368
21
17.3274765332
31
0.0000000000
0
SPLINE
5
3C0
100
AcDbEntity
8
0
100
AcDbSpline
62
7
6
CONTINUOUS
70
0
71
3
72
9
73
5
74
3
42
0.0000001000
43
0.0000001000
44
0.0000000001
12
-0.4102024704
22
0.0572581104
32
0.0000000000
13
-0.4136742255
23
-0.0204497703
33
0.0000000000
40
0.0000000000
40
0.0000000000
40
0.0000000000
40
0.0000000000
40
0.5348071902
40
1.0000000000
40
1.0000000000
40
1.0000000000
40
1.0000000000
10
-13.0085970124
20
10.9714217440
30
0.0000000000
10
-13.0817234226
20
10.9816290937
30
0.0000000000
10
-13.2191334413
20
10.9961699371
30
0.0000000000
10
-13.3574862152
20
10.9989205137
30
0.0000000000
10
-13.4216323070
20
10.9957494850
30
0.0000000000
11
-13.0085970124
21
10.9714217440
31
0.0000000000
11
-13.2289688002
21
10.9938099518
31
0.0000000000
11
-13.4216323070
21
10.9957494850
31
0.0000000000
0
SPLINE
5
3C1
100
AcDbEntity
8
0
100
AcDbSpline
62
7
6
CONTINUOUS
70
0
71
3
72
12
73
8
74
6
42
0.0000001000
43
0.0000001000
44
0.0000000001
12
0.0000000000
22
-0.1555557957
32
0.0000000000
13
-0.1382803797
23
-0.0727641004
33
0.0000000000
40
0.0000000000
40
0.0000000000
40
0.0000000000
40
0.0000000000
40
0.2615186639
40
0.4992358623
40
0.7146713104
40
0.9137667753
40
1.0000000000
40
1.0000000000
40
1.0000000000
40
1.0000000000
10
-6.8859655318
20
-31.6498238166
30
0.0000000000
10
-6.8859655318
20
-31.6633840646
30
0.0000000000
10
-6.8879361778
20
-31.6893449867
30
0.0000000000
10
-6.8977079298
20
-31.7253600377
30
0.0000000000
10
-6.9140033860
20
-31.7554205862
30
0.0000000000
10
-6.9325473924
20
-31.7741718516
30
0.0000000000
10
-6.9452083935
20
-31.7820222480
30
0.0000000000
10
-6.9491831812
20
-31.7841138090
30
0.0000000000
11
-6.8859655318
21
-31.6498238166
31
0.0000000000
11
-6.8893624929
21
-31.6903624843
31
0.0000000000
11
-6.8994230364
21
-31.7259458968
31
0.0000000000
11
-6.9157605438
21
-31.7552060332
31
0.0000000000
11
-6.9377468173
21
-31.7770182492
31
0.0000000000
11
-6.9491831812
21
-31.7841138090
31
0.0000000000
0
SPLINE
5
3C2
100
AcDbEntity
8
0
100
AcDbSpline
62
9
6
CONTINUOUS
70
0
71
3
72
11
73
7
74
5
42
0.0000001000
43
0.0000001000
44
0.0000000001
12
-0.2345539205
22
-0.1204128520
32
0.0000000000
13
-0.2606442706
23
0.0377067409
33
0.0000000000
40
0.0000000000
40
0.0000000000
40
0.0000000000
40
0.0000000000
40
0.2885639437
40
0.6138259163
40
0.9358866579
40
1.0000000000
40
1.0000000000
40
1.0000000000
40
1.0000000000
10
-23.7860677238
20
-34.2567964716
30
0.0000000000
10
-23.8086289919
20
-34.2683787407
30
0.0000000000
10
-23.8591142971
20
-34.2881786277
30
0.0000000000
10
-23.9406673988
20
-34.3018137676
30
0.0000000000
10
-24.0033694819
20
-34.2999811681
30
0.0000000000
10
-24.0369996074
20
-34.2956589456
30
0.0000000000
10
-24.0425698658
20
-34.2948531105
30
0.0000000000
11
-23.7860677238
21
-34.2567964716
31
0.0000000000
11
-23.8567597599
21
-34.2845954896
31
0.0000000000
11
-23.9411089060
21
-34.2990582872
31
0.0000000000
11
-24.0258217678
21
-34.2970023965
31
0.0000000000
11
-24.0425698658
21
-34.2948531105
31
0.0000000000
0
SPLINE
5
3C3
100
AcDbEntity
8
0
100
AcDbSpline
62
9
6
CONTINUOUS
70
0
71
3
72
8
73
4
74
2
42
0.0000001000
43
0.0000001000
44
0.0000000001
12
0.0000000000
22
0.0411336191
32
0.0000000000
13
0.0070603958
23
0.0407035873
33
0.0000000000
40
0.0000000000
40
0.0000000000
40
0.0000000000
40
0.0000000000
40
1.0000000000
40
1.0000000000
40
1.0000000000
40
1.0000000000
10
-24.3818410303
20
-34.4732570225
30
0.0000000000
10
-24.3818410303
20
-34.4595458162
30
0.0000000000
10
-24.3805455708
20
-34.4458211490
30
0.0000000000
10
-24.3781921056
20
-34.4322532865
30
0.0000000000
11
-24.3818410303
21
-34.4732570225
31
0.0000000000
11
-24.3781921056
21
-34.4322532865
31
0.0000000000
0
SPLINE
5
3C4
100
AcDbEntity
8
0
100
AcDbSpline
62
9
6
CONTINUOUS
70
0
71
3
72
10
73
6
74
4
42
0.0000001000
43
0.0000001000
44
0.0000000001
12
-0.0852949315
22
0.0426474657
32
0.0000000000
13
0.0002135657
23
0.0947444484
33
0.0000000000
40
0.0000000000
40
0.0000000000
40
0.0000000000
40
0.0000000000
40
0.5651519197
40
0.9953946807
40
1.0000000000
40
1.0000000000
40
1.0000000000
40
1.0000000000
10
-23.5259025149
20
-33.8529199733
30
0.0000000000
10
-23.5419707130
20
-33.8448858742
30
0.0000000000
10
-23.5693739499
20
-33.8275211814
30
0.0000000000
10
-23.5844431978
20
-33.7960875226
30
0.0000000000
10
-23.5844807818
20
-33.7823547395
30
0.0000000000
10
-23.5844804540
20
-33.7822092967
30
0.0000000000
11
-23.5259025149
21
-33.8529199733
31
0.0000000000
11
-23.5690896585
21
-33.8206790944
31
0.0000000000
11
-23.5844792550
21
-33.7826456103
31
0.0000000000
11
-23.5844804540
21
-33.7822092967
31
0.0000000000
0
SPLINE
5
3C5
100
AcDbEntity
8
0
100
AcDbSpline
62
9
6
CONTINUOUS
70
0
71
3
72
19
73
15
74
13
42
0.0000001000
43
0.0000001000
44
0.0000000001
12
0.1343213882
22
1.1856731450
32
0.0000000000
13
1.0668481324
23
-0.5334240662
33
0.0000000000
40
0.0000000000
40
0.0000000000
40
0.0000000000
40
0.0000000000
40
0.0570420216
40
0.1499634511
40
0.2439256145
40
0.3365182838
40
0.4266010672
40
0.5143946041
40
0.6009081265
40
0.6868794506
40
0.7720016020
40
0.8546430314
40
0.9310527233
40
1.0000000000
40
1.0000000000
40
1.0000000000
40
1.0000000000
10
-36.5442015255
20
-21.1450927068
30
0.0000000000
10
-36.5416475376
20
-21.1225483091
30
0.0000000000
10
-36.5330653631
20
-21.0634924337
30
0.0000000000
10
-36.5103856711
20
-20.9689476656
30
0.0000000000
10
-36.4699113798
20
-20.8650157169
30
0.0000000000
10
-36.4133857895
20
-20.7699659684
30
0.0000000000
10
-36.3409806425
20
-20.6893936446
30
0.0000000000
10
-36.2545580163
20
-20.6279506248
30
0.0000000000
10
-36.1578808747
20
-20.5885615520
30
0.0000000000
10
-36.0561174679
20
-20.5715424570
30
0.0000000000
10
-35.9547390551
20
-20.5745059914
30
0.0000000000
10
-35.8590905582
20
-20.5930377846
30
0.0000000000
10
-35.7728789562
20
-20.6216650314
30
0.0000000000
10
-35.7200682871
20
-20.6453529537
30
0.0000000000
10
-35.6955495293
20
-20.6576123326
30
0.0000000000
11
-36.5442015255
21
-21.1450927068
31
0.0000000000
11
-36.5343430212
21
-21.0777564415
31
0.0000000000
11
-36.5080871397
21
-20.9700771419
31
0.0000000000
11
-36.4668967312
21
-20.8658453622
31
0.0000000000
11
-36.4098987690
21
-20.7712479794
31
0.0000000000
11
-36.3376682464
21
-20.6916999994
31
0.0000000000
11
-36.2521691306
21
-20.6312376075
31
0.0000000000
11
-36.1566555830
21
-20.5921795227
31
0.0000000000
11
-36.0555871430
21
-20.5748448956
31
0.0000000000
11
-35.9540856774
21
-20.5773085003
31
0.0000000000
11
-35.8572334238
21
-20.5956432589
31
0.0000000000
11
-35.7706519669
21
-20.6241044146
31
0.0000000000
11
-35.6955495293
21
-20.6576123326
31
0.0000000000
0
SPLINE
5
3C6
100
AcDbEntity
8
0
100
AcDbSpline
62
9
6
CONTINUOUS
70
0
71
3
72
10
73
6
74
4
42
0.0000001000
43
0.0000001000
44
0.0000000001
12
-0.0852949323
22
0.0426474661
32
0.0000000000
13
0.0002135736
23
0.0947444495
33
0.0000000000
40
0.0000000000
40
0.0000000000
40
0.0000000000
40
0.0000000000
40
0.5651517550
40
0.9953945141
40
1.0000000000
40
1.0000000000
40
1.0000000000
40
1.0000000000
10
-23.5259025149
20
-27.7907421468
30
0.0000000000
10
-23.5419707085
20
-27.7827080500
30
0.0000000000
10
-23.5693739397
20
-27.7653433608
30
0.0000000000
10
-23.5844431965
20
-27.7339097067
30
0.0000000000
10
-23.5844807818
20
-27.7201769183
30
0.0000000000
10
-23.5844804539
20
-27.7200314702
30
0.0000000000
11
-23.5259025149
21
-27.7907421468
31
0.0000000000
11
-23.5690896485
21
-27.7585012799
31
0.0000000000
11
-23.5844792548
21
-27.7204677996
31
0.0000000000
11
-23.5844804539
21
-27.7200314702
31
0.0000000000
0
SPLINE
5
3C7
100
AcDbEntity
8
0
100
AcDbSpline
62
9
6
CONTINUOUS
70
0
71
3
72
10
73
6
74
4
42
0.0000001000
43
0.0000001000
44
0.0000000001
12
0.0000000000
22
-0.1251956488
32
0.0000000000
13
0.1139505284
23
-0.0554503232
33
0.0000000000
40
0.0000000000
40
0.0000000000
40
0.0000000000
40
0.0000000000
40
0.4915339556
40
0.8978790988
40
1.0000000000
40
1.0000000000
40
1.0000000000
40
1.0000000000
10
-24.3818410303
20
-26.3144665821
30
0.0000000000
10
-24.3818410303
20
-26.3349792196
30
0.0000000000
10
-24.3767954275
20
-26.3729974598
30
0.0000000000
10
-24.3521373953
20
-26.4096606600
30
0.0000000000
10
-24.3336797017
20
-26.4206272048
30
0.0000000000
10
-24.3298007915
20
-26.4225147505
30
0.0000000000
11
-24.3818410303
21
-26.3144665821
31
0.0000000000
11
-24.3711937232
21
-26.3750763959
31
0.0000000000
11
-24.3408550374
21
-26.4159125323
31
0.0000000000
11
-24.3298007915
21
-26.4225147505
31
0.0000000000
0
SPLINE
5
3C8
100
AcDbEntity
8
0
100
AcDbSpline
62
9
6
CONTINUOUS
70
0
71
3
72
12
73
8
74
6
42
0.0000001000
43
0.0000001000
44
0.0000000001
12
0.0000000000
22
-0.4980145619
32
0.0000000000
13
-0.2699618939
23
-0.4192739325
33
0.0000000000
40
0.0000000000
40
0.0000000000
40
0.0000000000
40
0.0000000000
40
0.1923904497
40
0.4038527982
40
0.6264047711
40
0.8514493594
40
1.0000000000
40
1.0000000000
40
1.0000000000
40
1.0000000000
10
-23.5259025149
20
-33.8529199733
30
0.0000000000
10
-23.5259025149
20
-33.8848577218
30
0.0000000000
10
-23.5284004678
20
-33.9519314186
30
0.0000000000
10
-23.5414197122
20
-34.0552648373
30
0.0000000000
10
-23.5670048886
20
-34.1619216895
30
0.0000000000
10
-23.6030521495
20
-34.2544856840
30
0.0000000000
10
-23.6334038711
20
-34.3088039657
30
0.0000000000
10
-23.6467715418
20
-34.3295651028
30
0.0000000000
11
-23.5259025149
21
-33.8529199733
31
0.0000000000
11
-23.5296205149
21
-33.9486610537
31
0.0000000000
11
-23.5430475384
21
-34.0531129136
31
0.0000000000
11
-23.5693034200
21
-34.1607922132
31
0.0000000000
11
-23.6104938285
21
-34.2650239930
31
0.0000000000
11
-23.6467715418
21
-34.3295651028
31
0.0000000000
0
SPLINE
5
3C9
100
AcDbEntity
8
0
100
AcDbSpline
62
9
6
CONTINUOUS
70
0
71
3
72
16
73
12
74
10
42
0.0000001000
43
0.0000001000
44
0.0000000001
12
-0.4487547974
22
-0.6969546178
32
0.0000000000
13
-0.7404464807
23
0.3702232403
33
0.0000000000
40
0.0000000000
40
0.0000000000
40
0.0000000000
40
0.0000000000
40
0.0440440352
40
0.1738368720
40
0.3003313227
40
0.4249815063
40
0.5488504813
40
0.6714959535
40
0.7905671584
40
0.9006595678
40
1.0000000000
40
1.0000000000
40
1.0000000000
40
1.0000000000
10
-23.6467715418
20
-34.3295651028
30
0.0000000000
10
-23.6533598659
20
-34.3397973341
30
0.0000000000
10
-23.6806087013
20
-34.3793802130
30
0.0000000000
10
-23.7364099172
20
-34.4414757105
30
0.0000000000
10
-23.8228325434
20
-34.5029187304
30
0.0000000000
10
-23.9195096850
20
-34.5423078031
30
0.0000000000
10
-24.0212730918
20
-34.5593268982
30
0.0000000000
10
-24.1226515045
20
-34.5563633637
30
0.0000000000
10
-24.2183000015
20
-34.5378315705
30
0.0000000000
10
-24.3045116035
20
-34.5092043237
30
0.0000000000
10
-24.3573222725
20
-34.4855164014
30
0.0000000000
10
-24.3818410303
20
-34.4732570225
30
0.0000000000
11
-23.6467715418
21
-34.3295651028
31
0.0000000000
11
-23.6674917906
21
-34.3596213758
31
0.0000000000
11
-23.7397223132
21
-34.4391693557
31
0.0000000000
11
-23.8252214291
21
-34.4996317476
31
0.0000000000
11
-23.9207349766
21
-34.5386898324
31
0.0000000000
11
-24.0218034167
21
-34.5560244596
31
0.0000000000
11
-24.1233048823
21
-34.5535608548
31
0.0000000000
11
-24.2201571359
21
-34.5352260963
31
0.0000000000
11
-24.3067385928
21
-34.5067649405
31
0.0000000000
11
-24.3818410303
21
-34.4732570225
31
0.0000000000
0
SPLINE
5
3CA
100
AcDbEntity
8
0
100
AcDbSpline
62
9
6
CONTINUOUS
70
0
71
3
72
10
73
6
74
4
42
0.0000001000
43
0.0000001000
44
0.0000000001
12
0.0000000000
22
-0.1251956491
32
0.0000000000
13
0.1139505306
23
-0.0554503245
33
0.0000000000
40
0.0000000000
40
0.0000000000
40
0.0000000000
40
0.0000000000
40
0.4915338083
40
0.8978789460
40
1.0000000000
40
1.0000000000
40
1.0000000000
40
1.0000000000
10
-35.6955495293
20
-20.6576123326
30
0.0000000000
10
-35.6955495293
20
-20.6781249640
30
0.0000000000
10
-35.6905039285
20
-20.7161431969
30
0.0000000000
10
-35.6658459046
20
-20.7528064018
30
0.0000000000
10
-35.6473882064
20
-20.7637729522
30
0.0000000000
10
-35.6435092903
20
-20.7656605007
30
0.0000000000
11
-35.6955495293
21
-20.6576123326
31
0.0000000000
11
-35.6849022292
21
-20.7182221291
31
0.0000000000
11
-35.6545635521
21
-20.7590582712
31
0.0000000000
11
-35.6435092903
21
-20.7656605007
31
0.0000000000
0
SPLINE
5
3CB
100
AcDbEntity
8
0
100
AcDbSpline
62
9
6
CONTINUOUS
70
0
71
3
72
9
73
5
74
3
42
0.0000001000
43
0.0000001000
44
0.0000000001
12
0.1798219085
22
-0.0899109542
32
0.0000000000
13
0.1609775865
23
-0.1205549572
33
0.0000000000
40
0.0000000000
40
0.0000000000
40
0.0000000000
40
0.0000000000
40
0.4537430155
40
1.0000000000
40
1.0000000000
40
1.0000000000
40
1.0000000000
10
-24.3818410303
20
-26.3144665821
30
0.0000000000
10
-24.3546433853
20
-26.3280654046
30
0.0000000000
10
-24.2960765531
20
-26.3608435928
30
0.0000000000
10
-24.2406964628
20
-26.3987416715
30
0.0000000000
10
-24.2113847525
20
-26.4206930006
30
0.0000000000
11
-24.3818410303
21
-26.3144665821
31
0.0000000000
11
-24.3021508983
21
-26.3588652495
31
0.0000000000
11
-24.2113847525
21
-26.4206930006
31
0.0000000000
0
SPLINE
5
3CC
100
AcDbEntity
8
0
100
AcDbSpline
62
9
6
CONTINUOUS
70
0
71
3
72
16
73
12
74
10
42
0.0000001000
43
0.0000001000
44
0.0000000001
12
1.1008280870
22
-0.8244022397
32
0.0000000000
13
0.1981680420
23
-1.3608155338
33
0.0000000000
40
0.0000000000
40
0.0000000000
40
0.0000000000
40
0.0000000000
40
0.0930562245
40
0.1976326761
40
0.3115209250
40
0.4317631692
40
0.5549144479
40
0.6771818898
40
0.7945102506
40
0.9031232938
40
1.0000000000
40
1.0000000000
40
1.0000000000
40
1.0000000000
10
-24.2113847525
20
-26.4206930006
30
0.0000000000
10
-24.1772384506
20
-26.4462649206
30
0.0000000000
10
-24.1074279622
20
-26.5041750362
30
0.0000000000
10
-24.0062667201
20
-26.6051949115
30
0.0000000000
10
-23.9066610251
20
-26.7245164743
30
0.0000000000
10
-23.8131235951
20
-26.8591593976
30
0.0000000000
10
-23.7296647151
20
-27.0047115919
30
0.0000000000
10
-23.6594540357
20
-27.1556176397
30
0.0000000000
10
-23.6044720340
20
-27.3056238610
30
0.0000000000
10
-23.5652195491
20
-27.4484371331
30
0.0000000000
10
-23.5477114407
20
-27.5410720323
30
0.0000000000
10
-23.5413121516
20
-27.5850158079
30
0.0000000000
11
-24.2113847525
21
-26.4206930006
31
0.0000000000
11
-24.1127460538
21
-26.5021691063
31
0.0000000000
11
-24.0108252481
21
-26.6035772507
31
0.0000000000
11
-23.9103174879
21
-26.7236390926
31
0.0000000000
11
-23.8158788469
21
-26.8593223752
31
0.0000000000
11
-23.7316066427
21
-27.0061730809
31
0.0000000000
11
-23.6607226075
21
-27.1585948260
31
0.0000000000
11
-23.6053079259
21
-27.3100852205
31
0.0000000000
11
-23.5658816509
21
-27.4541117574
31
0.0000000000
11
-23.5413121516
21
-27.5850158079
31
0.0000000000
0
SPLINE
5
3CD
100
AcDbEntity
8
0
100
AcDbSpline
62
9
6
CONTINUOUS
70
0
71
3
72
9
73
5
74
3
42
0.0000001000
43
0.0000001000
44
0.0000000001
12
0.0210532924
22
-0.1445724901
32
0.0000000000
13
0.0066407625
23
-0.1459509774
33
0.0000000000
40
0.0000000000
40
0.0000000000
40
0.0000000000
40
0.0000000000
40
0.7719063488
40
1.0000000000
40
1.0000000000
40
1.0000000000
40
1.0000000000
10
-23.5413121516
20
-27.5850158079
30
0.0000000000
10
-23.5358950949
20
-27.6222146156
30
0.0000000000
10
-23.5305991699
20
-27.6706576704
30
0.0000000000
10
-23.5277949860
20
-27.7192828752
30
0.0000000000
10
-23.5272900807
20
-27.7303797057
30
0.0000000000
11
-23.5413121516
21
-27.5850158079
31
0.0000000000
11
-23.5292038562
21
-27.6971101509
31
0.0000000000
11
-23.5272900807
21
-27.7303797057
31
0.0000000000
0
SPLINE
5
3CE
100
AcDbEntity
8
0
100
AcDbSpline
62
9
6
CONTINUOUS
70
0
71
3
72
8
73
4
74
2
42
0.0000001000
43
0.0000001000
44
0.0000000001
12
0.0014194038
22
-0.0311957212
32
0.0000000000
13
0.0006971286
23
-0.0312166613
33
0.0000000000
40
0.0000000000
40
0.0000000000
40
0.0000000000
40
0.0000000000
40
1.0000000000
40
1.0000000000
40
1.0000000000
40
1.0000000000
10
-23.5272900807
20
-27.7303797057
30
0.0000000000
10
-23.5268169461
20
-27.7407782794
30
0.0000000000
10
-23.5264621031
20
-27.7511818847
30
0.0000000000
10
-23.5262297269
20
-27.7615874385
30
0.0000000000
11
-23.5272900807
21
-27.7303797057
31
0.0000000000
11
-23.5262297269
21
-27.7615874385
31
0.0000000000
0
SPLINE
5
3CF
100
AcDbEntity
8
0
100
AcDbSpline
62
9
6
CONTINUOUS
70
0
71
3
72
8
73
4
74
2
42
0.0000001000
43
0.0000001000
44
0.0000000001
12
0.0006510234
22
-0.0291521213
32
0.0000000000
13
0.0000000000
23
-0.0291547844
33
0.0000000000
40
0.0000000000
40
0.0000000000
40
0.0000000000
40
0.0000000000
40
1.0000000000
40
1.0000000000
40
1.0000000000
40
1.0000000000
10
-23.5262297269
20
-27.7615874385
30
0.0000000000
10
-23.5260127191
20
-27.7713048122
30
0.0000000000
10
-23.5259025149
20
-27.7810238853
30
0.0000000000
10
-23.5259025149
20
-27.7907421468
30
0.0000000000
11
-23.5262297269
21
-27.7615874385
31
0.0000000000
11
-23.5259025149
21
-27.7907421468
31
0.0000000000
0
SPLINE
5
3D0
100
AcDbEntity
8
0
100
AcDbSpline
62
7
6
CONTINUOUS
70
0
71
3
72
14
73
10
74
8
42
0.0000001000
43
0.0000001000
44
0.0000000001
12
0.6691050716
22
0.4849304691
32
0.0000000000
13
0.7385372426
23
0.3707045967
33
0.0000000000
40
0.0000000000
40
0.0000000000
40
0.0000000000
40
0.0000000000
40
0.1061829385
40
0.2305964834
40
0.3703096286
40
0.5222334078
40
0.6827227483
40
0.8460056891
40
1.0000000000
40
1.0000000000
40
1.0000000000
40
1.0000000000
10
-32.1661999135
20
-18.7583291745
30
0.0000000000
10
-32.1425173993
20
-18.7411653938
30
0.0000000000
10
-32.0905518497
20
-18.7046273892
30
0.0000000000
10
-32.0059129893
20
-18.6476905789
30
0.0000000000
10
-31.9096801508
20
-18.5854479458
30
0.0000000000
10
-31.8039616823
20
-18.5196080017
30
0.0000000000
10
-31.6915151671
20
-18.4523229304
30
0.0000000000
10
-31.5771936979
20
-18.3871203175
30
0.0000000000
10
-31.5001020687
20
-18.3458976770
30
0.0000000000
10
-31.4621918908
20
-18.3268688774
30
0.0000000000
11
-32.1661999135
21
-18.7583291745
31
0.0000000000
11
-32.0945032329
21
-18.7077456037
31
0.0000000000
11
-32.0092494191
21
-18.6502862280
31
0.0000000000
11
-31.9123355306
21
-18.5875411320
31
0.0000000000
11
-31.8057755415
21
-18.5211639671
31
0.0000000000
11
-31.6919448266
21
-18.4531135850
31
0.0000000000
11
-31.5746605342
21
-18.3864028634
31
0.0000000000
11
-31.4621918908
21
-18.3268688774
31
0.0000000000
0
SPLINE
5
3D1
100
AcDbEntity
8
0
100
AcDbSpline
62
7
6
CONTINUOUS
70
0
71
3
72
11
73
7
74
5
42
0.0000001000
43
0.0000001000
44
0.0000000001
12
-0.2556014382
22
0.4408472697
32
0.0000000000
13
-0.0000692633
23
0.5103967587
33
0.0000000000
40
0.0000000000
40
0.0000000000
40
0.0000000000
40
0.0000000000
40
0.2560314098
40
0.5150804601
40
0.7699701555
40
1.0000000000
40
1.0000000000
40
1.0000000000
40
1.0000000000
10
-27.9111906461
20
-20.8858338082
30
0.0000000000
10
-27.9330046450
20
-20.8482102255
30
0.0000000000
10
-27.9730211327
20
-20.7701936119
30
0.0000000000
10
-28.0197462385
20
-20.6477336359
30
0.0000000000
10
-28.0498734107
20
-20.5246091770
30
0.0000000000
10
-28.0576332005
20
-20.4422379352
30
0.0000000000
10
-28.0576385113
20
-20.4031024396
30
0.0000000000
11
-27.9111906461
21
-20.8858338082
31
0.0000000000
11
-27.9706224793
21
-20.7696859805
31
0.0000000000
11
-28.0173625009
21
-20.6462296871
31
0.0000000000
11
-28.0475985823
21
-20.5199096061
31
0.0000000000
11
-28.0576385113
21
-20.4031024396
31
0.0000000000
0
SPLINE
5
3D2
100
AcDbEntity
8
0
100
AcDbSpline
62
7
6
CONTINUOUS
70
0
71
3
72
11
73
7
74
5
42
0.0000001000
43
0.0000001000
44
0.0000000001
12
-0.2556014382
22
0.4408472697
32
0.0000000000
13
-0.0000692633
23
0.5103967587
33
0.0000000000
40
0.0000000000
40
0.0000000000
40
0.0000000000
40
0.0000000000
40
0.2560314098
40
0.5150804601
40
0.7699701555
40
1.0000000000
40
1.0000000000
40
1.0000000000
40
1.0000000000
10
-27.9111906461
20
-19.7166995131
30
0.0000000000
10
-27.9330046450
20
-19.6790759304
30
0.0000000000
10
-27.9730211327
20
-19.6010593168
30
0.0000000000
10
-28.0197462385
20
-19.4785993408
30
0.0000000000
10
-28.0498734107
20
-19.3554748819
30
0.0000000000
10
-28.0576332005
20
-19.2731036401
30
0.0000000000
10
-28.0576385113
20
-19.2339681444
30
0.0000000000
11
-27.9111906461
21
-19.7166995131
31
0.0000000000
11
-27.9706224793
21
-19.6005516854
31
0.0000000000
11
-28.0173625009
21
-19.4770953920
31
0.0000000000
11
-28.0475985823
21
-19.3507753110
31
0.0000000000
11
-28.0576385113
21
-19.2339681444
31
0.0000000000
0
SPLINE
5
3D3
100
AcDbEntity
8
0
100
AcDbSpline
62
7
6
CONTINUOUS
70
0
71
3
72
11
73
7
74
5
42
0.0000001000
43
0.0000001000
44
0.0000000001
12
-0.2556187653
22
0.4408771546
32
0.0000000000
13
-0.0000410107
23
0.5104318290
33
0.0000000000
40
0.0000000000
40
0.0000000000
40
0.0000000000
40
0.0000000000
40
0.2560140547
40
0.5150455454
40
0.7699179630
40
1.0000000000
40
1.0000000000
40
1.0000000000
40
1.0000000000
10
-27.0980178478
20
-20.1232859123
30
0.0000000000
10
-27.1198318466
20
-20.0856623296
30
0.0000000000
10
-27.1598483344
20
-20.0076457160
30
0.0000000000
10
-27.2065734402
20
-19.8851857400
30
0.0000000000
10
-27.2367033575
20
-19.7620500621
30
0.0000000000
10
-27.2444625714
20
-19.6796670090
30
0.0000000000
10
-27.2444657167
20
-19.6405199440
30
0.0000000000
11
-27.0980178478
21
-20.1232859123
31
0.0000000000
11
-27.1574496809
21
-20.0071380846
31
0.0000000000
11
-27.2041897025
21
-19.8836817912
31
0.0000000000
11
-27.2344257840
21
-19.7573617102
31
0.0000000000
11
-27.2444657167
21
-19.6405199440
31
0.0000000000
0
SPLINE
5
3D4
100
AcDbEntity
8
0
100
AcDbSpline
62
7
6
CONTINUOUS
70
0
71
3
72
11
73
7
74
5
42
0.0000001000
43
0.0000001000
44
0.0000000001
12
-0.2556014382
22
0.4408472697
32
0.0000000000
13
-0.0000692633
23
0.5103967587
33
0.0000000000
40
0.0000000000
40
0.0000000000
40
0.0000000000
40
0.0000000000
40
0.2560314098
40
0.5150804601
40
0.7699701555
40
1.0000000000
40
1.0000000000
40
1.0000000000
40
1.0000000000
10
-27.0980178478
20
-18.7376452662
30
0.0000000000
10
-27.1198318466
20
-18.7000216835
30
0.0000000000
10
-27.1598483344
20
-18.6220050700
30
0.0000000000
10
-27.2065734402
20
-18.4995450940
30
0.0000000000
10
-27.2367006123
20
-18.3764206350
30
0.0000000000
10
-27.2444604021
20
-18.2940493933
30
0.0000000000
10
-27.2444657130
20
-18.2549138976
30
0.0000000000
11
-27.0980178478
21
-18.7376452662
31
0.0000000000
11
-27.1574496809
21
-18.6214974386
31
0.0000000000
11
-27.2041897025
21
-18.4980411451
31
0.0000000000
11
-27.2344257840
21
-18.3717210641
31
0.0000000000
11
-27.2444657130
21
-18.2549138976
31
0.0000000000
0
SPLINE
5
3D5
100
AcDbEntity
8
0
100
AcDbSpline
62
7
6
CONTINUOUS
70
0
71
3
72
11
73
7
74
5
42
0.0000001000
43
0.0000001000
44
0.0000000001
12
-0.2556187653
22
0.4408771546
32
0.0000000000
13
-0.0000410107
23
0.5104318290
33
0.0000000000
40
0.0000000000
40
0.0000000000
40
0.0000000000
40
0.0000000000
40
0.2560140547
40
0.5150455454
40
0.7699179630
40
1.0000000000
40
1.0000000000
40
1.0000000000
40
1.0000000000
10
-25.1181188604
20
-19.7275947599
30
0.0000000000
10
-25.1399328593
20
-19.6899711772
30
0.0000000000
10
-25.1799493470
20
-19.6119545636
30
0.0000000000
10
-25.2266744528
20
-19.4894945876
30
0.0000000000
10
-25.2568043701
20
-19.3663589097
30
0.0000000000
10
-25.2645635841
20
-19.2839758566
30
0.0000000000
10
-25.2645667294
20
-19.2448287916
30
0.0000000000
11
-25.1181188604
21
-19.7275947599
31
0.0000000000
11
-25.1775506936
21
-19.6114469322
31
0.0000000000
11
-25.2242907152
21
-19.4879906388
31
0.0000000000
11
-25.2545267966
21
-19.3616705578
31
0.0000000000
11
-25.2645667294
21
-19.2448287916
31
0.0000000000
0
SPLINE
5
3D6
100
AcDbEntity
8
0
100
AcDbSpline
62
7
6
CONTINUOUS
70
0
71
3
72
11
73
7
74
5
42
0.0000001000
43
0.0000001000
44
0.0000000001
12
-0.1589030924
22
-0.1151642013
32
0.0000000000
13
0.0421804072
23
-0.1237687825
33
0.0000000000
40
0.0000000000
40
0.0000000000
40
0.0000000000
40
0.0000000000
40
0.3781771051
40
0.6857790717
40
0.9006994704
40
1.0000000000
40
1.0000000000
40
1.0000000000
40
1.0000000000
10
-25.1181188604
20
-12.0048203109
30
0.0000000000
10
-25.1381500309
20
-12.0193377990
30
0.0000000000
10
-25.1734466656
20
-12.0454021452
30
0.0000000000
10
-25.2218417820
20
-12.0847613615
30
0.0000000000
10
-25.2465617143
20
-12.1073412926
30
0.0000000000
10
-25.2662540581
20
-12.1301667562
30
0.0000000000
10
-25.2648578792
20
-12.1342635247
30
0.0000000000
11
-25.1181188604
21
-12.0048203109
31
0.0000000000
11
-25.1775506936
21
-12.0492714580
31
0.0000000000
11
-25.2242907152
21
-12.0874739376
31
0.0000000000
11
-25.2545267966
21
-12.1168801301
31
0.0000000000
11
-25.2648578792
21
-12.1342635247
31
0.0000000000
0
SPLINE
5
3D7
100
AcDbEntity
8
0
100
AcDbSpline
62
7
6
CONTINUOUS
70
0
71
3
72
12
73
8
74
6
42
0.0000001000
43
0.0000001000
44
0.0000000001
12
0.2907061721
22
-0.5013939794
32
0.0000000000
13
0.5188557872
23
-0.2606079964
33
0.0000000000
40
0.0000000000
40
0.0000000000
40
0.0000000000
40
0.0000000000
40
0.2265727346
40
0.4588671868
40
0.6905975360
40
0.9167980888
40
1.0000000000
40
1.0000000000
40
1.0000000000
40
1.0000000000
10
-34.9592716992
20
-7.0842438915
30
0.0000000000
10
-34.9373163351
20
-7.1221112932
30
0.0000000000
10
-34.8888347765
20
-7.1965515650
30
0.0000000000
10
-34.8043615298
20
-7.3001642330
30
0.0000000000
10
-34.7082330896
20
-7.3930955511
30
0.0000000000
10
-34.6233829233
20
-7.4548770857
30
0.0000000000
10
-34.5709145102
20
-7.4838502269
30
0.0000000000
10
-34.5565245791
20
-7.4910779214
30
0.0000000000
11
-34.9592716992
21
-7.0842438915
31
0.0000000000
11
-34.8875750186
21
-7.1942592955
31
0.0000000000
11
-34.8023212048
21
-7.2984586928
31
0.0000000000
11
-34.7054073163
21
-7.3914398703
31
0.0000000000
11
-34.5988473271
21
-7.4678084957
31
0.0000000000
11
-34.5565245791
21
-7.4910779214
31
0.0000000000
0
SPLINE
5
3D8
100
AcDbEntity
8
0
100
AcDbSpline
62
7
6
CONTINUOUS
70
0
71
3
72
14
73
10
74
8
42
0.0000001000
43
0.0000001000
44
0.0000000001
12
0.6691050716
22
0.4849304691
32
0.0000000000
13
0.7385372426
23
0.3707045967
33
0.0000000000
40
0.0000000000
40
0.0000000000
40
0.0000000000
40
0.0000000000
40
0.1061829385
40
0.2305964834
40
0.3703096286
40
0.5222334078
40
0.6827227483
40
0.8460056891
40
1.0000000000
40
1.0000000000
40
1.0000000000
40
1.0000000000
10
-34.9592716992
20
-14.8070183405
30
0.0000000000
10
-34.9355891850
20
-14.7898545598
30
0.0000000000
10
-34.8836236354
20
-14.7533165552
30
0.0000000000
10
-34.7989847750
20
-14.6963797449
30
0.0000000000
10
-34.7027519364
20
-14.6341371118
30
0.0000000000
10
-34.5970334679
20
-14.5682971677
30
0.0000000000
10
-34.4845869528
20
-14.5010120964
30
0.0000000000
10
-34.3702654836
20
-14.4358094835
30
0.0000000000
10
-34.2931738544
20
-14.3945868430
30
0.0000000000
10
-34.2552636765
20
-14.3755580434
30
0.0000000000
11
-34.9592716992
21
-14.8070183405
31
0.0000000000
11
-34.8875750186
21
-14.7564347697
31
0.0000000000
11
-34.8023212048
21
-14.6989753940
31
0.0000000000
11
-34.7054073163
21
-14.6362302980
31
0.0000000000
11
-34.5988473271
21
-14.5698531331
31
0.0000000000
11
-34.4850166123
21
-14.5018027510
31
0.0000000000
11
-34.3677323199
21
-14.4350920294
31
0.0000000000
11
-34.2552636765
21
-14.3755580434
31
0.0000000000
0
SPLINE
5
3D9
100
AcDbEntity
8
0
100
AcDbSpline
62
7
6
CONTINUOUS
70
0
71
3
72
14
73
10
74
8
42
0.0000001000
43
0.0000001000
44
0.0000000001
12
0.6691050716
22
0.4849304691
32
0.0000000000
13
0.7385372426
23
0.3707045967
33
0.0000000000
40
0.0000000000
40
0.0000000000
40
0.0000000000
40
0.0000000000
40
0.1061829385
40
0.2305964834
40
0.3703096286
40
0.5222334078
40
0.6827227483
40
0.8460056891
40
1.0000000000
40
1.0000000000
40
1.0000000000
40
1.0000000000
10
-32.9793727119
20
-15.7969678341
30
0.0000000000
10
-32.9556901977
20
-15.7798040534
30
0.0000000000
10
-32.9037246481
20
-15.7432660488
30
0.0000000000
10
-32.8190857877
20
-15.6863292385
30
0.0000000000
10
-32.7228529491
20
-15.6240866054
30
0.0000000000
10
-32.6171344806
20
-15.5582466613
30
0.0000000000
10
-32.5046879654
20
-15.4909615901
30
0.0000000000
10
-32.3903664963
20
-15.4257589771
30
0.0000000000
10
-32.3132748671
20
-15.3845363367
30
0.0000000000
10
-32.2753646891
20
-15.3655075370
30
0.0000000000
11
-32.9793727119
21
-15.7969678341
31
0.0000000000
11
-32.9076760313
21
-15.7463842634
31
0.0000000000
11
-32.8224222175
21
-15.6889248877
31
0.0000000000
11
-32.7255083290
21
-15.6261797916
31
0.0000000000
11
-32.6189483398
21
-15.5598026267
31
0.0000000000
11
-32.5051176250
21
-15.4917522447
31
0.0000000000
11
-32.3878333326
21
-15.4250415230
31
0.0000000000
11
-32.2753646891
21
-15.3655075370
31
0.0000000000
0
SPLINE
5
3DA
100
AcDbEntity
8
0
100
AcDbSpline
62
7
6
CONTINUOUS
70
0
71
3
72
14
73
10
74
8
42
0.0000001000
43
0.0000001000
44
0.0000000001
12
0.6691050716
22
0.4849304691
32
0.0000000000
13
0.7385372426
23
0.3707045967
33
0.0000000000
40
0.0000000000
40
0.0000000000
40
0.0000000000
40
0.0000000000
40
0.1061829385
40
0.2305964834
40
0.3703096286
40
0.5222334078
40
0.6827227483
40
0.8460056891
40
1.0000000000
40
1.0000000000
40
1.0000000000
40
1.0000000000
10
-32.9793727119
20
-17.1826084802
30
0.0000000000
10
-32.9556901977
20
-17.1654446995
30
0.0000000000
10
-32.9037246481
20
-17.1289066949
30
0.0000000000
10
-32.8190857877
20
-17.0719698846
30
0.0000000000
10
-32.7228529491
20
-17.0097272515
30
0.0000000000
10
-32.6171344806
20
-16.9438873074
30
0.0000000000
10
-32.5046879654
20
-16.8766022361
30
0.0000000000
10
-32.3903664963
20
-16.8113996232
30
0.0000000000
10
-32.3132748671
20
-16.7701769827
30
0.0000000000
10
-32.2753646891
20
-16.7511481831
30
0.0000000000
11
-32.9793727119
21
-17.1826084802
31
0.0000000000
11
-32.9076760313
21
-17.1320249094
31
0.0000000000
11
-32.8224222175
21
-17.0745655337
31
0.0000000000
11
-32.7255083290
21
-17.0118204377
31
0.0000000000
11
-32.6189483398
21
-16.9454432728
31
0.0000000000
11
-32.5051176250
21
-16.8773928908
31
0.0000000000
11
-32.3878333326
21
-16.8106821691
31
0.0000000000
11
-32.2753646891
21
-16.7511481831
31
0.0000000000
0
SPLINE
5
3DB
100
AcDbEntity
8
0
100
AcDbSpline
62
7
6
CONTINUOUS
70
0
71
3
72
14
73
10
74
8
42
0.0000001000
43
0.0000001000
44
0.0000000001
12
0.6691050716
22
0.4849304691
32
0.0000000000
13
0.7385372426
23
0.3707045967
33
0.0000000000
40
0.0000000000
40
0.0000000000
40
0.0000000000
40
0.0000000000
40
0.1061829385
40
0.2305964834
40
0.3703096286
40
0.5222334078
40
0.6827227483
40
0.8460056891
40
1.0000000000
40
1.0000000000
40
1.0000000000
40
1.0000000000
10
-32.1661999135
20
-17.5891948794
30
0.0000000000
10
-32.1425173993
20
-17.5720310986
30
0.0000000000
10
-32.0905518497
20
-17.5354930941
30
0.0000000000
10
-32.0059129893
20
-17.4785562838
30
0.0000000000
10
-31.9096801508
20
-17.4163136507
30
0.0000000000
10
-31.8039616823
20
-17.3504737066
30
0.0000000000
10
-31.6915151671
20
-17.2831886353
30
0.0000000000
10
-31.5771936979
20
-17.2179860224
30
0.0000000000
10
-31.5001020687
20
-17.1767633819
30
0.0000000000
10
-31.4621918908
20
-17.1577345823
30
0.0000000000
11
-32.1661999135
21
-17.5891948794
31
0.0000000000
11
-32.0945032329
21
-17.5386113086
31
0.0000000000
11
-32.0092494191
21
-17.4811519329
31
0.0000000000
11
-31.9123355306
21
-17.4184068369
31
0.0000000000
11
-31.8057755415
21
-17.3520296720
31
0.0000000000
11
-31.6919448266
21
-17.2839792899
31
0.0000000000
11
-31.5746605342
21
-17.2172685683
31
0.0000000000
11
-31.4621918908
21
-17.1577345823
31
0.0000000000
0
SPLINE
5
3DC
100
AcDbEntity
8
0
100
AcDbSpline
62
7
6
CONTINUOUS
70
0
71
3
72
9
73
5
74
3
42
0.0000001000
43
0.0000001000
44
0.0000000001
12
-0.1048088756
22
0.0524044378
32
0.0000000000
13
-0.1060697177
23
-0.0525045021
33
0.0000000000
40
0.0000000000
40
0.0000000000
40
0.0000000000
40
0.0000000000
40
0.6042835157
40
1.0000000000
40
1.0000000000
40
1.0000000000
40
1.0000000000
10
-14.3762746902
20
7.0296890011
30
0.0000000000
10
-14.3973861155
20
7.0402447138
30
0.0000000000
10
-14.4366675982
20
7.0516249494
30
0.0000000000
10
-14.4765449304
20
7.0422689143
30
0.0000000000
10
-14.4905361090
20
7.0353432819
30
0.0000000000
11
-14.3762746902
21
7.0296890011
31
0.0000000000
11
-14.4450780000
21
7.0464264644
31
0.0000000000
11
-14.4905361090
21
7.0353432819
31
0.0000000000
0
SPLINE
5
3DD
100
AcDbEntity
8
0
100
AcDbSpline
62
9
6
CONTINUOUS
70
0
71
3
72
9
73
5
74
3
42
0.0000001000
43
0.0000001000
44
0.0000000001
12
-0.1658927648
22
-0.0873799622
32
0.0000000000
13
-0.1073150123
23
-0.1547127196
33
0.0000000000
40
0.0000000000
40
0.0000000000
40
0.0000000000
40
0.0000000000
40
0.6354700383
40
1.0000000000
40
1.0000000000
40
1.0000000000
40
1.0000000000
10
-18.6280240290
20
4.7912810351
30
0.0000000000
10
-18.6631639895
20
4.7727719191
30
0.0000000000
10
-18.7160650085
20
4.7383214153
30
0.0000000000
10
-18.7591672204
20
4.6918152932
30
0.0000000000
10
-18.7722070662
20
4.6730161526
30
0.0000000000
11
-18.6280240290
21
4.7912810351
31
0.0000000000
11
-18.7264410391
21
4.7241190672
31
0.0000000000
11
-18.7722070662
21
4.6730161526
31
0.0000000000
0
SPLINE
5
3DE
100
AcDbEntity
8
0
100
AcDbSpline
62
9
6
CONTINUOUS
70
0
71
3
72
18
73
14
74
12
42
0.0000001000
43
0.0000001000
44
0.0000000001
12
-0.7737651635
22
-1.1155131998
32
0.0000000000
13
1.2134012705
23
0.5960755796
33
0.0000000000
40
0.0000000000
40
0.0000000000
40
0.0000000000
40
0.0000000000
40
0.0230562782
40
0.0865909063
40
0.1503449101
40
0.2245733186
40
0.3140158686
40
0.4182979430
40
0.5340353482
40
0.6562373320
40
0.7787564004
40
0.8952188974
40
1.0000000000
40
1.0000000000
40
1.0000000000
40
1.0000000000
10
-18.7722070662
20
4.6730161526
30
0.0000000000
10
-18.7781537812
20
4.6644429584
30
0.0000000000
10
-18.7984002682
20
4.6308031212
30
0.0000000000
10
-18.8167610797
20
4.5624245478
30
0.0000000000
10
-18.7893233892
20
4.4716370994
30
0.0000000000
10
-18.7193690950
20
4.3938637478
30
0.0000000000
10
-18.6159275910
20
4.3295887919
30
0.0000000000
10
-18.4844829090
20
4.2808816942
30
0.0000000000
10
-18.3327846911
20
4.2503570242
30
0.0000000000
10
-18.1702225787
20
4.2399839535
30
0.0000000000
10
-18.0073264886
20
4.2505143007
30
0.0000000000
10
-17.8550000105
20
4.2811040980
30
0.0000000000
10
-17.7608211257
20
4.3156701774
30
0.0000000000
10
-17.7184406181
20
4.3364893296
30
0.0000000000
11
-18.7722070662
21
4.6730161526
31
0.0000000000
11
-18.7882500159
21
4.6461214738
31
0.0000000000
11
-18.8085435584
21
4.5626604139
31
0.0000000000
11
-18.7856994830
21
4.4795534951
31
0.0000000000
11
-18.7214078787
21
4.4025036921
31
0.0000000000
11
-18.6200577896
21
4.3365545142
31
0.0000000000
11
-18.4884330733
21
4.2860554142
31
0.0000000000
11
-18.3352161133
21
4.2543349692
31
0.0000000000
11
-18.1703644021
21
4.2435282283
31
0.0000000000
11
-18.0050905956
21
4.2544489325
31
0.0000000000
11
-17.8508927130
21
4.2862663939
31
0.0000000000
11
-17.7184406181
21
4.3364893296
31
0.0000000000
0
SPLINE
5
3DF
100
AcDbEntity
8
0
100
AcDbSpline
62
9
6
CONTINUOUS
70
0
71
3
72
11
73
7
74
5
42
0.0000001000
43
0.0000001000
44
0.0000000001
12
0.3252341325
22
-0.1684440159
32
0.0000000000
13
0.0021295511
23
-0.3662595971
33
0.0000000000
40
0.0000000000
40
0.0000000000
40
0.0000000000
40
0.0000000000
40
0.2286600923
40
0.4873234668
40
0.7529130472
40
1.0000000000
40
1.0000000000
40
1.0000000000
40
1.0000000000
10
-17.7184406181
20
4.3364893296
30
0.0000000000
10
-17.6936512625
20
4.3236505215
30
0.0000000000
10
-17.6463550140
20
4.2855827224
30
0.0000000000
10
-17.5917106134
20
4.2107312634
30
0.0000000000
10
-17.5543069786
20
4.1234822335
30
0.0000000000
10
-17.5437172961
20
4.0608538310
30
0.0000000000
10
-17.5435419013
20
4.0306878418
30
0.0000000000
11
-17.7184406181
21
4.3364893296
31
0.0000000000
11
-17.6518929574
21
4.2856411914
31
0.0000000000
11
-17.5952871679
21
4.2096716849
31
0.0000000000
11
-17.5572396480
21
4.1201447072
31
0.0000000000
11
-17.5435419013
21
4.0306878418
31
0.0000000000
0
SPLINE
5
3E0
100
AcDbEntity
8
0
100
AcDbSpline
62
7
6
CONTINUOUS
70
0
71
3
72
11
73
7
74
5
42
0.0000001000
43
0.0000001000
44
0.0000000001
12
0.3282923645
22
-0.1641461822
32
0.0000000000
13
0.0000000000
23
-0.3670420217
33
0.0000000000
40
0.0000000000
40
0.0000000000
40
0.0000000000
40
0.0000000000
40
0.2296703855
40
0.4882071356
40
0.7532022231
40
1.0000000000
40
1.0000000000
40
1.0000000000
40
1.0000000000
10
-13.3156252911
20
6.4993643016
30
0.0000000000
10
-13.2904922798
20
6.4867977959
30
0.0000000000
10
-13.2424647565
20
6.4492288632
30
0.0000000000
10
-13.1870023887
20
6.3746381875
30
0.0000000000
10
-13.1492643632
20
6.2874072729
30
0.0000000000
10
-13.1388432095
20
6.2246830650
30
0.0000000000
10
-13.1388432095
20
6.1944880133
30
0.0000000000
11
-13.3156252911
21
6.4993643016
31
0.0000000000
11
-13.2479775206
21
6.4490647286
31
0.0000000000
11
-13.1906245943
21
6.3734639026
31
0.0000000000
11
-13.1523008129
21
6.2840679397
31
0.0000000000
11
-13.1388432095
21
6.1944880133
31
0.0000000000
0
SPLINE
5
3E1
100
AcDbEntity
8
0
100
AcDbSpline
62
7
6
CONTINUOUS
70
0
71
3
72
9
73
5
74
3
42
0.0000001000
43
0.0000001000
44
0.0000000001
12
-0.1008992840
22
0.0504496420
32
0.0000000000
13
-0.1037156143
23
-0.0478966073
33
0.0000000000
40
0.0000000000
40
0.0000000000
40
0.0000000000
40
0.0000000000
40
0.6190722494
40
1.0000000000
40
1.0000000000
40
1.0000000000
40
1.0000000000
10
-30.4983093013
20
15.0907063067
30
0.0000000000
10
-30.5191306168
20
15.1011169644
30
0.0000000000
10
-30.5566531467
20
15.1130212724
30
0.0000000000
10
-30.5951362520
20
15.1045688822
30
0.0000000000
10
-30.6083056372
20
15.0984871666
30
0.0000000000
11
-30.4983093013
21
15.0907063067
31
0.0000000000
11
-30.5659570717
21
15.1080545041
31
0.0000000000
11
-30.6083056372
21
15.0984871666
31
0.0000000000
0
SPLINE
5
3E2
100
AcDbEntity
8
0
100
AcDbSpline
62
9
6
CONTINUOUS
70
0
71
3
72
9
73
5
74
3
42
0.0000001000
43
0.0000001000
44
0.0000000001
12
-0.1658927648
22
-0.0873799622
32
0.0000000000
13
-0.1073150123
23
-0.1547127196
33
0.0000000000
40
0.0000000000
40
0.0000000000
40
0.0000000000
40
0.0000000000
40
0.6354700383
40
1.0000000000
40
1.0000000000
40
1.0000000000
40
1.0000000000
10
-34.7500586401
20
12.8522983406
30
0.0000000000
10
-34.7851986006
20
12.8337892246
30
0.0000000000
10
-34.8380996195
20
12.7993387208
30
0.0000000000
10
-34.8812018315
20
12.7528325987
30
0.0000000000
10
-34.8942416773
20
12.7340334582
30
0.0000000000
11
-34.7500586401
21
12.8522983406
31
0.0000000000
11
-34.8484756502
21
12.7851363728
31
0.0000000000
11
-34.8942416773
21
12.7340334582
31
0.0000000000
0
SPLINE
5
3E3
100
AcDbEntity
8
0
100
AcDbSpline
62
9
6
CONTINUOUS
70
0
71
3
72
18
73
14
74
12
42
0.0000001000
43
0.0000001000
44
0.0000000001
12
-0.7737651635
22
-1.1155131998
32
0.0000000000
13
1.2134012705
23
0.5960755796
33
0.0000000000
40
0.0000000000
40
0.0000000000
40
0.0000000000
40
0.0000000000
40
0.0230562782
40
0.0865909063
40
0.1503449101
40
0.2245733186
40
0.3140158686
40
0.4182979430
40
0.5340353482
40
0.6562373320
40
0.7787564004
40
0.8952188974
40
1.0000000000
40
1.0000000000
40
1.0000000000
40
1.0000000000
10
-34.8942416773
20
12.7340334582
30
0.0000000000
10
-34.9001883922
20
12.7254602639
30
0.0000000000
10
-34.9204348792
20
12.6918204268
30
0.0000000000
10
-34.9387956907
20
12.6234418534
30
0.0000000000
10
-34.9113580003
20
12.5326544049
30
0.0000000000
10
-34.8414037060
20
12.4548810533
30
0.0000000000
10
-34.7379622020
20
12.3906060975
30
0.0000000000
10
-34.6065175201
20
12.3418989997
30
0.0000000000
10
-34.4548193022
20
12.3113743298
30
0.0000000000
10
-34.2922571898
20
12.3010012590
30
0.0000000000
10
-34.1293610996
20
12.3115316062
30
0.0000000000
10
-33.9770346216
20
12.3421214035
30
0.0000000000
10
-33.8828557368
20
12.3766874830
30
0.0000000000
10
-33.8404752291
20
12.3975066351
30
0.0000000000
11
-34.8942416773
21
12.7340334582
31
0.0000000000
11
-34.9102846269
21
12.7071387793
31
0.0000000000
11
-34.9305781695
21
12.6236777194
31
0.0000000000
11
-34.9077340940
21
12.5405708007
31
0.0000000000
11
-34.8434424897
21
12.4635209976
31
0.0000000000
11
-34.7420924006
21
12.3975718197
31
0.0000000000
11
-34.6104676844
21
12.3470727197
31
0.0000000000
11
-34.4572507243
21
12.3153522747
31
0.0000000000
11
-34.2923990131
21
12.3045455338
31
0.0000000000
11
-34.1271252067
21
12.3154662381
31
0.0000000000
11
-33.9729273241
21
12.3472836994
31
0.0000000000
11
-33.8404752291
21
12.3975066351
31
0.0000000000
0
SPLINE
5
3E4
100
AcDbEntity
8
0
100
AcDbSpline
62
9
6
CONTINUOUS
70
0
71
3
72
11
73
7
74
5
42
0.0000001000
43
0.0000001000
44
0.0000000001
12
0.3252341325
22
-0.1684440159
32
0.0000000000
13
0.0021295511
23
-0.3662595971
33
0.0000000000
40
0.0000000000
40
0.0000000000
40
0.0000000000
40
0.0000000000
40
0.2286600923
40
0.4873234668
40
0.7529130472
40
1.0000000000
40
1.0000000000
40
1.0000000000
40
1.0000000000
10
-33.8404752291
20
12.3975066351
30
0.0000000000
10
-33.8156858735
20
12.3846678270
30
0.0000000000
10
-33.7683896250
20
12.3466000279
30
0.0000000000
10
-33.7137452245
20
12.2717485690
30
0.0000000000
10
-33.6763415897
20
12.1844995390
30
0.0000000000
10
-33.6657519071
20
12.1218711365
30
0.0000000000
10
-33.6655765124
20
12.0917051473
30
0.0000000000
11
-33.8404752291
21
12.3975066351
31
0.0000000000
11
-33.7739275685
21
12.3466584969
31
0.0000000000
11
-33.7173217789
21
12.2706889905
31
0.0000000000
11
-33.6792742590
21
12.1811620127
31
0.0000000000
11
-33.6655765124
21
12.0917051473
31
0.0000000000
0
SPLINE
5
3E5
100
AcDbEntity
8
0
100
AcDbSpline
62
7
6
CONTINUOUS
70
0
71
3
72
11
73
7
74
5
42
0.0000001000
43
0.0000001000
44
0.0000000001
12
0.3277167999
22
-0.1638584000
32
0.0000000000
13
0.0000000000
23
-0.3663985210
33
0.0000000000
40
0.0000000000
40
0.0000000000
40
0.0000000000
40
0.0000000000
40
0.2285070067
40
0.4869598608
40
0.7525602334
40
1.0000000000
40
1.0000000000
40
1.0000000000
40
1.0000000000
10
-29.4377029856
20
14.5604031488
30
0.0000000000
10
-29.4127411239
20
14.5479222180
30
0.0000000000
10
-29.3657604941
20
14.5092750019
30
0.0000000000
10
-29.3112383815
20
14.4344815557
30
0.0000000000
10
-29.2742590833
20
14.3469296479
30
0.0000000000
10
-29.2640168512
20
14.2841837972
30
0.0000000000
10
-29.2640168512
20
14.2539632757
30
0.0000000000
11
-29.4377029856
21
14.5604031488
31
0.0000000000
11
-29.3712261151
21
14.5095048263
31
0.0000000000
11
-29.3148812069
21
14.4333948758
31
0.0000000000
11
-29.2772342805
21
14.3436561899
31
0.0000000000
11
-29.2640168512
21
14.2539632757
31
0.0000000000
0
SPLINE
5
3E6
100
AcDbEntity
8
0
100
AcDbSpline
62
9
6
CONTINUOUS
70
0
71
3
72
8
73
4
74
2
42
0.0000001000
43
0.0000001000
44
0.0000000001
12
0.1428174367
22
0.0370195970
32
0.0000000000
13
0.1371151429
23
0.0540689830
33
0.0000000000
40
0.0000000000
40
0.0000000000
40
0.0000000000
40
0.0000000000
40
1.0000000000
40
1.0000000000
40
1.0000000000
40
1.0000000000
10
-17.7469205500
20
-37.1041118727
30
0.0000000000
10
-17.6993147378
20
-37.0917720070
30
0.0000000000
10
-17.6522842781
20
-37.0769132486
30
0.0000000000
10
-17.6065792305
20
-37.0588902542
30
0.0000000000
11
-17.7469205500
21
-37.1041118727
31
0.0000000000
11
-17.6065792305
21
-37.0588902542
31
0.0000000000
0
SPLINE
5
3E7
100
AcDbEntity
8
0
100
AcDbSpline
62
9
6
CONTINUOUS
70
0
71
3
72
8
73
4
74
2
42
0.0000001000
43
0.0000001000
44
0.0000000001
12
0.0639792539
22
0.0252291112
32
0.0000000000
13
0.0620192041
23
0.0295593892
33
0.0000000000
40
0.0000000000
40
0.0000000000
40
0.0000000000
40
0.0000000000
40
1.0000000000
40
1.0000000000
40
1.0000000000
40
1.0000000000
10
-17.6065792305
20
-37.0588902542
30
0.0000000000
10
-17.5852528125
20
-37.0504805505
30
0.0000000000
10
-17.5642149693
20
-37.0413819147
30
0.0000000000
10
-17.5435419013
20
-37.0315287850
30
0.0000000000
11
-17.6065792305
21
-37.0588902542
31
0.0000000000
11
-17.5435419013
21
-37.0315287850
31
0.0000000000
0
SPLINE
5
3E8
100
AcDbEntity
8
0
100
AcDbSpline
62
9
6
CONTINUOUS
70
0
71
3
72
10
73
6
74
4
42
0.0000001000
43
0.0000001000
44
0.0000000001
12
0.1463551849
22
0.0668919939
32
0.0000000000
13
0.0013750821
23
0.1587694403
33
0.0000000000
40
0.0000000000
40
0.0000000000
40
0.0000000000
40
0.0000000000
40
0.1095220514
40
0.5112206307
40
1.0000000000
40
1.0000000000
40
1.0000000000
40
1.0000000000
10
-20.4132609307
20
-37.1125650385
30
0.0000000000
10
-20.4079178907
20
-37.1101229890
30
0.0000000000
10
-20.3841216553
20
-37.0965027971
30
0.0000000000
10
-20.3527750740
20
-37.0500233598
30
0.0000000000
10
-20.3461174353
20
-37.0023063666
30
0.0000000000
10
-20.3458933980
20
-36.9764386243
30
0.0000000000
11
-20.4132609307
21
-37.1125650385
31
0.0000000000
11
-20.3980785298
21
-37.1038216619
31
0.0000000000
11
-20.3598302133
21
-37.0527830919
31
0.0000000000
11
-20.3458933980
21
-36.9764386243
31
0.0000000000
0
SPLINE
5
3E9
100
AcDbEntity
8
0
100
AcDbSpline
62
7
6
CONTINUOUS
70
0
71
3
72
9
73
5
74
3
42
0.0000001000
43
0.0000001000
44
0.0000000001
12
0.2531781240
22
0.0149650017
32
0.0000000000
13
0.2078721970
23
0.1453005969
33
0.0000000000
40
0.0000000000
40
0.0000000000
40
0.0000000000
40
0.0000000000
40
0.5889130948
40
1.0000000000
40
1.0000000000
40
1.0000000000
40
1.0000000000
10
-19.0662526016
20
13.8180596323
30
0.0000000000
10
-19.0165526307
20
13.8209973275
30
0.0000000000
10
-18.9326883292
20
13.8304867465
30
0.0000000000
10
-18.8503192610
20
13.8581302211
30
0.0000000000
10
-18.8218347482
20
13.8780406120
30
0.0000000000
11
-19.0662526016
21
13.8180596323
31
0.0000000000
11
-18.9182936348
21
13.8384703785
31
0.0000000000
11
-18.8218347482
21
13.8780406120
31
0.0000000000
0
SPLINE
5
3EA
100
AcDbEntity
8
0
100
AcDbSpline
62
7
6
CONTINUOUS
70
0
71
3
72
10
73
6
74
4
42
0.0000001000
43
0.0000001000
44
0.0000000001
12
0.0000000000
22
-0.1545203659
32
0.0000000000
13
-0.1390452786
23
-0.0711282908
33
0.0000000000
40
0.0000000000
40
0.0000000000
40
0.0000000000
40
0.0000000000
40
0.5002754779
40
0.9135026642
40
1.0000000000
40
1.0000000000
40
1.0000000000
40
1.0000000000
10
-13.1388432095
20
-34.9417608734
30
0.0000000000
10
-13.1388432095
20
-34.9675284567
30
0.0000000000
10
-13.1451968266
20
-35.0152836288
30
0.0000000000
10
-13.1758716638
20
-35.0604392938
30
0.0000000000
10
-13.1981188586
20
-35.0738824273
30
0.0000000000
10
-13.2021278740
20
-35.0759332298
30
0.0000000000
11
-13.1388432095
21
-34.9417608734
31
0.0000000000
11
-13.1523008129
21
-35.0178831964
31
0.0000000000
11
-13.1906245943
21
-35.0689553780
31
0.0000000000
11
-13.2021278740
21
-35.0759332298
31
0.0000000000
0
SPLINE
5
3EB
100
AcDbEntity
8
0
100
AcDbSpline
62
7
6
CONTINUOUS
70
0
71
3
72
10
73
6
74
4
42
0.0000001000
43
0.0000001000
44
0.0000000001
12
-0.2984949671
22
-0.3304873354
32
0.0000000000
13
-0.4028997012
23
-0.1911291641
33
0.0000000000
40
0.0000000000
40
0.0000000000
40
0.0000000000
40
0.0000000000
40
0.3956211291
40
0.8012377808
40
1.0000000000
40
1.0000000000
40
1.0000000000
40
1.0000000000
10
-17.5435419013
20
-35.6586651789
30
0.0000000000
10
-17.5829055400
20
-35.7022477698
30
0.0000000000
10
-17.6683958519
20
-35.7855068891
30
0.0000000000
10
-17.7890075940
20
-35.8731494478
30
0.0000000000
10
-17.8681053441
20
-35.9159077291
30
0.0000000000
10
-17.8947990904
20
-35.9285708147
30
0.0000000000
11
-17.5435419013
21
-35.6586651789
31
0.0000000000
11
-17.6700473400
21
-35.7812898848
31
0.0000000000
11
-17.8167503953
21
-35.8866794971
31
0.0000000000
11
-17.8947990904
21
-35.9285708147
31
0.0000000000
0
SPLINE
5
3EC
100
AcDbEntity
8
0
100
AcDbSpline
62
9
6
CONTINUOUS
70
0
71
3
72
16
73
12
74
10
42
0.0000001000
43
0.0000001000
44
0.0000000001
12
-1.2413266938
22
-0.5837263895
32
0.0000000000
13
0.0000016685
23
1.3717246293
33
0.0000000000
40
0.0000000000
40
0.0000000000
40
0.0000000000
40
0.0000000000
40
0.0956413598
40
0.2030314686
40
0.3144725906
40
0.4268312135
40
0.5412013976
40
0.6595202507
40
0.7802147039
40
0.8969826571
40
1.0000000000
40
1.0000000000
40
1.0000000000
40
1.0000000000
10
-20.3458933980
20
-36.9764386243
30
0.0000000000
10
-20.3854674557
20
-36.9950480862
30
0.0000000000
10
-20.4721785969
20
-37.0291620063
30
0.0000000000
10
-20.6138007400
20
-37.0589069155
30
0.0000000000
10
-20.7669643953
20
-37.0554215059
30
0.0000000000
10
-20.9164075562
20
-37.0065160245
30
0.0000000000
10
-21.0448370763
20
-36.9101926285
30
0.0000000000
10
-21.1403394938
20
-36.7772725183
30
0.0000000000
10
-21.2007115597
20
-36.6248548826
30
0.0000000000
10
-21.2303537025
20
-36.4713519056
30
0.0000000000
10
-21.2357877771
20
-36.3707505130
30
0.0000000000
10
-21.2357877198
20
-36.3236467041
30
0.0000000000
11
-20.3458933980
21
-36.9764386243
31
0.0000000000
11
-20.4682091217
21
-37.0238793950
31
0.0000000000
11
-20.6126149360
21
-37.0529843073
31
0.0000000000
11
-20.7653998610
21
-37.0479899913
31
0.0000000000
11
-20.9116371373
21
-36.9993155365
31
0.0000000000
11
-21.0376358947
21
-36.9058434681
31
0.0000000000
11
-21.1338073786
21
-36.7751047098
31
0.0000000000
11
-21.1963089725
21
-36.6217961429
31
0.0000000000
11
-21.2276837433
21
-36.4647255644
31
0.0000000000
11
-21.2357877198
21
-36.3236467041
31
0.0000000000
0
SPLINE
5
3ED
100
AcDbEntity
8
0
100
AcDbSpline
62
9
6
CONTINUOUS
70
0
71
3
72
11
73
7
74
5
42
0.0000001000
43
0.0000001000
44
0.0000000001
12
0.3218809863
22
-0.1609404931
32
0.0000000000
13
0.3240741314
23
0.1564773754
33
0.0000000000
40
0.0000000000
40
0.0000000000
40
0.0000000000
40
0.0000000000
40
0.2347796703
40
0.4987463379
40
0.7633868340
40
1.0000000000
40
1.0000000000
40
1.0000000000
40
1.0000000000
10
-21.5862290077
20
-36.3221175767
30
0.0000000000
10
-21.5610386371
20
-36.3347127620
30
0.0000000000
10
-21.5031911881
20
-36.3527771264
30
0.0000000000
10
-21.4115657701
20
-36.3616691470
30
0.0000000000
10
-21.3196465601
20
-36.3535334824
30
0.0000000000
10
-21.2613477885
20
-36.3359882399
30
0.0000000000
10
-21.2357877198
20
-36.3236467041
30
0.0000000000
11
-21.5862290077
21
-36.3221175767
31
0.0000000000
11
-21.5061300528
21
-36.3490043506
31
0.0000000000
11
-21.4116339463
21
-36.3587244695
31
0.0000000000
11
-21.3168129530
21
-36.3498304232
31
0.0000000000
11
-21.2357877198
21
-36.3236467041
31
0.0000000000
0
SPLINE
5
3EE
100
AcDbEntity
8
0
100
AcDbSpline
62
9
6
CONTINUOUS
70
0
71
3
72
11
73
7
74
5
42
0.0000001000
43
0.0000001000
44
0.0000000001
12
0.3218809860
22
-0.1609404941
32
0.0000000000
13
0.3240741311
23
0.1564773764
33
0.0000000000
40
0.0000000000
40
0.0000000000
40
0.0000000000
40
0.0000000000
40
0.2347800866
40
0.4987470110
40
0.7633873586
40
1.0000000000
40
1.0000000000
40
1.0000000000
40
1.0000000000
10
-21.5862290077
20
-0.2412254525
30
0.0000000000
10
-21.5610385924
20
-0.2538206602
30
0.0000000000
10
-21.5031910586
20
-0.2718850348
30
0.0000000000
10
-21.4115655740
20
-0.2807770249
30
0.0000000000
10
-21.3196464169
20
-0.2726413250
30
0.0000000000
10
-21.2613477318
20
-0.2550960883
30
0.0000000000
10
-21.2357877198
20
-0.2427545799
30
0.0000000000
11
-21.5862290077
21
-0.2412254525
31
0.0000000000
11
-21.5061299052
21
-0.2681122574
31
0.0000000000
11
-21.4116337027
21
-0.2778323465
31
0.0000000000
11
-21.3168127666
21
-0.2689382619
31
0.0000000000
11
-21.2357877198
21
-0.2427545799
31
0.0000000000
0
SPLINE
5
3EF
100
AcDbEntity
8
0
100
AcDbSpline
62
9
6
CONTINUOUS
70
0
71
3
72
16
73
12
74
10
42
0.0000001000
43
0.0000001000
44
0.0000000001
12
-0.0000070657
22
1.8330449660
32
0.0000000000
13
1.6425043713
23
0.8137771427
33
0.0000000000
40
0.0000000000
40
0.0000000000
40
0.0000000000
40
0.0000000000
40
0.0823654349
40
0.1867668872
40
0.3087143441
40
0.4416961635
40
0.5776030339
40
0.7079822733
40
0.8251902370
40
0.9236660493
40
1.0000000000
40
1.0000000000
40
1.0000000000
40
1.0000000000
10
-21.2357877198
20
-0.2427545799
30
0.0000000000
10
-21.2357879138
20
-0.1924280646
30
0.0000000000
10
-21.2291941351
20
-0.0782468453
30
0.0000000000
10
-21.1971656401
20
0.1080678868
30
0.0000000000
10
-21.1345184791
20
0.3190593589
30
0.0000000000
10
-21.0392693106
20
0.5386960191
30
0.0000000000
10
-20.9153356062
20
0.7495603372
30
0.0000000000
10
-20.7719878411
20
0.9357200793
30
0.0000000000
10
-20.6221473255
20
1.0857821046
30
0.0000000000
10
-20.4802725643
20
1.1948066352
30
0.0000000000
10
-20.3876863473
20
1.2486920228
30
0.0000000000
10
-20.3458933980
20
1.2693982976
30
0.0000000000
11
-21.2357877198
21
-0.2427545799
31
0.0000000000
11
-21.2274860054
21
-0.0920034445
31
0.0000000000
11
-21.1955865044
21
0.0966917521
31
0.0000000000
11
-21.1323960463
21
0.3111094265
31
0.0000000000
11
-21.0355957135
21
0.5348267478
31
0.0000000000
11
-20.9092227198
21
0.7495180080
31
0.0000000000
11
-20.7630004983
21
0.9385570625
31
0.0000000000
11
-20.6106699173
21
1.0900655722
31
0.0000000000
11
-20.4670854862
21
1.1994620299
31
0.0000000000
11
-20.3458933980
21
1.2693982976
31
0.0000000000
0
SPLINE
5
3F0
100
AcDbEntity
8
0
100
AcDbSpline
62
9
6
CONTINUOUS
70
0
71
3
72
16
73
12
74
10
42
0.0000001000
43
0.0000001000
44
0.0000000001
12
-0.0000039750
22
2.1989446334
32
0.0000000000
13
1.9681293316
23
0.9807264831
33
0.0000000000
40
0.0000000000
40
0.0000000000
40
0.0000000000
40
0.0000000000
40
0.0824363535
40
0.1868674828
40
0.3088556626
40
0.4418757566
40
0.5778009362
40
0.7081646643
40
0.8253170102
40
0.9237043017
40
1.0000000000
40
1.0000000000
40
1.0000000000
40
1.0000000000
10
-21.5862290077
20
-0.2412254525
30
0.0000000000
10
-21.5862291169
20
-0.1808011268
30
0.0000000000
10
-21.5783349422
20
-0.0437544997
30
0.0000000000
10
-21.5400062939
20
0.1798688580
30
0.0000000000
10
-21.4650581111
20
0.4331163106
30
0.0000000000
10
-21.3511088439
20
0.6968037725
30
0.0000000000
10
-21.2028403572
20
0.9500265923
30
0.0000000000
10
-21.0313423975
20
1.1736494100
30
0.0000000000
10
-20.8520744212
20
1.3539778231
30
0.0000000000
10
-20.6822964315
20
1.4850845843
30
0.0000000000
10
-20.5714624253
20
1.5499429314
30
0.0000000000
10
-20.5214091580
20
1.5748846687
30
0.0000000000
11
-21.5862290077
21
-0.2412254525
31
0.0000000000
11
-21.5762873427
21
-0.0602252991
31
0.0000000000
11
-21.5381191069
21
0.1662187812
31
0.0000000000
11
-21.4625169127
21
0.4235897666
31
0.0000000000
11
-21.3467032956
21
0.6921892674
31
0.0000000000
11
-21.1955059376
21
0.9500181900
31
0.0000000000
11
-21.0205585276
21
1.1771059739
31
0.0000000000
11
-20.8383058691
21
1.3591709756
31
0.0000000000
11
-20.6665225691
21
1.4906892038
31
0.0000000000
11
-20.5214091580
21
1.5748846687
31
0.0000000000
0
SPLINE
5
3F1
100
AcDbEntity
8
0
100
AcDbSpline
62
9
6
CONTINUOUS
70
0
71
3
72
11
73
7
74
5
42
0.0000001000
43
0.0000001000
44
0.0000000001
12
0.3251767305
22
-0.1684386212
32
0.0000000000
13
0.0031983489
23
-0.3661983694
33
0.0000000000
40
0.0000000000
40
0.0000000000
40
0.0000000000
40
0.0000000000
40
0.2287545944
40
0.4875230364
40
0.7531065875
40
1.0000000000
40
1.0000000000
40
1.0000000000
40
1.0000000000
10
-20.5214091580
20
1.5748846687
30
0.0000000000
10
-20.4966139343
20
1.5620409659
30
0.0000000000
10
-20.4492903376
20
1.5239954097
30
0.0000000000
10
-20.3945215004
20
1.4492294797
30
0.0000000000
10
-20.3569233101
20
1.3620972754
30
0.0000000000
10
-20.3461566151
20
1.2995356193
30
0.0000000000
10
-20.3458933980
20
1.2693982976
30
0.0000000000
11
-20.5214091580
21
1.5748846687
31
0.0000000000
11
-20.4548169164
21
1.5240580247
31
0.0000000000
11
-20.3980786527
21
1.4481566267
31
0.0000000000
11
-20.3598302691
21
1.3587331206
31
0.0000000000
11
-20.3458933980
21
1.2693982976
31
0.0000000000
0
SPLINE
5
3F2
100
AcDbEntity
8
0
100
AcDbSpline
62
7
6
CONTINUOUS
70
0
71
3
72
11
73
7
74
5
42
0.0000001000
43
0.0000001000
44
0.0000000001
12
0.6259317764
22
0.0043980608
32
0.0000000000
13
0.6197741969
23
-0.0876919411
33
0.0000000000
40
0.0000000000
40
0.0000000000
40
0.0000000000
40
0.0000000000
40
0.2901806037
40
0.5569420495
40
0.7951434454
40
1.0000000000
40
1.0000000000
40
1.0000000000
40
1.0000000000
10
-18.1629777268
20
2.7433702695
30
0.0000000000
10
-18.1024333066
20
2.7437956801
30
0.0000000000
10
-17.9862402019
20
2.7336898682
30
0.0000000000
10
-17.8225122112
20
2.7070884489
30
0.0000000000
10
-17.6769526038
20
2.6797306187
30
0.0000000000
10
-17.5858635035
20
2.6638123253
30
0.0000000000
10
-17.5435419013
20
2.6578242356
30
0.0000000000
11
-18.1629777268
21
2.7433702695
31
0.0000000000
11
-17.9817651090
21
2.7309502315
31
0.0000000000
11
-17.8167503953
21
2.7054160801
31
0.0000000000
11
-17.6700473400
21
2.6787801670
31
0.0000000000
11
-17.5435419013
21
2.6578242356
31
0.0000000000
0
SPLINE
5
3F3
100
AcDbEntity
8
0
100
AcDbSpline
62
9
6
CONTINUOUS
70
0
71
3
72
9
73
5
74
3
42
0.0000001000
43
0.0000001000
44
0.0000000001
12
-0.2042796214
22
-0.1078139537
32
0.0000000000
13
-0.1837357109
23
-0.1402330585
33
0.0000000000
40
0.0000000000
40
0.0000000000
40
0.0000000000
40
0.0000000000
40
0.7143696726
40
1.0000000000
40
1.0000000000
40
1.0000000000
40
1.0000000000
10
-37.4568750667
20
10.0426176231
30
0.0000000000
10
-37.5055187888
20
10.0169446168
30
0.0000000000
10
-37.5712255631
20
9.9763758650
30
0.0000000000
10
-37.6334513246
20
9.9309153896
30
0.0000000000
10
-37.6509448217
20
9.9175637848
30
0.0000000000
11
-37.4568750667
21
10.0426176231
31
0.0000000000
11
-37.5976201980
21
9.9564860808
31
0.0000000000
11
-37.6509448217
21
9.9175637848
31
0.0000000000
0
SPLINE
5
3F4
100
AcDbEntity
8
0
100
AcDbSpline
62
9
6
CONTINUOUS
70
0
71
3
72
15
73
11
74
9
42
0.0000001000
43
0.0000001000
44
0.0000000001
12
-1.5599928006
22
-1.1906371416
32
0.0000000000
13
0.0000041126
23
-1.9611579037
33
0.0000000000
40
0.0000000000
40
0.0000000000
40
0.0000000000
40
0.0000000000
40
0.0754294717
40
0.2059025957
40
0.3516348865
40
0.5040009153
40
0.6533569785
40
0.7903971839
40
0.9076350336
40
1.0000000000
40
1.0000000000
40
1.0000000000
40
1.0000000000
10
-37.6509448217
20
9.9175637848
30
0.0000000000
10
-37.6901679659
20
9.8876274080
30
0.0000000000
10
-37.7933934261
20
9.8008765239
30
0.0000000000
10
-37.9523257361
20
9.6339094575
30
0.0000000000
10
-38.1189211615
20
9.4077583556
30
0.0000000000
10
-38.2629348803
20
9.1523401338
30
0.0000000000
10
-38.3735825056
20
8.8869911531
30
0.0000000000
10
-38.4463242860
20
8.6327249483
30
0.0000000000
10
-38.4834997300
20
8.4087138336
30
0.0000000000
10
-38.4911616786
20
8.2716215809
30
0.0000000000
10
-38.4911615520
20
8.2112408197
30
0.0000000000
11
-37.6509448217
21
9.9175637848
31
0.0000000000
11
-37.7644346318
21
9.8225888795
31
0.0000000000
11
-37.9415301059
21
9.6378973858
31
0.0000000000
11
-38.1115782450
21
9.4081854441
31
0.0000000000
11
-38.2585430275
21
9.1480103787
31
0.0000000000
11
-38.3710830914
21
8.8775820430
31
0.0000000000
11
-38.4445035026
21
8.6190476599
31
0.0000000000
11
-38.4815317306
21
8.3921269538
31
0.0000000000
11
-38.4911615520
21
8.2112408197
31
0.0000000000
0
SPLINE
5
3F5
100
AcDbEntity
8
0
100
AcDbSpline
62
9
6
CONTINUOUS
70
0
71
3
72
10
73
6
74
4
42
0.0000001000
43
0.0000001000
44
0.0000000001
12
-0.1066493007
22
0.0533246507
32
0.0000000000
13
0.0005191252
23
0.1185213654
33
0.0000000000
40
0.0000000000
40
0.0000000000
40
0.0000000000
40
0.0000000000
40
0.5623144680
40
0.9907963817
40
1.0000000000
40
1.0000000000
40
1.0000000000
40
1.0000000000
10
-38.4911615520
20
-27.8696513046
30
0.0000000000
10
-38.5111517002
20
-27.8596562304
30
0.0000000000
10
-38.5452232598
20
-27.8380494736
30
0.0000000000
10
-38.5642875720
20
-27.7989164982
30
0.0000000000
10
-38.5643830003
20
-27.7816265796
30
0.0000000000
10
-38.5643814077
20
-27.7812629712
30
0.0000000000
11
-38.4911615520
21
-27.8696513046
31
0.0000000000
11
-38.5449351623
21
-27.8296017522
31
0.0000000000
11
-38.5643753396
21
-27.7823536502
31
0.0000000000
11
-38.5643814077
21
-27.7812629712
31
0.0000000000
0
SPLINE
5
3F6
100
AcDbEntity
8
0
100
AcDbSpline
62
9
6
CONTINUOUS
70
0
71
3
72
9
73
5
74
3
42
0.0000001000
43
0.0000001000
44
0.0000000001
12
0.0589598767
22
-0.0398907427
32
0.0000000000
13
0.0636227146
23
-0.0318585060
33
0.0000000000
40
0.0000000000
40
0.0000000000
40
0.0000000000
40
0.0000000000
40
0.8899778237
40
1.0000000000
40
1.0000000000
40
1.0000000000
40
1.0000000000
10
-38.1688263225
20
-28.6419218169
30
0.0000000000
10
-38.1513353282
20
-28.6537557757
30
0.0000000000
10
-38.1309398193
20
-28.6659390406
30
0.0000000000
10
-38.1098104438
20
-28.6767136515
30
0.0000000000
10
-38.1074771406
20
-28.6778820322
30
0.0000000000
11
-38.1688263225
21
-28.6419218169
31
0.0000000000
11
-38.1144509602
21
-28.6743257076
31
0.0000000000
11
-38.1074771406
21
-28.6778820322
31
0.0000000000
0
SPLINE
5
3F7
100
AcDbEntity
8
0
100
AcDbSpline
62
7
6
CONTINUOUS
70
0
71
3
72
16
73
12
74
10
42
0.0000001000
43
0.0000001000
44
0.0000000001
12
-1.5404311202
22
-0.7632070872
32
0.0000000000
13
-0.0004797895
23
1.7192681126
33
0.0000000000
40
0.0000000000
40
0.0000000000
40
0.0000000000
40
0.0000000000
40
0.1158198217
40
0.2440669060
40
0.3775634632
40
0.5116313534
40
0.6377850779
40
0.7520379033
40
0.8497314352
40
0.9304225289
40
1.0000000000
40
1.0000000000
40
1.0000000000
40
1.0000000000
10
-33.6655765124
20
10.9353201935
30
0.0000000000
10
-33.7250473316
20
10.9058553573
30
0.0000000000
10
-33.8570737442
20
10.8570691055
30
0.0000000000
10
-34.0697925651
20
10.8141398732
30
0.0000000000
10
-34.2967906022
20
10.7993914388
30
0.0000000000
10
-34.5225959796
20
10.8138722987
30
0.0000000000
10
-34.7336208334
20
10.8566942300
30
0.0000000000
10
-34.9160381016
20
10.9249819346
30
0.0000000000
10
-35.0591209347
20
11.0153197384
30
0.0000000000
10
-35.1548437738
20
11.1242797583
30
0.0000000000
10
-35.1793537728
20
11.2111281297
30
0.0000000000
10
-35.1793649003
20
11.2510022388
30
0.0000000000
11
-33.6655765124
21
10.9353201935
31
0.0000000000
11
-33.8515854705
21
10.8642901876
31
0.0000000000
11
-34.0674697687
21
10.8195400055
31
0.0000000000
11
-34.2964642761
21
10.8043442848
31
0.0000000000
11
-34.5264443525
21
10.8195215064
31
0.0000000000
11
-34.7387393749
21
10.8638556930
31
0.0000000000
11
-34.9218563742
21
10.9348997954
31
0.0000000000
11
-35.0619285166
21
11.0275622733
31
0.0000000000
11
-35.1494746147
21
11.1351658553
31
0.0000000000
11
-35.1793649003
21
11.2510022388
31
0.0000000000
0
SPLINE
5
3F8
100
AcDbEntity
8
0
100
AcDbSpline
62
7
6
CONTINUOUS
70
0
71
3
72
14
73
10
74
8
42
0.0000001000
43
0.0000001000
44
0.0000000001
12
-1.0814854939
22
-0.0075989735
32
0.0000000000
13
0.0019612835
23
1.0867343729
33
0.0000000000
40
0.0000000000
40
0.0000000000
40
0.0000000000
40
0.0000000000
40
0.2132484493
40
0.4146968946
40
0.5972928705
40
0.7541196436
40
0.8834895621
40
0.9951988382
40
1.0000000000
40
1.0000000000
40
1.0000000000
40
1.0000000000
10
-18.1629777268
20
2.7433702695
30
0.0000000000
10
-18.2398527617
20
2.7428301130
30
0.0000000000
10
-18.3896223717
20
2.7514560762
30
0.0000000000
10
-18.6016314693
20
2.7929056034
30
0.0000000000
10
-18.7857874183
20
2.8600311522
30
0.0000000000
10
-18.9310118720
20
2.9493053734
30
0.0000000000
10
-19.0294412776
20
3.0576255205
30
0.0000000000
10
-19.0568932690
20
3.1460234009
30
0.0000000000
10
-19.0573272799
20
3.1882247596
30
0.0000000000
10
-19.0573241411
20
3.1899639555
30
0.0000000000
11
-18.1629777268
21
2.7433702695
31
0.0000000000
11
-18.3932036302
21
2.7570303630
31
0.0000000000
11
-18.6067941525
21
2.7999950913
31
0.0000000000
11
-18.7915460474
21
2.8697446319
31
0.0000000000
11
-18.9341538220
21
2.9615629166
31
0.0000000000
11
-19.0243877470
21
3.0684932036
31
0.0000000000
11
-19.0572701583
21
3.1847472259
31
0.0000000000
11
-19.0573241411
21
3.1899639555
31
0.0000000000
0
SPLINE
5
3F9
100
AcDbEntity
8
0
100
AcDbSpline
62
7
6
CONTINUOUS
70
0
71
3
72
10
73
6
74
4
42
0.0000001000
43
0.0000001000
44
0.0000000001
12
0.1686735258
22
0.0091470510
32
0.0000000000
13
0.1514317680
23
-0.0757828850
33
0.0000000000
40
0.0000000000
40
0.0000000000
40
0.0000000000
40
0.0000000000
40
0.4660808521
40
0.9127044330
40
1.0000000000
40
1.0000000000
40
1.0000000000
40
1.0000000000
10
-20.2992779237
20
14.6167621997
30
0.0000000000
10
-20.2730727568
20
14.6181832881
30
0.0000000000
10
-20.2212314023
20
14.6156819086
30
0.0000000000
10
-20.1666969941
20
14.5995629701
30
0.0000000000
10
-20.1394164624
20
14.5867411759
30
0.0000000000
10
-20.1350100217
20
14.5845360059
30
0.0000000000
11
-20.2992779237
21
14.6167621997
31
0.0000000000
11
-20.2206653977
21
14.6124444317
31
0.0000000000
11
-20.1483862661
21
14.5908212009
31
0.0000000000
11
-20.1350100217
21
14.5845360059
31
0.0000000000
0
SPLINE
5
3FA
100
AcDbEntity
8
0
100
AcDbSpline
62
7
6
CONTINUOUS
70
0
71
3
72
9
73
5
74
3
42
0.0000001000
43
0.0000001000
44
0.0000000001
12
0.0396471793
22
0.0277129837
32
0.0000000000
13
-0.0001101243
23
0.0001712049
33
0.0000000000
40
0.0000000000
40
0.0000000000
40
0.0000000000
40
0.0000000000
40
0.9437352877
40
1.0000000000
40
1.0000000000
40
1.0000000000
40
1.0000000000
10
-18.8218347482
20
13.8780406120
30
0.0000000000
10
-18.8093626009
20
13.8867585188
30
0.0000000000
10
-18.7851390309
20
13.9030940127
30
0.0000000000
10
-18.7839548252
20
13.9039698346
30
0.0000000000
10
-18.7839568905
20
13.9039730455
30
0.0000000000
11
-18.8218347482
21
13.8780406120
31
0.0000000000
11
-18.7841610193
21
13.9038223379
31
0.0000000000
11
-18.7839568905
21
13.9039730455
31
0.0000000000
0
SPLINE
5
3FB
100
AcDbEntity
8
0
100
AcDbSpline
62
9
6
CONTINUOUS
70
0
71
3
72
17
73
13
74
11
42
0.0000001000
43
0.0000001000
44
0.0000000001
12
-0.0028830521
22
-1.7258100857
32
0.0000000000
13
1.5431466578
23
0.7544334983
33
0.0000000000
40
0.0000000000
40
0.0000000000
40
0.0000000000
40
0.0000000000
40
0.0022727618
40
0.0717488721
40
0.1526991997
40
0.2502785313
40
0.3640950761
40
0.4904552988
40
0.6239119587
40
0.7577496923
40
0.8849823512
40
1.0000000000
40
1.0000000000
40
1.0000000000
40
1.0000000000
10
-35.1793608060
20
12.4103047613
30
0.0000000000
10
-35.1793629901
20
12.4089973096
30
0.0000000000
10
-35.1790501219
20
12.3677247121
30
0.0000000000
10
-35.1524225965
20
12.2803853597
30
0.0000000000
10
-35.0553763254
20
12.1727693245
30
0.0000000000
10
-34.9119762438
20
12.0836972196
30
0.0000000000
10
-34.7297397630
20
12.0160567325
30
0.0000000000
10
-34.5193546663
20
11.9734871913
30
0.0000000000
10
-34.2938119607
20
11.9587617452
30
0.0000000000
10
-34.0677084980
20
11.9729420891
30
0.0000000000
10
-33.8558809993
20
12.0150000374
30
0.0000000000
10
-33.7247395458
20
12.0627807582
30
0.0000000000
10
-33.6655765124
20
12.0917051473
30
0.0000000000
11
-35.1793608060
21
12.4103047613
31
0.0000000000
11
-35.1793309287
21
12.4063827920
31
0.0000000000
11
-35.1474626200
21
12.2913778787
31
0.0000000000
11
-35.0582419162
21
12.1847290408
31
0.0000000000
11
-34.9177321502
21
12.0933474954
31
0.0000000000
11
-34.7352386818
21
12.0232251069
31
0.0000000000
11
-34.5227441631
21
11.9789986391
31
0.0000000000
11
-34.2940200099
21
11.9636635224
31
0.0000000000
11
-34.0645997047
21
11.9783862740
31
0.0000000000
11
-33.8504639548
21
12.0220732805
31
0.0000000000
11
-33.6655765124
21
12.0917051473
31
0.0000000000
0
SPLINE
5
3FC
100
AcDbEntity
8
0
100
AcDbSpline
62
9
6
CONTINUOUS
70
0
71
3
72
11
73
7
74
5
42
0.0000001000
43
0.0000001000
44
0.0000000001
12
0.1262888265
22
0.2313198032
32
0.0000000000
13
0.2372130511
23
0.1152601327
33
0.0000000000
40
0.0000000000
40
0.0000000000
40
0.0000000000
40
0.0000000000
40
0.2567091342
40
0.5975581156
40
0.9297082745
40
1.0000000000
40
1.0000000000
40
1.0000000000
40
1.0000000000
10
-36.1879286002
20
-20.9125990255
30
0.0000000000
10
-36.1771221018
20
-20.8928050567
30
0.0000000000
10
-36.1490465680
20
-20.8483218174
30
0.0000000000
10
-36.0941255376
20
-20.7872180850
30
0.0000000000
10
-36.0405125881
20
-20.7491112382
30
0.0000000000
10
-36.0090706508
20
-20.7328717722
30
0.0000000000
10
-36.0035126126
20
-20.7301711610
30
0.0000000000
11
-36.1879286002
21
-20.9125990255
31
0.0000000000
11
-36.1516665132
21
-20.8555467796
31
0.0000000000
11
-36.0913578873
21
-20.7891418348
31
0.0000000000
11
-36.0199804913
21
-20.7386786540
31
0.0000000000
11
-36.0035126126
21
-20.7301711610
31
0.0000000000
0
SPLINE
5
3FD
100
AcDbEntity
8
0
100
AcDbSpline
62
9
6
CONTINUOUS
70
0
71
3
72
17
73
13
74
11
42
0.0000001000
43
0.0000001000
44
0.0000000001
12
-0.0028830521
22
-1.7258100858
32
0.0000000000
13
1.5431466578
23
0.7544334983
33
0.0000000000
40
0.0000000000
40
0.0000000000
40
0.0000000000
40
0.0000000000
40
0.0022727618
40
0.0717488721
40
0.1526991997
40
0.2502785313
40
0.3640950761
40
0.4904552988
40
0.6239119587
40
0.7577496923
40
0.8849823512
40
1.0000000000
40
1.0000000000
40
1.0000000000
40
1.0000000000
10
-19.0573261949
20
4.3492874558
30
0.0000000000
10
-19.0573283791
20
4.3479800041
30
0.0000000000
10
-19.0570155109
20
4.3067074066
30
0.0000000000
10
-19.0303879854
20
4.2193680542
30
0.0000000000
10
-18.9333417144
20
4.1117520189
30
0.0000000000
10
-18.7899416327
20
4.0226799140
30
0.0000000000
10
-18.6077051519
20
3.9550394269
30
0.0000000000
10
-18.3973200552
20
3.9124698858
30
0.0000000000
10
-18.1717773497
20
3.8977444397
30
0.0000000000
10
-17.9456738870
20
3.9119247836
30
0.0000000000
10
-17.7338463882
20
3.9539827319
30
0.0000000000
10
-17.6027049347
20
4.0017634527
30
0.0000000000
10
-17.5435419013
20
4.0306878418
30
0.0000000000
11
-19.0573261949
21
4.3492874558
31
0.0000000000
11
-19.0572963177
21
4.3453654864
31
0.0000000000
11
-19.0254280089
21
4.2303605732
31
0.0000000000
11
-18.9362073051
21
4.1237117352
31
0.0000000000
11
-18.7956975392
21
4.0323301899
31
0.0000000000
11
-18.6132040707
21
3.9622078013
31
0.0000000000
11
-18.4007095521
21
3.9179813336
31
0.0000000000
11
-18.1719853988
21
3.9026462169
31
0.0000000000
11
-17.9425650937
21
3.9173689684
31
0.0000000000
11
-17.7284293438
21
3.9610559750
31
0.0000000000
11
-17.5435419013
21
4.0306878418
31
0.0000000000
0
SPLINE
5
3FE
100
AcDbEntity
8
0
100
AcDbSpline
62
7
6
CONTINUOUS
70
0
71
3
72
10
73
6
74
4
42
0.0000001000
43
0.0000001000
44
0.0000000001
12
0.0616125570
22
0.0308062785
32
0.0000000000
13
0.0685289761
23
0.0069938116
33
0.0000000000
40
0.0000000000
40
0.0000000000
40
0.0000000000
40
0.0000000000
40
0.3511381091
40
0.6840818606
40
1.0000000000
40
1.0000000000
40
1.0000000000
40
1.0000000000
10
-18.1492866139
20
8.9373978415
30
0.0000000000
10
-18.1420751083
20
8.9410035943
30
0.0000000000
10
-18.1276601125
20
8.9473346808
30
0.0000000000
10
-18.1056784957
20
8.9541396774
30
0.0000000000
10
-18.0909507258
20
8.9567216626
30
0.0000000000
10
-18.0837342102
20
8.9574581532
30
0.0000000000
11
-18.1492866139
21
8.9373978415
31
0.0000000000
11
-18.1271127783
21
8.9470615059
31
0.0000000000
11
-18.1051818839
21
8.9537727866
31
0.0000000000
11
-18.0837342102
21
8.9574581532
31
0.0000000000
0
SPLINE
5
3FF
100
AcDbEntity
8
0
100
AcDbSpline
62
7
6
CONTINUOUS
70
0
71
3
72
12
73
8
74
6
42
0.0000001000
43
0.0000001000
44
0.0000000001
12
0.0000000000
22
0.4409628938
32
0.0000000000
13
0.3944092024
23
0.1972046012
33
0.0000000000
40
0.0000000000
40
0.0000000000
40
0.0000000000
40
0.0000000000
40
0.1952646443
40
0.4051116665
40
0.6172925625
40
0.8190521716
40
1.0000000000
40
1.0000000000
40
1.0000000000
40
1.0000000000
10
-18.7249867808
20
8.3897401369
30
0.0000000000
10
-18.7249867808
20
8.4184416244
30
0.0000000000
10
-18.7170623621
20
8.4780864793
30
0.0000000000
10
-18.6869948838
20
8.5642278751
30
0.0000000000
10
-18.6408560532
20
8.6441366794
30
0.0000000000
10
-18.5829486439
20
8.7103843675
30
0.0000000000
10
-18.5366439094
20
8.7437191937
30
0.0000000000
10
-18.5128547465
20
8.7556137752
30
0.0000000000
11
-18.7249867808
21
8.3897401369
31
0.0000000000
11
-18.7146043001
21
8.4752163474
31
0.0000000000
11
-18.6844731673
21
8.5627080317
31
0.0000000000
11
-18.6375428278
21
8.6436508941
31
0.0000000000
11
-18.5784071502
21
8.7101216833
31
0.0000000000
11
-18.5128547465
21
8.7556137752
31
0.0000000000
0
SPLINE
5
400
100
AcDbEntity
8
0
100
AcDbSpline
62
7
6
CONTINUOUS
70
0
71
3
72
15
73
11
74
9
42
0.0000001000
43
0.0000001000
44
0.0000000001
12
-0.2545132660
22
0.1272566330
32
0.0000000000
13
-0.2830840723
23
-0.0288905041
33
0.0000000000
40
0.0000000000
40
0.0000000000
40
0.0000000000
40
0.0000000000
40
0.1162145312
40
0.2441045088
40
0.3793057719
40
0.5170866920
40
0.6525903432
40
0.7810703032
40
0.8981319954
40
1.0000000000
40
1.0000000000
40
1.0000000000
40
1.0000000000
10
-18.9265972742
20
10.8297418164
30
0.0000000000
10
-18.9364566541
20
10.8346715064
30
0.0000000000
10
-18.9576530319
20
10.8440604961
30
0.0000000000
10
-18.9914968476
20
10.8563298723
30
0.0000000000
10
-19.0279779254
20
10.8671262340
30
0.0000000000
10
-19.0657063428
20
10.8760320033
30
0.0000000000
10
-19.1032457246
20
10.8827076699
30
0.0000000000
10
-19.1391697383
20
10.8869065568
30
0.0000000000
10
-19.1721099469
20
10.8884815136
30
0.0000000000
10
-19.1929059296
20
10.8877069628
30
0.0000000000
10
-19.2025183328
20
10.8867259568
30
0.0000000000
11
-18.9265972742
21
10.8297418164
31
0.0000000000
11
-18.9567715862
21
10.8432730338
31
0.0000000000
11
-18.9909550644
21
10.8557567509
31
0.0000000000
11
-19.0278340570
21
10.8667132256
31
0.0000000000
11
-19.0659913249
21
10.8757214066
31
0.0000000000
11
-19.1039605058
21
10.8824351146
31
0.0000000000
11
-19.1402824653
21
10.8865963455
31
0.0000000000
11
-19.1735613708
21
10.8880451856
31
0.0000000000
11
-19.2025183328
21
10.8867259568
31
0.0000000000
0
SPLINE
5
401
100
AcDbEntity
8
0
100
AcDbSpline
62
7
6
CONTINUOUS
70
0
71
3
72
15
73
11
74
9
42
0.0000001000
43
0.0000001000
44
0.0000000001
12
-0.2545132660
22
0.1272566330
32
0.0000000000
13
-0.2830840723
23
-0.0288905041
33
0.0000000000
40
0.0000000000
40
0.0000000000
40
0.0000000000
40
0.0000000000
40
0.1162145312
40
0.2441045088
40
0.3793057719
40
0.5170866920
40
0.6525903432
40
0.7810703032
40
0.8981319954
40
1.0000000000
40
1.0000000000
40
1.0000000000
40
1.0000000000
10
-22.9571059269
20
12.8449961428
30
0.0000000000
10
-22.9669653069
20
12.8499258328
30
0.0000000000
10
-22.9881616847
20
12.8593148225
30
0.0000000000
10
-23.0220055004
20
12.8715841987
30
0.0000000000
10
-23.0584865782
20
12.8823805604
30
0.0000000000
10
-23.0962149956
20
12.8912863297
30
0.0000000000
10
-23.1337543774
20
12.8979619963
30
0.0000000000
10
-23.1696783911
20
12.9021608831
30
0.0000000000
10
-23.2026185997
20
12.9037358400
30
0.0000000000
10
-23.2234145824
20
12.9029612892
30
0.0000000000
10
-23.2330269856
20
12.9019802832
30
0.0000000000
11
-22.9571059269
21
12.8449961428
31
0.0000000000
11
-22.9872802389
21
12.8585273602
31
0.0000000000
11
-23.0214637172
21
12.8710110773
31
0.0000000000
11
-23.0583427098
21
12.8819675520
31
0.0000000000
11
-23.0964999777
21
12.8909757330
31
0.0000000000
11
-23.1344691586
21
12.8976894409
31
0.0000000000
11
-23.1707911180
21
12.9018506719
31
0.0000000000
11
-23.2040700236
21
12.9032995120
31
0.0000000000
11
-23.2330269856
21
12.9019802832
31
0.0000000000
0
SPLINE
5
402
100
AcDbEntity
8
0
100
AcDbSpline
62
7
6
CONTINUOUS
70
0
71
3
72
14
73
10
74
8
42
0.0000001000
43
0.0000001000
44
0.0000000001
12
0.6150856016
22
0.2076721131
32
0.0000000000
13
0.5797085112
23
-0.2898542556
33
0.0000000000
40
0.0000000000
40
0.0000000000
40
0.0000000000
40
0.0000000000
40
0.0226478444
40
0.1827376881
40
0.3522486903
40
0.5249977011
40
0.6945087034
40
0.8545985471
40
1.0000000000
40
1.0000000000
40
1.0000000000
40
1.0000000000
10
-20.4545500319
20
10.6746259161
30
0.0000000000
10
-20.4499065776
20
10.6761936913
30
0.0000000000
10
-20.4123035294
20
10.6884325711
30
0.0000000000
10
-20.3380513290
20
10.7059244052
30
0.0000000000
10
-20.2299487790
20
10.7180262603
30
0.0000000000
10
-20.1191625855
20
10.7180262603
30
0.0000000000
10
-20.0110600355
20
10.7059244052
30
0.0000000000
10
-19.9109320099
20
10.6823369182
30
0.0000000000
10
-19.8490991116
20
10.6583228229
30
0.0000000000
10
-19.8210022917
20
10.6442744130
30
0.0000000000
11
-20.4545500319
21
10.6746259161
31
0.0000000000
11
-20.4405717205
21
10.6791787675
31
0.0000000000
11
-20.3396952132
21
10.7034685503
31
0.0000000000
11
-20.2305379203
21
10.7159257702
31
0.0000000000
11
-20.1185734442
21
10.7159257702
31
0.0000000000
11
-20.0094161513
21
10.7034685503
31
0.0000000000
11
-19.9085396440
21
10.6791787675
31
0.0000000000
11
-19.8210022917
21
10.6442744130
31
0.0000000000
0
ENDSEC
0
SECTION
2
OBJECTS
0
DICTIONARY
5
403
100
AcDbDictionary
3
ACAD_GROUP
350
404
3
ACAD_MLINESTYLE
350
405
0
DICTIONARY
5
404
102
{ACAD_REACTORS
330
403
102
}
100
AcDbDictionary
0
DICTIONARY
5
405
102
{ACAD_REACTORS
330
403
102
}
100
AcDbDictionary
3
STANDARD
350
406
0
MLINESTYLE
5
406
102
{ACAD_REACTORS
330
405
102
}
100
AcDbMlineStyle
2
STANDARD
70
0
3

62
256
51
90.0
52
90.0
71
2
49
0.5
62
256
6
BYLAYER
49
-0.5
62
256
6
BYLAYER
0
ENDSEC
0
EOF
