0
SECTION
2
HEADER
9
$ACADVER
1
AC1015
9
$DWGCODEPAGE
3
ANSI_1252
9
$EXTMAX
10
431.8000000000
20
558.8000000000
30
0.0000000000
9
$EXTMIN
10
0.0000000000
20
0.0000000000
30
0.0000000000
9
$LIMMIN
10
0.0000000000
20
0.0000000000
9
$LIMMAX
10
431.8000000000
20
558.8000000000
9
$VIEWCTR
10
215.9000000000
20
279.4000000000
9
$VIEWSIZE
40
558.8000000000
9
$CLAYER
8
0
9
$LTSCALE
40
36.4254814815
9
$CELTYPE
6
BYLAYER
9
$DIMSCALE
40
1
9
$DIMASZ
40
3.0000000000
9
$DIMEXO
40
4.1392592593
9
$DIMDLI
40
25.1666962963
9
$DIMEXE
40
11.9210666667
9
$DIMCEN
40
5.9605333333
9
$DIMLFAC
40
1.0000000000
9
$DIMBLK
1
_FILLED
9
$DIMTXT
40
3.0000000000
9
$DIMTOL
70
1
9
$DIMLIM
70
0
9
$DIMTFAC
40
1.0000000000
9
$DIMTP
40
0.0100000000
9
$DIMTM
40
0.0100000000
9
$PDMODE
70
3
9
$PDSIZE
40
3.0000000000
9
$HANDSEED
5
47C
9
$MEASUREMENT
70
1
9
$INSUNITS
70
4
0
ENDSEC
0
SECTION
2
CLASSES
0
CLASS
1
ACDBDICTIONARYWDFLT
2
AcDbDictionaryWithDefault
3
AutoCAD 2000
90
0
280
0
281
0
0
CLASS
1
ACDBPLACEHOLDER
2
AcDbPlaceHolder
3
AutoCAD 2000
90
0
280
0
281
0
0
CLASS
1
LAYOUT
2
AcDbLayout
3
AutoCAD 2000
90
0
280
0
281
0
0
ENDSEC
0
SECTION
2
TABLES
0
TABLE
2
VPORT
5
8
100
AcDbSymbolTable
70
2
0
VPORT
5
1F4
100
AcDbSymbolTableRecord
100
AcDbViewportTableRecord
2
*ACTIVE
70
0
10
0.0
20
0.0
11
1.0
21
1.0
12
215.9000000000
22
279.4000000000
13
0.0
23
0.0
14
1.0
24
1.0
15
0.0
25
0.0
16
0.0
26
0.0
36
1.0
17
0.0
27
0.0
37
0.0
40
558.8000000000
41
0.7727272727
42
50.0
43
0.0
44
0.0
50
0.0
51
0.0
71
0
72
100
73
1
74
1
75
0
76
0
77
0
78
0
0
ENDTAB
0
TABLE
2
LTYPE
5
5
100
AcDbSymbolTable
70
6
0
LTYPE
5
14
100
AcDbSymbolTableRecord
100
AcDbLinetypeTableRecord
2
BYBLOCK
70
0
3

72
65
73
0
40
0.0
0
LTYPE
5
15
100
AcDbSymbolTableRecord
100
AcDbLinetypeTableRecord
2
BYLAYER
70
0
3

72
65
73
0
40
0.0
0
LTYPE
5
16
100
AcDbSymbolTableRecord
100
AcDbLinetypeTableRecord
2
CONTINUOUS
70
64
3
Solid line
72
65
73
0
40
0
0
LTYPE
5
1F5
100
AcDbSymbolTableRecord
100
AcDbLinetypeTableRecord
2
CENTER
70
64
3
____ _ ____ _ ____ _ ____ _ ____ _ ____ _ ____
72
65
73
4
40
0.6
49
0.375
74
0
49
-0.075
74
0
49
0.075
74
0
49
-0.075
74
0
0
LTYPE
5
1F6
100
AcDbSymbolTableRecord
100
AcDbLinetypeTableRecord
2
HIDDEN
70
64
3
- - - - - - - - - - - - - - - - - - - -
72
65
73
2
40
0.2
49
0.1
74
0
49
-0.1
74
0
0
LTYPE
5
1F7
100
AcDbSymbolTableRecord
100
AcDbLinetypeTableRecord
2
PHANTOM
70
64
3
_____ _ _ _____ _ _ _____ _ _ _____
72
65
73
6
40
0.8
49
0.45
74
0
49
-0.05
74
0
49
0.1
74
0
49
-0.05
74
0
49
0.1
74
0
49
-0.05
74
0
0
LTYPE
5
1F8
100
AcDbSymbolTableRecord
100
AcDbLinetypeTableRecord
2
DOT
70
64
3
. . . . . . . . . . . . . . . . . . . .
72
65
73
2
40
0.2
49
0.1
74
0
49
-0.1
74
0
0
LTYPE
5
1F9
100
AcDbSymbolTableRecord
100
AcDbLinetypeTableRecord
2
DASHED
70
64
3
- - - - - - - - - - - - - - - - - - - -
72
65
73
2
40
0.2
49
0.1
74
0
49
-0.1
74
0
0
ENDTAB
0
TABLE
2
LAYER
5
2
100
AcDbSymbolTable
70
36
0
LAYER
5
10
100
AcDbSymbolTableRecord
100
AcDbLayerTableRecord
2
0
70
0
62
7
6
CONTINUOUS
370
-3
390
F
0
LAYER
5
1FA
100
AcDbSymbolTableRecord
100
AcDbLayerTableRecord
2
DEFAULT_1
70
0
62
7
6
CENTER
370
-3
390
F
0
LAYER
5
1FB
100
AcDbSymbolTableRecord
100
AcDbLayerTableRecord
2
DEFAULT_2
70
0
62
8
6
HIDDEN
370
-3
390
F
0
LAYER
5
1FC
100
AcDbSymbolTableRecord
100
AcDbLayerTableRecord
2
DEFAULT_3
70
0
62
7
6
PHANTOM
370
-3
390
F
0
LAYER
5
1FD
100
AcDbSymbolTableRecord
100
AcDbLayerTableRecord
2
_2D_DELETED_OBJS
70
0
62
7
6
CONTINUOUS
370
-3
390
F
0
LAYER
5
1FE
100
AcDbSymbolTableRecord
100
AcDbLayerTableRecord
2
_BLACK_HOLE
70
0
62
7
6
CONTINUOUS
370
-3
390
F
0
LAYER
5
1FF
100
AcDbSymbolTableRecord
100
AcDbLayerTableRecord
2
ASSI
70
0
62
7
6
CONTINUOUS
370
-3
390
F
0
LAYER
5
200
100
AcDbSymbolTableRecord
100
AcDbLayerTableRecord
2
COORDINATE
70
0
62
7
6
CONTINUOUS
370
-3
390
F
0
LAYER
5
201
100
AcDbSymbolTableRecord
100
AcDbLayerTableRecord
2
COORD_ORIGINE
70
0
62
7
6
CONTINUOUS
370
-3
390
F
0
LAYER
5
202
100
AcDbSymbolTableRecord
100
AcDbLayerTableRecord
2
COSMETICI
70
0
62
7
6
CONTINUOUS
370
-3
390
F
0
LAYER
5
203
100
AcDbSymbolTableRecord
100
AcDbLayerTableRecord
2
CURVE
70
0
62
7
6
CONTINUOUS
370
-3
390
F
0
LAYER
5
204
100
AcDbSymbolTableRecord
100
AcDbLayerTableRecord
2
DRAFT
70
0
62
7
6
CONTINUOUS
370
-3
390
F
0
LAYER
5
205
100
AcDbSymbolTableRecord
100
AcDbLayerTableRecord
2
IGES
70
0
62
7
6
CONTINUOUS
370
-3
390
F
0
LAYER
5
206
100
AcDbSymbolTableRecord
100
AcDbLayerTableRecord
2
INC_LASER
70
0
62
7
6
CONTINUOUS
370
-3
390
F
0
LAYER
5
207
100
AcDbSymbolTableRecord
100
AcDbLayerTableRecord
2
NOTE
70
0
62
7
6
CONTINUOUS
370
-3
390
F
0
LAYER
5
208
100
AcDbSymbolTableRecord
100
AcDbLayerTableRecord
2
PIANI
70
0
62
7
6
CONTINUOUS
370
-3
390
F
0
LAYER
5
209
100
AcDbSymbolTableRecord
100
AcDbLayerTableRecord
2
PIANI_AUSILIARI
70
0
62
7
6
CONTINUOUS
370
-3
390
F
0
LAYER
5
20A
100
AcDbSymbolTableRecord
100
AcDbLayerTableRecord
2
PIANI_ORIGINE
70
0
62
7
6
CONTINUOUS
370
-3
390
F
0
LAYER
5
20B
100
AcDbSymbolTableRecord
100
AcDbLayerTableRecord
2
PUNTI
70
0
62
7
6
CONTINUOUS
370
-3
390
F
0
LAYER
5
20C
100
AcDbSymbolTableRecord
100
AcDbLayerTableRecord
2
RACCORDO
70
0
62
7
6
CONTINUOUS
370
-3
390
F
0
LAYER
5
20D
100
AcDbSymbolTableRecord
100
AcDbLayerTableRecord
2
SMUSSO
70
0
62
7
6
CONTINUOUS
370
-3
390
F
0
LAYER
5
20E
100
AcDbSymbolTableRecord
100
AcDbLayerTableRecord
2
SNAPLINE
70
0
62
7
6
CONTINUOUS
370
-3
390
F
0
LAYER
5
20F
100
AcDbSymbolTableRecord
100
AcDbLayerTableRecord
2
SUPERFICI
70
0
62
7
6
CONTINUOUS
370
-3
390
F
0
LAYER
5
210
100
AcDbSymbolTableRecord
100
AcDbLayerTableRecord
2
TRASH
70
0
62
7
6
CONTINUOUS
370
-3
390
F
0
LAYER
5
211
100
AcDbSymbolTableRecord
100
AcDbLayerTableRecord
2
XSEC_DATUMS
70
0
62
7
6
CONTINUOUS
370
-3
390
F
0
LAYER
5
212
100
AcDbSymbolTableRecord
100
AcDbLayerTableRecord
2
Z030080
70
0
62
7
6
CONTINUOUS
370
-3
390
F
0
LAYER
5
213
100
AcDbSymbolTableRecord
100
AcDbLayerTableRecord
2
Z030090
70
0
62
7
6
CONTINUOUS
370
-3
390
F
0
LAYER
5
214
100
AcDbSymbolTableRecord
100
AcDbLayerTableRecord
2
Z030100
70
0
62
7
6
CONTINUOUS
370
-3
390
F
0
LAYER
5
215
100
AcDbSymbolTableRecord
100
AcDbLayerTableRecord
2
Z030110
70
0
62
7
6
CONTINUOUS
370
-3
390
F
0
ENDTAB
0
TABLE
2
STYLE
5
3
100
AcDbSymbolTable
70
1
0
STYLE
5
11
100
AcDbSymbolTableRecord
100
AcDbTextStyleTableRecord
2
STANDARD
70
0
40
0.0
41
0.8000000000
50
0.0
71
0
42
0.2
3
txt
4

0
ENDTAB
0
TABLE
2
VIEW
5
6
100
AcDbSymbolTable
70
0
0
ENDTAB
0
TABLE
2
UCS
5
7
100
AcDbSymbolTable
70
0
0
ENDTAB
0
TABLE
2
APPID
5
9
100
AcDbSymbolTable
70
1
0
APPID
5
216
100
AcDbSymbolTableRecord
100
AcDbRegAppTableRecord
2
ACAD
70
0
0
ENDTAB
0
TABLE
2
BLOCK_RECORD
5
1
100
AcDbSymbolTable
70
0
0
BLOCK_RECORD
5
1F
100
AcDbSymbolTableRecord
100
AcDbBlockTableRecord
2
*MODEL_SPACE
0
BLOCK_RECORD
5
1B
100
AcDbSymbolTableRecord
100
AcDbBlockTableRecord
2
*PAPER_SPACE
0
ENDTAB
0
TABLE
2
DIMSTYLE
5
A
100
AcDbSymbolTable
70
1
100
AcDbDimStyleTable
71
0
0
DIMSTYLE
105
217
100
AcDbSymbolTableRecord
100
AcDbDimStyleTableRecord
2
STANDARD
70
0
3

4

40
1.0
41
3.0000000000
42
0.0625
43
0.38
44
0.18
45
0.0
46
0.0
47
0.0100000000
48
0.0100000000
140
3.0000000000
141
0.09
142
0.0
143
25.4
144
1.0000000000
145
0.0
146
1.0000000000
147
0.09
71
1
72
0
73
0
74
0
75
0
76
0
77
1
78
8
170
0
171
2
172
0
173
0
174
0
175
0
176
0
177
0
178
0
270
2
271
2
272
2
273
2
274
2
275
0
280
0
281
0
282
0
283
1
284
8
285
0
286
0
287
3
288
0
340
11
0
ENDTAB
0
ENDSEC
0
SECTION
2
BLOCKS
0
BLOCK
5
20
100
AcDbEntity
8
0
100
AcDbBlockBegin
2
*MODEL_SPACE
70
0
10
0.0
20
0.0
30
0.0
3
*MODEL_SPACE
1

0
ENDBLK
5
21
100
AcDbEntity
8
0
100
AcDbBlockEnd
0
BLOCK
5
1C
100
AcDbEntity
8
0
100
AcDbBlockBegin
2
*PAPER_SPACE
70
0
10
0.0
20
0.0
30
0.0
3
*PAPER_SPACE
1

0
ENDBLK
5
1D
100
AcDbEntity
8
0
100
AcDbBlockEnd
0
ENDSEC
0
SECTION
2
ENTITIES
0
LWPOLYLINE
5
218
100
AcDbEntity
8
0
100
AcDbPolyline
62
7
6
CONTINUOUS
90
3
70
0
10
-1.4111110056
20
29.9741146782
10
-1.4532724338
20
29.9326170875
10
-1.4898136700
20
29.8885001923
0
LINE
5
219
100
AcDbEntity
8
0
100
AcDbLine
62
7
6
CONTINUOUS
10
-1.3634918894
20
30.0128185281
11
-1.4110319871
21
29.9741852645
0
LINE
5
21A
100
AcDbEntity
8
0
100
AcDbLine
62
7
6
CONTINUOUS
10
-1.3097073514
20
30.0491179199
11
-1.3632804053
21
30.0129750960
0
LINE
5
21B
100
AcDbEntity
8
0
100
AcDbLine
62
7
6
CONTINUOUS
10
-1.2600832615
20
30.0773772183
11
-1.3102812716
21
30.0487643167
0
LINE
5
21C
100
AcDbEntity
8
0
100
AcDbLine
62
7
6
CONTINUOUS
10
2.9747529927
20
32.3068982953
11
-1.2601560151
21
30.0773562167
0
LINE
5
21D
100
AcDbEntity
8
0
100
AcDbLine
62
9
6
CONTINUOUS
10
3.0883546813
20
32.3007099837
11
-1.1449272476
21
30.0720245093
0
LINE
5
21E
100
AcDbEntity
8
0
100
AcDbLine
62
7
6
CONTINUOUS
10
2.9782789043
20
32.3086628657
11
2.9747907442
21
32.3069181703
0
LINE
5
21F
100
AcDbEntity
8
0
100
AcDbLine
62
7
6
CONTINUOUS
10
2.9783229770
20
32.3086837556
11
9.4533364766
21
35.3806930768
0
LINE
5
220
100
AcDbEntity
8
0
100
AcDbLine
62
9
6
CONTINUOUS
10
3.0883546813
20
32.3007099837
11
9.5633990650
21
35.3727339576
0
LINE
5
221
100
AcDbEntity
8
0
100
AcDbLine
62
7
6
CONTINUOUS
10
15.7568550906
20
-20.0287402436
11
15.8395415178
21
-20.0074202406
0
LWPOLYLINE
5
222
100
AcDbEntity
8
0
100
AcDbPolyline
62
7
6
CONTINUOUS
90
3
70
0
10
12.8251571512
20
-20.0018344724
10
12.9084654583
20
-19.9900042328
10
12.9927069539
20
-19.9703732562
0
LWPOLYLINE
5
223
100
AcDbEntity
8
0
100
AcDbPolyline
62
7
6
CONTINUOUS
90
4
70
0
10
15.4962460326
20
-20.0623882388
10
15.5851396891
20
-20.0560968361
10
15.6724684706
20
-20.0448310622
10
15.7575181704
20
-20.0285921198
0
LINE
5
224
100
AcDbEntity
8
0
100
AcDbLine
62
7
6
CONTINUOUS
10
15.4068484861
20
-20.0636674635
11
15.4963102961
21
-20.0623855110
0
LINE
5
225
100
AcDbEntity
8
0
100
AcDbLine
62
7
6
CONTINUOUS
10
15.3169753314
20
-20.0599034139
11
15.4065163613
21
-20.0636628694
0
LWPOLYLINE
5
226
100
AcDbEntity
8
0
100
AcDbPolyline
62
7
6
CONTINUOUS
90
3
70
0
10
12.6637614540
20
-20.0022090563
10
12.7435241425
20
-20.0058698435
10
12.8251012893
20
-20.0018398281
0
LINE
5
227
100
AcDbEntity
8
0
100
AcDbLine
62
7
6
CONTINUOUS
10
15.2283481327
20
-20.0511319085
11
15.3175743544
21
-20.0599453619
0
LINE
5
228
100
AcDbEntity
8
0
100
AcDbLine
62
7
6
CONTINUOUS
10
12.5855491185
20
-19.9908277878
11
12.6632729548
21
-20.0021625084
0
LINE
5
229
100
AcDbEntity
8
0
100
AcDbLine
62
7
6
CONTINUOUS
10
15.1413970731
20
-20.0373357593
11
15.2292064481
21
-20.0512418376
0
LINE
5
22A
100
AcDbEntity
8
0
100
AcDbLine
62
7
6
CONTINUOUS
10
15.0570405483
20
-20.0185839903
11
15.1425001982
21
-20.0375447047
0
LINE
5
22B
100
AcDbEntity
8
0
100
AcDbLine
62
7
6
CONTINUOUS
10
12.5109020412
20
-19.9721350326
11
12.5862899634
21
-19.9909737338
0
LINE
5
22C
100
AcDbEntity
8
0
100
AcDbLine
62
7
6
CONTINUOUS
10
-4.7427168577
20
26.4332744742
11
-4.7977354473
21
26.3165718008
0
LINE
5
22D
100
AcDbEntity
8
0
100
AcDbLine
62
7
6
CONTINUOUS
10
-4.6815910492
20
26.5462544496
11
-4.7428847326
21
26.4329424678
0
LINE
5
22E
100
AcDbEntity
8
0
100
AcDbLine
62
7
6
CONTINUOUS
10
-4.6139168995
20
26.6561227825
11
-4.6813286350
21
26.5467086456
0
LINE
5
22F
100
AcDbEntity
8
0
100
AcDbLine
62
7
6
CONTINUOUS
10
-1.4893561834
20
29.8891156193
11
-1.5206366602
21
29.8418034763
0
LINE
5
230
100
AcDbEntity
8
0
100
AcDbLine
62
7
6
CONTINUOUS
10
-4.5409197021
20
26.7606962924
11
-4.6142871079
21
26.6555582465
0
LINE
5
231
100
AcDbEntity
8
0
100
AcDbLine
62
7
6
CONTINUOUS
10
-4.4627531387
20
26.8596490754
11
-4.5414092842
21
26.7600366824
0
LINE
5
232
100
AcDbEntity
8
0
100
AcDbLine
62
7
6
CONTINUOUS
10
-4.3797285386
20
26.9523835659
11
-4.4633714581
21
26.8589130744
0
LINE
5
233
100
AcDbEntity
8
0
100
AcDbLine
62
7
6
CONTINUOUS
10
-4.2923986571
20
27.0380006108
11
-4.3804847577
21
26.9515910056
0
LINE
5
234
100
AcDbEntity
8
0
100
AcDbLine
62
7
6
CONTINUOUS
10
-4.2015547512
20
27.1155265802
11
-4.2932989716
21
27.0371753799
0
LINE
5
235
100
AcDbEntity
8
0
100
AcDbLine
62
7
6
CONTINUOUS
10
-4.1077445476
20
27.1842974697
11
-4.2025987178
21
27.1146984063
0
LINE
5
236
100
AcDbEntity
8
0
100
AcDbLine
62
7
6
CONTINUOUS
10
-4.0113244153
20
27.2438186243
11
-4.1089283486
21
27.1834976424
0
LINE
5
237
100
AcDbEntity
8
0
100
AcDbLine
62
7
6
CONTINUOUS
10
-3.9854179036
20
27.2579526718
11
-4.0126439078
21
27.2430779615
0
LINE
5
238
100
AcDbEntity
8
0
100
AcDbLine
62
7
6
CONTINUOUS
10
-1.5818262627
20
28.5338259350
11
-3.9855744884
21
27.2578707552
0
LINE
5
239
100
AcDbEntity
8
0
100
AcDbLine
62
9
6
CONTINUOUS
10
-1.5817467984
20
28.4673815766
11
-3.8702110842
21
27.2526213001
0
LINE
5
23A
100
AcDbEntity
8
0
100
AcDbLine
62
7
6
CONTINUOUS
10
8.6767795744
20
32.5208107967
11
-0.0164394235
21
28.1388752154
0
LINE
5
23B
100
AcDbEntity
8
0
100
AcDbLine
62
9
6
CONTINUOUS
10
-0.1929008637
20
29.6001826602
11
4.1490135054
21
31.7703805716
0
LINE
5
23C
100
AcDbEntity
8
0
100
AcDbLine
62
9
6
CONTINUOUS
10
-0.0164394235
20
29.2951423413
11
4.3242300514
21
31.4647180233
0
LINE
5
23D
100
AcDbEntity
8
0
100
AcDbLine
62
9
6
CONTINUOUS
10
4.1489919653
20
31.7703913417
11
10.5684904426
21
34.8701882688
0
LINE
5
23E
100
AcDbEntity
8
0
100
AcDbLine
62
9
6
CONTINUOUS
10
4.3242300514
20
31.4647180233
11
10.7452846393
21
34.5652663529
0
LINE
5
23F
100
AcDbEntity
8
0
100
AcDbLine
62
7
6
CONTINUOUS
10
10.7452846393
20
33.5108668775
11
8.6767795744
21
32.5208107967
0
LINE
5
240
100
AcDbEntity
8
0
100
AcDbLine
62
7
6
CONTINUOUS
10
14.9756114473
20
-19.9947596572
11
15.0583666115
21
-20.0189230300
0
LINE
5
241
100
AcDbEntity
8
0
100
AcDbLine
62
7
6
CONTINUOUS
10
12.4398790815
20
-19.9464456843
11
12.5118718757
21
-19.9724303746
0
LINE
5
242
100
AcDbEntity
8
0
100
AcDbLine
62
7
6
CONTINUOUS
10
14.8980725827
20
-19.9658906398
11
14.9771429830
21
-19.9952654232
0
LINE
5
243
100
AcDbEntity
8
0
100
AcDbLine
62
7
6
CONTINUOUS
10
12.3944545569
20
-19.9255042720
11
12.4410488309
21
-19.9469363877
0
LINE
5
244
100
AcDbEntity
8
0
100
AcDbLine
62
7
6
CONTINUOUS
10
14.8257673592
20
-19.9322721591
11
14.8997758371
21
-19.9665984466
0
LINE
5
245
100
AcDbEntity
8
0
100
AcDbLine
62
7
6
CONTINUOUS
10
12.3959531536
20
-19.9262638004
11
-4.5203362290
21
-11.4681191091
0
LINE
5
246
100
AcDbEntity
8
0
100
AcDbLine
62
9
6
CONTINUOUS
10
12.0004349749
20
-19.1121138997
11
-4.9044975694
21
-10.6596476276
0
LINE
5
247
100
AcDbEntity
8
DEFAULT_3
100
AcDbLine
62
8
6
PHANTOM
10
-2.5987117589
20
-11.5244418604
11
8.6442860705
21
-17.1459407751
0
LINE
5
248
100
AcDbEntity
8
0
100
AcDbLine
62
9
6
CONTINUOUS
10
9.2048229522
20
-17.2632533455
11
-2.1088855468
21
-11.6063990960
0
LWPOLYLINE
5
249
100
AcDbEntity
8
DEFAULT_3
100
AcDbPolyline
62
8
6
PHANTOM
90
19
70
0
10
-2.5987117589
20
-11.5244418604
10
-2.6547850723
20
-11.4940110922
10
-2.7096283983
20
-11.4593446071
10
-2.7630902166
20
-11.4204110122
10
-2.8155345389
20
-11.3766960428
10
-2.8661893387
20
-11.3285441315
10
-2.9134939094
20
-11.2774413658
10
-2.9573998222
20
-11.2236825950
10
-2.9981757221
20
-11.1670767517
10
-3.0351774096
20
-11.1086888631
10
-3.0684705722
20
-11.0486936373
10
-3.0982293794
20
-10.9869184353
10
-3.1241650193
20
-10.9240716731
10
-3.1463523042
20
-10.8600758639
10
-3.1647622718
20
-10.7949140796
10
-3.1791278719
20
-10.7294841765
10
-3.1894223449
20
-10.6640897306
10
-3.1956782763
20
-10.5984104849
10
-3.1977942764
20
-10.5324692017
0
LWPOLYLINE
5
24A
100
AcDbEntity
8
0
100
AcDbPolyline
62
7
6
CONTINUOUS
90
3
70
0
10
-4.7384949098
20
-11.2996432217
10
-4.6718588418
20
-11.3660066860
10
-4.5985608316
20
-11.4224941425
0
LWPOLYLINE
5
24B
100
AcDbEntity
8
0
100
AcDbPolyline
62
7
6
CONTINUOUS
90
4
70
0
10
-4.7408498701
20
-11.2969763006
10
-4.6749121770
20
-11.3633113802
10
-4.6023692192
20
-11.4199152647
10
-4.5208406195
20
-11.4678591029
0
LINE
5
24C
100
AcDbEntity
8
0
100
AcDbLine
62
7
6
CONTINUOUS
10
-4.7995431296
20
-11.2214815805
11
-4.7384949098
21
-11.2996432217
0
LINE
5
24D
100
AcDbEntity
8
0
100
AcDbLine
62
7
6
CONTINUOUS
10
-4.8504763675
20
-11.1373968685
11
-4.7978130707
21
-11.2239899913
0
LINE
5
24E
100
AcDbEntity
8
0
100
AcDbLine
62
7
6
CONTINUOUS
10
-4.8933481705
20
-11.0451036518
11
-4.8492934372
21
-11.1396126674
0
LWPOLYLINE
5
24F
100
AcDbEntity
8
0
100
AcDbPolyline
62
7
6
CONTINUOUS
90
4
70
0
10
-4.7978231525
20
26.3163715303
10
-4.8460806630
20
26.1972336440
10
-4.8873092578
20
26.0763199099
10
-4.9211791364
20
25.9544343905
0
LINE
5
250
100
AcDbEntity
8
0
100
AcDbLine
62
7
6
CONTINUOUS
10
-1.5200917617
20
29.8427377369
11
-1.5454218161
21
29.7928998274
0
LINE
5
251
100
AcDbEntity
8
0
100
AcDbLine
62
7
6
CONTINUOUS
10
6.5885278618
20
30.5546683008
11
6.9520959944
21
30.7364523671
0
LINE
5
252
100
AcDbEntity
8
0
100
AcDbLine
62
7
6
CONTINUOUS
10
11.6089860083
20
31.7042266326
11
11.6796966864
21
31.7395819717
0
LINE
5
253
100
AcDbEntity
8
DEFAULT_3
100
AcDbLine
62
9
6
PHANTOM
10
-2.7806369889
20
-11.1458302001
11
8.4623608320
21
-16.7673291105
0
LINE
5
254
100
AcDbEntity
8
0
100
AcDbLine
62
9
6
CONTINUOUS
10
9.3450101900
20
-17.0199612410
11
-1.9686983090
21
-11.3631069915
0
LINE
5
255
100
AcDbEntity
8
0
100
AcDbLine
62
7
6
CONTINUOUS
10
2.3867962584
20
-13.2537411781
11
5.5576692845
21
-14.8391776911
0
LINE
5
256
100
AcDbEntity
8
0
100
AcDbLine
62
7
6
CONTINUOUS
10
-1.2603574093
20
-10.9839622618
11
9.9119297334
21
-16.5701058332
0
LINE
5
257
100
AcDbEntity
8
0
100
AcDbLine
62
7
6
CONTINUOUS
10
14.7587031406
20
-19.8935930528
11
14.8275775900
21
-19.9332067937
0
LINE
5
258
100
AcDbEntity
8
0
100
AcDbLine
62
7
6
CONTINUOUS
10
-4.9277289032
20
-10.9452627073
11
-4.8926278101
21
-11.0468895816
0
LINE
5
259
100
AcDbEntity
8
0
100
AcDbLine
62
7
6
CONTINUOUS
10
-4.9532611870
20
-10.8388987445
11
-4.9273684411
21
-10.9465009709
0
LWPOLYLINE
5
25A
100
AcDbEntity
8
0
100
AcDbPolyline
62
7
6
CONTINUOUS
90
4
70
0
10
-4.9212346792
20
25.9542088867
10
-4.9474778043
20
25.8318657420
10
-4.9657633753
20
25.7099308197
10
-4.9757798938
20
25.5892414488
0
LINE
5
25B
100
AcDbEntity
8
0
100
AcDbLine
62
7
6
CONTINUOUS
10
-1.5633444433
20
29.7442074970
11
-1.5758143418
21
29.6914066477
0
LINE
5
25C
100
AcDbEntity
8
0
100
AcDbLine
62
7
6
CONTINUOUS
10
-1.5448646759
20
29.7941756550
11
-1.5638350947
21
29.7425777955
0
LINE
5
25D
100
AcDbEntity
8
0
100
AcDbLine
62
7
6
CONTINUOUS
10
11.7247893351
20
29.5073841801
11
11.0192672506
21
29.1392832678
0
LINE
5
25E
100
AcDbEntity
8
0
100
AcDbLine
62
7
6
CONTINUOUS
10
7.7675121758
20
27.4427041869
11
7.3647479098
21
27.2325649199
0
LINE
5
25F
100
AcDbEntity
8
0
100
AcDbLine
62
7
6
CONTINUOUS
10
13.1825163263
20
30.9174614736
11
13.2526099217
21
30.9531253540
0
LINE
5
260
100
AcDbEntity
8
0
100
AcDbLine
62
7
6
CONTINUOUS
10
13.6595956737
20
32.0537113603
11
13.1820270527
21
31.8210523292
0
LINE
5
261
100
AcDbEntity
8
0
100
AcDbLine
62
7
6
CONTINUOUS
10
20.4478207731
20
-12.3190773193
11
26.7006984508
21
-11.9184223493
0
LINE
5
262
100
AcDbEntity
8
0
100
AcDbLine
62
7
6
CONTINUOUS
10
20.4478207731
20
-12.0071909179
11
26.2794183054
21
-11.7077822766
0
LINE
5
263
100
AcDbEntity
8
0
100
AcDbLine
62
7
6
CONTINUOUS
10
14.6976949186
20
-19.8499023042
11
14.7605484456
21
-19.8947740101
0
LINE
5
264
100
AcDbEntity
8
0
100
AcDbLine
62
7
6
CONTINUOUS
10
-4.9698053957
20
-10.7266546754
11
-4.9531453358
21
-10.8394998820
0
LINE
5
265
100
AcDbEntity
8
0
100
AcDbLine
62
7
6
CONTINUOUS
10
-4.9772846862
20
-10.6083938167
11
-4.9697942437
21
-10.7267613306
0
LINE
5
266
100
AcDbEntity
8
0
100
AcDbLine
62
7
6
CONTINUOUS
10
-4.9777200047
20
-10.5711693986
11
-4.9772637112
21
-10.6092732279
0
LINE
5
267
100
AcDbEntity
8
0
100
AcDbLine
62
7
6
CONTINUOUS
10
-4.9777208741
20
25.5096328443
11
-4.9777208741
21
-10.5712592797
0
LINE
5
268
100
AcDbEntity
8
0
100
AcDbLine
62
9
6
CONTINUOUS
10
-4.9044975694
20
25.4212444967
11
-4.9044975694
21
-10.6596476276
0
LINE
5
269
100
AcDbEntity
8
0
100
AcDbLine
62
7
6
CONTINUOUS
10
-4.9757487563
20
25.5898837442
11
-4.9777200547
21
25.5095718784
0
LWPOLYLINE
5
26A
100
AcDbEntity
8
0
100
AcDbPolyline
62
7
6
CONTINUOUS
90
3
70
0
10
-1.5754715541
20
29.6933894662
10
-1.5812629156
20
29.6422832977
10
-1.5818249166
20
29.6209593153
0
LINE
5
26B
100
AcDbEntity
8
DEFAULT_3
100
AcDbLine
62
9
6
PHANTOM
10
8.4623608320
20
-10.2721385822
11
-2.7806369889
21
-4.6506396717
0
LINE
5
26C
100
AcDbEntity
8
DEFAULT_3
100
AcDbLine
62
8
6
PHANTOM
10
-3.1977942764
20
-4.5568939023
11
-3.1977942764
21
-10.5324691994
0
LINE
5
26D
100
AcDbEntity
8
DEFAULT_3
100
AcDbLine
62
9
6
PHANTOM
10
-2.9927690232
20
-4.8043812757
11
-2.9927690232
21
-10.7799565618
0
LINE
5
26E
100
AcDbEntity
8
0
100
AcDbLine
62
9
6
CONTINUOUS
10
-2.9648240621
20
-10.1301235313
11
-2.9648240621
21
-4.0679457048
0
LINE
5
26F
100
AcDbEntity
8
0
100
AcDbLine
62
9
6
CONTINUOUS
10
-2.6832208531
20
-10.1307378981
11
-2.6832208531
21
-4.0685600716
0
LINE
5
270
100
AcDbEntity
8
0
100
AcDbLine
62
7
6
CONTINUOUS
10
-1.9674641905
20
-3.8754107217
11
-1.9674641905
21
-9.7643834675
0
LWPOLYLINE
5
271
100
AcDbEntity
8
DEFAULT_3
100
AcDbPolyline
62
8
6
PHANTOM
90
16
70
0
10
-3.1977942764
20
-4.5568939023
10
-3.1952818780
20
-4.4858035648
10
-3.1878700614
20
-4.4166070194
10
-3.1757605075
20
-4.3495733594
10
-3.1592075225
20
-4.2850609583
10
-3.1384218601
20
-4.2231452142
10
-3.1135189048
20
-4.1637437670
10
-3.0847890105
20
-4.1072341534
10
-3.0524565058
20
-4.0537564426
10
-3.0164362791
20
-4.0030374845
10
-2.9769227954
20
-3.9553347521
10
-2.9341984222
20
-3.9109497795
10
-2.8881966536
20
-3.8698233067
10
-2.8390525215
20
-3.8321574301
10
-2.7871706520
20
-3.7983186161
10
-2.7328758376
20
-3.7685327284
0
LINE
5
272
100
AcDbEntity
8
0
100
AcDbLine
62
7
6
CONTINUOUS
10
-1.5758143418
20
29.6914066477
11
-1.5813071604
21
29.6406044957
0
LINE
5
273
100
AcDbEntity
8
0
100
AcDbLine
62
7
6
CONTINUOUS
10
16.4327355638
20
26.2623543397
11
14.8616772017
21
25.4704409485
0
LINE
5
274
100
AcDbEntity
8
0
100
AcDbLine
62
7
6
CONTINUOUS
10
14.4500026293
20
25.2629307665
11
12.8833756257
21
24.4732510619
0
LINE
5
275
100
AcDbEntity
8
0
100
AcDbLine
62
9
6
CONTINUOUS
10
12.9765498237
20
25.8415479060
11
13.1346590870
21
25.9206025376
0
LINE
5
276
100
AcDbEntity
8
0
100
AcDbLine
62
7
6
CONTINUOUS
10
15.0738092361
20
26.3120276137
11
15.4373773687
21
26.4938116800
0
LINE
5
277
100
AcDbEntity
8
0
100
AcDbLine
62
3
6
CONTINUOUS
10
15.0738092361
20
25.9656174522
11
15.4373773687
21
26.1474015185
0
LINE
5
278
100
AcDbEntity
8
0
100
AcDbLine
62
9
6
CONTINUOUS
10
14.8616772017
20
25.5997438139
11
14.5788344892
21
25.4583224577
0
LINE
5
279
100
AcDbEntity
8
0
100
AcDbLine
62
7
6
CONTINUOUS
10
18.8035797769
20
28.1069297483
11
18.8749075378
21
28.1419765460
0
LINE
5
27A
100
AcDbEntity
8
0
100
AcDbLine
62
7
6
CONTINUOUS
10
-2.1020569099
20
-3.5350607965
11
-2.1466545248
21
-3.5183245425
0
LINE
5
27B
100
AcDbEntity
8
0
100
AcDbLine
62
7
6
CONTINUOUS
10
-2.0569069096
20
-3.5557834157
11
-2.1020569099
21
-3.5350607965
0
LINE
5
27C
100
AcDbEntity
8
DEFAULT_3
100
AcDbLine
62
9
6
PHANTOM
10
8.9573355788
20
-9.4184334261
11
-2.2856622421
21
-3.7969345157
0
LINE
5
27D
100
AcDbEntity
8
0
100
AcDbLine
62
7
6
CONTINUOUS
10
-2.0569069096
20
-3.5557834157
11
9.2568015894
21
-9.2126376652
0
LINE
5
27E
100
AcDbEntity
8
0
100
AcDbLine
62
9
6
CONTINUOUS
10
-2.1088855468
20
-3.4476086556
11
9.2048229522
21
-9.1044629051
0
LINE
5
27F
100
AcDbEntity
8
0
100
AcDbLine
62
7
6
CONTINUOUS
10
-1.5818262627
20
28.4612670162
11
-1.5818262627
21
29.6205261307
0
LINE
5
280
100
AcDbEntity
8
0
100
AcDbLine
62
9
6
CONTINUOUS
10
-1.3726077166
20
2.4029853366
11
-1.3726077166
21
10.1257597855
0
LINE
5
281
100
AcDbEntity
8
0
100
AcDbLine
62
9
6
CONTINUOUS
10
-0.6685996939
20
2.8344456337
11
-0.6685996939
21
9.5682921703
0
LINE
5
282
100
AcDbEntity
8
0
100
AcDbLine
62
9
6
CONTINUOUS
10
-0.0164394235
20
28.1388752154
11
-0.0164394235
21
29.2951423413
0
LINE
5
283
100
AcDbEntity
8
0
100
AcDbLine
62
7
6
CONTINUOUS
10
0.0477901359
20
9.2100972555
11
0.0477901359
21
3.1940334616
0
LINE
5
284
100
AcDbEntity
8
0
100
AcDbLine
62
7
6
CONTINUOUS
10
14.8616772017
20
25.3399361928
11
14.5788344892
21
25.1985148365
0
LINE
5
285
100
AcDbEntity
8
0
100
AcDbLine
62
7
6
CONTINUOUS
10
20.3771100950
20
27.3201645893
11
20.4478207731
21
27.3555199283
0
LINE
5
286
100
AcDbEntity
8
0
100
AcDbLine
62
7
6
CONTINUOUS
10
22.4277197604
20
27.6696493169
11
20.3771100950
21
26.6706455364
0
LINE
5
287
100
AcDbEntity
8
0
100
AcDbLine
62
7
6
CONTINUOUS
10
-2.1903240744
20
-3.5057320231
11
-2.2324088125
21
-3.4974278804
0
LINE
5
288
100
AcDbEntity
8
0
100
AcDbLine
62
7
6
CONTINUOUS
10
-2.1466545248
20
-3.5183245425
11
-2.1902921722
21
-3.5057397863
0
LINE
5
289
100
AcDbEntity
8
0
100
AcDbLine
62
9
6
CONTINUOUS
10
5.6754733364
20
-3.6758301311
11
1.4204640690
21
-1.5483254974
0
LINE
5
28A
100
AcDbEntity
8
0
100
AcDbLine
62
9
6
CONTINUOUS
10
0.6072912707
20
0.0273951968
11
0.6072912707
21
1.4130358429
0
LINE
5
28B
100
AcDbEntity
8
0
100
AcDbLine
62
7
6
CONTINUOUS
10
0.6488308999
20
8.9095768735
11
0.6488308999
21
3.6959710343
0
LINE
5
28C
100
AcDbEntity
8
0
100
AcDbLine
62
9
6
CONTINUOUS
10
1.3112992934
20
0.4588554939
11
1.3112992934
21
1.8444961400
0
LINE
5
28D
100
AcDbEntity
8
0
100
AcDbLine
62
9
6
CONTINUOUS
10
1.4204640690
20
-1.5483254974
11
1.4204640690
21
-0.3791912023
0
LINE
5
28E
100
AcDbEntity
8
0
100
AcDbLine
62
7
6
CONTINUOUS
10
2.0276891232
20
2.2040839679
11
2.0276891232
21
0.8184433219
0
LINE
5
28F
100
AcDbEntity
8
0
100
AcDbLine
62
9
6
CONTINUOUS
10
2.1244720918
20
-1.1168652003
11
2.1244720918
21
0.0522690948
0
LINE
5
290
100
AcDbEntity
8
0
100
AcDbLine
62
7
6
CONTINUOUS
10
2.5226638700
20
2.7590545493
11
2.5226638700
21
1.3734139032
0
LWPOLYLINE
5
291
100
AcDbEntity
8
0
100
AcDbPolyline
62
7
6
CONTINUOUS
90
5
70
0
10
14.7790225010
20
22.0095235142
10
14.7247251364
20
21.9733811778
10
14.6762462841
20
21.9344873037
10
14.6335026499
20
21.8929251549
10
14.5964361824
20
21.8487084421
0
LINE
5
292
100
AcDbEntity
8
0
100
AcDbLine
62
7
6
CONTINUOUS
10
14.8300133107
20
22.0381111907
11
14.7784464154
21
22.0091735135
0
LINE
5
293
100
AcDbEntity
8
0
100
AcDbLine
62
7
6
CONTINUOUS
10
19.0964291702
20
24.2456975101
11
14.8299379537
21
22.0380893349
0
LINE
5
294
100
AcDbEntity
8
0
100
AcDbLine
62
9
6
CONTINUOUS
10
19.2103798674
20
24.2396973907
11
14.9435925001
21
22.0319359783
0
LINE
5
295
100
AcDbEntity
8
0
100
AcDbLine
62
9
6
CONTINUOUS
10
20.2710386915
20
23.7093679786
11
26.5239163692
21
26.8924753055
0
LINE
5
296
100
AcDbEntity
8
0
100
AcDbLine
62
9
6
CONTINUOUS
10
20.4478207731
20
23.4044916903
11
26.7006984508
21
26.5875990172
0
LINE
5
297
100
AcDbEntity
8
0
100
AcDbLine
62
7
6
CONTINUOUS
10
19.0976069576
20
24.2462968463
11
19.0964419053
21
24.2457040996
0
LINE
5
298
100
AcDbEntity
8
0
100
AcDbLine
62
7
6
CONTINUOUS
10
19.0976224886
20
24.2463046324
11
25.4069986038
21
27.4021154411
0
LINE
5
299
100
AcDbEntity
8
0
100
AcDbLine
62
9
6
CONTINUOUS
10
19.2104014074
20
24.2396866206
11
25.5188249916
21
27.3950209943
0
LINE
5
29A
100
AcDbEntity
8
0
100
AcDbLine
62
9
6
CONTINUOUS
10
15.8873469272
20
21.5558874218
11
20.2710386915
21
23.7093679786
0
LINE
5
29B
100
AcDbEntity
8
0
100
AcDbLine
62
9
6
CONTINUOUS
10
16.0622456440
20
21.2500859340
11
20.4478207731
21
23.4044916903
0
LWPOLYLINE
5
29C
100
AcDbEntity
8
0
100
AcDbPolyline
62
7
6
CONTINUOUS
90
4
70
0
10
-2.2727724946
20
-3.4933611120
10
-2.3116054632
20
-3.4935203789
10
-2.3487517521
20
-3.4980054510
10
-2.3838387397
20
-3.5068644072
0
LWPOLYLINE
5
29D
100
AcDbEntity
8
0
100
AcDbPolyline
62
7
6
CONTINUOUS
90
4
70
0
10
-2.2323693312
20
-3.4974337966
10
-2.2727281054
20
-3.4933633200
10
-2.3115634582
20
-3.4935178364
10
-2.3487196251
20
-3.4979995278
0
LINE
5
29E
100
AcDbEntity
8
0
100
AcDbLine
62
9
6
CONTINUOUS
10
5.5290267270
20
-2.8191425180
11
2.1244720918
21
-1.1168652003
0
LINE
5
29F
100
AcDbEntity
8
0
100
AcDbLine
62
9
6
CONTINUOUS
10
6.4886461348
20
-2.9132822352
11
5.6754733364
21
-2.5066958360
0
LINE
5
2A0
100
AcDbEntity
8
0
100
AcDbLine
62
9
6
CONTINUOUS
10
1.4204640690
20
-0.3791912023
11
0.6072912707
21
0.0273951968
0
LINE
5
2A1
100
AcDbEntity
8
0
100
AcDbLine
62
7
6
CONTINUOUS
10
2.8408619216
20
-0.7572773724
11
5.5290267270
21
-2.1013597751
0
LINE
5
2A2
100
AcDbEntity
8
0
100
AcDbLine
62
9
6
CONTINUOUS
10
2.8408619216
20
-0.6476397407
11
5.5302171379
21
-1.9923173489
0
LINE
5
2A3
100
AcDbEntity
8
0
100
AcDbLine
62
7
6
CONTINUOUS
10
5.5849215059
20
-1.8031631819
11
3.4419026856
21
-0.7316537717
0
LINE
5
2A4
100
AcDbEntity
8
0
100
AcDbLine
62
9
6
CONTINUOUS
10
6.3421995254
20
-2.0565946220
11
5.6724015024
21
-1.7216956106
0
LINE
5
2A5
100
AcDbEntity
8
0
100
AcDbLine
62
9
6
CONTINUOUS
10
2.1244720918
20
0.0522690948
11
1.3112992934
21
0.4588554939
0
LINE
5
2A6
100
AcDbEntity
8
0
100
AcDbLine
62
7
6
CONTINUOUS
10
23.2766122866
20
-10.3714356313
11
25.9800465499
21
-11.7231527630
0
LINE
5
2A7
100
AcDbEntity
8
0
100
AcDbLine
62
7
6
CONTINUOUS
10
26.7006984508
20
-11.9184223493
11
26.2794183054
21
-11.7077822766
0
LINE
5
2A8
100
AcDbEntity
8
0
100
AcDbLine
62
9
6
CONTINUOUS
10
8.4685451221
20
-2.5175910828
11
6.4886461348
21
-1.5276415892
0
LINE
5
2A9
100
AcDbEntity
8
0
100
AcDbLine
62
9
6
CONTINUOUS
10
0.6072912707
20
1.4130358429
11
-1.3726077166
21
2.4029853366
0
LINE
5
2AA
100
AcDbEntity
8
0
100
AcDbLine
62
7
6
CONTINUOUS
10
2.0276891232
20
0.8184433219
11
2.8408619216
21
0.4118569227
0
LINE
5
2AB
100
AcDbEntity
8
0
100
AcDbLine
62
7
6
CONTINUOUS
10
6.3434523754
20
-1.0423091336
11
4.1490094667
21
0.0549123207
0
LINE
5
2AC
100
AcDbEntity
8
0
100
AcDbLine
62
7
6
CONTINUOUS
10
2.8408619216
20
0.4118569227
11
2.8408619216
21
-0.7572773724
0
LINE
5
2AD
100
AcDbEntity
8
0
100
AcDbLine
62
7
6
CONTINUOUS
10
3.0176386168
20
-13.5691623573
11
3.0176386168
21
-13.2731302644
0
LINE
5
2AE
100
AcDbEntity
8
0
100
AcDbLine
62
7
6
CONTINUOUS
10
3.4419026856
20
-0.7316537717
11
3.4419026856
21
0.9137944954
0
LINE
5
2AF
100
AcDbEntity
8
0
100
AcDbLine
62
7
6
CONTINUOUS
10
4.1490094667
20
1.2673478860
11
4.1490094667
21
0.0549123207
0
LINE
5
2B0
100
AcDbEntity
8
0
100
AcDbLine
62
9
6
CONTINUOUS
10
8.4907945172
20
30.2861064070
11
8.4741094837
21
30.2148717067
0
LINE
5
2B1
100
AcDbEntity
8
0
100
AcDbLine
62
9
6
CONTINUOUS
10
13.0652548245
20
18.7848883458
11
15.4350289645
21
19.9589936951
0
LINE
5
2B2
100
AcDbEntity
8
0
100
AcDbLine
62
9
6
CONTINUOUS
10
13.2407705845
20
18.4794019747
11
16.0622456440
21
19.8773026879
0
LINE
5
2B3
100
AcDbEntity
8
0
100
AcDbLine
62
9
6
CONTINUOUS
10
8.3220985127
20
-1.6609034696
11
6.4855743008
21
-0.7426413637
0
LINE
5
2B4
100
AcDbEntity
8
0
100
AcDbLine
62
9
6
CONTINUOUS
10
1.3112992934
20
1.8444961400
11
-0.6685996939
21
2.8344456337
0
LINE
5
2B5
100
AcDbEntity
8
0
100
AcDbLine
62
7
6
CONTINUOUS
10
2.5226638700
20
1.3734139032
11
3.4419026856
21
0.9137944954
0
LINE
5
2B6
100
AcDbEntity
8
0
100
AcDbLine
62
7
6
CONTINUOUS
10
6.3410404884
20
-0.5357744060
11
6.6175887207
21
-0.6740485221
0
LINE
5
2B7
100
AcDbEntity
8
0
100
AcDbLine
62
7
6
CONTINUOUS
10
22.3529519503
20
-8.5093825909
11
23.0644831601
21
-8.8651481958
0
LINE
5
2B8
100
AcDbEntity
8
0
100
AcDbLine
62
7
6
CONTINUOUS
10
0.0477901359
20
3.1940334616
11
2.0276891232
21
2.2040839679
0
LINE
5
2B9
100
AcDbEntity
8
0
100
AcDbLine
62
7
6
CONTINUOUS
10
7.1895686258
20
-0.3768557834
11
8.3220985127
21
-0.9431207268
0
LINE
5
2BA
100
AcDbEntity
8
0
100
AcDbLine
62
7
6
CONTINUOUS
10
3.2297706512
20
1.7269672938
11
4.1490094667
21
1.2673478860
0
LINE
5
2BB
100
AcDbEntity
8
0
100
AcDbLine
62
7
6
CONTINUOUS
10
7.0481472696
20
-0.1822210154
11
7.2602793040
21
-0.2882870326
0
LINE
5
2BC
100
AcDbEntity
8
0
100
AcDbLine
62
7
6
CONTINUOUS
10
0.6488308999
20
3.6959710343
11
2.5226638700
21
2.7590545493
0
LINE
5
2BD
100
AcDbEntity
8
0
100
AcDbLine
62
7
6
CONTINUOUS
10
7.2602793040
20
0.3902468323
11
8.3220985127
21
-0.1406627721
0
LINE
5
2BE
100
AcDbEntity
8
0
100
AcDbLine
62
7
6
CONTINUOUS
10
5.5290267270
20
-2.0241276248
11
5.5290267270
21
-3.1932619199
0
LINE
5
2BF
100
AcDbEntity
8
0
100
AcDbLine
62
9
6
CONTINUOUS
10
5.6754733364
20
-2.5066958360
11
5.6754733364
21
-3.6758301311
0
LINE
5
2C0
100
AcDbEntity
8
0
100
AcDbLine
62
7
6
CONTINUOUS
10
6.0935531150
20
29.4411555236
11
6.0935531150
21
29.7009631448
0
LINE
5
2C1
100
AcDbEntity
8
0
100
AcDbLine
62
7
6
CONTINUOUS
10
6.3410404884
20
-0.5357744060
11
6.3410404884
21
-1.0449102268
0
LINE
5
2C2
100
AcDbEntity
8
0
100
AcDbLine
62
7
6
CONTINUOUS
10
6.3421995254
20
-1.0450733779
11
6.3421995254
21
-2.4307140240
0
LINE
5
2C3
100
AcDbEntity
8
0
100
AcDbLine
62
9
6
CONTINUOUS
10
6.4886461348
20
-1.5276415892
11
6.4886461348
21
-2.9132822352
0
LINE
5
2C4
100
AcDbEntity
8
0
100
AcDbLine
62
9
6
CONTINUOUS
10
10.4410402019
20
30.4851412041
11
10.3536369970
21
30.1119839602
0
LINE
5
2C5
100
AcDbEntity
8
0
100
AcDbLine
62
9
6
CONTINUOUS
10
10.7169612605
20
30.4281570637
11
10.6295580556
21
30.0549998198
0
LINE
5
2C6
100
AcDbEntity
8
0
100
AcDbLine
62
7
6
CONTINUOUS
10
14.5968966428
20
21.8493204581
11
14.5651448175
21
21.8018769321
0
LINE
5
2C7
100
AcDbEntity
8
0
100
AcDbLine
62
7
6
CONTINUOUS
10
28.0492186709
20
22.1427722551
11
26.9885584991
21
21.6124421692
0
LINE
5
2C8
100
AcDbEntity
8
0
100
AcDbLine
62
7
6
CONTINUOUS
10
7.6958377806
20
28.4819039276
11
7.7969088755
21
27.0164844370
0
LWPOLYLINE
5
2C9
100
AcDbEntity
8
0
100
AcDbPolyline
62
7
6
CONTINUOUS
90
19
70
0
10
10.0021828239
20
-10.5100277916
10
9.9994397907
20
-10.4313769425
10
9.9911083257
20
-10.3492271003
10
9.9770918513
20
-10.2643208175
10
9.9573642218
20
-10.1774190774
10
9.9319945053
20
-10.0893908135
10
9.9011560438
20
-10.0011664841
10
9.8650602084
20
-9.9135521524
10
9.8240073749
20
-9.8274056751
10
9.7784383702
20
-9.7436892739
10
9.7287922791
20
-9.6631787869
10
9.6755559384
20
-9.5866034342
10
9.6193740693
20
-9.5147795315
10
9.5608788135
20
-9.4483495952
10
9.5006653036
20
-9.3878022822
10
9.4394417156
20
-9.3336374680
10
9.3779366719
20
-9.2862458625
10
9.3168311261
20
-9.2458666528
10
9.2568015894
20
-9.2126376652
0
LINE
5
2CA
100
AcDbEntity
8
0
100
AcDbLine
62
7
6
CONTINUOUS
10
7.2602793040
20
-0.4122111224
11
7.2602793040
21
0.3902468323
0
LINE
5
2CB
100
AcDbEntity
8
0
100
AcDbLine
62
7
6
CONTINUOUS
10
8.3220985127
20
5.0761685454
11
8.3220985127
21
-2.0350228716
0
LINE
5
2CC
100
AcDbEntity
8
0
100
AcDbLine
62
9
6
CONTINUOUS
10
8.4685451221
20
5.2051833661
11
8.4685451221
21
-2.5175910828
0
LINE
5
2CD
100
AcDbEntity
8
DEFAULT_3
100
AcDbLine
62
9
6
PHANTOM
10
8.6744928663
20
-16.6135875066
11
8.6744928663
21
-10.6380122205
0
LINE
5
2CE
100
AcDbEntity
8
0
100
AcDbLine
62
9
6
CONTINUOUS
10
12.7675709260
20
29.4028522310
11
12.7471396664
21
29.3156234788
0
LINE
5
2CF
100
AcDbEntity
8
0
100
AcDbLine
62
9
6
CONTINUOUS
10
12.5213031700
20
28.2708520806
11
12.5046181365
21
28.1996173803
0
LINE
5
2D0
100
AcDbEntity
8
0
100
AcDbLine
62
7
6
CONTINUOUS
10
14.5656938916
20
21.8028066712
11
14.5399459205
21
21.7528013714
0
LINE
5
2D1
100
AcDbEntity
8
0
100
AcDbLine
62
7
6
CONTINUOUS
10
28.5088380786
20
22.1151824440
11
24.9733041727
21
20.3474154910
0
LINE
5
2D2
100
AcDbEntity
8
0
100
AcDbLine
62
7
6
CONTINUOUS
10
24.4192510131
20
19.5146156279
11
24.0540653571
21
19.3320227999
0
LINE
5
2D3
100
AcDbEntity
8
0
100
AcDbLine
62
7
6
CONTINUOUS
10
29.5694982504
20
21.5848523581
11
26.0339643445
21
19.8170854051
0
LINE
5
2D4
100
AcDbEntity
8
0
100
AcDbLine
62
7
6
CONTINUOUS
10
30.2766050316
20
21.0290790747
11
25.4682789195
21
18.6249160187
0
LINE
5
2D5
100
AcDbEntity
8
0
100
AcDbLine
62
7
6
CONTINUOUS
10
25.8218323101
20
18.4481393234
11
29.5694982504
21
20.3219722935
0
LINE
5
2D6
100
AcDbEntity
8
0
100
AcDbLine
62
7
6
CONTINUOUS
10
-0.9705275479
20
9.7192560973
11
8.3208083213
21
5.0735881627
0
LINE
5
2D7
100
AcDbEntity
8
0
100
AcDbLine
62
9
6
CONTINUOUS
10
-1.3726077166
20
10.1257597855
11
8.4685451221
21
5.2051833661
0
LINE
5
2D8
100
AcDbEntity
8
DEFAULT_3
100
AcDbLine
62
8
6
PHANTOM
10
9.5023879060
20
-15.6347511513
11
9.5023879060
21
-11.7376368342
0
LINE
5
2D9
100
AcDbEntity
8
DEFAULT_3
100
AcDbLine
62
9
6
PHANTOM
10
9.6644423600
20
-16.6135875066
11
9.6644423600
21
-15.5743570220
0
LINE
5
2DA
100
AcDbEntity
8
DEFAULT_3
100
AcDbLine
62
9
6
PHANTOM
10
9.6644423600
20
-11.6772427050
11
9.6644423600
21
-10.6380122205
0
LINE
5
2DB
100
AcDbEntity
8
0
100
AcDbLine
62
7
6
CONTINUOUS
10
10.0021828239
20
-10.5100277916
11
10.0021828239
21
-16.5722056181
0
LINE
5
2DC
100
AcDbEntity
8
0
100
AcDbLine
62
9
6
CONTINUOUS
10
10.0607614676
20
-10.5807384697
11
10.0607614676
21
-16.6429162962
0
LINE
5
2DD
100
AcDbEntity
8
0
100
AcDbLine
62
7
6
CONTINUOUS
10
10.7452846393
20
33.5108668775
11
10.7452846393
21
34.5652663529
0
LINE
5
2DE
100
AcDbEntity
8
0
100
AcDbLine
62
7
6
CONTINUOUS
10
10.0005699074
20
-16.6303405720
11
10.0021828239
21
-16.5722056181
0
LINE
5
2DF
100
AcDbEntity
8
0
100
AcDbLine
62
9
6
CONTINUOUS
10
14.4715488547
20
28.4698868777
11
14.3841456498
21
28.0967296338
0
LINE
5
2E0
100
AcDbEntity
8
0
100
AcDbLine
62
9
6
CONTINUOUS
10
14.7474699133
20
28.4129027373
11
14.6600667084
21
28.0397454934
0
LINE
5
2E1
100
AcDbEntity
8
0
100
AcDbLine
62
9
6
CONTINUOUS
10
15.5029297723
20
26.1674618303
11
15.5903329772
21
26.5406190741
0
LINE
5
2E2
100
AcDbEntity
8
0
100
AcDbLine
62
7
6
CONTINUOUS
10
14.5216725284
20
21.7038852323
11
14.5089043126
21
21.6508259031
0
LINE
5
2E3
100
AcDbEntity
8
0
100
AcDbLine
62
7
6
CONTINUOUS
10
14.5405084606
20
21.7540719573
11
14.5211754292
21
21.7022609245
0
LINE
5
2E4
100
AcDbEntity
8
0
100
AcDbLine
62
7
6
CONTINUOUS
10
26.7006984508
20
24.0662012269
11
20.4478207731
21
17.9918118132
0
LINE
5
2E5
100
AcDbEntity
8
0
100
AcDbLine
62
7
6
CONTINUOUS
10
0.0477901359
20
3.1940334616
11
-0.6685996939
21
2.8344456337
0
LINE
5
2E6
100
AcDbEntity
8
0
100
AcDbLine
62
7
6
CONTINUOUS
10
21.8620343355
20
16.2528974935
11
20.4478207731
21
15.5457907123
0
LINE
5
2E7
100
AcDbEntity
8
0
100
AcDbLine
62
7
6
CONTINUOUS
10
30.3473157097
20
19.9330635639
11
30.8422904565
21
20.1805509373
0
LINE
5
2E8
100
AcDbEntity
8
0
100
AcDbLine
62
7
6
CONTINUOUS
10
25.8218323101
20
16.8892935966
11
29.5694982504
21
18.7631265667
0
LINE
5
2E9
100
AcDbEntity
8
0
100
AcDbLine
62
7
6
CONTINUOUS
10
0.6488308999
20
3.6959710343
11
5.8624367390
21
6.3027739539
0
LINE
5
2EA
100
AcDbEntity
8
0
100
AcDbLine
62
7
6
CONTINUOUS
10
20.4478207731
20
13.4244703688
11
30.3473157097
21
18.3742178371
0
LINE
5
2EB
100
AcDbEntity
8
0
100
AcDbLine
62
7
6
CONTINUOUS
10
24.7330740769
20
-1.1875545573
11
24.6015527306
21
-1.1217938842
0
LINE
5
2EC
100
AcDbEntity
8
0
100
AcDbLine
62
9
6
CONTINUOUS
10
24.6551061212
20
-1.0252924172
11
24.6015527306
21
-0.9985157219
0
LWPOLYLINE
5
2ED
100
AcDbEntity
8
0
100
AcDbPolyline
62
7
6
CONTINUOUS
90
7
70
0
10
14.5046471297
20
-19.5195939810
10
14.5151578284
20
-19.5800941140
10
14.5346191053
20
-19.6394527330
10
14.5628735213
20
-19.6967189508
10
14.5996886326
20
-19.7512474225
10
14.6445575090
20
-19.8022768047
10
14.6995133566
20
-19.8513521807
0
LWPOLYLINE
5
2EE
100
AcDbEntity
8
0
100
AcDbPolyline
62
7
6
CONTINUOUS
90
7
70
0
10
14.5026157359
20
-19.4787636455
10
14.5049713805
20
-19.5227418855
10
14.5158955227
20
-19.5830062349
10
14.5357071518
20
-19.6420903135
10
14.5642434720
20
-19.6990581303
10
14.6012723600
20
-19.7532831784
10
14.6462889516
20
-19.8040143595
0
LINE
5
2EF
100
AcDbEntity
8
0
100
AcDbLine
62
7
6
CONTINUOUS
10
11.6089860083
20
31.2429144999
11
11.6089860083
21
31.7042266326
0
LINE
5
2F0
100
AcDbEntity
8
0
100
AcDbLine
62
9
6
CONTINUOUS
10
12.0004349749
20
-19.1121138997
11
12.0004349749
21
16.9687782246
0
LINE
5
2F1
100
AcDbEntity
8
0
100
AcDbLine
62
9
6
CONTINUOUS
10
12.3508762628
20
-19.1136430271
11
12.3508762628
21
16.9672490972
0
LINE
5
2F2
100
AcDbEntity
8
0
100
AcDbLine
62
7
6
CONTINUOUS
10
13.1825163263
20
30.5325629851
11
13.1825163263
21
30.9174614736
0
LINE
5
2F3
100
AcDbEntity
8
0
100
AcDbLine
62
7
6
CONTINUOUS
10
13.6595956737
20
32.0537113603
11
13.6595956737
21
31.6905743051
0
LINE
5
2F4
100
AcDbEntity
8
0
100
AcDbLine
62
9
6
CONTINUOUS
10
13.7656616909
20
27.5676964312
11
13.7656616909
21
27.8542780900
0
LINE
5
2F5
100
AcDbEntity
8
0
100
AcDbLine
62
7
6
CONTINUOUS
10
12.8754787287
20
24.4771995104
11
12.9765498237
21
25.8415479060
0
LINE
5
2F6
100
AcDbEntity
8
0
100
AcDbLine
62
3
6
CONTINUOUS
10
13.1577997249
20
24.6115782713
11
13.2504823027
21
25.8626909298
0
LINE
5
2F7
100
AcDbEntity
8
0
100
AcDbLine
62
7
6
CONTINUOUS
10
14.5089043126
20
21.6508259031
11
14.5032001517
21
21.5997506774
0
LWPOLYLINE
5
2F8
100
AcDbEntity
8
0
100
AcDbPolyline
62
7
6
CONTINUOUS
90
3
70
0
10
14.5092541695
20
21.6528037475
10
14.5032462001
20
21.6013986737
10
14.5026139750
20
21.5787732674
0
LINE
5
2F9
100
AcDbEntity
8
0
100
AcDbLine
62
9
6
CONTINUOUS
10
16.7980795787
20
27.3875979046
11
16.7776483192
21
27.3003691525
0
LINE
5
2FA
100
AcDbEntity
8
0
100
AcDbLine
62
7
6
CONTINUOUS
10
3.4419026856
20
-0.7316537717
11
4.1490094667
21
0.0549123207
0
LINE
5
2FB
100
AcDbEntity
8
0
100
AcDbLine
62
7
6
CONTINUOUS
10
2.0276891232
20
2.2040839679
11
1.3112992934
21
1.8444961400
0
LINE
5
2FC
100
AcDbEntity
8
0
100
AcDbLine
62
7
6
CONTINUOUS
10
30.3473157097
20
17.1617822718
11
20.4478207731
21
12.2120348035
0
LINE
5
2FD
100
AcDbEntity
8
0
100
AcDbLine
62
7
6
CONTINUOUS
10
2.5226638700
20
2.7590545493
11
7.7362697091
21
5.3658574688
0
LINE
5
2FE
100
AcDbEntity
8
0
100
AcDbLine
62
9
6
CONTINUOUS
10
21.0959498763
20
1.7536684195
11
20.6265951084
21
1.9883458035
0
LINE
5
2FF
100
AcDbEntity
8
0
100
AcDbLine
62
7
6
CONTINUOUS
10
21.2786712410
20
3.0499333945
11
21.1567133616
21
3.1109123342
0
LINE
5
300
100
AcDbEntity
8
0
100
AcDbLine
62
7
6
CONTINUOUS
10
23.0831456812
20
3.0106911731
11
23.0939925508
21
3.0052677383
0
LINE
5
301
100
AcDbEntity
8
0
100
AcDbLine
62
7
6
CONTINUOUS
10
14.5026117805
20
-19.4788882770
11
14.5026116496
21
-19.2777487282
0
LINE
5
302
100
AcDbEntity
8
0
100
AcDbLine
62
7
6
CONTINUOUS
10
14.5026116496
20
20.4190442844
11
14.5026116496
21
21.5783043381
0
LINE
5
303
100
AcDbEntity
8
0
100
AcDbLine
62
9
6
CONTINUOUS
10
14.5204113810
20
30.5821780516
11
14.5204113810
21
31.0280633094
0
LINE
5
304
100
AcDbEntity
8
0
100
AcDbLine
62
7
6
CONTINUOUS
10
14.5788344892
20
25.1985148365
11
14.5788344892
21
25.4583224577
0
LINE
5
305
100
AcDbEntity
8
0
100
AcDbLine
62
7
6
CONTINUOUS
10
14.8071609319
20
30.6118188311
11
14.8071609319
21
31.1133385017
0
LINE
5
306
100
AcDbEntity
8
0
100
AcDbLine
62
3
6
CONTINUOUS
10
14.8616772017
20
25.3399361928
11
14.8616772017
21
25.5997438139
0
LINE
5
307
100
AcDbEntity
8
0
100
AcDbLine
62
9
6
CONTINUOUS
10
15.0738092361
20
25.9656174522
11
15.0738092361
21
26.3120276137
0
LINE
5
308
100
AcDbEntity
8
0
100
AcDbLine
62
9
6
CONTINUOUS
10
15.4373773687
20
26.1474015185
11
15.4373773687
21
26.4938116800
0
LINE
5
309
100
AcDbEntity
8
0
100
AcDbLine
62
9
6
CONTINUOUS
10
18.7791981835
20
27.8239284152
11
18.7625131500
21
27.7526937149
0
LINE
5
30A
100
AcDbEntity
8
0
100
AcDbLine
62
7
6
CONTINUOUS
10
20.2356887387
20
27.0147067487
11
20.1482855338
21
26.6415495048
0
LINE
5
30B
100
AcDbEntity
8
0
100
AcDbLine
62
7
6
CONTINUOUS
10
2.0276891232
20
0.8184433219
11
1.3112992934
21
0.4588554939
0
LINE
5
30C
100
AcDbEntity
8
0
100
AcDbLine
62
7
6
CONTINUOUS
10
2.8408619216
20
0.4118569227
11
2.1244720918
21
0.0522690948
0
LINE
5
30D
100
AcDbEntity
8
0
100
AcDbLine
62
7
6
CONTINUOUS
10
2.5226638700
20
1.3734139032
11
3.2297706512
21
1.7269672938
0
LINE
5
30E
100
AcDbEntity
8
0
100
AcDbLine
62
7
6
CONTINUOUS
10
8.3220985127
20
4.0133236034
11
3.4895782723
21
1.5970634832
0
LINE
5
30F
100
AcDbEntity
8
0
100
AcDbLine
62
7
6
CONTINUOUS
10
31.9029506283
20
15.4638422055
11
31.0766050316
21
15.0506694071
0
LINE
5
310
100
AcDbEntity
8
0
100
AcDbLine
62
7
6
CONTINUOUS
10
3.4419026856
20
0.9137944954
11
4.1490094667
21
1.2673478860
0
LINE
5
311
100
AcDbEntity
8
0
100
AcDbLine
62
9
6
CONTINUOUS
10
23.8183109839
20
3.1148489733
11
23.3489562159
21
3.3495263573
0
LINE
5
312
100
AcDbEntity
8
0
100
AcDbLine
62
7
6
CONTINUOUS
10
22.9403721768
20
3.8807838624
11
22.8184142973
21
3.9417628021
0
LINE
5
313
100
AcDbEntity
8
0
100
AcDbLine
62
7
6
CONTINUOUS
10
24.0010323486
20
4.4111139482
11
23.8790744691
21
4.4720928880
0
LINE
5
314
100
AcDbEntity
8
0
100
AcDbLine
62
9
6
CONTINUOUS
10
16.0622456440
20
21.2500859340
11
16.0622456440
21
19.8773026879
0
LINE
5
315
100
AcDbEntity
8
0
100
AcDbLine
62
9
6
CONTINUOUS
10
16.0622456440
20
-18.4396688672
11
16.0622456440
21
-19.8124521133
0
LINE
5
316
100
AcDbEntity
8
0
100
AcDbLine
62
7
6
CONTINUOUS
10
7.1895686258
20
-0.3768557834
11
6.4855743008
21
-0.7426413637
0
LINE
5
317
100
AcDbEntity
8
0
100
AcDbLine
62
7
6
CONTINUOUS
10
6.3421995254
20
-1.3736779493
11
5.6724015024
21
-1.7216956106
0
LINE
5
318
100
AcDbEntity
8
0
100
AcDbLine
62
7
6
CONTINUOUS
10
2.8408619216
20
-0.7572773724
11
2.1244720918
21
-1.1168652003
0
LINE
5
319
100
AcDbEntity
8
DEFAULT_3
100
AcDbLine
62
8
6
PHANTOM
10
-2.7328758376
20
-3.7685327284
11
-2.2024780085
21
-3.5033338139
0
LINE
5
31A
100
AcDbEntity
8
0
100
AcDbLine
62
7
6
CONTINUOUS
10
31.9029506283
20
13.3853812364
11
31.0766050316
21
12.9722084381
0
LINE
5
31B
100
AcDbEntity
8
DEFAULT_3
100
AcDbLine
62
9
6
PHANTOM
10
-2.2856622421
20
-3.7969345157
11
-1.9301334759
21
-3.6191701326
0
LINE
5
31C
100
AcDbEntity
8
0
100
AcDbLine
62
7
6
CONTINUOUS
10
7.2602793040
20
0.3902468323
11
8.3220985127
21
0.9211564367
0
LINE
5
31D
100
AcDbEntity
8
0
100
AcDbLine
62
7
6
CONTINUOUS
10
30.1351836754
20
11.5838643485
11
20.4478207731
21
6.7401828974
0
LINE
5
31E
100
AcDbEntity
8
0
100
AcDbLine
62
7
6
CONTINUOUS
10
29.7816302848
20
11.3276283419
11
20.4478207731
21
6.6607235861
0
LINE
5
31F
100
AcDbEntity
8
0
100
AcDbLine
62
7
6
CONTINUOUS
10
6.3410404884
20
-0.5357744060
11
7.0481472696
21
-0.1822210154
0
LINE
5
320
100
AcDbEntity
8
0
100
AcDbLine
62
7
6
CONTINUOUS
10
30.8422904565
20
11.0872841976
11
30.3473157097
21
10.8397968241
0
LINE
5
321
100
AcDbEntity
8
0
100
AcDbLine
62
7
6
CONTINUOUS
10
30.1351836754
20
10.7178389447
11
20.4478207731
21
5.8741574936
0
LINE
5
322
100
AcDbEntity
8
0
100
AcDbLine
62
9
6
CONTINUOUS
10
-2.6832208531
20
-4.0685600716
11
-1.9531054602
21
-3.7098188725
0
LINE
5
323
100
AcDbEntity
8
0
100
AcDbLine
62
7
6
CONTINUOUS
10
-2.3838302032
20
-3.5068609680
11
-2.4168503943
21
-3.5201638594
0
LINE
5
324
100
AcDbEntity
8
0
100
AcDbLine
62
9
6
CONTINUOUS
10
26.4699614134
20
4.4406741880
11
26.0006066454
21
4.6753515720
0
LINE
5
325
100
AcDbEntity
8
0
100
AcDbLine
62
7
6
CONTINUOUS
10
25.5920226062
20
5.2066090771
11
25.4700647268
21
5.2675880168
0
LINE
5
326
100
AcDbEntity
8
0
100
AcDbLine
62
7
6
CONTINUOUS
10
26.6526827780
20
5.7369391630
11
26.5307248986
21
5.7979181027
0
LINE
5
327
100
AcDbEntity
8
0
100
AcDbLine
62
7
6
CONTINUOUS
10
18.8035797769
20
27.7307612296
11
18.8035797769
21
28.1069297483
0
LINE
5
328
100
AcDbEntity
8
0
100
AcDbLine
62
7
6
CONTINUOUS
10
20.3771100950
20
26.6706455364
11
20.3771100950
21
27.3201645893
0
LINE
5
329
100
AcDbEntity
8
0
100
AcDbLine
62
7
6
CONTINUOUS
10
20.4478207731
20
-17.7317571964
11
20.4478207731
21
23.4044916903
0
LINE
5
32A
100
AcDbEntity
8
0
100
AcDbLine
62
7
6
CONTINUOUS
10
29.7816302848
20
11.3276283419
11
30.1351836754
21
11.5838643485
0
LINE
5
32B
100
AcDbEntity
8
0
100
AcDbLine
62
9
6
CONTINUOUS
10
29.1923225209
20
5.8018547418
11
28.7229677529
21
6.0365321258
0
LINE
5
32C
100
AcDbEntity
8
0
100
AcDbLine
62
7
6
CONTINUOUS
10
28.3143837138
20
6.5677896309
11
28.1924258344
21
6.6287685706
0
LINE
5
32D
100
AcDbEntity
8
0
100
AcDbLine
62
7
6
CONTINUOUS
10
29.3750438856
20
7.0981197168
11
29.2530860061
21
7.1590986565
0
LINE
5
32E
100
AcDbEntity
8
0
100
AcDbLine
62
7
6
CONTINUOUS
10
21.7391653002
20
18.9001609507
11
21.8620343355
21
16.2528974935
0
LINE
5
32F
100
AcDbEntity
8
0
100
AcDbLine
62
7
6
CONTINUOUS
10
20.6776304770
20
2.1015088683
11
20.6776304770
21
2.8713708919
0
LINE
5
330
100
AcDbEntity
8
0
100
AcDbLine
62
7
6
CONTINUOUS
10
21.0959498763
20
1.7536684195
11
21.2786712410
21
3.0499333945
0
LINE
5
331
100
AcDbEntity
8
0
100
AcDbLine
62
7
6
CONTINUOUS
10
20.6265951084
20
1.9883458035
11
21.1259164213
21
3.0955138641
0
LINE
5
332
100
AcDbEntity
8
0
100
AcDbLine
62
7
6
CONTINUOUS
10
30.1351836754
20
7.6001474911
11
20.4478207731
21
2.7564660400
0
LINE
5
333
100
AcDbEntity
8
0
100
AcDbLine
62
7
6
CONTINUOUS
10
29.8876963019
20
7.3544459249
11
29.3750438856
21
7.0981197168
0
LINE
5
334
100
AcDbEntity
8
0
100
AcDbLine
62
7
6
CONTINUOUS
10
28.3143837138
20
6.5677896309
11
26.6526827780
21
5.7369391630
0
LINE
5
335
100
AcDbEntity
8
0
100
AcDbLine
62
7
6
CONTINUOUS
10
25.5920226062
20
5.2066090771
11
25.0793701899
21
4.9502828689
0
LINE
5
336
100
AcDbEntity
8
0
100
AcDbLine
62
7
6
CONTINUOUS
10
24.5136847649
20
4.6674401564
11
24.0010323486
21
4.4111139482
0
LINE
5
337
100
AcDbEntity
8
0
100
AcDbLine
62
7
6
CONTINUOUS
10
22.9403721768
20
3.8807838624
11
21.2786712410
21
3.0499333945
0
LINE
5
338
100
AcDbEntity
8
0
100
AcDbLine
62
9
6
CONTINUOUS
10
-2.6832208531
20
-10.1307378981
11
-1.9671796561
21
-9.7789120359
0
LINE
5
339
100
AcDbEntity
8
0
100
AcDbLine
62
9
6
CONTINUOUS
10
12.0004349749
20
16.9687782246
11
-4.9044975694
21
25.4212444967
0
LINE
5
33A
100
AcDbEntity
8
0
100
AcDbLine
62
7
6
CONTINUOUS
10
22.9403721768
20
3.8807838624
11
23.1230935414
21
2.7672402521
0
LINE
5
33B
100
AcDbEntity
8
0
100
AcDbLine
62
7
6
CONTINUOUS
10
22.8343061596
20
3.9338168709
11
22.8343061596
21
3.9497087332
0
LINE
5
33C
100
AcDbEntity
8
0
100
AcDbLine
62
7
6
CONTINUOUS
10
23.2232148893
20
3.1459017331
11
23.2232148893
21
4.1441630980
0
LINE
5
33D
100
AcDbEntity
8
0
100
AcDbLine
62
7
6
CONTINUOUS
10
23.2766122866
20
-10.3714356313
11
23.2766122866
21
-9.2310168188
0
LINE
5
33E
100
AcDbEntity
8
0
100
AcDbLine
62
7
6
CONTINUOUS
10
24.0540653571
20
17.7731770731
11
24.0540653571
21
19.3320227999
0
LINE
5
33F
100
AcDbEntity
8
0
100
AcDbLine
62
7
6
CONTINUOUS
10
24.4076187477
20
19.1552461046
11
24.4076187477
21
19.3717524555
0
LINE
5
340
100
AcDbEntity
8
0
100
AcDbLine
62
9
6
CONTINUOUS
10
24.5136847649
20
-1.3081351297
11
24.5136847649
21
4.6674401564
0
LINE
5
341
100
AcDbEntity
8
0
100
AcDbLine
62
7
6
CONTINUOUS
10
24.6015527306
20
-1.2020691125
11
24.6015527306
21
4.7735061736
0
LINE
5
342
100
AcDbEntity
8
0
100
AcDbLine
62
9
6
CONTINUOUS
10
24.6551061212
20
-1.0252924172
11
24.6551061212
21
4.6904752478
0
LINE
5
343
100
AcDbEntity
8
0
100
AcDbLine
62
7
6
CONTINUOUS
10
23.8183109839
20
3.1148489733
11
24.0010323486
21
4.4111139482
0
LINE
5
344
100
AcDbEntity
8
0
100
AcDbLine
62
7
6
CONTINUOUS
10
23.3489562159
20
3.3495263573
11
23.8482775289
21
4.4566944179
0
LINE
5
345
100
AcDbEntity
8
0
100
AcDbLine
62
7
6
CONTINUOUS
10
9.9084145199
20
-16.9477655618
11
9.9293689184
21
-16.9130981702
0
LINE
5
346
100
AcDbEntity
8
0
100
AcDbLine
62
9
6
CONTINUOUS
10
-1.9686983090
20
-11.3631069915
11
-1.2431380529
21
-10.9925719401
0
LINE
5
347
100
AcDbEntity
8
0
100
AcDbLine
62
9
6
CONTINUOUS
10
13.0652548245
20
18.7848883458
11
-3.8702110842
21
27.2526213001
0
LINE
5
348
100
AcDbEntity
8
0
100
AcDbLine
62
7
6
CONTINUOUS
10
29.9490029434
20
11.0389532073
11
30.3473157097
21
10.8397968241
0
LINE
5
349
100
AcDbEntity
8
0
100
AcDbLine
62
9
6
CONTINUOUS
10
25.0793701899
20
-1.0252924172
11
25.0793701899
21
4.9502828689
0
LINE
5
34A
100
AcDbEntity
8
0
100
AcDbLine
62
7
6
CONTINUOUS
10
25.4682789195
20
18.8414223696
11
25.4682789195
21
18.6249160187
0
LINE
5
34B
100
AcDbEntity
8
0
100
AcDbLine
62
7
6
CONTINUOUS
10
25.7687993015
20
4.3531633821
11
25.7687993015
21
5.4169553042
0
LINE
5
34C
100
AcDbEntity
8
0
100
AcDbLine
62
7
6
CONTINUOUS
10
25.8218323101
20
16.8892935966
11
25.8218323101
21
18.4481393234
0
LINE
5
34D
100
AcDbEntity
8
0
100
AcDbLine
62
7
6
CONTINUOUS
10
26.7006984508
20
-14.4398201396
11
26.7006984508
21
-11.9184223493
0
LINE
5
34E
100
AcDbEntity
8
0
100
AcDbLine
62
7
6
CONTINUOUS
10
26.7006984508
20
24.0662012269
11
26.7006984508
21
26.5875990172
0
LINE
5
34F
100
AcDbEntity
8
0
100
AcDbLine
62
7
6
CONTINUOUS
10
26.9885584991
20
21.3550426542
11
26.9885584991
21
21.6124421692
0
LINE
5
350
100
AcDbEntity
8
0
100
AcDbLine
62
7
6
CONTINUOUS
10
26.4699614134
20
4.4406741880
11
26.6526827780
21
5.7369391630
0
LINE
5
351
100
AcDbEntity
8
0
100
AcDbLine
62
7
6
CONTINUOUS
10
24.6015527306
20
4.5204842216
11
24.6551061212
21
4.6904752478
0
LINE
5
352
100
AcDbEntity
8
0
100
AcDbLine
62
7
6
CONTINUOUS
10
26.0006066454
20
4.6753515720
11
26.4999279584
21
5.7825196326
0
LWPOLYLINE
5
353
100
AcDbEntity
8
0
100
AcDbPolyline
62
7
6
CONTINUOUS
90
14
70
0
10
24.4356723925
20
-1.4704194659
10
24.4492268508
20
-1.4632057706
10
24.4711590895
20
-1.4495235150
10
24.4918605906
20
-1.4339805577
10
24.5112018355
20
-1.4166553488
10
24.5290291164
20
-1.3976566724
10
24.5451852435
20
-1.3771211007
10
24.5595399621
20
-1.3551788391
10
24.5719656571
20
-1.3319800402
10
24.5823417881
20
-1.3076982031
10
24.5905656279
20
-1.2825150269
10
24.5965530549
20
-1.2566109187
10
24.6002312665
20
-1.2301961467
10
24.6015527305
20
-1.2020729554
0
LWPOLYLINE
5
354
100
AcDbEntity
8
0
100
AcDbPolyline
62
7
6
CONTINUOUS
90
14
70
0
10
29.8096839295
20
1.2165863026
10
29.8232383878
20
1.2237999979
10
29.8451706265
20
1.2374822535
10
29.8658721276
20
1.2530252108
10
29.8852133725
20
1.2703504197
10
29.9030406535
20
1.2893490961
10
29.9191967806
20
1.3098846678
10
29.9335514991
20
1.3318269294
10
29.9459771941
20
1.3550257283
10
29.9563533252
20
1.3793075654
10
29.9645771650
20
1.4044907416
10
29.9705645919
20
1.4303948499
10
29.9742428035
20
1.4568096218
10
29.9755642675
20
1.4849328131
0
LINE
5
355
100
AcDbEntity
8
0
100
AcDbLine
62
7
6
CONTINUOUS
10
2.8244269161
20
-13.0263544245
11
2.3867962584
21
-13.2537411781
0
LINE
5
356
100
AcDbEntity
8
0
100
AcDbLine
62
9
6
CONTINUOUS
10
29.8876963019
20
1.3788706388
11
25.0793701899
21
-1.0252924172
0
LINE
5
357
100
AcDbEntity
8
0
100
AcDbLine
62
9
6
CONTINUOUS
10
24.5136847649
20
-1.3081351297
11
20.4478207731
21
-3.3410671256
0
LINE
5
358
100
AcDbEntity
8
0
100
AcDbLine
62
7
6
CONTINUOUS
10
29.8097283462
20
1.2166084987
11
25.0014022342
21
-1.1875545573
0
LINE
5
359
100
AcDbEntity
8
0
100
AcDbLine
62
7
6
CONTINUOUS
10
24.4357168092
20
-1.4703972698
11
20.4478207731
21
-3.4643452879
0
LINE
5
35A
100
AcDbEntity
8
DEFAULT_3
100
AcDbLine
62
9
6
PHANTOM
10
8.9573355788
20
-9.4184334261
11
9.3100150837
21
-9.2420936737
0
LINE
5
35B
100
AcDbEntity
8
0
100
AcDbLine
62
7
6
CONTINUOUS
10
25.5920226062
20
5.2066090771
11
25.7747439709
21
4.0930654668
0
LINE
5
35C
100
AcDbEntity
8
0
100
AcDbLine
62
7
6
CONTINUOUS
10
28.3143837138
20
6.5677896309
11
28.3143837138
21
6.6897475103
0
LINE
5
35D
100
AcDbEntity
8
0
100
AcDbLine
62
7
6
CONTINUOUS
10
29.1923225209
20
5.8018547418
11
29.3750438856
21
7.0981197168
0
LINE
5
35E
100
AcDbEntity
8
0
100
AcDbLine
62
7
6
CONTINUOUS
10
28.7229677529
20
6.0365321258
11
29.2222890659
21
7.1437001864
0
LINE
5
35F
100
AcDbEntity
8
0
100
AcDbLine
62
7
6
CONTINUOUS
10
3.1649238802
20
-13.1966029066
11
3.0176386168
21
-13.2731302644
0
LINE
5
360
100
AcDbEntity
8
DEFAULT_3
100
AcDbLine
62
9
6
PHANTOM
10
9.6644423600
20
-10.6380122205
11
10.0007813267
21
-10.4698427371
0
LINE
5
361
100
AcDbEntity
8
DEFAULT_3
100
AcDbLine
62
8
6
PHANTOM
10
10.0021828239
20
-11.5083724731
11
9.6644423600
21
-11.6772427050
0
LINE
5
362
100
AcDbEntity
8
0
100
AcDbLine
62
7
6
CONTINUOUS
10
24.0540653571
20
17.7731770731
11
25.8218323101
21
16.8892935966
0
LINE
5
363
100
AcDbEntity
8
0
100
AcDbLine
62
7
6
CONTINUOUS
10
12.8833756257
20
24.4732510619
11
7.3647479098
21
27.2325649199
0
LINE
5
364
100
AcDbEntity
8
0
100
AcDbLine
62
7
6
CONTINUOUS
10
24.0540653571
20
19.3320227999
11
24.4076187477
21
19.1552461046
0
LINE
5
365
100
AcDbEntity
8
0
100
AcDbLine
62
7
6
CONTINUOUS
10
25.4682789195
20
18.6249160187
11
25.8218323101
21
18.4481393234
0
LINE
5
366
100
AcDbEntity
8
0
100
AcDbLine
62
9
6
CONTINUOUS
10
25.4682789195
20
18.8414223696
11
24.4076187477
21
19.3717524555
0
LINE
5
367
100
AcDbEntity
8
0
100
AcDbLine
62
7
6
CONTINUOUS
10
31.0766050316
20
16.2305683945
11
31.9029506283
21
15.8173955961
0
LINE
5
368
100
AcDbEntity
8
0
100
AcDbLine
62
7
6
CONTINUOUS
10
28.3143837138
20
6.5677896309
11
28.4971050784
21
5.4542460206
0
LINE
5
369
100
AcDbEntity
8
0
100
AcDbLine
62
7
6
CONTINUOUS
10
29.5694982504
20
18.7631265667
11
29.5694982504
21
20.3219722935
0
LINE
5
36A
100
AcDbEntity
8
0
100
AcDbLine
62
9
6
CONTINUOUS
10
29.8876963019
20
1.3788706388
11
29.8876963019
21
7.3544459249
0
LINE
5
36B
100
AcDbEntity
8
0
100
AcDbLine
62
7
6
CONTINUOUS
10
29.9755642676
20
1.4849366560
11
29.9755642676
21
7.4605119421
0
LINE
5
36C
100
AcDbEntity
8
0
100
AcDbLine
62
7
6
CONTINUOUS
10
30.1351836754
20
7.6001474911
11
30.1351836754
21
10.7178389447
0
LINE
5
36D
100
AcDbEntity
8
0
100
AcDbLine
62
7
6
CONTINUOUS
10
30.1351836754
20
11.5838643485
11
30.1351836754
21
17.0557162546
0
LINE
5
36E
100
AcDbEntity
8
0
100
AcDbLine
62
7
6
CONTINUOUS
10
30.2766050316
20
21.0723803449
11
30.2766050316
21
21.0290790747
0
LINE
5
36F
100
AcDbEntity
8
0
100
AcDbLine
62
7
6
CONTINUOUS
10
30.3473157097
20
10.8397968241
11
30.3473157097
21
17.1617822718
0
LINE
5
370
100
AcDbEntity
8
0
100
AcDbLine
62
7
6
CONTINUOUS
10
30.3473157097
20
18.3742178371
11
30.3473157097
21
19.9330635639
0
LINE
5
371
100
AcDbEntity
8
0
100
AcDbLine
62
9
6
CONTINUOUS
10
30.8422904565
20
11.0872841976
11
30.8422904565
21
20.1805509373
0
LINE
5
372
100
AcDbEntity
8
0
100
AcDbLine
62
7
6
CONTINUOUS
10
31.0766050316
20
11.3701269100
11
31.0766050316
21
20.4633936498
0
LINE
5
373
100
AcDbEntity
8
0
100
AcDbLine
62
7
6
CONTINUOUS
10
6.0030054771
20
-14.6156437050
11
5.5576692845
21
-14.8391776911
0
LINE
5
374
100
AcDbEntity
8
0
100
AcDbLine
62
7
6
CONTINUOUS
10
20.9424504663
20
-8.5030254474
11
20.4478207731
21
-8.7446084424
0
LINE
5
375
100
AcDbEntity
8
0
100
AcDbLine
62
7
6
CONTINUOUS
10
14.5788344892
20
25.1985148365
11
13.1174330290
21
25.9292155667
0
LINE
5
376
100
AcDbEntity
8
0
100
AcDbLine
62
7
6
CONTINUOUS
10
7.5549545753
20
28.7104547935
11
6.0935531150
21
29.4411555236
0
LINE
5
377
100
AcDbEntity
8
0
100
AcDbLine
62
9
6
CONTINUOUS
10
14.5788344892
20
25.4583224577
11
6.0935531150
21
29.7009631448
0
LINE
5
378
100
AcDbEntity
8
0
100
AcDbLine
62
9
6
CONTINUOUS
10
26.0339643445
20
19.8170854051
11
24.9733041727
21
20.3474154910
0
LINE
5
379
100
AcDbEntity
8
0
100
AcDbLine
62
7
6
CONTINUOUS
10
30.3473157097
20
18.3742178371
11
29.5694982504
21
18.7631265667
0
LINE
5
37A
100
AcDbEntity
8
0
100
AcDbLine
62
7
6
CONTINUOUS
10
4.1490135054
20
31.7703805716
11
3.0883546813
21
32.3007099837
0
LINE
5
37B
100
AcDbEntity
8
0
100
AcDbLine
62
7
6
CONTINUOUS
10
19.2103798674
20
24.2396973907
11
20.2710386915
21
23.7093679786
0
LINE
5
37C
100
AcDbEntity
8
0
100
AcDbLine
62
9
6
CONTINUOUS
10
15.0738092361
20
26.3120276137
11
6.5885278618
21
30.5546683008
0
LINE
5
37D
100
AcDbEntity
8
0
100
AcDbLine
62
9
6
CONTINUOUS
10
15.4373773687
20
26.4938116800
11
6.9520959944
21
30.7364523671
0
LINE
5
37E
100
AcDbEntity
8
0
100
AcDbLine
62
9
6
CONTINUOUS
10
15.5903329772
20
26.5406190741
11
7.1050516030
21
30.7832597613
0
LINE
5
37F
100
AcDbEntity
8
0
100
AcDbLine
62
7
6
CONTINUOUS
10
16.3450684634
20
26.2181645423
11
16.2865310439
21
26.2474332520
0
LINE
5
380
100
AcDbEntity
8
0
100
AcDbLine
62
7
6
CONTINUOUS
10
14.5788344892
20
27.1611100320
11
12.5282248238
21
28.1864148648
0
LINE
5
381
100
AcDbEntity
8
0
100
AcDbLine
62
7
6
CONTINUOUS
10
10.5483258365
20
29.1763643584
11
8.4977161710
21
30.2016691911
0
LINE
5
382
100
AcDbEntity
8
0
100
AcDbLine
62
7
6
CONTINUOUS
10
24.7923733242
20
22.2123492016
11
26.7477724590
21
21.2346496342
0
LINE
5
383
100
AcDbEntity
8
0
100
AcDbLine
62
7
6
CONTINUOUS
10
30.1351836754
20
10.7178389447
11
29.7816302848
21
11.3276283419
0
LINE
5
384
100
AcDbEntity
8
0
100
AcDbLine
62
9
6
CONTINUOUS
10
31.9029506283
20
13.3853812364
11
31.9029506283
21
15.4638422055
0
LINE
5
385
100
AcDbEntity
8
0
100
AcDbLine
62
7
6
CONTINUOUS
10
32.0493972377
20
13.5621579317
11
32.0493972377
21
15.6406189008
0
LWPOLYLINE
5
386
100
AcDbEntity
8
0
100
AcDbPolyline
62
7
6
CONTINUOUS
90
12
70
0
10
9.8006449262
20
-17.0467695785
10
9.8310581515
20
-17.0283641422
10
9.8591790951
20
-17.0056334077
10
9.8850303364
20
-16.9786495789
10
9.9084385177
20
-16.9477300566
10
9.9293877458
20
-16.9130633250
10
9.9479777703
20
-16.8745070555
10
9.9640043544
20
-16.8324013372
10
9.9773196150
20
-16.7871139834
10
9.9879666746
20
-16.7382584189
10
9.9957914942
20
-16.6858079023
10
10.0005699074
20
-16.6303405720
0
LINE
5
387
100
AcDbEntity
8
0
100
AcDbLine
62
9
6
CONTINUOUS
10
9.3450101900
20
-17.0199612410
11
9.9955001376
21
-16.6877637092
0
LINE
5
388
100
AcDbEntity
8
DEFAULT_3
100
AcDbLine
62
8
6
PHANTOM
10
10.0021828239
20
-15.0519333995
11
9.5023879060
21
-15.3018308585
0
LINE
5
389
100
AcDbEntity
8
DEFAULT_3
100
AcDbLine
62
8
6
PHANTOM
10
10.0021828239
20
-15.4054867901
11
9.6644423600
21
-15.5743570220
0
LINE
5
38A
100
AcDbEntity
8
DEFAULT_3
100
AcDbLine
62
9
6
PHANTOM
10
9.6644423600
20
-16.6135875066
11
10.0021828239
21
-16.4447172747
0
LINE
5
38B
100
AcDbEntity
8
0
100
AcDbLine
62
9
6
CONTINUOUS
10
20.4478207731
20
-10.1703839662
11
23.0644831601
21
-8.8651481958
0
LINE
5
38C
100
AcDbEntity
8
0
100
AcDbLine
62
9
6
CONTINUOUS
10
20.4478207731
20
-10.6420662108
11
23.2766122866
21
-9.2310168188
0
LINE
5
38D
100
AcDbEntity
8
0
100
AcDbLine
62
3
6
CONTINUOUS
10
15.5029297723
20
26.1674618303
11
20.1482855338
21
26.6415495048
0
LINE
5
38E
100
AcDbEntity
8
0
100
AcDbLine
62
7
6
CONTINUOUS
10
15.5903329772
20
26.5406190741
11
20.2356887387
21
27.0147067487
0
LINE
5
38F
100
AcDbEntity
8
0
100
AcDbLine
62
7
6
CONTINUOUS
10
16.8050012326
20
27.3031606887
11
14.8547555479
21
27.1041258916
0
LINE
5
390
100
AcDbEntity
8
0
100
AcDbLine
62
7
6
CONTINUOUS
10
18.8035797769
20
27.8264167097
11
18.7791981835
21
27.8239284152
0
LINE
5
391
100
AcDbEntity
8
0
100
AcDbLine
62
3
6
CONTINUOUS
10
12.9917921007
20
27.9546312263
11
14.3841456498
21
28.0967296338
0
LINE
5
392
100
AcDbEntity
8
0
100
AcDbLine
62
7
6
CONTINUOUS
10
20.4478207731
20
27.3555199283
11
21.9501511394
21
27.4369902859
0
LINE
5
393
100
AcDbEntity
8
0
100
AcDbLine
62
7
6
CONTINUOUS
10
18.8749075378
20
28.1419765460
11
20.1650316756
21
28.2057531621
0
LINE
5
394
100
AcDbEntity
8
0
100
AcDbLine
62
3
6
CONTINUOUS
10
15.1962606208
20
27.1389786250
11
13.7656616909
21
27.8542780900
0
LINE
5
395
100
AcDbEntity
8
0
100
AcDbLine
62
7
6
CONTINUOUS
10
26.9885584991
20
21.6124421692
11
27.2459580141
21
21.4837424117
0
LINE
5
396
100
AcDbEntity
8
0
100
AcDbLine
62
7
6
CONTINUOUS
10
29.5694982504
20
20.3219722935
11
30.3473157097
21
19.9330635639
0
LINE
5
397
100
AcDbEntity
8
0
100
AcDbLine
62
3
6
CONTINUOUS
10
10.6295580556
20
30.0549998198
11
12.2166004441
21
29.2614786256
0
LINE
5
398
100
AcDbEntity
8
0
100
AcDbLine
62
3
6
CONTINUOUS
10
14.6600667084
20
28.0397454934
11
16.2471090969
21
27.2462242992
0
LINE
5
399
100
AcDbEntity
8
0
100
AcDbLine
62
7
6
CONTINUOUS
10
10.7169612605
20
30.4281570637
11
12.7675709260
21
29.4028522310
0
LINE
5
39A
100
AcDbEntity
8
0
100
AcDbLine
62
7
6
CONTINUOUS
10
14.7474699133
20
28.4129027373
11
16.7980795787
21
27.3875979046
0
LINE
5
39B
100
AcDbEntity
8
0
100
AcDbLine
62
7
6
CONTINUOUS
10
30.8422904565
20
20.7462363622
11
30.2766050316
21
21.0290790747
0
LINE
5
39C
100
AcDbEntity
8
0
100
AcDbLine
62
7
6
CONTINUOUS
10
28.3066181858
20
22.0140724976
11
28.0492186709
21
22.1427722551
0
LINE
5
39D
100
AcDbEntity
8
0
100
AcDbLine
62
9
6
CONTINUOUS
10
28.5088380786
20
22.1151824440
11
29.5694982504
21
21.5848523581
0
LINE
5
39E
100
AcDbEntity
8
0
100
AcDbLine
62
7
6
CONTINUOUS
10
28.9560516741
20
22.1435842312
11
30.0167118459
21
21.6132541453
0
LINE
5
39F
100
AcDbEntity
8
0
100
AcDbLine
62
7
6
CONTINUOUS
10
8.6767795744
20
32.5208107967
11
11.2963791474
21
31.2110110102
0
LINE
5
3A0
100
AcDbEntity
8
0
100
AcDbLine
62
7
6
CONTINUOUS
10
20.1783750630
20
26.7700130524
11
22.1611620401
21
25.7786195639
0
LINE
5
3A1
100
AcDbEntity
8
0
100
AcDbLine
62
7
6
CONTINUOUS
10
23.2766122866
20
-10.3714356313
11
20.4478207731
21
-11.7885637452
0
LINE
5
3A2
100
AcDbEntity
8
DEFAULT_3
100
AcDbLine
62
8
6
PHANTOM
10
9.4045491743
20
-17.1544613070
11
9.9427436992
21
-16.8853640445
0
LWPOLYLINE
5
3A3
100
AcDbEntity
8
DEFAULT_3
100
AcDbPolyline
62
8
6
PHANTOM
90
13
70
0
10
9.4045491743
20
-17.1544613070
10
9.3478416679
20
-17.1801487004
10
9.2887840428
20
-17.2015998928
10
9.2277251301
20
-17.2185626508
10
9.1651290562
20
-17.2308135786
10
9.1013234712
20
-17.2382155554
10
9.0364608126
20
-17.2406577578
10
8.9709989969
20
-17.2380231315
10
8.9053325832
20
-17.2302480183
10
8.8394638472
20
-17.2172188252
10
8.7736484200
20
-17.1988182778
10
8.7084470011
20
-17.1750474413
10
8.6442860744
20
-17.1459407770
0
LINE
5
3A4
100
AcDbEntity
8
0
100
AcDbLine
62
7
6
CONTINUOUS
10
12.5213031700
20
28.2708520806
11
14.4715488547
21
28.4698868777
0
LINE
5
3A5
100
AcDbEntity
8
0
100
AcDbLine
62
7
6
CONTINUOUS
10
12.7744925798
20
29.3184150151
11
10.8242468951
21
29.1193802180
0
LINE
5
3A6
100
AcDbEntity
8
0
100
AcDbLine
62
7
6
CONTINUOUS
10
20.2356887387
20
27.0147067487
11
18.7861198373
21
27.7394911994
0
LINE
5
3A7
100
AcDbEntity
8
0
100
AcDbLine
62
7
6
CONTINUOUS
10
11.7504073645
20
31.2573474358
11
13.1999762659
21
30.5325629851
0
LINE
5
3A8
100
AcDbEntity
8
0
100
AcDbLine
62
7
6
CONTINUOUS
10
11.6089860083
20
31.7042266326
11
13.1825163263
21
30.9174614736
0
LINE
5
3A9
100
AcDbEntity
8
0
100
AcDbLine
62
7
6
CONTINUOUS
10
18.8035797769
20
28.1069297483
11
20.3771100950
21
27.3201645893
0
LINE
5
3AA
100
AcDbEntity
8
0
100
AcDbLine
62
7
6
CONTINUOUS
10
11.6796966864
20
31.7395819717
11
13.2526099217
21
30.9531253540
0
LINE
5
3AB
100
AcDbEntity
8
0
100
AcDbLine
62
7
6
CONTINUOUS
10
18.8749075378
20
28.1419765460
11
20.4478207731
21
27.3555199283
0
LINE
5
3AC
100
AcDbEntity
8
0
100
AcDbLine
62
9
6
CONTINUOUS
10
19.6717487476
20
28.1813679770
11
14.8108470393
21
30.6118188311
0
LINE
5
3AD
100
AcDbEntity
8
0
100
AcDbLine
62
7
6
CONTINUOUS
10
15.0166820643
20
30.5771995043
11
19.7960550810
21
28.1875129959
0
LINE
5
3AE
100
AcDbEntity
8
0
100
AcDbLine
62
9
6
CONTINUOUS
10
13.2873860589
20
31.8267658767
11
14.7648292343
21
31.0880442890
0
LINE
5
3AF
100
AcDbEntity
8
0
100
AcDbLine
62
9
6
CONTINUOUS
10
20.5780669701
20
28.1814254211
11
22.0093028681
21
27.4658074721
0
LINE
5
3B0
100
AcDbEntity
8
0
100
AcDbLine
62
7
6
CONTINUOUS
10
13.4516811252
20
31.7945315794
11
14.8044155684
21
31.1181643577
0
LINE
5
3B1
100
AcDbEntity
8
0
100
AcDbLine
62
7
6
CONTINUOUS
10
20.8670626498
20
28.0868408170
11
22.0598646071
21
27.4904398384
0
LINE
5
3B2
100
AcDbEntity
8
0
100
AcDbLine
62
7
6
CONTINUOUS
10
10.7452846393
20
33.5108668775
11
13.6595956737
21
32.0537113603
0
LINE
5
3B3
100
AcDbEntity
8
0
100
AcDbLine
62
7
6
CONTINUOUS
10
22.4277197604
20
27.6696493169
11
24.1851104925
21
26.7909539509
0
LINE
5
3B4
100
AcDbEntity
8
0
100
AcDbLine
62
9
6
CONTINUOUS
10
16.0622456440
20
-18.4396688672
11
13.2407705845
21
-19.7664349473
0
LINE
5
3B5
100
AcDbEntity
8
0
100
AcDbLine
62
3
6
CONTINUOUS
10
8.9612834480
20
29.9698855527
11
10.3536369970
21
30.1119839602
0
LINE
5
3B6
100
AcDbEntity
8
0
100
AcDbLine
62
7
6
CONTINUOUS
10
14.8108470393
20
30.6118188311
11
13.4758973246
21
30.4755788447
0
LINE
5
3B7
100
AcDbEntity
8
0
100
AcDbLine
62
7
6
CONTINUOUS
10
8.4907945172
20
30.2861064070
11
10.4410402019
21
30.4851412041
0
LINE
5
3B8
100
AcDbEntity
8
0
100
AcDbLine
62
7
6
CONTINUOUS
10
7.1050516030
20
30.7832597613
11
11.7504073645
21
31.2573474358
0
LINE
5
3B9
100
AcDbEntity
8
0
100
AcDbLine
62
7
6
CONTINUOUS
10
13.2526099217
20
30.9531253540
11
14.5204113810
21
31.0280633094
0
LINE
5
3BA
100
AcDbEntity
8
0
100
AcDbLine
62
7
6
CONTINUOUS
10
11.6796966864
20
31.7395819717
11
13.2873860589
21
31.8267658767
0
LINE
5
3BB
100
AcDbEntity
8
0
100
AcDbLine
62
7
6
CONTINUOUS
10
26.5239163692
20
26.8924753055
11
25.5188249916
21
27.3950209943
0
LINE
5
3BC
100
AcDbEntity
8
0
100
AcDbLine
62
7
6
CONTINUOUS
10
10.5684904426
20
34.8701882688
11
9.5633990650
21
35.3727339576
0
LINE
5
3BD
100
AcDbEntity
8
0
100
AcDbLine
62
9
6
CONTINUOUS
10
20.4478207731
20
-17.7317571964
11
26.7006984508
21
-14.4398201396
0
LINE
5
3BE
100
AcDbEntity
8
0
100
AcDbLine
62
7
6
CONTINUOUS
10
20.3846403801
20
-17.8660397147
11
26.6374949448
21
-14.5741148261
0
LINE
5
3BF
100
AcDbEntity
8
0
100
AcDbLine
62
7
6
CONTINUOUS
10
20.3846026286
20
-17.8660595896
11
20.3811144684
21
-17.8678042851
0
LINE
5
3C0
100
AcDbEntity
8
0
100
AcDbLine
62
9
6
CONTINUOUS
10
16.0622456440
20
-19.8124521133
11
20.4478207731
21
-17.7317571964
0
LINE
5
3C1
100
AcDbEntity
8
0
100
AcDbLine
62
7
6
CONTINUOUS
10
15.9957421547
20
-19.9484029582
11
20.3810703958
21
-17.8678251750
0
LINE
5
3C2
100
AcDbEntity
8
0
100
AcDbLine
62
7
6
CONTINUOUS
10
15.7062503645
20
-18.7117515154
11
13.1734904617
21
-19.9027526255
0
LINE
5
3C3
100
AcDbEntity
8
0
100
AcDbLine
62
7
6
CONTINUOUS
10
13.1613403264
20
-19.9083860890
11
13.1734815270
21
-19.9027558224
0
LINE
5
3C4
100
AcDbEntity
8
0
100
AcDbLine
62
7
6
CONTINUOUS
10
15.9169665597
20
-19.9816350502
11
15.9960729549
21
-19.9482299271
0
LINE
5
3C5
100
AcDbEntity
8
0
100
AcDbLine
62
7
6
CONTINUOUS
10
13.0765891534
20
-19.9433109335
11
13.1623818790
21
-19.9079030874
0
LINE
5
3C6
100
AcDbEntity
8
0
100
AcDbLine
62
7
6
CONTINUOUS
10
12.9920845856
20
-19.9705461447
11
13.0774924184
21
-19.9429789466
0
LINE
5
3C7
100
AcDbEntity
8
0
100
AcDbLine
62
7
6
CONTINUOUS
10
15.8386796425
20
-20.0076736669
11
15.9179988381
21
-19.9812483175
0
ARC
5
3C8
100
AcDbEntity
8
0
100
AcDbCircle
62
7
6
CONTINUOUS
10
24.8672381555
20
-0.9192264000
40
0.3000000000
100
AcDbArc
50
243.7505903396
51
296.2494096605
0
SPLINE
5
3C9
100
AcDbEntity
8
0
100
AcDbSpline
62
7
6
CONTINUOUS
70
0
71
3
72
11
73
7
74
5
42
0.0000001000
43
0.0000001000
44
0.0000000001
12
0.0832820003
22
0.0415822957
32
0.0000000000
13
0.0829422948
23
-0.0414711474
33
0.0000000000
40
0.0000000000
40
0.0000000000
40
0.0000000000
40
0.0000000000
40
0.1698017477
40
0.4239833087
40
0.6985785075
40
1.0000000000
40
1.0000000000
40
1.0000000000
40
1.0000000000
10
13.0279828801
20
25.9348868662
30
0.0000000000
10
13.0326966898
20
25.9372404483
30
0.0000000000
10
13.0450868156
20
25.9418889014
30
0.0000000000
10
13.0668573063
20
25.9441329968
30
0.0000000000
10
13.0924266476
20
25.9400039315
30
0.0000000000
10
13.1090994989
20
25.9333823317
30
0.0000000000
10
13.1174330290
20
25.9292155667
30
0.0000000000
11
13.0279828801
21
25.9348868662
31
0.0000000000
11
13.0427529573
21
25.9404366541
31
0.0000000000
11
13.0661765500
21
25.9430672236
31
0.0000000000
11
13.0913577283
21
25.9392836145
31
0.0000000000
11
13.1174330290
21
25.9292155667
31
0.0000000000
0
SPLINE
5
3CA
100
AcDbEntity
8
0
100
AcDbSpline
62
7
6
CONTINUOUS
70
0
71
3
72
11
73
7
74
5
42
0.0000001000
43
0.0000001000
44
0.0000000001
12
-0.0145939321
22
-0.0613302985
32
0.0000000000
13
-0.0614548224
23
-0.0062718499
33
0.0000000000
40
0.0000000000
40
0.0000000000
40
0.0000000000
40
0.0000000000
40
0.0966540175
40
0.3156819854
40
0.6136554429
40
1.0000000000
40
1.0000000000
40
1.0000000000
40
1.0000000000
10
16.8582029018
20
27.3282870875
30
0.0000000000
10
16.8577327144
20
27.3263111476
30
0.0000000000
10
16.8551707063
20
27.3200866866
30
0.0000000000
10
16.8445418023
20
27.3122181443
30
0.0000000000
10
16.8269267298
20
27.3061425049
30
0.0000000000
10
16.8129154780
20
27.3039683871
30
0.0000000000
10
16.8050012326
20
27.3031606887
30
0.0000000000
11
16.8582029018
21
27.3282870875
31
0.0000000000
11
16.8558914676
21
27.3227036425
31
0.0000000000
11
16.8457069806
21
27.3137961372
31
0.0000000000
11
16.8285234511
21
27.3071972893
31
0.0000000000
11
16.8050012326
21
27.3031606887
31
0.0000000000
0
SPLINE
5
3CB
100
AcDbEntity
8
0
100
AcDbSpline
62
7
6
CONTINUOUS
70
0
71
3
72
11
73
7
74
5
42
0.0000001000
43
0.0000001000
44
0.0000000001
12
-0.0145939321
22
-0.0613302985
32
0.0000000000
13
-0.0614548224
23
-0.0062718499
33
0.0000000000
40
0.0000000000
40
0.0000000000
40
0.0000000000
40
0.0000000000
40
0.0966540175
40
0.3156819854
40
0.6136554429
40
1.0000000000
40
1.0000000000
40
1.0000000000
40
1.0000000000
10
12.8276942491
20
29.3435414139
30
0.0000000000
10
12.8272240617
20
29.3415654740
30
0.0000000000
10
12.8246620535
20
29.3353410130
30
0.0000000000
10
12.8140331495
20
29.3274724707
30
0.0000000000
10
12.7964180770
20
29.3213968313
30
0.0000000000
10
12.7824068252
20
29.3192227135
30
0.0000000000
10
12.7744925798
20
29.3184150151
30
0.0000000000
11
12.8276942491
21
29.3435414139
31
0.0000000000
11
12.8253828148
21
29.3379579689
31
0.0000000000
11
12.8151983278
21
29.3290504636
31
0.0000000000
11
12.7980147984
21
29.3224516156
31
0.0000000000
11
12.7744925798
21
29.3184150151
31
0.0000000000
0
SPLINE
5
3CC
100
AcDbEntity
8
0
100
AcDbSpline
62
7
6
CONTINUOUS
70
0
71
3
72
9
73
5
74
3
42
0.0000001000
43
0.0000001000
44
0.0000000001
12
-0.1119495102
22
0.0560459254
32
0.0000000000
13
-0.1239910689
23
0.0133468475
33
0.0000000000
40
0.0000000000
40
0.0000000000
40
0.0000000000
40
0.0000000000
40
0.1736013343
40
1.0000000000
40
1.0000000000
40
1.0000000000
40
1.0000000000
10
15.0166154000
20
30.5772210775
30
0.0000000000
10
15.0101372052
20
30.5804642934
30
0.0000000000
10
14.9722166335
20
30.5979450937
30
0.0000000000
10
14.9311878921
20
30.6081717852
30
0.0000000000
10
14.8970325408
20
30.6118483908
30
0.0000000000
11
15.0166154000
21
30.5772210775
31
0.0000000000
11
14.9968774093
21
30.5863150537
31
0.0000000000
11
14.8970325408
21
30.6118483908
31
0.0000000000
0
SPLINE
5
3CD
100
AcDbEntity
8
0
100
AcDbSpline
62
7
6
CONTINUOUS
70
0
71
3
72
9
73
5
74
3
42
0.0000001000
43
0.0000001000
44
0.0000000001
12
-0.0858076653
22
0.0092366477
32
0.0000000000
13
-0.0858574017
23
-0.0087622860
33
0.0000000000
40
0.0000000000
40
0.0000000000
40
0.0000000000
40
0.0000000000
40
0.4913326222
40
1.0000000000
40
1.0000000000
40
1.0000000000
40
1.0000000000
10
14.8970325408
20
30.6118483908
30
0.0000000000
10
14.8829791724
20
30.6133611463
30
0.0000000000
10
14.8541861699
20
30.6148425209
30
0.0000000000
10
14.8254046591
20
30.6133045274
30
0.0000000000
10
14.8108470393
20
30.6118188311
30
0.0000000000
11
14.8970325408
21
30.6118483908
31
0.0000000000
11
14.8546880637
21
30.6140879428
31
0.0000000000
11
14.8108470393
21
30.6118188311
31
0.0000000000
0
SPLINE
5
3CE
100
AcDbEntity
8
0
100
AcDbSpline
62
7
6
CONTINUOUS
70
0
71
3
72
15
73
11
74
9
42
0.0000001000
43
0.0000001000
44
0.0000000001
12
-0.2830840723
22
-0.0288905041
32
0.0000000000
13
-0.2545132660
23
0.1272566330
33
0.0000000000
40
0.0000000000
40
0.0000000000
40
0.0000000000
40
0.0000000000
40
0.1018680046
40
0.2189296968
40
0.3474096568
40
0.4829133080
40
0.6206942281
40
0.7558954912
40
0.8837854688
40
1.0000000000
40
1.0000000000
40
1.0000000000
40
1.0000000000
10
13.4758973246
20
30.4755788447
30
0.0000000000
10
13.4662849214
20
30.4745978387
30
0.0000000000
10
13.4454889387
20
30.4738232878
30
0.0000000000
10
13.4125487301
20
30.4753982447
30
0.0000000000
10
13.3766247164
20
30.4795971316
30
0.0000000000
10
13.3390853346
20
30.4862727981
30
0.0000000000
10
13.3013569172
20
30.4951785675
30
0.0000000000
10
13.2648758394
20
30.5059749292
30
0.0000000000
10
13.2310320237
20
30.5182443054
30
0.0000000000
10
13.2098356459
20
30.5276332951
30
0.0000000000
10
13.1999762659
20
30.5325629851
30
0.0000000000
11
13.4758973246
21
30.4755788447
31
0.0000000000
11
13.4469403626
21
30.4742596159
31
0.0000000000
11
13.4136614570
21
30.4757084560
31
0.0000000000
11
13.3773394976
21
30.4798696869
31
0.0000000000
11
13.3393703167
21
30.4865833949
31
0.0000000000
11
13.3012130488
21
30.4955915759
31
0.0000000000
11
13.2643340562
21
30.5065480505
31
0.0000000000
11
13.2301505779
21
30.5190317677
31
0.0000000000
11
13.1999762659
21
30.5325629851
31
0.0000000000
0
SPLINE
5
3CF
100
AcDbEntity
8
0
100
AcDbSpline
62
7
6
CONTINUOUS
70
0
71
3
72
10
73
6
74
4
42
0.0000001000
43
0.0000001000
44
0.0000000001
12
0.1437626329
22
0.0718813165
32
0.0000000000
13
0.1599009443
23
0.0163188937
33
0.0000000000
40
0.0000000000
40
0.0000000000
40
0.0000000000
40
0.0000000000
40
0.3511381091
40
0.6840818606
40
1.0000000000
40
1.0000000000
40
1.0000000000
40
1.0000000000
10
6.9520959944
20
30.7364523671
30
0.0000000000
10
6.9689228408
20
30.7448657903
30
0.0000000000
10
7.0025578310
20
30.7596383256
30
0.0000000000
10
7.0538482702
20
30.7755166509
30
0.0000000000
10
7.0882130667
20
30.7815412831
30
0.0000000000
10
7.1050516030
20
30.7832597613
30
0.0000000000
11
6.9520959944
21
30.7364523671
31
0.0000000000
11
7.0038349441
21
30.7590009175
31
0.0000000000
11
7.0550070310
21
30.7746605724
31
0.0000000000
11
7.1050516030
21
30.7832597613
31
0.0000000000
0
SPLINE
5
3D0
100
AcDbEntity
8
0
100
AcDbSpline
62
7
6
CONTINUOUS
70
0
71
3
72
12
73
8
74
6
42
0.0000001000
43
0.0000001000
44
0.0000000001
12
-0.0794482303
22
0.0397241152
32
0.0000000000
13
0.0209848366
23
0.0881877676
33
0.0000000000
40
0.0000000000
40
0.0000000000
40
0.0000000000
40
0.0000000000
40
0.3229543341
40
0.5878371421
40
0.7912834233
40
0.9408237800
40
1.0000000000
40
1.0000000000
40
1.0000000000
40
1.0000000000
10
18.7861198373
20
27.7394911994
30
0.0000000000
10
18.7775671205
20
27.7437675578
30
0.0000000000
10
18.7623014008
20
27.7521727065
30
0.0000000000
10
18.7431836663
20
27.7659257530
30
0.0000000000
10
18.7304789335
20
27.7791488088
30
0.0000000000
10
18.7249816066
20
27.7907352624
30
0.0000000000
10
18.7255825798
20
27.7970624769
30
0.0000000000
10
18.7259965142
20
27.7988020165
30
0.0000000000
11
18.7861198373
21
27.7394911994
31
0.0000000000
11
18.7611142734
21
27.7535499199
31
0.0000000000
11
18.7422384075
21
27.7675958748
31
0.0000000000
11
18.7302176285
21
27.7810892860
31
0.0000000000
11
18.7255138881
21
27.7935116092
31
0.0000000000
11
18.7259965142
21
27.7988020165
31
0.0000000000
0
SPLINE
5
3D1
100
AcDbEntity
8
0
100
AcDbSpline
62
7
6
CONTINUOUS
70
0
71
3
72
13
73
9
74
7
42
0.0000001000
43
0.0000001000
44
0.0000000001
12
0.0000000000
22
1.0295482093
32
0.0000000000
13
0.9208559129
23
0.4604279564
33
0.0000000000
40
0.0000000000
40
0.0000000000
40
0.0000000000
40
0.0000000000
40
0.1614219316
40
0.3342559043
40
0.5116973510
40
0.6862432064
40
0.8508246292
40
1.0000000000
40
1.0000000000
40
1.0000000000
40
1.0000000000
10
6.0935531150
20
29.7009631448
30
0.0000000000
10
6.0935531150
20
29.7563603650
30
0.0000000000
10
6.1062406928
20
29.8712330649
30
0.0000000000
10
6.1559330112
20
30.0404283916
30
0.0000000000
10
6.2338644679
20
30.2036499025
30
0.0000000000
10
6.3350181170
20
30.3502185708
30
0.0000000000
10
6.4527651526
20
30.4706183192
30
0.0000000000
10
6.5427381878
20
30.5317734638
30
0.0000000000
10
6.5885278618
20
30.5546683008
30
0.0000000000
11
6.0935531150
21
29.7009631448
31
0.0000000000
11
6.1104189705
21
29.8662967802
31
0.0000000000
11
6.1598671569
21
30.0372290570
31
0.0000000000
11
6.2385278618
21
30.2021112232
31
0.0000000000
11
6.3410404884
21
30.3497068315
31
0.0000000000
11
6.4604189705
21
30.4699574851
31
0.0000000000
11
6.5885278618
21
30.5546683008
31
0.0000000000
0
SPLINE
5
3D2
100
AcDbEntity
8
0
100
AcDbSpline
62
7
6
CONTINUOUS
70
0
71
3
72
15
73
11
74
9
42
0.0000001000
43
0.0000001000
44
0.0000000001
12
0.2495447045
22
-0.1247723523
32
0.0000000000
13
0.0191971987
23
-0.2783382241
33
0.0000000000
40
0.0000000000
40
0.0000000000
40
0.0000000000
40
0.0000000000
40
0.1096655338
40
0.2281053033
40
0.3536807021
40
0.4841159681
40
0.6167482564
40
0.7487500837
40
0.8773406044
40
1.0000000000
40
1.0000000000
40
1.0000000000
40
1.0000000000
10
7.5549545753
20
28.7104547935
30
0.0000000000
10
7.5640767264
20
28.7058937180
30
0.0000000000
10
7.5821779448
20
28.6946078463
30
0.0000000000
10
7.6072134400
20
28.6731214072
30
0.0000000000
10
7.6304800476
20
28.6470843006
30
0.0000000000
10
7.6511996955
20
28.6173698139
30
0.0000000000
10
7.6686876940
20
28.5849688721
30
0.0000000000
10
7.6823584351
20
28.5509633418
30
0.0000000000
10
7.6917533767
20
28.5164993453
30
0.0000000000
10
7.6950528750
20
28.4932841937
30
0.0000000000
10
7.6958377806
20
28.4819039276
30
0.0000000000
11
7.5549545753
21
28.7104547935
31
0.0000000000
11
7.5810298760
21
28.6944475406
31
0.0000000000
11
7.6062110542
21
28.6730499715
31
0.0000000000
11
7.6296346469
21
28.6469958094
31
0.0000000000
11
7.6504974587
21
28.6171784517
31
0.0000000000
11
7.6680841034
21
28.5846203362
31
0.0000000000
11
7.6817915348
21
28.5504378813
31
0.0000000000
11
7.6911497246
21
28.5158032039
31
0.0000000000
11
7.6958377806
21
28.4819039276
31
0.0000000000
0
SPLINE
5
3D3
100
AcDbEntity
8
0
100
AcDbSpline
62
7
6
CONTINUOUS
70
0
71
3
72
15
73
11
74
9
42
0.0000001000
43
0.0000001000
44
0.0000000001
12
-0.2830840723
22
-0.0288905041
32
0.0000000000
13
-0.2545132660
23
0.1272566330
33
0.0000000000
40
0.0000000000
40
0.0000000000
40
0.0000000000
40
0.0000000000
40
0.1018680046
40
0.2189296968
40
0.3474096568
40
0.4829133080
40
0.6206942281
40
0.7558954912
40
0.8837854688
40
1.0000000000
40
1.0000000000
40
1.0000000000
40
1.0000000000
10
14.8547555479
20
27.1041258916
30
0.0000000000
10
14.8451431447
20
27.1031448856
30
0.0000000000
10
14.8243471620
20
27.1023703348
30
0.0000000000
10
14.7914069534
20
27.1039452917
30
0.0000000000
10
14.7554829397
20
27.1081441785
30
0.0000000000
10
14.7179435579
20
27.1148198451
30
0.0000000000
10
14.6802151405
20
27.1237256145
30
0.0000000000
10
14.6437340627
20
27.1345219761
30
0.0000000000
10
14.6098902470
20
27.1467913523
30
0.0000000000
10
14.5886938692
20
27.1561803421
30
0.0000000000
10
14.5788344892
20
27.1611100320
30
0.0000000000
11
14.8547555479
21
27.1041258916
31
0.0000000000
11
14.8257985859
21
27.1028066628
31
0.0000000000
11
14.7925196804
21
27.1042555029
31
0.0000000000
11
14.7561977209
21
27.1084167339
31
0.0000000000
11
14.7182285400
21
27.1151304418
31
0.0000000000
11
14.6800712721
21
27.1241386228
31
0.0000000000
11
14.6431922795
21
27.1350950975
31
0.0000000000
11
14.6090088012
21
27.1475788146
31
0.0000000000
11
14.5788344892
21
27.1611100320
31
0.0000000000
0
SPLINE
5
3D4
100
AcDbEntity
8
0
100
AcDbSpline
62
7
6
CONTINUOUS
70
0
71
3
72
15
73
11
74
9
42
0.0000001000
43
0.0000001000
44
0.0000000001
12
-0.2830840723
22
-0.0288905041
32
0.0000000000
13
-0.2545132660
23
0.1272566330
33
0.0000000000
40
0.0000000000
40
0.0000000000
40
0.0000000000
40
0.0000000000
40
0.1018680046
40
0.2189296968
40
0.3474096568
40
0.4829133080
40
0.6206942281
40
0.7558954912
40
0.8837854688
40
1.0000000000
40
1.0000000000
40
1.0000000000
40
1.0000000000
10
10.8242468951
20
29.1193802180
30
0.0000000000
10
10.8146344919
20
29.1183992120
30
0.0000000000
10
10.7938385092
20
29.1176246612
30
0.0000000000
10
10.7608983007
20
29.1191996180
30
0.0000000000
10
10.7249742869
20
29.1233985049
30
0.0000000000
10
10.6874349052
20
29.1300741715
30
0.0000000000
10
10.6497064877
20
29.1389799408
30
0.0000000000
10
10.6132254100
20
29.1497763025
30
0.0000000000
10
10.5793815942
20
29.1620456787
30
0.0000000000
10
10.5581852164
20
29.1714346684
30
0.0000000000
10
10.5483258365
20
29.1763643584
30
0.0000000000
11
10.8242468951
21
29.1193802180
31
0.0000000000
11
10.7952899332
21
29.1180609892
31
0.0000000000
11
10.7620110276
21
29.1195098293
31
0.0000000000
11
10.7256890681
21
29.1236710603
31
0.0000000000
11
10.6877198872
21
29.1303847682
31
0.0000000000
11
10.6495626193
21
29.1393929492
31
0.0000000000
11
10.6126836267
21
29.1503494239
31
0.0000000000
11
10.5785001485
21
29.1628331410
31
0.0000000000
11
10.5483258365
21
29.1763643584
31
0.0000000000
0
SPLINE
5
3D5
100
AcDbEntity
8
0
100
AcDbSpline
62
7
6
CONTINUOUS
70
0
71
3
72
12
73
8
74
6
42
0.0000001000
43
0.0000001000
44
0.0000000001
12
-0.0794482303
22
0.0397241152
32
0.0000000000
13
0.0209848366
23
0.0881877676
33
0.0000000000
40
0.0000000000
40
0.0000000000
40
0.0000000000
40
0.0000000000
40
0.3229543341
40
0.5878371421
40
0.7912834233
40
0.9408237800
40
1.0000000000
40
1.0000000000
40
1.0000000000
40
1.0000000000
10
12.5282248238
20
28.1864148648
30
0.0000000000
10
12.5196721070
20
28.1906912231
30
0.0000000000
10
12.5044063873
20
28.1990963719
30
0.0000000000
10
12.4852886528
20
28.2128494184
30
0.0000000000
10
12.4725839200
20
28.2260724742
30
0.0000000000
10
12.4670865931
20
28.2376589278
30
0.0000000000
10
12.4676875663
20
28.2439861423
30
0.0000000000
10
12.4681015007
20
28.2457256818
30
0.0000000000
11
12.5282248238
21
28.1864148648
31
0.0000000000
11
12.5032192599
21
28.2004735853
31
0.0000000000
11
12.4843433940
21
28.2145195402
31
0.0000000000
11
12.4723226150
21
28.2280129514
31
0.0000000000
11
12.4676188746
21
28.2404352746
31
0.0000000000
11
12.4681015007
21
28.2457256818
31
0.0000000000
0
SPLINE
5
3D6
100
AcDbEntity
8
0
100
AcDbSpline
62
7
6
CONTINUOUS
70
0
71
3
72
12
73
8
74
6
42
0.0000001000
43
0.0000001000
44
0.0000000001
12
-0.0794482303
22
0.0397241152
32
0.0000000000
13
0.0209848366
23
0.0881877676
33
0.0000000000
40
0.0000000000
40
0.0000000000
40
0.0000000000
40
0.0000000000
40
0.3229543341
40
0.5878371421
40
0.7912834233
40
0.9408237800
40
1.0000000000
40
1.0000000000
40
1.0000000000
40
1.0000000000
10
8.4977161710
20
30.2016691911
30
0.0000000000
10
8.4891634543
20
30.2059455495
30
0.0000000000
10
8.4738977345
20
30.2143506982
30
0.0000000000
10
8.4547800000
20
30.2281037448
30
0.0000000000
10
8.4420752673
20
30.2413268006
30
0.0000000000
10
8.4365779403
20
30.2529132542
30
0.0000000000
10
8.4371789135
20
30.2592404686
30
0.0000000000
10
8.4375928480
20
30.2609800082
30
0.0000000000
11
8.4977161710
21
30.2016691911
31
0.0000000000
11
8.4727106072
21
30.2157279117
31
0.0000000000
11
8.4538347413
21
30.2297738666
31
0.0000000000
11
8.4418139622
21
30.2432672778
31
0.0000000000
11
8.4371102218
21
30.2556896010
31
0.0000000000
11
8.4375928480
21
30.2609800082
31
0.0000000000
0
SPLINE
5
3D7
100
AcDbEntity
8
0
100
AcDbSpline
62
7
6
CONTINUOUS
70
0
71
3
72
11
73
7
74
5
42
0.0000001000
43
0.0000001000
44
0.0000000001
12
0.0145939321
22
0.0613302985
32
0.0000000000
13
0.0614548224
23
0.0062718499
33
0.0000000000
40
0.0000000000
40
0.0000000000
40
0.0000000000
40
0.0000000000
40
0.0966540175
40
0.3156819854
40
0.6136554429
40
1.0000000000
40
1.0000000000
40
1.0000000000
40
1.0000000000
10
18.7259965142
20
27.7988020165
30
0.0000000000
10
18.7264667016
20
27.8007779564
30
0.0000000000
10
18.7290287098
20
27.8070024174
30
0.0000000000
10
18.7396576137
20
27.8148709597
30
0.0000000000
10
18.7572726863
20
27.8209465990
30
0.0000000000
10
18.7712839381
20
27.8231207169
30
0.0000000000
10
18.7791981835
20
27.8239284152
30
0.0000000000
11
18.7259965142
21
27.7988020165
31
0.0000000000
11
18.7283079485
21
27.8043854615
31
0.0000000000
11
18.7384924354
21
27.8132929668
31
0.0000000000
11
18.7556759649
21
27.8198918147
31
0.0000000000
11
18.7791981835
21
27.8239284152
31
0.0000000000
0
SPLINE
5
3D8
100
AcDbEntity
8
0
100
AcDbSpline
62
7
6
CONTINUOUS
70
0
71
3
72
11
73
7
74
5
42
0.0000001000
43
0.0000001000
44
0.0000000001
12
0.0145939321
22
0.0613302985
32
0.0000000000
13
0.0614548224
23
0.0062718499
33
0.0000000000
40
0.0000000000
40
0.0000000000
40
0.0000000000
40
0.0000000000
40
0.0966540175
40
0.3156819854
40
0.6136554429
40
1.0000000000
40
1.0000000000
40
1.0000000000
40
1.0000000000
10
8.4375928480
20
30.2609800082
30
0.0000000000
10
8.4380630353
20
30.2629559481
30
0.0000000000
10
8.4406250435
20
30.2691804091
30
0.0000000000
10
8.4512539475
20
30.2770489514
30
0.0000000000
10
8.4688690200
20
30.2831245908
30
0.0000000000
10
8.4828802718
20
30.2852987086
30
0.0000000000
10
8.4907945172
20
30.2861064070
30
0.0000000000
11
8.4375928480
21
30.2609800082
31
0.0000000000
11
8.4399042822
21
30.2665634532
31
0.0000000000
11
8.4500887692
21
30.2754709585
31
0.0000000000
11
8.4672722987
21
30.2820698065
31
0.0000000000
11
8.4907945172
21
30.2861064070
31
0.0000000000
0
SPLINE
5
3D9
100
AcDbEntity
8
0
100
AcDbSpline
62
7
6
CONTINUOUS
70
0
71
3
72
12
73
8
74
6
42
0.0000001000
43
0.0000001000
44
0.0000000001
12
0.0794482303
22
-0.0397241152
32
0.0000000000
13
-0.0209848366
23
-0.0881877676
33
0.0000000000
40
0.0000000000
40
0.0000000000
40
0.0000000000
40
0.0000000000
40
0.3229543341
40
0.5878371421
40
0.7912834233
40
0.9408237800
40
1.0000000000
40
1.0000000000
40
1.0000000000
40
1.0000000000
10
16.7980795787
20
27.3875979046
30
0.0000000000
10
16.8066322955
20
27.3833215462
30
0.0000000000
10
16.8218980153
20
27.3749163975
30
0.0000000000
10
16.8410157498
20
27.3611633509
30
0.0000000000
10
16.8537204825
20
27.3479402951
30
0.0000000000
10
16.8592178095
20
27.3363538416
30
0.0000000000
10
16.8586168363
20
27.3300266271
30
0.0000000000
10
16.8582029018
20
27.3282870875
30
0.0000000000
11
16.7980795787
21
27.3875979046
31
0.0000000000
11
16.8230851426
21
27.3735391840
31
0.0000000000
11
16.8419610085
21
27.3594932291
31
0.0000000000
11
16.8539817876
21
27.3459998179
31
0.0000000000
11
16.8586855280
21
27.3335774948
31
0.0000000000
11
16.8582029018
21
27.3282870875
31
0.0000000000
0
SPLINE
5
3DA
100
AcDbEntity
8
0
100
AcDbSpline
62
7
6
CONTINUOUS
70
0
71
3
72
12
73
8
74
6
42
0.0000001000
43
0.0000001000
44
0.0000000001
12
0.0794482303
22
-0.0397241152
32
0.0000000000
13
-0.0209848366
23
-0.0881877676
33
0.0000000000
40
0.0000000000
40
0.0000000000
40
0.0000000000
40
0.0000000000
40
0.3229543341
40
0.5878371421
40
0.7912834233
40
0.9408237800
40
1.0000000000
40
1.0000000000
40
1.0000000000
40
1.0000000000
10
12.7675709260
20
29.4028522310
30
0.0000000000
10
12.7761236427
20
29.3985758726
30
0.0000000000
10
12.7913893625
20
29.3901707239
30
0.0000000000
10
12.8105070970
20
29.3764176773
30
0.0000000000
10
12.8232118298
20
29.3631946215
30
0.0000000000
10
12.8287091567
20
29.3516081679
30
0.0000000000
10
12.8281081835
20
29.3452809535
30
0.0000000000
10
12.8276942491
20
29.3435414139
30
0.0000000000
11
12.7675709260
21
29.4028522310
31
0.0000000000
11
12.7925764898
21
29.3887935104
31
0.0000000000
11
12.8114523558
21
29.3747475555
31
0.0000000000
11
12.8234731348
21
29.3612541443
31
0.0000000000
11
12.8281768752
21
29.3488318211
31
0.0000000000
11
12.8276942491
21
29.3435414139
31
0.0000000000
0
SPLINE
5
3DB
100
AcDbEntity
8
0
100
AcDbSpline
62
7
6
CONTINUOUS
70
0
71
3
72
15
73
11
74
9
42
0.0000001000
43
0.0000001000
44
0.0000000001
12
0.2830840723
22
0.0288905041
32
0.0000000000
13
0.2545132660
23
-0.1272566330
33
0.0000000000
40
0.0000000000
40
0.0000000000
40
0.0000000000
40
0.0000000000
40
0.1018680046
40
0.2189296968
40
0.3474096568
40
0.4829133080
40
0.6206942281
40
0.7558954912
40
0.8837854688
40
1.0000000000
40
1.0000000000
40
1.0000000000
40
1.0000000000
10
14.4715488547
20
28.4698868777
30
0.0000000000
10
14.4811612578
20
28.4708678837
30
0.0000000000
10
14.5019572405
20
28.4716424345
30
0.0000000000
10
14.5348974491
20
28.4700674777
30
0.0000000000
10
14.5708214628
20
28.4658685908
30
0.0000000000
10
14.6083608446
20
28.4591929242
30
0.0000000000
10
14.6460892620
20
28.4502871549
30
0.0000000000
10
14.6825703398
20
28.4394907932
30
0.0000000000
10
14.7164141555
20
28.4272214170
30
0.0000000000
10
14.7376105333
20
28.4178324273
30
0.0000000000
10
14.7474699133
20
28.4129027373
30
0.0000000000
11
14.4715488547
21
28.4698868777
31
0.0000000000
11
14.5005058166
21
28.4712061065
31
0.0000000000
11
14.5337847222
21
28.4697572664
31
0.0000000000
11
14.5701066817
21
28.4655960355
31
0.0000000000
11
14.6080758625
21
28.4588823275
31
0.0000000000
11
14.6462331305
21
28.4498741465
31
0.0000000000
11
14.6831121230
21
28.4389176718
31
0.0000000000
11
14.7172956013
21
28.4264339547
31
0.0000000000
11
14.7474699133
21
28.4129027373
31
0.0000000000
0
SPLINE
5
3DC
100
AcDbEntity
8
0
100
AcDbSpline
62
7
6
CONTINUOUS
70
0
71
3
72
15
73
11
74
9
42
0.0000001000
43
0.0000001000
44
0.0000000001
12
0.2830840723
22
0.0288905041
32
0.0000000000
13
0.2545132660
23
-0.1272566330
33
0.0000000000
40
0.0000000000
40
0.0000000000
40
0.0000000000
40
0.0000000000
40
0.1018680046
40
0.2189296968
40
0.3474096568
40
0.4829133080
40
0.6206942281
40
0.7558954912
40
0.8837854688
40
1.0000000000
40
1.0000000000
40
1.0000000000
40
1.0000000000
10
10.4410402019
20
30.4851412041
30
0.0000000000
10
10.4506526051
20
30.4861222101
30
0.0000000000
10
10.4714485878
20
30.4868967609
30
0.0000000000
10
10.5043887963
20
30.4853218041
30
0.0000000000
10
10.5403128101
20
30.4811229172
30
0.0000000000
10
10.5778521918
20
30.4744472506
30
0.0000000000
10
10.6155806093
20
30.4655414813
30
0.0000000000
10
10.6520616870
20
30.4547451196
30
0.0000000000
10
10.6859055028
20
30.4424757434
30
0.0000000000
10
10.7071018806
20
30.4330867537
30
0.0000000000
10
10.7169612605
20
30.4281570637
30
0.0000000000
11
10.4410402019
21
30.4851412041
31
0.0000000000
11
10.4699971638
21
30.4864604329
31
0.0000000000
11
10.5032760694
21
30.4850115928
31
0.0000000000
11
10.5395980289
21
30.4808503618
31
0.0000000000
11
10.5775672098
21
30.4741366539
31
0.0000000000
11
10.6157244777
21
30.4651284729
31
0.0000000000
11
10.6526034703
21
30.4541719982
31
0.0000000000
11
10.6867869485
21
30.4416882811
31
0.0000000000
11
10.7169612605
21
30.4281570637
31
0.0000000000
0
SPLINE
5
3DD
100
AcDbEntity
8
0
100
AcDbSpline
62
7
6
CONTINUOUS
70
0
71
3
72
10
73
6
74
4
42
0.0000001000
43
0.0000001000
44
0.0000000001
12
0.1437626329
22
0.0718813165
32
0.0000000000
13
0.1599009443
23
0.0163188937
33
0.0000000000
40
0.0000000000
40
0.0000000000
40
0.0000000000
40
0.0000000000
40
0.3511381091
40
0.6840818606
40
1.0000000000
40
1.0000000000
40
1.0000000000
40
1.0000000000
10
15.4373773687
20
26.4938116800
30
0.0000000000
10
15.4542042150
20
26.5022251032
30
0.0000000000
10
15.4878392053
20
26.5169976385
30
0.0000000000
10
15.5391296444
20
26.5328759638
30
0.0000000000
10
15.5734944410
20
26.5389005960
30
0.0000000000
10
15.5903329772
20
26.5406190741
30
0.0000000000
11
15.4373773687
21
26.4938116800
31
0.0000000000
11
15.4891163183
21
26.5163602304
31
0.0000000000
11
15.5402884052
21
26.5320198853
31
0.0000000000
11
15.5903329772
21
26.5406190741
31
0.0000000000
0
SPLINE
5
3DE
100
AcDbEntity
8
0
100
AcDbSpline
62
7
6
CONTINUOUS
70
0
71
3
72
11
73
7
74
5
42
0.0000001000
43
0.0000001000
44
0.0000000001
12
0.0145939321
22
0.0613302985
32
0.0000000000
13
0.0614548224
23
0.0062718499
33
0.0000000000
40
0.0000000000
40
0.0000000000
40
0.0000000000
40
0.0000000000
40
0.0966540175
40
0.3156819854
40
0.6136554429
40
1.0000000000
40
1.0000000000
40
1.0000000000
40
1.0000000000
10
12.4681015007
20
28.2457256818
30
0.0000000000
10
12.4685716881
20
28.2477016217
30
0.0000000000
10
12.4711336963
20
28.2539260828
30
0.0000000000
10
12.4817626002
20
28.2617946251
30
0.0000000000
10
12.4993776728
20
28.2678702644
30
0.0000000000
10
12.5133889246
20
28.2700443822
30
0.0000000000
10
12.5213031700
20
28.2708520806
30
0.0000000000
11
12.4681015007
21
28.2457256818
31
0.0000000000
11
12.4704129350
21
28.2513091268
31
0.0000000000
11
12.4805974219
21
28.2602166322
31
0.0000000000
11
12.4977809514
21
28.2668154801
31
0.0000000000
11
12.5213031700
21
28.2708520806
31
0.0000000000
0
SPLINE
5
3DF
100
AcDbEntity
8
0
100
AcDbSpline
62
7
6
CONTINUOUS
70
0
71
3
72
13
73
9
74
7
42
0.0000001000
43
0.0000001000
44
0.0000000001
12
0.0000000000
22
1.0295482093
32
0.0000000000
13
0.9208559129
23
0.4604279564
33
0.0000000000
40
0.0000000000
40
0.0000000000
40
0.0000000000
40
0.0000000000
40
0.1614219316
40
0.3342559043
40
0.5116973510
40
0.6862432064
40
0.8508246292
40
1.0000000000
40
1.0000000000
40
1.0000000000
40
1.0000000000
10
14.5788344892
20
25.4583224577
30
0.0000000000
10
14.5788344892
20
25.5137196779
30
0.0000000000
10
14.5915220671
20
25.6285923777
30
0.0000000000
10
14.6412143854
20
25.7977877045
30
0.0000000000
10
14.7191458421
20
25.9610092154
30
0.0000000000
10
14.8202994913
20
26.1075778837
30
0.0000000000
10
14.9380465269
20
26.2279776321
30
0.0000000000
10
15.0280195620
20
26.2891327767
30
0.0000000000
10
15.0738092361
20
26.3120276137
30
0.0000000000
11
14.5788344892
21
25.4583224577
31
0.0000000000
11
14.5957003448
21
25.6236560930
31
0.0000000000
11
14.6451485311
21
25.7945883699
31
0.0000000000
11
14.7238092361
21
25.9594705361
31
0.0000000000
11
14.8263218627
21
26.1070661444
31
0.0000000000
11
14.9457003448
21
26.2273167980
31
0.0000000000
11
15.0738092361
21
26.3120276137
31
0.0000000000
0
SPLINE
5
3E0
100
AcDbEntity
8
0
100
AcDbSpline
62
7
6
CONTINUOUS
70
0
71
3
72
12
73
8
74
6
42
0.0000001000
43
0.0000001000
44
0.0000000001
12
0.0082175243
22
0.1109275219
32
0.0000000000
13
0.0998959363
23
0.0498775528
33
0.0000000000
40
0.0000000000
40
0.0000000000
40
0.0000000000
40
0.0000000000
40
0.2659770126
40
0.5082935587
40
0.7298118726
40
0.9374528333
40
1.0000000000
40
1.0000000000
40
1.0000000000
40
1.0000000000
10
12.9765498237
20
25.8415479060
30
0.0000000000
10
12.9772783812
20
25.8513826296
30
0.0000000000
10
12.9801315436
20
25.8701260486
30
0.0000000000
10
12.9893330019
20
25.8957826229
30
0.0000000000
10
13.0031077302
20
25.9168520257
30
0.0000000000
10
13.0171126638
20
25.9289400254
30
0.0000000000
10
13.0259001441
20
25.9338469663
30
0.0000000000
10
13.0279828801
20
25.9348868662
30
0.0000000000
11
12.9765498237
21
25.8415479060
31
0.0000000000
11
12.9812378796
21
25.8707591264
31
0.0000000000
11
12.9905960695
21
25.8960356139
31
0.0000000000
11
13.0043035008
21
25.9165106375
31
0.0000000000
11
13.0218901455
21
25.9314821083
31
0.0000000000
11
13.0279828801
21
25.9348868662
31
0.0000000000
0
SPLINE
5
3E1
100
AcDbEntity
8
0
100
AcDbSpline
62
7
6
CONTINUOUS
70
0
71
3
72
10
73
6
74
4
42
0.0000001000
43
0.0000001000
44
0.0000000001
12
-0.0785396275
22
-0.2481659734
32
0.0000000000
13
-0.0000000000
23
-0.2599945207
33
0.0000000000
40
0.0000000000
40
0.0000000000
40
0.0000000000
40
0.0000000000
40
0.1080850081
40
0.5389369800
40
1.0000000000
40
1.0000000000
40
1.0000000000
40
1.0000000000
10
-1.9309013504
20
-3.6188147747
30
0.0000000000
10
-1.9337310025
20
-3.6277557818
30
0.0000000000
10
-1.9469068248
20
-3.6726329040
30
0.0000000000
10
-1.9631131912
20
-3.7580490680
30
0.0000000000
10
-1.9674641905
20
-3.8354527688
30
0.0000000000
10
-1.9674641905
20
-3.8754107217
30
0.0000000000
11
-1.9309013504
21
-3.6188147747
31
0.0000000000
11
-1.9388372364
21
-3.6458027230
31
0.0000000000
11
-1.9602658733
21
-3.7557531842
31
0.0000000000
11
-1.9674641905
21
-3.8754107217
31
0.0000000000
0
SPLINE
5
3E2
100
AcDbEntity
8
0
100
AcDbSpline
62
7
6
CONTINUOUS
70
0
71
3
72
8
73
4
74
2
42
0.0000001000
43
0.0000001000
44
0.0000000001
12
0.0865974986
22
-0.0432987493
32
0.0000000000
13
0.0916626545
23
-0.0315509231
33
0.0000000000
40
0.0000000000
40
0.0000000000
40
0.0000000000
40
0.0000000000
40
1.0000000000
40
1.0000000000
40
1.0000000000
40
1.0000000000
10
9.9119297334
20
-16.5701058332
30
0.0000000000
10
9.9407955663
20
-16.5845387497
30
0.0000000000
10
9.9705781758
20
-16.5972718016
30
0.0000000000
10
10.0011323940
20
-16.6077887760
30
0.0000000000
11
9.9119297334
21
-16.5701058332
31
0.0000000000
11
10.0011323940
21
-16.6077887760
31
0.0000000000
0
SPLINE
5
3E3
100
AcDbEntity
8
0
100
AcDbSpline
62
7
6
CONTINUOUS
70
0
71
3
72
18
73
14
74
12
42
0.0000001000
43
0.0000001000
44
0.0000000001
12
0.0000000000
22
-1.4722406319
32
0.0000000000
13
1.3168120529
23
-0.6584060264
33
0.0000000000
40
0.0000000000
40
0.0000000000
40
0.0000000000
40
0.0000000000
40
0.0863037731
40
0.1767205076
40
0.2704942810
40
0.3662979814
40
0.4632697915
40
0.5598077485
40
0.6550544217
40
0.7474912273
40
0.8364025007
40
0.9207148741
40
1.0000000000
40
1.0000000000
40
1.0000000000
40
1.0000000000
10
-1.9674641905
20
-9.7643834675
30
0.0000000000
10
-1.9674641905
20
-9.8067367746
30
0.0000000000
10
-1.9622882857
20
-9.8935177346
30
0.0000000000
10
-1.9406133499
20
-10.0246873508
30
0.0000000000
10
-1.9052757849
20
-10.1576816221
30
0.0000000000
10
-1.8569545890
20
-10.2899374983
30
0.0000000000
10
-1.7966618480
20
-10.4186789143
30
0.0000000000
10
-1.7255415842
20
-10.5414543515
30
0.0000000000
10
-1.6451110914
20
-10.6556429194
30
0.0000000000
10
-1.5568977771
20
-10.7590768653
30
0.0000000000
10
-1.4627397531
20
-10.8495935431
30
0.0000000000
10
-1.3644382003
20
-10.9254511111
30
0.0000000000
10
-1.2951586125
20
-10.9665616603
30
0.0000000000
10
-1.2603574093
20
-10.9839622618
30
0.0000000000
11
-1.9674641905
21
-9.7643834675
31
0.0000000000
11
-1.9602658733
21
-9.8912393222
31
0.0000000000
11
-1.9388372364
21
-10.0226184203
31
0.0000000000
11
-1.9035641868
21
-10.1560938924
31
0.0000000000
11
-1.8552581513
21
-10.2886100401
31
0.0000000000
11
-1.7947297417
21
-10.4179096781
31
0.0000000000
11
-1.7234407824
21
-10.5408649449
31
0.0000000000
11
-1.6425786898
21
-10.6554278505
31
0.0000000000
11
-1.5541005648
21
-10.7588294824
31
0.0000000000
11
-1.4595184603
21
-10.8493210211
31
0.0000000000
11
-1.3609960803
21
-10.9248268242
31
0.0000000000
11
-1.2603574093
21
-10.9839622618
31
0.0000000000
0
SPLINE
5
3E4
100
AcDbEntity
8
DEFAULT_3
100
AcDbSpline
62
8
6
PHANTOM
70
0
71
3
72
9
73
5
74
3
42
0.0000001000
43
0.0000001000
44
0.0000000001
12
0.1671547881
22
0.0451872072
32
0.0000000000
13
0.1548744185
23
0.0774372093
33
0.0000000000
40
0.0000000000
40
0.0000000000
40
0.0000000000
40
0.0000000000
40
0.5146679629
40
1.0000000000
40
1.0000000000
40
1.0000000000
40
1.0000000000
10
9.5023879060
20
-11.7376368342
30
0.0000000000
10
9.5310643107
20
-11.7298846983
30
0.0000000000
10
9.5861861007
20
-11.7124855986
30
0.0000000000
10
9.6393871877
20
-11.6897702912
30
0.0000000000
10
9.6644423600
20
-11.6772427050
30
0.0000000000
11
9.5023879060
21
-11.7376368342
31
0.0000000000
11
9.5872943877
21
-11.7105670063
31
0.0000000000
11
9.6644423600
21
-11.6772427050
31
0.0000000000
0
SPLINE
5
3E5
100
AcDbEntity
8
DEFAULT_3
100
AcDbSpline
62
9
6
PHANTOM
70
0
71
3
72
13
73
9
74
7
42
0.0000001000
43
0.0000001000
44
0.0000000001
12
0.0000000000
22
1.0295482093
32
0.0000000000
13
0.9208559129
23
0.4604279564
33
0.0000000000
40
0.0000000000
40
0.0000000000
40
0.0000000000
40
0.0000000000
40
0.1614219316
40
0.3342559043
40
0.5116973510
40
0.6862432064
40
0.8508246292
40
1.0000000000
40
1.0000000000
40
1.0000000000
40
1.0000000000
10
8.4623608320
20
-10.2721385822
30
0.0000000000
10
8.4623608320
20
-10.2167413619
30
0.0000000000
10
8.4750484098
20
-10.1018686621
30
0.0000000000
10
8.5247407282
20
-9.9326733353
30
0.0000000000
10
8.6026721848
20
-9.7694518244
30
0.0000000000
10
8.7038258340
20
-9.6228831561
30
0.0000000000
10
8.8215728696
20
-9.5024834077
30
0.0000000000
10
8.9115459047
20
-9.4413282631
30
0.0000000000
10
8.9573355788
20
-9.4184334261
30
0.0000000000
11
8.4623608320
21
-10.2721385822
31
0.0000000000
11
8.4792266875
21
-10.1068049468
31
0.0000000000
11
8.5286748738
21
-9.9358726699
31
0.0000000000
11
8.6073355788
21
-9.7709905038
31
0.0000000000
11
8.7098482054
21
-9.6233948954
31
0.0000000000
11
8.8292266875
21
-9.5031442418
31
0.0000000000
11
8.9573355788
21
-9.4184334261
31
0.0000000000
0
SPLINE
5
3E6
100
AcDbEntity
8
DEFAULT_3
100
AcDbSpline
62
9
6
PHANTOM
70
0
71
3
72
15
73
11
74
9
42
0.0000001000
43
0.0000001000
44
0.0000000001
12
-0.2934493762
22
0.1467246881
32
0.0000000000
13
0.0000000000
23
-0.3280863766
33
0.0000000000
40
0.0000000000
40
0.0000000000
40
0.0000000000
40
0.0000000000
40
0.1346116025
40
0.2569731317
40
0.3701982823
40
0.4800299252
40
0.5933870116
40
0.7161030409
40
0.8514445920
40
1.0000000000
40
1.0000000000
40
1.0000000000
40
1.0000000000
10
-2.7806369889
20
-4.6506396717
30
0.0000000000
10
-2.7938042191
20
-4.6440560566
30
0.0000000000
10
-2.8201903746
20
-4.6337111488
30
0.0000000000
10
-2.8607086509
20
-4.6279736778
30
0.0000000000
10
-2.8986889440
20
-4.6334609163
30
0.0000000000
10
-2.9321234767
20
-4.6503457072
30
0.0000000000
10
-2.9591376644
20
-4.6776673138
30
0.0000000000
10
-2.9786981347
20
-4.7137769313
30
0.0000000000
10
-2.9904099425
20
-4.7569983759
30
0.0000000000
10
-2.9927690232
20
-4.7881349405
30
0.0000000000
10
-2.9927690232
20
-4.8043812757
30
0.0000000000
11
-2.7806369889
21
-4.6506396717
31
0.0000000000
11
-2.8219255732
21
-4.6349638217
31
0.0000000000
11
-2.8617406782
21
-4.6298266495
31
0.0000000000
11
-2.8984546131
21
-4.6354864513
31
0.0000000000
11
-2.9306225218
21
-4.6517251077
31
0.0000000000
11
-2.9570224315
21
-4.6779206986
31
0.0000000000
11
-2.9766407543
21
-4.7130790028
31
0.0000000000
11
-2.9887070645
21
-4.7558118290
31
0.0000000000
11
-2.9927690232
21
-4.8043812757
31
0.0000000000
0
SPLINE
5
3E7
100
AcDbEntity
8
DEFAULT_3
100
AcDbSpline
62
9
6
PHANTOM
70
0
71
3
72
11
73
7
74
5
42
0.0000001000
43
0.0000001000
44
0.0000000001
12
-0.4145391865
22
0.2072695934
32
0.0000000000
13
-0.4163942210
23
-0.2082351517
33
0.0000000000
40
0.0000000000
40
0.0000000000
40
0.0000000000
40
0.0000000000
40
0.3183911282
40
0.6068918003
40
0.8738576936
40
1.0000000000
40
1.0000000000
40
1.0000000000
40
1.0000000000
10
-2.2856622421
20
-3.7969345157
30
0.0000000000
10
-2.3296574418
20
-3.7749369158
30
0.0000000000
10
-2.4177005931
20
-3.7404427669
30
0.0000000000
10
-2.5528209388
20
-3.7213844898
30
0.0000000000
10
-2.6586834234
20
-3.7367363157
30
0.0000000000
10
-2.7153480085
20
-3.7598160070
30
0.0000000000
10
-2.7328563176
20
-3.7685717611
30
0.0000000000
11
-2.2856622421
21
-3.7969345157
31
0.0000000000
11
-2.4236325449
21
-3.7445948217
31
0.0000000000
11
-2.5562537797
21
-3.7275577017
31
0.0000000000
11
-2.6785304067
21
-3.7464689589
31
0.0000000000
11
-2.7328563176
21
-3.7685717611
31
0.0000000000
0
SPLINE
5
3E8
100
AcDbEntity
8
DEFAULT_3
100
AcDbSpline
62
9
6
PHANTOM
70
0
71
3
72
13
73
9
74
7
42
0.0000001000
43
0.0000001000
44
0.0000000001
12
-0.0000000381
22
1.0295482156
32
0.0000000000
13
0.9208559355
23
0.4604279252
33
0.0000000000
40
0.0000000000
40
0.0000000000
40
0.0000000000
40
0.0000000000
40
0.1614214415
40
0.3342550947
40
0.5116964618
40
0.6862424767
40
0.8508242309
40
1.0000000000
40
1.0000000000
40
1.0000000000
40
1.0000000000
10
-2.7806369889
20
-4.6506396717
30
0.0000000000
10
-2.7806369909
20
-4.5952426194
30
0.0000000000
10
-2.7679494851
20
-4.4803701971
30
0.0000000000
10
-2.7182573639
20
-4.3111751321
30
0.0000000000
10
-2.6403260670
20
-4.1479536358
30
0.0000000000
10
-2.5391724462
20
-4.0013847732
30
0.0000000000
10
-2.4214252695
20
-3.8809847304
30
0.0000000000
10
-2.3314520391
20
-3.8198294125
30
0.0000000000
10
-2.2856622416
20
-3.7969345159
30
0.0000000000
11
-2.7806369889
21
-4.6506396717
31
0.0000000000
11
-2.7637712366
21
-4.4853065320
31
0.0000000000
11
-2.7143232534
21
-4.3143745376
31
0.0000000000
11
-2.6356627117
21
-4.1494923833
31
0.0000000000
11
-2.5331501036
21
-4.0018965608
31
0.0000000000
11
-2.4137714542
21
-3.8816455909
31
0.0000000000
11
-2.2856622416
21
-3.7969345159
31
0.0000000000
0
SPLINE
5
3E9
100
AcDbEntity
8
DEFAULT_3
100
AcDbSpline
62
9
6
PHANTOM
70
0
71
3
72
10
73
6
74
4
42
0.0000001000
43
0.0000001000
44
0.0000000001
12
-0.3005874192
22
0.1502937096
32
0.0000000000
13
0.0000000000
23
0.3375846797
33
0.0000000000
40
0.0000000000
40
0.0000000000
40
0.0000000000
40
0.0000000000
40
0.3950875622
40
0.7212632404
40
1.0000000000
40
1.0000000000
40
1.0000000000
40
1.0000000000
10
-2.9927690232
20
-4.8043812757
30
0.0000000000
10
-3.0323551401
20
-4.7845882172
30
0.0000000000
10
-3.1016735569
20
-4.7415247748
30
0.0000000000
10
-3.1779835766
20
-4.6563293794
30
0.0000000000
10
-3.1977942764
20
-4.5882596555
30
0.0000000000
10
-3.1977942764
20
-4.5568939023
30
0.0000000000
11
-2.9927690232
21
-4.8043812757
31
0.0000000000
11
-3.1040120591
21
-4.7318939023
31
0.0000000000
11
-3.1739423548
21
-4.6474805681
31
0.0000000000
11
-3.1977942764
21
-4.5568939023
31
0.0000000000
0
SPLINE
5
3EA
100
AcDbEntity
8
DEFAULT_3
100
AcDbSpline
62
9
6
PHANTOM
70
0
71
3
72
12
73
8
74
6
42
0.0000001000
43
0.0000001000
44
0.0000000001
12
0.5661440150
22
0.2831297249
32
0.0000000000
13
-0.0000000001
23
0.6301510482
33
0.0000000000
40
0.0000000000
40
0.0000000000
40
0.0000000000
40
0.0000000000
40
0.0976850154
40
0.2942478993
40
0.5070337685
40
0.7417162148
40
1.0000000000
40
1.0000000000
40
1.0000000000
40
1.0000000000
10
9.4045325405
20
-17.1544208310
30
0.0000000000
10
9.4229671361
20
-17.1452016538
30
0.0000000000
10
9.4762436526
20
-17.1129239152
30
0.0000000000
10
9.5522966130
20
-17.0360053106
30
0.0000000000
10
9.6174697999
20
-16.9157606804
30
0.0000000000
10
9.6565586781
20
-16.7716863775
30
0.0000000000
10
9.6644423600
20
-16.6678401059
30
0.0000000000
10
9.6644423600
20
-16.6135875066
30
0.0000000000
11
9.4045325405
21
-17.1544208310
31
0.0000000000
11
9.4573334292
21
-17.1224081096
31
0.0000000000
11
9.5452571606
21
-17.0351625706
31
0.0000000000
11
9.6106186432
21
-16.9180845447
31
0.0000000000
11
9.6508502837
21
-16.7757767672
31
0.0000000000
11
9.6644423600
21
-16.6135875066
31
0.0000000000
0
SPLINE
5
3EB
100
AcDbEntity
8
DEFAULT_3
100
AcDbSpline
62
9
6
PHANTOM
70
0
71
3
72
15
73
11
74
9
42
0.0000001000
43
0.0000001000
44
0.0000000001
12
0.0000000000
22
-0.4415069424
32
0.0000000000
13
0.3948958143
23
-0.1974479071
33
0.0000000000
40
0.0000000000
40
0.0000000000
40
0.0000000000
40
0.0000000000
40
0.1194829538
40
0.2465587058
40
0.3783225596
40
0.5116009549
40
0.6432581239
40
0.7702695370
40
0.8898759691
40
1.0000000000
40
1.0000000000
40
1.0000000000
40
1.0000000000
10
-2.9927690232
20
-10.7799565618
30
0.0000000000
10
-2.9927690232
20
-10.7975407463
30
0.0000000000
10
-2.9897817709
20
-10.8338632488
30
0.0000000000
10
-2.9776092877
20
-10.8883437746
30
0.0000000000
10
-2.9580302411
20
-10.9427843541
30
0.0000000000
10
-2.9317841348
20
-10.9950883308
30
0.0000000000
10
-2.8998578731
20
-11.0433007764
30
0.0000000000
10
-2.8634321969
20
-11.0856172011
30
0.0000000000
10
-2.8238999823
20
-11.1204279874
30
0.0000000000
10
-2.7951328285
20
-11.1385822803
30
0.0000000000
10
-2.7806369889
20
-11.1458302001
30
0.0000000000
11
-2.9927690232
21
-10.7799565618
31
0.0000000000
11
-2.9887123073
21
-10.8325529016
31
0.0000000000
11
-2.9766523422
21
-10.8873462299
31
0.0000000000
11
-2.9570427322
21
-10.9421162383
31
0.0000000000
11
-2.9306514310
21
-10.9947093701
31
0.0000000000
11
-2.8984851027
21
-11.0431256883
31
0.0000000000
11
-2.8617693207
21
-11.0855110196
31
0.0000000000
11
-2.8219520637
21
-11.1201977995
31
0.0000000000
11
-2.7806369889
21
-11.1458302001
31
0.0000000000
0
SPLINE
5
3EC
100
AcDbEntity
8
DEFAULT_3
100
AcDbSpline
62
9
6
PHANTOM
70
0
71
3
72
10
73
6
74
4
42
0.0000001000
43
0.0000001000
44
0.0000000001
12
-0.3005870164
22
0.1502934915
32
0.0000000000
13
-0.0000008573
23
0.3375842196
33
0.0000000000
40
0.0000000000
40
0.0000000000
40
0.0000000000
40
0.0000000000
40
0.3950870439
40
0.7212628513
40
1.0000000000
40
1.0000000000
40
1.0000000000
40
1.0000000000
10
-2.9927690232
20
-10.7799565618
30
0.0000000000
10
-3.0323550352
20
-10.7601635580
30
0.0000000000
10
-3.1016733268
20
-10.7171002167
30
0.0000000000
10
-3.1779833331
20
-10.6319050452
30
0.0000000000
10
-3.1977941968
20
-10.5638354143
30
0.0000000000
10
-3.1977942764
20
-10.5324696600
30
0.0000000000
11
-2.9927690232
21
-10.7799565618
31
0.0000000000
11
-3.1040117907
21
-10.7074694269
31
0.0000000000
11
-3.1739421364
21
-10.6230562716
31
0.0000000000
11
-3.1977942764
21
-10.5324696600
31
0.0000000000
0
SPLINE
5
3ED
100
AcDbEntity
8
DEFAULT_3
100
AcDbSpline
62
9
6
PHANTOM
70
0
71
3
72
11
73
7
74
5
42
0.0000001000
43
0.0000001000
44
0.0000000001
12
0.0000000000
22
-0.4402703408
32
0.0000000000
13
0.3972664066
23
-0.1977811180
33
0.0000000000
40
0.0000000000
40
0.0000000000
40
0.0000000000
40
0.0000000000
40
0.3393884870
40
0.6373012225
40
0.9023924640
40
1.0000000000
40
1.0000000000
40
1.0000000000
40
1.0000000000
10
-2.7806369889
20
-11.1458302001
30
0.0000000000
10
-2.7806369889
20
-11.1956377617
30
0.0000000000
10
-2.7713555261
20
-11.2896978133
30
0.0000000000
10
-2.7233617043
20
-11.4152874743
30
0.0000000000
10
-2.6576641485
20
-11.4901577654
30
0.0000000000
10
-2.6115868157
20
-11.5179057677
30
0.0000000000
10
-2.5986614174
20
-11.5243407436
30
0.0000000000
11
-2.7806369889
21
-11.1458302001
31
0.0000000000
11
-2.7637711334
21
-11.2942979800
31
0.0000000000
11
-2.7143229470
21
-11.4157820705
31
0.0000000000
11
-2.6356622421
21
-11.5020035317
31
0.0000000000
11
-2.5986614174
21
-11.5243407436
31
0.0000000000
0
SPLINE
5
3EE
100
AcDbEntity
8
DEFAULT_3
100
AcDbSpline
62
9
6
PHANTOM
70
0
71
3
72
15
73
11
74
9
42
0.0000001000
43
0.0000001000
44
0.0000000001
12
0.2934493762
22
-0.1467246881
32
0.0000000000
13
0.0000000000
23
0.3280863766
33
0.0000000000
40
0.0000000000
40
0.0000000000
40
0.0000000000
40
0.0000000000
40
0.1346116025
40
0.2569731317
40
0.3701982823
40
0.4800299252
40
0.5933870116
40
0.7161030409
40
0.8514445920
40
1.0000000000
40
1.0000000000
40
1.0000000000
40
1.0000000000
10
8.4623608320
20
-16.7673291105
30
0.0000000000
10
8.4755280622
20
-16.7739127257
30
0.0000000000
10
8.5019142177
20
-16.7842576335
30
0.0000000000
10
8.5424324940
20
-16.7899951044
30
0.0000000000
10
8.5804127871
20
-16.7845078659
30
0.0000000000
10
8.6138473198
20
-16.7676230751
30
0.0000000000
10
8.6408615075
20
-16.7403014685
30
0.0000000000
10
8.6604219778
20
-16.7041918510
30
0.0000000000
10
8.6721337856
20
-16.6609704064
30
0.0000000000
10
8.6744928663
20
-16.6298338418
30
0.0000000000
10
8.6744928663
20
-16.6135875066
30
0.0000000000
11
8.4623608320
21
-16.7673291105
31
0.0000000000
11
8.5036494163
21
-16.7830049606
31
0.0000000000
11
8.5434645214
21
-16.7881421328
31
0.0000000000
11
8.5801784562
21
-16.7824823309
31
0.0000000000
11
8.6123463649
21
-16.7662436745
31
0.0000000000
11
8.6387462746
21
-16.7400480837
31
0.0000000000
11
8.6583645974
21
-16.7048897794
31
0.0000000000
11
8.6704309076
21
-16.6621569533
31
0.0000000000
11
8.6744928663
21
-16.6135875066
31
0.0000000000
0
SPLINE
5
3EF
100
AcDbEntity
8
DEFAULT_3
100
AcDbSpline
62
9
6
PHANTOM
70
0
71
3
72
11
73
7
74
5
42
0.0000001000
43
0.0000001000
44
0.0000000001
12
0.0000000163
22
-0.4402703358
32
0.0000000000
13
0.3972663949
23
-0.1977811669
33
0.0000000000
40
0.0000000000
40
0.0000000000
40
0.0000000000
40
0.0000000000
40
0.3393875700
40
0.6372999670
40
0.9023912170
40
1.0000000000
40
1.0000000000
40
1.0000000000
40
1.0000000000
10
8.4623608320
20
-16.7673291105
30
0.0000000000
10
8.4623608338
20
-16.8171365370
30
0.0000000000
10
8.4716422569
20
-16.9111963977
30
0.0000000000
10
8.5196358741
20
-17.0367859228
30
0.0000000000
10
8.5853333692
20
-17.1116564388
30
0.0000000000
10
8.6314108368
20
-17.1394045907
30
0.0000000000
10
8.6443363999
20
-17.1458396504
30
0.0000000000
11
8.4623608320
21
-16.7673291105
31
0.0000000000
11
8.4792265942
21
-16.9157964930
31
0.0000000000
11
8.5286745835
21
-17.0372805012
31
0.0000000000
11
8.6073351272
21
-17.1235021128
31
0.0000000000
11
8.6443363999
21
-17.1458396504
31
0.0000000000
0
SPLINE
5
3F0
100
AcDbEntity
8
DEFAULT_3
100
AcDbSpline
62
9
6
PHANTOM
70
0
71
3
72
13
73
9
74
7
42
0.0000001000
43
0.0000001000
44
0.0000000001
12
0.9109801728
22
-0.4554900864
32
0.0000000000
13
0.9109801728
23
0.4554900864
33
0.0000000000
40
0.0000000000
40
0.0000000000
40
0.0000000000
40
0.0000000000
40
0.1524570658
40
0.3217337100
40
0.5000000000
40
0.6782662900
40
0.8475429342
40
1.0000000000
40
1.0000000000
40
1.0000000000
40
1.0000000000
10
8.6744928663
20
-16.6135875066
30
0.0000000000
10
8.7207879877
20
-16.6367350673
30
0.0000000000
10
8.8238931098
20
-16.6749285453
30
0.0000000000
10
8.9908029704
20
-16.7085183156
30
0.0000000000
10
9.1694676132
20
-16.7199890987
30
0.0000000000
10
9.3481322559
20
-16.7085183156
30
0.0000000000
10
9.5150421166
20
-16.6749285453
30
0.0000000000
10
9.6181472386
20
-16.6367350673
30
0.0000000000
10
9.6644423600
20
-16.6135875066
30
0.0000000000
11
8.6744928663
21
-16.6135875066
31
0.0000000000
11
8.8194676132
21
-16.6692090245
31
0.0000000000
11
8.9882942816
21
-16.7041741724
31
0.0000000000
11
9.1694676132
21
-16.7161001332
31
0.0000000000
11
9.3506409447
21
-16.7041741724
31
0.0000000000
11
9.5194676132
21
-16.6692090245
31
0.0000000000
11
9.6644423600
21
-16.6135875066
31
0.0000000000
0
SPLINE
5
3F1
100
AcDbEntity
8
DEFAULT_3
100
AcDbSpline
62
9
6
PHANTOM
70
0
71
3
72
15
73
11
74
9
42
0.0000001000
43
0.0000001000
44
0.0000000001
12
0.0000000000
22
0.4415069424
32
0.0000000000
13
-0.3948958143
23
0.1974479071
33
0.0000000000
40
0.0000000000
40
0.0000000000
40
0.0000000000
40
0.0000000000
40
0.1194829538
40
0.2465587058
40
0.3783225596
40
0.5116009549
40
0.6432581239
40
0.7702695370
40
0.8898759691
40
1.0000000000
40
1.0000000000
40
1.0000000000
40
1.0000000000
10
8.6744928663
20
-10.6380122205
30
0.0000000000
10
8.6744928663
20
-10.6204280359
30
0.0000000000
10
8.6715056140
20
-10.5841055335
30
0.0000000000
10
8.6593331308
20
-10.5296250076
30
0.0000000000
10
8.6397540842
20
-10.4751844281
30
0.0000000000
10
8.6135079779
20
-10.4228804514
30
0.0000000000
10
8.5815817162
20
-10.3746680058
30
0.0000000000
10
8.5451560400
20
-10.3323515812
30
0.0000000000
10
8.5056238254
20
-10.2975407948
30
0.0000000000
10
8.4768566716
20
-10.2793865020
30
0.0000000000
10
8.4623608320
20
-10.2721385822
30
0.0000000000
11
8.6744928663
21
-10.6380122205
31
0.0000000000
11
8.6704361504
21
-10.5854158806
31
0.0000000000
11
8.6583761853
21
-10.5306225523
31
0.0000000000
11
8.6387665753
21
-10.4758525439
31
0.0000000000
11
8.6123752741
21
-10.4232594122
31
0.0000000000
11
8.5802089458
21
-10.3748430939
31
0.0000000000
11
8.5434931638
21
-10.3324577627
31
0.0000000000
11
8.5036759068
21
-10.2977709827
31
0.0000000000
11
8.4623608320
21
-10.2721385822
31
0.0000000000
0
SPLINE
5
3F2
100
AcDbEntity
8
DEFAULT_3
100
AcDbSpline
62
9
6
PHANTOM
70
0
71
3
72
15
73
11
74
9
42
0.0000001000
43
0.0000001000
44
0.0000000001
12
0.0000000004
22
1.4716894208
32
0.0000000000
13
-1.3163190347
23
0.6581595171
33
0.0000000000
40
0.0000000000
40
0.0000000000
40
0.0000000000
40
0.0000000000
40
0.1197933110
40
0.2468064309
40
0.3784866639
40
0.5116632679
40
0.6432080439
40
0.7701227032
40
0.8896570936
40
1.0000000000
40
1.0000000000
40
1.0000000000
40
1.0000000000
10
9.6644423600
20
-10.6380122205
30
0.0000000000
10
9.6644423600
20
-10.5792460376
30
0.0000000000
10
9.6544476455
20
-10.4580489995
30
0.0000000000
10
9.6138077529
20
-10.2763806803
30
0.0000000000
10
9.5485487037
20
-10.0950405827
30
0.0000000000
10
9.4611107681
20
-9.9208341737
30
0.0000000000
10
9.3547730569
20
-9.7602554944
30
0.0000000000
10
9.2334599120
20
-9.6192930747
30
0.0000000000
10
9.1016925310
20
-9.5032153258
30
0.0000000000
10
9.0057510681
20
-9.4426411707
30
0.0000000000
10
8.9573355788
20
-9.4184334261
30
0.0000000000
11
9.6644423600
21
-10.6380122205
31
0.0000000000
11
9.6508514009
21
-10.4622383202
31
0.0000000000
11
9.6106197588
21
-10.2796953219
31
0.0000000000
11
9.5452595579
21
-10.0972575497
31
0.0000000000
11
9.4573377284
21
-9.9220901018
31
0.0000000000
11
9.3502073311
21
-9.7608407640
31
0.0000000000
11
9.2279298097
21
-9.6196508627
31
0.0000000000
11
9.0953114975
21
-9.5040682112
31
0.0000000000
11
8.9573355788
21
-9.4184334261
31
0.0000000000
0
SPLINE
5
3F3
100
AcDbEntity
8
DEFAULT_3
100
AcDbSpline
62
9
6
PHANTOM
70
0
71
3
72
13
73
9
74
7
42
0.0000001000
43
0.0000001000
44
0.0000000001
12
0.9109801876
22
-0.4554900433
32
0.0000000000
13
0.9109801880
23
0.4554900425
33
0.0000000000
40
0.0000000000
40
0.0000000000
40
0.0000000000
40
0.0000000000
40
0.1524565913
40
0.3217329039
40
0.4999990980
40
0.6782655428
40
0.8475425272
40
1.0000000000
40
1.0000000000
40
1.0000000000
40
1.0000000000
10
8.6744928663
20
-10.6380122205
30
0.0000000000
10
8.7207878444
20
-10.6611597069
30
0.0000000000
10
8.8238926929
20
-10.6993531170
30
0.0000000000
10
8.9908022330
20
-10.7329429152
30
0.0000000000
10
9.1694667746
20
-10.7444138023
30
0.0000000000
10
9.3481315594
20
-10.7329431197
30
0.0000000000
10
9.5150417385
20
-10.6993533765
30
0.0000000000
10
9.6181471143
20
-10.6611598412
30
0.0000000000
10
9.6644423600
20
-10.6380122210
30
0.0000000000
11
8.6744928663
21
-10.6380122205
31
0.0000000000
11
8.8194671483
21
-10.6936335981
31
0.0000000000
11
8.9882934664
21
-10.7285987672
31
0.0000000000
11
9.1694666919
21
-10.7405248360
31
0.0000000000
11
9.3506401872
21
-10.7285989781
31
0.0000000000
11
9.5194672123
21
-10.6936338484
31
0.0000000000
11
9.6644423600
21
-10.6380122210
31
0.0000000000
0
SPLINE
5
3F4
100
AcDbEntity
8
DEFAULT_3
100
AcDbSpline
62
8
6
PHANTOM
70
0
71
3
72
9
73
5
74
3
42
0.0000001000
43
0.0000001000
44
0.0000000001
12
0.1671547881
22
0.0451872072
32
0.0000000000
13
0.1548744185
23
0.0774372093
33
0.0000000000
40
0.0000000000
40
0.0000000000
40
0.0000000000
40
0.0000000000
40
0.5146679629
40
1.0000000000
40
1.0000000000
40
1.0000000000
40
1.0000000000
10
9.5023879060
20
-15.6347511513
30
0.0000000000
10
9.5310643107
20
-15.6269990153
30
0.0000000000
10
9.5861861007
20
-15.6095999157
30
0.0000000000
10
9.6393871877
20
-15.5868846082
30
0.0000000000
10
9.6644423600
20
-15.5743570220
30
0.0000000000
11
9.5023879060
21
-15.6347511513
31
0.0000000000
11
9.5872943877
21
-15.6076813233
31
0.0000000000
11
9.6644423600
21
-15.5743570220
31
0.0000000000
0
SPLINE
5
3F5
100
AcDbEntity
8
0
100
AcDbSpline
62
7
6
CONTINUOUS
70
0
71
3
72
10
73
6
74
4
42
0.0000001000
43
0.0000001000
44
0.0000000001
12
0.0385964994
22
-0.2352154350
32
0.0000000000
13
0.2143042211
23
-0.1077086853
33
0.0000000000
40
0.0000000000
40
0.0000000000
40
0.0000000000
40
0.0000000000
40
0.3950723213
40
0.7444362961
40
1.0000000000
40
1.0000000000
40
1.0000000000
40
1.0000000000
10
25.7747439709
20
4.0930654668
30
0.0000000000
10
25.7798267737
20
4.0620897642
30
0.0000000000
10
25.7960330129
20
4.0043423326
30
0.0000000000
10
25.8408116753
20
3.9367152222
30
0.0000000000
10
25.8805750678
20
3.9078968413
30
0.0000000000
10
25.8988311946
20
3.8987213644
30
0.0000000000
11
25.7747439709
21
4.0930654668
31
0.0000000000
11
25.8018522224
21
4.0028817429
31
0.0000000000
11
25.8492397393
21
3.9344046694
31
0.0000000000
11
25.8988311946
21
3.8987213644
31
0.0000000000
0
SPLINE
5
3F6
100
AcDbEntity
8
0
100
AcDbSpline
62
7
6
CONTINUOUS
70
0
71
3
72
10
73
6
74
4
42
0.0000001000
43
0.0000001000
44
0.0000000001
12
0.0385964994
22
-0.2352154350
32
0.0000000000
13
0.2143042211
23
-0.1077086853
33
0.0000000000
40
0.0000000000
40
0.0000000000
40
0.0000000000
40
0.0000000000
40
0.3950723213
40
0.7444362961
40
1.0000000000
40
1.0000000000
40
1.0000000000
40
1.0000000000
10
28.4971050784
20
5.4542460206
30
0.0000000000
10
28.5021878813
20
5.4232703179
30
0.0000000000
10
28.5183941204
20
5.3655228864
30
0.0000000000
10
28.5631727829
20
5.2978957760
30
0.0000000000
10
28.6029361753
20
5.2690773951
30
0.0000000000
10
28.6211923022
20
5.2599019182
30
0.0000000000
11
28.4971050784
21
5.4542460206
31
0.0000000000
11
28.5242133300
21
5.3640622967
31
0.0000000000
11
28.5716008469
21
5.2955852232
31
0.0000000000
11
28.6211923022
21
5.2599019182
31
0.0000000000
0
SPLINE
5
3F7
100
AcDbEntity
8
0
100
AcDbSpline
62
7
6
CONTINUOUS
70
0
71
3
72
9
73
5
74
3
42
0.0000001000
43
0.0000001000
44
0.0000000001
12
-0.0002514042
22
0.0547488072
32
0.0000000000
13
-0.0321299449
23
0.0443686089
33
0.0000000000
40
0.0000000000
40
0.0000000000
40
0.0000000000
40
0.0000000000
40
0.5632510403
40
1.0000000000
40
1.0000000000
40
1.0000000000
40
1.0000000000
10
29.9755420961
20
7.4605058842
30
0.0000000000
10
29.9754948949
20
7.4707849917
30
0.0000000000
10
29.9716221775
20
7.4891098163
30
0.0000000000
10
29.9624276957
20
7.5050025417
30
0.0000000000
10
29.9577501224
20
7.5114618563
30
0.0000000000
11
29.9755420961
21
7.4605058842
31
0.0000000000
11
29.9694439317
21
7.4906563571
31
0.0000000000
11
29.9577501224
21
7.5114618563
31
0.0000000000
0
SPLINE
5
3F8
100
AcDbEntity
8
0
100
AcDbSpline
62
7
6
CONTINUOUS
70
0
71
3
72
10
73
6
74
4
42
0.0000001000
43
0.0000001000
44
0.0000000001
12
0.0657473313
22
0.2086974547
32
0.0000000000
13
0.0802629179
23
0.2035617742
33
0.0000000000
40
0.0000000000
40
0.0000000000
40
0.0000000000
40
0.0000000000
40
0.3950610951
40
0.7679247344
40
1.0000000000
40
1.0000000000
40
1.0000000000
40
1.0000000000
10
24.6551061212
20
4.6904752478
30
0.0000000000
10
24.6637641921
20
4.7179579961
30
0.0000000000
10
24.6813812668
20
4.7711345313
30
0.0000000000
10
24.7061734445
20
4.8397354478
30
0.0000000000
10
24.7220287123
20
4.8809135959
30
0.0000000000
10
24.7282377250
20
4.8966608135
30
0.0000000000
11
24.6551061212
21
4.6904752478
31
0.0000000000
11
24.6822667058
21
4.7725403163
31
0.0000000000
11
24.7099896706
21
4.8492716274
31
0.0000000000
11
24.7282377250
21
4.8966608135
31
0.0000000000
0
SPLINE
5
3F9
100
AcDbEntity
8
0
100
AcDbSpline
62
7
6
CONTINUOUS
70
0
71
3
72
8
73
4
74
2
42
0.0000001000
43
0.0000001000
44
0.0000000001
12
0.0086722619
22
0.0078386914
32
0.0000000000
13
0.0085885504
23
0.0079304321
33
0.0000000000
40
0.0000000000
40
0.0000000000
40
0.0000000000
40
0.0000000000
40
1.0000000000
40
1.0000000000
40
1.0000000000
40
1.0000000000
10
25.7370861870
20
4.3231285232
30
0.0000000000
10
25.7399769410
20
4.3257414203
30
0.0000000000
10
25.7428537332
20
4.3283697646
30
0.0000000000
10
25.7457165833
20
4.3310132420
30
0.0000000000
11
25.7370861870
21
4.3231285232
31
0.0000000000
11
25.7457165833
21
4.3310132420
31
0.0000000000
0
SPLINE
5
3FA
100
AcDbEntity
8
0
100
AcDbSpline
62
7
6
CONTINUOUS
70
0
71
3
72
11
73
7
74
5
42
0.0000001000
43
0.0000001000
44
0.0000000001
12
0.3166980482
22
0.2924303015
32
0.0000000000
13
0.1771481073
23
0.3927986274
33
0.0000000000
40
0.0000000000
40
0.0000000000
40
0.0000000000
40
0.0000000000
40
0.1953852430
40
0.4712125741
40
0.7437708419
40
1.0000000000
40
1.0000000000
40
1.0000000000
40
1.0000000000
10
25.7457165833
20
4.3310132420
30
0.0000000000
10
25.7663426250
20
4.3500587638
30
0.0000000000
10
25.8143412858
20
4.3978855083
30
0.0000000000
10
25.8835265198
20
4.4795093586
30
0.0000000000
10
25.9493036371
20
4.5747559462
30
0.0000000000
10
25.9854764752
20
4.6418027515
30
0.0000000000
10
26.0006066454
20
4.6753515720
30
0.0000000000
11
25.7457165833
21
4.3310132420
31
0.0000000000
11
25.8054309194
21
4.3903889237
31
0.0000000000
11
25.8822670917
21
4.4810656996
31
0.0000000000
11
25.9487640593
21
4.5778715488
31
0.0000000000
11
26.0006066454
21
4.6753515720
31
0.0000000000
0
SPLINE
5
3FB
100
AcDbEntity
8
0
100
AcDbSpline
62
7
6
CONTINUOUS
70
0
71
3
72
8
73
4
74
2
42
0.0000001000
43
0.0000001000
44
0.0000000001
12
0.0086722618
22
0.0078386913
32
0.0000000000
13
0.0085885503
23
0.0079304321
33
0.0000000000
40
0.0000000000
40
0.0000000000
40
0.0000000000
40
0.0000000000
40
1.0000000000
40
1.0000000000
40
1.0000000000
40
1.0000000000
10
28.4594472945
20
5.6843090770
30
0.0000000000
10
28.4623380485
20
5.6869219741
30
0.0000000000
10
28.4652148407
20
5.6895503184
30
0.0000000000
10
28.4680776908
20
5.6921937958
30
0.0000000000
11
28.4594472945
21
5.6843090770
31
0.0000000000
11
28.4680776908
21
5.6921937958
31
0.0000000000
0
SPLINE
5
3FC
100
AcDbEntity
8
0
100
AcDbSpline
62
7
6
CONTINUOUS
70
0
71
3
72
11
73
7
74
5
42
0.0000001000
43
0.0000001000
44
0.0000000001
12
0.3166980481
22
0.2924303018
32
0.0000000000
13
0.1771481073
23
0.3927986274
33
0.0000000000
40
0.0000000000
40
0.0000000000
40
0.0000000000
40
0.0000000000
40
0.1953852657
40
0.4712125894
40
0.7437708492
40
1.0000000000
40
1.0000000000
40
1.0000000000
40
1.0000000000
10
28.4680776908
20
5.6921937958
30
0.0000000000
10
28.4887037349
20
5.7112393198
30
0.0000000000
10
28.5367023972
20
5.7590660660
30
0.0000000000
10
28.6058876313
20
5.8406899176
30
0.0000000000
10
28.6716647462
20
5.9359365028
30
0.0000000000
10
28.7078375832
20
6.0029833062
30
0.0000000000
10
28.7229677529
20
6.0365321258
30
0.0000000000
11
28.4680776908
21
5.6921937958
31
0.0000000000
11
28.5277920336
21
5.7515694846
31
0.0000000000
11
28.6046282032
21
5.8422462586
31
0.0000000000
11
28.6711251685
21
5.9390521053
31
0.0000000000
11
28.7229677529
21
6.0365321258
31
0.0000000000
0
SPLINE
5
3FD
100
AcDbEntity
8
0
100
AcDbSpline
62
7
6
CONTINUOUS
70
0
71
3
72
16
73
12
74
10
42
0.0000001000
43
0.0000001000
44
0.0000000001
12
0.7952301566
22
-0.3996803899
32
0.0000000000
13
0.1234583898
23
0.8758405828
33
0.0000000000
40
0.0000000000
40
0.0000000000
40
0.0000000000
40
0.0000000000
40
0.0185790117
40
0.1079582643
40
0.2069656240
40
0.3193806538
40
0.4450253943
40
0.5809163030
40
0.7223689590
40
0.8638960520
40
1.0000000000
40
1.0000000000
40
1.0000000000
40
1.0000000000
10
28.6211923022
20
5.2599019182
30
0.0000000000
10
28.6261171656
20
5.2574266960
30
0.0000000000
10
28.6553506299
20
5.2443121198
30
0.0000000000
10
28.7172355432
20
5.2343687026
30
0.0000000000
10
28.8055474296
20
5.2525705821
30
0.0000000000
10
28.8945888586
20
5.2988093146
30
0.0000000000
10
28.9798951022
20
5.3697363581
30
0.0000000000
10
29.0567581691
20
5.4610506322
30
0.0000000000
10
29.1206777259
20
5.5672986515
30
0.0000000000
10
29.1677994380
20
5.6820075802
30
0.0000000000
10
29.1867214628
20
5.7621196214
30
0.0000000000
10
29.1923225209
20
5.8018547418
30
0.0000000000
11
28.6211923022
21
5.2599019182
31
0.0000000000
11
28.6362692434
21
5.2531476010
31
0.0000000000
11
28.7141267078
21
5.2394346175
31
0.0000000000
11
28.8002469068
21
5.2553139444
31
0.0000000000
11
28.8891806926
21
5.2997808373
31
0.0000000000
11
28.9753008916
21
5.3700217093
31
0.0000000000
11
29.0531583560
21
5.4615921573
31
0.0000000000
11
29.1178267525
21
5.5686981761
31
0.0000000000
11
29.1652142694
21
5.6845627664
31
0.0000000000
11
29.1923225209
21
5.8018547418
31
0.0000000000
0
SPLINE
5
3FE
100
AcDbEntity
8
0
100
AcDbSpline
62
9
6
CONTINUOUS
70
0
71
3
72
13
73
9
74
7
42
0.0000001000
43
0.0000001000
44
0.0000000001
12
0.3904200741
22
-0.1952100370
32
0.0000000000
13
0.3904200741
23
0.1952100370
33
0.0000000000
40
0.0000000000
40
0.0000000000
40
0.0000000000
40
0.0000000000
40
0.1524570658
40
0.3217337100
40
0.5000000000
40
0.6782662900
40
0.8475429342
40
1.0000000000
40
1.0000000000
40
1.0000000000
40
1.0000000000
10
24.6551061212
20
-1.0252924172
30
0.0000000000
10
24.6749468875
20
-1.0352128004
30
0.0000000000
10
24.7191347969
20
-1.0515814338
30
0.0000000000
10
24.7906675943
20
-1.0659770497
30
0.0000000000
10
24.8672381555
20
-1.0708930995
30
0.0000000000
10
24.9438087167
20
-1.0659770497
30
0.0000000000
10
25.0153415141
20
-1.0515814338
30
0.0000000000
10
25.0595294236
20
-1.0352128004
30
0.0000000000
10
25.0793701899
20
-1.0252924172
30
0.0000000000
11
24.6551061212
21
-1.0252924172
31
0.0000000000
11
24.7172381555
21
-1.0491302106
31
0.0000000000
11
24.7895924420
21
-1.0641152740
31
0.0000000000
11
24.8672381555
21
-1.0692264000
31
0.0000000000
11
24.9448838690
21
-1.0641152740
31
0.0000000000
11
25.0172381555
21
-1.0491302106
31
0.0000000000
11
25.0793701899
21
-1.0252924172
31
0.0000000000
0
SPLINE
5
3FF
100
AcDbEntity
8
0
100
AcDbSpline
62
9
6
CONTINUOUS
70
0
71
3
72
10
73
6
74
4
42
0.0000001000
43
0.0000001000
44
0.0000000001
12
0.1288156732
22
0.0644078366
32
0.0000000000
13
0.0000557441
23
0.1446695795
33
0.0000000000
40
0.0000000000
40
0.0000000000
40
0.0000000000
40
0.0000000000
40
0.3957564309
40
0.7223787101
40
1.0000000000
40
1.0000000000
40
1.0000000000
40
1.0000000000
10
29.8876963019
20
1.3788706388
30
0.0000000000
10
29.9046895123
20
1.3873672440
30
0.0000000000
10
29.9344397384
20
1.4058548693
30
0.0000000000
10
29.9671180856
20
1.4423966779
30
0.0000000000
10
29.9755590617
20
1.4715450280
30
0.0000000000
10
29.9755642202
20
1.4849328131
30
0.0000000000
11
29.8876963019
21
1.3788706388
31
0.0000000000
11
29.9354428437
21
1.4099981384
31
0.0000000000
11
29.9654162185
21
1.4462525296
31
0.0000000000
11
29.9755642202
21
1.4849328131
31
0.0000000000
0
SPLINE
5
400
100
AcDbEntity
8
0
100
AcDbSpline
62
9
6
CONTINUOUS
70
0
71
3
72
11
73
7
74
5
42
0.0000001000
43
0.0000001000
44
0.0000000001
12
-0.1702582132
22
0.0847790038
32
0.0000000000
13
-0.0000000000
23
0.1886851331
33
0.0000000000
40
0.0000000000
40
0.0000000000
40
0.0000000000
40
0.0000000000
40
0.0989919460
40
0.3645316570
40
0.6630844387
40
1.0000000000
40
1.0000000000
40
1.0000000000
40
1.0000000000
10
24.7330938887
20
-1.1875092772
30
0.0000000000
10
24.7274758247
20
-1.1847117977
30
0.0000000000
10
24.7076396129
20
-1.1727350510
30
0.0000000000
10
24.6794595704
20
-1.1404574258
30
0.0000000000
10
24.6590443185
20
-1.0866711841
30
0.0000000000
10
24.6551061212
20
-1.0464827364
30
0.0000000000
10
24.6551061212
20
-1.0252924172
30
0.0000000000
11
24.7330938887
21
-1.1875092772
31
0.0000000000
11
24.7170227708
21
-1.1777816524
31
0.0000000000
11
24.6833425894
21
-1.1406872371
31
0.0000000000
11
24.6622224370
21
-1.0884638086
31
0.0000000000
11
24.6551061212
21
-1.0252924172
31
0.0000000000
0
SPLINE
5
401
100
AcDbEntity
8
0
100
AcDbSpline
62
7
6
CONTINUOUS
70
0
71
3
72
11
73
7
74
5
42
0.0000001000
43
0.0000001000
44
0.0000000001
12
0.1289199413
22
0.0644599706
32
0.0000000000
13
-0.0006660415
23
0.1450452132
33
0.0000000000
40
0.0000000000
40
0.0000000000
40
0.0000000000
40
0.0000000000
40
0.3704566706
40
0.6888589597
40
0.9562694162
40
1.0000000000
40
1.0000000000
40
1.0000000000
40
1.0000000000
10
29.8876963019
20
7.3544459249
30
0.0000000000
10
29.9036160527
20
7.3624058003
30
0.0000000000
10
29.9320622282
20
7.3798755482
30
0.0000000000
10
29.9641729671
20
7.4138586770
30
0.0000000000
10
29.9749784715
20
7.4433611613
30
0.0000000000
10
29.9755518049
20
7.4583915802
30
0.0000000000
10
29.9755420961
20
7.4605058842
30
0.0000000000
11
29.8876963019
21
7.3544459249
31
0.0000000000
11
29.9326746809
21
7.3832231406
31
0.0000000000
11
29.9630444473
21
7.4176308674
31
0.0000000000
11
29.9752964724
21
7.4541754333
31
0.0000000000
11
29.9755420961
21
7.4605058842
31
0.0000000000
0
SPLINE
5
402
100
AcDbEntity
8
0
100
AcDbSpline
62
9
6
CONTINUOUS
70
0
71
3
72
11
73
7
74
5
42
0.0000001000
43
0.0000001000
44
0.0000000001
12
0.1702582132
22
0.0847790038
32
0.0000000000
13
0.0000000000
23
0.1886851331
33
0.0000000000
40
0.0000000000
40
0.0000000000
40
0.0000000000
40
0.0000000000
40
0.0989919460
40
0.3645316570
40
0.6630844387
40
1.0000000000
40
1.0000000000
40
1.0000000000
40
1.0000000000
10
25.0013824223
20
-1.1875092772
30
0.0000000000
10
25.0070004863
20
-1.1847117977
30
0.0000000000
10
25.0268366981
20
-1.1727350510
30
0.0000000000
10
25.0550167406
20
-1.1404574258
30
0.0000000000
10
25.0754319925
20
-1.0866711841
30
0.0000000000
10
25.0793701899
20
-1.0464827364
30
0.0000000000
10
25.0793701899
20
-1.0252924172
30
0.0000000000
11
25.0013824223
21
-1.1875092772
31
0.0000000000
11
25.0174535402
21
-1.1777816524
31
0.0000000000
11
25.0511337216
21
-1.1406872371
31
0.0000000000
11
25.0722538740
21
-1.0884638086
31
0.0000000000
11
25.0793701899
21
-1.0252924172
31
0.0000000000
0
SPLINE
5
403
100
AcDbEntity
8
0
100
AcDbSpline
62
9
6
CONTINUOUS
70
0
71
3
72
8
73
4
74
2
42
0.0000001000
43
0.0000001000
44
0.0000000001
12
0.0024407652
22
0.0012148398
32
0.0000000000
13
0.0024107806
23
0.0012718622
33
0.0000000000
40
0.0000000000
40
0.0000000000
40
0.0000000000
40
0.0000000000
40
1.0000000000
40
1.0000000000
40
1.0000000000
40
1.0000000000
10
29.8097048654
20
1.2166504386
30
0.0000000000
10
29.8105184538
20
1.2170553851
30
0.0000000000
10
29.8113271804
20
1.2174698785
30
0.0000000000
10
29.8121307739
20
1.2178938326
30
0.0000000000
11
29.8097048654
21
1.2166504386
31
0.0000000000
11
29.8121307739
21
1.2178938326
31
0.0000000000
0
SPLINE
5
404
100
AcDbEntity
8
0
100
AcDbSpline
62
9
6
CONTINUOUS
70
0
71
3
72
11
73
7
74
5
42
0.0000001000
43
0.0000001000
44
0.0000000001
12
0.1657603967
22
0.0874506703
32
0.0000000000
13
0.0000000000
23
0.1859824202
33
0.0000000000
40
0.0000000000
40
0.0000000000
40
0.0000000000
40
0.0000000000
40
0.0830768418
40
0.3524031543
40
0.6550948035
40
1.0000000000
40
1.0000000000
40
1.0000000000
40
1.0000000000
10
29.8121307739
20
1.2178938326
30
0.0000000000
10
29.8167210573
20
1.2203155411
30
0.0000000000
10
29.8354820794
20
1.2318976169
30
0.0000000000
10
29.8630633194
20
1.2632163547
30
0.0000000000
10
29.8837056757
20
1.3171121634
30
0.0000000000
10
29.8876963019
20
1.3574885378
30
0.0000000000
10
29.8876963019
20
1.3788706388
30
0.0000000000
11
29.8121307739
21
1.2178938326
31
0.0000000000
11
29.8253485731
21
1.2260689812
31
0.0000000000
11
29.8591743694
21
1.2630124453
31
0.0000000000
11
29.8804420732
21
1.3151358416
31
0.0000000000
11
29.8876963019
21
1.3788706388
31
0.0000000000
0
SPLINE
5
405
100
AcDbEntity
8
0
100
AcDbSpline
62
7
6
CONTINUOUS
70
0
71
3
72
12
73
8
74
6
42
0.0000001000
43
0.0000001000
44
0.0000000001
12
0.3155742268
22
-0.0568899811
32
0.0000000000
13
0.2866031528
23
0.1433015764
33
0.0000000000
40
0.0000000000
40
0.0000000000
40
0.0000000000
40
0.0000000000
40
0.1303344539
40
0.3580784230
40
0.5869731154
40
0.8072179316
40
1.0000000000
40
1.0000000000
40
1.0000000000
40
1.0000000000
10
24.7655225589
20
4.9152302121
30
0.0000000000
10
24.7792326237
20
4.9127586373
30
0.0000000000
10
24.8171895501
20
4.9074755114
30
0.0000000000
10
24.8799757055
20
4.9050069456
30
0.0000000000
10
24.9522281107
20
4.9109157906
30
0.0000000000
10
25.0194589836
20
4.9253520791
30
0.0000000000
10
25.0609528737
20
4.9410742108
30
0.0000000000
10
25.0793701899
20
4.9502828689
30
0.0000000000
11
24.7655225589
21
4.9152302121
31
0.0000000000
11
24.8069097190
21
4.9094131180
31
0.0000000000
11
24.8798272617
21
4.9064810156
31
0.0000000000
11
24.9529170727
21
4.9125963877
31
0.0000000000
11
25.0218336725
21
4.9277990649
31
0.0000000000
11
25.0793701899
21
4.9502828689
31
0.0000000000
0
SPLINE
5
406
100
AcDbEntity
8
0
100
AcDbSpline
62
7
6
CONTINUOUS
70
0
71
3
72
16
73
12
74
10
42
0.0000001000
43
0.0000001000
44
0.0000000001
12
0.7952301566
22
-0.3996803899
32
0.0000000000
13
0.1234583898
23
0.8758405828
33
0.0000000000
40
0.0000000000
40
0.0000000000
40
0.0000000000
40
0.0000000000
40
0.0185790117
40
0.1079582643
40
0.2069656240
40
0.3193806538
40
0.4450253943
40
0.5809163030
40
0.7223689590
40
0.8638960520
40
1.0000000000
40
1.0000000000
40
1.0000000000
40
1.0000000000
10
25.8988311946
20
3.8987213644
30
0.0000000000
10
25.9037560581
20
3.8962461422
30
0.0000000000
10
25.9329895223
20
3.8831315660
30
0.0000000000
10
25.9948744356
20
3.8731881488
30
0.0000000000
10
26.0831863220
20
3.8913900283
30
0.0000000000
10
26.1722277510
20
3.9376287608
30
0.0000000000
10
26.2575339947
20
4.0085558043
30
0.0000000000
10
26.3343970615
20
4.0998700784
30
0.0000000000
10
26.3983166183
20
4.2061180977
30
0.0000000000
10
26.4454383304
20
4.3208270264
30
0.0000000000
10
26.4643603553
20
4.4009390677
30
0.0000000000
10
26.4699614134
20
4.4406741880
30
0.0000000000
11
25.8988311946
21
3.8987213644
31
0.0000000000
11
25.9139081358
21
3.8919670472
31
0.0000000000
11
25.9917656003
21
3.8782540637
31
0.0000000000
11
26.0778857992
21
3.8941333906
31
0.0000000000
11
26.1668195850
21
3.9386002836
31
0.0000000000
11
26.2529397840
21
4.0088411556
31
0.0000000000
11
26.3307972484
21
4.1004116036
31
0.0000000000
11
26.3954656449
21
4.2075176223
31
0.0000000000
11
26.4428531618
21
4.3233822127
31
0.0000000000
11
26.4699614134
21
4.4406741880
31
0.0000000000
0
SPLINE
5
407
100
AcDbEntity
8
0
100
AcDbSpline
62
7
6
CONTINUOUS
70
0
71
3
72
9
73
5
74
3
42
0.0000001000
43
0.0000001000
44
0.0000000001
12
0.0586107634
22
-0.0871279646
32
0.0000000000
13
0.0939120632
23
-0.0471999329
33
0.0000000000
40
0.0000000000
40
0.0000000000
40
0.0000000000
40
0.0000000000
40
0.4168120831
40
1.0000000000
40
1.0000000000
40
1.0000000000
40
1.0000000000
10
20.4474617670
20
1.2810944557
30
0.0000000000
10
20.4556049918
20
1.2689891263
30
0.0000000000
10
20.4777583483
20
1.2417675289
30
0.0000000000
10
20.5065635308
20
1.2208910728
30
0.0000000000
10
20.5248196576
20
1.2117155959
30
0.0000000000
11
20.4474617670
21
1.2810944557
31
0.0000000000
11
20.4752282023
21
1.2473989009
31
0.0000000000
11
20.5248196576
21
1.2117155959
31
0.0000000000
0
SPLINE
5
408
100
AcDbEntity
8
0
100
AcDbSpline
62
7
6
CONTINUOUS
70
0
71
3
72
10
73
6
74
4
42
0.0000001000
43
0.0000001000
44
0.0000000001
12
0.0385964994
22
-0.2352154350
32
0.0000000000
13
0.2143042211
23
-0.1077086853
33
0.0000000000
40
0.0000000000
40
0.0000000000
40
0.0000000000
40
0.0000000000
40
0.3950723213
40
0.7444362961
40
1.0000000000
40
1.0000000000
40
1.0000000000
40
1.0000000000
10
23.1230935414
20
2.7672402521
30
0.0000000000
10
23.1281763443
20
2.7362645494
30
0.0000000000
10
23.1443825834
20
2.6785171179
30
0.0000000000
10
23.1891612458
20
2.6108900074
30
0.0000000000
10
23.2289246383
20
2.5820716266
30
0.0000000000
10
23.2471807652
20
2.5728961497
30
0.0000000000
11
23.1230935414
21
2.7672402521
31
0.0000000000
11
23.1502017930
21
2.6770565282
31
0.0000000000
11
23.1975893098
21
2.6085794547
31
0.0000000000
11
23.2471807652
21
2.5728961497
31
0.0000000000
0
SPLINE
5
409
100
AcDbEntity
8
0
100
AcDbSpline
62
7
6
CONTINUOUS
70
0
71
3
72
9
73
5
74
3
42
0.0000001000
43
0.0000001000
44
0.0000000001
12
-0.0002514042
22
0.0547488072
32
0.0000000000
13
-0.0321299449
23
0.0443686089
33
0.0000000000
40
0.0000000000
40
0.0000000000
40
0.0000000000
40
0.0000000000
40
0.5632510403
40
1.0000000000
40
1.0000000000
40
1.0000000000
40
1.0000000000
10
24.6015305591
20
4.7735001157
30
0.0000000000
10
24.6014833579
20
4.7837792232
30
0.0000000000
10
24.5976106405
20
4.8021040478
30
0.0000000000
10
24.5884161587
20
4.8179967732
30
0.0000000000
10
24.5837385853
20
4.8244560878
30
0.0000000000
11
24.6015305591
21
4.7735001157
31
0.0000000000
11
24.5954323947
21
4.8036505886
31
0.0000000000
11
24.5837385853
21
4.8244560878
31
0.0000000000
0
SPLINE
5
40A
100
AcDbEntity
8
0
100
AcDbSpline
62
7
6
CONTINUOUS
70
0
71
3
72
10
73
6
74
4
42
0.0000001000
43
0.0000001000
44
0.0000000001
12
0.2155010873
22
0.2398100307
32
0.0000000000
13
0.1324901428
23
0.2937764735
33
0.0000000000
40
0.0000000000
40
0.0000000000
40
0.0000000000
40
0.0000000000
40
0.2929761440
40
0.6574046233
40
1.0000000000
40
1.0000000000
40
1.0000000000
40
1.0000000000
10
20.4479427855
20
1.7213998352
30
0.0000000000
10
20.4689883447
20
1.7448193746
30
0.0000000000
10
20.5141509090
20
1.7992165044
30
0.0000000000
10
20.5752921000
20
1.8877501777
30
0.0000000000
10
20.6114649382
20
1.9547969830
30
0.0000000000
10
20.6265951084
20
1.9883458035
30
0.0000000000
11
20.4479427855
21
1.7213998352
31
0.0000000000
11
20.5082555546
21
1.7940599311
31
0.0000000000
11
20.5747525223
21
1.8908657803
31
0.0000000000
11
20.6265951084
21
1.9883458035
31
0.0000000000
0
SPLINE
5
40B
100
AcDbEntity
8
0
100
AcDbSpline
62
7
6
CONTINUOUS
70
0
71
3
72
8
73
4
74
2
42
0.0000001000
43
0.0000001000
44
0.0000000001
12
0.0086722618
22
0.0078386913
32
0.0000000000
13
0.0085885503
23
0.0079304321
33
0.0000000000
40
0.0000000000
40
0.0000000000
40
0.0000000000
40
0.0000000000
40
1.0000000000
40
1.0000000000
40
1.0000000000
40
1.0000000000
10
23.0854357575
20
2.9973033085
30
0.0000000000
10
23.0883265115
20
2.9999162056
30
0.0000000000
10
23.0912033037
20
3.0025445499
30
0.0000000000
10
23.0940661538
20
3.0051880272
30
0.0000000000
11
23.0854357575
21
2.9973033085
31
0.0000000000
11
23.0940661538
21
3.0051880272
31
0.0000000000
0
SPLINE
5
40C
100
AcDbEntity
8
0
100
AcDbSpline
62
7
6
CONTINUOUS
70
0
71
3
72
11
73
7
74
5
42
0.0000001000
43
0.0000001000
44
0.0000000001
12
0.3166980481
22
0.2924303018
32
0.0000000000
13
0.1771481073
23
0.3927986274
33
0.0000000000
40
0.0000000000
40
0.0000000000
40
0.0000000000
40
0.0000000000
40
0.1953852657
40
0.4712125894
40
0.7437708492
40
1.0000000000
40
1.0000000000
40
1.0000000000
40
1.0000000000
10
23.0940661538
20
3.0051880272
30
0.0000000000
10
23.1146921979
20
3.0242335513
30
0.0000000000
10
23.1626908601
20
3.0720602975
30
0.0000000000
10
23.2318760942
20
3.1536841491
30
0.0000000000
10
23.2976532092
20
3.2489307343
30
0.0000000000
10
23.3338260462
20
3.3159775377
30
0.0000000000
10
23.3489562159
20
3.3495263573
30
0.0000000000
11
23.0940661538
21
3.0051880272
31
0.0000000000
11
23.1537804966
21
3.0645637161
31
0.0000000000
11
23.2306166662
21
3.1552404901
31
0.0000000000
11
23.2971136315
21
3.2520463368
31
0.0000000000
11
23.3489562159
21
3.3495263573
31
0.0000000000
0
SPLINE
5
40D
100
AcDbEntity
8
0
100
AcDbSpline
62
7
6
CONTINUOUS
70
0
71
3
72
16
73
12
74
10
42
0.0000001000
43
0.0000001000
44
0.0000000001
12
0.7952301566
22
-0.3996803899
32
0.0000000000
13
0.1234583898
23
0.8758405828
33
0.0000000000
40
0.0000000000
40
0.0000000000
40
0.0000000000
40
0.0000000000
40
0.0185790117
40
0.1079582643
40
0.2069656240
40
0.3193806538
40
0.4450253943
40
0.5809163030
40
0.7223689590
40
0.8638960520
40
1.0000000000
40
1.0000000000
40
1.0000000000
40
1.0000000000
10
23.2471807652
20
2.5728961497
30
0.0000000000
10
23.2521056286
20
2.5704209275
30
0.0000000000
10
23.2813390928
20
2.5573063513
30
0.0000000000
10
23.3432240062
20
2.5473629341
30
0.0000000000
10
23.4315358926
20
2.5655648136
30
0.0000000000
10
23.5205773215
20
2.6118035461
30
0.0000000000
10
23.6058835652
20
2.6827305896
30
0.0000000000
10
23.6827466321
20
2.7740448637
30
0.0000000000
10
23.7466661888
20
2.8802928830
30
0.0000000000
10
23.7937879009
20
2.9950018117
30
0.0000000000
10
23.8127099258
20
3.0751138529
30
0.0000000000
10
23.8183109839
20
3.1148489733
30
0.0000000000
11
23.2471807652
21
2.5728961497
31
0.0000000000
11
23.2622577064
21
2.5661418325
31
0.0000000000
11
23.3401151708
21
2.5524288490
31
0.0000000000
11
23.4262353697
21
2.5683081759
31
0.0000000000
11
23.5151691556
21
2.6127750688
31
0.0000000000
11
23.6012893545
21
2.6830159408
31
0.0000000000
11
23.6791468190
21
2.7745863888
31
0.0000000000
11
23.7438152155
21
2.8816924075
31
0.0000000000
11
23.7912027324
21
2.9975569979
31
0.0000000000
11
23.8183109839
21
3.1148489733
31
0.0000000000
0
SPLINE
5
40E
100
AcDbEntity
8
0
100
AcDbSpline
62
9
6
CONTINUOUS
70
0
71
3
72
10
73
6
74
4
42
0.0000001000
43
0.0000001000
44
0.0000000001
12
0.1288156732
22
0.0644078366
32
0.0000000000
13
0.0000557441
23
0.1446695795
33
0.0000000000
40
0.0000000000
40
0.0000000000
40
0.0000000000
40
0.0000000000
40
0.3957564309
40
0.7223787101
40
1.0000000000
40
1.0000000000
40
1.0000000000
40
1.0000000000
10
24.5136847649
20
-1.3081351297
30
0.0000000000
10
24.5306779753
20
-1.2996385245
30
0.0000000000
10
24.5604282014
20
-1.2811508992
30
0.0000000000
10
24.5931065486
20
-1.2446090906
30
0.0000000000
10
24.6015475247
20
-1.2154607405
30
0.0000000000
10
24.6015526832
20
-1.2020729554
30
0.0000000000
11
24.5136847649
21
-1.3081351297
31
0.0000000000
11
24.5614313067
21
-1.2770076301
31
0.0000000000
11
24.5914046815
21
-1.2407532389
31
0.0000000000
11
24.6015526832
21
-1.2020729554
31
0.0000000000
0
SPLINE
5
40F
100
AcDbEntity
8
0
100
AcDbSpline
62
7
6
CONTINUOUS
70
0
71
3
72
11
73
7
74
5
42
0.0000001000
43
0.0000001000
44
0.0000000001
12
0.1289199413
22
0.0644599706
32
0.0000000000
13
-0.0006660415
23
0.1450452132
33
0.0000000000
40
0.0000000000
40
0.0000000000
40
0.0000000000
40
0.0000000000
40
0.3704566706
40
0.6888589597
40
0.9562694162
40
1.0000000000
40
1.0000000000
40
1.0000000000
40
1.0000000000
10
24.5136847649
20
4.6674401564
30
0.0000000000
10
24.5296045157
20
4.6754000318
30
0.0000000000
10
24.5580506912
20
4.6928697797
30
0.0000000000
10
24.5901614301
20
4.7268529085
30
0.0000000000
10
24.6009669345
20
4.7563553928
30
0.0000000000
10
24.6015402679
20
4.7713858117
30
0.0000000000
10
24.6015305591
20
4.7735001157
30
0.0000000000
11
24.5136847649
21
4.6674401564
31
0.0000000000
11
24.5586631439
21
4.6962173721
31
0.0000000000
11
24.5890329103
21
4.7306250989
31
0.0000000000
11
24.6012849354
21
4.7671696648
31
0.0000000000
11
24.6015305591
21
4.7735001157
31
0.0000000000
0
SPLINE
5
410
100
AcDbEntity
8
0
100
AcDbSpline
62
9
6
CONTINUOUS
70
0
71
3
72
8
73
4
74
2
42
0.0000001000
43
0.0000001000
44
0.0000000001
12
0.0024407652
22
0.0012148398
32
0.0000000000
13
0.0024107806
23
0.0012718622
33
0.0000000000
40
0.0000000000
40
0.0000000000
40
0.0000000000
40
0.0000000000
40
1.0000000000
40
1.0000000000
40
1.0000000000
40
1.0000000000
10
24.4356933284
20
-1.4703553300
30
0.0000000000
10
24.4365069167
20
-1.4699503834
30
0.0000000000
10
24.4373156434
20
-1.4695358900
30
0.0000000000
10
24.4381192369
20
-1.4691119359
30
0.0000000000
11
24.4356933284
21
-1.4703553300
31
0.0000000000
11
24.4381192369
21
-1.4691119359
31
0.0000000000
0
SPLINE
5
411
100
AcDbEntity
8
0
100
AcDbSpline
62
9
6
CONTINUOUS
70
0
71
3
72
11
73
7
74
5
42
0.0000001000
43
0.0000001000
44
0.0000000001
12
0.1657603967
22
0.0874506703
32
0.0000000000
13
0.0000000000
23
0.1859824202
33
0.0000000000
40
0.0000000000
40
0.0000000000
40
0.0000000000
40
0.0000000000
40
0.0830768418
40
0.3524031543
40
0.6550948035
40
1.0000000000
40
1.0000000000
40
1.0000000000
40
1.0000000000
10
24.4381192369
20
-1.4691119359
30
0.0000000000
10
24.4427095203
20
-1.4666902274
30
0.0000000000
10
24.4614705424
20
-1.4551081517
30
0.0000000000
10
24.4890517824
20
-1.4237894138
30
0.0000000000
10
24.5096941387
20
-1.3698936051
30
0.0000000000
10
24.5136847649
20
-1.3295172307
30
0.0000000000
10
24.5136847649
20
-1.3081351297
30
0.0000000000
11
24.4381192369
21
-1.4691119359
31
0.0000000000
11
24.4513370361
21
-1.4609367873
31
0.0000000000
11
24.4851628324
21
-1.4239933232
31
0.0000000000
11
24.5064305362
21
-1.3718699269
31
0.0000000000
11
24.5136847649
21
-1.3081351297
31
0.0000000000
0
SPLINE
5
412
100
AcDbEntity
8
0
100
AcDbSpline
62
7
6
CONTINUOUS
70
0
71
3
72
16
73
12
74
10
42
0.0000001000
43
0.0000001000
44
0.0000000001
12
0.7952301566
22
-0.3996803899
32
0.0000000000
13
0.1234583898
23
0.8758405828
33
0.0000000000
40
0.0000000000
40
0.0000000000
40
0.0000000000
40
0.0000000000
40
0.0185790117
40
0.1079582643
40
0.2069656240
40
0.3193806538
40
0.4450253943
40
0.5809163030
40
0.7223689590
40
0.8638960520
40
1.0000000000
40
1.0000000000
40
1.0000000000
40
1.0000000000
10
20.5248196576
20
1.2117155959
30
0.0000000000
10
20.5297445210
20
1.2092403737
30
0.0000000000
10
20.5589779853
20
1.1961257975
30
0.0000000000
10
20.6208628986
20
1.1861823803
30
0.0000000000
10
20.7091747850
20
1.2043842598
30
0.0000000000
10
20.7982162140
20
1.2506229923
30
0.0000000000
10
20.8835224577
20
1.3215500358
30
0.0000000000
10
20.9603855245
20
1.4128643099
30
0.0000000000
10
21.0243050813
20
1.5191123292
30
0.0000000000
10
21.0714267934
20
1.6338212579
30
0.0000000000
10
21.0903488183
20
1.7139332991
30
0.0000000000
10
21.0959498763
20
1.7536684195
30
0.0000000000
11
20.5248196576
21
1.2117155959
31
0.0000000000
11
20.5398965988
21
1.2049612787
31
0.0000000000
11
20.6177540632
21
1.1912482952
31
0.0000000000
11
20.7038742622
21
1.2071276221
31
0.0000000000
11
20.7928080480
21
1.2515945150
31
0.0000000000
11
20.8789282470
21
1.3218353871
31
0.0000000000
11
20.9567857114
21
1.4134058351
31
0.0000000000
11
21.0214541079
21
1.5205118538
31
0.0000000000
11
21.0688416248
21
1.6363764441
31
0.0000000000
11
21.0959498763
21
1.7536684195
31
0.0000000000
0
SPLINE
5
413
100
AcDbEntity
8
0
100
AcDbSpline
62
7
6
CONTINUOUS
70
0
71
3
72
10
73
6
74
4
42
0.0000001000
43
0.0000001000
44
0.0000000001
12
0.0000000000
22
0.3858110626
32
0.0000000000
13
-0.3435284791
23
0.1717642396
33
0.0000000000
40
0.0000000000
40
0.0000000000
40
0.0000000000
40
0.0000000000
40
0.2787367596
40
0.6049124378
40
1.0000000000
40
1.0000000000
40
1.0000000000
40
1.0000000000
10
31.0766050316
20
20.4633936498
30
0.0000000000
10
31.0766050316
20
20.4992402249
30
0.0000000000
10
31.0539642318
20
20.5770341950
30
0.0000000000
10
30.9667527807
20
20.6744003612
30
0.0000000000
10
30.8875317330
20
20.7236157240
30
0.0000000000
10
30.8422904565
20
20.7462363622
30
0.0000000000
11
31.0766050316
21
20.4633936498
31
0.0000000000
11
31.0493456926
21
20.5669212678
31
0.0000000000
11
30.9694253546
21
20.6633936498
31
0.0000000000
11
30.8422904565
21
20.7462363622
31
0.0000000000
0
SPLINE
5
414
100
AcDbEntity
8
0
100
AcDbSpline
62
7
6
CONTINUOUS
70
0
71
3
72
10
73
6
74
4
42
0.0000001000
43
0.0000001000
44
0.0000000001
12
0.0000000000
22
-0.3858110626
32
0.0000000000
13
-0.3435284791
23
-0.1717642396
33
0.0000000000
40
0.0000000000
40
0.0000000000
40
0.0000000000
40
0.0000000000
40
0.2787367596
40
0.6049124378
40
1.0000000000
40
1.0000000000
40
1.0000000000
40
1.0000000000
10
31.0766050316
20
11.3701269100
30
0.0000000000
10
31.0766050316
20
11.3342803349
30
0.0000000000
10
31.0539642318
20
11.2564863648
30
0.0000000000
10
30.9667527807
20
11.1591201986
30
0.0000000000
10
30.8875317330
20
11.1099048358
30
0.0000000000
10
30.8422904565
20
11.0872841976
30
0.0000000000
11
31.0766050316
21
11.3701269100
31
0.0000000000
11
31.0493456926
21
11.2665992920
31
0.0000000000
11
30.9694253546
21
11.1701269100
31
0.0000000000
11
30.8422904565
21
11.0872841976
31
0.0000000000
0
SPLINE
5
415
100
AcDbEntity
8
0
100
AcDbSpline
62
7
6
CONTINUOUS
70
0
71
3
72
10
73
6
74
4
42
0.0000001000
43
0.0000001000
44
0.0000000001
12
0.0000000000
22
0.2437493709
32
0.0000000000
13
-0.2141659548
23
0.1070829774
33
0.0000000000
40
0.0000000000
40
0.0000000000
40
0.0000000000
40
0.0000000000
40
0.1633303941
40
0.5338384012
40
1.0000000000
40
1.0000000000
40
1.0000000000
40
1.0000000000
10
32.0489258281
20
15.6406189008
30
0.0000000000
10
32.0489258281
20
15.6538894611
30
0.0000000000
10
32.0427327335
20
15.6972637192
30
0.0000000000
10
31.9932140796
20
15.7644442582
30
0.0000000000
10
31.9362292763
20
15.8007562721
30
0.0000000000
10
31.9029506283
20
15.8173955961
30
0.0000000000
11
32.0489258281
21
15.6406189008
31
0.0000000000
11
32.0432414080
21
15.6797275171
31
0.0000000000
11
31.9949004998
21
15.7541165257
31
0.0000000000
11
31.9029506283
21
15.8173955961
31
0.0000000000
0
SPLINE
5
416
100
AcDbEntity
8
0
100
AcDbSpline
62
7
6
CONTINUOUS
70
0
71
3
72
10
73
6
74
4
42
0.0000001000
43
0.0000001000
44
0.0000000001
12
0.0000000000
22
-0.2437493709
32
0.0000000000
13
-0.2141659548
23
-0.1070829774
33
0.0000000000
40
0.0000000000
40
0.0000000000
40
0.0000000000
40
0.0000000000
40
0.1633303941
40
0.5338384012
40
1.0000000000
40
1.0000000000
40
1.0000000000
40
1.0000000000
10
32.0489258281
20
13.5621579317
30
0.0000000000
10
32.0489258281
20
13.5488873714
30
0.0000000000
10
32.0427327335
20
13.5055131133
30
0.0000000000
10
31.9932140796
20
13.4383325743
30
0.0000000000
10
31.9362292763
20
13.4020205604
30
0.0000000000
10
31.9029506283
20
13.3853812364
30
0.0000000000
11
32.0489258281
21
13.5621579317
31
0.0000000000
11
32.0432414080
21
13.5230493155
31
0.0000000000
11
31.9949004998
21
13.4486603068
31
0.0000000000
11
31.9029506283
21
13.3853812364
31
0.0000000000
0
SPLINE
5
417
100
AcDbEntity
8
0
100
AcDbSpline
62
7
6
CONTINUOUS
70
0
71
3
72
11
73
7
74
5
42
0.0000001000
43
0.0000001000
44
0.0000000001
12
-0.0125827600
22
0.2711006942
32
0.0000000000
13
-0.2302714754
23
0.1463794602
33
0.0000000000
40
0.0000000000
40
0.0000000000
40
0.0000000000
40
0.0000000000
40
0.3665458114
40
0.6964023028
40
0.9895023311
40
1.0000000000
40
1.0000000000
40
1.0000000000
40
1.0000000000
10
21.7391653002
20
18.9001609507
30
0.0000000000
10
21.7376279142
20
18.9332845586
30
0.0000000000
10
21.7284429870
20
18.9962752065
30
0.0000000000
10
21.6918323866
20
19.0795312832
30
0.0000000000
10
21.6507921028
20
19.1216790860
30
0.0000000000
10
21.6276069936
20
19.1366732993
30
0.0000000000
10
21.6268012224
20
19.1371855137
30
0.0000000000
11
21.7391653002
21
18.9001609507
31
0.0000000000
11
21.7233654813
21
18.9983760125
31
0.0000000000
11
21.6856188057
21
19.0795494371
31
0.0000000000
11
21.6292061595
21
19.1356301481
31
0.0000000000
11
21.6268012224
21
19.1371855137
31
0.0000000000
0
SPLINE
5
418
100
AcDbEntity
8
0
100
AcDbSpline
62
7
6
CONTINUOUS
70
0
71
3
72
11
73
7
74
5
42
0.0000001000
43
0.0000001000
44
0.0000000001
12
0.0000000000
22
0.6288579172
32
0.0000000000
13
-0.5673585275
23
0.2826468848
33
0.0000000000
40
0.0000000000
40
0.0000000000
40
0.0000000000
40
0.0000000000
40
0.3394423009
40
0.6374022737
40
0.9025355484
40
1.0000000000
40
1.0000000000
40
1.0000000000
40
1.0000000000
10
30.2766050316
20
21.0723803449
30
0.0000000000
10
30.2766050316
20
21.1435340044
30
0.0000000000
10
30.2633457990
20
21.2779055066
30
0.0000000000
10
30.1947831964
20
21.4573193081
30
0.0000000000
10
30.1009520687
20
21.5642511987
30
0.0000000000
10
30.0351623256
20
21.6038822130
30
0.0000000000
10
30.0167298964
20
21.6130648876
30
0.0000000000
11
30.2766050316
21
21.0723803449
31
0.0000000000
11
30.2525109523
21
21.2844771733
31
0.0000000000
11
30.1818706861
21
21.4580258741
31
0.0000000000
11
30.0694982504
21
21.5811993900
31
0.0000000000
11
30.0167298964
21
21.6130648876
31
0.0000000000
0
SPLINE
5
419
100
AcDbEntity
8
0
100
AcDbSpline
62
7
6
CONTINUOUS
70
0
71
3
72
10
73
6
74
4
42
0.0000001000
43
0.0000001000
44
0.0000000001
12
0.4136416808
22
0.2068208404
32
0.0000000000
13
0.4172384798
23
-0.2078600229
33
0.0000000000
40
0.0000000000
40
0.0000000000
40
0.0000000000
40
0.0000000000
40
0.4178228639
40
0.7865968708
40
1.0000000000
40
1.0000000000
40
1.0000000000
40
1.0000000000
10
28.5088380786
20
22.1151824440
30
0.0000000000
10
28.5664477292
20
22.1439872693
30
0.0000000000
10
28.6822760911
20
22.1858981661
30
0.0000000000
10
28.8401266911
20
22.1881208551
30
0.0000000000
10
28.9263897255
20
22.1581809666
30
0.0000000000
10
28.9560697246
20
22.1433949734
30
0.0000000000
11
28.5088380786
21
22.1151824440
31
0.0000000000
11
28.6918507805
21
22.1771796949
31
0.0000000000
11
28.8623914692
21
22.1759337355
31
0.0000000000
11
28.9560697246
21
22.1433949734
31
0.0000000000
0
SPLINE
5
41A
100
AcDbEntity
8
0
100
AcDbSpline
62
7
6
CONTINUOUS
70
0
71
3
72
13
73
9
74
7
42
0.0000001000
43
0.0000001000
44
0.0000000001
12
0.0000000000
22
1.1766265249
32
0.0000000000
13
1.0524067576
23
0.5262033788
33
0.0000000000
40
0.0000000000
40
0.0000000000
40
0.0000000000
40
0.0000000000
40
0.1614219316
40
0.3342559043
40
0.5116973510
40
0.6862432064
40
0.8508246292
40
1.0000000000
40
1.0000000000
40
1.0000000000
40
1.0000000000
10
24.4076187477
20
19.3717524555
30
0.0000000000
10
24.4076187477
20
19.4350635643
30
0.0000000000
10
24.4221188367
20
19.5663466499
30
0.0000000000
10
24.4789100577
20
19.7597127376
30
0.0000000000
10
24.5679745796
20
19.9462516072
30
0.0000000000
10
24.6835787501
20
20.1137586568
30
0.0000000000
10
24.8181467907
20
20.2513583691
30
0.0000000000
10
24.9209731166
20
20.3212499630
30
0.0000000000
10
24.9733041727
20
20.3474154910
30
0.0000000000
11
24.4076187477
21
19.3717524555
31
0.0000000000
11
24.4268940112
21
19.5607051817
31
0.0000000000
11
24.4834062241
21
19.7560563552
31
0.0000000000
11
24.5733041727
21
19.9444931166
31
0.0000000000
11
24.6904614602
21
20.1131738118
31
0.0000000000
11
24.8268940112
21
20.2506031302
31
0.0000000000
11
24.9733041727
21
20.3474154910
31
0.0000000000
0
SPLINE
5
41B
100
AcDbEntity
8
0
100
AcDbSpline
62
7
6
CONTINUOUS
70
0
71
3
72
13
73
9
74
7
42
0.0000001000
43
0.0000001000
44
0.0000000001
12
-1.0524067576
22
-0.5262033788
32
0.0000000000
13
-0.0000000000
23
-1.1766265249
33
0.0000000000
40
0.0000000000
40
0.0000000000
40
0.0000000000
40
0.0000000000
40
0.1491753708
40
0.3137567936
40
0.4883026490
40
0.6657440957
40
0.8385780684
40
1.0000000000
40
1.0000000000
40
1.0000000000
40
1.0000000000
10
26.0339643445
20
19.8170854051
30
0.0000000000
10
25.9816332884
20
19.7909198771
30
0.0000000000
10
25.8788069625
20
19.7210282833
30
0.0000000000
10
25.7442389218
20
19.5834285709
30
0.0000000000
10
25.6286347513
20
19.4159215213
30
0.0000000000
10
25.5395702295
20
19.2293826517
30
0.0000000000
10
25.4827790084
20
19.0360165640
30
0.0000000000
10
25.4682789195
20
18.9047334785
30
0.0000000000
10
25.4682789195
20
18.8414223696
30
0.0000000000
11
26.0339643445
21
19.8170854051
31
0.0000000000
11
25.8875541830
21
19.7202730443
31
0.0000000000
11
25.7511216320
21
19.5828437259
31
0.0000000000
11
25.6339643445
21
19.4141630307
31
0.0000000000
11
25.5440663959
21
19.2257262693
31
0.0000000000
11
25.4875541830
21
19.0303750958
31
0.0000000000
11
25.4682789195
21
18.8414223696
31
0.0000000000
0
SPLINE
5
41C
100
AcDbEntity
8
0
100
AcDbSpline
62
7
6
CONTINUOUS
70
0
71
3
72
10
73
6
74
4
42
0.0000001000
43
0.0000001000
44
0.0000000001
12
-0.4172384798
22
0.2078600229
32
0.0000000000
13
-0.4136416808
23
-0.2068208404
33
0.0000000000
40
0.0000000000
40
0.0000000000
40
0.0000000000
40
0.0000000000
40
0.2134031292
40
0.5821771361
40
1.0000000000
40
1.0000000000
40
1.0000000000
40
1.0000000000
10
30.0167298964
20
21.6130648876
30
0.0000000000
10
29.9870498973
20
21.6278508807
30
0.0000000000
10
29.9007868629
20
21.6577907692
30
0.0000000000
10
29.7429362629
20
21.6555680802
30
0.0000000000
10
29.6271079010
20
21.6136571834
30
0.0000000000
10
29.5694982504
20
21.5848523581
30
0.0000000000
11
30.0167298964
21
21.6130648876
31
0.0000000000
11
29.9230516410
21
21.6456036496
31
0.0000000000
11
29.7525109523
21
21.6468496090
31
0.0000000000
11
29.5694982504
21
21.5848523581
31
0.0000000000
0
SPLINE
5
41D
100
AcDbEntity
8
0
100
AcDbSpline
62
7
6
CONTINUOUS
70
0
71
3
72
10
73
6
74
4
42
0.0000001000
43
0.0000001000
44
0.0000000001
12
0.2141659548
22
0.1070829774
32
0.0000000000
13
-0.0000000000
23
0.2437493709
33
0.0000000000
40
0.0000000000
40
0.0000000000
40
0.0000000000
40
0.0000000000
40
0.4661615988
40
0.8366696059
40
1.0000000000
40
1.0000000000
40
1.0000000000
40
1.0000000000
10
31.9029506283
20
15.4638422055
30
0.0000000000
10
31.9362292763
20
15.4804815295
30
0.0000000000
10
31.9932140796
20
15.5167935434
30
0.0000000000
10
32.0427327335
20
15.5839740824
30
0.0000000000
10
32.0489258281
20
15.6273483405
30
0.0000000000
10
32.0489258281
20
15.6406189008
30
0.0000000000
11
31.9029506283
21
15.4638422055
31
0.0000000000
11
31.9949004998
21
15.5271212759
31
0.0000000000
11
32.0432414080
21
15.6015102845
31
0.0000000000
11
32.0489258281
21
15.6406189008
31
0.0000000000
0
SPLINE
5
41E
100
AcDbEntity
8
0
100
AcDbSpline
62
7
6
CONTINUOUS
70
0
71
3
72
10
73
6
74
4
42
0.0000001000
43
0.0000001000
44
0.0000000001
12
0.3435284791
22
0.1717642396
32
0.0000000000
13
0.0000000000
23
0.3858110626
33
0.0000000000
40
0.0000000000
40
0.0000000000
40
0.0000000000
40
0.0000000000
40
0.3950875622
40
0.7212632404
40
1.0000000000
40
1.0000000000
40
1.0000000000
40
1.0000000000
10
30.8422904565
20
20.1805509373
30
0.0000000000
10
30.8875317330
20
20.2031715755
30
0.0000000000
10
30.9667527807
20
20.2523869383
30
0.0000000000
10
31.0539642318
20
20.3497531045
30
0.0000000000
10
31.0766050316
20
20.4275470746
30
0.0000000000
10
31.0766050316
20
20.4633936498
30
0.0000000000
11
30.8422904565
21
20.1805509373
31
0.0000000000
11
30.9694253546
21
20.2633936498
31
0.0000000000
11
31.0493456926
21
20.3598660317
31
0.0000000000
11
31.0766050316
21
20.4633936498
31
0.0000000000
0
SPLINE
5
41F
100
AcDbEntity
8
0
100
AcDbSpline
62
9
6
CONTINUOUS
70
0
71
3
72
9
73
5
74
3
42
0.0000001000
43
0.0000001000
44
0.0000000001
12
-0.1046027217
22
0.0513887097
32
0.0000000000
13
-0.1052688913
23
-0.0528804797
33
0.0000000000
40
0.0000000000
40
0.0000000000
40
0.0000000000
40
0.0000000000
40
0.6027631985
40
1.0000000000
40
1.0000000000
40
1.0000000000
40
1.0000000000
10
14.9435925001
20
22.0319359783
30
0.0000000000
10
14.9225756097
20
22.0422610527
30
0.0000000000
10
14.8837833086
20
22.0543137233
30
0.0000000000
10
14.8440114150
20
22.0449949105
30
0.0000000000
10
14.8300725225
20
22.0379928863
30
0.0000000000
11
14.9435925001
21
22.0319359783
31
0.0000000000
11
14.8754545578
21
22.0490261037
31
0.0000000000
11
14.8300725225
21
22.0379928863
31
0.0000000000
0
SPLINE
5
420
100
AcDbEntity
8
0
100
AcDbSpline
62
9
6
CONTINUOUS
70
0
71
3
72
9
73
5
74
3
42
0.0000001000
43
0.0000001000
44
0.0000000001
12
-0.1063953068
22
0.0513568572
32
0.0000000000
13
-0.1062507474
23
-0.0543819140
33
0.0000000000
40
0.0000000000
40
0.0000000000
40
0.0000000000
40
0.0000000000
40
0.5987587050
40
1.0000000000
40
1.0000000000
40
1.0000000000
40
1.0000000000
10
-1.1449272476
20
30.0720245093
30
0.0000000000
10
-1.1661622863
20
30.0822746310
30
0.0000000000
10
-1.2055486197
20
30.0941823960
30
0.0000000000
10
-1.2458193302
20
30.0845462834
30
0.0000000000
10
-1.2600300594
20
30.0772728602
30
0.0000000000
11
-1.1449272476
21
30.0720245093
31
0.0000000000
11
-1.2136451661
21
30.0888106485
31
0.0000000000
11
-1.2600300594
21
30.0772728602
31
0.0000000000
0
SPLINE
5
421
100
AcDbEntity
8
0
100
AcDbSpline
62
9
6
CONTINUOUS
70
0
71
3
72
10
73
6
74
4
42
0.0000001000
43
0.0000001000
44
0.0000000001
12
-0.0009117404
22
-0.1576908413
32
0.0000000000
13
-0.1448323393
23
-0.0674308924
33
0.0000000000
40
0.0000000000
40
0.0000000000
40
0.0000000000
40
0.0000000000
40
0.4911714644
40
0.8943757833
40
1.0000000000
40
1.0000000000
40
1.0000000000
40
1.0000000000
10
16.0622456440
20
-19.8124521133
30
0.0000000000
10
16.0620963704
20
-19.8382698605
30
0.0000000000
10
16.0556070625
20
-19.8858904955
30
0.0000000000
10
16.0245473873
20
-19.9321340440
30
0.0000000000
10
16.0010923112
20
-19.9456838565
30
0.0000000000
10
15.9959930438
20
-19.9480579683
30
0.0000000000
11
16.0622456440
21
-19.8124521133
31
0.0000000000
11
16.0485478992
21
-19.8886858128
31
0.0000000000
11
16.0105003786
21
-19.9396283763
31
0.0000000000
11
15.9959930438
21
-19.9480579683
31
0.0000000000
0
SPLINE
5
422
100
AcDbEntity
8
0
100
AcDbSpline
62
9
6
CONTINUOUS
70
0
71
3
72
9
73
5
74
3
42
0.0000001000
43
0.0000001000
44
0.0000000001
12
-0.1064534731
22
0.0513772379
32
0.0000000000
13
-0.1061670634
23
-0.0546357079
33
0.0000000000
40
0.0000000000
40
0.0000000000
40
0.0000000000
40
0.0000000000
40
0.5981040122
40
1.0000000000
40
1.0000000000
40
1.0000000000
40
1.0000000000
10
-3.8702110842
20
27.2526213001
30
0.0000000000
10
-3.8914345006
20
27.2628642775
30
0.0000000000
10
-3.9308237773
20
27.2748079962
30
0.0000000000
10
-3.9711360446
20
27.2651569926
30
0.0000000000
10
-3.9853587503
20
27.2578377020
30
0.0000000000
11
-3.8702110842
21
27.2526213001
31
0.0000000000
11
-3.9388824495
21
27.2694264040
31
0.0000000000
11
-3.9853587503
21
27.2578377020
31
0.0000000000
0
SPLINE
5
423
100
AcDbEntity
8
0
100
AcDbSpline
62
9
6
CONTINUOUS
70
0
71
3
72
10
73
6
74
4
42
0.0000001000
43
0.0000001000
44
0.0000000001
12
-0.1065944511
22
0.0532972255
32
0.0000000000
13
0.0003878016
23
0.1184590201
33
0.0000000000
40
0.0000000000
40
0.0000000000
40
0.0000000000
40
0.0000000000
40
0.5626030173
40
0.9913052279
40
1.0000000000
40
1.0000000000
40
1.0000000000
40
1.0000000000
10
-4.9044975694
20
25.4212444967
30
0.0000000000
10
-4.9244876893
20
25.4312395567
30
0.0000000000
10
-4.9585592061
20
25.4528462876
30
0.0000000000
10
-4.9776137724
20
25.4919590990
30
0.0000000000
10
-4.9777187816
20
25.5092285429
30
0.0000000000
10
-4.9777176576
20
25.5095718677
30
0.0000000000
11
-4.9044975694
21
25.4212444967
31
0.0000000000
11
-4.9582711170
21
25.4612939741
31
0.0000000000
11
-4.9777113549
21
25.5085420274
31
0.0000000000
11
-4.9777176576
21
25.5095718677
31
0.0000000000
0
SPLINE
5
424
100
AcDbEntity
8
0
100
AcDbSpline
62
9
6
CONTINUOUS
70
0
71
3
72
12
73
8
74
6
42
0.0000001000
43
0.0000001000
44
0.0000000001
12
0.0000000056
22
-0.8705660573
32
0.0000000000
13
0.7258604307
23
-0.4873281269
33
0.0000000000
40
0.0000000000
40
0.0000000000
40
0.0000000000
40
0.0000000000
40
0.1949936348
40
0.4148561231
40
0.6406776513
40
0.8600927551
40
1.0000000000
40
1.0000000000
40
1.0000000000
40
1.0000000000
10
-4.9044975694
20
-10.6596476276
30
0.0000000000
10
-4.9044975690
20
-10.7162325742
30
0.0000000000
10
-4.8981905231
20
-10.8367403190
30
0.0000000000
10
-4.8637811974
20
-11.0202052652
30
0.0000000000
10
-4.7938292302
20
-11.2016392853
30
0.0000000000
10
-4.6949903035
20
-11.3424155823
30
0.0000000000
10
-4.6143511060
20
-11.4103115616
30
0.0000000000
10
-4.5805000616
20
-11.4330384734
30
0.0000000000
11
-4.9044975694
21
-10.6596476276
31
0.0000000000
11
-4.8950395564
21
-10.8291387826
31
0.0000000000
11
-4.8585190014
21
-11.0170271911
31
0.0000000000
11
-4.7858551018
21
-11.1996979094
31
0.0000000000
11
-4.6741234334
21
-11.3546265868
31
0.0000000000
11
-4.5805000616
21
-11.4330384734
31
0.0000000000
0
SPLINE
5
425
100
AcDbEntity
8
0
100
AcDbSpline
62
9
6
CONTINUOUS
70
0
71
3
72
9
73
5
74
3
42
0.0000001000
43
0.0000001000
44
0.0000000001
12
0.0574047379
22
-0.0385403890
32
0.0000000000
13
0.0617949713
23
-0.0309487681
33
0.0000000000
40
0.0000000000
40
0.0000000000
40
0.0000000000
40
0.0000000000
40
0.8872767866
40
1.0000000000
40
1.0000000000
40
1.0000000000
40
1.0000000000
10
-4.5805000616
20
-11.4330384734
30
0.0000000000
10
-4.5635220979
20
-11.4444371376
30
0.0000000000
10
-4.5436917272
20
-11.4562322974
30
0.0000000000
10
-4.5231689994
20
-11.4666984809
30
0.0000000000
10
-4.5208470902
20
-11.4678613625
30
0.0000000000
11
-4.5805000616
21
-11.4330384734
31
0.0000000000
11
-4.5277869776
21
-11.4643220306
31
0.0000000000
11
-4.5208470902
21
-11.4678613625
31
0.0000000000
0
SPLINE
5
426
100
AcDbEntity
8
0
100
AcDbSpline
62
9
6
CONTINUOUS
70
0
71
3
72
15
73
11
74
9
42
0.0000001000
43
0.0000001000
44
0.0000000001
12
0.0003964252
22
-1.5701858132
32
0.0000000000
13
1.5102538634
23
0.4135933889
33
0.0000000000
40
0.0000000000
40
0.0000000000
40
0.0000000000
40
0.0000000000
40
0.0784293480
40
0.1695687126
40
0.2798966524
40
0.4089228405
40
0.5523673431
40
0.7039337153
40
0.8558235184
40
1.0000000000
40
1.0000000000
40
1.0000000000
40
1.0000000000
10
14.5026120978
20
-19.4788360108
30
0.0000000000
10
14.5026224616
20
-19.5198855607
30
0.0000000000
10
14.5287437026
20
-19.6085542448
30
0.0000000000
10
14.6281446734
20
-19.7193750643
30
0.0000000000
10
14.7753907486
20
-19.8114249389
30
0.0000000000
10
14.9630646345
20
-19.8819195478
30
0.0000000000
10
15.1801021376
20
-19.9270230315
30
0.0000000000
10
15.4130001425
20
-19.9437632137
30
0.0000000000
10
15.6465543884
20
-19.9309447591
30
0.0000000000
10
15.7985658764
20
-19.9021819880
30
0.0000000000
10
15.8711469059
20
-19.8823051748
30
0.0000000000
11
14.5026120978
21
-19.4788360108
31
0.0000000000
11
14.5340803714
21
-19.5973021227
31
0.0000000000
11
14.6250572646
21
-19.7069367978
31
0.0000000000
11
14.7693349703
21
-19.8014180795
31
0.0000000000
11
14.9573136017
21
-19.8745114799
31
0.0000000000
11
15.1765940211
21
-19.9213529292
31
0.0000000000
11
15.4128780592
21
-19.9387475855
31
0.0000000000
11
15.6499307640
21
-19.9253850570
31
0.0000000000
11
15.8711469059
21
-19.8823051748
31
0.0000000000
0
SPLINE
5
427
100
AcDbEntity
8
0
100
AcDbSpline
62
9
6
CONTINUOUS
70
0
71
3
72
8
73
4
74
2
42
0.0000001000
43
0.0000001000
44
0.0000000001
12
0.0603358954
22
0.0241572489
32
0.0000000000
13
0.0586163130
23
0.0279363266
33
0.0000000000
40
0.0000000000
40
0.0000000000
40
0.0000000000
40
0.0000000000
40
1.0000000000
40
1.0000000000
40
1.0000000000
40
1.0000000000
10
16.0027378926
20
-19.8384718329
30
0.0000000000
10
16.0228498578
20
-19.8304194166
30
0.0000000000
10
16.0427068730
20
-19.8217642222
30
0.0000000000
10
16.0622456440
20
-19.8124521133
30
0.0000000000
11
16.0027378926
21
-19.8384718329
31
0.0000000000
11
16.0622456440
21
-19.8124521133
31
0.0000000000
0
SPLINE
5
428
100
AcDbEntity
8
0
100
AcDbSpline
62
9
6
CONTINUOUS
70
0
71
3
72
13
73
9
74
7
42
0.0000001000
43
0.0000001000
44
0.0000000001
12
-0.8510450961
22
0.4283412228
32
0.0000000000
13
0.0000004486
23
0.9492857206
33
0.0000000000
40
0.0000000000
40
0.0000000000
40
0.0000000000
40
0.0000000000
40
0.0072343795
40
0.2050363637
40
0.4098378621
40
0.6189066449
40
0.8212702160
40
1.0000000000
40
1.0000000000
40
1.0000000000
40
1.0000000000
10
12.3944479821
20
-19.9255076521
30
0.0000000000
10
12.3923957210
20
-19.9244747244
30
0.0000000000
10
12.3344090070
20
-19.8948460693
30
0.0000000000
10
12.2288775605
20
-19.8156053711
30
0.0000000000
10
12.1146307815
20
-19.6562771915
30
0.0000000000
10
12.0424125297
20
-19.4735284483
30
0.0000000000
10
12.0069388702
20
-19.2893852824
30
0.0000000000
10
12.0004349481
20
-19.1686691103
30
0.0000000000
10
12.0004349749
20
-19.1121138997
30
0.0000000000
11
12.3944479821
21
-19.9255076521
31
0.0000000000
11
12.3883102465
21
-19.9223714581
31
0.0000000000
11
12.2375523725
21
-19.8104345951
31
0.0000000000
11
12.1224798853
21
-19.6537324300
31
0.0000000000
11
12.0476912812
21
-19.4698971182
31
0.0000000000
11
12.0101434156
21
-19.2815015403
31
0.0000000000
11
12.0004349749
21
-19.1121138997
31
0.0000000000
0
SPLINE
5
429
100
AcDbEntity
8
0
100
AcDbSpline
62
7
6
CONTINUOUS
70
0
71
3
72
12
73
8
74
6
42
0.0000001000
43
0.0000001000
44
0.0000000001
12
0.3944039289
22
-0.1972019645
32
0.0000000000
13
0.0000000000
23
-0.4409569979
33
0.0000000000
40
0.0000000000
40
0.0000000000
40
0.0000000000
40
0.0000000000
40
0.1810360213
40
0.3827608700
40
0.5944222285
40
0.8047555072
40
1.0000000000
40
1.0000000000
40
1.0000000000
40
1.0000000000
10
23.0644831601
20
-8.8651481958
30
0.0000000000
10
23.0882835994
20
-8.8770484155
30
0.0000000000
10
23.1345923520
20
-8.9103910436
30
0.0000000000
10
23.1924490549
20
-8.9765897281
30
0.0000000000
10
23.2385955967
20
-9.0564768264
30
0.0000000000
10
23.2686798360
20
-9.1426063686
30
0.0000000000
10
23.2766122866
20
-9.2023186771
30
0.0000000000
10
23.2766122866
20
-9.2310168188
30
0.0000000000
11
23.0644831601
21
-8.8651481958
31
0.0000000000
11
23.1300639556
21
-8.9106657148
31
0.0000000000
11
23.1891837131
21
-8.9771285591
31
0.0000000000
11
23.2360136414
21
-9.0578633763
31
0.0000000000
11
23.2662321575
21
-9.1455504336
31
0.0000000000
11
23.2766122866
21
-9.2310168188
31
0.0000000000
0
SPLINE
5
42A
100
AcDbEntity
8
0
100
AcDbSpline
62
7
6
CONTINUOUS
70
0
71
3
72
11
73
7
74
5
42
0.0000001000
43
0.0000001000
44
0.0000000001
12
-0.0000475733
22
0.3505648793
32
0.0000000000
13
0.3105859164
23
0.1613760873
33
0.0000000000
40
0.0000000000
40
0.0000000000
40
0.0000000000
40
0.0000000000
40
0.0223782433
40
0.3609867139
40
0.6816646116
40
1.0000000000
40
1.0000000000
40
1.0000000000
40
1.0000000000
10
5.5290254712
20
-2.0239644674
30
0.0000000000
10
5.5290251163
20
-2.0213494587
30
0.0000000000
10
5.5292841244
20
-1.9791619562
30
0.0000000000
10
5.5379842858
20
-1.8994241581
30
0.0000000000
10
5.5819485095
20
-1.7917925769
30
0.0000000000
10
5.6394446730
20
-1.7388195170
30
0.0000000000
10
5.6724015024
20
-1.7216956106
30
0.0000000000
11
5.5290254712
21
-2.0239644674
31
0.0000000000
11
5.5290739396
21
-2.0161187442
31
0.0000000000
11
5.5438142988
21
-1.8985231843
31
0.0000000000
11
5.5892965038
21
-1.7959114190
31
0.0000000000
11
5.6724015024
21
-1.7216956106
31
0.0000000000
0
SPLINE
5
42B
100
AcDbEntity
8
0
100
AcDbSpline
62
7
6
CONTINUOUS
70
0
71
3
72
11
73
7
74
5
42
0.0000001000
43
0.0000001000
44
0.0000000001
12
-0.0000475733
22
0.3505648793
32
0.0000000000
13
0.3105859164
23
0.1613760873
33
0.0000000000
40
0.0000000000
40
0.0000000000
40
0.0000000000
40
0.0000000000
40
0.0223782433
40
0.3609867139
40
0.6816646116
40
1.0000000000
40
1.0000000000
40
1.0000000000
40
1.0000000000
10
6.3421982696
20
-1.0449102205
30
0.0000000000
10
6.3421979147
20
-1.0422952118
30
0.0000000000
10
6.3424569228
20
-1.0001077093
30
0.0000000000
10
6.3511570842
20
-0.9203699112
30
0.0000000000
10
6.3951213079
20
-0.8127383301
30
0.0000000000
10
6.4526174714
20
-0.7597652702
30
0.0000000000
10
6.4855743008
20
-0.7426413637
30
0.0000000000
11
6.3421982696
21
-1.0449102205
31
0.0000000000
11
6.3422467380
21
-1.0370644973
31
0.0000000000
11
6.3569870972
21
-0.9194689375
31
0.0000000000
11
6.4024693022
21
-0.8168571721
31
0.0000000000
11
6.4855743008
21
-0.7426413637
31
0.0000000000
0
SPLINE
5
42C
100
AcDbEntity
8
0
100
AcDbSpline
62
7
6
CONTINUOUS
70
0
71
3
72
11
73
7
74
5
42
0.0000001000
43
0.0000001000
44
0.0000000001
12
0.1041131697
22
0.0520826114
32
0.0000000000
13
0.1036557460
23
-0.0518278730
33
0.0000000000
40
0.0000000000
40
0.0000000000
40
0.0000000000
40
0.0000000000
40
0.1262880597
40
0.3931635302
40
0.6816906885
40
1.0000000000
40
1.0000000000
40
1.0000000000
40
1.0000000000
10
25.4070046664
20
27.4021062570
30
0.0000000000
10
25.4113874164
20
27.4042987277
30
0.0000000000
10
25.4255583646
20
27.4100711567
30
0.0000000000
10
25.4520323041
20
27.4139098929
30
0.0000000000
10
25.4858137432
20
27.4091447685
30
0.0000000000
10
25.5078267952
20
27.4005200925
30
0.0000000000
10
25.5188249916
20
27.3950209943
30
0.0000000000
11
25.4070046664
21
27.4021062570
31
0.0000000000
11
25.4206043872
21
27.4076399058
31
0.0000000000
11
25.4511694619
21
27.4123664630
31
0.0000000000
11
25.4843344821
21
27.4081056571
31
0.0000000000
11
25.5188249916
21
27.3950209943
31
0.0000000000
0
SPLINE
5
42D
100
AcDbEntity
8
0
100
AcDbSpline
62
7
6
CONTINUOUS
70
0
71
3
72
11
73
7
74
5
42
0.0000001000
43
0.0000001000
44
0.0000000001
12
0.1033952241
22
0.0490938610
32
0.0000000000
13
0.1019171495
23
-0.0509585748
33
0.0000000000
40
0.0000000000
40
0.0000000000
40
0.0000000000
40
0.0000000000
40
0.1114665735
40
0.3828695078
40
0.6762931728
40
1.0000000000
40
1.0000000000
40
1.0000000000
40
1.0000000000
10
9.4533338388
20
35.3806802231
30
0.0000000000
10
9.4571755425
20
35.3825043313
30
0.0000000000
10
9.4707894716
20
35.3878846193
30
0.0000000000
10
9.4966137605
20
35.3916250202
30
0.0000000000
10
9.5303913700
20
35.3868569814
30
0.0000000000
10
9.5524019726
20
35.3782325038
30
0.0000000000
10
9.5633990650
20
35.3727339576
30
0.0000000000
11
9.4533338388
21
35.3806802231
31
0.0000000000
11
9.4651877798
21
35.3853605601
31
0.0000000000
11
9.4957507230
21
35.3900821509
31
0.0000000000
11
9.5289124444
21
35.3858184316
31
0.0000000000
11
9.5633990650
21
35.3727339576
31
0.0000000000
0
SPLINE
5
42E
100
AcDbEntity
8
0
100
AcDbSpline
62
7
6
CONTINUOUS
70
0
71
3
72
9
73
5
74
3
42
0.0000001000
43
0.0000001000
44
0.0000000001
12
-0.2696489734
22
0.1345965681
32
0.0000000000
13
-0.2980938733
23
0.0416094322
33
0.0000000000
40
0.0000000000
40
0.0000000000
40
0.0000000000
40
0.0000000000
40
0.3419139327
40
1.0000000000
40
1.0000000000
40
1.0000000000
40
1.0000000000
10
20.8636551254
20
28.0885832398
30
0.0000000000
10
20.8329228784
20
28.1039233871
30
0.0000000000
10
20.7410764878
20
28.1448769646
30
0.0000000000
10
20.6434574451
20
28.1722978919
30
0.0000000000
10
20.5780669701
20
28.1814254211
30
0.0000000000
11
20.8636551254
21
28.0885832398
31
0.0000000000
11
20.7694409045
21
28.1303465483
31
0.0000000000
11
20.5780669701
21
28.1814254211
31
0.0000000000
0
SPLINE
5
42F
100
AcDbEntity
8
0
100
AcDbSpline
62
7
6
CONTINUOUS
70
0
71
3
72
13
73
9
74
7
42
0.0000001000
43
0.0000001000
44
0.0000000001
12
-1.2972681779
22
0.6486340889
32
0.0000000000
13
-1.3032528405
23
-0.6365241083
33
0.0000000000
40
0.0000000000
40
0.0000000000
40
0.0000000000
40
0.0000000000
40
0.1524391030
40
0.3216883281
40
0.4999243851
40
0.6781789669
40
0.8474812059
40
1.0000000000
40
1.0000000000
40
1.0000000000
40
1.0000000000
10
22.3529519503
20
-8.5093825909
30
0.0000000000
10
22.2870338178
20
-8.4764235247
30
0.0000000000
10
22.1403057972
20
-8.4218933559
30
0.0000000000
10
21.9027947249
20
-8.3734539762
30
0.0000000000
10
21.6484829115
20
-8.3561346084
30
0.0000000000
10
21.3940000544
20
-8.3711631387
30
0.0000000000
10
21.1559884552
20
-8.4174624310
30
0.0000000000
10
21.0087073168
20
-8.4706648176
30
0.0000000000
10
20.9424504663
20
-8.5030254474
30
0.0000000000
11
22.3529519503
21
-8.5093825909
31
0.0000000000
11
22.1466024855
21
-8.4299886331
31
0.0000000000
11
21.9063530760
21
-8.3795965705
31
0.0000000000
11
21.6484672294
21
-8.3616179607
31
0.0000000000
11
21.3904028238
21
-8.3772702744
31
0.0000000000
11
21.1496304383
21
-8.4254942622
31
0.0000000000
11
20.9424504663
21
-8.5030254474
31
0.0000000000
0
SPLINE
5
430
100
AcDbEntity
8
0
100
AcDbSpline
62
7
6
CONTINUOUS
70
0
71
3
72
15
73
11
74
9
42
0.0000001000
43
0.0000001000
44
0.0000000001
12
0.3290683707
22
-0.1645341854
32
0.0000000000
13
-0.0000000000
23
-0.3679096231
33
0.0000000000
40
0.0000000000
40
0.0000000000
40
0.0000000000
40
0.0000000000
40
0.1103204857
40
0.2298781740
40
0.3567595686
40
0.4883275151
40
0.6215317634
40
0.7531836465
40
0.8802241246
40
1.0000000000
40
1.0000000000
40
1.0000000000
40
1.0000000000
10
26.5239163692
20
26.8924753055
30
0.0000000000
10
26.5360173633
20
26.8864248084
30
0.0000000000
10
26.5600026145
20
26.8712830206
30
0.0000000000
10
26.5929423445
20
26.8422693826
30
0.0000000000
10
26.6232733796
20
26.8070312596
30
0.0000000000
10
26.6498612343
20
26.7668881795
30
0.0000000000
10
26.6717232042
20
26.7233365328
30
0.0000000000
10
26.6880399409
20
26.6780005602
30
0.0000000000
10
26.6981999310
20
26.6325873390
30
0.0000000000
10
26.7006984508
20
26.6022879163
30
0.0000000000
10
26.7006984508
20
26.5875990172
30
0.0000000000
11
26.5239163692
21
26.8924753055
31
0.0000000000
11
26.5584030324
21
26.8710731273
31
0.0000000000
11
26.5915648386
21
26.8421750285
31
0.0000000000
11
26.6221278498
21
26.8068903652
31
0.0000000000
11
26.6489173604
21
26.7665743988
31
0.0000000000
11
26.6709035694
21
26.7227759411
31
0.0000000000
11
26.6872409990
21
26.6771784195
31
0.0000000000
11
26.6973014981
21
26.6315345895
31
0.0000000000
11
26.7006984508
21
26.5875990172
31
0.0000000000
0
SPLINE
5
431
100
AcDbEntity
8
0
100
AcDbSpline
62
7
6
CONTINUOUS
70
0
71
3
72
15
73
11
74
9
42
0.0000001000
43
0.0000001000
44
0.0000000001
12
0.3291095660
22
-0.1645547830
32
0.0000000000
13
0.0000000000
23
-0.3679556808
33
0.0000000000
40
0.0000000000
40
0.0000000000
40
0.0000000000
40
0.0000000000
40
0.1103208184
40
0.2298810531
40
0.3567645603
40
0.4883333249
40
0.6215364605
40
0.7531864160
40
0.8802252308
40
1.0000000000
40
1.0000000000
40
1.0000000000
40
1.0000000000
10
10.5684904426
20
34.8701882688
30
0.0000000000
10
10.5805929881
20
34.8641369960
30
0.0000000000
10
10.6045811030
20
34.8489922542
30
0.0000000000
10
10.6375236672
20
34.8199725614
30
0.0000000000
10
10.6678566061
20
34.7847275098
30
0.0000000000
10
10.6944455088
20
34.7445776518
30
0.0000000000
10
10.7163080699
20
34.7010198159
30
0.0000000000
10
10.7326253069
20
34.6556782634
30
0.0000000000
10
10.7427858504
20
34.6102598211
30
0.0000000000
10
10.7452846393
20
34.5799569551
30
0.0000000000
10
10.7452846393
20
34.5652663529
30
0.0000000000
11
10.5684904426
21
34.8701882688
31
0.0000000000
11
10.6029809529
21
34.8487824215
31
0.0000000000
11
10.6361459748
21
34.8198782052
31
0.0000000000
11
10.6667110508
21
34.7845865708
31
0.0000000000
11
10.6935017142
21
34.7442637335
31
0.0000000000
11
10.7154884859
21
34.7004591518
31
0.0000000000
11
10.7318263787
21
34.6548561086
31
0.0000000000
11
10.7418873933
21
34.6092070273
31
0.0000000000
11
10.7452846393
21
34.5652663529
31
0.0000000000
0
SPLINE
5
432
100
AcDbEntity
8
0
100
AcDbSpline
62
7
6
CONTINUOUS
70
0
71
3
72
9
73
5
74
3
42
0.0000001000
43
0.0000001000
44
0.0000000001
12
-0.4102024704
22
0.0572581104
32
0.0000000000
13
-0.4136742255
23
-0.0204497703
33
0.0000000000
40
0.0000000000
40
0.0000000000
40
0.0000000000
40
0.0000000000
40
0.5348071902
40
1.0000000000
40
1.0000000000
40
1.0000000000
40
1.0000000000
10
20.5780669701
20
28.1814254211
30
0.0000000000
10
20.5049405599
20
28.1916327708
30
0.0000000000
10
20.3675305413
20
28.2061736141
30
0.0000000000
10
20.2291777674
20
28.2089241908
30
0.0000000000
10
20.1650316756
20
28.2057531621
30
0.0000000000
11
20.5780669701
21
28.1814254211
31
0.0000000000
11
20.3576951823
21
28.2038136288
31
0.0000000000
11
20.1650316756
21
28.2057531621
31
0.0000000000
0
SPLINE
5
433
100
AcDbEntity
8
0
100
AcDbSpline
62
7
6
CONTINUOUS
70
0
71
3
72
12
73
8
74
6
42
0.0000001000
43
0.0000001000
44
0.0000000001
12
0.0000000000
22
-0.1555557957
32
0.0000000000
13
-0.1382803797
23
-0.0727641004
33
0.0000000000
40
0.0000000000
40
0.0000000000
40
0.0000000000
40
0.0000000000
40
0.2615186639
40
0.4992358623
40
0.7146713104
40
0.9137667753
40
1.0000000000
40
1.0000000000
40
1.0000000000
40
1.0000000000
10
26.7006984508
20
-14.4398201396
30
0.0000000000
10
26.7006984508
20
-14.4533803876
30
0.0000000000
10
26.6987278047
20
-14.4793413097
30
0.0000000000
10
26.6889560528
20
-14.5153563607
30
0.0000000000
10
26.6726605965
20
-14.5454169091
30
0.0000000000
10
26.6541165902
20
-14.5641681746
30
0.0000000000
10
26.6414555891
20
-14.5720185710
30
0.0000000000
10
26.6374808014
20
-14.5741101320
30
0.0000000000
11
26.7006984508
21
-14.4398201396
31
0.0000000000
11
26.6973014896
21
-14.4803588073
31
0.0000000000
11
26.6872409462
21
-14.5159422198
31
0.0000000000
11
26.6709034388
21
-14.5452023562
31
0.0000000000
11
26.6489171653
21
-14.5670145722
31
0.0000000000
11
26.6374808014
21
-14.5741101320
31
0.0000000000
0
SPLINE
5
434
100
AcDbEntity
8
0
100
AcDbSpline
62
9
6
CONTINUOUS
70
0
71
3
72
13
73
9
74
7
42
0.0000001000
43
0.0000001000
44
0.0000000001
12
-0.4219046581
22
-0.2165930249
32
0.0000000000
13
-0.4233075746
23
0.2116537873
33
0.0000000000
40
0.0000000000
40
0.0000000000
40
0.0000000000
40
0.0000000000
40
0.1604245350
40
0.3412508853
40
0.5202975241
40
0.6941592858
40
0.8549285374
40
1.0000000000
40
1.0000000000
40
1.0000000000
40
1.0000000000
10
9.8005962585
20
-17.0467927947
30
0.0000000000
10
9.7780349723
20
-17.0583750731
30
0.0000000000
10
9.7275496430
20
-17.0781749647
30
0.0000000000
10
9.6459965152
20
-17.0918100953
30
0.0000000000
10
9.5613823259
20
-17.0893370558
30
0.0000000000
10
9.4815412967
20
-17.0738698385
30
0.0000000000
10
9.4095696081
20
-17.0499722421
30
0.0000000000
10
9.3654801396
20
-17.0301962158
30
0.0000000000
10
9.3450101900
20
-17.0199612410
30
0.0000000000
11
9.8005962585
21
-17.0467927947
31
0.0000000000
11
9.7299041637
21
-17.0745918293
31
0.0000000000
11
9.6455550058
21
-17.0890546150
31
0.0000000000
11
9.5608421428
21
-17.0869987115
31
0.0000000000
11
9.4799937751
21
-17.0716954579
31
0.0000000000
11
9.4077109679
21
-17.0479357720
31
0.0000000000
11
9.3450101900
21
-17.0199612410
31
0.0000000000
0
SPLINE
5
435
100
AcDbEntity
8
0
100
AcDbSpline
62
9
6
CONTINUOUS
70
0
71
3
72
11
73
7
74
5
42
0.0000001000
43
0.0000001000
44
0.0000000001
12
0.2587376852
22
-0.1293688426
32
0.0000000000
13
0.2596299070
23
0.1275687995
33
0.0000000000
40
0.0000000000
40
0.0000000000
40
0.0000000000
40
0.0000000000
40
0.2350728582
40
0.4993698037
40
0.7640057751
40
1.0000000000
40
1.0000000000
40
1.0000000000
40
1.0000000000
10
-2.9648240621
20
-10.1301235313
30
0.0000000000
10
-2.9445499931
20
-10.1402605659
30
0.0000000000
10
-2.8979740620
20
-10.1547601887
30
0.0000000000
10
-2.8242477977
20
-10.1617921446
30
0.0000000000
10
-2.7504028169
20
-10.1550640370
30
0.0000000000
10
-2.7036445726
20
-10.1407730648
30
0.0000000000
10
-2.6832208531
20
-10.1307378981
30
0.0000000000
11
-2.9648240621
21
-10.1301235313
31
0.0000000000
11
-2.9003423284
21
-10.1517170981
31
0.0000000000
11
-2.8242753678
21
-10.1594119013
31
0.0000000000
11
-2.7480770056
21
-10.1520492916
31
0.0000000000
11
-2.6832208531
21
-10.1307378981
31
0.0000000000
0
SPLINE
5
436
100
AcDbEntity
8
0
100
AcDbSpline
62
9
6
CONTINUOUS
70
0
71
3
72
11
73
7
74
5
42
0.0000001000
43
0.0000001000
44
0.0000000001
12
-0.0000000000
22
0.2922794165
32
0.0000000000
13
0.2603003272
23
0.1329323021
33
0.0000000000
40
0.0000000000
40
0.0000000000
40
0.0000000000
40
0.0000000000
40
0.2465045128
40
0.5112208146
40
0.7698003742
40
1.0000000000
40
1.0000000000
40
1.0000000000
40
1.0000000000
10
-2.1088855468
20
-11.6063990960
30
0.0000000000
10
-2.1088855468
20
-11.5823830309
30
0.0000000000
10
-2.1006430298
20
-11.5324909444
30
0.0000000000
10
-2.0707551885
20
-11.4630213170
30
0.0000000000
10
-2.0267727846
20
-11.4034613659
30
0.0000000000
10
-1.9886719883
20
-11.3733073135
30
0.0000000000
10
-1.9686983090
20
-11.3631069915
30
0.0000000000
11
-2.1088855468
21
-11.6063990960
31
0.0000000000
11
-2.0982382396
21
-11.5351419751
31
0.0000000000
11
-2.0678995538
21
-11.4639671529
31
0.0000000000
11
-2.0224377652
21
-11.4035918128
31
0.0000000000
11
-1.9686983090
21
-11.3631069915
31
0.0000000000
0
SPLINE
5
437
100
AcDbEntity
8
0
100
AcDbSpline
62
9
6
CONTINUOUS
70
0
71
3
72
11
73
7
74
5
42
0.0000001000
43
0.0000001000
44
0.0000000001
12
0.0000000000
22
0.2922794165
32
0.0000000000
13
0.2603003272
23
0.1329323021
33
0.0000000000
40
0.0000000000
40
0.0000000000
40
0.0000000000
40
0.0000000000
40
0.2465044269
40
0.5112207078
40
0.7698003090
40
1.0000000000
40
1.0000000000
40
1.0000000000
40
1.0000000000
10
9.2048229522
20
-17.2632533455
30
0.0000000000
10
9.2048229522
20
-17.2392372888
30
0.0000000000
10
9.2130654647
20
-17.1893452127
30
0.0000000000
10
9.2429532976
20
-17.1198755887
30
0.0000000000
10
9.2869357016
20
-17.0603156271
30
0.0000000000
10
9.3250365050
20
-17.0301615659
30
0.0000000000
10
9.3450101900
20
-17.0199612410
30
0.0000000000
11
9.2048229522
21
-17.2632533455
31
0.0000000000
11
9.2154702523
21
-17.1919962489
31
0.0000000000
11
9.2458089295
21
-17.1208214297
31
0.0000000000
11
9.2912707202
21
-17.0604460761
31
0.0000000000
11
9.3450101900
21
-17.0199612410
31
0.0000000000
0
SPLINE
5
438
100
AcDbEntity
8
0
100
AcDbSpline
62
9
6
CONTINUOUS
70
0
71
3
72
10
73
6
74
4
42
0.0000001000
43
0.0000001000
44
0.0000000001
12
-0.0852949315
22
0.0426474657
32
0.0000000000
13
0.0002135657
23
0.0947444484
33
0.0000000000
40
0.0000000000
40
0.0000000000
40
0.0000000000
40
0.0000000000
40
0.5651519197
40
0.9953946807
40
1.0000000000
40
1.0000000000
40
1.0000000000
40
1.0000000000
10
10.0607614676
20
-16.6429162962
30
0.0000000000
10
10.0446932695
20
-16.6348821972
30
0.0000000000
10
10.0172900326
20
-16.6175175043
30
0.0000000000
10
10.0022207847
20
-16.5860838455
30
0.0000000000
10
10.0021832007
20
-16.5723510625
30
0.0000000000
10
10.0021835286
20
-16.5722056197
30
0.0000000000
11
10.0607614676
21
-16.6429162962
31
0.0000000000
11
10.0175743241
21
-16.6106754173
31
0.0000000000
11
10.0021847276
21
-16.5726419332
31
0.0000000000
11
10.0021835286
21
-16.5722056197
31
0.0000000000
0
SPLINE
5
439
100
AcDbEntity
8
0
100
AcDbSpline
62
9
6
CONTINUOUS
70
0
71
3
72
10
73
6
74
4
42
0.0000001000
43
0.0000001000
44
0.0000000001
12
-0.0852949323
22
0.0426474661
32
0.0000000000
13
0.0002135736
23
0.0947444495
33
0.0000000000
40
0.0000000000
40
0.0000000000
40
0.0000000000
40
0.0000000000
40
0.5651517550
40
0.9953945141
40
1.0000000000
40
1.0000000000
40
1.0000000000
40
1.0000000000
10
10.0607614676
20
-10.5807384697
30
0.0000000000
10
10.0446932741
20
-10.5727043730
30
0.0000000000
10
10.0172900429
20
-10.5553396838
30
0.0000000000
10
10.0022207861
20
-10.5239060296
30
0.0000000000
10
10.0021832008
20
-10.5101732413
30
0.0000000000
10
10.0021835286
20
-10.5100277932
30
0.0000000000
11
10.0607614676
21
-10.5807384697
31
0.0000000000
11
10.0175743341
21
-10.5484976029
31
0.0000000000
11
10.0021847277
21
-10.5104641225
31
0.0000000000
11
10.0021835286
21
-10.5100277932
31
0.0000000000
0
SPLINE
5
43A
100
AcDbEntity
8
0
100
AcDbSpline
62
9
6
CONTINUOUS
70
0
71
3
72
10
73
6
74
4
42
0.0000001000
43
0.0000001000
44
0.0000000001
12
0.0000000000
22
-0.1251956488
32
0.0000000000
13
0.1139505284
23
-0.0554503232
33
0.0000000000
40
0.0000000000
40
0.0000000000
40
0.0000000000
40
0.0000000000
40
0.4915339556
40
0.8978790988
40
1.0000000000
40
1.0000000000
40
1.0000000000
40
1.0000000000
10
9.2048229522
20
-9.1044629051
30
0.0000000000
10
9.2048229522
20
-9.1249755426
30
0.0000000000
10
9.2098685550
20
-9.1629937828
30
0.0000000000
10
9.2345265872
20
-9.1996569830
30
0.0000000000
10
9.2529842809
20
-9.2106235278
30
0.0000000000
10
9.2568631911
20
-9.2125110735
30
0.0000000000
11
9.2048229522
21
-9.1044629051
31
0.0000000000
11
9.2154702593
21
-9.1650727189
31
0.0000000000
11
9.2458089452
21
-9.2059088552
31
0.0000000000
11
9.2568631911
21
-9.2125110735
31
0.0000000000
0
SPLINE
5
43B
100
AcDbEntity
8
0
100
AcDbSpline
62
9
6
CONTINUOUS
70
0
71
3
72
10
73
6
74
4
42
0.0000001000
43
0.0000001000
44
0.0000000001
12
0.0000000000
22
-0.1251956491
32
0.0000000000
13
0.1139505306
23
-0.0554503245
33
0.0000000000
40
0.0000000000
40
0.0000000000
40
0.0000000000
40
0.0000000000
40
0.4915338083
40
0.8978789460
40
1.0000000000
40
1.0000000000
40
1.0000000000
40
1.0000000000
10
-2.1088855468
20
-3.4476086556
30
0.0000000000
10
-2.1088855468
20
-3.4681212870
30
0.0000000000
10
-2.1038399460
20
-3.5061395199
30
0.0000000000
10
-2.0791819220
20
-3.5428027248
30
0.0000000000
10
-2.0607242238
20
-3.5537692751
30
0.0000000000
10
-2.0568453077
20
-3.5556568236
30
0.0000000000
11
-2.1088855468
21
-3.4476086556
31
0.0000000000
11
-2.0982382466
21
-3.5082184520
31
0.0000000000
11
-2.0678995695
21
-3.5490545942
31
0.0000000000
11
-2.0568453077
21
-3.5556568236
31
0.0000000000
0
SPLINE
5
43C
100
AcDbEntity
8
0
100
AcDbSpline
62
9
6
CONTINUOUS
70
0
71
3
72
11
73
7
74
5
42
0.0000001000
43
0.0000001000
44
0.0000000001
12
0.2587376852
22
-0.1293688426
32
0.0000000000
13
0.2596299069
23
0.1275687995
33
0.0000000000
40
0.0000000000
40
0.0000000000
40
0.0000000000
40
0.0000000000
40
0.2350729425
40
0.4993699123
40
0.7640058423
40
1.0000000000
40
1.0000000000
40
1.0000000000
40
1.0000000000
10
-2.9648240621
20
-4.0679457048
30
0.0000000000
10
-2.9445499858
20
-4.0780827430
30
0.0000000000
10
-2.8979740435
20
-4.0925823667
30
0.0000000000
10
-2.8242477723
20
-4.0996143180
30
0.0000000000
10
-2.7504028001
20
-4.0928862064
30
0.0000000000
10
-2.7036445668
20
-4.0785952354
30
0.0000000000
10
-2.6832208531
20
-4.0685600716
30
0.0000000000
11
-2.9648240621
21
-4.0679457048
31
0.0000000000
11
-2.9003423044
21
-4.0895392766
31
0.0000000000
11
-2.8242753362
21
-4.0972340749
31
0.0000000000
11
-2.7480769864
21
-4.0898714612
31
0.0000000000
11
-2.6832208531
21
-4.0685600716
31
0.0000000000
0
SPLINE
5
43D
100
AcDbEntity
8
0
100
AcDbSpline
62
7
6
CONTINUOUS
70
0
71
3
72
14
73
10
74
8
42
0.0000001000
43
0.0000001000
44
0.0000000001
12
0.6691050716
22
0.4849304691
32
0.0000000000
13
0.7385372426
23
0.3707045967
33
0.0000000000
40
0.0000000000
40
0.0000000000
40
0.0000000000
40
0.0000000000
40
0.1061829385
40
0.2305964834
40
0.3703096286
40
0.5222334078
40
0.6827227483
40
0.8460056891
40
1.0000000000
40
1.0000000000
40
1.0000000000
40
1.0000000000
10
1.4204640690
20
-1.5483254974
30
0.0000000000
10
1.4441465833
20
-1.5311617167
30
0.0000000000
10
1.4961121329
20
-1.4946237121
30
0.0000000000
10
1.5807509932
20
-1.4376869018
30
0.0000000000
10
1.6769838318
20
-1.3754442688
30
0.0000000000
10
1.7827023003
20
-1.3096043247
30
0.0000000000
10
1.8951488155
20
-1.2423192534
30
0.0000000000
10
2.0094702847
20
-1.1771166405
30
0.0000000000
10
2.0865619139
20
-1.1358940000
30
0.0000000000
10
2.1244720918
20
-1.1168652003
30
0.0000000000
11
1.4204640690
21
-1.5483254974
31
0.0000000000
11
1.4921607496
21
-1.4977419267
31
0.0000000000
11
1.5774145635
21
-1.4402825510
31
0.0000000000
11
1.6743284519
21
-1.3775374549
31
0.0000000000
11
1.7808884411
21
-1.3111602900
31
0.0000000000
11
1.8947191559
21
-1.2431099080
31
0.0000000000
11
2.0120034483
21
-1.1763991864
31
0.0000000000
11
2.1244720918
21
-1.1168652003
31
0.0000000000
0
SPLINE
5
43E
100
AcDbEntity
8
0
100
AcDbSpline
62
7
6
CONTINUOUS
70
0
71
3
72
11
73
7
74
5
42
0.0000001000
43
0.0000001000
44
0.0000000001
12
-0.2556014382
22
0.4408472697
32
0.0000000000
13
-0.0000692633
23
0.5103967587
33
0.0000000000
40
0.0000000000
40
0.0000000000
40
0.0000000000
40
0.0000000000
40
0.2560314098
40
0.5150804601
40
0.7699701555
40
1.0000000000
40
1.0000000000
40
1.0000000000
40
1.0000000000
10
5.6754733364
20
-3.6758301311
30
0.0000000000
10
5.6536593376
20
-3.6382065485
30
0.0000000000
10
5.6136428498
20
-3.5601899349
30
0.0000000000
10
5.5669177440
20
-3.4377299589
30
0.0000000000
10
5.5367905719
20
-3.3146054999
30
0.0000000000
10
5.5290307821
20
-3.2322342582
30
0.0000000000
10
5.5290254712
20
-3.1930987625
30
0.0000000000
11
5.6754733364
21
-3.6758301311
31
0.0000000000
11
5.6160415033
21
-3.5596823035
31
0.0000000000
11
5.5693014817
21
-3.4362260101
31
0.0000000000
11
5.5390654002
21
-3.3099059291
31
0.0000000000
11
5.5290254712
21
-3.1930987625
31
0.0000000000
0
SPLINE
5
43F
100
AcDbEntity
8
0
100
AcDbSpline
62
7
6
CONTINUOUS
70
0
71
3
72
11
73
7
74
5
42
0.0000001000
43
0.0000001000
44
0.0000000001
12
-0.2556014382
22
0.4408472697
32
0.0000000000
13
-0.0000692633
23
0.5103967587
33
0.0000000000
40
0.0000000000
40
0.0000000000
40
0.0000000000
40
0.0000000000
40
0.2560314098
40
0.5150804601
40
0.7699701555
40
1.0000000000
40
1.0000000000
40
1.0000000000
40
1.0000000000
10
5.6754733364
20
-2.5066958360
30
0.0000000000
10
5.6536593376
20
-2.4690722534
30
0.0000000000
10
5.6136428498
20
-2.3910556398
30
0.0000000000
10
5.5669177440
20
-2.2685956638
30
0.0000000000
10
5.5367905719
20
-2.1454712048
30
0.0000000000
10
5.5290307821
20
-2.0630999631
30
0.0000000000
10
5.5290254712
20
-2.0239644674
30
0.0000000000
11
5.6754733364
21
-2.5066958360
31
0.0000000000
11
5.6160415033
21
-2.3905480084
31
0.0000000000
11
5.5693014817
21
-2.2670917150
31
0.0000000000
11
5.5390654002
21
-2.1407716340
31
0.0000000000
11
5.5290254712
21
-2.0239644674
31
0.0000000000
0
SPLINE
5
440
100
AcDbEntity
8
0
100
AcDbSpline
62
7
6
CONTINUOUS
70
0
71
3
72
11
73
7
74
5
42
0.0000001000
43
0.0000001000
44
0.0000000001
12
-0.2556187653
22
0.4408771546
32
0.0000000000
13
-0.0000410107
23
0.5104318290
33
0.0000000000
40
0.0000000000
40
0.0000000000
40
0.0000000000
40
0.0000000000
40
0.2560140547
40
0.5150455454
40
0.7699179630
40
1.0000000000
40
1.0000000000
40
1.0000000000
40
1.0000000000
10
6.4886461348
20
-2.9132822352
30
0.0000000000
10
6.4668321359
20
-2.8756586526
30
0.0000000000
10
6.4268156482
20
-2.7976420390
30
0.0000000000
10
6.3800905424
20
-2.6751820630
30
0.0000000000
10
6.3499606251
20
-2.5520463850
30
0.0000000000
10
6.3422014111
20
-2.4696633319
30
0.0000000000
10
6.3421982658
20
-2.4305162669
30
0.0000000000
11
6.4886461348
21
-2.9132822352
31
0.0000000000
11
6.4292143017
21
-2.7971344076
31
0.0000000000
11
6.3824742800
21
-2.6736781142
31
0.0000000000
11
6.3522381986
21
-2.5473580331
31
0.0000000000
11
6.3421982658
21
-2.4305162669
31
0.0000000000
0
SPLINE
5
441
100
AcDbEntity
8
0
100
AcDbSpline
62
7
6
CONTINUOUS
70
0
71
3
72
11
73
7
74
5
42
0.0000001000
43
0.0000001000
44
0.0000000001
12
-0.2556014382
22
0.4408472697
32
0.0000000000
13
-0.0000692633
23
0.5103967587
33
0.0000000000
40
0.0000000000
40
0.0000000000
40
0.0000000000
40
0.0000000000
40
0.2560314098
40
0.5150804601
40
0.7699701555
40
1.0000000000
40
1.0000000000
40
1.0000000000
40
1.0000000000
10
6.4886461348
20
-1.5276415892
30
0.0000000000
10
6.4668321359
20
-1.4900180065
30
0.0000000000
10
6.4268156482
20
-1.4120013929
30
0.0000000000
10
6.3800905424
20
-1.2895414169
30
0.0000000000
10
6.3499633703
20
-1.1664169580
30
0.0000000000
10
6.3422035805
20
-1.0840457162
30
0.0000000000
10
6.3421982696
20
-1.0449102205
30
0.0000000000
11
6.4886461348
21
-1.5276415892
31
0.0000000000
11
6.4292143017
21
-1.4114937615
31
0.0000000000
11
6.3824742800
21
-1.2880374681
31
0.0000000000
11
6.3522381986
21
-1.1617173871
31
0.0000000000
11
6.3421982696
21
-1.0449102205
31
0.0000000000
0
SPLINE
5
442
100
AcDbEntity
8
0
100
AcDbSpline
62
7
6
CONTINUOUS
70
0
71
3
72
11
73
7
74
5
42
0.0000001000
43
0.0000001000
44
0.0000000001
12
-0.2556187653
22
0.4408771546
32
0.0000000000
13
-0.0000410107
23
0.5104318290
33
0.0000000000
40
0.0000000000
40
0.0000000000
40
0.0000000000
40
0.0000000000
40
0.2560140547
40
0.5150455454
40
0.7699179630
40
1.0000000000
40
1.0000000000
40
1.0000000000
40
1.0000000000
10
8.4685451221
20
-2.5175910828
30
0.0000000000
10
8.4467311233
20
-2.4799675002
30
0.0000000000
10
8.4067146355
20
-2.4019508866
30
0.0000000000
10
8.3599895297
20
-2.2794909106
30
0.0000000000
10
8.3298596124
20
-2.1563552326
30
0.0000000000
10
8.3221003984
20
-2.0739721795
30
0.0000000000
10
8.3220972532
20
-2.0348251145
30
0.0000000000
11
8.4685451221
21
-2.5175910828
31
0.0000000000
11
8.4091132890
21
-2.4014432552
31
0.0000000000
11
8.3623732674
21
-2.2779869618
31
0.0000000000
11
8.3321371859
21
-2.1516668808
31
0.0000000000
11
8.3220972532
21
-2.0348251145
31
0.0000000000
0
SPLINE
5
443
100
AcDbEntity
8
0
100
AcDbSpline
62
7
6
CONTINUOUS
70
0
71
3
72
11
73
7
74
5
42
0.0000001000
43
0.0000001000
44
0.0000000001
12
-0.1589030924
22
-0.1151642013
32
0.0000000000
13
0.0421804072
23
-0.1237687825
33
0.0000000000
40
0.0000000000
40
0.0000000000
40
0.0000000000
40
0.0000000000
40
0.3781771051
40
0.6857790717
40
0.9006994704
40
1.0000000000
40
1.0000000000
40
1.0000000000
40
1.0000000000
10
8.4685451221
20
5.2051833661
30
0.0000000000
10
8.4485139516
20
5.1906658780
30
0.0000000000
10
8.4132173170
20
5.1646015318
30
0.0000000000
10
8.3648222006
20
5.1252423156
30
0.0000000000
10
8.3401022682
20
5.1026623844
30
0.0000000000
10
8.3204099245
20
5.0798369209
30
0.0000000000
10
8.3218061034
20
5.0757401523
30
0.0000000000
11
8.4685451221
21
5.2051833661
31
0.0000000000
11
8.4091132890
21
5.1607322191
31
0.0000000000
11
8.3623732674
21
5.1225297395
31
0.0000000000
11
8.3321371859
21
5.0931235469
31
0.0000000000
11
8.3218061034
21
5.0757401523
31
0.0000000000
0
SPLINE
5
444
100
AcDbEntity
8
0
100
AcDbSpline
62
7
6
CONTINUOUS
70
0
71
3
72
12
73
8
74
6
42
0.0000001000
43
0.0000001000
44
0.0000000001
12
0.2907061721
22
-0.5013939794
32
0.0000000000
13
0.5188557872
23
-0.2606079964
33
0.0000000000
40
0.0000000000
40
0.0000000000
40
0.0000000000
40
0.0000000000
40
0.2265727346
40
0.4588671868
40
0.6905975360
40
0.9167980888
40
1.0000000000
40
1.0000000000
40
1.0000000000
40
1.0000000000
10
-1.3726077166
20
10.1257597855
30
0.0000000000
10
-1.3506523525
20
10.0878923838
30
0.0000000000
10
-1.3021707940
20
10.0134521120
30
0.0000000000
10
-1.2176975472
20
9.9098394441
30
0.0000000000
10
-1.1215691070
20
9.8169081259
30
0.0000000000
10
-1.0367189407
20
9.7551265913
30
0.0000000000
10
-0.9842505276
20
9.7261534501
30
0.0000000000
10
-0.9698605966
20
9.7189257557
30
0.0000000000
11
-1.3726077166
21
10.1257597855
31
0.0000000000
11
-1.3009110361
21
10.0157443816
31
0.0000000000
11
-1.2156572222
21
9.9115449843
31
0.0000000000
11
-1.1187433338
21
9.8185638068
31
0.0000000000
11
-1.0121833446
21
9.7421951813
31
0.0000000000
11
-0.9698605966
21
9.7189257557
31
0.0000000000
0
SPLINE
5
445
100
AcDbEntity
8
0
100
AcDbSpline
62
7
6
CONTINUOUS
70
0
71
3
72
14
73
10
74
8
42
0.0000001000
43
0.0000001000
44
0.0000000001
12
0.6691050716
22
0.4849304691
32
0.0000000000
13
0.7385372426
23
0.3707045967
33
0.0000000000
40
0.0000000000
40
0.0000000000
40
0.0000000000
40
0.0000000000
40
0.1061829385
40
0.2305964834
40
0.3703096286
40
0.5222334078
40
0.6827227483
40
0.8460056891
40
1.0000000000
40
1.0000000000
40
1.0000000000
40
1.0000000000
10
-1.3726077166
20
2.4029853366
30
0.0000000000
10
-1.3489252024
20
2.4201491173
30
0.0000000000
10
-1.2969596528
20
2.4566871219
30
0.0000000000
10
-1.2123207925
20
2.5136239322
30
0.0000000000
10
-1.1160879539
20
2.5758665653
30
0.0000000000
10
-1.0103694854
20
2.6417065094
30
0.0000000000
10
-0.8979229702
20
2.7089915806
30
0.0000000000
10
-0.7836015010
20
2.7741941936
30
0.0000000000
10
-0.7065098718
20
2.8154168340
30
0.0000000000
10
-0.6685996939
20
2.8344456337
30
0.0000000000
11
-1.3726077166
21
2.4029853366
31
0.0000000000
11
-1.3009110361
21
2.4535689073
31
0.0000000000
11
-1.2156572222
21
2.5110282830
31
0.0000000000
11
-1.1187433338
21
2.5737733791
31
0.0000000000
11
-1.0121833446
21
2.6401505440
31
0.0000000000
11
-0.8983526298
21
2.7082009260
31
0.0000000000
11
-0.7810683373
21
2.7749116477
31
0.0000000000
11
-0.6685996939
21
2.8344456337
31
0.0000000000
0
SPLINE
5
446
100
AcDbEntity
8
0
100
AcDbSpline
62
7
6
CONTINUOUS
70
0
71
3
72
14
73
10
74
8
42
0.0000001000
43
0.0000001000
44
0.0000000001
12
0.6691050716
22
0.4849304691
32
0.0000000000
13
0.7385372426
23
0.3707045967
33
0.0000000000
40
0.0000000000
40
0.0000000000
40
0.0000000000
40
0.0000000000
40
0.1061829385
40
0.2305964834
40
0.3703096286
40
0.5222334078
40
0.6827227483
40
0.8460056891
40
1.0000000000
40
1.0000000000
40
1.0000000000
40
1.0000000000
10
0.6072912707
20
1.4130358429
30
0.0000000000
10
0.6309737849
20
1.4301996236
30
0.0000000000
10
0.6829393345
20
1.4667376282
30
0.0000000000
10
0.7675781948
20
1.5236744385
30
0.0000000000
10
0.8638110334
20
1.5859170716
30
0.0000000000
10
0.9695295019
20
1.6517570157
30
0.0000000000
10
1.0819760171
20
1.7190420870
30
0.0000000000
10
1.1962974863
20
1.7842446999
30
0.0000000000
10
1.2733891155
20
1.8254673404
30
0.0000000000
10
1.3112992934
20
1.8444961400
30
0.0000000000
11
0.6072912707
21
1.4130358429
31
0.0000000000
11
0.6789879513
21
1.4636194137
31
0.0000000000
11
0.7642417651
21
1.5210787894
31
0.0000000000
11
0.8611556536
21
1.5838238854
31
0.0000000000
11
0.9677156427
21
1.6502010503
31
0.0000000000
11
1.0815463576
21
1.7182514323
31
0.0000000000
11
1.1988306500
21
1.7849621540
31
0.0000000000
11
1.3112992934
21
1.8444961400
31
0.0000000000
0
SPLINE
5
447
100
AcDbEntity
8
0
100
AcDbSpline
62
7
6
CONTINUOUS
70
0
71
3
72
14
73
10
74
8
42
0.0000001000
43
0.0000001000
44
0.0000000001
12
0.6691050716
22
0.4849304691
32
0.0000000000
13
0.7385372426
23
0.3707045967
33
0.0000000000
40
0.0000000000
40
0.0000000000
40
0.0000000000
40
0.0000000000
40
0.1061829385
40
0.2305964834
40
0.3703096286
40
0.5222334078
40
0.6827227483
40
0.8460056891
40
1.0000000000
40
1.0000000000
40
1.0000000000
40
1.0000000000
10
0.6072912707
20
0.0273951968
30
0.0000000000
10
0.6309737849
20
0.0445589776
30
0.0000000000
10
0.6829393345
20
0.0810969822
30
0.0000000000
10
0.7675781948
20
0.1380337925
30
0.0000000000
10
0.8638110334
20
0.2002764255
30
0.0000000000
10
0.9695295019
20
0.2661163696
30
0.0000000000
10
1.0819760171
20
0.3334014409
30
0.0000000000
10
1.1962974863
20
0.3986040538
30
0.0000000000
10
1.2733891155
20
0.4398266943
30
0.0000000000
10
1.3112992934
20
0.4588554939
30
0.0000000000
11
0.6072912707
21
0.0273951968
31
0.0000000000
11
0.6789879513
21
0.0779787676
31
0.0000000000
11
0.7642417651
21
0.1354381433
31
0.0000000000
11
0.8611556536
21
0.1981832394
31
0.0000000000
11
0.9677156427
21
0.2645604043
31
0.0000000000
11
1.0815463576
21
0.3326107863
31
0.0000000000
11
1.1988306500
21
0.3993215079
31
0.0000000000
11
1.3112992934
21
0.4588554939
31
0.0000000000
0
SPLINE
5
448
100
AcDbEntity
8
0
100
AcDbSpline
62
7
6
CONTINUOUS
70
0
71
3
72
14
73
10
74
8
42
0.0000001000
43
0.0000001000
44
0.0000000001
12
0.6691050716
22
0.4849304691
32
0.0000000000
13
0.7385372426
23
0.3707045967
33
0.0000000000
40
0.0000000000
40
0.0000000000
40
0.0000000000
40
0.0000000000
40
0.1061829385
40
0.2305964834
40
0.3703096286
40
0.5222334078
40
0.6827227483
40
0.8460056891
40
1.0000000000
40
1.0000000000
40
1.0000000000
40
1.0000000000
10
1.4204640690
20
-0.3791912023
30
0.0000000000
10
1.4441465833
20
-0.3620274216
30
0.0000000000
10
1.4961121329
20
-0.3254894170
30
0.0000000000
10
1.5807509932
20
-0.2685526067
30
0.0000000000
10
1.6769838318
20
-0.2063099736
30
0.0000000000
10
1.7827023003
20
-0.1404700295
30
0.0000000000
10
1.8951488155
20
-0.0731849583
30
0.0000000000
10
2.0094702847
20
-0.0079823453
30
0.0000000000
10
2.0865619139
20
0.0332402951
30
0.0000000000
10
2.1244720918
20
0.0522690948
30
0.0000000000
11
1.4204640690
21
-0.3791912023
31
0.0000000000
11
1.4921607496
21
-0.3286076316
31
0.0000000000
11
1.5774145635
21
-0.2711482559
31
0.0000000000
11
1.6743284519
21
-0.2084031598
31
0.0000000000
11
1.7808884411
21
-0.1420259949
31
0.0000000000
11
1.8947191559
21
-0.0739756129
31
0.0000000000
11
2.0120034483
21
-0.0072648912
31
0.0000000000
11
2.1244720918
21
0.0522690948
31
0.0000000000
0
SPLINE
5
449
100
AcDbEntity
8
0
100
AcDbSpline
62
7
6
CONTINUOUS
70
0
71
3
72
9
73
5
74
3
42
0.0000001000
43
0.0000001000
44
0.0000000001
12
-0.1034088832
22
0.0517044416
32
0.0000000000
13
-0.1051161183
23
-0.0511275530
33
0.0000000000
40
0.0000000000
40
0.0000000000
40
0.0000000000
40
0.0000000000
40
0.6082751038
40
1.0000000000
40
1.0000000000
40
1.0000000000
40
1.0000000000
10
19.2103798674
20
24.2396973907
30
0.0000000000
10
19.1894128510
20
24.2501808989
30
0.0000000000
10
19.1508030281
20
24.2618913176
30
0.0000000000
10
19.1114051108
20
24.2528235217
30
0.0000000000
10
19.0976795773
20
24.2461475433
30
0.0000000000
11
19.2103798674
21
24.2396973907
31
0.0000000000
11
19.1421504691
21
24.2567393009
31
0.0000000000
11
19.0976795773
21
24.2461475433
31
0.0000000000
0
SPLINE
5
44A
100
AcDbEntity
8
0
100
AcDbSpline
62
9
6
CONTINUOUS
70
0
71
3
72
9
73
5
74
3
42
0.0000001000
43
0.0000001000
44
0.0000000001
12
-0.1750041032
22
-0.0905992307
32
0.0000000000
13
-0.1145818554
23
-0.1613386708
33
0.0000000000
40
0.0000000000
40
0.0000000000
40
0.0000000000
40
0.0000000000
40
0.6354486014
40
1.0000000000
40
1.0000000000
40
1.0000000000
40
1.0000000000
10
14.9435925001
20
22.0319359783
30
0.0000000000
10
14.9065237959
20
22.0127455935
30
0.0000000000
10
14.8506541055
20
21.9769718324
30
0.0000000000
10
14.8048751434
20
21.9285729617
30
0.0000000000
10
14.7909514849
20
21.9089675490
30
0.0000000000
11
14.9435925001
21
22.0319359783
31
0.0000000000
11
14.8395937475
21
21.9621828654
31
0.0000000000
11
14.7909514849
21
21.9089675490
31
0.0000000000
0
SPLINE
5
44B
100
AcDbEntity
8
0
100
AcDbSpline
62
9
6
CONTINUOUS
70
0
71
3
72
18
73
14
74
12
42
0.0000001000
43
0.0000001000
44
0.0000000001
12
-0.8207919410
22
-1.1557281938
32
0.0000000000
13
1.2670375722
23
0.6223912978
33
0.0000000000
40
0.0000000000
40
0.0000000000
40
0.0000000000
40
0.0000000000
40
0.0231852870
40
0.0869241841
40
0.1505830801
40
0.2245727402
40
0.3137931055
40
0.4179439065
40
0.5336555367
40
0.6559209328
40
0.7785540830
40
0.8951360301
40
1.0000000000
40
1.0000000000
40
1.0000000000
40
1.0000000000
10
14.7909514849
20
21.9089675490
30
0.0000000000
10
14.7846080526
20
21.9000355857
30
0.0000000000
10
14.7629775455
20
21.8650222822
30
0.0000000000
10
14.7427598507
20
21.7938002261
30
0.0000000000
10
14.7702241449
20
21.6986524984
30
0.0000000000
10
14.8425587487
20
21.6170787611
30
0.0000000000
10
14.9500662697
20
21.5496579222
30
0.0000000000
10
15.0870281647
20
21.4984967327
30
0.0000000000
10
15.2453348725
20
21.4663514947
30
0.0000000000
10
15.4151420456
20
21.4553029195
30
0.0000000000
10
15.5853888750
20
21.4661557272
30
0.0000000000
10
15.7446148306
20
21.4980306902
30
0.0000000000
10
15.8430580640
20
21.5341319477
30
0.0000000000
10
15.8873469272
20
21.5558874218
30
0.0000000000
11
14.7909514849
21
21.9089675490
31
0.0000000000
11
14.7737776335
21
21.8809234285
31
0.0000000000
11
14.7513796135
21
21.7937787822
31
0.0000000000
11
14.7741871121
21
21.7068571589
31
0.0000000000
11
14.8404956163
21
21.6261573441
31
0.0000000000
11
14.9457511480
21
21.5569898004
31
0.0000000000
11
15.0828717301
21
21.5039413620
31
0.0000000000
11
15.2427623844
21
21.4705297084
31
0.0000000000
11
15.4149739124
21
21.4590170361
31
0.0000000000
11
15.5877225965
21
21.4702738780
31
0.0000000000
11
15.7489196526
21
21.5034362426
31
0.0000000000
11
15.8873469272
21
21.5558874218
31
0.0000000000
0
SPLINE
5
44C
100
AcDbEntity
8
0
100
AcDbSpline
62
9
6
CONTINUOUS
70
0
71
3
72
11
73
7
74
5
42
0.0000001000
43
0.0000001000
44
0.0000000001
12
0.3252341326
22
-0.1684440159
32
0.0000000000
13
0.0021295493
23
-0.3662595972
33
0.0000000000
40
0.0000000000
40
0.0000000000
40
0.0000000000
40
0.0000000000
40
0.2286600922
40
0.4873234666
40
0.7529130470
40
1.0000000000
40
1.0000000000
40
1.0000000000
40
1.0000000000
10
15.8873469272
20
21.5558874218
30
0.0000000000
10
15.9121362828
20
21.5430486138
30
0.0000000000
10
15.9594325313
20
21.5049808147
30
0.0000000000
10
16.0140769320
20
21.4301293558
30
0.0000000000
10
16.0514805670
20
21.3428803259
30
0.0000000000
10
16.0620702494
20
21.2802519233
30
0.0000000000
10
16.0622456440
20
21.2500859340
30
0.0000000000
11
15.8873469272
21
21.5558874218
31
0.0000000000
11
15.9538945879
21
21.5050392837
31
0.0000000000
11
16.0105003775
21
21.4290697773
31
0.0000000000
11
16.0485478976
21
21.3395427996
31
0.0000000000
11
16.0622456440
21
21.2500859340
31
0.0000000000
0
SPLINE
5
44D
100
AcDbEntity
8
0
100
AcDbSpline
62
7
6
CONTINUOUS
70
0
71
3
72
11
73
7
74
5
42
0.0000001000
43
0.0000001000
44
0.0000000001
12
0.3282923645
22
-0.1641461822
32
0.0000000000
13
0.0000000000
23
-0.3670420217
33
0.0000000000
40
0.0000000000
40
0.0000000000
40
0.0000000000
40
0.0000000000
40
0.2296703855
40
0.4882071356
40
0.7532022231
40
1.0000000000
40
1.0000000000
40
1.0000000000
40
1.0000000000
10
20.2710386915
20
23.7093679786
30
0.0000000000
10
20.2961717028
20
23.6968014730
30
0.0000000000
10
20.3441992261
20
23.6592325402
30
0.0000000000
10
20.3996615938
20
23.5846418646
30
0.0000000000
10
20.4373996194
20
23.4974109499
30
0.0000000000
10
20.4478207731
20
23.4346867420
30
0.0000000000
10
20.4478207731
20
23.4044916903
30
0.0000000000
11
20.2710386915
21
23.7093679786
31
0.0000000000
11
20.3386864619
21
23.6590684056
31
0.0000000000
11
20.3960393883
21
23.5834675797
31
0.0000000000
11
20.4343631696
21
23.4940716167
31
0.0000000000
11
20.4478207731
21
23.4044916903
31
0.0000000000
0
SPLINE
5
44E
100
AcDbEntity
8
0
100
AcDbSpline
62
7
6
CONTINUOUS
70
0
71
3
72
9
73
5
74
3
42
0.0000001000
43
0.0000001000
44
0.0000000001
12
-0.1008992840
22
0.0504496420
32
0.0000000000
13
-0.1037156143
23
-0.0478966073
33
0.0000000000
40
0.0000000000
40
0.0000000000
40
0.0000000000
40
0.0000000000
40
0.6190722494
40
1.0000000000
40
1.0000000000
40
1.0000000000
40
1.0000000000
10
3.0883546813
20
32.3007099837
30
0.0000000000
10
3.0675333657
20
32.3111206415
30
0.0000000000
10
3.0300108359
20
32.3230249494
30
0.0000000000
10
2.9915277306
20
32.3145725592
30
0.0000000000
10
2.9783583454
20
32.3084908436
30
0.0000000000
11
3.0883546813
21
32.3007099837
31
0.0000000000
11
3.0207069108
21
32.3180581811
31
0.0000000000
11
2.9783583454
21
32.3084908436
31
0.0000000000
0
SPLINE
5
44F
100
AcDbEntity
8
0
100
AcDbSpline
62
9
6
CONTINUOUS
70
0
71
3
72
9
73
5
74
3
42
0.0000001000
43
0.0000001000
44
0.0000000001
12
-0.1732803676
22
-0.0912738200
32
0.0000000000
13
-0.1118025806
23
-0.1618119124
33
0.0000000000
40
0.0000000000
40
0.0000000000
40
0.0000000000
40
0.0000000000
40
0.6355920226
40
1.0000000000
40
1.0000000000
40
1.0000000000
40
1.0000000000
10
-1.1449272476
20
30.0720245093
30
0.0000000000
10
-1.1816391207
20
30.0526868720
30
0.0000000000
10
-1.2368910376
20
30.0166894376
30
0.0000000000
10
-1.2818655696
20
29.9680527275
30
0.0000000000
10
-1.2954461536
20
29.9483975436
30
0.0000000000
11
-1.1449272476
21
30.0720245093
31
0.0000000000
11
-1.2477226466
21
30.0018215283
31
0.0000000000
11
-1.2954461536
21
29.9483975436
31
0.0000000000
0
SPLINE
5
450
100
AcDbEntity
8
0
100
AcDbSpline
62
9
6
CONTINUOUS
70
0
71
3
72
18
73
14
74
12
42
0.0000001000
43
0.0000001000
44
0.0000000001
12
-0.8065896062
22
-1.1673774082
32
0.0000000000
13
1.2638741641
23
0.6316769129
33
0.0000000000
40
0.0000000000
40
0.0000000000
40
0.0000000000
40
0.0000000000
40
0.0230321000
40
0.0865168743
40
0.1503213239
40
0.2247129879
40
0.3143822392
40
0.4188936136
40
0.5348033103
40
0.6570676847
40
0.7794919904
40
0.8956758892
40
1.0000000000
40
1.0000000000
40
1.0000000000
40
1.0000000000
10
-1.2954461536
20
29.9483975436
30
0.0000000000
10
-1.3016386378
20
29.9394351592
30
0.0000000000
10
-1.3227063615
20
29.9042606162
30
0.0000000000
10
-1.3416394691
20
29.8327111177
30
0.0000000000
10
-1.3124309296
20
29.7378930018
30
0.0000000000
10
-1.2388124787
20
29.6568023722
30
0.0000000000
10
-1.1302068112
20
29.5898758277
30
0.0000000000
10
-0.9923874422
20
29.5393131433
30
0.0000000000
10
-0.8335299033
20
29.5078492517
30
0.0000000000
10
-0.6635286936
20
29.4975307478
30
0.0000000000
10
-0.4934598610
20
29.5091131703
30
0.0000000000
10
-0.3347692796
20
29.5416667114
30
0.0000000000
10
-0.2368517132
20
29.5782162828
30
0.0000000000
10
-0.1929008637
20
29.6001826602
30
0.0000000000
11
-1.2954461536
21
29.9483975436
31
0.0000000000
11
-1.3121349182
21
29.9202815560
31
0.0000000000
11
-1.3330257012
21
29.8330481135
31
0.0000000000
11
-1.3087132112
21
29.7462366118
31
0.0000000000
11
-1.2410058282
21
29.6658376596
31
0.0000000000
11
-1.1345495836
21
29.5971410809
31
0.0000000000
11
-0.9965060771
21
29.5447020308
31
0.0000000000
11
-0.8360314835
21
29.5119977724
31
0.0000000000
11
-0.6636145283
21
29.5012442671
31
0.0000000000
11
-0.4910544231
21
29.5132600930
31
0.0000000000
11
-0.3304254414
21
29.5471281536
31
0.0000000000
11
-0.1929008637
21
29.6001826602
31
0.0000000000
0
SPLINE
5
451
100
AcDbEntity
8
0
100
AcDbSpline
62
9
6
CONTINUOUS
70
0
71
3
72
11
73
7
74
5
42
0.0000001000
43
0.0000001000
44
0.0000000001
12
0.3267443247
22
-0.1662731735
32
0.0000000000
13
0.0021138478
23
-0.3666117205
33
0.0000000000
40
0.0000000000
40
0.0000000000
40
0.0000000000
40
0.0000000000
40
0.2292611585
40
0.4879683813
40
0.7532545012
40
1.0000000000
40
1.0000000000
40
1.0000000000
40
1.0000000000
10
-0.1929008637
20
29.6001826602
30
0.0000000000
10
-0.1679309363
20
29.5874760001
30
0.0000000000
10
-0.1202373614
20
29.5496771442
30
0.0000000000
10
-0.0650585656
20
29.4750362983
30
0.0000000000
10
-0.0272941285
20
29.3879084353
30
0.0000000000
10
-0.0166132843
20
29.3252956053
30
0.0000000000
10
-0.0164394235
20
29.2951423413
30
0.0000000000
11
-0.1929008637
21
29.6001826602
31
0.0000000000
11
-0.1257527751
21
29.5496283072
31
0.0000000000
11
-0.0686387215
21
29.4739059397
31
0.0000000000
11
-0.0302531339
21
29.3845427183
31
0.0000000000
11
-0.0164394235
21
29.2951423413
31
0.0000000000
0
SPLINE
5
452
100
AcDbEntity
8
0
100
AcDbSpline
62
7
6
CONTINUOUS
70
0
71
3
72
11
73
7
74
5
42
0.0000001000
43
0.0000001000
44
0.0000000001
12
0.3280142320
22
-0.1640071160
32
0.0000000000
13
0.0000000000
23
-0.3667310602
33
0.0000000000
40
0.0000000000
40
0.0000000000
40
0.0000000000
40
0.0000000000
40
0.2290929496
40
0.4875894046
40
0.7528850977
40
1.0000000000
40
1.0000000000
40
1.0000000000
40
1.0000000000
10
4.1489919653
20
31.7703913417
30
0.0000000000
10
4.1740405480
20
31.7578670503
30
0.0000000000
10
4.2215486834
20
31.7197553764
30
0.0000000000
10
4.2765404992
20
31.6450572658
30
0.0000000000
10
4.3138985736
20
31.5576624569
30
0.0000000000
10
4.3242300514
20
31.4949262600
30
0.0000000000
10
4.3242300514
20
31.4647180233
30
0.0000000000
11
4.1489919653
21
31.7703913417
31
0.0000000000
11
4.2160580967
21
31.7197876035
31
0.0000000000
11
4.2729079927
21
31.6439266856
31
0.0000000000
11
4.3108928435
21
31.5543559448
31
0.0000000000
11
4.3242300514
21
31.4647180233
31
0.0000000000
0
SPLINE
5
453
100
AcDbEntity
8
0
100
AcDbSpline
62
9
6
CONTINUOUS
70
0
71
3
72
20
73
16
74
14
42
0.0000001000
43
0.0000001000
44
0.0000000001
12
0.0000000000
22
1.3258588936
32
0.0000000000
13
1.1858842459
23
-0.5929421230
33
0.0000000000
40
0.0000000000
40
0.0000000000
40
0.0000000000
40
0.0000000000
40
0.0722649914
40
0.1516937100
40
0.2352879285
40
0.3198184306
40
0.4031169117
40
0.4841574408
40
0.5631385051
40
0.6409680310
40
0.7183097748
40
0.7948875776
40
0.8692336563
40
0.9379734907
40
1.0000000000
40
1.0000000000
40
1.0000000000
40
1.0000000000
10
-2.9648240621
20
-4.0679457048
30
0.0000000000
10
-2.9648240621
20
-4.0360079777
30
0.0000000000
10
-2.9623261124
20
-3.9689343208
30
0.0000000000
10
-2.9493068811
20
-3.8656009361
30
0.0000000000
10
-2.9237217186
20
-3.7589440823
30
0.0000000000
10
-2.8832474280
20
-3.6550120988
30
0.0000000000
10
-2.8267218241
20
-3.5599623101
30
0.0000000000
10
-2.7543166507
20
-3.4793899555
30
0.0000000000
10
-2.6678939933
20
-3.4179469230
30
0.0000000000
10
-2.5712168262
20
-3.3785578553
30
0.0000000000
10
-2.4694534057
20
-3.3615387745
30
0.0000000000
10
-2.3680749937
20
-3.3645023238
30
0.0000000000
10
-2.2724265211
20
-3.3830341236
30
0.0000000000
10
-2.1862149473
20
-3.4116613659
30
0.0000000000
10
-2.1334043002
20
-3.4353492789
30
0.0000000000
10
-2.1088855468
20
-3.4476086556
30
0.0000000000
11
-2.9648240621
21
-4.0679457048
31
0.0000000000
11
-2.9611060672
21
-3.9722046881
31
0.0000000000
11
-2.9476790600
21
-3.8677528825
31
0.0000000000
11
-2.9214231885
21
-3.7600735652
31
0.0000000000
11
-2.8802327790
21
-3.6558417472
31
0.0000000000
11
-2.8232348008
21
-3.5612443217
31
0.0000000000
11
-2.7510042504
21
-3.4816963104
31
0.0000000000
11
-2.6655051036
21
-3.4212339061
31
0.0000000000
11
-2.5699915313
21
-3.3821758261
31
0.0000000000
11
-2.4689230787
21
-3.3648412130
31
0.0000000000
11
-2.3674216115
21
-3.3673048326
31
0.0000000000
11
-2.2705693724
21
-3.3856396000
31
0.0000000000
11
-2.1839879705
21
-3.4141007430
31
0.0000000000
11
-2.1088855468
21
-3.4476086556
31
0.0000000000
0
SPLINE
5
454
100
AcDbEntity
8
0
100
AcDbSpline
62
9
6
CONTINUOUS
70
0
71
3
72
20
73
16
74
14
42
0.0000001000
43
0.0000001000
44
0.0000000001
12
-1.5941573810
22
0.7970786905
32
0.0000000000
13
0.0000000000
23
1.7823221353
33
0.0000000000
40
0.0000000000
40
0.0000000000
40
0.0000000000
40
0.0000000000
40
0.0511824486
40
0.1128005260
40
0.1845817630
40
0.2652494314
40
0.3530999993
40
0.4458518833
40
0.5408477179
40
0.6351617711
40
0.7256659278
40
0.8094472984
40
0.8841755424
40
0.9474336547
40
1.0000000000
40
1.0000000000
40
1.0000000000
40
1.0000000000
10
-2.1088855468
20
-11.6063990960
30
0.0000000000
10
-2.1360831728
20
-11.5928002830
30
0.0000000000
10
-2.1946499677
20
-11.5600221181
30
0.0000000000
10
-2.2852714299
20
-11.4980074360
30
0.0000000000
10
-2.3832985285
20
-11.4166907218
30
0.0000000000
10
-2.4844598003
20
-11.3156708310
30
0.0000000000
10
-2.5840655331
20
-11.1963492316
30
0.0000000000
10
-2.6776029969
20
-11.0617062601
30
0.0000000000
10
-2.7610618979
20
-10.9161540196
30
0.0000000000
10
-2.8312725834
20
-10.7652479390
30
0.0000000000
10
-2.8862545798
20
-10.6152417031
30
0.0000000000
10
-2.9255070530
20
-10.4724284360
30
0.0000000000
10
-2.9500022968
20
-10.3428247591
30
0.0000000000
10
-2.9623164594
20
-10.2301842168
30
0.0000000000
10
-2.9648240621
20
-10.1613535849
30
0.0000000000
10
-2.9648240621
20
-10.1301235313
30
0.0000000000
11
-2.1088855468
21
-11.6063990960
31
0.0000000000
11
-2.1885756246
21
-11.5620004618
31
0.0000000000
11
-2.2793417195
21
-11.5001727562
31
0.0000000000
11
-2.3779804286
21
-11.4186966577
31
0.0000000000
11
-2.4799012659
21
-11.3172884962
31
0.0000000000
11
-2.5804090676
21
-11.1972266139
31
0.0000000000
11
-2.6748477455
21
-11.0615432789
31
0.0000000000
11
-2.7591199724
21
-10.9146925238
31
0.0000000000
11
-2.8300040138
21
-10.7622707452
31
0.0000000000
11
-2.8854186891
21
-10.6107803386
31
0.0000000000
11
-2.9248449526
21
-10.4667538055
31
0.0000000000
11
-2.9494144388
21
-10.3358497792
31
0.0000000000
11
-2.9615227221
21
-10.2237555097
31
0.0000000000
11
-2.9648240621
21
-10.1301235313
31
0.0000000000
0
SPLINE
5
455
100
AcDbEntity
8
0
100
AcDbSpline
62
7
6
CONTINUOUS
70
0
71
3
72
9
73
5
74
3
42
0.0000001000
43
0.0000001000
44
0.0000000001
12
0.2531781240
22
0.0149650017
32
0.0000000000
13
0.2078721970
23
0.1453005969
33
0.0000000000
40
0.0000000000
40
0.0000000000
40
0.0000000000
40
0.0000000000
40
0.5889130948
40
1.0000000000
40
1.0000000000
40
1.0000000000
40
1.0000000000
10
14.5204113810
20
31.0280633094
30
0.0000000000
10
14.5701113519
20
31.0310010045
30
0.0000000000
10
14.6539756533
20
31.0404904235
30
0.0000000000
10
14.7363447216
20
31.0681338981
30
0.0000000000
10
14.7648292343
20
31.0880442890
30
0.0000000000
11
14.5204113810
21
31.0280633094
31
0.0000000000
11
14.6683703478
21
31.0484740555
31
0.0000000000
11
14.7648292343
21
31.0880442890
31
0.0000000000
0
SPLINE
5
456
100
AcDbEntity
8
0
100
AcDbSpline
62
7
6
CONTINUOUS
70
0
71
3
72
10
73
6
74
4
42
0.0000001000
43
0.0000001000
44
0.0000000001
12
0.0000000000
22
-0.1545203659
32
0.0000000000
13
-0.1390452786
23
-0.0711282908
33
0.0000000000
40
0.0000000000
40
0.0000000000
40
0.0000000000
40
0.0000000000
40
0.5002754779
40
0.9135026642
40
1.0000000000
40
1.0000000000
40
1.0000000000
40
1.0000000000
10
20.4478207731
20
-17.7317571964
30
0.0000000000
10
20.4478207731
20
-17.7575247797
30
0.0000000000
10
20.4414671560
20
-17.8052799518
30
0.0000000000
10
20.4107923187
20
-17.8504356167
30
0.0000000000
10
20.3885451239
20
-17.8638787502
30
0.0000000000
10
20.3845361086
20
-17.8659295528
30
0.0000000000
11
20.4478207731
21
-17.7317571964
31
0.0000000000
11
20.4343631696
21
-17.8078795193
31
0.0000000000
11
20.3960393883
21
-17.8589517009
31
0.0000000000
11
20.3845361086
21
-17.8659295528
31
0.0000000000
0
SPLINE
5
457
100
AcDbEntity
8
0
100
AcDbSpline
62
9
6
CONTINUOUS
70
0
71
3
72
12
73
8
74
6
42
0.0000001000
43
0.0000001000
44
0.0000000001
12
0.0000000000
22
-0.4980145227
32
0.0000000000
13
-0.2699618452
23
-0.4192739177
33
0.0000000000
40
0.0000000000
40
0.0000000000
40
0.0000000000
40
0.0000000000
40
0.1923903365
40
0.4038525894
40
0.6264046095
40
0.8514492877
40
1.0000000000
40
1.0000000000
40
1.0000000000
40
1.0000000000
10
10.0607614676
20
-16.6429162962
30
0.0000000000
10
10.0607614676
20
-16.6748540234
30
0.0000000000
10
10.0582635179
20
-16.7419276803
30
0.0000000000
10
10.0452442866
20
-16.8452610650
30
0.0000000000
10
10.0196591241
20
-16.9519179188
30
0.0000000000
10
9.9836118643
20
-17.0444819428
30
0.0000000000
10
9.9532601367
20
-17.0988002465
30
0.0000000000
10
9.9398924619
20
-17.1195613929
30
0.0000000000
11
10.0607614676
21
-16.6429162962
31
0.0000000000
11
10.0570434727
21
-16.7386573129
31
0.0000000000
11
10.0436164655
21
-16.8431091185
31
0.0000000000
11
10.0173605940
21
-16.9507884358
31
0.0000000000
11
9.9761701844
21
-17.0550202539
31
0.0000000000
11
9.9398924619
21
-17.1195613929
31
0.0000000000
0
SPLINE
5
458
100
AcDbEntity
8
0
100
AcDbSpline
62
9
6
CONTINUOUS
70
0
71
3
72
16
73
12
74
10
42
0.0000001000
43
0.0000001000
44
0.0000000001
12
-0.4487547726
22
-0.6969546807
32
0.0000000000
13
-0.7404465153
23
0.3702232576
33
0.0000000000
40
0.0000000000
40
0.0000000000
40
0.0000000000
40
0.0000000000
40
0.0440440512
40
0.1738369325
40
0.3003314166
40
0.4249816199
40
0.5488506011
40
0.6714960699
40
0.7905672541
40
0.9006595903
40
1.0000000000
40
1.0000000000
40
1.0000000000
40
1.0000000000
10
9.9398924619
20
-17.1195613929
30
0.0000000000
10
9.9333041359
20
-17.1297936288
30
0.0000000000
10
9.9060552918
20
-17.1693765249
30
0.0000000000
10
9.8502540561
20
-17.2314720456
30
0.0000000000
10
9.7638313988
20
-17.2929150780
30
0.0000000000
10
9.6671542317
20
-17.3323041458
30
0.0000000000
10
9.5653908112
20
-17.3493232266
30
0.0000000000
10
9.4640123992
20
-17.3463596773
30
0.0000000000
10
9.3683639266
20
-17.3278278775
30
0.0000000000
10
9.2821523528
20
-17.2992006352
30
0.0000000000
10
9.2293417056
20
-17.2755127222
30
0.0000000000
10
9.2048229522
20
-17.2632533455
30
0.0000000000
11
9.9398924619
21
-17.1195613929
31
0.0000000000
11
9.9191722063
21
-17.1496176794
31
0.0000000000
11
9.8469416559
21
-17.2291656906
31
0.0000000000
11
9.7614425091
21
-17.2896280949
31
0.0000000000
11
9.6659289367
21
-17.3286861750
31
0.0000000000
11
9.5648604842
21
-17.3460207881
31
0.0000000000
11
9.4633590170
21
-17.3435571685
31
0.0000000000
11
9.3665067778
21
-17.3252224011
31
0.0000000000
11
9.2799253760
21
-17.2967612581
31
0.0000000000
11
9.2048229522
21
-17.2632533455
31
0.0000000000
0
SPLINE
5
459
100
AcDbEntity
8
0
100
AcDbSpline
62
7
6
CONTINUOUS
70
0
71
3
72
10
73
6
74
4
42
0.0000001000
43
0.0000001000
44
0.0000000001
12
-0.3031912304
22
-0.3328274581
32
0.0000000000
13
-0.4073214187
23
-0.1931963785
33
0.0000000000
40
0.0000000000
40
0.0000000000
40
0.0000000000
40
0.0000000000
40
0.3956916074
40
0.8014455925
40
1.0000000000
40
1.0000000000
40
1.0000000000
40
1.0000000000
10
16.0622456440
20
-18.4396688672
30
0.0000000000
10
16.0222555689
20
-18.4835678778
30
0.0000000000
10
15.9355071285
20
-18.5674451687
30
0.0000000000
10
15.8133838266
20
-18.6557698843
30
0.0000000000
10
15.7333967011
20
-18.6989254946
30
0.0000000000
10
15.7064382135
20
-18.7117121587
30
0.0000000000
11
16.0622456440
21
-18.4396688672
31
0.0000000000
11
15.9338840057
21
-18.5632012637
31
0.0000000000
11
15.7852906784
21
-18.6694634026
31
0.0000000000
11
15.7064382135
21
-18.7117121587
31
0.0000000000
0
SPLINE
5
45A
100
AcDbEntity
8
0
100
AcDbSpline
62
9
6
CONTINUOUS
70
0
71
3
72
16
73
12
74
10
42
0.0000001000
43
0.0000001000
44
0.0000000001
12
-1.2413266938
22
-0.5837263895
32
0.0000000000
13
0.0000016685
23
1.3717246293
33
0.0000000000
40
0.0000000000
40
0.0000000000
40
0.0000000000
40
0.0000000000
40
0.0956413598
40
0.2030314686
40
0.3144725906
40
0.4268312135
40
0.5412013976
40
0.6595202507
40
0.7802147039
40
0.8969826571
40
1.0000000000
40
1.0000000000
40
1.0000000000
40
1.0000000000
10
13.2407705845
20
-19.7664349473
30
0.0000000000
10
13.2011965269
20
-19.7850444091
30
0.0000000000
10
13.1144853857
20
-19.8191583293
30
0.0000000000
10
12.9728632425
20
-19.8489032385
30
0.0000000000
10
12.8196995873
20
-19.8454178288
30
0.0000000000
10
12.6702564264
20
-19.7965123475
30
0.0000000000
10
12.5418269062
20
-19.7001889515
30
0.0000000000
10
12.4463244888
20
-19.5672688412
30
0.0000000000
10
12.3859524229
20
-19.4148512055
30
0.0000000000
10
12.3563102801
20
-19.2613482285
30
0.0000000000
10
12.3508762055
20
-19.1607468359
30
0.0000000000
10
12.3508762628
20
-19.1136430271
30
0.0000000000
11
13.2407705845
21
-19.7664349473
31
0.0000000000
11
13.1184548608
21
-19.8138757179
31
0.0000000000
11
12.9740490466
21
-19.8429806303
31
0.0000000000
11
12.8212641215
21
-19.8379863142
31
0.0000000000
11
12.6750268453
21
-19.7893118595
31
0.0000000000
11
12.5490280879
21
-19.6958397911
31
0.0000000000
11
12.4528566040
21
-19.5651010328
31
0.0000000000
11
12.3903550101
21
-19.4117924659
31
0.0000000000
11
12.3589802393
21
-19.2547218874
31
0.0000000000
11
12.3508762628
21
-19.1136430271
31
0.0000000000
0
SPLINE
5
45B
100
AcDbEntity
8
0
100
AcDbSpline
62
9
6
CONTINUOUS
70
0
71
3
72
11
73
7
74
5
42
0.0000001000
43
0.0000001000
44
0.0000000001
12
0.3218809863
22
-0.1609404931
32
0.0000000000
13
0.3240741314
23
0.1564773754
33
0.0000000000
40
0.0000000000
40
0.0000000000
40
0.0000000000
40
0.0000000000
40
0.2347796703
40
0.4987463379
40
0.7633868340
40
1.0000000000
40
1.0000000000
40
1.0000000000
40
1.0000000000
10
12.0004349749
20
-19.1121138997
30
0.0000000000
10
12.0256253455
20
-19.1247090850
30
0.0000000000
10
12.0834727944
20
-19.1427734494
30
0.0000000000
10
12.1750982125
20
-19.1516654700
30
0.0000000000
10
12.2670174224
20
-19.1435298054
30
0.0000000000
10
12.3253161940
20
-19.1259845628
30
0.0000000000
10
12.3508762628
20
-19.1136430271
30
0.0000000000
11
12.0004349749
21
-19.1121138997
31
0.0000000000
11
12.0805339298
21
-19.1390006735
31
0.0000000000
11
12.1750300363
21
-19.1487207924
31
0.0000000000
11
12.2698510295
21
-19.1398267462
31
0.0000000000
11
12.3508762628
21
-19.1136430271
31
0.0000000000
0
SPLINE
5
45C
100
AcDbEntity
8
0
100
AcDbSpline
62
9
6
CONTINUOUS
70
0
71
3
72
11
73
7
74
5
42
0.0000001000
43
0.0000001000
44
0.0000000001
12
0.3218809860
22
-0.1609404941
32
0.0000000000
13
0.3240741311
23
0.1564773764
33
0.0000000000
40
0.0000000000
40
0.0000000000
40
0.0000000000
40
0.0000000000
40
0.2347800866
40
0.4987470110
40
0.7633873586
40
1.0000000000
40
1.0000000000
40
1.0000000000
40
1.0000000000
10
12.0004349749
20
16.9687782246
30
0.0000000000
10
12.0256253901
20
16.9561830169
30
0.0000000000
10
12.0834729240
20
16.9381186423
30
0.0000000000
10
12.1750984085
20
16.9292266521
30
0.0000000000
10
12.2670175657
20
16.9373623520
30
0.0000000000
10
12.3253162507
20
16.9549075887
30
0.0000000000
10
12.3508762628
20
16.9672490972
30
0.0000000000
11
12.0004349749
21
16.9687782246
31
0.0000000000
11
12.0805340774
21
16.9418914196
31
0.0000000000
11
12.1750302799
21
16.9321713305
31
0.0000000000
11
12.2698512159
21
16.9410654151
31
0.0000000000
11
12.3508762628
21
16.9672490972
31
0.0000000000
0
SPLINE
5
45D
100
AcDbEntity
8
0
100
AcDbSpline
62
9
6
CONTINUOUS
70
0
71
3
72
9
73
5
74
3
42
0.0000001000
43
0.0000001000
44
0.0000000001
12
0.1798217912
22
-0.0899108956
32
0.0000000000
13
0.1609774938
23
-0.1205548620
33
0.0000000000
40
0.0000000000
40
0.0000000000
40
0.0000000000
40
0.0000000000
40
0.4537429958
40
1.0000000000
40
1.0000000000
40
1.0000000000
40
1.0000000000
10
9.2048229522
20
-9.1044629051
30
0.0000000000
10
9.2320205783
20
-9.1180617181
30
0.0000000000
10
9.2905873732
20
-9.1508398830
30
0.0000000000
10
9.3459674305
20
-9.1887379323
30
0.0000000000
10
9.3752791250
20
-9.2106892449
30
0.0000000000
11
9.2048229522
21
-9.1044629051
31
0.0000000000
11
9.2845130301
21
-9.1488615392
31
0.0000000000
11
9.3752791250
21
-9.2106892449
31
0.0000000000
0
SPLINE
5
45E
100
AcDbEntity
8
0
100
AcDbSpline
62
9
6
CONTINUOUS
70
0
71
3
72
16
73
12
74
10
42
0.0000001000
43
0.0000001000
44
0.0000000001
12
1.1008283498
22
-0.8244022604
32
0.0000000000
13
0.1981679946
23
-1.3608157658
33
0.0000000000
40
0.0000000000
40
0.0000000000
40
0.0000000000
40
0.0000000000
40
0.0930562119
40
0.1976326717
40
0.3115209439
40
0.4317632152
40
0.5549145133
40
0.6771819594
40
0.7945103079
40
0.9031233285
40
1.0000000000
40
1.0000000000
40
1.0000000000
40
1.0000000000
10
9.3752791250
20
-9.2106892449
30
0.0000000000
10
9.4094254304
20
-9.2362611620
30
0.0000000000
10
9.4792359340
20
-9.2941712793
30
0.0000000000
10
9.5803972057
20
-9.3951911701
30
0.0000000000
10
9.6800029386
20
-9.5145127694
30
0.0000000000
10
9.7735404024
20
-9.6491557410
30
0.0000000000
10
9.8569993034
20
-9.7947079815
30
0.0000000000
10
9.9272099889
20
-9.9456140621
30
0.0000000000
10
9.9821919853
20
-10.0956202980
30
0.0000000000
10
10.0214444584
20
-10.2384335650
30
0.0000000000
10
10.0389525590
20
-10.3310684546
30
0.0000000000
10
10.0453518442
20
-10.3750122218
30
0.0000000000
11
9.3752791250
21
-9.2106892449
31
0.0000000000
11
9.4739178340
21
-9.2921653434
31
0.0000000000
11
9.5758386714
21
-9.3935735049
31
0.0000000000
11
9.6763464730
21
-9.5136353872
31
0.0000000000
11
9.7707851509
21
-9.6493187222
31
0.0000000000
11
9.8550573779
21
-9.7961694773
31
0.0000000000
11
9.9259414193
21
-9.9485912559
31
0.0000000000
11
9.9813560946
21
-10.1000816625
31
0.0000000000
11
10.0207823581
21
-10.2441081956
31
0.0000000000
11
10.0453518442
21
-10.3750122218
31
0.0000000000
0
SPLINE
5
45F
100
AcDbEntity
8
0
100
AcDbSpline
62
9
6
CONTINUOUS
70
0
71
3
72
9
73
5
74
3
42
0.0000001000
43
0.0000001000
44
0.0000000001
12
0.0210532714
22
-0.1445724057
32
0.0000000000
13
0.0066407579
23
-0.1459508910
33
0.0000000000
40
0.0000000000
40
0.0000000000
40
0.0000000000
40
0.0000000000
40
0.7719062967
40
1.0000000000
40
1.0000000000
40
1.0000000000
40
1.0000000000
10
10.0453518442
20
-10.3750122218
30
0.0000000000
10
10.0507688952
20
-10.4122110053
30
0.0000000000
10
10.0560648152
20
-10.4606540316
30
0.0000000000
10
10.0588689970
20
-10.5092792076
30
0.0000000000
10
10.0593739021
20
-10.5203760341
30
0.0000000000
11
10.0453518442
21
-10.3750122218
31
0.0000000000
11
10.0574601276
21
-10.4871064914
31
0.0000000000
11
10.0593739021
21
-10.5203760341
31
0.0000000000
0
SPLINE
5
460
100
AcDbEntity
8
0
100
AcDbSpline
62
9
6
CONTINUOUS
70
0
71
3
72
8
73
4
74
2
42
0.0000001000
43
0.0000001000
44
0.0000000001
12
0.0014194034
22
-0.0311957154
32
0.0000000000
13
0.0006971284
23
-0.0312166555
33
0.0000000000
40
0.0000000000
40
0.0000000000
40
0.0000000000
40
0.0000000000
40
1.0000000000
40
1.0000000000
40
1.0000000000
40
1.0000000000
10
10.0593739021
20
-10.5203760341
30
0.0000000000
10
10.0598470365
20
-10.5307746059
30
0.0000000000
10
10.0602018795
20
-10.5411782092
30
0.0000000000
10
10.0604342557
20
-10.5515837610
30
0.0000000000
11
10.0593739021
21
-10.5203760341
31
0.0000000000
11
10.0604342557
21
-10.5515837610
31
0.0000000000
0
SPLINE
5
461
100
AcDbEntity
8
0
100
AcDbSpline
62
9
6
CONTINUOUS
70
0
71
3
72
8
73
4
74
2
42
0.0000001000
43
0.0000001000
44
0.0000000001
12
0.0006510234
22
-0.0291521217
32
0.0000000000
13
0.0000000000
23
-0.0291547848
33
0.0000000000
40
0.0000000000
40
0.0000000000
40
0.0000000000
40
0.0000000000
40
1.0000000000
40
1.0000000000
40
1.0000000000
40
1.0000000000
10
10.0604342557
20
-10.5515837610
30
0.0000000000
10
10.0606512635
20
-10.5613011349
30
0.0000000000
10
10.0607614676
20
-10.5710202081
30
0.0000000000
10
10.0607614676
20
-10.5807384697
30
0.0000000000
11
10.0604342557
21
-10.5515837610
31
0.0000000000
11
10.0607614676
21
-10.5807384697
31
0.0000000000
0
SPLINE
5
462
100
AcDbEntity
8
0
100
AcDbSpline
62
9
6
CONTINUOUS
70
0
71
3
72
16
73
12
74
10
42
0.0000001000
43
0.0000001000
44
0.0000000001
12
-0.0000070657
22
1.8330449660
32
0.0000000000
13
1.6425043713
23
0.8137771427
33
0.0000000000
40
0.0000000000
40
0.0000000000
40
0.0000000000
40
0.0000000000
40
0.0823654349
40
0.1867668872
40
0.3087143441
40
0.4416961635
40
0.5776030339
40
0.7079822733
40
0.8251902370
40
0.9236660493
40
1.0000000000
40
1.0000000000
40
1.0000000000
40
1.0000000000
10
12.3508762628
20
16.9672490972
30
0.0000000000
10
12.3508760688
20
17.0175756125
30
0.0000000000
10
12.3574698475
20
17.1317568317
30
0.0000000000
10
12.3894983425
20
17.3180715638
30
0.0000000000
10
12.4521455034
20
17.5290630360
30
0.0000000000
10
12.5473946720
20
17.7486996962
30
0.0000000000
10
12.6713283764
20
17.9595640142
30
0.0000000000
10
12.8146761415
20
18.1457237563
30
0.0000000000
10
12.9645166571
20
18.2957857816
30
0.0000000000
10
13.1063914182
20
18.4048103122
30
0.0000000000
10
13.1989776353
20
18.4586956999
30
0.0000000000
10
13.2407705845
20
18.4794019747
30
0.0000000000
11
12.3508762628
21
16.9672490972
31
0.0000000000
11
12.3591779772
21
17.1180002325
31
0.0000000000
11
12.3910774782
21
17.3066954292
31
0.0000000000
11
12.4542679362
21
17.5211131036
31
0.0000000000
11
12.5510682690
21
17.7448304249
31
0.0000000000
11
12.6774412627
21
17.9595216850
31
0.0000000000
11
12.8236634842
21
18.1485607395
31
0.0000000000
11
12.9759940652
21
18.3000692493
31
0.0000000000
11
13.1195784964
21
18.4094657069
31
0.0000000000
11
13.2407705845
21
18.4794019747
31
0.0000000000
0
SPLINE
5
463
100
AcDbEntity
8
0
100
AcDbSpline
62
9
6
CONTINUOUS
70
0
71
3
72
16
73
12
74
10
42
0.0000001000
43
0.0000001000
44
0.0000000001
12
-0.0000039750
22
2.1989446334
32
0.0000000000
13
1.9681293316
23
0.9807264831
33
0.0000000000
40
0.0000000000
40
0.0000000000
40
0.0000000000
40
0.0000000000
40
0.0824363535
40
0.1868674828
40
0.3088556626
40
0.4418757566
40
0.5778009362
40
0.7081646643
40
0.8253170102
40
0.9237043017
40
1.0000000000
40
1.0000000000
40
1.0000000000
40
1.0000000000
10
12.0004349749
20
16.9687782246
30
0.0000000000
10
12.0004348656
20
17.0292025503
30
0.0000000000
10
12.0083290403
20
17.1662491774
30
0.0000000000
10
12.0466576886
20
17.3898725351
30
0.0000000000
10
12.1216058715
20
17.6431199877
30
0.0000000000
10
12.2355551387
20
17.9068074495
30
0.0000000000
10
12.3838236254
20
18.1600302693
30
0.0000000000
10
12.5553215851
20
18.3836530870
30
0.0000000000
10
12.7345895614
20
18.5639815001
30
0.0000000000
10
12.9043675510
20
18.6950882613
30
0.0000000000
10
13.0152015573
20
18.7599466085
30
0.0000000000
10
13.0652548245
20
18.7848883458
30
0.0000000000
11
12.0004349749
21
16.9687782246
31
0.0000000000
11
12.0103766399
21
17.1497783780
31
0.0000000000
11
12.0485448756
21
17.3762224582
31
0.0000000000
11
12.1241470699
21
17.6335934436
31
0.0000000000
11
12.2399606870
21
17.9021929444
31
0.0000000000
11
12.3911580450
21
18.1600218670
31
0.0000000000
11
12.5661054549
21
18.3871096509
31
0.0000000000
11
12.7483581134
21
18.5691746526
31
0.0000000000
11
12.9201414134
21
18.7006928808
31
0.0000000000
11
13.0652548245
21
18.7848883458
31
0.0000000000
0
SPLINE
5
464
100
AcDbEntity
8
0
100
AcDbSpline
62
9
6
CONTINUOUS
70
0
71
3
72
11
73
7
74
5
42
0.0000001000
43
0.0000001000
44
0.0000000001
12
0.3251767305
22
-0.1684386212
32
0.0000000000
13
0.0031983489
23
-0.3661983694
33
0.0000000000
40
0.0000000000
40
0.0000000000
40
0.0000000000
40
0.0000000000
40
0.2287545944
40
0.4875230364
40
0.7531065875
40
1.0000000000
40
1.0000000000
40
1.0000000000
40
1.0000000000
10
13.0652548245
20
18.7848883458
30
0.0000000000
10
13.0900500482
20
18.7720446429
30
0.0000000000
10
13.1373736450
20
18.7339990867
30
0.0000000000
10
13.1921424821
20
18.6592331567
30
0.0000000000
10
13.2297406725
20
18.5721009525
30
0.0000000000
10
13.2405073675
20
18.5095392963
30
0.0000000000
10
13.2407705845
20
18.4794019747
30
0.0000000000
11
13.0652548245
21
18.7848883458
31
0.0000000000
11
13.1318470661
21
18.7340617017
31
0.0000000000
11
13.1885853299
21
18.6581603038
31
0.0000000000
11
13.2268337134
21
18.5687367976
31
0.0000000000
11
13.2407705845
21
18.4794019747
31
0.0000000000
0
SPLINE
5
465
100
AcDbEntity
8
0
100
AcDbSpline
62
7
6
CONTINUOUS
70
0
71
3
72
11
73
7
74
5
42
0.0000001000
43
0.0000001000
44
0.0000000001
12
0.6330818045
22
0.0082732534
32
0.0000000000
13
0.6276862366
23
-0.0828915330
33
0.0000000000
40
0.0000000000
40
0.0000000000
40
0.0000000000
40
0.0000000000
40
0.2900450284
40
0.5566024639
40
0.7947901611
40
1.0000000000
40
1.0000000000
40
1.0000000000
40
1.0000000000
10
15.4350289645
20
19.9589936951
30
0.0000000000
10
15.4962363744
20
19.9597935671
30
0.0000000000
10
15.6137530843
20
19.9504042583
30
0.0000000000
10
15.7794871760
20
19.9247608659
30
0.0000000000
10
15.9269645167
20
19.8982742798
30
0.0000000000
10
16.0193098468
20
19.8829727406
30
0.0000000000
10
16.0622456440
20
19.8773026879
30
0.0000000000
11
15.4350289645
21
19.9589936951
31
0.0000000000
11
15.6183181019
21
19.9476811541
31
0.0000000000
11
15.7852906784
21
19.9231356239
31
0.0000000000
11
15.9338840057
21
19.8974019265
31
0.0000000000
11
16.0622456440
21
19.8773026879
31
0.0000000000
0
SPLINE
5
466
100
AcDbEntity
8
0
100
AcDbSpline
62
9
6
CONTINUOUS
70
0
71
3
72
9
73
5
74
3
42
0.0000001000
43
0.0000001000
44
0.0000000001
12
-0.2042796214
22
-0.1078139537
32
0.0000000000
13
-0.1837357109
23
-0.1402330585
33
0.0000000000
40
0.0000000000
40
0.0000000000
40
0.0000000000
40
0.0000000000
40
0.7143696726
40
1.0000000000
40
1.0000000000
40
1.0000000000
40
1.0000000000
10
-3.8702110842
20
27.2526213001
30
0.0000000000
10
-3.9188548063
20
27.2269482939
30
0.0000000000
10
-3.9845615805
20
27.1863795421
30
0.0000000000
10
-4.0467873420
20
27.1409190667
30
0.0000000000
10
-4.0642808391
20
27.1275674618
30
0.0000000000
11
-3.8702110842
21
27.2526213001
31
0.0000000000
11
-4.0109562154
21
27.1664897579
31
0.0000000000
11
-4.0642808391
21
27.1275674618
31
0.0000000000
0
SPLINE
5
467
100
AcDbEntity
8
0
100
AcDbSpline
62
9
6
CONTINUOUS
70
0
71
3
72
15
73
11
74
9
42
0.0000001000
43
0.0000001000
44
0.0000000001
12
-1.5599928006
22
-1.1906371416
32
0.0000000000
13
0.0000041126
23
-1.9611579037
33
0.0000000000
40
0.0000000000
40
0.0000000000
40
0.0000000000
40
0.0000000000
40
0.0754294717
40
0.2059025957
40
0.3516348865
40
0.5040009153
40
0.6533569785
40
0.7903971839
40
0.9076350336
40
1.0000000000
40
1.0000000000
40
1.0000000000
40
1.0000000000
10
-4.0642808391
20
27.1275674618
30
0.0000000000
10
-4.1035039834
20
27.0976310850
30
0.0000000000
10
-4.2067294436
20
27.0108802009
30
0.0000000000
10
-4.3656617536
20
26.8439131345
30
0.0000000000
10
-4.5322571789
20
26.6177620326
30
0.0000000000
10
-4.6762708978
20
26.3623438109
30
0.0000000000
10
-4.7869185231
20
26.0969948302
30
0.0000000000
10
-4.8596603034
20
25.8427286254
30
0.0000000000
10
-4.8968357475
20
25.6187175106
30
0.0000000000
10
-4.9044976960
20
25.4816252580
30
0.0000000000
10
-4.9044975694
20
25.4212444967
30
0.0000000000
11
-4.0642808391
21
27.1275674618
31
0.0000000000
11
-4.1777706492
21
27.0325925565
31
0.0000000000
11
-4.3548661234
21
26.8479010629
31
0.0000000000
11
-4.5249142624
21
26.6181891212
31
0.0000000000
11
-4.6718790449
21
26.3580140558
31
0.0000000000
11
-4.7844191088
21
26.0875857201
31
0.0000000000
11
-4.8578395201
21
25.8290513369
31
0.0000000000
11
-4.8948677480
21
25.6021306309
31
0.0000000000
11
-4.9044975694
21
25.4212444967
31
0.0000000000
0
SPLINE
5
468
100
AcDbEntity
8
0
100
AcDbSpline
62
9
6
CONTINUOUS
70
0
71
3
72
10
73
6
74
4
42
0.0000001000
43
0.0000001000
44
0.0000000001
12
-0.1065933716
22
0.0532966858
32
0.0000000000
13
0.0003852166
23
0.1184577923
33
0.0000000000
40
0.0000000000
40
0.0000000000
40
0.0000000000
40
0.0000000000
40
0.5626087148
40
0.9913152669
40
1.0000000000
40
1.0000000000
40
1.0000000000
40
1.0000000000
10
-4.9044975694
20
25.4212444967
30
0.0000000000
10
-4.9244876893
20
25.4312395567
30
0.0000000000
10
-4.9585592061
20
25.4528462876
30
0.0000000000
10
-4.9776135794
20
25.4919587029
30
0.0000000000
10
-4.9777187767
20
25.5092277433
30
0.0000000000
10
-4.9777176615
20
25.5095706681
30
0.0000000000
11
-4.9044975694
21
25.4212444967
31
0.0000000000
11
-4.9582711170
21
25.4612939741
31
0.0000000000
11
-4.9777113549
21
25.5085420274
31
0.0000000000
11
-4.9777176615
21
25.5095706681
31
0.0000000000
0
SPLINE
5
469
100
AcDbEntity
8
0
100
AcDbSpline
62
9
6
CONTINUOUS
70
0
71
3
72
10
73
6
74
4
42
0.0000001000
43
0.0000001000
44
0.0000000001
12
-0.1066493007
22
0.0533246507
32
0.0000000000
13
0.0005191252
23
0.1185213654
33
0.0000000000
40
0.0000000000
40
0.0000000000
40
0.0000000000
40
0.0000000000
40
0.5623144680
40
0.9907963817
40
1.0000000000
40
1.0000000000
40
1.0000000000
40
1.0000000000
10
-4.9044975694
20
-10.6596476276
30
0.0000000000
10
-4.9244877177
20
-10.6496525534
30
0.0000000000
10
-4.9585592773
20
-10.6280457965
30
0.0000000000
10
-4.9776235895
20
-10.5889128211
30
0.0000000000
10
-4.9777190177
20
-10.5716229026
30
0.0000000000
10
-4.9777174251
20
-10.5712592941
30
0.0000000000
11
-4.9044975694
21
-10.6596476276
31
0.0000000000
11
-4.9582711798
21
-10.6195980752
31
0.0000000000
11
-4.9777113570
21
-10.5723499732
31
0.0000000000
11
-4.9777174251
21
-10.5712592941
31
0.0000000000
0
SPLINE
5
46A
100
AcDbEntity
8
0
100
AcDbSpline
62
9
6
CONTINUOUS
70
0
71
3
72
12
73
8
74
6
42
0.0000001000
43
0.0000001000
44
0.0000000001
12
0.0000000055
22
-0.8685686543
32
0.0000000000
13
0.7224705179
23
-0.4888076191
33
0.0000000000
40
0.0000000000
40
0.0000000000
40
0.0000000000
40
0.0000000000
40
0.1954420517
40
0.4158101465
40
0.6421509849
40
0.8620706664
40
1.0000000000
40
1.0000000000
40
1.0000000000
40
1.0000000000
10
-4.9044975694
20
-10.6596476276
30
0.0000000000
10
-4.9044975690
20
-10.7162325742
30
0.0000000000
10
-4.8981905231
20
-10.8367403190
30
0.0000000000
10
-4.8637811974
20
-11.0202052652
30
0.0000000000
10
-4.7938292302
20
-11.2016392853
30
0.0000000000
10
-4.6953778549
20
-11.3418635928
30
0.0000000000
10
-4.6153801000
20
-11.4094437360
30
0.0000000000
10
-4.5821634743
20
-11.4319173723
30
0.0000000000
11
-4.9044975694
21
-10.6596476276
31
0.0000000000
11
-4.8950395564
21
-10.8291387826
31
0.0000000000
11
-4.8585190014
21
-11.0170271911
31
0.0000000000
11
-4.7858551018
21
-11.1996979094
31
0.0000000000
11
-4.6741234334
21
-11.3546265868
31
0.0000000000
11
-4.5821634743
21
-11.4319173723
31
0.0000000000
0
SPLINE
5
46B
100
AcDbEntity
8
0
100
AcDbSpline
62
9
6
CONTINUOUS
70
0
71
3
72
9
73
5
74
3
42
0.0000001000
43
0.0000001000
44
0.0000000001
12
0.0589608925
22
-0.0398916396
32
0.0000000000
13
0.0636239131
23
-0.0318591101
33
0.0000000000
40
0.0000000000
40
0.0000000000
40
0.0000000000
40
0.0000000000
40
0.8899802774
40
1.0000000000
40
1.0000000000
40
1.0000000000
40
1.0000000000
10
-4.5821634743
20
-11.4319173723
30
0.0000000000
10
-4.5646721305
20
-11.4437516298
30
0.0000000000
10
-4.5442762510
20
-11.4559351516
30
0.0000000000
10
-4.5231464772
20
-11.4667099663
30
0.0000000000
10
-4.5208131821
20
-11.4678783431
30
0.0000000000
11
-4.5821634743
21
-11.4319173723
31
0.0000000000
11
-4.5277869776
21
-11.4643220306
31
0.0000000000
11
-4.5208131821
21
-11.4678783431
31
0.0000000000
0
SPLINE
5
46C
100
AcDbEntity
8
0
100
AcDbSpline
62
9
6
CONTINUOUS
70
0
71
3
72
8
73
4
74
2
42
0.0000001000
43
0.0000001000
44
0.0000000001
12
0.1338430440
22
0.0366538365
32
0.0000000000
13
0.1287242916
23
0.0515385532
33
0.0000000000
40
0.0000000000
40
0.0000000000
40
0.0000000000
40
0.0000000000
40
1.0000000000
40
1.0000000000
40
1.0000000000
40
1.0000000000
10
15.8711469059
20
-19.8823051748
30
0.0000000000
10
15.9157612539
20
-19.8700872293
30
0.0000000000
10
15.9598297954
20
-19.8556513506
30
0.0000000000
10
16.0027378926
20
-19.8384718329
30
0.0000000000
11
15.8711469059
21
-19.8823051748
31
0.0000000000
11
16.0027378926
21
-19.8384718329
31
0.0000000000
0
SPLINE
5
46D
100
AcDbEntity
8
0
100
AcDbSpline
62
9
6
CONTINUOUS
70
0
71
3
72
8
73
4
74
2
42
0.0000001000
43
0.0000001000
44
0.0000000001
12
0.0603358954
22
0.0241572489
32
0.0000000000
13
0.0586163130
23
0.0279363266
33
0.0000000000
40
0.0000000000
40
0.0000000000
40
0.0000000000
40
0.0000000000
40
1.0000000000
40
1.0000000000
40
1.0000000000
40
1.0000000000
10
16.0027378926
20
-19.8384718329
30
0.0000000000
10
16.0228498578
20
-19.8304194166
30
0.0000000000
10
16.0427068730
20
-19.8217642222
30
0.0000000000
10
16.0622456440
20
-19.8124521133
30
0.0000000000
11
16.0027378926
21
-19.8384718329
31
0.0000000000
11
16.0622456440
21
-19.8124521133
31
0.0000000000
0
SPLINE
5
46E
100
AcDbEntity
8
0
100
AcDbSpline
62
7
6
CONTINUOUS
70
0
71
3
72
16
73
12
74
10
42
0.0000001000
43
0.0000001000
44
0.0000000001
12
-1.5871348785
22
-0.8000169785
32
0.0000000000
13
-0.0050210287
23
1.7791917999
33
0.0000000000
40
0.0000000000
40
0.0000000000
40
0.0000000000
40
0.0000000000
40
0.1159972989
40
0.2447360845
40
0.3788977621
40
0.5137235437
40
0.6404396217
40
0.7551548604
40
0.8528692229
40
0.9335496176
40
1.0000000000
40
1.0000000000
40
1.0000000000
40
1.0000000000
10
-0.0164394235
20
28.1388752154
30
0.0000000000
10
-0.0778072098
20
28.1079419459
30
0.0000000000
10
-0.2144634043
20
28.0566952787
30
0.0000000000
10
-0.4350527471
20
28.0115363331
30
0.0000000000
10
-0.6708651867
20
27.9958668367
30
0.0000000000
10
-0.9055142782
20
28.0108289052
30
0.0000000000
10
-1.1247018832
20
28.0554905934
30
0.0000000000
10
-1.3137337357
20
28.1267934854
30
0.0000000000
10
-1.4614280531
20
28.2211580563
30
0.0000000000
10
-1.5580226829
20
28.3335976014
30
0.0000000000
10
-1.5817076683
20
28.4217089539
30
0.0000000000
10
-1.5818188847
20
28.4611182791
30
0.0000000000
11
-0.0164394235
21
28.1388752154
31
0.0000000000
11
-0.2086575723
21
28.0643229888
31
0.0000000000
11
-0.4325710635
21
28.0172125856
31
0.0000000000
11
-0.6704775124
21
28.0010594584
31
0.0000000000
11
-0.9095973274
21
28.0167575597
31
0.0000000000
11
-1.1300188928
21
28.0630033602
31
0.0000000000
11
-1.3198960552
21
28.1372873760
31
0.0000000000
11
-1.4641573091
21
28.2339898051
31
0.0000000000
11
-1.5533046513
21
28.3463101978
31
0.0000000000
11
-1.5818188847
21
28.4611182791
31
0.0000000000
0
SPLINE
5
46F
100
AcDbEntity
8
0
100
AcDbSpline
62
7
6
CONTINUOUS
70
0
71
3
72
14
73
10
74
8
42
0.0000001000
43
0.0000001000
44
0.0000000001
12
-1.1250851171
22
-0.0147028617
32
0.0000000000
13
0.0017274818
23
1.1305099285
33
0.0000000000
40
0.0000000000
40
0.0000000000
40
0.0000000000
40
0.0000000000
40
0.2131053064
40
0.4150024531
40
0.5978404548
40
0.7550536211
40
0.8844039074
40
0.9960065377
40
1.0000000000
40
1.0000000000
40
1.0000000000
40
1.0000000000
10
15.4350289645
20
19.9589936951
30
0.0000000000
10
15.3551084283
20
19.9579492759
30
0.0000000000
10
15.1991235542
20
19.9660797213
30
0.0000000000
10
14.9781400828
20
20.0081805193
30
0.0000000000
10
14.7858590571
20
20.0773162367
30
0.0000000000
10
14.6342026205
20
20.1697218615
30
0.0000000000
10
14.5313820514
20
20.2822202564
30
0.0000000000
10
14.5029911613
20
20.3739442981
30
0.0000000000
10
14.5026137971
20
20.4175022384
30
0.0000000000
10
14.5026160967
20
20.4190071214
30
0.0000000000
11
15.4350289645
21
19.9589936951
31
0.0000000000
11
15.1955924142
21
19.9718616651
31
0.0000000000
11
14.9726674561
21
20.0155774225
31
0.0000000000
11
14.7798849301
21
20.0873968833
31
0.0000000000
11
14.6307937786
21
20.1825970245
31
0.0000000000
11
14.5366821307
21
20.2936178307
31
0.0000000000
11
14.5026554107
21
20.4144929968
31
0.0000000000
11
14.5026160967
21
20.4190071214
31
0.0000000000
0
SPLINE
5
470
100
AcDbEntity
8
0
100
AcDbSpline
62
7
6
CONTINUOUS
70
0
71
3
72
10
73
6
74
4
42
0.0000001000
43
0.0000001000
44
0.0000000001
12
0.1686735258
22
0.0091470510
32
0.0000000000
13
0.1514317680
23
-0.0757828850
33
0.0000000000
40
0.0000000000
40
0.0000000000
40
0.0000000000
40
0.0000000000
40
0.4660808521
40
0.9127044330
40
1.0000000000
40
1.0000000000
40
1.0000000000
40
1.0000000000
10
13.2873860589
20
31.8267658767
30
0.0000000000
10
13.3135912257
20
31.8281869652
30
0.0000000000
10
13.3654325802
20
31.8256855856
30
0.0000000000
10
13.4199669885
20
31.8095666472
30
0.0000000000
10
13.4472475202
20
31.7967448530
30
0.0000000000
10
13.4516539609
20
31.7945396830
30
0.0000000000
11
13.2873860589
21
31.8267658767
31
0.0000000000
11
13.3659985849
21
31.8224481087
31
0.0000000000
11
13.4382777164
21
31.8008248779
31
0.0000000000
11
13.4516539609
21
31.7945396830
31
0.0000000000
0
SPLINE
5
471
100
AcDbEntity
8
0
100
AcDbSpline
62
7
6
CONTINUOUS
70
0
71
3
72
9
73
5
74
3
42
0.0000001000
43
0.0000001000
44
0.0000000001
12
0.0396471581
22
0.0277129689
32
0.0000000000
13
-0.0001101242
23
0.0001712047
33
0.0000000000
40
0.0000000000
40
0.0000000000
40
0.0000000000
40
0.0000000000
40
0.9437354787
40
1.0000000000
40
1.0000000000
40
1.0000000000
40
1.0000000000
10
14.7648292343
20
31.0880442890
30
0.0000000000
10
14.7773013776
20
31.0967621930
30
0.0000000000
10
14.8015249417
20
31.1130976832
30
0.0000000000
10
14.8027091434
20
31.1139735023
30
0.0000000000
10
14.8027070780
20
31.1139767132
30
0.0000000000
11
14.7648292343
21
31.0880442890
31
0.0000000000
11
14.8025029507
21
31.1138260066
31
0.0000000000
11
14.8027070780
21
31.1139767132
31
0.0000000000
0
SPLINE
5
472
100
AcDbEntity
8
0
100
AcDbSpline
62
9
6
CONTINUOUS
70
0
71
3
72
10
73
6
74
4
42
0.0000001000
43
0.0000001000
44
0.0000000001
12
0.1463551849
22
0.0668919939
32
0.0000000000
13
0.0013750821
23
0.1587694403
33
0.0000000000
40
0.0000000000
40
0.0000000000
40
0.0000000000
40
0.0000000000
40
0.1095220514
40
0.5112206307
40
1.0000000000
40
1.0000000000
40
1.0000000000
40
1.0000000000
10
13.1734030518
20
-19.9025613614
30
0.0000000000
10
13.1787460919
20
-19.9001193120
30
0.0000000000
10
13.2025423273
20
-19.8864991201
30
0.0000000000
10
13.2338889086
20
-19.8400196828
30
0.0000000000
10
13.2405465473
20
-19.7923026896
30
0.0000000000
10
13.2407705845
20
-19.7664349473
30
0.0000000000
11
13.1734030518
21
-19.9025613614
31
0.0000000000
11
13.1885854528
21
-19.8938179848
31
0.0000000000
11
13.2268337693
21
-19.8427794149
31
0.0000000000
11
13.2407705845
21
-19.7664349473
31
0.0000000000
0
SPLINE
5
473
100
AcDbEntity
8
0
100
AcDbSpline
62
9
6
CONTINUOUS
70
0
71
3
72
15
73
11
74
9
42
0.0000001000
43
0.0000001000
44
0.0000000001
12
0.0000000000
22
0.6418272381
32
0.0000000000
13
0.5785069084
23
0.2810923881
33
0.0000000000
40
0.0000000000
40
0.0000000000
40
0.0000000000
40
0.0000000000
40
0.1246093511
40
0.2615830457
40
0.4057557011
40
0.5515505042
40
0.6952183139
40
0.8349813083
40
0.9711773950
40
1.0000000000
40
1.0000000000
40
1.0000000000
40
1.0000000000
10
-2.6832208531
20
-4.0685600716
30
0.0000000000
10
-2.6832208531
20
-4.0419008464
30
0.0000000000
10
-2.6811360467
20
-3.9859102834
30
0.0000000000
10
-2.6702681971
20
-3.8996468095
30
0.0000000000
10
-2.6489079629
20
-3.8106019114
30
0.0000000000
10
-2.6151136571
20
-3.7238285475
30
0.0000000000
10
-2.5679155771
20
-3.6444740048
30
0.0000000000
10
-2.5074615467
20
-3.5772143973
30
0.0000000000
10
-2.4538485889
20
-3.5391075507
30
0.0000000000
10
-2.4224066554
20
-3.5228680889
30
0.0000000000
10
-2.4168486300
20
-3.5201674839
30
0.0000000000
11
-2.6832208531
21
-4.0685600716
31
0.0000000000
11
-2.6801177813
21
-3.9886426171
31
0.0000000000
11
-2.6689096929
21
-3.9014465558
31
0.0000000000
11
-2.6469890414
21
-3.8115465303
31
0.0000000000
11
-2.6125959482
21
-3.7245211895
31
0.0000000000
11
-2.5650025418
21
-3.6455431177
31
0.0000000000
11
-2.5046938931
21
-3.5791381474
31
0.0000000000
11
-2.4333164711
21
-3.5286749563
31
0.0000000000
11
-2.4168486300
21
-3.5201674839
31
0.0000000000
0
SPLINE
5
474
100
AcDbEntity
8
0
100
AcDbSpline
62
9
6
CONTINUOUS
70
0
71
3
72
20
73
16
74
14
42
0.0000001000
43
0.0000001000
44
0.0000000001
12
-1.3307750612
22
0.6653875306
32
0.0000000000
13
-0.0000000000
23
1.4878517498
33
0.0000000000
40
0.0000000000
40
0.0000000000
40
0.0000000000
40
0.0000000000
40
0.0511786215
40
0.1127971873
40
0.1845873367
40
0.2652704217
40
0.3531378761
40
0.4459007626
40
0.5408956833
40
0.6351947313
40
0.7256744232
40
0.8094372887
40
0.8841641874
40
0.9474280798
40
1.0000000000
40
1.0000000000
40
1.0000000000
40
1.0000000000
10
-1.9686983090
20
-11.3631069915
30
0.0000000000
10
-1.9914007201
20
-11.3517557859
30
0.0000000000
10
-2.0402900347
20
-11.3243943649
30
0.0000000000
10
-2.1159419289
20
-11.2726245401
30
0.0000000000
10
-2.1977827576
20
-11.2047348374
30
0.0000000000
10
-2.2822437302
20
-11.1203894257
30
0.0000000000
10
-2.3654036212
20
-11.0207626903
30
0.0000000000
10
-2.4434899890
20
-10.9083507308
30
0.0000000000
10
-2.5131533083
20
-10.7868451966
30
0.0000000000
10
-2.5717507358
20
-10.6608874208
30
0.0000000000
10
-2.6176363166
20
-10.5356909967
30
0.0000000000
10
-2.6503978537
20
-10.4164942567
30
0.0000000000
10
-2.6708460978
20
-10.3083104690
30
0.0000000000
10
-2.6811272686
20
-10.2142752358
30
0.0000000000
10
-2.6832208531
20
-10.1568109726
30
0.0000000000
10
-2.6832208531
20
-10.1307378981
30
0.0000000000
11
-1.9686983090
21
-11.3631069915
31
0.0000000000
11
-2.0352174573
21
-11.3260469466
31
0.0000000000
11
-2.1109884219
21
-11.2744344160
31
0.0000000000
11
-2.1933405503
21
-11.2064111468
31
0.0000000000
11
-2.2784373626
21
-11.1217399764
31
0.0000000000
11
-2.3623526156
21
-11.0214925695
31
0.0000000000
11
-2.4411929528
21
-10.9082096922
31
0.0000000000
11
-2.5115356909
21
-10.7856191912
31
0.0000000000
11
-2.5706942347
21
-10.6583981257
31
0.0000000000
11
-2.6169384494
21
-10.5319698217
31
0.0000000000
11
-2.6498436926
21
-10.4117655547
31
0.0000000000
11
-2.6703548462
21
-10.3024913522
31
0.0000000000
11
-2.6804644763
21
-10.2089085403
31
0.0000000000
11
-2.6832208531
21
-10.1307378981
31
0.0000000000
0
SPLINE
5
475
100
AcDbEntity
8
0
100
AcDbSpline
62
9
6
CONTINUOUS
70
0
71
3
72
17
73
13
74
11
42
0.0000001000
43
0.0000001000
44
0.0000000001
12
-0.0037154917
22
-1.7845906360
32
0.0000000000
13
1.5901929652
23
0.7911312428
33
0.0000000000
40
0.0000000000
40
0.0000000000
40
0.0000000000
40
0.0000000000
40
0.0028298437
40
0.0723202397
40
0.1533995740
40
0.2511647984
40
0.3651568216
40
0.4916200565
40
0.6250540683
40
0.7586977755
40
0.8855420141
40
1.0000000000
40
1.0000000000
40
1.0000000000
40
1.0000000000
10
-1.5818194975
20
29.6205217142
30
0.0000000000
10
-1.5818230022
20
29.6188383433
30
0.0000000000
10
-1.5814167286
20
29.5758215230
30
0.0000000000
10
-1.5532758217
20
29.4852361444
30
0.0000000000
10
-1.4523020660
20
29.3742881738
30
0.0000000000
10
-1.3034423519
20
29.2825840874
30
0.0000000000
10
-1.1145263370
20
29.2131580930
30
0.0000000000
10
-0.8967034817
20
29.1697731235
30
0.0000000000
10
-0.6635081773
20
29.1552777431
30
0.0000000000
10
-0.4301187391
20
29.1707267616
30
0.0000000000
10
-0.2119267256
20
29.2149954927
30
0.0000000000
10
-0.0771095182
20
29.2649585785
30
0.0000000000
10
-0.0164394235
20
29.2951423413
30
0.0000000000
11
-1.5818194975
21
29.6205217142
31
0.0000000000
11
-1.5817715166
21
29.6154723784
31
0.0000000000
11
-1.5482450105
21
29.4966898871
31
0.0000000000
11
-1.4553471214
21
29.3866540237
31
0.0000000000
11
-1.3094241950
21
29.2925354188
31
0.0000000000
11
-1.1201937828
21
29.2205401020
31
0.0000000000
11
-0.9001510458
21
29.1754558452
31
0.0000000000
11
-0.6636377869
21
29.1603554244
31
0.0000000000
11
-0.4268133857
21
29.1763997597
31
0.0000000000
11
-0.2062672183
21
29.2223914810
31
0.0000000000
11
-0.0164394235
21
29.2951423413
31
0.0000000000
0
SPLINE
5
476
100
AcDbEntity
8
0
100
AcDbSpline
62
9
6
CONTINUOUS
70
0
71
3
72
16
73
12
74
10
42
0.0000001000
43
0.0000001000
44
0.0000000001
12
-0.0006713222
22
-1.7778579617
32
0.0000000000
13
1.5898241780
23
0.7773437903
33
0.0000000000
40
0.0000000000
40
0.0000000000
40
0.0000000000
40
0.0000000000
40
0.0700845258
40
0.1509423771
40
0.2484812619
40
0.3623880077
40
0.4889778022
40
0.6227753290
40
0.7570107860
40
0.8846358157
40
1.0000000000
40
1.0000000000
40
1.0000000000
40
1.0000000000
10
14.5026118611
20
21.5783033736
30
0.0000000000
10
14.5025961780
20
21.5367699295
30
0.0000000000
10
14.5284820621
20
21.4473522546
30
0.0000000000
10
14.6279256243
20
21.3354909951
30
0.0000000000
10
14.7752790220
20
21.2431131058
30
0.0000000000
10
14.9630185197
20
21.1728700989
30
0.0000000000
10
15.1800844613
20
21.1285539080
30
0.0000000000
10
15.4130118128
20
21.1130596712
30
0.0000000000
10
15.6466433699
20
21.1275094902
30
0.0000000000
10
15.8655701576
20
21.1708467179
30
0.0000000000
10
16.0011093875
20
21.2201933899
30
0.0000000000
10
16.0622456440
20
21.2500859340
30
0.0000000000
11
14.5026118611
21
21.5783033736
31
0.0000000000
11
14.5340769899
21
21.4583622125
31
0.0000000000
11
14.6250577757
21
21.3479167131
31
0.0000000000
11
14.7693347973
21
21.2531559233
31
0.0000000000
11
14.9572990319
21
21.1803286349
31
0.0000000000
11
15.1765395084
21
21.1342775525
31
0.0000000000
11
15.4127690482
21
21.1181384645
31
0.0000000000
11
15.6498499041
21
21.1331432569
31
0.0000000000
11
15.8711734702
21
21.1781673766
31
0.0000000000
11
16.0622456440
21
21.2500859340
31
0.0000000000
0
SPLINE
5
477
100
AcDbEntity
8
0
100
AcDbSpline
62
3
6
CONTINUOUS
70
0
71
3
72
10
73
6
74
4
42
0.0000001000
43
0.0000001000
44
0.0000000001
12
0.0616125570
22
0.0308062785
32
0.0000000000
13
0.0685289761
23
0.0069938116
33
0.0000000000
40
0.0000000000
40
0.0000000000
40
0.0000000000
40
0.0000000000
40
0.3511381091
40
0.6840818606
40
1.0000000000
40
1.0000000000
40
1.0000000000
40
1.0000000000
10
15.4373773687
20
26.1474015185
30
0.0000000000
10
15.4445888743
20
26.1510072713
30
0.0000000000
10
15.4590038701
20
26.1573383578
30
0.0000000000
10
15.4809854869
20
26.1641433544
30
0.0000000000
10
15.4957132568
20
26.1667253396
30
0.0000000000
10
15.5029297723
20
26.1674618303
30
0.0000000000
11
15.4373773687
21
26.1474015185
31
0.0000000000
11
15.4595512042
21
26.1570651830
31
0.0000000000
11
15.4814820986
21
26.1637764636
31
0.0000000000
11
15.5029297723
21
26.1674618303
31
0.0000000000
0
SPLINE
5
478
100
AcDbEntity
8
0
100
AcDbSpline
62
3
6
CONTINUOUS
70
0
71
3
72
12
73
8
74
6
42
0.0000001000
43
0.0000001000
44
0.0000000001
12
0.0000000000
22
0.4409628938
32
0.0000000000
13
0.3944092024
23
0.1972046012
33
0.0000000000
40
0.0000000000
40
0.0000000000
40
0.0000000000
40
0.0000000000
40
0.1952646443
40
0.4051116665
40
0.6172925625
40
0.8190521716
40
1.0000000000
40
1.0000000000
40
1.0000000000
40
1.0000000000
10
14.8616772017
20
25.5997438139
30
0.0000000000
10
14.8616772017
20
25.6284453014
30
0.0000000000
10
14.8696016205
20
25.6880901563
30
0.0000000000
10
14.8996690988
20
25.7742315522
30
0.0000000000
10
14.9458079293
20
25.8541403564
30
0.0000000000
10
15.0037153387
20
25.9203880445
30
0.0000000000
10
15.0500200732
20
25.9537228708
30
0.0000000000
10
15.0738092361
20
25.9656174522
30
0.0000000000
11
14.8616772017
21
25.5997438139
31
0.0000000000
11
14.8720596825
21
25.6852200245
31
0.0000000000
11
14.9021908152
21
25.7727117088
31
0.0000000000
11
14.9491211547
21
25.8536545712
31
0.0000000000
11
15.0082568324
21
25.9201253603
31
0.0000000000
11
15.0738092361
21
25.9656174522
31
0.0000000000
0
SPLINE
5
479
100
AcDbEntity
8
0
100
AcDbSpline
62
3
6
CONTINUOUS
70
0
71
3
72
15
73
11
74
9
42
0.0000001000
43
0.0000001000
44
0.0000000001
12
-0.2545132660
22
0.1272566330
32
0.0000000000
13
-0.2830840723
23
-0.0288905041
33
0.0000000000
40
0.0000000000
40
0.0000000000
40
0.0000000000
40
0.0000000000
40
0.1162145312
40
0.2441045088
40
0.3793057719
40
0.5170866920
40
0.6525903432
40
0.7810703032
40
0.8981319954
40
1.0000000000
40
1.0000000000
40
1.0000000000
40
1.0000000000
10
14.6600667084
20
28.0397454934
30
0.0000000000
10
14.6502073284
20
28.0446751834
30
0.0000000000
10
14.6290109506
20
28.0540641731
30
0.0000000000
10
14.5951671349
20
28.0663335493
30
0.0000000000
10
14.5586860571
20
28.0771299110
30
0.0000000000
10
14.5209576397
20
28.0860356804
30
0.0000000000
10
14.4834182579
20
28.0927113469
30
0.0000000000
10
14.4474942442
20
28.0969102338
30
0.0000000000
10
14.4145540356
20
28.0984851907
30
0.0000000000
10
14.3937580530
20
28.0977106398
30
0.0000000000
10
14.3841456498
20
28.0967296338
30
0.0000000000
11
14.6600667084
21
28.0397454934
31
0.0000000000
11
14.6298923964
21
28.0532767108
31
0.0000000000
11
14.5957089182
21
28.0657604280
31
0.0000000000
11
14.5588299256
21
28.0767169026
31
0.0000000000
11
14.5206726576
21
28.0857250836
31
0.0000000000
11
14.4827034768
21
28.0924387916
31
0.0000000000
11
14.4463815173
21
28.0966000225
31
0.0000000000
11
14.4131026117
21
28.0980488626
31
0.0000000000
11
14.3841456498
21
28.0967296338
31
0.0000000000
0
SPLINE
5
47A
100
AcDbEntity
8
0
100
AcDbSpline
62
3
6
CONTINUOUS
70
0
71
3
72
15
73
11
74
9
42
0.0000001000
43
0.0000001000
44
0.0000000001
12
-0.2545132660
22
0.1272566330
32
0.0000000000
13
-0.2830840723
23
-0.0288905041
33
0.0000000000
40
0.0000000000
40
0.0000000000
40
0.0000000000
40
0.0000000000
40
0.1162145312
40
0.2441045088
40
0.3793057719
40
0.5170866920
40
0.6525903432
40
0.7810703032
40
0.8981319954
40
1.0000000000
40
1.0000000000
40
1.0000000000
40
1.0000000000
10
10.6295580556
20
30.0549998198
30
0.0000000000
10
10.6196986757
20
30.0599295098
30
0.0000000000
10
10.5985022979
20
30.0693184995
30
0.0000000000
10
10.5646584822
20
30.0815878757
30
0.0000000000
10
10.5281774044
20
30.0923842374
30
0.0000000000
10
10.4904489870
20
30.1012900068
30
0.0000000000
10
10.4529096052
20
30.1079656733
30
0.0000000000
10
10.4169855915
20
30.1121645602
30
0.0000000000
10
10.3840453829
20
30.1137395171
30
0.0000000000
10
10.3632494002
20
30.1129649662
30
0.0000000000
10
10.3536369970
20
30.1119839602
30
0.0000000000
11
10.6295580556
21
30.0549998198
31
0.0000000000
11
10.5993837436
21
30.0685310372
31
0.0000000000
11
10.5652002654
21
30.0810147544
31
0.0000000000
11
10.5283212728
21
30.0919712290
31
0.0000000000
11
10.4901640049
21
30.1009794100
31
0.0000000000
11
10.4521948240
21
30.1076931180
31
0.0000000000
11
10.4158728645
21
30.1118543489
31
0.0000000000
11
10.3825939590
21
30.1133031890
31
0.0000000000
11
10.3536369970
21
30.1119839602
31
0.0000000000
0
SPLINE
5
47B
100
AcDbEntity
8
0
100
AcDbSpline
62
3
6
CONTINUOUS
70
0
71
3
72
14
73
10
74
8
42
0.0000001000
43
0.0000001000
44
0.0000000001
12
0.6150856016
22
0.2076721131
32
0.0000000000
13
0.5797085112
23
-0.2898542556
33
0.0000000000
40
0.0000000000
40
0.0000000000
40
0.0000000000
40
0.0000000000
40
0.0226478444
40
0.1827376881
40
0.3522486903
40
0.5249977011
40
0.6945087034
40
0.8545985471
40
1.0000000000
40
1.0000000000
40
1.0000000000
40
1.0000000000
10
13.1321139507
20
27.8846295931
30
0.0000000000
10
13.1367574050
20
27.8861973684
30
0.0000000000
10
13.1743604531
20
27.8984362482
30
0.0000000000
10
13.2486126535
20
27.9159280823
30
0.0000000000
10
13.3567152036
20
27.9280299373
30
0.0000000000
10
13.4675013970
20
27.9280299373
30
0.0000000000
10
13.5756039471
20
27.9159280823
30
0.0000000000
10
13.6757319727
20
27.8923405953
30
0.0000000000
10
13.7375648709
20
27.8683265000
30
0.0000000000
10
13.7656616909
20
27.8542780900
30
0.0000000000
11
13.1321139507
21
27.8846295931
31
0.0000000000
11
13.1460922620
21
27.8891824445
31
0.0000000000
11
13.2469687693
21
27.9134722273
31
0.0000000000
11
13.3561260622
21
27.9259294472
31
0.0000000000
11
13.4680905383
21
27.9259294472
31
0.0000000000
11
13.5772478313
21
27.9134722273
31
0.0000000000
11
13.6781243385
21
27.8891824445
31
0.0000000000
11
13.7656616909
21
27.8542780900
31
0.0000000000
0
ENDSEC
0
SECTION
2
OBJECTS
0
DICTIONARY
5
C
100
AcDbDictionary
280
0
281
1
3
ACAD_GROUP
350
D
3
ACAD_MLINESTYLE
350
17
3
ACAD_LAYOUT
350
1A
3
ACAD_PLOTSETTINGS
350
19
3
ACAD_PLOTSTYLENAME
350
E
0
DICTIONARY
5
D
102
{ACAD_REACTORS
330
C
102
}
100
AcDbDictionary
280
0
281
1
0
ACDBDICTIONARYWDFLT
5
E
102
{ACAD_REACTORS
330
C
102
}
100
AcDbDictionary
281
1
3
Normal
350
F
100
AcDbDictionaryWithDefault
340
F
0
DICTIONARY
5
17
102
{ACAD_REACTORS
330
C
102
}
100
AcDbDictionary
280
0
281
1
3
Standard
350
18
0
DICTIONARY
5
19
102
{ACAD_REACTORS
330
C
102
}
100
AcDbDictionary
281
1
0
DICTIONARY
5
1A
102
{ACAD_REACTORS
330
C
102
}
100
AcDbDictionary
281
1
3
Layout1
350
1E
3
Model
350
22
0
ACDBPLACEHOLDER
5
F
102
{ACAD_REACTORS
330
E
102
}
0
MLINESTYLE
5
18
102
{ACAD_REACTORS
330
17
102
}
100
AcDbMlineStyle
2
STANDARD
70
0
3

62
256
51
90.0
52
90.0
71
2
49
0.5
62
256
6
BYLAYER
49
-0.5
62
256
6
BYLAYER
0
LAYOUT
5
1E
102
{ACAD_REACTORS
330
1A
102
}
100
AcDbPlotSettings
1

2

4

6

40
0.0
41
0.0
42
0.0
43
0.0
44
0.0
45
0.0
46
0.0
47
0.0
48
0.0
49
0.0
140
0.0
141
0.0
142
1.0
143
1.0
70
0
72
0
73
0
74
0
7

75
0
147
1.0
148
0.0
149
0.0
100
AcDbLayout
1
Layout1
70
0
71
0
10
0.0
20
0.0
11
0.0
21
0.0
12
0.0
22
0.0
32
0.0
14
0.0
24
0.0
34
0.0
15
0.0
25
0.0
35
0.0
146
0.0
13
0.0
23
0.0
33
0.0
16
0.0
26
0.0
36
0.0
17
0.0
27
0.0
37
0.0
76
0
330
1B
331
0
345
0
346
0
0
LAYOUT
5
22
102
{ACAD_REACTORS
330
1A
102
}
100
AcDbPlotSettings
1

2

4

6

40
0.0
41
0.0
42
0.0
43
0.0
44
0.0
45
0.0
46
0.0
47
0.0
48
0.0
49
0.0
140
0.0
141
0.0
142
1.0
143
1.0
70
0
72
0
73
0
74
0
7

75
0
147
1.0
148
0.0
149
0.0
100
AcDbLayout
1
Model
70
0
71
0
10
0.0
20
0.0
11
0.0
21
0.0
12
0.0
22
0.0
32
0.0
14
0.0
24
0.0
34
0.0
15
0.0
25
0.0
35
0.0
146
0.0
13
0.0
23
0.0
33
0.0
16
0.0
26
0.0
36
0.0
17
0.0
27
0.0
37
0.0
76
0
330
1F
331
0
345
0
346
0
0
ENDSEC
0
EOF
