  0
SECTION
  2
HEADER
  9
$ACADVER
  1
AC1024
  9
$DWGCODEPAGE
  3
ANSI_1252
  9
$EXTMAX
 10
297.0
 20
210.0
 30
0.0
  9
$EXTMIN
 10
0.0
 20
0.0
 30
0.0
  9
$LIMMIN
 10
0.0
 20
0.0
  9
$LIMMAX
 10
297.0
 20
210.0
  9
$VIEWCTR
 10
148.5
 20
105.0
  9
$VIEWSIZE
 40
210.0
  9
$CLAYER
  8
0
  9
$LTSCALE
 40
16.335
  9
$CELTYPE
  6
BYLAYER
  9
$DIMSCALE
 40
1.0
  9
$DIMASZ
 40
3.0
  9
$DIMEXO
 40
0.5
  9
$DIMDLI
 40
11.286
  9
$DIMEXE
 40
1.5
  9
$DIMCEN
 40
2.673
  9
$DIMLFAC
 40
1.0
  9
$DIMBLK
  1
_FILLED
  9
$DIMALT
 70
0
  9
$DIMALTF
 40
0.0393700787
  9
$DIMTXT
 40
3.0
  9
$DIMTOL
 70
1
  9
$DIMLIM
 70
0
  9
$DIMTFAC
 40
1.0
  9
$DIMTP
 40
0.01
  9
$DIMTM
 40
0.01
  9
$DIMGAP
 40
0.625
  9
$DIMDSEP
 70
44
  9
$AUNITS
 70
0
  9
$PDMODE
 70
3
  9
$PDSIZE
 40
3.0
  9
$HANDSEED
  5
64A
  9
$TILEMODE
 70
1
  9
$MEASUREMENT
 70
1
  9
$INSUNITS
 70
4
  0
ENDSEC
  0
SECTION
  2
CLASSES
  0
CLASS
  1
ACDBDICTIONARYWDFLT
  2
AcDbDictionaryWithDefault
  3
AutoCAD 2000
 90
0
 91
1
280
0
281
0
  0
CLASS
  1
ACDBPLACEHOLDER
  2
AcDbPlaceHolder
  3
AutoCAD 2000
 90
0
 91
1
280
0
281
0
  0
CLASS
  1
LAYOUT
  2
AcDbLayout
  3
AutoCAD 2000
 90
0
 91
0
280
0
281
0
  0
ENDSEC
  0
SECTION
  2
TABLES
  0
TABLE
  2
VPORT
  5
8
100
AcDbSymbolTable
 70
2
  0
VPORT
  5
1F4
100
AcDbSymbolTableRecord
100
AcDbViewportTableRecord
  2
*ACTIVE
 70
0
 10
0.0
 20
0.0
 11
1.0
 21
1.0
 12
148.5
 22
105.0
 13
0.0
 23
0.0
 14
1.0
 24
1.0
 15
0.0
 25
0.0
 16
0.0
 26
0.0
 36
1.0
 17
0.0
 27
0.0
 37
0.0
 40
210.0
 41
1.4142857143
 42
50.0
 43
0.0
 44
0.0
 50
0.0
 51
0.0
 71
0
 72
100
 73
1
 74
1
 75
0
 76
0
 77
0
 78
0
  0
ENDTAB
  0
TABLE
  2
LTYPE
  5
5
100
AcDbSymbolTable
 70
6
  0
LTYPE
  5
14
100
AcDbSymbolTableRecord
100
AcDbLinetypeTableRecord
  2
BYBLOCK
 70
0
  3

 72
65
 73
0
 40
0.0
  0
LTYPE
  5
15
100
AcDbSymbolTableRecord
100
AcDbLinetypeTableRecord
  2
BYLAYER
 70
0
  3

 72
65
 73
0
 40
0.0
  0
LTYPE
  5
16
100
AcDbSymbolTableRecord
100
AcDbLinetypeTableRecord
  2
CONTINUOUS
 70
64
  3
Solid line
 72
65
 73
0
 40
0.0
  0
LTYPE
  5
1F5
100
AcDbSymbolTableRecord
100
AcDbLinetypeTableRecord
  2
CENTER
 70
64
  3
____ _ ____ _ ____ _ ____ _ ____ _ ____ _ ____
 72
65
 73
4
 40
0.6
 49
0.375
 74
0
 49
-0.075
 74
0
 49
0.075
 74
0
 49
-0.075
 74
0
  0
LTYPE
  5
1F6
100
AcDbSymbolTableRecord
100
AcDbLinetypeTableRecord
  2
HIDDEN
 70
64
  3
- - - - - - - - - - - - - - - - - - - -
 72
65
 73
2
 40
0.2
 49
0.1
 74
0
 49
-0.1
 74
0
  0
LTYPE
  5
1F7
100
AcDbSymbolTableRecord
100
AcDbLinetypeTableRecord
  2
PHANTOM
 70
64
  3
_____ _ _ _____ _ _ _____ _ _ _____
 72
65
 73
6
 40
0.8
 49
0.45
 74
0
 49
-0.05
 74
0
 49
0.1
 74
0
 49
-0.05
 74
0
 49
0.1
 74
0
 49
-0.05
 74
0
  0
LTYPE
  5
1F8
100
AcDbSymbolTableRecord
100
AcDbLinetypeTableRecord
  2
DOT
 70
64
  3
. . . . . . . . . . . . . . . . . . . .
 72
65
 73
2
 40
0.2
 49
0.1
 74
0
 49
-0.1
 74
0
  0
LTYPE
  5
1F9
100
AcDbSymbolTableRecord
100
AcDbLinetypeTableRecord
  2
DASHED
 70
64
  3
- - - - - - - - - - - - - - - - - - - -
 72
65
 73
2
 40
0.2
 49
0.1
 74
0
 49
-0.1
 74
0
  0
ENDTAB
  0
TABLE
  2
LAYER
  5
2
100
AcDbSymbolTable
 70
36
  0
LAYER
  5
10
100
AcDbSymbolTableRecord
100
AcDbLayerTableRecord
  2
0
 70
0
 62
7
  6
CONTINUOUS
370
-3
390
F
  0
LAYER
  5
1FA
100
AcDbSymbolTableRecord
100
AcDbLayerTableRecord
  2
DEFAULT_1
 70
0
 62
7
  6
CENTER
370
-3
390
F
  0
LAYER
  5
1FB
100
AcDbSymbolTableRecord
100
AcDbLayerTableRecord
  2
DEFAULT_2
 70
0
 62
7
  6
HIDDEN
370
-3
390
F
  0
LAYER
  5
1FC
100
AcDbSymbolTableRecord
100
AcDbLayerTableRecord
  2
DEFAULT_3
 70
0
 62
7
  6
PHANTOM
370
-3
390
F
  0
LAYER
  5
1FD
100
AcDbSymbolTableRecord
100
AcDbLayerTableRecord
  2
ASSI
 70
0
 62
7
  6
CONTINUOUS
370
-3
390
F
  0
LAYER
  5
1FE
100
AcDbSymbolTableRecord
100
AcDbLayerTableRecord
  2
COORDINATE
 70
0
 62
7
  6
CONTINUOUS
370
-3
390
F
  0
LAYER
  5
1FF
100
AcDbSymbolTableRecord
100
AcDbLayerTableRecord
  2
COORD_ORIGINE
 70
0
 62
7
  6
CONTINUOUS
370
-3
390
F
  0
LAYER
  5
200
100
AcDbSymbolTableRecord
100
AcDbLayerTableRecord
  2
COPY_PUBLISH
 70
0
 62
7
  6
CONTINUOUS
370
-3
390
F
  0
LAYER
  5
201
100
AcDbSymbolTableRecord
100
AcDbLayerTableRecord
  2
COSMETIC
 70
0
 62
7
  6
CONTINUOUS
370
-3
390
F
  0
LAYER
  5
202
100
AcDbSymbolTableRecord
100
AcDbLayerTableRecord
  2
COSMETICHE
 70
0
 62
7
  6
CONTINUOUS
370
-3
390
F
  0
LAYER
  5
203
100
AcDbSymbolTableRecord
100
AcDbLayerTableRecord
  2
COSMETICI
 70
0
 62
7
  6
CONTINUOUS
370
-3
390
F
  0
LAYER
  5
204
100
AcDbSymbolTableRecord
100
AcDbLayerTableRecord
  2
CURVE
 70
0
 62
7
  6
CONTINUOUS
370
-3
390
F
  0
LAYER
  5
205
100
AcDbSymbolTableRecord
100
AcDbLayerTableRecord
  2
DRAFT
 70
0
 62
7
  6
CONTINUOUS
370
-3
390
F
  0
LAYER
  5
206
100
AcDbSymbolTableRecord
100
AcDbLayerTableRecord
  2
ESTENSIONE
 70
0
 62
7
  6
CONTINUOUS
370
-3
390
F
  0
LAYER
  5
207
100
AcDbSymbolTableRecord
100
AcDbLayerTableRecord
  2
IMPORT_FEATURES
 70
0
 62
7
  6
CONTINUOUS
370
-3
390
F
  0
LAYER
  5
208
100
AcDbSymbolTableRecord
100
AcDbLayerTableRecord
  2
IMPORT_IGES
 70
0
 62
7
  6
CONTINUOUS
370
-3
390
F
  0
LAYER
  5
209
100
AcDbSymbolTableRecord
100
AcDbLayerTableRecord
  2
INTFCLR_1
 70
0
 62
7
  6
CONTINUOUS
370
-3
390
F
  0
LAYER
  5
20A
100
AcDbSymbolTableRecord
100
AcDbLayerTableRecord
  2
INTF_1
 70
0
 62
7
  6
CONTINUOUS
370
-3
390
F
  0
LAYER
  5
20B
100
AcDbSymbolTableRecord
100
AcDbLayerTableRecord
  2
INTF_11
 70
0
 62
7
  6
CONTINUOUS
370
-3
390
F
  0
LAYER
  5
20C
100
AcDbSymbolTableRecord
100
AcDbLayerTableRecord
  2
INTF_12
 70
0
 62
7
  6
CONTINUOUS
370
-3
390
F
  0
LAYER
  5
20D
100
AcDbSymbolTableRecord
100
AcDbLayerTableRecord
  2
INTF_2
 70
0
 62
7
  6
CONTINUOUS
370
-3
390
F
  0
LAYER
  5
20E
100
AcDbSymbolTableRecord
100
AcDbLayerTableRecord
  2
INTF_6
 70
0
 62
7
  6
CONTINUOUS
370
-3
390
F
  0
LAYER
  5
20F
100
AcDbSymbolTableRecord
100
AcDbLayerTableRecord
  2
INTF_7
 70
0
 62
7
  6
CONTINUOUS
370
-3
390
F
  0
LAYER
  5
210
100
AcDbSymbolTableRecord
100
AcDbLayerTableRecord
  2
INTF_8
 70
0
 62
7
  6
CONTINUOUS
370
-3
390
F
  0
LAYER
  5
211
100
AcDbSymbolTableRecord
100
AcDbLayerTableRecord
  2
INTF_CYAN
 70
0
 62
7
  6
CONTINUOUS
370
-3
390
F
  0
LAYER
  5
212
100
AcDbSymbolTableRecord
100
AcDbLayerTableRecord
  2
NOTE
 70
0
 62
7
  6
CONTINUOUS
370
-3
390
F
  0
LAYER
  5
213
100
AcDbSymbolTableRecord
100
AcDbLayerTableRecord
  2
PIANI
 70
0
 62
7
  6
CONTINUOUS
370
-3
390
F
  0
LAYER
  5
214
100
AcDbSymbolTableRecord
100
AcDbLayerTableRecord
  2
PIANI_ORIGINE
 70
0
 62
7
  6
CONTINUOUS
370
-3
390
F
  0
LAYER
  5
215
100
AcDbSymbolTableRecord
100
AcDbLayerTableRecord
  2
PUNTI
 70
0
 62
7
  6
CONTINUOUS
370
-3
390
F
  0
LAYER
  5
216
100
AcDbSymbolTableRecord
100
AcDbLayerTableRecord
  2
RACCORDO
 70
0
 62
7
  6
CONTINUOUS
370
-3
390
F
  0
LAYER
  5
217
100
AcDbSymbolTableRecord
100
AcDbLayerTableRecord
  2
RGB__255__255__255__
 70
0
 62
7
  6
CONTINUOUS
370
-3
390
F
  0
LAYER
  5
218
100
AcDbSymbolTableRecord
100
AcDbLayerTableRecord
  2
RGB____0____0____0__
 70
0
 62
7
  6
CONTINUOUS
370
-3
390
F
  0
LAYER
  5
219
100
AcDbSymbolTableRecord
100
AcDbLayerTableRecord
  2
SMUSSO
 70
0
 62
7
  6
CONTINUOUS
370
-3
390
F
  0
LAYER
  5
21A
100
AcDbSymbolTableRecord
100
AcDbLayerTableRecord
  2
SNAPLINE
 70
0
 62
7
  6
CONTINUOUS
370
-3
390
F
  0
LAYER
  5
21B
100
AcDbSymbolTableRecord
100
AcDbLayerTableRecord
  2
SUPERFICI
 70
0
 62
7
  6
CONTINUOUS
370
-3
390
F
  0
LAYER
  5
21C
100
AcDbSymbolTableRecord
100
AcDbLayerTableRecord
  2
TRASH
 70
0
 62
7
  6
CONTINUOUS
370
-3
390
F
  0
LAYER
  5
21D
100
AcDbSymbolTableRecord
100
AcDbLayerTableRecord
  2
XSEC_DATUMS
 70
0
 62
7
  6
CONTINUOUS
370
-3
390
F
  0
ENDTAB
  0
TABLE
  2
STYLE
  5
3
100
AcDbSymbolTable
 70
1
  0
STYLE
  5
11
100
AcDbSymbolTableRecord
100
AcDbTextStyleTableRecord
  2
STANDARD
 70
0
 40
0.0
 41
0.8
 50
0.0
 71
0
 42
0.2
  3
txt
  4

  0
STYLE
  5
21E
100
AcDbSymbolTableRecord
100
AcDbTextStyleTableRecord
  2
TEXTSTYLE_1
 70
0
 40
0.0
 41
0.8
 50
0.0
 71
0
 42
0.2
  3
gdt
  4

  0
ENDTAB
  0
TABLE
  2
VIEW
  5
6
100
AcDbSymbolTable
 70
0
  0
ENDTAB
  0
TABLE
  2
UCS
  5
7
100
AcDbSymbolTable
 70
0
  0
ENDTAB
  0
TABLE
  2
APPID
  5
9
100
AcDbSymbolTable
 70
1
  0
APPID
  5
21F
100
AcDbSymbolTableRecord
100
AcDbRegAppTableRecord
  2
ACAD
 70
0
  0
ENDTAB
  0
TABLE
  2
BLOCK_RECORD
  5
1
100
AcDbSymbolTable
 70
0
  0
BLOCK_RECORD
  5
220
100
AcDbSymbolTableRecord
100
AcDbBlockTableRecord
  2
*Model_Space
  0
BLOCK_RECORD
  5
221
100
AcDbSymbolTableRecord
100
AcDbBlockTableRecord
  2
*Paper_Space
  0
BLOCK_RECORD
  5
222
100
AcDbSymbolTableRecord
100
AcDbBlockTableRecord
  2
_FILLED
  0
ENDTAB
  0
TABLE
  2
DIMSTYLE
  5
A
100
AcDbSymbolTable
 70
1
100
AcDbDimStyleTable
 71
0
  0
DIMSTYLE
105
223
100
AcDbSymbolTableRecord
100
AcDbDimStyleTableRecord
  2
STANDARD
 70
0
  3

  4

 40
1.0
 41
3.0
 42
0.5
 43
0.38
 44
1.5
 45
0.0
 46
0.0
 47
0.01
 48
0.01
140
3.0
141
0.09
142
0.0
143
25.4
144
1.0
145
0.0
146
1.0
147
0.625
 71
1
 72
0
 73
0
 74
0
 75
0
 76
0
 77
1
 78
8
 79
2
170
0
171
1
172
0
173
0
174
0
175
0
176
0
177
0
178
0
270
2
179
2
271
2
272
2
273
2
274
2
275
0
280
0
281
0
282
0
283
1
284
8
285
0
286
0
287
3
288
0
340
11
278
44
341
222
342
222
343
222
344
222
  0
ENDTAB
  0
ENDSEC
  0
SECTION
  2
BLOCKS
  0
BLOCK
  5
20
100
AcDbEntity
  8
0
100
AcDbBlockBegin
  2
*Model_Space
 70
0
 10
0.0
 20
0.0
 30
0.0
  3
*Model_Space
  1

  0
ENDBLK
  5
21
100
AcDbEntity
  8
0
100
AcDbBlockEnd
  0
BLOCK
  5
1C
100
AcDbEntity
  8
0
100
AcDbBlockBegin
  2
*Paper_Space
 70
0
 10
0.0
 20
0.0
 30
0.0
  3
*Paper_Space
  1

  0
ENDBLK
  5
1D
100
AcDbEntity
  8
0
100
AcDbBlockEnd
  0
BLOCK
  5
224
100
AcDbEntity
  8
0
100
AcDbBlockBegin
  2
_FILLED
 70
64
 10
0.0
 20
0.0
  3
_FILLED
  1

  0
SOLID
  5
225
100
AcDbEntity
  8
0
  6
BYBLOCK
 62
0
100
AcDbTrace
 10
0.0
 20
0.0
 11
-1.0
 21
0.3166666667
 12
-1.0
 22
-0.3166666667
 13
-1.0
 23
-0.3166666667
  0
ENDBLK
  5
226
100
AcDbEntity
  8
0
  6
BYBLOCK
 62
0
100
AcDbBlockEnd
  0
ENDSEC
  0
SECTION
  2
ENTITIES
  0
LWPOLYLINE
  5
227
100
AcDbEntity
  8
0
100
AcDbPolyline
 62
7
  6
CONTINUOUS
 90
9
 70
0
 10
-13.291269746
 20
26.6684127198
 10
-13.3157790198
 20
26.6534894688
 10
-13.3476791894
 20
26.6282706568
 10
-13.3761256424
 20
26.5984261631
 10
-13.4007446074
 20
26.5642540415
 10
-13.4211418866
 20
26.5262658911
 10
-13.4371242021
 20
26.4847969408
 10
-13.4485263059
 20
26.4400897598
 10
-13.4552149521
 20
26.3925365728
  0
LINE
  5
228
100
AcDbEntity
  8
0
100
AcDbLine
 62
7
  6
CONTINUOUS
 10
-13.2912740354
 20
26.6684103344
 11
-12.9064690357
 21
26.8760217508
  0
LINE
  5
229
100
AcDbEntity
  8
0
100
AcDbLine
 62
250
  6
CONTINUOUS
 10
-13.0614969492
 20
26.6574416498
 11
-12.6776319218
 21
26.8645456386
  0
LWPOLYLINE
  5
22A
100
AcDbEntity
  8
0
100
AcDbPolyline
 62
250
  6
CONTINUOUS
 90
10
 70
0
 10
-13.2909129562
 20
26.6686054056
 10
-13.2705690047
 20
26.6780483783
 10
-13.2483605275
 20
26.6852603444
 10
-13.2251947049
 20
26.6898269694
 10
-13.2012716745
 20
26.6917633332
 10
-13.1766915239
 20
26.6911093866
 10
-13.1504415974
 20
26.6877017726
 10
-13.1222100024
 20
26.6811297224
 10
-13.0925037089
 20
26.6711325282
 10
-13.0614969747
 20
26.657441636
  0
LWPOLYLINE
  5
22B
100
AcDbEntity
  8
RACCORDO
100
AcDbPolyline
 62
250
  6
CONTINUOUS
 90
4
 70
0
 10
-18.3248948456
 20
23.3061378727
 10
-18.2669970664
 20
23.3462236571
 10
-18.2085908447
 20
23.3805723565
 10
-18.1500868585
 20
23.4089466294
  0
LWPOLYLINE
  5
22C
100
AcDbEntity
  8
0
100
AcDbPolyline
 62
250
  6
CONTINUOUS
 90
11
 70
0
 10
-13.3418190271
 20
26.4732366991
 10
-13.3268561092
 20
26.482960691
 10
-13.3116988074
 20
26.4903104173
 10
-13.2960645942
 20
26.4952778731
 10
-13.2798567768
 20
26.4983591775
 10
-13.2632156776
 20
26.4998226622
 10
-13.2460009742
 20
26.4993999953
 10
-13.2276950066
 20
26.4967823003
 10
-13.2081252216
 20
26.4918666181
 10
-13.1874641725
 20
26.4847559078
 10
-13.1657118591
 20
26.4754501692
  0
LWPOLYLINE
  5
22D
100
AcDbEntity
  8
0
100
AcDbPolyline
 62
250
  6
CONTINUOUS
 90
10
 70
0
 10
-13.0614969492
 20
26.6574416498
 10
-13.079682248
 20
26.6460299169
 10
-13.0972721698
 20
26.6311253172
 10
-13.1137440352
 20
26.6131707366
 10
-13.1286083874
 20
26.5926996902
 10
-13.141423537
 20
26.5703204693
 10
-13.1518086871
 20
26.5466980661
 10
-13.1594552465
 20
26.5225344134
 10
-13.1641359995
 20
26.4985475267
 10
-13.1657118591
 20
26.4754501692
  0
LWPOLYLINE
  5
22E
100
AcDbEntity
  8
RACCORDO
100
AcDbPolyline
 62
7
  6
CONTINUOUS
 90
15
 70
0
 10
-18.3740444288
 20
23.4231425601
 10
-18.3879719627
 20
23.4168381061
 10
-18.4680142103
 20
23.3747141072
 10
-18.5476293603
 20
23.322102145
 10
-18.6250008097
 20
23.2594705707
 10
-18.6965621967
 20
23.1897674392
 10
-18.7617278089
 20
23.1144273447
 10
-18.8212173175
 20
23.0331699951
 10
-18.8741694465
 20
22.9475289996
 10
-18.9204132165
 20
22.8581671209
 10
-18.9598555944
 20
22.7653300843
 10
-18.9919281884
 20
22.6702104566
 10
-19.0162970352
 20
22.573367005
 10
-19.0326359993
 20
22.4748067608
 10
-19.0354203782
 20
22.4496540417
  0
LINE
  5
22F
100
AcDbEntity
  8
RACCORDO
100
AcDbLine
 62
7
  6
CONTINUOUS
 10
-18.3740522035
 20
23.4231601626
 11
-14.1424433597
 21
25.2916330978
  0
LINE
  5
230
100
AcDbEntity
  8
RACCORDO
100
AcDbLine
 62
250
  6
CONTINUOUS
 10
-18.1500868585
 20
23.4089466294
 11
-13.9206550249
 21
25.2764577665
  0
LWPOLYLINE
  5
231
100
AcDbEntity
  8
RACCORDO
100
AcDbPolyline
 62
7
  6
CONTINUOUS
 90
3
 70
0
 10
3.3218542043
 20
30.6307306589
 10
3.2725967568
 20
30.6132334198
 10
3.2471279606
 20
30.6019895816
  0
LWPOLYLINE
  5
232
100
AcDbEntity
  8
RACCORDO
100
AcDbPolyline
 62
250
  6
CONTINUOUS
 90
6
 70
0
 10
-18.373634384
 20
23.4233451877
 10
-18.3327576377
 20
23.4366733512
 10
-18.2893254568
 20
23.441864141
 10
-18.2438813407
 20
23.4389166308
 10
-18.1972023994
 20
23.4278812239
 10
-18.1500868585
 20
23.4089466294
  0
LWPOLYLINE
  5
233
100
AcDbEntity
  8
RACCORDO
100
AcDbPolyline
 62
250
  6
CONTINUOUS
 90
8
 70
0
 10
3.2610999392
 20
30.6080586309
 10
3.2930533326
 20
30.6180828741
 10
3.3267143575
 20
30.6235843055
 10
3.3618245071
 20
30.6245012838
 10
3.3981041132
 20
30.620843626
 10
3.4352646308
 20
30.6126411753
 10
3.4730144017
 20
30.5999260226
 10
3.5110369048
 20
30.5828007607
  0
LWPOLYLINE
  5
234
100
AcDbEntity
  8
ASSI
100
AcDbPolyline
 62
250
  6
CONTINUOUS
 90
8
 70
0
 10
3.2610999392
 20
30.6080586309
 10
3.2930533326
 20
30.6180828741
 10
3.3267143575
 20
30.6235843055
 10
3.3618245071
 20
30.6245012838
 10
3.3981041132
 20
30.620843626
 10
3.4352646308
 20
30.6126411753
 10
3.4730144017
 20
30.5999260226
 10
3.5110369048
 20
30.5828007607
  0
LINE
  5
235
100
AcDbEntity
  8
ASSI
100
AcDbLine
 62
7
  6
CONTINUOUS
 10
-4.4173133208
 20
27.2289290642
 11
-4.4670665783
 21
27.2143493746
  0
LWPOLYLINE
  5
236
100
AcDbEntity
  8
ASSI
100
AcDbPolyline
 62
7
  6
CONTINUOUS
 90
3
 70
0
 10
-8.6658434617
 20
25.1409670741
 10
-8.6832974043
 20
25.1270321817
 10
-8.7011880854
 20
25.109852413
  0
LWPOLYLINE
  5
237
100
AcDbEntity
  8
RACCORDO
100
AcDbPolyline
 62
7
  6
CONTINUOUS
 90
8
 70
0
 10
-10.4490453063
 20
23.8913272797
 10
-10.4815807891
 20
23.8681843952
 10
-10.5200840379
 20
23.8344794474
 10
-10.5561145438
 20
23.7947414472
 10
-10.5881542725
 20
23.7496647176
 10
-10.6151038557
 20
23.7001116003
 10
-10.6364081321
 20
23.6464819787
 10
-10.6392491335
 20
23.6357548208
  0
LINE
  5
238
100
AcDbEntity
  8
ASSI
100
AcDbLine
 62
7
  6
CONTINUOUS
 10
-8.6499612873
 20
25.1520162896
 11
-8.6658434617
 21
25.1409670741
  0
LWPOLYLINE
  5
239
100
AcDbEntity
  8
0
100
AcDbPolyline
 62
7
  6
CONTINUOUS
 90
4
 70
0
 10
-8.6477924458
 20
25.1534375232
 10
-8.6604753513
 20
25.1448447184
 10
-8.673648795
 20
25.1350134719
 10
-8.6870316484
 20
25.1237333558
  0
LWPOLYLINE
  5
23A
100
AcDbEntity
  8
0
100
AcDbPolyline
 62
250
  6
CONTINUOUS
 90
10
 70
0
 10
-8.47522826
 20
25.1209458859
 10
-8.4991591414
 20
25.1054394063
 10
-8.5222513864
 20
25.0854261762
 10
-8.5438341119
 20
25.0614876265
 10
-8.5632802895
 20
25.0343192275
 10
-8.5800249627
 20
25.0047102843
 10
-8.59358166
 20
24.9735210052
 10
-8.6035565277
 20
24.9416575113
 10
-8.6096597729
 20
24.9100455109
 10
-8.6117140821
 20
24.879603406
  0
LWPOLYLINE
  5
23B
100
AcDbEntity
  8
ASSI
100
AcDbPolyline
 62
250
  6
CONTINUOUS
 90
10
 70
0
 10
-8.47522826
 20
25.1209458859
 10
-8.4991591414
 20
25.1054394063
 10
-8.5222513864
 20
25.0854261762
 10
-8.5438341119
 20
25.0614876265
 10
-8.5632802895
 20
25.0343192275
 10
-8.5800249627
 20
25.0047102843
 10
-8.59358166
 20
24.9735210052
 10
-8.6035565277
 20
24.9416575113
 10
-8.6096597729
 20
24.9100455109
 10
-8.6117140821
 20
24.879603406
  0
LINE
  5
23C
100
AcDbEntity
  8
DRAFT
100
AcDbLine
 62
7
  6
CONTINUOUS
 10
-10.0571179392
 20
24.1448226008
 11
-10.4490932929
 21
23.8912962514
  0
LINE
  5
23D
100
AcDbEntity
  8
RACCORDO
100
AcDbLine
 62
250
  6
CONTINUOUS
 10
-10.4490471242
 20
23.8913261039
 11
-10.4490820366
 21
23.8913035313
  0
LWPOLYLINE
  5
23E
100
AcDbEntity
  8
0
100
AcDbPolyline
 62
7
  6
CONTINUOUS
 90
3
 70
0
 10
-8.6214591048
 20
25.1694869152
 10
-8.6352119516
 20
25.1613480246
 10
-8.6477924458
 20
25.1534375232
  0
LWPOLYLINE
  5
23F
100
AcDbEntity
  8
ASSI
100
AcDbPolyline
 62
7
  6
CONTINUOUS
 90
3
 70
0
 10
-8.6177181564
 20
25.1716283033
 10
-8.6346847415
 20
25.161668685
 10
-8.6499612873
 20
25.1520162896
  0
LINE
  5
240
100
AcDbEntity
  8
ASSI
100
AcDbLine
 62
250
  6
CONTINUOUS
 10
-8.6029770349
 20
25.1455424712
 11
-8.5840031542
 21
25.1561668029
  0
LWPOLYLINE
  5
241
100
AcDbEntity
  8
RACCORDO
100
AcDbPolyline
 62
7
  6
CONTINUOUS
 90
3
 70
0
 10
-10.597156984
 20
24.3140380521
 10
-10.7812934361
 20
24.2147806952
 10
-11.2527597711
 20
23.9425101396
  0
LINE
  5
242
100
AcDbEntity
  8
RACCORDO
100
AcDbLine
 62
7
  6
CONTINUOUS
 10
-10.5910125115
 20
24.31729601
 11
-10.5971427526
 21
24.3140576972
  0
LINE
  5
243
100
AcDbEntity
  8
DRAFT
100
AcDbLine
 62
7
  6
CONTINUOUS
 10
-10.4552808027
 20
24.3889500743
 11
-10.5926767082
 21
24.3164174649
  0
LINE
  5
244
100
AcDbEntity
  8
0
100
AcDbLine
 62
250
  6
CONTINUOUS
 10
-9.6593665409
 20
24.767752445
 11
-9.7245974884
 21
24.7333507859
  0
LINE
  5
245
100
AcDbEntity
  8
0
100
AcDbLine
 62
250
  6
CONTINUOUS
 10
-9.3478495965
 20
24.8006179734
 11
-9.5062447552
 21
24.7170817833
  0
LWPOLYLINE
  5
246
100
AcDbEntity
  8
SMUSSO
100
AcDbPolyline
 62
7
  6
CONTINUOUS
 90
15
 70
0
 10
0.0859901052
 20
28.0501542435
 10
-0.0192699407
 20
27.9947718187
 10
-0.1175037502
 20
27.9365212025
 10
-0.2084203788
 20
27.875619674
 10
-0.2917045344
 20
27.8123405595
 10
-0.3671815692
 20
27.7468677351
 10
-0.4347674679
 20
27.6792807157
 10
-0.4942704087
 20
27.6097636262
 10
-0.545443754
 20
27.5385954216
 10
-0.5881150594
 20
27.4659944817
 10
-0.6221366492
 20
27.3922098539
 10
-0.6473929188
 20
27.3174889183
 10
-0.6637969944
 20
27.2420529697
 10
-0.6712859493
 20
27.1661256331
 10
-0.6717924339
 20
27.1405365245
  0
LWPOLYLINE
  5
247
100
AcDbEntity
  8
ASSI
100
AcDbPolyline
 62
7
  6
CONTINUOUS
 90
15
 70
0
 10
0.0859901052
 20
28.0501542435
 10
-0.0192699407
 20
27.9947718187
 10
-0.1175037502
 20
27.9365212025
 10
-0.2084203788
 20
27.875619674
 10
-0.2917045344
 20
27.8123405595
 10
-0.3671815692
 20
27.7468677351
 10
-0.4347674679
 20
27.6792807157
 10
-0.4942704087
 20
27.6097636262
 10
-0.545443754
 20
27.5385954216
 10
-0.5881150594
 20
27.4659944817
 10
-0.6221366492
 20
27.3922098539
 10
-0.6473929188
 20
27.3174889183
 10
-0.6637969944
 20
27.2420529697
 10
-0.6712859493
 20
27.1661256331
 10
-0.6717924339
 20
27.1405365245
  0
LWPOLYLINE
  5
248
100
AcDbEntity
  8
SMUSSO
100
AcDbPolyline
 62
7
  6
CONTINUOUS
 90
25
 70
0
 10
-0.2676152782
 20
28.6601693867
 10
-0.3932814944
 20
28.5942558147
 10
-0.5100069665
 20
28.5254446661
 10
-0.6177916945
 20
28.4537359408
 10
-0.7168584605
 20
28.3789171553
 10
-0.8069844824
 20
28.3012007932
 10
-0.887501414
 20
28.2212243047
 10
-0.958397835
 20
28.1389237029
 10
-1.0196851656
 20
28.0543629747
 10
-1.0707293209
 20
27.9683715315
 10
-1.1114308359
 20
27.8809378951
 10
-1.1418891756
 20
27.7920735436
 10
-1.1617686497
 20
27.702642323
 10
-1.170950848
 20
27.6126010882
 10
-1.1695541809
 20
27.5219929843
 10
-1.1575981886
 20
27.4318112919
 10
-1.1349677347
 20
27.3420998888
 10
-1.1017779557
 20
27.2528148972
 10
-1.0583938022
 20
27.1648179648
 10
-1.0047323792
 20
27.0781283058
 10
-0.9408765818
 20
26.992726706
 10
-0.8674400455
 20
26.9094171701
 10
-0.784344808
 20
26.8282162088
 10
-0.6916688317
 20
26.7491073114
 10
-0.6116883953
 20
26.6881879096
  0
LWPOLYLINE
  5
249
100
AcDbEntity
  8
ASSI
100
AcDbPolyline
 62
7
  6
CONTINUOUS
 90
22
 70
0
 10
-0.2676152782
 20
28.6601693867
 10
-0.3932814944
 20
28.5942558147
 10
-0.5100069665
 20
28.5254446661
 10
-0.6177916945
 20
28.4537359408
 10
-0.7168584605
 20
28.3789171553
 10
-0.8069844824
 20
28.3012007932
 10
-0.887501414
 20
28.2212243047
 10
-0.958397835
 20
28.1389237029
 10
-1.0196851656
 20
28.0543629747
 10
-1.0707293209
 20
27.9683715315
 10
-1.1114308359
 20
27.8809378951
 10
-1.1418891756
 20
27.7920735436
 10
-1.1617686497
 20
27.702642323
 10
-1.170950848
 20
27.6126010882
 10
-1.1695541809
 20
27.5219929843
 10
-1.1575981886
 20
27.4318112919
 10
-1.1349677347
 20
27.3420998888
 10
-1.1017779557
 20
27.2528148972
 10
-1.0583938022
 20
27.1648179648
 10
-1.0047323792
 20
27.0781283058
 10
-0.9408765818
 20
26.992726706
 10
-0.8674400455
 20
26.9094171701
  0
LWPOLYLINE
  5
24A
100
AcDbEntity
  8
0
100
AcDbPolyline
 62
7
  6
CONTINUOUS
 90
4
 70
0
 10
-8.5700721552
 20
25.1971007091
 10
-8.589400666
 20
25.187099008
 10
-8.606219995
 20
25.1780523887
 10
-8.6214591048
 20
25.1694869152
  0
LWPOLYLINE
  5
24B
100
AcDbEntity
  8
ASSI
100
AcDbPolyline
 62
7
  6
CONTINUOUS
 90
4
 70
0
 10
-8.5597496655
 20
25.2023043768
 10
-8.5770795131
 20
25.1935165578
 10
-8.5985424622
 20
25.1822275509
 10
-8.6177181564
 20
25.1716283033
  0
LINE
  5
24C
100
AcDbEntity
  8
0
100
AcDbLine
 62
7
  6
CONTINUOUS
 10
-8.5700721552
 20
25.1971007091
 11
-8.2061820543
 21
25.3790881843
  0
LINE
  5
24D
100
AcDbEntity
  8
ASSI
100
AcDbLine
 62
7
  6
CONTINUOUS
 10
-8.559735446
 20
25.2023114884
 11
-8.2061820543
 21
25.3790881843
  0
LINE
  5
24E
100
AcDbEntity
  8
0
100
AcDbLine
 62
250
  6
CONTINUOUS
 10
-8.5569136007
 20
25.2026695301
 11
-8.1953309935
 21
25.3834951964
  0
LINE
  5
24F
100
AcDbEntity
  8
ASSI
100
AcDbLine
 62
250
  6
CONTINUOUS
 10
-8.5569136007
 20
25.2026695301
 11
-8.1953309935
 21
25.3834951964
  0
LINE
  5
250
100
AcDbEntity
  8
0
100
AcDbLine
 62
7
  6
CONTINUOUS
 10
-4.7226267855
 20
26.6076320207
 11
-6.181631577
 21
25.8839548883
  0
LINE
  5
251
100
AcDbEntity
  8
ASSI
100
AcDbLine
 62
7
  6
CONTINUOUS
 10
-4.7226267855
 20
26.6076320207
 11
-6.181631577
 21
25.8839548883
  0
LINE
  5
252
100
AcDbEntity
  8
RACCORDO
100
AcDbLine
 62
7
  6
CONTINUOUS
 10
3.5596485536
 20
30.5585204622
 11
-0.2676152782
 21
28.6601693867
  0
LINE
  5
253
100
AcDbEntity
  8
ASSI
100
AcDbLine
 62
7
  6
CONTINUOUS
 10
3.5596485536
 20
30.5585204622
 11
-0.2676152782
 21
28.6601693867
  0
LINE
  5
254
100
AcDbEntity
  8
SMUSSO
100
AcDbLine
 62
7
  6
CONTINUOUS
 10
4.2545752236
 20
30.1178031935
 11
0.0859901052
 21
28.0501542435
  0
LINE
  5
255
100
AcDbEntity
  8
ASSI
100
AcDbLine
 62
7
  6
CONTINUOUS
 10
4.2545752236
 20
30.1178031935
 11
0.0859901052
 21
28.0501542435
  0
LINE
  5
256
100
AcDbEntity
  8
0
100
AcDbLine
 62
250
  6
CONTINUOUS
 10
-7.9918539163
 20
25.4461414077
 11
-8.5840019409
 21
25.1561673904
  0
LINE
  5
257
100
AcDbEntity
  8
0
100
AcDbLine
 62
250
  6
CONTINUOUS
 10
-7.9144468783
 20
25.435581061
 11
-8.5115799537
 21
25.1431246208
  0
LINE
  5
258
100
AcDbEntity
  8
ASSI
100
AcDbLine
 62
250
  6
CONTINUOUS
 10
-7.9144468783
 20
25.435581061
 11
-8.5115799537
 21
25.1431246208
  0
LINE
  5
259
100
AcDbEntity
  8
ASSI
100
AcDbLine
 62
250
  6
CONTINUOUS
 10
-7.9918539163
 20
25.4461414077
 11
-8.5840019409
 21
25.1561673904
  0
LINE
  5
25A
100
AcDbEntity
  8
0
100
AcDbLine
 62
7
  6
CONTINUOUS
 10
-7.8463809046
 20
25.5641780066
 11
-8.211839731
 21
25.391029835
  0
LINE
  5
25B
100
AcDbEntity
  8
ASSI
100
AcDbLine
 62
7
  6
CONTINUOUS
 10
-7.8463809046
 20
25.5641780066
 11
-8.211839731
 21
25.391029835
  0
LINE
  5
25C
100
AcDbEntity
  8
0
100
AcDbLine
 62
7
  6
CONTINUOUS
 10
-5.4650889143
 20
26.6928241906
 11
-7.8463809046
 21
25.5641780066
  0
LINE
  5
25D
100
AcDbEntity
  8
ASSI
100
AcDbLine
 62
7
  6
CONTINUOUS
 10
-5.4650889143
 20
26.6928241906
 11
-7.8463809046
 21
25.5641780066
  0
LINE
  5
25E
100
AcDbEntity
  8
0
100
AcDbLine
 62
250
  6
CONTINUOUS
 10
-5.2933517858
 20
26.7483055968
 11
-8.1362149438
 21
25.4021503238
  0
LINE
  5
25F
100
AcDbEntity
  8
ASSI
100
AcDbLine
 62
250
  6
CONTINUOUS
 10
-5.2933517858
 20
26.7483055968
 11
-8.1362149438
 21
25.4021503238
  0
LINE
  5
260
100
AcDbEntity
  8
0
100
AcDbLine
 62
250
  6
CONTINUOUS
 10
-4.9020841757
 20
26.6973607158
 11
-7.745407497
 21
25.3510613703
  0
LINE
  5
261
100
AcDbEntity
  8
ASSI
100
AcDbLine
 62
250
  6
CONTINUOUS
 10
-4.9020841757
 20
26.6973607158
 11
-7.745407497
 21
25.3510613703
  0
LINE
  5
262
100
AcDbEntity
  8
0
100
AcDbLine
 62
7
  6
CONTINUOUS
 10
-6.6462882568
 20
26.2195919454
 11
-8.8560798372
 21
25.1750234579
  0
LINE
  5
263
100
AcDbEntity
  8
ASSI
100
AcDbLine
 62
7
  6
CONTINUOUS
 10
-6.6462882568
 20
26.2195919454
 11
-8.8560798372
 21
25.1750234579
  0
LINE
  5
264
100
AcDbEntity
  8
RACCORDO
100
AcDbLine
 62
7
  6
CONTINUOUS
 10
-4.5300739612
 20
27.1887211922
 11
-5.9392347352
 21
26.5232153021
  0
LINE
  5
265
100
AcDbEntity
  8
RACCORDO
100
AcDbLine
 62
250
  6
CONTINUOUS
 10
-4.3103840014
 20
27.1726366717
 11
-5.1699932908
 21
26.7666704286
  0
LINE
  5
266
100
AcDbEntity
  8
ASSI
100
AcDbLine
 62
250
  6
CONTINUOUS
 10
-4.3103840014
 20
27.1726366717
 11
-5.1699932908
 21
26.7666704286
  0
LINE
  5
267
100
AcDbEntity
  8
0
100
AcDbLine
 62
7
  6
CONTINUOUS
 10
-5.9390054732
 20
26.5227298564
 11
-8.8190819204
 21
25.1631796179
  0
LINE
  5
268
100
AcDbEntity
  8
ASSI
100
AcDbLine
 62
7
  6
CONTINUOUS
 10
-5.9390054732
 20
26.5227298564
 11
-8.8190819204
 21
25.1631796179
  0
LINE
  5
269
100
AcDbEntity
  8
ASSI
100
AcDbLine
 62
7
  6
CONTINUOUS
 10
-4.5297909982
 20
27.188854542
 11
-5.9392347352
 21
26.5232153021
  0
LINE
  5
26A
100
AcDbEntity
  8
RACCORDO
100
AcDbLine
 62
7
  6
CONTINUOUS
 10
3.2477621102
 20
30.602289224
 11
-3.9997160971
 21
27.1861837002
  0
LINE
  5
26B
100
AcDbEntity
  8
ASSI
100
AcDbLine
 62
7
  6
CONTINUOUS
 10
3.2477594339
 20
30.6022928703
 11
-3.9997161022
 21
27.1861837103
  0
LINE
  5
26C
100
AcDbEntity
  8
RACCORDO
100
AcDbLine
 62
250
  6
CONTINUOUS
 10
3.5110372672
 20
30.5828261055
 11
-3.8557330876
 21
27.1104855571
  0
LINE
  5
26D
100
AcDbEntity
  8
ASSI
100
AcDbLine
 62
250
  6
CONTINUOUS
 10
3.5110372672
 20
30.5828261055
 11
-3.8557330876
 21
27.1104855571
  0
LINE
  5
26E
100
AcDbEntity
  8
RACCORDO
100
AcDbLine
 62
7
  6
CONTINUOUS
 10
-5.9152313807
 20
25.7507547901
 11
-5.6544773838
 21
25.8723333081
  0
LINE
  5
26F
100
AcDbEntity
  8
RACCORDO
100
AcDbLine
 62
250
  6
CONTINUOUS
 10
-5.8661075549
 20
25.7261928772
 11
-5.5699611932
 21
25.8642733522
  0
LINE
  5
270
100
AcDbEntity
  8
RACCORDO
100
AcDbLine
 62
250
  6
CONTINUOUS
 10
-5.6544766222
 20
25.8723336632
 11
-5.6544084318
 21
25.8723654117
  0
LWPOLYLINE
  5
271
100
AcDbEntity
  8
RACCORDO
100
AcDbPolyline
 62
250
  6
CONTINUOUS
 90
3
 70
0
 10
-9.7245974884
 20
24.7333507859
 10
-10.2178564078
 20
24.5064783842
 10
-10.5910125115
 20
24.31729601
  0
LWPOLYLINE
  5
272
100
AcDbEntity
  8
RACCORDO
100
AcDbPolyline
 62
250
  6
CONTINUOUS
 90
4
 70
0
 10
-9.7772534164
 20
24.5047168975
 10
-10.2678524024
 20
24.2789948629
 10
-10.7489754708
 20
24.032055496
 10
-11.0685078717
 20
23.8503841899
  0
LWPOLYLINE
  5
273
100
AcDbEntity
  8
0
100
AcDbPolyline
 62
7
  6
CONTINUOUS
 90
3
 70
0
 10
-9.7078129201
 20
24.7465006997
 10
-10.1540567637
 20
24.5417640998
 10
-10.455816057
 20
24.3886391824
  0
LINE
  5
274
100
AcDbEntity
  8
RACCORDO
100
AcDbLine
 62
7
  6
CONTINUOUS
 10
-4.5017367587
 20
27.2012694747
 11
-4.5302564356
 21
27.1886375246
  0
LWPOLYLINE
  5
275
100
AcDbEntity
  8
0
100
AcDbPolyline
 62
250
  6
CONTINUOUS
 90
13
 70
0
 10
-8.5115799578
 20
25.1431242946
 10
-8.5327165855
 20
25.133806359
 10
-8.5534056912
 20
25.1218521252
 10
-8.5733098666
 20
25.1074648101
 10
-8.5920944049
 20
25.0908977939
 10
-8.6094696702
 20
25.0724186301
 10
-8.6251859656
 20
25.0522927749
 10
-8.6389936738
 20
25.0308244429
 10
-8.6506452138
 20
25.0083790121
 10
-8.6599353522
 20
24.9853397227
 10
-8.666708617
 20
24.9620902818
 10
-8.6708558064
 20
24.9390065718
 10
-8.6723076559
 20
24.916467861
  0
LWPOLYLINE
  5
276
100
AcDbEntity
  8
ASSI
100
AcDbPolyline
 62
250
  6
CONTINUOUS
 90
13
 70
0
 10
-8.5115799578
 20
25.1431242946
 10
-8.5327165855
 20
25.133806359
 10
-8.5534056912
 20
25.1218521252
 10
-8.5733098666
 20
25.1074648101
 10
-8.5920944049
 20
25.0908977939
 10
-8.6094696702
 20
25.0724186301
 10
-8.6251859656
 20
25.0522927749
 10
-8.6389936738
 20
25.0308244429
 10
-8.6506452138
 20
25.0083790121
 10
-8.6599353522
 20
24.9853397227
 10
-8.666708617
 20
24.9620902818
 10
-8.6708558064
 20
24.9390065718
 10
-8.6723076559
 20
24.916467861
  0
LWPOLYLINE
  5
277
100
AcDbEntity
  8
0
100
AcDbPolyline
 62
7
  6
CONTINUOUS
 90
4
 70
0
 10
-9.6593665409
 20
24.767752445
 10
-9.6921564546
 20
24.753266488
 10
-9.7000575179
 20
24.7498236002
 10
-9.7078129201
 20
24.7465006997
  0
LINE
  5
278
100
AcDbEntity
  8
ASSI
100
AcDbLine
 62
7
  6
CONTINUOUS
 10
3.2790573216
 20
30.6158360122
 11
3.2457943386
 21
30.6013517132
  0
LINE
  5
279
100
AcDbEntity
  8
RACCORDO
100
AcDbLine
 62
250
  6
CONTINUOUS
 10
3.2477621102
 20
30.602289224
 11
3.2610999392
 21
30.6080586309
  0
LWPOLYLINE
  5
27A
100
AcDbEntity
  8
RACCORDO
100
AcDbPolyline
 62
250
  6
CONTINUOUS
 90
9
 70
0
 10
-4.2148754265
 20
27.1701568416
 10
-4.1847616261
 20
27.1829872459
 10
-4.154914149
 20
27.1925516901
 10
-4.1255501469
 20
27.198780739
 10
-4.0968831055
 20
27.2016292485
 10
-4.0691217202
 20
27.2010766367
 10
-4.0424683294
 20
27.197127201
 10
-4.0171168783
 20
27.1898100734
 10
-3.9974301645
 20
27.1813340955
  0
LWPOLYLINE
  5
27B
100
AcDbEntity
  8
ASSI
100
AcDbPolyline
 62
250
  6
CONTINUOUS
 90
9
 70
0
 10
-4.2148754265
 20
27.1701568416
 10
-4.1847616261
 20
27.1829872459
 10
-4.154914149
 20
27.1925516901
 10
-4.1255501469
 20
27.198780739
 10
-4.0968831055
 20
27.2016292485
 10
-4.0691217202
 20
27.2010766367
 10
-4.0424683294
 20
27.197127201
 10
-4.0171168783
 20
27.1898100734
 10
-3.9974301645
 20
27.1813340955
  0
LINE
  5
27C
100
AcDbEntity
  8
0
100
AcDbLine
 62
7
  6
CONTINUOUS
 10
-8.8190819204
 20
25.1631796179
 11
-9.0674856578
 21
25.0594725066
  0
LINE
  5
27D
100
AcDbEntity
  8
ASSI
100
AcDbLine
 62
7
  6
CONTINUOUS
 10
-8.8190819204
 20
25.1631796179
 11
-9.0674856578
 21
25.0594725066
  0
LINE
  5
27E
100
AcDbEntity
  8
0
100
AcDbLine
 62
7
  6
CONTINUOUS
 10
-4.7226267855
 20
25.654614356
 11
-4.9011006149
 21
25.58024478
  0
LINE
  5
27F
100
AcDbEntity
  8
ASSI
100
AcDbLine
 62
7
  6
CONTINUOUS
 10
-4.7226267855
 20
25.654614356
 11
-4.9011006149
 21
25.58024478
  0
LINE
  5
280
100
AcDbEntity
  8
0
100
AcDbLine
 62
7
  6
CONTINUOUS
 10
-8.2063712942
 20
25.3789144463
 11
-8.195335017
 21
25.3834939139
  0
LINE
  5
281
100
AcDbEntity
  8
ASSI
100
AcDbLine
 62
7
  6
CONTINUOUS
 10
-8.2063712942
 20
25.3789144463
 11
-8.195335017
 21
25.3834939139
  0
LINE
  5
282
100
AcDbEntity
  8
RACCORDO
100
AcDbLine
 62
7
  6
CONTINUOUS
 10
-5.6368461223
 20
25.8795527701
 11
-5.6544084318
 21
25.8723654117
  0
LINE
  5
283
100
AcDbEntity
  8
ASSI
100
AcDbLine
 62
250
  6
CONTINUOUS
 10
-8.5597354449
 20
25.202311489
 11
-8.5488884076
 21
25.2067172186
  0
LINE
  5
284
100
AcDbEntity
  8
0
100
AcDbLine
 62
250
  6
CONTINUOUS
 10
-8.5597031148
 20
25.2023276443
 11
-8.5488884076
 21
25.2067172186
  0
LWPOLYLINE
  5
285
100
AcDbEntity
  8
ASSI
100
AcDbPolyline
 62
7
  6
CONTINUOUS
 90
3
 70
0
 10
-4.4670665783
 20
27.2143493746
 10
-4.5181216887
 20
27.1942227586
 10
-4.5297922289
 20
27.1888565758
  0
LWPOLYLINE
  5
286
100
AcDbEntity
  8
RACCORDO
100
AcDbPolyline
 62
7
  6
CONTINUOUS
 90
7
 70
0
 10
-5.9390054732
 20
26.5227298564
 10
-6.0663807717
 20
26.4726152411
 10
-6.19299193
 20
26.4208942679
 10
-6.3188389482
 20
26.3675669369
 10
-6.4439295555
 20
26.3126296278
 10
-6.5682560226
 20
26.2560859608
 10
-6.646292098
 20
26.2195900529
  0
LWPOLYLINE
  5
287
100
AcDbEntity
  8
ASSI
100
AcDbPolyline
 62
7
  6
CONTINUOUS
 90
7
 70
0
 10
-5.9390054732
 20
26.5227298564
 10
-6.0663807717
 20
26.4726152411
 10
-6.19299193
 20
26.4208942679
 10
-6.3188389482
 20
26.3675669369
 10
-6.4439295555
 20
26.3126296278
 10
-6.5682560226
 20
26.2560859608
 10
-6.646292098
 20
26.2195900529
  0
LINE
  5
288
100
AcDbEntity
  8
RACCORDO
100
AcDbLine
 62
7
  6
CONTINUOUS
 10
-4.4557219466
 20
27.2181035044
 11
-4.5017367587
 21
27.2012694747
  0
LINE
  5
289
100
AcDbEntity
  8
0
100
AcDbLine
 62
7
  6
CONTINUOUS
 10
-2.9177184216
 20
26.1597337653
 11
-3.3791239013
 21
26.0018845222
  0
LINE
  5
28A
100
AcDbEntity
  8
ASSI
100
AcDbLine
 62
7
  6
CONTINUOUS
 10
-2.9177184216
 20
26.1597337653
 11
-3.3791239013
 21
26.0018845222
  0
LINE
  5
28B
100
AcDbEntity
  8
0
100
AcDbLine
 62
7
  6
CONTINUOUS
 10
-5.4079773335
 20
26.7116300914
 11
-5.4650889143
 21
26.6928241906
  0
LINE
  5
28C
100
AcDbEntity
  8
ASSI
100
AcDbLine
 62
7
  6
CONTINUOUS
 10
-5.4079773335
 20
26.7116300914
 11
-5.4650889143
 21
26.6928241906
  0
LWPOLYLINE
  5
28D
100
AcDbEntity
  8
RACCORDO
100
AcDbPolyline
 62
250
  6
CONTINUOUS
 90
6
 70
0
 10
-5.6544084318
 20
25.8723654117
 10
-5.6382587316
 20
25.877616645
 10
-5.6222205995
 20
25.8790772001
 10
-5.6052973307
 20
25.8773068786
 10
-5.5877771029
 20
25.8723421339
 10
-5.5699611932
 20
25.8642733522
  0
LINE
  5
28E
100
AcDbEntity
  8
0
100
AcDbLine
 62
7
  6
CONTINUOUS
 10
-5.350731624
 20
26.7301238935
 11
-5.4079773335
 21
26.7116300914
  0
LINE
  5
28F
100
AcDbEntity
  8
ASSI
100
AcDbLine
 62
7
  6
CONTINUOUS
 10
-5.350731624
 20
26.7301238935
 11
-5.4079773335
 21
26.7116300914
  0
LINE
  5
290
100
AcDbEntity
  8
0
100
AcDbLine
 62
7
  6
CONTINUOUS
 10
-5.2933517858
 20
26.7483055968
 11
-5.350731624
 21
26.7301238935
  0
LINE
  5
291
100
AcDbEntity
  8
ASSI
100
AcDbLine
 62
7
  6
CONTINUOUS
 10
-5.2933517858
 20
26.7483055968
 11
-5.350731624
 21
26.7301238935
  0
LINE
  5
292
100
AcDbEntity
  8
0
100
AcDbLine
 62
7
  6
CONTINUOUS
 10
-8.1559401345
 20
25.3959673462
 11
-8.2064549413
 21
25.3799426681
  0
LINE
  5
293
100
AcDbEntity
  8
ASSI
100
AcDbLine
 62
7
  6
CONTINUOUS
 10
-8.1559401345
 20
25.3959673462
 11
-8.2064549413
 21
25.3799426681
  0
LINE
  5
294
100
AcDbEntity
  8
0
100
AcDbLine
 62
7
  6
CONTINUOUS
 10
-8.1122134894
 20
25.4096176455
 11
-8.1559401345
 21
25.3959673462
  0
LINE
  5
295
100
AcDbEntity
  8
ASSI
100
AcDbLine
 62
7
  6
CONTINUOUS
 10
-8.1122134894
 20
25.4096176455
 11
-8.1559401345
 21
25.3959673462
  0
LINE
  5
296
100
AcDbEntity
  8
0
100
AcDbLine
 62
7
  6
CONTINUOUS
 10
-8.0641401095
 20
25.4243897229
 11
-8.1122134894
 21
25.4096176455
  0
LINE
  5
297
100
AcDbEntity
  8
ASSI
100
AcDbLine
 62
7
  6
CONTINUOUS
 10
-8.0400681841
 20
25.4316944785
 11
-8.1122134894
 21
25.4096176455
  0
LWPOLYLINE
  5
298
100
AcDbEntity
  8
0
100
AcDbPolyline
 62
7
  6
CONTINUOUS
 90
3
 70
0
 10
-7.9918538624
 20
25.4461414237
 10
-8.0159727684
 20
25.4389450454
 10
-8.0641401095
 20
25.4243897229
  0
LINE
  5
299
100
AcDbEntity
  8
ASSI
100
AcDbLine
 62
7
  6
CONTINUOUS
 10
-7.9918538624
 20
25.4461414237
 11
-8.0400681841
 21
25.4316944785
  0
LWPOLYLINE
  5
29A
100
AcDbEntity
  8
0
100
AcDbPolyline
 62
250
  6
CONTINUOUS
 90
5
 70
0
 10
-13.3925375271
 20
26.4068998604
 10
-13.3816642836
 20
26.4279620175
 10
-13.3695632386
 20
26.4461217707
 10
-13.3563050335
 20
26.4611304368
 10
-13.3418190271
 20
26.4732366991
  0
LWPOLYLINE
  5
29B
100
AcDbEntity
  8
ASSI
100
AcDbPolyline
 62
7
  6
CONTINUOUS
 90
4
 70
0
 10
-8.7011880854
 20
25.109852413
 10
-8.718542903
 20
25.0888865949
 10
-8.7347591332
 20
25.0627823382
 10
-8.7479959441
 20
25.0314732991
  0
LWPOLYLINE
  5
29C
100
AcDbEntity
  8
0
100
AcDbPolyline
 62
7
  6
CONTINUOUS
 90
5
 70
0
 10
-8.7008442699
 20
25.1102227826
 10
-8.7151285894
 20
25.0934536314
 10
-8.7288984947
 20
25.0732313881
 10
-8.7408016132
 20
25.0502346227
 10
-8.75013058
 20
25.0245596896
  0
LINE
  5
29D
100
AcDbEntity
  8
0
100
AcDbLine
 62
7
  6
CONTINUOUS
 10
-8.6870316484
 20
25.1237333558
 11
-8.7008442699
 21
25.1102227826
  0
LINE
  5
29E
100
AcDbEntity
  8
0
100
AcDbLine
 62
7
  6
CONTINUOUS
 10
0.9766538708
 20
26.4111948251
 11
0.5166844066
 21
26.181210093
  0
LINE
  5
29F
100
AcDbEntity
  8
RACCORDO
100
AcDbLine
 62
7
  6
CONTINUOUS
 10
2.3732313951
 20
25.9851838052
 11
3.3895974923
 21
26.4933668538
  0
LINE
  5
2A0
100
AcDbEntity
  8
DRAFT
100
AcDbLine
 62
7
  6
CONTINUOUS
 10
1.2189142529
 20
26.5977576597
 11
1.1364189854
 21
26.5596586114
  0
LINE
  5
2A1
100
AcDbEntity
  8
ASSI
100
AcDbLine
 62
7
  6
CONTINUOUS
 10
1.2189142529
 20
26.5977576597
 11
1.1364189854
 21
26.5596586114
  0
LINE
  5
2A2
100
AcDbEntity
  8
RACCORDO
100
AcDbLine
 62
7
  6
CONTINUOUS
 10
8.2206420259
 20
28.2280237261
 11
4.2573943091
 21
26.397664593
  0
LINE
  5
2A3
100
AcDbEntity
  8
ASSI
100
AcDbLine
 62
7
  6
CONTINUOUS
 10
8.2206420259
 20
28.2280237261
 11
4.2573943091
 21
26.397664593
  0
LINE
  5
2A4
100
AcDbEntity
  8
DRAFT
100
AcDbLine
 62
7
  6
CONTINUOUS
 10
0.0859901052
 20
26.9475565687
 11
4.2545752236
 21
28.8335858873
  0
LINE
  5
2A5
100
AcDbEntity
  8
ASSI
100
AcDbLine
 62
7
  6
CONTINUOUS
 10
0.0859901052
 20
26.9475565687
 11
4.2545752236
 21
28.8335858873
  0
LWPOLYLINE
  5
2A6
100
AcDbEntity
  8
RACCORDO
100
AcDbPolyline
 62
250
  6
CONTINUOUS
 90
9
 70
0
 10
-1.3054438969
 20
23.732014704
 10
-1.2931182136
 20
23.7375184481
 10
-1.2808863361
 20
23.7416621101
 10
-1.2688413565
 20
23.7444141542
 10
-1.2570749444
 20
23.7457536358
 10
-1.2456766492
 20
23.7456703606
 10
-1.2347332188
 20
23.7441649623
 10
-1.2243279394
 20
23.741248898
 10
-1.2160980376
 20
23.737743404
  0
LINE
  5
2A7
100
AcDbEntity
  8
ASSI
100
AcDbLine
 62
250
  6
CONTINUOUS
 10
8.407758687
 20
28.1679701254
 11
8.3711364652
 21
28.1527765065
  0
LWPOLYLINE
  5
2A8
100
AcDbEntity
  8
RACCORDO
100
AcDbPolyline
 62
250
  6
CONTINUOUS
 90
13
 70
0
 10
9.0115394544
 20
-29.9973849827
 10
9.0601344045
 20
-30.0188514584
 10
9.1138260268
 20
-30.0373354917
 10
9.1717158985
 20
-30.0525277888
 10
9.2328353479
 20
-30.064174137
 10
9.2961616625
 20
-30.0720796578
 10
9.3606352023
 20
-30.0761120681
 10
9.4251771306
 20
-30.0762038934
 10
9.4887074668
 20
-30.0723535974
 10
9.550163157
 20
-30.064625607
 10
9.6085158623
 20
-30.0531492348
 10
9.6627891662
 20
-30.0381165151
 10
9.7120749129
 20
-30.0197789905
  0
LWPOLYLINE
  5
2A9
100
AcDbEntity
  8
RACCORDO
100
AcDbPolyline
 62
7
  6
CONTINUOUS
 90
9
 70
0
 10
9.2723779057
 20
-30.5791067091
 10
9.3310747761
 20
-30.6052415933
 10
9.3997268996
 20
-30.6280676594
 10
9.4714222645
 20
-30.643900893
 10
9.5453294401
 20
-30.652327425
 10
9.6208189164
 20
-30.6531171755
 10
9.6971014169
 20
-30.646146442
 10
9.7732651512
 20
-30.6314393629
 10
9.8469314902
 20
-30.6097380227
  0
LINE
  5
2AA
100
AcDbEntity
  8
RACCORDO
100
AcDbLine
 62
250
  6
CONTINUOUS
 10
9.0115394486
 20
-29.9973849853
 11
-21.4438843266
 21
-14.7696730977
  0
LINE
  5
2AB
100
AcDbEntity
  8
RACCORDO
100
AcDbLine
 62
7
  6
CONTINUOUS
 10
9.2734089721
 20
-30.5796298189
 11
-21.1878565219
 21
-15.3489967237
  0
LWPOLYLINE
  5
2AC
100
AcDbEntity
  8
RACCORDO
100
AcDbPolyline
 62
250
  6
CONTINUOUS
 90
13
 70
0
 10
-21.1878565219
 20
-15.3489967237
 10
-21.1946244049
 20
-15.3455137271
 10
-21.2378142957
 20
-15.3187794486
 10
-21.2775584237
 20
-15.286014219
 10
-21.3135745163
 20
-15.2474549622
 10
-21.3456155808
 20
-15.2033697212
 10
-21.3734728333
 20
-15.1540478591
 10
-21.3969529753
 20
-15.0998173452
 10
-21.415880047
 20
-15.0410651577
 10
-21.4301177926
 20
-14.9782196836
 10
-21.4395683505
 20
-14.911728603
 10
-21.4441674121
 20
-14.8420507422
 10
-21.4438843266
 20
-14.7696730977
  0
LWPOLYLINE
  5
2AD
100
AcDbEntity
  8
RACCORDO
100
AcDbPolyline
 62
250
  6
CONTINUOUS
 90
13
 70
0
 10
9.2724748044
 20
-30.5791612101
 10
9.2660632688
 20
-30.5758577755
 10
9.2220604754
 20
-30.5487205269
 10
9.1815566569
 20
-30.5155803688
 10
9.1448312837
 20
-30.4766657827
 10
9.112138435
 20
-30.432246806
 10
9.0837088486
 20
-30.3826315827
 10
9.0597391484
 20
-30.3281606816
 10
9.040396851
 20
-30.2692142124
 10
9.0258222657
 20
-30.2062110123
 10
9.0161170721
 20
-30.1395934401
 10
9.0113454149
 20
-30.0698226707
 10
9.0115394486
 20
-29.9973849853
  0
LWPOLYLINE
  5
2AE
100
AcDbEntity
  8
RACCORDO
100
AcDbPolyline
 62
250
  6
CONTINUOUS
 90
7
 70
0
 10
-21.5904099147
 20
-14.6005895079
 10
-21.5856339079
 20
-14.6311818708
 10
-21.5725761917
 20
-14.6614683653
 10
-21.5514552608
 20
-14.690942207
 10
-21.5226245322
 20
-14.7191102096
 10
-21.4865664306
 20
-14.7455010378
 10
-21.4438843168
 20
-14.7696730933
  0
LWPOLYLINE
  5
2AF
100
AcDbEntity
  8
RACCORDO
100
AcDbPolyline
 62
7
  6
CONTINUOUS
 90
12
 70
0
 10
-21.5903496362
 20
-14.5943793953
 10
-21.5908176762
 20
-14.6573586292
 10
-21.5840733909
 20
-14.7521775131
 10
-21.5683777741
 20
-14.8434709965
 10
-21.5438195775
 20
-14.930661459
 10
-21.5108240259
 20
-15.0125666479
 10
-21.4700404863
 20
-15.0882113302
 10
-21.421869522
 20
-15.1573129898
 10
-21.3668349307
 20
-15.2194361811
 10
-21.3058245181
 20
-15.2738694592
 10
-21.2397460409
 20
-15.320106566
 10
-21.1879447788
 20
-15.3489387502
  0
LWPOLYLINE
  5
2B0
100
AcDbEntity
  8
RACCORDO
100
AcDbPolyline
 62
250
  6
CONTINUOUS
 90
8
 70
0
 10
-19.0354203782
 20
22.4496540417
 10
-19.0357858599
 20
22.4385173569
 10
-19.0307886947
 20
22.4111197944
 10
-19.017543716
 20
22.3835400518
 10
-18.9962725478
 20
22.3562396118
 10
-18.9673311137
 20
22.3296752835
 10
-18.9312036812
 20
22.3042915591
 10
-18.888494759
 20
22.2805131762
  0
LWPOLYLINE
  5
2B1
100
AcDbEntity
  8
RACCORDO
100
AcDbPolyline
 62
250
  6
CONTINUOUS
 90
10
 70
0
 10
-21.4438843266
 20
-14.7696730977
 10
-21.2776265749
 20
-10.7026720201
 10
-21.0819031141
 20
-6.6224369113
 10
-20.8567304391
 20
-2.5293144596
 10
-20.6021275937
 20
1.5763475322
 10
-20.3181161615
 20
5.694200302
 10
-20.0047202609
 20
9.8238941592
 10
-19.6619665546
 20
13.9650783462
 10
-19.2898842507
 20
18.1174010673
 10
-18.8885050901
 20
22.2805096449
  0
LWPOLYLINE
  5
2B2
100
AcDbEntity
  8
RACCORDO
100
AcDbPolyline
 62
7
  6
CONTINUOUS
 90
10
 70
0
 10
-19.035405992
 20
22.4498844597
 10
-19.4274927504
 20
18.386530361
 10
-19.8027789909
 20
14.2048622454
 10
-20.1483237453
 20
10.0344460262
 10
-20.4640911113
 20
5.8756890286
 10
-20.7500560968
 20
1.7289290783
 10
-21.0061967415
 20
-2.4055224698
 10
-21.2324905187
 20
-6.5273292468
 10
-21.4289165833
 20
-10.6360905026
 10
-21.590358229
 20
-14.5943790779
  0
LWPOLYLINE
  5
2B3
100
AcDbEntity
  8
RACCORDO
100
AcDbPolyline
 62
250
  6
CONTINUOUS
 90
16
 70
0
 10
-18.8885050901
 20
22.2805096449
 10
-18.8785364104
 20
22.356771298
 10
-18.8637912373
 20
22.434200871
 10
-18.844370977
 20
22.512259489
 10
-18.8204083829
 20
22.5904135992
 10
-18.7920704319
 20
22.6681087908
 10
-18.7595622789
 20
22.7447744878
 10
-18.7231244698
 20
22.8198612393
 10
-18.683007652
 20
22.8928655212
 10
-18.6394740819
 20
22.9633014029
 10
-18.5928224251
 20
23.0306877289
 10
-18.5433843569
 20
23.0945451381
 10
-18.491501571
 20
23.1544204069
 10
-18.4375389455
 20
23.209897229
 10
-18.3818750244
 20
23.2605897401
 10
-18.3248948456
 20
23.3061378727
  0
LWPOLYLINE
  5
2B4
100
AcDbEntity
  8
ASSI
100
AcDbPolyline
 62
250
  6
CONTINUOUS
 90
5
 70
0
 10
-8.6612447953
 20
25.0790842114
 10
-8.649577539
 20
25.0988387609
 10
-8.6358734187
 20
25.1166815558
 10
-8.6203304736
 20
25.132324083
 10
-8.6029770349
 20
25.1455424712
  0
LWPOLYLINE
  5
2B5
100
AcDbEntity
  8
RACCORDO
100
AcDbPolyline
 62
250
  6
CONTINUOUS
 90
10
 70
0
 10
0.4147329924
 20
26.2107309616
 10
0.452469499
 20
26.2360870589
 10
0.524337229
 20
26.2796188403
 10
0.600287227
 20
26.3211733371
 10
0.6803409029
 20
26.3607278627
 10
0.7644768468
 20
26.3983051037
 10
0.8520555854
 20
26.4336242714
 10
0.9430997857
 20
26.4666683321
 10
1.0375867806
 20
26.4974543194
 10
1.1348090964
 20
26.5257525461
  0
LWPOLYLINE
  5
2B6
100
AcDbEntity
  8
0
100
AcDbPolyline
 62
250
  6
CONTINUOUS
 90
10
 70
0
 10
-2.9597953667
 20
22.3632294393
 10
-2.983726298
 20
22.3477229186
 10
-3.0068185749
 20
22.3277096422
 10
-3.0284013131
 20
22.3037710516
 10
-3.0478474848
 20
22.2766026278
 10
-3.064592139
 20
22.2469936809
 10
-3.078148812
 20
22.2158044173
 10
-3.0881236565
 20
22.1839409559
 10
-3.0942268845
 20
22.1523290042
 10
-3.0962811888
 20
22.1218869593
  0
LWPOLYLINE
  5
2B7
100
AcDbEntity
  8
ASSI
100
AcDbPolyline
 62
250
  6
CONTINUOUS
 90
10
 70
0
 10
-2.9597953667
 20
22.3632294393
 10
-2.983726298
 20
22.3477229186
 10
-3.0068185749
 20
22.3277096422
 10
-3.0284013131
 20
22.3037710516
 10
-3.0478474848
 20
22.2766026278
 10
-3.064592139
 20
22.2469936809
 10
-3.078148812
 20
22.2158044173
 10
-3.0881236565
 20
22.1839409559
 10
-3.0942268845
 20
22.1523290042
 10
-3.0962811888
 20
22.1218869593
  0
LINE
  5
2B8
100
AcDbEntity
  8
0
100
AcDbLine
 62
250
  6
CONTINUOUS
 10
-2.8334709803
 20
22.2809019058
 11
-2.4768824063
 21
22.4957463893
  0
LINE
  5
2B9
100
AcDbEntity
  8
ASSI
100
AcDbLine
 62
250
  6
CONTINUOUS
 10
-2.8334709803
 20
22.2809019058
 11
-2.3291593095
 21
22.5847673285
  0
LINE
  5
2BA
100
AcDbEntity
  8
0
100
AcDbLine
 62
250
  6
CONTINUOUS
 10
-2.4768824063
 20
22.4957463893
 11
-2.301927885
 21
22.601178466
  0
LINE
  5
2BB
100
AcDbEntity
  8
ASSI
100
AcDbLine
 62
250
  6
CONTINUOUS
 10
-2.3291593095
 20
22.5847673285
 11
-2.301927885
 21
22.601178466
  0
LINE
  5
2BC
100
AcDbEntity
  8
ASSI
100
AcDbLine
 62
250
  6
CONTINUOUS
 10
-2.9157661617
 20
22.3452178252
 11
-2.4378186295
 21
22.6328248823
  0
LINE
  5
2BD
100
AcDbEntity
  8
0
100
AcDbLine
 62
250
  6
CONTINUOUS
 10
-2.9157661617
 20
22.3452178252
 11
-2.3793349772
 21
22.6680251105
  0
LINE
  5
2BE
100
AcDbEntity
  8
ASSI
100
AcDbLine
 62
250
  6
CONTINUOUS
 10
-2.4378186295
 20
22.6328248823
 11
-2.3793349772
 21
22.6680251105
  0
LINE
  5
2BF
100
AcDbEntity
  8
RACCORDO
100
AcDbLine
 62
250
  6
CONTINUOUS
 10
-1.3054438969
 20
23.732014704
 11
-1.5816048469
 21
23.5839415232
  0
LWPOLYLINE
  5
2C0
100
AcDbEntity
  8
0
100
AcDbPolyline
 62
7
  6
CONTINUOUS
 90
10
 70
0
 10
1.3020780142
 20
22.9021881127
 10
0.9977141217
 20
22.7466910364
 10
0.6923064222
 20
22.5908754666
 10
0.3858539272
 20
22.4347377764
 10
0.0783502396
 20
22.2782729718
 10
-0.2301998742
 20
22.1214785674
 10
-0.5397807399
 20
21.9643553936
 10
-0.8503877722
 20
21.8069020513
 10
-1.1620272234
 20
21.6491141113
 10
-1.4746997881
 20
21.4909885518
  0
LWPOLYLINE
  5
2C1
100
AcDbEntity
  8
ASSI
100
AcDbPolyline
 62
7
  6
CONTINUOUS
 90
10
 70
0
 10
1.3020780142
 20
22.9021881127
 10
0.9977141217
 20
22.7466910364
 10
0.6923064222
 20
22.5908754666
 10
0.3858539272
 20
22.4347377764
 10
0.0783502396
 20
22.2782729718
 10
-0.2301998742
 20
22.1214785674
 10
-0.5397807399
 20
21.9643553936
 10
-0.8503877722
 20
21.8069020513
 10
-1.1620272234
 20
21.6491141113
 10
-1.4746997881
 20
21.4909885518
  0
LINE
  5
2C2
100
AcDbEntity
  8
0
100
AcDbLine
 62
250
  6
CONTINUOUS
 10
-2.098450715
 20
22.3350550572
 11
-2.4520000821
 21
22.1582730558
  0
LINE
  5
2C3
100
AcDbEntity
  8
ASSI
100
AcDbLine
 62
250
  6
CONTINUOUS
 10
-2.098450715
 20
22.3350550572
 11
-2.4520000821
 21
22.1582730558
  0
LINE
  5
2C4
100
AcDbEntity
  8
0
100
AcDbLine
 62
250
  6
CONTINUOUS
 10
-2.035621017
 20
22.159643587
 11
-2.3891744076
 21
21.9828668917
  0
LINE
  5
2C5
100
AcDbEntity
  8
ASSI
100
AcDbLine
 62
250
  6
CONTINUOUS
 10
-2.035621017
 20
22.159643587
 11
-2.3891744076
 21
21.9828668917
  0
LINE
  5
2C6
100
AcDbEntity
  8
RACCORDO
100
AcDbLine
 62
250
  6
CONTINUOUS
 10
8.3711364652
 20
28.1527765065
 11
1.2910658553
 21
24.641009289
  0
LINE
  5
2C7
100
AcDbEntity
  8
ASSI
100
AcDbLine
 62
250
  6
CONTINUOUS
 10
8.3711364652
 20
28.1527765065
 11
1.2910658553
 21
24.641009289
  0
LINE
  5
2C8
100
AcDbEntity
  8
RACCORDO
100
AcDbLine
 62
250
  6
CONTINUOUS
 10
8.7246360079
 20
27.5430799832
 11
2.0792476746
 21
24.2469183794
  0
LINE
  5
2C9
100
AcDbEntity
  8
ASSI
100
AcDbLine
 62
250
  6
CONTINUOUS
 10
8.7246360079
 20
27.5430799832
 11
2.0792476746
 21
24.2469183794
  0
LINE
  5
2CA
100
AcDbEntity
  8
RACCORDO
100
AcDbLine
 62
250
  6
CONTINUOUS
 10
8.7246360079
 20
27.1060750027
 11
2.4443692158
 21
23.9910163751
  0
LINE
  5
2CB
100
AcDbEntity
  8
ASSI
100
AcDbLine
 62
250
  6
CONTINUOUS
 10
8.7246360079
 20
27.1060750027
 11
2.4443692158
 21
23.9910163751
  0
LINE
  5
2CC
100
AcDbEntity
  8
RACCORDO
100
AcDbLine
 62
250
  6
CONTINUOUS
 10
8.866035825
 20
26.8621963934
 11
2.7289373819
 21
23.8181503223
  0
LINE
  5
2CD
100
AcDbEntity
  8
ASSI
100
AcDbLine
 62
250
  6
CONTINUOUS
 10
8.866035825
 20
26.8621963934
 11
2.7289373819
 21
23.8181503223
  0
LINE
  5
2CE
100
AcDbEntity
  8
0
100
AcDbLine
 62
250
  6
CONTINUOUS
 10
-2.5483742115
 20
22.7525447276
 11
0.2651567166
 21
24.1137402697
  0
LINE
  5
2CF
100
AcDbEntity
  8
ASSI
100
AcDbLine
 62
250
  6
CONTINUOUS
 10
-2.5483742115
 20
22.7525447276
 11
0.2651567166
 21
24.1137402697
  0
LINE
  5
2D0
100
AcDbEntity
  8
0
100
AcDbLine
 62
250
  6
CONTINUOUS
 10
-2.1575667647
 20
22.4128262343
 11
0.6564243268
 21
23.7734175406
  0
LINE
  5
2D1
100
AcDbEntity
  8
ASSI
100
AcDbLine
 62
250
  6
CONTINUOUS
 10
-2.1575667647
 20
22.4128262343
 11
0.6564243268
 21
23.7734175406
  0
LWPOLYLINE
  5
2D2
100
AcDbEntity
  8
0
100
AcDbPolyline
 62
7
  6
CONTINUOUS
 90
5
 70
0
 10
-0.7322448669
 20
22.8037135265
 10
-1.0468511526
 20
22.6534194562
 10
-1.3622964121
 20
22.5025408387
 10
-1.6785856874
 20
22.3510716005
 10
-1.9957213286
 20
22.1990109691
  0
LWPOLYLINE
  5
2D3
100
AcDbEntity
  8
ASSI
100
AcDbPolyline
 62
7
  6
CONTINUOUS
 90
5
 70
0
 10
-0.7322448669
 20
22.8037135265
 10
-1.0468511526
 20
22.6534194562
 10
-1.3622964121
 20
22.5025408387
 10
-1.6785856874
 20
22.3510716005
 10
-1.9957213286
 20
22.1990109691
  0
LINE
  5
2D4
100
AcDbEntity
  8
0
100
AcDbLine
 62
7
  6
CONTINUOUS
 10
-0.2829412636
 20
23.0179998402
 11
-0.7322448669
 21
22.8037135265
  0
LINE
  5
2D5
100
AcDbEntity
  8
ASSI
100
AcDbLine
 62
7
  6
CONTINUOUS
 10
-0.2829412636
 20
23.0179998402
 11
-0.7322448669
 21
22.8037135265
  0
LWPOLYLINE
  5
2D6
100
AcDbEntity
  8
0
100
AcDbPolyline
 62
7
  6
CONTINUOUS
 90
5
 70
0
 10
0.8281614553
 20
23.5461990058
 10
0.5177594624
 20
23.3989071766
 10
0.2065212075
 20
23.2510148184
 10
-0.1055561363
 20
23.1025208026
 10
-0.2829412636
 20
23.0179998402
  0
LWPOLYLINE
  5
2D7
100
AcDbEntity
  8
ASSI
100
AcDbPolyline
 62
7
  6
CONTINUOUS
 90
5
 70
0
 10
0.8281614553
 20
23.5461990058
 10
0.5177594624
 20
23.3989071766
 10
0.2065212075
 20
23.2510148184
 10
-0.1055561363
 20
23.1025208026
 10
-0.2829412636
 20
23.0179998402
  0
LINE
  5
2D8
100
AcDbEntity
  8
0
100
AcDbLine
 62
7
  6
CONTINUOUS
 10
0.0856993265
 20
24.2034689647
 11
-1.425144363
 21
23.5057112813
  0
LINE
  5
2D9
100
AcDbEntity
  8
ASSI
100
AcDbLine
 62
7
  6
CONTINUOUS
 10
0.0856993265
 20
24.2034689647
 11
-1.425144363
 21
23.5057112813
  0
LINE
  5
2DA
100
AcDbEntity
  8
0
100
AcDbLine
 62
7
  6
CONTINUOUS
 10
-2.4474305595
 20
21.5306196667
 11
-2.0900539881
 21
21.6940233019
  0
LINE
  5
2DB
100
AcDbEntity
  8
ASSI
100
AcDbLine
 62
7
  6
CONTINUOUS
 10
-2.4474305596
 20
21.5306196667
 11
-2.0900539881
 21
21.6940233019
  0
LINE
  5
2DC
100
AcDbEntity
  8
0
100
AcDbLine
 62
250
  6
CONTINUOUS
 10
-2.4026565461
 20
21.6356447619
 11
-2.035621017
 21
21.8034533835
  0
LINE
  5
2DD
100
AcDbEntity
  8
ASSI
100
AcDbLine
 62
250
  6
CONTINUOUS
 10
-2.4026565461
 20
21.6356447619
 11
-2.035621017
 21
21.8034533835
  0
LWPOLYLINE
  5
2DE
100
AcDbEntity
  8
0
100
AcDbPolyline
 62
250
  6
CONTINUOUS
 90
9
 70
0
 10
-2.3891744076
 20
21.9828668917
 10
-2.4221234923
 20
21.968535375
 10
-2.4576938615
 20
21.9570523318
 10
-2.4956136866
 20
21.9485346518
 10
-2.5356040548
 20
21.9431334737
 10
-2.5773391901
 20
21.9408954337
 10
-2.6204434981
 20
21.9417551879
 10
-2.6644236142
 20
21.9457727984
 10
-2.7090666744
 20
21.9529724076
  0
LWPOLYLINE
  5
2DF
100
AcDbEntity
  8
ASSI
100
AcDbPolyline
 62
250
  6
CONTINUOUS
 90
8
 70
0
 10
-2.3891744076
 20
21.9828668917
 10
-2.4221234923
 20
21.968535375
 10
-2.4576938615
 20
21.9570523318
 10
-2.4956136866
 20
21.9485346518
 10
-2.5356040548
 20
21.9431334737
 10
-2.5773391901
 20
21.9408954337
 10
-2.6204434981
 20
21.9417551879
 10
-2.6644236142
 20
21.9457727984
  0
LWPOLYLINE
  5
2E0
100
AcDbEntity
  8
0
100
AcDbPolyline
 62
250
  6
CONTINUOUS
 90
16
 70
0
 10
-2.4520000821
 20
22.1582730558
 10
-2.472069862
 20
22.1498665672
 10
-2.4933759038
 20
22.1438520841
 10
-2.5159187219
 20
22.140228921
 10
-2.5399065503
 20
22.138998744
 10
-2.565133218
 20
22.1401571312
 10
-2.5909779688
 20
22.1436938118
 10
-2.617377218
 20
22.1496161743
 10
-2.6443980516
 20
22.1579121206
 10
-2.671615751
 20
22.1685420928
 10
-2.6990701846
 20
22.1814978172
 10
-2.7267260269
 20
22.1967813873
 10
-2.7540455779
 20
22.2143690313
 10
-2.7808511393
 20
22.2342507004
 10
-2.8073253577
 20
22.2564296016
 10
-2.8334709803
 20
22.2809019058
  0
LWPOLYLINE
  5
2E1
100
AcDbEntity
  8
ASSI
100
AcDbPolyline
 62
250
  6
CONTINUOUS
 90
16
 70
0
 10
-2.4520000821
 20
22.1582730558
 10
-2.472069862
 20
22.1498665672
 10
-2.4933759038
 20
22.1438520841
 10
-2.5159187219
 20
22.140228921
 10
-2.5399065503
 20
22.138998744
 10
-2.565133218
 20
22.1401571312
 10
-2.5909779688
 20
22.1436938118
 10
-2.617377218
 20
22.1496161743
 10
-2.6443980516
 20
22.1579121206
 10
-2.671615751
 20
22.1685420928
 10
-2.6990701846
 20
22.1814978172
 10
-2.7267260269
 20
22.1967813873
 10
-2.7540455779
 20
22.2143690313
 10
-2.7808511393
 20
22.2342507004
 10
-2.8073253577
 20
22.2564296016
 10
-2.8334709803
 20
22.2809019058
  0
LWPOLYLINE
  5
2E2
100
AcDbEntity
  8
0
100
AcDbPolyline
 62
250
  6
CONTINUOUS
 90
7
 70
0
 10
-2.4863576237
 20
21.6061569686
 10
-2.4720855608
 20
21.6102863752
 10
-2.4579685529
 20
21.6146995912
 10
-2.4440318953
 20
21.6193993517
 10
-2.4301553177
 20
21.6244441017
 10
-2.4163321275
 20
21.6298625509
 10
-2.4026565461
 20
21.6356447619
  0
LWPOLYLINE
  5
2E3
100
AcDbEntity
  8
ASSI
100
AcDbPolyline
 62
250
  6
CONTINUOUS
 90
7
 70
0
 10
-2.4863576237
 20
21.6061569686
 10
-2.4720855608
 20
21.6102863752
 10
-2.4579685529
 20
21.6146995912
 10
-2.4440318953
 20
21.6193993517
 10
-2.4301553177
 20
21.6244441017
 10
-2.4163321275
 20
21.6298625509
 10
-2.4026565461
 20
21.6356447619
  0
LINE
  5
2E4
100
AcDbEntity
  8
0
100
AcDbLine
 62
250
  6
CONTINUOUS
 10
17.834509468
 20
-27.5245991215
 11
17.8138548371
 21
-27.5174940221
  0
LINE
  5
2E5
100
AcDbEntity
  8
0
100
AcDbLine
 62
250
  6
CONTINUOUS
 10
-2.9987704251
 20
22.1220480331
 11
-2.9518511508
 21
22.1724428851
  0
LINE
  5
2E6
100
AcDbEntity
  8
ASSI
100
AcDbLine
 62
250
  6
CONTINUOUS
 10
-2.9987704251
 20
22.1220480331
 11
-2.9518511508
 21
22.1724428851
  0
LWPOLYLINE
  5
2E7
100
AcDbEntity
  8
0
100
AcDbPolyline
 62
250
  6
CONTINUOUS
 90
8
 70
0
 10
-2.9518511508
 20
22.1724428851
 10
-2.9347100757
 20
22.1898595113
 10
-2.9171368255
 20
22.2070265444
 10
-2.8996658738
 20
22.223880109
 10
-2.8821173991
 20
22.2398015752
 10
-2.8647819574
 20
22.2545486505
 10
-2.8483958114
 20
22.268251399
 10
-2.8334718862
 20
22.2809013086
  0
LWPOLYLINE
  5
2E8
100
AcDbEntity
  8
ASSI
100
AcDbPolyline
 62
250
  6
CONTINUOUS
 90
8
 70
0
 10
-2.9518511508
 20
22.1724428851
 10
-2.9347100757
 20
22.1898595113
 10
-2.9171368255
 20
22.2070265444
 10
-2.8996658738
 20
22.223880109
 10
-2.8821173991
 20
22.2398015752
 10
-2.8647819574
 20
22.2545486505
 10
-2.8483958114
 20
22.268251399
 10
-2.8334718862
 20
22.2809013086
  0
LINE
  5
2E9
100
AcDbEntity
  8
0
100
AcDbLine
 62
7
  6
CONTINUOUS
 10
1.3206366282
 20
24.0405562404
 11
1.0049381421
 21
23.8098535005
  0
LINE
  5
2EA
100
AcDbEntity
  8
ASSI
100
AcDbLine
 62
7
  6
CONTINUOUS
 10
1.3206366282
 20
24.0405562404
 11
1.0049381421
 21
23.8098535005
  0
LWPOLYLINE
  5
2EB
100
AcDbEntity
  8
RACCORDO
100
AcDbPolyline
 62
7
  6
CONTINUOUS
 90
8
 70
0
 10
-2.6708707133
 20
20.0022399832
 10
-2.7034061961
 20
19.9790970987
 10
-2.7419094448
 20
19.9453921508
 10
-2.7779399507
 20
19.9056541507
 10
-2.8099796795
 20
19.8605774211
 10
-2.8369292626
 20
19.8110243038
 10
-2.8582335391
 20
19.7573946822
 10
-2.8610745405
 20
19.7466675243
  0
LINE
  5
2EC
100
AcDbEntity
  8
RACCORDO
100
AcDbLine
 62
7
  6
CONTINUOUS
 10
2.3670517397
 20
23.8791932584
 11
1.1020973283
 21
22.9880862002
  0
LINE
  5
2ED
100
AcDbEntity
  8
ASSI
100
AcDbLine
 62
7
  6
CONTINUOUS
 10
2.3670517397
 20
23.8791932584
 11
1.1020973283
 21
22.9880862002
  0
LINE
  5
2EE
100
AcDbEntity
  8
DRAFT
100
AcDbLine
 62
7
  6
CONTINUOUS
 10
-2.2789433461
 20
20.2557353042
 11
-2.6709186998
 21
20.0022089549
  0
LINE
  5
2EF
100
AcDbEntity
  8
RACCORDO
100
AcDbLine
 62
250
  6
CONTINUOUS
 10
-2.6708725311
 20
20.0022388074
 11
-2.6709074436
 21
20.0022162348
  0
LWPOLYLINE
  5
2F0
100
AcDbEntity
  8
RACCORDO
100
AcDbPolyline
 62
250
  6
CONTINUOUS
 90
13
 70
0
 10
5.1965662912
 20
22.4191615328
 10
5.2031059916
 20
22.4227192844
 10
5.2084086692
 20
22.4263921172
 10
5.212474324
 20
22.4301800313
 10
5.2153116753
 20
22.4341159474
 10
5.2169120039
 20
22.4381669448
 10
5.2172491516
 20
22.4422342613
 10
5.2162813721
 20
22.4463167002
 10
5.2140504117
 20
22.4504154582
 10
5.2106553516
 20
22.4544353644
 10
5.206129219
 20
22.4583446951
 10
5.2004389867
 20
22.462175174
 10
5.1935846547
 20
22.465926801
  0
LWPOLYLINE
  5
2F1
100
AcDbEntity
  8
ASSI
100
AcDbPolyline
 62
250
  6
CONTINUOUS
 90
13
 70
0
 10
5.1965662912
 20
22.4191615328
 10
5.2031059916
 20
22.4227192844
 10
5.2084086692
 20
22.4263921172
 10
5.212474324
 20
22.4301800313
 10
5.2153116753
 20
22.4341159474
 10
5.2169120039
 20
22.4381669448
 10
5.2172491516
 20
22.4422342613
 10
5.2162813721
 20
22.4463167002
 10
5.2140504117
 20
22.4504154582
 10
5.2106553516
 20
22.4544353644
 10
5.206129219
 20
22.4583446951
 10
5.2004389867
 20
22.462175174
 10
5.1935846547
 20
22.465926801
  0
LWPOLYLINE
  5
2F2
100
AcDbEntity
  8
SMUSSO
100
AcDbPolyline
 62
7
  6
CONTINUOUS
 90
15
 70
0
 10
7.1237379867
 20
23.4555422527
 10
7.0184779408
 20
23.4001598279
 10
6.9202441313
 20
23.3419092117
 10
6.8293275028
 20
23.2810076832
 10
6.7460433471
 20
23.2177285687
 10
6.6705663123
 20
23.1522557443
 10
6.6029804137
 20
23.0846687249
 10
6.5434774728
 20
23.0151516354
 10
6.4923041275
 20
22.9439834308
 10
6.4496328221
 20
22.8713824909
 10
6.4156112323
 20
22.7975978631
 10
6.3903549627
 20
22.7228769275
 10
6.3739508871
 20
22.647440979
 10
6.3664619322
 20
22.5715136423
 10
6.3659554477
 20
22.5459245337
  0
LWPOLYLINE
  5
2F3
100
AcDbEntity
  8
ASSI
100
AcDbPolyline
 62
7
  6
CONTINUOUS
 90
15
 70
0
 10
7.1237379867
 20
23.4555422527
 10
7.0184779408
 20
23.4001598279
 10
6.9202441313
 20
23.3419092117
 10
6.8293275028
 20
23.2810076832
 10
6.7460433471
 20
23.2177285687
 10
6.6705663123
 20
23.1522557443
 10
6.6029804137
 20
23.0846687249
 10
6.5434774728
 20
23.0151516354
 10
6.4923041275
 20
22.9439834308
 10
6.4496328221
 20
22.8713824909
 10
6.4156112323
 20
22.7975978631
 10
6.3903549627
 20
22.7228769275
 10
6.3739508871
 20
22.647440979
 10
6.3664619322
 20
22.5715136423
 10
6.3659554477
 20
22.5459245337
  0
LWPOLYLINE
  5
2F4
100
AcDbEntity
  8
SMUSSO
100
AcDbPolyline
 62
7
  6
CONTINUOUS
 90
25
 70
0
 10
6.7701326033
 20
24.0655573959
 10
6.6444663871
 20
23.9996438239
 10
6.5277409151
 20
23.9308326753
 10
6.4199561871
 20
23.85912395
 10
6.320889421
 20
23.7843051646
 10
6.2307633991
 20
23.7065888024
 10
6.1502464675
 20
23.626612314
 10
6.0793500465
 20
23.5443117121
 10
6.0180627159
 20
23.459750984
 10
5.9670185606
 20
23.3737595407
 10
5.9263170456
 20
23.2863259043
 10
5.895858706
 20
23.1974615528
 10
5.8759792318
 20
23.1080303322
 10
5.8667970335
 20
23.0179890974
 10
5.8681937007
 20
22.9273809935
 10
5.8801496929
 20
22.8371993011
 10
5.9027801468
 20
22.747487898
 10
5.9359699258
 20
22.6582029064
 10
5.9793540793
 20
22.570205974
 10
6.0330155023
 20
22.483516315
 10
6.0968712997
 20
22.3981147152
 10
6.1703078361
 20
22.3148051793
 10
6.2534030735
 20
22.233604218
 10
6.3460790498
 20
22.1544953206
 10
6.4260594862
 20
22.0935759188
  0
LWPOLYLINE
  5
2F5
100
AcDbEntity
  8
ASSI
100
AcDbPolyline
 62
7
  6
CONTINUOUS
 90
22
 70
0
 10
6.7701326033
 20
24.0655573959
 10
6.6444663871
 20
23.9996438239
 10
6.5277409151
 20
23.9308326753
 10
6.4199561871
 20
23.85912395
 10
6.320889421
 20
23.7843051646
 10
6.2307633991
 20
23.7065888024
 10
6.1502464675
 20
23.626612314
 10
6.0793500465
 20
23.5443117121
 10
6.0180627159
 20
23.459750984
 10
5.9670185606
 20
23.3737595407
 10
5.9263170456
 20
23.2863259043
 10
5.895858706
 20
23.1974615528
 10
5.8759792318
 20
23.1080303322
 10
5.8667970335
 20
23.0179890974
 10
5.8681937007
 20
22.9273809935
 10
5.8801496929
 20
22.8371993011
 10
5.9027801468
 20
22.747487898
 10
5.9359699258
 20
22.6582029064
 10
5.9793540793
 20
22.570205974
 10
6.0330155023
 20
22.483516315
 10
6.0968712997
 20
22.3981147152
 10
6.1703078361
 20
22.3148051793
  0
LINE
  5
2F6
100
AcDbEntity
  8
0
100
AcDbLine
 62
250
  6
CONTINUOUS
 10
-1.6197675489
 20
20.7470779624
 11
-1.6856151844
 21
20.7131286568
  0
LINE
  5
2F7
100
AcDbEntity
  8
0
100
AcDbLine
 62
250
  6
CONTINUOUS
 10
-1.8941166157
 20
20.9110177135
 11
-1.7338523737
 21
20.993619362
  0
LINE
  5
2F8
100
AcDbEntity
  8
RACCORDO
100
AcDbLine
 62
7
  6
CONTINUOUS
 10
10.6301347639
 20
25.9801469239
 11
6.7701326033
 21
24.0655573959
  0
LINE
  5
2F9
100
AcDbEntity
  8
ASSI
100
AcDbLine
 62
7
  6
CONTINUOUS
 10
10.6301347639
 20
25.9801469239
 11
6.7701326033
 21
24.0655573959
  0
LINE
  5
2FA
100
AcDbEntity
  8
SMUSSO
100
AcDbLine
 62
7
  6
CONTINUOUS
 10
11.3250614339
 20
25.5394296551
 11
7.1237379867
 21
23.4555422527
  0
LINE
  5
2FB
100
AcDbEntity
  8
ASSI
100
AcDbLine
 62
7
  6
CONTINUOUS
 10
11.3250614339
 20
25.5394296551
 11
7.1237379867
 21
23.4555422527
  0
LINE
  5
2FC
100
AcDbEntity
  8
RACCORDO
100
AcDbLine
 62
250
  6
CONTINUOUS
 10
2.5910954608
 20
21.1553612588
 11
5.1965662912
 21
22.4191615328
  0
LINE
  5
2FD
100
AcDbEntity
  8
ASSI
100
AcDbLine
 62
250
  6
CONTINUOUS
 10
2.5910954608
 20
21.1553612588
 11
5.1965662912
 21
22.4191615328
  0
LINE
  5
2FE
100
AcDbEntity
  8
RACCORDO
100
AcDbLine
 62
250
  6
CONTINUOUS
 10
2.8230512972
 20
20.9331440422
 11
5.4287576402
 21
22.1965750374
  0
LINE
  5
2FF
100
AcDbEntity
  8
ASSI
100
AcDbLine
 62
250
  6
CONTINUOUS
 10
2.8230512972
 20
20.9331440422
 11
5.4287576402
 21
22.1965750374
  0
LINE
  5
300
100
AcDbEntity
  8
DRAFT
100
AcDbLine
 62
7
  6
CONTINUOUS
 10
7.1237379867
 20
22.7046810529
 11
11.3250614339
 21
24.6055224591
  0
LINE
  5
301
100
AcDbEntity
  8
ASSI
100
AcDbLine
 62
7
  6
CONTINUOUS
 10
7.1237379867
 20
22.7046810529
 11
11.3250614339
 21
24.6055224591
  0
LWPOLYLINE
  5
302
100
AcDbEntity
  8
RACCORDO
100
AcDbPolyline
 62
250
  6
CONTINUOUS
 90
9
 70
0
 10
5.1935846547
 20
22.465926801
 10
5.223688746
 20
22.4787596735
 10
5.2535288936
 20
22.4883264631
 10
5.2828879712
 20
22.4945575587
 10
5.3115523535
 20
22.4974076207
 10
5.339313469
 20
22.496855912
 10
5.3659693169
 20
22.4929064492
 10
5.3913259399
 20
22.4855879695
 10
5.4110211024
 20
22.4771084621
  0
LWPOLYLINE
  5
303
100
AcDbEntity
  8
ASSI
100
AcDbPolyline
 62
250
  6
CONTINUOUS
 90
9
 70
0
 10
5.1935846547
 20
22.465926801
 10
5.223688746
 20
22.4787596735
 10
5.2535288936
 20
22.4883264631
 10
5.2828879712
 20
22.4945575587
 10
5.3115523535
 20
22.4974076207
 10
5.339313469
 20
22.496855912
 10
5.3659693169
 20
22.4929064492
 10
5.3913259399
 20
22.4855879695
 10
5.4110211024
 20
22.4771084621
  0
LINE
  5
304
100
AcDbEntity
  8
DRAFT
100
AcDbLine
 62
7
  6
CONTINUOUS
 10
11.5126263539
 20
24.5117399991
 11
11.8012908254
 21
24.6329012647
  0
LINE
  5
305
100
AcDbEntity
  8
ASSI
100
AcDbLine
 62
7
  6
CONTINUOUS
 10
11.5126263539
 20
24.5117399991
 11
11.8012908254
 21
24.6329012647
  0
LINE
  5
306
100
AcDbEntity
  8
ASSI
100
AcDbLine
 62
250
  6
CONTINUOUS
 10
11.7994970933
 20
24.6321463303
 11
11.802995266
 21
24.6336148221
  0
LWPOLYLINE
  5
307
100
AcDbEntity
  8
RACCORDO
100
AcDbPolyline
 62
250
  6
CONTINUOUS
 90
5
 70
0
 10
2.5910954608
 20
21.1553612588
 10
2.5750604301
 20
21.1488062573
 10
2.5592645967
 20
21.1445907001
 10
2.5439121599
 20
21.1427690836
 10
2.5337548693
 20
21.1431805197
  0
LWPOLYLINE
  5
308
100
AcDbEntity
  8
ASSI
100
AcDbPolyline
 62
250
  6
CONTINUOUS
 90
5
 70
0
 10
2.5910954608
 20
21.1553612588
 10
2.5750604301
 20
21.1488062573
 10
2.5592645967
 20
21.1445907001
 10
2.5439121599
 20
21.1427690836
 10
2.5337548693
 20
21.1431805197
  0
LWPOLYLINE
  5
309
100
AcDbEntity
  8
RACCORDO
100
AcDbPolyline
 62
250
  6
CONTINUOUS
 90
3
 70
0
 10
11.8004720318
 20
24.6325571651
 10
11.8225894667
 20
24.6415551234
 10
11.8935825155
 20
24.6664471967
  0
LINE
  5
30A
100
AcDbEntity
  8
ASSI
100
AcDbLine
 62
250
  6
CONTINUOUS
 10
11.802995266
 20
24.6336148221
 11
11.8225894667
 21
24.6415551234
  0
LWPOLYLINE
  5
30B
100
AcDbEntity
  8
RACCORDO
100
AcDbPolyline
 62
7
  6
CONTINUOUS
 90
20
 70
0
 10
11.8004719387
 20
24.632557126
 10
11.8781612242
 20
24.6620905026
 10
12.0044217691
 20
24.6976205927
 10
12.1359652665
 20
24.7198402265
 10
12.2728010311
 20
24.7284347264
 10
12.4147996688
 20
24.7228916881
 10
12.5607066497
 20
24.702766842
 10
12.7089902723
 20
24.6679836573
 10
12.8591518419
 20
24.6184519971
 10
13.0103355542
 20
24.5542222963
 10
13.1604993373
 20
24.4761190046
 10
13.3087825404
 20
24.3847334481
 10
13.4547129837
 20
24.2804632533
 10
13.5968292338
 20
24.1645135195
 10
13.7342529893
 20
24.0378883089
 10
13.8666228911
 20
23.9011783821
 10
13.9932490915
 20
23.7553000434
 10
14.1135075517
 20
23.6011736409
 10
14.2268737677
 20
23.4396509868
 10
14.3328209154
 20
23.2716300017
  0
LWPOLYLINE
  5
30C
100
AcDbEntity
  8
ASSI
100
AcDbPolyline
 62
250
  6
CONTINUOUS
 90
28
 70
0
 10
11.8225894667
 20
24.6415551234
 10
11.8935825155
 20
24.6664471967
 10
11.9693706933
 20
24.6867841537
 10
12.050065596
 20
24.7019644662
 10
12.1356399875
 20
24.7113485504
 10
12.2260587339
 20
24.7143029109
 10
12.3216789479
 20
24.7101601192
 10
12.4219901944
 20
24.698256448
 10
12.5255162187
 20
24.6782670128
 10
12.63247012
 20
24.6497402711
 10
12.7420818061
 20
24.6124694736
 10
12.8512174869
 20
24.5674621701
 10
12.9591684718
 20
24.515286753
 10
13.0659001413
 20
24.456232306
 10
13.1692718215
 20
24.3919062135
 10
13.2684593482
 20
24.3234784643
 10
13.3638168459
 20
24.2513464577
 10
13.4550657478
 20
24.1763051437
 10
13.542000949
 20
24.0991167925
 10
13.6246477205
 20
24.0203413528
 10
13.7031314199
 20
23.9404067769
 10
13.7774541468
 20
23.8598332104
 10
13.847626314
 20
23.7791241567
 10
13.913812754
 20
23.6985867402
 10
13.97606791
 20
23.6186336891
 10
14.0344765686
 20
23.5396293532
 10
14.0892589428
 20
23.4617296648
 10
14.1405535107
 20
23.3851688852
  0
LWPOLYLINE
  5
30D
100
AcDbEntity
  8
ASSI
100
AcDbPolyline
 62
7
  6
CONTINUOUS
 90
14
 70
0
 10
11.8029951723
 20
24.6336147828
 10
11.9614345974
 20
24.6871648915
 10
12.1354701825
 20
24.7197830282
 10
12.3201376953
 20
24.7281739932
 10
12.5122827609
 20
24.711022768
 10
12.7089902723
 20
24.6679836573
 10
12.9092668666
 20
24.5987548421
 10
13.1109026119
 20
24.5035041215
 10
13.3092994384
 20
24.3843895838
 10
13.5021938073
 20
24.2433505538
 10
13.6887707194
 20
24.081449823
 10
13.8666200327
 20
23.9011815018
 10
14.0339824573
 20
23.704908016
 10
14.1898068871
 20
23.4943699424
  0
LWPOLYLINE
  5
30E
100
AcDbEntity
  8
RACCORDO
100
AcDbPolyline
 62
7
  6
CONTINUOUS
 90
14
 70
0
 10
8.2514399009
 20
22.3107527499
 10
8.1397960457
 20
22.2765079365
 10
8.0314420819
 20
22.238998501
 10
7.9267323604
 20
22.1982848511
 10
7.8259862499
 20
22.1544237133
 10
7.7294062016
 20
22.1074190995
 10
7.6373956819
 20
22.0573713454
 10
7.5504797327
 20
22.0044881029
 10
7.4687501641
 20
21.9487413276
 10
7.3925952654
 20
21.8902942718
 10
7.3227576557
 20
21.8296941471
 10
7.259302206
 20
21.7670443591
 10
7.202323646
 20
21.7024751927
 10
7.1995640105
 20
21.6988450976
  0
LINE
  5
30F
100
AcDbEntity
  8
RACCORDO
100
AcDbLine
 62
250
  6
CONTINUOUS
 10
8.2281512203
 20
22.2680123101
 11
8.3250171891
 21
22.2969440153
  0
LINE
  5
310
100
AcDbEntity
  8
0
100
AcDbLine
 62
250
  6
CONTINUOUS
 10
17.8138548371
 20
-27.5174940221
 11
17.7921079986
 21
-27.5081925169
  0
LWPOLYLINE
  5
311
100
AcDbEntity
  8
0
100
AcDbPolyline
 62
7
  6
CONTINUOUS
 90
8
 70
0
 10
17.8311258818
 20
-27.5893405254
 10
17.8702662973
 20
-27.6064570601
 10
17.9115317491
 20
-27.6193517128
 10
17.9528095803
 20
-27.6270291796
 10
17.9936609282
 20
-27.6294073643
 10
18.0333996098
 20
-27.6265278498
 10
18.0714340653
 20
-27.6185847949
 10
18.1058683734
 20
-27.606501315
  0
LWPOLYLINE
  5
312
100
AcDbEntity
  8
0
100
AcDbPolyline
 62
250
  6
CONTINUOUS
 90
5
 70
0
 10
-13.413161539
 20
26.2961122828
 10
-13.4113716928
 20
26.3278050808
 10
-13.4073912318
 20
26.3568213921
 10
-13.4012201558
 20
26.3831612167
 10
-13.3925375271
 20
26.4068998604
  0
LWPOLYLINE
  5
313
100
AcDbEntity
  8
0
100
AcDbPolyline
 62
250
  6
CONTINUOUS
 90
3
 70
0
 10
-3.0228886802
 20
22.0917552935
 10
-3.0119500493
 20
22.1066166919
 10
-2.9987704251
 20
22.1220480331
  0
LWPOLYLINE
  5
314
100
AcDbEntity
  8
ASSI
100
AcDbPolyline
 62
250
  6
CONTINUOUS
 90
3
 70
0
 10
-3.0228886802
 20
22.0917552935
 10
-3.0119500493
 20
22.1066166919
 10
-2.9987704251
 20
22.1220480331
  0
LWPOLYLINE
  5
315
100
AcDbEntity
  8
RACCORDO
100
AcDbPolyline
 62
250
  6
CONTINUOUS
 90
10
 70
0
 10
-1.9090542362
 20
20.5701617628
 10
-1.8911473331
 20
20.5869379491
 10
-1.870041557
 20
20.6045578258
 10
-1.8462882302
 20
20.6225611287
 10
-1.8205078343
 20
20.6404775778
 10
-1.7933738014
 20
20.6578391617
 10
-1.7655949234
 20
20.6741923633
 10
-1.7378968368
 20
20.6891100062
 10
-1.7110030674
 20
20.7022024138
 10
-1.685616131
 20
20.7131275877
  0
LINE
  5
316
100
AcDbEntity
  8
0
100
AcDbLine
 62
7
  6
CONTINUOUS
 10
2.6106158993
 20
18.6921800294
 11
2.9979725157
 21
18.9180444159
  0
LINE
  5
317
100
AcDbEntity
  8
0
100
AcDbLine
 62
250
  6
CONTINUOUS
 10
2.8444809034
 20
18.6837105707
 11
3.2320553782
 21
18.9097019886
  0
LINE
  5
318
100
AcDbEntity
  8
0
100
AcDbLine
 62
250
  6
CONTINUOUS
 10
2.3838502133
 20
19.333804571
 11
1.986346341
 21
19.1335200047
  0
LINE
  5
319
100
AcDbEntity
  8
0
100
AcDbLine
 62
250
  6
CONTINUOUS
 10
2.5270265163
 20
18.618135498
 11
2.3398458837
 21
18.5238234814
  0
LINE
  5
31A
100
AcDbEntity
  8
0
100
AcDbLine
 62
7
  6
CONTINUOUS
 10
7.6941682921
 20
21.9411119956
 11
8.1891430389
 21
22.188599369
  0
LINE
  5
31B
100
AcDbEntity
  8
RACCORDO
100
AcDbLine
 62
7
  6
CONTINUOUS
 10
10.6026456126
 20
22.2710508738
 11
9.4803325346
 21
21.7098943347
  0
LWPOLYLINE
  5
31C
100
AcDbEntity
  8
0
100
AcDbPolyline
 62
7
  6
CONTINUOUS
 90
5
 70
0
 10
7.0597703907
 20
21.752310604
 10
7.0602733129
 20
21.7525507186
 10
7.1802887699
 20
21.8048747446
 10
7.3046814749
 20
21.8543126372
 10
7.384287512
 20
21.8830853927
  0
LINE
  5
31D
100
AcDbEntity
  8
DRAFT
100
AcDbLine
 62
7
  6
CONTINUOUS
 10
8.2870961452
 20
22.3685512728
 11
7.0038448814
 21
21.7759033137
  0
LINE
  5
31E
100
AcDbEntity
  8
ASSI
100
AcDbLine
 62
7
  6
CONTINUOUS
 10
8.2870961452
 20
22.3685512728
 11
7.0038448814
 21
21.7759033137
  0
LINE
  5
31F
100
AcDbEntity
  8
RACCORDO
100
AcDbLine
 62
7
  6
CONTINUOUS
 10
15.2922914393
 20
23.6490685862
 11
11.2951421906
 21
21.8030526022
  0
LINE
  5
320
100
AcDbEntity
  8
ASSI
100
AcDbLine
 62
7
  6
CONTINUOUS
 10
15.2922914393
 20
23.6490685862
 11
11.2951421906
 21
21.8030526022
  0
LWPOLYLINE
  5
321
100
AcDbEntity
  8
RACCORDO
100
AcDbPolyline
 62
7
  6
CONTINUOUS
 90
11
 70
0
 10
11.3092154964
 20
21.9172290345
 10
11.3212191119
 20
21.9226511015
 10
11.3330413253
 20
21.9268093794
 10
11.3446821366
 20
21.9297038682
 10
11.3562606131
 20
21.9313381884
 10
11.3676576875
 20
21.9317087194
 10
11.3785161579
 20
21.9308045997
 10
11.3887593113
 20
21.9285934876
 10
11.3984638608
 20
21.9251077247
 10
11.4075027435
 20
21.920433474
 10
11.4148054041
 20
21.9154121076
  0
LWPOLYLINE
  5
322
100
AcDbEntity
  8
RACCORDO
100
AcDbPolyline
 62
250
  6
CONTINUOUS
 90
8
 70
0
 10
16.101511412
 20
23.2444585999
 10
16.1379545956
 20
23.259645634
 10
16.1739460211
 20
23.2699956001
 10
16.2090994004
 20
23.2753979145
 10
16.2430364557
 20
23.2757955115
 10
16.2753940361
 20
23.2711838395
 10
16.3058280467
 20
23.2616109807
 10
16.3184475523
 20
23.2558903024
  0
LWPOLYLINE
  5
323
100
AcDbEntity
  8
ASSI
100
AcDbPolyline
 62
250
  6
CONTINUOUS
 90
8
 70
0
 10
16.101511412
 20
23.2444585999
 10
16.1379545956
 20
23.259645634
 10
16.1739460211
 20
23.2699956001
 10
16.2090994004
 20
23.2753979145
 10
16.2430364557
 20
23.2757955115
 10
16.2753940361
 20
23.2711838395
 10
16.3058280467
 20
23.2616109807
 10
16.3180570021
 20
23.2560845042
  0
LWPOLYLINE
  5
324
100
AcDbEntity
  8
DRAFT
100
AcDbPolyline
 62
7
  6
CONTINUOUS
 90
10
 70
0
 10
10.9269367194
 20
18.7828502683
 10
10.871453759
 20
18.7668749834
 10
10.8160920134
 20
18.7506125283
 10
10.7608514826
 20
18.7340629028
 10
10.7057315485
 20
18.7172259146
 10
10.6507328291
 20
18.700101756
 10
10.5958571789
 20
18.6826910045
 10
10.5411052158
 20
18.6649938525
 10
10.4864763219
 20
18.6470101075
 10
10.431970497
 20
18.6287397695
  0
LINE
  5
325
100
AcDbEntity
  8
0
100
AcDbLine
 62
7
  6
CONTINUOUS
 10
17.831125881
 20
-27.589340525
 11
14.5845546319
 21
-25.9660549147
  0
LINE
  5
326
100
AcDbEntity
  8
0
100
AcDbLine
 62
250
  6
CONTINUOUS
 10
17.7921079986
 20
-27.5081925169
 11
14.5886642059
 21
-25.9064706206
  0
LWPOLYLINE
  5
327
100
AcDbEntity
  8
0
100
AcDbPolyline
 62
250
  6
CONTINUOUS
 90
7
 70
0
 10
17.8310919808
 20
-27.5893235892
 10
17.8276617684
 20
-27.5874570375
 10
17.8153583045
 20
-27.5777297734
 10
17.8054065875
 20
-27.5645218391
 10
17.79808922
 20
-27.5482083049
 10
17.7936139956
 20
-27.529252432
 10
17.7921079986
 20
-27.5081925169
  0
LINE
  5
328
100
AcDbEntity
  8
0
100
AcDbLine
 62
7
  6
CONTINUOUS
 10
-13.4570955218
 20
25.044678015
 11
-13.4570955218
 21
26.3491452625
  0
LINE
  5
329
100
AcDbEntity
  8
0
100
AcDbLine
 62
250
  6
CONTINUOUS
 10
-13.413161539
 20
25.0227110236
 11
-13.413161539
 21
26.2961122828
  0
LINE
  5
32A
100
AcDbEntity
  8
0
100
AcDbLine
 62
7
  6
CONTINUOUS
 10
-13.4552149521
 20
26.3925365728
 11
-13.4570955215
 21
26.349150038
  0
LWPOLYLINE
  5
32B
100
AcDbEntity
  8
RACCORDO
100
AcDbPolyline
 62
250
  6
CONTINUOUS
 90
10
 70
0
 10
-9.6441438351
 20
24.496061932
 10
-9.6396438935
 20
24.5252672819
 10
-9.6317156408
 20
24.5549742322
 10
-9.6205590472
 20
24.5844332019
 10
-9.6064555452
 20
24.6129008511
 10
-9.5897609529
 20
24.6396587947
 10
-9.5708965124
 20
24.6640317414
 10
-9.5503382256
 20
24.6854045966
 10
-9.5286048336
 20
24.7032379761
 10
-9.5062447571
 20
24.7170817841
  0
LWPOLYLINE
  5
32C
100
AcDbEntity
  8
0
100
AcDbPolyline
 62
7
  6
CONTINUOUS
 90
3
 70
0
 10
-8.75013058
 20
25.0245596896
 10
-8.7561784283
 20
24.996308666
 10
-8.7581607832
 20
24.9680255789
  0
LINE
  5
32D
100
AcDbEntity
  8
ASSI
100
AcDbLine
 62
7
  6
CONTINUOUS
 10
-8.7479959441
 20
25.0314732991
 11
-8.7560244249
 21
24.9973818649
  0
LWPOLYLINE
  5
32E
100
AcDbEntity
  8
0
100
AcDbPolyline
 62
7
  6
CONTINUOUS
 90
9
 70
0
 10
2.610869945
 20
18.6923089958
 10
2.5814643646
 20
18.6726186465
 10
2.5520823209
 20
18.6468527695
 10
2.5261143484
 20
18.6170900328
 10
2.5038580368
 20
18.5837546528
 10
2.4854881938
 20
18.547229074
 10
2.4710283287
 20
18.507488311
 10
2.4606299831
 20
18.4646183583
 10
2.4544849196
 20
18.4190490078
  0
LINE
  5
32F
100
AcDbEntity
  8
RACCORDO
100
AcDbLine
 62
250
  6
CONTINUOUS
 10
16.7467320568
 20
22.2576115434
 11
7.1936489816
 21
17.3766369679
  0
LINE
  5
330
100
AcDbEntity
  8
ASSI
100
AcDbLine
 62
250
  6
CONTINUOUS
 10
16.7467320568
 20
22.2576115434
 11
7.1936489816
 21
17.3766369679
  0
LINE
  5
331
100
AcDbEntity
  8
RACCORDO
100
AcDbLine
 62
250
  6
CONTINUOUS
 10
7.1936489816
 20
17.3766369679
 11
6.7507666093
 21
17.150346373
  0
LINE
  5
332
100
AcDbEntity
  8
ASSI
100
AcDbLine
 62
250
  6
CONTINUOUS
 10
7.1936489816
 20
17.3766369679
 11
6.7507666093
 21
17.150346373
  0
LWPOLYLINE
  5
333
100
AcDbEntity
  8
RACCORDO
100
AcDbPolyline
 62
250
  6
CONTINUOUS
 90
8
 70
0
 10
16.7467320568
 20
22.2576115434
 10
16.7893774854
 20
22.2790003998
 10
16.8265829531
 20
22.2977723854
 10
16.8577259124
 20
22.3136133944
 10
16.8822852583
 20
22.3262583644
 10
16.8998500468
 20
22.335495711
 10
16.9101263719
 20
22.3411708688
 10
16.9129968988
 20
22.3431575033
  0
LWPOLYLINE
  5
334
100
AcDbEntity
  8
ASSI
100
AcDbPolyline
 62
250
  6
CONTINUOUS
 90
8
 70
0
 10
16.7467320568
 20
22.2576115434
 10
16.7893774854
 20
22.2790003998
 10
16.8265829531
 20
22.2977723854
 10
16.8577259124
 20
22.3136133944
 10
16.8822852583
 20
22.3262583644
 10
16.8998500468
 20
22.335495711
 10
16.9101263719
 20
22.3411708688
 10
16.9129968988
 20
22.3431575033
  0
LINE
  5
335
100
AcDbEntity
  8
RACCORDO
100
AcDbLine
 62
7
  6
CONTINUOUS
 10
11.30977647
 20
21.9175095213
 11
10.5903853542
 21
21.5578139634
  0
LWPOLYLINE
  5
336
100
AcDbEntity
  8
RACCORDO
100
AcDbPolyline
 62
250
  6
CONTINUOUS
 90
8
 70
0
 10
16.4261051513
 20
22.8971045035
 10
16.468813218
 20
22.9183709717
 10
16.5061768837
 20
22.9368288743
 10
16.5375710017
 20
22.9521693856
 10
16.5624703335
 20
22.9641358526
 10
16.5804583152
 20
22.9725280806
 10
16.5912340411
 20
22.9772056895
 10
16.5946170306
 20
22.9781687184
  0
LWPOLYLINE
  5
337
100
AcDbEntity
  8
ASSI
100
AcDbPolyline
 62
250
  6
CONTINUOUS
 90
8
 70
0
 10
16.4261051513
 20
22.8971045035
 10
16.468813218
 20
22.9183709717
 10
16.5061768837
 20
22.9368288743
 10
16.5375710017
 20
22.9521693856
 10
16.5624703335
 20
22.9641358526
 10
16.5804583152
 20
22.9725280806
 10
16.5912340411
 20
22.9772056895
 10
16.594617261
 20
22.9781682719
  0
LINE
  5
338
100
AcDbEntity
  8
RACCORDO
100
AcDbLine
 62
250
  6
CONTINUOUS
 10
14.1463576355
 20
23.1948743583
 11
14.2329949595
 21
23.237290921
  0
LINE
  5
339
100
AcDbEntity
  8
ASSI
100
AcDbLine
 62
250
  6
CONTINUOUS
 10
14.1463576355
 20
23.1948743583
 11
14.2329949595
 21
23.237290921
  0
LINE
  5
33A
100
AcDbEntity
  8
RACCORDO
100
AcDbLine
 62
250
  6
CONTINUOUS
 10
9.0730970852
 20
19.8242709738
 11
16.101511412
 21
23.2444585999
  0
LINE
  5
33B
100
AcDbEntity
  8
ASSI
100
AcDbLine
 62
250
  6
CONTINUOUS
 10
9.0730970852
 20
19.8242709738
 11
16.101511412
 21
23.2444585999
  0
LINE
  5
33C
100
AcDbEntity
  8
RACCORDO
100
AcDbLine
 62
250
  6
CONTINUOUS
 10
9.3968712646
 20
19.4785160446
 11
16.4261051513
 21
22.8971045035
  0
LINE
  5
33D
100
AcDbEntity
  8
ASSI
100
AcDbLine
 62
250
  6
CONTINUOUS
 10
9.3968712646
 20
19.4785160446
 11
16.4261051513
 21
22.8971045035
  0
LINE
  5
33E
100
AcDbEntity
  8
DRAFT
100
AcDbLine
 62
7
  6
CONTINUOUS
 10
10.431970497
 20
18.6287397695
 11
9.1957435217
 21
18.0416671286
  0
LINE
  5
33F
100
AcDbEntity
  8
DRAFT
100
AcDbLine
 62
7
  6
CONTINUOUS
 10
8.25208518
 20
17.5938040596
 11
7.6153869714
 21
17.2917161436
  0
LINE
  5
340
100
AcDbEntity
  8
DRAFT
100
AcDbLine
 62
7
  6
CONTINUOUS
 10
9.1957435217
 20
18.0416671286
 11
8.25208518
 21
17.5938040596
  0
LINE
  5
341
100
AcDbEntity
  8
DRAFT
100
AcDbLine
 62
7
  6
CONTINUOUS
 10
10.9269367194
 20
18.7828502683
 11
8.0840549803
 21
17.4363301317
  0
LINE
  5
342
100
AcDbEntity
  8
DRAFT
100
AcDbLine
 62
7
  6
CONTINUOUS
 10
11.0418238531
 20
18.9761120066
 11
9.8513412027
 21
18.4129003197
  0
LINE
  5
343
100
AcDbEntity
  8
DRAFT
100
AcDbLine
 62
7
  6
CONTINUOUS
 10
8.7888725122
 20
17.8956362458
 11
7.1677157736
 21
17.1310415842
  0
LINE
  5
344
100
AcDbEntity
  8
DRAFT
100
AcDbLine
 62
7
  6
CONTINUOUS
 10
10.0639792185
 20
18.4966632883
 11
8.7888725122
 21
17.8956362458
  0
LWPOLYLINE
  5
345
100
AcDbEntity
  8
0
100
AcDbPolyline
 62
7
  6
CONTINUOUS
 90
3
 70
0
 10
6.1908561003
 20
16.7802822396
 10
5.7613650793
 20
16.5805321142
 10
5.4998658668
 20
16.447122924
  0
LWPOLYLINE
  5
346
100
AcDbEntity
  8
0
100
AcDbPolyline
 62
7
  6
CONTINUOUS
 90
4
 70
0
 10
6.2316465413
 20
16.7984011122
 10
6.2040411041
 20
16.7860709834
 10
6.197390486
 20
16.7831326004
 10
6.1908561003
 20
16.7802822396
  0
LWPOLYLINE
  5
347
100
AcDbEntity
  8
DRAFT
100
AcDbPolyline
 62
7
  6
CONTINUOUS
 90
14
 70
0
 10
7.4863852204
 20
17.0533167856
 10
7.4655554441
 20
17.0444085361
 10
7.4437323065
 20
17.0380625151
 10
7.4208234495
 20
17.0341835946
 10
7.3971992613
 20
17.032824891
 10
7.3728551922
 20
17.0340229611
 10
7.3477957918
 20
17.0377412481
 10
7.3224050968
 20
17.0439231977
 10
7.2966687508
 20
17.0526091108
 10
7.2706011102
 20
17.0637586865
 10
7.2446292815
 20
17.0771944674
 10
7.2188956336
 20
17.0928573011
 10
7.1932577976
 20
17.11080634
 10
7.1677157736
 20
17.1310415842
  0
LINE
  5
348
100
AcDbEntity
  8
DRAFT
100
AcDbLine
 62
7
  6
CONTINUOUS
 10
7.0034915862
 20
17.0663172359
 11
6.9567981025
 21
17.0473306264
  0
LINE
  5
349
100
AcDbEntity
  8
DRAFT
100
AcDbLine
 62
7
  6
CONTINUOUS
 10
7.0502865005
 20
17.0850844065
 11
7.0034915862
 21
17.0663172359
  0
LINE
  5
34A
100
AcDbEntity
  8
DRAFT
100
AcDbLine
 62
7
  6
CONTINUOUS
 10
7.0971826931
 20
17.1036320776
 11
7.0502865005
 21
17.0850844065
  0
LWPOLYLINE
  5
34B
100
AcDbEntity
  8
DRAFT
100
AcDbPolyline
 62
7
  6
CONTINUOUS
 90
7
 70
0
 10
10.0639792185
 20
18.4966632883
 10
9.915857415
 20
18.439101029
 10
9.7687664041
 20
18.3793658293
 10
9.6227061858
 20
18.3174576892
 10
9.4776643116
 20
18.253370881
 10
9.3336532299
 20
18.1871111323
 10
6.9400556517
 20
17.0557018518
  0
LWPOLYLINE
  5
34C
100
AcDbEntity
  8
DRAFT
100
AcDbPolyline
 62
7
  6
CONTINUOUS
 90
3
 70
0
 10
7.1677157736
 20
17.1310415842
 10
7.1441795542
 20
17.1219600072
 10
7.0971826931
 20
17.1036320776
  0
LINE
  5
34D
100
AcDbEntity
  8
0
100
AcDbLine
 62
7
  6
CONTINUOUS
 10
12.9466730679
 20
18.1925394282
 11
12.5307786754
 21
18.0469332339
  0
LWPOLYLINE
  5
34E
100
AcDbEntity
  8
RACCORDO
100
AcDbPolyline
 62
250
  6
CONTINUOUS
 90
7
 70
0
 10
6.1100976961
 20
16.5336761101
 10
6.1313154729
 20
16.5409082401
 10
6.1530118886
 20
16.5447029639
 10
6.1751869431
 20
16.5450602816
 10
6.1978406364
 20
16.5419801933
 10
6.2209729685
 20
16.5354626988
 10
6.2445839395
 20
16.5255077982
  0
LWPOLYLINE
  5
34F
100
AcDbEntity
  8
RACCORDO
100
AcDbPolyline
 62
250
  6
CONTINUOUS
 90
7
 70
0
 10
6.1622682902
 20
16.7621015183
 10
6.1948482053
 20
16.7730762755
 10
6.229269964
 20
16.7784284246
 10
6.2651564818
 20
16.7781218537
 10
6.3021098193
 20
16.7721848292
 10
6.3397159581
 20
16.7607093941
 10
6.3775497405
 20
16.7438500184
  0
LWPOLYLINE
  5
350
100
AcDbEntity
  8
DRAFT
100
AcDbPolyline
 62
7
  6
CONTINUOUS
 90
10
 70
0
 10
8.0840549803
 20
17.4363301317
 10
8.0315473485
 20
17.4212868123
 10
7.979147678
 20
17.405987147
 10
7.9268559689
 20
17.3904311358
 10
7.8746717003
 20
17.3746186178
 10
7.8225953931
 20
17.3585497539
 10
7.7706286103
 20
17.3422250262
 10
7.7187718729
 20
17.3256445957
 10
7.6670246599
 20
17.3088083015
 10
7.6153869714
 20
17.2917161436
  0
LWPOLYLINE
  5
351
100
AcDbEntity
  8
RACCORDO
100
AcDbPolyline
 62
250
  6
CONTINUOUS
 90
13
 70
0
 10
17.2716002288
 20
-22.697620927
 10
17.2910267744
 20
-22.705940536
 10
17.3124773213
 20
-22.712593096
 10
17.3355928842
 20
-22.7174672732
 10
17.3599866127
 20
-22.7204814959
 10
17.3852502661
 20
-22.7215853195
 10
17.4109610445
 20
-22.720760271
 10
17.4366886657
 20
-22.7180201581
 10
17.4620025653
 20
-22.7134108378
 10
17.4864791029
 20
-22.7070094495
 10
17.5097086515
 20
-22.6989231234
 10
17.5313024534
 20
-22.6892871883
 10
17.5508991258
 20
-22.6782629061
  0
LWPOLYLINE
  5
352
100
AcDbEntity
  8
0
100
AcDbPolyline
 62
250
  6
CONTINUOUS
 90
6
 70
0
 10
-13.4570955218
 20
26.349144933
 10
-13.4564182534
 20
26.3420262373
 10
-13.451754605
 20
26.3293100034
 10
-13.4427929149
 20
26.3171835024
 10
-13.4297997798
 20
26.3060069383
 10
-13.413161539
 20
26.2961122828
  0
LWPOLYLINE
  5
353
100
AcDbEntity
  8
RACCORDO
100
AcDbPolyline
 62
250
  6
CONTINUOUS
 90
17
 70
0
 10
-9.8164732819
 20
23.224366895
 10
-9.8158597348
 20
23.2383707105
 10
-9.8179192733
 20
23.287577354
 10
-9.8240812657
 20
23.3383074334
 10
-9.8342775139
 20
23.3900019967
 10
-9.848395024
 20
23.4420922524
 10
-9.8662788167
 20
23.4940088834
 10
-9.8877337263
 20
23.5451855871
 10
-9.9125268325
 20
23.59506506
 10
-9.9403846898
 20
23.6430963515
 10
-9.9709959215
 20
23.6887449557
 10
-10.0040216089
 20
23.7315097049
 10
-10.0391005691
 20
23.7709260977
 10
-10.0758473825
 20
23.8065635484
 10
-10.1138588037
 20
23.8380338671
 10
-10.1527182989
 20
23.86499528
 10
-10.1920003674
 20
23.8871553984
  0
LINE
  5
354
100
AcDbEntity
  8
ASSI
100
AcDbLine
 62
7
  6
CONTINUOUS
 10
-8.7560244249
 20
24.9973818649
 11
-8.7581604619
 21
24.9678743685
  0
LWPOLYLINE
  5
355
100
AcDbEntity
  8
0
100
AcDbPolyline
 62
250
  6
CONTINUOUS
 90
7
 70
0
 10
2.5648733924
 20
18.4993714076
 10
2.5487308941
 20
18.4842641097
 10
2.534132206
 20
18.4656963145
 10
2.5212507302
 20
18.4437840395
 10
2.51097465
 20
18.4186581065
 10
2.5036000265
 20
18.3903621227
 10
2.4988307987
 20
18.3588524809
  0
LWPOLYLINE
  5
356
100
AcDbEntity
  8
RACCORDO
100
AcDbPolyline
 62
250
  6
CONTINUOUS
 90
10
 70
0
 10
6.1622825144
 20
16.7620725865
 10
6.1423059205
 20
16.7484508173
 10
6.1251549805
 20
16.730499883
 10
6.1112777339
 20
16.708688722
 10
6.1010367006
 20
16.6835871152
 10
6.0946994105
 20
16.6558508008
 10
6.0924314152
 20
16.6262043445
 10
6.0942919629
 20
16.5954222115
 10
6.1002324514
 20
16.5643085353
 10
6.110097697
 20
16.5336761104
  0
LWPOLYLINE
  5
357
100
AcDbEntity
  8
RACCORDO
100
AcDbPolyline
 62
250
  6
CONTINUOUS
 90
10
 70
0
 10
6.3775497405
 20
16.7438500184
 10
6.3558163225
 20
16.7295052508
 10
6.3347827324
 20
16.7114392045
 10
6.3149542033
 20
16.6900858316
 10
6.2968070226
 20
16.6659580467
 10
6.2807770907
 20
16.6396354064
 10
6.2672494514
 20
16.6117501883
 10
6.2565490425
 20
16.5829722035
 10
6.2489328911
 20
16.5539927081
 10
6.2445839395
 20
16.5255077982
  0
LWPOLYLINE
  5
358
100
AcDbEntity
  8
RACCORDO
100
AcDbPolyline
 62
250
  6
CONTINUOUS
 90
4
 70
0
 10
4.8533717255
 20
15.8894443913
 10
5.1761886437
 20
16.0739282997
 10
5.6387577337
 20
16.3136233373
 10
6.1100976961
 20
16.5336761101
  0
LWPOLYLINE
  5
359
100
AcDbEntity
  8
RACCORDO
100
AcDbPolyline
 62
7
  6
CONTINUOUS
 90
3
 70
0
 10
5.3634059059
 20
16.3750972957
 10
5.0180745139
 20
16.1858087016
 10
4.6719876193
 20
15.9801364444
  0
LWPOLYLINE
  5
35A
100
AcDbEntity
  8
RACCORDO
100
AcDbPolyline
 62
7
  6
CONTINUOUS
 90
9
 70
0
 10
5.5188505785
 20
15.9310170163
 10
5.4902129974
 20
15.9153269223
 10
5.4510105556
 20
15.8889353914
 10
5.4135500419
 20
15.8572326312
 10
5.3783538723
 20
15.819786263
 10
5.3468742944
 20
15.7772303777
 10
5.320183823
 20
15.730374443
 10
5.2988542388
 20
15.6796612741
 10
5.2956094927
 20
15.6683255077
  0
LINE
  5
35B
100
AcDbEntity
  8
RACCORDO
100
AcDbLine
 62
7
  6
CONTINUOUS
 10
8.50186217
 20
16.2747985927
 11
7.9348021058
 21
15.9652238358
  0
LINE
  5
35C
100
AcDbEntity
  8
RACCORDO
100
AcDbLine
 62
7
  6
CONTINUOUS
 10
5.3634110749
 20
16.375110564
 11
5.3683072661
 21
16.3776966407
  0
LINE
  5
35D
100
AcDbEntity
  8
DRAFT
100
AcDbLine
 62
7
  6
CONTINUOUS
 10
5.5003508918
 20
16.4474037307
 11
5.3667376735
 21
16.3768680379
  0
LINE
  5
35E
100
AcDbEntity
  8
0
100
AcDbLine
 62
250
  6
CONTINUOUS
 10
6.2316465311
 20
16.7984011077
 11
6.1622682903
 21
16.7621015183
  0
LINE
  5
35F
100
AcDbEntity
  8
0
100
AcDbLine
 62
250
  6
CONTINUOUS
 10
6.546934029
 20
16.832484008
 11
6.3775497406
 21
16.7438500183
  0
LINE
  5
360
100
AcDbEntity
  8
RACCORDO
100
AcDbLine
 62
250
  6
CONTINUOUS
 10
17.0555546495
 20
21.0229379402
 11
12.0526818076
 21
18.4706830294
  0
LINE
  5
361
100
AcDbEntity
  8
ASSI
100
AcDbLine
 62
250
  6
CONTINUOUS
 10
17.0555546495
 20
21.0229379402
 11
12.0526818076
 21
18.4706830294
  0
LWPOLYLINE
  5
362
100
AcDbEntity
  8
RACCORDO
100
AcDbPolyline
 62
250
  6
CONTINUOUS
 90
3
 70
0
 10
5.3683072661
 20
16.3776966407
 10
5.6882991882
 20
16.5408794604
 10
6.1622682903
 20
16.7621015183
  0
LINE
  5
363
100
AcDbEntity
  8
ASSI
100
AcDbLine
 62
7
  6
CONTINUOUS
 10
5.908033723
 20
16.1256086231
 11
5.5189467783
 21
15.9310651507
  0
LINE
  5
364
100
AcDbEntity
  8
ASSI
100
AcDbLine
 62
7
  6
CONTINUOUS
 10
6.2884690832
 20
15.1977923144
 11
6.2625724812
 21
15.1848440135
  0
LINE
  5
365
100
AcDbEntity
  8
DRAFT
100
AcDbLine
 62
7
  6
CONTINUOUS
 10
11.3796596739
 20
16.5948657241
 11
12.5307786754
 21
17.1385847705
  0
LINE
  5
366
100
AcDbEntity
  8
DRAFT
100
AcDbLine
 62
7
  6
CONTINUOUS
 10
11.3796596739
 20
18.556488791
 11
8.50186217
 21
17.2274265368
  0
LWPOLYLINE
  5
367
100
AcDbEntity
  8
ASSI
100
AcDbPolyline
 62
250
  6
CONTINUOUS
 90
6
 70
0
 10
-8.6816719185
 20
24.9635046061
 10
-8.6829970898
 20
24.9876410349
 10
-8.6815258644
 20
25.0116427848
 10
-8.6772241146
 20
25.0351348814
 10
-8.6704603325
 20
25.0577391562
 10
-8.6612447953
 20
25.0790842114
  0
LINE
  5
368
100
AcDbEntity
  8
ASSI
100
AcDbLine
 62
7
  6
CONTINUOUS
 10
-8.7581514683
 20
24.5817301972
 11
-8.7578795077
 21
24.5705314312
  0
LINE
  5
369
100
AcDbEntity
  8
ASSI
100
AcDbLine
 62
250
  6
CONTINUOUS
 10
-8.758158149
 20
24.5819278529
 11
-8.758156981
 21
24.5817662317
  0
LINE
  5
36A
100
AcDbEntity
  8
0
100
AcDbLine
 62
7
  6
CONTINUOUS
 10
-8.758158149
 20
24.5819278529
 11
-8.7581606915
 21
24.9681460942
  0
LINE
  5
36B
100
AcDbEntity
  8
ASSI
100
AcDbLine
 62
7
  6
CONTINUOUS
 10
-8.7581606915
 20
24.5826625101
 11
-8.7581606915
 21
24.9681460942
  0
LINE
  5
36C
100
AcDbEntity
  8
0
100
AcDbLine
 62
250
  6
CONTINUOUS
 10
-8.6117140821
 20
24.4085869536
 11
-8.6117140821
 21
24.879603406
  0
LINE
  5
36D
100
AcDbEntity
  8
ASSI
100
AcDbLine
 62
250
  6
CONTINUOUS
 10
-8.6117140821
 20
24.4085869536
 11
-8.6117140821
 21
24.879603406
  0
LINE
  5
36E
100
AcDbEntity
  8
0
100
AcDbLine
 62
7
  6
CONTINUOUS
 10
-8.7581606911
 20
24.9680310199
 11
-8.7581605673
 21
24.9681162165
  0
LWPOLYLINE
  5
36F
100
AcDbEntity
  8
RACCORDO
100
AcDbPolyline
 62
250
  6
CONTINUOUS
 90
7
 70
0
 10
17.0555546495
 20
21.0229379402
 10
17.0973807004
 20
21.0476050464
 10
17.1324884058
 20
21.0747652941
 10
17.1602903458
 20
21.1039641962
 10
17.1803213597
 20
21.1347131693
 10
17.1922463022
 20
21.1664976736
 10
17.1958846017
 20
21.1964104414
  0
LWPOLYLINE
  5
370
100
AcDbEntity
  8
ASSI
100
AcDbPolyline
 62
250
  6
CONTINUOUS
 90
7
 70
0
 10
17.0555546495
 20
21.0229379402
 10
17.0973807004
 20
21.0476050464
 10
17.1324884058
 20
21.0747652941
 10
17.1602903458
 20
21.1039641962
 10
17.1803213597
 20
21.1347131693
 10
17.1922463022
 20
21.1664976736
 10
17.1958843483
 20
21.1962858836
  0
LINE
  5
371
100
AcDbEntity
  8
RACCORDO
100
AcDbLine
 62
250
  6
CONTINUOUS
 10
17.1958847493
 20
19.2515156164
 11
17.99373344
 21
19.6945659868
  0
LINE
  5
372
100
AcDbEntity
  8
ASSI
100
AcDbLine
 62
250
  6
CONTINUOUS
 10
17.1958847493
 20
19.2515156164
 11
17.99373344
 21
19.6945659868
  0
LINE
  5
373
100
AcDbEntity
  8
DRAFT
100
AcDbLine
 62
7
  6
CONTINUOUS
 10
12.5307786754
 20
17.0943052897
 11
7.6934485704
 21
14.6569892533
  0
LINE
  5
374
100
AcDbEntity
  8
DRAFT
100
AcDbLine
 62
7
  6
CONTINUOUS
 10
15.8032180205
 20
16.3447096177
 11
13.0241612749
 21
14.9662769844
  0
LINE
  5
375
100
AcDbEntity
  8
DRAFT
100
AcDbLine
 62
7
  6
CONTINUOUS
 10
16.255940975
 20
16.1183481405
 11
13.4419684645
 21
14.7573733896
  0
LINE
  5
376
100
AcDbEntity
  8
RACCORDO
100
AcDbLine
 62
7
  6
CONTINUOUS
 10
21.2702291949
 20
-21.2324693043
 11
21.591089834
 21
-21.3928996239
  0
LWPOLYLINE
  5
377
100
AcDbEntity
  8
ASSI
100
AcDbPolyline
 62
250
  6
CONTINUOUS
 90
6
 70
0
 10
-8.758156981
 20
24.5817662317
 10
-8.7565899518
 20
24.5633936366
 10
-8.7519379415
 20
24.5443189916
 10
-8.7446038383
 20
24.5261976362
 10
-8.7345657444
 20
24.5084594121
 10
-8.7219638517
 20
24.4912517243
  0
LWPOLYLINE
  5
378
100
AcDbEntity
  8
0
100
AcDbPolyline
 62
250
  6
CONTINUOUS
 90
11
 70
0
 10
-8.758158149
 20
24.5819278529
 10
-8.7565899518
 20
24.5633936366
 10
-8.7519379415
 20
24.5443189916
 10
-8.7446038383
 20
24.5261976362
 10
-8.7345657444
 20
24.5084594121
 10
-8.7219638517
 20
24.4912517243
 10
-8.7068895131
 20
24.4746089571
 10
-8.6886170423
 20
24.4578895584
 10
-8.6666356953
 20
24.4410448805
 10
-8.6410383078
 20
24.4245342779
 10
-8.6117140821
 20
24.4085869536
  0
LINE
  5
379
100
AcDbEntity
  8
0
100
AcDbLine
 62
7
  6
CONTINUOUS
 10
-8.296731606
 20
25.3338134084
 11
-8.2980603799
 21
25.3501804947
  0
LINE
  5
37A
100
AcDbEntity
  8
ASSI
100
AcDbLine
 62
7
  6
CONTINUOUS
 10
-8.296731606
 20
25.3338134084
 11
-8.2980603799
 21
25.3501804947
  0
LINE
  5
37B
100
AcDbEntity
  8
0
100
AcDbLine
 62
7
  6
CONTINUOUS
 10
-8.7581543733
 20
24.5829851636
 11
-8.7549086651
 21
24.5409840379
  0
LWPOLYLINE
  5
37C
100
AcDbEntity
  8
0
100
AcDbPolyline
 62
250
  6
CONTINUOUS
 90
5
 70
0
 10
-8.6117140821
 20
24.4085869536
 10
-8.6096597729
 20
24.3801991579
 10
-8.6035565277
 20
24.3546904027
 10
-8.59358166
 20
24.3328017765
 10
-8.5800249627
 20
24.3151691947
  0
LWPOLYLINE
  5
37D
100
AcDbEntity
  8
ASSI
100
AcDbPolyline
 62
250
  6
CONTINUOUS
 90
7
 70
0
 10
-8.6117140821
 20
24.4085869536
 10
-8.6096597729
 20
24.3801991579
 10
-8.6035565277
 20
24.3546904027
 10
-8.59358166
 20
24.3328017765
 10
-8.5800249627
 20
24.3151691947
 10
-8.5632802895
 20
24.3023049246
 10
-8.5597354449
 20
24.3004121935
  0
LINE
  5
37E
100
AcDbEntity
  8
0
100
AcDbLine
 62
7
  6
CONTINUOUS
 10
-4.7226267855
 20
26.6076320207
 11
-4.7226267855
 21
25.654614356
  0
LINE
  5
37F
100
AcDbEntity
  8
RACCORDO
100
AcDbLine
 62
7
  6
CONTINUOUS
 10
-4.7226267855
 20
25.654614356
 11
-4.7226267855
 21
25.4910078653
  0
LINE
  5
380
100
AcDbEntity
  8
ASSI
100
AcDbLine
 62
7
  6
CONTINUOUS
 10
-4.7226267855
 20
26.6076320207
 11
-4.7226267855
 21
25.4910078653
  0
LWPOLYLINE
  5
381
100
AcDbEntity
  8
RACCORDO
100
AcDbPolyline
 62
250
  6
CONTINUOUS
 90
10
 70
0
 10
-2.0320156956
 20
20.6899978622
 10
-2.0275155557
 20
20.7192041201
 10
-2.0195869778
 20
20.7489117468
 10
-2.0084300295
 20
20.7783711069
 10
-1.9943262429
 20
20.80683883
 10
-1.9776315094
 20
20.8335965681
 10
-1.9587671002
 20
20.8579691228
 10
-1.9382090354
 20
20.8793414829
 10
-1.9164760724
 20
20.8971743432
 10
-1.8941166157
 20
20.9110177135
  0
LWPOLYLINE
  5
382
100
AcDbEntity
  8
RACCORDO
100
AcDbPolyline
 62
250
  6
CONTINUOUS
 90
12
 70
0
 10
5.4287584387
 20
22.1965759636
 10
5.4460593048
 20
22.231430468
 10
5.4608955159
 20
22.2637372625
 10
5.4726593614
 20
22.2938822074
 10
5.4806700174
 20
22.3225573406
 10
5.4852163249
 20
22.3495598181
 10
5.4873289309
 20
22.374064512
 10
5.4875629807
 20
22.395452431
 10
5.4846050158
 20
22.4138565353
 10
5.4773890248
 20
22.4299011134
 10
5.4663149189
 20
22.4435572759
 10
5.4527853511
 20
22.4541414799
  0
LWPOLYLINE
  5
383
100
AcDbEntity
  8
ASSI
100
AcDbPolyline
 62
250
  6
CONTINUOUS
 90
12
 70
0
 10
5.4287584387
 20
22.1965759636
 10
5.4460593048
 20
22.231430468
 10
5.4608955159
 20
22.2637372625
 10
5.4726593614
 20
22.2938822074
 10
5.4806700174
 20
22.3225573406
 10
5.4852163249
 20
22.3495598181
 10
5.4873289309
 20
22.374064512
 10
5.4875629807
 20
22.395452431
 10
5.4846050158
 20
22.4138565353
 10
5.4773890248
 20
22.4299011134
 10
5.4663149189
 20
22.4435572759
 10
5.4527853539
 20
22.4541414783
  0
LWPOLYLINE
  5
384
100
AcDbEntity
  8
RACCORDO
100
AcDbPolyline
 62
250
  6
CONTINUOUS
 90
15
 70
0
 10
7.2966010741
 20
21.6653178582
 10
7.3255414814
 20
21.7083014381
 10
7.366813345
 20
21.7606351126
 10
7.4134182782
 20
21.8119935931
 10
7.4649978375
 20
21.8619842404
 10
7.5215857206
 20
21.9105940093
 10
7.5831482297
 20
21.957835945
 10
7.6492258288
 20
22.0033565441
 10
7.7198521731
 20
22.0471443441
 10
7.7949936074
 20
22.0892108076
 10
7.87408963
 20
22.1292368194
 10
7.9571851116
 20
22.1672117157
 10
8.0442351815
 20
22.2031461604
 10
8.1345447255
 20
22.2367530296
 10
8.2281512203
 20
22.2680123101
  0
LINE
  5
385
100
AcDbEntity
  8
ASSI
100
AcDbLine
 62
250
  6
CONTINUOUS
 10
17.3633760553
 20
16.4703322431
 11
17.3613530644
 21
16.4691415412
  0
LINE
  5
386
100
AcDbEntity
  8
RACCORDO
100
AcDbLine
 62
250
  6
CONTINUOUS
 10
17.3633760553
 20
16.4703322431
 11
17.3602333143
 21
16.4684852133
  0
LINE
  5
387
100
AcDbEntity
  8
DRAFT
100
AcDbLine
 62
7
  6
CONTINUOUS
 10
17.1958847493
 20
16.3722133822
 11
17.3605616754
 21
16.4686774762
  0
LINE
  5
388
100
AcDbEntity
  8
ASSI
100
AcDbLine
 62
7
  6
CONTINUOUS
 10
17.1958847493
 20
16.3722133822
 11
17.3605616754
 21
16.4686774762
  0
LINE
  5
389
100
AcDbEntity
  8
RACCORDO
100
AcDbLine
 62
7
  6
CONTINUOUS
 10
13.0241612749
 20
14.0136490402
 11
12.4765577362
 21
13.6943460205
  0
LINE
  5
38A
100
AcDbEntity
  8
RACCORDO
100
AcDbLine
 62
250
  6
CONTINUOUS
 10
17.1958847493
 20
17.4328622684
 11
17.99373344
 21
17.8759126388
  0
LINE
  5
38B
100
AcDbEntity
  8
ASSI
100
AcDbLine
 62
250
  6
CONTINUOUS
 10
17.1958847493
 20
17.4328622684
 11
17.99373344
 21
17.8759126388
  0
LWPOLYLINE
  5
38C
100
AcDbEntity
  8
DRAFT
100
AcDbPolyline
 62
7
  6
CONTINUOUS
 90
10
 70
0
 10
17.1188984759
 20
14.9692036596
 10
16.8183256374
 20
14.8116208275
 10
16.5162027454
 20
14.6536397337
 10
16.2125267448
 20
14.4952489888
 10
15.907273623
 20
14.3364356904
 10
15.6004626716
 20
14.1771892155
 10
15.292156014
 20
14.0175045402
 10
14.9823730055
 20
13.8573756316
 10
14.6710906732
 20
13.6967921707
 10
14.3583076713
 20
13.5357456353
  0
LINE
  5
38D
100
AcDbEntity
  8
ASSI
100
AcDbLine
 62
7
  6
CONTINUOUS
 10
13.686208316
 20
12.2365213266
 11
13.2971213713
 21
12.0419778542
  0
LWPOLYLINE
  5
38E
100
AcDbEntity
  8
DRAFT
100
AcDbPolyline
 62
7
  6
CONTINUOUS
 90
10
 70
0
 10
16.7509071974
 20
15.4692714193
 10
16.4400403443
 20
15.325677247
 10
16.1280078226
 20
15.1811624679
 10
15.8148007569
 20
15.0357236017
 10
15.5004026135
 20
14.8893375827
 10
15.1848116627
 20
14.7420223542
 10
14.868043507
 20
14.5938361101
 10
14.5500999432
 20
14.444796678
 10
14.2309664655
 20
14.2948822327
 10
13.9106364735
 20
14.1440913925
  0
LINE
  5
38F
100
AcDbEntity
  8
ASSI
100
AcDbLine
 62
7
  6
CONTINUOUS
 10
-8.7578795077
 20
24.5705314312
 11
-8.7484762091
 21
24.5110343028
  0
LINE
  5
390
100
AcDbEntity
  8
0
100
AcDbLine
 62
7
  6
CONTINUOUS
 10
-3.3791239013
 20
26.0018845222
 11
-3.3791239013
 21
25.111672671
  0
LINE
  5
391
100
AcDbEntity
  8
ASSI
100
AcDbLine
 62
7
  6
CONTINUOUS
 10
-3.3791239013
 20
26.0018845222
 11
-3.3791239013
 21
25.111672671
  0
LINE
  5
392
100
AcDbEntity
  8
0
100
AcDbLine
 62
250
  6
CONTINUOUS
 10
-3.0962811888
 20
22.1218869593
 11
-3.0962811888
 21
21.650870507
  0
LINE
  5
393
100
AcDbEntity
  8
ASSI
100
AcDbLine
 62
250
  6
CONTINUOUS
 10
-3.0962811888
 20
22.1218869593
 11
-3.0962811888
 21
21.650870507
  0
LINE
  5
394
100
AcDbEntity
  8
0
100
AcDbLine
 62
250
  6
CONTINUOUS
 10
-2.3891744076
 20
21.9828668917
 11
-2.3891744076
 21
21.641797825
  0
LINE
  5
395
100
AcDbEntity
  8
ASSI
100
AcDbLine
 62
250
  6
CONTINUOUS
 10
-2.3891744076
 20
21.9828668917
 11
-2.3891744076
 21
21.641797825
  0
LWPOLYLINE
  5
396
100
AcDbEntity
  8
0
100
AcDbPolyline
 62
250
  6
CONTINUOUS
 90
13
 70
0
 10
-3.0228886802
 20
22.0917552935
 10
-3.0220987233
 20
22.1147489391
 10
-3.0194638241
 20
22.1387334722
 10
-3.0150282165
 20
22.1633110361
 10
-3.0088600212
 20
22.1880957813
 10
-3.001064998
 20
22.2126547197
 10
-2.9917984858
 20
22.2365182657
 10
-2.9812337809
 20
22.2592810089
 10
-2.9695474988
 20
22.2805989085
 10
-2.9569415529
 20
22.3001327027
 10
-2.9436288395
 20
22.3175809371
 10
-2.9298287561
 20
22.3326830164
 10
-2.9157661621
 20
22.3452183383
  0
LWPOLYLINE
  5
397
100
AcDbEntity
  8
ASSI
100
AcDbPolyline
 62
250
  6
CONTINUOUS
 90
13
 70
0
 10
-3.0228886802
 20
22.0917552935
 10
-3.0220987233
 20
22.1147489391
 10
-3.0194638241
 20
22.1387334722
 10
-3.0150282165
 20
22.1633110361
 10
-3.0088600212
 20
22.1880957813
 10
-3.001064998
 20
22.2126547197
 10
-2.9917984858
 20
22.2365182657
 10
-2.9812337809
 20
22.2592810089
 10
-2.9695474988
 20
22.2805989085
 10
-2.9569415529
 20
22.3001327027
 10
-2.9436288395
 20
22.3175809371
 10
-2.9298287561
 20
22.3326830164
 10
-2.9157661621
 20
22.3452183383
  0
LWPOLYLINE
  5
398
100
AcDbEntity
  8
RACCORDO
100
AcDbPolyline
 62
250
  6
CONTINUOUS
 90
17
 70
0
 10
-2.0382986888
 20
19.3352795985
 10
-2.0376851417
 20
19.3492834139
 10
-2.0397446802
 20
19.3984900575
 10
-2.0459066726
 20
19.4492201369
 10
-2.0561029209
 20
19.5009147002
 10
-2.0702204309
 20
19.5530049559
 10
-2.0881042237
 20
19.6049215869
 10
-2.1095591333
 20
19.6560982906
 10
-2.1343522395
 20
19.7059777635
 10
-2.1622100967
 20
19.7540090549
 10
-2.1928213284
 20
19.7996576592
 10
-2.2258470158
 20
19.8424224084
 10
-2.260925976
 20
19.8818388012
 10
-2.2976727895
 20
19.9174762519
 10
-2.3356842107
 20
19.9489465706
 10
-2.3745437059
 20
19.9759079835
 10
-2.4138257743
 20
19.9980681019
  0
LWPOLYLINE
  5
399
100
AcDbEntity
  8
0
100
AcDbPolyline
 62
250
  6
CONTINUOUS
 90
8
 70
0
 10
-2.3891744076
 20
21.641797825
 10
-2.3910285076
 20
21.6194866263
 10
-2.3952706408
 20
21.5987670585
 10
-2.4018282233
 20
21.5799936392
 10
-2.4105890524
 20
21.5634875868
 10
-2.4214032284
 20
21.5495313243
 10
-2.434085719
 20
21.5383636465
 10
-2.4470152833
 20
21.5308109943
  0
LWPOLYLINE
  5
39A
100
AcDbEntity
  8
ASSI
100
AcDbPolyline
 62
250
  6
CONTINUOUS
 90
8
 70
0
 10
-2.3891744076
 20
21.641797825
 10
-2.3910285076
 20
21.6194866263
 10
-2.3952706408
 20
21.5987670585
 10
-2.4018282233
 20
21.5799936392
 10
-2.4105890524
 20
21.5634875868
 10
-2.4214032284
 20
21.5495313243
 10
-2.434085719
 20
21.5383636465
 10
-2.4469034599
 20
21.5308630115
  0
LWPOLYLINE
  5
39B
100
AcDbEntity
  8
0
100
AcDbPolyline
 62
7
  6
CONTINUOUS
 90
22
 70
0
 10
-1.9957213286
 20
22.1990109691
 10
-1.9996777002
 20
22.1542349888
 10
-1.9996982575
 20
22.108266093
 10
-1.9957830003
 20
22.0611042819
 10
-1.9877990302
 20
22.0121908997
 10
-1.9758792458
 20
21.9620846021
 10
-1.9604223426
 20
21.912461356
 10
-1.9413086764
 20
21.8633375008
 10
-1.9186578915
 20
21.8146966972
 10
-1.8932276166
 20
21.7681658938
 10
-1.8649238343
 20
21.7238164621
 10
-1.8338405619
 20
21.6815770307
 10
-1.80101748
 20
21.6428604338
 10
-1.7663957386
 20
21.6077858324
 10
-1.7300341877
 20
21.5762340654
 10
-1.6931490565
 20
21.5492604835
 10
-1.6557226349
 20
21.5270199456
 10
-1.6177726331
 20
21.5093575928
 10
-1.5805684115
 20
21.4968641996
 10
-1.5445330902
 20
21.4897366908
 10
-1.509243549
 20
21.4877781415
 10
-1.4746997881
 20
21.4909885518
  0
LWPOLYLINE
  5
39C
100
AcDbEntity
  8
ASSI
100
AcDbPolyline
 62
7
  6
CONTINUOUS
 90
22
 70
0
 10
-1.9957213286
 20
22.1990109691
 10
-1.9996777002
 20
22.1542349888
 10
-1.9996982575
 20
22.108266093
 10
-1.9957830003
 20
22.0611042819
 10
-1.9877990302
 20
22.0121908997
 10
-1.9758792458
 20
21.9620846021
 10
-1.9604223426
 20
21.912461356
 10
-1.9413086764
 20
21.8633375008
 10
-1.9186578915
 20
21.8146966972
 10
-1.8932276166
 20
21.7681658938
 10
-1.8649238343
 20
21.7238164621
 10
-1.8338405619
 20
21.6815770307
 10
-1.80101748
 20
21.6428604338
 10
-1.7663957386
 20
21.6077858324
 10
-1.7300341877
 20
21.5762340654
 10
-1.6931490565
 20
21.5492604835
 10
-1.6557226349
 20
21.5270199456
 10
-1.6177726331
 20
21.5093575928
 10
-1.5805684115
 20
21.4968641996
 10
-1.5445330902
 20
21.4897366908
 10
-1.509243549
 20
21.4877781415
 10
-1.4746997881
 20
21.4909885518
  0
LINE
  5
39D
100
AcDbEntity
  8
0
100
AcDbLine
 62
7
  6
CONTINUOUS
 10
16.9148407188
 20
15.8549022122
 11
17.2060531075
 21
16.0628494084
  0
LINE
  5
39E
100
AcDbEntity
  8
DRAFT
100
AcDbLine
 62
7
  6
CONTINUOUS
 10
17.0243015578
 20
15.0232964973
 11
17.8248830708
 21
15.5845823978
  0
LINE
  5
39F
100
AcDbEntity
  8
RACCORDO
100
AcDbLine
 62
250
  6
CONTINUOUS
 10
17.4409346998
 20
16.5210539036
 11
17.3633760553
 21
16.4703322431
  0
LINE
  5
3A0
100
AcDbEntity
  8
ASSI
100
AcDbLine
 62
250
  6
CONTINUOUS
 10
17.4409346998
 20
16.5210539036
 11
17.3633760553
 21
16.4703322431
  0
LINE
  5
3A1
100
AcDbEntity
  8
0
100
AcDbLine
 62
250
  6
CONTINUOUS
 10
14.2481925197
 20
12.7191394036
 11
14.3121208777
 21
12.7581639344
  0
LINE
  5
3A2
100
AcDbEntity
  8
0
100
AcDbLine
 62
250
  6
CONTINUOUS
 10
14.0338101014
 20
12.9157198379
 11
14.1901698237
 21
13.0108661106
  0
LWPOLYLINE
  5
3A3
100
AcDbEntity
  8
RACCORDO
100
AcDbPolyline
 62
7
  6
CONTINUOUS
 90
9
 70
0
 10
13.2970251716
 20
12.0419297198
 10
13.2683875905
 20
12.0262396258
 10
13.2291851486
 20
11.9998480949
 10
13.191724635
 20
11.9681453347
 10
13.1565284654
 20
11.9306989665
 10
13.1250488875
 20
11.8881430811
 10
13.098358416
 20
11.8412871465
 10
13.0770288318
 20
11.7905739776
 10
13.0737840858
 20
11.7792382112
  0
LINE
  5
3A4
100
AcDbEntity
  8
DRAFT
100
AcDbLine
 62
7
  6
CONTINUOUS
 10
21.3524246524
 20
13.7423099298
 11
18.8120330883
 21
12.4515922308
  0
LINE
  5
3A5
100
AcDbEntity
  8
DRAFT
100
AcDbLine
 62
7
  6
CONTINUOUS
 10
20.6135130641
 20
14.1902674011
 11
18.4145500611
 21
13.0774205305
  0
LINE
  5
3A6
100
AcDbEntity
  8
ASSI
100
AcDbLine
 62
7
  6
CONTINUOUS
 10
14.0666436762
 20
11.3087050179
 11
14.0407470743
 21
11.2957567169
  0
LINE
  5
3A7
100
AcDbEntity
  8
RACCORDO
100
AcDbLine
 62
250
  6
CONTINUOUS
 10
12.3173458052
 20
8.1752302975
 11
16.6972839797
 21
9.9674882642
  0
LINE
  5
3A8
100
AcDbEntity
  8
RACCORDO
100
AcDbLine
 62
250
  6
CONTINUOUS
 10
12.6431145524
 20
7.5530687284
 11
17.0199189918
 21
9.3440443797
  0
LWPOLYLINE
  5
3A9
100
AcDbEntity
  8
RACCORDO
100
AcDbPolyline
 62
250
  6
CONTINUOUS
 90
13
 70
0
 10
15.8570624677
 20
-9.5130267234
 10
15.8764890135
 20
-9.5213463325
 10
15.8979395607
 20
-9.5279988926
 10
15.9210551237
 20
-9.5328730698
 10
15.9454488525
 20
-9.5358872925
 10
15.9707125059
 20
-9.5369911161
 10
15.9964232845
 20
-9.5361660676
 10
16.0221509057
 20
-9.5334259547
 10
16.0474648052
 20
-9.5288166344
 10
16.0719413425
 20
-9.522415246
 10
16.095170891
 20
-9.5143289199
 10
16.1167646926
 20
-9.5046929847
 10
16.1363613647
 20
-9.4936687026
  0
LWPOLYLINE
  5
3AA
100
AcDbEntity
  8
RACCORDO
100
AcDbPolyline
 62
250
  6
CONTINUOUS
 90
10
 70
0
 10
17.0959299506
 20
-23.4802205172
 10
17.1177628039
 20
-23.5045391661
 10
17.1427837898
 20
-23.5257478858
 10
17.1703198965
 20
-23.5432762065
 10
17.1996304611
 20
-23.556652653
 10
17.2299270911
 20
-23.5655174272
 10
17.2603948715
 20
-23.5696320851
 10
17.2902142831
 20
-23.5688859509
 10
17.3185832469
 20
-23.5632990941
 10
17.3447386975
 20
-23.5530217891
  0
LWPOLYLINE
  5
3AB
100
AcDbEntity
  8
0
100
AcDbPolyline
 62
250
  6
CONTINUOUS
 90
13
 70
0
 10
-8.6723076559
 20
24.916467861
 10
-8.6779841781
 20
24.9396383685
 10
-8.6816719185
 20
24.9635046061
 10
-8.6829970898
 20
24.9876410349
 10
-8.6815258644
 20
25.0116427848
 10
-8.6772241146
 20
25.0351348814
 10
-8.6704603325
 20
25.0577391562
 10
-8.6612447953
 20
25.0790842114
 10
-8.649577539
 20
25.0988387609
 10
-8.6358734187
 20
25.1166815558
 10
-8.6203304736
 20
25.132324083
 10
-8.6029770349
 20
25.1455424712
 10
-8.5840031542
 20
25.1561668029
  0
LWPOLYLINE
  5
3AC
100
AcDbEntity
  8
ASSI
100
AcDbPolyline
 62
250
  6
CONTINUOUS
 90
3
 70
0
 10
-8.6723076559
 20
24.916467861
 10
-8.6779841781
 20
24.9396383685
 10
-8.6816719185
 20
24.9635046061
  0
LWPOLYLINE
  5
3AD
100
AcDbEntity
  8
0
100
AcDbPolyline
 62
7
  6
CONTINUOUS
 90
3
 70
0
 10
-8.7549086651
 20
24.5409840379
 10
-8.7449643698
 20
24.4992530034
 10
-8.7285225462
 20
24.4591044428
  0
LWPOLYLINE
  5
3AE
100
AcDbEntity
  8
0
100
AcDbPolyline
 62
250
  6
CONTINUOUS
 90
7
 70
0
 10
-3.0962811888
 20
21.650870507
 10
-3.0942266137
 20
21.6224808591
 10
-3.0881226793
 20
21.5969710728
 10
-3.078146924
 20
21.5750821926
 10
-3.0645893341
 20
21.5574499743
 10
-3.0478439818
 20
21.5445865329
 10
-3.0447156921
 20
21.542903912
  0
LWPOLYLINE
  5
3AF
100
AcDbEntity
  8
ASSI
100
AcDbPolyline
 62
250
  6
CONTINUOUS
 90
7
 70
0
 10
-3.0962811888
 20
21.650870507
 10
-3.0942266137
 20
21.6224808591
 10
-3.0881226793
 20
21.5969710728
 10
-3.078146924
 20
21.5750821926
 10
-3.0645893341
 20
21.5574499743
 10
-3.0478439818
 20
21.5445865329
 10
-3.0448255771
 20
21.5429598179
  0
LWPOLYLINE
  5
3B0
100
AcDbEntity
  8
0
100
AcDbPolyline
 62
250
  6
CONTINUOUS
 90
10
 70
0
 10
-2.3891744076
 20
21.9828668917
 10
-2.3900157926
 20
22.0021408285
 10
-2.3925275895
 20
22.0220255775
 10
-2.3966798042
 20
22.0422847782
 10
-2.4024229377
 20
22.0626776225
 10
-2.4096886142
 20
22.0829618253
 10
-2.4183904244
 20
22.1028964995
 10
-2.4284248931
 20
22.1222448686
 10
-2.4396726857
 20
22.1407770833
 10
-2.4520000821
 20
22.1582730558
  0
LWPOLYLINE
  5
3B1
100
AcDbEntity
  8
ASSI
100
AcDbPolyline
 62
250
  6
CONTINUOUS
 90
10
 70
0
 10
-2.3891744076
 20
21.9828668917
 10
-2.3900157926
 20
22.0021408285
 10
-2.3925275895
 20
22.0220255775
 10
-2.3966798042
 20
22.0422847782
 10
-2.4024229377
 20
22.0626776225
 10
-2.4096886142
 20
22.0829618253
 10
-2.4183904244
 20
22.1028964995
 10
-2.4284248931
 20
22.1222448686
 10
-2.4396726857
 20
22.1407770833
 10
-2.4520000821
 20
22.1582730558
  0
LINE
  5
3B2
100
AcDbEntity
  8
0
100
AcDbLine
 62
7
  6
CONTINUOUS
 10
-2.035621017
 20
21.8034533835
 11
-2.035621017
 21
22.159643587
  0
LINE
  5
3B3
100
AcDbEntity
  8
ASSI
100
AcDbLine
 62
7
  6
CONTINUOUS
 10
-2.035621017
 20
21.8034533835
 11
-2.035621017
 21
22.159643587
  0
LINE
  5
3B4
100
AcDbEntity
  8
SMUSSO
100
AcDbLine
 62
250
  6
CONTINUOUS
 10
0.0859901052
 20
28.0501542435
 11
0.0859901052
 21
26.9475565687
  0
LINE
  5
3B5
100
AcDbEntity
  8
ASSI
100
AcDbLine
 62
250
  6
CONTINUOUS
 10
0.0859901052
 20
28.0501542435
 11
0.0859901052
 21
26.9475565687
  0
LINE
  5
3B6
100
AcDbEntity
  8
RACCORDO
100
AcDbLine
 62
250
  6
CONTINUOUS
 10
17.5119148184
 20
16.5771382319
 11
17.4409346998
 21
16.5210539036
  0
LINE
  5
3B7
100
AcDbEntity
  8
ASSI
100
AcDbLine
 62
250
  6
CONTINUOUS
 10
17.5119148184
 20
16.5771382319
 11
17.4409346998
 21
16.5210539036
  0
LINE
  5
3B8
100
AcDbEntity
  8
0
100
AcDbLine
 62
250
  6
CONTINUOUS
 10
18.2939680667
 20
11.3787456443
 11
17.8926229493
 21
11.1596395478
  0
LINE
  5
3B9
100
AcDbEntity
  8
0
100
AcDbLine
 62
250
  6
CONTINUOUS
 10
18.6472523327
 20
10.7688926177
 11
18.2496717575
 21
10.5518416955
  0
LINE
  5
3BA
100
AcDbEntity
  8
DRAFT
100
AcDbLine
 62
7
  6
CONTINUOUS
 10
21.591089834
 20
13.3690395547
 11
19.0681864537
 21
12.0353237861
  0
LWPOLYLINE
  5
3BB
100
AcDbEntity
  8
RACCORDO
100
AcDbPolyline
 62
250
  6
CONTINUOUS
 90
13
 70
0
 10
15.8570624677
 20
-9.3019428288
 10
15.8764890133
 20
-9.3107101172
 10
15.8979395603
 20
-9.318509383
 10
15.9210551231
 20
-9.3252101016
 10
15.9454488517
 20
-9.3307001332
 10
15.9707125051
 20
-9.3348875994
 10
15.9964232835
 20
-9.337702421
 10
16.0221509047
 20
-9.3390974905
 10
16.0474648043
 20
-9.3390494608
 10
16.0719413419
 20
-9.3375591356
 10
16.0951708905
 20
-9.3346514563
 10
16.1167646924
 20
-9.3303750843
 10
16.1363613647
 20
-9.3248015868
  0
LINE
  5
3BC
100
AcDbEntity
  8
RACCORDO
100
AcDbLine
 62
250
  6
CONTINUOUS
 10
15.8570624677
 20
-9.5130267234
 11
15.7239238163
 21
-9.4464573977
  0
LINE
  5
3BD
100
AcDbEntity
  8
RACCORDO
100
AcDbLine
 62
250
  6
CONTINUOUS
 10
15.8570624677
 20
-9.3019428288
 11
15.7379971099
 21
-9.2424101499
  0
LWPOLYLINE
  5
3BE
100
AcDbEntity
  8
RACCORDO
100
AcDbPolyline
 62
250
  6
CONTINUOUS
 90
10
 70
0
 10
-9.7772534164
 20
24.5047168975
 10
-9.7870352021
 20
24.5353828249
 10
-9.7928958317
 20
24.5665295053
 10
-9.7946822544
 20
24.5973435405
 10
-9.7923478177
 20
24.6270202197
 10
-9.7859534855
 20
24.6547845341
 10
-9.7756662463
 20
24.6799114162
 10
-9.7617547523
 20
24.7017446757
 10
-9.7445823032
 20
24.7197141352
 10
-9.7245973589
 20
24.7333505208
  0
LWPOLYLINE
  5
3BF
100
AcDbEntity
  8
0
100
AcDbPolyline
 62
7
  6
CONTINUOUS
 90
19
 70
0
 10
0.8281614553
 20
23.5461990058
 10
0.8303599453
 20
23.4982076727
 10
0.8363399453
 20
23.4498553515
 10
0.8461014554
 20
23.4011420423
 10
0.8598431489
 20
23.351504469
 10
0.8773663525
 20
23.3015059076
 10
0.8980750456
 20
23.2528361866
 10
0.9220711087
 20
23.2055534448
 10
0.9492526614
 20
23.1595995432
 10
0.9787180417
 20
23.1164898932
 10
1.0105431287
 20
23.0763154116
 10
1.0446520433
 20
23.0389851814
 10
1.0799154858
 20
23.0057418634
 10
1.116379416
 20
22.976718356
 10
1.153997874
 20
22.9517817607
 10
1.1915036808
 20
22.9317760422
 10
1.2284744432
 20
22.9169825222
 10
1.2653325544
 20
22.907119879
 10
1.3020780142
 20
22.9021881127
  0
LWPOLYLINE
  5
3C0
100
AcDbEntity
  8
ASSI
100
AcDbPolyline
 62
7
  6
CONTINUOUS
 90
19
 70
0
 10
0.8281614553
 20
23.5461990058
 10
0.8303599453
 20
23.4982076727
 10
0.8363399453
 20
23.4498553515
 10
0.8461014554
 20
23.4011420423
 10
0.8598431489
 20
23.351504469
 10
0.8773663525
 20
23.3015059076
 10
0.8980750456
 20
23.2528361866
 10
0.9220711087
 20
23.2055534448
 10
0.9492526614
 20
23.1595995432
 10
0.9787180417
 20
23.1164898932
 10
1.0105431287
 20
23.0763154116
 10
1.0446520433
 20
23.0389851814
 10
1.0799154858
 20
23.0057418634
 10
1.116379416
 20
22.976718356
 10
1.153997874
 20
22.9517817607
 10
1.1915036808
 20
22.9317760422
 10
1.2284744432
 20
22.9169825222
 10
1.2653325544
 20
22.907119879
 10
1.3020780142
 20
22.9021881127
  0
LWPOLYLINE
  5
3C1
100
AcDbEntity
  8
SMUSSO
100
AcDbPolyline
 62
7
  6
CONTINUOUS
 90
6
 70
0
 10
-0.6717924339
 20
27.1405365245
 10
-0.6698166251
 20
27.0899958743
 10
-0.659399621
 20
27.0139850519
 10
-0.6400979144
 20
26.9383809581
 10
-0.6119908771
 20
26.8634057398
 10
-0.5751791731
 20
26.7892790725
  0
LWPOLYLINE
  5
3C2
100
AcDbEntity
  8
ASSI
100
AcDbPolyline
 62
7
  6
CONTINUOUS
 90
5
 70
0
 10
-0.6717924339
 20
27.1405365245
 10
-0.6698166251
 20
27.0899958743
 10
-0.659399621
 20
27.0139850519
 10
-0.6400979144
 20
26.9383809581
 10
-0.6119908771
 20
26.8634057398
  0
LWPOLYLINE
  5
3C3
100
AcDbEntity
  8
0
100
AcDbPolyline
 62
250
  6
CONTINUOUS
 90
19
 70
0
 10
2.129581111
 20
18.5247409578
 10
2.1286074725
 20
18.5513862311
 10
2.1259248274
 20
18.5782848585
 10
2.1215331756
 20
18.6054368403
 10
2.1153685054
 20
18.6330365387
 10
2.1074948284
 20
18.6608895914
 10
2.0981041801
 20
18.6884129108
 10
2.0871741207
 20
18.7155875413
 10
2.07472709
 20
18.7424324385
 10
2.0610224421
 20
18.7684213815
 10
2.0461585448
 20
18.7934368681
 10
2.0300370303
 20
18.8175964004
 10
2.0126221499
 20
18.8407262633
 10
1.9938564043
 20
18.8629910121
 10
1.9737972929
 20
18.8842260915
 10
1.9525815649
 20
18.9037641205
 10
1.9302548035
 20
18.9213826388
 10
1.9067714256
 20
18.9373041067
 10
1.8821314311
 20
18.9515285241
  0
LINE
  5
3C4
100
AcDbEntity
  8
0
100
AcDbLine
 62
7
  6
CONTINUOUS
 10
1.0049381421
 20
23.8098535005
 11
1.0049381421
 21
23.0833908811
  0
LINE
  5
3C5
100
AcDbEntity
  8
ASSI
100
AcDbLine
 62
7
  6
CONTINUOUS
 10
1.0049381421
 20
23.8098535005
 11
1.0049381421
 21
23.0833908811
  0
LINE
  5
3C6
100
AcDbEntity
  8
DRAFT
100
AcDbLine
 62
7
  6
CONTINUOUS
 10
1.2189142529
 20
27.4601353209
 11
1.2189142529
 21
26.5977576597
  0
LINE
  5
3C7
100
AcDbEntity
  8
ASSI
100
AcDbLine
 62
7
  6
CONTINUOUS
 10
1.2189142529
 20
27.4601353209
 11
1.2189142529
 21
26.5977576597
  0
LINE
  5
3C8
100
AcDbEntity
  8
0
100
AcDbLine
 62
7
  6
CONTINUOUS
 10
1.683622811
 20
26.0577103551
 11
1.683622811
 21
25.9923586344
  0
LINE
  5
3C9
100
AcDbEntity
  8
0
100
AcDbLine
 62
250
  6
CONTINUOUS
 10
2.129581111
 20
17.2513396986
 11
2.129581111
 21
18.5247409578
  0
LINE
  5
3CA
100
AcDbEntity
  8
0
100
AcDbLine
 62
250
  6
CONTINUOUS
 10
2.3398458837
 20
17.1462073122
 11
2.3398458837
 21
18.5238234814
  0
LINE
  5
3CB
100
AcDbEntity
  8
DRAFT
100
AcDbLine
 62
7
  6
CONTINUOUS
 10
2.3484410263
 20
26.7820200357
 11
2.3484410263
 21
26.6873761399
  0
LINE
  5
3CC
100
AcDbEntity
  8
ASSI
100
AcDbLine
 62
7
  6
CONTINUOUS
 10
2.3484410263
 20
26.7820200357
 11
2.3484410263
 21
26.6873761399
  0
LINE
  5
3CD
100
AcDbEntity
  8
0
100
AcDbLine
 62
7
  6
CONTINUOUS
 10
2.4527329837
 20
18.3771621921
 11
2.4527329837
 21
17.0897637622
  0
LINE
  5
3CE
100
AcDbEntity
  8
0
100
AcDbLine
 62
250
  6
CONTINUOUS
 10
2.4966669665
 20
18.324129181
 11
2.4966669665
 21
17.0677967708
  0
LINE
  5
3CF
100
AcDbEntity
  8
0
100
AcDbLine
 62
7
  6
CONTINUOUS
 10
2.4544849196
 20
18.4190490078
 11
2.4527329838
 21
18.3771651834
  0
LINE
  5
3D0
100
AcDbEntity
  8
0
100
AcDbLine
 62
250
  6
CONTINUOUS
 10
2.4988307987
 20
18.3588524809
 11
2.4966669665
 21
18.324129181
  0
LWPOLYLINE
  5
3D1
100
AcDbEntity
  8
0
100
AcDbPolyline
 62
250
  6
CONTINUOUS
 90
10
 70
0
 10
2.7439659527
 20
18.5037273135
 10
2.7454719575
 20
18.5262932923
 10
2.7499472019
 20
18.5497244406
 10
2.7572645936
 20
18.5733553719
 10
2.7672163305
 20
18.5965150273
 10
2.7795198039
 20
18.6185457369
 10
2.7938256266
 20
18.6388218952
 10
2.8097275503
 20
18.6567677188
 10
2.8267740005
 20
18.6718735974
 10
2.8444809035
 20
18.6837105707
  0
LWPOLYLINE
  5
3D2
100
AcDbEntity
  8
0
100
AcDbPolyline
 62
250
  6
CONTINUOUS
 90
10
 70
0
 10
1.8821314311
 20
18.9515285241
 10
1.8837072911
 20
18.9746258825
 10
1.888388045
 20
18.9986127697
 10
1.8960346056
 20
19.0227764227
 10
1.9064197575
 20
19.0463988257
 10
1.9192349091
 20
19.0687780459
 10
1.9340992621
 20
19.0892490917
 10
1.9505711265
 20
19.1072036718
 10
1.9681610459
 20
19.1221082714
 10
1.986346341
 20
19.1335200047
  0
LWPOLYLINE
  5
3D3
100
AcDbEntity
  8
RACCORDO
100
AcDbPolyline
 62
250
  6
CONTINUOUS
 90
10
 70
0
 10
14.024564954
 20
12.5764424812
 10
14.0425010688
 20
12.593175143
 10
14.063635832
 20
12.6107527727
 10
14.0874170705
 20
12.6287161318
 10
14.1132234685
 20
12.6465959042
 10
14.1403808006
 20
12.6639249578
 10
14.1681795461
 20
12.6802505484
 10
14.1958934268
 20
12.6951461488
 10
14.2227983817
 20
12.7082225922
 10
14.2481914838
 20
12.7191382395
  0
LINE
  5
3D4
100
AcDbEntity
  8
RACCORDO
100
AcDbLine
 62
250
  6
CONTINUOUS
 10
21.0871386907
 20
8.3382807213
 11
18.6472523327
 21
7.0915528195
  0
LINE
  5
3D5
100
AcDbEntity
  8
0
100
AcDbLine
 62
250
  6
CONTINUOUS
 10
17.8389446983
 20
6.7425658972
 11
17.3447454802
 21
6.5006928653
  0
LWPOLYLINE
  5
3D6
100
AcDbEntity
  8
RACCORDO
100
AcDbPolyline
 62
250
  6
CONTINUOUS
 90
10
 70
0
 10
17.0959299504
 20
6.4008987014
 10
17.117762493
 20
6.4106336914
 10
17.1427835854
 20
6.421426922
 10
17.1703201662
 20
6.432988058
 10
17.1996315079
 20
6.4450061077
 10
17.2299291426
 20
6.4571577883
 10
17.2603980711
 20
6.4691162225
 10
17.2902186867
 20
6.4805597312
 10
17.3185888219
 20
6.4911804868
 10
17.3447453269
 20
6.5006927936
  0
LINE
  5
3D7
100
AcDbEntity
  8
ASSI
100
AcDbLine
 62
7
  6
CONTINUOUS
 10
-8.7484762091
 20
24.5110343028
 11
-8.7265854953
 21
24.4553073549
  0
LWPOLYLINE
  5
3D8
100
AcDbEntity
  8
0
100
AcDbPolyline
 62
250
  6
CONTINUOUS
 90
19
 70
0
 10
2.3398458461
 20
18.5238234624
 10
2.3384062431
 20
18.5613355623
 10
2.3344200337
 20
18.5997870029
 10
2.3279339168
 20
18.6388942547
 10
2.3190144239
 20
18.678367662
 10
2.3077404099
 20
18.7179259308
 10
2.2941994706
 20
18.7572982532
 10
2.2785055643
 20
18.7961919871
 10
2.260778611
 20
18.8343468836
 10
2.2411258775
 20
18.8715458432
 10
2.2198211387
 20
18.9073181776
 10
2.1969035623
 20
18.9416373294
 10
2.172051984
 20
18.9748734895
 10
2.1452925307
 20
19.0067719234
 10
2.1168286637
 20
19.0368721722
 10
2.0865314759
 20
19.0650544212
 10
2.0544786264
 20
19.0909271278
 10
2.0209917581
 20
19.1139135679
 10
1.9863462949
 20
19.1335199814
  0
LINE
  5
3D9
100
AcDbEntity
  8
SMUSSO
100
AcDbLine
 62
7
  6
CONTINUOUS
 10
4.2545752236
 20
30.1178031935
 11
4.2545752236
 21
28.8335858873
  0
LINE
  5
3DA
100
AcDbEntity
  8
ASSI
100
AcDbLine
 62
7
  6
CONTINUOUS
 10
4.2545752236
 20
30.1178031935
 11
4.2545752236
 21
28.8335858873
  0
LINE
  5
3DB
100
AcDbEntity
  8
RACCORDO
100
AcDbLine
 62
250
  6
CONTINUOUS
 10
21.3909537393
 20
7.1138404965
 11
18.6472523327
 21
5.7139427837
  0
LINE
  5
3DC
100
AcDbEntity
  8
0
100
AcDbLine
 62
250
  6
CONTINUOUS
 10
18.2496717575
 20
5.568296875
 11
17.5508991258
 21
5.2257958541
  0
LINE
  5
3DD
100
AcDbEntity
  8
0
100
AcDbLine
 62
7
  6
CONTINUOUS
 10
-8.7285225462
 20
24.4591044428
 11
-8.7061752382
 21
24.421646363
  0
LWPOLYLINE
  5
3DE
100
AcDbEntity
  8
RACCORDO
100
AcDbPolyline
 62
250
  6
CONTINUOUS
 90
6
 70
0
 10
-1.1354885296
 20
23.639483944
 10
-1.1390186142
 20
23.6529573494
 10
-1.1474600063
 20
23.6730096669
 10
-1.1585318075
 20
23.6911497107
 10
-1.1720433806
 20
23.7070747554
 10
-1.1872261139
 20
23.7201309044
  0
LINE
  5
3DF
100
AcDbEntity
  8
RACCORDO
100
AcDbLine
 62
7
  6
CONTINUOUS
 10
3.5531749035
 20
26.1525676036
 11
3.5338731854
 21
26.407395437
  0
LWPOLYLINE
  5
3E0
100
AcDbEntity
  8
SMUSSO
100
AcDbPolyline
 62
7
  6
CONTINUOUS
 90
6
 70
0
 10
6.3659554477
 20
22.5459245337
 10
6.3679312564
 20
22.4953838835
 10
6.3783482605
 20
22.4193730611
 10
6.3976499671
 20
22.3437689673
 10
6.4257570044
 20
22.268793749
 10
6.4625687084
 20
22.1946670817
  0
LWPOLYLINE
  5
3E1
100
AcDbEntity
  8
ASSI
100
AcDbPolyline
 62
7
  6
CONTINUOUS
 90
5
 70
0
 10
6.3659554477
 20
22.5459245337
 10
6.3679312564
 20
22.4953838835
 10
6.3783482605
 20
22.4193730611
 10
6.3976499671
 20
22.3437689673
 10
6.4257570044
 20
22.268793749
  0
LINE
  5
3E2
100
AcDbEntity
  8
SMUSSO
100
AcDbLine
 62
250
  6
CONTINUOUS
 10
7.1237379867
 20
23.4555422527
 11
7.1237379867
 21
22.7046810529
  0
LINE
  5
3E3
100
AcDbEntity
  8
ASSI
100
AcDbLine
 62
250
  6
CONTINUOUS
 10
7.1237379867
 20
23.4555422527
 11
7.1237379867
 21
22.7046810529
  0
LWPOLYLINE
  5
3E4
100
AcDbEntity
  8
RACCORDO
100
AcDbPolyline
 62
250
  6
CONTINUOUS
 90
9
 70
0
 10
8.8649661077
 20
27.7167445758
 10
8.8645028223
 20
27.7059850364
 10
8.8596022742
 20
27.6802238186
 10
8.8494020423
 20
27.6548538954
 10
8.8340114151
 20
27.630147088
 10
8.8135952925
 20
27.6063681126
 10
8.7883724191
 20
27.5837717445
 10
8.7586130405
 20
27.5626000881
 10
8.7246360079
 20
27.5430799832
  0
LWPOLYLINE
  5
3E5
100
AcDbEntity
  8
ASSI
100
AcDbPolyline
 62
250
  6
CONTINUOUS
 90
9
 70
0
 10
8.8649661077
 20
27.7167445758
 10
8.8645028223
 20
27.7059850364
 10
8.8596022742
 20
27.6802238186
 10
8.8494020423
 20
27.6548538954
 10
8.8340114151
 20
27.630147088
 10
8.8135952925
 20
27.6063681126
 10
8.7883724191
 20
27.5837717445
 10
8.7586130405
 20
27.5626000881
 10
8.7246360079
 20
27.5430799832
  0
LWPOLYLINE
  5
3E6
100
AcDbEntity
  8
RACCORDO
100
AcDbPolyline
 62
250
  6
CONTINUOUS
 90
17
 70
0
 10
6.0944368337
 20
15.2689118372
 10
6.0961069659
 20
15.3070470994
 10
6.0941713364
 20
15.3532911656
 10
6.0883809073
 20
15.4009666925
 10
6.0787995128
 20
15.4495493811
 10
6.0655328535
 20
15.4985055497
 10
6.0487265184
 20
15.5472995942
 10
6.028564375
 20
15.5953981824
 10
6.0052665553
 20
15.642275734
 10
5.9790890833
 20
15.6874167252
 10
5.9503211248
 20
15.7303232696
 10
5.919278414
 20
15.7705257977
 10
5.8863016743
 20
15.8075842886
 10
5.8517555382
 20
15.841090831
 10
5.8160200494
 20
15.8706794309
 10
5.7794860064
 20
15.8960290366
 10
5.742553576
 20
15.9168642571
  0
LINE
  5
3E7
100
AcDbEntity
  8
RACCORDO
100
AcDbLine
 62
7
  6
CONTINUOUS
 10
7.7995153781
 20
15.7480420789
 11
7.6934485704
 21
14.6569892533
  0
LWPOLYLINE
  5
3E8
100
AcDbEntity
  8
DRAFT
100
AcDbPolyline
 62
7
  6
CONTINUOUS
 90
12
 70
0
 10
7.6153869714
 20
17.2917161436
 10
7.612411535
 20
17.2611983059
 10
7.6076030498
 20
17.2322797597
 10
7.6009615158
 20
17.204960505
 10
7.5924305677
 20
17.1791084684
 10
7.5820665708
 20
17.1548557233
 10
7.5700386212
 20
17.1325984904
 10
7.5563182941
 20
17.1123705008
 10
7.5409340144
 20
17.0941380233
 10
7.5241401525
 20
17.0781960853
 10
7.5059135443
 20
17.0645841757
 10
7.4863852204
 20
17.0533167856
  0
LWPOLYLINE
  5
3E9
100
AcDbEntity
  8
RACCORDO
100
AcDbPolyline
 62
250
  6
CONTINUOUS
 90
7
 70
0
 10
8.8649661069
 20
27.2797250919
 10
8.8613273236
 20
27.2496333521
 10
8.8494021129
 20
27.2178490525
 10
8.8293709702
 20
27.1871003432
 10
8.801569067
 20
27.1579017356
 10
8.7664615998
 20
27.1307418017
 10
8.7246360079
 20
27.1060750027
  0
LWPOLYLINE
  5
3EA
100
AcDbEntity
  8
ASSI
100
AcDbPolyline
 62
250
  6
CONTINUOUS
 90
7
 70
0
 10
8.8649660825
 20
27.279660281
 10
8.8613273236
 20
27.2496333521
 10
8.8494021129
 20
27.2178490525
 10
8.8293709702
 20
27.1871003432
 10
8.801569067
 20
27.1579017356
 10
8.7664615998
 20
27.1307418017
 10
8.7246360079
 20
27.1060750027
  0
LINE
  5
3EB
100
AcDbEntity
  8
ASSI
100
AcDbLine
 62
7
  6
CONTINUOUS
 10
-8.7265854953
 20
24.4553073549
 11
-8.6938738652
 21
24.4052186468
  0
LWPOLYLINE
  5
3EC
100
AcDbEntity
  8
0
100
AcDbPolyline
 62
7
  6
CONTINUOUS
 90
4
 70
0
 10
-1.6197675489
 20
20.7470779624
 10
-1.62991727
 20
20.7683342844
 10
-1.6397996766
 20
20.7899233702
 10
-1.6494651289
 20
20.8116977558
  0
LWPOLYLINE
  5
3ED
100
AcDbEntity
  8
0
100
AcDbPolyline
 62
7
  6
CONTINUOUS
 90
6
 70
0
 10
-1.6871800329
 20
20.8980522945
 10
-1.6965948557
 20
20.918967558
 10
-1.7058851037
 20
20.9391284589
 10
-1.7150705954
 20
20.9583452585
 10
-1.7243523484
 20
20.9765474915
 10
-1.7338523737
 20
20.993619362
  0
LINE
  5
3EE
100
AcDbEntity
  8
0
100
AcDbLine
 62
7
  6
CONTINUOUS
 10
-1.6494651289
 20
20.8116977558
 11
-1.6871800329
 21
20.8980522945
  0
LWPOLYLINE
  5
3EF
100
AcDbEntity
  8
RACCORDO
100
AcDbPolyline
 62
7
  6
CONTINUOUS
 90
12
 70
0
 10
3.5338731854
 20
26.407395437
 10
3.5324152118
 20
26.4205574991
 10
3.5300090406
 20
26.4329960276
 10
3.5266546718
 20
26.4447110224
 10
3.5223043097
 20
26.4558219082
 10
3.51700575
 20
26.4662092604
 10
3.5109023799
 20
26.4755148052
 10
3.5039956138
 20
26.4836546779
 10
3.4962840374
 20
26.4907127432
 10
3.4879067942
 20
26.4965823208
 10
3.4788679115
 20
26.5012565714
 10
3.4716070578
 20
26.5039992385
  0
LINE
  5
3F0
100
AcDbEntity
  8
RACCORDO
100
AcDbLine
 62
7
  6
CONTINUOUS
 10
8.8649661077
 20
27.7167445758
 11
8.8623408965
 21
27.7679114712
  0
LWPOLYLINE
  5
3F1
100
AcDbEntity
  8
RACCORDO
100
AcDbPolyline
 62
250
  6
CONTINUOUS
 90
16
 70
0
 10
8.7246360079
 20
27.5430799832
 10
8.7232998663
 20
27.5896054397
 10
8.7180392661
 20
27.6375233197
 10
8.7089118212
 20
27.686308828
 10
8.696017495
 20
27.7354276675
 10
8.6794975057
 20
27.7843418905
 10
8.6595327797
 20
27.83251579
 10
8.6363419699
 20
27.8794217674
 10
8.6101790613
 20
27.9245461099
 10
8.581330589
 20
27.9673946173
 10
8.5501125007
 20
28.0074980144
 10
8.5168666955
 20
28.0444170901
 10
8.4819572806
 20
28.077747508
 10
8.4457665824
 20
28.1071242345
 10
8.4086909603
 20
28.1322255369
 10
8.3711364652
 20
28.1527765065
  0
LWPOLYLINE
  5
3F2
100
AcDbEntity
  8
ASSI
100
AcDbPolyline
 62
250
  6
CONTINUOUS
 90
16
 70
0
 10
8.7246360079
 20
27.5430799832
 10
8.7232998663
 20
27.5896054397
 10
8.7180392661
 20
27.6375233197
 10
8.7089118212
 20
27.686308828
 10
8.696017495
 20
27.7354276675
 10
8.6794975057
 20
27.7843418905
 10
8.6595327797
 20
27.83251579
 10
8.6363419699
 20
27.8794217674
 10
8.6101790613
 20
27.9245461099
 10
8.581330589
 20
27.9673946173
 10
8.5501125007
 20
28.0074980144
 10
8.5168666955
 20
28.0444170901
 10
8.4819572806
 20
28.077747508
 10
8.4457665824
 20
28.1071242345
 10
8.4086909603
 20
28.1322255369
 10
8.3711364652
 20
28.1527765065
  0
LINE
  5
3F3
100
AcDbEntity
  8
DRAFT
100
AcDbLine
 62
7
  6
CONTINUOUS
 10
8.2870961452
 20
23.23102933
 11
8.2870961452
 21
22.3685512728
  0
LINE
  5
3F4
100
AcDbEntity
  8
ASSI
100
AcDbLine
 62
7
  6
CONTINUOUS
 10
8.2870961452
 20
23.23102933
 11
8.2870961452
 21
22.3685512728
  0
LINE
  5
3F5
100
AcDbEntity
  8
DRAFT
100
AcDbLine
 62
7
  6
CONTINUOUS
 10
8.50186217
 20
17.2274265368
 11
8.50186217
 21
16.2747985927
  0
LINE
  5
3F6
100
AcDbEntity
  8
RACCORDO
100
AcDbLine
 62
250
  6
CONTINUOUS
 10
8.7246360079
 20
27.5430799832
 11
8.7246360079
 21
27.1060750027
  0
LINE
  5
3F7
100
AcDbEntity
  8
ASSI
100
AcDbLine
 62
250
  6
CONTINUOUS
 10
8.7246360079
 20
27.5430799832
 11
8.7246360079
 21
27.1060750027
  0
LINE
  5
3F8
100
AcDbEntity
  8
RACCORDO
100
AcDbLine
 62
7
  6
CONTINUOUS
 10
8.8649661077
 20
27.7167445758
 11
8.8649661077
 21
27.2797395945
  0
LINE
  5
3F9
100
AcDbEntity
  8
ASSI
100
AcDbLine
 62
7
  6
CONTINUOUS
 10
8.8649661077
 20
27.7167445758
 11
8.8649661077
 21
27.2797395945
  0
LINE
  5
3FA
100
AcDbEntity
  8
0
100
AcDbLine
 62
7
  6
CONTINUOUS
 10
8.8961119791
 20
21.835114899
 11
8.8961119791
 21
21.3890598075
  0
LINE
  5
3FB
100
AcDbEntity
  8
DRAFT
100
AcDbLine
 62
7
  6
CONTINUOUS
 10
9.4195088382
 20
22.5536896502
 11
9.4195088382
 21
22.4669083035
  0
LINE
  5
3FC
100
AcDbEntity
  8
ASSI
100
AcDbLine
 62
7
  6
CONTINUOUS
 10
9.4195088382
 20
22.5536896502
 11
9.4195088382
 21
22.4669083035
  0
LINE
  5
3FD
100
AcDbEntity
  8
0
100
AcDbLine
 62
7
  6
CONTINUOUS
 10
9.4195088382
 20
21.693429096
 11
9.4195088382
 21
21.3909335205
  0
LINE
  5
3FE
100
AcDbEntity
  8
0
100
AcDbLine
 62
7
  6
CONTINUOUS
 10
9.4803325346
 20
21.7098943347
 11
9.4803325346
 21
21.3935128204
  0
LWPOLYLINE
  5
3FF
100
AcDbEntity
  8
RACCORDO
100
AcDbPolyline
 62
250
  6
CONTINUOUS
 90
10
 70
0
 10
9.0115394486
 20
-29.9973849853
 10
9.1736079575
 20
-25.9282892876
 10
9.3661894862
 20
-21.8464832137
 10
9.5892675399
 20
-17.7523134519
 10
9.8428230746
 20
-13.6461278048
 10
10.1268345069
 20
-9.5282750347
 10
10.4412777183
 20
-5.3991048324
 10
10.7861260459
 20
-1.2589679556
 10
11.1613502819
 20
2.8917838002
 10
11.5669186851
 20
7.0527977573
  0
LWPOLYLINE
  5
400
100
AcDbEntity
  8
ASSI
100
AcDbPolyline
 62
250
  6
CONTINUOUS
 90
6
 70
0
 10
-8.7219638517
 20
24.4912517243
 10
-8.7068895131
 20
24.4746089571
 10
-8.6886170423
 20
24.4578895584
 10
-8.6666356953
 20
24.4410448805
 10
-8.6410383078
 20
24.4245342779
 10
-8.6117140821
 20
24.4085869536
  0
LINE
  5
401
100
AcDbEntity
  8
0
100
AcDbLine
 62
7
  6
CONTINUOUS
 10
-8.7061752382
 20
24.421646363
 11
-8.6785012423
 21
24.3873494275
  0
LWPOLYLINE
  5
402
100
AcDbEntity
  8
RACCORDO
100
AcDbPolyline
 62
250
  6
CONTINUOUS
 90
10
 70
0
 10
-1.685616131
 20
20.7131275877
 10
-1.7054617388
 20
20.7421101931
 10
-1.7264020665
 20
20.7696380049
 10
-1.7483269483
 20
20.7955757442
 10
-1.7711273448
 20
20.8197858023
 10
-1.7946915779
 20
20.8421425538
 10
-1.8188972225
 20
20.8625459079
 10
-1.8436205164
 20
20.8808934543
 10
-1.8687382046
 20
20.8970769153
 10
-1.8941164557
 20
20.9110066847
  0
LWPOLYLINE
  5
403
100
AcDbEntity
  8
0
100
AcDbPolyline
 62
7
  6
CONTINUOUS
 90
7
 70
0
 10
-1.5825505384
 20
20.6838695089
 10
-1.5898417075
 20
20.6946038155
 10
-1.5966789631
 20
20.7052895828
 10
-1.6030759118
 20
20.7159022798
 10
-1.6090466409
 20
20.7264187855
 10
-1.6146056101
 20
20.7368174199
 10
-1.6197675489
 20
20.7470779624
  0
LWPOLYLINE
  5
404
100
AcDbEntity
  8
RACCORDO
100
AcDbPolyline
 62
250
  6
CONTINUOUS
 90
10
 70
0
 10
-1.9090542362
 20
20.5701617628
 10
-1.9206282907
 20
20.5879640185
 10
-1.9327823011
 20
20.6046972904
 10
-1.9455162673
 20
20.6203615783
 10
-1.9589073537
 20
20.6350272816
 10
-1.972878396
 20
20.6486240011
 10
-1.9871979007
 20
20.6609405387
 10
-2.0017887033
 20
20.671906495
 10
-2.0167279682
 20
20.6815922696
 10
-2.0320156956
 20
20.6899978622
  0
LWPOLYLINE
  5
405
100
AcDbEntity
  8
0
100
AcDbPolyline
 62
7
  6
CONTINUOUS
 90
5
 70
0
 10
-0.0657518034
 20
18.3490061558
 10
-0.2718237446
 20
18.6886230502
 10
-0.6977290283
 20
19.363042708
 10
-1.1346379595
 20
20.0281248609
 10
-1.5825505384
 20
20.6838695089
  0
LWPOLYLINE
  5
406
100
AcDbEntity
  8
RACCORDO
100
AcDbPolyline
 62
250
  6
CONTINUOUS
 90
4
 70
0
 10
-0.8609978474
 20
18.7466291778
 10
-1.1099054337
 20
19.2035381952
 10
-1.503170994
 20
19.8919923979
 10
-1.9090542362
 20
20.5701617628
  0
LWPOLYLINE
  5
407
100
AcDbEntity
  8
RACCORDO
100
AcDbPolyline
 62
250
  6
CONTINUOUS
 90
5
 70
0
 10
-0.4478316729
 20
18.5400460905
 10
-0.4962582494
 20
18.633224653
 10
-0.8804758854
 20
19.3376024496
 10
-1.277053649
 20
20.031092412
 10
-1.6856151844
 20
20.7131286568
  0
LWPOLYLINE
  5
408
100
AcDbEntity
  8
ASSI
100
AcDbPolyline
 62
7
  6
CONTINUOUS
 90
8
 70
0
 10
-2.0747144913
 20
22.2987109057
 10
-2.0648324868
 20
22.279669491
 10
-2.0561879083
 20
22.2598085827
 10
-2.0488660603
 20
22.2393663464
 10
-2.0431228558
 20
22.219057279
 10
-2.0390435993
 20
22.1991195461
 10
-2.0365429864
 20
22.1793149821
 10
-2.035621017
 20
22.159643587
  0
LINE
  5
409
100
AcDbEntity
  8
0
100
AcDbLine
 62
7
  6
CONTINUOUS
 10
0.9766538708
 20
26.4111948251
 11
1.0962471692
 21
26.0576222394
  0
LINE
  5
40A
100
AcDbEntity
  8
RACCORDO
100
AcDbLine
 62
7
  6
CONTINUOUS
 10
10.7864183816
 20
21.6558304771
 11
10.7463623535
 21
22.1847999809
  0
LWPOLYLINE
  5
40B
100
AcDbEntity
  8
RACCORDO
100
AcDbPolyline
 62
250
  6
CONTINUOUS
 90
19
 70
0
 10
8.7246360079
 20
27.1060750027
 10
8.7257130933
 20
27.0907051568
 10
8.727830526
 20
27.074922705
 10
8.7309662987
 20
27.0588568904
 10
8.7350927015
 20
27.042635646
 10
8.740169229
 20
27.0263882047
 10
8.7461416686
 20
27.0102440775
 10
8.752948682
 20
26.9943381977
 10
8.7605366874
 20
26.9787758739
 10
8.768858074
 20
26.9636383114
 10
8.7778423986
 20
26.9490419482
 10
8.787423375
 20
26.9350867038
 10
8.7975640607
 20
26.9218309689
 10
8.808195391
 20
26.9093702398
 10
8.8192339588
 20
26.8978096541
 10
8.8306227468
 20
26.8872263483
 10
8.8422846043
 20
26.8777063688
 10
8.8541203437
 20
26.8693380045
 10
8.866035825
 20
26.8621963934
  0
LWPOLYLINE
  5
40C
100
AcDbEntity
  8
ASSI
100
AcDbPolyline
 62
250
  6
CONTINUOUS
 90
19
 70
0
 10
8.7246360079
 20
27.1060750027
 10
8.7257130933
 20
27.0907051568
 10
8.727830526
 20
27.074922705
 10
8.7309662987
 20
27.0588568904
 10
8.7350927015
 20
27.042635646
 10
8.740169229
 20
27.0263882047
 10
8.7461416686
 20
27.0102440775
 10
8.752948682
 20
26.9943381977
 10
8.7605366874
 20
26.9787758739
 10
8.768858074
 20
26.9636383114
 10
8.7778423986
 20
26.9490419482
 10
8.787423375
 20
26.9350867038
 10
8.7975640607
 20
26.9218309689
 10
8.808195391
 20
26.9093702398
 10
8.8192339588
 20
26.8978096541
 10
8.8306227468
 20
26.8872263483
 10
8.8422846043
 20
26.8777063688
 10
8.8541203437
 20
26.8693380045
 10
8.866035825
 20
26.8621963934
  0
LWPOLYLINE
  5
40D
100
AcDbEntity
  8
ASSI
100
AcDbPolyline
 62
7
  6
CONTINUOUS
 90
9
 70
0
 10
8.8649661077
 20
27.7167445758
 10
8.8608821076
 20
27.7805117857
 10
8.8485252564
 20
27.843905354
 10
8.8279073663
 20
27.9056503488
 10
8.7992493158
 20
27.9645308533
 10
8.7630503581
 20
28.0192820219
 10
8.7200289168
 20
28.068782076
 10
8.6706513007
 20
28.1124167375
 10
8.6160448285
 20
28.1491250891
  0
LINE
  5
40E
100
AcDbEntity
  8
SMUSSO
100
AcDbLine
 62
7
  6
CONTINUOUS
 10
11.3250614339
 20
24.6055224591
 11
11.3250614339
 21
25.5394296551
  0
LINE
  5
40F
100
AcDbEntity
  8
ASSI
100
AcDbLine
 62
7
  6
CONTINUOUS
 10
11.3250614339
 20
24.6055224591
 11
11.3250614339
 21
25.5394296551
  0
LINE
  5
410
100
AcDbEntity
  8
DRAFT
100
AcDbLine
 62
7
  6
CONTINUOUS
 10
11.3796596739
 20
18.556488791
 11
11.3796596739
 21
16.5948657241
  0
LINE
  5
411
100
AcDbEntity
  8
DRAFT
100
AcDbLine
 62
7
  6
CONTINUOUS
 10
12.5307786754
 20
17.0943052897
 11
12.5307786754
 21
18.0469332339
  0
LWPOLYLINE
  5
412
100
AcDbEntity
  8
RACCORDO
100
AcDbPolyline
 62
250
  6
CONTINUOUS
 90
10
 70
0
 10
9.7120749129
 20
-30.0197789905
 10
9.8740103114
 20
-25.9541826611
 10
10.0663919064
 20
-21.8765779681
 10
10.2892196979
 20
-17.7869649115
 10
10.542518049
 20
-13.684990325
 10
10.8262625965
 20
-9.5710073748
 10
11.1403802513
 20
-5.4460755604
 10
11.4848466503
 20
-1.3105480481
 10
11.8596861566
 20
2.8359283285
 10
12.2648987702
 20
6.9933535693
  0
LINE
  5
413
100
AcDbEntity
  8
RACCORDO
100
AcDbLine
 62
7
  6
CONTINUOUS
 10
12.3459128619
 20
13.474843337
 11
12.2434853363
 21
12.3819708704
  0
LWPOLYLINE
  5
414
100
AcDbEntity
  8
RACCORDO
100
AcDbPolyline
 62
250
  6
CONTINUOUS
 90
19
 70
0
 10
11.5669186851
 20
7.0527977573
 10
11.5769786789
 20
7.1290321686
 10
11.5918976317
 20
7.2063860029
 10
11.6115726518
 20
7.2843199261
 10
11.6358704476
 20
7.3622925644
 10
11.6646211442
 20
7.4397575155
 10
11.6976177939
 20
7.5161674328
 10
11.7346295662
 20
7.5909844469
 10
11.7754006885
 20
7.6636915352
 10
11.8196447122
 20
7.7337890959
 10
11.8670550404
 20
7.8007857158
 10
11.9173043203
 20
7.8642156387
 10
11.9700441355
 20
7.9236479018
 10
12.0249170108
 20
7.9786705659
 10
12.0815385251
 20
8.0288907374
 10
12.1394979137
 20
8.0739524909
 10
12.1983876631
 20
8.1135403215
 10
12.2578071759
 20
8.1473784935
 10
12.3173458052
 20
8.1752302975
  0
LWPOLYLINE
  5
415
100
AcDbEntity
  8
RACCORDO
100
AcDbPolyline
 62
250
  6
CONTINUOUS
 90
19
 70
0
 10
12.2648987702
 20
6.9933535693
 10
12.2700243103
 20
7.0317615617
 10
12.2774808792
 20
7.0702263902
 10
12.287268477
 20
7.1087480548
 10
12.2994901711
 20
7.1476121497
 10
12.314042894
 20
7.1865330806
 10
12.3306174434
 20
7.2246540647
 10
12.349252891
 20
7.2619407143
 10
12.3699101652
 20
7.2984274171
 10
12.3921628489
 20
7.333360552
 10
12.4160435929
 20
7.3667069628
 10
12.4415197465
 20
7.3984998059
 10
12.46806694
 20
7.428084929
 10
12.4957207036
 20
7.4554241523
 10
12.524445507
 20
7.4805556557
 10
12.5536103897
 20
7.5029398262
 10
12.5830050314
 20
7.522396793
 10
12.6128397523
 20
7.5391064271
 10
12.6431145524
 20
7.5530687284
  0
LWPOLYLINE
  5
416
100
AcDbEntity
  8
RACCORDO
100
AcDbPolyline
 62
250
  6
CONTINUOUS
 90
10
 70
0
 10
13.9008443005
 20
12.6973776177
 10
13.9051932522
 20
12.7258625279
 10
13.9128094038
 20
12.7548420236
 10
13.9235098129
 20
12.7836200086
 10
13.9370374527
 20
12.8115052269
 10
13.953067385
 20
12.8378278673
 10
13.971214566
 20
12.8619556521
 10
13.9910430948
 20
12.8833090247
 10
14.0120766844
 20
12.9013750706
 10
14.0338101015
 20
12.9157198379
  0
LWPOLYLINE
  5
417
100
AcDbEntity
  8
RACCORDO
100
AcDbPolyline
 62
250
  6
CONTINUOUS
 90
13
 70
0
 10
11.5669351608
 20
7.0528033837
 10
11.6155020267
 20
7.0309438089
 10
11.6691229914
 20
7.0114531738
 10
11.726900844
 20
6.9946576048
 10
11.7878688185
 20
6.9808381334
 10
11.8510067704
 20
6.9702259934
 10
11.9152582461
 20
6.9629987522
 10
11.9795481601
 20
6.9592773394
 10
12.0428007834
 20
6.9591240234
 10
12.1039577439
 20
6.9625413696
 10
12.1619957348
 20
6.9694721974
 10
12.2159436373
 20
6.9798005368
 10
12.2648987701
 20
6.9933535694
  0
LWPOLYLINE
  5
418
100
AcDbEntity
  8
RACCORDO
100
AcDbPolyline
 62
250
  6
CONTINUOUS
 90
13
 70
0
 10
17.2716002288
 20
5.2486546122
 10
17.291026296
 20
5.2398875188
 10
17.3124763877
 20
5.2320883638
 10
17.3355915665
 20
5.2253876803
 10
17.3599850293
 20
5.2198976197
 10
17.3852485542
 20
5.2157100802
 10
17.410959329
 20
5.2128951639
 10
17.4366870783
 20
5.2114999956
 10
17.4620012247
 20
5.2115479415
 10
17.4864780702
 20
5.2130382122
 10
17.5097079552
 20
5.2159458742
 10
17.5313021107
 20
5.2202222749
 10
17.5508991257
 20
5.2257958533
  0
LINE
  5
419
100
AcDbEntity
  8
RACCORDO
100
AcDbLine
 62
250
  6
CONTINUOUS
 10
-18.8885050901
 20
22.2805096449
 11
11.5669186851
 21
7.0527977573
  0
LINE
  5
41A
100
AcDbEntity
  8
RACCORDO
100
AcDbLine
 62
250
  6
CONTINUOUS
 10
-18.1500868585
 20
23.4089466294
 11
12.3173458052
 21
8.1752302975
  0
LINE
  5
41B
100
AcDbEntity
  8
0
100
AcDbLine
 62
7
  6
CONTINUOUS
 10
-8.7845381595
 20
25.1254254467
 11
-8.7492486183
 21
25.0920944548
  0
LINE
  5
41C
100
AcDbEntity
  8
ASSI
100
AcDbLine
 62
7
  6
CONTINUOUS
 10
-8.7845381595
 20
25.1254254467
 11
-8.7492486183
 21
25.0920944548
  0
LWPOLYLINE
  5
41D
100
AcDbEntity
  8
0
100
AcDbPolyline
 62
7
  6
CONTINUOUS
 90
3
 70
0
 10
-8.6785012423
 20
24.3873494275
 10
-8.6458832469
 20
24.3563014647
 10
-8.6085378919
 20
24.3284971334
  0
LINE
  5
41E
100
AcDbEntity
  8
ASSI
100
AcDbLine
 62
7
  6
CONTINUOUS
 10
-8.6938738652
 20
24.4052186468
 11
-8.6517532874
 21
24.3613418779
  0
LINE
  5
41F
100
AcDbEntity
  8
0
100
AcDbLine
 62
7
  6
CONTINUOUS
 10
-8.8190819204
 20
25.1631796179
 11
-8.7845381595
 21
25.1254254467
  0
LINE
  5
420
100
AcDbEntity
  8
ASSI
100
AcDbLine
 62
7
  6
CONTINUOUS
 10
-8.8190819204
 20
25.1631796179
 11
-8.7845381595
 21
25.1254254467
  0
LINE
  5
421
100
AcDbEntity
  8
0
100
AcDbLine
 62
7
  6
CONTINUOUS
 10
-2.229641599
 20
22.5071404676
 11
-2.3019278461
 21
22.6011784155
  0
LINE
  5
422
100
AcDbEntity
  8
ASSI
100
AcDbLine
 62
7
  6
CONTINUOUS
 10
-2.229641599
 20
22.5071404676
 11
-2.3019278461
 21
22.6011784155
  0
LINE
  5
423
100
AcDbEntity
  8
0
100
AcDbLine
 62
7
  6
CONTINUOUS
 10
-2.1575667647
 20
22.4128262343
 11
-2.229641599
 21
22.5071404676
  0
LINE
  5
424
100
AcDbEntity
  8
ASSI
100
AcDbLine
 62
7
  6
CONTINUOUS
 10
-2.1575667647
 20
22.4128262343
 11
-2.229641599
 21
22.5071404676
  0
LINE
  5
425
100
AcDbEntity
  8
ASSI
100
AcDbLine
 62
7
  6
CONTINUOUS
 10
-2.1575667647
 20
22.4128262343
 11
-2.0755814902
 21
22.3048682582
  0
LINE
  5
426
100
AcDbEntity
  8
0
100
AcDbLine
 62
7
  6
CONTINUOUS
 10
-2.1575667647
 20
22.4128262343
 11
-2.0755814902
 21
22.3048682582
  0
LINE
  5
427
100
AcDbEntity
  8
0
100
AcDbLine
 62
7
  6
CONTINUOUS
 10
-2.0755814902
 20
22.3048682582
 11
-2.0185117959
 21
22.2292910932
  0
LINE
  5
428
100
AcDbEntity
  8
ASSI
100
AcDbLine
 62
7
  6
CONTINUOUS
 10
-2.0755814902
 20
22.3048682582
 11
-2.0185117959
 21
22.2292910932
  0
LINE
  5
429
100
AcDbEntity
  8
0
100
AcDbLine
 62
7
  6
CONTINUOUS
 10
-2.0185117959
 20
22.2292910932
 11
-1.9957213286
 21
22.1990109691
  0
LINE
  5
42A
100
AcDbEntity
  8
ASSI
100
AcDbLine
 62
7
  6
CONTINUOUS
 10
-2.0185117959
 20
22.2292910932
 11
-1.9957213286
 21
22.1990109691
  0
LINE
  5
42B
100
AcDbEntity
  8
0
100
AcDbLine
 62
7
  6
CONTINUOUS
 10
-1.2262960507
 20
21.138877703
 11
-1.4746997881
 21
21.4909885518
  0
LINE
  5
42C
100
AcDbEntity
  8
ASSI
100
AcDbLine
 62
7
  6
CONTINUOUS
 10
-1.2262960507
 20
21.138877703
 11
-1.4746997881
 21
21.4909885518
  0
LWPOLYLINE
  5
42D
100
AcDbEntity
  8
0
100
AcDbPolyline
 62
7
  6
CONTINUOUS
 90
10
 70
0
 10
-2.0984466915
 20
22.3350497511
 10
-2.0859192262
 20
22.3171709924
 10
-2.0747144913
 20
22.2987109057
 10
-2.0648324868
 20
22.279669491
 10
-2.0561879083
 20
22.2598085827
 10
-2.0488660603
 20
22.2393663464
 10
-2.0431228558
 20
22.219057279
 10
-2.0390435993
 20
22.1991195461
 10
-2.0365429864
 20
22.1793149821
 10
-2.035621017
 20
22.159643587
  0
LWPOLYLINE
  5
42E
100
AcDbEntity
  8
ASSI
100
AcDbPolyline
 62
7
  6
CONTINUOUS
 90
3
 70
0
 10
-2.0984466915
 20
22.3350497511
 10
-2.0859192262
 20
22.3171709924
 10
-2.0747144913
 20
22.2987109057
  0
LWPOLYLINE
  5
42F
100
AcDbEntity
  8
RACCORDO
100
AcDbPolyline
 62
250
  6
CONTINUOUS
 90
7
 70
0
 10
-1.1913493694
 20
23.613685557
 10
-1.2020148645
 20
23.6330595439
 10
-1.216399912
 20
23.654705023
 10
-1.2323085268
 20
23.6747097053
 10
-1.249468508
 20
23.692731305
 10
-1.2675862436
 20
23.7084614676
 10
-1.2863517341
 20
23.7216310457
  0
LWPOLYLINE
  5
430
100
AcDbEntity
  8
ASSI
100
AcDbPolyline
 62
7
  6
CONTINUOUS
 90
4
 70
0
 10
-0.6119908771
 20
26.8634057398
 10
-0.5751791731
 20
26.7892790725
 10
-0.5297996278
 20
26.716253104
 10
-0.4760103834
 20
26.6445655552
  0
LINE
  5
431
100
AcDbEntity
  8
RACCORDO
100
AcDbLine
 62
7
  6
CONTINUOUS
 10
15.4447999588
 20
-13.4934457192
 11
16.4962962232
 21
-23.137681678
  0
LINE
  5
432
100
AcDbEntity
  8
RACCORDO
100
AcDbLine
 62
250
  6
CONTINUOUS
 10
17.2716002288
 20
-22.697620927
 11
15.8570624677
 21
-9.5130267234
  0
LINE
  5
433
100
AcDbEntity
  8
RACCORDO
100
AcDbLine
 62
250
  6
CONTINUOUS
 10
17.5508991258
 20
-22.6782629061
 11
16.1363613647
 21
-9.4936687026
  0
LWPOLYLINE
  5
434
100
AcDbEntity
  8
RACCORDO
100
AcDbPolyline
 62
250
  6
CONTINUOUS
 90
16
 70
0
 10
16.1363613647
 20
-9.4936687026
 10
16.1352930036
 20
-9.4829472299
 10
16.1343774165
 20
-9.4721457144
 10
16.1336146033
 20
-9.461264156
 10
16.1330046979
 20
-9.450301206
 10
16.1325475665
 20
-9.4392582132
 10
16.1322428075
 20
-9.4281392234
 10
16.1320902697
 20
-9.4169442632
 10
16.1320901043
 20
-9.405673306
 10
16.1322423632
 20
-9.3943303179
 10
16.1325468995
 20
-9.3829153648
 10
16.1330038601
 20
-9.3714283808
 10
16.1336137377
 20
-9.3598731341
 10
16.1343766964
 20
-9.348250881
 10
16.1352925721
 20
-9.3365603652
 10
16.1363613647
 20
-9.3248015868
  0
LWPOLYLINE
  5
435
100
AcDbEntity
  8
RACCORDO
100
AcDbPolyline
 62
250
  6
CONTINUOUS
 90
16
 70
0
 10
15.8570624677
 20
-9.5130267234
 10
15.8557313102
 20
-9.4996325545
 10
15.8545907158
 20
-9.4861305354
 10
15.8536406173
 20
-9.4725244825
 10
15.8528809962
 20
-9.4588202639
 10
15.8523115297
 20
-9.4450197225
 10
15.8519318676
 20
-9.4311205199
 10
15.8517419896
 20
-9.4171265486
 10
15.8517418251
 20
-9.4030414252
 10
15.8519313905
 20
-9.3888621565
 10
15.8523107859
 20
-9.3745923461
 10
15.8528800639
 20
-9.3602357815
 10
15.8536396218
 20
-9.3457895416
 10
15.8545898295
 20
-9.3312550583
 10
15.8557307422
 20
-9.3166382413
 10
15.8570624677
 20
-9.3019428288
  0
LINE
  5
436
100
AcDbEntity
  8
DRAFT
100
AcDbLine
 62
7
  6
CONTINUOUS
 10
13.0241612749
 20
14.9662769844
 11
13.0241612749
 21
14.0136490402
  0
LWPOLYLINE
  5
437
100
AcDbEntity
  8
RACCORDO
100
AcDbPolyline
 62
250
  6
CONTINUOUS
 90
17
 70
0
 10
13.8726114268
 20
11.3798245407
 10
13.8742815589
 20
11.4179598029
 10
13.8723459294
 20
11.4642038691
 10
13.8665555004
 20
11.511879396
 10
13.8569741059
 20
11.5604620846
 10
13.8437074465
 20
11.6094182532
 10
13.8269011114
 20
11.6582122977
 10
13.8067389681
 20
11.7063108859
 10
13.7834411483
 20
11.7531884375
 10
13.7572636764
 20
11.7983294286
 10
13.7284957178
 20
11.8412359731
 10
13.6974530071
 20
11.8814385012
 10
13.6644762673
 20
11.9184969921
 10
13.6299301313
 20
11.9520035345
 10
13.5941946425
 20
11.9815921344
 10
13.5576605995
 20
12.0069417401
 10
13.5207281691
 20
12.0277769606
  0
LWPOLYLINE
  5
438
100
AcDbEntity
  8
RACCORDO
100
AcDbPolyline
 62
250
  6
CONTINUOUS
 90
13
 70
0
 10
12.3173458052
 20
8.1752302975
 10
12.3624854866
 20
8.1480372807
 10
12.4064841719
 20
8.1137338743
 10
12.4485894685
 20
8.0729066782
 10
12.4880813616
 20
8.0262538513
 10
12.5242845263
 20
7.974573173
 10
12.5565798762
 20
7.9187484002
 10
12.5844151496
 20
7.8597341557
 10
12.6073143541
 20
7.798539603
 10
12.6248859053
 20
7.7362111899
 10
12.6368293239
 20
7.6738147534
 10
12.6429403733
 20
7.6124172937
 10
12.6431145524
 20
7.5530687284
  0
LWPOLYLINE
  5
439
100
AcDbEntity
  8
0
100
AcDbPolyline
 62
250
  6
CONTINUOUS
 90
7
 70
0
 10
-8.6723021452
 20
24.9164666762
 10
-8.6633394269
 20
24.9100104178
 10
-8.6539194876
 20
24.9036669322
 10
-8.6440441163
 20
24.8974452807
 10
-8.6337158124
 20
24.8913546271
 10
-8.6229378069
 20
24.8854042253
 10
-8.6117140821
 20
24.879603406
  0
LWPOLYLINE
  5
43A
100
AcDbEntity
  8
ASSI
100
AcDbPolyline
 62
250
  6
CONTINUOUS
 90
7
 70
0
 10
-8.6723021452
 20
24.9164666762
 10
-8.6633394269
 20
24.9100104178
 10
-8.6539194876
 20
24.9036669322
 10
-8.6440441163
 20
24.8974452807
 10
-8.6337158124
 20
24.8913546271
 10
-8.6229378069
 20
24.8854042253
 10
-8.6117140821
 20
24.879603406
  0
LWPOLYLINE
  5
43B
100
AcDbEntity
  8
0
100
AcDbPolyline
 62
250
  6
CONTINUOUS
 90
7
 70
0
 10
-8.5115799537
 20
25.1431246208
 10
-8.5062792432
 20
25.1392693005
 10
-8.5006753706
 20
25.135477526
 10
-8.494768336
 20
25.1317492973
 10
-8.4885581394
 20
25.1280846144
 10
-8.4820447807
 20
25.1244834772
 10
-8.47522826
 20
25.1209458859
  0
LWPOLYLINE
  5
43C
100
AcDbEntity
  8
ASSI
100
AcDbPolyline
 62
250
  6
CONTINUOUS
 90
7
 70
0
 10
-8.5115799537
 20
25.1431246208
 10
-8.5062792432
 20
25.1392693005
 10
-8.5006753706
 20
25.135477526
 10
-8.494768336
 20
25.1317492973
 10
-8.4885581394
 20
25.1280846144
 10
-8.4820447807
 20
25.1244834772
 10
-8.47522826
 20
25.1209458859
  0
LINE
  5
43D
100
AcDbEntity
  8
ASSI
100
AcDbLine
 62
7
  6
CONTINUOUS
 10
-8.6517532874
 20
24.3613418779
 11
-8.6018384946
 21
24.3241589801
  0
LWPOLYLINE
  5
43E
100
AcDbEntity
  8
0
100
AcDbPolyline
 62
250
  6
CONTINUOUS
 90
3
 70
0
 10
-8.5800249627
 20
24.3151691947
 10
-8.5632802895
 20
24.3023049246
 10
-8.5597354449
 20
24.3004121935
  0
LINE
  5
43F
100
AcDbEntity
  8
0
100
AcDbLine
 62
7
  6
CONTINUOUS
 10
-8.7492486183
 20
25.0920944548
 11
-8.7274254811
 21
25.074587766
  0
LINE
  5
440
100
AcDbEntity
  8
ASSI
100
AcDbLine
 62
7
  6
CONTINUOUS
 10
-8.7492486183
 20
25.0920944548
 11
-8.7274254811
 21
25.074587766
  0
LWPOLYLINE
  5
441
100
AcDbEntity
  8
RACCORDO
100
AcDbPolyline
 62
7
  6
CONTINUOUS
 90
7
 70
0
 10
2.4546399501
 20
21.2279034449
 10
2.4488006796
 20
21.2353361685
 10
2.4430326458
 20
21.2429242085
 10
2.4373391748
 20
21.2506645691
 10
2.4317235007
 20
21.2585539815
 10
2.4261887559
 20
21.2665888993
 10
2.4207379625
 20
21.2747654955
  0
LWPOLYLINE
  5
442
100
AcDbEntity
  8
ASSI
100
AcDbPolyline
 62
7
  6
CONTINUOUS
 90
7
 70
0
 10
2.4546399501
 20
21.2279034449
 10
2.4488006796
 20
21.2353361685
 10
2.4430326458
 20
21.2429242085
 10
2.4373391748
 20
21.2506645691
 10
2.4317235007
 20
21.2585539815
 10
2.4261887559
 20
21.2665888993
 10
2.4207379625
 20
21.2747654955
  0
LINE
  5
443
100
AcDbEntity
  8
0
100
AcDbLine
 62
7
  6
CONTINUOUS
 10
0.713804165
 20
23.697855999
 11
0.6564243268
 21
23.7734175406
  0
LINE
  5
444
100
AcDbEntity
  8
ASSI
100
AcDbLine
 62
7
  6
CONTINUOUS
 10
0.713804165
 20
23.697855999
 11
0.6564243268
 21
23.7734175406
  0
LINE
  5
445
100
AcDbEntity
  8
0
100
AcDbLine
 62
7
  6
CONTINUOUS
 10
0.7710498745
 20
23.6221164874
 11
0.713804165
 21
23.697855999
  0
LINE
  5
446
100
AcDbEntity
  8
ASSI
100
AcDbLine
 62
7
  6
CONTINUOUS
 10
0.7710498745
 20
23.6221164874
 11
0.713804165
 21
23.697855999
  0
LINE
  5
447
100
AcDbEntity
  8
0
100
AcDbLine
 62
7
  6
CONTINUOUS
 10
0.8281614553
 20
23.5461990058
 11
0.7710498745
 21
23.6221164874
  0
LINE
  5
448
100
AcDbEntity
  8
ASSI
100
AcDbLine
 62
7
  6
CONTINUOUS
 10
0.8281614553
 20
23.5461990058
 11
0.7710498745
 21
23.6221164874
  0
LWPOLYLINE
  5
449
100
AcDbEntity
  8
RACCORDO
100
AcDbPolyline
 62
250
  6
CONTINUOUS
 90
15
 70
0
 10
2.8230483919
 20
20.9331417731
 10
2.8067942141
 20
20.9574725186
 10
2.7903259499
 20
20.9802722307
 10
2.7737648886
 20
21.0015346782
 10
2.7572409747
 20
21.0212550301
 10
2.740829224
 20
21.0394922056
 10
2.7245455152
 20
21.0563552026
 10
2.7084613153
 20
21.0718844276
 10
2.6926477687
 20
21.0861186805
 10
2.6771024264
 20
21.0991550541
 10
2.6618778569
 20
21.111036364
 10
2.647015735
 20
21.1218146123
 10
2.6324836126
 20
21.1315872216
 10
2.6182898391
 20
21.1404123026
 10
2.6044858282
 20
21.1483208835
  0
LWPOLYLINE
  5
44A
100
AcDbEntity
  8
ASSI
100
AcDbPolyline
 62
250
  6
CONTINUOUS
 90
15
 70
0
 10
2.8230483919
 20
20.9331417731
 10
2.8067942141
 20
20.9574725186
 10
2.7903259499
 20
20.9802722307
 10
2.7737648886
 20
21.0015346782
 10
2.7572409747
 20
21.0212550301
 10
2.740829224
 20
21.0394922056
 10
2.7245455152
 20
21.0563552026
 10
2.7084613153
 20
21.0718844276
 10
2.6926477687
 20
21.0861186805
 10
2.6771024264
 20
21.0991550541
 10
2.6618778569
 20
21.111036364
 10
2.647015735
 20
21.1218146123
 10
2.6324836126
 20
21.1315872216
 10
2.6182898391
 20
21.1404123026
 10
2.6044858282
 20
21.1483208835
  0
LWPOLYLINE
  5
44B
100
AcDbEntity
  8
RACCORDO
100
AcDbPolyline
 62
7
  6
CONTINUOUS
 90
10
 70
0
 10
2.4207379625
 20
21.2747654955
 10
2.2995685374
 20
21.4588569538
 10
2.1776117841
 20
21.6421402437
 10
2.0548677026
 20
21.8246153651
 10
1.9313285636
 20
22.0062936677
 10
1.8070020965
 20
22.1871638018
 10
1.6819114892
 20
22.3671917182
 10
1.556064471
 20
22.5463660673
 10
1.4294533127
 20
22.7246981988
 10
1.3020780142
 20
22.9021881127
  0
LWPOLYLINE
  5
44C
100
AcDbEntity
  8
ASSI
100
AcDbPolyline
 62
7
  6
CONTINUOUS
 90
10
 70
0
 10
2.4207379625
 20
21.2747654955
 10
2.2995685374
 20
21.4588569538
 10
2.1776117841
 20
21.6421402437
 10
2.0548677026
 20
21.8246153651
 10
1.9313285636
 20
22.0062936677
 10
1.8070020965
 20
22.1871638018
 10
1.6819114892
 20
22.3671917182
 10
1.556064471
 20
22.5463660673
 10
1.4294533127
 20
22.7246981988
 10
1.3020780142
 20
22.9021881127
  0
LWPOLYLINE
  5
44D
100
AcDbEntity
  8
SMUSSO
100
AcDbPolyline
 62
7
  6
CONTINUOUS
 90
3
 70
0
 10
-0.5751791731
 20
26.7892790725
 10
-0.5297996278
 20
26.716253104
 10
-0.4760103834
 20
26.6445655552
  0
LINE
  5
44E
100
AcDbEntity
  8
SMUSSO
100
AcDbLine
 62
250
  6
CONTINUOUS
 10
-0.2676152782
 20
28.6601693867
 11
0.0859901052
 21
28.0501542435
  0
LINE
  5
44F
100
AcDbEntity
  8
ASSI
100
AcDbLine
 62
250
  6
CONTINUOUS
 10
-0.2676152782
 20
28.6601693867
 11
0.0859901052
 21
28.0501542435
  0
LINE
  5
450
100
AcDbEntity
  8
0
100
AcDbLine
 62
7
  6
CONTINUOUS
 10
8.3906423969
 20
21.5928749432
 11
8.1891430389
 21
22.188599369
  0
LWPOLYLINE
  5
451
100
AcDbEntity
  8
RACCORDO
100
AcDbPolyline
 62
7
  6
CONTINUOUS
 90
10
 70
0
 10
8.8623408965
 20
27.7679114712
 10
8.854416169
 20
27.8189133804
 10
8.841189526
 20
27.8690969826
 10
8.8227818389
 20
27.9177538956
 10
8.7993735802
 20
27.9643130214
 10
8.7711189073
 20
28.0083605962
 10
8.7381609301
 20
28.0494991441
 10
8.700963723
 20
28.0870223111
 10
8.6602077969
 20
28.1202694758
 10
8.6162289944
 20
28.1490256672
  0
LWPOLYLINE
  5
452
100
AcDbEntity
  8
RACCORDO
100
AcDbPolyline
 62
7
  6
CONTINUOUS
 90
12
 70
0
 10
10.7463623535
 20
22.1847999809
 10
10.7449043799
 20
22.197962043
 10
10.7424982087
 20
22.2104005714
 10
10.7391438399
 20
22.2221155663
 10
10.7347934778
 20
22.2332264521
 10
10.7294949181
 20
22.2436138043
 10
10.723391548
 20
22.2529193491
 10
10.7164847819
 20
22.2610592218
 10
10.7087732055
 20
22.2681172871
 10
10.7003959624
 20
22.2739868646
 10
10.6913570796
 20
22.2786611153
 10
10.6840962259
 20
22.2814037824
  0
LWPOLYLINE
  5
453
100
AcDbEntity
  8
RACCORDO
100
AcDbPolyline
 62
250
  6
CONTINUOUS
 90
13
 70
0
 10
17.0555453274
 20
21.0229424402
 10
17.0534255067
 20
21.1212773263
 10
17.0468466772
 20
21.2215410097
 10
17.0358165523
 20
21.3233853613
 10
17.0203716559
 20
21.4264761251
 10
17.00057243
 20
21.5304937942
 10
16.9764791941
 20
21.6351214425
 10
16.9481598951
 20
21.7400384858
 10
16.9157078816
 20
21.8449226597
 10
16.8792208873
 20
21.9494545651
 10
16.8387986156
 20
22.0533115345
 10
16.794577079
 20
22.1561496395
 10
16.7467253294
 20
22.2576083295
  0
LWPOLYLINE
  5
454
100
AcDbEntity
  8
ASSI
100
AcDbPolyline
 62
250
  6
CONTINUOUS
 90
12
 70
0
 10
17.0555453274
 20
21.0229424402
 10
17.0534255067
 20
21.1212773263
 10
17.0468466772
 20
21.2215410097
 10
17.0358165523
 20
21.3233853613
 10
17.0203716559
 20
21.4264761251
 10
17.00057243
 20
21.5304937942
 10
16.9764791941
 20
21.6351214425
 10
16.9481598951
 20
21.7400384858
 10
16.9157078816
 20
21.8449226597
 10
16.8792208873
 20
21.9494545651
 10
16.8387986156
 20
22.0533115345
 10
16.794577079
 20
22.1561496395
  0
LINE
  5
455
100
AcDbEntity
  8
RACCORDO
100
AcDbLine
 62
7
  6
CONTINUOUS
 10
17.1958759101
 20
21.1964104438
 11
17.1955029665
 21
21.2361107752
  0
LINE
  5
456
100
AcDbEntity
  8
DRAFT
100
AcDbLine
 62
7
  6
CONTINUOUS
 10
16.9148407188
 20
15.1281683993
 11
16.9148407188
 21
15.8549022122
  0
LINE
  5
457
100
AcDbEntity
  8
RACCORDO
100
AcDbLine
 62
250
  6
CONTINUOUS
 10
17.0555546495
 20
16.1380986374
 11
17.0555546495
 21
21.0229379402
  0
LINE
  5
458
100
AcDbEntity
  8
ASSI
100
AcDbLine
 62
250
  6
CONTINUOUS
 10
17.0555546495
 20
16.1380986374
 11
17.0555546495
 21
21.0229379402
  0
LINE
  5
459
100
AcDbEntity
  8
RACCORDO
100
AcDbLine
 62
7
  6
CONTINUOUS
 10
17.1958847493
 20
16.0628494084
 11
17.1958847493
 21
21.1966025273
  0
LINE
  5
45A
100
AcDbEntity
  8
ASSI
100
AcDbLine
 62
7
  6
CONTINUOUS
 10
17.1958847493
 20
16.0628494084
 11
17.1958847493
 21
21.1966025273
  0
LWPOLYLINE
  5
45B
100
AcDbEntity
  8
RACCORDO
100
AcDbPolyline
 62
250
  6
CONTINUOUS
 90
21
 70
0
 10
17.99373344
 20
17.8759126388
 10
17.9929775963
 20
17.8109891599
 10
17.9906827016
 20
17.7462853888
 10
17.9868084059
 20
17.6818776201
 10
17.9813506592
 20
17.6182011795
 10
17.9742539193
 20
17.5549687006
 10
17.965321856
 20
17.4912290454
 10
17.954421989
 20
17.4270470379
 10
17.9414468213
 20
17.3626609971
 10
17.926091718
 20
17.2974984131
 10
17.9081781885
 20
17.2318136776
 10
17.887516004
 20
17.1658370814
 10
17.8636404376
 20
17.0991073789
 10
17.836286933
 20
17.0319932721
 10
17.8051925017
 20
16.9648998374
 10
17.769737043
 20
16.8976238685
 10
17.7295816814
 20
16.8307394675
 10
17.6843874217
 20
16.7648592319
 10
17.6333717354
 20
16.7001101295
 10
17.5759572276
 20
16.637161278
 10
17.5119148184
 20
16.5771382319
  0
LINE
  5
45C
100
AcDbEntity
  8
ASSI
100
AcDbLine
 62
250
  6
CONTINUOUS
 10
17.99373344
 20
17.8759126388
 11
17.9929775963
 21
17.8109891599
  0
LINE
  5
45D
100
AcDbEntity
  8
RACCORDO
100
AcDbLine
 62
7
  6
CONTINUOUS
 10
18.0707899924
 20
17.9762822298
 11
18.0654743707
 21
17.8061201909
  0
LINE
  5
45E
100
AcDbEntity
  8
ASSI
100
AcDbLine
 62
250
  6
CONTINUOUS
 10
17.9929775963
 20
17.8109891599
 11
17.9906827016
 21
17.7462853888
  0
LINE
  5
45F
100
AcDbEntity
  8
ASSI
100
AcDbLine
 62
7
  6
CONTINUOUS
 10
18.0707899924
 20
17.9762822298
 11
18.0606993719
 21
17.7432064564
  0
LWPOLYLINE
  5
460
100
AcDbEntity
  8
ASSI
100
AcDbPolyline
 62
250
  6
CONTINUOUS
 90
19
 70
0
 10
17.9906827016
 20
17.7462853888
 10
17.9868084059
 20
17.6818776201
 10
17.9813506592
 20
17.6182011795
 10
17.9742539193
 20
17.5549687006
 10
17.965321856
 20
17.4912290454
 10
17.954421989
 20
17.4270470379
 10
17.9414468213
 20
17.3626609971
 10
17.926091718
 20
17.2974984131
 10
17.9081781885
 20
17.2318136776
 10
17.887516004
 20
17.1658370814
 10
17.8636404376
 20
17.0991073789
 10
17.836286933
 20
17.0319932721
 10
17.8051925017
 20
16.9648998374
 10
17.769737043
 20
16.8976238685
 10
17.7295816814
 20
16.8307394675
 10
17.6843874217
 20
16.7648592319
 10
17.6333717354
 20
16.7001101295
 10
17.5759572276
 20
16.637161278
 10
17.5119148184
 20
16.5771382319
  0
LWPOLYLINE
  5
461
100
AcDbEntity
  8
RACCORDO
100
AcDbPolyline
 62
250
  6
CONTINUOUS
 90
13
 70
0
 10
17.5508991258
 20
5.2257958541
 10
17.557578929
 20
5.3279541329
 10
17.5597776399
 20
5.4319352518
 10
17.5575219705
 20
5.5374270739
 10
17.5508787432
 20
5.6441259574
 10
17.5398743985
 20
5.7516992163
 10
17.5244946877
 20
5.8597861461
 10
17.5048166942
 20
5.9680591578
 10
17.4809335947
 20
6.0761984677
 10
17.4528727696
 20
6.183854541
 10
17.4207229384
 20
6.2906968453
 10
17.3846349487
 20
6.3964148863
 10
17.3447454802
 20
6.5006928653
  0
LWPOLYLINE
  5
462
100
AcDbEntity
  8
0
100
AcDbPolyline
 62
250
  6
CONTINUOUS
 90
10
 70
0
 10
17.7921079986
 20
10.9796562905
 10
17.7936139954
 20
11.0022222032
 10
17.7980892197
 20
11.0256533006
 10
17.8054065868
 20
11.0492842017
 10
17.815358303
 20
11.0724438516
 10
17.827661766
 20
11.0944745776
 10
17.8419675899
 20
11.1147507655
 10
17.8578695273
 20
11.1326966252
 10
17.8749160054
 20
11.147802542
 10
17.8926229493
 20
11.1596395478
  0
LINE
  5
463
100
AcDbEntity
  8
RACCORDO
100
AcDbLine
 62
7
  6
CONTINUOUS
 10
14.3883785591
 20
-28.810391772
 11
17.0199189918
 21
9.3440443797
  0
LWPOLYLINE
  5
464
100
AcDbEntity
  8
RACCORDO
100
AcDbPolyline
 62
250
  6
CONTINUOUS
 90
13
 70
0
 10
17.2716002288
 20
5.2486546122
 10
17.278496134
 20
5.3412708389
 10
17.2814053042
 20
5.4350652431
 10
17.2803277393
 20
5.5300378246
 10
17.2752332118
 20
5.6265316346
 10
17.2661519493
 20
5.7242036219
 10
17.2531746342
 20
5.8220246332
 10
17.2362479775
 20
5.9199895135
 10
17.2154252682
 20
6.0181034176
 10
17.1909570559
 20
6.1153526573
 10
17.1629268571
 20
6.2113993365
 10
17.1312511553
 20
6.3065813512
 10
17.0959299504
 20
6.4008987014
  0
LWPOLYLINE
  5
465
100
AcDbEntity
  8
RACCORDO
100
AcDbPolyline
 62
7
  6
CONTINUOUS
 90
13
 70
0
 10
18.0654743707
 20
17.8061201909
 10
18.0496280602
 20
17.6421270663
 10
18.023411332
 20
17.484911286
 10
17.9869162471
 20
17.3347654482
 10
17.9403802094
 20
17.1925828552
 10
17.8843949221
 20
17.0597087768
 10
17.8195365532
 20
16.9367876526
 10
17.7461505921
 20
16.823889302
 10
17.6647419979
 20
16.7213702188
 10
17.5761208529
 20
16.6297993392
 10
17.4807280855
 20
16.5492125744
 10
17.378507615
 20
16.4794027409
 10
17.3602330321
 20
16.468485048
  0
LINE
  5
466
100
AcDbEntity
  8
RACCORDO
100
AcDbLine
 62
250
  6
CONTINUOUS
 10
15.8570624677
 20
-9.3019428288
 11
17.2716002288
 21
5.2486546122
  0
LINE
  5
467
100
AcDbEntity
  8
RACCORDO
100
AcDbLine
 62
250
  6
CONTINUOUS
 10
16.1363613647
 20
-9.3248015868
 11
17.5508991258
 21
5.2257958541
  0
LWPOLYLINE
  5
468
100
AcDbEntity
  8
RACCORDO
100
AcDbPolyline
 62
250
  6
CONTINUOUS
 90
7
 70
0
 10
18.0707899924
 20
19.7949355777
 10
18.0692805478
 20
19.7799073685
 10
18.0631010118
 20
19.7611929196
 10
18.0522473931
 20
19.7430180192
 10
18.0368932423
 20
19.7256732858
 10
18.0172840737
 20
19.7094360633
 10
17.99373344
 20
19.6945659868
  0
LWPOLYLINE
  5
469
100
AcDbEntity
  8
ASSI
100
AcDbPolyline
 62
250
  6
CONTINUOUS
 90
7
 70
0
 10
18.0707899924
 20
19.7949355777
 10
18.0692805478
 20
19.7799073685
 10
18.0631010118
 20
19.7611929196
 10
18.0522473931
 20
19.7430180192
 10
18.0368932423
 20
19.7256732858
 10
18.0172840737
 20
19.7094360633
 10
17.99373344
 20
19.6945659868
  0
LWPOLYLINE
  5
46A
100
AcDbEntity
  8
RACCORDO
100
AcDbPolyline
 62
250
  6
CONTINUOUS
 90
7
 70
0
 10
18.0707899924
 20
17.9762822298
 10
18.0692805647
 20
17.9612541044
 10
18.0631010448
 20
17.9425396431
 10
18.0522474342
 20
17.9243647268
 10
18.0368932817
 20
17.9070199757
 10
18.0172840999
 20
17.8907827342
 10
17.99373344
 20
17.8759126388
  0
LWPOLYLINE
  5
46B
100
AcDbEntity
  8
ASSI
100
AcDbPolyline
 62
250
  6
CONTINUOUS
 90
7
 70
0
 10
18.0707899924
 20
17.9762822298
 10
18.0692805647
 20
17.9612541044
 10
18.0631010448
 20
17.9425396431
 10
18.0522474342
 20
17.9243647268
 10
18.0368932817
 20
17.9070199757
 10
18.0172840999
 20
17.8907827342
 10
17.99373344
 20
17.8759126388
  0
LWPOLYLINE
  5
46C
100
AcDbEntity
  8
ASSI
100
AcDbPolyline
 62
7
  6
CONTINUOUS
 90
9
 70
0
 10
18.0606993719
 20
17.7432064564
 10
18.0308134367
 20
17.5229271454
 10
17.9817442938
 20
17.316885608
 10
17.9140270693
 20
17.1261082074
 10
17.8284704264
 20
16.9522263971
 10
17.7265817289
 20
16.7973417486
 10
17.6104705898
 20
16.6631567323
 10
17.4811315877
 20
16.54952023
 10
17.3613527829
 20
16.4691413763
  0
LWPOLYLINE
  5
46D
100
AcDbEntity
  8
0
100
AcDbPolyline
 62
7
  6
CONTINUOUS
 90
13
 70
0
 10
6.546934029
 20
16.832484008
 10
6.5142107819
 20
16.836057024
 10
6.4821958177
 20
16.838078179
 10
6.4510105252
 20
16.8386663944
 10
6.420651801
 20
16.8379918007
 10
6.3913423817
 20
16.8361498218
 10
6.3635234815
 20
16.8331694973
 10
6.3374177893
 20
16.8292176828
 10
6.31293641
 20
16.8244450594
 10
6.2900564693
 20
16.8188490848
 10
6.2688275506
 20
16.8125189949
 10
6.2493400367
 20
16.8056527653
 10
6.2316465413
 20
16.7984011122
  0
LWPOLYLINE
  5
46E
100
AcDbEntity
  8
DRAFT
100
AcDbPolyline
 62
7
  6
CONTINUOUS
 90
25
 70
0
 10
14.3583076713
 20
13.5357456353
 10
14.3327497332
 20
13.5410517918
 10
14.3070856831
 20
13.5487520442
 10
14.2813155211
 20
13.5588463926
 10
14.2552927483
 20
13.5714189814
 10
14.2291638637
 20
13.5863856661
 10
14.2033683635
 20
13.6034940133
 10
14.1779203726
 20
13.6227744487
 10
14.1528057662
 20
13.6441965466
 10
14.1284216662
 20
13.6674165961
 10
14.1047768415
 20
13.6924659282
 10
14.0818625231
 20
13.719313212
 10
14.0600495254
 20
13.7475207436
 10
14.0393571015
 20
13.7771091066
 10
14.0197659983
 20
13.8080577175
 10
14.001589271
 20
13.8398671217
 10
13.9848504767
 20
13.872548047
 10
13.9695260583
 20
13.9060897655
 10
13.9558584004
 20
13.9399606392
 10
13.9438724724
 20
13.9741665471
 10
13.9335433049
 20
14.0087016102
 10
13.9250383736
 20
14.0430165538
 10
13.918413504
 20
14.0769282862
 10
13.9136128706
 20
14.1106198992
 10
13.9106364735
 20
14.1440913925
  0
LWPOLYLINE
  5
46F
100
AcDbEntity
  8
0
100
AcDbPolyline
 62
250
  6
CONTINUOUS
 90
10
 70
0
 10
18.0394069847
 20
10.5527591719
 10
18.0591972464
 20
10.5444397203
 10
18.0815512356
 20
10.5379430567
 10
18.1058048634
 20
10.5334622979
 10
18.1312375873
 20
10.5311306729
 10
18.1570936926
 20
10.5310175708
 10
18.1826047442
 20
10.5331264364
 10
18.2070126035
 20
10.5373946616
 10
18.2295919586
 20
10.5436954767
 10
18.2496717574
 20
10.5518417007
  0
LWPOLYLINE
  5
470
100
AcDbEntity
  8
RACCORDO
100
AcDbPolyline
 62
250
  6
CONTINUOUS
 90
8
 70
0
 10
13.5207281691
 20
12.0277769606
 10
13.4837672838
 20
12.043884736
 10
13.4472205485
 20
12.0550684728
 10
13.411487818
 20
12.0612094196
 10
13.3769670158
 20
12.0622445019
 10
13.3440266655
 20
12.058168164
 10
13.3130056807
 20
12.0490210675
 10
13.2971275979
 20
12.0419809674
  0
LWPOLYLINE
  5
471
100
AcDbEntity
  8
RACCORDO
100
AcDbPolyline
 62
250
  6
CONTINUOUS
 90
8
 70
0
 10
5.742553576
 20
15.9168642571
 10
5.7055926908
 20
15.9329720325
 10
5.6690459554
 20
15.9441557693
 10
5.633313225
 20
15.9502967161
 10
5.5987924227
 20
15.9513317985
 10
5.5658520725
 20
15.9472554605
 10
5.5348310876
 20
15.9381083641
 10
5.5189530049
 20
15.9310682639
  0
LWPOLYLINE
  5
472
100
AcDbEntity
  8
RACCORDO
100
AcDbPolyline
 62
250
  6
CONTINUOUS
 90
9
 70
0
 10
-2.4138257743
 20
19.9980681019
 10
-2.453160795
 20
20.0152097167
 10
-2.4920461743
 20
20.0271070768
 10
-2.5300568241
 20
20.0336374312
 10
-2.5667645395
 20
20.0347375775
 10
-2.6017850351
 20
20.0304069098
 10
-2.6347750897
 20
20.0206864091
 10
-2.6653881745
 20
20.0056603622
 10
-2.6708725311
 20
20.0022388074
  0
LWPOLYLINE
  5
473
100
AcDbEntity
  8
RACCORDO
100
AcDbPolyline
 62
250
  6
CONTINUOUS
 90
9
 70
0
 10
-10.1920003674
 20
23.8871553984
 10
-10.2313353881
 20
23.9042970132
 10
-10.2702207674
 20
23.9161943734
 10
-10.3082314172
 20
23.9227247277
 10
-10.3449391325
 20
23.923824874
 10
-10.3799596282
 20
23.9194942064
 10
-10.4129496827
 20
23.9097737057
 10
-10.4435627676
 20
23.8947476587
 10
-10.4490471242
 20
23.8913261039
  0
LINE
  5
474
100
AcDbEntity
  8
RACCORDO
100
AcDbLine
 62
7
  6
CONTINUOUS
 10
-13.9206550249
 20
25.2764577665
 11
16.6972839797
 21
9.9674882642
  0
LINE
  5
475
100
AcDbEntity
  8
DRAFT
100
AcDbLine
 62
7
  6
CONTINUOUS
 10
12.2434853363
 20
12.3819708704
 11
7.6934485704
 21
14.6569892533
  0
LINE
  5
476
100
AcDbEntity
  8
RACCORDO
100
AcDbLine
 62
250
  6
CONTINUOUS
 10
6.2445839395
 20
16.5255077982
 11
7.7995153781
 21
15.7480420789
  0
LINE
  5
477
100
AcDbEntity
  8
RACCORDO
100
AcDbLine
 62
250
  6
CONTINUOUS
 10
13.9008443005
 20
12.6973776177
 11
12.3459128619
 21
13.474843337
  0
LINE
  5
478
100
AcDbEntity
  8
RACCORDO
100
AcDbLine
 62
250
  6
CONTINUOUS
 10
-2.0320156956
 20
20.6899978622
 11
-9.6441438351
 21
24.496061932
  0
LINE
  5
479
100
AcDbEntity
  8
0
100
AcDbLine
 62
250
  6
CONTINUOUS
 10
17.7921079986
 20
10.9796562905
 11
14.3452178509
 21
12.7031013643
  0
LINE
  5
47A
100
AcDbEntity
  8
0
100
AcDbLine
 62
250
  6
CONTINUOUS
 10
6.1908561003
 20
16.7802822396
 11
2.7439659527
 21
18.5037273135
  0
LINE
  5
47B
100
AcDbEntity
  8
0
100
AcDbLine
 62
250
  6
CONTINUOUS
 10
-13.1657118591
 20
26.4754501692
 11
-9.7078129201
 21
24.7465006997
  0
LINE
  5
47C
100
AcDbEntity
  8
0
100
AcDbLine
 62
250
  6
CONTINUOUS
 10
1.8821314311
 20
18.9515285241
 11
-1.5825505384
 21
20.6838695089
  0
LINE
  5
47D
100
AcDbEntity
  8
RACCORDO
100
AcDbLine
 62
250
  6
CONTINUOUS
 10
6.3775497406
 20
16.7438500183
 11
7.9348021058
 21
15.9652238358
  0
LINE
  5
47E
100
AcDbEntity
  8
RACCORDO
100
AcDbLine
 62
250
  6
CONTINUOUS
 10
14.0338101014
 20
12.9157198379
 11
12.4765577362
 21
13.6943460205
  0
LINE
  5
47F
100
AcDbEntity
  8
0
100
AcDbLine
 62
7
  6
CONTINUOUS
 10
-8.5665972211
 20
24.3039095668
 11
-8.5595532974
 21
24.3003214285
  0
LINE
  5
480
100
AcDbEntity
  8
ASSI
100
AcDbLine
 62
7
  6
CONTINUOUS
 10
-8.6018384946
 20
24.3241589801
 11
-8.5593049732
 21
24.3001986787
  0
LINE
  5
481
100
AcDbEntity
  8
0
100
AcDbLine
 62
7
  6
CONTINUOUS
 10
-8.6085378919
 20
24.3284971334
 11
-8.5665972211
 21
24.3039095668
  0
LWPOLYLINE
  5
482
100
AcDbEntity
  8
0
100
AcDbPolyline
 62
250
  6
CONTINUOUS
 90
6
 70
0
 10
2.4966669665
 20
18.324129181
 10
2.4800272548
 20
18.3340248971
 10
2.4670337071
 20
18.3452024252
 10
2.4580724229
 20
18.3573296283
 10
2.453409684
 20
18.3700461505
 10
2.4527329837
 20
18.3771621923
  0
LWPOLYLINE
  5
483
100
AcDbEntity
  8
ASSI
100
AcDbPolyline
 62
7
  6
CONTINUOUS
 90
6
 70
0
 10
2.5790942409
 20
21.1033504895
 10
2.5559245151
 20
21.1231638165
 10
2.5336355298
 20
21.1432882699
 10
2.5123501497
 20
21.1638153052
 10
2.4921094267
 20
21.1847754007
 10
2.4728726378
 20
21.2061381071
  0
LWPOLYLINE
  5
484
100
AcDbEntity
  8
RACCORDO
100
AcDbPolyline
 62
7
  6
CONTINUOUS
 90
4
 70
0
 10
2.5336355298
 20
21.1432882699
 10
2.5123501497
 20
21.1638153052
 10
2.4921094267
 20
21.1847754007
 10
2.4728726378
 20
21.2061381071
  0
LWPOLYLINE
  5
485
100
AcDbEntity
  8
SMUSSO
100
AcDbPolyline
 62
7
  6
CONTINUOUS
 90
3
 70
0
 10
-0.4760103834
 20
26.6445655552
 10
-0.4139672918
 20
26.5744105241
 10
-0.3770432626
 20
26.5383843966
  0
LINE
  5
486
100
AcDbEntity
  8
ASSI
100
AcDbLine
 62
7
  6
CONTINUOUS
 10
-0.4760103834
 20
26.6445655552
 11
-0.4139672918
 21
26.5744105241
  0
LINE
  5
487
100
AcDbEntity
  8
RACCORDO
100
AcDbLine
 62
7
  6
CONTINUOUS
 10
2.4728726378
 20
21.2061381071
 11
2.4546399501
 21
21.2279034449
  0
LINE
  5
488
100
AcDbEntity
  8
ASSI
100
AcDbLine
 62
7
  6
CONTINUOUS
 10
2.4728726378
 20
21.2061381071
 11
2.4546399501
 21
21.2279034449
  0
LWPOLYLINE
  5
489
100
AcDbEntity
  8
ASSI
100
AcDbPolyline
 62
250
  6
CONTINUOUS
 90
8
 70
0
 10
7.7498511823
 20
20.4529743246
 10
7.8339889551
 20
20.3242389091
 10
7.9197327447
 20
20.2041432317
 10
8.0075472326
 20
20.0928566223
 10
8.0970747872
 20
19.9902914381
 10
8.1871373261
 20
19.8961038393
 10
8.2777333479
 20
19.8102227051
 10
8.3689609919
 20
19.7327850807
  0
LWPOLYLINE
  5
48A
100
AcDbEntity
  8
SMUSSO
100
AcDbPolyline
 62
7
  6
CONTINUOUS
 90
3
 70
0
 10
6.4625687084
 20
22.1946670817
 10
6.5079482537
 20
22.1216411132
 10
6.5617374982
 20
22.0499535644
  0
LINE
  5
48B
100
AcDbEntity
  8
RACCORDO
100
AcDbLine
 62
7
  6
CONTINUOUS
 10
7.7478318949
 20
20.9010893164
 11
7.7102144489
 21
20.9621518046
  0
LWPOLYLINE
  5
48C
100
AcDbEntity
  8
RACCORDO
100
AcDbPolyline
 62
250
  6
CONTINUOUS
 90
22
 70
0
 10
7.6672625629
 20
20.5903040371
 10
7.7498511823
 20
20.4529743246
 10
7.8339889551
 20
20.3242389091
 10
7.9197327447
 20
20.2041432317
 10
8.0075472326
 20
20.0928566223
 10
8.0970747872
 20
19.9902914381
 10
8.1871373261
 20
19.8961038393
 10
8.2777333479
 20
19.8102227051
 10
8.3689609919
 20
19.7327850807
 10
8.4597923738
 20
19.6637572127
 10
8.5504184599
 20
19.6031122075
 10
8.6407336668
 20
19.5509295567
 10
8.729267475
 20
19.5073343024
 10
8.8160872539
 20
19.4725630995
 10
8.9011989395
 20
19.4464199808
 10
8.983038897
 20
19.4283789757
 10
9.061344179
 20
19.4186901016
 10
9.1364280482
 20
19.4171283372
 10
9.207584032
 20
19.4224506042
 10
9.2745834575
 20
19.4342452797
 10
9.3376772514
 20
19.4529331809
 10
9.3968712646
 20
19.4785160446
  0
LINE
  5
48D
100
AcDbEntity
  8
ASSI
100
AcDbLine
 62
250
  6
CONTINUOUS
 10
7.6672625629
 20
20.5903040371
 11
7.7498511823
 21
20.4529743246
  0
LINE
  5
48E
100
AcDbEntity
  8
ASSI
100
AcDbLine
 62
7
  6
CONTINUOUS
 10
7.7478276571
 20
20.901096706
 11
7.7251542847
 21
20.9389595796
  0
LINE
  5
48F
100
AcDbEntity
  8
RACCORDO
100
AcDbLine
 62
250
  6
CONTINUOUS
 10
7.5372486915
 20
20.8192706712
 11
7.5807276371
 21
20.7430457441
  0
LINE
  5
490
100
AcDbEntity
  8
ASSI
100
AcDbLine
 62
250
  6
CONTINUOUS
 10
7.5372486915
 20
20.8192706712
 11
7.5807276371
 21
20.7430457441
  0
LINE
  5
491
100
AcDbEntity
  8
RACCORDO
100
AcDbLine
 62
250
  6
CONTINUOUS
 10
7.5807276371
 20
20.7430457441
 11
7.6240657384
 21
20.6667232785
  0
LINE
  5
492
100
AcDbEntity
  8
ASSI
100
AcDbLine
 62
250
  6
CONTINUOUS
 10
7.5807276371
 20
20.7430457441
 11
7.6240657384
 21
20.6667232785
  0
LINE
  5
493
100
AcDbEntity
  8
RACCORDO
100
AcDbLine
 62
7
  6
CONTINUOUS
 10
7.8339276579
 20
20.7497996912
 11
7.7478273314
 21
20.9010877236
  0
LINE
  5
494
100
AcDbEntity
  8
ASSI
100
AcDbLine
 62
7
  6
CONTINUOUS
 10
7.8339276579
 20
20.7497996912
 11
7.7478273314
 21
20.9010877236
  0
LINE
  5
495
100
AcDbEntity
  8
RACCORDO
100
AcDbLine
 62
250
  6
CONTINUOUS
 10
7.6240657384
 20
20.6667232785
 11
7.6672625629
 21
20.5903040371
  0
LINE
  5
496
100
AcDbEntity
  8
ASSI
100
AcDbLine
 62
250
  6
CONTINUOUS
 10
7.6240657384
 20
20.6667232785
 11
7.6672625629
 21
20.5903040371
  0
LINE
  5
497
100
AcDbEntity
  8
RACCORDO
100
AcDbLine
 62
7
  6
CONTINUOUS
 10
7.8767673279
 20
20.6740122898
 11
7.8339276579
 21
20.7497996912
  0
LINE
  5
498
100
AcDbEntity
  8
ASSI
100
AcDbLine
 62
7
  6
CONTINUOUS
 10
7.8767673601
 20
20.6740122326
 11
7.8339276579
 21
20.7497996912
  0
LWPOLYLINE
  5
499
100
AcDbEntity
  8
ASSI
100
AcDbPolyline
 62
7
  6
CONTINUOUS
 90
4
 70
0
 10
6.4257570044
 20
22.268793749
 10
6.4625687084
 20
22.1946670817
 10
6.5079482537
 20
22.1216411132
 10
6.5617374982
 20
22.0499535644
  0
LINE
  5
49A
100
AcDbEntity
  8
ASSI
100
AcDbLine
 62
7
  6
CONTINUOUS
 10
17.1904430605
 20
21.3493011118
 11
17.1725028321
 21
21.5171078344
  0
LWPOLYLINE
  5
49B
100
AcDbEntity
  8
ASSI
100
AcDbPolyline
 62
250
  6
CONTINUOUS
 90
4
 70
0
 10
17.9812700048
 20
19.9655557596
 10
17.9867969437
 20
19.8956948474
 10
17.9906914162
 20
19.8270523209
 10
17.9929831911
 20
19.7600004483
  0
LINE
  5
49C
100
AcDbEntity
  8
RACCORDO
100
AcDbLine
 62
7
  6
CONTINUOUS
 10
17.1955029665
 20
21.2361107752
 11
17.1873451065
 21
21.3885482773
  0
LWPOLYLINE
  5
49D
100
AcDbEntity
  8
0
100
AcDbPolyline
 62
250
  6
CONTINUOUS
 90
19
 70
0
 10
18.2496716446
 20
10.5518416339
 10
18.2479187447
 20
10.5892336449
 10
18.2436104239
 20
10.6275573099
 10
18.2368015015
 20
10.6665327097
 10
18.227571113
 20
10.70587679
 10
18.2160010152
 20
10.7453088203
 10
18.2021721817
 20
10.7845525095
 10
18.1862054654
 20
10.8233176665
 10
18.1682277592
 20
10.8613485241
 10
18.1483394353
 20
10.8984255261
 10
18.1268222129
 20
10.9340823847
 10
18.1037175347
 20
10.96829414
 10
18.0786919674
 20
11.0014261062
 10
18.0517784376
 20
11.0332344669
 10
18.0231906454
 20
11.0632573334
 10
17.9928000636
 20
11.0913578881
 10
17.9606935806
 20
11.1171479222
 10
17.9272063358
 20
11.1400693206
 10
17.8926229017
 20
11.1596395218
  0
LINE
  5
49E
100
AcDbEntity
  8
ASSI
100
AcDbLine
 62
7
  6
CONTINUOUS
 10
18.061469903
 20
20.0274432808
 11
18.0707899924
 21
19.7949355777
  0
LWPOLYLINE
  5
49F
100
AcDbEntity
  8
0
100
AcDbPolyline
 62
250
  6
CONTINUOUS
 90
19
 70
0
 10
18.0394069847
 20
10.5527591719
 10
18.0384321666
 20
10.5794448686
 10
18.0357480616
 20
10.6063802344
 10
18.0313546698
 20
10.6335652695
 10
18.0251875324
 20
10.6611947655
 10
18.0173111081
 20
10.6890739307
 10
18.0079187735
 20
10.7166183897
 10
17.9969883763
 20
10.7438083992
 10
17.9845420687
 20
10.7706637024
 10
17.9708396843
 20
10.7966591538
 10
17.9559798646
 20
10.8216771334
 10
17.939863968
 20
10.8458352611
 10
17.9224559028
 20
10.8689612517
 10
17.9036951863
 20
10.8912214343
 10
17.8836423012
 20
10.9124494798
 10
17.8624426043
 20
10.9319741155
 10
17.8401445476
 20
10.9495715837
 10
17.816699679
 20
10.965465642
 10
17.7921079986
 20
10.9796562905
  0
LINE
  5
4A0
100
AcDbEntity
  8
ASSI
100
AcDbLine
 62
7
  6
CONTINUOUS
 10
17.1958756518
 20
21.196285888
 11
17.1904430605
 21
21.3493011118
  0
LINE
  5
4A1
100
AcDbEntity
  8
ASSI
100
AcDbLine
 62
250
  6
CONTINUOUS
 10
17.9929831911
 20
19.7600004483
 11
17.99373344
 21
19.6945659868
  0
LINE
  5
4A2
100
AcDbEntity
  8
RACCORDO
100
AcDbLine
 62
250
  6
CONTINUOUS
 10
17.99373344
 20
19.6945659868
 11
17.99373344
 21
17.8759126388
  0
LINE
  5
4A3
100
AcDbEntity
  8
ASSI
100
AcDbLine
 62
250
  6
CONTINUOUS
 10
17.99373344
 20
19.6945659868
 11
17.99373344
 21
17.8759126388
  0
LINE
  5
4A4
100
AcDbEntity
  8
0
100
AcDbLine
 62
250
  6
CONTINUOUS
 10
18.0394069847
 20
-22.9968497847
 11
18.0394069847
 21
-27.3285943845
  0
LINE
  5
4A5
100
AcDbEntity
  8
0
100
AcDbLine
 62
250
  6
CONTINUOUS
 10
18.0394069847
 20
6.2210145721
 11
18.0394069847
 21
10.5527591719
  0
LINE
  5
4A6
100
AcDbEntity
  8
RACCORDO
100
AcDbLine
 62
7
  6
CONTINUOUS
 10
18.0707899924
 20
19.7949355777
 11
18.0707899924
 21
17.9762822298
  0
LINE
  5
4A7
100
AcDbEntity
  8
ASSI
100
AcDbLine
 62
7
  6
CONTINUOUS
 10
18.0707899924
 20
19.7949355777
 11
18.0707899924
 21
17.9762822298
  0
LINE
  5
4A8
100
AcDbEntity
  8
0
100
AcDbLine
 62
250
  6
CONTINUOUS
 10
18.2496717575
 20
-22.3459670404
 11
18.2496717575
 21
-27.3295118609
  0
LINE
  5
4A9
100
AcDbEntity
  8
0
100
AcDbLine
 62
250
  6
CONTINUOUS
 10
18.2496717575
 20
5.568296875
 11
18.2496717575
 21
10.5518416955
  0
LINE
  5
4AA
100
AcDbEntity
  8
0
100
AcDbLine
 62
7
  6
CONTINUOUS
 10
18.6472523327
 20
10.7688926177
 11
18.6472523327
 21
-27.1626236846
  0
LWPOLYLINE
  5
4AB
100
AcDbEntity
  8
0
100
AcDbPolyline
 62
250
  6
CONTINUOUS
 90
17
 70
0
 10
18.0394069847
 20
-27.3285943845
 10
18.0376190713
 20
-27.3603115479
 10
18.0336420417
 20
-27.3893513644
 10
18.0274758958
 20
-27.415713834
 10
18.0187995543
 20
-27.4394747717
 10
18.0079340966
 20
-27.4605583626
 10
17.9958427605
 20
-27.4787371613
 10
17.9825974347
 20
-27.4937612403
 10
17.9681262306
 20
-27.5058805271
 10
17.9531767194
 20
-27.5156173589
 10
17.9380298865
 20
-27.5229807985
 10
17.9224047466
 20
-27.5279617831
 10
17.9062059156
 20
-27.5310554621
 10
17.8895744375
 20
-27.5325299187
 10
17.8723692682
 20
-27.5321170698
 10
17.8540718913
 20
-27.5295078152
 10
17.834509468
 20
-27.5245991215
  0
LWPOLYLINE
  5
4AC
100
AcDbEntity
  8
0
100
AcDbPolyline
 62
250
  6
CONTINUOUS
 90
11
 70
0
 10
18.2496715587
 20
-27.3295119443
 10
18.2471002742
 20
-27.3747450669
 10
18.2407619361
 20
-27.4165523578
 10
18.2309867283
 20
-27.4546568697
 10
18.2180655785
 20
-27.4889963898
 10
18.2023915276
 20
-27.5192971877
 10
18.1845694574
 20
-27.5452052844
 10
18.1651547513
 20
-27.5667640778
 10
18.144479687
 20
-27.5843325024
 10
18.1228589341
 20
-27.5982098927
 10
18.1058435937
 20
-27.6065139598
  0
LINE
  5
4AD
100
AcDbEntity
  8
0
100
AcDbLine
 62
7
  6
CONTINUOUS
 10
9.4803325346
 20
21.7098943347
 11
9.4195088382
 21
21.693429096
  0
LINE
  5
4AE
100
AcDbEntity
  8
RACCORDO
100
AcDbLine
 62
7
  6
CONTINUOUS
 10
8.3660828403
 20
22.3416992594
 11
8.2514399009
 21
22.3107527499
  0
LWPOLYLINE
  5
4AF
100
AcDbEntity
  8
RACCORDO
100
AcDbPolyline
 62
250
  6
CONTINUOUS
 90
23
 70
0
 10
8.3250171891
 20
22.2969440153
 10
8.4243350879
 20
22.3233210613
 10
8.5260629666
 20
22.347112052
 10
8.6302427752
 20
22.3683483837
 10
8.736192819
 20
22.3868971611
 10
8.8438694914
 20
22.4027498364
 10
8.953316399
 20
22.4159149573
 10
9.063982668
 20
22.426285273
 10
9.176068711
 20
22.4338540503
 10
9.2893741153
 20
22.4386280223
 10
9.4027467692
 20
22.4405201372
 10
9.5164315252
 20
22.4394418972
 10
9.6301835308
 20
22.4354818
 10
9.7421161172
 20
22.4288182866
 10
9.8521872132
 20
22.4193244785
 10
9.9604388901
 20
22.4071272543
 10
10.0651106922
 20
22.3927856901
 10
10.1660527498
 20
22.3761814201
 10
10.2634149328
 20
22.3574328101
 10
10.3558863951
 20
22.3374540332
 10
10.4430301882
 20
22.3165498136
 10
10.5252832607
 20
22.2944154272
 10
10.6026456126
 20
22.2710508738
  0
LWPOLYLINE
  5
4B0
100
AcDbEntity
  8
0
100
AcDbPolyline
 62
250
  6
CONTINUOUS
 90
3
 70
0
 10
-2.9917741489
 20
21.6105538067
 10
-2.9652827068
 20
21.6033051418
 10
-2.9389002275
 20
21.5970379904
  0
LWPOLYLINE
  5
4B1
100
AcDbEntity
  8
ASSI
100
AcDbPolyline
 62
250
  6
CONTINUOUS
 90
3
 70
0
 10
-2.9917741489
 20
21.6105538067
 10
-2.9652827068
 20
21.6033051418
 10
-2.9389002275
 20
21.5970379904
  0
LWPOLYLINE
  5
4B2
100
AcDbEntity
  8
ASSI
100
AcDbPolyline
 62
7
  6
CONTINUOUS
 90
4
 70
0
 10
-3.0339297848
 20
21.5376568774
 10
-2.9821359112
 20
21.5163143634
 10
-2.9273675627
 20
21.4994917494
 10
-2.8697685358
 20
21.486969562
  0
LWPOLYLINE
  5
4B3
100
AcDbEntity
  8
0
100
AcDbPolyline
 62
250
  6
CONTINUOUS
 90
9
 70
0
 10
2.7439659527
 20
18.5037273135
 10
2.7171521467
 20
18.5149464346
 10
2.6915956028
 20
18.5227474059
 10
2.6672963211
 20
18.5271302275
 10
2.6442236439
 20
18.5279979327
 10
2.6224082287
 20
18.5254474881
 10
2.6019420489
 20
18.5197697936
 10
2.582733103
 20
18.5111342256
 10
2.5648733924
 20
18.4993714076
  0
LWPOLYLINE
  5
4B4
100
AcDbEntity
  8
0
100
AcDbPolyline
 62
250
  6
CONTINUOUS
 90
10
 70
0
 10
2.129581111
 20
18.5247409578
 10
2.149371363
 20
18.5164215098
 10
2.1717253432
 20
18.5099248474
 10
2.1959789643
 20
18.5054440877
 10
2.221411685
 20
18.5031124607
 10
2.2472677909
 20
18.5029993561
 10
2.2727788464
 20
18.5051082197
 10
2.2971867123
 20
18.509376444
 10
2.3197660759
 20
18.5156772598
 10
2.3398458837
 20
18.5238234866
  0
LWPOLYLINE
  5
4B5
100
AcDbEntity
  8
0
100
AcDbPolyline
 62
250
  6
CONTINUOUS
 90
9
 70
0
 10
2.8444808541
 20
18.683710542
 10
2.8065222347
 20
18.700017459
 10
2.7697956259
 20
18.7110482798
 10
2.7346592742
 20
18.7169721186
 10
2.7016531485
 20
18.7180224662
 10
2.670759546
 20
18.7145344233
 10
2.6415364585
 20
18.7065974061
 10
2.6142691837
 20
18.694258789
 10
2.6110195298
 20
18.69241507
  0
LWPOLYLINE
  5
4B6
100
AcDbEntity
  8
RACCORDO
100
AcDbPolyline
 62
250
  6
CONTINUOUS
 90
10
 70
0
 10
-9.6441438351
 20
24.496061932
 10
-9.6595070047
 20
24.5029880775
 10
-9.6747882962
 20
24.5084303831
 10
-9.6899877095
 20
24.5123888485
 10
-9.7051871459
 20
24.5148731815
 10
-9.7203047043
 20
24.5158736745
 10
-9.7350946808
 20
24.5153612048
 10
-9.7494751744
 20
24.513326065
 10
-9.7635280863
 20
24.5097779626
 10
-9.7772534164
 20
24.5047168975
  0
LWPOLYLINE
  5
4B7
100
AcDbEntity
  8
RACCORDO
100
AcDbPolyline
 62
250
  6
CONTINUOUS
 90
10
 70
0
 10
-9.5062446009
 20
24.7170709009
 10
-9.5317574874
 20
24.7285967174
 10
-9.5572604569
 20
24.737752805
 10
-9.5826172054
 20
24.744493458
 10
-9.607693575
 20
24.7487975076
 10
-9.6323637096
 20
24.7506418979
 10
-9.6565110761
 20
24.7500065751
 10
-9.6800163741
 20
24.7469005709
 10
-9.7027527287
 20
24.7413422736
 10
-9.7245965315
 20
24.7333488278
  0
LWPOLYLINE
  5
4B8
100
AcDbEntity
  8
0
100
AcDbPolyline
 62
7
  6
CONTINUOUS
 90
14
 70
0
 10
-3.0447156933
 20
21.5429039126
 10
-3.0113216055
 20
21.527602976
 10
-2.9676873982
 20
21.5113560939
 10
-2.9218943333
 20
21.4980884604
 10
-2.874172608
 20
21.4877586966
 10
-2.8251970099
 20
21.4804375304
 10
-2.7753008997
 20
21.4761256842
 10
-2.724833499
 20
21.4748589679
 10
-2.6747294064
 20
21.4766696826
 10
-2.6253228435
 20
21.4815593682
 10
-2.5769633433
 20
21.4895660499
 10
-2.5303680123
 20
21.5006644771
 10
-2.4857848581
 20
21.5149188968
 10
-2.4470152833
 20
21.5308109944
  0
LWPOLYLINE
  5
4B9
100
AcDbEntity
  8
0
100
AcDbPolyline
 62
250
  6
CONTINUOUS
 90
5
 70
0
 10
-3.0962811888
 20
21.650870507
 10
-3.0708691389
 20
21.6389890868
 10
-3.0447993282
 20
21.6283376457
 10
-3.018337161
 20
21.6188732628
 10
-2.9917741489
 20
21.6105538067
  0
LWPOLYLINE
  5
4BA
100
AcDbEntity
  8
ASSI
100
AcDbPolyline
 62
250
  6
CONTINUOUS
 90
5
 70
0
 10
-3.0962811888
 20
21.650870507
 10
-3.0708691389
 20
21.6389890868
 10
-3.0447993282
 20
21.6283376457
 10
-3.018337161
 20
21.6188732628
 10
-2.9917741489
 20
21.6105538067
  0
LWPOLYLINE
  5
4BB
100
AcDbEntity
  8
0
100
AcDbPolyline
 62
250
  6
CONTINUOUS
 90
7
 70
0
 10
-2.9597953667
 20
22.3632294393
 10
-2.9528340241
 20
22.3598687461
 10
-2.9457219381
 20
22.3566515559
 10
-2.9384591089
 20
22.3535778688
 10
-2.9310455365
 20
22.3506476846
 10
-2.9234812207
 20
22.3478610034
 10
-2.9157661617
 20
22.3452178252
  0
LWPOLYLINE
  5
4BC
100
AcDbEntity
  8
ASSI
100
AcDbPolyline
 62
250
  6
CONTINUOUS
 90
7
 70
0
 10
-2.9597953667
 20
22.3632294393
 10
-2.9528340241
 20
22.3598687461
 10
-2.9457219381
 20
22.3566515559
 10
-2.9384591089
 20
22.3535778688
 10
-2.9310455365
 20
22.3506476846
 10
-2.9234812207
 20
22.3478610034
 10
-2.9157661617
 20
22.3452178252
  0
LWPOLYLINE
  5
4BD
100
AcDbEntity
  8
0
100
AcDbPolyline
 62
250
  6
CONTINUOUS
 90
7
 70
0
 10
-3.0962811888
 20
22.1218869593
 10
-3.0848627313
 20
22.1163609021
 10
-3.0731021318
 20
22.111029935
 10
-3.0610115901
 20
22.1058992826
 10
-3.0486036204
 20
22.1009739681
 10
-3.0358910376
 20
22.0962588085
 10
-3.0228869443
 20
22.0917584109
  0
LWPOLYLINE
  5
4BE
100
AcDbEntity
  8
ASSI
100
AcDbPolyline
 62
250
  6
CONTINUOUS
 90
7
 70
0
 10
-3.0962811888
 20
22.1218869593
 10
-3.0848627313
 20
22.1163609021
 10
-3.0731021318
 20
22.111029935
 10
-3.0610115901
 20
22.1058992826
 10
-3.0486036204
 20
22.1009739681
 10
-3.0358910376
 20
22.0962588085
 10
-3.0228869443
 20
22.0917584109
  0
LINE
  5
4BF
100
AcDbEntity
  8
ASSI
100
AcDbLine
 62
7
  6
CONTINUOUS
 10
-3.0448255783
 20
21.5429598185
 11
-3.0339297848
 21
21.5376568774
  0
LWPOLYLINE
  5
4C0
100
AcDbEntity
  8
0
100
AcDbPolyline
 62
250
  6
CONTINUOUS
 90
10
 70
0
 10
-2.9157661621
 20
22.3452183383
 10
-2.9061780658
 20
22.3405389559
 10
-2.8966396108
 20
22.335237963
 10
-2.8871681583
 20
22.3293073428
 10
-2.877780996
 20
22.3226961775
 10
-2.8684959658
 20
22.3154197214
 10
-2.8593606994
 20
22.3075847512
 10
-2.8504398032
 20
22.2992375301
 10
-2.8417890923
 20
22.290341444
 10
-2.8334718862
 20
22.2809013086
  0
LWPOLYLINE
  5
4C1
100
AcDbEntity
  8
ASSI
100
AcDbPolyline
 62
250
  6
CONTINUOUS
 90
10
 70
0
 10
-2.9157661621
 20
22.3452183383
 10
-2.9061780658
 20
22.3405389559
 10
-2.8966396108
 20
22.335237963
 10
-2.8871681583
 20
22.3293073428
 10
-2.877780996
 20
22.3226961775
 10
-2.8684959658
 20
22.3154197214
 10
-2.8593606994
 20
22.3075847512
 10
-2.8504398032
 20
22.2992375301
 10
-2.8417890923
 20
22.290341444
 10
-2.8334718862
 20
22.2809013086
  0
LINE
  5
4C2
100
AcDbEntity
  8
RACCORDO
100
AcDbLine
 62
250
  6
CONTINUOUS
 10
-1.8941166157
 20
20.9110177135
 11
-9.5062447552
 21
24.7170817833
  0
LINE
  5
4C3
100
AcDbEntity
  8
0
100
AcDbLine
 62
7
  6
CONTINUOUS
 10
-8.5597354449
 20
24.3004121935
 11
-3.0443025901
 21
21.5426957661
  0
LINE
  5
4C4
100
AcDbEntity
  8
ASSI
100
AcDbLine
 62
7
  6
CONTINUOUS
 10
-8.5597354449
 20
24.3004121935
 11
-3.0443025901
 21
21.5426957661
  0
LINE
  5
4C5
100
AcDbEntity
  8
0
100
AcDbLine
 62
250
  6
CONTINUOUS
 10
-8.6117140821
 20
24.4085869536
 11
-3.0962811888
 21
21.650870507
  0
LINE
  5
4C6
100
AcDbEntity
  8
ASSI
100
AcDbLine
 62
250
  6
CONTINUOUS
 10
-8.6117140821
 20
24.4085869536
 11
-3.0962811888
 21
21.650870507
  0
LINE
  5
4C7
100
AcDbEntity
  8
0
100
AcDbLine
 62
250
  6
CONTINUOUS
 10
17.8926229493
 20
11.1596395478
 11
14.1901698237
 21
13.0108661106
  0
LINE
  5
4C8
100
AcDbEntity
  8
0
100
AcDbLine
 62
250
  6
CONTINUOUS
 10
6.546934029
 20
16.832484008
 11
2.8444809034
 21
18.6837105707
  0
LINE
  5
4C9
100
AcDbEntity
  8
0
100
AcDbLine
 62
250
  6
CONTINUOUS
 10
-13.0614969492
 20
26.6574416498
 11
-9.3478495965
 21
24.8006179734
  0
LINE
  5
4CA
100
AcDbEntity
  8
0
100
AcDbLine
 62
250
  6
CONTINUOUS
 10
1.986346341
 20
19.1335200047
 11
-1.7338523737
 21
20.993619362
  0
LINE
  5
4CB
100
AcDbEntity
  8
0
100
AcDbLine
 62
7
  6
CONTINUOUS
 10
6.9572036928
 20
17.0471278313
 11
8.50186217
 21
16.2747985927
  0
LINE
  5
4CC
100
AcDbEntity
  8
0
100
AcDbLine
 62
7
  6
CONTINUOUS
 10
13.0241612749
 20
14.0136490402
 11
14.5688197521
 21
13.2413198016
  0
LINE
  5
4CD
100
AcDbEntity
  8
0
100
AcDbLine
 62
7
  6
CONTINUOUS
 10
18.2939680667
 20
11.3787456443
 11
14.5692253698
 21
13.2411169928
  0
LINE
  5
4CE
100
AcDbEntity
  8
0
100
AcDbLine
 62
7
  6
CONTINUOUS
 10
6.9567980751
 20
17.0473306401
 11
3.2320553782
 21
18.9097019886
  0
LINE
  5
4CF
100
AcDbEntity
  8
0
100
AcDbLine
 62
7
  6
CONTINUOUS
 10
2.3838502133
 20
19.333804571
 11
-2.2188281654
 21
21.6351437604
  0
LINE
  5
4D0
100
AcDbEntity
  8
0
100
AcDbLine
 62
7
  6
CONTINUOUS
 10
-8.7581606915
 20
24.9048100234
 11
-12.6776319218
 21
26.8645456386
  0
LINE
  5
4D1
100
AcDbEntity
  8
0
100
AcDbLine
 62
250
  6
CONTINUOUS
 10
-8.6117140821
 20
24.879603406
 11
-3.0962811888
 21
22.1218869593
  0
LINE
  5
4D2
100
AcDbEntity
  8
ASSI
100
AcDbLine
 62
250
  6
CONTINUOUS
 10
-8.6117140821
 20
24.879603406
 11
-3.0962811888
 21
22.1218869593
  0
LINE
  5
4D3
100
AcDbEntity
  8
0
100
AcDbLine
 62
250
  6
CONTINUOUS
 10
-8.47522826
 20
25.1209458859
 11
-2.9597953667
 21
22.3632294393
  0
LINE
  5
4D4
100
AcDbEntity
  8
ASSI
100
AcDbLine
 62
250
  6
CONTINUOUS
 10
-8.47522826
 20
25.1209458859
 11
-2.9597953667
 21
22.3632294393
  0
LINE
  5
4D5
100
AcDbEntity
  8
0
100
AcDbLine
 62
7
  6
CONTINUOUS
 10
-7.9144468783
 20
25.435581061
 11
-2.3793349772
 21
22.6680251105
  0
LINE
  5
4D6
100
AcDbEntity
  8
ASSI
100
AcDbLine
 62
7
  6
CONTINUOUS
 10
-7.9144468783
 20
25.435581061
 11
-2.3793349772
 21
22.6680251105
  0
LINE
  5
4D7
100
AcDbEntity
  8
DRAFT
100
AcDbLine
 62
7
  6
CONTINUOUS
 10
13.4419684645
 20
14.7573733896
 11
13.0241612749
 21
14.9662769844
  0
LINE
  5
4D8
100
AcDbEntity
  8
DRAFT
100
AcDbLine
 62
7
  6
CONTINUOUS
 10
8.50186217
 20
17.2274265368
 11
8.0840549803
 21
17.4363301317
  0
LINE
  5
4D9
100
AcDbEntity
  8
RACCORDO
100
AcDbLine
 62
250
  6
CONTINUOUS
 10
2.5910954608
 20
21.1553612588
 11
2.4608589165
 21
21.2204795309
  0
LINE
  5
4DA
100
AcDbEntity
  8
ASSI
100
AcDbLine
 62
250
  6
CONTINUOUS
 10
2.5910954608
 20
21.1553612588
 11
2.4529141778
 21
21.2244519003
  0
LINE
  5
4DB
100
AcDbEntity
  8
0
100
AcDbLine
 62
7
  6
CONTINUOUS
 10
-3.0447156921
 20
21.542903912
 11
-3.0443022635
 21
21.5426956028
  0
LWPOLYLINE
  5
4DC
100
AcDbEntity
  8
0
100
AcDbPolyline
 62
250
  6
CONTINUOUS
 90
10
 70
0
 10
-8.5115799578
 20
25.1431242946
 10
-8.5202518264
 20
25.1475760401
 10
-8.5287485955
 20
25.1512935437
 10
-8.5371060166
 20
25.1542779884
 10
-8.5454069206
 20
25.1565112155
 10
-8.5536144128
 20
25.1579811096
 10
-8.5615785695
 20
25.1586956865
 10
-8.5692617209
 20
25.1586500682
 10
-8.5767323201
 20
25.1578139306
 10
-8.5840031542
 20
25.1561668029
  0
LWPOLYLINE
  5
4DD
100
AcDbEntity
  8
ASSI
100
AcDbPolyline
 62
250
  6
CONTINUOUS
 90
9
 70
0
 10
-8.5115799578
 20
25.1431242946
 10
-8.5202518264
 20
25.1475760401
 10
-8.5287485955
 20
25.1512935437
 10
-8.5371060166
 20
25.1542779884
 10
-8.5454069206
 20
25.1565112155
 10
-8.5536144128
 20
25.1579811096
 10
-8.5615785695
 20
25.1586956865
 10
-8.5692617209
 20
25.1586500682
 10
-8.5767323201
 20
25.1578139306
  0
LINE
  5
4DE
100
AcDbEntity
  8
RACCORDO
100
AcDbLine
 62
250
  6
CONTINUOUS
 10
2.6044858282
 20
21.1483208835
 11
2.5910954599
 21
21.1553611993
  0
LINE
  5
4DF
100
AcDbEntity
  8
ASSI
100
AcDbLine
 62
250
  6
CONTINUOUS
 10
2.6044858282
 20
21.1483208835
 11
2.5910954599
 21
21.1553611993
  0
LINE
  5
4E0
100
AcDbEntity
  8
RACCORDO
100
AcDbLine
 62
250
  6
CONTINUOUS
 10
-1.2863517341
 20
23.7216310457
 11
-1.3054438969
 21
23.732014704
  0
LWPOLYLINE
  5
4E1
100
AcDbEntity
  8
0
100
AcDbPolyline
 62
7
  6
CONTINUOUS
 90
7
 70
0
 10
-2.379334915
 20
22.6680250793
 10
-2.3658436475
 20
22.6605352211
 10
-2.3525884158
 20
22.6515848619
 10
-2.3395692198
 20
22.6411740017
 10
-2.3267860595
 20
22.6293026406
 10
-2.3142389349
 20
22.6159707786
 10
-2.3019278461
 20
22.6011784155
  0
LWPOLYLINE
  5
4E2
100
AcDbEntity
  8
ASSI
100
AcDbPolyline
 62
7
  6
CONTINUOUS
 90
7
 70
0
 10
-2.379334915
 20
22.6680250793
 10
-2.3658436475
 20
22.6605352211
 10
-2.3525884158
 20
22.6515848619
 10
-2.3395692198
 20
22.6411740017
 10
-2.3267860595
 20
22.6293026406
 10
-2.3142389349
 20
22.6159707786
 10
-2.3019278461
 20
22.6011784155
  0
LWPOLYLINE
  5
4E3
100
AcDbEntity
  8
RACCORDO
100
AcDbPolyline
 62
7
  6
CONTINUOUS
 90
10
 70
0
 10
2.8230512972
 20
20.9331440422
 10
2.7931608651
 20
20.9520003353
 10
2.7639400003
 20
20.970816342
 10
2.7353892517
 20
20.9895924467
 10
2.7074754463
 20
21.0082578752
 10
2.6802328802
 20
21.0268842091
 10
2.6537630845
 20
21.045685155
 10
2.62806444
 20
21.0646866415
 10
2.6031391673
 20
21.0838630583
 10
2.5896393289
 20
21.0946634533
  0
LWPOLYLINE
  5
4E4
100
AcDbEntity
  8
ASSI
100
AcDbPolyline
 62
7
  6
CONTINUOUS
 90
10
 70
0
 10
2.8230512972
 20
20.9331440422
 10
2.7931608651
 20
20.9520003353
 10
2.7639400003
 20
20.970816342
 10
2.7353892517
 20
20.9895924467
 10
2.7074754463
 20
21.0082578752
 10
2.6802328802
 20
21.0268842091
 10
2.6537630845
 20
21.045685155
 10
2.62806444
 20
21.0646866415
 10
2.6031391673
 20
21.0838630583
 10
2.5896174917
 20
21.0946812024
  0
LINE
  5
4E5
100
AcDbEntity
  8
RACCORDO
100
AcDbLine
 62
7
  6
CONTINUOUS
 10
-1.0997228126
 20
23.6560017373
 11
-1.1872190272
 21
23.720125711
  0
LINE
  5
4E6
100
AcDbEntity
  8
ASSI
100
AcDbLine
 62
7
  6
CONTINUOUS
 10
2.5896174917
 20
21.0946812024
 11
2.5790942409
 21
21.1033504895
  0
LWPOLYLINE
  5
4E7
100
AcDbEntity
  8
RACCORDO
100
AcDbPolyline
 62
7
  6
CONTINUOUS
 90
4
 70
0
 10
2.5896393289
 20
21.0946634533
 10
2.5790942409
 20
21.1033504895
 10
2.5559245151
 20
21.1231638165
 10
2.5336355298
 20
21.1432882699
  0
LINE
  5
4E8
100
AcDbEntity
  8
ASSI
100
AcDbLine
 62
7
  6
CONTINUOUS
 10
-0.4139672918
 20
26.5744105241
 11
-0.3770432626
 21
26.5383843966
  0
LWPOLYLINE
  5
4E9
100
AcDbEntity
  8
ASSI
100
AcDbPolyline
 62
7
  6
CONTINUOUS
 90
4
 70
0
 10
-0.8674400455
 20
26.9094171701
 10
-0.784344808
 20
26.8282162088
 10
-0.6916688317
 20
26.7491073114
 10
-0.611688363
 20
26.6881878862
  0
LWPOLYLINE
  5
4EA
100
AcDbEntity
  8
ASSI
100
AcDbPolyline
 62
7
  6
CONTINUOUS
 90
4
 70
0
 10
6.1703078361
 20
22.3148051793
 10
6.2534030735
 20
22.233604218
 10
6.3460790498
 20
22.1544953206
 10
6.4260595185
 20
22.0935758954
  0
LWPOLYLINE
  5
4EB
100
AcDbEntity
  8
RACCORDO
100
AcDbPolyline
 62
250
  6
CONTINUOUS
 90
9
 70
0
 10
7.4064622334
 20
21.2619996419
 10
7.42093451
 20
21.2459235018
 10
7.4310107447
 20
21.2233540285
 10
7.4365580039
 20
21.1945890474
 10
7.4375031154
 20
21.1600081517
 10
7.4338336333
 20
21.120067693
 10
7.4255980013
 20
21.0752947601
 10
7.4129049132
 20
21.0262802225
 10
7.3959218782
 20
20.9736709329
  0
LWPOLYLINE
  5
4EC
100
AcDbEntity
  8
SMUSSO
100
AcDbPolyline
 62
7
  6
CONTINUOUS
 90
3
 70
0
 10
6.5617374982
 20
22.0499535644
 10
6.6237805897
 20
21.9797985333
 10
6.6607046189
 20
21.9437724058
  0
LINE
  5
4ED
100
AcDbEntity
  8
ASSI
100
AcDbLine
 62
7
  6
CONTINUOUS
 10
6.5617374982
 20
22.0499535644
 11
6.6237805897
 21
21.9797985333
  0
LINE
  5
4EE
100
AcDbEntity
  8
ASSI
100
AcDbLine
 62
7
  6
CONTINUOUS
 10
7.6636861151
 20
21.0271391013
 11
7.5939435189
 21
21.1084646286
  0
LWPOLYLINE
  5
4EF
100
AcDbEntity
  8
DRAFT
100
AcDbPolyline
 62
7
  6
CONTINUOUS
 90
10
 70
0
 10
13.9106364735
 20
14.1440913925
 10
13.858998785
 20
14.212821239
 10
13.807251572
 20
14.2814047462
 10
13.7553948346
 20
14.3498419141
 10
13.7034280518
 20
14.4181334245
 10
13.6513517446
 20
14.4862785956
 10
13.599167476
 20
14.5542753823
 10
13.5468757669
 20
14.6221231026
 10
13.4944760964
 20
14.6898224383
 10
13.4419684645
 20
14.7573733896
  0
LWPOLYLINE
  5
4F0
100
AcDbEntity
  8
RACCORDO
100
AcDbPolyline
 62
7
  6
CONTINUOUS
 90
3
 70
0
 10
7.7102144489
 20
20.9621518046
 10
7.6583912686
 20
21.0339280986
 10
7.601326768
 20
21.1006108322
  0
LINE
  5
4F1
100
AcDbEntity
  8
DRAFT
100
AcDbLine
 62
7
  6
CONTINUOUS
 10
14.4288407518
 20
13.4378030482
 11
14.3583076713
 21
13.5357456353
  0
LINE
  5
4F2
100
AcDbEntity
  8
DRAFT
100
AcDbLine
 62
7
  6
CONTINUOUS
 10
14.4991470994
 20
13.3395928666
 11
14.4288407518
 21
13.4378030482
  0
LINE
  5
4F3
100
AcDbEntity
  8
DRAFT
100
AcDbLine
 62
7
  6
CONTINUOUS
 10
14.5692253424
 20
13.2411170065
 11
14.4991470994
 21
13.3395928666
  0
LWPOLYLINE
  5
4F4
100
AcDbEntity
  8
RACCORDO
100
AcDbPolyline
 62
250
  6
CONTINUOUS
 90
10
 70
0
 10
14.2481925197
 20
12.7191394036
 10
14.2276557077
 20
12.7480746455
 10
14.2060023979
 20
12.7755239932
 10
14.1833577077
 20
12.8013515318
 10
14.15986127
 20
12.8254306795
 10
14.1356352669
 20
12.8476426029
 10
14.1107829629
 20
12.8678741695
 10
14.0854303917
 20
12.8860223979
 10
14.0597263965
 20
12.9019976109
 10
14.0338101015
 20
12.9157198379
  0
LINE
  5
4F5
100
AcDbEntity
  8
ASSI
100
AcDbLine
 62
7
  6
CONTINUOUS
 10
7.7251542847
 20
20.9389595796
 11
7.6636861151
 21
21.0271391013
  0
LWPOLYLINE
  5
4F6
100
AcDbEntity
  8
0
100
AcDbPolyline
 62
7
  6
CONTINUOUS
 90
7
 70
0
 10
14.7747088719
 20
12.0738602179
 10
14.3388886075
 20
12.71240551
 10
14.3328964849
 20
12.721679603
 10
14.3272327702
 20
12.7309074777
 10
14.3218884577
 20
12.7400737494
 10
14.3168543021
 20
12.7491638314
 10
14.3121208703
 20
12.7581639477
  0
LWPOLYLINE
  5
4F7
100
AcDbEntity
  8
RACCORDO
100
AcDbPolyline
 62
250
  6
CONTINUOUS
 90
10
 70
0
 10
14.024564954
 20
12.5764424812
 10
14.0128875821
 20
12.5944509163
 10
14.0006336581
 20
12.6113699296
 10
13.987803182
 20
12.6271995208
 10
13.9743172067
 20
12.6420108601
 10
13.9602546793
 20
12.6557327774
 10
13.9458524409
 20
12.6681517628
 10
13.9311894385
 20
12.6791966463
 10
13.916186725
 20
12.688938598
 10
13.9008443005
 20
12.6973776177
  0
LWPOLYLINE
  5
4F8
100
AcDbEntity
  8
0
100
AcDbPolyline
 62
7
  6
CONTINUOUS
 90
4
 70
0
 10
15.8443615154
 20
10.3939494964
 10
15.6034008085
 20
10.7894345521
 10
15.1941031911
 20
11.4359712805
 10
14.7747088719
 20
12.0738602179
  0
LINE
  5
4F9
100
AcDbEntity
  8
SMUSSO
100
AcDbLine
 62
250
  6
CONTINUOUS
 10
6.7701326033
 20
24.0655573959
 11
7.1237379867
 21
23.4555422527
  0
LINE
  5
4FA
100
AcDbEntity
  8
ASSI
100
AcDbLine
 62
250
  6
CONTINUOUS
 10
6.7701326033
 20
24.0655573959
 11
7.1237379867
 21
23.4555422527
  0
LINE
  5
4FB
100
AcDbEntity
  8
RACCORDO
100
AcDbLine
 62
7
  6
CONTINUOUS
 10
4.2482981022
 20
30.1286319691
 11
4.2545752236
 21
30.1178031935
  0
LINE
  5
4FC
100
AcDbEntity
  8
ASSI
100
AcDbLine
 62
7
  6
CONTINUOUS
 10
4.2482981022
 20
30.1286319691
 11
4.2545752236
 21
30.1178031935
  0
LWPOLYLINE
  5
4FD
100
AcDbEntity
  8
RACCORDO
100
AcDbPolyline
 62
250
  6
CONTINUOUS
 90
4
 70
0
 10
15.0493786012
 20
10.7914409535
 10
14.7895707858
 20
11.2672702619
 10
14.412840973
 20
11.9266015148
 10
14.024564954
 20
12.5764424812
  0
LWPOLYLINE
  5
4FE
100
AcDbEntity
  8
RACCORDO
100
AcDbPolyline
 62
250
  6
CONTINUOUS
 90
5
 70
0
 10
15.4616089925
 20
10.5853257579
 10
15.3875803502
 20
10.7271438354
 10
15.0190044399
 20
11.4013155007
 10
14.6390981942
 20
12.0654796957
 10
14.2481925197
 20
12.7191394036
  0
LWPOLYLINE
  5
4FF
100
AcDbEntity
  8
0
100
AcDbPolyline
 62
7
  6
CONTINUOUS
 90
4
 70
0
 10
14.3121208703
 20
12.7581639477
 10
14.3013442946
 20
12.7796000684
 10
14.2908395525
 20
12.8014058414
 10
14.2805539801
 20
12.8234320531
  0
LWPOLYLINE
  5
500
100
AcDbEntity
  8
0
100
AcDbPolyline
 62
7
  6
CONTINUOUS
 90
4
 70
0
 10
17.8389446983
 20
6.7425658972
 10
17.493876659
 20
7.4347870043
 10
17.1377995761
 20
8.1199109122
 10
16.958350094
 20
8.4513632144
  0
LWPOLYLINE
  5
501
100
AcDbEntity
  8
0
100
AcDbPolyline
 62
7
  6
CONTINUOUS
 90
10
 70
0
 10
17.8389446983
 20
6.7425658972
 10
17.8659452645
 20
6.6858462853
 10
17.8917818542
 20
6.6287735297
 10
17.9164544675
 20
6.5713476302
 10
17.9399867955
 20
6.5135079069
 10
17.962355147
 20
6.4553150399
 10
17.983488449
 20
6.3969510689
 10
18.0033630104
 20
6.3384766739
 10
18.0220025223
 20
6.279831175
 10
18.0394069847
 20
6.2210145721
  0
LWPOLYLINE
  5
502
100
AcDbEntity
  8
0
100
AcDbPolyline
 62
7
  6
CONTINUOUS
 90
6
 70
0
 10
14.2403459312
 20
12.9111924184
 10
14.2302985785
 20
12.9326254237
 10
14.2203378717
 20
12.9534706162
 10
14.2104411889
 20
12.9735467322
 10
14.2004256549
 20
12.9927265157
 10
14.1901698237
 20
13.0108661106
  0
LINE
  5
503
100
AcDbEntity
  8
0
100
AcDbLine
 62
7
  6
CONTINUOUS
 10
14.2805539801
 20
12.8234320531
 11
14.2403459312
 21
12.9111924184
  0
LWPOLYLINE
  5
504
100
AcDbEntity
  8
ASSI
100
AcDbPolyline
 62
7
  6
CONTINUOUS
 90
7
 70
0
 10
8.9192911214
 20
27.0732524094
 10
8.9001029464
 20
27.1173698354
 10
8.8852403715
 20
27.1601283366
 10
8.8748203243
 20
27.1995430736
 10
8.8683958903
 20
27.2345921805
 10
8.8654393978
 20
27.2638743165
 10
8.8649662643
 20
27.2796602809
  0
LWPOLYLINE
  5
505
100
AcDbEntity
  8
RACCORDO
100
AcDbPolyline
 62
250
  6
CONTINUOUS
 90
3
 70
0
 10
17.3447454802
 20
6.5006928653
 10
17.0501336318
 20
7.2240787614
 10
16.8981222716
 20
7.578126165
  0
LINE
  5
506
100
AcDbEntity
  8
RACCORDO
100
AcDbLine
 62
250
  6
CONTINUOUS
 10
17.0959299504
 20
6.4008987014
 11
16.8573732504
 21
6.9873102648
  0
LWPOLYLINE
  5
507
100
AcDbEntity
  8
0
100
AcDbPolyline
 62
7
  6
CONTINUOUS
 90
7
 70
0
 10
18.1200908563
 20
5.9731939265
 10
18.1053985983
 20
6.0156406057
 10
18.0911030078
 20
6.0575887593
 10
18.0772018091
 20
6.0991024722
 10
18.0638137292
 20
6.1402049556
 10
18.0511590664
 20
6.1808516955
 10
18.0394069847
 20
6.2210145721
  0
LWPOLYLINE
  5
508
100
AcDbEntity
  8
0
100
AcDbPolyline
 62
7
  6
CONTINUOUS
 90
9
 70
0
 10
18.2496717574
 20
5.568296875
 10
18.2371761921
 20
5.6152892071
 10
18.223782894
 20
5.6617786525
 10
18.209695612
 20
5.7077860233
 10
18.1951481179
 20
5.7533370907
 10
18.1802987159
 20
5.7984072579
 10
18.1652171655
 20
5.8429410372
 10
18.1500810318
 20
5.8868893736
 10
18.1200908563
 20
5.9731939265
  0
LWPOLYLINE
  5
509
100
AcDbEntity
  8
DRAFT
100
AcDbPolyline
 62
7
  6
CONTINUOUS
 90
25
 70
0
 10
16.7509071974
 20
15.4692714193
 10
16.7569367173
 20
15.4423621304
 10
16.7640169082
 20
15.415539932
 10
16.7721477702
 20
15.388804824
 10
16.7813632326
 20
15.362069467
 10
16.791629366
 20
15.3354212004
 10
16.8028443824
 20
15.309122043
 10
16.8150176111
 20
15.2831755328
 10
16.8281397228
 20
15.2575781317
 10
16.8420809414
 20
15.2325812444
 10
16.856849273
 20
15.2081909302
 10
16.8724367114
 20
15.1844011297
 10
16.888689462
 20
15.1614450695
 10
16.9056137111
 20
15.1393313174
 10
16.9232032724
 20
15.1180513056
 10
16.9412857925
 20
15.0978125577
 10
16.9598660147
 20
15.0786251808
 10
16.9789391956
 20
15.0604790678
 10
16.9983187521
 20
15.0435514214
 10
17.0180076131
 20
15.0278540531
 10
17.0380028495
 20
15.0133751515
 10
17.058109091
 20
15.0002564846
 10
17.0782612142
 20
14.9885453083
 10
17.0985243425
 20
14.9781943666
 10
17.1188984759
 20
14.9692036596
  0
LINE
  5
50A
100
AcDbEntity
  8
RACCORDO
100
AcDbLine
 62
7
  6
CONTINUOUS
 10
17.1873451065
 20
21.3885482773
 11
17.1688243317
 21
21.5419346555
  0
LINE
  5
50B
100
AcDbEntity
  8
RACCORDO
100
AcDbLine
 62
7
  6
CONTINUOUS
 10
21.3909537393
 20
7.1138404967
 11
21.3909537393
 21
-20.5944187206
  0
LINE
  5
50C
100
AcDbEntity
  8
DRAFT
100
AcDbLine
 62
7
  6
CONTINUOUS
 10
21.591089834
 20
-21.5922457314
 11
21.591089834
 21
-21.3928996239
  0
LINE
  5
50D
100
AcDbEntity
  8
DRAFT
100
AcDbLine
 62
7
  6
CONTINUOUS
 10
21.591089834
 20
13.3690395547
 11
21.591089834
 21
13.5683856622
  0
LWPOLYLINE
  5
50E
100
AcDbEntity
  8
RACCORDO
100
AcDbPolyline
 62
7
  6
CONTINUOUS
 90
13
 70
0
 10
21.3909537393
 20
-20.5944187206
 10
21.3887573022
 20
-20.6897835624
 10
21.3822331773
 20
-20.7822369538
 10
21.3713813644
 20
-20.871778895
 10
21.3561419501
 20
-20.9587160668
 10
21.3365748479
 20
-21.0427417884
 10
21.3128597981
 20
-21.1229360172
 10
21.2849338767
 20
-21.1992422969
 10
21.2528600077
 20
-21.2717170839
 10
21.2170067034
 20
-21.3396097047
 10
21.1774968012
 20
-21.4026699348
 10
21.1342074638
 20
-21.4611479986
 10
21.0871386911
 20
-21.5150438963
  0
LWPOLYLINE
  5
50F
100
AcDbEntity
  8
RACCORDO
100
AcDbPolyline
 62
250
  6
CONTINUOUS
 90
29
 70
0
 10
11.8935825155
 20
24.6664471967
 10
11.9693706933
 20
24.6867841537
 10
12.050065596
 20
24.7019644662
 10
12.1356399875
 20
24.7113485504
 10
12.2260587339
 20
24.7143029109
 10
12.3216789479
 20
24.7101601192
 10
12.4219901944
 20
24.698256448
 10
12.5255162187
 20
24.6782670128
 10
12.63247012
 20
24.6497402711
 10
12.7420818061
 20
24.6124694736
 10
12.8512174869
 20
24.5674621701
 10
12.9591684718
 20
24.515286753
 10
13.0659001413
 20
24.456232306
 10
13.1692718215
 20
24.3919062135
 10
13.2684593482
 20
24.3234784643
 10
13.3638168459
 20
24.2513464577
 10
13.4550657478
 20
24.1763051437
 10
13.542000949
 20
24.0991167925
 10
13.6246477205
 20
24.0203413528
 10
13.7031314199
 20
23.9404067769
 10
13.7774541468
 20
23.8598332104
 10
13.847626314
 20
23.7791241567
 10
13.913812754
 20
23.6985867402
 10
13.97606791
 20
23.6186336891
 10
14.0344765686
 20
23.5396293532
 10
14.0892589428
 20
23.4617296648
 10
14.1405535107
 20
23.3851688852
 10
14.1884262442
 20
23.3102752685
 10
14.2464571585
 20
23.2154209543
  0
LWPOLYLINE
  5
510
100
AcDbEntity
  8
ASSI
100
AcDbPolyline
 62
7
  6
CONTINUOUS
 90
5
 70
0
 10
-2.6282372054
 20
21.4811819355
 10
-2.5700084233
 20
21.491000347
 10
-2.5143913512
 20
21.5053306753
 10
-2.461514576
 20
21.5244417128
 10
-2.4469034599
 20
21.5308630115
  0
LWPOLYLINE
  5
511
100
AcDbEntity
  8
0
100
AcDbPolyline
 62
250
  6
CONTINUOUS
 90
8
 70
0
 10
-2.5932318168
 20
21.5842147128
 10
-2.576951035
 20
21.5866408265
 10
-2.5610347155
 20
21.5893104066
 10
-2.5454951635
 20
21.5922115389
 10
-2.5303425747
 20
21.5953319925
 10
-2.5154242819
 20
21.5986991375
 10
-2.5007574874
 20
21.602308881
 10
-2.4863576237
 20
21.6061569686
  0
LWPOLYLINE
  5
512
100
AcDbEntity
  8
0
100
AcDbPolyline
 62
250
  6
CONTINUOUS
 90
3
 70
0
 10
-2.6273593408
 20
21.5800824032
 10
-2.6100378732
 20
21.5820213534
 10
-2.5932318168
 20
21.5842147128
  0
LWPOLYLINE
  5
513
100
AcDbEntity
  8
ASSI
100
AcDbPolyline
 62
250
  6
CONTINUOUS
 90
10
 70
0
 10
-2.6273593408
 20
21.5800824032
 10
-2.6100378732
 20
21.5820213534
 10
-2.5932318168
 20
21.5842147128
 10
-2.576951035
 20
21.5866408265
 10
-2.5610347155
 20
21.5893104066
 10
-2.5454951635
 20
21.5922115389
 10
-2.5303425747
 20
21.5953319925
 10
-2.5154242819
 20
21.5986991375
 10
-2.5007574874
 20
21.602308881
 10
-2.4863576237
 20
21.6061569686
  0
LWPOLYLINE
  5
514
100
AcDbEntity
  8
ASSI
100
AcDbPolyline
 62
250
  6
CONTINUOUS
 90
4
 70
0
 10
-2.6828166346
 20
21.5759759969
 10
-2.663673703
 20
21.5770394099
 10
-2.6451836572
 20
21.5784191608
 10
-2.6273593408
 20
21.5800824032
  0
LWPOLYLINE
  5
515
100
AcDbEntity
  8
ASSI
100
AcDbPolyline
 62
250
  6
CONTINUOUS
 90
7
 70
0
 10
-2.8128263419
 20
21.5782945363
 10
-2.78930713
 20
21.5766468033
 10
-2.7665066306
 20
21.5755715631
 10
-2.7444684864
 20
21.5750133927
 10
-2.7231420786
 20
21.5749255193
 10
-2.7025900921
 20
21.5752617714
 10
-2.6828166346
 20
21.5759759969
  0
LWPOLYLINE
  5
516
100
AcDbEntity
  8
0
100
AcDbPolyline
 62
250
  6
CONTINUOUS
 90
12
 70
0
 10
-2.8617666993
 20
21.583521218
 10
-2.8369859262
 20
21.5805678681
 10
-2.8128263419
 20
21.5782945363
 10
-2.78930713
 20
21.5766468033
 10
-2.7665066306
 20
21.5755715631
 10
-2.7444684864
 20
21.5750133927
 10
-2.7231420786
 20
21.5749255193
 10
-2.7025900921
 20
21.5752617714
 10
-2.6828166346
 20
21.5759759969
 10
-2.663673703
 20
21.5770394099
 10
-2.6451836572
 20
21.5784191608
 10
-2.6273593408
 20
21.5800824032
  0
LWPOLYLINE
  5
517
100
AcDbEntity
  8
ASSI
100
AcDbPolyline
 62
250
  6
CONTINUOUS
 90
3
 70
0
 10
-2.8617666993
 20
21.583521218
 10
-2.8369859262
 20
21.5805678681
 10
-2.8128263419
 20
21.5782945363
  0
LWPOLYLINE
  5
518
100
AcDbEntity
  8
ASSI
100
AcDbPolyline
 62
7
  6
CONTINUOUS
 90
5
 70
0
 10
-2.8697685358
 20
21.486969562
 10
-2.8099139753
 20
21.4787882696
 10
-2.7492768096
 20
21.4750874612
 10
-2.6884936361
 20
21.4758635653
 10
-2.6282372054
 20
21.4811819355
  0
LWPOLYLINE
  5
519
100
AcDbEntity
  8
ASSI
100
AcDbPolyline
 62
250
  6
CONTINUOUS
 90
9
 70
0
 10
-2.6644236142
 20
21.9457727984
 10
-2.7090666744
 20
21.9529724076
 10
-2.7544109147
 20
21.9632587714
 10
-2.8000827936
 20
21.9766991111
 10
-2.8456941878
 20
21.9933337349
 10
-2.8912247962
 20
22.0131104659
 10
-2.9363370877
 20
22.0360705042
 10
-2.980399906
 20
22.0622833313
 10
-3.0228869443
 20
22.0917584109
  0
LWPOLYLINE
  5
51A
100
AcDbEntity
  8
0
100
AcDbPolyline
 62
250
  6
CONTINUOUS
 90
3
 70
0
 10
-2.9127721499
 20
21.5916924538
 10
-2.8870575625
 20
21.587210109
 10
-2.8617666993
 20
21.583521218
  0
LINE
  5
51B
100
AcDbEntity
  8
0
100
AcDbLine
 62
250
  6
CONTINUOUS
 10
-2.9389002275
 20
21.5970379904
 11
-2.9127721499
 21
21.5916924538
  0
LWPOLYLINE
  5
51C
100
AcDbEntity
  8
ASSI
100
AcDbPolyline
 62
250
  6
CONTINUOUS
 90
4
 70
0
 10
-2.9389002275
 20
21.5970379904
 10
-2.9127721499
 20
21.5916924538
 10
-2.8870575625
 20
21.587210109
 10
-2.8617666993
 20
21.583521218
  0
LWPOLYLINE
  5
51D
100
AcDbEntity
  8
0
100
AcDbPolyline
 62
250
  6
CONTINUOUS
 90
8
 70
0
 10
-2.7090666744
 20
21.9529724076
 10
-2.7544109147
 20
21.9632587714
 10
-2.8000827936
 20
21.9766991111
 10
-2.8456941878
 20
21.9933337349
 10
-2.8912247962
 20
22.0131104659
 10
-2.9363370877
 20
22.0360705042
 10
-2.980399906
 20
22.0622833313
 10
-3.0228869443
 20
22.0917584109
  0
LWPOLYLINE
  5
51E
100
AcDbEntity
  8
RACCORDO
100
AcDbPolyline
 62
7
  6
CONTINUOUS
 90
7
 70
0
 10
-5.4804934017
 20
25.8699411676
 10
-5.5041084636
 20
25.8799135492
 10
-5.5298263058
 20
25.8869984521
 10
-5.556550506
 20
25.8906181486
 10
-5.5835520786
 20
25.8906057616
 10
-5.6103811039
 20
25.8869412648
 10
-5.6368461223
 20
25.8795527701
  0
LWPOLYLINE
  5
51F
100
AcDbEntity
  8
RACCORDO
100
AcDbPolyline
 62
250
  6
CONTINUOUS
 90
11
 70
0
 10
8.6044666072
 20
19.8907265089
 10
8.651271763
 20
19.8684999013
 10
8.711989941
 20
19.8433137453
 10
8.7697907472
 20
19.8235668737
 10
8.8242569538
 20
19.8091986577
 10
8.8749682533
 20
19.8001235243
 10
8.9219290084
 20
19.7960949213
 10
8.9653493664
 20
19.7967143246
 10
9.0051873429
 20
19.8017134646
 10
9.041151364
 20
19.8109663518
 10
9.0730970852
 20
19.8242709738
  0
LWPOLYLINE
  5
520
100
AcDbEntity
  8
ASSI
100
AcDbPolyline
 62
250
  6
CONTINUOUS
 90
11
 70
0
 10
8.6044666072
 20
19.8907265089
 10
8.651271763
 20
19.8684999013
 10
8.711989941
 20
19.8433137453
 10
8.7697907472
 20
19.8235668737
 10
8.8242569538
 20
19.8091986577
 10
8.8749682533
 20
19.8001235243
 10
8.9219290084
 20
19.7960949213
 10
8.9653493664
 20
19.7967143246
 10
9.0051873429
 20
19.8017134646
 10
9.041151364
 20
19.8109663518
 10
9.0730970852
 20
19.8242709738
  0
LINE
  5
521
100
AcDbEntity
  8
RACCORDO
100
AcDbLine
 62
7
  6
CONTINUOUS
 10
8.6039835595
 20
19.8909678982
 11
8.6044666072
 21
19.8907265089
  0
LINE
  5
522
100
AcDbEntity
  8
ASSI
100
AcDbLine
 62
7
  6
CONTINUOUS
 10
8.6038619069
 20
19.8910287283
 11
8.6044666072
 21
19.8907265089
  0
LINE
  5
523
100
AcDbEntity
  8
0
100
AcDbLine
 62
7
  6
CONTINUOUS
 10
-6.181631577
 20
25.8839548883
 11
-1.425144363
 21
23.5057112813
  0
LINE
  5
524
100
AcDbEntity
  8
ASSI
100
AcDbLine
 62
7
  6
CONTINUOUS
 10
-6.181631577
 20
25.8839548883
 11
-1.425144363
 21
23.5057112813
  0
LINE
  5
525
100
AcDbEntity
  8
RACCORDO
100
AcDbLine
 62
250
  6
CONTINUOUS
 10
-1.3054438969
 20
23.732014704
 11
-5.5699611932
 21
25.8642733522
  0
LINE
  5
526
100
AcDbEntity
  8
RACCORDO
100
AcDbLine
 62
7
  6
CONTINUOUS
 10
-1.2160011778
 20
23.7376950615
 11
-5.4805184741
 21
25.8699537096
  0
LINE
  5
527
100
AcDbEntity
  8
DRAFT
100
AcDbLine
 62
7
  6
CONTINUOUS
 10
14.9130398698
 20
15.9031746925
 11
12.5307786754
 21
17.0943052897
  0
LINE
  5
528
100
AcDbEntity
  8
0
100
AcDbLine
 62
7
  6
CONTINUOUS
 10
-3.3791239013
 20
25.111672671
 11
-0.7712142839
 21
23.8077178623
  0
LINE
  5
529
100
AcDbEntity
  8
ASSI
100
AcDbLine
 62
7
  6
CONTINUOUS
 10
-3.3791239013
 20
25.111672671
 11
-0.7712142839
 21
23.8077178623
  0
LINE
  5
52A
100
AcDbEntity
  8
0
100
AcDbLine
 62
7
  6
CONTINUOUS
 10
-4.9020841757
 20
26.6973607158
 11
-4.7226267855
 21
26.6076320207
  0
LINE
  5
52B
100
AcDbEntity
  8
ASSI
100
AcDbLine
 62
7
  6
CONTINUOUS
 10
-4.9020841757
 20
26.6973607158
 11
-4.7226267855
 21
26.6076320207
  0
LINE
  5
52C
100
AcDbEntity
  8
0
100
AcDbLine
 62
7
  6
CONTINUOUS
 10
0.0856993265
 20
24.2034689647
 11
0.2651567166
 21
24.1137402697
  0
LINE
  5
52D
100
AcDbEntity
  8
ASSI
100
AcDbLine
 62
7
  6
CONTINUOUS
 10
0.0856993265
 20
24.2034689647
 11
0.2651567166
 21
24.1137402697
  0
LINE
  5
52E
100
AcDbEntity
  8
DRAFT
100
AcDbLine
 62
7
  6
CONTINUOUS
 10
16.255940975
 20
16.1183481405
 11
15.8032180205
 21
16.3447096177
  0
LINE
  5
52F
100
AcDbEntity
  8
DRAFT
100
AcDbLine
 62
7
  6
CONTINUOUS
 10
11.3796596739
 20
18.556488791
 11
10.9269367194
 21
18.7828502683
  0
LINE
  5
530
100
AcDbEntity
  8
0
100
AcDbLine
 62
7
  6
CONTINUOUS
 10
-3.3791239013
 20
26.0018845222
 11
1.0049381421
 21
23.8098535005
  0
LINE
  5
531
100
AcDbEntity
  8
ASSI
100
AcDbLine
 62
7
  6
CONTINUOUS
 10
-3.3791239013
 20
26.0018845222
 11
1.0049381421
 21
23.8098535005
  0
LINE
  5
532
100
AcDbEntity
  8
0
100
AcDbLine
 62
7
  6
CONTINUOUS
 10
12.5307786754
 20
18.0469332339
 11
16.9148407188
 21
15.8549022122
  0
LINE
  5
533
100
AcDbEntity
  8
RACCORDO
100
AcDbLine
 62
250
  6
CONTINUOUS
 10
8.1376656357
 20
20.2919866985
 11
9.0730970852
 21
19.8242709738
  0
LINE
  5
534
100
AcDbEntity
  8
ASSI
100
AcDbLine
 62
250
  6
CONTINUOUS
 10
8.1376656357
 20
20.2919866985
 11
9.0730970852
 21
19.8242709738
  0
LINE
  5
535
100
AcDbEntity
  8
DRAFT
100
AcDbLine
 62
7
  6
CONTINUOUS
 10
11.0418238531
 20
18.9761120066
 11
12.7480478705
 21
18.122999998
  0
LINE
  5
536
100
AcDbEntity
  8
DRAFT
100
AcDbLine
 62
7
  6
CONTINUOUS
 10
17.8248830708
 20
15.5845823978
 11
20.6135130641
 21
14.1902674011
  0
LINE
  5
537
100
AcDbEntity
  8
0
100
AcDbLine
 62
7
  6
CONTINUOUS
 10
12.9466730679
 20
18.1925394282
 11
17.2060531075
 21
16.0628494084
  0
LINE
  5
538
100
AcDbEntity
  8
0
100
AcDbLine
 62
7
  6
CONTINUOUS
 10
-2.9177184216
 20
26.1597337653
 11
1.3206366282
 21
24.0405562404
  0
LINE
  5
539
100
AcDbEntity
  8
ASSI
100
AcDbLine
 62
7
  6
CONTINUOUS
 10
-2.9177184216
 20
26.1597337653
 11
1.3206366282
 21
24.0405562404
  0
LINE
  5
53A
100
AcDbEntity
  8
RACCORDO
100
AcDbLine
 62
250
  6
CONTINUOUS
 10
5.1935846547
 20
22.465926801
 11
2.3670517397
 21
23.8791932584
  0
LINE
  5
53B
100
AcDbEntity
  8
ASSI
100
AcDbLine
 62
250
  6
CONTINUOUS
 10
5.1935846547
 20
22.465926801
 11
2.3670517397
 21
23.8791932584
  0
LINE
  5
53C
100
AcDbEntity
  8
RACCORDO
100
AcDbLine
 62
250
  6
CONTINUOUS
 10
-2.1424248487
 20
26.1339315527
 11
-4.2148754265
 21
27.1701568416
  0
LINE
  5
53D
100
AcDbEntity
  8
ASSI
100
AcDbLine
 62
250
  6
CONTINUOUS
 10
-2.1424248487
 20
26.1339315527
 11
-4.2148754265
 21
27.1701568416
  0
LINE
  5
53E
100
AcDbEntity
  8
RACCORDO
100
AcDbLine
 62
7
  6
CONTINUOUS
 10
-1.8855255695
 20
26.125381798
 11
-3.9974328904
 21
27.1813354584
  0
LINE
  5
53F
100
AcDbEntity
  8
ASSI
100
AcDbLine
 62
7
  6
CONTINUOUS
 10
-1.8855255695
 20
26.125381798
 11
-3.9974328904
 21
27.1813354584
  0
LINE
  5
540
100
AcDbEntity
  8
0
100
AcDbLine
 62
7
  6
CONTINUOUS
 10
-1.6628581661
 20
26.1179712998
 11
2.179225224
 21
24.1969296047
  0
LINE
  5
541
100
AcDbEntity
  8
ASSI
100
AcDbLine
 62
7
  6
CONTINUOUS
 10
-1.6628581661
 20
26.1179712998
 11
2.179225224
 21
24.1969296047
  0
LINE
  5
542
100
AcDbEntity
  8
RACCORDO
100
AcDbLine
 62
7
  6
CONTINUOUS
 10
2.5440363002
 20
23.9106008632
 11
5.4112917144
 21
22.4769728829
  0
LINE
  5
543
100
AcDbEntity
  8
ASSI
100
AcDbLine
 62
7
  6
CONTINUOUS
 10
2.5440363002
 20
23.9106008632
 11
5.4114474332
 21
22.4768946184
  0
LWPOLYLINE
  5
544
100
AcDbEntity
  8
RACCORDO
100
AcDbPolyline
 62
7
  6
CONTINUOUS
 90
4
 70
0
 10
-1.2160980376
 20
23.737743404
 10
-1.2122901148
 20
23.7357908579
 10
-1.1911880045
 20
23.7229607459
 10
-1.1872436509
 20
23.7201437527
  0
LINE
  5
545
100
AcDbEntity
  8
ASSI
100
AcDbLine
 62
7
  6
CONTINUOUS
 10
8.6038609534
 20
19.8910310945
 11
8.5635319791
 21
19.9125999894
  0
LINE
  5
546
100
AcDbEntity
  8
RACCORDO
100
AcDbLine
 62
7
  6
CONTINUOUS
 10
5.4401252118
 20
22.4616085338
 11
5.4113345432
 21
22.4770565028
  0
LWPOLYLINE
  5
547
100
AcDbEntity
  8
RACCORDO
100
AcDbPolyline
 62
7
  6
CONTINUOUS
 90
15
 70
0
 10
8.6039826914
 20
19.8909702267
 10
8.5576107857
 20
19.9159960197
 10
8.5097726328
 20
19.9454936348
 10
8.4605749807
 20
19.9795138793
 10
8.4105875693
 20
20.017758615
 10
8.3602269435
 20
20.0599549249
 10
8.3087894656
 20
20.1068464057
 10
8.2565729837
 20
20.1584173175
 10
8.2039546249
 20
20.2145252051
 10
8.1503553126
 20
20.276112785
 10
8.0960394323
 20
20.3433511452
 10
8.0415450986
 20
20.4160622243
 10
7.9868407252
 20
20.4948406591
 10
7.9323083329
 20
20.5798263212
 10
7.8767710977
 20
20.6740102512
  0
LWPOLYLINE
  5
548
100
AcDbEntity
  8
0
100
AcDbPolyline
 62
7
  6
CONTINUOUS
 90
10
 70
0
 10
0.2651567166
 20
24.1137402697
 10
0.3115155737
 20
24.0886584818
 10
0.3572929484
 20
24.0602722325
 10
0.4024888406
 20
24.0285815219
 10
0.4472894999
 20
23.993424351
 10
0.4915086768
 20
23.9549627187
 10
0.5345876228
 20
23.9136826218
 10
0.5763400883
 20
23.8697460593
 10
0.616952323
 20
23.8229910322
 10
0.6564243268
 20
23.7734175406
  0
LWPOLYLINE
  5
549
100
AcDbEntity
  8
ASSI
100
AcDbPolyline
 62
7
  6
CONTINUOUS
 90
10
 70
0
 10
0.2651567166
 20
24.1137402697
 10
0.3115155737
 20
24.0886584818
 10
0.3572929484
 20
24.0602722325
 10
0.4024888406
 20
24.0285815219
 10
0.4472894999
 20
23.993424351
 10
0.4915086768
 20
23.9549627187
 10
0.5345876228
 20
23.9136826218
 10
0.5763400883
 20
23.8697460593
 10
0.616952323
 20
23.8229910322
 10
0.6564243268
 20
23.7734175406
  0
LWPOLYLINE
  5
54A
100
AcDbEntity
  8
RACCORDO
100
AcDbPolyline
 62
250
  6
CONTINUOUS
 90
10
 70
0
 10
5.1965662912
 20
22.4191615328
 10
5.2248527092
 20
22.4038128848
 10
5.2529194753
 20
22.3857987315
 10
5.2805888022
 20
22.3652331855
 10
5.3076854288
 20
22.3422465258
 10
5.3340377303
 20
22.3169843719
 10
5.3594788054
 20
22.2896067615
 10
5.3838475326
 20
22.2602871368
 10
5.4069895913
 20
22.2292112453
 10
5.4287584387
 20
22.1965759636
  0
LWPOLYLINE
  5
54B
100
AcDbEntity
  8
ASSI
100
AcDbPolyline
 62
250
  6
CONTINUOUS
 90
10
 70
0
 10
5.1965662912
 20
22.4191615328
 10
5.2248527092
 20
22.4038128848
 10
5.2529194753
 20
22.3857987315
 10
5.2805888022
 20
22.3652331855
 10
5.3076854288
 20
22.3422465258
 10
5.3340377303
 20
22.3169843719
 10
5.3594788054
 20
22.2896067615
 10
5.3838475326
 20
22.2602871368
 10
5.4069895913
 20
22.2292112453
 10
5.4287584387
 20
22.1965759636
  0
LWPOLYLINE
  5
54C
100
AcDbEntity
  8
RACCORDO
100
AcDbPolyline
 62
250
  6
CONTINUOUS
 90
10
 70
0
 10
9.0730970852
 20
19.8242709738
 10
9.1142559131
 20
19.8015652005
 10
9.1549631689
 20
19.7742051563
 10
9.1948403304
 20
19.7424452525
 10
9.2335165944
 20
19.7065808128
 10
9.2706323243
 20
19.6669453278
 10
9.3058423946
 20
19.6239073534
 10
9.3388193996
 20
19.5778670841
 10
9.3692566981
 20
19.5292526318
 10
9.3968712646
 20
19.4785160446
  0
LWPOLYLINE
  5
54D
100
AcDbEntity
  8
ASSI
100
AcDbPolyline
 62
250
  6
CONTINUOUS
 90
10
 70
0
 10
9.0730970852
 20
19.8242709738
 10
9.1142559131
 20
19.8015652005
 10
9.1549631689
 20
19.7742051563
 10
9.1948403304
 20
19.7424452525
 10
9.2335165944
 20
19.7065808128
 10
9.2706323243
 20
19.6669453278
 10
9.3058423946
 20
19.6239073534
 10
9.3388193996
 20
19.5778670841
 10
9.3692566981
 20
19.5292526318
 10
9.3968712646
 20
19.4785160446
  0
LWPOLYLINE
  5
54E
100
AcDbEntity
  8
ASSI
100
AcDbPolyline
 62
7
  6
CONTINUOUS
 90
3
 70
0
 10
5.452218841
 20
22.4544859173
 10
5.4158773595
 20
22.4747544084
 10
5.4114903523
 20
22.4769783469
  0
LWPOLYLINE
  5
54F
100
AcDbEntity
  8
DRAFT
100
AcDbPolyline
 62
7
  6
CONTINUOUS
 90
4
 70
0
 10
10.0639792185
 20
18.4966632883
 10
10.0843548951
 20
18.4852787311
 10
10.1046204297
 20
18.475365622
 10
10.1070264634
 20
18.4743579055
  0
LINE
  5
550
100
AcDbEntity
  8
RACCORDO
100
AcDbLine
 62
7
  6
CONTINUOUS
 10
5.4522479217
 20
22.4544682184
 11
5.4401252118
 21
22.4616085338
  0
LINE
  5
551
100
AcDbEntity
  8
ASSI
100
AcDbLine
 62
7
  6
CONTINUOUS
 10
5.7867024702
 20
22.2515497922
 11
5.4525006501
 21
22.4543153838
  0
LINE
  5
552
100
AcDbEntity
  8
RACCORDO
100
AcDbLine
 62
7
  6
CONTINUOUS
 10
5.4527853511
 20
22.4541414799
 11
5.4525321038
 21
22.4542962588
  0
LWPOLYLINE
  5
553
100
AcDbEntity
  8
ASSI
100
AcDbPolyline
 62
7
  6
CONTINUOUS
 90
6
 70
0
 10
7.0404027863
 20
21.4868511293
 10
6.7887966573
 20
21.6408450436
 10
6.5375999784
 20
21.7943250232
 10
6.2868376134
 20
21.9472771293
 10
6.0365312364
 20
22.0996893726
 10
5.7867024702
 20
22.2515497922
  0
LWPOLYLINE
  5
554
100
AcDbEntity
  8
RACCORDO
100
AcDbPolyline
 62
7
  6
CONTINUOUS
 90
9
 70
0
 10
7.4017544385
 20
21.2652403973
 10
7.2515741851
 20
21.3574012932
 10
7.0123261235
 20
21.5040483544
 10
6.7734257798
 20
21.6502441349
 10
6.5348962745
 20
21.795975542
 10
6.2967588765
 20
21.9412306555
 10
6.0590321421
 20
22.0859992123
 10
5.8217346059
 20
22.2302709569
 10
5.4528536777
 20
22.454074886
  0
LINE
  5
555
100
AcDbEntity
  8
ASSI
100
AcDbLine
 62
7
  6
CONTINUOUS
 10
7.4017481065
 20
21.2652302795
 11
7.0404027863
 21
21.4868511293
  0
LWPOLYLINE
  5
556
100
AcDbEntity
  8
ASSI
100
AcDbPolyline
 62
7
  6
CONTINUOUS
 90
13
 70
0
 10
8.5635319791
 20
19.9125999894
 10
8.5070597421
 20
19.9472738816
 10
8.4498459685
 20
19.9874137989
 10
8.3919617501
 20
20.032938099
 10
8.3329791056
 20
20.084315076
 10
8.2735467444
 20
20.1412100117
 10
8.2140216871
 20
20.2034627964
 10
8.1534163533
 20
20.2724710748
 10
8.0917619736
 20
20.3488627481
 10
8.0301733431
 20
20.4319416506
 10
7.9693908698
 20
20.5212943644
 10
7.9100656134
 20
20.6165524881
 10
7.8767705239
 20
20.6740112735
  0
LWPOLYLINE
  5
557
100
AcDbEntity
  8
RACCORDO
100
AcDbPolyline
 62
250
  6
CONTINUOUS
 90
6
 70
0
 10
5.4287576402
 20
22.1965750374
 10
5.7415663232
 20
22.0031598483
 10
6.0605655842
 20
21.8056369291
 10
6.3856312198
 20
21.6039641099
 10
6.7166348879
 20
21.3981022224
 10
7.053444047
 20
21.1880153276
  0
LWPOLYLINE
  5
558
100
AcDbEntity
  8
ASSI
100
AcDbPolyline
 62
250
  6
CONTINUOUS
 90
6
 70
0
 10
5.4287576402
 20
22.1965750374
 10
5.7415663232
 20
22.0031598483
 10
6.0605655842
 20
21.8056369291
 10
6.3856312198
 20
21.6039641099
 10
6.7166348879
 20
21.3981022224
 10
7.053444047
 20
21.1880153276
  0
LINE
  5
559
100
AcDbEntity
  8
RACCORDO
100
AcDbLine
 62
250
  6
CONTINUOUS
 10
7.053444047
 20
21.1880153276
 11
7.3959218997
 21
20.9736709483
  0
LINE
  5
55A
100
AcDbEntity
  8
ASSI
100
AcDbLine
 62
250
  6
CONTINUOUS
 10
7.053444047
 20
21.1880153276
 11
7.3959218997
 21
20.9736709483
  0
LWPOLYLINE
  5
55B
100
AcDbEntity
  8
RACCORDO
100
AcDbPolyline
 62
250
  6
CONTINUOUS
 90
10
 70
0
 10
7.8767673279
 20
20.6740122898
 10
7.8744740469
 20
20.675558825
 10
7.8662657584
 20
20.6754774971
 10
7.8525705862
 20
20.6722224982
 10
7.833535345
 20
20.6658287496
 10
7.8093640545
 20
20.6563647991
 10
7.7803157685
 20
20.6439320919
 10
7.746701784
 20
20.6286638772
 10
7.7088823
 20
20.6107237767
 10
7.6672625649
 20
20.5903040348
  0
LWPOLYLINE
  5
55C
100
AcDbEntity
  8
ASSI
100
AcDbPolyline
 62
250
  6
CONTINUOUS
 90
10
 70
0
 10
7.8767673279
 20
20.6740122898
 10
7.8744740469
 20
20.675558825
 10
7.8662657584
 20
20.6754774971
 10
7.8525705862
 20
20.6722224982
 10
7.833535345
 20
20.6658287496
 10
7.8093640545
 20
20.6563647991
 10
7.7803157685
 20
20.6439320919
 10
7.746701784
 20
20.6286638772
 10
7.7088823
 20
20.6107237767
 10
7.6672625649
 20
20.5903040348
  0
LWPOLYLINE
  5
55D
100
AcDbEntity
  8
RACCORDO
100
AcDbPolyline
 62
250
  6
CONTINUOUS
 90
10
 70
0
 10
7.3959218997
 20
20.9736709483
 10
7.4133407971
 20
20.9618964139
 10
7.4304415423
 20
20.9486667756
 10
7.4472229097
 20
20.9339811385
 10
7.4638276685
 20
20.9176893728
 10
7.480110212
 20
20.8999395415
 10
7.4956373977
 20
20.8811784757
 10
7.5102647021
 20
20.8615549752
 10
7.5241353813
 20
20.8409192337
 10
7.5372486915
 20
20.8192706712
  0
LWPOLYLINE
  5
55E
100
AcDbEntity
  8
ASSI
100
AcDbPolyline
 62
250
  6
CONTINUOUS
 90
10
 70
0
 10
7.3959218997
 20
20.9736709483
 10
7.4133407971
 20
20.9618964139
 10
7.4304415423
 20
20.9486667756
 10
7.4472229097
 20
20.9339811385
 10
7.4638276685
 20
20.9176893728
 10
7.480110212
 20
20.8999395415
 10
7.4956373977
 20
20.8811784757
 10
7.5102647021
 20
20.8615549752
 10
7.5241353813
 20
20.8409192337
 10
7.5372486915
 20
20.8192706712
  0
LINE
  5
55F
100
AcDbEntity
  8
RACCORDO
100
AcDbLine
 62
7
  6
CONTINUOUS
 10
7.4733007705
 20
21.2163970037
 11
7.4016807277
 21
21.2652855931
  0
LWPOLYLINE
  5
560
100
AcDbEntity
  8
ASSI
100
AcDbPolyline
 62
250
  6
CONTINUOUS
 90
10
 70
0
 10
7.4017557768
 20
21.2652395752
 10
7.4064622334
 20
21.2619996419
 10
7.42093451
 20
21.2459235018
 10
7.4310107447
 20
21.2233540285
 10
7.4365580039
 20
21.1945890474
 10
7.4375031154
 20
21.1600081517
 10
7.4338336333
 20
21.120067693
 10
7.4255980013
 20
21.0752947601
 10
7.4129049132
 20
21.0262802225
 10
7.3959218782
 20
20.9736709329
  0
LWPOLYLINE
  5
561
100
AcDbEntity
  8
SMUSSO
100
AcDbPolyline
 62
7
  6
CONTINUOUS
 90
32
 70
0
 10
-0.6116883953
 20
26.6881879096
 10
-0.5902596391
 20
26.6728449506
 10
-0.4799913316
 20
26.5994316316
 10
-0.3609898077
 20
26.5288648491
 10
-0.2344802858
 20
26.4618915596
 10
-0.1003712444
 20
26.3985555674
 10
0.0412457951
 20
26.3388130682
 10
0.18887105
 20
26.283279606
 10
0.3425123906
 20
26.2320167002
 10
0.5021619466
 20
26.1849628315
 10
0.666296324
 20
26.1425489853
 10
0.8349509687
 20
26.1048129307
 10
1.0080904347
 20
26.0717168988
 10
1.1840849905
 20
26.0435785684
 10
1.362975715
 20
26.0204380618
 10
1.5447215293
 20
26.0022552568
 10
1.7275694651
 20
25.989227465
 10
1.9116117099
 20
25.9814100389
 10
2.0967560764
 20
25.978747626
 10
2.2809730333
 20
25.9812714815
 10
2.4641769925
 20
25.9890404596
 10
2.6464535421
 20
26.0019957061
 10
2.826029916
 20
26.0199919131
 10
3.002884829
 20
26.0430779774
 10
3.1770395662
 20
26.0712050023
 10
3.3467852163
 20
26.1040809896
 10
3.5119912593
 20
26.1417129224
 10
3.6727882153
 20
26.1840938175
 10
3.8278587333
 20
26.2309107269
 10
3.9767636965
 20
26.2820593346
 10
4.1199422218
 20
26.3376439566
 10
4.2573943091
 20
26.397664593
  0
LWPOLYLINE
  5
562
100
AcDbEntity
  8
ASSI
100
AcDbPolyline
 62
7
  6
CONTINUOUS
 90
32
 70
0
 10
-0.611688363
 20
26.6881878862
 10
-0.5902596391
 20
26.6728449506
 10
-0.4799913316
 20
26.5994316316
 10
-0.3609898077
 20
26.5288648491
 10
-0.2344802858
 20
26.4618915596
 10
-0.1003712444
 20
26.3985555674
 10
0.0412457951
 20
26.3388130682
 10
0.18887105
 20
26.283279606
 10
0.3425123906
 20
26.2320167002
 10
0.5021619466
 20
26.1849628315
 10
0.666296324
 20
26.1425489853
 10
0.8349509687
 20
26.1048129307
 10
1.0080904347
 20
26.0717168988
 10
1.1840849905
 20
26.0435785684
 10
1.362975715
 20
26.0204380618
 10
1.5447215293
 20
26.0022552568
 10
1.7275694651
 20
25.989227465
 10
1.9116117099
 20
25.9814100389
 10
2.0967560764
 20
25.978747626
 10
2.2809730333
 20
25.9812714815
 10
2.4641769925
 20
25.9890404596
 10
2.6464535421
 20
26.0019957061
 10
2.826029916
 20
26.0199919131
 10
3.002884829
 20
26.0430779774
 10
3.1770395662
 20
26.0712050023
 10
3.3467852163
 20
26.1040809896
 10
3.5119912593
 20
26.1417129224
 10
3.6727882153
 20
26.1840938175
 10
3.8278587333
 20
26.2309107269
 10
3.9767636965
 20
26.2820593346
 10
4.1199422218
 20
26.3376439566
 10
4.2573943091
 20
26.397664593
  0
LWPOLYLINE
  5
563
100
AcDbEntity
  8
SMUSSO
100
AcDbPolyline
 62
7
  6
CONTINUOUS
 90
32
 70
0
 10
6.4260594862
 20
22.0935759188
 10
6.4474882424
 20
22.0782329598
 10
6.5577565499
 20
22.0048196408
 10
6.6767580738
 20
21.9342528583
 10
6.8032675957
 20
21.8672795688
 10
6.9373766372
 20
21.8039435766
 10
7.0789936767
 20
21.7442010774
 10
7.2266189315
 20
21.6886676152
 10
7.3802602722
 20
21.6374047095
 10
7.5399098281
 20
21.5903508407
 10
7.7040442055
 20
21.5479369945
 10
7.8726988502
 20
21.51020094
 10
8.0458383162
 20
21.477104908
 10
8.2218328721
 20
21.4489665776
 10
8.4007235966
 20
21.4258260711
 10
8.5824694108
 20
21.407643266
 10
8.7653173466
 20
21.3946154743
 10
8.9493595915
 20
21.3867980481
 10
9.1345039579
 20
21.3841356352
 10
9.3187209148
 20
21.3866594907
 10
9.501924874
 20
21.3944284688
 10
9.6842014236
 20
21.4073837153
 10
9.8637777975
 20
21.4253799223
 10
10.0406327105
 20
21.4484659867
 10
10.2147874477
 20
21.4765930116
 10
10.3845330978
 20
21.5094689988
 10
10.5497391408
 20
21.5471009316
 10
10.7105360968
 20
21.5894818267
 10
10.8656066149
 20
21.6362987361
 10
11.014511578
 20
21.6874473438
 10
11.1576901033
 20
21.7430319659
 10
11.2951421906
 20
21.8030526022
  0
LWPOLYLINE
  5
564
100
AcDbEntity
  8
ASSI
100
AcDbPolyline
 62
7
  6
CONTINUOUS
 90
32
 70
0
 10
6.4260595185
 20
22.0935758954
 10
6.4474882424
 20
22.0782329598
 10
6.5577565499
 20
22.0048196408
 10
6.6767580738
 20
21.9342528583
 10
6.8032675957
 20
21.8672795688
 10
6.9373766372
 20
21.8039435766
 10
7.0789936767
 20
21.7442010774
 10
7.2266189315
 20
21.6886676152
 10
7.3802602722
 20
21.6374047095
 10
7.5399098281
 20
21.5903508407
 10
7.7040442055
 20
21.5479369945
 10
7.8726988502
 20
21.51020094
 10
8.0458383162
 20
21.477104908
 10
8.2218328721
 20
21.4489665776
 10
8.4007235966
 20
21.4258260711
 10
8.5824694108
 20
21.407643266
 10
8.7653173466
 20
21.3946154743
 10
8.9493595915
 20
21.3867980481
 10
9.1345039579
 20
21.3841356352
 10
9.3187209148
 20
21.3866594907
 10
9.501924874
 20
21.3944284688
 10
9.6842014236
 20
21.4073837153
 10
9.8637777975
 20
21.4253799223
 10
10.0406327105
 20
21.4484659867
 10
10.2147874477
 20
21.4765930116
 10
10.3845330978
 20
21.5094689988
 10
10.5497391408
 20
21.5471009316
 10
10.7105360968
 20
21.5894818267
 10
10.8656066149
 20
21.6362987361
 10
11.014511578
 20
21.6874473438
 10
11.1576901033
 20
21.7430319659
 10
11.2951421906
 20
21.8030526022
  0
LWPOLYLINE
  5
565
100
AcDbEntity
  8
ASSI
100
AcDbPolyline
 62
250
  6
CONTINUOUS
 90
10
 70
0
 10
7.7478235326
 20
20.9010943494
 10
7.7454046333
 20
20.9028631324
 10
7.7369901396
 20
20.903146534
 10
7.7231108203
 20
20.9002172939
 10
7.7039153828
 20
20.894106797
 10
7.6796094927
 20
20.8848805129
 10
7.650453571
 20
20.872637295
 10
7.6167600031
 20
20.8575083207
 10
7.5788897923
 20
20.8396556866
 10
7.5372486915
 20
20.8192706712
  0
LWPOLYLINE
  5
566
100
AcDbEntity
  8
RACCORDO
100
AcDbPolyline
 62
250
  6
CONTINUOUS
 90
10
 70
0
 10
7.7478273314
 20
20.9010877236
 10
7.7454046333
 20
20.9028631324
 10
7.7369901396
 20
20.903146534
 10
7.7231108203
 20
20.9002172939
 10
7.7039153828
 20
20.894106797
 10
7.6796094927
 20
20.8848805129
 10
7.650453571
 20
20.872637295
 10
7.6167600031
 20
20.8575083207
 10
7.5788897923
 20
20.8396556866
 10
7.5372486915
 20
20.8192706712
  0
LWPOLYLINE
  5
567
100
AcDbEntity
  8
ASSI
100
AcDbPolyline
 62
7
  6
CONTINUOUS
 90
3
 70
0
 10
7.5159252249
 20
21.1823071613
 10
7.4317948117
 20
21.2459434332
 10
7.4017557768
 20
21.2652395752
  0
LWPOLYLINE
  5
568
100
AcDbEntity
  8
ASSI
100
AcDbPolyline
 62
250
  6
CONTINUOUS
 90
14
 70
0
 10
8.3689609919
 20
19.7327850807
 10
8.4597923738
 20
19.6637572127
 10
8.5504184599
 20
19.6031122075
 10
8.6407336668
 20
19.5509295567
 10
8.729267475
 20
19.5073343024
 10
8.8160872539
 20
19.4725630995
 10
8.9011989395
 20
19.4464199808
 10
8.983038897
 20
19.4283789757
 10
9.061344179
 20
19.4186901016
 10
9.1364280482
 20
19.4171283372
 10
9.207584032
 20
19.4224506042
 10
9.2745834575
 20
19.4342452797
 10
9.3376772514
 20
19.4529331809
 10
9.3968712646
 20
19.4785160446
  0
LINE
  5
569
100
AcDbEntity
  8
RACCORDO
100
AcDbLine
 62
7
  6
CONTINUOUS
 10
2.179225224
 20
24.1969296047
 11
2.5454959771
 21
23.9124804149
  0
LINE
  5
56A
100
AcDbEntity
  8
ASSI
100
AcDbLine
 62
7
  6
CONTINUOUS
 10
2.179225224
 20
24.1969296047
 11
2.5549294715
 21
23.9051542775
  0
LINE
  5
56B
100
AcDbEntity
  8
RACCORDO
100
AcDbLine
 62
7
  6
CONTINUOUS
 10
7.5391912821
 20
21.1619344704
 11
7.4733007705
 21
21.2163970037
  0
LINE
  5
56C
100
AcDbEntity
  8
0
100
AcDbLine
 62
7
  6
CONTINUOUS
 10
8.4011372322
 20
21.5876275255
 11
8.5971607524
 21
21.4065965179
  0
LINE
  5
56D
100
AcDbEntity
  8
ASSI
100
AcDbLine
 62
7
  6
CONTINUOUS
 10
7.5939435189
 20
21.1084646286
 11
7.5159252249
 21
21.1823071613
  0
LINE
  5
56E
100
AcDbEntity
  8
ASSI
100
AcDbLine
 62
7
  6
CONTINUOUS
 10
6.6237805897
 20
21.9797985333
 11
6.6607046189
 21
21.9437724058
  0
LINE
  5
56F
100
AcDbEntity
  8
RACCORDO
100
AcDbLine
 62
7
  6
CONTINUOUS
 10
7.601326768
 20
21.1006108322
 11
7.5391912821
 21
21.1619344704
  0
LWPOLYLINE
  5
570
100
AcDbEntity
  8
DRAFT
100
AcDbPolyline
 62
7
  6
CONTINUOUS
 90
10
 70
0
 10
16.7509071974
 20
15.4692714193
 10
16.6964013725
 20
15.5420475821
 10
16.6417724786
 20
15.6146602211
 10
16.5870205155
 20
15.6871093362
 10
16.5321448653
 20
15.759395738
 10
16.4771461459
 20
15.8315186159
 10
16.4220262118
 20
15.9034755382
 10
16.366785681
 20
15.9752656945
 10
16.3114239354
 20
16.0468898953
 10
16.255940975
 20
16.1183481405
  0
LWPOLYLINE
  5
571
100
AcDbEntity
  8
DRAFT
100
AcDbPolyline
 62
7
  6
CONTINUOUS
 90
10
 70
0
 10
18.4145500611
 20
13.0774205305
 10
18.2748239817
 20
13.2920236613
 10
18.134029764
 20
13.505539173
 10
17.9921674078
 20
13.7179670654
 10
17.8492244645
 20
13.929325515
 10
17.7052133828
 20
14.1395963453
 10
17.5601715085
 20
14.3487250278
 10
17.4141112903
 20
14.5566933863
 10
17.2670202794
 20
14.7635195969
 10
17.1188984759
 20
14.9692036596
  0
LINE
  5
572
100
AcDbEntity
  8
RACCORDO
100
AcDbLine
 62
7
  6
CONTINUOUS
 10
11.3187843125
 20
25.5502584308
 11
11.3250614339
 21
25.5394296551
  0
LINE
  5
573
100
AcDbEntity
  8
ASSI
100
AcDbLine
 62
7
  6
CONTINUOUS
 10
11.3187843125
 20
25.5502584308
 11
11.3250614339
 21
25.5394296551
  0
LWPOLYLINE
  5
574
100
AcDbEntity
  8
RACCORDO
100
AcDbPolyline
 62
7
  6
CONTINUOUS
 90
10
 70
0
 10
21.0871386911
 20
8.3382807205
 10
20.8550446383
 20
8.8077943063
 10
20.6177057673
 20
9.2743187079
 10
20.3751220782
 20
9.7378539254
 10
20.1271989662
 20
10.1985740378
 10
19.874031036
 20
10.656304966
 10
19.6159021017
 20
11.1105244731
 10
19.352906768
 20
11.5610584801
 10
19.0849504302
 20
12.008081066
 10
18.8120330883
 20
12.4515922308
  0
LWPOLYLINE
  5
575
100
AcDbEntity
  8
RACCORDO
100
AcDbPolyline
 62
7
  6
CONTINUOUS
 90
13
 70
0
 10
21.0871386911
 20
8.3382807205
 10
21.1342074638
 20
8.2373160502
 10
21.1774968012
 20
8.1355486489
 10
21.2170067034
 20
8.0329785167
 10
21.2528600077
 20
7.9292325916
 10
21.2849338767
 20
7.8246839355
 10
21.3128597981
 20
7.7204517344
 10
21.3365748479
 20
7.6165424557
 10
21.3561419501
 20
7.512949632
 10
21.3713813644
 20
7.410773046
 10
21.3822331773
 20
7.3103792919
 10
21.3887573022
 20
7.2114017754
 10
21.3909537393
 20
7.1138404967
  0
LINE
  5
576
100
AcDbEntity
  8
RACCORDO
100
AcDbLine
 62
7
  6
CONTINUOUS
 10
17.102422583
 20
21.84847979
 11
17.0553487604
 21
22.0001564302
  0
LINE
  5
577
100
AcDbEntity
  8
ASSI
100
AcDbLine
 62
7
  6
CONTINUOUS
 10
17.1425341921
 20
21.6854582437
 11
17.1010602878
 21
21.8533397403
  0
LWPOLYLINE
  5
578
100
AcDbEntity
  8
RACCORDO
100
AcDbPolyline
 62
7
  6
CONTINUOUS
 90
3
 70
0
 10
17.1688243317
 20
21.5419346555
 10
17.140382171
 20
21.6954774769
 10
17.102422583
 20
21.84847979
  0
LINE
  5
579
100
AcDbEntity
  8
ASSI
100
AcDbLine
 62
7
  6
CONTINUOUS
 10
17.1725028321
 20
21.5171078344
 11
17.1425341921
 21
21.6854582437
  0
LWPOLYLINE
  5
57A
100
AcDbEntity
  8
0
100
AcDbPolyline
 62
7
  6
CONTINUOUS
 90
25
 70
0
 10
18.0394069847
 20
-22.9968497847
 10
18.0495520731
 20
-22.9711418209
 10
18.0599683581
 20
-22.9452940103
 10
18.0704739438
 20
-22.9193433747
 10
18.080837569
 20
-22.8933637854
 10
18.0909914147
 20
-22.8673821124
 10
18.1010537386
 20
-22.8413488184
 10
18.1109708411
 20
-22.8153121891
 10
18.1206494718
 20
-22.789287901
 10
18.1301931029
 20
-22.7631401948
 10
18.1395702701
 20
-22.7368923686
 10
18.1487268747
 20
-22.7105623351
 10
18.1577475964
 20
-22.6839809902
 10
18.1666236719
 20
-22.6571106235
 10
18.1753030686
 20
-22.6300123826
 10
18.1838084397
 20
-22.6026511538
 10
18.1921229179
 20
-22.5750133637
 10
18.2002130038
 20
-22.5471318927
 10
18.2080763712
 20
-22.5190360138
 10
18.2156850789
 20
-22.4907612351
 10
18.2230248382
 20
-22.4622918154
 10
18.2301113387
 20
-22.4335760146
 10
18.2369341853
 20
-22.4046006915
 10
18.2434608345
 20
-22.3753946955
 10
18.2496717575
 20
-22.3459670404
  0
LINE
  5
57B
100
AcDbEntity
  8
0
100
AcDbLine
 62
7
  6
CONTINUOUS
 10
2.179225224
 20
24.1969296047
 11
1.3206366282
 21
24.0405562404
  0
LINE
  5
57C
100
AcDbEntity
  8
ASSI
100
AcDbLine
 62
7
  6
CONTINUOUS
 10
2.179225224
 20
24.1969296047
 11
1.3206366282
 21
24.0405562404
  0
LWPOLYLINE
  5
57D
100
AcDbEntity
  8
0
100
AcDbPolyline
 62
7
  6
CONTINUOUS
 90
13
 70
0
 10
-9.3478495965
 20
24.8006179734
 10
-9.380018891
 20
24.8043787917
 10
-9.4114799262
 20
24.8065701491
 10
-9.4421123731
 20
24.8073143139
 10
-9.4718851832
 20
24.80678163
 10
-9.5006161833
 20
24.8050724332
 10
-9.5279733614
 20
24.8022159506
 10
-9.5537747442
 20
24.7983655077
 10
-9.5780602531
 20
24.7936690378
 10
-9.6008257281
 20
24.7881346244
 10
-9.6220150829
 20
24.7818522194
 10
-9.641546287
 20
24.7750096415
 10
-9.6593665409
 20
24.767752445
  0
LWPOLYLINE
  5
57E
100
AcDbEntity
  8
0
100
AcDbPolyline
 62
250
  6
CONTINUOUS
 90
13
 70
0
 10
-8.6723021452
 20
24.9164666762
 10
-8.6882830626
 20
24.919146974
 10
-8.7023601593
 20
24.9223525959
 10
-8.7146089861
 20
24.9260065245
 10
-8.7251075954
 20
24.9300288258
 10
-8.7339549702
 20
24.9343652114
 10
-8.7412608754
 20
24.9389884306
 10
-8.7471179876
 20
24.9438572089
 10
-8.7516227088
 20
24.9489190193
 10
-8.7548792641
 20
24.9541403655
 10
-8.756978582
 20
24.9594927444
 10
-8.7580127478
 20
24.964943185
 10
-8.7581606911
 20
24.9680310199
  0
LWPOLYLINE
  5
57F
100
AcDbEntity
  8
ASSI
100
AcDbPolyline
 62
250
  6
CONTINUOUS
 90
13
 70
0
 10
-8.6723021452
 20
24.9164666762
 10
-8.6882830626
 20
24.919146974
 10
-8.7023601593
 20
24.9223525959
 10
-8.7146089861
 20
24.9260065245
 10
-8.7251075954
 20
24.9300288258
 10
-8.7339549702
 20
24.9343652114
 10
-8.7412608754
 20
24.9389884306
 10
-8.7471179876
 20
24.9438572089
 10
-8.7516227088
 20
24.9489190193
 10
-8.7548792641
 20
24.9541403655
 10
-8.756978582
 20
24.9594927444
 10
-8.7580127478
 20
24.964943185
 10
-8.7581603662
 20
24.9678799018
  0
LWPOLYLINE
  5
580
100
AcDbEntity
  8
0
100
AcDbPolyline
 62
7
  6
CONTINUOUS
 90
5
 70
0
 10
10.754503433
 20
22.077333232
 10
10.7773752074
 20
22.0728235033
 10
10.9227008888
 20
22.0402844738
 10
11.0648959595
 20
22.0044540771
 10
11.2039797387
 20
21.9653526244
  0
LWPOLYLINE
  5
581
100
AcDbEntity
  8
RACCORDO
100
AcDbPolyline
 62
7
  6
CONTINUOUS
 90
8
 70
0
 10
10.6816525301
 20
22.2821468782
 10
10.6714093767
 20
22.2843579903
 10
10.6605509063
 20
22.28526211
 10
10.6491538319
 20
22.284891579
 10
10.6375753554
 20
22.2832572587
 10
10.6259345441
 20
22.28036277
 10
10.6141123307
 20
22.2762044921
 10
10.6021087152
 20
22.2707824251
  0
LINE
  5
582
100
AcDbEntity
  8
0
100
AcDbLine
 62
7
  6
CONTINUOUS
 10
9.4195088382
 20
21.693429096
 11
8.8961119791
 21
21.835114899
  0
LWPOLYLINE
  5
583
100
AcDbEntity
  8
RACCORDO
100
AcDbPolyline
 62
250
  6
CONTINUOUS
 90
8
 70
0
 10
-5.4888452356
 20
25.8735075462
 10
-5.4992505151
 20
25.8764236105
 10
-5.5101939454
 20
25.8779290087
 10
-5.5215922407
 20
25.8780122839
 10
-5.5333586528
 20
25.8766728023
 10
-5.5454036324
 20
25.8739207582
 10
-5.5576355098
 20
25.8697770962
 10
-5.5699611932
 20
25.8642733522
  0
LWPOLYLINE
  5
584
100
AcDbEntity
  8
RACCORDO
100
AcDbPolyline
 62
7
  6
CONTINUOUS
 90
20
 70
0
 10
10.6840962259
 20
22.2814037824
 10
10.5877918585
 20
22.3106910781
 10
10.4729639573
 20
22.3416919065
 10
10.3553698555
 20
22.3693615115
 10
10.2353464994
 20
22.3936552816
 10
10.1132217198
 20
22.4145374433
 10
9.9893227482
 20
22.4319781436
 10
9.8640183784
 20
22.4459490333
 10
9.7376304798
 20
22.4564350712
 10
9.6104267181
 20
22.4634280138
 10
9.4827509069
 20
22.466917213
 10
9.3549546698
 20
22.4668992091
 10
9.2273195211
 20
22.4633755613
 10
9.1001937516
 20
22.45635267
 10
8.9739226748
 20
22.4458443129
 10
8.848780237
 20
22.4318627788
 10
8.72510964
 20
22.4144305009
 10
8.6032512204
 20
22.3935769267
 10
8.4834659963
 20
22.369321753
 10
8.3660828403
 20
22.3416992594
  0
LWPOLYLINE
  5
585
100
AcDbEntity
  8
RACCORDO
100
AcDbPolyline
 62
7
  6
CONTINUOUS
 90
10
 70
0
 10
-4.0695010972
 20
27.2117953222
 10
-4.1136531879
 20
27.2254686
 10
-4.1563315463
 20
27.2353395493
 10
-4.1985766047
 20
27.2418619632
 10
-4.2408164241
 20
27.2451748753
 10
-4.2827375575
 20
27.245675985
 10
-4.3252724946
 20
27.2435713462
 10
-4.3682211324
 20
27.2386318225
 10
-4.4112718749
 20
27.2303708733
 10
-4.4557219466
 20
27.2181035044
  0
LINE
  5
586
100
AcDbEntity
  8
0
100
AcDbLine
 62
7
  6
CONTINUOUS
 10
11.2039797387
 20
21.9653526244
 11
11.3304782338
 21
21.9259078522
  0
LINE
  5
587
100
AcDbEntity
  8
0
100
AcDbLine
 62
7
  6
CONTINUOUS
 10
11.4538597938
 20
21.8836761144
 11
11.4629401744
 21
21.8805472718
  0
LINE
  5
588
100
AcDbEntity
  8
RACCORDO
100
AcDbLine
 62
7
  6
CONTINUOUS
 10
-4.0243441874
 20
27.1940354227
 11
-4.0695010972
 21
27.2117953222
  0
LWPOLYLINE
  5
589
100
AcDbEntity
  8
ASSI
100
AcDbPolyline
 62
7
  6
CONTINUOUS
 90
3
 70
0
 10
-3.9971871757
 20
27.181317287
 10
-4.0471659463
 20
27.2035073556
 10
-4.1094087673
 20
27.2243079512
  0
LWPOLYLINE
  5
58A
100
AcDbEntity
  8
RACCORDO
100
AcDbPolyline
 62
250
  6
CONTINUOUS
 90
9
 70
0
 10
-4.3103840014
 20
27.1726366717
 10
-4.3383363499
 20
27.1854018081
 10
-4.3661507174
 20
27.1953239882
 10
-4.3936509107
 20
27.2023403588
 10
-4.4206627268
 20
27.2064064738
 10
-4.4470150563
 20
27.207496576
 10
-4.4725409673
 20
27.2056037601
 10
-4.4970787628
 20
27.2007400163
 10
-4.5204730057
 20
27.1929361545
  0
LWPOLYLINE
  5
58B
100
AcDbEntity
  8
ASSI
100
AcDbPolyline
 62
250
  6
CONTINUOUS
 90
10
 70
0
 10
-4.3103840014
 20
27.1726366717
 10
-4.3383363499
 20
27.1854018081
 10
-4.3661507174
 20
27.1953239882
 10
-4.3936509107
 20
27.2023403588
 10
-4.4206627268
 20
27.2064064738
 10
-4.4470150563
 20
27.207496576
 10
-4.4725409673
 20
27.2056037601
 10
-4.4970787628
 20
27.2007400163
 10
-4.5204730057
 20
27.1929361545
 10
-4.5297909982
 20
27.188854542
  0
LWPOLYLINE
  5
58C
100
AcDbEntity
  8
RACCORDO
100
AcDbPolyline
 62
250
  6
CONTINUOUS
 90
13
 70
0
 10
-4.2148754265
 20
27.1701568416
 10
-4.2223836815
 20
27.1735882961
 10
-4.2300809729
 20
27.1764532217
 10
-4.2379673008
 20
27.1787516184
 10
-4.2461072032
 20
27.1805008012
 10
-4.254436142
 20
27.181683455
 10
-4.2627605032
 20
27.1822476346
 10
-4.2710838713
 20
27.1821724763
 10
-4.2794026617
 20
27.1814788438
 10
-4.2875125067
 20
27.1801773826
 10
-4.2953452837
 20
27.178271641
 10
-4.3029691152
 20
27.1757580708
 10
-4.3103840014
 20
27.1726366717
  0
LWPOLYLINE
  5
58D
100
AcDbEntity
  8
ASSI
100
AcDbPolyline
 62
250
  6
CONTINUOUS
 90
13
 70
0
 10
-4.2148754265
 20
27.1701568416
 10
-4.2223836815
 20
27.1735882961
 10
-4.2300809729
 20
27.1764532217
 10
-4.2379673008
 20
27.1787516184
 10
-4.2461072032
 20
27.1805008012
 10
-4.254436142
 20
27.181683455
 10
-4.2627605032
 20
27.1822476346
 10
-4.2710838713
 20
27.1821724763
 10
-4.2794026617
 20
27.1814788438
 10
-4.2875125067
 20
27.1801773826
 10
-4.2953452837
 20
27.178271641
 10
-4.3029691152
 20
27.1757580708
 10
-4.3103840014
 20
27.1726366717
  0
LINE
  5
58E
100
AcDbEntity
  8
RACCORDO
100
AcDbLine
 62
7
  6
CONTINUOUS
 10
-3.9972436795
 20
27.1813455564
 11
-4.0243441874
 21
27.1940354227
  0
LINE
  5
58F
100
AcDbEntity
  8
0
100
AcDbLine
 62
7
  6
CONTINUOUS
 10
8.4011372322
 20
21.5876275255
 11
7.6941682921
 21
21.9411119956
  0
LINE
  5
590
100
AcDbEntity
  8
0
100
AcDbLine
 62
7
  6
CONTINUOUS
 10
8.8961119791
 20
21.835114899
 11
8.1891430389
 21
22.188599369
  0
LINE
  5
591
100
AcDbEntity
  8
0
100
AcDbLine
 62
7
  6
CONTINUOUS
 10
0.9766538708
 20
26.4111948251
 11
1.683622811
 21
26.0577103551
  0
LINE
  5
592
100
AcDbEntity
  8
DRAFT
100
AcDbLine
 62
7
  6
CONTINUOUS
 10
21.3524246524
 20
13.7423099298
 11
21.591089834
 21
13.5683856622
  0
LINE
  5
593
100
AcDbEntity
  8
DRAFT
100
AcDbLine
 62
7
  6
CONTINUOUS
 10
17.8248830708
 20
15.5845823978
 11
17.2060531075
 21
16.0628494084
  0
LINE
  5
594
100
AcDbEntity
  8
RACCORDO
100
AcDbLine
 62
7
  6
CONTINUOUS
 10
11.4596046526
 20
21.8790068173
 11
11.4148080442
 21
21.9154165327
  0
LINE
  5
595
100
AcDbEntity
  8
RACCORDO
100
AcDbLine
 62
250
  6
CONTINUOUS
 10
11.30977647
 20
21.9175095213
 11
11.3564583775
 21
21.8788567094
  0
LINE
  5
596
100
AcDbEntity
  8
RACCORDO
100
AcDbLine
 62
250
  6
CONTINUOUS
 10
11.3564583775
 20
21.8788567094
 11
11.3905961957
 21
21.847136425
  0
LWPOLYLINE
  5
597
100
AcDbEntity
  8
RACCORDO
100
AcDbPolyline
 62
250
  6
CONTINUOUS
 90
3
 70
0
 10
14.2464571585
 20
23.2154209543
 10
14.2609359499
 20
23.1932997064
 10
14.2717661842
 20
23.1777562044
  0
LWPOLYLINE
  5
598
100
AcDbEntity
  8
ASSI
100
AcDbPolyline
 62
250
  6
CONTINUOUS
 90
3
 70
0
 10
14.2464571585
 20
23.2154209543
 10
14.2609359499
 20
23.1932997064
 10
14.2717661842
 20
23.1777562044
  0
LINE
  5
599
100
AcDbEntity
  8
ASSI
100
AcDbLine
 62
7
  6
CONTINUOUS
 10
14.3655736896
 20
23.2210796191
 11
14.3328209154
 21
23.2716300017
  0
LINE
  5
59A
100
AcDbEntity
  8
ASSI
100
AcDbLine
 62
7
  6
CONTINUOUS
 10
14.1898068871
 20
23.4943699424
 11
14.3328209154
 21
23.2716300017
  0
LWPOLYLINE
  5
59B
100
AcDbEntity
  8
ASSI
100
AcDbPolyline
 62
250
  6
CONTINUOUS
 90
3
 70
0
 10
14.1405535107
 20
23.3851688852
 10
14.1884262442
 20
23.3102752685
 10
14.2464571585
 20
23.2154209543
  0
LINE
  5
59C
100
AcDbEntity
  8
RACCORDO
100
AcDbLine
 62
7
  6
CONTINUOUS
 10
14.3651558743
 20
23.2208866581
 11
14.3328209154
 21
23.2716300017
  0
LWPOLYLINE
  5
59D
100
AcDbEntity
  8
RACCORDO
100
AcDbPolyline
 62
250
  6
CONTINUOUS
 90
7
 70
0
 10
16.7467320568
 20
22.2576115434
 10
16.6939849993
 20
22.3645731376
 10
16.6409601964
 20
22.4713855459
 10
16.5876587255
 20
22.5780468245
 10
16.5340816691
 20
22.6845550336
 10
16.4802301139
 20
22.7909082373
 10
16.4261051513
 20
22.8971045035
  0
LWPOLYLINE
  5
59E
100
AcDbEntity
  8
ASSI
100
AcDbPolyline
 62
250
  6
CONTINUOUS
 90
7
 70
0
 10
16.7467320568
 20
22.2576115434
 10
16.6939849993
 20
22.3645731376
 10
16.6409601964
 20
22.4713855459
 10
16.5876587255
 20
22.5780468245
 10
16.5340816691
 20
22.6845550336
 10
16.4802301139
 20
22.7909082373
 10
16.4261051513
 20
22.8971045035
  0
LWPOLYLINE
  5
59F
100
AcDbEntity
  8
RACCORDO
100
AcDbPolyline
 62
7
  6
CONTINUOUS
 90
10
 70
0
 10
16.9129968988
 20
22.3431575033
 10
16.8781192846
 20
22.4139616972
 10
16.8431165284
 20
22.4847053687
 10
16.8079889139
 20
22.555387945
 10
16.7727367274
 20
22.62600885
 10
16.7373602526
 20
22.6965675157
 10
16.7018597702
 20
22.7670633818
 10
16.6662355658
 20
22.8374958812
 10
16.6304879294
 20
22.9078644399
 10
16.594617261
 20
22.9781682719
  0
LWPOLYLINE
  5
5A0
100
AcDbEntity
  8
ASSI
100
AcDbPolyline
 62
7
  6
CONTINUOUS
 90
10
 70
0
 10
16.9129968988
 20
22.3431575033
 10
16.8781192846
 20
22.4139616972
 10
16.8431165284
 20
22.4847053687
 10
16.8079889139
 20
22.555387945
 10
16.7727367274
 20
22.62600885
 10
16.7373602526
 20
22.6965675157
 10
16.7018597702
 20
22.7670633818
 10
16.6662355658
 20
22.8374958812
 10
16.6304879294
 20
22.9078644399
 10
16.594617261
 20
22.9781682719
  0
LINE
  5
5A1
100
AcDbEntity
  8
ASSI
100
AcDbLine
 62
250
  6
CONTINUOUS
 10
16.794577079
 20
22.1561496395
 11
16.7467253294
 21
22.2576083295
  0
LINE
  5
5A2
100
AcDbEntity
  8
ASSI
100
AcDbLine
 62
7
  6
CONTINUOUS
 10
16.9860498095
 20
22.1825199631
 11
16.9129900216
 21
22.3431560073
  0
LWPOLYLINE
  5
5A3
100
AcDbEntity
  8
RACCORDO
100
AcDbPolyline
 62
7
  6
CONTINUOUS
 90
3
 70
0
 10
16.9995663745
 20
22.1497094308
 10
16.9354637982
 20
22.2963900505
 10
16.9129903058
 20
22.3431554749
  0
LINE
  5
5A4
100
AcDbEntity
  8
ASSI
100
AcDbLine
 62
7
  6
CONTINUOUS
 10
17.0486948235
 20
22.0194112594
 11
16.9860498095
 21
22.1825199631
  0
LINE
  5
5A5
100
AcDbEntity
  8
RACCORDO
100
AcDbLine
 62
7
  6
CONTINUOUS
 10
17.0553487604
 20
22.0001564302
 11
16.9995663745
 21
22.1497094308
  0
LINE
  5
5A6
100
AcDbEntity
  8
ASSI
100
AcDbLine
 62
7
  6
CONTINUOUS
 10
17.1010602878
 20
21.8533397403
 11
17.0486948235
 21
22.0194112594
  0
LWPOLYLINE
  5
5A7
100
AcDbEntity
  8
0
100
AcDbPolyline
 62
7
  6
CONTINUOUS
 90
10
 70
0
 10
18.0394069847
 20
-22.9968497847
 10
18.0220025219
 20
-23.0382619258
 10
18.0033630098
 20
-23.0782679132
 10
17.9834884484
 20
-23.1168677467
 10
17.9623551468
 20
-23.1540984151
 10
17.939986796
 20
-23.1899229296
 10
17.9164544684
 20
-23.2242303243
 10
17.8917818551
 20
-23.2569836105
 10
17.8659452651
 20
-23.2882197768
 10
17.8389446983
 20
-23.3179388234
  0
LINE
  5
5A8
100
AcDbEntity
  8
RACCORDO
100
AcDbLine
 62
250
  6
CONTINUOUS
 10
16.4962962232
 20
-23.137681678
 11
14.7277988106
 21
-23.8891721873
  0
LWPOLYLINE
  5
5A9
100
AcDbEntity
  8
RACCORDO
100
AcDbPolyline
 62
7
  6
CONTINUOUS
 90
9
 70
0
 10
1.1535936722
 20
26.5642947155
 10
1.0389507328
 20
26.5333482061
 10
0.9273068776
 20
26.4991033927
 10
0.8189529137
 20
26.4615939571
 10
0.7142431923
 20
26.4208803073
 10
0.6134970818
 20
26.3770191694
 10
0.5169170335
 20
26.3300145556
 10
0.4249065138
 20
26.2799668016
 10
0.3449281793
 20
26.2313046895
  0
LINE
  5
5AA
100
AcDbEntity
  8
RACCORDO
100
AcDbLine
 62
250
  6
CONTINUOUS
 10
1.1348090964
 20
26.5257525461
 11
1.2347922034
 21
26.551546077
  0
LWPOLYLINE
  5
5AB
100
AcDbEntity
  8
0
100
AcDbPolyline
 62
7
  6
CONTINUOUS
 90
10
 70
0
 10
-5.2933517858
 20
26.7483055968
 10
-5.253879782
 20
26.7584070847
 10
-5.2132675473
 20
26.7645498771
 10
-5.1715150818
 20
26.7667339741
 10
-5.1284361358
 20
26.764935125
 10
-5.0842169589
 20
26.7591775804
 10
-5.0394162996
 20
26.749534092
 10
-4.9942204074
 20
26.7360289104
 10
-4.9484430327
 20
26.718637785
 10
-4.9020841757
 20
26.6973607158
  0
LWPOLYLINE
  5
5AC
100
AcDbEntity
  8
ASSI
100
AcDbPolyline
 62
7
  6
CONTINUOUS
 90
10
 70
0
 10
-5.2933517858
 20
26.7483055968
 10
-5.253879782
 20
26.7584070847
 10
-5.2132675473
 20
26.7645498771
 10
-5.1715150818
 20
26.7667339741
 10
-5.1284361358
 20
26.764935125
 10
-5.0842169589
 20
26.7591775804
 10
-5.0394162996
 20
26.749534092
 10
-4.9942204074
 20
26.7360289104
 10
-4.9484430327
 20
26.718637785
 10
-4.9020841757
 20
26.6973607158
  0
LWPOLYLINE
  5
5AD
100
AcDbEntity
  8
0
100
AcDbPolyline
 62
250
  6
CONTINUOUS
 90
33
 70
0
 10
-8.5840019409
 20
25.1561673904
 10
-8.5935983803
 20
25.1538533172
 10
-8.6021454381
 20
25.1519377812
 10
-8.6096438871
 20
25.15042263
 10
-8.6160367891
 20
25.1493385761
 10
-8.621382524
 20
25.1486583442
 10
-8.6258547914
 20
25.1482966776
 10
-8.629454428
 20
25.1482528194
 10
-8.6321818419
 20
25.1485304781
 10
-8.6342100069
 20
25.1490508928
 10
-8.6355445328
 20
25.1498113523
 10
-8.6361807823
 20
25.1508168643
 10
-8.636276232
 20
25.1519999475
 10
-8.6358418829
 20
25.1533549661
 10
-8.6348674426
 20
25.1548892237
 10
-8.6334783148
 20
25.1565543361
 10
-8.6316902116
 20
25.1583432923
 10
-8.6294878956
 20
25.160264218
 10
-8.6269502322
 20
25.162291166
 10
-8.6240930564
 20
25.1644176992
 10
-8.620900839
 20
25.1666509718
 10
-8.6174053211
 20
25.1689852396
 10
-8.6136214452
 20
25.1714146992
 10
-8.6095344668
 20
25.1739456176
 10
-8.6051315506
 20
25.1765902503
 10
-8.600426896
 20
25.1793433707
 10
-8.5954064357
 20
25.1822105142
 10
-8.590014914
 20
25.1852200306
 10
-8.5842664164
 20
25.188367056
 10
-8.5781469481
 20
25.1916566662
 10
-8.5715591267
 20
25.1951321057
 10
-8.564470512
 20
25.1988078373
 10
-8.5569136007
 20
25.2026695301
  0
LWPOLYLINE
  5
5AE
100
AcDbEntity
  8
ASSI
100
AcDbPolyline
 62
250
  6
CONTINUOUS
 90
33
 70
0
 10
-8.5840019409
 20
25.1561673904
 10
-8.5935983803
 20
25.1538533172
 10
-8.6021454381
 20
25.1519377812
 10
-8.6096438871
 20
25.15042263
 10
-8.6160367891
 20
25.1493385761
 10
-8.621382524
 20
25.1486583442
 10
-8.6258547914
 20
25.1482966776
 10
-8.629454428
 20
25.1482528194
 10
-8.6321818419
 20
25.1485304781
 10
-8.6342100069
 20
25.1490508928
 10
-8.6355445328
 20
25.1498113523
 10
-8.6361807823
 20
25.1508168643
 10
-8.636276232
 20
25.1519999475
 10
-8.6358418829
 20
25.1533549661
 10
-8.6348674426
 20
25.1548892237
 10
-8.6334783148
 20
25.1565543361
 10
-8.6316902116
 20
25.1583432923
 10
-8.6294878956
 20
25.160264218
 10
-8.6269502322
 20
25.162291166
 10
-8.6240930564
 20
25.1644176992
 10
-8.620900839
 20
25.1666509718
 10
-8.6174053211
 20
25.1689852396
 10
-8.6136214452
 20
25.1714146992
 10
-8.6095344668
 20
25.1739456176
 10
-8.6051315506
 20
25.1765902503
 10
-8.600426896
 20
25.1793433707
 10
-8.5954064357
 20
25.1822105142
 10
-8.590014914
 20
25.1852200306
 10
-8.5842664164
 20
25.188367056
 10
-8.5781469481
 20
25.1916566662
 10
-8.5715591267
 20
25.1951321057
 10
-8.564470512
 20
25.1988078373
 10
-8.5569136007
 20
25.2026695301
  0
LINE
  5
5AF
100
AcDbEntity
  8
RACCORDO
100
AcDbLine
 62
7
  6
CONTINUOUS
 10
1.2709768281
 20
26.5919172091
 11
1.1535936722
 21
26.5642947155
  0
LINE
  5
5B0
100
AcDbEntity
  8
RACCORDO
100
AcDbLine
 62
250
  6
CONTINUOUS
 10
1.2347922034
 20
26.551546077
 11
1.3375106312
 21
26.5748518472
  0
LINE
  5
5B1
100
AcDbEntity
  8
ASSI
100
AcDbLine
 62
250
  6
CONTINUOUS
 10
-8.5767323201
 20
25.1578139306
 11
-8.5840031542
 21
25.1561668029
  0
LWPOLYLINE
  5
5B2
100
AcDbEntity
  8
0
100
AcDbPolyline
 62
7
  6
CONTINUOUS
 90
7
 70
0
 10
-7.9918538624
 20
25.4461414237
 10
-7.9798136664
 20
25.4486605995
 10
-7.9674290775
 20
25.4494680779
 10
-7.9547000958
 20
25.4485638591
 10
-7.9416267212
 20
25.4459479429
 10
-7.9282089538
 20
25.4416203294
 10
-7.9144467935
 20
25.4355810186
  0
LWPOLYLINE
  5
5B3
100
AcDbEntity
  8
ASSI
100
AcDbPolyline
 62
7
  6
CONTINUOUS
 90
7
 70
0
 10
-7.9918538624
 20
25.4461414237
 10
-7.9798136664
 20
25.4486605995
 10
-7.9674290775
 20
25.4494680779
 10
-7.9547000958
 20
25.4485638591
 10
-7.9416267212
 20
25.4459479429
 10
-7.9282089538
 20
25.4416203294
 10
-7.9144467935
 20
25.4355810186
  0
LWPOLYLINE
  5
5B4
100
AcDbEntity
  8
RACCORDO
100
AcDbPolyline
 62
250
  6
CONTINUOUS
 90
20
 70
0
 10
1.3375106312
 20
26.5748518472
 10
1.442180495
 20
26.5954909746
 10
1.5488176836
 20
26.6134429396
 10
1.6574063083
 20
26.6287282619
 10
1.7671148178
 20
26.641229618
 10
1.8779507086
 20
26.6509253897
 10
1.9899064843
 20
26.6578371953
 10
2.1021281053
 20
26.6619125666
 10
2.214616929
 20
26.6631298566
 10
2.3273715981
 20
26.6615107122
 10
2.439534001
 20
26.657067606
 10
2.5510999118
 20
26.6497790406
 10
2.6620735565
 20
26.6396665133
 10
2.7716095015
 20
26.6268069879
 10
2.8796979769
 20
26.6111798208
 10
2.9863487526
 20
26.5928056555
 10
3.0907457044
 20
26.5718233867
 10
3.1926167909
 20
26.5482793126
 10
3.2922340535
 20
26.5221271349
 10
3.3895974923
 20
26.4933668538
  0
LWPOLYLINE
  5
5B5
100
AcDbEntity
  8
ASSI
100
AcDbPolyline
 62
7
  6
CONTINUOUS
 90
3
 70
0
 10
-4.3258187233
 20
27.2435267219
 10
-4.3707044114
 20
27.238250358
 10
-4.4173133208
 20
27.2289290642
  0
LINE
  5
5B6
100
AcDbEntity
  8
0
100
AcDbLine
 62
7
  6
CONTINUOUS
 10
-1.6628581661
 20
26.1179712998
 11
-2.9177184216
 21
26.1597337653
  0
LINE
  5
5B7
100
AcDbEntity
  8
ASSI
100
AcDbLine
 62
7
  6
CONTINUOUS
 10
-1.6628581661
 20
26.1179712998
 11
-2.9177184216
 21
26.1597337653
  0
LWPOLYLINE
  5
5B8
100
AcDbEntity
  8
0
100
AcDbPolyline
 62
7
  6
CONTINUOUS
 90
4
 70
0
 10
3.5420142649
 20
26.2999286882
 10
3.5648860393
 20
26.2954189594
 10
3.7102117207
 20
26.2628799299
 10
3.8317622137
 20
26.2322515659
  0
LWPOLYLINE
  5
5B9
100
AcDbEntity
  8
ASSI
100
AcDbPolyline
 62
7
  6
CONTINUOUS
 90
5
 70
0
 10
-4.1094087673
 20
27.2243079512
 10
-4.1684358802
 20
27.2375408251
 10
-4.2242339939
 20
27.2442344897
 10
-4.2775518483
 20
27.2457536793
 10
-4.3258187233
 20
27.2435267219
  0
LINE
  5
5BA
100
AcDbEntity
  8
0
100
AcDbLine
 62
7
  6
CONTINUOUS
 10
1.9685034675
 20
25.9805919241
 11
1.683622811
 21
26.0577103551
  0
LWPOLYLINE
  5
5BB
100
AcDbEntity
  8
RACCORDO
100
AcDbPolyline
 62
7
  6
CONTINUOUS
 90
19
 70
0
 10
3.4716052704
 20
26.5039950829
 10
3.3753026904
 20
26.5332865342
 10
3.2604747892
 20
26.5642873626
 10
3.1428806874
 20
26.5919569676
 10
3.0228573313
 20
26.6162507377
 10
2.9007325517
 20
26.6371328994
 10
2.7768335801
 20
26.6545735997
 10
2.6515292103
 20
26.6685444894
 10
2.5251413117
 20
26.6790305273
 10
2.39793755
 20
26.6860234699
 10
2.2702617388
 20
26.6895126692
 10
2.1424655017
 20
26.6894946652
 10
2.014830353
 20
26.6859710175
 10
1.8877045834
 20
26.6789481261
 10
1.7614335067
 20
26.668439769
 10
1.6362910689
 20
26.6544582349
 10
1.5126204719
 20
26.637025957
 10
1.3907620523
 20
26.6161723828
 10
1.2709768281
 20
26.5919172091
  0
LWPOLYLINE
  5
5BC
100
AcDbEntity
  8
RACCORDO
100
AcDbPolyline
 62
7
  6
CONTINUOUS
 90
9
 70
0
 10
3.4716070578
 20
26.5039992385
 10
3.469163362
 20
26.5047423343
 10
3.4589202086
 20
26.5069534464
 10
3.4480617382
 20
26.5078575662
 10
3.4366646638
 20
26.5074870351
 10
3.4250861873
 20
26.5058527149
 10
3.413445376
 20
26.5029582261
 10
3.4016231626
 20
26.4987999482
 10
3.3896195471
 20
26.4933778812
  0
LINE
  5
5BD
100
AcDbEntity
  8
DRAFT
100
AcDbLine
 62
7
  6
CONTINUOUS
 10
14.2243711439
 20
23.1558676041
 11
11.3250614339
 21
24.6055224591
  0
LINE
  5
5BE
100
AcDbEntity
  8
ASSI
100
AcDbLine
 62
7
  6
CONTINUOUS
 10
14.2243711439
 20
23.1558676041
 11
11.3250614339
 21
24.6055224591
  0
LINE
  5
5BF
100
AcDbEntity
  8
DRAFT
100
AcDbLine
 62
7
  6
CONTINUOUS
 10
6.7885108336
 20
27.5666180823
 11
4.2545752236
 21
28.8335858873
  0
LINE
  5
5C0
100
AcDbEntity
  8
ASSI
100
AcDbLine
 62
7
  6
CONTINUOUS
 10
6.7885108336
 20
27.5666180823
 11
4.2545752236
 21
28.8335858873
  0
LWPOLYLINE
  5
5C1
100
AcDbEntity
  8
RACCORDO
100
AcDbPolyline
 62
250
  6
CONTINUOUS
 90
8
 70
0
 10
14.3328209154
 20
23.2716300017
 10
14.330200789
 20
23.2732913448
 10
14.3231783224
 20
23.2732747344
 10
14.3121911923
 20
23.2707728454
 10
14.2974150841
 20
23.2658256833
 10
14.2790862692
 20
23.2585123538
 10
14.2574978272
 20
23.2489497976
 10
14.2329949595
 20
23.237290921
  0
LWPOLYLINE
  5
5C2
100
AcDbEntity
  8
ASSI
100
AcDbPolyline
 62
250
  6
CONTINUOUS
 90
8
 70
0
 10
14.3328209154
 20
23.2716300017
 10
14.330200789
 20
23.2732913448
 10
14.3231783224
 20
23.2732747344
 10
14.3121911923
 20
23.2707728454
 10
14.2974150841
 20
23.2658256833
 10
14.2790862692
 20
23.2585123538
 10
14.2574978272
 20
23.2489497976
 10
14.2329949595
 20
23.237290921
  0
LINE
  5
5C3
100
AcDbEntity
  8
RACCORDO
100
AcDbLine
 62
7
  6
CONTINUOUS
 10
16.9053831666
 20
22.4574429791
 11
17.0412078395
 21
22.3182342208
  0
LINE
  5
5C4
100
AcDbEntity
  8
ASSI
100
AcDbLine
 62
7
  6
CONTINUOUS
 10
16.9053831666
 20
22.4574429791
 11
17.0741864872
 21
22.2819645852
  0
LINE
  5
5C5
100
AcDbEntity
  8
RACCORDO
100
AcDbLine
 62
250
  6
CONTINUOUS
 10
16.9342838074
 20
22.2963375095
 11
16.9414434699
 21
22.2887989643
  0
LWPOLYLINE
  5
5C6
100
AcDbEntity
  8
ASSI
100
AcDbPolyline
 62
250
  6
CONTINUOUS
 90
3
 70
0
 10
16.9342838074
 20
22.2963375095
 10
16.9414434699
 20
22.2887989643
 10
17.0484577241
 20
22.165645797
  0
LWPOLYLINE
  5
5C7
100
AcDbEntity
  8
RACCORDO
100
AcDbPolyline
 62
7
  6
CONTINUOUS
 90
15
 70
0
 10
17.0412078395
 20
22.3182342208
 10
17.1710980422
 20
22.1693224771
 10
17.2943846582
 20
22.0116737295
 10
17.4104170438
 20
21.8463104276
 10
17.5186648028
 20
21.6741549549
 10
17.6186358637
 20
21.4961044311
 10
17.7097977898
 20
21.3131769574
 10
17.7916583426
 20
21.1263975806
 10
17.8638020914
 20
20.9366877851
 10
17.9258064485
 20
20.7450405062
 10
17.9772515791
 20
20.5525546976
 10
18.0177776721
 20
20.3602742165
 10
18.047064444
 20
20.1692175265
 10
18.0648206196
 20
19.9804224963
 10
18.0707899924
 20
19.7949355777
  0
LINE
  5
5C8
100
AcDbEntity
  8
RACCORDO
100
AcDbLine
 62
250
  6
CONTINUOUS
 10
16.9414434699
 20
22.2887989643
 11
17.0484577241
 21
22.165645797
  0
LWPOLYLINE
  5
5C9
100
AcDbEntity
  8
ASSI
100
AcDbPolyline
 62
7
  6
CONTINUOUS
 90
11
 70
0
 10
17.0741864872
 20
22.2819645852
 10
17.2335241166
 20
22.0916349127
 10
17.382095782
 20
21.8883573028
 10
17.5186596111
 20
21.6741636652
 10
17.6422237309
 20
21.4508839669
 10
17.7518813015
 20
21.2202927266
 10
17.8466899715
 20
20.9843649996
 10
17.9257655918
 20
20.7451787361
 10
17.9883718921
 20
20.5046384388
 10
18.0338187177
 20
20.2646988164
 10
18.061469903
 20
20.0274432808
  0
LINE
  5
5CA
100
AcDbEntity
  8
ASSI
100
AcDbLine
 62
7
  6
CONTINUOUS
 10
16.53942223
 20
23.0677220188
 11
16.4921448798
 21
23.1250309874
  0
LWPOLYLINE
  5
5CB
100
AcDbEntity
  8
ASSI
100
AcDbPolyline
 62
250
  6
CONTINUOUS
 90
7
 70
0
 10
16.3348165969
 20
23.0431654595
 10
16.2995311029
 20
23.0863806763
 10
16.2623435177
 20
23.1261766003
 10
16.2235867097
 20
23.1621926139
 10
16.1836180906
 20
23.1941125023
 10
16.1427995672
 20
23.2216204219
 10
16.1015110986
 20
23.2444361266
  0
LWPOLYLINE
  5
5CC
100
AcDbEntity
  8
RACCORDO
100
AcDbPolyline
 62
250
  6
CONTINUOUS
 90
26
 70
0
 10
17.0484577241
 20
22.165645797
 10
17.1498232295
 20
22.0384519751
 10
17.2452427521
 20
21.9081849789
 10
17.3346854214
 20
21.7754954287
 10
17.4166380611
 20
21.6435138589
 10
17.4909638335
 20
21.5137227799
 10
17.5582954578
 20
21.3863000173
 10
17.6186409009
 20
21.2625343433
 10
17.6721594968
 20
21.1435658098
 10
17.7195412713
 20
21.0293535136
 10
17.7615965884
 20
20.9192785921
 10
17.798684724
 20
20.8136444735
 10
17.8311655215
 20
20.7127121086
 10
17.8596856138
 20
20.6156766465
 10
17.8845292617
 20
20.5226918611
 10
17.9059808162
 20
20.4338758214
 10
17.9245262611
 20
20.3483175258
 10
17.9403711942
 20
20.2660829736
 10
17.9537175632
 20
20.1872296349
 10
17.9648964591
 20
20.1108260884
 10
17.974035923
 20
20.0369339515
 10
17.9812700048
 20
19.9655557596
 10
17.9867969437
 20
19.8956948474
 10
17.9906914162
 20
19.8270523209
 10
17.9929831911
 20
19.7600004483
 10
17.99373344
 20
19.6945659868
  0
LWPOLYLINE
  5
5CD
100
AcDbEntity
  8
ASSI
100
AcDbPolyline
 62
250
  6
CONTINUOUS
 90
22
 70
0
 10
17.0484577241
 20
22.165645797
 10
17.1498232295
 20
22.0384519751
 10
17.2452427521
 20
21.9081849789
 10
17.3346854214
 20
21.7754954287
 10
17.4166380611
 20
21.6435138589
 10
17.4909638335
 20
21.5137227799
 10
17.5582954578
 20
21.3863000173
 10
17.6186409009
 20
21.2625343433
 10
17.6721594968
 20
21.1435658098
 10
17.7195412713
 20
21.0293535136
 10
17.7615965884
 20
20.9192785921
 10
17.798684724
 20
20.8136444735
 10
17.8311655215
 20
20.7127121086
 10
17.8596856138
 20
20.6156766465
 10
17.8845292617
 20
20.5226918611
 10
17.9059808162
 20
20.4338758214
 10
17.9245262611
 20
20.3483175258
 10
17.9403711942
 20
20.2660829736
 10
17.9537175632
 20
20.1872296349
 10
17.9648964591
 20
20.1108260884
 10
17.974035923
 20
20.0369339515
 10
17.9812700048
 20
19.9655557596
  0
LWPOLYLINE
  5
5CE
100
AcDbEntity
  8
RACCORDO
100
AcDbPolyline
 62
7
  6
CONTINUOUS
 90
3
 70
0
 10
16.5647258773
 20
23.0305901977
 10
16.5324674688
 20
23.0770366989
 10
16.4956980361
 20
23.1211678807
  0
LINE
  5
5CF
100
AcDbEntity
  8
ASSI
100
AcDbLine
 62
7
  6
CONTINUOUS
 10
16.5785924899
 20
23.0076341375
 11
16.53942223
 21
23.0677220188
  0
LINE
  5
5D0
100
AcDbEntity
  8
RACCORDO
100
AcDbLine
 62
7
  6
CONTINUOUS
 10
16.5946065599
 20
22.9781633647
 11
16.5647258773
 21
23.0305901977
  0
LINE
  5
5D1
100
AcDbEntity
  8
ASSI
100
AcDbLine
 62
7
  6
CONTINUOUS
 10
16.5946072065
 20
22.9781621045
 11
16.5785924899
 21
23.0076341375
  0
LWPOLYLINE
  5
5D2
100
AcDbEntity
  8
RACCORDO
100
AcDbPolyline
 62
250
  6
CONTINUOUS
 90
10
 70
0
 10
16.4260897909
 20
22.8970963706
 10
16.3984054452
 20
22.9480887743
 10
16.3678815079
 20
22.9969324784
 10
16.3348165969
 20
23.0431654595
 10
16.2995311029
 20
23.0863806763
 10
16.2623435177
 20
23.1261766003
 10
16.2235867097
 20
23.1621926139
 10
16.1836180906
 20
23.1941125023
 10
16.1427995672
 20
23.2216204219
 10
16.1015110986
 20
23.2444361266
  0
LWPOLYLINE
  5
5D3
100
AcDbEntity
  8
ASSI
100
AcDbPolyline
 62
250
  6
CONTINUOUS
 90
4
 70
0
 10
16.4260897909
 20
22.8970963706
 10
16.3984054452
 20
22.9480887743
 10
16.3678815079
 20
22.9969324784
 10
16.3348165969
 20
23.0431654595
  0
LINE
  5
5D4
100
AcDbEntity
  8
DRAFT
100
AcDbLine
 62
7
  6
CONTINUOUS
 10
21.3524246524
 20
-22.0133150294
 11
21.591089834
 21
-21.5922457314
  0
LWPOLYLINE
  5
5D5
100
AcDbEntity
  8
RACCORDO
100
AcDbPolyline
 62
250
  6
CONTINUOUS
 90
13
 70
0
 10
17.0959299504
 20
-23.4802205174
 10
17.1312511556
 20
-23.435194034
 10
17.1629268576
 20
-23.3861471284
 10
17.1909570565
 20
-23.3330798007
 10
17.2154252686
 20
-23.2757916382
 10
17.2362479776
 20
-23.2144830535
 10
17.2531746341
 20
-23.1497552843
 10
17.2661519492
 20
-23.0815556816
 10
17.2752332118
 20
-23.0099368943
 10
17.2803277394
 20
-22.9356581068
 10
17.2814053043
 20
-22.8589723805
 10
17.2784961341
 20
-22.7796266539
 10
17.2716002288
 20
-22.697620927
  0
LWPOLYLINE
  5
5D6
100
AcDbEntity
  8
RACCORDO
100
AcDbPolyline
 62
250
  6
CONTINUOUS
 90
13
 70
0
 10
17.3447454802
 20
-23.5530320513
 10
17.3846349592
 20
-23.502751599
 10
17.4207229539
 20
-23.4476876631
 10
17.4528727855
 20
-23.3880169904
 10
17.4809336066
 20
-23.3239449256
 10
17.5048167004
 20
-23.2556643129
 10
17.5244946898
 20
-23.1833536271
 10
17.5398743985
 20
-23.1072439988
 10
17.5508787423
 20
-23.0275810261
 10
17.5575219698
 20
-22.944582542
 10
17.5597776399
 20
-22.8585032993
 10
17.5575789294
 20
-22.7696342545
 10
17.5508991258
 20
-22.6782629061
  0
LWPOLYLINE
  5
5D7
100
AcDbEntity
  8
0
100
AcDbPolyline
 62
7
  6
CONTINUOUS
 90
3
 70
0
 10
17.1377995761
 20
-23.9941387161
 10
17.493876659
 20
-23.6650918911
 10
17.8389446983
 20
-23.3179388234
  0
LWPOLYLINE
  5
5D8
100
AcDbEntity
  8
RACCORDO
100
AcDbPolyline
 62
250
  6
CONTINUOUS
 90
7
 70
0
 10
15.1548073411
 20
-25.1484911693
 10
15.5087258995
 20
-24.9150067315
 10
15.8510920805
 20
-24.6632699883
 10
16.1810783314
 20
-24.3938646266
 10
16.4984088012
 20
-24.1069852087
 10
16.8033593409
 20
-23.8024371723
 10
17.0959299504
 20
-23.4802205174
  0
LWPOLYLINE
  5
5D9
100
AcDbEntity
  8
RACCORDO
100
AcDbPolyline
 62
7
  6
CONTINUOUS
 90
7
 70
0
 10
15.3875824031
 20
-25.234277828
 10
15.7444595231
 20
-24.9989347547
 10
16.0893678471
 20
-24.7454064852
 10
16.4221345184
 20
-24.4738310323
 10
16.7425027138
 20
-24.184405083
 10
17.0501344395
 20
-23.8773885845
 10
17.3447454802
 20
-23.5530320513
  0
LWPOLYLINE
  5
5DA
100
AcDbEntity
  8
0
100
AcDbPolyline
 62
7
  6
CONTINUOUS
 90
5
 70
0
 10
15.6034008085
 20
-25.1292635885
 10
16.0029058379
 20
-24.8730672346
 10
16.3923141656
 20
-24.5981263879
 10
16.7707134496
 20
-24.3050792984
 10
17.1377995761
 20
-23.9941387161
  0
LWPOLYLINE
  5
5DB
100
AcDbEntity
  8
RACCORDO
100
AcDbPolyline
 62
7
  6
CONTINUOUS
 90
10
 70
0
 10
18.8120330883
 20
-23.3532498039
 10
19.0849504302
 20
-23.1826559809
 10
19.352906768
 20
-23.0035897328
 10
19.6159021017
 20
-22.8160510595
 10
19.874031036
 20
-22.6199604867
 10
20.1271989662
 20
-22.4153974887
 10
20.3751220782
 20
-22.2026004883
 10
20.6177057673
 20
-21.98164896
 10
20.8550446383
 20
-21.7524634293
 10
21.0871386911
 20
-21.5150438963
  0
LINE
  5
5DC
100
AcDbEntity
  8
0
100
AcDbLine
 62
7
  6
CONTINUOUS
 10
15.1941031911
 20
-25.3665026995
 11
15.6034008085
 21
-25.1292635885
  0
LINE
  5
5DD
100
AcDbEntity
  8
DRAFT
100
AcDbLine
 62
7
  6
CONTINUOUS
 10
20.6135130641
 20
-22.4209457271
 11
18.6472523327
 21
-23.4587709362
  0
LINE
  5
5DE
100
AcDbEntity
  8
DRAFT
100
AcDbLine
 62
7
  6
CONTINUOUS
 10
21.3524246524
 20
-22.0133150294
 11
18.8120330883
 21
-23.3532498039
  0
LINE
  5
5DF
100
AcDbEntity
  8
RACCORDO
100
AcDbLine
 62
250
  6
CONTINUOUS
 10
18.6472523327
 20
-22.0357069862
 11
21.3909537393
 21
-20.5944187204
  0
LINE
  5
5E0
100
AcDbEntity
  8
RACCORDO
100
AcDbLine
 62
250
  6
CONTINUOUS
 10
18.6472523327
 20
-22.7963568365
 11
21.0871386907
 21
-21.5150438967
  0
LWPOLYLINE
  5
5E1
100
AcDbEntity
  8
RACCORDO
100
AcDbPolyline
 62
250
  6
CONTINUOUS
 90
3
 70
0
 10
14.6200010294
 20
-25.4521212147
 10
14.7896122561
 20
-25.3635287396
 10
15.1548073411
 20
-25.1484911693
  0
LWPOLYLINE
  5
5E2
100
AcDbEntity
  8
RACCORDO
100
AcDbPolyline
 62
7
  6
CONTINUOUS
 90
3
 70
0
 10
14.6390991489
 20
-25.6496824818
 10
15.0190060734
 20
-25.4512619446
 10
15.3875824031
 20
-25.234277828
  0
LINE
  5
5E3
100
AcDbEntity
  8
DRAFT
100
AcDbLine
 62
7
  6
CONTINUOUS
 10
21.591089834
 20
-21.3928996239
 11
20.8255564273
 21
-21.780938627
  0
LWPOLYLINE
  5
5E4
100
AcDbEntity
  8
0
100
AcDbPolyline
 62
7
  6
CONTINUOUS
 90
3
 70
0
 10
14.6216000702
 20
-25.6589037038
 10
14.7747088719
 20
-25.5849973177
 10
15.1941031911
 20
-25.3665026995
  0
LINE
  5
5E5
100
AcDbEntity
  8
RACCORDO
100
AcDbLine
 62
7
  6
CONTINUOUS
 10
14.6052508144
 20
-25.6659830777
 11
14.6390991489
 21
-25.6496824818
  0
LINE
  5
5E6
100
AcDbEntity
  8
0
100
AcDbLine
 62
250
  6
CONTINUOUS
 10
17.3447454802
 20
-23.5530320513
 11
17.8389446983
 21
-23.3179388234
  0
LINE
  5
5E7
100
AcDbEntity
  8
0
100
AcDbLine
 62
250
  6
CONTINUOUS
 10
17.5508991258
 20
-22.6782629061
 11
18.2496717575
 21
-22.3459670404
  0
LINE
  5
5E8
100
AcDbEntity
  8
DRAFT
100
AcDbLine
 62
7
  6
CONTINUOUS
 10
14.6211928452
 20
-25.6591340412
 11
14.6052018516
 21
-25.666692984
  0
LINE
  5
5E9
100
AcDbEntity
  8
RACCORDO
100
AcDbLine
 62
7
  6
CONTINUOUS
 10
16.3285820726
 20
-23.5537962642
 11
14.703296298
 21
-24.2444316171
  0
LINE
  5
5EA
100
AcDbEntity
  8
RACCORDO
100
AcDbLine
 62
7
  6
CONTINUOUS
 10
3.3728484286
 20
30.6434308886
 11
3.3218542043
 21
30.6307306589
  0
LWPOLYLINE
  5
5EB
100
AcDbEntity
  8
RACCORDO
100
AcDbPolyline
 62
7
  6
CONTINUOUS
 90
10
 70
0
 10
5.4250006186
 20
28.2483731898
 10
5.4394179894
 20
28.2468332868
 10
5.5801986398
 20
28.218744109
 10
5.7225720723
 20
28.1773490422
 10
5.8660809618
 20
28.1226460346
 10
6.0100132747
 20
28.054747575
 10
6.1525515177
 20
27.9745087516
 10
6.2928877076
 20
27.8825522517
 10
6.4306873023
 20
27.7792347549
 10
6.5276827982
 20
27.6970321
  0
LWPOLYLINE
  5
5EC
100
AcDbEntity
  8
ASSI
100
AcDbPolyline
 62
7
  6
CONTINUOUS
 90
8
 70
0
 10
5.4295197353
 20
28.2461136315
 10
5.4747782686
 20
28.2409988177
 10
5.6685889701
 20
28.1945627436
 10
5.8656354393
 20
28.1228358679
 10
6.0637567463
 20
28.0260261382
 10
6.2584697977
 20
27.9063196648
 10
6.4475765038
 20
27.7656504358
 10
6.5229958865
 20
27.6993755558
  0
LWPOLYLINE
  5
5ED
100
AcDbEntity
  8
ASSI
100
AcDbPolyline
 62
250
  6
CONTINUOUS
 90
5
 70
0
 10
8.5458052286
 20
28.1792472164
 10
8.5133186352
 20
28.1839695533
 10
8.4792329765
 20
28.1836518796
 10
8.4439208495
 20
28.1782992182
 10
8.407758687
 20
28.1679701254
  0
LWPOLYLINE
  5
5EE
100
AcDbEntity
  8
RACCORDO
100
AcDbPolyline
 62
250
  6
CONTINUOUS
 90
9
 70
0
 10
5.5395314554
 20
28.1911077714
 10
5.5590467203
 20
28.1859866888
 10
5.6728256763
 20
28.1473201737
 10
5.7832160318
 20
28.1016187987
 10
5.8892899486
 20
28.0502035145
 10
5.9911927722
 20
27.993902594
 10
6.0881620028
 20
27.9339994677
 10
6.1795868871
 20
27.8717856827
 10
6.1825157149
 20
27.8696156416
  0
LWPOLYLINE
  5
5EF
100
AcDbEntity
  8
ASSI
100
AcDbPolyline
 62
250
  6
CONTINUOUS
 90
9
 70
0
 10
5.5395314554
 20
28.1911077714
 10
5.5590467203
 20
28.1859866888
 10
5.6728256763
 20
28.1473201737
 10
5.7832160318
 20
28.1016187987
 10
5.8892899486
 20
28.0502035145
 10
5.9911927722
 20
27.993902594
 10
6.0881620028
 20
27.9339994677
 10
6.1795868871
 20
27.8717856827
 10
6.1825157149
 20
27.8696156416
  0
LWPOLYLINE
  5
5F0
100
AcDbEntity
  8
RACCORDO
100
AcDbPolyline
 62
250
  6
CONTINUOUS
 90
6
 70
0
 10
3.7229410935
 20
30.5966618339
 10
3.6851941956
 20
30.6094133254
 10
3.6444299374
 20
30.6144239543
 10
3.6013304146
 20
30.6116098792
 10
3.5566167982
 20
30.601018187
 10
3.5110372672
 20
30.5828261055
  0
LWPOLYLINE
  5
5F1
100
AcDbEntity
  8
ASSI
100
AcDbPolyline
 62
250
  6
CONTINUOUS
 90
6
 70
0
 10
3.7263394693
 20
30.5950580209
 10
3.6851941956
 20
30.6094133254
 10
3.6444299374
 20
30.6144239543
 10
3.6013304146
 20
30.6116098792
 10
3.5566167982
 20
30.601018187
 10
3.5110372672
 20
30.5828261055
  0
LWPOLYLINE
  5
5F2
100
AcDbEntity
  8
RACCORDO
100
AcDbPolyline
 62
7
  6
CONTINUOUS
 90
7
 70
0
 10
3.6892761738
 20
30.6118031117
 10
3.6378265413
 20
30.6300691525
 10
3.5852155778
 20
30.6431802013
 10
3.531888416
 20
30.6510780735
 10
3.4782907384
 20
30.6537283021
 10
3.4251003848
 20
30.6511425811
 10
3.3728484286
 20
30.6434308886
  0
LWPOLYLINE
  5
5F3
100
AcDbEntity
  8
ASSI
100
AcDbPolyline
 62
7
  6
CONTINUOUS
 90
4
 70
0
 10
3.7263312177
 20
30.5950412614
 10
3.6725618253
 20
30.6183472301
 10
3.5938813778
 20
30.6413912384
 10
3.5137082435
 20
30.6525661066
  0
LINE
  5
5F4
100
AcDbEntity
  8
RACCORDO
100
AcDbLine
 62
7
  6
CONTINUOUS
 10
3.7277884721
 20
30.5943279533
 11
3.6892761738
 21
30.6118031117
  0
LWPOLYLINE
  5
5F5
100
AcDbEntity
  8
RACCORDO
100
AcDbPolyline
 62
250
  6
CONTINUOUS
 90
8
 70
0
 10
8.588513927
 20
28.1639876475
 10
8.5763303369
 20
28.1695401357
 10
8.5458052286
 20
28.1792472164
 10
8.5133186352
 20
28.1839695533
 10
8.4792329765
 20
28.1836518796
 10
8.4439208495
 20
28.1782992182
 10
8.407758687
 20
28.1679701254
 10
8.3711364652
 20
28.1527765065
  0
LWPOLYLINE
  5
5F6
100
AcDbEntity
  8
ASSI
100
AcDbPolyline
 62
250
  6
CONTINUOUS
 90
3
 70
0
 10
8.5885776644
 20
28.1639557917
 10
8.5763303369
 20
28.1695401357
 10
8.5458052286
 20
28.1792472164
  0
LINE
  5
5F7
100
AcDbEntity
  8
RACCORDO
100
AcDbLine
 62
250
  6
CONTINUOUS
 10
3.7277967178
 20
30.5943445605
 11
3.7229410935
 21
30.5966618339
  0
LWPOLYLINE
  5
5F8
100
AcDbEntity
  8
ASSI
100
AcDbPolyline
 62
250
  6
CONTINUOUS
 90
7
 70
0
 10
9.0830597722
 20
26.8735836714
 10
9.0779396519
 20
26.8760321215
 10
9.0401927544
 20
26.8887836128
 10
8.9994284963
 20
26.8937942415
 10
8.9563289734
 20
26.8909801664
 10
8.9116153566
 20
26.8803884745
 10
8.866035825
 20
26.8621963934
  0
LWPOLYLINE
  5
5F9
100
AcDbEntity
  8
RACCORDO
100
AcDbPolyline
 62
250
  6
CONTINUOUS
 90
7
 70
0
 10
9.0834530037
 20
26.8733876876
 10
9.0779396519
 20
26.8760321215
 10
9.0401927544
 20
26.8887836128
 10
8.9994284963
 20
26.8937942415
 10
8.9563289734
 20
26.8909801664
 10
8.9116153566
 20
26.8803884745
 10
8.866035825
 20
26.8621963934
  0
LINE
  5
5FA
100
AcDbEntity
  8
ASSI
100
AcDbLine
 62
250
  6
CONTINUOUS
 10
3.7284737065
 20
30.5940077707
 11
3.7263394693
 21
30.5950580209
  0
LINE
  5
5FB
100
AcDbEntity
  8
RACCORDO
100
AcDbLine
 62
7
  6
CONTINUOUS
 10
3.7284737065
 20
30.5940077707
 11
3.7277967178
 21
30.5943445605
  0
LINE
  5
5FC
100
AcDbEntity
  8
RACCORDO
100
AcDbLine
 62
250
  6
CONTINUOUS
 10
8.5885776644
 20
28.1639557917
 11
8.588513927
 21
28.1639876475
  0
LINE
  5
5FD
100
AcDbEntity
  8
RACCORDO
100
AcDbLine
 62
250
  6
CONTINUOUS
 10
8.866035825
 20
26.8621963934
 11
10.6301347639
 21
25.9801469239
  0
LINE
  5
5FE
100
AcDbEntity
  8
ASSI
100
AcDbLine
 62
250
  6
CONTINUOUS
 10
8.866035825
 20
26.8621963934
 11
10.6301347639
 21
25.9801469239
  0
LINE
  5
5FF
100
AcDbEntity
  8
RACCORDO
100
AcDbLine
 62
250
  6
CONTINUOUS
 10
15.2922914393
 20
23.6490685862
 11
16.101511412
 21
23.2444585999
  0
LINE
  5
600
100
AcDbEntity
  8
ASSI
100
AcDbLine
 62
250
  6
CONTINUOUS
 10
15.2922914393
 20
23.6490685862
 11
16.101511412
 21
23.2444585999
  0
LINE
  5
601
100
AcDbEntity
  8
RACCORDO
100
AcDbLine
 62
7
  6
CONTINUOUS
 10
9.083472265
 20
26.8733780583
 11
10.8475712042
 21
25.9913285887
  0
LINE
  5
602
100
AcDbEntity
  8
ASSI
100
AcDbLine
 62
7
  6
CONTINUOUS
 10
9.0830597722
 20
26.8735836714
 11
10.8475712042
 21
25.9913285887
  0
LINE
  5
603
100
AcDbEntity
  8
RACCORDO
100
AcDbLine
 62
7
  6
CONTINUOUS
 10
15.435322522
 20
23.6974529298
 11
16.3186261147
 21
23.2558011335
  0
LINE
  5
604
100
AcDbEntity
  8
ASSI
100
AcDbLine
 62
7
  6
CONTINUOUS
 10
15.435322522
 20
23.6974529298
 11
16.3186261147
 21
23.2558011335
  0
LINE
  5
605
100
AcDbEntity
  8
RACCORDO
100
AcDbLine
 62
250
  6
CONTINUOUS
 10
3.5110372672
 20
30.5828261055
 11
3.5596485536
 21
30.5585204622
  0
LINE
  5
606
100
AcDbEntity
  8
ASSI
100
AcDbLine
 62
250
  6
CONTINUOUS
 10
3.5110372672
 20
30.5828261055
 11
3.5596485536
 21
30.5585204622
  0
LINE
  5
607
100
AcDbEntity
  8
RACCORDO
100
AcDbLine
 62
250
  6
CONTINUOUS
 10
8.2206420259
 20
28.2280237261
 11
8.3711364652
 21
28.1527765065
  0
LINE
  5
608
100
AcDbEntity
  8
ASSI
100
AcDbLine
 62
250
  6
CONTINUOUS
 10
8.2206420259
 20
28.2280237261
 11
8.3711364652
 21
28.1527765065
  0
LINE
  5
609
100
AcDbEntity
  8
RACCORDO
100
AcDbLine
 62
7
  6
CONTINUOUS
 10
8.3636731086
 20
28.2764080697
 11
8.5885729055
 21
28.1639581713
  0
LINE
  5
60A
100
AcDbEntity
  8
ASSI
100
AcDbLine
 62
7
  6
CONTINUOUS
 10
8.3636731086
 20
28.2764080697
 11
8.5885729055
 21
28.1639581713
  0
LINE
  5
60B
100
AcDbEntity
  8
RACCORDO
100
AcDbLine
 62
7
  6
CONTINUOUS
 10
8.6162289944
 20
28.1490256672
 11
8.588513927
 21
28.1639876475
  0
LINE
  5
60C
100
AcDbEntity
  8
ASSI
100
AcDbLine
 62
7
  6
CONTINUOUS
 10
8.6160448285
 20
28.1491250891
 11
8.588615756
 21
28.1639367391
  0
LWPOLYLINE
  5
60D
100
AcDbEntity
  8
RACCORDO
100
AcDbPolyline
 62
7
  6
CONTINUOUS
 90
20
 70
0
 10
9.0834519097
 20
26.873385512
 10
9.0782080416
 20
26.8762476674
 10
9.0689989673
 20
26.8820873383
 10
9.0569581794
 20
26.8908978443
 10
9.0425466828
 20
26.9029270427
 10
9.0262280975
 20
26.9183342777
 10
9.0083995439
 20
26.9372822464
 10
8.989693541
 20
26.9596437389
 10
8.9708106802
 20
26.9850345853
 10
8.9521965213
 20
27.0132277524
 10
8.9344367395
 20
27.0437048302
 10
8.9182715383
 20
27.07538509
 10
8.9040192476
 20
27.1075827995
 10
8.8918942391
 20
27.1396729597
 10
8.8821759339
 20
27.1705448738
 10
8.874850783
 20
27.1994066621
 10
8.8697242199
 20
27.2258617806
 10
8.8665947132
 20
27.2494071896
 10
8.8651631892
 20
27.2696514935
 10
8.8649662889
 20
27.2797250919
  0
LWPOLYLINE
  5
60E
100
AcDbEntity
  8
ASSI
100
AcDbPolyline
 62
7
  6
CONTINUOUS
 90
9
 70
0
 10
9.0830586898
 20
26.8735815147
 10
9.0748844553
 20
26.8782521398
 10
9.060024167
 20
26.88854083
 10
9.0404643888
 20
26.9047896289
 10
9.0175743036
 20
26.9272524928
 10
8.9923584888
 20
26.9562952744
 10
8.9664584066
 20
26.9913259215
 10
8.9417390865
 20
27.0306934015
 10
8.9192911214
 20
27.0732524094
  0
LINE
  5
60F
100
AcDbEntity
  8
ASSI
100
AcDbLine
 62
7
  6
CONTINUOUS
 10
16.3822802739
 20
23.2188581172
 11
16.3180490819
 21
23.2560698111
  0
LWPOLYLINE
  5
610
100
AcDbEntity
  8
RACCORDO
100
AcDbPolyline
 62
7
  6
CONTINUOUS
 90
3
 70
0
 10
16.4130613304
 20
23.1968982788
 10
16.3672302459
 20
23.2285680322
 10
16.3184396255
 20
23.2558756495
  0
LINE
  5
611
100
AcDbEntity
  8
ASSI
100
AcDbLine
 62
7
  6
CONTINUOUS
 10
16.4394497699
 20
23.1756133338
 11
16.3822802739
 21
23.2188581172
  0
LINE
  5
612
100
AcDbEntity
  8
RACCORDO
100
AcDbLine
 62
7
  6
CONTINUOUS
 10
16.4557600571
 20
23.161195321
 11
16.4130613304
 21
23.1968982788
  0
LINE
  5
613
100
AcDbEntity
  8
ASSI
100
AcDbLine
 62
7
  6
CONTINUOUS
 10
16.8174295897
 20
22.5363917422
 11
16.9053831666
 21
22.4574429791
  0
LINE
  5
614
100
AcDbEntity
  8
RACCORDO
100
AcDbLine
 62
7
  6
CONTINUOUS
 10
16.8163267954
 20
22.5386107469
 11
16.9053831666
 21
22.4574429791
  0
LINE
  5
615
100
AcDbEntity
  8
ASSI
100
AcDbLine
 62
7
  6
CONTINUOUS
 10
16.4921448798
 20
23.1250309874
 11
16.4394497699
 21
23.1756133338
  0
LINE
  5
616
100
AcDbEntity
  8
RACCORDO
100
AcDbLine
 62
7
  6
CONTINUOUS
 10
16.4956980361
 20
23.1211678807
 11
16.4557600571
 21
23.161195321
  0
LINE
  5
617
100
AcDbEntity
  8
0
100
AcDbLine
 62
250
  6
CONTINUOUS
 10
18.2496717575
 20
-27.3295118609
 11
18.6472523327
 21
-27.1626236846
  0
LINE
  5
618
100
AcDbEntity
  8
0
100
AcDbLine
 62
7
  6
CONTINUOUS
 10
18.104017089
 20
-27.6072841011
 11
18.5059445423
 21
-27.4385726195
  0
LWPOLYLINE
  5
619
100
AcDbEntity
  8
0
100
AcDbPolyline
 62
250
  6
CONTINUOUS
 90
10
 70
0
 10
18.2496717575
 20
-27.3295118609
 10
18.2295912038
 20
-27.3376583211
 10
18.2070111265
 20
-27.3439591976
 10
18.1826026866
 20
-27.3482273427
 10
18.1570912439
 20
-27.3503360337
 10
18.1312350141
 20
-27.3502227112
 10
18.1058025362
 20
-27.347890893
 10
18.0815495085
 20
-27.3434100561
 10
18.0591963427
 20
-27.3369134971
 10
18.0394069847
 20
-27.3285943845
  0
LWPOLYLINE
  5
61A
100
AcDbEntity
  8
RACCORDO
100
AcDbPolyline
 62
250
  6
CONTINUOUS
 90
9
 70
0
 10
9.8472109628
 20
-30.6096597513
 10
9.8635450603
 20
-30.603254389
 10
9.9011536903
 20
-30.5820404788
 10
9.9350468039
 20
-30.5532177967
 10
9.9646448756
 20
-30.5172793065
 10
9.9894418166
 20
-30.474839672
 10
10.0090136656
 20
-30.4266247072
 10
10.0230258269
 20
-30.3734589487
 10
10.0312387761
 20
-30.3162515775
  0
LINE
  5
61B
100
AcDbEntity
  8
RACCORDO
100
AcDbLine
 62
250
  6
CONTINUOUS
 10
14.3883785591
 20
-28.810391772
 11
10.0312387761
 21
-30.3162515775
  0
LINE
  5
61C
100
AcDbEntity
  8
RACCORDO
100
AcDbLine
 62
7
  6
CONTINUOUS
 10
9.8469370476
 20
-30.6097542112
 11
14.2093442684
 21
-29.1020741474
  0
LWPOLYLINE
  5
61D
100
AcDbEntity
  8
RACCORDO
100
AcDbPolyline
 62
250
  6
CONTINUOUS
 90
19
 70
0
 10
10.0312387761
 20
-30.3162515775
 10
10.0013229138
 20
-30.3250096765
 10
9.9722597592
 20
-30.3305324496
 10
9.9440493124
 20
-30.3328198967
 10
9.9164954839
 20
-30.3318455559
 10
9.8897943632
 20
-30.3276358891
 10
9.864534218
 20
-30.3202702821
 10
9.8407578857
 20
-30.3096809735
 10
9.8184225289
 20
-30.2959357247
 10
9.797987904
 20
-30.2793172063
 10
9.7794931032
 20
-30.2597651807
 10
9.7628990344
 20
-30.2373398854
 10
9.7485481767
 20
-30.212504703
 10
9.7364865608
 20
-30.1851931223
 10
9.7266681562
 20
-30.1554716545
 10
9.7192973503
 20
-30.1240032158
 10
9.7144422724
 20
-30.0910087783
 10
9.7120347933
 20
-30.0562673698
 10
9.7120749129
 20
-30.0197789905
  0
LWPOLYLINE
  5
61E
100
AcDbEntity
  8
ASSI
100
AcDbPolyline
 62
7
  6
CONTINUOUS
 90
4
 70
0
 10
3.5137082435
 20
30.6525661066
 10
3.4335725864
 20
30.6519056285
 10
3.3547501528
 20
30.6395252365
 10
3.2790573216
 20
30.6158360122
  0
ELLIPSE
  5
61F
100
AcDbEntity
  8
0
100
AcDbEllipse
 62
7
  6
CONTINUOUS
 10
-12.6775242178
 20
26.4314131247
 30
0.0
 11
-0.2237009107
 21
0.4473351135
 31
0.0
 40
0.6121897086
 41
-0.6846338794
 42
0.0185242472
  0
ELLIPSE
  5
620
100
AcDbEntity
  8
0
100
AcDbEllipse
 62
7
  6
CONTINUOUS
 10
2.3837425093
 20
18.9007797612
 30
0.0
 11
-0.2235807756
 21
0.4472283268
 31
0.0
 40
0.6125552124
 41
-2.1627530796
 42
-0.6848044477
  0
ELLIPSE
  5
621
100
AcDbEntity
  8
DRAFT
100
AcDbEllipse
 62
7
  6
CONTINUOUS
 10
-2.0329365021
 20
19.7332216452
 30
0.0
 11
-0.1874317891
 21
0.5510210025
 31
0.0
 40
0.6669031534
 41
-2.9785891508
 42
0.1657057104
  0
ELLIPSE
  5
622
100
AcDbEntity
  8
DRAFT
100
AcDbEllipse
 62
7
  6
CONTINUOUS
 10
-9.8111110952
 20
23.6223089418
 30
0.0
 11
-0.1874317891
 21
0.5510210025
 31
0.0
 40
0.6669031534
 41
-2.9785891508
 42
0.1657057104
  0
ELLIPSE
  5
623
100
AcDbEntity
  8
0
100
AcDbEllipse
 62
7
  6
CONTINUOUS
 10
3.2323783589
 20
18.4759335531
 30
0.0
 11
-0.2234618187
 21
0.4480306886
 31
0.0
 40
0.6116748051
 41
-0.6831523243
 42
0.0394965165
  0
ELLIPSE
  5
624
100
AcDbEntity
  8
0
100
AcDbEllipse
 62
7
  6
CONTINUOUS
 10
18.293645086
 20
10.9453001895
 30
0.0
 11
-0.2230998035
 21
0.4477110033
 31
0.0
 40
0.6127700112
 41
-2.2535417632
 42
-0.6836588249
  0
ELLIPSE
  5
625
100
AcDbEntity
  8
0
100
AcDbEllipse
 62
7
  6
CONTINUOUS
 10
18.293645086
 20
-26.9854240097
 30
0.0
 11
-0.2234618187
 21
0.4480306886
 31
0.0
 40
0.6116748051
 41
-3.181751599
 42
-2.2548620396
  0
ELLIPSE
  5
626
100
AcDbEntity
  8
RACCORDO
100
AcDbEllipse
 62
7
  6
CONTINUOUS
 10
12.4838299658
 20
13.5251436184
 30
0.0
 11
0.0869927845
 21
0.180102834
 31
0.0
 40
0.6016116119
 41
0.7288497708
 42
2.1251131724
  0
ELLIPSE
  5
627
100
AcDbEntity
  8
DRAFT
100
AcDbEllipse
 62
7
  6
CONTINUOUS
 10
22.4808178292
 20
9.9735193147
 30
0.0
 11
27.3775602615
 21
-16.9207334468
 31
0.0
 40
0.0815186111
 41
1.6623118437
 42
1.6893084912
  0
ELLIPSE
  5
628
100
AcDbEntity
  8
DRAFT
100
AcDbEllipse
 62
7
  6
CONTINUOUS
 10
22.4808178292
 20
9.1446989121
 30
0.0
 11
20.3353299935
 21
32.9041701428
 31
0.0
 40
0.5586607408
 41
-2.3739654893
 42
-2.3469688418
  0
ELLIPSE
  5
629
100
AcDbEntity
  8
RACCORDO
100
AcDbEllipse
 62
7
  6
CONTINUOUS
 10
7.94233272
 20
15.7958922414
 30
0.0
 11
0.0919907694
 21
0.1776025845
 31
0.0
 40
0.6229838795
 41
0.7459652997
 42
2.1422287013
  0
ELLIPSE
  5
62A
100
AcDbEntity
  8
ASSI
100
AcDbEllipse
 62
7
  6
CONTINUOUS
 10
13.8764259961
 20
11.7726131722
 30
0.0
 11
-0.1618715941
 21
0.4757775884
 31
0.0
 40
0.6669175362
 41
3.2318597726
 42
6.3734524261
  0
ELLIPSE
  5
62B
100
AcDbEntity
  8
ASSI
100
AcDbEllipse
 62
7
  6
CONTINUOUS
 10
6.0982514031
 20
15.6617004688
 30
0.0
 11
-0.1618715941
 21
0.4757775884
 31
0.0
 40
0.6669175362
 41
3.2318597726
 42
6.3734524261
  0
ELLIPSE
  5
62C
100
AcDbEntity
  8
RACCORDO
100
AcDbEllipse
 62
7
  6
CONTINUOUS
 10
15.9301780057
 20
-22.8538595947
 30
0.0
 11
-0.434489478
 21
0.681019808
 31
0.0
 40
0.5433560875
 41
-3.2322618162
 42
-2.3092233253
  0
ELLIPSE
  5
62D
100
AcDbEntity
  8
DRAFT
100
AcDbEllipse
 62
7
  6
CONTINUOUS
 10
9.0659554476
 20
21.7647535744
 30
0.0
 11
2.6995028143
 21
-0.1108788769
 31
0.0
 40
0.4672909446
 41
2.3928388478
 42
2.8885731487
  0
ELLIPSE
  5
62E
100
AcDbEntity
  8
DRAFT
100
AcDbEllipse
 62
7
  6
CONTINUOUS
 10
2.0282075661
 20
26.0076290902
 30
0.0
 11
2.6995028143
 21
-0.1108788769
 31
0.0
 40
0.4672909446
 41
2.3928388478
 42
2.7418921552
  0
ELLIPSE
  5
62F
100
AcDbEntity
  8
DRAFT
100
AcDbEllipse
 62
7
  6
CONTINUOUS
 10
9.7730622288
 20
21.1914527971
 30
0.0
 11
2.7999338239
 21
-0.0393479794
 31
0.0
 40
0.4892375088
 41
0.7268246302
 42
2.1371003781
  0
ELLIPSE
  5
630
100
AcDbEntity
  8
DRAFT
100
AcDbEllipse
 62
7
  6
CONTINUOUS
 10
2.7019944169
 20
25.419807026
 30
0.0
 11
2.7999338239
 21
-0.0393479794
 31
0.0
 40
0.4892375088
 41
7.194789037
 42
8.4190700833
  0
ELLIPSE
  5
631
100
AcDbEntity
  8
RACCORDO
100
AcDbEllipse
 62
7
  6
CONTINUOUS
 10
14.9325138515
 20
23.3898402707
 30
0.0
 11
0.5078963414
 21
0.3040339819
 31
0.0
 40
0.0955345833
 41
0.0615844105
 42
0.7281223435
  0
ELLIPSE
  5
632
100
AcDbEntity
  8
RACCORDO
100
AcDbEllipse
 62
7
  6
CONTINUOUS
 10
7.8608644381
 20
27.9687954106
 30
0.0
 11
0.5078963414
 21
0.3040339819
 31
0.0
 40
0.0955345833
 41
0.0615844105
 42
0.7281223435
  0
ELLIPSE
  5
633
100
AcDbEntity
  8
RACCORDO
100
AcDbEllipse
 62
7
  6
CONTINUOUS
 10
3.9070854264
 20
29.9456849164
 30
0.0
 11
-0.3622213317
 21
0.604758663
 31
0.0
 40
0.5487841728
 41
4.6863149424
 42
6.2396579766
  0
ELLIPSE
  5
634
100
AcDbEntity
  8
DRAFT
100
AcDbEllipse
 62
7
  6
CONTINUOUS
 10
9.7730622288
 20
22.0729204968
 30
0.0
 11
2.7994844001
 21
-0.114985502
 31
0.0
 40
0.4672909446
 41
0.295419578
 42
2.1494162078
  0
ELLIPSE
  5
635
100
AcDbEntity
  8
DRAFT
100
AcDbEllipse
 62
7
  6
CONTINUOUS
 10
2.7019944169
 20
26.3012747258
 30
0.0
 11
2.7994844001
 21
-0.114985502
 31
0.0
 40
0.4672909446
 41
0.4989599013
 42
2.1482006058
  0
ELLIPSE
  5
636
100
AcDbEntity
  8
RACCORDO
100
AcDbEllipse
 62
7
  6
CONTINUOUS
 10
10.9775716367
 20
25.3673113781
 30
0.0
 11
-0.3622213317
 21
0.604758663
 31
0.0
 40
0.5487841728
 41
4.6863149424
 42
6.2396579766
  0
ELLIPSE
  5
637
100
AcDbEntity
  8
0
100
AcDbEllipse
 62
7
  6
CONTINUOUS
 10
-2.1770423733
 20
21.8741640616
 30
0.0
 11
-0.0893707736
 21
0.1790031855
 31
0.0
 40
0.6122975693
 41
-3.161726493
 42
-2.2548589362
  0
ELLIPSE
  5
638
100
AcDbEntity
  8
RACCORDO
100
AcDbEllipse
 62
7
  6
CONTINUOUS
 10
2.3620383243
 20
23.4425828567
 30
0.0
 11
0.1677841941
 21
0.4740861062
 31
0.0
 40
0.4918293396
 41
-0.0601506597
 42
0.6062934277
  0
ELLIPSE
  5
639
100
AcDbEntity
  8
ASSI
100
AcDbEllipse
 62
7
  6
CONTINUOUS
 10
9.0659554476
 20
21.7647535744
 30
0.0
 11
2.6995028143
 21
-0.1108788769
 31
0.0
 40
0.4672909446
 41
8.676024155
 42
9.1717584558
  0
ELLIPSE
  5
63A
100
AcDbEntity
  8
ASSI
100
AcDbEllipse
 62
7
  6
CONTINUOUS
 10
2.0282075661
 20
26.0076290902
 30
0.0
 11
2.6995028143
 21
-0.1108788769
 31
0.0
 40
0.4672909446
 41
8.676024155
 42
9.0250774624
  0
ELLIPSE
  5
63B
100
AcDbEntity
  8
ASSI
100
AcDbEllipse
 62
7
  6
CONTINUOUS
 10
14.9325138515
 20
23.3898402707
 30
0.0
 11
0.5078963414
 21
0.3040339819
 31
0.0
 40
0.0955345833
 41
0.0615844105
 42
0.7281223435
  0
ELLIPSE
  5
63C
100
AcDbEntity
  8
ASSI
100
AcDbEllipse
 62
7
  6
CONTINUOUS
 10
7.8608644381
 20
27.9687954106
 30
0.0
 11
0.5078963414
 21
0.3040339819
 31
0.0
 40
0.0955345833
 41
0.0615844105
 42
0.7281223435
  0
ELLIPSE
  5
63D
100
AcDbEntity
  8
ASSI
100
AcDbEllipse
 62
7
  6
CONTINUOUS
 10
9.7730622288
 20
21.1914527971
 30
0.0
 11
2.7999338239
 21
-0.0393479794
 31
0.0
 40
0.4892375088
 41
0.7268246302
 42
2.1371003781
  0
ELLIPSE
  5
63E
100
AcDbEntity
  8
ASSI
100
AcDbEllipse
 62
7
  6
CONTINUOUS
 10
2.7019944169
 20
25.419807026
 30
0.0
 11
2.7999338239
 21
-0.0393479794
 31
0.0
 40
0.4892375088
 41
7.194789037
 42
8.4190700833
  0
ELLIPSE
  5
63F
100
AcDbEntity
  8
ASSI
100
AcDbEllipse
 62
7
  6
CONTINUOUS
 10
3.9070854264
 20
29.9456849164
 30
0.0
 11
-0.3622213317
 21
0.604758663
 31
0.0
 40
0.5487841728
 41
4.6863149424
 42
6.2396579766
  0
ELLIPSE
  5
640
100
AcDbEntity
  8
ASSI
100
AcDbEllipse
 62
7
  6
CONTINUOUS
 10
9.7730622288
 20
22.0729204968
 30
0.0
 11
2.7994844001
 21
-0.114985502
 31
0.0
 40
0.4672909446
 41
0.295419578
 42
2.1494162078
  0
ELLIPSE
  5
641
100
AcDbEntity
  8
ASSI
100
AcDbEllipse
 62
7
  6
CONTINUOUS
 10
2.7019944169
 20
26.3012747258
 30
0.0
 11
2.7994844001
 21
-0.114985502
 31
0.0
 40
0.4672909446
 41
0.4989599013
 42
2.1482006058
  0
ELLIPSE
  5
642
100
AcDbEntity
  8
ASSI
100
AcDbEllipse
 62
7
  6
CONTINUOUS
 10
2.3620383243
 20
23.4425828567
 30
0.0
 11
0.1677841941
 21
0.4740861062
 31
0.0
 40
0.4918293396
 41
-0.0601506597
 42
0.6062934277
  0
ELLIPSE
  5
643
100
AcDbEntity
  8
ASSI
100
AcDbEllipse
 62
7
  6
CONTINUOUS
 10
-2.1770423733
 20
21.8741640616
 30
0.0
 11
-0.0893707736
 21
0.1790031855
 31
0.0
 40
0.6122975693
 41
-3.161726493
 42
-2.2548589362
  0
ELLIPSE
  5
644
100
AcDbEntity
  8
ASSI
100
AcDbEllipse
 62
7
  6
CONTINUOUS
 10
10.9775716367
 20
25.3673113781
 30
0.0
 11
-0.3622213317
 21
0.604758663
 31
0.0
 40
0.5487841728
 41
4.6863149424
 42
6.2396579766
  0
ELLIPSE
  5
645
100
AcDbEntity
  8
RACCORDO
100
AcDbEllipse
 62
7
  6
CONTINUOUS
 10
-13.9513182504
 20
24.8294517816
 30
0.0
 11
-0.1828920694
 21
0.4656153856
 31
0.0
 40
0.6532976604
 41
-0.6278386123
 42
0.0270449703
  0
ELLIPSE
  5
646
100
AcDbEntity
  8
RACCORDO
100
AcDbEllipse
 62
7
  6
CONTINUOUS
 10
16.6662976628
 20
9.520643825
 30
0.0
 11
-0.1826623061
 21
0.4654722043
 31
0.0
 40
0.6538654528
 41
-2.1982822863
 42
-0.6279428103
  0
ELLIPSE
  5
647
100
AcDbEntity
  8
RACCORDO
100
AcDbEllipse
 62
7
  6
CONTINUOUS
 10
14.0347853947
 20
-28.6333839705
 30
0.0
 11
-0.1828920694
 21
0.4656153856
 31
0.0
 40
0.6532976604
 41
-3.1687922232
 42
-2.1990917899
  0
ENDSEC
  0
SECTION
  2
OBJECTS
  0
DICTIONARY
  5
C
100
AcDbDictionary
280
0
281
1
  3
ACAD_GROUP
350
D
  3
ACAD_MLINESTYLE
350
17
  3
ACAD_LAYOUT
350
1A
  3
ACAD_PLOTSETTINGS
350
19
  3
ACAD_PLOTSTYLENAME
350
E
  0
DICTIONARY
  5
D
102
{ACAD_REACTORS
330
C
102
}
100
AcDbDictionary
280
0
281
1
  0
ACDBDICTIONARYWDFLT
  5
E
102
{ACAD_REACTORS
330
C
102
}
100
AcDbDictionary
281
1
  3
Normal
350
F
100
AcDbDictionaryWithDefault
340
F
  0
DICTIONARY
  5
17
102
{ACAD_REACTORS
330
C
102
}
100
AcDbDictionary
280
0
281
1
  3
Standard
350
18
  0
DICTIONARY
  5
19
102
{ACAD_REACTORS
330
C
102
}
100
AcDbDictionary
281
1
  0
DICTIONARY
  5
1A
102
{ACAD_REACTORS
330
C
102
}
100
AcDbDictionary
281
1
  3
Model
350
648
  3
Layout1
350
649
  0
ACDBPLACEHOLDER
  5
F
102
{ACAD_REACTORS
330
E
102
}
  0
MLINESTYLE
  5
18
102
{ACAD_REACTORS
330
17
102
}
100
AcDbMlineStyle
  2
STANDARD
 70
0
  3

 62
256
 51
90.0
 52
90.0
 71
2
 49
0.5
 62
256
  6
BYLAYER
 49
-0.5
 62
256
  6
BYLAYER
  0
LAYOUT
  5
648
102
{ACAD_REACTORS
330
1A
102
}
100
AcDbPlotSettings
  1

  2
none_device
  4
ISO_A4_(297.00_x_210.00_MM)
  6

 40
0.0
 41
0.0
 42
0.0
 43
0.0
 44
297.0
 45
210.0
 46
0.0
 47
0.0
 48
0.0
 49
0.0
140
0.0
141
0.0
142
1.0
143
1.0
 70
1024
 72
1
 73
0
 74
0
  7

 75
0
147
1.0
148
0.0
149
0.0
100
AcDbLayout
  1
Model
 70
0
 71
0
 10
0.0
 20
0.0
 11
297.0
 21
210.0
 12
0.0
 22
0.0
 32
0.0
 14
0.0
 24
0.0
 34
0.0
 15
0.0
 25
0.0
 35
0.0
146
0.0
 13
0.0
 23
0.0
 33
0.0
 16
1.0
 26
0.0
 36
0.0
 17
0.0
 27
1.0
 37
0.0
 76
0
330
220
345
0
346
0
  0
LAYOUT
  5
649
102
{ACAD_REACTORS
330
1A
102
}
100
AcDbPlotSettings
  1

  2
none_device
  4
ISO_A4_(297.00_x_210.00_MM)
  6

 40
0.0
 41
0.0
 42
0.0
 43
0.0
 44
297.0
 45
210.0
 46
0.0
 47
0.0
 48
0.0
 49
0.0
140
0.0
141
0.0
142
1.0
143
1.0
 70
0
 72
1
 73
0
 74
0
  7

 75
0
147
1.0
148
0.0
149
0.0
100
AcDbLayout
  1
Layout1
 70
0
 71
1
 10
0.0
 20
0.0
 11
297.0
 21
210.0
 12
0.0
 22
0.0
 32
0.0
 14
0.0
 24
0.0
 34
0.0
 15
0.0
 25
0.0
 35
0.0
146
0.0
 13
0.0
 23
0.0
 33
0.0
 16
1.0
 26
0.0
 36
0.0
 17
0.0
 27
1.0
 37
0.0
 76
0
330
221
345
0
346
0
  0
ENDSEC
  0
EOF
