  0
SECTION
  2
HEADER
  9
$ACADVER
  1
AC1015
  9
$DWGCODEPAGE
  3
ANSI_1252
  9
$EXTMAX
 10
297.0
 20
210.0
 30
0.0
  9
$EXTMIN
 10
0.0
 20
0.0
 30
0.0
  9
$LIMMIN
 10
0.0
 20
0.0
  9
$LIMMAX
 10
297.0
 20
210.0
  9
$VIEWCTR
 10
148.5
 20
105.0
  9
$VIEWSIZE
 40
210.0
  9
$CLAYER
  8
0
  9
$LTSCALE
 40
16.335
  9
$CELTYPE
  6
BYLAYER
  9
$DIMSCALE
 40
1.0
  9
$DIMASZ
 40
3.0
  9
$DIMEXO
 40
1.85625
  9
$DIMDLI
 40
11.286
  9
$DIMEXE
 40
5.346
  9
$DIMCEN
 40
2.673
  9
$DIMLFAC
 40
1.0
  9
$DIMBLK
  1
_FILLED
  9
$DIMTXT
 40
3.0
  9
$DIMTOL
 70
1
  9
$DIMLIM
 70
0
  9
$DIMTFAC
 40
1.0
  9
$DIMTP
 40
0.01
  9
$DIMTM
 40
0.01
  9
$PDMODE
 70
3
  9
$PDSIZE
 40
3.0
  9
$HANDSEED
  5
3AC
  9
$TILEMODE
 70
1
  9
$MEASUREMENT
 70
1
  9
$INSUNITS
 70
4
  0
ENDSEC
  0
SECTION
  2
CLASSES
  0
CLASS
  1
ACDBDICTIONARYWDFLT
  2
AcDbDictionaryWithDefault
  3
AutoCAD 2000
 90
0
280
0
281
0
  0
CLASS
  1
ACDBPLACEHOLDER
  2
AcDbPlaceHolder
  3
AutoCAD 2000
 90
0
280
0
281
0
  0
CLASS
  1
LAYOUT
  2
AcDbLayout
  3
AutoCAD 2000
 90
0
280
0
281
0
  0
ENDSEC
  0
SECTION
  2
TABLES
  0
TABLE
  2
VPORT
  5
8
100
AcDbSymbolTable
 70
2
  0
VPORT
  5
1F4
100
AcDbSymbolTableRecord
100
AcDbViewportTableRecord
  2
*ACTIVE
 70
0
 10
0.0
 20
0.0
 11
1.0
 21
1.0
 12
148.5
 22
105.0
 13
0.0
 23
0.0
 14
1.0
 24
1.0
 15
0.0
 25
0.0
 16
0.0
 26
0.0
 36
1.0
 17
0.0
 27
0.0
 37
0.0
 40
210.0
 41
1.4142857143
 42
50.0
 43
0.0
 44
0.0
 50
0.0
 51
0.0
 71
0
 72
100
 73
1
 74
1
 75
0
 76
0
 77
0
 78
0
  0
ENDTAB
  0
TABLE
  2
LTYPE
  5
5
100
AcDbSymbolTable
 70
6
  0
LTYPE
  5
14
100
AcDbSymbolTableRecord
100
AcDbLinetypeTableRecord
  2
BYBLOCK
 70
0
  3

 72
65
 73
0
 40
0.0
  0
LTYPE
  5
15
100
AcDbSymbolTableRecord
100
AcDbLinetypeTableRecord
  2
BYLAYER
 70
0
  3

 72
65
 73
0
 40
0.0
  0
LTYPE
  5
16
100
AcDbSymbolTableRecord
100
AcDbLinetypeTableRecord
  2
CONTINUOUS
 70
64
  3
Solid line
 72
65
 73
0
 40
0.0
  0
LTYPE
  5
1F5
100
AcDbSymbolTableRecord
100
AcDbLinetypeTableRecord
  2
CENTER
 70
64
  3
____ _ ____ _ ____ _ ____ _ ____ _ ____ _ ____
 72
65
 73
4
 40
0.6
 49
0.375
 74
0
 49
-0.075
 74
0
 49
0.075
 74
0
 49
-0.075
 74
0
  0
LTYPE
  5
1F6
100
AcDbSymbolTableRecord
100
AcDbLinetypeTableRecord
  2
HIDDEN
 70
64
  3
- - - - - - - - - - - - - - - - - - - -
 72
65
 73
2
 40
0.2
 49
0.1
 74
0
 49
-0.1
 74
0
  0
LTYPE
  5
1F7
100
AcDbSymbolTableRecord
100
AcDbLinetypeTableRecord
  2
PHANTOM
 70
64
  3
_____ _ _ _____ _ _ _____ _ _ _____
 72
65
 73
6
 40
0.8
 49
0.45
 74
0
 49
-0.05
 74
0
 49
0.1
 74
0
 49
-0.05
 74
0
 49
0.1
 74
0
 49
-0.05
 74
0
  0
LTYPE
  5
1F8
100
AcDbSymbolTableRecord
100
AcDbLinetypeTableRecord
  2
DOT
 70
64
  3
. . . . . . . . . . . . . . . . . . . .
 72
65
 73
2
 40
0.2
 49
0.1
 74
0
 49
-0.1
 74
0
  0
LTYPE
  5
1F9
100
AcDbSymbolTableRecord
100
AcDbLinetypeTableRecord
  2
DASHED
 70
64
  3
- - - - - - - - - - - - - - - - - - - -
 72
65
 73
2
 40
0.2
 49
0.1
 74
0
 49
-0.1
 74
0
  0
ENDTAB
  0
TABLE
  2
LAYER
  5
2
100
AcDbSymbolTable
 70
36
  0
LAYER
  5
10
100
AcDbSymbolTableRecord
100
AcDbLayerTableRecord
  2
0
 70
0
 62
7
  6
CONTINUOUS
370
-3
390
F
  0
LAYER
  5
1FA
100
AcDbSymbolTableRecord
100
AcDbLayerTableRecord
  2
DEFAULT_1
 70
0
 62
7
  6
CENTER
370
-3
390
F
  0
LAYER
  5
1FB
100
AcDbSymbolTableRecord
100
AcDbLayerTableRecord
  2
DEFAULT_2
 70
0
 62
7
  6
HIDDEN
370
-3
390
F
  0
LAYER
  5
1FC
100
AcDbSymbolTableRecord
100
AcDbLayerTableRecord
  2
DEFAULT_3
 70
0
 62
7
  6
PHANTOM
370
-3
390
F
  0
LAYER
  5
1FD
100
AcDbSymbolTableRecord
100
AcDbLayerTableRecord
  2
ASSI
 70
0
 62
7
  6
CONTINUOUS
370
-3
390
F
  0
LAYER
  5
1FE
100
AcDbSymbolTableRecord
100
AcDbLayerTableRecord
  2
COORDINATE
 70
0
 62
7
  6
CONTINUOUS
370
-3
390
F
  0
LAYER
  5
1FF
100
AcDbSymbolTableRecord
100
AcDbLayerTableRecord
  2
COORD_ORIGINE
 70
0
 62
7
  6
CONTINUOUS
370
-3
390
F
  0
LAYER
  5
200
100
AcDbSymbolTableRecord
100
AcDbLayerTableRecord
  2
COPY_PUBLISH
 70
0
 62
7
  6
CONTINUOUS
370
-3
390
F
  0
LAYER
  5
201
100
AcDbSymbolTableRecord
100
AcDbLayerTableRecord
  2
COSMETIC
 70
0
 62
7
  6
CONTINUOUS
370
-3
390
F
  0
LAYER
  5
202
100
AcDbSymbolTableRecord
100
AcDbLayerTableRecord
  2
COSMETICHE
 70
0
 62
7
  6
CONTINUOUS
370
-3
390
F
  0
LAYER
  5
203
100
AcDbSymbolTableRecord
100
AcDbLayerTableRecord
  2
COSMETICI
 70
0
 62
7
  6
CONTINUOUS
370
-3
390
F
  0
LAYER
  5
204
100
AcDbSymbolTableRecord
100
AcDbLayerTableRecord
  2
CURVE
 70
0
 62
7
  6
CONTINUOUS
370
-3
390
F
  0
LAYER
  5
205
100
AcDbSymbolTableRecord
100
AcDbLayerTableRecord
  2
DRAFT
 70
0
 62
7
  6
CONTINUOUS
370
-3
390
F
  0
LAYER
  5
206
100
AcDbSymbolTableRecord
100
AcDbLayerTableRecord
  2
ESTENSIONE
 70
0
 62
7
  6
CONTINUOUS
370
-3
390
F
  0
LAYER
  5
207
100
AcDbSymbolTableRecord
100
AcDbLayerTableRecord
  2
IMPORT_FEATURES
 70
0
 62
7
  6
CONTINUOUS
370
-3
390
F
  0
LAYER
  5
208
100
AcDbSymbolTableRecord
100
AcDbLayerTableRecord
  2
IMPORT_IGES
 70
0
 62
7
  6
CONTINUOUS
370
-3
390
F
  0
LAYER
  5
209
100
AcDbSymbolTableRecord
100
AcDbLayerTableRecord
  2
INTFCLR_1
 70
0
 62
7
  6
CONTINUOUS
370
-3
390
F
  0
LAYER
  5
20A
100
AcDbSymbolTableRecord
100
AcDbLayerTableRecord
  2
INTF_1
 70
0
 62
7
  6
CONTINUOUS
370
-3
390
F
  0
LAYER
  5
20B
100
AcDbSymbolTableRecord
100
AcDbLayerTableRecord
  2
INTF_7
 70
0
 62
7
  6
CONTINUOUS
370
-3
390
F
  0
LAYER
  5
20C
100
AcDbSymbolTableRecord
100
AcDbLayerTableRecord
  2
NOTE
 70
0
 62
7
  6
CONTINUOUS
370
-3
390
F
  0
LAYER
  5
20D
100
AcDbSymbolTableRecord
100
AcDbLayerTableRecord
  2
PIANI
 70
0
 62
7
  6
CONTINUOUS
370
-3
390
F
  0
LAYER
  5
20E
100
AcDbSymbolTableRecord
100
AcDbLayerTableRecord
  2
PIANI_ORIGINE
 70
0
 62
7
  6
CONTINUOUS
370
-3
390
F
  0
LAYER
  5
20F
100
AcDbSymbolTableRecord
100
AcDbLayerTableRecord
  2
PUNTI
 70
0
 62
7
  6
CONTINUOUS
370
-3
390
F
  0
LAYER
  5
210
100
AcDbSymbolTableRecord
100
AcDbLayerTableRecord
  2
RACCORDO
 70
0
 62
7
  6
CONTINUOUS
370
-3
390
F
  0
LAYER
  5
211
100
AcDbSymbolTableRecord
100
AcDbLayerTableRecord
  2
RGB__255__255__255__
 70
0
 62
7
  6
CONTINUOUS
370
-3
390
F
  0
LAYER
  5
212
100
AcDbSymbolTableRecord
100
AcDbLayerTableRecord
  2
RGB____0____0____0__
 70
0
 62
7
  6
CONTINUOUS
370
-3
390
F
  0
LAYER
  5
213
100
AcDbSymbolTableRecord
100
AcDbLayerTableRecord
  2
SMUSSO
 70
0
 62
7
  6
CONTINUOUS
370
-3
390
F
  0
LAYER
  5
214
100
AcDbSymbolTableRecord
100
AcDbLayerTableRecord
  2
SNAPLINE
 70
0
 62
7
  6
CONTINUOUS
370
-3
390
F
  0
LAYER
  5
215
100
AcDbSymbolTableRecord
100
AcDbLayerTableRecord
  2
SUPERFICI
 70
0
 62
7
  6
CONTINUOUS
370
-3
390
F
  0
LAYER
  5
216
100
AcDbSymbolTableRecord
100
AcDbLayerTableRecord
  2
TRASH
 70
0
 62
7
  6
CONTINUOUS
370
-3
390
F
  0
LAYER
  5
217
100
AcDbSymbolTableRecord
100
AcDbLayerTableRecord
  2
XSEC_DATUMS
 70
0
 62
7
  6
CONTINUOUS
370
-3
390
F
  0
ENDTAB
  0
TABLE
  2
STYLE
  5
3
100
AcDbSymbolTable
 70
1
  0
STYLE
  5
11
100
AcDbSymbolTableRecord
100
AcDbTextStyleTableRecord
  2
STANDARD
 70
0
 40
0.0
 41
0.8
 50
0.0
 71
0
 42
0.2
  3
txt
  4

  0
STYLE
  5
218
100
AcDbSymbolTableRecord
100
AcDbTextStyleTableRecord
  2
TEXTSTYLE_1
 70
0
 40
0.0
 41
0.8
 50
0.0
 71
0
 42
0.2
  3
gdt
  4

  0
ENDTAB
  0
TABLE
  2
VIEW
  5
6
100
AcDbSymbolTable
 70
0
  0
ENDTAB
  0
TABLE
  2
UCS
  5
7
100
AcDbSymbolTable
 70
0
  0
ENDTAB
  0
TABLE
  2
APPID
  5
9
100
AcDbSymbolTable
 70
1
  0
APPID
  5
219
100
AcDbSymbolTableRecord
100
AcDbRegAppTableRecord
  2
ACAD
 70
0
  0
ENDTAB
  0
TABLE
  2
BLOCK_RECORD
  5
1
100
AcDbSymbolTable
 70
0
  0
BLOCK_RECORD
  5
21A
100
AcDbSymbolTableRecord
100
AcDbBlockTableRecord
  2
*Model_Space
  0
BLOCK_RECORD
  5
21B
100
AcDbSymbolTableRecord
100
AcDbBlockTableRecord
  2
*Paper_Space
  0
ENDTAB
  0
TABLE
  2
DIMSTYLE
  5
A
100
AcDbSymbolTable
 70
1
100
AcDbDimStyleTable
 71
0
  0
DIMSTYLE
105
21C
100
AcDbSymbolTableRecord
100
AcDbDimStyleTableRecord
  2
STANDARD
 70
0
  3

  4

 40
1.0
 41
3.0
 42
0.0625
 43
0.38
 44
0.18
 45
0.0
 46
0.0
 47
0.01
 48
0.01
140
3.0
141
0.09
142
0.0
143
25.4
144
1.0
145
0.0
146
1.0
147
0.09
 71
1.0
 72
0.0
 73
0
 74
0
 75
0
 76
0
 77
1
 78
8
170
0
171
2
172
0
173
0
174
0
175
0
176
0
177
0
178
0
270
2
271
2
272
2
273
2
274
2
275
0
280
0
281
0
282
0
283
1
284
8
285
0
286
0
287
3
288
0
340
11
  0
ENDTAB
  0
ENDSEC
  0
SECTION
  2
BLOCKS
  0
BLOCK
  5
20
100
AcDbEntity
  8
0
100
AcDbBlockBegin
  2
*Model_Space
 70
0
 10
0.0
 20
0.0
 30
0.0
  3
*Model_Space
  1

  0
ENDBLK
  5
21
100
AcDbEntity
  8
0
100
AcDbBlockEnd
  0
BLOCK
  5
1C
100
AcDbEntity
  8
0
100
AcDbBlockBegin
  2
*Paper_Space
 70
0
 10
0.0
 20
0.0
 30
0.0
  3
*Paper_Space
  1

  0
ENDBLK
  5
1D
100
AcDbEntity
  8
0
100
AcDbBlockEnd
  0
ENDSEC
  0
SECTION
  2
ENTITIES
  0
LWPOLYLINE
  5
21D
100
AcDbEntity
  8
RACCORDO
100
AcDbPolyline
 62
7
  6
CONTINUOUS
 90
14
 70
0
 10
-18.1136674417
 20
16.7937382911
 10
-18.1391131414
 20
16.7669829715
 10
-18.1973267621
 20
16.6983326543
 10
-18.2508255494
 20
16.6247686943
 10
-18.299880264
 20
16.5465792334
 10
-18.3441783681
 20
16.4647795629
 10
-18.3836915759
 20
16.3798238242
 10
-18.4183220649
 20
16.2920239861
 10
-18.4475276191
 20
16.2027577665
 10
-18.4711580972
 20
16.1123279614
 10
-18.4889194775
 20
16.0211172267
 10
-18.5003319973
 20
15.9301684576
 10
-18.5050119671
 20
15.8395544236
 10
-18.5044588724
 20
15.7883385083
  0
LINE
  5
21E
100
AcDbEntity
  8
RACCORDO
100
AcDbLine
 62
7
  6
CONTINUOUS
 10
-14.7259574181
 20
20.2406199811
 11
-18.114318875
 21
16.7930938905
  0
LINE
  5
21F
100
AcDbEntity
  8
RACCORDO
100
AcDbLine
 62
253
  6
CONTINUOUS
 10
-14.4026937329
 20
20.2696026594
 11
-17.7901842044
 21
16.8229627626
  0
LINE
  5
220
100
AcDbEntity
  8
DRAFT
100
AcDbLine
 62
7
  6
CONTINUOUS
 10
-11.1769576202
 20
19.2025927185
 11
-11.3581931439
 21
19.0468625862
  0
LINE
  5
221
100
AcDbEntity
  8
RACCORDO
100
AcDbLine
 62
253
  6
CONTINUOUS
 10
-7.0785773332
 20
21.5698910191
 11
-7.5253115026
 21
21.1881276673
  0
LINE
  5
222
100
AcDbEntity
  8
0
100
AcDbLine
 62
7
  6
CONTINUOUS
 10
-10.7177625632
 20
19.5787432881
 11
-4.1663407972
 21
24.6924746437
  0
LINE
  5
223
100
AcDbEntity
  8
RACCORDO
100
AcDbLine
 62
253
  6
CONTINUOUS
 10
-3.0570213656
 20
25.4660111038
 11
-3.032815333
 21
25.4828902249
  0
LINE
  5
224
100
AcDbEntity
  8
0
100
AcDbLine
 62
7
  6
CONTINUOUS
 10
-1.349558937
 20
23.4944723966
 11
-1.7491341638
 21
23.2701899359
  0
LWPOLYLINE
  5
225
100
AcDbEntity
  8
RACCORDO
100
AcDbPolyline
 62
7
  6
CONTINUOUS
 90
12
 70
0
 10
1.0809461187
 20
-23.8871978864
 10
1.144993581
 20
-23.9089175011
 10
1.2118975394
 20
-23.923648456
 10
1.2805988047
 20
-23.9309686881
 10
1.3504211828
 20
-23.9307119626
 10
1.4204831014
 20
-23.9228328379
 10
1.4908306398
 20
-23.9071997122
 10
1.5610693487
 20
-23.8836230023
 10
1.6304257021
 20
-23.8521236272
 10
1.6988244699
 20
-23.8124912425
 10
1.7662235928
 20
-23.7643330907
 10
1.8047208794
 20
-23.7324018029
  0
LINE
  5
226
100
AcDbEntity
  8
RACCORDO
100
AcDbLine
 62
7
  6
CONTINUOUS
 10
1.0808855766
 20
-23.887184367
 11
1.0809259875
 21
-23.8872005926
  0
LINE
  5
227
100
AcDbEntity
  8
RACCORDO
100
AcDbLine
 62
7
  6
CONTINUOUS
 10
1.0808964859
 20
-23.8871887484
 11
-16.0193593374
 21
-17.0193404935
  0
LINE
  5
228
100
AcDbEntity
  8
RACCORDO
100
AcDbLine
 62
253
  6
CONTINUOUS
 10
0.8827097976
 20
-23.5296098408
 11
-16.2134406473
 21
-16.6634103984
  0
LWPOLYLINE
  5
229
100
AcDbEntity
  8
RACCORDO
100
AcDbPolyline
 62
7
  6
CONTINUOUS
 90
7
 70
0
 10
-16.3211046183
 20
-16.7595695667
 10
-16.2803119854
 20
-16.8195247326
 10
-16.2341445778
 20
-16.8735201506
 10
-16.1828953137
 20
-16.921451385
 10
-16.127143686
 20
-16.9628953011
 10
-16.0677531586
 20
-16.9973835566
 10
-16.0190345462
 20
-17.0194616017
  0
LINE
  5
22A
100
AcDbEntity
  8
DRAFT
100
AcDbLine
 62
7
  6
CONTINUOUS
 10
-7.9249520088
 20
20.5428029027
 11
-8.2227382236
 21
20.2336457128
  0
LINE
  5
22B
100
AcDbEntity
  8
RACCORDO
100
AcDbLine
 62
253
  6
CONTINUOUS
 10
-8.2226200981
 20
20.2337682627
 11
-8.222738869
 21
20.2336450427
  0
LINE
  5
22C
100
AcDbEntity
  8
RACCORDO
100
AcDbLine
 62
253
  6
CONTINUOUS
 10
-6.8308963662
 20
21.5538083969
 11
-7.273298863
 21
21.1757198179
  0
LINE
  5
22D
100
AcDbEntity
  8
0
100
AcDbLine
 62
7
  6
CONTINUOUS
 10
-2.9126020753
 20
23.6248370669
 11
-4.0870860522
 21
22.6561270193
  0
LINE
  5
22E
100
AcDbEntity
  8
DRAFT
100
AcDbLine
 62
7
  6
CONTINUOUS
 10
-5.1249926163
 20
20.8686789922
 11
-5.0559549071
 21
20.9228670962
  0
LINE
  5
22F
100
AcDbEntity
  8
RACCORDO
100
AcDbLine
 62
7
  6
CONTINUOUS
 10
-3.8274847267
 20
22.5518652744
 11
-3.626627887
 21
22.7047497959
  0
LINE
  5
230
100
AcDbEntity
  8
RACCORDO
100
AcDbLine
 62
253
  6
CONTINUOUS
 10
-3.7522211192
 20
22.5216377129
 11
-3.5054940837
 21
22.7094368678
  0
LINE
  5
231
100
AcDbEntity
  8
0
100
AcDbLine
 62
7
  6
CONTINUOUS
 10
-2.9126020753
 20
22.7234011911
 11
-3.0894298074
 21
22.594032988
  0
LINE
  5
232
100
AcDbEntity
  8
RACCORDO
100
AcDbLine
 62
253
  6
CONTINUOUS
 10
-7.5506895409
 20
19.4132096828
 11
-7.550539611
 21
19.413305533
  0
LINE
  5
233
100
AcDbEntity
  8
DRAFT
100
AcDbLine
 62
7
  6
CONTINUOUS
 10
-7.244549474
 20
19.6087842886
 11
-7.5506811596
 21
19.4132150369
  0
LINE
  5
234
100
AcDbEntity
  8
RACCORDO
100
AcDbLine
 62
7
  6
CONTINUOUS
 10
-16.4266102519
 20
-16.4268104902
 11
-16.4266704008
 21
-16.426201356
  0
LWPOLYLINE
  5
235
100
AcDbEntity
  8
RACCORDO
100
AcDbPolyline
 62
7
  6
CONTINUOUS
 90
10
 70
0
 10
-18.5045043639
 20
15.7892890996
 10
-18.372735199
 20
12.2155557244
 10
-18.2126289104
 20
8.5400999948
 10
-18.02835747
 20
4.8873829863
 10
-17.8199364812
 20
1.2577644265
 10
-17.5873828322
 20
-2.348460225
 10
-17.3307128693
 20
-5.9310200021
 10
-17.0499453902
 20
-9.4896216366
 10
-16.7451081283
 20
-13.0239175041
 10
-16.4266821415
 20
-16.4262025001
  0
LINE
  5
236
100
AcDbEntity
  8
0
100
AcDbLine
 62
7
  6
CONTINUOUS
 10
4.188029116
 20
21.8713051943
 11
3.5603886068
 21
21.5225267709
  0
LWPOLYLINE
  5
237
100
AcDbEntity
  8
RACCORDO
100
AcDbPolyline
 62
7
  6
CONTINUOUS
 90
6
 70
0
 10
-16.4266102519
 20
-16.4268104902
 10
-16.421989789
 20
-16.4657621543
 10
-16.4067637988
 20
-16.5469499406
 10
-16.384723743
 20
-16.6229154947
 10
-16.3560898706
 20
-16.693839134
 10
-16.3211046183
 20
-16.7595695667
  0
LINE
  5
238
100
AcDbEntity
  8
RACCORDO
100
AcDbLine
 62
253
  6
CONTINUOUS
 10
1.4347612696
 20
20.7253189424
 11
1.2114747624
 21
20.5281055429
  0
LINE
  5
239
100
AcDbEntity
  8
0
100
AcDbLine
 62
7
  6
CONTINUOUS
 10
2.6576318259
 20
21.3877055542
 11
1.4230947701
 21
20.443114177
  0
LINE
  5
23A
100
AcDbEntity
  8
DRAFT
100
AcDbLine
 62
7
  6
CONTINUOUS
 10
0.281410876
 20
18.6973454652
 11
0.3438895943
 21
18.7541678078
  0
LINE
  5
23B
100
AcDbEntity
  8
RACCORDO
100
AcDbLine
 62
253
  6
CONTINUOUS
 10
1.5450161253
 20
17.6340857144
 11
1.9948925141
 21
18.0091726098
  0
LINE
  5
23C
100
AcDbEntity
  8
RACCORDO
100
AcDbLine
 62
253
  6
CONTINUOUS
 10
1.4599829463
 20
15.7943204711
 11
1.4601328761
 21
15.7944163213
  0
LINE
  5
23D
100
AcDbEntity
  8
DRAFT
100
AcDbLine
 62
7
  6
CONTINUOUS
 10
1.7661230131
 20
15.9898950769
 11
1.4599913275
 21
15.7943258251
  0
LINE
  5
23E
100
AcDbEntity
  8
0
100
AcDbLine
 62
7
  6
CONTINUOUS
 10
3.5603886068
 20
21.5225267709
 11
3.3296085107
 21
21.2304523802
  0
LINE
  5
23F
100
AcDbEntity
  8
DRAFT
100
AcDbLine
 62
7
  6
CONTINUOUS
 10
1.0857204784
 20
16.923913691
 11
0.7879342636
 21
16.6147565011
  0
LINE
  5
240
100
AcDbEntity
  8
RACCORDO
100
AcDbLine
 62
253
  6
CONTINUOUS
 10
0.7880523891
 20
16.614879051
 11
0.7879336182
 21
16.614755831
  0
LINE
  5
241
100
AcDbEntity
  8
RACCORDO
100
AcDbLine
 62
7
  6
CONTINUOUS
 10
-0.501361323
 20
15.166072344
 11
-0.5027107358
 21
15.1649114667
  0
LINE
  5
242
100
AcDbEntity
  8
DRAFT
100
AcDbLine
 62
7
  6
CONTINUOUS
 10
-0.5016889196
 20
15.1657908512
 11
-0.8816938307
 21
14.8392642748
  0
LINE
  5
243
100
AcDbEntity
  8
RACCORDO
100
AcDbLine
 62
253
  6
CONTINUOUS
 10
1.7875769798
 20
17.4485549534
 11
2.241713873
 21
17.8273030163
  0
LINE
  5
244
100
AcDbEntity
  8
RACCORDO
100
AcDbLine
 62
7
  6
CONTINUOUS
 10
3.5364348581
 20
20.6431402147
 11
4.3253329779
 21
21.6147086632
  0
LINE
  5
245
100
AcDbEntity
  8
RACCORDO
100
AcDbLine
 62
7
  6
CONTINUOUS
 10
5.2594148757
 20
-11.9708553565
 11
5.1365420691
 21
-11.9215068672
  0
LINE
  5
246
100
AcDbEntity
  8
RACCORDO
100
AcDbLine
 62
253
  6
CONTINUOUS
 10
2.881663909
 20
13.3278149636
 11
-0.680122051
 21
9.9511760644
  0
LINE
  5
247
100
AcDbEntity
  8
RACCORDO
100
AcDbLine
 62
253
  6
CONTINUOUS
 10
3.3161075627
 20
12.7758718068
 11
-0.2431291598
 21
9.4016496319
  0
LINE
  5
248
100
AcDbEntity
  8
RACCORDO
100
AcDbLine
 62
253
  6
CONTINUOUS
 10
3.5894327806
 20
11.7857259702
 11
3.390061702
 21
11.6292384379
  0
LINE
  5
249
100
AcDbEntity
  8
DRAFT
100
AcDbLine
 62
7
  6
CONTINUOUS
 10
6.8346272304
 20
-10.8846762186
 11
6.7117544237
 21
-10.8353277294
  0
LINE
  5
24A
100
AcDbEntity
  8
0
100
AcDbLine
 62
7
  6
CONTINUOUS
 10
-5.2641012292
 20
21.0064633517
 11
-5.2641012292
 21
20.9245481473
  0
LINE
  5
24B
100
AcDbEntity
  8
RACCORDO
100
AcDbLine
 62
253
  6
CONTINUOUS
 10
5.9277782581
 20
10.0725530512
 11
6.8346272304
 21
10.7960672814
  0
LINE
  5
24C
100
AcDbEntity
  8
RACCORDO
100
AcDbLine
 62
253
  6
CONTINUOUS
 10
5.6605527564
 20
11.2843879627
 11
6.4876905034
 21
11.9434909441
  0
LINE
  5
24D
100
AcDbEntity
  8
RACCORDO
100
AcDbLine
 62
253
  6
CONTINUOUS
 10
4.3154541299
 20
10.5648593025
 11
3.4999925453
 21
9.924798708
  0
LINE
  5
24E
100
AcDbEntity
  8
RACCORDO
100
AcDbLine
 62
7
  6
CONTINUOUS
 10
-2.9126020753
 20
22.5230149843
 11
-2.9126020753
 21
22.7234011911
  0
LINE
  5
24F
100
AcDbEntity
  8
0
100
AcDbLine
 62
7
  6
CONTINUOUS
 10
-2.9126020753
 20
22.7234011911
 11
-2.9126020753
 21
23.6248370669
  0
LINE
  5
250
100
AcDbEntity
  8
0
100
AcDbLine
 62
7
  6
CONTINUOUS
 10
-1.7491341638
 20
23.2701899359
 11
-1.7491341638
 21
22.4281605282
  0
LINE
  5
251
100
AcDbEntity
  8
RACCORDO
100
AcDbLine
 62
253
  6
CONTINUOUS
 10
13.1205530354
 20
11.3803197515
 11
17.8282496914
 21
15.263210571
  0
LINE
  5
252
100
AcDbEntity
  8
RACCORDO
100
AcDbLine
 62
253
  6
CONTINUOUS
 10
13.5300666771
 20
10.806336199
 11
18.2377633331
 21
14.6892270184
  0
LINE
  5
253
100
AcDbEntity
  8
RACCORDO
100
AcDbLine
 62
7
  6
CONTINUOUS
 10
6.8346272304
 20
6.3175167115
 11
5.5365888957
 21
5.3243380843
  0
LINE
  5
254
100
AcDbEntity
  8
0
100
AcDbLine
 62
7
  6
CONTINUOUS
 10
0.4205194889
 20
18.6414763101
 11
0.4205194889
 21
18.7233915146
  0
LINE
  5
255
100
AcDbEntity
  8
RACCORDO
100
AcDbLine
 62
253
  6
CONTINUOUS
 10
4.4232269214
 20
-4.3896311945
 11
5.1365420691
 21
-11.9215068672
  0
LINE
  5
256
100
AcDbEntity
  8
RACCORDO
100
AcDbLine
 62
253
  6
CONTINUOUS
 10
5.6521146423
 20
-16.1173617472
 11
5.2594148757
 21
-11.9708553565
  0
LINE
  5
257
100
AcDbEntity
  8
RACCORDO
100
AcDbLine
 62
253
  6
CONTINUOUS
 10
4.6600610788
 20
-3.9338251961
 11
5.4137160891
 21
-11.8916484049
  0
LINE
  5
258
100
AcDbEntity
  8
RACCORDO
100
AcDbLine
 62
253
  6
CONTINUOUS
 10
5.9277782581
 20
-16.0715549675
 11
5.5365888957
 21
-11.9409968941
  0
LINE
  5
259
100
AcDbEntity
  8
RACCORDO
100
AcDbLine
 62
7
  6
CONTINUOUS
 10
3.3161075627
 20
12.7758718068
 11
5.4557058306
 21
-20.3978598251
  0
LINE
  5
25A
100
AcDbEntity
  8
0
100
AcDbLine
 62
7
  6
CONTINUOUS
 10
3.3296085107
 20
21.2304523802
 11
3.3296085107
 21
20.9853112082
  0
LINE
  5
25B
100
AcDbEntity
  8
RACCORDO
100
AcDbLine
 62
253
  6
CONTINUOUS
 10
3.8296727231
 20
4.8132214998
 11
4.3154541299
 21
10.5648593025
  0
LINE
  5
25C
100
AcDbEntity
  8
RACCORDO
100
AcDbLine
 62
253
  6
CONTINUOUS
 10
4.0071299207
 20
2.0618089862
 11
4.7258351082
 21
10.5712576152
  0
LINE
  5
25D
100
AcDbEntity
  8
RACCORDO
100
AcDbLine
 62
253
  6
CONTINUOUS
 10
5.1365420691
 20
5.3494784771
 11
4.384397463
 21
-3.7799729323
  0
LINE
  5
25E
100
AcDbEntity
  8
RACCORDO
100
AcDbLine
 62
253
  6
CONTINUOUS
 10
5.2594148757
 20
5.3001299879
 11
5.6521146423
 21
10.0666780802
  0
LINE
  5
25F
100
AcDbEntity
  8
RACCORDO
100
AcDbLine
 62
253
  6
CONTINUOUS
 10
5.4060136976
 20
5.2801957639
 11
4.6600610788
 21
-3.7740979612
  0
LINE
  5
260
100
AcDbEntity
  8
RACCORDO
100
AcDbLine
 62
253
  6
CONTINUOUS
 10
5.5365888957
 20
5.3243380843
 11
5.9277782581
 21
10.0725530512
  0
LINE
  5
261
100
AcDbEntity
  8
DRAFT
100
AcDbLine
 62
7
  6
CONTINUOUS
 10
6.7117544237
 20
6.2235020417
 11
6.7117544237
 21
-10.8353277294
  0
LINE
  5
262
100
AcDbEntity
  8
0
100
AcDbLine
 62
7
  6
CONTINUOUS
 10
6.7117544237
 20
-10.8353277294
 11
6.7117544237
 21
6.2235020417
  0
LINE
  5
263
100
AcDbEntity
  8
RACCORDO
100
AcDbLine
 62
7
  6
CONTINUOUS
 10
6.8346272304
 20
-15.3632267886
 11
6.8346272304
 21
-10.8846762186
  0
LINE
  5
264
100
AcDbEntity
  8
RACCORDO
100
AcDbLine
 62
7
  6
CONTINUOUS
 10
6.8346272304
 20
6.3175167115
 11
6.8346272304
 21
10.7960672814
  0
LINE
  5
265
100
AcDbEntity
  8
RACCORDO
100
AcDbLine
 62
7
  6
CONTINUOUS
 10
5.1365420691
 20
5.3494784771
 11
5.2594148757
 21
5.3001299879
  0
LINE
  5
266
100
AcDbEntity
  8
RACCORDO
100
AcDbLine
 62
253
  6
CONTINUOUS
 10
-18.2912755058
 20
15.5527009182
 11
-1.1951250609
 21
8.6865014759
  0
LINE
  5
267
100
AcDbEntity
  8
RACCORDO
100
AcDbLine
 62
253
  6
CONTINUOUS
 10
-17.7901842044
 20
16.8229627626
 11
-0.680122051
 21
9.9511760644
  0
LINE
  5
268
100
AcDbEntity
  8
RACCORDO
100
AcDbLine
 62
253
  6
CONTINUOUS
 10
12.9805493413
 20
16.2451710124
 11
12.9805493413
 21
11.1580748014
  0
LINE
  5
269
100
AcDbEntity
  8
RACCORDO
100
AcDbLine
 62
253
  6
CONTINUOUS
 10
18.3232445468
 20
-0.6206962107
 11
18.7826229919
 21
-0.1990262238
  0
LINE
  5
26A
100
AcDbEntity
  8
RACCORDO
100
AcDbLine
 62
7
  6
CONTINUOUS
 10
6.7117544237
 20
-10.8353277294
 11
5.4137160891
 21
-11.8916484049
  0
LINE
  5
26B
100
AcDbEntity
  8
RACCORDO
100
AcDbLine
 62
7
  6
CONTINUOUS
 10
6.8346272304
 20
-10.8846762186
 11
5.5365888957
 21
-11.9409968941
  0
LINE
  5
26C
100
AcDbEntity
  8
RACCORDO
100
AcDbLine
 62
253
  6
CONTINUOUS
 10
3.5894327806
 20
11.7857259702
 11
3.3700005377
 21
11.8738549059
  0
LINE
  5
26D
100
AcDbEntity
  8
RACCORDO
100
AcDbLine
 62
253
  6
CONTINUOUS
 10
3.7572200192
 20
12.1389285582
 11
3.5376726456
 21
12.2271037331
  0
LWPOLYLINE
  5
26E
100
AcDbEntity
  8
RACCORDO
100
AcDbPolyline
 62
7
  6
CONTINUOUS
 90
11
 70
0
 10
13.0660163336
 20
16.4055181609
 10
13.062132518
 20
16.522533518
 10
13.0513132696
 20
16.6348945704
 10
13.0335724733
 20
16.7483968146
 10
13.0090081002
 20
16.8625804864
 10
12.9778317448
 20
16.9766690792
 10
12.9401781147
 20
17.0903640973
 10
12.8962070618
 20
17.2033376078
 10
12.8463067164
 20
17.3147433282
 10
12.7908018417
 20
17.4240766292
 10
12.727718124
 20
17.5347954311
  0
LINE
  5
26F
100
AcDbEntity
  8
RACCORDO
100
AcDbLine
 62
7
  6
CONTINUOUS
 10
13.066030555
 20
16.4055409485
 11
13.066030555
 21
11.3184447377
  0
LINE
  5
270
100
AcDbEntity
  8
RACCORDO
100
AcDbLine
 62
253
  6
CONTINUOUS
 10
18.3536440803
 20
-3.0452177146
 11
18.3524516023
 21
-3.0463446894
  0
LINE
  5
271
100
AcDbEntity
  8
DRAFT
100
AcDbLine
 62
7
  6
CONTINUOUS
 10
18.3232445468
 20
-3.07393599
 11
18.3528647914
 21
-3.0459545455
  0
LINE
  5
272
100
AcDbEntity
  8
RACCORDO
100
AcDbLine
 62
253
  6
CONTINUOUS
 10
18.3232445468
 20
-2.3409155038
 11
18.7826229919
 21
-1.9192455168
  0
LINE
  5
273
100
AcDbEntity
  8
RACCORDO
100
AcDbLine
 62
7
  6
CONTINUOUS
 10
2.881663909
 20
13.3278149636
 11
-14.4026937329
 21
20.2696026594
  0
LWPOLYLINE
  5
274
100
AcDbEntity
  8
RACCORDO
100
AcDbPolyline
 62
7
  6
CONTINUOUS
 90
12
 70
0
 10
17.8828196362
 20
-6.4103136855
 10
17.9529988779
 20
-6.3449012697
 10
18.0191024198
 20
-6.2722902119
 10
18.0797868565
 20
-6.1933982401
 10
18.1346258996
 20
-6.1084448074
 10
18.1831499588
 20
-6.0178146757
 10
18.2248955053
 20
-5.9220384805
 10
18.2595713169
 20
-5.8214889547
 10
18.2869463328
 20
-5.7165265214
 10
18.306781431
 20
-5.6076312873
 10
18.3189087508
 20
-5.495192027
 10
18.323233819
 20
-5.3743198393
  0
LINE
  5
275
100
AcDbEntity
  8
0
100
AcDbLine
 62
7
  6
CONTINUOUS
 10
10.6411735755
 20
-12.6330212799
 11
6.6171072228
 21
-16.0907781961
  0
LINE
  5
276
100
AcDbEntity
  8
RACCORDO
100
AcDbLine
 62
7
  6
CONTINUOUS
 10
17.8828753481
 20
-6.4102658247
 11
17.8799941594
 21
-6.4127297055
  0
LINE
  5
277
100
AcDbEntity
  8
RACCORDO
100
AcDbLine
 62
253
  6
CONTINUOUS
 10
5.9277782581
 20
-16.0715549675
 11
6.8346272304
 21
-15.3632267886
  0
LINE
  5
278
100
AcDbEntity
  8
RACCORDO
100
AcDbLine
 62
253
  6
CONTINUOUS
 10
5.6605527564
 20
-16.8780742395
 11
6.4876905034
 21
-16.2319752292
  0
LINE
  5
279
100
AcDbEntity
  8
DRAFT
100
AcDbLine
 62
7
  6
CONTINUOUS
 10
5.9218289776
 20
-16.7008805549
 11
5.2510326305
 21
-17.2244725988
  0
LINE
  5
27A
100
AcDbEntity
  8
RACCORDO
100
AcDbLine
 62
253
  6
CONTINUOUS
 10
13.066030555
 20
11.4022172088
 11
13.1205530354
 21
11.3803197515
  0
LINE
  5
27B
100
AcDbEntity
  8
RACCORDO
100
AcDbLine
 62
253
  6
CONTINUOUS
 10
1.4331579662
 20
17.3986173223
 11
-7.3851570221
 21
20.9402514259
  0
LINE
  5
27C
100
AcDbEntity
  8
RACCORDO
100
AcDbLine
 62
253
  6
CONTINUOUS
 10
1.5450161253
 20
17.6340857144
 11
-7.273298863
 21
21.1757198179
  0
LWPOLYLINE
  5
27D
100
AcDbEntity
  8
RACCORDO
100
AcDbPolyline
 62
7
  6
CONTINUOUS
 90
10
 70
0
 10
13.0705339951
 20
11.2284447192
 10
13.0724043302
 20
11.2252437173
 10
13.0764154994
 20
11.217431949
 10
13.0771758367
 20
11.2156384546
 10
13.075847233
 20
11.2199278878
 10
13.0734509891
 20
11.2299140353
 10
13.0707126979
 20
11.2454602471
 10
13.0681945287
 20
11.2668844579
 10
13.0664503242
 20
11.2948421477
 10
13.0660299769
 20
11.3184472728
  0
LINE
  5
27E
100
AcDbEntity
  8
RACCORDO
100
AcDbLine
 62
253
  6
CONTINUOUS
 10
18.2377633331
 20
14.6892270184
 11
18.2377633331
 21
-5.5346334876
  0
LINE
  5
27F
100
AcDbEntity
  8
RACCORDO
100
AcDbLine
 62
7
  6
CONTINUOUS
 10
18.3232445468
 20
14.8495969549
 11
18.3232445468
 21
-5.3742635466
  0
LINE
  5
280
100
AcDbEntity
  8
RACCORDO
100
AcDbLine
 62
253
  6
CONTINUOUS
 10
18.7826229919
 20
-0.1990262238
 11
18.7826229919
 21
-1.9192455168
  0
LINE
  5
281
100
AcDbEntity
  8
RACCORDO
100
AcDbLine
 62
7
  6
CONTINUOUS
 10
18.8282085631
 20
-0.1078414628
 11
18.8282085631
 21
-1.8280607558
  0
LINE
  5
282
100
AcDbEntity
  8
RACCORDO
100
AcDbLine
 62
253
  6
CONTINUOUS
 10
1.8805233788
 20
-23.5248489791
 11
5.4557058306
 21
-20.3978598251
  0
LINE
  5
283
100
AcDbEntity
  8
RACCORDO
100
AcDbLine
 62
7
  6
CONTINUOUS
 10
5.3839592
 20
-20.6018846521
 11
1.8047299136
 21
-23.7324121611
  0
LINE
  5
284
100
AcDbEntity
  8
DRAFT
100
AcDbLine
 62
7
  6
CONTINUOUS
 10
-4.5515861853
 20
20.6383860424
 11
-4.0600949587
 21
20.4409920854
  0
LINE
  5
285
100
AcDbEntity
  8
DRAFT
100
AcDbLine
 62
7
  6
CONTINUOUS
 10
-0.7834867815
 20
19.125032372
 11
-0.291995555
 21
18.927638415
  0
LINE
  5
286
100
AcDbEntity
  8
RACCORDO
100
AcDbLine
 62
7
  6
CONTINUOUS
 10
1.9948925141
 20
18.0091726098
 11
0.281410876
 21
18.6973454652
  0
LINE
  5
287
100
AcDbEntity
  8
RACCORDO
100
AcDbLine
 62
7
  6
CONTINUOUS
 10
-5.1249926163
 20
20.8686789922
 11
-6.8308963662
 21
21.5538083969
  0
LINE
  5
288
100
AcDbEntity
  8
0
100
AcDbLine
 62
7
  6
CONTINUOUS
 10
-5.2641012292
 20
21.0064633517
 11
0.4205194889
 21
18.7233915146
  0
LINE
  5
289
100
AcDbEntity
  8
0
100
AcDbLine
 62
7
  6
CONTINUOUS
 10
-5.4320581221
 20
21.8930706707
 11
0.5884763819
 21
19.4750882841
  0
LINE
  5
28A
100
AcDbEntity
  8
RACCORDO
100
AcDbLine
 62
253
  6
CONTINUOUS
 10
5.5117648917
 20
18.5493527607
 11
5.4017601417
 21
18.5935331483
  0
LINE
  5
28B
100
AcDbEntity
  8
RACCORDO
100
AcDbLine
 62
7
  6
CONTINUOUS
 10
1.6836794172
 20
20.6424974272
 11
1.5401345852
 21
20.7314781343
  0
LINE
  5
28C
100
AcDbEntity
  8
0
100
AcDbLine
 62
7
  6
CONTINUOUS
 10
1.4230947701
 20
20.443114177
 11
-4.0870860522
 21
22.6561270193
  0
LINE
  5
28D
100
AcDbEntity
  8
RACCORDO
100
AcDbLine
 62
253
  6
CONTINUOUS
 10
-3.5054940837
 20
22.7094368678
 11
1.4347612696
 21
20.7253189424
  0
LINE
  5
28E
100
AcDbEntity
  8
RACCORDO
100
AcDbLine
 62
7
  6
CONTINUOUS
 10
-3.430956426
 20
22.7311977776
 11
1.5092989273
 21
20.7470798523
  0
LINE
  5
28F
100
AcDbEntity
  8
0
100
AcDbLine
 62
7
  6
CONTINUOUS
 10
2.0324808329
 20
20.909378691
 11
-1.7491341638
 21
22.4281605282
  0
LINE
  5
290
100
AcDbEntity
  8
RACCORDO
100
AcDbLine
 62
253
  6
CONTINUOUS
 10
12.8739821726
 20
17.2529560979
 11
17.8282496914
 21
15.263210571
  0
LINE
  5
291
100
AcDbEntity
  8
0
100
AcDbLine
 62
7
  6
CONTINUOUS
 10
2.8655253038
 20
21.3042108466
 11
2.6576318259
 21
21.3877055542
  0
LINE
  5
292
100
AcDbEntity
  8
0
100
AcDbLine
 62
7
  6
CONTINUOUS
 10
-2.9126020753
 20
23.6248370669
 11
-3.1204955532
 21
23.7083317744
  0
LINE
  5
293
100
AcDbEntity
  8
RACCORDO
100
AcDbLine
 62
7
  6
CONTINUOUS
 10
12.8000603331
 20
17.4058392863
 11
18.009588691
 21
15.3135752517
  0
LINE
  5
294
100
AcDbEntity
  8
0
100
AcDbLine
 62
7
  6
CONTINUOUS
 10
3.3296085107
 20
21.2304523802
 11
-1.7491341638
 21
23.2701899359
  0
LINE
  5
295
100
AcDbEntity
  8
0
100
AcDbLine
 62
7
  6
CONTINUOUS
 10
3.5603886068
 20
21.5225267709
 11
-1.349558937
 21
23.4944723966
  0
LINE
  5
296
100
AcDbEntity
  8
RACCORDO
100
AcDbLine
 62
7
  6
CONTINUOUS
 10
4.188029116
 20
21.8713051943
 11
4.4643520165
 21
21.6820699944
  0
LINE
  5
297
100
AcDbEntity
  8
0
100
AcDbLine
 62
7
  6
CONTINUOUS
 10
-0.2628551735
 20
23.6588806678
 11
-1.349558937
 21
23.4944723966
  0
LINE
  5
298
100
AcDbEntity
  8
RACCORDO
100
AcDbLine
 62
253
  6
CONTINUOUS
 10
7.6564446494
 20
20.2768591178
 11
4.3253329779
 21
21.6147086632
  0
LINE
  5
299
100
AcDbEntity
  8
RACCORDO
100
AcDbLine
 62
253
  6
CONTINUOUS
 10
-0.6272019744
 20
23.6037583523
 11
-3.3562374103
 21
24.6998005081
  0
LINE
  5
29A
100
AcDbEntity
  8
RACCORDO
100
AcDbLine
 62
7
  6
CONTINUOUS
 10
7.837783653
 20
20.3272237969
 11
4.4584436988
 21
21.684442908
  0
LINE
  5
29B
100
AcDbEntity
  8
RACCORDO
100
AcDbLine
 62
7
  6
CONTINUOUS
 10
-0.4043921714
 20
23.6374674235
 11
-3.1748984147
 21
24.7501651904
  0
LINE
  5
29C
100
AcDbEntity
  8
0
100
AcDbLine
 62
7
  6
CONTINUOUS
 10
4.188029116
 20
21.8713051943
 11
-0.2628551735
 21
23.6588806678
  0
LINE
  5
29D
100
AcDbEntity
  8
RACCORDO
100
AcDbLine
 62
253
  6
CONTINUOUS
 10
10.2094145068
 20
19.5080790469
 11
-3.4041525572
 21
24.9755944905
  0
LINE
  5
29E
100
AcDbEntity
  8
RACCORDO
100
AcDbLine
 62
253
  6
CONTINUOUS
 10
10.7688409089
 20
20.0241320456
 11
-2.7743207639
 21
25.4633710969
  0
LINE
  5
29F
100
AcDbEntity
  8
RACCORDO
100
AcDbLine
 62
7
  6
CONTINUOUS
 10
10.9601901963
 20
20.0826966756
 11
-2.582971474
 21
25.5219357259
  0
LINE
  5
2A0
100
AcDbEntity
  8
RACCORDO
100
AcDbLine
 62
7
  6
CONTINUOUS
 10
9.5534617355
 20
19.5006951515
 11
9.5543377391
 21
19.5003430113
  0
LWPOLYLINE
  5
2A1
100
AcDbEntity
  8
RACCORDO
100
AcDbPolyline
 62
7
  6
CONTINUOUS
 90
3
 70
0
 10
9.5543416922
 20
19.5003414047
 10
9.5269935446
 20
19.5117448551
 10
9.4840255946
 20
19.5312782121
  0
LWPOLYLINE
  5
2A2
100
AcDbEntity
  8
RACCORDO
100
AcDbPolyline
 62
7
  6
CONTINUOUS
 90
7
 70
0
 10
9.163228273
 20
19.6873696178
 10
8.9639226368
 20
19.7841867942
 10
8.7646323135
 20
19.8808479281
 10
8.565370933
 20
19.9773469797
 10
8.3661503546
 20
20.0736787761
 10
8.1669826685
 20
20.1698380235
 10
7.8682942911
 20
20.3137718829
  0
LINE
  5
2A3
100
AcDbEntity
  8
RACCORDO
100
AcDbLine
 62
7
  6
CONTINUOUS
 10
9.4840255946
 20
19.5312782121
 11
9.163228273
 21
19.6873696178
  0
LINE
  5
2A4
100
AcDbEntity
  8
RACCORDO
100
AcDbLine
 62
7
  6
CONTINUOUS
 10
-3.7311639725
 20
24.7819515693
 11
-3.7318247343
 21
24.7818909908
  0
LINE
  5
2A5
100
AcDbEntity
  8
RACCORDO
100
AcDbLine
 62
7
  6
CONTINUOUS
 10
-3.7066893081
 20
24.7840426453
 11
-3.7318247343
 21
24.7818909908
  0
LWPOLYLINE
  5
2A6
100
AcDbEntity
  8
RACCORDO
100
AcDbPolyline
 62
7
  6
CONTINUOUS
 90
3
 70
0
 10
-3.6097578513
 20
24.7894805017
 10
-3.6584826743
 20
24.7872873486
 10
-3.7066893081
 20
24.7840426453
  0
LINE
  5
2A7
100
AcDbEntity
  8
RACCORDO
100
AcDbLine
 62
7
  6
CONTINUOUS
 10
-3.5605461154
 20
24.7906869012
 11
-3.6097578513
 21
24.7894805017
  0
LINE
  5
2A8
100
AcDbEntity
  8
RACCORDO
100
AcDbLine
 62
7
  6
CONTINUOUS
 10
-3.510872859
 20
24.7909672051
 11
-3.5605461154
 21
24.7906869012
  0
LWPOLYLINE
  5
2A9
100
AcDbEntity
  8
RACCORDO
100
AcDbPolyline
 62
7
  6
CONTINUOUS
 90
3
 70
0
 10
-3.410343277
 20
24.7889739386
 10
-3.4607852898
 20
24.7903781047
 10
-3.510872859
 20
24.7909672051
  0
LWPOLYLINE
  5
2AA
100
AcDbEntity
  8
RACCORDO
100
AcDbPolyline
 62
7
  6
CONTINUOUS
 90
3
 70
0
 10
-3.3327940301
 20
24.7853770076
 10
-3.3595924929
 20
24.7868064625
 10
-3.410343277
 20
24.7889739386
  0
ARC
  5
2AB
100
AcDbEntity
  8
RACCORDO
100
AcDbCircle
 62
253
  6
CONTINUOUS
 10
-139.8646405429
 20
-281.4072562926
 40
335.7518337945
100
AcDbArc
 50
63.5764278455
 51
63.8848556819
  0
ARC
  5
2AC
100
AcDbEntity
  8
0
100
AcDbCircle
 62
7
  6
CONTINUOUS
 10
-29.3441400051
 20
-9.3678010242
 40
41.6764500315
100
AcDbArc
 50
40.7281590246
 51
40.8521734218
  0
ARC
  5
2AD
100
AcDbEntity
  8
0
100
AcDbCircle
 62
7
  6
CONTINUOUS
 10
-29.3226487103
 20
-9.349196686
 40
41.6480247445
100
AcDbArc
 50
40.8521532632
 51
41.1396925712
  0
ARC
  5
2AE
100
AcDbEntity
  8
RACCORDO
100
AcDbCircle
 62
7
  6
CONTINUOUS
 10
-27.0225900148
 20
-7.46763594
 40
41.5953810535
100
AcDbArc
 50
38.8694101468
 51
41.6323626339
  0
ARC
  5
2AF
100
AcDbEntity
  8
0
100
AcDbCircle
 62
7
  6
CONTINUOUS
 10
-29.2774481869
 20
-9.3096674098
 40
41.5879776802
100
AcDbArc
 50
41.1396477798
 51
41.578583689
  0
ARC
  5
2B0
100
AcDbEntity
  8
0
100
AcDbCircle
 62
7
  6
CONTINUOUS
 10
-29.1491592689
 20
-9.1924203759
 40
41.414178738
100
AcDbArc
 50
42.8182419379
 51
43.1985216823
  0
ARC
  5
2B1
100
AcDbEntity
  8
RACCORDO
100
AcDbCircle
 62
7
  6
CONTINUOUS
 10
-29.0602756463
 20
-9.2353045334
 40
41.3787297444
100
AcDbArc
 50
30.7856736115
 51
40.8455489313
  0
ARC
  5
2B2
100
AcDbEntity
  8
0
100
AcDbCircle
 62
7
  6
CONTINUOUS
 10
-26.8163548151
 20
-7.282129021
 40
41.3179770293
100
AcDbArc
 50
42.7635308309
 51
43.1683136151
  0
ARC
  5
2B3
100
AcDbEntity
  8
RACCORDO
100
AcDbCircle
 62
253
  6
CONTINUOUS
 10
-22.1746180586
 20
-3.564151353
 40
40.6300641543
100
AcDbArc
 50
31.0740592322
 51
35.0884603644
  0
ARC
  5
2B4
100
AcDbEntity
  8
RACCORDO
100
AcDbCircle
 62
7
  6
CONTINUOUS
 10
-21.8745544873
 20
-3.3171400716
 40
40.3995195528
100
AcDbArc
 50
31.0738805476
 51
35.0884110077
  0
ARC
  5
2B5
100
AcDbEntity
  8
RACCORDO
100
AcDbCircle
 62
253
  6
CONTINUOUS
 10
-28.2621714936
 20
-5.7306347365
 40
37.9507867902
100
AcDbArc
 50
26.6375118351
 51
37.6451762621
  0
ARC
  5
2B6
100
AcDbEntity
  8
RACCORDO
100
AcDbCircle
 62
253
  6
CONTINUOUS
 10
-28.2523442941
 20
-5.7039317281
 40
37.66056832
100
AcDbArc
 50
26.6081424341
 51
37.6218511796
  0
ARC
  5
2B7
100
AcDbEntity
  8
RACCORDO
100
AcDbCircle
 62
7
  6
CONTINUOUS
 10
-1.8231454515
 20
-6.7782412427
 40
12.5874199368
100
AcDbArc
 50
307.9703970459
 51
310.4806036084
  0
ARC
  5
2B8
100
AcDbEntity
  8
RACCORDO
100
AcDbCircle
 62
7
  6
CONTINUOUS
 10
-1.817148925
 20
-6.7854126828
 40
12.5780722638
100
AcDbArc
 50
310.634800063
 51
311.3199561996
  0
ARC
  5
2B9
100
AcDbEntity
  8
RACCORDO
100
AcDbCircle
 62
7
  6
CONTINUOUS
 10
-1.0527824575
 20
-9.3358875598
 40
10.0972420548
100
AcDbArc
 50
308.6318915652
 51
308.9164212
  0
ARC
  5
2BA
100
AcDbEntity
  8
RACCORDO
100
AcDbCircle
 62
7
  6
CONTINUOUS
 10
-1.0220035099
 20
-9.3735307362
 40
10.0486183849
100
AcDbArc
 50
308.9147046833
 51
311.6840435106
  0
ARC
  5
2BB
100
AcDbEntity
  8
RACCORDO
100
AcDbCircle
 62
253
  6
CONTINUOUS
 10
-1.1903638863
 20
-9.4151269305
 40
9.938596113
100
AcDbArc
 50
310.3021023334
 51
311.6886024474
  0
ARC
  5
2BC
100
AcDbEntity
  8
RACCORDO
100
AcDbCircle
 62
253
  6
CONTINUOUS
 10
16.4370769385
 20
-0.2037435222
 40
2.3456222399
100
AcDbArc
 50
1.627147655
 51
4.766425076
  0
ARC
  5
2BD
100
AcDbEntity
  8
RACCORDO
100
AcDbCircle
 62
253
  6
CONTINUOUS
 10
16.5669914419
 20
-0.1992102309
 40
2.2156315577
100
AcDbArc
 50
0.0047583874
 51
1.6053606131
  0
ARC
  5
2BE
100
AcDbEntity
  8
RACCORDO
100
AcDbCircle
 62
7
  6
CONTINUOUS
 10
16.667692314
 20
-1.8285227951
 40
2.1605162985
100
AcDbArc
 50
355.7433972063
 51
0.0122530442
  0
ARC
  5
2BF
100
AcDbEntity
  8
RACCORDO
100
AcDbCircle
 62
253
  6
CONTINUOUS
 10
17.5132515263
 20
-2.1584788964
 40
1.2217294988
100
AcDbArc
 50
316.5633095848
 51
319.5497565489
  0
ARC
  5
2C0
100
AcDbEntity
  8
RACCORDO
100
AcDbCircle
 62
253
  6
CONTINUOUS
 10
17.5229849973
 20
-2.1676264005
 40
1.2083722998
100
AcDbArc
 50
314.3980105833
 51
316.560940927
  0
ARC
  5
2C1
100
AcDbEntity
  8
RACCORDO
100
AcDbCircle
 62
253
  6
CONTINUOUS
 10
17.5272635439
 20
-2.1719528892
 40
1.2022876009
100
AcDbArc
 50
313.4199116423
 51
314.3965794664
  0
ARC
  5
2C2
100
AcDbEntity
  8
RACCORDO
100
AcDbCircle
 62
7
  6
CONTINUOUS
 10
-1.9996373771
 20
6.9541547752
 40
15.2709175347
100
AcDbArc
 50
127.0072240657
 51
127.6864257557
  0
ARC
  5
2C3
100
AcDbEntity
  8
RACCORDO
100
AcDbCircle
 62
7
  6
CONTINUOUS
 10
-2.0224476351
 20
6.9799370091
 40
15.2366069885
100
AcDbArc
 50
111.1714965971
 51
126.8333475946
  0
ARC
  5
2C4
100
AcDbEntity
  8
RACCORDO
100
AcDbCircle
 62
253
  6
CONTINUOUS
 10
-2.0658473421
 20
6.8251396717
 40
15.1443252256
100
AcDbArc
 50
111.1824217646
 51
126.7701993655
  0
ARC
  5
2C5
100
AcDbEntity
  8
0
100
AcDbCircle
 62
7
  6
CONTINUOUS
 10
-2.1902121285
 20
7.8202064127
 40
14.593599731
100
AcDbArc
 50
104.664840011
 51
105.4270829211
  0
ARC
  5
2C6
100
AcDbEntity
  8
0
100
AcDbCircle
 62
7
  6
CONTINUOUS
 10
0.1226833975
 20
9.6886162685
 40
14.5425277477
100
AcDbArc
 50
104.7251057479
 51
105.5371015708
  0
ARC
  5
2C7
100
AcDbEntity
  8
0
100
AcDbCircle
 62
7
  6
CONTINUOUS
 10
-2.3458258822
 20
8.3394210133
 40
14.0514947606
100
AcDbArc
 50
107.9480693726
 51
108.7526159343
  0
ARC
  5
2C8
100
AcDbEntity
  8
0
100
AcDbCircle
 62
7
  6
CONTINUOUS
 10
-2.3789954116
 20
8.4371467899
 40
13.9482932828
100
AcDbArc
 50
108.7526504656
 51
109.5433805212
  0
ARC
  5
2C9
100
AcDbEntity
  8
0
100
AcDbCircle
 62
7
  6
CONTINUOUS
 10
-2.4096375762
 20
8.5235028762
 40
13.8566617131
100
AcDbArc
 50
109.6929417023
 51
110.0495829503
  0
ARC
  5
2CA
100
AcDbEntity
  8
RACCORDO
100
AcDbCircle
 62
7
  6
CONTINUOUS
 10
-0.101113222
 20
10.408399467
 40
13.7886285024
100
AcDbArc
 50
107.8239653222
 51
113.385369575
  0
ARC
  5
2CB
100
AcDbEntity
  8
0
100
AcDbCircle
 62
7
  6
CONTINUOUS
 10
-2.9501526953
 20
9.6269577785
 40
12.6243228984
100
AcDbArc
 50
127.2890398371
 51
127.9684558182
  0
ARC
  5
2CC
100
AcDbEntity
  8
RACCORDO
100
AcDbCircle
 62
7
  6
CONTINUOUS
 10
-2.9531406574
 20
9.6310438242
 40
12.619263171
100
AcDbArc
 50
127.973812344
 51
128.472205085
  0
ARC
  5
2CD
100
AcDbEntity
  8
0
100
AcDbCircle
 62
7
  6
CONTINUOUS
 10
-2.9550538156
 20
9.6332477392
 40
12.6163489062
100
AcDbArc
 50
127.9684828888
 51
128.4716297045
  0
ARC
  5
2CE
100
AcDbEntity
  8
RACCORDO
100
AcDbCircle
 62
7
  6
CONTINUOUS
 10
-2.9580275495
 20
9.6371796035
 40
12.6114191015
100
AcDbArc
 50
128.4721654938
 51
130.6686320939
  0
ARC
  5
2CF
100
AcDbEntity
  8
0
100
AcDbCircle
 62
7
  6
CONTINUOUS
 10
-2.9625895218
 20
9.6426839077
 40
12.6042730095
100
AcDbArc
 50
128.4714963708
 51
130.6692422716
  0
ARC
  5
2D0
100
AcDbEntity
  8
RACCORDO
100
AcDbCircle
 62
253
  6
CONTINUOUS
 10
-0.121736974
 20
12.3712367986
 40
3.269035261
100
AcDbArc
 50
17.6259762403
 51
18.1341854438
  0
ARC
  5
2D1
100
AcDbEntity
  8
RACCORDO
100
AcDbCircle
 62
253
  6
CONTINUOUS
 10
-0.0774854731
 20
12.3850542145
 40
3.2226772808
100
AcDbArc
 50
15.4700127372
 51
17.6300779663
  0
ARC
  5
2D2
100
AcDbEntity
  8
RACCORDO
100
AcDbCircle
 62
253
  6
CONTINUOUS
 10
12.9355374968
 20
10.9026230469
 40
0.5122742343
100
AcDbArc
 50
67.1302189243
 51
68.8282383152
  0
ARC
  5
2D3
100
AcDbEntity
  8
RACCORDO
100
AcDbCircle
 62
253
  6
CONTINUOUS
 10
12.8704759421
 20
11.671733426
 40
0.3840058363
100
AcDbArc
 50
307.3708336012
 51
310.6345941343
  0
ARC
  5
2D4
100
AcDbEntity
  8
0
100
AcDbCircle
 62
7
  6
CONTINUOUS
 10
-364.2304670279
 20
456.5379198695
 40
571.0193749624
100
AcDbArc
 50
309.8715689848
 51
310.1643260959
  0
ARC
  5
2D5
100
AcDbEntity
  8
RACCORDO
100
AcDbCircle
 62
7
  6
CONTINUOUS
 10
3.7946092434
 20
14.4782676319
 40
12.9504997446
100
AcDbArc
 50
121.9465034486
 51
122.4979078919
  0
ARC
  5
2D6
100
AcDbEntity
  8
RACCORDO
100
AcDbCircle
 62
7
  6
CONTINUOUS
 10
3.7619120786
 20
14.529022721
 40
12.8901251777
100
AcDbArc
 50
122.4965387446
 51
125.2294756657
  0
ARC
  5
2D7
100
AcDbEntity
  8
RACCORDO
100
AcDbCircle
 62
7
  6
CONTINUOUS
 10
3.722008318
 20
14.5860004648
 40
12.8205644218
100
AcDbArc
 50
125.2306932316
 51
127.9729047026
  0
ARC
  5
2D8
100
AcDbEntity
  8
RACCORDO
100
AcDbCircle
 62
253
  6
CONTINUOUS
 10
3.5858899708
 20
14.7572931961
 40
12.6017820268
100
AcDbArc
 50
121.8124616268
 51
127.9642303948
  0
ARC
  5
2D9
100
AcDbEntity
  8
RACCORDO
100
AcDbCircle
 62
253
  6
CONTINUOUS
 10
-3.727831203
 20
21.547677341
 40
3.1610894114
100
AcDbArc
 50
88.1399209614
 51
89.2405045694
  0
ARC
  5
2DA
100
AcDbEntity
  8
RACCORDO
100
AcDbCircle
 62
253
  6
CONTINUOUS
 10
0.3842090428
 20
13.2052807985
 40
2.7085102394
100
AcDbArc
 50
65.5681625681
 51
69.3161276682
  0
ARC
  5
2DB
100
AcDbEntity
  8
RACCORDO
100
AcDbCircle
 62
7
  6
CONTINUOUS
 10
-5.9759673075
 20
23.8469648116
 40
0.8779294965
100
AcDbArc
 50
291.6550425664
 51
292.0261471969
  0
ARC
  5
2DC
100
AcDbEntity
  8
RACCORDO
100
AcDbCircle
 62
7
  6
CONTINUOUS
 10
-5.953447795
 20
23.7894115908
 40
0.8161282052
100
AcDbArc
 50
289.5253587507
 51
291.6766663262
  0
ARC
  5
2DD
100
AcDbEntity
  8
RACCORDO
100
AcDbCircle
 62
7
  6
CONTINUOUS
 10
5.9554913086
 20
19.1291537859
 40
0.7721035135
100
AcDbArc
 50
225.7387186268
 51
228.9066051876
  0
ARC
  5
2DE
100
AcDbEntity
  8
RACCORDO
100
AcDbCircle
 62
7
  6
CONTINUOUS
 10
5.9111915222
 20
19.0833080564
 40
0.7083522641
100
AcDbArc
 50
223.9338401931
 51
225.71677895
  0
ARC
  5
2DF
100
AcDbEntity
  8
RACCORDO
100
AcDbCircle
 62
7
  6
CONTINUOUS
 10
5.8851071489
 20
19.0565147305
 40
0.6710015858
100
AcDbArc
 50
218.8682276119
 51
220.5554099803
  0
ARC
  5
2E0
100
AcDbEntity
  8
RACCORDO
100
AcDbCircle
 62
7
  6
CONTINUOUS
 10
5.8745102816
 20
19.0473656702
 40
0.6570017625
100
AcDbArc
 50
220.5500601023
 51
223.0724758547
  0
ARC
  5
2E1
100
AcDbEntity
  8
RACCORDO
100
AcDbCircle
 62
7
  6
CONTINUOUS
 10
5.8620991536
 20
19.0358602093
 40
0.6400782131
100
AcDbArc
 50
223.0788505631
 51
223.9242141877
  0
ARC
  5
2E2
100
AcDbEntity
  8
RACCORDO
100
AcDbCircle
 62
253
  6
CONTINUOUS
 10
5.3152142865
 20
18.0627710325
 40
0.5247798667
100
AcDbArc
 50
66.1466180633
 51
68.0041676459
  0
ARC
  5
2E3
100
AcDbEntity
  8
RACCORDO
100
AcDbCircle
 62
7
  6
CONTINUOUS
 10
-3.3627745703
 20
24.2815691147
 40
0.5048281999
100
AcDbArc
 50
68.101910713
 51
73.9281261947
  0
ARC
  5
2E4
100
AcDbEntity
  8
RACCORDO
100
AcDbCircle
 62
7
  6
CONTINUOUS
 10
-2.7680479995
 20
25.0550432951
 40
0.503160597
100
AcDbArc
 50
111.3001883485
 51
116.5538607534
  0
ARC
  5
2E5
100
AcDbEntity
  8
RACCORDO
100
AcDbCircle
 62
7
  6
CONTINUOUS
 10
10.7734305403
 20
19.6181493019
 40
0.5006829651
100
AcDbArc
 50
35.1116668073
 51
68.0986399568
  0
ARC
  5
2E6
100
AcDbEntity
  8
RACCORDO
100
AcDbCircle
 62
7
  6
CONTINUOUS
 10
-3.3615689895
 20
24.2856071184
 40
0.500614266
100
AcDbArc
 50
73.9327692326
 51
85.9906140876
  0
ARC
  5
2E7
100
AcDbEntity
  8
RACCORDO
100
AcDbCircle
 62
7
  6
CONTINUOUS
 10
-2.7694762731
 20
25.0577378992
 40
0.5002449791
100
AcDbArc
 50
68.0784812201
 51
79.2702396783
  0
ARC
  5
2E8
100
AcDbEntity
  8
RACCORDO
100
AcDbCircle
 62
7
  6
CONTINUOUS
 10
7.6513790235
 20
19.8631079537
 40
0.5001501792
100
AcDbArc
 50
64.2973611561
 51
68.1179357576
  0
ARC
  5
2E9
100
AcDbEntity
  8
RACCORDO
100
AcDbCircle
 62
7
  6
CONTINUOUS
 10
-2.769311977
 20
25.0578495119
 40
0.5001047493
100
AcDbArc
 50
79.2863529061
 51
105.978578626
  0
ARC
  5
2EA
100
AcDbEntity
  8
RACCORDO
100
AcDbCircle
 62
7
  6
CONTINUOUS
 10
-2.7691280112
 20
25.0579058905
 40
0.5001012277
100
AcDbArc
 50
106.0006190584
 51
111.3040394424
  0
ARC
  5
2EB
100
AcDbEntity
  8
RACCORDO
100
AcDbCircle
 62
7
  6
CONTINUOUS
 10
17.8232074257
 20
14.8495667773
 40
0.5000384136
100
AcDbArc
 50
0.0034578376
 51
68.1165008342
  0
ARC
  5
2EC
100
AcDbEntity
  8
RACCORDO
100
AcDbCircle
 62
7
  6
CONTINUOUS
 10
-3.3612118282
 20
24.2870403315
 40
0.4991596535
100
AcDbArc
 50
86.0200077605
 51
86.8282491178
  0
ARC
  5
2ED
100
AcDbEntity
  8
RACCORDO
100
AcDbCircle
 62
7
  6
CONTINUOUS
 10
-2.7701047702
 20
25.059084053
 40
0.4986266251
100
AcDbArc
 50
116.5500187933
 51
121.8083085497
  0
ARC
  5
2EE
100
AcDbEntity
  8
RACCORDO
100
AcDbCircle
 62
253
  6
CONTINUOUS
 10
-3.6860653037
 20
24.2915343375
 40
0.4925023645
100
AcDbArc
 50
95.3313242882
 51
124.8701415631
  0
ARC
  5
2EF
100
AcDbEntity
  8
RACCORDO
100
AcDbCircle
 62
253
  6
CONTINUOUS
 10
-3.3598979572
 20
24.3013007291
 40
0.4848432014
100
AcDbArc
 50
86.8900856735
 51
123.1782058868
  0
ARC
  5
2F0
100
AcDbEntity
  8
RACCORDO
100
AcDbCircle
 62
253
  6
CONTINUOUS
 10
-3.5378815687
 20
24.2541688095
 40
0.4812298942
100
AcDbArc
 50
67.8236756394
 51
71.9377597777
  0
ARC
  5
2F1
100
AcDbEntity
  8
RACCORDO
100
AcDbCircle
 62
253
  6
CONTINUOUS
 10
-5.6939352475
 20
22.6942280626
 40
0.3259752343
100
AcDbArc
 50
87.1705994439
 51
93.7593560252
  0
ARC
  5
2F2
100
AcDbEntity
  8
RACCORDO
100
AcDbCircle
 62
253
  6
CONTINUOUS
 10
1.357588891
 20
20.519011812
 40
0.2202684909
100
AcDbArc
 50
63.2729150705
 51
69.4909112163
  0
ARC
  5
2F3
100
AcDbEntity
  8
RACCORDO
100
AcDbCircle
 62
253
  6
CONTINUOUS
 10
-2.9468878133
 20
25.2861527752
 40
0.21089907
100
AcDbArc
 50
113.6963522534
 51
121.4805947515
  0
ARC
  5
2F4
100
AcDbEntity
  8
RACCORDO
100
AcDbCircle
 62
7
  6
CONTINUOUS
 10
-3.5049742932
 20
22.5448126642
 40
0.2009439881
100
AcDbArc
 50
122.0150811504
 51
127.3126652277
  0
ARC
  5
2F5
100
AcDbEntity
  8
RACCORDO
100
AcDbCircle
 62
7
  6
CONTINUOUS
 10
1.4347077302
 20
20.5609888961
 40
0.2004539791
100
AcDbArc
 50
58.2592882567
 51
68.1197076582
  0
ARC
  5
2F6
100
AcDbEntity
  8
0
100
AcDbCircle
 62
7
  6
CONTINUOUS
 10
359.4394897227
 20
-430.2248097171
 40
574.5242821362
100
AcDbArc
 50
128.2801335218
 51
128.5715253528
  0
ARC
  5
2F7
100
AcDbEntity
  8
RACCORDO
100
AcDbCircle
 62
253
  6
CONTINUOUS
 10
498.5075724456
 20
32.7094906574
 40
517.0835567663
100
AcDbArc
 50
181.9014182253
 51
185.4791436255
  0
ARC
  5
2F8
100
AcDbEntity
  8
RACCORDO
100
AcDbCircle
 62
253
  6
CONTINUOUS
 10
513.5766565846
 20
25.2671278103
 40
514.3453751644
100
AcDbArc
 50
181.8379426162
 51
183.1453775498
  0
ARC
  5
2F9
100
AcDbEntity
  8
RACCORDO
100
AcDbCircle
 62
253
  6
CONTINUOUS
 10
508.2350810451
 20
25.0052441934
 40
509.6915108741
100
AcDbArc
 50
181.8347468607
 51
183.7267442575
  0
ARC
  5
2FA
100
AcDbEntity
  8
RACCORDO
100
AcDbCircle
 62
253
  6
CONTINUOUS
 10
476.4773461703
 20
23.2167258594
 40
477.1894492018
100
AcDbArc
 50
183.1439741996
 51
185.6077673876
  0
ARC
  5
2FB
100
AcDbEntity
  8
RACCORDO
100
AcDbCircle
 62
253
  6
CONTINUOUS
 10
469.316192371
 20
22.577459636
 40
470.6971313399
100
AcDbArc
 50
183.7397692641
 51
185.621414085
  0
SPLINE
  5
2FC
100
AcDbEntity
  8
RACCORDO
100
AcDbSpline
 62
7
  6
CONTINUOUS
 70
0
 71
3
 72
8
 73
4
 74
2
 42
0.0000001
 43
0.0000001
 44
0.0000000001
 12
-0.0975362386
 22
0.0391727876
 32
0.0
 13
-0.103924778
 23
-0.0157310405
 33
0.0
 40
0.0
 40
0.0
 40
0.0
 40
0.0
 40
1.0
 40
1.0
 40
1.0
 40
1.0
 10
-3.4309504071
 20
22.7311953563
 30
0.0
 10
-3.4634624867
 20
22.7442529522
 30
0.0
 10
-3.5007107783
 20
22.7486068248
 30
0.0
 10
-3.535352371
 20
22.7433631447
 30
0.0
 11
-3.4309504071
 21
22.7311953563
 31
0.0
 11
-3.535352371
 21
22.7433631447
 31
0.0
  0
SPLINE
  5
2FD
100
AcDbEntity
  8
RACCORDO
100
AcDbSpline
 62
7
  6
CONTINUOUS
 70
0
 71
3
 72
8
 73
4
 74
2
 42
0.0000001
 43
0.0000001
 44
0.0000000001
 12
-0.0802791581
 22
-0.0121518151
 32
0.0
 13
-0.0688455234
 23
-0.0430430453
 33
0.0
 40
0.0
 40
0.0
 40
0.0
 40
0.0
 40
1.0
 40
1.0
 40
1.0
 40
1.0
 10
-3.535352371
 20
22.7433631447
 30
0.0
 10
-3.5621120903
 20
22.7393125396
 30
0.0
 10
-3.5885547266
 20
22.7295424783
 30
0.0
 10
-3.6115032344
 20
22.7151947965
 30
0.0
 11
-3.535352371
 21
22.7433631447
 31
0.0
 11
-3.6115032344
 21
22.7151947965
 31
0.0
  0
LINE
  5
2FE
100
AcDbEntity
  8
RACCORDO
100
AcDbLine
 62
7
  6
CONTINUOUS
 10
6.3741352376
 20
-16.3306086285
 11
6.3484891265
 21
-16.3525573535
  0
SPLINE
  5
2FF
100
AcDbEntity
  8
RACCORDO
100
AcDbSpline
 62
7
  6
CONTINUOUS
 70
0
 71
3
 72
9
 73
5
 74
3
 42
0.0000001
 43
0.0000001
 44
0.0000000001
 12
0.6178382816
 22
-1.0394412894
 32
0.0
 13
0.0
 23
-1.2091990474
 33
0.0
 40
0.0
 40
0.0
 40
0.0
 40
0.0
 40
0.5238091038
 40
1.0
 40
1.0
 40
1.0
 40
1.0
 10
6.4876905034
 20
11.9434909441
 30
0.0
 10
6.5955669423
 20
11.7620013407
 30
0.0
 10
6.7645840674
 20
11.3917588029
 30
0.0
 10
6.8346272304
 20
10.9880038074
 30
0.0
 10
6.8346272304
 20
10.7960672814
 30
0.0
 11
6.4876905034
 21
11.9434909441
 31
0.0
 11
6.7454762824
 21
11.3649335036
 31
0.0
 11
6.8346272304
 21
10.7960672814
 31
0.0
  0
SPLINE
  5
300
100
AcDbEntity
  8
RACCORDO
100
AcDbSpline
 62
7
  6
CONTINUOUS
 70
0
 71
3
 72
11
 73
7
 74
5
 42
0.0000001
 43
0.0000001
 44
0.0000000001
 12
0.0
 22
-0.9627985829
 32
0.0
 13
-0.7230945941
 23
-0.6357006522
 33
0.0
 40
0.0
 40
0.0
 40
0.0
 40
0.0
 40
0.2722487474
 40
0.5270674031
 40
0.7677616094
 40
1.0
 40
1.0
 40
1.0
 40
1.0
 10
6.8346272304
 20
-15.3632267886
 30
0.0
 10
6.8346272304
 20
-15.450600358
 30
0.0
 10
6.821061938
 20
-15.6202257435
 30
0.0
 10
6.7552247673
 20
-15.8593903547
 30
0.0
 10
6.6454058162
 20
-16.0677239384
 30
0.0
 10
6.5436672783
 20
-16.1827638637
 30
0.0
 10
6.4876905034
 20
-16.2319752292
 30
0.0
 11
6.8346272304
 21
-15.3632267886
 31
0.0
 11
6.8121736933
 21
-15.6243840292
 31
0.0
 11
6.7454762824
 21
-15.8604829496
 31
0.0
 11
6.636262828
 21
-16.064874407
 31
0.0
 11
6.4876905034
 21
-16.2319752292
 31
0.0
  0
SPLINE
  5
301
100
AcDbEntity
  8
RACCORDO
100
AcDbSpline
 62
7
  6
CONTINUOUS
 70
0
 71
3
 72
9
 73
5
 74
3
 42
0.0000001
 43
0.0000001
 44
0.0000000001
 12
0.2375311628
 22
0.0850007152
 32
0.0
 13
0.2341066853
 23
-0.0940225226
 33
0.0
 40
0.0
 40
0.0
 40
0.0
 40
0.0
 40
0.4675939316
 40
1.0
 40
1.0
 40
1.0
 40
1.0
 10
-7.0785773332
 20
21.5698910191
 30
0.0
 10
-7.0415546231
 20
21.5831396253
 30
0.0
 10
-6.9551700275
 20
21.5921961724
 30
0.0
 10
-6.8724429728
 20
21.5704944508
 30
0.0
 10
-6.8308963662
 20
21.5538083969
 30
0.0
 11
-7.0785773332
 21
21.5698910191
 31
0.0
 11
-6.9615684974
 21
21.5848840847
 31
0.0
 11
-6.8308963662
 21
21.5538083969
 31
0.0
  0
SPLINE
  5
302
100
AcDbEntity
  8
RACCORDO
100
AcDbSpline
 62
7
  6
CONTINUOUS
 70
0
 71
3
 72
9
 73
5
 74
3
 42
0.0000001
 43
0.0000001
 44
0.0000000001
 12
0.2860245775
 22
-0.1148739186
 32
0.0
 13
0.2015595868
 23
-0.2331947878
 33
0.0
 40
0.0
 40
0.0
 40
0.0
 40
0.0
 40
0.2375058476
 40
1.0
 40
1.0
 40
1.0
 40
1.0
 10
1.9948925141
 20
18.0091726098
 30
0.0
 10
2.017536684
 20
18.0000782007
 30
0.0
 10
2.1101046209
 20
17.9550005971
 30
0.0
 10
2.1904845376
 20
17.8865729037
 30
0.0
 10
2.241713873
 20
17.8273030163
 30
0.0
 11
1.9948925141
 21
18.0091726098
 31
0.0
 11
2.0608200223
 21
17.9773486559
 31
0.0
 11
2.241713873
 21
17.8273030163
 31
0.0
  0
LINE
  5
303
100
AcDbEntity
  8
RACCORDO
100
AcDbLine
 62
7
  6
CONTINUOUS
 10
-11.156634195
 20
19.1750519496
 11
-11.191442598
 21
19.1488929492
  0
SPLINE
  5
304
100
AcDbEntity
  8
RACCORDO
100
AcDbSpline
 62
7
  6
CONTINUOUS
 70
0
 71
3
 72
14
 73
10
 74
8
 42
0.0000001
 43
0.0000001
 44
0.0000000001
 12
-0.7190243708
 22
-0.7455104401
 32
0.0
 13
0.9611326911
 23
-0.38601271
 33
0.0
 40
0.0
 40
0.0
 40
0.0
 40
0.0
 40
0.1246694639
 40
0.2493022583
 40
0.3739844774
 40
0.4989784204
 40
0.6245613917
 40
0.750577374
 40
1.0
 40
1.0
 40
1.0
 40
1.0
 10
0.7880705977
 20
16.6148956868
 30
0.0
 10
0.7581904701
 20
16.5839148911
 30
0.0
 10
0.7069465631
 20
16.5130978674
 30
0.0
 10
0.6623063597
 20
16.3903118755
 30
0.0
 10
0.6515169798
 20
16.2600444375
 30
0.0
 10
0.6735948354
 20
16.1311007253
 30
0.0
 10
0.7252479569
 20
16.0104723611
 30
0.0
 10
0.8267207437
 20
15.8693314039
 30
0.0
 10
0.936838279
 20
15.790411697
 30
0.0
 10
1.0167476923
 20
15.7583182624
 30
0.0
 11
0.7880705977
 21
16.6148956868
 31
0.0
 11
0.7123121674
 21
16.5103282647
 31
0.0
 11
0.6679532043
 21
16.3891005419
 31
0.0
 11
0.6569838658
 21
16.2604274246
 31
0.0
 11
0.6784437752
 21
16.1327557188
 31
0.0
 11
0.7292863515
 21
16.0130311854
 31
0.0
 11
0.8055663829
 21
15.9071200784
 31
0.0
 11
1.0167476923
 21
15.7583182624
 31
0.0
  0
SPLINE
  5
305
100
AcDbEntity
  8
RACCORDO
100
AcDbSpline
 62
7
  6
CONTINUOUS
 70
0
 71
3
 72
9
 73
5
 74
3
 42
0.0000001
 43
0.0000001
 44
0.0000000001
 12
0.4248875906
 22
-0.1706445015
 32
0.0
 13
0.3856733856
 23
0.2467894855
 33
0.0
 40
0.0
 40
0.0
 40
0.0
 40
0.0
 40
0.5002597737
 40
1.0
 40
1.0
 40
1.0
 40
1.0
 10
1.0167476929
 20
15.7583182622
 30
0.0
 10
1.0875990829
 20
15.7298627356
 30
0.0
 10
1.24402545
 20
15.7031742286
 30
0.0
 10
1.3959038053
 20
15.7533234005
 30
0.0
 10
1.460149307
 20
15.7944336116
 30
0.0
 11
1.0167476929
 21
15.7583182622
 31
0.0
 11
1.2429685362
 21
15.722389748
 31
0.0
 11
1.460149307
 21
15.7944336116
 31
0.0
  0
SPLINE
  5
306
100
AcDbEntity
  8
RACCORDO
100
AcDbSpline
 62
7
  6
CONTINUOUS
 70
0
 71
3
 72
14
 73
10
 74
8
 42
0.0000001
 43
0.0000001
 44
0.0000000001
 12
-0.7190243708
 22
-0.7455104401
 32
0.0
 13
0.9611326911
 23
-0.38601271
 33
0.0
 40
0.0
 40
0.0
 40
0.0
 40
0.0
 40
0.1246694639
 40
0.2493022583
 40
0.3739844774
 40
0.4989784204
 40
0.6245613917
 40
0.750577374
 40
1.0
 40
1.0
 40
1.0
 40
1.0
 10
-8.2226018895
 20
20.2337848985
 30
0.0
 10
-8.2524820171
 20
20.2028041029
 30
0.0
 10
-8.3037259241
 20
20.1319870791
 30
0.0
 10
-8.3483661275
 20
20.0092010873
 30
0.0
 10
-8.3591555074
 20
19.8789336492
 30
0.0
 10
-8.3370776518
 20
19.749989937
 30
0.0
 10
-8.2854245303
 20
19.6293615729
 30
0.0
 10
-8.1839517435
 20
19.4882206156
 30
0.0
 10
-8.0738342082
 20
19.4093009088
 30
0.0
 10
-7.9939247949
 20
19.3772074741
 30
0.0
 11
-8.2226018895
 21
20.2337848985
 31
0.0
 11
-8.2983603198
 21
20.1292174764
 31
0.0
 11
-8.3427192829
 21
20.0079897536
 31
0.0
 11
-8.3536886214
 21
19.8793166363
 31
0.0
 11
-8.332228712
 21
19.7516449305
 31
0.0
 11
-8.2813861357
 21
19.6319203971
 31
0.0
 11
-8.2051061043
 21
19.5260092901
 31
0.0
 11
-7.9939247949
 21
19.3772074741
 31
0.0
  0
SPLINE
  5
307
100
AcDbEntity
  8
RACCORDO
100
AcDbSpline
 62
7
  6
CONTINUOUS
 70
0
 71
3
 72
9
 73
5
 74
3
 42
0.0000001
 43
0.0000001
 44
0.0000000001
 12
0.4248875906
 22
-0.1706445015
 32
0.0
 13
0.3856733856
 23
0.2467894855
 33
0.0
 40
0.0
 40
0.0
 40
0.0
 40
0.0
 40
0.5002597737
 40
1.0
 40
1.0
 40
1.0
 40
1.0
 10
-7.9939247943
 20
19.3772074739
 30
0.0
 10
-7.9230734043
 20
19.3487519473
 30
0.0
 10
-7.7666470372
 20
19.3220634403
 30
0.0
 10
-7.6147686819
 20
19.3722126122
 30
0.0
 10
-7.5505231802
 20
19.4133228233
 30
0.0
 11
-7.9939247943
 21
19.3772074739
 31
0.0
 11
-7.767703951
 21
19.3412789597
 31
0.0
 11
-7.5505231802
 21
19.4133228233
 31
0.0
  0
SPLINE
  5
308
100
AcDbEntity
  8
RACCORDO
100
AcDbSpline
 62
7
  6
CONTINUOUS
 70
0
 71
3
 72
9
 73
5
 74
3
 42
0.0000001
 43
0.0000001
 44
0.0000000001
 12
3.280599533
 22
2.5606727166
 32
0.0
 13
3.9183261904
 23
1.4021761385
 33
0.0
 40
0.0
 40
0.0
 40
0.0
 40
0.0
 40
0.4959570985
 40
1.0
 40
1.0
 40
1.0
 40
1.0
 10
-10.717788962
 20
19.578708861
 30
0.0
 10
-10.1754434201
 20
20.0020367979
 30
0.0
 10
-9.0097943246
 20
20.7668900414
 30
0.0
 10
-7.7369121672
 20
21.3343053761
 30
0.0
 10
-7.0785773332
 20
21.5698910191
 30
0.0
 11
-10.717788962
 21
19.578708861
 31
0.0
 11
-8.9928430481
 21
20.7121411064
 31
0.0
 11
-7.0785773332
 21
21.5698910191
 31
0.0
  0
SPLINE
  5
309
100
AcDbEntity
  8
DRAFT
100
AcDbSpline
 62
7
  6
CONTINUOUS
 70
0
 71
3
 72
11
 73
7
 74
5
 42
0.0000001
 43
0.0000001
 44
0.0000000001
 12
-0.3654165656
 22
0.420821955
 32
0.0
 13
-0.5263093911
 23
-0.1833543265
 33
0.0
 40
0.0
 40
0.0
 40
0.0
 40
0.0
 40
0.2841575139
 40
0.5509505716
 40
0.7899053848
 40
1.0
 40
1.0
 40
1.0
 40
1.0
 10
-0.291995555
 20
18.927638415
 30
0.0
 10
-0.3266075092
 20
18.9674983219
 30
0.0
 10
-0.4021251756
 20
19.0379930269
 30
0.0
 10
-0.5304273181
 20
19.1121124002
 30
0.0
 10
-0.660901416
 20
19.1463536981
 30
0.0
 10
-0.7466285252
 20
19.1378729576
 30
0.0
 10
-0.7834867815
 20
19.125032372
 30
0.0
 11
-0.291995555
 21
18.927638415
 31
0.0
 11
-0.4082218578
 21
19.0352146323
 31
0.0
 11
-0.5377411682
 21
19.108250598
 31
0.0
 11
-0.6672604787
 21
19.1392503823
 31
0.0
 11
-0.7834867815
 21
19.125032372
 31
0.0
  0
SPLINE
  5
30A
100
AcDbEntity
  8
DRAFT
100
AcDbSpline
 62
7
  6
CONTINUOUS
 70
0
 71
3
 72
11
 73
7
 74
5
 42
0.0000001
 43
0.0000001
 44
0.0000000001
 12
-0.3654165656
 22
0.420821955
 32
0.0
 13
-0.5263093911
 23
-0.1833543265
 33
0.0
 40
0.0
 40
0.0
 40
0.0
 40
0.0
 40
0.2841575139
 40
0.5509505716
 40
0.7899053848
 40
1.0
 40
1.0
 40
1.0
 40
1.0
 10
-4.0600949587
 20
20.4409920854
 30
0.0
 10
-4.094706913
 20
20.4808519922
 30
0.0
 10
-4.1702245793
 20
20.5513466973
 30
0.0
 10
-4.2985267218
 20
20.6254660706
 30
0.0
 10
-4.4290008197
 20
20.6597073685
 30
0.0
 10
-4.5147279289
 20
20.6512266279
 30
0.0
 10
-4.5515861853
 20
20.6383860424
 30
0.0
 11
-4.0600949587
 21
20.4409920854
 31
0.0
 11
-4.1763212615
 21
20.5485683026
 31
0.0
 11
-4.305840572
 21
20.6216042683
 31
0.0
 11
-4.4353598825
 21
20.6526040527
 31
0.0
 11
-4.5515861853
 21
20.6383860424
 31
0.0
  0
SPLINE
  5
30B
100
AcDbEntity
  8
RACCORDO
100
AcDbSpline
 62
253
  6
CONTINUOUS
 70
0
 71
3
 72
14
 73
10
 74
8
 42
0.0000001
 43
0.0000001
 44
0.0000000001
 12
0.3252275496
 22
-0.130618716
 32
0.0
 13
-0.3252275496
 23
0.130618716
 33
0.0
 40
0.0
 40
0.0
 40
0.0
 40
0.0
 40
0.1218096684
 40
0.2265246258
 40
0.3267985017
 40
0.4391719561
 40
0.570252806
 40
0.715337172
 40
1.0
 40
1.0
 40
1.0
 40
1.0
 10
-8.0742799864
 20
19.5604515603
 30
0.0
 10
-8.0610746997
 20
19.5551480194
 30
0.0
 10
-8.0346260813
 20
19.5488092382
 30
0.0
 10
-7.9955171349
 20
19.5578275273
 30
0.0
 10
-7.9693648769
 20
19.5872390991
 30
0.0
 10
-7.9622252899
 20
19.6282579024
 30
0.0
 10
-7.9716733877
 20
19.6734825207
 30
0.0
 10
-8.0028249886
 20
19.7315593362
 30
0.0
 10
-8.0434199217
 20
19.7667178633
 30
0.0
 10
-8.0742799864
 20
19.779111961
 30
0.0
 11
-8.0742799864
 21
19.5604515603
 31
0.0
 11
-8.0324392157
 21
19.5519713377
 31
0.0
 11
-7.9969791851
 21
19.5614312865
 31
0.0
 11
-7.9732762568
 21
19.5873783624
 31
0.0
 11
-7.9649525444
 21
19.6258730476
 31
0.0
 11
-7.9732758233
 21
19.6710536146
 31
0.0
 11
-7.9969781794
 21
19.7160402092
 31
0.0
 11
-8.0742799864
 21
19.779111961
 31
0.0
  0
SPLINE
  5
30C
100
AcDbEntity
  8
RACCORDO
100
AcDbSpline
 62
253
  6
CONTINUOUS
 70
0
 71
3
 72
14
 73
10
 74
8
 42
0.0000001
 43
0.0000001
 44
0.0000000001
 12
-0.3252275496
 22
0.130618716
 32
0.0
 13
0.3252275496
 23
-0.130618716
 33
0.0
 40
0.0
 40
0.0
 40
0.0
 40
0.0
 40
0.1218096684
 40
0.2265246258
 40
0.3267985017
 40
0.4391719561
 40
0.570252806
 40
0.715337172
 40
1.0
 40
1.0
 40
1.0
 40
1.0
 10
-8.0742799864
 20
19.779111961
 30
0.0
 10
-8.0874852731
 20
19.7844155018
 30
0.0
 10
-8.1139338915
 20
19.790754283
 30
0.0
 10
-8.1530428379
 20
19.781735994
 30
0.0
 10
-8.1791950959
 20
19.7523244222
 30
0.0
 10
-8.1863346829
 20
19.7113056189
 30
0.0
 10
-8.1768865851
 20
19.6660810005
 30
0.0
 10
-8.1457349843
 20
19.608004185
 30
0.0
 10
-8.1051400511
 20
19.572845658
 30
0.0
 10
-8.0742799864
 20
19.5604515603
 30
0.0
 11
-8.0742799864
 21
19.779111961
 31
0.0
 11
-8.1161207571
 21
19.7875921836
 31
0.0
 11
-8.1515807877
 21
19.7781322348
 31
0.0
 11
-8.175283716
 21
19.7521851589
 31
0.0
 11
-8.1836074284
 21
19.7136904736
 31
0.0
 11
-8.1752841495
 21
19.6685099067
 31
0.0
 11
-8.1515817934
 21
19.6235233121
 31
0.0
 11
-8.0742799864
 21
19.5604515603
 31
0.0
  0
SPLINE
  5
30D
100
AcDbEntity
  8
RACCORDO
100
AcDbSpline
 62
253
  6
CONTINUOUS
 70
0
 71
3
 72
11
 73
7
 74
5
 42
0.0000001
 43
0.0000001
 44
0.0000000001
 12
-0.3539671502
 22
0.1421611884
 32
0.0
 13
-0.2647808595
 23
-0.2745790294
 33
0.0
 40
0.0
 40
0.0
 40
0.0
 40
0.0
 40
0.2828433767
 40
0.5398004437
 40
0.7749502891
 40
1.0
 40
1.0
 40
1.0
 40
1.0
 10
-7.864845604
 20
20.2770845329
 30
0.0
 10
-7.8982180253
 20
20.2904876497
 30
0.0
 10
-7.9647364812
 20
20.309900396
 30
0.0
 10
-8.0644122125
 20
20.3136823637
 30
0.0
 10
-8.1539618666
 20
20.289325266
 30
0.0
 10
-8.2027569944
 20
20.2543661024
 30
0.0
 10
-8.2226199464
 20
20.2337681253
 30
0.0
 11
-7.864845604
 21
20.2770845329
 31
0.0
 11
-7.9687258406
 21
20.3062247947
 31
0.0
 11
-8.0667133602
 21
20.3085770547
 31
0.0
 11
-8.1529596471
 21
20.283935489
 31
0.0
 11
-8.2226199464
 21
20.2337681253
 31
0.0
  0
SPLINE
  5
30E
100
AcDbEntity
  8
RACCORDO
100
AcDbSpline
 62
253
  6
CONTINUOUS
 70
0
 71
3
 72
14
 73
10
 74
8
 42
0.0000001
 43
0.0000001
 44
0.0000000001
 12
0.3252275496
 22
-0.130618716
 32
0.0
 13
-0.3252275496
 23
0.130618716
 33
0.0
 40
0.0
 40
0.0
 40
0.0
 40
0.0
 40
0.1218096684
 40
0.2265246258
 40
0.3267985017
 40
0.4391719561
 40
0.570252806
 40
0.715337172
 40
1.0
 40
1.0
 40
1.0
 40
1.0
 10
0.9363925008
 20
15.9415623486
 30
0.0
 10
0.9495977874
 20
15.9362588077
 30
0.0
 10
0.9760464059
 20
15.9299200265
 30
0.0
 10
1.0151553522
 20
15.9389383156
 30
0.0
 10
1.0413076103
 20
15.9683498873
 30
0.0
 10
1.0484471973
 20
16.0093686907
 30
0.0
 10
1.0389990995
 20
16.054593309
 30
0.0
 10
1.0078474986
 20
16.1126701245
 30
0.0
 10
0.9672525654
 20
16.1478286516
 30
0.0
 10
0.9363925008
 20
16.1602227493
 30
0.0
 11
0.9363925008
 21
15.9415623486
 31
0.0
 11
0.9782332715
 21
15.933082126
 31
0.0
 11
1.013693302
 21
15.9425420748
 31
0.0
 11
1.0373962304
 21
15.9684891507
 31
0.0
 11
1.0457199428
 21
16.0069838359
 31
0.0
 11
1.0373966639
 21
16.0521644029
 31
0.0
 11
1.0136943077
 21
16.0971509974
 31
0.0
 11
0.9363925008
 21
16.1602227493
 31
0.0
  0
SPLINE
  5
30F
100
AcDbEntity
  8
RACCORDO
100
AcDbSpline
 62
253
  6
CONTINUOUS
 70
0
 71
3
 72
14
 73
10
 74
8
 42
0.0000001
 43
0.0000001
 44
0.0000000001
 12
-0.3252275496
 22
0.130618716
 32
0.0
 13
0.3252275496
 23
-0.130618716
 33
0.0
 40
0.0
 40
0.0
 40
0.0
 40
0.0
 40
0.1218096684
 40
0.2265246258
 40
0.3267985017
 40
0.4391719561
 40
0.570252806
 40
0.715337172
 40
1.0
 40
1.0
 40
1.0
 40
1.0
 10
0.9363925008
 20
16.1602227493
 30
0.0
 10
0.9231872141
 20
16.1655262901
 30
0.0
 10
0.8967385956
 20
16.1718650713
 30
0.0
 10
0.8576296493
 20
16.1628467822
 30
0.0
 10
0.8314773913
 20
16.1334352105
 30
0.0
 10
0.8243378042
 20
16.0924164072
 30
0.0
 10
0.8337859021
 20
16.0471917888
 30
0.0
 10
0.8649375029
 20
15.9891149733
 30
0.0
 10
0.9055324361
 20
15.9539564462
 30
0.0
 10
0.9363925008
 20
15.9415623486
 30
0.0
 11
0.9363925008
 21
16.1602227493
 31
0.0
 11
0.89455173
 21
16.1687029719
 31
0.0
 11
0.8590916995
 21
16.1592430231
 31
0.0
 11
0.8353887712
 21
16.1332959472
 31
0.0
 11
0.8270650587
 21
16.0948012619
 31
0.0
 11
0.8353883377
 21
16.049620695
 31
0.0
 11
0.8590906938
 21
16.0046341004
 31
0.0
 11
0.9363925008
 21
15.9415623486
 31
0.0
  0
SPLINE
  5
310
100
AcDbEntity
  8
RACCORDO
100
AcDbSpline
 62
253
  6
CONTINUOUS
 70
0
 71
3
 72
11
 73
7
 74
5
 42
0.0000001
 43
0.0000001
 44
0.0000000001
 12
-0.3539671502
 22
0.1421611884
 32
0.0
 13
-0.2647808595
 23
-0.2745790294
 33
0.0
 40
0.0
 40
0.0
 40
0.0
 40
0.0
 40
0.2828433767
 40
0.5398004437
 40
0.7749502891
 40
1.0
 40
1.0
 40
1.0
 40
1.0
 10
1.1458268832
 20
16.6581953212
 30
0.0
 10
1.1124544618
 20
16.671598438
 30
0.0
 10
1.0459360059
 20
16.6910111843
 30
0.0
 10
0.9462602747
 20
16.694793152
 30
0.0
 10
0.8567106205
 20
16.6704360542
 30
0.0
 10
0.8079154927
 20
16.6354768907
 30
0.0
 10
0.7880525408
 20
16.6148789136
 30
0.0
 11
1.1458268832
 21
16.6581953212
 31
0.0
 11
1.0419466465
 21
16.687335583
 31
0.0
 11
0.943959127
 21
16.689687843
 31
0.0
 11
0.85771284
 21
16.6650462773
 31
0.0
 11
0.7880525408
 21
16.6148789136
 31
0.0
  0
SPLINE
  5
311
100
AcDbEntity
  8
RACCORDO
100
AcDbSpline
 62
253
  6
CONTINUOUS
 70
0
 71
3
 72
9
 73
5
 74
3
 42
0.0000001
 43
0.0000001
 44
0.0000000001
 12
-0.0746517485
 22
0.0299223027
 32
0.0
 13
-0.0622161479
 23
-0.0509644847
 33
0.0
 40
0.0
 40
0.0
 40
0.0
 40
0.0
 40
0.4329485638
 40
1.0
 40
1.0
 40
1.0
 40
1.0
 10
-3.4309579312
 20
22.7311940282
 30
0.0
 10
-3.441731387
 20
22.7355123009
 30
0.0
 10
-3.4708406697
 20
22.7343142164
 30
0.0
 10
-3.493734165
 20
22.7190700292
 30
0.0
 10
-3.5054940837
 20
22.7094368678
 30
0.0
 11
-3.4309579312
 21
22.7311940282
 31
0.0
 11
-3.4657719164
 21
22.7318420188
 31
0.0
 11
-3.5054940837
 21
22.7094368678
 31
0.0
  0
SPLINE
  5
312
100
AcDbEntity
  8
RACCORDO
100
AcDbSpline
 62
253
  6
CONTINUOUS
 70
0
 71
3
 72
9
 73
5
 74
3
 42
0.0000001
 43
0.0000001
 44
0.0000000001
 12
0.0999301656
 22
0.0761525244
 32
0.0
 13
0.1153278446
 23
-0.0498470986
 33
0.0
 40
0.0
 40
0.0
 40
0.0
 40
0.0
 40
0.4580773398
 40
1.0
 40
1.0
 40
1.0
 40
1.0
 10
-3.6266323995
 20
22.7047423161
 30
0.0
 10
-3.611373818
 20
22.7163702314
 30
0.0
 10
-3.5683238013
 20
22.7294552157
 30
0.0
 10
-3.5263270078
 20
22.7184412918
 30
0.0
 10
-3.5054940837
 20
22.7094368678
 30
0.0
 11
-3.6266323995
 21
22.7047423161
 31
0.0
 11
-3.5721543467
 21
22.7233013102
 31
0.0
 11
-3.5054940837
 21
22.7094368678
 31
0.0
  0
SPLINE
  5
313
100
AcDbEntity
  8
RACCORDO
100
AcDbSpline
 62
253
  6
CONTINUOUS
 70
0
 71
3
 72
10
 73
6
 74
4
 42
0.0000001
 43
0.0000001
 44
0.0000000001
 12
-0.2004137159
 22
-0.1925177961
 32
0.0
 13
-0.2638723729
 23
0.0871787254
 33
0.0
 40
0.0
 40
0.0
 40
0.0
 40
0.0
 40
0.2307220566
 40
0.4871951755
 40
1.0
 40
1.0
 40
1.0
 40
1.0
 10
4.6600610788
 20
-3.9338251961
 30
0.0
 10
4.6446477906
 20
-3.94863123
 30
0.0
 10
4.6059323808
 20
-3.9736525799
 30
0.0
 10
4.5171918666
 20
-4.0015684654
 30
0.0
 10
4.4419628582
 20
-3.9990706396
 30
0.0
 10
4.3968578496
 20
-3.9841687493
 30
0.0
 11
4.6600610788
 21
-3.9338251961
 31
0.0
 11
4.6069653369
 21
-3.9697686941
 31
0.0
 11
4.5391649353
 21
-3.9917481039
 31
0.0
 11
4.3968578496
 21
-3.9841687493
 31
0.0
  0
SPLINE
  5
314
100
AcDbEntity
  8
RACCORDO
100
AcDbSpline
 62
253
  6
CONTINUOUS
 70
0
 71
3
 72
9
 73
5
 74
3
 42
0.0000001
 43
0.0000001
 44
0.0000000001
 12
-0.0131241458
 22
-0.1592991323
 32
0.0
 13
0.0150702357
 23
-0.1591268197
 33
0.0
 40
0.0
 40
0.0
 40
0.0
 40
0.0
 40
0.2628558088
 40
1.0
 40
1.0
 40
1.0
 40
1.0
 10
4.6600610788
 20
-3.7740979612
 30
0.0
 10
4.6589111595
 20
-3.7880555286
 30
0.0
 10
4.6555513259
 20
-3.8412250941
 30
0.0
 10
4.6563580999
 20
-3.8947253925
 30
0.0
 10
4.6600610788
 20
-3.9338251961
 30
0.0
 11
4.6600610788
 21
-3.7740979612
 31
0.0
 11
4.6574327401
 21
-3.8160302383
 31
0.0
 11
4.6600610788
 21
-3.9338251961
 31
0.0
  0
SPLINE
  5
315
100
AcDbEntity
  8
RACCORDO
100
AcDbSpline
 62
253
  6
CONTINUOUS
 70
0
 71
3
 72
11
 73
7
 74
5
 42
0.0000001
 43
0.0000001
 44
0.0000000001
 12
-0.2410131472
 22
-0.1490229057
 32
0.0
 13
-0.2627369499
 23
0.1061341544
 33
0.0
 40
0.0
 40
0.0
 40
0.0
 40
0.0
 40
0.2134848513
 40
0.4693769508
 40
0.7417457582
 40
1.0
 40
1.0
 40
1.0
 40
1.0
 10
4.6600610788
 20
-3.7740979612
 30
0.0
 10
4.6429101935
 20
-3.7847026722
 30
0.0
 10
4.6003313351
 20
-3.7998893355
 30
0.0
 10
4.5303605694
 20
-3.8076881021
 30
0.0
 10
4.4558741367
 20
-3.8021001041
 30
0.0
 10
4.4070151069
 20
-3.7891094641
 30
0.0
 10
4.384397463
 20
-3.7799729323
 30
0.0
 11
4.6600610788
 21
-3.7740979612
 31
0.0
 11
4.6038268509
 21
-3.7963965365
 31
0.0
 11
4.5318687679
 21
-3.8053309171
 31
0.0
 11
4.4549045276
 21
-3.7995703842
 31
0.0
 11
4.384397463
 21
-3.7799729323
 31
0.0
  0
SPLINE
  5
316
100
AcDbEntity
  8
RACCORDO
100
AcDbSpline
 62
253
  6
CONTINUOUS
 70
0
 71
3
 72
10
 73
6
 74
4
 42
0.0000001
 43
0.0000001
 44
0.0000000001
 12
-0.1134948371
 22
0.2280459519
 32
0.0
 13
0.1888678013
 23
0.1709239242
 33
0.0
 40
0.0
 40
0.0
 40
0.0
 40
0.0
 40
0.2838040895
 40
0.5555946594
 40
1.0
 40
1.0
 40
1.0
 40
1.0
 10
-7.5380753739
 20
20.9462340665
 30
0.0
 10
-7.5488121402
 20
20.9678075244
 30
0.0
 10
-7.5645974175
 20
21.0130545399
 30
0.0
 10
-7.5736429258
 20
21.0970737254
 30
0.0
 10
-7.5532893057
 20
21.1628075821
 30
0.0
 10
-7.5253113525
 20
21.188127417
 30
0.0
 11
-7.5380753739
 21
20.9462340665
 31
0.0
 11
-7.5621312448
 21
21.0144069732
 31
0.0
 11
-7.5682173538
 21
21.0833714425
 31
0.0
 11
-7.5253113525
 21
21.188127417
 31
0.0
  0
SPLINE
  5
317
100
AcDbEntity
  8
RACCORDO
100
AcDbSpline
 62
253
  6
CONTINUOUS
 70
0
 71
3
 72
9
 73
5
 74
3
 42
0.0000001
 43
0.0000001
 44
0.0000000001
 12
-0.1445601772
 22
0.058092374
 32
0.0
 13
-0.1452059428
 23
-0.0564588605
 33
0.0
 40
0.0
 40
0.0
 40
0.0
 40
0.0
 40
0.5233155368
 40
1.0
 40
1.0
 40
1.0
 40
1.0
 10
-7.3851570221
 20
20.9402514259
 30
0.0
 10
-7.4103738844
 20
20.9503849732
 30
0.0
 10
-7.4619135059
 20
20.9629201651
 30
0.0
 10
-7.5150029016
 20
20.9552050871
 30
0.0
 10
-7.5380753739
 20
20.9462340665
 30
0.0
 11
-7.3851570221
 21
20.9402514259
 31
0.0
 11
-7.4647412736
 21
20.9579589728
 31
0.0
 11
-7.5380753739
 21
20.9462340665
 31
0.0
  0
SPLINE
  5
318
100
AcDbEntity
  8
RACCORDO
100
AcDbSpline
 62
253
  6
CONTINUOUS
 70
0
 71
3
 72
9
 73
5
 74
3
 42
0.0000001
 43
0.0000001
 44
0.0000000001
 12
-0.2383457541
 22
0.0952673712
 32
0.0
 13
-0.2402598701
 23
-0.0903314193
 33
0.0
 40
0.0
 40
0.0
 40
0.0
 40
0.0
 40
0.5272325971
 40
1.0
 40
1.0
 40
1.0
 40
1.0
 10
-7.2732987369
 20
21.1757094285
 30
0.0
 10
-7.3151866205
 20
21.1924521163
 30
0.0
 10
-7.3997943044
 20
21.2136303002
 30
0.0
 10
-7.4874479948
 20
21.202360979
 30
0.0
 10
-7.5253103398
 20
21.1881257289
 30
0.0
 11
-7.2732987369
 21
21.1757094285
 31
0.0
 11
-7.4052491896
 21
21.2057642045
 31
0.0
 11
-7.5253103398
 21
21.1881257289
 31
0.0
  0
SPLINE
  5
319
100
AcDbEntity
  8
RACCORDO
100
AcDbSpline
 62
253
  6
CONTINUOUS
 70
0
 71
3
 72
11
 73
7
 74
5
 42
0.0000001
 43
0.0000001
 44
0.0000000001
 12
0.0212953246
 22
0.2651380645
 32
0.0
 13
0.2032622775
 23
0.1715696087
 33
0.0
 40
0.0
 40
0.0
 40
0.0
 40
0.0
 40
0.2505874431
 40
0.5181301789
 40
0.7760059011
 40
1.0
 40
1.0
 40
1.0
 40
1.0
 10
-7.3851570221
 20
20.9402514259
 30
0.0
 10
-7.3833782418
 20
20.9623981825
 30
0.0
 10
-7.374451894
 20
21.0077966825
 30
0.0
 10
-7.3501833826
 20
21.0724881244
 30
0.0
 10
-7.3167494949
 20
21.1302206616
 30
0.0
 10
-7.2884753821
 20
21.1629096254
 30
0.0
 10
-7.2732988652
 20
21.1757198187
 30
0.0
 11
-7.3851570221
 21
20.9402514259
 31
0.0
 11
-7.373041761
 21
21.0057953533
 31
0.0
 11
-7.3480637387
 21
21.0724319901
 31
0.0
 11
-7.3132972571
 21
21.1315612623
 31
0.0
 11
-7.2732988652
 21
21.1757198187
 31
0.0
  0
SPLINE
  5
31A
100
AcDbEntity
  8
RACCORDO
100
AcDbSpline
 62
253
  6
CONTINUOUS
 70
0
 71
3
 72
11
 73
7
 74
5
 42
0.0000001
 43
0.0000001
 44
0.0000000001
 12
0.0212954009
 22
0.26513805
 32
0.0
 13
0.2032622151
 23
0.1715696697
 33
0.0
 40
0.0
 40
0.0
 40
0.0
 40
0.0
 40
0.2505875351
 40
0.5181303615
 40
0.7760059977
 40
1.0
 40
1.0
 40
1.0
 40
1.0
 10
1.4331579662
 20
17.3986173223
 30
0.0
 10
1.4349367536
 20
17.4207640858
 30
0.0
 10
1.4438631219
 20
17.4661625966
 30
0.0
 10
1.4681316395
 20
17.5308540418
 30
0.0
 10
1.5015655202
 20
17.5885865717
 30
0.0
 10
1.5298396196
 20
17.621275522
 30
0.0
 10
1.5450161253
 20
17.6340857144
 30
0.0
 11
1.4331579662
 21
17.3986173223
 31
0.0
 11
1.4452732514
 21
17.464161268
 31
0.0
 11
1.4702512891
 21
17.5307979224
 31
0.0
 11
1.5050177575
 21
17.5899271733
 31
0.0
 11
1.5450161253
 21
17.6340857144
 31
0.0
  0
SPLINE
  5
31B
100
AcDbEntity
  8
RACCORDO
100
AcDbSpline
 62
253
  6
CONTINUOUS
 70
0
 71
3
 72
9
 73
5
 74
3
 42
0.0000001
 43
0.0000001
 44
0.0000000001
 12
-0.1122517887
 22
0.145664279
 32
0.0
 13
-0.1706633454
 23
0.0685023269
 33
0.0
 40
0.0
 40
0.0
 40
0.0
 40
0.0
 40
0.2614837655
 40
1.0
 40
1.0
 40
1.0
 40
1.0
 10
1.5769683859
 20
17.2858597287
 30
0.0
 10
1.5671843791
 20
17.2985560101
 30
0.0
 10
1.5269759364
 20
17.3447904822
 30
0.0
 10
1.4751705166
 20
17.3817539622
 30
0.0
 10
1.4331579662
 20
17.3986173223
 30
0.0
 11
1.5769683859
 21
17.2858597287
 31
0.0
 11
1.5453637402
 21
17.3221012453
 31
0.0
 11
1.4331579662
 21
17.3986173223
 31
0.0
  0
SPLINE
  5
31C
100
AcDbEntity
  8
RACCORDO
100
AcDbSpline
 62
253
  6
CONTINUOUS
 70
0
 71
3
 72
9
 73
5
 74
3
 42
0.0000001
 43
0.0000001
 44
0.0000000001
 12
-0.1933033901
 22
0.2386471927
 32
0.0
 13
-0.284798754
 23
0.1149275987
 33
0.0
 40
0.0
 40
0.0
 40
0.0
 40
0.0
 40
0.2613786045
 40
1.0
 40
1.0
 40
1.0
 40
1.0
 10
1.787575915
 20
17.4485539703
 30
0.0
 10
1.7707341249
 20
17.4693463937
 30
0.0
 10
1.7019240406
 20
17.5450847861
 30
0.0
 10
1.6151357382
 20
17.6057794648
 30
0.0
 10
1.5450162539
 20
17.6340754593
 30
0.0
 11
1.787575915
 21
17.4485539703
 31
0.0
 11
1.7335349074
 21
17.5079114163
 31
0.0
 11
1.5450162539
 21
17.6340754593
 31
0.0
  0
SPLINE
  5
31D
100
AcDbEntity
  8
RACCORDO
100
AcDbSpline
 62
253
  6
CONTINUOUS
 70
0
 71
3
 72
9
 73
5
 74
3
 42
0.0000001
 43
0.0000001
 44
0.0000000001
 12
0.1988175025
 22
0.1770836805
 32
0.0
 13
0.2213277582
 23
0.1479900424
 33
0.0
 40
0.0
 40
0.0
 40
0.0
 40
0.0
 40
0.4976379757
 40
1.0
 40
1.0
 40
1.0
 40
1.0
 10
1.5769683859
 20
17.2858597287
 30
0.0
 10
1.6099480991
 20
17.3152342502
 30
0.0
 10
1.6791648579
 20
17.3708891752
 30
0.0
 10
1.7505136948
 20
17.4237724445
 30
0.0
 10
1.787575915
 20
17.4485539703
 30
0.0
 11
1.5769683859
 21
17.2858597287
 31
0.0
 11
1.67936587
 21
17.369939876
 31
0.0
 11
1.787575915
 21
17.4485539703
 31
0.0
  0
SPLINE
  5
31E
100
AcDbEntity
  8
RACCORDO
100
AcDbSpline
 62
253
  6
CONTINUOUS
 70
0
 71
3
 72
9
 73
5
 74
3
 42
0.0000001
 43
0.0000001
 44
0.0000000001
 12
0.2509364392
 22
0.0987373626
 32
0.0
 13
0.2293439274
 23
0.1418433159
 33
0.0
 40
0.0
 40
0.0
 40
0.0
 40
0.0
 40
0.5001336351
 40
1.0
 40
1.0
 40
1.0
 40
1.0
 10
5.4196156713
 20
11.1637153598
 30
0.0
 10
5.4614495891
 20
11.1801759851
 30
0.0
 10
5.5429000519
 20
11.2184557202
 30
0.0
 10
5.6223387846
 20
11.2607536539
 30
0.0
 10
5.6605525564
 20
11.2843878882
 30
0.0
 11
5.4196156713
 21
11.1637153598
 31
0.0
 11
5.5424186198
 21
11.2194710379
 31
0.0
 11
5.6605525564
 21
11.2843878882
 31
0.0
  0
SPLINE
  5
31F
100
AcDbEntity
  8
RACCORDO
100
AcDbSpline
 62
253
  6
CONTINUOUS
 70
0
 71
3
 72
9
 73
5
 74
3
 42
0.0000001
 43
0.0000001
 44
0.0000000001
 12
0.0928231936
 22
1.1278656601
 32
0.0
 13
-0.5066291311
 23
1.0119407176
 33
0.0
 40
0.0
 40
0.0
 40
0.0
 40
0.0
 40
0.4831057899
 40
1.0
 40
1.0
 40
1.0
 40
1.0
 10
5.6521146423
 20
10.0666780802
 30
0.0
 10
5.6670624497
 20
10.2483042237
 30
0.0
 10
5.6361511088
 20
10.6303914303
 30
0.0
 10
5.5069068928
 20
10.9893599271
 30
0.0
 10
5.4196156713
 20
11.1637153598
 30
0.0
 11
5.6521146423
 21
10.0666780802
 31
0.0
 11
5.614245526
 21
10.6120856037
 31
0.0
 11
5.4196156713
 21
11.1637153598
 31
0.0
  0
SPLINE
  5
320
100
AcDbEntity
  8
RACCORDO
100
AcDbSpline
 62
253
  6
CONTINUOUS
 70
0
 71
3
 72
9
 73
5
 74
3
 42
0.0000001
 43
0.0000001
 44
0.0000000001
 12
0.0926808392
 22
1.2488107935
 32
0.0
 13
-0.5681339087
 23
1.1159489225
 33
0.0
 40
0.0
 40
0.0
 40
0.0
 40
0.0
 40
0.4824224351
 40
1.0
 40
1.0
 40
1.0
 40
1.0
 10
5.9277684405
 20
10.0725571415
 30
0.0
 10
5.9426722125
 20
10.2733752562
 30
0.0
 10
5.9046910831
 20
10.6958630204
 30
0.0
 10
5.7585650277
 20
11.0918558652
 30
0.0
 10
5.6605472394
 20
11.2843859072
 30
0.0
 11
5.9277684405
 21
10.0725571415
 31
0.0
 11
5.880857594
 21
10.6748442084
 31
0.0
 11
5.6605472394
 21
11.2843859072
 31
0.0
  0
SPLINE
  5
321
100
AcDbEntity
  8
RACCORDO
100
AcDbSpline
 62
253
  6
CONTINUOUS
 70
0
 71
3
 72
11
 73
7
 74
5
 42
0.0000001
 43
0.0000001
 44
0.0000000001
 12
0.2627369519
 22
-0.1061341447
 32
0.0
 13
0.2410131529
 23
0.1490228932
 33
0.0
 40
0.0
 40
0.0
 40
0.0
 40
0.0
 40
0.2582541562
 40
0.5306229274
 40
0.7865150904
 40
1.0
 40
1.0
 40
1.0
 40
1.0
 10
5.6521146423
 20
10.0666780802
 30
0.0
 10
5.6747322789
 20
10.0575415522
 30
0.0
 10
5.7235912964
 20
10.0445509137
 30
0.0
 10
5.7980777229
 20
10.0389629128
 30
0.0
 10
5.8680484966
 20
10.0467616747
 30
0.0
 10
5.9106273676
 20
10.0619483373
 30
0.0
 10
5.927778258
 20
10.0725530503
 30
0.0
 11
5.6521146423
 21
10.0666780802
 31
0.0
 11
5.7226216828
 21
10.0470806337
 31
0.0
 11
5.799585912
 21
10.0413200971
 31
0.0
 11
5.8715440132
 21
10.0502544739
 31
0.0
 11
5.927778258
 21
10.0725530503
 31
0.0
  0
SPLINE
  5
322
100
AcDbEntity
  8
RACCORDO
100
AcDbSpline
 62
253
  6
CONTINUOUS
 70
0
 71
3
 72
11
 73
7
 74
5
 42
0.0000001
 43
0.0000001
 44
0.0000000001
 12
0.2712685224
 22
-0.1084348232
 32
0.0
 13
0.2106814283
 23
0.2023809723
 33
0.0
 40
0.0
 40
0.0
 40
0.0
 40
0.0
 40
0.2477615019
 40
0.5114052474
 40
0.7687812946
 40
1.0
 40
1.0
 40
1.0
 40
1.0
 10
5.6521146423
 20
-16.1173617472
 30
0.0
 10
5.6745179412
 20
-16.1263170721
 30
0.0
 10
5.723977714
 20
-16.137066625
 30
0.0
 10
5.799482192
 20
-16.1339520321
 30
0.0
 10
5.8704760017
 20
-16.1131760553
 30
0.0
 10
5.9115404291
 20
-16.0871530563
 30
0.0
 10
5.9277782581
 20
-16.0715549675
 30
0.0
 11
5.6521146423
 21
-16.1173617472
 31
0.0
 11
5.7226217069
 21
-16.133723429
 31
0.0
 11
5.7995859471
 21
-16.1307825507
 31
0.0
 11
5.8715440301
 21
-16.1089771373
 31
0.0
 11
5.9277782581
 21
-16.0715549675
 31
0.0
  0
SPLINE
  5
323
100
AcDbEntity
  8
RACCORDO
100
AcDbSpline
 62
253
  6
CONTINUOUS
 70
0
 71
3
 72
11
 73
7
 74
5
 42
0.0000001
 43
0.0000001
 44
0.0000000001
 12
0.5850189288
 22
0.5212065645
 32
0.0
 13
-0.0737813496
 23
0.7800382955
 33
0.0
 40
0.0
 40
0.0
 40
0.0
 40
0.0
 40
0.2287782389
 40
0.4663353403
 40
0.7215813945
 40
1.0
 40
1.0
 40
1.0
 40
1.0
 10
5.4196156713
 20
-16.8369773026
 30
0.0
 10
5.4642288713
 20
-16.797230396
 30
0.0
 10
5.544094298
 20
-16.7028105293
 30
0.0
 10
5.623094157
 20
-16.5294916875
 30
0.0
 10
5.6609777422
 20
-16.3300248884
 30
0.0
 10
5.6589620091
 20
-16.1897541387
 30
0.0
 10
5.6521146423
 20
-16.1173617472
 30
0.0
 11
5.4196156713
 21
-16.8369773026
 31
0.0
 11
5.5356568656
 21
-16.7003543577
 31
0.0
 11
5.6142454096
 21
-16.5316282953
 31
0.0
 11
5.6533815253
 21
-16.3355045858
 31
0.0
 11
5.6521146423
 21
-16.1173617472
 31
0.0
  0
SPLINE
  5
324
100
AcDbEntity
  8
RACCORDO
100
AcDbSpline
 62
253
  6
CONTINUOUS
 70
0
 71
3
 72
11
 73
7
 74
5
 42
0.0000001
 43
0.0000001
 44
0.0000000001
 12
0.657224215
 22
0.5845941147
 32
0.0
 13
-0.0736808101
 23
0.8765073223
 33
0.0
 40
0.0
 40
0.0
 40
0.0
 40
0.0
 40
0.2290629261
 40
0.4669405681
 40
0.7221691537
 40
1.0
 40
1.0
 40
1.0
 40
1.0
 10
5.6605448083
 20
-16.878064588
 30
0.0
 10
5.7107267089
 20
-16.8334283085
 30
0.0
 10
5.8007286071
 20
-16.7275575004
 30
0.0
 10
5.890684337
 20
-16.5334421519
 30
0.0
 10
5.9352177031
 20
-16.3100260155
 30
0.0
 10
5.93459501
 20
-16.1527257031
 30
0.0
 10
5.9277714094
 20
-16.0715521127
 30
0.0
 11
5.6605448083
 21
-16.878064588
 31
0.0
 11
5.791367699
 21
-16.7248296161
 31
0.0
 11
5.8808577285
 21
-16.5356957895
 31
0.0
 11
5.9267102222
 21
-16.3159294717
 31
0.0
 11
5.9277714094
 21
-16.0715521127
 31
0.0
  0
SPLINE
  5
325
100
AcDbEntity
  8
RACCORDO
100
AcDbSpline
 62
253
  6
CONTINUOUS
 70
0
 71
3
 72
11
 73
7
 74
5
 42
0.0000001
 43
0.0000001
 44
0.0000000001
 12
0.1837447231
 22
-0.1921189543
 32
0.0
 13
0.2087910598
 23
0.1645542744
 33
0.0
 40
0.0
 40
0.0
 40
0.0
 40
0.0
 40
0.2736122774
 40
0.5342419882
 40
0.7751203522
 40
1.0
 40
1.0
 40
1.0
 40
1.0
 10
5.4196156715
 20
-16.8369773024
 30
0.0
 10
5.4363739422
 20
-16.8544993373
 30
0.0
 10
5.4743756894
 20
-16.8840768523
 30
0.0
 10
5.5398963809
 20
-16.908463925
 30
0.0
 10
5.6058570347
 20
-16.9082202511
 30
0.0
 10
5.644893855
 20
-16.8903995571
 30
0.0
 10
5.6605448083
 20
-16.878064588
 30
0.0
 11
5.4196156715
 21
-16.8369773024
 31
0.0
 11
5.4771765829
 21
-16.8814463205
 31
0.0
 11
5.5424161174
 21
-16.9047784309
 31
0.0
 11
5.6064386743
 21
-16.9034901752
 31
0.0
 11
5.6605448083
 21
-16.878064588
 31
0.0
  0
SPLINE
  5
326
100
AcDbEntity
  8
RACCORDO
100
AcDbSpline
 62
253
  6
CONTINUOUS
 70
0
 71
3
 72
11
 73
7
 74
5
 42
0.0000001
 43
0.0000001
 44
0.0000000001
 12
0.1642235862
 22
1.9441151768
 32
0.0
 13
-1.8104709382
 23
0.727150733
 33
0.0
 40
0.0
 40
0.0
 40
0.0
 40
0.0
 40
0.2402123864
 40
0.4981738719
 40
0.757243999
 40
1.0
 40
1.0
 40
1.0
 40
1.0
 10
4.7258351082
 20
10.5712576152
 30
0.0
 10
4.7389846214
 20
10.7269244639
 30
0.0
 10
4.7031658482
 20
11.0562785797
 30
0.0
 10
4.5033739203
 20
11.5133836992
 30
0.0
 10
4.1838744048
 20
11.8986908175
 30
0.0
 10
3.9037209142
 20
12.0800884902
 30
0.0
 10
3.7572200192
 20
12.1389285582
 30
0.0
 11
4.7258351082
 21
10.5712576152
 31
0.0
 11
4.6822100885
 21
11.0378865417
 31
0.0
 11
4.4835022483
 21
11.5002921623
 31
0.0
 11
4.1585897283
 21
11.8874840332
 31
0.0
 11
3.7572200192
 21
12.1389285582
 31
0.0
  0
SPLINE
  5
327
100
AcDbEntity
  8
RACCORDO
100
AcDbSpline
 62
253
  6
CONTINUOUS
 70
0
 71
3
 72
11
 73
7
 74
5
 42
0.0000001
 43
0.0000001
 44
0.0000000001
 12
-0.3904956709
 22
0.1586551199
 32
0.0
 13
-0.3623955997
 23
-0.21523881
 33
0.0
 40
0.0
 40
0.0
 40
0.0
 40
0.0
 40
0.257494442
 40
0.5291471329
 40
0.7851461593
 40
1.0
 40
1.0
 40
1.0
 40
1.0
 10
4.7258351082
 20
10.5712576152
 30
0.0
 10
4.6923182866
 20
10.5848752191
 30
0.0
 10
4.6199173126
 20
10.6043777375
 30
0.0
 10
4.509366304
 20
10.6131829916
 30
0.0
 10
4.4051095519
 20
10.6022411371
 30
0.0
 10
4.3414081587
 20
10.5802742641
 30
0.0
 10
4.3154541299
 20
10.5648593025
 30
0.0
 11
4.7258351082
 21
10.5712576152
 31
0.0
 11
4.6213561604
 21
10.600642946
 31
0.0
 11
4.5072169048
 21
10.6097291182
 31
0.0
 11
4.4000452722
 21
10.5971924516
 31
0.0
 11
4.3154541299
 21
10.5648593025
 31
0.0
  0
SPLINE
  5
328
100
AcDbEntity
  8
RACCORDO
100
AcDbSpline
 62
253
  6
CONTINUOUS
 70
0
 71
3
 72
11
 73
7
 74
5
 42
0.0000001
 43
0.0000001
 44
0.0000000001
 12
0.1663840239
 22
1.5004823914
 32
0.0
 13
-1.4052706077
 23
0.5516752391
 33
0.0
 40
0.0
 40
0.0
 40
0.0
 40
0.0
 40
0.2422640474
 40
0.5000325255
 40
0.7579358533
 40
1.0
 40
1.0
 40
1.0
 40
1.0
 10
4.3154541299
 20
10.5648593025
 30
0.0
 10
4.3288904189
 20
10.6860302815
 30
0.0
 10
4.3086587764
 20
10.9425377796
 30
0.0
 10
4.1623203969
 20
11.3004940195
 30
0.0
 10
3.9193974308
 20
11.6014129755
 30
0.0
 10
3.702821324
 20
11.7412123715
 30
0.0
 10
3.5894327806
 20
11.7857259702
 30
0.0
 11
4.3154541299
 21
10.5648593025
 31
0.0
 11
4.2913728319
 21
10.9298066293
 31
0.0
 11
4.1459159749
 21
11.2907473822
 31
0.0
 11
3.8993409316
 21
11.5920697328
 31
0.0
 11
3.5894327806
 21
11.7857259702
 31
0.0
  0
SPLINE
  5
329
100
AcDbEntity
  8
RACCORDO
100
AcDbSpline
 62
253
  6
CONTINUOUS
 70
0
 71
3
 72
11
 73
7
 74
5
 42
0.0000001
 43
0.0000001
 44
0.0000000001
 12
-0.0319440211
 22
-0.397718529
 32
0.0
 13
-0.3049021077
 23
-0.2573619115
 33
0.0
 40
0.0
 40
0.0
 40
0.0
 40
0.0
 40
0.2507802091
 40
0.5181207038
 40
0.7758594261
 40
1.0
 40
1.0
 40
1.0
 40
1.0
 10
3.7572200192
 20
12.1389285582
 30
0.0
 10
3.7545497098
 20
12.1056819129
 30
0.0
 10
3.7412289716
 20
12.0375639948
 30
0.0
 10
3.7046982546
 20
11.9405970879
 30
0.0
 10
3.6546856228
 20
11.8539451231
 30
0.0
 10
3.6122130917
 20
11.8049543857
 30
0.0
 10
3.5894327806
 20
11.7857259702
 30
0.0
 11
3.7572200192
 21
12.1389285582
 31
0.0
 11
3.7390602476
 21
12.0405291046
 31
0.0
 11
3.7015689584
 21
11.9406661537
 31
0.0
 11
3.6494946341
 21
11.8519879095
 31
0.0
 11
3.5894327806
 21
11.7857259702
 31
0.0
  0
SPLINE
  5
32A
100
AcDbEntity
  8
RACCORDO
100
AcDbSpline
 62
253
  6
CONTINUOUS
 70
0
 71
3
 72
11
 73
7
 74
5
 42
0.0000001
 43
0.0000001
 44
0.0000000001
 12
-0.0315192116
 22
-0.3924293401
 32
0.0
 13
-0.2957969496
 23
-0.2598045655
 33
0.0
 40
0.0
 40
0.0
 40
0.0
 40
0.0
 40
0.2497581913
 40
0.5161833417
 40
0.7740087828
 40
1.0
 40
1.0
 40
1.0
 40
1.0
 10
3.5377877758
 20
12.2270574941
 30
0.0
 10
3.5351637154
 20
12.1943866801
 30
0.0
 10
3.522193925
 20
12.1274154705
 30
0.0
 10
3.4866234342
 20
12.0318373426
 30
0.0
 10
3.437805299
 20
11.9458877626
 30
0.0
 10
3.3963329283
 20
11.8969139136
 30
0.0
 10
3.3740504241
 20
11.8773427303
 30
0.0
 11
3.5377877758
 21
12.2270574941
 31
0.0
 11
3.5200954805
 21
12.1303342149
 31
0.0
 11
3.4836402744
 21
12.0319834368
 31
0.0
 11
3.4328967384
 21
11.9440733994
 31
0.0
 11
3.3740504241
 21
11.8773427303
 31
0.0
  0
SPLINE
  5
32B
100
AcDbEntity
  8
RACCORDO
100
AcDbSpline
 62
253
  6
CONTINUOUS
 70
0
 71
3
 72
13
 73
9
 74
7
 42
0.0000001
 43
0.0000001
 44
0.0000000001
 12
0.3931017744
 22
4.2091517134
 32
0.0
 13
-3.8491995409
 23
1.7478987515
 33
0.0
 40
0.0
 40
0.0
 40
0.0
 40
0.0
 40
0.2386657163
 40
0.3658894771
 40
0.4958461815
 40
0.6264200588
 40
0.7554176041
 40
1.0
 40
1.0
 40
1.0
 40
1.0
 10
3.5376726456
 20
12.2271037331
 30
0.0
 10
3.5689459511
 20
12.5619638027
 30
0.0
 10
3.5177443162
 20
13.0875528651
 30
0.0
 10
3.2984069663
 20
13.752148854
 30
0.0
 10
3.0541315218
 20
14.2431990771
 30
0.0
 10
2.7418650198
 20
14.6970736145
 30
0.0
 10
2.2598654562
 20
15.2205800595
 30
0.0
 10
1.8182925387
 20
15.5287529474
 30
0.0
 10
1.5044770566
 20
15.6712547023
 30
0.0
 11
3.5376726456
 21
12.2271037331
 31
0.0
 11
3.4550701811
 21
13.2326684528
 31
0.0
 11
3.2878075229
 21
13.7438328536
 31
0.0
 11
3.043391363
 21
14.2358569691
 31
0.0
 11
2.7304596138
 21
14.6905814016
 31
0.0
 11
2.3603067444
 21
15.0910498181
 31
0.0
 11
1.5044770566
 21
15.6712547023
 31
0.0
  0
SPLINE
  5
32C
100
AcDbEntity
  8
RACCORDO
100
AcDbSpline
 62
253
  6
CONTINUOUS
 70
0
 71
3
 72
11
 73
7
 74
5
 42
0.0000001
 43
0.0000001
 44
0.0000000001
 12
-2.2091187566
 22
0.3183308249
 32
0.0
 13
-0.8949058862
 23
-2.0446720152
 33
0.0
 40
0.0
 40
0.0
 40
0.0
 40
0.0
 40
0.2598204703
 40
0.5051053484
 40
0.7475845925
 40
1.0
 40
1.0
 40
1.0
 40
1.0
 10
0.8444482248
 20
15.8687730387
 30
0.0
 10
0.6531234667
 20
15.8963426602
 30
0.0
 10
0.2705514972
 20
15.8995362732
 30
0.0
 10
-0.2676723418
 20
15.7210713899
 30
0.0
 10
-0.7065298959
 20
15.3702575289
 30
0.0
 10
-0.9044720936
 20
15.0511454443
 30
0.0
 10
-0.9797681049
 20
14.879109871
 30
0.0
 11
0.8444482248
 21
15.8687730387
 31
0.0
 11
0.2645485492
 21
15.866878275
 31
0.0
 11
-0.254021711
 21
15.6913857848
 31
0.0
 11
-0.6777165235
 21
15.3546689024
 31
0.0
 11
-0.9797681049
 21
14.879109871
 31
0.0
  0
SPLINE
  5
32D
100
AcDbEntity
  8
RACCORDO
100
AcDbSpline
 62
253
  6
CONTINUOUS
 70
0
 71
3
 72
9
 73
5
 74
3
 42
0.0000001
 43
0.0000001
 44
0.0000000001
 12
-0.1802767878
 22
0.0709570719
 32
0.0
 13
-0.1935965136
 23
0.0074172915
 33
0.0
 40
0.0
 40
0.0
 40
0.0
 40
0.0
 40
0.4853342748
 40
1.0
 40
1.0
 40
1.0
 40
1.0
 10
3.5377877744
 20
12.2270574763
 30
0.0
 10
3.5086229397
 20
12.2385367759
 30
0.0
 10
3.4466533509
 20
12.257780924
 30
0.0
 10
3.3821738995
 20
12.2658573899
 30
0.0
 10
3.3489614029
 20
12.2671298651
 30
0.0
 11
3.5377877744
 21
12.2270574763
 31
0.0
 11
3.4478798123
 21
12.2545859249
 31
0.0
 11
3.3489614029
 21
12.2671298651
 31
0.0
  0
SPLINE
  5
32E
100
AcDbEntity
  8
RACCORDO
100
AcDbSpline
 62
253
  6
CONTINUOUS
 70
0
 71
3
 72
16
 73
12
 74
10
 42
0.0000001
 43
0.0000001
 44
0.0000000001
 12
-1.4144785002
 22
4.3189286685
 32
0.0
 13
-3.4474098859
 23
-2.9612935264
 33
0.0
 40
0.0
 40
0.0
 40
0.0
 40
0.0
 40
0.2793868043
 40
0.4174818049
 40
0.5493657409
 40
0.6727288802
 40
0.7871499373
 40
0.8416966351
 40
0.8949521883
 40
0.9475047953
 40
1.0
 40
1.0
 40
1.0
 40
1.0
 10
2.9849259523
 20
13.3887027688
 30
0.0
 10
2.8531970763
 20
13.790919995
 30
0.0
 10
2.5374584099
 20
14.3610726547
 30
0.0
 10
1.9483004817
 20
14.9537592552
 30
0.0
 10
1.4487716923
 20
15.2873028347
 30
0.0
 10
0.9204598414
 20
15.4882262593
 30
0.0
 10
0.4731876577
 20
15.5331417352
 30
0.0
 10
0.1382153562
 20
15.4887864322
 30
0.0
 10
-0.0954834354
 20
15.4184854388
 30
0.0
 10
-0.3114680829
 20
15.3118237052
 30
0.0
 10
-0.4410157819
 20
15.2179014411
 30
0.0
 10
-0.5013399444
 20
15.1660835378
 30
0.0
 11
2.9849259523
 21
13.3887027688
 31
0.0
 11
2.3714914172
 21
14.5004036349
 31
0.0
 11
1.9276869979
 21
14.9441514632
 31
0.0
 11
1.427102788
 21
15.2737820548
 31
0.0
 11
0.9012245478
 21
15.468133864
 31
0.0
 11
0.3833338468
 21
15.5149706906
 31
0.0
 11
0.1376486522
 21
15.4819375389
 31
0.0
 11
-0.0940147051
 21
15.4118681976
 31
0.0
 11
-0.3080984927
 21
15.3059929316
 31
0.0
 11
-0.5013399444
 21
15.1660835378
 31
0.0
  0
SPLINE
  5
32F
100
AcDbEntity
  8
RACCORDO
100
AcDbSpline
 62
253
  6
CONTINUOUS
 70
0
 71
3
 72
14
 73
10
 74
8
 42
0.0000001
 43
0.0000001
 44
0.0000000001
 12
0.9083150374
 22
0.5809060092
 32
0.0
 13
-1.0005110765
 23
0.4018278046
 33
0.0
 40
0.0
 40
0.0
 40
0.0
 40
0.0
 40
0.096586489
 40
0.1999150889
 40
0.3158403372
 40
0.4450621721
 40
0.5842623206
 40
0.727724111
 40
1.0
 40
1.0
 40
1.0
 40
1.0
 10
1.4601218579
 20
15.7944312501
 30
0.0
 10
1.4893655114
 20
15.8131338074
 30
0.0
 10
1.5417647823
 20
15.8661941704
 30
0.0
 10
1.5819117961
 20
15.9752285411
 30
0.0
 10
1.5841308053
 20
16.1022782723
 30
0.0
 10
1.550391994
 20
16.2375143875
 30
0.0
 10
1.4838678803
 20
16.3710635948
 30
0.0
 10
1.3617195087
 20
16.5293563202
 30
0.0
 10
1.2366318974
 20
16.6217259803
 30
0.0
 10
1.1458268832
 20
16.6581953212
 30
0.0
 11
1.4601218579
 21
15.7944312501
 31
0.0
 11
1.5336980993
 21
15.8681288006
 31
0.0
 11
1.5744308577
 21
15.9718230325
 31
0.0
 11
1.5788849551
 21
16.0967327828
 31
0.0
 11
1.5466812522
 21
16.232285262
 31
0.0
 11
1.4805391165
 21
16.3670085985
 31
0.0
 11
1.3860744926
 21
16.4894909729
 31
0.0
 11
1.1458268832
 21
16.6581953212
 31
0.0
  0
SPLINE
  5
330
100
AcDbEntity
  8
RACCORDO
100
AcDbSpline
 62
253
  6
CONTINUOUS
 70
0
 71
3
 72
14
 73
10
 74
8
 42
0.0000001
 43
0.0000001
 44
0.0000000001
 12
0.9083150374
 22
0.5809060092
 32
0.0
 13
-1.0005110765
 23
0.4018278046
 33
0.0
 40
0.0
 40
0.0
 40
0.0
 40
0.0
 40
0.096586489
 40
0.1999150889
 40
0.3158403372
 40
0.4450621721
 40
0.5842623206
 40
0.727724111
 40
1.0
 40
1.0
 40
1.0
 40
1.0
 10
-7.5505506293
 20
19.4133204618
 30
0.0
 10
-7.5213069758
 20
19.4320230191
 30
0.0
 10
-7.4689077049
 20
19.4850833821
 30
0.0
 10
-7.4287606911
 20
19.5941177528
 30
0.0
 10
-7.4265416819
 20
19.721167484
 30
0.0
 10
-7.4602804932
 20
19.8564035992
 30
0.0
 10
-7.5268046069
 20
19.9899528065
 30
0.0
 10
-7.6489529785
 20
20.1482455319
 30
0.0
 10
-7.7740405897
 20
20.240615192
 30
0.0
 10
-7.864845604
 20
20.2770845329
 30
0.0
 11
-7.5505506293
 21
19.4133204618
 31
0.0
 11
-7.4769743879
 21
19.4870180123
 31
0.0
 11
-7.4362416295
 21
19.5907122443
 31
0.0
 11
-7.431787532
 21
19.7156219945
 31
0.0
 11
-7.463991235
 21
19.8511744738
 31
0.0
 11
-7.5301333707
 21
19.9858978102
 31
0.0
 11
-7.6245979945
 21
20.1083801846
 31
0.0
 11
-7.864845604
 21
20.2770845329
 31
0.0
  0
SPLINE
  5
331
100
AcDbEntity
  8
RACCORDO
100
AcDbSpline
 62
253
  6
CONTINUOUS
 70
0
 71
3
 72
9
 73
5
 74
3
 42
0.0000001
 43
0.0000001
 44
0.0000000001
 12
0.0622161479
 22
0.0509644847
 32
0.0
 13
0.0746517485
 23
-0.0299223027
 33
0.0
 40
0.0
 40
0.0
 40
0.0
 40
0.0
 40
0.5670514362
 40
1.0
 40
1.0
 40
1.0
 40
1.0
 10
1.4347612696
 20
20.7253189424
 30
0.0
 10
1.4465211883
 20
20.7349521038
 30
0.0
 10
1.4694146837
 20
20.750196291
 30
0.0
 10
1.4985239663
 20
20.7513943755
 30
0.0
 10
1.5092974221
 20
20.7470761029
 30
0.0
 11
1.4347612696
 21
20.7253189424
 31
0.0
 11
1.474483437
 21
20.7477240935
 31
0.0
 11
1.5092974221
 21
20.7470761029
 31
0.0
  0
SPLINE
  5
332
100
AcDbEntity
  8
RACCORDO
100
AcDbSpline
 62
253
  6
CONTINUOUS
 70
0
 71
3
 72
9
 73
5
 74
3
 42
0.0000001
 43
0.0000001
 44
0.0000000001
 12
-0.009436395
 22
0.1639050182
 32
0.0
 13
-0.1394670317
 23
0.0866189794
 33
0.0
 40
0.0
 40
0.0
 40
0.0
 40
0.0
 40
0.5101401298
 40
1.0
 40
1.0
 40
1.0
 40
1.0
 10
1.6189973261
 20
20.5928748702
 30
0.0
 10
1.6173926982
 20
20.6207463793
 30
0.0
 10
1.6024580421
 20
20.6756974033
 30
0.0
 10
1.5629224068
 20
20.717298737
 30
0.0
 10
1.5401493061
 20
20.7314424577
 30
0.0
 11
1.6189973261
 21
20.5928748702
 31
0.0
 11
1.595752932
 21
20.6733376615
 31
0.0
 11
1.5401493061
 21
20.7314424577
 31
0.0
  0
SPLINE
  5
333
100
AcDbEntity
  8
RACCORDO
100
AcDbSpline
 62
253
  6
CONTINUOUS
 70
0
 71
3
 72
9
 73
5
 74
3
 42
0.0000001
 43
0.0000001
 44
0.0000000001
 12
-0.0167437196
 22
0.043828223
 32
0.0
 13
-0.0243629425
 23
0.040096288
 33
0.0
 40
0.0
 40
0.0
 40
0.0
 40
0.0
 40
0.2456300696
 40
1.0
 40
1.0
 40
1.0
 40
1.0
 10
1.588553406
 20
20.5696010702
 30
0.0
 10
1.5871824857
 20
20.57318958
 30
0.0
 10
1.5812460805
 20
20.5876617922
 30
0.0
 10
1.5739561323
 20
20.6015707993
 30
0.0
 10
1.5678299086
 20
20.6116532773
 30
0.0
 11
1.588553406
 21
20.5696010702
 31
0.0
 11
1.5841845016
 21
20.5802652205
 31
0.0
 11
1.5678299086
 21
20.6116532773
 31
0.0
  0
SPLINE
  5
334
100
AcDbEntity
  8
RACCORDO
100
AcDbSpline
 62
253
  6
CONTINUOUS
 70
0
 71
3
 72
9
 73
5
 74
3
 42
0.0000001
 43
0.0000001
 44
0.0000000001
 12
-0.0796420435
 22
0.1310740817
 32
0.0
 13
-0.1370764883
 23
0.0687990287
 33
0.0
 40
0.0
 40
0.0
 40
0.0
 40
0.0
 40
0.2536878762
 40
1.0
 40
1.0
 40
1.0
 40
1.0
 10
1.5678299086
 20
20.6116532773
 30
0.0
 10
1.5610951683
 20
20.6227372457
 30
0.0
 10
1.5315533822
 20
20.664494706
 30
0.0
 10
1.4907533355
 20
20.6986313889
 30
0.0
 10
1.4566527205
 20
20.7157465719
 30
0.0
 11
1.5678299086
 21
20.6116532773
 31
0.0
 11
1.5453818284
 21
20.6434335141
 31
0.0
 11
1.4566527205
 21
20.7157465719
 31
0.0
  0
SPLINE
  5
335
100
AcDbEntity
  8
RACCORDO
100
AcDbSpline
 62
253
  6
CONTINUOUS
 70
0
 71
3
 72
11
 73
7
 74
5
 42
0.0000001
 43
0.0000001
 44
0.0000000001
 12
-0.9867271606
 22
-0.9861380189
 32
0.0
 13
0.0463741084
 23
-1.3942554013
 33
0.0
 40
0.0
 40
0.0
 40
0.0
 40
0.0
 40
0.2357273728
 40
0.4997274472
 40
0.7638736278
 40
1.0
 40
1.0
 40
1.0
 40
1.0
 10
-17.7901842044
 20
16.8229627626
 30
0.0
 10
-17.8677170715
 20
16.7454761878
 30
0.0
 10
-18.0084624397
 20
16.5575916074
 30
0.0
 10
-18.1665313148
 20
16.2378063116
 30
0.0
 10
-18.269396582
 20
15.896044545
 30
0.0
 10
-18.2949255558
 20
15.6624410748
 30
0.0
 10
-18.2912755058
 20
15.5527009182
 30
0.0
 11
-17.7901842044
 21
16.8229627626
 31
0.0
 11
-17.9921917867
 21
16.5634775616
 31
0.0
 11
-18.1569550658
 21
16.2341017398
 31
0.0
 11
-18.2615133764
 21
15.8807561563
 31
0.0
 11
-18.2912755058
 21
15.5527009182
 31
0.0
  0
SPLINE
  5
336
100
AcDbEntity
  8
RACCORDO
100
AcDbSpline
 62
253
  6
CONTINUOUS
 70
0
 71
3
 72
11
 73
7
 74
5
 42
0.0000001
 43
0.0000001
 44
0.0000000001
 12
-0.319319013
 22
0.1229471877
 32
0.0
 13
-0.2411193556
 23
-0.2427799403
 33
0.0
 40
0.0
 40
0.0
 40
0.0
 40
0.0
 40
0.2928046535
 40
0.5543239017
 40
0.7863013865
 40
1.0
 40
1.0
 40
1.0
 40
1.0
 10
-17.7901842044
 20
16.8229627626
 30
0.0
 10
-17.8213502354
 20
16.8349625988
 30
0.0
 10
-17.8825435647
 20
16.8526586886
 30
0.0
 10
-17.9729728785
 20
16.8581730136
 30
0.0
 10
-18.0529432349
 20
16.8399973209
 30
0.0
 10
-18.096499943
 20
16.8110402187
 30
0.0
 10
-18.113675567
 20
16.7937463065
 30
0.0
 11
-17.7901842044
 21
16.8229627626
 31
0.0
 11
-17.8867107453
 21
16.8498046127
 31
0.0
 11
-17.9761035869
 21
16.8538464374
 31
0.0
 11
-18.0531568701
 21
16.8347855616
 31
0.0
 11
-18.113675567
 21
16.7937463065
 31
0.0
  0
SPLINE
  5
337
100
AcDbEntity
  8
RACCORDO
100
AcDbSpline
 62
253
  6
CONTINUOUS
 70
0
 71
3
 72
11
 73
7
 74
5
 42
0.0000001
 43
0.0000001
 44
0.0000000001
 12
-0.3105396068
 22
0.1245034341
 32
0.0
 13
-0.0130937291
 23
0.3343119902
 33
0.0
 40
0.0
 40
0.0
 40
0.0
 40
0.0
 40
0.2933043083
 40
0.5548798023
 40
0.7866469933
 40
1.0
 40
1.0
 40
1.0
 40
1.0
 10
-18.291275501
 20
15.5527009225
 30
0.0
 10
-18.3216363692
 20
15.564873387
 30
0.0
 10
-18.37732032
 20
15.5928986618
 30
0.0
 10
-18.4459357544
 20
15.6489687557
 30
0.0
 10
-18.491362737
 20
15.7149655272
 30
0.0
 10
-18.5035392321
 20
15.7645626084
 30
0.0
 10
-18.5044704276
 20
15.7883380978
 30
0.0
 11
-18.291275501
 21
15.5527009225
 31
0.0
 11
-18.3784690716
 21
15.5977213861
 31
0.0
 11
-18.4453536334
 21
15.6541599184
 31
0.0
 11
-18.4880903594
 21
15.7188617524
 31
0.0
 11
-18.5044704276
 21
15.7883380978
 31
0.0
  0
SPLINE
  5
338
100
AcDbEntity
  8
RACCORDO
100
AcDbSpline
 62
253
  6
CONTINUOUS
 70
0
 71
3
 72
11
 73
7
 74
5
 42
0.0000001
 43
0.0000001
 44
0.0000000001
 12
0.0412173083
 22
-0.4222885323
 32
0.0
 13
0.3936991588
 23
-0.1582006427
 33
0.0
 40
0.0
 40
0.0
 40
0.0
 40
0.0
 40
0.3055630982
 40
0.5692886864
 40
0.7959630982
 40
1.0
 40
1.0
 40
1.0
 40
1.0
 10
-16.2134406473
 20
-16.6634103984
 30
0.0
 10
-16.2092424845
 20
-16.7064223292
 30
0.0
 10
-16.1959040978
 20
-16.786255373
 30
0.0
 10
-16.1562136884
 20
-16.892571623
 30
0.0
 10
-16.0982487444
 20
-16.9737183113
 30
0.0
 10
-16.0461245175
 20
-17.0085845821
 30
0.0
 10
-16.019348132
 20
-17.0193441718
 30
0.0
 11
-16.2134406473
 21
-16.6634103984
 31
0.0
 11
-16.190588301
 21
-16.7910294687
 31
0.0
 11
-16.1495999896
 21
-16.8951496534
 31
0.0
 11
-16.0918798681
 21
-16.9720806596
 31
0.0
 11
-16.019348132
 21
-17.0193441718
 31
0.0
  0
SPLINE
  5
339
100
AcDbEntity
  8
RACCORDO
100
AcDbSpline
 62
253
  6
CONTINUOUS
 70
0
 71
3
 72
11
 73
7
 74
5
 42
0.0000001
 43
0.0000001
 44
0.0000000001
 12
-0.3096493804
 22
0.1245599632
 32
0.0
 13
-0.0334669273
 23
0.3320811467
 33
0.0
 40
0.0
 40
0.0
 40
0.0
 40
0.0
 40
0.2839621199
 40
0.5425245376
 40
0.7780710081
 40
1.0
 40
1.0
 40
1.0
 40
1.0
 10
-16.2134272863
 20
-16.6633969823
 30
0.0
 10
-16.2427368511
 20
-16.6516068785
 30
0.0
 10
-16.2969207744
 20
-16.6239478999
 30
0.0
 10
-16.3641155057
 20
-16.5680190101
 30
0.0
 10
-16.4099705771
 20
-16.5014650859
 30
0.0
 10
-16.4241291173
 20
-16.4513761041
 30
0.0
 10
-16.4266048778
 20
-16.4268099594
 30
0.0
 11
-16.2134272863
 21
-16.6633969823
 31
0.0
 11
-16.2974491201
 21
-16.6195467181
 31
0.0
 11
-16.3630831211
 21
-16.5635142898
 31
0.0
 11
-16.4068294332
 21
-16.4981931191
 31
0.0
 11
-16.4266048778
 21
-16.4268099594
 31
0.0
  0
SPLINE
  5
33A
100
AcDbEntity
  8
RACCORDO
100
AcDbSpline
 62
253
  6
CONTINUOUS
 70
0
 71
3
 72
9
 73
5
 74
3
 42
0.0000001
 43
0.0000001
 44
0.0000000001
 12
0.0099270813
 22
-0.2260075322
 32
0.0
 13
-0.1703784649
 23
-0.1488258387
 33
0.0
 40
0.0
 40
0.0
 40
0.0
 40
0.0
 40
0.5326505899
 40
1.0
 40
1.0
 40
1.0
 40
1.0
 10
1.8805233788
 20
-23.5248489791
 30
0.0
 10
1.8822859341
 20
-23.5649766609
 30
0.0
 10
1.8744989249
 20
-23.6421565802
 30
0.0
 10
1.8317089929
 20
-23.7088384997
 30
0.0
 10
1.8051669012
 20
-23.7320230556
 30
0.0
 11
1.8805233788
 21
-23.5248489791
 31
0.0
 11
1.864059512
 21
-23.6442180626
 31
0.0
 11
1.8051669012
 21
-23.7320230556
 31
0.0
  0
SPLINE
  5
33B
100
AcDbEntity
  8
RACCORDO
100
AcDbSpline
 62
253
  6
CONTINUOUS
 70
0
 71
3
 72
11
 73
7
 74
5
 42
0.0000001
 43
0.0000001
 44
0.0000000001
 12
-0.5246601269
 22
-0.508777891
 32
0.0
 13
-0.6783351841
 23
0.2720010463
 33
0.0
 40
0.0
 40
0.0
 40
0.0
 40
0.0
 40
0.2316697751
 40
0.4890141868
 40
0.7523952014
 40
1.0
 40
1.0
 40
1.0
 40
1.0
 10
1.5716484317
 20
-23.4131860538
 30
0.0
 10
1.5311324672
 20
-23.4524755403
 30
0.0
 10
1.4286341853
 20
-23.5181559423
 30
0.0
 10
1.2511468019
 20
-23.5707542115
 30
0.0
 10
1.0623621809
 20
-23.5789480117
 30
0.0
 10
0.9387045229
 20
-23.552051021
 30
0.0
 10
0.882718174
 20
-23.5296014329
 30
0.0
 11
1.5716484317
 21
-23.4131860538
 31
0.0
 11
1.4311297166
 21
-23.5076389781
 31
0.0
 11
1.2513230248
 21
-23.5627976051
 31
0.0
 11
1.0589894235
 21
-23.5705226256
 31
0.0
 11
0.882718174
 21
-23.5296014329
 31
0.0
  0
SPLINE
  5
33C
100
AcDbEntity
  8
RACCORDO
100
AcDbSpline
 62
253
  6
CONTINUOUS
 70
0
 71
3
 72
11
 73
7
 74
5
 42
0.0000001
 43
0.0000001
 44
0.0000000001
 12
-0.5069822537
 22
-0.4805768527
 32
0.0
 13
0.022611308
 23
-0.6981932724
 33
0.0
 40
0.0
 40
0.0
 40
0.0
 40
0.0
 40
0.237096329
 40
0.5011651942
 40
0.7646134748
 40
1.0
 40
1.0
 40
1.0
 40
1.0
 10
-0.2431291598
 20
9.4016496319
 30
0.0
 10
-0.2831970369
 20
9.3636686293
 30
0.0
 10
-0.3562306448
 20
9.2710669624
 30
0.0
 10
-0.4386116045
 20
9.1123072504
 30
0.0
 10
-0.4923684273
 20
8.9421411017
 30
0.0
 10
-0.5058827243
 20
8.8254909143
 30
0.0
 10
-0.5041085919
 20
8.7707091515
 30
0.0
 11
-0.2431291598
 21
9.4016496319
 31
0.0
 11
-0.3480392295
 21
9.2734864577
 31
0.0
 11
-0.4337506289
 21
9.1101404673
 31
0.0
 11
-0.4883112645
 21
8.9343799985
 31
0.0
 11
-0.5041085919
 21
8.7707091515
 31
0.0
  0
SPLINE
  5
33D
100
AcDbEntity
  8
RACCORDO
100
AcDbSpline
 62
253
  6
CONTINUOUS
 70
0
 71
3
 72
11
 73
7
 74
5
 42
0.0000001
 43
0.0000001
 44
0.0000000001
 12
-1.0049898621
 22
-0.9694661902
 32
0.0
 13
0.0455305912
 23
-1.3956347237
 33
0.0
 40
0.0
 40
0.0
 40
0.0
 40
0.0
 40
0.2366423783
 40
0.5006897283
 40
0.7643693651
 40
1.0
 40
1.0
 40
1.0
 40
1.0
 10
-0.680122051
 20
9.9511760644
 30
0.0
 10
-0.7593964481
 20
9.8747038028
 30
0.0
 10
-0.9037014569
 20
9.6886013699
 30
0.0
 10
-1.0662235713
 20
9.3703171928
 30
0.0
 10
-1.1721884225
 20
9.0295125923
 30
0.0
 10
-1.198701195
 20
8.7961195745
 30
0.0
 10
-1.1951250609
 20
8.6865014759
 30
0.0
 11
-0.680122051
 21
9.9511760644
 31
0.0
 11
-0.8873486487
 21
9.6937871201
 31
0.0
 11
-1.0565505199
 21
9.3661935132
 31
0.0
 11
-1.1641464997
 21
9.0140691412
 31
0.0
 11
-1.1951250609
 21
8.6865014759
 31
0.0
  0
SPLINE
  5
33E
100
AcDbEntity
  8
RACCORDO
100
AcDbSpline
 62
253
  6
CONTINUOUS
 70
0
 71
3
 72
11
 73
7
 74
5
 42
0.0000001
 43
0.0000001
 44
0.0000000001
 12
-0.0624169959
 22
0.7272591682
 32
0.0
 13
-0.6733153338
 23
0.2818656424
 33
0.0
 40
0.0
 40
0.0
 40
0.0
 40
0.0
 40
0.2250001262
 40
0.4822491323
 40
0.7491891283
 40
1.0
 40
1.0
 40
1.0
 40
1.0
 10
-0.2431291598
 20
9.4016496319
 30
0.0
 10
-0.2478104371
 20
9.4561941001
 30
0.0
 10
-0.282572726
 20
9.5709430312
 30
0.0
 10
-0.3804898136
 20
9.7264567189
 30
0.0
 10
-0.5150402369
 20
9.8606970703
 30
0.0
 10
-0.6238304499
 20
9.9276110745
 30
0.0
 10
-0.6801220519
 20
9.9511760637
 30
0.0
 11
-0.2431291598
 21
9.4016496319
 31
0.0
 11
-0.2864012025
 21
9.5600814804
 31
0.0
 11
-0.3846412301
 21
9.7201069396
 31
0.0
 11
-0.5228648926
 21
9.8574388548
 31
0.0
 11
-0.6801220519
 21
9.9511760637
 31
0.0
  0
SPLINE
  5
33F
100
AcDbEntity
  8
RACCORDO
100
AcDbSpline
 62
253
  6
CONTINUOUS
 70
0
 71
3
 72
11
 73
7
 74
5
 42
0.0000001
 43
0.0000001
 44
0.0000000001
 12
-0.5507713054
 22
-0.4698884742
 32
0.0
 13
-0.671658317
 23
0.2702208619
 33
0.0
 40
0.0
 40
0.0
 40
0.0
 40
0.0
 40
0.225838925
 40
0.4826843948
 40
0.7489783693
 40
1.0
 40
1.0
 40
1.0
 40
1.0
 10
-0.5041085919
 20
8.7707091515
 30
0.0
 10
-0.5455704584
 20
8.7353361155
 30
0.0
 10
-0.6499442017
 20
8.6781896839
 30
0.0
 10
-0.827315869
 20
8.6362581992
 30
0.0
 10
-1.0156481529
 20
8.6351989624
 30
0.0
 10
-1.1389247975
 20
8.6638910558
 30
0.0
 10
-1.1951250529
 20
8.686501483
 30
0.0
 11
-0.5041085919
 21
8.7707091515
 31
0.0
 11
-0.6454142985
 21
8.6884550349
 31
0.0
 11
-0.825892237
 21
8.6436745135
 31
0.0
 11
-1.0186819349
 21
8.6429684246
 31
0.0
 11
-1.1951250529
 21
8.686501483
 31
0.0
  0
SPLINE
  5
340
100
AcDbEntity
  8
RACCORDO
100
AcDbSpline
 62
253
  6
CONTINUOUS
 70
0
 71
3
 72
15
 73
11
 74
9
 42
0.0000001
 43
0.0000001
 44
0.0000000001
 12
0.0435878501
 22
-0.4425755468
 32
0.0
 13
0.3347268394
 23
0.2927984944
 33
0.0
 40
0.0
 40
0.0
 40
0.0
 40
0.0
 40
0.1492281938
 40
0.2782965625
 40
0.3901029818
 40
0.4923073888
 40
0.5959845518
 40
0.7115948221
 40
0.8456312766
 40
1.0
 40
1.0
 40
1.0
 40
1.0
 10
1.5716484318
 20
-23.4131860538
 30
0.0
 10
1.5738166105
 20
-23.4352009703
 30
0.0
 10
1.5808678401
 20
-23.4760980752
 30
0.0
 10
1.6021452961
 20
-23.5304193905
 30
0.0
 10
1.6334862208
 20
-23.5715985816
 30
0.0
 10
1.6746863476
 20
-23.5969049662
 30
0.0
 10
1.723057662
 20
-23.6037400848
 30
0.0
 10
1.7750851643
 20
-23.5928455921
 30
0.0
 10
1.8290986681
 20
-23.5659378578
 30
0.0
 10
1.8632995939
 20
-23.539915289
 30
0.0
 10
1.8805233788
 20
-23.5248489791
 30
0.0
 11
1.5716484318
 21
-23.4131860538
 31
0.0
 11
1.5837156766
 21
-23.4784439999
 31
0.0
 11
1.6056324674
 21
-23.5314938302
 31
0.0
 11
1.6366026149
 21
-23.5703930105
 31
0.0
 11
1.6755492273
 21
-23.5938247633
 31
0.0
 11
1.7211050036
 21
-23.6009328088
 31
0.0
 11
1.7716459012
 21
-23.5914988644
 31
0.0
 11
1.8254394507
 21
-23.5658201035
 31
0.0
 11
1.8805233788
 21
-23.5248489791
 31
0.0
  0
SPLINE
  5
341
100
AcDbEntity
  8
RACCORDO
100
AcDbSpline
 62
253
  6
CONTINUOUS
 70
0
 71
3
 72
11
 73
7
 74
5
 42
0.0000001
 43
0.0000001
 44
0.0000000001
 12
0.0418526455
 22
-0.425965957
 32
0.0
 13
0.3971534291
 23
-0.1595863222
 33
0.0
 40
0.0
 40
0.0
 40
0.0
 40
0.0
 40
0.3033747946
 40
0.5662226308
 40
0.7936426483
 40
1.0
 40
1.0
 40
1.0
 40
1.0
 10
0.8827097976
 20
-23.5296098408
 30
0.0
 10
0.8869421435
 20
-23.572685619
 30
0.0
 10
0.9005257967
 20
-23.6527706682
 30
0.0
 10
0.9411033655
 20
-23.759491795
 30
0.0
 10
1.0004658619
 20
-23.8411084108
 30
0.0
 10
1.0535666104
 20
-23.8762061476
 30
0.0
 10
1.0808851204
 20
-23.8871834179
 30
0.0
 11
0.8827097976
 21
-23.5296098408
 31
0.0
 11
0.9059092144
 21
-23.6573701862
 31
0.0
 11
0.9477181769
 21
-23.7618164344
 31
0.0
 11
1.006696153
 21
-23.8392541977
 31
0.0
 11
1.0808851204
 21
-23.8871834179
 31
0.0
  0
SPLINE
  5
342
100
AcDbEntity
  8
RACCORDO
100
AcDbSpline
 62
7
  6
CONTINUOUS
 70
0
 71
3
 72
9
 73
5
 74
3
 42
0.0000001
 43
0.0000001
 44
0.0000000001
 12
-0.1056568338
 22
0.0702926596
 32
0.0
 13
-0.0955956022
 23
0.0834619995
 33
0.0
 40
0.0
 40
0.0
 40
0.0
 40
0.0
 40
0.247403553
 40
1.0
 40
1.0
 40
1.0
 40
1.0
 10
5.5491104358
 20
18.4706606743
 30
0.0
 10
5.5403971438
 20
18.4764575588
 30
0.0
 10
5.5054921084
 20
18.5003502214
 30
0.0
 10
5.4719782865
 20
18.5263285993
 30
0.0
 10
5.4479966496
 20
18.547266334
 30
0.0
 11
5.5491104358
 21
18.4706606743
 31
0.0
 11
5.5232110384
 21
18.4884074816
 31
0.0
 11
5.4479966496
 21
18.547266334
 31
0.0
  0
LINE
  5
343
100
AcDbEntity
  8
RACCORDO
100
AcDbLine
 62
7
  6
CONTINUOUS
 10
-3.057852665
 20
25.4673171554
 11
-3.0329182195
 21
25.4828264307
  0
LINE
  5
344
100
AcDbEntity
  8
RACCORDO
100
AcDbLine
 62
7
  6
CONTINUOUS
 10
6.6172567573
 20
-16.0905971091
 11
10.6394050027
 21
-12.6345409602
  0
LINE
  5
345
100
AcDbEntity
  8
RACCORDO
100
AcDbLine
 62
7
  6
CONTINUOUS
 10
-5.5740064332
 20
23.0643749678
 11
-5.6176414315
 21
23.045381257
  0
SPLINE
  5
346
100
AcDbEntity
  8
RACCORDO
100
AcDbSpline
 62
7
  6
CONTINUOUS
 70
0
 71
3
 72
10
 73
6
 74
4
 42
0.0000001
 43
0.0000001
 44
0.0000000001
 12
-0.0884001786
 22
-1.1771517943
 32
0.0
 13
-0.8586755905
 23
-0.8100476337
 33
0.0
 40
0.0
 40
0.0
 40
0.0
 40
0.0
 40
0.5121857155
 40
0.7580127681
 40
1.0
 40
1.0
 40
1.0
 40
1.0
 10
18.8222491268
 20
-1.9888836893
 30
0.0
 10
18.8071566906
 20
-2.189857134
 30
0.0
 10
18.7399163151
 20
-2.4884429728
 30
0.0
 10
18.5476689827
 20
-2.8340270446
 30
0.0
 10
18.4216631063
 20
-2.9810443026
 30
0.0
 10
18.3524002632
 20
-3.0463846974
 30
0.0
 11
18.8222491268
 21
-1.9888836893
 31
0.0
 11
18.6804549724
 21
-2.5766399157
 31
0.0
 11
18.5387472391
 21
-2.8298779255
 31
0.0
 11
18.3524002632
 21
-3.0463846974
 31
0.0
  0
SPLINE
  5
347
100
AcDbEntity
  8
RACCORDO
100
AcDbSpline
 62
7
  6
CONTINUOUS
 70
0
 71
3
 72
9
 73
5
 74
3
 42
0.0000001
 43
0.0000001
 44
0.0000000001
 12
0.8994867303
 22
-1.4232324183
 32
0.0
 13
0.0
 23
-1.6836469031
 33
0.0
 40
0.0
 40
0.0
 40
0.0
 40
0.0
 40
0.2646690651
 40
1.0
 40
1.0
 40
1.0
 40
1.0
 10
18.3235988959
 20
1.4862712113
 30
0.0
 10
18.4029543333
 20
1.3607093468
 30
0.0
 10
18.6739608121
 20
0.8700366518
 30
0.0
 10
18.8282085631
 20
0.3048377542
 30
0.0
 10
18.8282085631
 20
-0.1078414628
 30
0.0
 11
18.3235988959
 21
1.4862712113
 31
0.0
 11
18.5382294806
 21
1.0957570407
 31
0.0
 11
18.8282085631
 21
-0.1078414628
 31
0.0
  0
SPLINE
  5
348
100
AcDbEntity
  8
0
100
AcDbSpline
 62
7
  6
CONTINUOUS
 70
0
 71
3
 72
9
 73
5
 74
3
 42
0.0000001
 43
0.0000001
 44
0.0000000001
 12
-2.1581242132
 22
-1.7027909954
 32
0.0
 13
-2.1603277491
 23
-1.6999945029
 33
0.0
 40
0.0
 40
0.0
 40
0.0
 40
0.0
 40
0.2496970932
 40
1.0
 40
1.0
 40
1.0
 40
1.0
 10
-3.7727117316
 20
23.6997193685
 30
0.0
 10
-3.9523375126
 20
23.5579920479
 30
0.0
 10
-4.6718177697
 20
22.9905287896
 30
0.0
 10
-5.3916863412
 20
22.4235579376
 30
0.0
 10
-5.9319864044
 20
21.9983876653
 30
0.0
 11
-3.7727117316
 21
23.6997193685
 31
0.0
 11
-4.3116659811
 21
23.2746348965
 31
0.0
 11
-5.9319864044
 21
21.9983876653
 31
0.0
  0
LINE
  5
349
100
AcDbEntity
  8
0
100
AcDbLine
 62
7
  6
CONTINUOUS
 10
-5.9319864044
 20
21.9983876653
 11
-6.0722818956
 21
21.8879954157
  0
SPLINE
  5
34A
100
AcDbEntity
  8
0
100
AcDbSpline
 62
7
  6
CONTINUOUS
 70
0
 71
3
 72
9
 73
5
 74
3
 42
0.0000001
 43
0.0000001
 44
0.0000000001
 12
-0.4280626825
 22
0.1719196237
 32
0.0
 13
-0.4461441063
 23
-0.1172580639
 33
0.0
 40
0.0
 40
0.0
 40
0.0
 40
0.0
 40
0.5294960601
 40
1.0
 40
1.0
 40
1.0
 40
1.0
 10
-3.1204955532
 20
23.7083317744
 30
0.0
 10
-3.1960480545
 20
23.7386753622
 30
0.0
 10
-3.3463835997
 20
23.7797422338
 30
0.0
 10
-3.5037909833
 20
23.7719061791
 30
0.0
 10
-3.5737618366
 20
23.7535160521
 30
0.0
 11
-3.1204955532
 21
23.7083317744
 31
0.0
 11
-3.3572349158
 21
23.768454134
 31
0.0
 11
-3.5737618366
 21
23.7535160521
 31
0.0
  0
SPLINE
  5
34B
100
AcDbEntity
  8
0
100
AcDbSpline
 62
7
  6
CONTINUOUS
 70
0
 71
3
 72
9
 73
5
 74
3
 42
0.0000001
 43
0.0000001
 44
0.0000000001
 12
-0.380758659
 22
0.4059156217
 32
0.0
 13
-0.5164515293
 23
0.2074185773
 33
0.0
 40
0.0
 40
0.0
 40
0.0
 40
0.0
 40
0.2609644696
 40
1.0
 40
1.0
 40
1.0
 40
1.0
 10
3.3187915872
 20
20.9853112082
 30
0.0
 10
3.2856700933
 20
21.0206210598
 30
0.0
 10
3.1523164975
 20
21.1495102146
 30
0.0
 10
2.992750647
 20
21.2531142805
 30
0.0
 10
2.8655253038
 20
21.3042108466
 30
0.0
 11
3.3187915872
 21
20.9853112082
 31
0.0
 11
3.2142838737
 21
21.086170063
 31
0.0
 11
2.8655253038
 21
21.3042108466
 31
0.0
  0
SPLINE
  5
34C
100
AcDbEntity
  8
0
100
AcDbSpline
 62
7
  6
CONTINUOUS
 70
0
 71
3
 72
11
 73
7
 74
5
 42
0.0000001
 43
0.0000001
 44
0.0000000001
 12
-0.880263087
 22
0.0348203186
 32
0.0
 13
-0.0001929558
 23
0.8809514855
 33
0.0
 40
0.0
 40
0.0
 40
0.0
 40
0.0
 40
0.2288097815
 40
0.4911426215
 40
0.7586510838
 40
1.0
 40
1.0
 40
1.0
 40
1.0
 10
4.0667529306
 20
20.1661926079
 30
0.0
 10
3.999615329
 20
20.168848351
 30
0.0
 10
3.8573527484
 20
20.216430898
 30
0.0
 10
3.6823228961
 20
20.3596303827
 30
0.0
 10
3.5556521453
 20
20.5513085515
 30
0.0
 10
3.5177570054
 20
20.7008367697
 30
0.0
 10
3.5177414822
 20
20.7717089985
 30
0.0
 11
4.0667529306
 21
20.1661926079
 31
0.0
 11
3.8733461647
 21
20.2229765627
 31
0.0
 11
3.6921489269
 21
20.3664196922
 31
0.0
 11
3.5639814928
 21
20.5641813645
 31
0.0
 11
3.5177414822
 21
20.7717089985
 31
0.0
  0
SPLINE
  5
34D
100
AcDbEntity
  8
0
100
AcDbSpline
 62
7
  6
CONTINUOUS
 70
0
 71
3
 72
9
 73
5
 74
3
 42
0.0000001
 43
0.0000001
 44
0.0000000001
 12
-0.22961491
 22
0.0517331105
 32
0.0
 13
-0.1870602883
 23
0.1428557669
 33
0.0
 40
0.0
 40
0.0
 40
0.0
 40
0.0
 40
0.2349258006
 40
1.0
 40
1.0
 40
1.0
 40
1.0
 10
-4.1111539997
 20
23.43238478
 30
0.0
 10
-4.1291348219
 20
23.4364359275
 30
0.0
 10
-4.2045348046
 20
23.4586841149
 30
0.0
 10
-4.2740181799
 20
23.4987619738
 30
0.0
 10
-4.32172318
 20
23.5351937276
 30
0.0
 11
-4.1111539997
 21
23.43238478
 31
0.0
 11
-4.1642350862
 21
23.4478732959
 31
0.0
 11
-4.32172318
 21
23.5351937276
 31
0.0
  0
LINE
  5
34E
100
AcDbEntity
  8
RACCORDO
100
AcDbLine
 62
7
  6
CONTINUOUS
 10
10.6394050027
 20
-12.6345409602
 11
17.8800059691
 21
-6.4127435054
  0
SPLINE
  5
34F
100
AcDbEntity
  8
0
100
AcDbSpline
 62
7
  6
CONTINUOUS
 70
0
 71
3
 72
11
 73
7
 74
5
 42
0.0000001
 43
0.0000001
 44
0.0000000001
 12
0.0475078285
 22
-0.3125230714
 32
0.0
 13
-0.2445757658
 23
-0.2002757067
 33
0.0
 40
0.0
 40
0.0
 40
0.0
 40
0.0
 40
0.2796765947
 40
0.5368585184
 40
0.7741304277
 40
1.0
 40
1.0
 40
1.0
 40
1.0
 10
-6.0722818956
 20
21.8879954157
 30
0.0
 10
-6.0678529531
 20
21.8588602862
 30
0.0
 10
-6.0643566674
 20
21.8019600649
 30
0.0
 10
-6.0771960419
 20
21.7206311667
 30
0.0
 10
-6.1084666624
 20
21.6503857279
 30
0.0
 10
-6.1414422222
 20
21.6131371061
 30
0.0
 10
-6.1598562967
 20
21.5980583767
 30
0.0
 11
-6.0722818956
 21
21.8879954157
 31
0.0
 11
-6.0675754993
 21
21.7997112634
 31
0.0
 11
-6.0811147946
 21
21.7195479478
 31
0.0
 11
-6.1123394579
 21
21.6513515848
 31
0.0
 11
-6.1598562967
 21
21.5980583767
 31
0.0
  0
SPLINE
  5
350
100
AcDbEntity
  8
RACCORDO
100
AcDbSpline
 62
7
  6
CONTINUOUS
 70
0
 71
3
 72
9
 73
5
 74
3
 42
0.0000001
 43
0.0000001
 44
0.0000000001
 12
-0.0917066331
 22
-0.0323835283
 32
0.0
 13
-0.0968337939
 23
-0.0090562588
 33
0.0
 40
0.0
 40
0.0
 40
0.0
 40
0.0
 40
0.3224803575
 40
1.0
 40
1.0
 40
1.0
 40
1.0
 10
-5.6806781342
 20
23.0202159334
 30
0.0
 10
-5.6905359969
 20
23.0167349161
 30
0.0
 10
-5.7213168602
 20
23.0066145481
 30
0.0
 10
-5.753223635
 20
22.9995125326
 30
0.0
 10
-5.7750925675
 20
22.9974672682
 30
0.0
 11
-5.6806781342
 21
23.0202159334
 31
0.0
 11
-5.7105055321
 21
23.0105215656
 31
0.0
 11
-5.7750925675
 21
22.9974672682
 31
0.0
  0
SPLINE
  5
351
100
AcDbEntity
  8
RACCORDO
100
AcDbSpline
 62
7
  6
CONTINUOUS
 70
0
 71
3
 72
9
 73
5
 74
3
 42
0.0000001
 43
0.0000001
 44
0.0000000001
 12
-0.028914113
 22
-0.01264712
 32
0.0
 13
-0.0292562576
 23
-0.0118341439
 33
0.0
 40
0.0
 40
0.0
 40
0.0
 40
0.0
 40
0.2609568266
 40
1.0
 40
1.0
 40
1.0
 40
1.0
 10
-5.6176414315
 20
23.045381257
 30
0.0
 10
-5.6201565432
 20
23.0442811396
 30
0.0
 10
-5.6298073041
 20
23.0400946874
 30
0.0
 10
-5.6395104777
 20
23.0360282413
 30
0.0
 10
-5.6467176902
 20
23.0331129269
 30
0.0
 11
-5.6176414315
 21
23.045381257
 31
0.0
 11
-5.6251969763
 21
23.0421043453
 31
0.0
 11
-5.6467176902
 21
23.0331129269
 31
0.0
  0
SPLINE
  5
352
100
AcDbEntity
  8
RACCORDO
100
AcDbSpline
 62
253
  6
CONTINUOUS
 70
0
 71
3
 72
9
 73
5
 74
3
 42
0.0000001
 43
0.0000001
 44
0.0000000001
 12
0.0000307578
 22
-0.1042111433
 32
0.0
 13
-0.0767719553
 23
-0.0704700661
 33
0.0
 40
0.0
 40
0.0
 40
0.0
 40
0.0
 40
0.4690038979
 40
1.0
 40
1.0
 40
1.0
 40
1.0
 10
18.8282014673
 20
-0.1078414635
 30
0.0
 10
18.8282062758
 20
-0.1241332743
 30
0.0
 10
18.818920406
 20
-0.1591533498
 30
0.0
 10
18.7962115283
 20
-0.1865531136
 30
0.0
 10
18.7826229919
 20
-0.1990262238
 30
0.0
 11
18.8282014673
 21
-0.1078414635
 31
0.0
 11
18.8165434702
 21
-0.1553061789
 31
0.0
 11
18.7826229919
 21
-0.1990262238
 31
0.0
  0
SPLINE
  5
353
100
AcDbEntity
  8
RACCORDO
100
AcDbSpline
 62
253
  6
CONTINUOUS
 70
0
 71
3
 72
9
 73
5
 74
3
 42
0.0000001
 43
0.0000001
 44
0.0000000001
 12
0.0000212915
 22
-0.1411222726
 32
0.0
 13
-0.0926677968
 23
-0.106433903
 33
0.0
 40
0.0
 40
0.0
 40
0.0
 40
0.0
 40
0.4765136475
 40
1.0
 40
1.0
 40
1.0
 40
1.0
 10
13.0660160589
 20
11.3184447612
 30
0.0
 10
13.0660194408
 20
11.2960291983
 30
0.0
 10
13.0559143299
 20
11.2486121641
 30
0.0
 10
13.0292994227
 20
11.2086921173
 30
0.0
 10
13.0131293137
 20
11.1901198854
 30
0.0
 11
13.0660160589
 21
11.3184447612
 31
0.0
 11
13.0526401932
 21
11.2525417758
 31
0.0
 11
13.0131293137
 21
11.1901198854
 31
0.0
  0
SPLINE
  5
354
100
AcDbEntity
  8
RACCORDO
100
AcDbSpline
 62
253
  6
CONTINUOUS
 70
0
 71
3
 72
9
 73
5
 74
3
 42
0.0000001
 43
0.0000001
 44
0.0000000001
 12
-0.0300237773
 22
-0.0344839083
 32
0.0
 13
-0.0348317146
 23
-0.0296195678
 33
0.0
 40
0.0
 40
0.0
 40
0.0
 40
0.0
 40
0.2435307654
 40
1.0
 40
1.0
 40
1.0
 40
1.0
 10
13.0131293137
 20
11.1901198854
 30
0.0
 10
13.0106920758
 20
11.1873205879
 30
0.0
 10
13.000453365
 20
11.1760279361
 30
0.0
 10
12.9893323815
 20
11.1655435653
 30
0.0
 10
12.9805493413
 20
11.1580748014
 30
0.0
 11
13.0131293137
 21
11.1901198854
 31
0.0
 11
13.0056528685
 21
11.1818683085
 31
0.0
 11
12.9805493413
 21
11.1580748014
 31
0.0
  0
SPLINE
  5
355
100
AcDbEntity
  8
RACCORDO
100
AcDbSpline
 62
253
  6
CONTINUOUS
 70
0
 71
3
 72
9
 73
5
 74
3
 42
0.0000001
 43
0.0000001
 44
0.0000000001
 12
0.1123365042
 22
-0.055032427
 32
0.0
 13
0.0300648979
 23
-0.1214255332
 33
0.0
 40
0.0
 40
0.0
 40
0.0
 40
0.0
 40
0.4555750794
 40
1.0
 40
1.0
 40
1.0
 40
1.0
 10
9.4734021153
 20
19.5363764172
 30
0.0
 10
9.4904613526
 20
19.5280192831
 30
0.0
 10
9.5225340818
 20
19.498118193
 30
0.0
 10
9.5375516576
 20
19.4581370382
 30
0.0
 10
9.5430076841
 20
19.4361013428
 30
0.0
 11
9.4734021153
 21
19.5363764172
 31
0.0
 11
9.5161446508
 21
19.4986827963
 31
0.0
 11
9.5430076841
 21
19.4361013428
 31
0.0
  0
SPLINE
  5
356
100
AcDbEntity
  8
RACCORDO
100
AcDbSpline
 62
253
  6
CONTINUOUS
 70
0
 71
3
 72
9
 73
5
 74
3
 42
0.0000001
 43
0.0000001
 44
0.0000000001
 12
0.0405454219
 22
-0.1637540725
 32
0.0
 13
-0.0239510972
 23
-0.166990037
 33
0.0
 40
0.0
 40
0.0
 40
0.0
 40
0.0
 40
0.459710091
 40
1.0
 40
1.0
 40
1.0
 40
1.0
 10
9.5430076841
 20
19.4361013428
 30
0.0
 10
9.5492207306
 20
19.4110082096
 30
0.0
 10
9.5548588968
 20
19.3544992626
 30
0.0
 10
9.5504637826
 20
19.2982402039
 30
0.0
 10
9.5461502706
 20
19.2681658599
 30
0.0
 11
9.5430076841
 21
19.4361013428
 31
0.0
 11
9.5522842075
 21
19.359105553
 31
0.0
 11
9.5461502706
 21
19.2681658599
 31
0.0
  0
SPLINE
  5
357
100
AcDbEntity
  8
RACCORDO
100
AcDbSpline
 62
253
  6
CONTINUOUS
 70
0
 71
3
 72
9
 73
5
 74
3
 42
0.0000001
 43
0.0000001
 44
0.0000000001
 12
0.0393999908
 22
0.0215979775
 32
0.0
 13
0.0357263316
 23
0.0272481401
 33
0.0
 40
0.0
 40
0.0
 40
0.0
 40
0.0
 40
0.239002048
 40
1.0
 40
1.0
 40
1.0
 40
1.0
 10
13.066019192
 20
11.3419053728
 30
0.0
 10
13.0691580848
 20
11.3436260264
 30
0.0
 10
13.0821355641
 20
11.3511087896
 30
0.0
 10
13.0944939335
 20
11.3596429599
 30
0.0
 10
13.1035564885
 20
11.3665548862
 30
0.0
 11
13.066019192
 21
11.3419053728
 31
0.0
 11
13.0753260083
 21
11.3472628763
 31
0.0
 11
13.1035564885
 21
11.3665548862
 31
0.0
  0
SPLINE
  5
358
100
AcDbEntity
  8
0
100
AcDbSpline
 62
7
  6
CONTINUOUS
 70
0
 71
3
 72
9
 73
5
 74
3
 42
0.0000001
 43
0.0000001
 44
0.0000000001
 12
-2.3552957906
 22
-1.8265867863
 32
0.0
 13
-2.3530856568
 23
-1.8294330928
 33
0.0
 40
0.0
 40
0.0
 40
0.0
 40
0.0
 40
0.2503099105
 40
1.0
 40
1.0
 40
1.0
 40
1.0
 10
-4.32172318
 20
23.5351937276
 30
0.0
 10
-4.5182411396
 20
23.3827894693
 30
0.0
 10
-5.3032327728
 20
22.7737892866
 30
0.0
 10
-6.0878340571
 20
22.1642860193
 30
0.0
 10
-6.6758623893
 20
21.707116733
 30
0.0
 11
-4.32172318
 21
23.5351937276
 31
0.0
 11
-4.9111990532
 21
23.077880386
 31
0.0
 11
-6.6758623893
 21
21.707116733
 31
0.0
  0
SPLINE
  5
359
100
AcDbEntity
  8
0
100
AcDbSpline
 62
7
  6
CONTINUOUS
 70
0
 71
3
 72
9
 73
5
 74
3
 42
0.0000001
 43
0.0000001
 44
0.0000000001
 12
-0.4275589799
 22
0.1717173254
 32
0.0
 13
-0.4457422235
 23
-0.116650724
 33
0.0
 40
0.0
 40
0.0
 40
0.0
 40
0.0
 40
0.5294577692
 40
1.0
 40
1.0
 40
1.0
 40
1.0
 10
-5.4320581221
 20
21.8930706707
 30
0.0
 10
-5.5075162634
 20
21.9233763614
 30
0.0
 10
-5.6576637891
 20
21.9644120772
 30
0.0
 10
-5.81487745
 20
21.9566910578
 30
0.0
 10
-5.8847909634
 20
21.9383946938
 30
0.0
 11
-5.4320581221
 21
21.8930706707
 31
0.0
 11
-5.6684906295
 21
21.9531619609
 31
0.0
 11
-5.8847909634
 21
21.9383946938
 31
0.0
  0
SPLINE
  5
35A
100
AcDbEntity
  8
0
100
AcDbSpline
 62
7
  6
CONTINUOUS
 70
0
 71
3
 72
9
 73
5
 74
3
 42
0.0000001
 43
0.0000001
 44
0.0000000001
 12
-0.3804441673
 22
0.4051521341
 32
0.0
 13
-0.5157352141
 23
0.207130889
 33
0.0
 40
0.0
 40
0.0
 40
0.0
 40
0.0
 40
0.2609599105
 40
1.0
 40
1.0
 40
1.0
 40
1.0
 10
1.0412092231
 20
19.1567568759
 30
0.0
 10
1.0081156645
 20
19.1919996975
 30
0.0
 10
0.8748873558
 20
19.3206486078
 30
0.0
 10
0.7155260481
 20
19.4240622739
 30
0.0
 10
0.5884763819
 20
19.4750882841
 30
0.0
 11
1.0412092231
 21
19.1567568759
 31
0.0
 11
0.9368015103
 21
19.2574255917
 31
0.0
 11
0.5884763819
 21
19.4750882841
 31
0.0
  0
SPLINE
  5
35B
100
AcDbEntity
  8
0
100
AcDbSpline
 62
7
  6
CONTINUOUS
 70
0
 71
3
 72
13
 73
9
 74
7
 42
0.0000001
 43
0.0000001
 44
0.0000000001
 12
-0.991507389
 22
-0.1539358226
 32
0.0
 13
0.1711957842
 23
0.988673426
 33
0.0
 40
0.0
 40
0.0
 40
0.0
 40
0.0
 40
0.2228512767
 40
0.3529777489
 40
0.4902665195
 40
0.6291386418
 40
0.7637124952
 40
1.0
 40
1.0
 40
1.0
 40
1.0
 10
1.8322806491
 20
18.2900546772
 30
0.0
 10
1.7586277533
 20
18.2786197456
 30
0.0
 10
1.6351904583
 20
18.306713427
 30
0.0
 10
1.4952844262
 20
18.3921143366
 30
0.0
 10
1.394248218
 20
18.4845168641
 30
0.0
 10
1.311399859
 20
18.5952790651
 30
0.0
 10
1.2362360894
 20
18.7483666669
 30
0.0
 10
1.2152163472
 20
18.8778860349
 30
0.0
 10
1.2287001554
 20
18.9557564272
 30
0.0
 11
1.8322806491
 21
18.2900546772
 31
0.0
 11
1.6118161051
 21
18.3274036443
 31
0.0
 11
1.4996512705
 21
18.3942378189
 31
0.0
 11
1.3978479786
 21
18.4870394691
 31
0.0
 11
1.3143590321
 21
18.5986005653
 31
0.0
 11
1.2556674451
 21
18.7202075681
 31
0.0
 11
1.2287001554
 21
18.9557564272
 31
0.0
  0
LINE
  5
35C
100
AcDbEntity
  8
RACCORDO
100
AcDbLine
 62
253
  6
CONTINUOUS
 10
6.8145966131
 20
11.0567601555
 11
12.9805493413
 21
16.2451710124
  0
LINE
  5
35D
100
AcDbEntity
  8
RACCORDO
100
AcDbLine
 62
253
  6
CONTINUOUS
 10
6.3701078257
 20
12.1368800926
 11
12.6250667595
 21
17.4068774664
  0
LINE
  5
35E
100
AcDbEntity
  8
0
100
AcDbLine
 62
253
  6
CONTINUOUS
 10
-5.8847910904
 20
21.9383946602
 11
-3.7229403856
 21
23.6363495641
  0
LINE
  5
35F
100
AcDbEntity
  8
0
100
AcDbLine
 62
253
  6
CONTINUOUS
 10
-3.7229403856
 20
23.6363495641
 11
-3.5737618366
 21
23.7535160521
  0
LINE
  5
360
100
AcDbEntity
  8
0
100
AcDbLine
 62
253
  6
CONTINUOUS
 10
-5.4320578858
 20
21.8930705758
 11
-3.1204955532
 21
23.7083317744
  0
LINE
  5
361
100
AcDbEntity
  8
0
100
AcDbLine
 62
253
  6
CONTINUOUS
 10
2.8655253038
 20
21.3042108466
 11
0.5884761456
 21
19.475088379
  0
SPLINE
  5
362
100
AcDbEntity
  8
RACCORDO
100
AcDbSpline
 62
253
  6
CONTINUOUS
 70
0
 71
3
 72
9
 73
5
 74
3
 42
0.0000001
 43
0.0000001
 44
0.0000000001
 12
0.0000208921
 22
-0.1861701283
 32
0.0
 13
-0.1418250007
 23
-0.1206025965
 33
0.0
 40
0.0
 40
0.0
 40
0.0
 40
0.0
 40
0.4654590759
 40
1.0
 40
1.0
 40
1.0
 40
1.0
 10
18.3232464788
 20
14.8495969549
 30
0.0
 10
18.3232497203
 20
14.8207120963
 30
0.0
 10
18.3055407331
 20
14.7581383342
 30
0.0
 10
18.2630337554
 20
14.7107160262
 30
0.0
 10
18.2377633331
 20
14.6892270184
 30
0.0
 11
18.3232464788
 21
14.8495969549
 31
0.0
 11
18.3013915647
 21
14.7657436405
 31
0.0
 11
18.2377633331
 21
14.6892270184
 31
0.0
  0
LINE
  5
363
100
AcDbEntity
  8
0
100
AcDbLine
 62
253
  6
CONTINUOUS
 10
3.3187915872
 20
20.9853112082
 11
1.0412093502
 21
19.1567567402
  0
LINE
  5
364
100
AcDbEntity
  8
RACCORDO
100
AcDbLine
 62
253
  6
CONTINUOUS
 10
6.834627233
 20
-15.3331053009
 11
18.2377633331
 21
-5.5346334876
  0
SPLINE
  5
365
100
AcDbEntity
  8
RACCORDO
100
AcDbSpline
 62
253
  6
CONTINUOUS
 70
0
 71
3
 72
9
 73
5
 74
3
 42
0.0000001
 43
0.0000001
 44
0.0000000001
 12
-0.0000353487
 22
-0.1860955023
 32
0.0
 13
-0.1417681491
 23
-0.120554258
 33
0.0
 40
0.0
 40
0.0
 40
0.0
 40
0.0
 40
0.4658420469
 40
1.0
 40
1.0
 40
1.0
 40
1.0
 10
18.32323005
 20
-5.3743198462
 30
0.0
 10
18.323224561
 20
-5.4032168828
 30
0.0
 10
18.3054496921
 20
-5.4657421183
 30
0.0
 10
18.2630055279
 20
-5.513168481
 30
0.0
 10
18.2377633331
 20
-5.5346334862
 30
0.0
 11
18.32323005
 21
-5.3743198462
 31
0.0
 11
18.3013105439
 21
-5.4581940617
 31
0.0
 11
18.2377633331
 21
-5.5346334862
 31
0.0
  0
SPLINE
  5
366
100
AcDbEntity
  8
RACCORDO
100
AcDbSpline
 62
253
  6
CONTINUOUS
 70
0
 71
3
 72
11
 73
7
 74
5
 42
0.0000001
 43
0.0000001
 44
0.0000000001
 12
0.6383824781
 22
-0.2564283554
 32
0.0
 13
0.4946253076
 23
0.4781563499
 33
0.0
 40
0.0
 40
0.0
 40
0.0
 40
0.0
 40
0.2774502932
 40
0.5397342866
 40
0.7802372855
 40
1.0
 40
1.0
 40
1.0
 40
1.0
 10
9.5543407568
 20
19.500341597
 30
0.0
 10
9.6133805587
 20
19.4766262229
 30
0.0
 10
9.73093662
 20
19.4365906006
 30
0.0
 10
9.9083945586
 20
19.4066269524
 30
0.0
 10
10.076332406
 20
19.4201819594
 30
0.0
 10
10.1731811068
 20
19.4730520678
 30
0.0
 10
10.2094145068
 20
19.5080790469
 30
0.0
 11
9.5543407568
 21
19.500341597
 31
0.0
 11
9.7356144126
 21
19.4405677203
 31
0.0
 11
9.9140302323
 21
19.4136117419
 31
0.0
 11
10.0783875929
 21
19.4326490478
 31
0.0
 11
10.2094145068
 21
19.5080790469
 31
0.0
  0
SPLINE
  5
367
100
AcDbEntity
  8
RACCORDO
100
AcDbSpline
 62
7
  6
CONTINUOUS
 70
0
 71
3
 72
9
 73
5
 74
3
 42
0.0000001
 43
0.0000001
 44
0.0000000001
 12
-0.0348147912
 22
-0.0032560096
 32
0.0
 13
-0.034961322
 23
-0.0006142097
 33
0.0
 40
0.0
 40
0.0
 40
0.0
 40
0.0
 40
0.2683167501
 40
1.0
 40
1.0
 40
1.0
 40
1.0
 10
-5.7750925675
 20
22.9974672682
 30
0.0
 10
-5.7782063647
 20
22.9971760543
 30
0.0
 10
-5.7898306717
 20
22.9962812855
 30
0.0
 10
-5.8014922267
 20
22.9960971306
 30
0.0
 10
-5.810019098
 20
22.9959473283
 30
0.0
 11
-5.7750925675
 21
22.9974672682
 31
0.0
 11
-5.7844470389
 21
22.9967470512
 31
0.0
 11
-5.810019098
 21
22.9959473283
 31
0.0
  0
SPLINE
  5
368
100
AcDbEntity
  8
RACCORDO
100
AcDbSpline
 62
253
  6
CONTINUOUS
 70
0
 71
3
 72
9
 73
5
 74
3
 42
0.0000001
 43
0.0000001
 44
0.0000000001
 12
0.7211973438
 22
-1.2170647691
 32
0.0
 13
0.117344485
 23
-1.4098235821
 33
0.0
 40
0.0
 40
0.0
 40
0.0
 40
0.0
 40
0.5193871335
 40
1.0
 40
1.0
 40
1.0
 40
1.0
 10
18.3237720169
 20
1.3228450577
 30
0.0
 10
18.448632224
 20
1.1121357971
 30
0.0
 10
18.6509473196
 20
0.6823004092
 30
0.0
 10
18.7557882767
 20
0.2170231413
 30
0.0
 10
18.7745873664
 20
-0.008836643
 30
0.0
 11
18.3237720169
 21
1.3228450577
 31
0.0
 11
18.6324970236
 21
0.6560729494
 31
0.0
 11
18.7745873664
 21
-0.008836643
 31
0.0
  0
SPLINE
  5
369
100
AcDbEntity
  8
RACCORDO
100
AcDbSpline
 62
253
  6
CONTINUOUS
 70
0
 71
3
 72
10
 73
6
 74
4
 42
0.0000001
 43
0.0000001
 44
0.0000000001
 12
0.0
 22
-1.1060795478
 32
0.0
 13
-0.7176578988
 23
-0.8416526043
 33
0.0
 40
0.0
 40
0.0
 40
0.0
 40
0.0
 40
0.5243576175
 40
0.7668693486
 40
1.0
 40
1.0
 40
1.0
 40
1.0
 10
18.7826229919
 20
-1.9192455168
 30
0.0
 10
18.7826229919
 20
-2.1125725956
 30
0.0
 10
18.7444744938
 20
-2.3993165901
 30
0.0
 10
18.5986431314
 20
-2.7398153515
 30
0.0
 10
18.4987199705
 20
-2.8857166621
 30
0.0
 10
18.4429506193
 20
-2.9511216688
 30
0.0
 11
18.7826229919
 21
-1.9192455168
 31
0.0
 11
18.6960036279
 21
-2.4927220381
 31
0.0
 11
18.589330845
 21
-2.7388361338
 31
0.0
 11
18.4429506193
 21
-2.9511216688
 31
0.0
  0
SPLINE
  5
36A
100
AcDbEntity
  8
RACCORDO
100
AcDbSpline
 62
253
  6
CONTINUOUS
 70
0
 71
3
 72
12
 73
8
 74
6
 42
0.0000001
 43
0.0000001
 44
0.0000000001
 12
0.0874602832
 22
-0.144813386
 32
0.0
 13
-0.1303281615
 23
-0.1078646754
 33
0.0
 40
0.0
 40
0.0
 40
0.0
 40
0.0
 40
0.1103999934
 40
0.1972605312
 40
0.3091279322
 40
0.6087207917
 40
1.0
 40
1.0
 40
1.0
 40
1.0
 10
12.7277323581
 20
17.5347854393
 30
0.0
 10
12.7309508964
 20
17.529456307
 30
0.0
 10
12.7283216232
 20
17.5165614454
 30
0.0
 10
12.7199261803
 20
17.5018312851
 30
0.0
 10
12.7031096355
 20
17.4789659092
 30
0.0
 10
12.6714099691
 20
17.4466556393
 30
0.0
 10
12.642064992
 20
17.4209458694
 30
0.0
 10
12.6250667587
 20
17.4068774678
 30
0.0
 11
12.7277323581
 21
17.5347854393
 31
0.0
 11
12.7271533801
 21
17.5161174845
 31
0.0
 11
12.7203552155
 21
17.5030899201
 31
0.0
 11
12.7092700305
 21
17.4877510444
 31
0.0
 11
12.6746426842
 21
17.4507405085
 31
0.0
 11
12.6250667587
 21
17.4068774678
 31
0.0
  0
SPLINE
  5
36B
100
AcDbEntity
  8
0
100
AcDbSpline
 62
7
  6
CONTINUOUS
 70
0
 71
3
 72
11
 73
7
 74
5
 42
0.0000001
 43
0.0000001
 44
0.0000000001
 12
-0.4413689295
 22
-0.3614236838
 32
0.0
 13
-0.4118369143
 23
0.3947454461
 33
0.0
 40
0.0
 40
0.0
 40
0.0
 40
0.0
 40
0.2073737209
 40
0.4399558882
 40
0.7065533849
 40
1.0
 40
1.0
 40
1.0
 40
1.0
 10
-6.1598562967
 20
21.5980583767
 30
0.0
 10
-6.1903657358
 20
21.5730751187
 30
0.0
 10
-6.2708756481
 20
21.5379142973
 30
0.0
 10
-6.4084340342
 20
21.5454504498
 30
0.0
 10
-6.5498754445
 20
21.6031822236
 30
0.0
 10
-6.6355783398
 20
21.6685044947
 30
0.0
 10
-6.6758623893
 20
21.707116733
 30
0.0
 11
-6.1598562967
 21
21.5980583767
 31
0.0
 11
-6.2674056464
 21
21.5487832423
 31
0.0
 11
-6.4000514375
 21
21.5518247969
 31
0.0
 11
-6.5418585961
 21
21.6067854331
 31
0.0
 11
-6.6758623893
 21
21.707116733
 31
0.0
  0
SPLINE
  5
36C
100
AcDbEntity
  8
0
100
AcDbSpline
 62
7
  6
CONTINUOUS
 70
0
 71
3
 72
9
 73
5
 74
3
 42
0.0000001
 43
0.0000001
 44
0.0000000001
 12
3.1226052778
 22
2.3778474174
 32
0.0
 13
3.6870320918
 23
1.345591474
 33
0.0
 40
0.0
 40
0.0
 40
0.0
 40
0.0
 40
0.4961265136
 40
1.0
 40
1.0
 40
1.0
 40
1.0
 10
-10.5984247894
 20
19.6707350868
 30
0.0
 10
-10.0820223661
 20
20.0639728031
 30
0.0
 10
-8.9781391755
 20
20.7769675351
 30
0.0
 10
-7.7794273202
 20
21.3143968533
 30
0.0
 10
-7.1601614153
 20
21.5403994757
 30
0.0
 11
-10.5984247894
 21
19.6707350868
 31
0.0
 11
-8.9633496571
 21
20.7282300469
 31
0.0
 11
-7.1601614153
 21
21.5403994757
 31
0.0
  0
LINE
  5
36D
100
AcDbEntity
  8
0
100
AcDbLine
 62
7
  6
CONTINUOUS
 10
-7.0790454025
 20
21.5697170543
 11
-7.0449850139
 21
21.5818577618
  0
SPLINE
  5
36E
100
AcDbEntity
  8
RACCORDO
100
AcDbSpline
 62
253
  6
CONTINUOUS
 70
0
 71
3
 72
12
 73
8
 74
6
 42
0.0000001
 43
0.0000001
 44
0.0000000001
 12
0.0935329676
 22
-0.1323911782
 32
0.0
 13
-0.1251273631
 23
-0.1030484502
 33
0.0
 40
0.0
 40
0.0
 40
0.0
 40
0.0
 40
0.0300997669
 40
0.0841486441
 40
0.2789151083
 40
0.5889243097
 40
1.0
 40
1.0
 40
1.0
 40
1.0
 10
11.1829970344
 20
19.9061083849
 30
0.0
 10
11.1839354745
 20
19.9047800703
 30
0.0
 10
11.1832957552
 20
19.899566858
 30
0.0
 10
11.1753654033
 20
19.8870915704
 30
0.0
 10
11.1547376683
 20
19.8644200722
 30
0.0
 10
11.1184828252
 20
19.8310203194
 30
0.0
 10
11.0887076945
 20
19.8057737047
 30
0.0
 10
11.0715620887
 20
19.7916534671
 30
0.0
 11
11.1829970344
 21
19.9061083849
 31
0.0
 11
11.1832535474
 21
19.9012360131
 31
0.0
 11
11.1792668454
 21
19.89343439
 31
0.0
 11
11.1587906981
 21
19.8694036916
 31
0.0
 11
11.122256239
 21
19.8349001928
 31
0.0
 11
11.0715620887
 21
19.7916534671
 31
0.0
  0
SPLINE
  5
36F
100
AcDbEntity
  8
RACCORDO
100
AcDbSpline
 62
7
  6
CONTINUOUS
 70
0
 71
3
 72
9
 73
5
 74
3
 42
0.0000001
 43
0.0000001
 44
0.0000000001
 12
-0.2363855392
 22
0.1204564311
 32
0.0
 13
-0.2208889109
 23
0.1469556531
 33
0.0
 40
0.0
 40
0.0
 40
0.0
 40
0.0
 40
0.2471494269
 40
1.0
 40
1.0
 40
1.0
 40
1.0
 10
5.7804754091
 20
18.3409433601
 30
0.0
 10
5.7610012256
 20
18.3508669394
 30
0.0
 10
5.6822416989
 20
18.3910235448
 30
0.0
 10
5.6045425502
 20
18.433782125
 30
0.0
 10
5.5491104358
 20
18.4706606743
 30
0.0
 11
5.7804754091
 21
18.3409433601
 31
0.0
 11
5.7221352527
 21
18.3708752394
 31
0.0
 11
5.5491104358
 21
18.4706606743
 31
0.0
  0
SPLINE
  5
370
100
AcDbEntity
  8
RACCORDO
100
AcDbSpline
 62
253
  6
CONTINUOUS
 70
0
 71
3
 72
9
 73
5
 74
3
 42
0.0000001
 43
0.0000001
 44
0.0000000001
 12
-0.2016545881
 22
0.2553081921
 32
0.0
 13
-0.2975664435
 23
0.1315334846
 33
0.0
 40
0.0
 40
0.0
 40
0.0
 40
0.0
 40
0.2597822615
 40
1.0
 40
1.0
 40
1.0
 40
1.0
 10
5.7804745628
 20
18.3409427939
 30
0.0
 10
5.7630124678
 20
18.3630509737
 30
0.0
 10
5.691159449
 20
18.4442393818
 30
0.0
 10
5.6008553147
 20
18.5102714574
 30
0.0
 10
5.5274339948
 20
18.5427259303
 30
0.0
 11
5.7804745628
 21
18.3409427939
 31
0.0
 11
5.7244349812
 21
18.4042107375
 31
0.0
 11
5.5274339948
 21
18.5427259303
 31
0.0
  0
SPLINE
  5
371
100
AcDbEntity
  8
RACCORDO
100
AcDbSpline
 62
253
  6
CONTINUOUS
 70
0
 71
3
 72
9
 73
5
 74
3
 42
0.0000001
 43
0.0000001
 44
0.0000000001
 12
-0.0362891911
 22
-0.028821733
 32
0.0
 13
-0.0450094523
 23
-0.0110338971
 33
0.0
 40
0.0
 40
0.0
 40
0.0
 40
0.0
 40
0.2778407901
 40
1.0
 40
1.0
 40
1.0
 40
1.0
 10
5.5117648917
 20
18.5493527607
 30
0.0
 10
5.5084040192
 20
18.5466834763
 30
0.0
 10
5.4959608995
 20
18.5375761875
 30
0.0
 10
5.4818099537
 20
18.5303951423
 30
0.0
 10
5.4709752902
 20
18.5277390655
 30
0.0
 11
5.5117648917
 21
18.5493527607
 31
0.0
 11
5.5013577703
 21
18.541771421
 31
0.0
 11
5.4709752902
 21
18.5277390655
 31
0.0
  0
SPLINE
  5
372
100
AcDbEntity
  8
RACCORDO
100
AcDbSpline
 62
253
  6
CONTINUOUS
 70
0
 71
3
 72
9
 73
5
 74
3
 42
0.0000001
 43
0.0000001
 44
0.0000000001
 12
-0.0578342984
 22
-0.0038707119
 32
0.0
 13
-0.0558010612
 23
-0.0156853452
 33
0.0
 40
0.0
 40
0.0
 40
0.0
 40
0.0
 40
0.2556439023
 40
1.0
 40
1.0
 40
1.0
 40
1.0
 10
-5.7153081633
 20
23.0195018732
 30
0.0
 10
-5.7202364918
 20
23.0191720319
 30
0.0
 10
-5.7394791914
 20
23.0174185503
 30
0.0
 10
-5.7585593211
 20
23.0137439757
 30
0.0
 10
-5.7724046078
 20
23.0098521482
 30
0.0
 11
-5.7153081633
 21
23.0195018732
 31
0.0
 11
-5.7300644249
 21
23.0181499474
 31
0.0
 11
-5.7724046078
 21
23.0098521482
 31
0.0
  0
SPLINE
  5
373
100
AcDbEntity
  8
RACCORDO
100
AcDbSpline
 62
253
  6
CONTINUOUS
 70
0
 71
3
 72
8
 73
4
 74
2
 42
0.0000001
 43
0.0000001
 44
0.0000000001
 12
-0.0386049496
 22
-0.0108516209
 32
0.0
 13
-0.0363323939
 23
-0.016972241
 33
0.0
 40
0.0
 40
0.0
 40
0.0
 40
0.0
 40
1.0
 40
1.0
 40
1.0
 40
1.0
 10
-5.7724046078
 20
23.0098521482
 30
0.0
 10
-5.7852729244
 20
23.0062349413
 30
0.0
 10
-5.7979053273
 20
23.0016000843
 30
0.0
 10
-5.8100161252
 20
22.9959426706
 30
0.0
 11
-5.7724046078
 21
23.0098521482
 31
0.0
 11
-5.8100161252
 21
22.9959426706
 31
0.0
  0
SPLINE
  5
374
100
AcDbEntity
  8
RACCORDO
100
AcDbSpline
 62
253
  6
CONTINUOUS
 70
0
 71
3
 72
9
 73
5
 74
3
 42
0.0000001
 43
0.0000001
 44
0.0000000001
 12
0.0000307582
 22
-0.1042111433
 32
0.0
 13
-0.0767719553
 23
-0.0704700661
 33
0.0
 40
0.0
 40
0.0
 40
0.0
 40
0.0
 40
0.4690038998
 40
1.0
 40
1.0
 40
1.0
 40
1.0
 10
18.8282014673
 20
-1.8280607565
 30
0.0
 10
18.8282062759
 20
-1.8443525674
 30
0.0
 10
18.8189204055
 20
-1.8793726427
 30
0.0
 10
18.7962115282
 20
-1.9067724067
 30
0.0
 10
18.7826229919
 20
-1.9192455168
 30
0.0
 11
18.8282014673
 21
-1.8280607565
 31
0.0
 11
18.8165434699
 21
-1.875525472
 31
0.0
 11
18.7826229919
 21
-1.9192455168
 31
0.0
  0
LINE
  5
375
100
AcDbEntity
  8
RACCORDO
100
AcDbLine
 62
253
  6
CONTINUOUS
 10
5.7804754091
 20
18.3409433601
 11
7.9254330823
 21
20.0680959905
  0
SPLINE
  5
376
100
AcDbEntity
  8
RACCORDO
100
AcDbSpline
 62
253
  6
CONTINUOUS
 70
0
 71
3
 72
9
 73
5
 74
3
 42
0.0000001
 43
0.0000001
 44
0.0000000001
 12
0.3188529242
 22
-0.1257870225
 32
0.0
 13
0.2113314377
 23
-0.2698677189
 33
0.0
 40
0.0
 40
0.0
 40
0.0
 40
0.0
 40
0.2375841295
 40
1.0
 40
1.0
 40
1.0
 40
1.0
 10
7.6564446534
 20
20.2768591162
 30
0.0
 10
7.6816961182
 20
20.2668974494
 30
0.0
 10
7.7844917159
 20
20.2162783108
 30
0.0
 10
7.8717256831
 20
20.1366798894
 30
0.0
 10
7.9254331638
 20
20.0680960788
 30
0.0
 11
7.6564446534
 21
20.2768591162
 31
0.0
 11
7.7296629282
 21
20.2412090705
 31
0.0
 11
7.9254331638
 21
20.0680960788
 31
0.0
  0
LINE
  5
377
100
AcDbEntity
  8
RACCORDO
100
AcDbLine
 62
253
  6
CONTINUOUS
 10
5.5117648917
 20
18.5493527607
 11
7.6564446494
 21
20.2768591178
  0
SPLINE
  5
378
100
AcDbEntity
  8
RACCORDO
100
AcDbSpline
 62
253
  6
CONTINUOUS
 70
0
 71
3
 72
11
 73
7
 74
5
 42
0.0000001
 43
0.0000001
 44
0.0000000001
 12
0.153858312
 22
0.1221979068
 32
0.0
 13
0.1823720042
 23
-0.0731106059
 33
0.0
 40
0.0
 40
0.0
 40
0.0
 40
0.0
 40
0.300873598
 40
0.5628424645
 40
0.7912888564
 40
1.0
 40
1.0
 40
1.0
 40
1.0
 10
7.6564446534
 20
20.2768591162
 30
0.0
 10
7.6718752881
 20
20.2891144908
 30
0.0
 10
7.702426337
 20
20.3100919393
 30
0.0
 10
7.7503422493
 20
20.3309033771
 30
0.0
 10
7.7962624332
 20
20.3378854894
 30
0.0
 10
7.8250924257
 20
20.3323013182
 30
0.0
 10
7.8377801156
 20
20.3272149854
 30
0.0
 11
7.6564446534
 21
20.2768591162
 31
0.0
 11
7.7055472171
 21
20.3097775985
 31
0.0
 11
7.7530897758
 21
20.3295021257
 31
0.0
 11
7.7975905049
 21
20.3353654136
 31
0.0
 11
7.8377801156
 21
20.3272149854
 31
0.0
  0
SPLINE
  5
379
100
AcDbEntity
  8
RACCORDO
100
AcDbSpline
 62
253
  6
CONTINUOUS
 70
0
 71
3
 72
9
 73
5
 74
3
 42
0.0000001
 43
0.0000001
 44
0.0000000001
 12
0.0856826936
 22
0.0680512198
 32
0.0
 13
0.1052612175
 23
0.0298758862
 33
0.0
 40
0.0
 40
0.0
 40
0.0
 40
0.0
 40
0.2762275295
 40
1.0
 40
1.0
 40
1.0
 40
1.0
 10
-3.3562374143
 20
24.6998005097
 30
0.0
 10
-3.3483481081
 20
24.7060663831
 30
0.0
 10
-3.31901506
 20
24.7276593226
 30
0.0
 10
-3.2859698932
 20
24.7449597852
 30
0.0
 10
-3.260574836
 20
24.7521675666
 30
0.0
 11
-3.3562374143
 21
24.6998005097
 31
0.0
 11
-3.3318596765
 21
24.7176679887
 31
0.0
 11
-3.260574836
 21
24.7521675666
 31
0.0
  0
SPLINE
  5
37A
100
AcDbEntity
  8
RACCORDO
100
AcDbSpline
 62
253
  6
CONTINUOUS
 70
0
 71
3
 72
9
 73
5
 74
3
 42
0.0000001
 43
0.0000001
 44
0.0000000001
 12
0.0429735002
 22
0.0121970032
 32
0.0
 13
0.0446645036
 23
-0.0007554658
 33
0.0
 40
0.0
 40
0.0
 40
0.0
 40
0.0
 40
0.2621339771
 40
1.0
 40
1.0
 40
1.0
 40
1.0
 10
-3.260574836
 20
24.7521675666
 30
0.0
 10
-3.2568198978
 20
24.7532333162
 30
0.0
 10
-3.2423764312
 20
24.7568464211
 30
0.0
 10
-3.2274055915
 20
24.758521977
 30
0.0
 10
-3.2164201182
 20
24.7583361661
 30
0.0
 11
-3.260574836
 21
24.7521675666
 31
0.0
 11
-3.2492114131
 21
24.7549944141
 31
0.0
 11
-3.2164201182
 21
24.7583361661
 31
0.0
  0
SPLINE
  5
37B
100
AcDbEntity
  8
RACCORDO
100
AcDbSpline
 62
253
  6
CONTINUOUS
 70
0
 71
3
 72
9
 73
5
 74
3
 42
0.0000001
 43
0.0000001
 44
0.0000000001
 12
0.0424419105
 22
-0.0007178723
 32
0.0
 13
0.039399899
 23
-0.0157949064
 33
0.0
 40
0.0
 40
0.0
 40
0.0
 40
0.0
 40
0.2563512462
 40
1.0
 40
1.0
 40
1.0
 40
1.0
 10
-3.2164201182
 20
24.7583361661
 30
0.0
 10
-3.2127934394
 20
24.7582748236
 30
0.0
 10
-3.1986644828
 20
24.7574434941
 30
0.0
 10
-3.1846685149
 20
24.7540716645
 30
0.0
 10
-3.1749019529
 20
24.750156377
 30
0.0
 11
-3.2164201182
 21
24.7583361661
 31
0.0
 11
-3.2055582276
 21
24.7576816475
 31
0.0
 11
-3.1749019529
 21
24.750156377
 31
0.0
  0
LINE
  5
37C
100
AcDbEntity
  8
RACCORDO
100
AcDbLine
 62
253
  6
CONTINUOUS
 10
-3.3562374103
 20
24.6998005081
 11
-5.2952377741
 21
23.1812335048
  0
SPLINE
  5
37D
100
AcDbEntity
  8
RACCORDO
100
AcDbSpline
 62
253
  6
CONTINUOUS
 70
0
 71
3
 72
9
 73
5
 74
3
 42
0.0000001
 43
0.0000001
 44
0.0000000001
 12
-0.062822971
 22
0.0204570188
 32
0.0
 13
-0.0652414391
 23
0.0104292823
 33
0.0
 40
0.0
 40
0.0
 40
0.0
 40
0.0
 40
0.2557450579
 40
1.0
 40
1.0
 40
1.0
 40
1.0
 10
-3.3886762682
 20
24.7116838249
 30
0.0
 10
-3.394031823
 20
24.7134277521
 30
0.0
 10
-3.4150941539
 20
24.7198641286
 30
0.0
 10
-3.4366440987
 20
24.7247386872
 30
0.0
 10
-3.4528295198
 20
24.7273260355
 30
0.0
 11
-3.3886762682
 21
24.7116838249
 31
0.0
 11
-3.4048368897
 21
24.7166177435
 31
0.0
 11
-3.4528295198
 21
24.7273260355
 31
0.0
  0
SPLINE
  5
37E
100
AcDbEntity
  8
RACCORDO
100
AcDbSpline
 62
253
  6
CONTINUOUS
 70
0
 71
3
 72
9
 73
5
 74
3
 42
0.0000001
 43
0.0000001
 44
0.0000000001
 12
-0.1733510956
 22
0.027711337
 32
0.0
 13
-0.1587922739
 23
-0.0748567585
 33
0.0
 40
0.0
 40
0.0
 40
0.0
 40
0.0
 40
0.5207917039
 40
1.0
 40
1.0
 40
1.0
 40
1.0
 10
-3.4528295198
 20
24.7273260355
 30
0.0
 10
-3.4829227907
 20
24.732136647
 30
0.0
 10
-3.5421905864
 20
24.7345748482
 30
0.0
 10
-3.5998610663
 20
24.7190584988
 30
0.0
 10
-3.6252259246
 20
24.7071011722
 30
0.0
 11
-3.4528295198
 21
24.7273260355
 31
0.0
 11
-3.5442219129
 21
24.7298065319
 31
0.0
 11
-3.6252259246
 21
24.7071011722
 31
0.0
  0
LINE
  5
37F
100
AcDbEntity
  8
RACCORDO
100
AcDbLine
 62
253
  6
CONTINUOUS
 10
-3.6252260301
 20
24.7071010931
 11
-3.6549909206
 21
24.6837891279
  0
LINE
  5
380
100
AcDbEntity
  8
RACCORDO
100
AcDbLine
 62
253
  6
CONTINUOUS
 10
-3.6549909206
 20
24.6837891279
 11
-5.6667868892
 21
23.1081293661
  0
LINE
  5
381
100
AcDbEntity
  8
RACCORDO
100
AcDbLine
 62
253
  6
CONTINUOUS
 10
-5.6667868892
 20
23.1081293661
 11
-5.6950621093
 21
23.0859837172
  0
LINE
  5
382
100
AcDbEntity
  8
RACCORDO
100
AcDbLine
 62
253
  6
CONTINUOUS
 10
-5.6950621093
 20
23.0859837172
 11
-5.7876037481
 21
23.0135034422
  0
LINE
  5
383
100
AcDbEntity
  8
RACCORDO
100
AcDbLine
 62
253
  6
CONTINUOUS
 10
-5.7876037481
 20
23.0135034422
 11
-5.810019098
 21
22.9959473283
  0
SPLINE
  5
384
100
AcDbEntity
  8
RACCORDO
100
AcDbSpline
 62
253
  6
CONTINUOUS
 70
0
 71
3
 72
9
 73
5
 74
3
 42
0.0000001
 43
0.0000001
 44
0.0000000001
 12
0.0480698175
 22
-0.0232392519
 32
0.0
 13
0.027492829
 23
-0.0457702363
 33
0.0
 40
0.0
 40
0.0
 40
0.0
 40
0.0
 40
0.2388056533
 40
1.0
 40
1.0
 40
1.0
 40
1.0
 10
7.8682841665
 20
20.3137570665
 30
0.0
 10
7.8721106145
 20
20.3119071782
 30
0.0
 10
7.8875224117
 20
20.3028748289
 30
0.0
 10
7.8996354278
 20
20.2888384688
 30
0.0
 10
7.9066112232
 20
20.2772251204
 30
0.0
 11
7.8682841665
 21
20.3137570665
 31
0.0
 11
7.8792833398
 21
20.3073078566
 31
0.0
 11
7.9066112232
 21
20.2772251204
 31
0.0
  0
SPLINE
  5
385
100
AcDbEntity
  8
RACCORDO
100
AcDbSpline
 62
253
  6
CONTINUOUS
 70
0
 71
3
 72
9
 73
5
 74
3
 42
0.0000001
 43
0.0000001
 44
0.0000000001
 12
0.1095199525
 22
-0.1823295123
 32
0.0
 13
-0.0325934567
 23
-0.2101816777
 33
0.0
 40
0.0
 40
0.0
 40
0.0
 40
0.0
 40
0.4240801416
 40
1.0
 40
1.0
 40
1.0
 40
1.0
 10
7.9066112232
 20
20.2772251204
 30
0.0
 10
7.9220929688
 20
20.2514510119
 30
0.0
 10
7.9372824214
 20
20.1792273413
 30
0.0
 10
7.9316902367
 20
20.1084453461
 30
0.0
 10
7.9254331638
 20
20.0680960788
 30
0.0
 11
7.9066112232
 21
20.2772251204
 31
0.0
 11
7.9312386071
 21
20.1904530396
 31
0.0
 11
7.9254331638
 21
20.0680960788
 31
0.0
  0
SPLINE
  5
386
100
AcDbEntity
  8
RACCORDO
100
AcDbSpline
 62
253
  6
CONTINUOUS
 70
0
 71
3
 72
11
 73
7
 74
5
 42
0.0000001
 43
0.0000001
 44
0.0000000001
 12
0.000957276
 22
-0.9733422381
 32
0.0
 13
-0.738432832
 23
-0.6341237903
 33
0.0
 40
0.0
 40
0.0
 40
0.0
 40
0.0
 40
0.2722233085
 40
0.5268210244
 40
0.7674255457
 40
1.0
 40
1.0
 40
1.0
 40
1.0
 10
18.2377521339
 20
-5.5346291534
 30
0.0
 10
18.2378389982
 20
-5.6229513015
 30
0.0
 10
18.2241743321
 20
-5.794396843
 30
0.0
 10
18.1567360703
 20
-6.0358761279
 30
0.0
 10
18.0443338811
 20
-6.2458433062
 30
0.0
 10
17.9401222742
 20
-6.361105631
 30
0.0
 10
17.8828754032
 20
-6.4102659625
 30
0.0
 11
18.2377521339
 21
-5.5346291534
 31
0.0
 11
18.2150046218
 21
-5.7986174774
 31
0.0
 11
18.1467926548
 21
-6.0368554577
 31
0.0
 11
18.0350445209
 21
-6.2426651227
 31
0.0
 11
17.8828754032
 21
-6.4102659625
 31
0.0
  0
SPLINE
  5
387
100
AcDbEntity
  8
RACCORDO
100
AcDbSpline
 62
253
  6
CONTINUOUS
 70
0
 71
3
 72
11
 73
7
 74
5
 42
0.0000001
 43
0.0000001
 44
0.0000000001
 12
0.1538431834
 22
0.1221858913
 32
0.0
 13
0.1823531629
 23
-0.0731056845
 33
0.0
 40
0.0
 40
0.0
 40
0.0
 40
0.0
 40
0.3002391138
 40
0.5627017459
 40
0.7914356443
 40
1.0
 40
1.0
 40
1.0
 40
1.0
 10
17.8282496914
 20
15.263210571
 30
0.0
 10
17.8436462717
 20
15.2754388989
 30
0.0
 10
17.8742130855
 20
15.2963652811
 30
0.0
 10
17.9221061523
 20
15.3172333173
 30
0.0
 10
17.9680659881
 20
15.3242337635
 30
0.0
 10
17.9969024494
 20
15.3186515611
 30
0.0
 10
18.0095799061
 20
15.3135691477
 30
0.0
 11
17.8282496914
 21
15.263210571
 31
0.0
 11
17.8772572089
 21
15.2960365277
 31
0.0
 11
17.9248715961
 21
15.3158278284
 31
0.0
 11
17.9694221734
 21
15.3217113829
 31
0.0
 11
18.0095799061
 21
15.3135691477
 31
0.0
  0
SPLINE
  5
388
100
AcDbEntity
  8
RACCORDO
100
AcDbSpline
 62
253
  6
CONTINUOUS
 70
0
 71
3
 72
11
 73
7
 74
5
 42
0.0000001
 43
0.0000001
 44
0.0000000001
 12
0.6916547045
 22
-0.2678000813
 32
0.0
 13
-0.0087471497
 23
-0.741637783
 33
0.0
 40
0.0
 40
0.0
 40
0.0
 40
0.0
 40
0.2473986783
 40
0.5097344497
 40
0.7666853419
 40
1.0
 40
1.0
 40
1.0
 40
1.0
 10
17.8282496914
 20
15.263210571
 30
0.0
 10
17.8852878446
 20
15.2411261089
 30
0.0
 10
17.9950817318
 20
15.1746280449
 30
0.0
 10
18.1259102088
 20
15.034632623
 30
0.0
 10
18.214640137
 20
14.8686748815
 30
0.0
 10
18.2384436125
 20
14.7469053404
 30
0.0
 10
18.2377633331
 20
14.6892270184
 30
0.0
 11
17.8282496914
 21
15.263210571
 31
0.0
 11
17.9864907213
 21
15.1703157597
 31
0.0
 11
18.1198390291
 21
15.0286247
 31
0.0
 11
18.2080880853
 21
14.859710578
 31
0.0
 11
18.2377633331
 21
14.6892270184
 31
0.0
  0
SPLINE
  5
389
100
AcDbEntity
  8
RACCORDO
100
AcDbSpline
 62
253
  6
CONTINUOUS
 70
0
 71
3
 72
11
 73
7
 74
5
 42
0.0000001
 43
0.0000001
 44
0.0000000001
 12
0.6695994923
 22
-0.2823527911
 32
0.0
 13
-0.0085703207
 23
-0.7266451186
 33
0.0
 40
0.0
 40
0.0
 40
0.0
 40
0.0
 40
0.2489234466
 40
0.5111734243
 40
0.7672847659
 40
1.0
 40
1.0
 40
1.0
 40
1.0
 10
13.1346267535
 20
11.3746276644
 30
0.0
 10
13.1901864246
 20
11.3511995878
 30
0.0
 10
13.2965099825
 20
11.2836736414
 30
0.0
 10
13.4228032583
 20
11.1446683065
 30
0.0
 10
13.5080255413
 20
10.981660788
 30
0.0
 10
13.5307314918
 20
10.8627033286
 30
0.0
 10
13.5300666771
 20
10.806336199
 30
0.0
 11
13.1346267535
 21
11.3746276644
 31
0.0
 11
13.2884771001
 21
11.27948652
 31
0.0
 11
13.4170297378
 21
11.1387974991
 31
0.0
 11
13.5016875809
 21
10.9730511786
 31
0.0
 11
13.5300666771
 21
10.806336199
 31
0.0
  0
SPLINE
  5
38A
100
AcDbEntity
  8
RACCORDO
100
AcDbSpline
 62
253
  6
CONTINUOUS
 70
0
 71
3
 72
15
 73
11
 74
9
 42
0.0000001
 43
0.0000001
 44
0.0000000001
 12
0.0000000974
 22
-0.9081688309
 32
0.0
 13
0.7006116967
 23
0.577852815
 33
0.0
 40
0.0
 40
0.0
 40
0.0
 40
0.0
 40
0.1645389263
 40
0.3070795302
 40
0.4279957266
 40
0.5321638454
 40
0.6299875662
 40
0.734717148
 40
0.856526828
 40
1.0
 40
1.0
 40
1.0
 40
1.0
 10
12.9805493413
 20
11.1580748014
 30
0.0
 10
12.9805493467
 20
11.1082650933
 30
0.0
 10
12.9862217762
 20
11.0150974083
 30
0.0
 10
13.0156120992
 20
10.8881187827
 30
0.0
 10
13.0650950241
 20
10.7869616742
 30
0.0
 10
13.1355565577
 20
10.7157517527
 30
0.0
 10
13.2253486319
 20
10.6820918538
 30
0.0
 10
13.3256732149
 20
10.6891067898
 30
0.0
 10
13.4304490511
 20
10.7321331454
 30
0.0
 10
13.4965603496
 20
10.7787007402
 30
0.0
 10
13.5300666771
 20
10.806336199
 30
0.0
 11
12.9805493413
 21
11.1580748014
 31
0.0
 11
12.9910536947
 21
11.0090153443
 31
0.0
 11
13.0221817244
 21
10.8833626883
 31
0.0
 11
13.072780216
 21
10.7859022428
 31
0.0
 11
13.1409451806
 21
10.7203040632
 31
0.0
 11
13.2241088141
 21
10.6890560815
 31
0.0
 11
13.3191253147
 21
10.6933203691
 31
0.0
 11
13.4224153313
 21
10.7329282919
 31
0.0
 11
13.5300666771
 21
10.806336199
 31
0.0
  0
SPLINE
  5
38B
100
AcDbEntity
  8
RACCORDO
100
AcDbSpline
 62
253
  6
CONTINUOUS
 70
0
 71
3
 72
9
 73
5
 74
3
 42
0.0000001
 43
0.0000001
 44
0.0000000001
 12
0.6319476359
 22
-1.0467193825
 32
0.0
 13
-0.0012300444
 23
-1.2226928344
 33
0.0
 40
0.0
 40
0.0
 40
0.0
 40
0.0
 40
0.2675900287
 40
1.0
 40
1.0
 40
1.0
 40
1.0
 10
12.6250580141
 20
17.4068739753
 30
0.0
 10
12.6814256428
 20
17.3135100855
 30
0.0
 10
12.8717727651
 20
16.9537309406
 30
0.0
 10
12.9808347351
 20
16.5436809193
 30
0.0
 10
12.9805344362
 20
16.2451767781
 30
0.0
 11
12.6250580141
 21
17.4068739753
 31
0.0
 11
12.7774752502
 21
17.117363845
 31
0.0
 11
12.9805344362
 21
16.2451767781
 31
0.0
  0
LINE
  5
38C
100
AcDbEntity
  8
RACCORDO
100
AcDbLine
 62
253
  6
CONTINUOUS
 10
10.2094145068
 20
19.5080790469
 11
10.7688409089
 21
20.0241320456
  0
SPLINE
  5
38D
100
AcDbEntity
  8
RACCORDO
100
AcDbSpline
 62
253
  6
CONTINUOUS
 70
0
 71
3
 72
9
 73
5
 74
3
 42
0.0000001
 43
0.0000001
 44
0.0000000001
 12
0.361865076
 22
-0.1326354397
 32
0.0
 13
0.2306453937
 23
-0.3087736961
 33
0.0
 40
0.0
 40
0.0
 40
0.0
 40
0.0
 40
0.238951497
 40
1.0
 40
1.0
 40
1.0
 40
1.0
 10
10.2094145042
 20
19.5080790445
 30
0.0
 10
10.2382372381
 20
19.4975145656
 30
0.0
 10
10.3549241512
 20
19.4429112859
 30
0.0
 10
10.4540751533
 20
19.3532893219
 30
0.0
 10
10.5125859305
 20
19.2749587355
 30
0.0
 11
10.2094145042
 21
19.5080790445
 31
0.0
 11
10.293001001
 21
19.4694200043
 31
0.0
 11
10.5125859305
 21
19.2749587355
 31
0.0
  0
LINE
  5
38E
100
AcDbEntity
  8
RACCORDO
100
AcDbLine
 62
253
  6
CONTINUOUS
 10
10.5125859336
 20
19.2749587384
 11
11.0715620898
 21
19.7916534655
  0
SPLINE
  5
38F
100
AcDbEntity
  8
RACCORDO
100
AcDbSpline
 62
253
  6
CONTINUOUS
 70
0
 71
3
 72
11
 73
7
 74
5
 42
0.0000001
 43
0.0000001
 44
0.0000000001
 12
0.364288956
 22
-0.1291343189
 32
0.0
 13
0.2371473407
 23
-0.3051937984
 33
0.0
 40
0.0
 40
0.0
 40
0.0
 40
0.0
 40
0.2378875568
 40
0.487073503
 40
0.7429285986
 40
1.0
 40
1.0
 40
1.0
 40
1.0
 10
10.7688409076
 20
20.0241320461
 30
0.0
 10
10.7977275109
 20
20.0138922303
 30
0.0
 10
10.8547489475
 20
19.9868458706
 30
0.0
 10
10.9347564002
 20
19.9338351814
 30
0.0
 10
11.0083640025
 20
19.868313083
 30
0.0
 10
11.0512408223
 20
19.8178056663
 30
0.0
 10
11.0715620887
 20
19.7916534671
 30
0.0
 11
10.7688409076
 21
20.0241320461
 31
0.0
 11
10.8523367303
 21
19.9856345829
 31
0.0
 11
10.9326724426
 21
19.9325134757
 31
0.0
 11
11.006588545
 21
19.8668230162
 31
0.0
 11
11.0715620887
 21
19.7916534671
 31
0.0
  0
SPLINE
  5
390
100
AcDbEntity
  8
RACCORDO
100
AcDbSpline
 62
253
  6
CONTINUOUS
 70
0
 71
3
 72
11
 73
7
 74
5
 42
0.0000001
 43
0.0000001
 44
0.0000000001
 12
0.9181651103
 22
-0.4562646181
 32
0.0
 13
0.7522843024
 23
0.696615317
 33
0.0
 40
0.0
 40
0.0
 40
0.0
 40
0.0
 40
0.2756548376
 40
0.5323352994
 40
0.7703132554
 40
1.0
 40
1.0
 40
1.0
 40
1.0
 10
9.546150268
 20
19.2681658583
 30
0.0
 10
9.6305158195
 20
19.2262420086
 30
0.0
 10
9.799719676
 20
19.1566876796
 30
0.0
 10
10.0611363038
 20
19.1081095103
 30
0.0
 10
10.3121542909
 20
19.137678177
 30
0.0
 10
10.4549893561
 20
19.2216243036
 30
0.0
 10
10.5125859336
 20
19.2749587384
 30
0.0
 11
9.546150268
 21
19.2681658583
 31
0.0
 11
9.8088213476
 21
19.1638571676
 31
0.0
 11
10.0684396732
 21
19.1207666758
 31
0.0
 11
10.3100476602
 21
19.1548105096
 31
0.0
 11
10.5125859336
 21
19.2749587384
 31
0.0
  0
SPLINE
  5
391
100
AcDbEntity
  8
RACCORDO
100
AcDbSpline
 62
253
  6
CONTINUOUS
 70
0
 71
3
 72
11
 73
7
 74
5
 42
0.0000001
 43
0.0000001
 44
0.0000000001
 12
0.1599753549
 22
0.1350320713
 32
0.0
 13
0.1942032433
 23
-0.0781720841
 33
0.0
 40
0.0
 40
0.0
 40
0.0
 40
0.0
 40
0.3034519086
 40
0.5667143733
 40
0.7941055588
 40
1.0
 40
1.0
 40
1.0
 40
1.0
 10
-2.7743207627
 20
25.4633710964
 30
0.0
 10
-2.7581391538
 20
25.4770296763
 30
0.0
 10
-2.7260434876
 20
25.500491222
 30
0.0
 10
-2.675483086
 20
25.5242570691
 30
0.0
 10
-2.6268933925
 20
25.5328646467
 30
0.0
 10
-2.5963064261
 20
25.5272846822
 30
0.0
 10
-2.58297797
 20
25.5219196163
 30
0.0
 11
-2.7743207627
 21
25.4633710964
 31
0.0
 11
-2.7226242881
 21
25.5002910906
 31
0.0
 11
-2.6723391854
 21
25.5228487254
 31
0.0
 11
-2.6252941521
 21
25.53011875
 31
0.0
 11
-2.58297797
 21
25.5219196163
 31
0.0
  0
SPLINE
  5
392
100
AcDbEntity
  8
RACCORDO
100
AcDbSpline
 62
253
  6
CONTINUOUS
 70
0
 71
3
 72
11
 73
7
 74
5
 42
0.0000001
 43
0.0000001
 44
0.0000000001
 12
0.1599753825
 22
0.1350320945
 32
0.0
 13
0.1942030501
 23
-0.0781726608
 33
0.0
 40
0.0
 40
0.0
 40
0.0
 40
0.0
 40
0.303452447
 40
0.5667177873
 40
0.7941075601
 40
1.0
 40
1.0
 40
1.0
 40
1.0
 10
10.7688409076
 20
20.0241320461
 30
0.0
 10
10.7850225481
 20
20.0377906526
 30
0.0
 10
10.8171186133
 20
20.061252027
 30
0.0
 10
10.8676789777
 20
20.0850183147
 30
0.0
 10
10.9162687173
 20
20.093625648
 30
0.0
 10
10.9468554166
 20
20.088045636
 30
0.0
 10
10.9601837299
 20
20.0826805828
 30
0.0
 11
10.7688409076
 21
20.0241320461
 31
0.0
 11
10.8205375995
 21
20.0610519489
 31
0.0
 11
10.8708232064
 21
20.0836099538
 31
0.0
 11
10.9178679793
 21
20.0908797805
 31
0.0
 11
10.9601837299
 21
20.0826805828
 31
0.0
  0
LINE
  5
393
100
AcDbEntity
  8
RACCORDO
100
AcDbLine
 62
253
  6
CONTINUOUS
 10
-3.0570213667
 20
25.4660111032
 11
-3.1620879724
 21
25.3846595978
  0
LINE
  5
394
100
AcDbEntity
  8
RACCORDO
100
AcDbLine
 62
253
  6
CONTINUOUS
 10
-3.1620879724
 20
25.3846595978
 11
-3.6873034058
 21
24.9779544261
  0
LINE
  5
395
100
AcDbEntity
  8
RACCORDO
100
AcDbLine
 62
253
  6
CONTINUOUS
 10
-2.7743207639
 20
25.4633710969
 11
-3.4041525572
 21
24.9755944905
  0
SPLINE
  5
396
100
AcDbEntity
  8
RACCORDO
100
AcDbSpline
 62
253
  6
CONTINUOUS
 70
0
 71
3
 72
9
 73
5
 74
3
 42
0.0000001
 43
0.0000001
 44
0.0000000001
 12
-0.1303678711
 22
0.0572173375
 32
0.0
 13
-0.1420997663
 23
0.0087898787
 33
0.0
 40
0.0
 40
0.0
 40
0.0
 40
0.0
 40
0.2647269262
 40
1.0
 40
1.0
 40
1.0
 40
1.0
 10
-2.7743207627
 20
25.4633710964
 30
0.0
 10
-2.7858247246
 20
25.4684200863
 30
0.0
 10
-2.8299442809
 20
25.4858537361
 30
0.0
 10
-2.8770095327
 20
25.4965408113
 30
0.0
 10
-2.91183691
 20
25.4986951317
 30
0.0
 11
-2.7743207627
 21
25.4633710964
 31
0.0
 11
-2.809390429
 21
25.4771775971
 31
0.0
 11
-2.91183691
 21
25.4986951317
 31
0.0
  0
SPLINE
  5
397
100
AcDbEntity
  8
RACCORDO
100
AcDbSpline
 62
253
  6
CONTINUOUS
 70
0
 71
3
 72
9
 73
5
 74
3
 42
0.0000001
 43
0.0000001
 44
0.0000000001
 12
-0.121771836
 22
0.007532452
 32
0.0
 13
-0.1116893006
 23
-0.0490980447
 33
0.0
 40
0.0
 40
0.0
 40
0.0
 40
0.0
 40
0.2641828301
 40
1.0
 40
1.0
 40
1.0
 40
1.0
 10
-2.91183691
 20
25.4986951317
 30
0.0
 10
-2.9225602527
 20
25.4993584465
 30
0.0
 10
-2.9632137999
 20
25.4998732969
 30
0.0
 10
-3.0042516292
 20
25.4913129559
 30
0.0
 10
-3.0316459309
 20
25.4792705611
 30
0.0
 11
-2.91183691
 21
25.4986951317
 31
0.0
 11
-2.9440670111
 21
25.4989970949
 31
0.0
 11
-3.0316459309
 21
25.4792705611
 31
0.0
  0
SPLINE
  5
398
100
AcDbEntity
  8
RACCORDO
100
AcDbSpline
 62
253
  6
CONTINUOUS
 70
0
 71
3
 72
10
 73
6
 74
4
 42
0.0000001
 43
0.0000001
 44
0.0000000001
 12
-0.2682100014
 22
0.1176775518
 32
0.0
 13
-0.2492629271
 23
-0.1537940317
 33
0.0
 40
0.0
 40
0.0
 40
0.0
 40
0.0
 40
0.5401858897
 40
0.77765834
 40
1.0
 40
1.0
 40
1.0
 40
1.0
 10
-3.4041527309
 20
24.9756082703
 30
0.0
 10
-3.4524471503
 20
24.9967975213
 30
0.0
 10
-3.5285554453
 20
25.017362834
 30
0.0
 10
-3.6265894515
 20
25.006841121
 30
0.0
 10
-3.6688168899
 20
24.9893347634
 30
0.0
 10
-3.6872907343
 20
24.97793649
 30
0.0
 11
-3.4041527309
 21
24.9756082703
 31
0.0
 11
-3.5582436547
 21
25.0114970556
 31
0.0
 11
-3.6273126255
 21
25.0033029744
 31
0.0
 11
-3.6872907343
 21
24.97793649
 31
0.0
  0
SPLINE
  5
399
100
AcDbEntity
  8
RACCORDO
100
AcDbSpline
 62
253
  6
CONTINUOUS
 70
0
 71
3
 72
20
 73
16
 74
14
 42
0.0000001
 43
0.0000001
 44
0.0000000001
 12
-0.3467255638
 22
-0.2683851486
 32
0.0
 13
0.4352963389
 23
0.0525956454
 33
0.0
 40
0.0
 40
0.0
 40
0.0
 40
0.0
 40
0.266051827
 40
0.4897355553
 40
0.6674481556
 40
0.7388281122
 40
0.7987739108
 40
0.8476028239
 40
0.885820646
 40
0.9141170715
 40
0.9336289272
 40
0.946805967
 40
0.9591538283
 40
0.9762182712
 40
1.0
 40
1.0
 40
1.0
 40
1.0
 10
-3.6873034058
 20
24.9779544261
 30
0.0
 10
-3.7180523957
 20
24.954152973
 30
0.0
 10
-3.774371709
 20
24.9099718226
 30
0.0
 10
-3.8500340752
 20
24.8483921655
 30
0.0
 10
-3.9025160039
 20
24.8034191244
 30
0.0
 10
-3.9357597541
 20
24.7728351839
 30
0.0
 10
-3.9545893056
 20
24.7544224623
 30
0.0
 10
-3.9692845654
 20
24.7387376699
 30
0.0
 10
-3.9800359824
 20
24.7257350058
 30
0.0
 10
-3.9869491916
 20
24.7151720358
 30
0.0
 10
-3.9905532401
 20
24.70698961
 30
0.0
 10
-3.9903271083
 20
24.6998173916
 30
0.0
 10
-3.9848915475
 20
24.6957029732
 30
0.0
 10
-3.9770549935
 20
24.6948134413
 30
0.0
 10
-3.9710886703
 20
24.6951909377
 30
0.0
 10
-3.9676379704
 20
24.6956078761
 30
0.0
 11
-3.6873034058
 21
24.9779544261
 31
0.0
 11
-3.7790071576
 21
24.9058537477
 31
0.0
 11
-3.8549521255
 21
24.8437937975
 31
0.0
 11
-3.9138840871
 21
24.7928173936
 31
0.0
 11
-3.9368713044
 21
24.7715778923
 31
0.0
 11
-3.9556010476
 21
24.7531376103
 31
0.0
 11
-3.9701602149
 21
24.7374403728
 31
0.0
 11
-3.980678589
 21
24.7243957047
 31
0.0
 11
-3.987298995
 21
24.7139027644
 31
0.0
 11
-3.9901808554
 21
24.7058475451
 31
0.0
 11
-3.9894889104
 21
24.7001114939
 31
0.0
 11
-3.9853914262
 21
24.6965727373
 31
0.0
 11
-3.9780535112
 21
24.6951108718
 31
0.0
 11
-3.9676379704
 21
24.6956078761
 31
0.0
  0
SPLINE
  5
39A
100
AcDbEntity
  8
RACCORDO
100
AcDbSpline
 62
253
  6
CONTINUOUS
 70
0
 71
3
 72
11
 73
7
 74
5
 42
0.0000001
 43
0.0000001
 44
0.0000000001
 12
-0.1984942218
 22
-0.1472769482
 32
0.0
 13
0.0441739089
 23
-0.2431853641
 33
0.0
 40
0.0
 40
0.0
 40
0.0
 40
0.0
 40
0.38343122
 40
0.6714400699
 40
0.8684823999
 40
1.0
 40
1.0
 40
1.0
 40
1.0
 10
-3.4041525572
 20
24.9755944905
 30
0.0
 10
-3.4295221844
 20
24.9567709639
 30
0.0
 10
-3.4729326972
 20
24.9223401762
 30
0.0
 10
-3.5236313272
 20
24.871511152
 30
0.0
 10
-3.5527707164
 20
24.8294212913
 30
0.0
 10
-3.5585557231
 20
24.8013551645
 30
0.0
 10
-3.5566191742
 20
24.7906941127
 30
0.0
 11
-3.4041525572
 21
24.9755944905
 31
0.0
 11
-3.4777276629
 21
24.9158601447
 31
0.0
 11
-3.5270407176
 21
24.8645218471
 31
0.0
 11
-3.5523633313
 21
24.8229208411
 31
0.0
 11
-3.5566191742
 21
24.7906941127
 31
0.0
  0
SPLINE
  5
39B
100
AcDbEntity
  8
RACCORDO
100
AcDbSpline
 62
253
  6
CONTINUOUS
 70
0
 71
3
 72
9
 73
5
 74
3
 42
0.0000001
 43
0.0000001
 44
0.0000000001
 12
0.2800866222
 22
0.0338445253
 32
0.0
 13
0.2820996054
 23
-0.0037122038
 33
0.0
 40
0.0
 40
0.0
 40
0.0
 40
0.0
 40
0.226614049
 40
1.0
 40
1.0
 40
1.0
 40
1.0
 10
-3.9676379704
 20
24.6956078761
 30
0.0
 10
-3.9464807826
 20
24.6981644244
 30
0.0
 10
-3.8528735118
 20
24.7074212297
 30
0.0
 10
-3.7586539473
 20
24.7094460222
 30
0.0
 10
-3.6859299901
 20
24.7084890334
 30
0.0
 11
-3.9676379704
 21
24.6956078761
 31
0.0
 11
-3.9040238936
 21
24.7019884764
 31
0.0
 11
-3.6859299901
 21
24.7084890334
 31
0.0
  0
SPLINE
  5
39C
100
AcDbEntity
  8
RACCORDO
100
AcDbSpline
 62
253
  6
CONTINUOUS
 70
0
 71
3
 72
9
 73
5
 74
3
 42
0.0000001
 43
0.0000001
 44
0.0000000001
 12
0.0000023739
 22
-0.1861280541
 32
0.0
 13
-0.141792948
 23
-0.1205753392
 33
0.0
 40
0.0
 40
0.0
 40
0.0
 40
0.0
 40
0.4658396188
 40
1.0
 40
1.0
 40
1.0
 40
1.0
 10
13.0660160605
 20
16.4055181517
 30
0.0
 10
13.0660164291
 20
16.3766162111
 30
0.0
 10
13.0482473559
 20
16.3140760142
 30
0.0
 10
13.0057960664
 20
16.2666398688
 30
0.0
 10
12.9805493413
 20
16.2451710124
 30
0.0
 11
13.0660160605
 21
16.4055181517
 31
0.0
 11
13.0441051499
 21
16.3216264863
 31
0.0
 11
12.9805493413
 21
16.2451710124
 31
0.0
  0
ELLIPSE
  5
39D
100
AcDbEntity
  8
RACCORDO
100
AcDbEllipse
 62
7
  6
CONTINUOUS
 10
5.3747811084
 20
5.3917127726
 30
0.0
 11
0.2003724455
 21
-0.0015644218
 31
0.0
 40
0.562741758
 41
4.1032572824
 42
5.6567304239
  0
ELLIPSE
  5
39E
100
AcDbEntity
  8
RACCORDO
100
AcDbEllipse
 62
7
  6
CONTINUOUS
 10
5.2519083018
 20
-11.8241741139
 30
0.0
 11
0.2003643835
 21
0.0034147636
 31
0.0
 40
0.5861160764
 41
-2.1943103497
 42
-0.6408372082
  0
ELLIPSE
  5
39F
100
AcDbEntity
  8
DRAFT
100
AcDbEllipse
 62
7
  6
CONTINUOUS
 10
-17.4499093843
 20
9.4450374083
 30
0.0
 11
16.4332670843
 21
13.8660889487
 31
0.0
 40
0.018131993
 41
0.6464256088
 42
0.653126114
  0
ELLIPSE
  5
3A0
100
AcDbEntity
  8
DRAFT
100
AcDbEllipse
 62
7
  6
CONTINUOUS
 10
-17.4499093843
 20
9.4450374083
 30
0.0
 11
16.4332670843
 21
13.8660889487
 31
0.0
 40
0.018131993
 41
-0.6338761035
 42
-0.6271755983
  0
ELLIPSE
  5
3A1
100
AcDbEntity
  8
DRAFT
100
AcDbEllipse
 62
7
  6
CONTINUOUS
 10
-13.6818099806
 20
7.9316837379
 30
0.0
 11
16.4332670843
 21
13.8660889487
 31
0.0
 40
0.018131993
 41
0.6464256088
 42
0.653126114
  0
ELLIPSE
  5
3A2
100
AcDbEntity
  8
DRAFT
100
AcDbEllipse
 62
7
  6
CONTINUOUS
 10
-13.6818099806
 20
7.9316837379
 30
0.0
 11
16.4332670843
 21
13.8660889487
 31
0.0
 40
0.018131993
 41
-0.6338761035
 42
-0.6271755983
  0
ELLIPSE
  5
3A3
100
AcDbEntity
  8
RACCORDO
100
AcDbEllipse
 62
7
  6
CONTINUOUS
 10
5.3747811084
 20
-11.8735226031
 30
0.0
 11
0.2003643835
 21
0.0034147636
 31
0.0
 40
0.5861160764
 41
-2.1943103497
 42
-0.6408372082
  0
ELLIPSE
  5
3A4
100
AcDbEntity
  8
DRAFT
100
AcDbEllipse
 62
7
  6
CONTINUOUS
 10
-7.5558836237
 20
20.0995227687
 30
0.0
 11
-0.3086611384
 21
0.4924323206
 31
0.0
 40
0.7360444175
 41
-3.1351172288
 42
0.1809901811
  0
ELLIPSE
  5
3A5
100
AcDbEntity
  8
DRAFT
100
AcDbEllipse
 62
7
  6
CONTINUOUS
 10
1.4547888635
 20
16.480633557
 30
0.0
 11
-0.3086611384
 21
0.4924323206
 31
0.0
 40
0.7360444175
 41
-3.1351172288
 42
0.1809901811
  0
ELLIPSE
  5
3A6
100
AcDbEntity
  8
RACCORDO
100
AcDbEllipse
 62
7
  6
CONTINUOUS
 10
-14.377502781
 20
19.8818520919
 30
0.0
 11
-0.3432823338
 21
0.3638365131
 31
0.0
 40
0.6182289083
 41
-0.9293240819
 42
0.0234352908
  0
ELLIPSE
  5
3A7
100
AcDbEntity
  8
RACCORDO
100
AcDbEllipse
 62
7
  6
CONTINUOUS
 10
5.0460559956
 20
-20.2331626939
 30
0.0
 11
-0.3432823338
 21
0.3638365131
 31
0.0
 40
0.6182289083
 41
-3.1648450888
 42
-2.5005772595
  0
ELLIPSE
  5
3A8
100
AcDbEntity
  8
RACCORDO
100
AcDbEllipse
 62
7
  6
CONTINUOUS
 10
2.9064805737
 20
12.9402147184
 30
0.0
 11
-0.3432267456
 21
0.3635878093
 31
0.0
 40
0.6187706608
 41
-2.5004115446
 42
-0.9300720685
  0
ELLIPSE
  5
3A9
100
AcDbEntity
  8
RACCORDO
100
AcDbEllipse
 62
7
  6
CONTINUOUS
 10
4.3216680997
 20
21.2005567659
 30
0.0
 11
0.1297337271
 21
0.4862542225
 31
0.0
 40
0.3395847085
 41
-0.040545788
 42
0.6484899198
  0
ENDSEC
  0
SECTION
  2
OBJECTS
  0
DICTIONARY
  5
C
100
AcDbDictionary
280
0
281
1
  3
ACAD_GROUP
350
D
  3
ACAD_MLINESTYLE
350
17
  3
ACAD_LAYOUT
350
1A
  3
ACAD_PLOTSETTINGS
350
19
  3
ACAD_PLOTSTYLENAME
350
E
  0
DICTIONARY
  5
D
102
{ACAD_REACTORS
330
C
102
}
100
AcDbDictionary
280
0
281
1
  0
ACDBDICTIONARYWDFLT
  5
E
102
{ACAD_REACTORS
330
C
102
}
100
AcDbDictionary
281
1
  3
Normal
350
F
100
AcDbDictionaryWithDefault
340
F
  0
DICTIONARY
  5
17
102
{ACAD_REACTORS
330
C
102
}
100
AcDbDictionary
280
0
281
1
  3
Standard
350
18
  0
DICTIONARY
  5
19
102
{ACAD_REACTORS
330
C
102
}
100
AcDbDictionary
281
1
  0
DICTIONARY
  5
1A
102
{ACAD_REACTORS
330
C
102
}
100
AcDbDictionary
281
1
  3
Model
350
3AA
  3
Layout1
350
3AB
  0
ACDBPLACEHOLDER
  5
F
102
{ACAD_REACTORS
330
E
102
}
  0
MLINESTYLE
  5
18
102
{ACAD_REACTORS
330
17
102
}
100
AcDbMlineStyle
  2
STANDARD
 70
0
  3

 62
256
 51
90.0
 52
90.0
 71
2
 49
0.5
 62
256
  6
BYLAYER
 49
-0.5
 62
256
  6
BYLAYER
  0
LAYOUT
  5
3AA
102
{ACAD_REACTORS
330
1A
102
}
100
AcDbPlotSettings
  1

  2
none_device
  4
ISO_A4_(297.00_x_210.00_MM)
  6

 40
0.0
 41
0.0
 42
0.0
 43
0.0
 44
297.0
 45
210.0
 46
0.0
 47
0.0
 48
0.0
 49
0.0
140
0.0
141
0.0
142
1.0
143
1.0
 70
1024
 72
1
 73
0
 74
0
  7

 75
0
147
1.0
148
0.0
149
0.0
100
AcDbLayout
  1
Model
 70
0
 71
0
 10
0.0
 20
0.0
 11
297.0
 21
210.0
 12
0.0
 22
0.0
 32
0.0
 14
0.0
 24
0.0
 34
0.0
 15
0.0
 25
0.0
 35
0.0
146
0.0
 13
0.0
 23
0.0
 33
0.0
 16
1.0
 26
0.0
 36
0.0
 17
0.0
 27
1.0
 37
0.0
 76
0
330
21A
345
0
346
0
  0
LAYOUT
  5
3AB
102
{ACAD_REACTORS
330
1A
102
}
100
AcDbPlotSettings
  1

  2
none_device
  4
ISO_A4_(297.00_x_210.00_MM)
  6

 40
0.0
 41
0.0
 42
0.0
 43
0.0
 44
297.0
 45
210.0
 46
0.0
 47
0.0
 48
0.0
 49
0.0
140
0.0
141
0.0
142
1.0
143
1.0
 70
0
 72
1
 73
0
 74
0
  7

 75
0
147
1.0
148
0.0
149
0.0
100
AcDbLayout
  1
Layout1
 70
0
 71
1
 10
0.0
 20
0.0
 11
297.0
 21
210.0
 12
0.0
 22
0.0
 32
0.0
 14
0.0
 24
0.0
 34
0.0
 15
0.0
 25
0.0
 35
0.0
146
0.0
 13
0.0
 23
0.0
 33
0.0
 16
1.0
 26
0.0
 36
0.0
 17
0.0
 27
1.0
 37
0.0
 76
0
330
21B
345
0
346
0
  0
ENDSEC
  0
EOF
