  0
SECTION
  2
HEADER
  9
$ACADVER
  1
AC1024
  9
$DWGCODEPAGE
  3
ANSI_1252
  9
$EXTMAX
 10
297.0
 20
210.0
 30
0.0
  9
$EXTMIN
 10
0.0
 20
0.0
 30
0.0
  9
$LIMMIN
 10
0.0
 20
0.0
  9
$LIMMAX
 10
297.0
 20
210.0
  9
$VIEWCTR
 10
148.5
 20
105.0
  9
$VIEWSIZE
 40
210.0
  9
$CLAYER
  8
0
  9
$LTSCALE
 40
16.335
  9
$CELTYPE
  6
BYLAYER
  9
$DIMSCALE
 40
1.0
  9
$DIMASZ
 40
3.0
  9
$DIMEXO
 40
0.5
  9
$DIMDLI
 40
11.286
  9
$DIMEXE
 40
1.5
  9
$DIMCEN
 40
2.673
  9
$DIMLFAC
 40
1.0
  9
$DIMBLK
  1
_FILLED
  9
$DIMALT
 70
0
  9
$DIMALTF
 40
0.0393700787
  9
$DIMTXT
 40
3.0
  9
$DIMTOL
 70
1
  9
$DIMLIM
 70
0
  9
$DIMTFAC
 40
1.0
  9
$DIMTP
 40
0.01
  9
$DIMTM
 40
0.01
  9
$DIMGAP
 40
0.625
  9
$DIMDSEP
 70
44
  9
$AUNITS
 70
0
  9
$PDMODE
 70
3
  9
$PDSIZE
 40
3.0
  9
$HANDSEED
  5
5A8
  9
$TILEMODE
 70
1
  9
$MEASUREMENT
 70
1
  9
$INSUNITS
 70
4
  0
ENDSEC
  0
SECTION
  2
CLASSES
  0
CLASS
  1
ACDBDICTIONARYWDFLT
  2
AcDbDictionaryWithDefault
  3
AutoCAD 2000
 90
0
 91
1
280
0
281
0
  0
CLASS
  1
ACDBPLACEHOLDER
  2
AcDbPlaceHolder
  3
AutoCAD 2000
 90
0
 91
1
280
0
281
0
  0
CLASS
  1
LAYOUT
  2
AcDbLayout
  3
AutoCAD 2000
 90
0
 91
0
280
0
281
0
  0
ENDSEC
  0
SECTION
  2
TABLES
  0
TABLE
  2
VPORT
  5
8
100
AcDbSymbolTable
 70
2
  0
VPORT
  5
1F4
100
AcDbSymbolTableRecord
100
AcDbViewportTableRecord
  2
*ACTIVE
 70
0
 10
0.0
 20
0.0
 11
1.0
 21
1.0
 12
148.5
 22
105.0
 13
0.0
 23
0.0
 14
1.0
 24
1.0
 15
0.0
 25
0.0
 16
0.0
 26
0.0
 36
1.0
 17
0.0
 27
0.0
 37
0.0
 40
210.0
 41
1.4142857143
 42
50.0
 43
0.0
 44
0.0
 50
0.0
 51
0.0
 71
0
 72
100
 73
1
 74
1
 75
0
 76
0
 77
0
 78
0
  0
ENDTAB
  0
TABLE
  2
LTYPE
  5
5
100
AcDbSymbolTable
 70
6
  0
LTYPE
  5
14
100
AcDbSymbolTableRecord
100
AcDbLinetypeTableRecord
  2
BYBLOCK
 70
0
  3

 72
65
 73
0
 40
0.0
  0
LTYPE
  5
15
100
AcDbSymbolTableRecord
100
AcDbLinetypeTableRecord
  2
BYLAYER
 70
0
  3

 72
65
 73
0
 40
0.0
  0
LTYPE
  5
16
100
AcDbSymbolTableRecord
100
AcDbLinetypeTableRecord
  2
CONTINUOUS
 70
64
  3
Solid line
 72
65
 73
0
 40
0.0
  0
LTYPE
  5
1F5
100
AcDbSymbolTableRecord
100
AcDbLinetypeTableRecord
  2
CENTER
 70
64
  3
____ _ ____ _ ____ _ ____ _ ____ _ ____ _ ____
 72
65
 73
4
 40
0.6
 49
0.375
 74
0
 49
-0.075
 74
0
 49
0.075
 74
0
 49
-0.075
 74
0
  0
LTYPE
  5
1F6
100
AcDbSymbolTableRecord
100
AcDbLinetypeTableRecord
  2
HIDDEN
 70
64
  3
- - - - - - - - - - - - - - - - - - - -
 72
65
 73
2
 40
0.2
 49
0.1
 74
0
 49
-0.1
 74
0
  0
LTYPE
  5
1F7
100
AcDbSymbolTableRecord
100
AcDbLinetypeTableRecord
  2
PHANTOM
 70
64
  3
_____ _ _ _____ _ _ _____ _ _ _____
 72
65
 73
6
 40
0.8
 49
0.45
 74
0
 49
-0.05
 74
0
 49
0.1
 74
0
 49
-0.05
 74
0
 49
0.1
 74
0
 49
-0.05
 74
0
  0
LTYPE
  5
1F8
100
AcDbSymbolTableRecord
100
AcDbLinetypeTableRecord
  2
DOT
 70
64
  3
. . . . . . . . . . . . . . . . . . . .
 72
65
 73
2
 40
0.2
 49
0.1
 74
0
 49
-0.1
 74
0
  0
LTYPE
  5
1F9
100
AcDbSymbolTableRecord
100
AcDbLinetypeTableRecord
  2
DASHED
 70
64
  3
- - - - - - - - - - - - - - - - - - - -
 72
65
 73
2
 40
0.2
 49
0.1
 74
0
 49
-0.1
 74
0
  0
ENDTAB
  0
TABLE
  2
LAYER
  5
2
100
AcDbSymbolTable
 70
36
  0
LAYER
  5
10
100
AcDbSymbolTableRecord
100
AcDbLayerTableRecord
  2
0
 70
0
 62
7
  6
CONTINUOUS
370
-3
390
F
  0
LAYER
  5
1FA
100
AcDbSymbolTableRecord
100
AcDbLayerTableRecord
  2
DEFAULT_1
 70
0
 62
7
  6
CENTER
370
-3
390
F
  0
LAYER
  5
1FB
100
AcDbSymbolTableRecord
100
AcDbLayerTableRecord
  2
DEFAULT_2
 70
0
 62
7
  6
HIDDEN
370
-3
390
F
  0
LAYER
  5
1FC
100
AcDbSymbolTableRecord
100
AcDbLayerTableRecord
  2
DEFAULT_3
 70
0
 62
7
  6
PHANTOM
370
-3
390
F
  0
LAYER
  5
1FD
100
AcDbSymbolTableRecord
100
AcDbLayerTableRecord
  2
ASSI
 70
0
 62
7
  6
CONTINUOUS
370
-3
390
F
  0
LAYER
  5
1FE
100
AcDbSymbolTableRecord
100
AcDbLayerTableRecord
  2
COORDINATE
 70
0
 62
7
  6
CONTINUOUS
370
-3
390
F
  0
LAYER
  5
1FF
100
AcDbSymbolTableRecord
100
AcDbLayerTableRecord
  2
COORD_ORIGINE
 70
0
 62
7
  6
CONTINUOUS
370
-3
390
F
  0
LAYER
  5
200
100
AcDbSymbolTableRecord
100
AcDbLayerTableRecord
  2
COPY_PUBLISH
 70
0
 62
7
  6
CONTINUOUS
370
-3
390
F
  0
LAYER
  5
201
100
AcDbSymbolTableRecord
100
AcDbLayerTableRecord
  2
COSMETIC
 70
0
 62
7
  6
CONTINUOUS
370
-3
390
F
  0
LAYER
  5
202
100
AcDbSymbolTableRecord
100
AcDbLayerTableRecord
  2
COSMETICHE
 70
0
 62
7
  6
CONTINUOUS
370
-3
390
F
  0
LAYER
  5
203
100
AcDbSymbolTableRecord
100
AcDbLayerTableRecord
  2
COSMETICI
 70
0
 62
7
  6
CONTINUOUS
370
-3
390
F
  0
LAYER
  5
204
100
AcDbSymbolTableRecord
100
AcDbLayerTableRecord
  2
CURVE
 70
0
 62
7
  6
CONTINUOUS
370
-3
390
F
  0
LAYER
  5
205
100
AcDbSymbolTableRecord
100
AcDbLayerTableRecord
  2
DRAFT
 70
0
 62
7
  6
CONTINUOUS
370
-3
390
F
  0
LAYER
  5
206
100
AcDbSymbolTableRecord
100
AcDbLayerTableRecord
  2
ESTENSIONE
 70
0
 62
7
  6
CONTINUOUS
370
-3
390
F
  0
LAYER
  5
207
100
AcDbSymbolTableRecord
100
AcDbLayerTableRecord
  2
IMPORT_FEATURES
 70
0
 62
7
  6
CONTINUOUS
370
-3
390
F
  0
LAYER
  5
208
100
AcDbSymbolTableRecord
100
AcDbLayerTableRecord
  2
IMPORT_IGES
 70
0
 62
7
  6
CONTINUOUS
370
-3
390
F
  0
LAYER
  5
209
100
AcDbSymbolTableRecord
100
AcDbLayerTableRecord
  2
INTFCLR_1
 70
0
 62
7
  6
CONTINUOUS
370
-3
390
F
  0
LAYER
  5
20A
100
AcDbSymbolTableRecord
100
AcDbLayerTableRecord
  2
INTF_1
 70
0
 62
7
  6
CONTINUOUS
370
-3
390
F
  0
LAYER
  5
20B
100
AcDbSymbolTableRecord
100
AcDbLayerTableRecord
  2
INTF_11
 70
0
 62
7
  6
CONTINUOUS
370
-3
390
F
  0
LAYER
  5
20C
100
AcDbSymbolTableRecord
100
AcDbLayerTableRecord
  2
INTF_12
 70
0
 62
7
  6
CONTINUOUS
370
-3
390
F
  0
LAYER
  5
20D
100
AcDbSymbolTableRecord
100
AcDbLayerTableRecord
  2
INTF_2
 70
0
 62
7
  6
CONTINUOUS
370
-3
390
F
  0
LAYER
  5
20E
100
AcDbSymbolTableRecord
100
AcDbLayerTableRecord
  2
INTF_6
 70
0
 62
7
  6
CONTINUOUS
370
-3
390
F
  0
LAYER
  5
20F
100
AcDbSymbolTableRecord
100
AcDbLayerTableRecord
  2
INTF_7
 70
0
 62
7
  6
CONTINUOUS
370
-3
390
F
  0
LAYER
  5
210
100
AcDbSymbolTableRecord
100
AcDbLayerTableRecord
  2
INTF_CYAN
 70
0
 62
7
  6
CONTINUOUS
370
-3
390
F
  0
LAYER
  5
211
100
AcDbSymbolTableRecord
100
AcDbLayerTableRecord
  2
NOTE
 70
0
 62
7
  6
CONTINUOUS
370
-3
390
F
  0
LAYER
  5
212
100
AcDbSymbolTableRecord
100
AcDbLayerTableRecord
  2
PIANI
 70
0
 62
7
  6
CONTINUOUS
370
-3
390
F
  0
LAYER
  5
213
100
AcDbSymbolTableRecord
100
AcDbLayerTableRecord
  2
PIANI_ORIGINE
 70
0
 62
7
  6
CONTINUOUS
370
-3
390
F
  0
LAYER
  5
214
100
AcDbSymbolTableRecord
100
AcDbLayerTableRecord
  2
PUNTI
 70
0
 62
7
  6
CONTINUOUS
370
-3
390
F
  0
LAYER
  5
215
100
AcDbSymbolTableRecord
100
AcDbLayerTableRecord
  2
RACCORDO
 70
0
 62
7
  6
CONTINUOUS
370
-3
390
F
  0
LAYER
  5
216
100
AcDbSymbolTableRecord
100
AcDbLayerTableRecord
  2
RGB__255__255__255__
 70
0
 62
7
  6
CONTINUOUS
370
-3
390
F
  0
LAYER
  5
217
100
AcDbSymbolTableRecord
100
AcDbLayerTableRecord
  2
RGB____0____0____0__
 70
0
 62
7
  6
CONTINUOUS
370
-3
390
F
  0
LAYER
  5
218
100
AcDbSymbolTableRecord
100
AcDbLayerTableRecord
  2
SMUSSO
 70
0
 62
7
  6
CONTINUOUS
370
-3
390
F
  0
LAYER
  5
219
100
AcDbSymbolTableRecord
100
AcDbLayerTableRecord
  2
SNAPLINE
 70
0
 62
7
  6
CONTINUOUS
370
-3
390
F
  0
LAYER
  5
21A
100
AcDbSymbolTableRecord
100
AcDbLayerTableRecord
  2
SUPERFICI
 70
0
 62
7
  6
CONTINUOUS
370
-3
390
F
  0
LAYER
  5
21B
100
AcDbSymbolTableRecord
100
AcDbLayerTableRecord
  2
TRASH
 70
0
 62
7
  6
CONTINUOUS
370
-3
390
F
  0
LAYER
  5
21C
100
AcDbSymbolTableRecord
100
AcDbLayerTableRecord
  2
XSEC_DATUMS
 70
0
 62
7
  6
CONTINUOUS
370
-3
390
F
  0
ENDTAB
  0
TABLE
  2
STYLE
  5
3
100
AcDbSymbolTable
 70
1
  0
STYLE
  5
11
100
AcDbSymbolTableRecord
100
AcDbTextStyleTableRecord
  2
STANDARD
 70
0
 40
0.0
 41
0.8
 50
0.0
 71
0
 42
0.2
  3
txt
  4

  0
STYLE
  5
21D
100
AcDbSymbolTableRecord
100
AcDbTextStyleTableRecord
  2
TEXTSTYLE_1
 70
0
 40
0.0
 41
0.8
 50
0.0
 71
0
 42
0.2
  3
gdt
  4

  0
ENDTAB
  0
TABLE
  2
VIEW
  5
6
100
AcDbSymbolTable
 70
0
  0
ENDTAB
  0
TABLE
  2
UCS
  5
7
100
AcDbSymbolTable
 70
0
  0
ENDTAB
  0
TABLE
  2
APPID
  5
9
100
AcDbSymbolTable
 70
1
  0
APPID
  5
21E
100
AcDbSymbolTableRecord
100
AcDbRegAppTableRecord
  2
ACAD
 70
0
  0
ENDTAB
  0
TABLE
  2
BLOCK_RECORD
  5
1
100
AcDbSymbolTable
 70
0
  0
BLOCK_RECORD
  5
21F
100
AcDbSymbolTableRecord
100
AcDbBlockTableRecord
  2
*Model_Space
  0
BLOCK_RECORD
  5
220
100
AcDbSymbolTableRecord
100
AcDbBlockTableRecord
  2
*Paper_Space
  0
BLOCK_RECORD
  5
221
100
AcDbSymbolTableRecord
100
AcDbBlockTableRecord
  2
_FILLED
  0
ENDTAB
  0
TABLE
  2
DIMSTYLE
  5
A
100
AcDbSymbolTable
 70
1
100
AcDbDimStyleTable
 71
0
  0
DIMSTYLE
105
222
100
AcDbSymbolTableRecord
100
AcDbDimStyleTableRecord
  2
STANDARD
 70
0
  3

  4

 40
1.0
 41
3.0
 42
0.5
 43
0.38
 44
1.5
 45
0.0
 46
0.0
 47
0.01
 48
0.01
140
3.0
141
0.09
142
0.0
143
25.4
144
1.0
145
0.0
146
1.0
147
0.625
 71
1
 72
0
 73
0
 74
0
 75
0
 76
0
 77
1
 78
8
 79
2
170
0
171
1
172
0
173
0
174
0
175
0
176
0
177
0
178
0
270
2
179
2
271
2
272
2
273
2
274
2
275
0
280
0
281
0
282
0
283
1
284
8
285
0
286
0
287
3
288
0
340
11
278
44
341
221
342
221
343
221
344
221
  0
ENDTAB
  0
ENDSEC
  0
SECTION
  2
BLOCKS
  0
BLOCK
  5
20
100
AcDbEntity
  8
0
100
AcDbBlockBegin
  2
*Model_Space
 70
0
 10
0.0
 20
0.0
 30
0.0
  3
*Model_Space
  1

  0
ENDBLK
  5
21
100
AcDbEntity
  8
0
100
AcDbBlockEnd
  0
BLOCK
  5
1C
100
AcDbEntity
  8
0
100
AcDbBlockBegin
  2
*Paper_Space
 70
0
 10
0.0
 20
0.0
 30
0.0
  3
*Paper_Space
  1

  0
ENDBLK
  5
1D
100
AcDbEntity
  8
0
100
AcDbBlockEnd
  0
BLOCK
  5
223
100
AcDbEntity
  8
0
100
AcDbBlockBegin
  2
_FILLED
 70
64
 10
0.0
 20
0.0
  3
_FILLED
  1

  0
SOLID
  5
224
100
AcDbEntity
  8
0
  6
BYBLOCK
 62
0
100
AcDbTrace
 10
0.0
 20
0.0
 11
-1.0
 21
0.3166666667
 12
-1.0
 22
-0.3166666667
 13
-1.0
 23
-0.3166666667
  0
ENDBLK
  5
225
100
AcDbEntity
  8
0
  6
BYBLOCK
 62
0
100
AcDbBlockEnd
  0
ENDSEC
  0
SECTION
  2
ENTITIES
  0
LWPOLYLINE
  5
226
100
AcDbEntity
  8
RACCORDO
100
AcDbPolyline
 62
250
  6
CONTINUOUS
 90
4
 70
0
 10
-16.6123681667
 20
19.475616158
 10
-16.5544741345
 20
19.51569833
 10
-16.4960717821
 20
19.550044148
 10
-16.4375717055
 20
19.5784163224
  0
LWPOLYLINE
  5
227
100
AcDbEntity
  8
RACCORDO
100
AcDbPolyline
 62
7
  6
CONTINUOUS
 90
16
 70
0
 10
-16.6611838369
 20
19.5927652814
 10
-16.719148128
 20
19.5645860467
 10
-16.7849325867
 20
19.5260384636
 10
-16.8487311189
 20
19.4814159551
 10
-16.9098506176
 20
19.4312786564
 10
-16.9682792885
 20
19.3756755522
 10
-17.023806539
 20
19.3147779188
 10
-17.075584058
 20
19.2495471018
 10
-17.1235104387
 20
19.1801327743
 10
-17.1674036988
 20
19.1067462215
 10
-17.2064576466
 20
19.0306893793
 10
-17.2405700929
 20
18.9522137049
 10
-17.2695754971
 20
18.8715649
 10
-17.292902253
 20
18.7901612656
 10
-17.3104326814
 20
18.708586479
 10
-17.3228852996
 20
18.6193259395
  0
LINE
  5
228
100
AcDbEntity
  8
RACCORDO
100
AcDbLine
 62
7
  6
CONTINUOUS
 10
-16.6611916136
 20
19.592782904
 11
-12.4313709212
 21
21.4604657583
  0
LINE
  5
229
100
AcDbEntity
  8
RACCORDO
100
AcDbLine
 62
250
  6
CONTINUOUS
 10
-16.4375717055
 20
19.5784163224
 11
-12.2095825865
 21
21.4452904271
  0
LWPOLYLINE
  5
22A
100
AcDbEntity
  8
RACCORDO
100
AcDbPolyline
 62
250
  6
CONTINUOUS
 90
8
 70
0
 10
-16.661119231
 20
19.5928148807
 10
-16.6530390542
 20
19.5961858364
 10
-16.6202424847
 20
19.6061430442
 10
-16.5856820393
 20
19.610945901
 10
-16.5497361495
 20
19.6105418165
 10
-16.5127984171
 20
19.6049352152
 10
-16.4752733044
 20
19.5941874885
 10
-16.4375717055
 20
19.5784163224
  0
LWPOLYLINE
  5
22B
100
AcDbEntity
  8
RACCORDO
100
AcDbPolyline
 62
7
  6
CONTINUOUS
 90
9
 70
0
 10
-4.7189965206
 20
-26.6502287489
 10
-4.6580396819
 20
-26.6772428908
 10
-4.5899798401
 20
-26.699648113
 10
-4.5195617118
 20
-26.7150883096
 10
-4.4469399468
 20
-26.7233937841
 10
-4.3727194926
 20
-26.7243242095
 10
-4.2976435737
 20
-26.7177405357
 10
-4.2218877881
 20
-26.7034756286
 10
-4.1445582846
 20
-26.6809004018
  0
LWPOLYLINE
  5
22C
100
AcDbEntity
  8
RACCORDO
100
AcDbPolyline
 62
250
  6
CONTINUOUS
 90
16
 70
0
 10
-4.9798373698
 20
-26.0685959176
 10
-4.941396472
 20
-26.0859965673
 10
-4.8995832501
 20
-26.101530583
 10
-4.8548457125
 20
-26.1150315253
 10
-4.8076632002
 20
-26.126354738
 10
-4.7585412508
 20
-26.1353788985
 10
-4.7080061824
 20
-26.1420073173
 10
-4.6565994535
 20
-26.1461689741
 10
-4.6048718623
 20
-26.1478192789
 10
-4.553377645
 20
-26.1469405493
 10
-4.5026685369
 20
-26.1435422006
 10
-4.4532878617
 20
-26.1376606444
 10
-4.4057647091
 20
-26.1293588988
 10
-4.3606082669
 20
-26.1187259128
 10
-4.3183023642
 20
-26.1058756139
 10
-4.2793002884
 20
-26.0909456867
  0
LINE
  5
22D
100
AcDbEntity
  8
RACCORDO
100
AcDbLine
 62
250
  6
CONTINUOUS
 10
-4.9798373757
 20
-26.0685959202
 11
-19.7375419997
 21
-18.6897436082
  0
LINE
  5
22E
100
AcDbEntity
  8
RACCORDO
100
AcDbLine
 62
7
  6
CONTINUOUS
 10
-4.7179646283
 20
-26.6507522652
 11
-19.4813619396
 21
-19.2690534615
  0
LWPOLYLINE
  5
22F
100
AcDbEntity
  8
RACCORDO
100
AcDbPolyline
 62
250
  6
CONTINUOUS
 90
13
 70
0
 10
-19.4813619396
 20
-19.2690534615
 10
-19.4882578468
 20
-19.2655068341
 10
-19.5314465069
 20
-19.2387774133
 10
-19.5711900188
 20
-19.206017735
 10
-19.6072061518
 20
-19.1674646513
 10
-19.6392479454
 20
-19.1233861271
 10
-19.6671066387
 20
-19.0740714427
 10
-19.6905889498
 20
-19.0198484759
 10
-19.7095189276
 20
-18.9611040994
 10
-19.7237603139
 20
-18.8982665851
 10
-19.7332152338
 20
-18.8317834973
 10
-19.7378193566
 20
-18.762113546
 10
-19.7375419997
 20
-18.6897436082
  0
LWPOLYLINE
  5
230
100
AcDbEntity
  8
RACCORDO
100
AcDbPolyline
 62
250
  6
CONTINUOUS
 90
13
 70
0
 10
-4.7188997254
 20
-26.6502831886
 10
-4.7252889832
 20
-26.6469914767
 10
-4.7692905183
 20
-26.6198590978
 10
-4.809793703
 20
-26.586724498
 10
-4.8465191084
 20
-26.5478160899
 10
-4.879212689
 20
-26.5034038318
 10
-4.907643733
 20
-26.4537957803
 10
-4.931615633
 20
-26.3993324092
 10
-4.9509608793
 20
-26.3403937246
 10
-4.9655391604
 20
-26.2773984533
 10
-4.9752487844
 20
-26.2107888396
 10
-4.9800255847
 20
-26.1410259415
 10
-4.9798373757
 20
-26.0685959202
  0
LWPOLYLINE
  5
231
100
AcDbEntity
  8
RACCORDO
100
AcDbPolyline
 62
7
  6
CONTINUOUS
 90
3
 70
0
 10
-8.7831318894
 20
20.3851436145
 10
-9.0431985248
 20
20.2438234712
 10
-9.3947857954
 20
20.0378920315
  0
LINE
  5
232
100
AcDbEntity
  8
RACCORDO
100
AcDbLine
 62
7
  6
CONTINUOUS
 10
-8.7769554767
 20
20.3884184558
 11
-8.7831176815
 21
20.3851632469
  0
LINE
  5
233
100
AcDbEntity
  8
DRAFT
100
AcDbLine
 62
7
  6
CONTINUOUS
 10
-8.1518778475
 20
20.7184029002
 11
-8.7786196734
 21
20.3875399106
  0
LINE
  5
234
100
AcDbEntity
  8
RACCORDO
100
AcDbLine
 62
250
  6
CONTINUOUS
 10
-7.3584550103
 20
21.0956330097
 11
-7.9105404536
 21
20.8044732316
  0
LINE
  5
235
100
AcDbEntity
  8
RACCORDO
100
AcDbLine
 62
250
  6
CONTINUOUS
 10
-7.145394373
 20
21.0765778273
 11
-7.6921877204
 21
20.788204229
  0
LINE
  5
236
100
AcDbEntity
  8
RACCORDO
100
AcDbLine
 62
7
  6
CONTINUOUS
 10
-8.1524170143
 20
20.7180907757
 11
-7.8112821345
 21
20.8903034546
  0
LINE
  5
237
100
AcDbEntity
  8
ASSI
100
AcDbLine
 62
7
  6
CONTINUOUS
 10
-6.0323238289
 20
21.6353004717
 11
-6.4840033451
 21
21.4213029405
  0
LINE
  5
238
100
AcDbEntity
  8
ASSI
100
AcDbLine
 62
7
  6
CONTINUOUS
 10
-3.6510318795
 20
22.7639466364
 11
-6.0323238289
 21
21.6353004717
  0
LWPOLYLINE
  5
239
100
AcDbEntity
  8
0
100
AcDbPolyline
 62
7
  6
CONTINUOUS
 90
3
 70
0
 10
-3.6510318795
 20
22.7639466364
 10
-5.5301676718
 20
21.8732286789
 10
-6.4840033451
 20
21.4213029405
  0
LINE
  5
23A
100
AcDbEntity
  8
0
100
AcDbLine
 62
250
  6
CONTINUOUS
 10
-3.479294751
 20
22.8194280426
 11
-6.322157909
 21
21.4732727696
  0
LINE
  5
23B
100
AcDbEntity
  8
ASSI
100
AcDbLine
 62
250
  6
CONTINUOUS
 10
-3.479294751
 20
22.8194280426
 11
-6.322157909
 21
21.4732727696
  0
LINE
  5
23C
100
AcDbEntity
  8
ASSI
100
AcDbLine
 62
7
  6
CONTINUOUS
 10
-4.832231222
 20
22.2907143912
 11
-7.0163581211
 21
21.2582775986
  0
LINE
  5
23D
100
AcDbEntity
  8
0
100
AcDbLine
 62
7
  6
CONTINUOUS
 10
-4.832231222
 20
22.2907143912
 11
-7.3588164143
 21
21.0963975623
  0
LINE
  5
23E
100
AcDbEntity
  8
RACCORDO
100
AcDbLine
 62
7
  6
CONTINUOUS
 10
-2.7160169264
 20
23.2598436379
 11
-4.1251777004
 21
22.5943377479
  0
LINE
  5
23F
100
AcDbEntity
  8
RACCORDO
100
AcDbLine
 62
250
  6
CONTINUOUS
 10
-2.4963269666
 20
23.2437591175
 11
-3.355936256
 21
22.8377928743
  0
LINE
  5
240
100
AcDbEntity
  8
ASSI
100
AcDbLine
 62
250
  6
CONTINUOUS
 10
-2.4963269666
 20
23.2437591175
 11
-3.355936256
 21
22.8377928743
  0
LINE
  5
241
100
AcDbEntity
  8
0
100
AcDbLine
 62
7
  6
CONTINUOUS
 10
-4.1249484385
 20
22.5938523022
 11
-7.0050248857
 21
21.2343020637
  0
LINE
  5
242
100
AcDbEntity
  8
ASSI
100
AcDbLine
 62
7
  6
CONTINUOUS
 10
-4.1249484385
 20
22.5938523022
 11
-7.0050248857
 21
21.2343020637
  0
LINE
  5
243
100
AcDbEntity
  8
ASSI
100
AcDbLine
 62
7
  6
CONTINUOUS
 10
-2.7157340562
 20
23.2599769441
 11
-4.1251777004
 21
22.5943377479
  0
LINE
  5
244
100
AcDbEntity
  8
RACCORDO
100
AcDbLine
 62
7
  6
CONTINUOUS
 10
5.061819145
 20
26.6734116698
 11
-2.1856590623
 21
23.2573061459
  0
LINE
  5
245
100
AcDbEntity
  8
ASSI
100
AcDbLine
 62
7
  6
CONTINUOUS
 10
5.0618164687
 20
26.673415316
 11
-2.1856590675
 21
23.257306156
  0
LWPOLYLINE
  5
246
100
AcDbEntity
  8
RACCORDO
100
AcDbPolyline
 62
250
  6
CONTINUOUS
 90
3
 70
0
 10
-7.9105404536
 20
20.8044732316
 10
-8.403799373
 20
20.57760083
 10
-8.7769554767
 20
20.3884184558
  0
LWPOLYLINE
  5
247
100
AcDbEntity
  8
RACCORDO
100
AcDbPolyline
 62
250
  6
CONTINUOUS
 90
4
 70
0
 10
-7.9631963817
 20
20.5758393432
 10
-8.4537953676
 20
20.3501173086
 10
-8.934918436
 20
20.1031779417
 10
-9.2111980554
 20
19.9460981616
  0
LINE
  5
248
100
AcDbEntity
  8
RACCORDO
100
AcDbLine
 62
7
  6
CONTINUOUS
 10
-7.8112821345
 20
20.8903034546
 11
-7.3584550103
 21
21.0956330097
  0
LINE
  5
249
100
AcDbEntity
  8
RACCORDO
100
AcDbLine
 62
7
  6
CONTINUOUS
 10
-2.687679724
 20
23.2723919205
 11
-2.7161994008
 21
23.2597599703
  0
LINE
  5
24A
100
AcDbEntity
  8
ASSI
100
AcDbLine
 62
7
  6
CONTINUOUS
 10
5.0931143563
 20
26.686958458
 11
5.0598513734
 21
26.672474159
  0
LINE
  5
24B
100
AcDbEntity
  8
RACCORDO
100
AcDbLine
 62
250
  6
CONTINUOUS
 10
5.061819145
 20
26.6734116698
 11
5.075156974
 21
26.6791810767
  0
LWPOLYLINE
  5
24C
100
AcDbEntity
  8
RACCORDO
100
AcDbPolyline
 62
250
  6
CONTINUOUS
 90
9
 70
0
 10
-2.4008183917
 20
23.2412792873
 10
-2.3707045913
 20
23.2541096916
 10
-2.3408571143
 20
23.2636741358
 10
-2.3114931122
 20
23.2699031848
 10
-2.2828260707
 20
23.2727516943
 10
-2.2550646854
 20
23.2721990825
 10
-2.2284112946
 20
23.2682496467
 10
-2.2030598435
 20
23.2609325192
 10
-2.1833731297
 20
23.2524565412
  0
LWPOLYLINE
  5
24D
100
AcDbEntity
  8
ASSI
100
AcDbPolyline
 62
250
  6
CONTINUOUS
 90
9
 70
0
 10
-2.4008183917
 20
23.2412792873
 10
-2.3707045913
 20
23.2541096916
 10
-2.3408571143
 20
23.2636741358
 10
-2.3114931122
 20
23.2699031848
 10
-2.2828260707
 20
23.2727516943
 10
-2.2550646854
 20
23.2721990825
 10
-2.2284112946
 20
23.2682496467
 10
-2.2030598435
 20
23.2609325192
 10
-2.1833731297
 20
23.2524565412
  0
LINE
  5
24E
100
AcDbEntity
  8
0
100
AcDbLine
 62
7
  6
CONTINUOUS
 10
-7.0050248857
 20
21.2343020637
 11
-7.3037968105
 21
21.1095665278
  0
LINE
  5
24F
100
AcDbEntity
  8
ASSI
100
AcDbLine
 62
7
  6
CONTINUOUS
 10
-7.0050248857
 20
21.2343020637
 11
-7.3037968105
 21
21.1095665278
  0
LWPOLYLINE
  5
250
100
AcDbEntity
  8
RACCORDO
100
AcDbPolyline
 62
7
  6
CONTINUOUS
 90
7
 70
0
 10
-4.1249484385
 20
22.5938523022
 10
-4.2523237369
 20
22.5437376868
 10
-4.3789348953
 20
22.4920167136
 10
-4.5047819134
 20
22.4386893827
 10
-4.6298725207
 20
22.3837520735
 10
-4.7541989879
 20
22.3272084066
 10
-4.8322350632
 20
22.2907124986
  0
LWPOLYLINE
  5
251
100
AcDbEntity
  8
ASSI
100
AcDbPolyline
 62
7
  6
CONTINUOUS
 90
7
 70
0
 10
-4.1249484385
 20
22.5938523022
 10
-4.2523237369
 20
22.5437376868
 10
-4.3789348953
 20
22.4920167136
 10
-4.5047819134
 20
22.4386893827
 10
-4.6298725207
 20
22.3837520735
 10
-4.7541989879
 20
22.3272084066
 10
-4.8322350632
 20
22.2907124986
  0
LWPOLYLINE
  5
252
100
AcDbEntity
  8
ASSI
100
AcDbPolyline
 62
7
  6
CONTINUOUS
 90
3
 70
0
 10
-2.6525479458
 20
23.2856295559
 10
-2.7034146375
 20
23.2656355105
 10
-2.7157352869
 20
23.2599789779
  0
LWPOLYLINE
  5
253
100
AcDbEntity
  8
RACCORDO
100
AcDbPolyline
 62
7
  6
CONTINUOUS
 90
10
 70
0
 10
-7.3584550103
 20
21.0956330097
 10
-7.3374521436
 20
21.1031001796
 10
-7.315688898
 20
21.1081629518
 10
-7.2931652735
 20
21.1108213261
 10
-7.2697576107
 20
21.1110642433
 10
-7.2455895689
 20
21.1089027626
 10
-7.2210321265
 20
21.1043700628
 10
-7.1962089427
 20
21.0974772034
 10
-7.1709963582
 20
21.0882131249
 10
-7.145394373
 20
21.0765778273
  0
LWPOLYLINE
  5
254
100
AcDbEntity
  8
RACCORDO
100
AcDbPolyline
 62
7
  6
CONTINUOUS
 90
3
 70
0
 10
5.1359112391
 20
26.7018531046
 10
5.0866537915
 20
26.6843558655
 10
5.0611849954
 20
26.6731120273
  0
LINE
  5
255
100
AcDbEntity
  8
0
100
AcDbLine
 62
7
  6
CONTINUOUS
 10
-3.5939202987
 20
22.7827525372
 11
-3.6510318795
 21
22.7639466364
  0
LINE
  5
256
100
AcDbEntity
  8
ASSI
100
AcDbLine
 62
7
  6
CONTINUOUS
 10
-3.5939202987
 20
22.7827525372
 11
-3.6510318795
 21
22.7639466364
  0
LINE
  5
257
100
AcDbEntity
  8
0
100
AcDbLine
 62
7
  6
CONTINUOUS
 10
-6.4301910889
 20
21.4388966568
 11
-6.4840033451
 21
21.4213029405
  0
LINE
  5
258
100
AcDbEntity
  8
ASSI
100
AcDbLine
 62
7
  6
CONTINUOUS
 10
-6.4301910889
 20
21.4388966568
 11
-6.4840033451
 21
21.4213029405
  0
LWPOLYLINE
  5
259
100
AcDbEntity
  8
RACCORDO
100
AcDbPolyline
 62
250
  6
CONTINUOUS
 90
6
 70
0
 10
-3.8403513971
 20
21.9434878575
 10
-3.8242016968
 20
21.9487390908
 10
-3.8081635648
 20
21.9501996458
 10
-3.7912402959
 20
21.9484293243
 10
-3.7737200682
 20
21.9434645796
 10
-3.7559041584
 20
21.9353957979
  0
LINE
  5
25A
100
AcDbEntity
  8
0
100
AcDbLine
 62
7
  6
CONTINUOUS
 10
-3.5366745892
 20
22.8012463392
 11
-3.5939202987
 21
22.7827525372
  0
LINE
  5
25B
100
AcDbEntity
  8
ASSI
100
AcDbLine
 62
7
  6
CONTINUOUS
 10
-3.5366745892
 20
22.8012463392
 11
-3.5939202987
 21
22.7827525372
  0
LINE
  5
25C
100
AcDbEntity
  8
0
100
AcDbLine
 62
7
  6
CONTINUOUS
 10
-6.3762425553
 20
21.4562199506
 11
-6.4301910889
 21
21.4388966568
  0
LINE
  5
25D
100
AcDbEntity
  8
ASSI
100
AcDbLine
 62
7
  6
CONTINUOUS
 10
-6.3762425553
 20
21.4562199506
 11
-6.4301910889
 21
21.4388966568
  0
LINE
  5
25E
100
AcDbEntity
  8
0
100
AcDbLine
 62
7
  6
CONTINUOUS
 10
-3.479294751
 20
22.8194280426
 11
-3.5366745892
 21
22.8012463392
  0
LINE
  5
25F
100
AcDbEntity
  8
ASSI
100
AcDbLine
 62
7
  6
CONTINUOUS
 10
-3.479294751
 20
22.8194280426
 11
-3.5366745892
 21
22.8012463392
  0
LWPOLYLINE
  5
260
100
AcDbEntity
  8
RACCORDO
100
AcDbPolyline
 62
250
  6
CONTINUOUS
 90
8
 70
0
 10
5.075156974
 20
26.6791810767
 10
5.1071103674
 20
26.6892053198
 10
5.1407713923
 20
26.6947067512
 10
5.1758815419
 20
26.6956237295
 10
5.212161148
 20
26.6919660718
 10
5.2493216656
 20
26.6837636211
 10
5.2870714365
 20
26.6710484684
 10
5.3250939395
 20
26.6539232065
  0
LWPOLYLINE
  5
261
100
AcDbEntity
  8
ASSI
100
AcDbPolyline
 62
250
  6
CONTINUOUS
 90
8
 70
0
 10
5.075156974
 20
26.6791810767
 10
5.1071103674
 20
26.6892053198
 10
5.1407713923
 20
26.6947067512
 10
5.1758815419
 20
26.6956237295
 10
5.212161148
 20
26.6919660718
 10
5.2493216656
 20
26.6837636211
 10
5.2870714365
 20
26.6710484684
 10
5.3250939395
 20
26.6539232065
  0
LINE
  5
262
100
AcDbEntity
  8
0
100
AcDbLine
 62
7
  6
CONTINUOUS
 10
-6.3221577444
 20
21.4732728217
 11
-6.3762425553
 21
21.4562199506
  0
LINE
  5
263
100
AcDbEntity
  8
ASSI
100
AcDbLine
 62
7
  6
CONTINUOUS
 10
-6.3221577444
 20
21.4732728217
 11
-6.3762425553
 21
21.4562199506
  0
LINE
  5
264
100
AcDbEntity
  8
ASSI
100
AcDbLine
 62
7
  6
CONTINUOUS
 10
-2.6029854344
 20
23.3001176587
 11
-2.6525479458
 21
23.2856295559
  0
LWPOLYLINE
  5
265
100
AcDbEntity
  8
RACCORDO
100
AcDbPolyline
 62
250
  6
CONTINUOUS
 90
9
 70
0
 10
-19.8840150217
 20
-18.5144249831
 10
-19.8831588264
 20
-18.5328892859
 10
-19.8773372591
 20
-18.557341777
 10
-19.8662336537
 20
-18.5815326951
 10
-19.8499669799
 20
-18.6052028461
 10
-19.8287115274
 20
-18.6280986156
 10
-19.8026950379
 20
-18.6499746865
 10
-19.7721962656
 20
-18.6705966674
 10
-19.7375419898
 20
-18.6897436038
  0
LWPOLYLINE
  5
266
100
AcDbEntity
  8
RACCORDO
100
AcDbPolyline
 62
7
  6
CONTINUOUS
 90
7
 70
0
 10
-8.6349882716
 20
19.9624497254
 10
-8.6675237544
 20
19.939306841
 10
-8.7060270031
 20
19.9056018931
 10
-8.742057509
 20
19.8658638929
 10
-8.7740972378
 20
19.8207871633
 10
-8.8010468209
 20
19.771234046
 10
-8.8110595242
 20
19.7460288959
  0
LINE
  5
267
100
AcDbEntity
  8
DRAFT
100
AcDbLine
 62
7
  6
CONTINUOUS
 10
-8.2430609044
 20
20.2159450465
 11
-8.6350362581
 21
19.9624186971
  0
LINE
  5
268
100
AcDbEntity
  8
RACCORDO
100
AcDbLine
 62
250
  6
CONTINUOUS
 10
-8.6349900894
 20
19.9624485497
 11
-8.6350250018
 21
19.962425977
  0
LWPOLYLINE
  5
269
100
AcDbEntity
  8
0
100
AcDbPolyline
 62
7
  6
CONTINUOUS
 90
11
 70
0
 10
-6.6093035769
 20
21.0795270876
 10
-6.5864970572
 20
21.0929515772
 10
-6.5610667822
 20
21.1140521057
 10
-6.5384159973
 20
21.1400421244
 10
-6.5193023311
 20
21.1700523134
 10
-6.503845428
 20
21.2042186563
 10
-6.4919256435
 20
21.2424051694
 10
-6.4839416734
 20
21.2833345815
 10
-6.4800264162
 20
21.3265811355
 10
-6.4800469735
 20
21.3725705885
 10
-6.4840033451
 20
21.4213029405
  0
LWPOLYLINE
  5
26A
100
AcDbEntity
  8
ASSI
100
AcDbPolyline
 62
7
  6
CONTINUOUS
 90
11
 70
0
 10
-6.6093035769
 20
21.0795270876
 10
-6.5864970572
 20
21.0929515772
 10
-6.5610667822
 20
21.1140521057
 10
-6.5384159973
 20
21.1400421244
 10
-6.5193023311
 20
21.1700523134
 10
-6.503845428
 20
21.2042186563
 10
-6.4919256435
 20
21.2424051694
 10
-6.4839416734
 20
21.2833345815
 10
-6.4800264162
 20
21.3265811355
 10
-6.4800469735
 20
21.3725705885
 10
-6.4840033451
 20
21.4213029405
  0
LWPOLYLINE
  5
26B
100
AcDbEntity
  8
SMUSSO
100
AcDbPolyline
 62
7
  6
CONTINUOUS
 90
15
 70
0
 10
1.9000471399
 20
24.1212766892
 10
1.7947870941
 20
24.0658942644
 10
1.6965532846
 20
24.0076436482
 10
1.605636656
 20
23.9467421197
 10
1.5223525004
 20
23.8834630052
 10
1.4468754655
 20
23.8179901808
 10
1.3792895669
 20
23.7504031614
 10
1.319786626
 20
23.680886072
 10
1.2686132807
 20
23.6097178673
 10
1.2259419754
 20
23.5371169274
 10
1.1919203856
 20
23.4633322997
 10
1.166664116
 20
23.388611364
 10
1.1502600404
 20
23.3131754155
 10
1.1427710855
 20
23.2372480788
 10
1.1422646009
 20
23.2116589703
  0
LWPOLYLINE
  5
26C
100
AcDbEntity
  8
ASSI
100
AcDbPolyline
 62
7
  6
CONTINUOUS
 90
15
 70
0
 10
1.9000471399
 20
24.1212766892
 10
1.7947870941
 20
24.0658942644
 10
1.6965532846
 20
24.0076436482
 10
1.605636656
 20
23.9467421197
 10
1.5223525004
 20
23.8834630052
 10
1.4468754655
 20
23.8179901808
 10
1.3792895669
 20
23.7504031614
 10
1.319786626
 20
23.680886072
 10
1.2686132807
 20
23.6097178673
 10
1.2259419754
 20
23.5371169274
 10
1.1919203856
 20
23.4633322997
 10
1.166664116
 20
23.388611364
 10
1.1502600404
 20
23.3131754155
 10
1.1427710855
 20
23.2372480788
 10
1.1422646009
 20
23.2116589703
  0
LWPOLYLINE
  5
26D
100
AcDbEntity
  8
SMUSSO
100
AcDbPolyline
 62
7
  6
CONTINUOUS
 90
25
 70
0
 10
1.5464417565
 20
24.7312918324
 10
1.4207755404
 20
24.6653782605
 10
1.3040500683
 20
24.5965671118
 10
1.1962653403
 20
24.5248583865
 10
1.0971985743
 20
24.4500396011
 10
1.0070725524
 20
24.372323239
 10
0.9265556207
 20
24.2923467505
 10
0.8556591998
 20
24.2100461487
 10
0.7943718692
 20
24.1254854205
 10
0.7433277139
 20
24.0394939773
 10
0.7026261989
 20
23.9520603408
 10
0.6721678592
 20
23.8631959894
 10
0.6522883851
 20
23.7737647687
 10
0.6431061867
 20
23.683723534
 10
0.6445028539
 20
23.59311543
 10
0.6564588461
 20
23.5029337376
 10
0.6790893001
 20
23.4132223345
 10
0.7122790791
 20
23.3239373429
 10
0.7556632326
 20
23.2359404105
 10
0.8093246555
 20
23.1492507515
 10
0.873180453
 20
23.0638491517
 10
0.9466169893
 20
22.9805396158
 10
1.0297122267
 20
22.8993386545
 10
1.122388203
 20
22.8202297572
 10
1.2023686394
 20
22.7593103553
  0
LWPOLYLINE
  5
26E
100
AcDbEntity
  8
ASSI
100
AcDbPolyline
 62
7
  6
CONTINUOUS
 90
22
 70
0
 10
1.5464417565
 20
24.7312918324
 10
1.4207755404
 20
24.6653782605
 10
1.3040500683
 20
24.5965671118
 10
1.1962653403
 20
24.5248583865
 10
1.0971985743
 20
24.4500396011
 10
1.0070725524
 20
24.372323239
 10
0.9265556207
 20
24.2923467505
 10
0.8556591998
 20
24.2100461487
 10
0.7943718692
 20
24.1254854205
 10
0.7433277139
 20
24.0394939773
 10
0.7026261989
 20
23.9520603408
 10
0.6721678592
 20
23.8631959894
 10
0.6522883851
 20
23.7737647687
 10
0.6431061867
 20
23.683723534
 10
0.6445028539
 20
23.59311543
 10
0.6564588461
 20
23.5029337376
 10
0.6790893001
 20
23.4132223345
 10
0.7122790791
 20
23.3239373429
 10
0.7556632326
 20
23.2359404105
 10
0.8093246555
 20
23.1492507515
 10
0.873180453
 20
23.0638491517
 10
0.9466169893
 20
22.9805396158
  0
LINE
  5
26F
100
AcDbEntity
  8
0
100
AcDbLine
 62
7
  6
CONTINUOUS
 10
-2.9085697508
 20
22.6787544665
 11
-4.3675745422
 21
21.955077334
  0
LINE
  5
270
100
AcDbEntity
  8
ASSI
100
AcDbLine
 62
7
  6
CONTINUOUS
 10
-2.9085697508
 20
22.6787544665
 11
-4.3675745422
 21
21.955077334
  0
LINE
  5
271
100
AcDbEntity
  8
RACCORDO
100
AcDbLine
 62
7
  6
CONTINUOUS
 10
5.3737055884
 20
26.629642908
 11
1.5464417565
 21
24.7312918324
  0
LINE
  5
272
100
AcDbEntity
  8
ASSI
100
AcDbLine
 62
7
  6
CONTINUOUS
 10
5.3737055884
 20
26.629642908
 11
1.5464417565
 21
24.7312918324
  0
LINE
  5
273
100
AcDbEntity
  8
SMUSSO
100
AcDbLine
 62
7
  6
CONTINUOUS
 10
6.0686322584
 20
26.1889256392
 11
1.9000471399
 21
24.1212766892
  0
LINE
  5
274
100
AcDbEntity
  8
ASSI
100
AcDbLine
 62
7
  6
CONTINUOUS
 10
6.0686322584
 20
26.1889256392
 11
1.9000471399
 21
24.1212766892
  0
LINE
  5
275
100
AcDbEntity
  8
DRAFT
100
AcDbLine
 62
7
  6
CONTINUOUS
 10
-5.578535367
 20
20.3797508647
 11
-5.6662861974
 21
20.3370237395
  0
LINE
  5
276
100
AcDbEntity
  8
0
100
AcDbLine
 62
250
  6
CONTINUOUS
 10
-3.0880271409
 20
22.7684831615
 11
-5.9313504622
 21
21.4221838161
  0
LINE
  5
277
100
AcDbEntity
  8
ASSI
100
AcDbLine
 62
250
  6
CONTINUOUS
 10
-3.0880271409
 20
22.7684831615
 11
-5.9313504622
 21
21.4221838161
  0
LINE
  5
278
100
AcDbEntity
  8
RACCORDO
100
AcDbLine
 62
250
  6
CONTINUOUS
 10
5.325094302
 20
26.6539485512
 11
-2.0416760529
 21
23.1816080028
  0
LINE
  5
279
100
AcDbEntity
  8
ASSI
100
AcDbLine
 62
250
  6
CONTINUOUS
 10
5.325094302
 20
26.6539485512
 11
-2.0416760529
 21
23.1816080028
  0
LINE
  5
27A
100
AcDbEntity
  8
RACCORDO
100
AcDbLine
 62
7
  6
CONTINUOUS
 10
-4.101174346
 20
21.8218772359
 11
-3.840420349
 21
21.9434557538
  0
LINE
  5
27B
100
AcDbEntity
  8
RACCORDO
100
AcDbLine
 62
250
  6
CONTINUOUS
 10
-4.0520505201
 20
21.7973153229
 11
-3.7559041584
 21
21.9353957979
  0
LINE
  5
27C
100
AcDbEntity
  8
RACCORDO
100
AcDbLine
 62
250
  6
CONTINUOUS
 10
-3.8404195874
 20
21.9434561089
 11
-3.8403513971
 21
21.9434878575
  0
LINE
  5
27D
100
AcDbEntity
  8
DRAFT
100
AcDbLine
 62
7
  6
CONTINUOUS
 10
1.9000471399
 20
23.0186790144
 11
6.0686322584
 21
24.904708333
  0
LINE
  5
27E
100
AcDbEntity
  8
ASSI
100
AcDbLine
 62
7
  6
CONTINUOUS
 10
1.9000471399
 20
23.0186790144
 11
6.0686322584
 21
24.904708333
  0
LINE
  5
27F
100
AcDbEntity
  8
0
100
AcDbLine
 62
7
  6
CONTINUOUS
 10
-2.9085697508
 20
21.7257368018
 11
-3.0870435801
 21
21.6513672257
  0
LINE
  5
280
100
AcDbEntity
  8
ASSI
100
AcDbLine
 62
7
  6
CONTINUOUS
 10
-2.9085697508
 20
21.7257368018
 11
-3.0870435801
 21
21.6513672257
  0
LINE
  5
281
100
AcDbEntity
  8
RACCORDO
100
AcDbLine
 62
7
  6
CONTINUOUS
 10
-3.8227890875
 20
21.9506752159
 11
-3.8403513971
 21
21.9434878575
  0
LINE
  5
282
100
AcDbEntity
  8
0
100
AcDbLine
 62
7
  6
CONTINUOUS
 10
-1.1036613868
 20
22.230856211
 11
-1.5650668665
 21
22.073006968
  0
LINE
  5
283
100
AcDbEntity
  8
ASSI
100
AcDbLine
 62
7
  6
CONTINUOUS
 10
-1.1036613868
 20
22.230856211
 11
-1.5650668665
 21
22.073006968
  0
LWPOLYLINE
  5
284
100
AcDbEntity
  8
RACCORDO
100
AcDbPolyline
 62
7
  6
CONTINUOUS
 90
15
 70
0
 10
-19.8840064332
 20
-18.5144252968
 10
-19.8847261502
 20
-18.5475991761
 10
-19.8819945733
 20
-18.6283361379
 10
-19.8730032369
 20
-18.7060954616
 10
-19.8579469516
 20
-18.7807516161
 10
-19.836984598
 20
-18.8520757799
 10
-19.8103669208
 20
-18.9196912672
 10
-19.7783097817
 20
-18.9833696863
 10
-19.7410036955
 20
-19.0428691455
 10
-19.6988337087
 20
-19.0977183219
 10
-19.6521867147
 20
-19.1476125692
 10
-19.6013335908
 20
-19.192378711
 10
-19.5467961054
 20
-19.2316331113
 10
-19.4891270253
 20
-19.265091711
 10
-19.4814476988
 20
-19.2689966955
  0
LWPOLYLINE
  5
285
100
AcDbEntity
  8
RACCORDO
100
AcDbPolyline
 62
250
  6
CONTINUOUS
 90
10
 70
0
 10
-19.7375419997
 20
-18.6897436082
 10
-19.5711678722
 20
-14.6130282734
 10
-19.3751850862
 20
-10.5230118162
 10
-19.1496102383
 20
-6.4200434405
 10
-18.8944624985
 20
-2.3044734757
 10
-18.6097636013
 20
1.8233467799
 10
-18.2955378405
 20
5.9630650901
 10
-17.9518120792
 20
10.1143281419
 10
-17.5786157506
 20
14.2767815741
 10
-17.175980845
 20
18.4500701351
  0
LWPOLYLINE
  5
286
100
AcDbEntity
  8
RACCORDO
100
AcDbPolyline
 62
7
  6
CONTINUOUS
 90
10
 70
0
 10
-17.3228826789
 20
18.6194358856
 10
-17.7162189605
 20
14.5459065141
 10
-18.0926219635
 20
10.3541085863
 10
-18.4391405514
 20
6.1736145194
 10
-18.7557385442
 20
2.0048345891
 10
-19.0423907664
 20
-2.1518909367
 10
-19.2990750989
 20
-6.2962484531
 10
-19.5257688552
 20
-10.4278991607
 10
-19.7224510576
 20
-14.5464394205
 10
-19.8840150217
 20
-18.5144249831
  0
LWPOLYLINE
  5
287
100
AcDbEntity
  8
RACCORDO
100
AcDbPolyline
 62
250
  6
CONTINUOUS
 90
16
 70
0
 10
-17.175980845
 20
18.4500701351
 10
-17.1660072042
 20
18.5263283657
 10
-17.1512578044
 20
18.6037537511
 10
-17.131834068
 20
18.6818075172
 10
-17.1078687555
 20
18.7599562155
 10
-17.0795288412
 20
18.8376455475
 10
-17.0470194664
 20
18.9143050564
 10
-17.0105811529
 20
18.9893854097
 10
-16.9704645174
 20
19.0623831937
 10
-16.9269317803
 20
19.132812585
 10
-16.8802815621
 20
19.2001925365
 10
-16.8308454837
 20
19.2640437966
 10
-16.7789651796
 20
19.3239132461
 10
-16.7250054612
 20
19.3793846748
 10
-16.6693448021
 20
19.4300723072
 10
-16.6123681667
 20
19.475616158
  0
LINE
  5
288
100
AcDbEntity
  8
0
100
AcDbLine
 62
7
  6
CONTINUOUS
 10
2.7907109056
 20
22.4823172709
 11
2.3307414414
 21
22.2523325388
  0
LINE
  5
289
100
AcDbEntity
  8
RACCORDO
100
AcDbLine
 62
7
  6
CONTINUOUS
 10
4.1872884299
 20
22.0563062509
 11
5.2036545271
 21
22.5644892995
  0
LINE
  5
28A
100
AcDbEntity
  8
DRAFT
100
AcDbLine
 62
7
  6
CONTINUOUS
 10
3.0329712877
 20
22.6688801054
 11
2.9504760202
 21
22.6307810571
  0
LINE
  5
28B
100
AcDbEntity
  8
ASSI
100
AcDbLine
 62
7
  6
CONTINUOUS
 10
3.0329712877
 20
22.6688801054
 11
2.9504760202
 21
22.6307810571
  0
LINE
  5
28C
100
AcDbEntity
  8
RACCORDO
100
AcDbLine
 62
7
  6
CONTINUOUS
 10
10.0346990606
 20
24.2991461719
 11
6.0714513439
 21
22.4687870388
  0
LINE
  5
28D
100
AcDbEntity
  8
ASSI
100
AcDbLine
 62
7
  6
CONTINUOUS
 10
10.0346990606
 20
24.2991461719
 11
6.0714513439
 21
22.4687870388
  0
LINE
  5
28E
100
AcDbEntity
  8
0
100
AcDbLine
 62
7
  6
CONTINUOUS
 10
1.8997563613
 20
20.2745914105
 11
0.3889126718
 21
19.576833727
  0
LINE
  5
28F
100
AcDbEntity
  8
ASSI
100
AcDbLine
 62
7
  6
CONTINUOUS
 10
1.8997563613
 20
20.2745914105
 11
0.3889126718
 21
19.576833727
  0
LWPOLYLINE
  5
290
100
AcDbEntity
  8
RACCORDO
100
AcDbPolyline
 62
250
  6
CONTINUOUS
 90
9
 70
0
 10
0.5086131379
 20
19.8031371498
 10
0.5209388212
 20
19.8086408938
 10
0.5331706987
 20
19.8127845558
 10
0.5452156782
 20
19.8155366
 10
0.5569820904
 20
19.8168760816
 10
0.5683803856
 20
19.8167928063
 10
0.579323816
 20
19.8152874081
 10
0.5897290954
 20
19.8123713438
 10
0.5979589972
 20
19.8088658497
  0
LINE
  5
291
100
AcDbEntity
  8
ASSI
100
AcDbLine
 62
250
  6
CONTINUOUS
 10
10.2218157218
 20
24.2390925711
 11
10.1851935
 21
24.2238989522
  0
LINE
  5
292
100
AcDbEntity
  8
RACCORDO
100
AcDbLine
 62
250
  6
CONTINUOUS
 10
0.9395515363
 20
-19.075978251
 11
0.9069115543
 21
-19.0641806908
  0
LWPOLYLINE
  5
293
100
AcDbEntity
  8
RACCORDO
100
AcDbPolyline
 62
250
  6
CONTINUOUS
 90
9
 70
0
 10
-17.3228852996
 20
18.6193259395
 10
-17.3222621771
 20
18.5971582433
 10
-17.3162710774
 20
18.5751551924
 10
-17.3050201282
 20
18.5530941987
 10
-17.2886298756
 20
18.5312116303
 10
-17.2672759297
 20
18.5097419433
 10
-17.2411870831
 20
18.4889151702
 10
-17.2106428594
 20
18.4689544553
 10
-17.1759705186
 20
18.4500736635
  0
LWPOLYLINE
  5
294
100
AcDbEntity
  8
RACCORDO
100
AcDbPolyline
 62
250
  6
CONTINUOUS
 90
10
 70
0
 10
2.2287900272
 20
22.2818534074
 10
2.2665265338
 20
22.3072095046
 10
2.3383942638
 20
22.350741286
 10
2.4143442618
 20
22.3922957828
 10
2.4943979377
 20
22.4318503084
 10
2.5785338816
 20
22.4694275494
 10
2.6661126202
 20
22.5047467172
 10
2.7571568204
 20
22.5377907778
 10
2.8516438154
 20
22.5685767652
 10
2.9488661312
 20
22.5968749918
  0
LINE
  5
295
100
AcDbEntity
  8
DRAFT
100
AcDbLine
 62
7
  6
CONTINUOUS
 10
-0.9175524684
 20
18.0492594154
 11
-0.9993814416
 21
18.0035713616
  0
LINE
  5
296
100
AcDbEntity
  8
RACCORDO
100
AcDbLine
 62
250
  6
CONTINUOUS
 10
0.5086131379
 20
19.8031371498
 11
0.2324521879
 21
19.6550639689
  0
LWPOLYLINE
  5
297
100
AcDbEntity
  8
0
100
AcDbPolyline
 62
7
  6
CONTINUOUS
 90
10
 70
0
 10
3.116135049
 20
18.9733105584
 10
2.8117711565
 20
18.8178134822
 10
2.506363457
 20
18.6619979124
 10
2.199910962
 20
18.5058602222
 10
1.8924072744
 20
18.3493954176
 10
1.5838571606
 20
18.1926010132
 10
1.2742762949
 20
18.0354778394
 10
0.9636692626
 20
17.878024497
 10
0.6520298114
 20
17.7202365571
 10
0.3393572467
 20
17.5621109975
  0
LWPOLYLINE
  5
298
100
AcDbEntity
  8
ASSI
100
AcDbPolyline
 62
7
  6
CONTINUOUS
 90
10
 70
0
 10
3.116135049
 20
18.9733105584
 10
2.8117711565
 20
18.8178134822
 10
2.506363457
 20
18.6619979124
 10
2.199910962
 20
18.5058602222
 10
1.8924072744
 20
18.3493954176
 10
1.5838571606
 20
18.1926010132
 10
1.2742762949
 20
18.0354778394
 10
0.9636692626
 20
17.878024497
 10
0.6520298114
 20
17.7202365571
 10
0.3393572467
 20
17.5621109975
  0
LINE
  5
299
100
AcDbEntity
  8
RACCORDO
100
AcDbLine
 62
250
  6
CONTINUOUS
 10
10.1851935
 20
24.2238989522
 11
3.1051228901
 21
20.7121317348
  0
LINE
  5
29A
100
AcDbEntity
  8
ASSI
100
AcDbLine
 62
250
  6
CONTINUOUS
 10
10.1851935
 20
24.2238989522
 11
3.1051228901
 21
20.7121317348
  0
LINE
  5
29B
100
AcDbEntity
  8
RACCORDO
100
AcDbLine
 62
250
  6
CONTINUOUS
 10
10.5386930427
 20
23.6142024289
 11
3.8933047094
 21
20.3180408251
  0
LINE
  5
29C
100
AcDbEntity
  8
ASSI
100
AcDbLine
 62
250
  6
CONTINUOUS
 10
10.5386930427
 20
23.6142024289
 11
3.8933047094
 21
20.3180408251
  0
LINE
  5
29D
100
AcDbEntity
  8
RACCORDO
100
AcDbLine
 62
250
  6
CONTINUOUS
 10
10.5386930427
 20
23.1771974484
 11
4.2584262506
 21
20.0621388209
  0
LINE
  5
29E
100
AcDbEntity
  8
ASSI
100
AcDbLine
 62
250
  6
CONTINUOUS
 10
10.5386930427
 20
23.1771974484
 11
4.2584262506
 21
20.0621388209
  0
LINE
  5
29F
100
AcDbEntity
  8
RACCORDO
100
AcDbLine
 62
250
  6
CONTINUOUS
 10
10.6800928597
 20
22.9333188391
 11
4.5429944166
 21
19.8892727681
  0
LINE
  5
2A0
100
AcDbEntity
  8
ASSI
100
AcDbLine
 62
250
  6
CONTINUOUS
 10
10.6800928597
 20
22.9333188391
 11
4.5429944166
 21
19.8892727681
  0
LINE
  5
2A1
100
AcDbEntity
  8
0
100
AcDbLine
 62
250
  6
CONTINUOUS
 10
-0.7343171768
 20
18.8236671734
 11
2.0792137514
 21
20.1848627154
  0
LINE
  5
2A2
100
AcDbEntity
  8
ASSI
100
AcDbLine
 62
250
  6
CONTINUOUS
 10
-0.7343171768
 20
18.8236671734
 11
2.0792137514
 21
20.1848627154
  0
LINE
  5
2A3
100
AcDbEntity
  8
0
100
AcDbLine
 62
250
  6
CONTINUOUS
 10
-0.3435097299
 20
18.48394868
 11
2.4704813615
 21
19.8445399863
  0
LINE
  5
2A4
100
AcDbEntity
  8
ASSI
100
AcDbLine
 62
250
  6
CONTINUOUS
 10
-0.3435097299
 20
18.48394868
 11
2.4704813615
 21
19.8445399863
  0
LWPOLYLINE
  5
2A5
100
AcDbEntity
  8
0
100
AcDbPolyline
 62
7
  6
CONTINUOUS
 90
5
 70
0
 10
1.0818121678
 20
18.8748359722
 10
0.7672058821
 20
18.7245419019
 10
0.4517606227
 20
18.5736632844
 10
0.1354713474
 20
18.4221940462
 10
-0.1816642939
 20
18.2701334148
  0
LWPOLYLINE
  5
2A6
100
AcDbEntity
  8
ASSI
100
AcDbPolyline
 62
7
  6
CONTINUOUS
 90
5
 70
0
 10
1.0818121678
 20
18.8748359722
 10
0.7672058821
 20
18.7245419019
 10
0.4517606227
 20
18.5736632844
 10
0.1354713474
 20
18.4221940462
 10
-0.1816642939
 20
18.2701334148
  0
LINE
  5
2A7
100
AcDbEntity
  8
0
100
AcDbLine
 62
7
  6
CONTINUOUS
 10
1.5311157712
 20
19.0891222859
 11
1.0818121678
 21
18.8748359722
  0
LINE
  5
2A8
100
AcDbEntity
  8
ASSI
100
AcDbLine
 62
7
  6
CONTINUOUS
 10
1.5311157712
 20
19.0891222859
 11
1.0818121678
 21
18.8748359722
  0
LWPOLYLINE
  5
2A9
100
AcDbEntity
  8
0
100
AcDbPolyline
 62
7
  6
CONTINUOUS
 90
5
 70
0
 10
2.64221849
 20
19.6173214516
 10
2.3318164971
 20
19.4700296223
 10
2.0205782423
 20
19.3221372642
 10
1.7085008985
 20
19.1736432483
 10
1.5311157712
 20
19.0891222859
  0
LWPOLYLINE
  5
2AA
100
AcDbEntity
  8
ASSI
100
AcDbPolyline
 62
7
  6
CONTINUOUS
 90
5
 70
0
 10
2.64221849
 20
19.6173214516
 10
2.3318164971
 20
19.4700296223
 10
2.0205782423
 20
19.3221372642
 10
1.7085008985
 20
19.1736432483
 10
1.5311157712
 20
19.0891222859
  0
LWPOLYLINE
  5
2AB
100
AcDbEntity
  8
ASSI
100
AcDbPolyline
 62
7
  6
CONTINUOUS
 90
14
 70
0
 10
13.6170522071
 20
20.7047372285
 10
13.7754916322
 20
20.7582873373
 10
13.9495272173
 20
20.7909054739
 10
14.1341947301
 20
20.7992964389
 10
14.3263397957
 20
20.7821452138
 10
14.5230473071
 20
20.739106103
 10
14.7233239014
 20
20.6698772878
 10
14.9249596466
 20
20.5746265673
 10
15.1233564732
 20
20.4555120296
 10
15.3162508421
 20
20.3144729996
 10
15.5028277542
 20
20.1525722688
 10
15.6806770674
 20
19.9723039476
 10
15.848039492
 20
19.7760304617
 10
16.0038639219
 20
19.5654923882
  0
LWPOLYLINE
  5
2AC
100
AcDbEntity
  8
RACCORDO
100
AcDbPolyline
 62
250
  6
CONTINUOUS
 90
4
 70
0
 10
0.9069115543
 20
-19.0641806908
 10
0.8747522263
 20
-19.0513442347
 10
0.8430927605
 20
-19.0373530194
 10
0.8190151741
 20
-19.0256494523
  0
LWPOLYLINE
  5
2AD
100
AcDbEntity
  8
RACCORDO
100
AcDbPolyline
 62
250
  6
CONTINUOUS
 90
13
 70
0
 10
3.2648889325
 20
-18.5667628966
 10
3.2843154781
 20
-18.5750825056
 10
3.3057660249
 20
-18.5817350656
 10
3.3288815878
 20
-18.5866092427
 10
3.3532753163
 20
-18.5896234653
 10
3.3785389696
 20
-18.5907272889
 10
3.404249748
 20
-18.5899022403
 10
3.4299773692
 20
-18.5871621273
 10
3.4552912688
 20
-18.5825528069
 10
3.4797678064
 20
-18.5761514185
 10
3.5029973551
 20
-18.5680650926
 10
3.5245911571
 20
-18.5584291576
 10
3.5441878295
 20
-18.5474048757
  0
LINE
  5
2AE
100
AcDbEntity
  8
0
100
AcDbLine
 62
7
  6
CONTINUOUS
 10
3.134693663
 20
20.1116786861
 11
2.8189951769
 21
19.8809759463
  0
LINE
  5
2AF
100
AcDbEntity
  8
ASSI
100
AcDbLine
 62
7
  6
CONTINUOUS
 10
3.134693663
 20
20.1116786861
 11
2.8189951769
 21
19.8809759463
  0
LWPOLYLINE
  5
2B0
100
AcDbEntity
  8
RACCORDO
100
AcDbPolyline
 62
7
  6
CONTINUOUS
 90
7
 70
0
 10
-0.8568136785
 20
16.0733624289
 10
-0.8893491613
 20
16.0502195445
 10
-0.92785241
 20
16.0165145966
 10
-0.963882916
 20
15.9767765964
 10
-0.9959226447
 20
15.9316998668
 10
-1.0228722279
 20
15.8821467495
 10
-1.0328849311
 20
15.8569415994
  0
LINE
  5
2B1
100
AcDbEntity
  8
RACCORDO
100
AcDbLine
 62
7
  6
CONTINUOUS
 10
4.1811087745
 20
19.9503157042
 11
2.9161543631
 21
19.059208646
  0
LINE
  5
2B2
100
AcDbEntity
  8
ASSI
100
AcDbLine
 62
7
  6
CONTINUOUS
 10
4.1811087745
 20
19.9503157042
 11
2.9161543631
 21
19.059208646
  0
LINE
  5
2B3
100
AcDbEntity
  8
DRAFT
100
AcDbLine
 62
7
  6
CONTINUOUS
 10
-0.4648863113
 20
16.32685775
 11
-0.856861665
 21
16.0733314006
  0
LINE
  5
2B4
100
AcDbEntity
  8
RACCORDO
100
AcDbLine
 62
250
  6
CONTINUOUS
 10
-0.8568154964
 20
16.0733612531
 11
-0.8568504088
 21
16.0733386805
  0
LWPOLYLINE
  5
2B5
100
AcDbEntity
  8
SMUSSO
100
AcDbPolyline
 62
7
  6
CONTINUOUS
 90
15
 70
0
 10
8.9377950215
 20
19.5266646985
 10
8.8325349756
 20
19.4712822736
 10
8.7343011661
 20
19.4130316574
 10
8.6433845375
 20
19.3521301289
 10
8.5601003819
 20
19.2888510145
 10
8.4846233471
 20
19.2233781901
 10
8.4170374484
 20
19.1557911707
 10
8.3575345076
 20
19.0862740812
 10
8.3063611623
 20
19.0151058765
 10
8.2636898569
 20
18.9425049367
 10
8.2296682671
 20
18.8687203089
 10
8.2044119975
 20
18.7939993732
 10
8.1880079219
 20
18.7185634247
 10
8.180518967
 20
18.6426360881
 10
8.1800124824
 20
18.6170469795
  0
LWPOLYLINE
  5
2B6
100
AcDbEntity
  8
ASSI
100
AcDbPolyline
 62
7
  6
CONTINUOUS
 90
15
 70
0
 10
8.9377950215
 20
19.5266646985
 10
8.8325349756
 20
19.4712822736
 10
8.7343011661
 20
19.4130316574
 10
8.6433845375
 20
19.3521301289
 10
8.5601003819
 20
19.2888510145
 10
8.4846233471
 20
19.2233781901
 10
8.4170374484
 20
19.1557911707
 10
8.3575345076
 20
19.0862740812
 10
8.3063611623
 20
19.0151058765
 10
8.2636898569
 20
18.9425049367
 10
8.2296682671
 20
18.8687203089
 10
8.2044119975
 20
18.7939993732
 10
8.1880079219
 20
18.7185634247
 10
8.180518967
 20
18.6426360881
 10
8.1800124824
 20
18.6170469795
  0
LWPOLYLINE
  5
2B7
100
AcDbEntity
  8
SMUSSO
100
AcDbPolyline
 62
7
  6
CONTINUOUS
 90
25
 70
0
 10
8.5841896381
 20
20.1366798416
 10
8.4585234219
 20
20.0707662697
 10
8.3417979498
 20
20.0019551211
 10
8.2340132218
 20
19.9302463957
 10
8.1349464558
 20
19.8554276103
 10
8.0448204339
 20
19.7777112482
 10
7.9643035023
 20
19.6977347597
 10
7.8934070813
 20
19.6154341579
 10
7.8321197507
 20
19.5308734297
 10
7.7810755954
 20
19.4448819865
 10
7.7403740804
 20
19.35744835
 10
7.7099157407
 20
19.2685839986
 10
7.6900362666
 20
19.1791527779
 10
7.6808540683
 20
19.0891115432
 10
7.6822507354
 20
18.9985034392
 10
7.6942067277
 20
18.9083217468
 10
7.7168371816
 20
18.8186103437
 10
7.7500269606
 20
18.7293253522
 10
7.7934111141
 20
18.6413284197
 10
7.8470725371
 20
18.5546387608
 10
7.9109283345
 20
18.4692371609
 10
7.9843648708
 20
18.385927625
 10
8.0674601083
 20
18.3047266637
 10
8.1601360846
 20
18.2256177664
 10
8.240116521
 20
18.1646983646
  0
LWPOLYLINE
  5
2B8
100
AcDbEntity
  8
ASSI
100
AcDbPolyline
 62
7
  6
CONTINUOUS
 90
22
 70
0
 10
8.5841896381
 20
20.1366798416
 10
8.4585234219
 20
20.0707662697
 10
8.3417979498
 20
20.0019551211
 10
8.2340132218
 20
19.9302463957
 10
8.1349464558
 20
19.8554276103
 10
8.0448204339
 20
19.7777112482
 10
7.9643035023
 20
19.6977347597
 10
7.8934070813
 20
19.6154341579
 10
7.8321197507
 20
19.5308734297
 10
7.7810755954
 20
19.4448819865
 10
7.7403740804
 20
19.35744835
 10
7.7099157407
 20
19.2685839986
 10
7.6900362666
 20
19.1791527779
 10
7.6808540683
 20
19.0891115432
 10
7.6822507354
 20
18.9985034392
 10
7.6942067277
 20
18.9083217468
 10
7.7168371816
 20
18.8186103437
 10
7.7500269606
 20
18.7293253522
 10
7.7934111141
 20
18.6413284197
 10
7.8470725371
 20
18.5546387608
 10
7.9109283345
 20
18.4692371609
 10
7.9843648708
 20
18.385927625
  0
LINE
  5
2B9
100
AcDbEntity
  8
RACCORDO
100
AcDbLine
 62
250
  6
CONTINUOUS
 10
0.1284418504
 20
16.7842511026
 11
0.6869880311
 21
17.0722231672
  0
LINE
  5
2BA
100
AcDbEntity
  8
RACCORDO
100
AcDbLine
 62
250
  6
CONTINUOUS
 10
-0.0800595809
 20
16.9821401592
 11
0.4731853646
 21
17.2672879585
  0
LINE
  5
2BB
100
AcDbEntity
  8
RACCORDO
100
AcDbLine
 62
7
  6
CONTINUOUS
 10
12.4441917987
 20
22.0512693696
 11
8.5841896381
 21
20.1366798416
  0
LINE
  5
2BC
100
AcDbEntity
  8
ASSI
100
AcDbLine
 62
7
  6
CONTINUOUS
 10
12.4441917987
 20
22.0512693696
 11
8.5841896381
 21
20.1366798416
  0
LINE
  5
2BD
100
AcDbEntity
  8
SMUSSO
100
AcDbLine
 62
7
  6
CONTINUOUS
 10
13.1391184687
 20
21.6105521009
 11
8.9377950215
 21
19.5266646985
  0
LINE
  5
2BE
100
AcDbEntity
  8
ASSI
100
AcDbLine
 62
7
  6
CONTINUOUS
 10
13.1391184687
 20
21.6105521009
 11
8.9377950215
 21
19.5266646985
  0
LINE
  5
2BF
100
AcDbEntity
  8
RACCORDO
100
AcDbLine
 62
250
  6
CONTINUOUS
 10
4.4051524955
 20
17.2264837045
 11
7.0106233259
 21
18.4902839785
  0
LINE
  5
2C0
100
AcDbEntity
  8
ASSI
100
AcDbLine
 62
250
  6
CONTINUOUS
 10
4.4051524955
 20
17.2264837045
 11
7.0106233259
 21
18.4902839785
  0
LINE
  5
2C1
100
AcDbEntity
  8
RACCORDO
100
AcDbLine
 62
250
  6
CONTINUOUS
 10
4.6371083319
 20
17.0042664879
 11
7.242814675
 21
18.2676974832
  0
LINE
  5
2C2
100
AcDbEntity
  8
ASSI
100
AcDbLine
 62
250
  6
CONTINUOUS
 10
4.6371083319
 20
17.0042664879
 11
7.242814675
 21
18.2676974832
  0
LINE
  5
2C3
100
AcDbEntity
  8
DRAFT
100
AcDbLine
 62
7
  6
CONTINUOUS
 10
8.9377950215
 20
18.7758034986
 11
13.1391184687
 21
20.6766449048
  0
LINE
  5
2C4
100
AcDbEntity
  8
ASSI
100
AcDbLine
 62
7
  6
CONTINUOUS
 10
8.9377950215
 20
18.7758034986
 11
13.1391184687
 21
20.6766449048
  0
LWPOLYLINE
  5
2C5
100
AcDbEntity
  8
RACCORDO
100
AcDbPolyline
 62
250
  6
CONTINUOUS
 90
6
 70
0
 10
7.0076416894
 20
18.5370492467
 10
7.0377457808
 20
18.5498821193
 10
7.0675859284
 20
18.5594489088
 10
7.096945006
 20
18.5656800045
 10
7.1256093883
 20
18.5685300664
 10
7.1533705038
 20
18.5679783578
  0
LWPOLYLINE
  5
2C6
100
AcDbEntity
  8
ASSI
100
AcDbPolyline
 62
250
  6
CONTINUOUS
 90
9
 70
0
 10
7.0076416894
 20
18.5370492467
 10
7.0377457808
 20
18.5498821193
 10
7.0675859284
 20
18.5594489088
 10
7.096945006
 20
18.5656800045
 10
7.1256093883
 20
18.5685300664
 10
7.1533705038
 20
18.5679783578
 10
7.1800263517
 20
18.5640288949
 10
7.2053829747
 20
18.5567104152
 10
7.2250781371
 20
18.5482309078
  0
LINE
  5
2C7
100
AcDbEntity
  8
DRAFT
100
AcDbLine
 62
7
  6
CONTINUOUS
 10
13.3266833887
 20
20.5828624449
 11
13.6153478602
 21
20.7040237105
  0
LINE
  5
2C8
100
AcDbEntity
  8
ASSI
100
AcDbLine
 62
7
  6
CONTINUOUS
 10
13.3266833887
 20
20.5828624449
 11
13.6153478602
 21
20.7040237105
  0
LINE
  5
2C9
100
AcDbEntity
  8
ASSI
100
AcDbLine
 62
250
  6
CONTINUOUS
 10
13.6135541281
 20
20.703268776
 11
13.6170523008
 21
20.7047372679
  0
LWPOLYLINE
  5
2CA
100
AcDbEntity
  8
RACCORDO
100
AcDbPolyline
 62
250
  6
CONTINUOUS
 90
5
 70
0
 10
4.4051524955
 20
17.2264837045
 10
4.3891174648
 20
17.2199287031
 10
4.3733216315
 20
17.2157131458
 10
4.3579691946
 20
17.2138915294
 10
4.3478119041
 20
17.2143029655
  0
LWPOLYLINE
  5
2CB
100
AcDbEntity
  8
ASSI
100
AcDbPolyline
 62
250
  6
CONTINUOUS
 90
5
 70
0
 10
4.4051524955
 20
17.2264837045
 10
4.3891174648
 20
17.2199287031
 10
4.3733216315
 20
17.2157131458
 10
4.3579691946
 20
17.2138915294
 10
4.3478119041
 20
17.2143029655
  0
LWPOLYLINE
  5
2CC
100
AcDbEntity
  8
RACCORDO
100
AcDbPolyline
 62
250
  6
CONTINUOUS
 90
3
 70
0
 10
13.6145290666
 20
20.7036796109
 10
13.6366465015
 20
20.7126775692
 10
13.7076395503
 20
20.7375696424
  0
LINE
  5
2CD
100
AcDbEntity
  8
ASSI
100
AcDbLine
 62
250
  6
CONTINUOUS
 10
13.6170523008
 20
20.7047372679
 11
13.6366465015
 21
20.7126775692
  0
LWPOLYLINE
  5
2CE
100
AcDbEntity
  8
RACCORDO
100
AcDbPolyline
 62
7
  6
CONTINUOUS
 90
20
 70
0
 10
13.6145289735
 20
20.7036795718
 10
13.692218259
 20
20.7332129484
 10
13.8184788039
 20
20.7687430384
 10
13.9500223013
 20
20.7909626723
 10
14.0868580659
 20
20.7995571722
 10
14.2288567036
 20
20.7940141339
 10
14.3747636845
 20
20.7738892877
 10
14.5230473071
 20
20.739106103
 10
14.6732088767
 20
20.6895744428
 10
14.824392589
 20
20.625344742
 10
14.9745563721
 20
20.5472414504
 10
15.1228395752
 20
20.4558558939
 10
15.2687700185
 20
20.3515856991
 10
15.4108862686
 20
20.2356359652
 10
15.5483100241
 20
20.1090107546
 10
15.6806799259
 20
19.9723008279
 10
15.8073061263
 20
19.8264224892
 10
15.9275645865
 20
19.6722960867
 10
16.0409308025
 20
19.5107734326
 10
16.1468779502
 20
19.3427524475
  0
LWPOLYLINE
  5
2CF
100
AcDbEntity
  8
ASSI
100
AcDbPolyline
 62
250
  6
CONTINUOUS
 90
29
 70
0
 10
13.6366465015
 20
20.7126775692
 10
13.7076395503
 20
20.7375696424
 10
13.783427728
 20
20.7579065994
 10
13.8641226308
 20
20.773086912
 10
13.9496970223
 20
20.7824709961
 10
14.0401157687
 20
20.7854253566
 10
14.1357359827
 20
20.781282565
 10
14.2360472292
 20
20.7693788937
 10
14.3395732534
 20
20.7493894585
 10
14.4465271547
 20
20.7208627169
 10
14.5561388409
 20
20.6835919193
 10
14.6652745216
 20
20.6385846158
 10
14.7732255066
 20
20.5864091987
 10
14.879957176
 20
20.5273547517
 10
14.9833288563
 20
20.4630286593
 10
15.082516383
 20
20.3946009101
 10
15.1778738807
 20
20.3224689034
 10
15.2691227826
 20
20.2474275895
 10
15.3560579838
 20
20.1702392382
 10
15.4387047552
 20
20.0914637985
 10
15.5171884546
 20
20.0115292227
 10
15.5915111816
 20
19.9309556562
 10
15.6616833488
 20
19.8502466024
 10
15.7278697887
 20
19.7697091859
 10
15.7901249448
 20
19.6897561349
 10
15.8485336034
 20
19.6107517989
 10
15.9033159776
 20
19.5328521106
 10
15.9546105455
 20
19.4562913309
 10
16.002483279
 20
19.3813977143
  0
LWPOLYLINE
  5
2D0
100
AcDbEntity
  8
RACCORDO
100
AcDbPolyline
 62
7
  6
CONTINUOUS
 90
14
 70
0
 10
10.0654969357
 20
18.3818751957
 10
9.9538530804
 20
18.3476303823
 10
9.8454991166
 20
18.3101209467
 10
9.7407893952
 20
18.2694072969
 10
9.6400432847
 20
18.225546159
 10
9.5434632364
 20
18.1785415452
 10
9.4514527167
 20
18.1284937912
 10
9.3645367674
 20
18.0756105486
 10
9.2828071989
 20
18.0198637733
 10
9.2066523002
 20
17.9614167176
 10
9.1368146905
 20
17.9008165928
 10
9.0733592407
 20
17.8381668049
 10
9.0163806808
 20
17.7735976385
 10
9.0136210453
 20
17.7699675434
  0
LINE
  5
2D1
100
AcDbEntity
  8
RACCORDO
100
AcDbLine
 62
250
  6
CONTINUOUS
 10
10.042208255
 20
18.3391347559
 11
10.1390742239
 21
18.368066461
  0
LWPOLYLINE
  5
2D2
100
AcDbEntity
  8
RACCORDO
100
AcDbPolyline
 62
250
  6
CONTINUOUS
 90
10
 70
0
 10
-7.8300868003
 20
20.5671843777
 10
-7.8255868587
 20
20.5963897277
 10
-7.817658606
 20
20.626096678
 10
-7.8065020125
 20
20.6555556476
 10
-7.7923985104
 20
20.6840232968
 10
-7.7757039181
 20
20.7107812405
 10
-7.7568394776
 20
20.7351541872
 10
-7.7362811908
 20
20.7565270423
 10
-7.7145477988
 20
20.7743604219
 10
-7.6921877223
 20
20.7882042298
  0
LWPOLYLINE
  5
2D3
100
AcDbEntity
  8
RACCORDO
100
AcDbPolyline
 62
250
  6
CONTINUOUS
 90
10
 70
0
 10
-0.0949972014
 20
16.6412842086
 10
-0.0770902984
 20
16.6580603948
 10
-0.0559845222
 20
16.6756802715
 10
-0.0322311955
 20
16.6936835745
 10
-0.0064507995
 20
16.7116000235
 10
0.0206832334
 20
16.7289616074
 10
0.0484621114
 20
16.745314809
 10
0.076160198
 20
16.760232452
 10
0.1030539674
 20
16.7733248595
 10
0.1284409038
 20
16.7842500334
  0
LWPOLYLINE
  5
2D4
100
AcDbEntity
  8
RACCORDO
100
AcDbPolyline
 62
250
  6
CONTINUOUS
 90
13
 70
0
 10
7.0106233259
 20
18.4902839785
 10
7.0171630263
 20
18.4938417301
 10
7.0224657039
 20
18.497514563
 10
7.0265313588
 20
18.5013024771
 10
7.0293687101
 20
18.5052383932
 10
7.0309690387
 20
18.5092893905
 10
7.0313061864
 20
18.5133567071
 10
7.0303384069
 20
18.5174391459
 10
7.0281074465
 20
18.521537904
 10
7.0247123864
 20
18.5255578102
 10
7.0201862538
 20
18.5294671409
 10
7.0144960214
 20
18.5332976197
 10
7.0076416894
 20
18.5370492467
  0
LWPOLYLINE
  5
2D5
100
AcDbEntity
  8
ASSI
100
AcDbPolyline
 62
250
  6
CONTINUOUS
 90
13
 70
0
 10
7.0106233259
 20
18.4902839785
 10
7.0171630263
 20
18.4938417301
 10
7.0224657039
 20
18.497514563
 10
7.0265313588
 20
18.5013024771
 10
7.0293687101
 20
18.5052383932
 10
7.0309690387
 20
18.5092893905
 10
7.0313061864
 20
18.5133567071
 10
7.0303384069
 20
18.5174391459
 10
7.0281074465
 20
18.521537904
 10
7.0247123864
 20
18.5255578102
 10
7.0201862538
 20
18.5294671409
 10
7.0144960214
 20
18.5332976197
 10
7.0076416894
 20
18.5370492467
  0
LINE
  5
2D6
100
AcDbEntity
  8
0
100
AcDbLine
 62
7
  6
CONTINUOUS
 10
9.5082253269
 20
18.0122344413
 11
10.0032000737
 21
18.2597218148
  0
LINE
  5
2D7
100
AcDbEntity
  8
RACCORDO
100
AcDbLine
 62
7
  6
CONTINUOUS
 10
12.4167026474
 20
18.3421733195
 11
11.2943895693
 21
17.7810167805
  0
LWPOLYLINE
  5
2D8
100
AcDbEntity
  8
0
100
AcDbPolyline
 62
7
  6
CONTINUOUS
 90
5
 70
0
 10
8.8738274254
 20
17.8234330498
 10
8.8743303477
 20
17.8236731643
 10
8.9943458047
 20
17.8759971903
 10
9.1187385096
 20
17.9254350829
 10
9.1983445468
 20
17.9542078384
  0
LINE
  5
2D9
100
AcDbEntity
  8
DRAFT
100
AcDbLine
 62
7
  6
CONTINUOUS
 10
10.10115318
 20
18.4396737186
 11
8.8179019161
 21
17.8470257594
  0
LINE
  5
2DA
100
AcDbEntity
  8
ASSI
100
AcDbLine
 62
7
  6
CONTINUOUS
 10
10.10115318
 20
18.4396737186
 11
8.8179019161
 21
17.8470257594
  0
LWPOLYLINE
  5
2DB
100
AcDbEntity
  8
RACCORDO
100
AcDbPolyline
 62
7
  6
CONTINUOUS
 90
11
 70
0
 10
13.1232725312
 20
17.9883514802
 10
13.1352761467
 20
17.9937735472
 10
13.1470983601
 20
17.9979318251
 10
13.1587391713
 20
18.0008263139
 10
13.1703176478
 20
18.0024606341
 10
13.1817147222
 20
18.0028311652
 10
13.1925731927
 20
18.0019270455
 10
13.2028163461
 20
17.9997159334
 10
13.2125208955
 20
17.9962301705
 10
13.2215597783
 20
17.9915559198
 10
13.2288624389
 20
17.9865345533
  0
LWPOLYLINE
  5
2DC
100
AcDbEntity
  8
RACCORDO
100
AcDbPolyline
 62
250
  6
CONTINUOUS
 90
8
 70
0
 10
17.9155684468
 20
19.3155810456
 10
17.9520116282
 20
19.3307680808
 10
17.9880030518
 20
19.3411180479
 10
18.0231564293
 20
19.3465203631
 10
18.057093483
 20
19.346917961
 10
18.089451062
 20
19.3423062897
 10
18.1198850713
 20
19.3327334315
 10
18.1325045713
 20
19.3270127561
  0
LWPOLYLINE
  5
2DD
100
AcDbEntity
  8
ASSI
100
AcDbPolyline
 62
250
  6
CONTINUOUS
 90
8
 70
0
 10
17.9155684468
 20
19.3155810456
 10
17.9520116282
 20
19.3307680808
 10
17.9880030518
 20
19.3411180479
 10
18.0231564293
 20
19.3465203631
 10
18.057093483
 20
19.346917961
 10
18.089451062
 20
19.3423062897
 10
18.1198850713
 20
19.3327334315
 10
18.1325225388
 20
19.3270037943
  0
LINE
  5
2DE
100
AcDbEntity
  8
RACCORDO
100
AcDbLine
 62
250
  6
CONTINUOUS
 10
-1.6678582445
 20
12.1935595919
 11
2.7105858758
 21
13.9852061959
  0
LINE
  5
2DF
100
AcDbEntity
  8
RACCORDO
100
AcDbLine
 62
250
  6
CONTINUOUS
 10
-1.3420894973
 20
11.5713980227
 11
3.0332208879
 21
13.3617623114
  0
LINE
  5
2E0
100
AcDbEntity
  8
RACCORDO
100
AcDbLine
 62
250
  6
CONTINUOUS
 10
1.6345848871
 20
-14.3128990532
 11
1.4812297408
 21
-14.23622148
  0
LINE
  5
2E1
100
AcDbEntity
  8
RACCORDO
100
AcDbLine
 62
7
  6
CONTINUOUS
 10
2.7877680158
 20
-14.1196241595
 11
2.6817019987
 21
-14.0665911509
  0
LINE
  5
2E2
100
AcDbEntity
  8
RACCORDO
100
AcDbLine
 62
7
  6
CONTINUOUS
 10
13.1238335048
 20
17.988631967
 11
12.404442389
 21
17.6289364091
  0
LWPOLYLINE
  5
2E3
100
AcDbEntity
  8
RACCORDO
100
AcDbPolyline
 62
250
  6
CONTINUOUS
 90
8
 70
0
 10
18.2401621861
 20
18.9682269493
 10
18.2828702527
 20
18.9894934174
 10
18.3202339185
 20
19.00795132
 10
18.3516280365
 20
19.0232918314
 10
18.3765273683
 20
19.0352582984
 10
18.39451535
 20
19.0436505263
 10
18.4052910759
 20
19.0483281353
 10
18.4086740654
 20
19.0492911641
  0
LWPOLYLINE
  5
2E4
100
AcDbEntity
  8
ASSI
100
AcDbPolyline
 62
250
  6
CONTINUOUS
 90
8
 70
0
 10
18.2401621861
 20
18.9682269493
 10
18.2828702527
 20
18.9894934174
 10
18.3202339185
 20
19.00795132
 10
18.3516280365
 20
19.0232918314
 10
18.3765273683
 20
19.0352582984
 10
18.39451535
 20
19.0436505263
 10
18.4052910759
 20
19.0483281353
 10
18.4086715091
 20
19.0492956492
  0
LINE
  5
2E5
100
AcDbEntity
  8
RACCORDO
100
AcDbLine
 62
250
  6
CONTINUOUS
 10
15.9604146703
 20
19.2659968041
 11
16.0470519943
 21
19.3084133668
  0
LINE
  5
2E6
100
AcDbEntity
  8
ASSI
100
AcDbLine
 62
250
  6
CONTINUOUS
 10
15.9604146703
 20
19.2659968041
 11
16.0470519943
 21
19.3084133668
  0
LINE
  5
2E7
100
AcDbEntity
  8
RACCORDO
100
AcDbLine
 62
250
  6
CONTINUOUS
 10
10.88715412
 20
15.8953934195
 11
17.9155684468
 21
19.3155810456
  0
LINE
  5
2E8
100
AcDbEntity
  8
ASSI
100
AcDbLine
 62
250
  6
CONTINUOUS
 10
10.88715412
 20
15.8953934195
 11
17.9155684468
 21
19.3155810456
  0
LINE
  5
2E9
100
AcDbEntity
  8
RACCORDO
100
AcDbLine
 62
250
  6
CONTINUOUS
 10
11.2109282994
 20
15.5496384904
 11
18.2401621861
 21
18.9682269493
  0
LINE
  5
2EA
100
AcDbEntity
  8
ASSI
100
AcDbLine
 62
250
  6
CONTINUOUS
 10
11.2109282994
 20
15.5496384904
 11
18.2401621861
 21
18.9682269493
  0
LINE
  5
2EB
100
AcDbEntity
  8
RACCORDO
100
AcDbLine
 62
7
  6
CONTINUOUS
 10
17.106348474
 20
19.720191032
 11
13.1091992254
 21
17.874175048
  0
LINE
  5
2EC
100
AcDbEntity
  8
ASSI
100
AcDbLine
 62
7
  6
CONTINUOUS
 10
17.106348474
 20
19.720191032
 11
13.1091992254
 21
17.874175048
  0
LINE
  5
2ED
100
AcDbEntity
  8
DRAFT
100
AcDbLine
 62
7
  6
CONTINUOUS
 10
4.6574728079
 20
-13.3170915477
 11
4.5514067908
 21
-13.2640585391
  0
LWPOLYLINE
  5
2EE
100
AcDbEntity
  8
RACCORDO
100
AcDbPolyline
 62
250
  6
CONTINUOUS
 90
3
 70
0
 10
1.5777120887
 20
-14.1943785645
 10
1.5816788765
 20
-14.1971694117
 10
1.5978024425
 20
-14.2139333303
  0
LWPOLYLINE
  5
2EF
100
AcDbEntity
  8
RACCORDO
100
AcDbPolyline
 62
250
  6
CONTINUOUS
 90
10
 70
0
 10
3.0953892512
 20
-19.3420960992
 10
3.1173481162
 20
-19.3662974521
 10
3.1424956084
 20
-19.3873882481
 10
3.1701544885
 20
-19.4048004975
 10
3.1995798843
 20
-19.4180652765
 10
3.2299793499
 20
-19.4268253554
 10
3.2605342072
 20
-19.4308448192
 10
3.290421593
 20
-19.4300154208
 10
3.3188366199
 20
-19.4243594965
 10
3.3450140519
 20
-19.4140293639
  0
LWPOLYLINE
  5
2F0
100
AcDbEntity
  8
RACCORDO
100
AcDbPolyline
 62
250
  6
CONTINUOUS
 90
16
 70
0
 10
-8.0031667231
 20
19.3420824954
 10
-8.0038622385
 20
19.3586997997
 10
-8.0100242309
 20
19.4094298791
 10
-8.0202204791
 20
19.4611244425
 10
-8.0343379892
 20
19.5132146982
 10
-8.0522217819
 20
19.5651313292
 10
-8.0736766915
 20
19.6163080329
 10
-8.0984697978
 20
19.6661875058
 10
-8.126327655
 20
19.7142187972
 10
-8.1569388867
 20
19.7598674015
 10
-8.1899645741
 20
19.8026321506
 10
-8.2250435343
 20
19.8420485435
 10
-8.2617903477
 20
19.8776859942
 10
-8.2998017689
 20
19.9091563129
 10
-8.3386612641
 20
19.9361177258
 10
-8.3779433326
 20
19.9582778441
  0
LINE
  5
2F1
100
AcDbEntity
  8
RACCORDO
100
AcDbLine
 62
250
  6
CONTINUOUS
 10
18.5607890916
 20
18.3287339892
 11
9.0077060164
 21
13.4477594136
  0
LINE
  5
2F2
100
AcDbEntity
  8
ASSI
100
AcDbLine
 62
250
  6
CONTINUOUS
 10
18.5607890916
 20
18.3287339892
 11
9.0077060164
 21
13.4477594136
  0
LINE
  5
2F3
100
AcDbEntity
  8
RACCORDO
100
AcDbLine
 62
250
  6
CONTINUOUS
 10
9.0077060164
 20
13.4477594136
 11
4.2468569066
 21
11.0151901448
  0
LINE
  5
2F4
100
AcDbEntity
  8
ASSI
100
AcDbLine
 62
250
  6
CONTINUOUS
 10
9.0077060164
 20
13.4477594136
 11
4.2468569066
 21
11.0151901448
  0
LINE
  5
2F5
100
AcDbEntity
  8
RACCORDO
100
AcDbLine
 62
250
  6
CONTINUOUS
 10
18.8696116843
 20
17.0940603859
 11
11.6987210879
 21
13.4357435339
  0
LINE
  5
2F6
100
AcDbEntity
  8
ASSI
100
AcDbLine
 62
250
  6
CONTINUOUS
 10
18.8696116843
 20
17.0940603859
 11
11.6987210879
 21
13.4357435339
  0
LINE
  5
2F7
100
AcDbEntity
  8
RACCORDO
100
AcDbLine
 62
250
  6
CONTINUOUS
 10
11.6987210879
 20
13.4357435339
 11
4.6416548968
 21
9.8352872762
  0
LINE
  5
2F8
100
AcDbEntity
  8
ASSI
100
AcDbLine
 62
250
  6
CONTINUOUS
 10
11.6987210879
 20
13.4357435339
 11
4.6416548968
 21
9.8352872762
  0
LWPOLYLINE
  5
2F9
100
AcDbEntity
  8
RACCORDO
100
AcDbPolyline
 62
250
  6
CONTINUOUS
 90
8
 70
0
 10
18.5607890916
 20
18.3287339892
 10
18.6034345202
 20
18.3501228455
 10
18.6406399879
 20
18.3688948311
 10
18.6717829472
 20
18.3847358402
 10
18.6963422931
 20
18.3973808101
 10
18.7139070815
 20
18.4066181567
 10
18.7241834067
 20
18.4122933145
 10
18.7270539335
 20
18.4142799491
  0
LWPOLYLINE
  5
2FA
100
AcDbEntity
  8
ASSI
100
AcDbPolyline
 62
250
  6
CONTINUOUS
 90
8
 70
0
 10
18.5607890916
 20
18.3287339892
 10
18.6034345202
 20
18.3501228455
 10
18.6406399879
 20
18.3688948311
 10
18.6717829472
 20
18.3847358402
 10
18.6963422931
 20
18.3973808101
 10
18.7139070815
 20
18.4066181567
 10
18.7241834067
 20
18.4122933145
 10
18.7270539335
 20
18.4142799491
  0
LINE
  5
2FB
100
AcDbEntity
  8
RACCORDO
100
AcDbLine
 62
250
  6
CONTINUOUS
 10
3.5441878295
 20
9.0246684531
 11
4.6574728079
 21
9.5702179347
  0
LINE
  5
2FC
100
AcDbEntity
  8
RACCORDO
100
AcDbLine
 62
250
  6
CONTINUOUS
 10
3.3450207978
 20
10.2821374226
 11
4.36108051
 21
10.7793202576
  0
LWPOLYLINE
  5
2FD
100
AcDbEntity
  8
RACCORDO
100
AcDbPolyline
 62
250
  6
CONTINUOUS
 90
10
 70
0
 10
3.0953892509
 20
10.1840274682
 10
3.1173478166
 20
10.1934841131
 10
3.1424954207
 20
10.2040077838
 10
3.1701547749
 20
10.2153150514
 10
3.1995809429
 20
10.2271013827
 10
3.2299814039
 20
10.2390493421
 10
3.2605373968
 20
10.2508371408
 10
3.2904259718
 20
10.2621473036
 10
3.3188421541
 20
10.2726752193
 10
3.3450206243
 20
10.2821373447
  0
LWPOLYLINE
  5
2FE
100
AcDbEntity
  8
RACCORDO
100
AcDbPolyline
 62
250
  6
CONTINUOUS
 90
3
 70
0
 10
1.5978024425
 20
-14.2139333303
 10
1.6113355221
 20
-14.2342140301
 10
1.6220763681
 20
-14.2577091726
  0
LINE
  5
2FF
100
AcDbEntity
  8
0
100
AcDbLine
 62
7
  6
CONTINUOUS
 10
-5.7863672546
 20
20.3970642681
 11
-5.7863672546
 21
20.4836668085
  0
LINE
  5
300
100
AcDbEntity
  8
ASSI
100
AcDbLine
 62
7
  6
CONTINUOUS
 10
-5.7863672546
 20
20.3970642681
 11
-5.7863672546
 21
20.4836668085
  0
LWPOLYLINE
  5
301
100
AcDbEntity
  8
RACCORDO
100
AcDbPolyline
 62
250
  6
CONTINUOUS
 90
7
 70
0
 10
18.8696116843
 20
17.0940603859
 10
18.9114377352
 20
17.1187274921
 10
18.9465454405
 20
17.1458877399
 10
18.9743473806
 20
17.1750866419
 10
18.9943783945
 20
17.205835615
 10
19.006303337
 20
17.2376201194
 10
19.0099416365
 20
17.2675328872
  0
LWPOLYLINE
  5
302
100
AcDbEntity
  8
ASSI
100
AcDbPolyline
 62
250
  6
CONTINUOUS
 90
7
 70
0
 10
18.8696116843
 20
17.0940603859
 10
18.9114377352
 20
17.1187274921
 10
18.9465454405
 20
17.1458877399
 10
18.9743473806
 20
17.1750866419
 10
18.9943783945
 20
17.205835615
 10
19.006303337
 20
17.2376201194
 10
19.0099413831
 20
17.2674083293
  0
LINE
  5
303
100
AcDbEntity
  8
RACCORDO
100
AcDbLine
 62
250
  6
CONTINUOUS
 10
19.0099417841
 20
15.3226380621
 11
19.8077904748
 21
15.7656884325
  0
LINE
  5
304
100
AcDbEntity
  8
ASSI
100
AcDbLine
 62
250
  6
CONTINUOUS
 10
19.0099417841
 20
15.3226380621
 11
19.8077904748
 21
15.7656884325
  0
LWPOLYLINE
  5
305
100
AcDbEntity
  8
RACCORDO
100
AcDbPolyline
 62
250
  6
CONTINUOUS
 90
13
 70
0
 10
2.0405158228
 20
-5.2987278527
 10
2.0209191519
 20
-5.3043013499
 10
1.9993253515
 20
-5.3085777217
 10
1.9760958041
 20
-5.3114854011
 10
1.9516192675
 20
-5.3129757265
 10
1.9263053684
 20
-5.3130237565
 10
1.9005777473
 20
-5.3116286874
 10
1.8748669684
 20
-5.308813866
 10
1.8496033143
 20
-5.3046264
 10
1.8252095847
 20
-5.2991363684
 10
1.8020940207
 20
-5.2924356497
 10
1.7806434726
 20
-5.2846363836
 10
1.7612169258
 20
-5.2758690947
  0
LINE
  5
306
100
AcDbEntity
  8
0
100
AcDbLine
 62
7
  6
CONTINUOUS
 10
-2.9085697508
 20
22.6787544665
 11
-2.9085697508
 21
21.7257368018
  0
LINE
  5
307
100
AcDbEntity
  8
RACCORDO
100
AcDbLine
 62
7
  6
CONTINUOUS
 10
-2.9085697508
 20
21.7257368018
 11
-2.9085697508
 21
21.5621303111
  0
LINE
  5
308
100
AcDbEntity
  8
ASSI
100
AcDbLine
 62
7
  6
CONTINUOUS
 10
-2.9085697508
 20
22.6787544665
 11
-2.9085697508
 21
21.5621303111
  0
LWPOLYLINE
  5
309
100
AcDbEntity
  8
RACCORDO
100
AcDbPolyline
 62
250
  6
CONTINUOUS
 90
10
 70
0
 10
-4.9798373757
 20
-26.0685959202
 10
-4.817672793
 20
-21.9897758144
 10
-4.6248471657
 20
-17.8981807788
 10
-4.4013770901
 20
-13.7941600175
 10
-4.1472817365
 20
-9.6780638596
 10
-3.8625828391
 20
-5.5502436037
 10
-3.5473046921
 20
-1.4110514861
 10
-3.2014741585
 20
2.73915918
 10
-2.8251206713
 20
6.9000340336
 10
-2.418276221
 20
11.0712178231
  0
LWPOLYLINE
  5
30A
100
AcDbEntity
  8
RACCORDO
100
AcDbPolyline
 62
250
  6
CONTINUOUS
 90
9
 70
0
 10
-4.2793002884
 20
-26.0909456867
 10
-4.1172687151
 20
-22.0156305123
 10
-3.9246433083
 20
-17.9282475042
 10
-3.7014240679
 20
-13.8287966624
 10
-3.4475864542
 20
-9.716922259
 10
-3.163155007
 20
-5.5929800219
 10
-2.8482033455
 20
-1.4580371348
 10
-2.5027560095
 20
2.6875506744
 10
-2.1267884593
 20
6.8441391337
  0
LINE
  5
30B
100
AcDbEntity
  8
RACCORDO
100
AcDbLine
 62
250
  6
CONTINUOUS
 10
-2.1267884593
 20
6.8441391337
 11
-1.7203006948
 21
11.011728243
  0
LWPOLYLINE
  5
30C
100
AcDbEntity
  8
RACCORDO
100
AcDbPolyline
 62
250
  6
CONTINUOUS
 90
19
 70
0
 10
-2.418276221
 20
11.0712178231
 10
-2.4082111708
 20
11.1474487602
 10
-2.3932879096
 20
11.2247983631
 10
-2.3736093452
 20
11.302727399
 10
-2.3493087753
 20
11.3806946003
 10
-2.3205560719
 20
11.4581536754
 10
-2.2875581695
 20
11.534557392
 10
-2.2505458764
 20
11.6093679962
 10
-2.2097749342
 20
11.6820685786
 10
-2.165531752
 20
11.7521596493
 10
-2.1181228799
 20
11.8191499059
 10
-2.0678756169
 20
11.8825736985
 10
-2.0151383191
 20
11.9420001635
 10
-1.960268397
 20
11.9970174568
 10
-1.9036502
 20
12.0472327755
 10
-1.8456944141
 20
12.0922902761
 10
-1.7868084732
 20
12.1318745256
 10
-1.727392895
 20
12.1657098501
 10
-1.6678582445
 20
12.1935595919
  0
LWPOLYLINE
  5
30D
100
AcDbEntity
  8
RACCORDO
100
AcDbPolyline
 62
250
  6
CONTINUOUS
 90
19
 70
0
 10
-1.7203006948
 20
11.011728243
 10
-1.7151725971
 20
11.0501344345
 10
-1.7077138553
 20
11.0885971783
 10
-1.6979244695
 20
11.1271164745
 10
-1.6857013778
 20
11.1659778573
 10
-1.6711476422
 20
11.2048957925
 10
-1.6545724479
 20
11.2430136768
 10
-1.6359367373
 20
11.280297127
 10
-1.6152795681
 20
11.3167805265
 10
-1.5930272987
 20
11.3517104223
 10
-1.5691472889
 20
11.385053664
 10
-1.5436721788
 20
11.4168434021
 10
-1.5171262473
 20
11.4464256349
 10
-1.4894739749
 20
11.4737621912
 10
-1.4607508811
 20
11.4988912421
 10
-1.4315878027
 20
11.5212732995
 10
-1.4021950188
 20
11.5407285341
 10
-1.3723622503
 20
11.5574367751
 10
-1.3420894973
 20
11.5713980227
  0
LWPOLYLINE
  5
30E
100
AcDbEntity
  8
RACCORDO
100
AcDbPolyline
 62
250
  6
CONTINUOUS
 90
10
 70
0
 10
-0.2179586608
 20
16.761120308
 10
-0.2134585209
 20
16.7903265659
 10
-0.205529943
 20
16.8200341925
 10
-0.1943729948
 20
16.8494935527
 10
-0.1802692081
 20
16.8779612757
 10
-0.1635744746
 20
16.9047190138
 10
-0.1447100654
 20
16.9290915686
 10
-0.1241520007
 20
16.9504639287
 10
-0.1024190376
 20
16.968296789
 10
-0.0800595809
 20
16.9821401592
  0
LWPOLYLINE
  5
30F
100
AcDbEntity
  8
RACCORDO
100
AcDbPolyline
 62
250
  6
CONTINUOUS
 90
15
 70
0
 10
9.1106581088
 20
17.7364403039
 10
9.1395985162
 20
17.7794238839
 10
9.1808703797
 20
17.8317575584
 10
9.227475313
 20
17.8831160389
 10
9.2790548723
 20
17.9331066862
 10
9.3356427553
 20
17.981716455
 10
9.3972052645
 20
18.0289583907
 10
9.4632828636
 20
18.0744789899
 10
9.5339092079
 20
18.1182667899
 10
9.6090506422
 20
18.1603332533
 10
9.6881466647
 20
18.2003592651
 10
9.7712421464
 20
18.2383341615
 10
9.8582922163
 20
18.2742686061
 10
9.9486017603
 20
18.3078754754
 10
10.042208255
 20
18.3391347559
  0
LINE
  5
310
100
AcDbEntity
  8
RACCORDO
100
AcDbLine
 62
250
  6
CONTINUOUS
 10
19.0099417841
 20
13.5039847142
 11
19.8077904748
 21
13.9470350846
  0
LINE
  5
311
100
AcDbEntity
  8
ASSI
100
AcDbLine
 62
250
  6
CONTINUOUS
 10
19.0099417841
 20
13.5039847142
 11
19.8077904748
 21
13.9470350846
  0
LINE
  5
312
100
AcDbEntity
  8
RACCORDO
100
AcDbLine
 62
7
  6
CONTINUOUS
 10
4.6574728079
 20
4.8694419318
 11
3.0689153665
 21
4.1357934624
  0
LINE
  5
313
100
AcDbEntity
  8
RACCORDO
100
AcDbLine
 62
250
  6
CONTINUOUS
 10
1.7612169258
 20
-5.4869529894
 11
1.7341442915
 21
-5.4734166722
  0
LINE
  5
314
100
AcDbEntity
  8
RACCORDO
100
AcDbLine
 62
250
  6
CONTINUOUS
 10
1.7612169258
 20
-5.2758690947
 11
1.7482175851
 21
-5.2693694244
  0
LWPOLYLINE
  5
315
100
AcDbEntity
  8
RACCORDO
100
AcDbPolyline
 62
250
  6
CONTINUOUS
 90
3
 70
0
 10
1.6220763681
 20
-14.2577091726
 10
1.6298648592
 20
-14.2840684992
 10
1.6345848871
 20
-14.3128990532
  0
LINE
  5
316
100
AcDbEntity
  8
RACCORDO
100
AcDbLine
 62
250
  6
CONTINUOUS
 10
0.9789743769
 20
-16.4225481895
 11
1.1982203293
 21
-18.433453762
  0
LINE
  5
317
100
AcDbEntity
  8
RACCORDO
100
AcDbLine
 62
250
  6
CONTINUOUS
 10
1.1749802748
 20
-14.3853386931
 11
1.6133706716
 21
-18.4062188159
  0
LINE
  5
318
100
AcDbEntity
  8
RACCORDO
100
AcDbLine
 62
250
  6
CONTINUOUS
 10
1.3157419303
 20
-11.5397898048
 11
1.5903779137
 21
-14.0587281181
  0
LWPOLYLINE
  5
319
100
AcDbEntity
  8
RACCORDO
100
AcDbPolyline
 62
250
  6
CONTINUOUS
 90
27
 70
0
 10
1.6133706716
 20
-18.4062188159
 10
1.619139847
 20
-18.470383313
 10
1.621129886
 20
-18.5333072693
 10
1.6193407886
 20
-18.5949906848
 10
1.6138403967
 20
-18.6561181155
 10
1.6045608684
 20
-18.7160050053
 10
1.5912986779
 20
-18.7725976867
 10
1.5736877526
 20
-18.8257077722
 10
1.5520941651
 20
-18.8755236491
 10
1.5274126067
 20
-18.9205568126
 10
1.4994466859
 20
-18.9603264963
 10
1.4683927943
 20
-18.9953134665
 10
1.4357347985
 20
-19.0254715163
 10
1.4015784622
 20
-19.0504759316
 10
1.3658180217
 20
-19.0706514267
 10
1.3296200527
 20
-19.0869259376
 10
1.2931768965
 20
-19.0992638517
 10
1.2562962117
 20
-19.1077007817
 10
1.2195675496
 20
-19.1132715016
 10
1.183082925
 20
-19.1160547673
 10
1.146750323
 20
-19.1159718229
 10
1.11088325
 20
-19.1138211738
 10
1.0755555555
 20
-19.1096805366
 10
1.04069339
 20
-19.1034721948
 10
1.0063887113
 20
-19.0957615037
 10
0.9726913804
 20
-19.0866210519
 10
0.9395515363
 20
-19.075978251
  0
LINE
  5
31A
100
AcDbEntity
  8
0
100
AcDbLine
 62
7
  6
CONTINUOUS
 10
-1.5650668665
 20
22.073006968
 11
-1.5650668665
 21
21.1827951167
  0
LINE
  5
31B
100
AcDbEntity
  8
ASSI
100
AcDbLine
 62
7
  6
CONTINUOUS
 10
-1.5650668665
 20
22.073006968
 11
-1.5650668665
 21
21.1827951167
  0
LINE
  5
31C
100
AcDbEntity
  8
0
100
AcDbLine
 62
7
  6
CONTINUOUS
 10
-0.8793003843
 20
18.0301333734
 11
-0.8793003843
 21
17.943530833
  0
LINE
  5
31D
100
AcDbEntity
  8
ASSI
100
AcDbLine
 62
7
  6
CONTINUOUS
 10
-0.8793003843
 20
18.0301333734
 11
-0.8793003843
 21
17.943530833
  0
LWPOLYLINE
  5
31E
100
AcDbEntity
  8
0
100
AcDbPolyline
 62
7
  6
CONTINUOUS
 90
22
 70
0
 10
-0.1816642939
 20
18.2701334148
 10
-0.1856206655
 20
18.2253574345
 10
-0.1856412227
 20
18.1793885387
 10
-0.1817259655
 20
18.1322267276
 10
-0.1737419955
 20
18.0833133454
 10
-0.161822211
 20
18.0332070478
 10
-0.1463653078
 20
17.9835838017
 10
-0.1272516416
 20
17.9344599466
 10
-0.1046008567
 20
17.8858191429
 10
-0.0791705818
 20
17.8392883395
 10
-0.0508667995
 20
17.7949389079
 10
-0.0197835272
 20
17.7526994765
 10
0.0130395548
 20
17.7139828795
 10
0.0476612961
 20
17.6789082781
 10
0.0840228471
 20
17.6473565111
 10
0.1209079783
 20
17.6203829293
 10
0.1583343999
 20
17.5981423914
 10
0.1962844017
 20
17.5804800386
 10
0.2334886233
 20
17.5679866454
 10
0.2695239446
 20
17.5608591365
 10
0.3048134857
 20
17.5589005872
 10
0.3393572467
 20
17.5621109975
  0
LWPOLYLINE
  5
31F
100
AcDbEntity
  8
ASSI
100
AcDbPolyline
 62
7
  6
CONTINUOUS
 90
22
 70
0
 10
-0.1816642939
 20
18.2701334148
 10
-0.1856206655
 20
18.2253574345
 10
-0.1856412227
 20
18.1793885387
 10
-0.1817259655
 20
18.1322267276
 10
-0.1737419955
 20
18.0833133454
 10
-0.161822211
 20
18.0332070478
 10
-0.1463653078
 20
17.9835838017
 10
-0.1272516416
 20
17.9344599466
 10
-0.1046008567
 20
17.8858191429
 10
-0.0791705818
 20
17.8392883395
 10
-0.0508667995
 20
17.7949389079
 10
-0.0197835272
 20
17.7526994765
 10
0.0130395548
 20
17.7139828795
 10
0.0476612961
 20
17.6789082781
 10
0.0840228471
 20
17.6473565111
 10
0.1209079783
 20
17.6203829293
 10
0.1583343999
 20
17.5981423914
 10
0.1962844017
 20
17.5804800386
 10
0.2334886233
 20
17.5679866454
 10
0.2695239446
 20
17.5608591365
 10
0.3048134857
 20
17.5589005872
 10
0.3393572467
 20
17.5621109975
  0
LWPOLYLINE
  5
320
100
AcDbEntity
  8
RACCORDO
100
AcDbPolyline
 62
250
  6
CONTINUOUS
 90
12
 70
0
 10
7.2428154735
 20
18.2676984093
 10
7.2601163396
 20
18.3025529137
 10
7.2749525507
 20
18.3348597082
 10
7.2867163962
 20
18.3650046532
 10
7.2947270522
 20
18.3936797864
 10
7.2992733597
 20
18.4206822638
 10
7.3013859657
 20
18.4451869577
 10
7.3016200155
 20
18.4665748767
 10
7.2986620506
 20
18.484978981
 10
7.2914460596
 20
18.5010235592
 10
7.2803719537
 20
18.5146797217
 10
7.2668423859
 20
18.5252639257
  0
LWPOLYLINE
  5
321
100
AcDbEntity
  8
ASSI
100
AcDbPolyline
 62
250
  6
CONTINUOUS
 90
12
 70
0
 10
7.2428154735
 20
18.2676984093
 10
7.2601163396
 20
18.3025529137
 10
7.2749525507
 20
18.3348597082
 10
7.2867163962
 20
18.3650046532
 10
7.2947270522
 20
18.3936797864
 10
7.2992733597
 20
18.4206822638
 10
7.3013859657
 20
18.4451869577
 10
7.3016200155
 20
18.4665748767
 10
7.2986620506
 20
18.484978981
 10
7.2914460596
 20
18.5010235592
 10
7.2803719537
 20
18.5146797217
 10
7.2668423886
 20
18.525263924
  0
LINE
  5
322
100
AcDbEntity
  8
RACCORDO
100
AcDbLine
 62
250
  6
CONTINUOUS
 10
19.2549917346
 20
12.5921763494
 11
19.1774330901
 21
12.5414546889
  0
LINE
  5
323
100
AcDbEntity
  8
ASSI
100
AcDbLine
 62
250
  6
CONTINUOUS
 10
19.2549917346
 20
12.5921763494
 11
19.1774330901
 21
12.5414546889
  0
LINE
  5
324
100
AcDbEntity
  8
ASSI
100
AcDbLine
 62
250
  6
CONTINUOUS
 10
19.1774330901
 20
12.5414546889
 11
19.1754100992
 21
12.540263987
  0
LINE
  5
325
100
AcDbEntity
  8
RACCORDO
100
AcDbLine
 62
250
  6
CONTINUOUS
 10
19.1774330901
 20
12.5414546889
 11
19.174290349
 21
12.539607659
  0
LINE
  5
326
100
AcDbEntity
  8
DRAFT
100
AcDbLine
 62
7
  6
CONTINUOUS
 10
19.0099417841
 20
12.4433358279
 11
19.1746187102
 21
12.539799922
  0
LINE
  5
327
100
AcDbEntity
  8
ASSI
100
AcDbLine
 62
7
  6
CONTINUOUS
 10
19.0099417841
 20
12.4433358279
 11
19.1746187102
 21
12.539799922
  0
LWPOLYLINE
  5
328
100
AcDbEntity
  8
RACCORDO
100
AcDbPolyline
 62
250
  6
CONTINUOUS
 90
10
 70
0
 10
-7.9631963817
 20
20.5758393432
 10
-7.9729781673
 20
20.6065052706
 10
-7.9788387969
 20
20.637651951
 10
-7.9806252196
 20
20.6684659863
 10
-7.9782907829
 20
20.6981426655
 10
-7.9718964507
 20
20.7259069798
 10
-7.9616092115
 20
20.751033862
 10
-7.9476977175
 20
20.7728671214
 10
-7.9305252684
 20
20.7908365809
 10
-7.9105403241
 20
20.8044729666
  0
LWPOLYLINE
  5
329
100
AcDbEntity
  8
RACCORDO
100
AcDbPolyline
 62
250
  6
CONTINUOUS
 90
12
 70
0
 10
1.5903779137
 20
-14.0587281181
 10
1.5939635078
 20
-14.0789890603
 10
1.5957667129
 20
-14.0983143826
 10
1.5958072244
 20
-14.116543526
 10
1.5941385627
 20
-14.1335231066
 10
1.5907803853
 20
-14.1491145873
 10
1.5857257956
 20
-14.1632034086
 10
1.5790483644
 20
-14.1756720758
 10
1.5708299015
 20
-14.1864444356
 10
1.5610887779
 20
-14.1954851236
 10
1.5499092199
 20
-14.2027230887
 10
1.5477578301
 20
-14.2038265597
  0
LWPOLYLINE
  5
32A
100
AcDbEntity
  8
RACCORDO
100
AcDbPolyline
 62
250
  6
CONTINUOUS
 90
16
 70
0
 10
1.1982203293
 20
-18.433453762
 10
1.2045095253
 20
-18.4815193631
 10
1.2081606835
 20
-18.5292476094
 10
1.2090222261
 20
-18.5763320385
 10
1.2069810653
 20
-18.6226616393
 10
1.2018494592
 20
-18.6676430439
 10
1.1935114822
 20
-18.7103339997
 10
1.1819389583
 20
-18.7505790647
 10
1.167220169
 20
-18.788027266
 10
1.1497353781
 20
-18.8217808586
 10
1.1297213518
 20
-18.8517895565
 10
1.1074066882
 20
-18.8781518558
 10
1.0834189375
 20
-18.9005919713
 10
1.0581424215
 20
-18.9192699723
 10
1.0317716614
 20
-18.9345244815
 10
1.0154507429
 20
-18.9421738829
  0
LINE
  5
32B
100
AcDbEntity
  8
RACCORDO
100
AcDbLine
 62
250
  6
CONTINUOUS
 10
1.4777540671
 20
-9.1907923689
 11
2.005528256
 21
-14.031493172
  0
LINE
  5
32C
100
AcDbEntity
  8
RACCORDO
100
AcDbLine
 62
250
  6
CONTINUOUS
 10
1.7612169258
 20
-5.4869529894
 11
2.6817019987
 21
-14.0665911509
  0
LINE
  5
32D
100
AcDbEntity
  8
RACCORDO
100
AcDbLine
 62
250
  6
CONTINUOUS
 10
3.2648889325
 20
-18.5667628966
 11
2.7877680158
 21
-14.1196241595
  0
LINE
  5
32E
100
AcDbEntity
  8
RACCORDO
100
AcDbLine
 62
250
  6
CONTINUOUS
 10
2.0405158228
 20
-5.4675949685
 11
2.9628493493
 21
-14.064462159
  0
LINE
  5
32F
100
AcDbEntity
  8
RACCORDO
100
AcDbLine
 62
250
  6
CONTINUOUS
 10
3.5441878295
 20
-18.5474048757
 11
3.0689153665
 21
-14.1174951675
  0
LWPOLYLINE
  5
330
100
AcDbEntity
  8
RACCORDO
100
AcDbPolyline
 62
250
  6
CONTINUOUS
 90
19
 70
0
 10
2.005528256
 20
-14.031493172
 10
2.0085484625
 20
-14.074579248
 10
2.0083261894
 20
-14.1150560359
 10
2.0048614369
 20
-14.1529235358
 10
1.9980542409
 20
-14.1884246163
 10
1.9880045654
 20
-14.2213164088
 10
1.9750123023
 20
-14.2508703067
 10
1.9590381661
 20
-14.2769812123
 10
1.9401214424
 20
-14.2997542234
 10
1.9186798797
 20
-14.3187760269
 10
1.8946761404
 20
-14.333993549
 10
1.8681475622
 20
-14.3454598636
 10
1.8396239067
 20
-14.3529208796
 10
1.8090247238
 20
-14.3562981397
 10
1.7764304636
 20
-14.3556701012
 10
1.7426122386
 20
-14.3510180452
 10
1.7078270863
 20
-14.3423357321
 10
1.6718179691
 20
-14.3296294014
 10
1.6345848871
 20
-14.3128990532
  0
LWPOLYLINE
  5
331
100
AcDbEntity
  8
RACCORDO
100
AcDbPolyline
 62
250
  6
CONTINUOUS
 90
16
 70
0
 10
-0.22499213
 20
15.4529951989
 10
-0.2256876454
 20
15.4696125032
 10
-0.2318496379
 20
15.5203425826
 10
-0.2420458861
 20
15.572037146
 10
-0.2561633961
 20
15.6241274016
 10
-0.2740471889
 20
15.6760440327
 10
-0.2955020985
 20
15.7272207363
 10
-0.3202952047
 20
15.7771002092
 10
-0.348153062
 20
15.8251315007
 10
-0.3787642937
 20
15.8707801049
 10
-0.4117899811
 20
15.9135448541
 10
-0.4468689413
 20
15.9529612469
 10
-0.4836157547
 20
15.9885986976
 10
-0.5216271759
 20
16.0200690163
 10
-0.5604866711
 20
16.0470304293
 10
-0.5997687395
 20
16.0691905476
  0
LWPOLYLINE
  5
332
100
AcDbEntity
  8
SMUSSO
100
AcDbPolyline
 62
7
  6
CONTINUOUS
 90
6
 70
0
 10
1.1422646009
 20
23.2116589703
 10
1.1442404097
 20
23.1611183201
 10
1.1546574137
 20
23.0851074976
 10
1.1739591204
 20
23.0095034038
 10
1.2020661577
 20
22.9345281855
 10
1.2388778617
 20
22.8604015182
  0
LWPOLYLINE
  5
333
100
AcDbEntity
  8
ASSI
100
AcDbPolyline
 62
7
  6
CONTINUOUS
 90
5
 70
0
 10
1.1422646009
 20
23.2116589703
 10
1.1442404097
 20
23.1611183201
 10
1.1546574137
 20
23.0851074976
 10
1.1739591204
 20
23.0095034038
 10
1.2020661577
 20
22.9345281855
  0
LINE
  5
334
100
AcDbEntity
  8
SMUSSO
100
AcDbLine
 62
250
  6
CONTINUOUS
 10
1.9000471399
 20
24.1212766892
 11
1.9000471399
 21
23.0186790144
  0
LINE
  5
335
100
AcDbEntity
  8
ASSI
100
AcDbLine
 62
250
  6
CONTINUOUS
 10
1.9000471399
 20
24.1212766892
 11
1.9000471399
 21
23.0186790144
  0
LINE
  5
336
100
AcDbEntity
  8
RACCORDO
100
AcDbLine
 62
7
  6
CONTINUOUS
 10
0.3955176135
 20
-24.8820282527
 11
3.0332208879
 21
13.3617623114
  0
LWPOLYLINE
  5
337
100
AcDbEntity
  8
RACCORDO
100
AcDbPolyline
 62
250
  6
CONTINUOUS
 90
16
 70
0
 10
1.7612169258
 20
-5.2758690947
 10
1.7598869592
 20
-5.2905436218
 10
1.758747047
 20
-5.3051428281
 10
1.7577971993
 20
-5.3196629444
 10
1.7570374767
 20
-5.3340980482
 10
1.7564676308
 20
-5.3484466433
 10
1.7560873891
 20
-5.3627115361
 10
1.7558968144
 20
-5.3768889614
 10
1.7558959251
 20
-5.3909751894
 10
1.7560848194
 20
-5.4049728764
 10
1.7564636687
 20
-5.4188782257
 10
1.7570325987
 20
-5.4326874085
 10
1.7577920741
 20
-5.4464027889
 10
1.7587425295
 20
-5.4600224823
 10
1.7598840885
 20
-5.4735405146
 10
1.7612169258
 20
-5.4869529894
  0
LWPOLYLINE
  5
338
100
AcDbEntity
  8
RACCORDO
100
AcDbPolyline
 62
250
  6
CONTINUOUS
 90
16
 70
0
 10
2.0405158228
 20
-5.2987278527
 10
2.0394482436
 20
-5.3104706181
 10
2.0385331795
 20
-5.3221474011
 10
2.0377706305
 20
-5.3337582017
 10
2.0371606762
 20
-5.3453042645
 10
2.0367032369
 20
-5.3567843448
 10
2.0363980743
 20
-5.3681947098
 10
2.0362450316
 20
-5.3795354239
 10
2.0362442656
 20
-5.3908064225
 10
2.036396008
 20
-5.4020037789
 10
2.0367001054
 20
-5.4131276137
 10
2.0371567112
 20
-5.4241778061
 10
2.0377665167
 20
-5.4351500668
 10
2.0385297523
 20
-5.4460429658
 10
2.0394461877
 20
-5.456857933
 10
2.0405158228
 20
-5.4675949685
  0
LINE
  5
339
100
AcDbEntity
  8
RACCORDO
100
AcDbLine
 62
250
  6
CONTINUOUS
 10
2.6817019987
 20
4.1926711691
 11
1.7612169258
 21
-5.2758690947
  0
LINE
  5
33A
100
AcDbEntity
  8
RACCORDO
100
AcDbLine
 62
250
  6
CONTINUOUS
 10
2.7877680158
 20
4.1396381605
 11
3.2648889325
 21
9.0475272111
  0
LINE
  5
33B
100
AcDbEntity
  8
RACCORDO
100
AcDbLine
 62
250
  6
CONTINUOUS
 10
19.3259718532
 20
12.6482606777
 11
19.2549917346
 21
12.5921763494
  0
LINE
  5
33C
100
AcDbEntity
  8
ASSI
100
AcDbLine
 62
250
  6
CONTINUOUS
 10
19.3259718532
 20
12.6482606777
 11
19.2549917346
 21
12.5921763494
  0
LWPOLYLINE
  5
33D
100
AcDbEntity
  8
0
100
AcDbPolyline
 62
7
  6
CONTINUOUS
 90
19
 70
0
 10
2.64221849
 20
19.6173214516
 10
2.6444169801
 20
19.5693301184
 10
2.6503969801
 20
19.5209777972
 10
2.6601584902
 20
19.472264488
 10
2.6739001837
 20
19.4226269147
 10
2.6914233873
 20
19.3726283534
 10
2.7121320803
 20
19.3239586323
 10
2.7361281435
 20
19.2766758905
 10
2.7633096962
 20
19.230721989
 10
2.7927750765
 20
19.187612339
 10
2.8246001635
 20
19.1474378573
 10
2.8587090781
 20
19.1101076272
 10
2.8939725206
 20
19.0768643091
 10
2.9304364508
 20
19.0478408017
 10
2.9680549088
 20
19.0229042064
 10
3.0055607156
 20
19.002898488
 10
3.042531478
 20
18.988104968
 10
3.0793895891
 20
18.9782423248
 10
3.116135049
 20
18.9733105584
  0
LWPOLYLINE
  5
33E
100
AcDbEntity
  8
ASSI
100
AcDbPolyline
 62
7
  6
CONTINUOUS
 90
19
 70
0
 10
2.64221849
 20
19.6173214516
 10
2.6444169801
 20
19.5693301184
 10
2.6503969801
 20
19.5209777972
 10
2.6601584902
 20
19.472264488
 10
2.6739001837
 20
19.4226269147
 10
2.6914233873
 20
19.3726283534
 10
2.7121320803
 20
19.3239586323
 10
2.7361281435
 20
19.2766758905
 10
2.7633096962
 20
19.230721989
 10
2.7927750765
 20
19.187612339
 10
2.8246001635
 20
19.1474378573
 10
2.8587090781
 20
19.1101076272
 10
2.8939725206
 20
19.0768643091
 10
2.9304364508
 20
19.0478408017
 10
2.9680549088
 20
19.0229042064
 10
3.0055607156
 20
19.002898488
 10
3.042531478
 20
18.988104968
 10
3.0793895891
 20
18.9782423248
 10
3.116135049
 20
18.9733105584
  0
LINE
  5
33F
100
AcDbEntity
  8
0
100
AcDbLine
 62
7
  6
CONTINUOUS
 10
2.8189951769
 20
19.8809759463
 11
2.8189951769
 21
19.1545133268
  0
LINE
  5
340
100
AcDbEntity
  8
ASSI
100
AcDbLine
 62
7
  6
CONTINUOUS
 10
2.8189951769
 20
19.8809759463
 11
2.8189951769
 21
19.1545133268
  0
LINE
  5
341
100
AcDbEntity
  8
DRAFT
100
AcDbLine
 62
7
  6
CONTINUOUS
 10
3.0329712877
 20
23.5312577666
 11
3.0329712877
 21
22.6688801054
  0
LINE
  5
342
100
AcDbEntity
  8
ASSI
100
AcDbLine
 62
7
  6
CONTINUOUS
 10
3.0329712877
 20
23.5312577666
 11
3.0329712877
 21
22.6688801054
  0
LINE
  5
343
100
AcDbEntity
  8
0
100
AcDbLine
 62
7
  6
CONTINUOUS
 10
3.4976798457
 20
22.1288328008
 11
3.4976798457
 21
22.0634810802
  0
LINE
  5
344
100
AcDbEntity
  8
DRAFT
100
AcDbLine
 62
7
  6
CONTINUOUS
 10
4.1624980611
 20
22.8531424815
 11
4.1624980611
 21
22.7584985856
  0
LINE
  5
345
100
AcDbEntity
  8
ASSI
100
AcDbLine
 62
7
  6
CONTINUOUS
 10
4.1624980611
 20
22.8531424815
 11
4.1624980611
 21
22.7584985856
  0
LINE
  5
346
100
AcDbEntity
  8
DRAFT
100
AcDbLine
 62
7
  6
CONTINUOUS
 10
4.5514067908
 20
-13.2640585391
 11
4.5514067908
 21
4.8204571302
  0
LINE
  5
347
100
AcDbEntity
  8
0
100
AcDbLine
 62
7
  6
CONTINUOUS
 10
4.5514067908
 20
-13.2640585391
 11
4.5514067908
 21
4.8204571302
  0
LINE
  5
348
100
AcDbEntity
  8
ASSI
100
AcDbLine
 62
7
  6
CONTINUOUS
 10
4.5514067908
 20
-13.2640585391
 11
4.5514067908
 21
4.8204571302
  0
LINE
  5
349
100
AcDbEntity
  8
RACCORDO
100
AcDbLine
 62
7
  6
CONTINUOUS
 10
4.6574728079
 20
-18.0178675505
 11
4.6574728079
 21
-13.3170915477
  0
LINE
  5
34A
100
AcDbEntity
  8
RACCORDO
100
AcDbLine
 62
7
  6
CONTINUOUS
 10
4.6574728079
 20
4.8694419318
 11
4.6574728079
 21
9.5702179347
  0
LWPOLYLINE
  5
34B
100
AcDbEntity
  8
RACCORDO
100
AcDbPolyline
 62
250
  6
CONTINUOUS
 90
13
 70
0
 10
3.5441795069
 20
9.0246727612
 10
3.5507434735
 20
9.1253447045
 10
3.5530224054
 20
9.2278441667
 10
3.5509952765
 20
9.3318314993
 10
3.5446675765
 20
9.4369880705
 10
3.5340716515
 20
9.5429974906
 10
3.519248765
 20
9.6495348547
 10
3.5002405472
 20
9.7562869431
 10
3.4771093356
 20
9.8629421164
 10
3.4499319844
 20
9.9691796606
 10
3.4187827957
 20
10.0746835412
 10
3.3837669769
 20
10.1791190774
 10
3.3450161082
 20
10.2821353191
  0
LWPOLYLINE
  5
34C
100
AcDbEntity
  8
RACCORDO
100
AcDbPolyline
 62
250
  6
CONTINUOUS
 90
13
 70
0
 10
3.2648889325
 20
9.0475272111
 10
3.2717142822
 20
9.1387471374
 10
3.2746669514
 20
9.2311348512
 10
3.2737469401
 20
9.3246903525
 10
3.2689285869
 20
9.4197381398
 10
3.2602375532
 20
9.5159537147
 10
3.2477508236
 20
9.6123635819
 10
3.2314157465
 20
9.7089739272
 10
3.2112849735
 20
9.805778565
 10
3.1875934436
 20
9.9017854431
 10
3.1604194697
 20
9.9966638777
 10
3.1296847388
 20
10.0907445528
 10
3.0953892509
 20
10.1840274682
  0
LINE
  5
34D
100
AcDbEntity
  8
RACCORDO
100
AcDbLine
 62
250
  6
CONTINUOUS
 10
2.9552098467
 20
4.110242971
 11
2.0405158228
 21
-5.2987278527
  0
LINE
  5
34E
100
AcDbEntity
  8
RACCORDO
100
AcDbLine
 62
250
  6
CONTINUOUS
 10
3.0689153665
 20
4.1357934624
 11
3.5441878295
 21
9.0246684531
  0
LINE
  5
34F
100
AcDbEntity
  8
SMUSSO
100
AcDbLine
 62
7
  6
CONTINUOUS
 10
6.0686322584
 20
26.1889256392
 11
6.0686322584
 21
24.904708333
  0
LINE
  5
350
100
AcDbEntity
  8
ASSI
100
AcDbLine
 62
7
  6
CONTINUOUS
 10
6.0686322584
 20
26.1889256392
 11
6.0686322584
 21
24.904708333
  0
LWPOLYLINE
  5
351
100
AcDbEntity
  8
RACCORDO
100
AcDbPolyline
 62
7
  6
CONTINUOUS
 90
10
 70
0
 10
4.6574728079
 20
-18.0178675505
 10
4.6535115015
 20
-18.1437614694
 10
4.6421733076
 20
-18.2639478956
 10
4.6234582263
 20
-18.3784268293
 10
4.5971874648
 20
-18.4877488448
 10
4.5635398158
 20
-18.5913633676
 10
4.523051658
 20
-18.6876186745
 10
4.4759017842
 20
-18.7759641908
 10
4.4219114015
 20
-18.8569504912
 10
4.36108051
 20
-18.9305775755
  0
LWPOLYLINE
  5
352
100
AcDbEntity
  8
RACCORDO
100
AcDbPolyline
 62
250
  6
CONTINUOUS
 90
13
 70
0
 10
2.0405158228
 20
-5.4675949685
 10
2.0209191505
 20
-5.4786192508
 10
1.9993253486
 20
-5.488255186
 10
1.9760957999
 20
-5.4963415121
 10
1.9516192624
 20
-5.5027429005
 10
1.9263053628
 20
-5.5073522207
 10
1.9005777416
 20
-5.5100923336
 10
1.8748669631
 20
-5.510917382
 10
1.8496033098
 20
-5.5098135584
 10
1.8252095812
 20
-5.5067993357
 10
1.8020940183
 20
-5.5019251584
 10
1.7806434714
 20
-5.4952725984
 10
1.7612169258
 20
-5.4869529894
  0
LINE
  5
353
100
AcDbEntity
  8
RACCORDO
100
AcDbLine
 62
7
  6
CONTINUOUS
 10
2.6817019987
 20
4.1926711691
 11
2.7877680158
 21
4.1396381605
  0
LWPOLYLINE
  5
354
100
AcDbEntity
  8
RACCORDO
100
AcDbPolyline
 62
250
  6
CONTINUOUS
 90
3
 70
0
 10
3.3450207978
 20
10.2821374226
 10
3.0417332511
 20
11.0395189024
 10
2.8966831733
 20
11.3821159231
  0
LINE
  5
355
100
AcDbEntity
  8
RACCORDO
100
AcDbLine
 62
250
  6
CONTINUOUS
 10
3.0953892509
 20
10.1840274682
 11
2.8554262796
 21
10.7839364329
  0
LWPOLYLINE
  5
356
100
AcDbEntity
  8
RACCORDO
100
AcDbPolyline
 62
250
  6
CONTINUOUS
 90
6
 70
0
 10
0.6785685052
 20
19.7106063897
 10
0.6750384205
 20
19.7240797951
 10
0.6665970285
 20
19.7441321126
 10
0.6555252272
 20
19.7622721564
 10
0.6420136542
 20
19.7781972011
 10
0.6268309209
 20
19.7912533501
  0
LINE
  5
357
100
AcDbEntity
  8
RACCORDO
100
AcDbLine
 62
7
  6
CONTINUOUS
 10
5.3672319383
 20
22.2236900493
 11
5.3479302202
 21
22.4785178828
  0
LWPOLYLINE
  5
358
100
AcDbEntity
  8
SMUSSO
100
AcDbPolyline
 62
7
  6
CONTINUOUS
 90
6
 70
0
 10
8.1800124824
 20
18.6170469795
 10
8.1819882912
 20
18.5665063293
 10
8.1924052953
 20
18.4904955068
 10
8.2117070019
 20
18.414891413
 10
8.2398140392
 20
18.3399161947
 10
8.2766257432
 20
18.2657895275
  0
LWPOLYLINE
  5
359
100
AcDbEntity
  8
ASSI
100
AcDbPolyline
 62
7
  6
CONTINUOUS
 90
5
 70
0
 10
8.1800124824
 20
18.6170469795
 10
8.1819882912
 20
18.5665063293
 10
8.1924052953
 20
18.4904955068
 10
8.2117070019
 20
18.414891413
 10
8.2398140392
 20
18.3399161947
  0
LINE
  5
35A
100
AcDbEntity
  8
SMUSSO
100
AcDbLine
 62
250
  6
CONTINUOUS
 10
8.9377950215
 20
19.5266646985
 11
8.9377950215
 21
18.7758034986
  0
LINE
  5
35B
100
AcDbEntity
  8
ASSI
100
AcDbLine
 62
250
  6
CONTINUOUS
 10
8.9377950215
 20
19.5266646985
 11
8.9377950215
 21
18.7758034986
  0
LWPOLYLINE
  5
35C
100
AcDbEntity
  8
ASSI
100
AcDbPolyline
 62
250
  6
CONTINUOUS
 90
7
 70
0
 10
10.6790231173
 20
23.3507827267
 10
10.6753843584
 20
23.3207557979
 10
10.6634591477
 20
23.2889714983
 10
10.6434280049
 20
23.258222789
 10
10.6156261018
 20
23.2290241813
 10
10.5805186346
 20
23.2018642474
 10
10.5386930427
 20
23.1771974485
  0
LWPOLYLINE
  5
35D
100
AcDbEntity
  8
RACCORDO
100
AcDbPolyline
 62
250
  6
CONTINUOUS
 90
7
 70
0
 10
10.6790231318
 20
23.3508104117
 10
10.6753843584
 20
23.3207557979
 10
10.6634591477
 20
23.2889714983
 10
10.6434280049
 20
23.258222789
 10
10.6156261018
 20
23.2290241813
 10
10.5805186346
 20
23.2018642474
 10
10.5386930427
 20
23.1771974485
  0
LWPOLYLINE
  5
35E
100
AcDbEntity
  8
RACCORDO
100
AcDbPolyline
 62
250
  6
CONTINUOUS
 90
16
 70
0
 10
-2.4182597494
 20
11.0712234461
 10
-2.3798379309
 20
11.053557115
 10
-2.3380712152
 20
11.0373622545
 10
-2.2934070978
 20
11.022812379
 10
-2.2463241173
 20
11.0100633784
 10
-2.1973267287
 20
10.9992518475
 10
-2.1469398978
 20
10.9904936231
 10
-2.0957034777
 20
10.9838825421
 10
-2.0441664237
 20
10.9794894368
 10
-1.9928809123
 20
10.9773613756
 10
-1.9423964249
 20
10.9775211591
 10
-1.8932538606
 20
10.9799670751
 10
-1.845979741
 20
10.9846729179
 10
-1.8010805687
 20
10.9915882681
 10
-1.7590374009
 20
11.0006390337
 10
-1.720300695
 20
11.011728243
  0
LINE
  5
35F
100
AcDbEntity
  8
RACCORDO
100
AcDbLine
 62
250
  6
CONTINUOUS
 10
-17.175980845
 20
18.4500701351
 11
-2.418276221
 21
11.0712178231
  0
LWPOLYLINE
  5
360
100
AcDbEntity
  8
0
100
AcDbPolyline
 62
7
  6
CONTINUOUS
 90
13
 70
0
 10
-7.0050248857
 20
21.2343020637
 10
-6.9704811247
 20
21.1965478924
 10
-6.9351915835
 20
21.1632169006
 10
-6.8991562622
 20
21.1343090881
 10
-6.8619520406
 20
21.1095982597
 10
-6.8240020388
 20
21.0893106107
 10
-6.7865756172
 20
21.074124727
 10
-6.7496904861
 20
21.0642131777
 10
-6.7133289351
 20
21.0594033937
 10
-6.6787071938
 20
21.0598562538
 10
-6.6458841118
 20
21.0657497688
 10
-6.6148008394
 20
21.0769059278
 10
-6.6093035769
 20
21.0795270876
  0
LWPOLYLINE
  5
361
100
AcDbEntity
  8
ASSI
100
AcDbPolyline
 62
7
  6
CONTINUOUS
 90
13
 70
0
 10
-7.0050248857
 20
21.2343020637
 10
-6.9704811247
 20
21.1965478924
 10
-6.9351915835
 20
21.1632169006
 10
-6.8991562622
 20
21.1343090881
 10
-6.8619520406
 20
21.1095982597
 10
-6.8240020388
 20
21.0893106107
 10
-6.7865756172
 20
21.074124727
 10
-6.7496904861
 20
21.0642131777
 10
-6.7133289351
 20
21.0594033937
 10
-6.6787071938
 20
21.0598562538
 10
-6.6458841118
 20
21.0657497688
 10
-6.6148008394
 20
21.0769059278
 10
-6.6093035769
 20
21.0795270876
  0
LWPOLYLINE
  5
362
100
AcDbEntity
  8
DRAFT
100
AcDbPolyline
 62
7
  6
CONTINUOUS
 90
13
 70
0
 10
-4.7470473818
 20
19.8774043317
 10
-4.7625917246
 20
19.8986582699
 10
-4.7786069059
 20
19.9190470378
 10
-4.7950929258
 20
19.9385706353
 10
-4.8120997924
 20
19.9572801195
 10
-4.8295774975
 20
19.9751244334
 10
-4.8473760173
 20
19.9919504061
 10
-4.8654981135
 20
20.0077492715
 10
-4.8839410245
 20
20.0225297957
 10
-4.9025464411
 20
20.0361651069
 10
-4.9213157623
 20
20.0486453464
 10
-4.9402475893
 20
20.0599803728
 10
-4.9591794162
 20
20.0700728893
  0
LWPOLYLINE
  5
363
100
AcDbEntity
  8
RACCORDO
100
AcDbPolyline
 62
250
  6
CONTINUOUS
 90
10
 70
0
 10
-0.0949972014
 20
16.6412842086
 10
-0.1065712559
 20
16.6590864643
 10
-0.1187252663
 20
16.6758197361
 10
-0.1314592325
 20
16.691484024
 10
-0.1448503189
 20
16.7061497274
 10
-0.1588213612
 20
16.7197464468
 10
-0.1731408659
 20
16.7320629844
 10
-0.1877316685
 20
16.7430289408
 10
-0.2026709335
 20
16.7527147153
 10
-0.2179586608
 20
16.761120308
  0
LWPOLYLINE
  5
364
100
AcDbEntity
  8
RACCORDO
100
AcDbPolyline
 62
7
  6
CONTINUOUS
 90
5
 70
0
 10
3.0311855093
 20
13.3322515648
 10
3.2444858928
 20
12.9514163054
 10
3.6290764787
 20
12.2349961891
 10
4.0012746844
 20
11.5109641731
 10
4.36108051
 20
10.7793202576
  0
LWPOLYLINE
  5
365
100
AcDbEntity
  8
RACCORDO
100
AcDbPolyline
 62
250
  6
CONTINUOUS
 90
4
 70
0
 10
0.9184560612
 20
14.8812711032
 10
0.7041516011
 20
15.2746606409
 10
0.3108860408
 20
15.9631148436
 10
-0.0949972014
 20
16.6412842086
  0
LWPOLYLINE
  5
366
100
AcDbEntity
  8
RACCORDO
100
AcDbPolyline
 62
250
  6
CONTINUOUS
 90
5
 70
0
 10
1.3337717031
 20
14.6736132823
 10
1.3177987854
 20
14.7043470987
 10
0.9335811494
 20
15.4087248953
 10
0.5370033858
 20
16.1022148577
 10
0.1284418504
 20
16.7842511026
  0
LWPOLYLINE
  5
367
100
AcDbEntity
  8
0
100
AcDbPolyline
 62
7
  6
CONTINUOUS
 90
4
 70
0
 10
4.2468569066
 20
11.0151901448
 10
3.8645260315
 20
11.7805954037
 10
3.468905936
 20
12.5370464955
 10
3.0599966203
 20
13.2845434202
  0
LWPOLYLINE
  5
368
100
AcDbEntity
  8
ASSI
100
AcDbPolyline
 62
7
  6
CONTINUOUS
 90
4
 70
0
 10
4.2468569066
 20
11.0151901448
 10
3.8645260315
 20
11.7805954037
 10
3.468905936
 20
12.5370464955
 10
3.0599966203
 20
13.2845434202
  0
LINE
  5
369
100
AcDbEntity
  8
ASSI
100
AcDbLine
 62
7
  6
CONTINUOUS
 10
4.2742513452
 20
10.9576037071
 11
4.2468569066
 21
11.0151901448
  0
LWPOLYLINE
  5
36A
100
AcDbEntity
  8
RACCORDO
100
AcDbPolyline
 62
7
  6
CONTINUOUS
 90
10
 70
0
 10
4.36108051
 20
10.7793202576
 10
4.4219114015
 20
10.6448622818
 10
4.4759017842
 20
10.5098855988
 10
4.523051658
 20
10.3743902086
 10
4.5635398158
 20
10.2376467439
 10
4.5971874648
 20
10.1003845721
 10
4.6234582263
 20
9.964791795
 10
4.6421733076
 20
9.8315977801
 10
4.6535115015
 20
9.70007316
 10
4.6574728079
 20
9.5702179347
  0
LWPOLYLINE
  5
36B
100
AcDbEntity
  8
0
100
AcDbPolyline
 62
7
  6
CONTINUOUS
 90
3
 70
0
 10
4.3004417194
 20
10.8996674703
 10
4.2742513452
 20
10.9576037071
 10
4.2468569066
 20
11.0151901448
  0
LINE
  5
36C
100
AcDbEntity
  8
ASSI
100
AcDbLine
 62
7
  6
CONTINUOUS
 10
4.3004417194
 20
10.8996674703
 11
4.2742513452
 21
10.9576037071
  0
LWPOLYLINE
  5
36D
100
AcDbEntity
  8
ASSI
100
AcDbPolyline
 62
7
  6
CONTINUOUS
 90
6
 70
0
 10
4.413213943
 20
10.6050388341
 10
4.3931625733
 20
10.6644245316
 10
4.3718343408
 20
10.7236400347
 10
4.3492332172
 20
10.7826856341
 10
4.3254280293
 20
10.8413814343
 10
4.3004417194
 20
10.8996674703
  0
LWPOLYLINE
  5
36E
100
AcDbEntity
  8
RACCORDO
100
AcDbPolyline
 62
7
  6
CONTINUOUS
 90
12
 70
0
 10
5.3479302202
 20
22.4785178828
 10
5.3464722466
 20
22.4916799449
 10
5.3440660754
 20
22.5041184733
 10
5.3407117066
 20
22.5158334681
 10
5.3363613445
 20
22.526944354
 10
5.3310627848
 20
22.5373317062
 10
5.3249594146
 20
22.5466372509
 10
5.3180526486
 20
22.5547771237
 10
5.3103410721
 20
22.561835189
 10
5.301963829
 20
22.5677047665
 10
5.2929249463
 20
22.5723790172
 10
5.2856640926
 20
22.5751216842
  0
LWPOLYLINE
  5
36F
100
AcDbEntity
  8
RACCORDO
100
AcDbPolyline
 62
250
  6
CONTINUOUS
 90
16
 70
0
 10
10.5386930427
 20
23.6142024289
 10
10.5373569011
 20
23.6607278855
 10
10.5320963009
 20
23.7086457654
 10
10.522968856
 20
23.7574312737
 10
10.5100745298
 20
23.8065501132
 10
10.4935545405
 20
23.8554643362
 10
10.4735898145
 20
23.9036382358
 10
10.4503990047
 20
23.9505442131
 10
10.424236096
 20
23.9956685556
 10
10.3953876238
 20
24.0385170631
 10
10.3641695354
 20
24.0786204601
 10
10.3309237303
 20
24.1155395358
 10
10.2960143154
 20
24.1488699537
 10
10.2598236172
 20
24.1782466803
 10
10.2227479951
 20
24.2033479826
 10
10.1851935
 20
24.2238989522
  0
LWPOLYLINE
  5
370
100
AcDbEntity
  8
ASSI
100
AcDbPolyline
 62
250
  6
CONTINUOUS
 90
16
 70
0
 10
10.5386930427
 20
23.6142024289
 10
10.5373569011
 20
23.6607278855
 10
10.5320963009
 20
23.7086457654
 10
10.522968856
 20
23.7574312737
 10
10.5100745298
 20
23.8065501132
 10
10.4935545405
 20
23.8554643362
 10
10.4735898145
 20
23.9036382358
 10
10.4503990047
 20
23.9505442131
 10
10.424236096
 20
23.9956685556
 10
10.3953876238
 20
24.0385170631
 10
10.3641695354
 20
24.0786204601
 10
10.3309237303
 20
24.1155395358
 10
10.2960143154
 20
24.1488699537
 10
10.2598236172
 20
24.1782466803
 10
10.2227479951
 20
24.2033479826
 10
10.1851935
 20
24.2238989522
  0
LINE
  5
371
100
AcDbEntity
  8
DRAFT
100
AcDbLine
 62
7
  6
CONTINUOUS
 10
10.10115318
 20
19.3021517758
 11
10.10115318
 21
18.4396737186
  0
LINE
  5
372
100
AcDbEntity
  8
ASSI
100
AcDbLine
 62
7
  6
CONTINUOUS
 10
10.10115318
 20
19.3021517758
 11
10.10115318
 21
18.4396737186
  0
LINE
  5
373
100
AcDbEntity
  8
RACCORDO
100
AcDbLine
 62
250
  6
CONTINUOUS
 10
10.5386930427
 20
23.6142024289
 11
10.5386930427
 21
23.1771974484
  0
LINE
  5
374
100
AcDbEntity
  8
ASSI
100
AcDbLine
 62
250
  6
CONTINUOUS
 10
10.5386930427
 20
23.6142024289
 11
10.5386930427
 21
23.1771974484
  0
LINE
  5
375
100
AcDbEntity
  8
RACCORDO
100
AcDbLine
 62
7
  6
CONTINUOUS
 10
10.6790231425
 20
23.7878670215
 11
10.6790231425
 21
23.3508620403
  0
LINE
  5
376
100
AcDbEntity
  8
ASSI
100
AcDbLine
 62
7
  6
CONTINUOUS
 10
10.6790231425
 20
23.7878670215
 11
10.6790231425
 21
23.3508620403
  0
LINE
  5
377
100
AcDbEntity
  8
0
100
AcDbLine
 62
7
  6
CONTINUOUS
 10
10.7101690138
 20
17.9062373447
 11
10.7101690138
 21
17.4601822532
  0
LINE
  5
378
100
AcDbEntity
  8
DRAFT
100
AcDbLine
 62
7
  6
CONTINUOUS
 10
11.233565873
 20
18.624812096
 11
11.233565873
 21
18.5380307492
  0
LINE
  5
379
100
AcDbEntity
  8
ASSI
100
AcDbLine
 62
7
  6
CONTINUOUS
 10
11.233565873
 20
18.624812096
 11
11.233565873
 21
18.5380307492
  0
LINE
  5
37A
100
AcDbEntity
  8
0
100
AcDbLine
 62
7
  6
CONTINUOUS
 10
11.233565873
 20
17.7645515417
 11
11.233565873
 21
17.4620559662
  0
LINE
  5
37B
100
AcDbEntity
  8
0
100
AcDbLine
 62
7
  6
CONTINUOUS
 10
11.2943895693
 20
17.7810167805
 11
11.2943895693
 21
17.4646352662
  0
LWPOLYLINE
  5
37C
100
AcDbEntity
  8
RACCORDO
100
AcDbPolyline
 62
250
  6
CONTINUOUS
 90
9
 70
0
 10
10.6790231425
 20
23.7878670215
 10
10.6785598571
 20
23.7771074822
 10
10.673659309
 20
23.7513462644
 10
10.6634590771
 20
23.7259763412
 10
10.6480684499
 20
23.7012695337
 10
10.6276523273
 20
23.6774905583
 10
10.6024294539
 20
23.6548941902
 10
10.5726700753
 20
23.6337225339
 10
10.5386930427
 20
23.6142024289
  0
LWPOLYLINE
  5
37D
100
AcDbEntity
  8
ASSI
100
AcDbPolyline
 62
250
  6
CONTINUOUS
 90
9
 70
0
 10
10.6790231425
 20
23.7878670215
 10
10.6785598571
 20
23.7771074822
 10
10.673659309
 20
23.7513462644
 10
10.6634590771
 20
23.7259763412
 10
10.6480684499
 20
23.7012695337
 10
10.6276523273
 20
23.6774905583
 10
10.6024294539
 20
23.6548941902
 10
10.5726700753
 20
23.6337225339
 10
10.5386930427
 20
23.6142024289
  0
LWPOLYLINE
  5
37E
100
AcDbEntity
  8
RACCORDO
100
AcDbPolyline
 62
250
  6
CONTINUOUS
 90
13
 70
0
 10
3.2648889325
 20
9.0475272111
 10
3.2843147538
 20
9.038760217
 10
3.3057646084
 20
9.0309611192
 10
3.328879583
 20
9.0242604547
 10
3.3532728957
 20
9.0187703808
 10
3.3785363372
 20
9.0145828047
 10
3.4042470982
 20
9.0117678384
 10
3.4299749115
 20
9.0103726167
 10
3.4552891893
 20
9.010420517
 10
3.479766202
 20
9.0119107579
 10
3.5029962717
 20
9.0148184108
 10
3.5245906232
 20
9.0190948279
 10
3.5441878294
 20
9.0246684521
  0
LINE
  5
37F
100
AcDbEntity
  8
RACCORDO
100
AcDbLine
 62
250
  6
CONTINUOUS
 10
-16.4375717055
 20
19.5784163224
 11
-1.6678582445
 21
12.1935595919
  0
LWPOLYLINE
  5
380
100
AcDbEntity
  8
RACCORDO
100
AcDbPolyline
 62
250
  6
CONTINUOUS
 90
16
 70
0
 10
-1.6678582445
 20
12.1935595919
 10
-1.6316797226
 20
12.1723906975
 10
-1.5961336904
 20
12.1466028516
 10
-1.5616093711
 20
12.116478427
 10
-1.5284848007
 20
12.0823472815
 10
-1.4971226881
 20
12.0445831457
 10
-1.4678664435
 20
12.0035995309
 10
-1.4410364183
 20
11.9598452014
 10
-1.4169263971
 20
11.9137992601
 10
-1.3958003806
 20
11.8659659028
 10
-1.3778896956
 20
11.8168688974
 10
-1.3633904613
 20
11.7670458483
 10
-1.3524614418
 20
11.71704231
 10
-1.3452223084
 20
11.6674058135
 10
-1.3417523283
 20
11.6186798706
 10
-1.3420894973
 20
11.5713980227
  0
LWPOLYLINE
  5
381
100
AcDbEntity
  8
0
100
AcDbPolyline
 62
7
  6
CONTINUOUS
 90
10
 70
0
 10
-0.3435098945
 20
18.4839488968
 10
-0.3826409762
 20
18.533133042
 10
-0.4230551849
 20
18.5796417788
 10
-0.4647525207
 20
18.6234751072
 10
-0.5080131745
 20
18.6648783749
 10
-0.5525569555
 20
18.7036062342
 10
-0.5975432903
 20
18.7389226415
 10
-0.6426919881
 20
18.7705822489
 10
-0.6882832398
 20
18.7988304043
 10
-0.7343170454
 20
18.8236671077
  0
LWPOLYLINE
  5
382
100
AcDbEntity
  8
ASSI
100
AcDbPolyline
 62
7
  6
CONTINUOUS
 90
10
 70
0
 10
-0.3435098945
 20
18.4839488968
 10
-0.3826409762
 20
18.533133042
 10
-0.4230551849
 20
18.5796417788
 10
-0.4647525207
 20
18.6234751072
 10
-0.5080131745
 20
18.6648783749
 10
-0.5525569555
 20
18.7036062342
 10
-0.5975432903
 20
18.7389226415
 10
-0.6426919881
 20
18.7705822489
 10
-0.6882832398
 20
18.7988304043
 10
-0.7343170454
 20
18.8236671077
  0
LINE
  5
383
100
AcDbEntity
  8
0
100
AcDbLine
 62
7
  6
CONTINUOUS
 10
-0.2624337822
 20
18.3771920693
 11
-0.3435098945
 21
18.4839488968
  0
LINE
  5
384
100
AcDbEntity
  8
ASSI
100
AcDbLine
 62
7
  6
CONTINUOUS
 10
-0.2624337822
 20
18.3771920693
 11
-0.3435098945
 21
18.4839488968
  0
LINE
  5
385
100
AcDbEntity
  8
0
100
AcDbLine
 62
7
  6
CONTINUOUS
 10
-0.1816642939
 20
18.2701334148
 11
-0.2624337822
 21
18.3771920693
  0
LINE
  5
386
100
AcDbEntity
  8
ASSI
100
AcDbLine
 62
7
  6
CONTINUOUS
 10
-0.1816642939
 20
18.2701334148
 11
-0.2624337822
 21
18.3771920693
  0
LWPOLYLINE
  5
387
100
AcDbEntity
  8
DRAFT
100
AcDbPolyline
 62
7
  6
CONTINUOUS
 90
13
 70
0
 10
-1.4943561884
 20
18.251058735
 10
-1.5099005311
 20
18.2723126732
 10
-1.5259157124
 20
18.2927014411
 10
-1.5424017324
 20
18.3122250386
 10
-1.5594085989
 20
18.3309345228
 10
-1.576886304
 20
18.3487788366
 10
-1.5946848239
 20
18.3656048094
 10
-1.6128069201
 20
18.3814036747
 10
-1.631249831
 20
18.396184199
 10
-1.6498552476
 20
18.4098195101
 10
-1.6686245689
 20
18.4222997497
 10
-1.6875563958
 20
18.4336347761
 10
-1.7064882227
 20
18.4437272926
  0
LINE
  5
388
100
AcDbEntity
  8
0
100
AcDbLine
 62
7
  6
CONTINUOUS
 10
0.8227173742
 20
16.8769508363
 11
0.3393572467
 21
17.5621109975
  0
LINE
  5
389
100
AcDbEntity
  8
ASSI
100
AcDbLine
 62
7
  6
CONTINUOUS
 10
0.8227173742
 20
16.8769508363
 11
0.3393572467
 21
17.5621109975
  0
LWPOLYLINE
  5
38A
100
AcDbEntity
  8
RACCORDO
100
AcDbPolyline
 62
7
  6
CONTINUOUS
 90
6
 70
0
 10
0.6869880311
 20
17.0722231672
 10
1.1413615036
 20
16.4094139795
 10
1.5844854445
 20
15.7370080094
 10
2.0163598539
 20
15.0550052569
 10
2.4373656813
 20
14.3627440945
 10
2.6360089341
 20
14.0224946668
  0
LWPOLYLINE
  5
38B
100
AcDbEntity
  8
RACCORDO
100
AcDbPolyline
 62
250
  6
CONTINUOUS
 90
10
 70
0
 10
0.1284409038
 20
16.7842500334
 10
0.108595296
 20
16.8132326389
 10
0.0876549683
 20
16.8407604506
 10
0.0657300865
 20
16.8666981899
 10
0.04292969
 20
16.890908248
 10
0.0193654569
 20
16.9132649995
 10
-0.0048401877
 20
16.9336683537
 10
-0.0295634816
 20
16.9520159001
 10
-0.0546811698
 20
16.968199361
 10
-0.0800594209
 20
16.9821291305
  0
LWPOLYLINE
  5
38C
100
AcDbEntity
  8
0
100
AcDbPolyline
 62
7
  6
CONTINUOUS
 90
5
 70
0
 10
2.6373577083
 20
14.0238038246
 10
2.201429576
 20
14.7541100619
 10
1.7535333509
 20
15.4733091919
 10
1.2941094089
 20
16.1806835678
 10
0.8227173742
 20
16.8769508363
  0
LWPOLYLINE
  5
38D
100
AcDbEntity
  8
ASSI
100
AcDbPolyline
 62
7
  6
CONTINUOUS
 90
5
 70
0
 10
2.6373577083
 20
14.0238038246
 10
2.201429576
 20
14.7541100619
 10
1.7535333509
 20
15.4733091919
 10
1.2941094089
 20
16.1806835678
 10
0.8227173742
 20
16.8769508363
  0
LINE
  5
38E
100
AcDbEntity
  8
0
100
AcDbLine
 62
7
  6
CONTINUOUS
 10
3.0599966203
 20
13.2845434202
 11
3.0313508778
 21
13.3346492258
  0
LINE
  5
38F
100
AcDbEntity
  8
ASSI
100
AcDbLine
 62
7
  6
CONTINUOUS
 10
3.0599966203
 20
13.2845434202
 11
3.0313508778
 21
13.3346492258
  0
LWPOLYLINE
  5
390
100
AcDbEntity
  8
RACCORDO
100
AcDbPolyline
 62
250
  6
CONTINUOUS
 90
6
 70
0
 10
0.6227076653
 20
19.6848080027
 10
0.6120421702
 20
19.7041819896
 10
0.5976571228
 20
19.7258274688
 10
0.581748508
 20
19.745832151
 10
0.5645885268
 20
19.7638537507
 10
0.5464707912
 20
19.7795839133
  0
LWPOLYLINE
  5
391
100
AcDbEntity
  8
ASSI
100
AcDbPolyline
 62
7
  6
CONTINUOUS
 90
4
 70
0
 10
1.2020661577
 20
22.9345281855
 10
1.2388778617
 20
22.8604015182
 10
1.284257407
 20
22.7873755497
 10
1.3380466514
 20
22.7156880009
  0
LINE
  5
392
100
AcDbEntity
  8
0
100
AcDbLine
 62
7
  6
CONTINUOUS
 10
2.7907109056
 20
22.4823172709
 11
2.910304204
 21
22.1287446851
  0
LWPOLYLINE
  5
393
100
AcDbEntity
  8
ASSI
100
AcDbPolyline
 62
7
  6
CONTINUOUS
 90
3
 70
0
 10
10.6824529251
 20
23.3057146263
 10
10.6794964326
 20
23.3349967623
 10
10.6790232991
 20
23.3507827266
  0
LWPOLYLINE
  5
394
100
AcDbEntity
  8
RACCORDO
100
AcDbPolyline
 62
250
  6
CONTINUOUS
 90
19
 70
0
 10
10.5386930427
 20
23.1771974484
 10
10.5397701281
 20
23.1618276026
 10
10.5418875608
 20
23.1460451507
 10
10.5450233335
 20
23.1299793361
 10
10.5491497363
 20
23.1137580917
 10
10.5542262638
 20
23.0975106504
 10
10.5601987034
 20
23.0813665233
 10
10.5670057167
 20
23.0654606434
 10
10.5745937222
 20
23.0498983197
 10
10.5829151088
 20
23.0347607572
 10
10.5918994334
 20
23.020164394
 10
10.6014804098
 20
23.0062091495
 10
10.6116210955
 20
22.9929534147
 10
10.6222524258
 20
22.9804926855
 10
10.6332909936
 20
22.9689320999
 10
10.6446797816
 20
22.958348794
 10
10.6563416391
 20
22.9488288146
 10
10.6681773785
 20
22.9404604502
 10
10.6800928597
 20
22.9333188391
  0
LWPOLYLINE
  5
395
100
AcDbEntity
  8
ASSI
100
AcDbPolyline
 62
250
  6
CONTINUOUS
 90
19
 70
0
 10
10.5386930427
 20
23.1771974484
 10
10.5397701281
 20
23.1618276026
 10
10.5418875608
 20
23.1460451507
 10
10.5450233335
 20
23.1299793361
 10
10.5491497363
 20
23.1137580917
 10
10.5542262638
 20
23.0975106504
 10
10.5601987034
 20
23.0813665233
 10
10.5670057167
 20
23.0654606434
 10
10.5745937222
 20
23.0498983197
 10
10.5829151088
 20
23.0347607572
 10
10.5918994334
 20
23.020164394
 10
10.6014804098
 20
23.0062091495
 10
10.6116210955
 20
22.9929534147
 10
10.6222524258
 20
22.9804926855
 10
10.6332909936
 20
22.9689320999
 10
10.6446797816
 20
22.958348794
 10
10.6563416391
 20
22.9488288146
 10
10.6681773785
 20
22.9404604502
 10
10.6800928597
 20
22.9333188391
  0
LWPOLYLINE
  5
396
100
AcDbEntity
  8
ASSI
100
AcDbPolyline
 62
7
  6
CONTINUOUS
 90
9
 70
0
 10
10.6790231425
 20
23.7878670215
 10
10.6749391424
 20
23.8516342314
 10
10.6625822912
 20
23.9150277997
 10
10.6419644011
 20
23.9767727945
 10
10.6133063505
 20
24.035653299
 10
10.5771073928
 20
24.0904044676
 10
10.5340859516
 20
24.1399045218
 10
10.4847083354
 20
24.1835391832
 10
10.4301018633
 20
24.2202475349
  0
LINE
  5
397
100
AcDbEntity
  8
RACCORDO
100
AcDbLine
 62
7
  6
CONTINUOUS
 10
10.6790231425
 20
23.7878670215
 11
10.6763979313
 21
23.839033917
  0
LINE
  5
398
100
AcDbEntity
  8
RACCORDO
100
AcDbLine
 62
7
  6
CONTINUOUS
 10
10.6796130809
 20
23.3330699243
 11
10.6790233137
 21
23.3508104116
  0
LINE
  5
399
100
AcDbEntity
  8
RACCORDO
100
AcDbLine
 62
250
  6
CONTINUOUS
 10
12.338828332
 20
-14.03978323
 11
12.338828332
 21
-8.6615941856
  0
LINE
  5
39A
100
AcDbEntity
  8
ASSI
100
AcDbLine
 62
250
  6
CONTINUOUS
 10
12.338828332
 20
-14.03978323
 11
12.338828332
 21
-8.6615941856
  0
LINE
  5
39B
100
AcDbEntity
  8
RACCORDO
100
AcDbLine
 62
7
  6
CONTINUOUS
 10
12.4791584319
 20
-13.8661186371
 11
12.4791584319
 21
-8.487929593
  0
LINE
  5
39C
100
AcDbEntity
  8
ASSI
100
AcDbLine
 62
7
  6
CONTINUOUS
 10
12.4791584319
 20
-13.8661186371
 11
12.4791583798
 21
-8.48781554
  0
LINE
  5
39D
100
AcDbEntity
  8
SMUSSO
100
AcDbLine
 62
7
  6
CONTINUOUS
 10
13.1391184687
 20
20.6766449048
 11
13.1391184687
 21
21.6105521009
  0
LINE
  5
39E
100
AcDbEntity
  8
ASSI
100
AcDbLine
 62
7
  6
CONTINUOUS
 10
13.1391184687
 20
20.6766449048
 11
13.1391184687
 21
21.6105521009
  0
LWPOLYLINE
  5
39F
100
AcDbEntity
  8
RACCORDO
100
AcDbPolyline
 62
250
  6
CONTINUOUS
 90
6
 70
0
 10
12.338828332
 20
-8.6615941856
 10
12.3393341381
 20
-8.6157975151
 10
12.3424353301
 20
-8.5671096111
 10
12.3481319079
 20
-8.5155304735
 10
12.3562569883
 20
-8.4606723686
 10
12.3669774547
 20
-8.4029230302
  0
LWPOLYLINE
  5
3A0
100
AcDbEntity
  8
ASSI
100
AcDbPolyline
 62
250
  6
CONTINUOUS
 90
6
 70
0
 10
12.338828332
 20
-8.6615941856
 10
12.3393341381
 20
-8.6157975151
 10
12.3424353301
 20
-8.5671096111
 10
12.3481319079
 20
-8.5155304735
 10
12.3562569883
 20
-8.4606723686
 10
12.3669774547
 20
-8.4029230302
  0
LWPOLYLINE
  5
3A1
100
AcDbEntity
  8
RACCORDO
100
AcDbPolyline
 62
7
  6
CONTINUOUS
 90
21
 70
0
 10
12.4791584098
 20
-8.4878794988
 10
12.4795050698
 20
-8.4675612442
 10
12.4821187527
 20
-8.4267532903
 10
12.4876360428
 20
-8.3818117412
 10
12.4962751251
 20
-8.3338150193
 10
12.5081743407
 20
-8.2834487035
 10
12.5234142928
 20
-8.2313027058
 10
12.5418687555
 20
-8.1783777131
 10
12.5633828888
 20
-8.1254072636
 10
12.5877620326
 20
-8.0730238333
 10
12.6146524938
 20
-8.0220423867
 10
12.6436950472
 20
-7.9730838033
 10
12.6744753682
 20
-7.9267307293
 10
12.7064050679
 20
-7.8836768422
 10
12.7390132626
 20
-7.8442924806
 10
12.7716692546
 20
-7.8090372358
 10
12.8033614643
 20
-7.7785667124
 10
12.8334792524
 20
-7.7529253374
 10
12.8613674374
 20
-7.7320926045
 10
12.885892472
 20
-7.7162106929
 10
12.8991925663
 20
-7.7086390425
  0
LINE
  5
3A2
100
AcDbEntity
  8
ASSI
100
AcDbLine
 62
7
  6
CONTINUOUS
 10
12.4791583678
 20
-8.48781554
 11
12.4794867497
 21
-8.4686350128
  0
LWPOLYLINE
  5
3A3
100
AcDbEntity
  8
RACCORDO
100
AcDbPolyline
 62
250
  6
CONTINUOUS
 90
10
 70
0
 10
13.0214672115
 20
-7.4422540552
 10
13.0201310699
 20
-7.4862216338
 10
13.0148704698
 20
-7.5278057126
 10
13.0057430248
 20
-7.5665508641
 10
12.9928486986
 20
-7.6020327529
 10
12.9763287093
 20
-7.6338627827
 10
12.9563639833
 20
-7.6616923519
 10
12.9331731735
 20
-7.6852166722
 10
12.9070102649
 20
-7.7041781061
 10
12.8992092215
 20
-7.7086298981
  0
LWPOLYLINE
  5
3A4
100
AcDbEntity
  8
ASSI
100
AcDbPolyline
 62
250
  6
CONTINUOUS
 90
10
 70
0
 10
13.0214672115
 20
-7.4422540552
 10
13.0201310699
 20
-7.4862216338
 10
13.0148704698
 20
-7.5278057126
 10
13.0057430248
 20
-7.5665508641
 10
12.9928486986
 20
-7.6020327529
 10
12.9763287093
 20
-7.6338627827
 10
12.9563639833
 20
-7.6616923519
 10
12.9331731735
 20
-7.6852166722
 10
12.9070102649
 20
-7.7041781061
 10
12.8992092215
 20
-7.7086298981
  0
LWPOLYLINE
  5
3A5
100
AcDbEntity
  8
ASSI
100
AcDbPolyline
 62
7
  6
CONTINUOUS
 90
14
 70
0
 10
12.4794867497
 20
-8.4686350128
 10
12.4842307448
 20
-8.4069247747
 10
12.4957488623
 20
-8.3363629416
 10
12.5144123232
 20
-8.2608739434
 10
12.5401376811
 20
-8.1829974436
 10
12.5726758055
 20
-8.1046256849
 10
12.6111564064
 20
-8.0283332691
 10
12.6545435159
 20
-7.9561518725
 10
12.7014842351
 20
-7.8900082065
 10
12.7499075679
 20
-7.8320821672
 10
12.7982284199
 20
-7.7832578188
 10
12.8439821773
 20
-7.7447456689
 10
12.8832195648
 20
-7.7178242196
 10
12.8991001266
 20
-7.7086888716
  0
LWPOLYLINE
  5
3A6
100
AcDbEntity
  8
RACCORDO
100
AcDbPolyline
 62
7
  6
CONTINUOUS
 90
3
 70
0
 10
12.4676987846
 20
-14.080293265
 10
12.4768978076
 20
-13.9622123101
 10
12.479150526
 20
-13.8661136716
  0
LWPOLYLINE
  5
3A7
100
AcDbEntity
  8
RACCORDO
100
AcDbPolyline
 62
250
  6
CONTINUOUS
 90
7
 70
0
 10
18.8696116843
 20
-4.2870459458
 10
18.903588717
 20
-4.2675258408
 10
18.9333480955
 20
-4.2463541845
 10
18.9585709689
 20
-4.2237578164
 10
18.9789870915
 20
-4.199978841
 10
18.9943777187
 20
-4.1752720335
 10
19.0045779506
 20
-4.1499021103
  0
LWPOLYLINE
  5
3A8
100
AcDbEntity
  8
ASSI
100
AcDbPolyline
 62
250
  6
CONTINUOUS
 90
7
 70
0
 10
18.8696116843
 20
-4.2870459458
 10
18.903588717
 20
-4.2675258408
 10
18.9333480955
 20
-4.2463541845
 10
18.9585709689
 20
-4.2237578164
 10
18.9789870915
 20
-4.199978841
 10
18.9943777187
 20
-4.1752720335
 10
19.0045779506
 20
-4.1499021103
  0
LINE
  5
3A9
100
AcDbEntity
  8
ASSI
100
AcDbLine
 62
7
  6
CONTINUOUS
 10
18.7632704005
 20
-4.5444499695
 11
18.7473625004
 21
-4.5534170373
  0
LINE
  5
3AA
100
AcDbEntity
  8
RACCORDO
100
AcDbLine
 62
7
  6
CONTINUOUS
 10
18.7634811447
 20
-4.544331204
 11
18.7472750095
 21
-4.5534642169
  0
LWPOLYLINE
  5
3AB
100
AcDbEntity
  8
RACCORDO
100
AcDbPolyline
 62
250
  6
CONTINUOUS
 90
13
 70
0
 10
1.5903779137
 20
-14.0587281181
 10
1.6198530473
 20
-14.042618749
 10
1.6521940615
 20
-14.028568274
 10
1.6868717029
 20
-14.0168066274
 10
1.7233184782
 20
-14.0075262874
 10
1.760937944
 20
-14.0008791257
 10
1.7991144674
 20
-13.9969739229
 10
1.8372232967
 20
-13.9958745886
 10
1.8746407866
 20
-13.9975991149
 10
1.9107546067
 20
-14.0021192823
 10
1.9449737591
 20
-14.0093611208
 10
1.97673825
 20
-14.0192061208
 10
2.005528256
 20
-14.031493172
  0
LINE
  5
3AC
100
AcDbEntity
  8
RACCORDO
100
AcDbLine
 62
250
  6
CONTINUOUS
 10
13.0214672115
 20
-7.4422540552
 11
18.8696116843
 21
-4.2870459458
  0
LINE
  5
3AD
100
AcDbEntity
  8
ASSI
100
AcDbLine
 62
250
  6
CONTINUOUS
 10
13.0214672115
 20
-7.4422540552
 11
18.8696116843
 21
-4.2870459458
  0
LINE
  5
3AE
100
AcDbEntity
  8
RACCORDO
100
AcDbLine
 62
7
  6
CONTINUOUS
 10
12.8992092215
 20
-7.7086298981
 11
18.7473536943
 21
-4.5534217887
  0
LINE
  5
3AF
100
AcDbEntity
  8
ASSI
100
AcDbLine
 62
7
  6
CONTINUOUS
 10
18.7473536943
 20
-4.5534217887
 11
12.899100061
 21
-7.7086887464
  0
LINE
  5
3B0
100
AcDbEntity
  8
RACCORDO
100
AcDbLine
 62
7
  6
CONTINUOUS
 10
1.5477578301
 20
-14.2038265597
 11
1.5473525195
 21
-14.2040253599
  0
LINE
  5
3B1
100
AcDbEntity
  8
RACCORDO
100
AcDbLine
 62
250
  6
CONTINUOUS
 10
1.1264280885
 20
-14.2846318751
 11
1.5903779137
 21
-14.0587281181
  0
LINE
  5
3B2
100
AcDbEntity
  8
0
100
AcDbLine
 62
7
  6
CONTINUOUS
 10
1.1175537157
 20
-14.4133005001
 11
1.546977964
 21
-14.2042077366
  0
LWPOLYLINE
  5
3B3
100
AcDbEntity
  8
RACCORDO
100
AcDbPolyline
 62
250
  6
CONTINUOUS
 90
15
 70
0
 10
4.6371054267
 20
17.0042642189
 10
4.6208512489
 20
17.0285949643
 10
4.6043829847
 20
17.0513946764
 10
4.5878219234
 20
17.0726571239
 10
4.5712980095
 20
17.0923774758
 10
4.5548862588
 20
17.1106146513
 10
4.53860255
 20
17.1274776483
 10
4.5225183501
 20
17.1430068733
 10
4.5067048035
 20
17.1572411263
 10
4.4911594612
 20
17.1702774998
 10
4.4759348917
 20
17.1821588098
 10
4.4610727698
 20
17.192937058
 10
4.4465406473
 20
17.2027096674
 10
4.4323468739
 20
17.2115347483
 10
4.4185428629
 20
17.2194433292
  0
LWPOLYLINE
  5
3B4
100
AcDbEntity
  8
ASSI
100
AcDbPolyline
 62
250
  6
CONTINUOUS
 90
15
 70
0
 10
4.6371054267
 20
17.0042642189
 10
4.6208512489
 20
17.0285949643
 10
4.6043829847
 20
17.0513946764
 10
4.5878219234
 20
17.0726571239
 10
4.5712980095
 20
17.0923774758
 10
4.5548862588
 20
17.1106146513
 10
4.53860255
 20
17.1274776483
 10
4.5225183501
 20
17.1430068733
 10
4.5067048035
 20
17.1572411263
 10
4.4911594612
 20
17.1702774998
 10
4.4759348917
 20
17.1821588098
 10
4.4610727698
 20
17.192937058
 10
4.4465406473
 20
17.2027096674
 10
4.4323468739
 20
17.2115347483
 10
4.4185428629
 20
17.2194433292
  0
LWPOLYLINE
  5
3B5
100
AcDbEntity
  8
RACCORDO
100
AcDbPolyline
 62
7
  6
CONTINUOUS
 90
10
 70
0
 10
4.2347949973
 20
17.3458879412
 10
4.1136255721
 20
17.5299793996
 10
3.9916688188
 20
17.7132626894
 10
3.8689247374
 20
17.8957378108
 10
3.7453855984
 20
18.0774161134
 10
3.6210591313
 20
18.2582862475
 10
3.495968524
 20
18.438314164
 10
3.3701215058
 20
18.6174885131
 10
3.2435103475
 20
18.7958206446
 10
3.116135049
 20
18.9733105584
  0
LWPOLYLINE
  5
3B6
100
AcDbEntity
  8
ASSI
100
AcDbPolyline
 62
7
  6
CONTINUOUS
 90
10
 70
0
 10
4.2347949973
 20
17.3458879412
 10
4.1136255721
 20
17.5299793996
 10
3.9916688188
 20
17.7132626894
 10
3.8689247374
 20
17.8957378108
 10
3.7453855984
 20
18.0774161134
 10
3.6210591313
 20
18.2582862475
 10
3.495968524
 20
18.438314164
 10
3.3701215058
 20
18.6174885131
 10
3.2435103475
 20
18.7958206446
 10
3.116135049
 20
18.9733105584
  0
LWPOLYLINE
  5
3B7
100
AcDbEntity
  8
SMUSSO
100
AcDbPolyline
 62
7
  6
CONTINUOUS
 90
3
 70
0
 10
1.2388778617
 20
22.8604015182
 10
1.284257407
 20
22.7873755497
 10
1.3380466514
 20
22.7156880009
  0
LINE
  5
3B8
100
AcDbEntity
  8
RACCORDO
100
AcDbLine
 62
7
  6
CONTINUOUS
 10
12.6004754164
 20
17.7269529228
 11
12.5604193883
 21
18.2559224267
  0
LWPOLYLINE
  5
3B9
100
AcDbEntity
  8
ASSI
100
AcDbPolyline
 62
7
  6
CONTINUOUS
 90
3
 70
0
 10
12.4538650066
 20
-14.1805581832
 10
12.4735270938
 20
-14.0172001555
 10
12.4791505254
 20
-13.8661260465
  0
LINE
  5
3BA
100
AcDbEntity
  8
RACCORDO
100
AcDbLine
 62
250
  6
CONTINUOUS
 10
12.3669774547
 20
-8.4029230302
 11
12.3807939562
 21
-8.3434456594
  0
LWPOLYLINE
  5
3BB
100
AcDbEntity
  8
ASSI
100
AcDbPolyline
 62
250
  6
CONTINUOUS
 90
3
 70
0
 10
12.3669774547
 20
-8.4029230302
 10
12.3807939562
 20
-8.3434456594
 10
12.3978777433
 20
-8.2821049282
  0
LWPOLYLINE
  5
3BC
100
AcDbEntity
  8
RACCORDO
100
AcDbPolyline
 62
250
  6
CONTINUOUS
 90
12
 70
0
 10
12.3807939562
 20
-8.3434456594
 10
12.3978777433
 20
-8.2821049282
 10
12.4180575656
 20
-8.2190361646
 10
12.441320321
 20
-8.1558085548
 10
12.4678306824
 20
-8.0924145236
 10
12.497423977
 20
-8.0288616462
 10
12.529593084
 20
-7.9667418341
 10
12.5644724487
 20
-7.9061277879
 10
12.6019276258
 20
-7.8469468069
 10
12.641048159
 20
-7.7905727015
 10
12.6819339209
 20
-7.7371426457
 10
12.7244850389
 20
-7.6865194653
  0
LWPOLYLINE
  5
3BD
100
AcDbEntity
  8
ASSI
100
AcDbPolyline
 62
250
  6
CONTINUOUS
 90
10
 70
0
 10
12.3978777433
 20
-8.2821049282
 10
12.4180575656
 20
-8.2190361646
 10
12.441320321
 20
-8.1558085548
 10
12.4678306824
 20
-8.0924145236
 10
12.497423977
 20
-8.0288616462
 10
12.529593084
 20
-7.9667418341
 10
12.5644724487
 20
-7.9061277879
 10
12.6019276258
 20
-7.8469468069
 10
12.641048159
 20
-7.7905727015
 10
12.6819339209
 20
-7.7371426457
  0
LWPOLYLINE
  5
3BE
100
AcDbEntity
  8
RACCORDO
100
AcDbPolyline
 62
250
  6
CONTINUOUS
 90
13
 70
0
 10
3.0953892509
 20
-19.3420960993
 10
3.1296632237
 20
-19.2970176049
 10
3.1603821459
 20
-19.2480499371
 10
3.1875460176
 20
-19.1951930958
 10
3.2112337819
 20
-19.1382533171
 10
3.2313664957
 20
-19.0774243649
 10
3.2477073294
 20
-19.0132875314
 10
3.2602054976
 20
-18.9457921623
 10
3.2689117856
 20
-18.8749889119
 10
3.2737417205
 20
-18.8016110347
 10
3.2746671444
 20
-18.7259029488
 10
3.2717162151
 20
-18.6476202361
 10
3.2648889325
 20
-18.5667628966
  0
LWPOLYLINE
  5
3BF
100
AcDbEntity
  8
RACCORDO
100
AcDbPolyline
 62
250
  6
CONTINUOUS
 90
13
 70
0
 10
3.3450140519
 20
-19.4140293639
 10
3.3837732538
 20
-19.3636761244
 10
3.4187909592
 20
-19.3087126684
 10
3.4499337596
 20
-19.2493024837
 10
3.4771083201
 20
-19.1856210668
 10
3.5002396059
 20
-19.1178615658
 10
3.5192470253
 20
-19.0462264137
 10
3.5340698258
 20
-18.9709141983
 10
3.5446678226
 20
-18.8921449507
 10
3.5509956916
 20
-18.810158856
 10
3.5530194601
 20
-18.7251907389
 10
3.5507421006
 20
-18.6375059503
 10
3.5441820151
 20
-18.5474018645
  0
LINE
  5
3C0
100
AcDbEntity
  8
ASSI
100
AcDbLine
 62
250
  6
CONTINUOUS
 10
12.6819339209
 20
-7.7371426457
 11
12.7244850389
 21
-7.6865194653
  0
LINE
  5
3C1
100
AcDbEntity
  8
RACCORDO
100
AcDbLine
 62
250
  6
CONTINUOUS
 10
12.7244850389
 20
-7.6865194653
 11
12.767491439
 21
-7.6396654486
  0
LWPOLYLINE
  5
3C2
100
AcDbEntity
  8
ASSI
100
AcDbPolyline
 62
250
  6
CONTINUOUS
 90
8
 70
0
 10
12.7244850389
 20
-7.6865194653
 10
12.767491439
 20
-7.6396654486
 10
12.8109647042
 20
-7.59680374
 10
12.8548932515
 20
-7.5577111949
 10
12.8980322582
 20
-7.5226806684
 10
12.9399667833
 20
-7.4918097788
 10
12.9811117677
 20
-7.4650009077
 10
13.0214672115
 20
-7.4422540552
  0
LWPOLYLINE
  5
3C3
100
AcDbEntity
  8
RACCORDO
100
AcDbPolyline
 62
250
  6
CONTINUOUS
 90
7
 70
0
 10
12.767491439
 20
-7.6396654486
 10
12.8109647042
 20
-7.59680374
 10
12.8548932515
 20
-7.5577111949
 10
12.8980322582
 20
-7.5226806684
 10
12.9399667833
 20
-7.4918097788
 10
12.9811117677
 20
-7.4650009077
 10
13.0214672115
 20
-7.4422540552
  0
LWPOLYLINE
  5
3C4
100
AcDbEntity
  8
RACCORDO
100
AcDbPolyline
 62
250
  6
CONTINUOUS
 90
7
 70
0
 10
12.338828332
 20
-8.6615941856
 10
12.3806538779
 20
-8.6369274175
 10
12.415761321
 20
-8.6097675153
 10
12.4435632202
 20
-8.5805689375
 10
12.4635943757
 20
-8.5498202553
 10
12.4755196134
 20
-8.518035977
 10
12.4791584319
 20
-8.4879295929
  0
LWPOLYLINE
  5
3C5
100
AcDbEntity
  8
ASSI
100
AcDbPolyline
 62
250
  6
CONTINUOUS
 90
7
 70
0
 10
12.338828332
 20
-8.6615941856
 10
12.3806538779
 20
-8.6369274175
 10
12.415761321
 20
-8.6097675153
 10
12.4435632202
 20
-8.5805689375
 10
12.4635943757
 20
-8.5498202553
 10
12.4755196134
 20
-8.518035977
 10
12.4791584319
 20
-8.4879295929
  0
LINE
  5
3C6
100
AcDbEntity
  8
RACCORDO
100
AcDbLine
 62
7
  6
CONTINUOUS
 10
4.5514067908
 20
-13.2640585391
 11
2.9628493493
 21
-14.064462159
  0
LINE
  5
3C7
100
AcDbEntity
  8
RACCORDO
100
AcDbLine
 62
7
  6
CONTINUOUS
 10
4.6574728079
 20
-13.3170915477
 11
3.0689153665
 21
-14.1174951675
  0
LWPOLYLINE
  5
3C8
100
AcDbEntity
  8
RACCORDO
100
AcDbPolyline
 62
7
  6
CONTINUOUS
 90
5
 70
0
 10
1.547739154
 20
-14.2038347768
 10
1.5558826075
 20
-14.2002829594
 10
1.568072266
 20
-14.1963149062
 10
1.578452766
 20
-14.1942297854
 10
1.5849182923
 20
-14.1936164735
  0
LINE
  5
3C9
100
AcDbEntity
  8
0
100
AcDbLine
 62
7
  6
CONTINUOUS
 10
11.2943895693
 20
17.7810167805
 11
11.233565873
 21
17.7645515417
  0
LINE
  5
3CA
100
AcDbEntity
  8
RACCORDO
100
AcDbLine
 62
7
  6
CONTINUOUS
 10
10.180139875
 20
18.4128217051
 11
10.0654969357
 21
18.3818751957
  0
LWPOLYLINE
  5
3CB
100
AcDbEntity
  8
RACCORDO
100
AcDbPolyline
 62
250
  6
CONTINUOUS
 90
23
 70
0
 10
10.1390742239
 20
18.368066461
 10
10.2383921227
 20
18.394443507
 10
10.3401200014
 20
18.4182344978
 10
10.4442998099
 20
18.4394708294
 10
10.5502498538
 20
18.4580196069
 10
10.6579265261
 20
18.4738722821
 10
10.7673734338
 20
18.4870374031
 10
10.8780397028
 20
18.4974077188
 10
10.9901257457
 20
18.5049764961
 10
11.1034311501
 20
18.5097504681
 10
11.216803804
 20
18.5116425829
 10
11.33048856
 20
18.5105643429
 10
11.4442405656
 20
18.5066042457
 10
11.556173152
 20
18.4999407323
 10
11.666244248
 20
18.4904469243
 10
11.7744959248
 20
18.4782497001
 10
11.879167727
 20
18.4639081358
 10
11.9801097846
 20
18.4473038658
 10
12.0774719676
 20
18.4285552558
 10
12.1699434299
 20
18.4085764789
 10
12.257087223
 20
18.3876722594
 10
12.3393402955
 20
18.3655378729
 10
12.4167026474
 20
18.3421733195
  0
LWPOLYLINE
  5
3CC
100
AcDbEntity
  8
RACCORDO
100
AcDbPolyline
 62
250
  6
CONTINUOUS
 90
9
 70
0
 10
-0.5997687395
 20
16.0691905476
 10
-0.6391037602
 20
16.0863321625
 10
-0.6779891396
 20
16.0982295226
 10
-0.7159997894
 20
16.1047598769
 10
-0.7527075047
 20
16.1058600232
 10
-0.7877280004
 20
16.1015293556
 10
-0.8207180549
 20
16.0918088549
 10
-0.8513311397
 20
16.0767828079
 10
-0.8568154964
 20
16.0733612531
  0
LWPOLYLINE
  5
3CD
100
AcDbEntity
  8
RACCORDO
100
AcDbPolyline
 62
250
  6
CONTINUOUS
 90
9
 70
0
 10
-8.3779433326
 20
19.9582778441
 10
-8.4172783533
 20
19.975419459
 10
-8.4561637326
 20
19.9873168191
 10
-8.4941743824
 20
19.9938471734
 10
-8.5308820977
 20
19.9949473197
 10
-8.5659025934
 20
19.9906166521
 10
-8.598892648
 20
19.9808961514
 10
-8.6295057328
 20
19.9658701045
 10
-8.6349900894
 20
19.9624485497
  0
LWPOLYLINE
  5
3CE
100
AcDbEntity
  8
RACCORDO
100
AcDbPolyline
 62
250
  6
CONTINUOUS
 90
10
 70
0
 10
-7.8300868003
 20
20.5671843777
 10
-7.8454499699
 20
20.5741105233
 10
-7.8607312614
 20
20.5795528288
 10
-7.8759306747
 20
20.5835112943
 10
-7.8911301112
 20
20.5859956273
 10
-7.9062476695
 20
20.5869961202
 10
-7.9210376461
 20
20.5864836506
 10
-7.9354181397
 20
20.5844485107
 10
-7.9494710515
 20
20.5809004083
 10
-7.9631963817
 20
20.5758393432
  0
LWPOLYLINE
  5
3CF
100
AcDbEntity
  8
RACCORDO
100
AcDbPolyline
 62
250
  6
CONTINUOUS
 90
10
 70
0
 10
-7.6921875661
 20
20.7881933467
 10
-7.7177004526
 20
20.7997191632
 10
-7.7432034221
 20
20.8088752507
 10
-7.7685601706
 20
20.8156159037
 10
-7.7936365403
 20
20.8199199533
 10
-7.8183066748
 20
20.8217643436
 10
-7.8424540413
 20
20.8211290209
 10
-7.8659593394
 20
20.8180230167
 10
-7.8886956939
 20
20.8124647194
 10
-7.9105394967
 20
20.8044712735
  0
LINE
  5
3D0
100
AcDbEntity
  8
RACCORDO
100
AcDbLine
 62
7
  6
CONTINUOUS
 10
-12.2095825865
 20
21.4452904271
 11
2.7105858758
 21
13.9852061959
  0
LINE
  5
3D1
100
AcDbEntity
  8
RACCORDO
100
AcDbLine
 62
250
  6
CONTINUOUS
 10
-0.2179586608
 20
16.761120308
 11
-7.8300868003
 21
20.5671843777
  0
LINE
  5
3D2
100
AcDbEntity
  8
RACCORDO
100
AcDbLine
 62
250
  6
CONTINUOUS
 10
-0.0800595809
 20
16.9821401592
 11
-7.6921877204
 21
20.788204229
  0
LINE
  5
3D3
100
AcDbEntity
  8
RACCORDO
100
AcDbLine
 62
7
  6
CONTINUOUS
 10
-7.145394373
 20
21.0765778273
 11
-5.6662861974
 21
20.3370237395
  0
LINE
  5
3D4
100
AcDbEntity
  8
RACCORDO
100
AcDbLine
 62
7
  6
CONTINUOUS
 10
-0.9993814416
 20
18.0035713616
 11
0.4731853646
 21
17.2672879585
  0
LINE
  5
3D5
100
AcDbEntity
  8
DRAFT
100
AcDbLine
 62
7
  6
CONTINUOUS
 10
-1.4943561884
 20
18.251058735
 11
-1.9186202571
 21
18.4631907694
  0
LINE
  5
3D6
100
AcDbEntity
  8
DRAFT
100
AcDbLine
 62
7
  6
CONTINUOUS
 10
-4.7470473818
 20
19.8774043317
 11
-5.1713114506
 21
20.0895363661
  0
LINE
  5
3D7
100
AcDbEntity
  8
0
100
AcDbLine
 62
7
  6
CONTINUOUS
 10
-0.8793003843
 20
18.0301333734
 11
-5.7863672546
 21
20.4836668085
  0
LINE
  5
3D8
100
AcDbEntity
  8
ASSI
100
AcDbLine
 62
7
  6
CONTINUOUS
 10
-0.8793003843
 20
18.0301333734
 11
-5.7863672546
 21
20.4836668085
  0
LWPOLYLINE
  5
3D9
100
AcDbEntity
  8
RACCORDO
100
AcDbPolyline
 62
7
  6
CONTINUOUS
 90
10
 70
0
 10
0.4731853646
 20
17.2672879585
 10
0.4988931106
 20
17.2532584957
 10
0.5242067188
 20
17.2372323203
 10
0.5491261892
 20
17.2192094322
 10
0.5737766362
 20
17.1990756823
 10
0.5980329454
 20
17.1769452198
 10
0.6215197738
 20
17.1531604923
 10
0.644112007
 20
17.127835649
 10
0.6659347595
 20
17.1008565406
 10
0.6869880311
 20
17.0722231672
  0
LWPOLYLINE
  5
3DA
100
AcDbEntity
  8
RACCORDO
100
AcDbPolyline
 62
7
  6
CONTINUOUS
 90
4
 70
0
 10
4.3476925646
 20
17.2144107156
 10
4.3264071844
 20
17.234937751
 10
4.3061664615
 20
17.2558978464
 10
4.2869296726
 20
17.2772605529
  0
LINE
  5
3DB
100
AcDbEntity
  8
RACCORDO
100
AcDbLine
 62
7
  6
CONTINUOUS
 10
4.2869296726
 20
17.2772605529
 11
4.2686969849
 21
17.2990258906
  0
LINE
  5
3DC
100
AcDbEntity
  8
ASSI
100
AcDbLine
 62
7
  6
CONTINUOUS
 10
4.2869296726
 20
17.2772605529
 11
4.2686969849
 21
17.2990258906
  0
LWPOLYLINE
  5
3DD
100
AcDbEntity
  8
RACCORDO
100
AcDbPolyline
 62
7
  6
CONTINUOUS
 90
7
 70
0
 10
4.2686969849
 20
17.2990258906
 10
4.2628577143
 20
17.3064586142
 10
4.2570896806
 20
17.3140466542
 10
4.2513962096
 20
17.3217870149
 10
4.2457805355
 20
17.3296764272
 10
4.2402457907
 20
17.3377113451
 10
4.2347949973
 20
17.3458879412
  0
LWPOLYLINE
  5
3DE
100
AcDbEntity
  8
ASSI
100
AcDbPolyline
 62
7
  6
CONTINUOUS
 90
7
 70
0
 10
4.2686969849
 20
17.2990258906
 10
4.2628577143
 20
17.3064586142
 10
4.2570896806
 20
17.3140466542
 10
4.2513962096
 20
17.3217870149
 10
4.2457805355
 20
17.3296764272
 10
4.2402457907
 20
17.3377113451
 10
4.2347949973
 20
17.3458879412
  0
LINE
  5
3DF
100
AcDbEntity
  8
0
100
AcDbLine
 62
7
  6
CONTINUOUS
 10
2.5278611998
 20
19.7689784447
 11
2.4704813615
 21
19.8445399863
  0
LINE
  5
3E0
100
AcDbEntity
  8
ASSI
100
AcDbLine
 62
7
  6
CONTINUOUS
 10
2.5278611998
 20
19.7689784447
 11
2.4704813615
 21
19.8445399863
  0
LINE
  5
3E1
100
AcDbEntity
  8
0
100
AcDbLine
 62
7
  6
CONTINUOUS
 10
2.5851069093
 20
19.6932389332
 11
2.5278611998
 21
19.7689784447
  0
LINE
  5
3E2
100
AcDbEntity
  8
ASSI
100
AcDbLine
 62
7
  6
CONTINUOUS
 10
2.5851069093
 20
19.6932389332
 11
2.5278611998
 21
19.7689784447
  0
LINE
  5
3E3
100
AcDbEntity
  8
0
100
AcDbLine
 62
7
  6
CONTINUOUS
 10
2.64221849
 20
19.6173214516
 11
2.5851069093
 21
19.6932389332
  0
LINE
  5
3E4
100
AcDbEntity
  8
ASSI
100
AcDbLine
 62
7
  6
CONTINUOUS
 10
2.64221849
 20
19.6173214516
 11
2.5851069093
 21
19.6932389332
  0
LINE
  5
3E5
100
AcDbEntity
  8
SMUSSO
100
AcDbLine
 62
250
  6
CONTINUOUS
 10
1.5464417565
 20
24.7312918324
 11
1.9000471399
 21
24.1212766892
  0
LINE
  5
3E6
100
AcDbEntity
  8
ASSI
100
AcDbLine
 62
250
  6
CONTINUOUS
 10
1.5464417565
 20
24.7312918324
 11
1.9000471399
 21
24.1212766892
  0
LWPOLYLINE
  5
3E7
100
AcDbEntity
  8
ASSI
100
AcDbPolyline
 62
7
  6
CONTINUOUS
 90
4
 70
0
 10
8.2398140392
 20
18.3399161947
 10
8.2766257432
 20
18.2657895275
 10
8.3220052885
 20
18.1927635589
 10
8.375794533
 20
18.1210760101
  0
LINE
  5
3E8
100
AcDbEntity
  8
0
100
AcDbLine
 62
7
  6
CONTINUOUS
 10
10.2046994316
 20
17.663997389
 11
10.0032000737
 21
18.2597218148
  0
LWPOLYLINE
  5
3E9
100
AcDbEntity
  8
RACCORDO
100
AcDbPolyline
 62
7
  6
CONTINUOUS
 90
10
 70
0
 10
10.6763979313
 20
23.839033917
 10
10.6684732038
 20
23.8900358262
 10
10.6552465608
 20
23.9402194283
 10
10.6368388736
 20
23.9888763414
 10
10.6134306149
 20
24.0354354671
 10
10.5851759421
 20
24.0794830419
 10
10.5522179649
 20
24.1206215899
 10
10.5150207578
 20
24.1581447569
 10
10.4742648316
 20
24.1913919216
 10
10.4302860292
 20
24.2201481129
  0
LWPOLYLINE
  5
3EA
100
AcDbEntity
  8
RACCORDO
100
AcDbPolyline
 62
7
  6
CONTINUOUS
 90
12
 70
0
 10
12.5604193883
 20
18.2559224267
 10
12.5589614147
 20
18.2690844887
 10
12.5565552435
 20
18.2815230172
 10
12.5532008747
 20
18.293238012
 10
12.5488505126
 20
18.3043488978
 10
12.5435519529
 20
18.3147362501
 10
12.5374485827
 20
18.3240417948
 10
12.5305418167
 20
18.3321816676
 10
12.5228302403
 20
18.3392397329
 10
12.5144529971
 20
18.3451093104
 10
12.5054141144
 20
18.3497835611
 10
12.4981532607
 20
18.3525262281
  0
LWPOLYLINE
  5
3EB
100
AcDbEntity
  8
ASSI
100
AcDbPolyline
 62
7
  6
CONTINUOUS
 90
9
 70
0
 10
19.8747564067
 20
13.8143289021
 10
19.8448704715
 20
13.5940495911
 10
19.7958013286
 20
13.3880080538
 10
19.7280841041
 20
13.1972306532
 10
19.6425274612
 20
13.0233488428
 10
19.5406387637
 20
12.8684641943
 10
19.4245276246
 20
12.734279178
 10
19.2951886225
 20
12.6206426758
 10
19.1754098176
 20
12.5402638221
  0
LWPOLYLINE
  5
3EC
100
AcDbEntity
  8
RACCORDO
100
AcDbPolyline
 62
250
  6
CONTINUOUS
 90
9
 70
0
 10
12.1998899884
 20
-14.7194062584
 10
12.2321340938
 20
-14.6470478405
 10
12.2602702334
 20
-14.5705964577
 10
12.2842068063
 20
-14.4902798175
 10
12.3038772583
 20
-14.4063484434
 10
12.3192208833
 20
-14.3190552003
 10
12.3301774321
 20
-14.2286565259
 10
12.3367131943
 20
-14.1354520633
 10
12.3388198565
 20
-14.0397791365
  0
LWPOLYLINE
  5
3ED
100
AcDbEntity
  8
ASSI
100
AcDbPolyline
 62
250
  6
CONTINUOUS
 90
9
 70
0
 10
12.1998899884
 20
-14.7194062584
 10
12.2321340938
 20
-14.6470478405
 10
12.2602702334
 20
-14.5705964577
 10
12.2842068063
 20
-14.4902798175
 10
12.3038772583
 20
-14.4063484434
 10
12.3192208833
 20
-14.3190552003
 10
12.3301774321
 20
-14.2286565259
 10
12.3367131943
 20
-14.1354520633
 10
12.3388198565
 20
-14.0397791365
  0
LINE
  5
3EE
100
AcDbEntity
  8
RACCORDO
100
AcDbLine
 62
250
  6
CONTINUOUS
 10
12.1636355572
 20
-14.7874524818
 11
12.1998899884
 21
-14.7194062584
  0
LINE
  5
3EF
100
AcDbEntity
  8
ASSI
100
AcDbLine
 62
250
  6
CONTINUOUS
 10
12.1636355572
 20
-14.7874524818
 11
12.1998899884
 21
-14.7194062584
  0
LWPOLYLINE
  5
3F0
100
AcDbEntity
  8
ASSI
100
AcDbPolyline
 62
7
  6
CONTINUOUS
 90
5
 70
0
 10
12.2431125515
 20
-14.7376263917
 10
12.314140329
 20
-14.6151710235
 10
12.3737661772
 20
-14.4802135597
 10
12.4205212041
 20
-14.3349357368
 10
12.4538650066
 20
-14.1805581832
  0
LWPOLYLINE
  5
3F1
100
AcDbEntity
  8
RACCORDO
100
AcDbPolyline
 62
7
  6
CONTINUOUS
 90
5
 70
0
 10
18.9169413833
 20
-4.4038143511
 10
18.8842819665
 20
-4.4448468958
 10
18.8474202313
 20
-4.4823099329
 10
18.8070462436
 20
-4.5155367214
 10
18.7634811447
 20
-4.544331204
  0
LWPOLYLINE
  5
3F2
100
AcDbEntity
  8
0
100
AcDbPolyline
 62
7
  6
CONTINUOUS
 90
3
 70
0
 10
4.2468569067
 20
-19.0522238593
 10
4.274235555
 20
-19.0220521826
 10
4.2838968801
 20
-19.0103423027
  0
LWPOLYLINE
  5
3F3
100
AcDbEntity
  8
ASSI
100
AcDbPolyline
 62
7
  6
CONTINUOUS
 90
3
 70
0
 10
4.2468569067
 20
-19.0522238593
 10
4.274235555
 20
-19.0220521826
 10
4.2838968801
 20
-19.0103423027
  0
LWPOLYLINE
  5
3F4
100
AcDbEntity
  8
RACCORDO
100
AcDbPolyline
 62
7
  6
CONTINUOUS
 90
8
 70
0
 10
4.36108051
 20
-18.9305775755
 10
4.0012746844
 20
-19.3024156655
 10
3.6290764787
 20
-19.6542494757
 10
3.2444858928
 20
-19.9860790061
 10
2.8471219771
 20
-20.2981849348
 10
2.4373656813
 20
-20.5902865837
 10
2.0163598539
 20
-20.8615419188
 10
1.5844854445
 20
-21.1116702618
  0
LWPOLYLINE
  5
3F5
100
AcDbEntity
  8
0
100
AcDbPolyline
 62
7
  6
CONTINUOUS
 90
7
 70
0
 10
4.2468569067
 20
-19.0522238593
 10
3.8645260315
 20
-19.4352982431
 10
3.4689059361
 20
-19.7961292394
 10
3.0599966203
 20
-20.1347168484
 10
2.6373577083
 20
-20.4513383408
 10
2.201429576
 20
-20.7457164458
 10
1.7535333509
 20
-21.0170193507
  0
LWPOLYLINE
  5
3F6
100
AcDbEntity
  8
ASSI
100
AcDbPolyline
 62
7
  6
CONTINUOUS
 90
7
 70
0
 10
4.2468569067
 20
-19.0522238593
 10
3.8645260315
 20
-19.4352982431
 10
3.4689059361
 20
-19.7961292394
 10
3.0599966203
 20
-20.1347168484
 10
2.6373577083
 20
-20.4513383408
 10
2.201429576
 20
-20.7457164458
 10
1.7535333509
 20
-21.0170193507
  0
LWPOLYLINE
  5
3F7
100
AcDbEntity
  8
RACCORDO
100
AcDbPolyline
 62
250
  6
CONTINUOUS
 90
13
 70
0
 10
1.1982203293
 20
-18.433453762
 10
1.2276950785
 20
-18.4173445801
 10
1.2600357017
 20
-18.403294216
 10
1.2947129764
 20
-18.3915326085
 10
1.3311594218
 20
-18.3822522471
 10
1.3687786295
 20
-18.3756050099
 10
1.406955027
 20
-18.3716996881
 10
1.4450638804
 20
-18.370600217
 10
1.4824815306
 20
-18.3723246167
 10
1.5185956462
 20
-18.376844696
 10
1.5528152054
 20
-18.3840865138
 10
1.5845801711
 20
-18.393931584
 10
1.6133706716
 20
-18.4062188159
  0
LINE
  5
3F8
100
AcDbEntity
  8
RACCORDO
100
AcDbLine
 62
250
  6
CONTINUOUS
 10
1.1982203293
 20
-18.433453762
 11
0.8294735133
 21
-18.590145952
  0
LINE
  5
3F9
100
AcDbEntity
  8
RACCORDO
100
AcDbLine
 62
7
  6
CONTINUOUS
 10
1.0154507429
 20
-18.9421738829
 11
0.7988453726
 21
-19.0342202392
  0
LWPOLYLINE
  5
3FA
100
AcDbEntity
  8
RACCORDO
100
AcDbPolyline
 62
250
  6
CONTINUOUS
 90
29
 70
0
 10
13.7076395503
 20
20.7375696424
 10
13.783427728
 20
20.7579065994
 10
13.8641226308
 20
20.773086912
 10
13.9496970223
 20
20.7824709961
 10
14.0401157687
 20
20.7854253566
 10
14.1357359827
 20
20.781282565
 10
14.2360472292
 20
20.7693788937
 10
14.3395732534
 20
20.7493894585
 10
14.4465271547
 20
20.7208627169
 10
14.5561388409
 20
20.6835919193
 10
14.6652745216
 20
20.6385846158
 10
14.7732255066
 20
20.5864091987
 10
14.879957176
 20
20.5273547517
 10
14.9833288563
 20
20.4630286593
 10
15.082516383
 20
20.3946009101
 10
15.1778738807
 20
20.3224689034
 10
15.2691227826
 20
20.2474275895
 10
15.3560579838
 20
20.1702392382
 10
15.4387047552
 20
20.0914637985
 10
15.5171884546
 20
20.0115292227
 10
15.5915111816
 20
19.9309556562
 10
15.6616833488
 20
19.8502466024
 10
15.7278697887
 20
19.7697091859
 10
15.7901249448
 20
19.6897561349
 10
15.8485336034
 20
19.6107517989
 10
15.9033159776
 20
19.5328521106
 10
15.9546105455
 20
19.4562913309
 10
16.002483279
 20
19.3813977143
 10
16.0605141932
 20
19.2865434001
  0
LWPOLYLINE
  5
3FB
100
AcDbEntity
  8
0
100
AcDbPolyline
 62
7
  6
CONTINUOUS
 90
10
 70
0
 10
-5.9313505936
 20
21.4221838818
 10
-5.9773843992
 20
21.443380984
 10
-6.0229756509
 20
21.4607240803
 10
-6.0681243486
 20
21.4742131706
 10
-6.1131106835
 20
21.4838830982
 10
-6.1576544644
 20
21.4896990198
 10
-6.2009151183
 20
21.491556406
 10
-6.242612454
 20
21.4894204134
 10
-6.2830266627
 20
21.4833258853
 10
-6.3221577444
 20
21.4732728217
  0
LWPOLYLINE
  5
3FC
100
AcDbEntity
  8
ASSI
100
AcDbPolyline
 62
7
  6
CONTINUOUS
 90
10
 70
0
 10
-5.9313505936
 20
21.4221838818
 10
-5.9773843992
 20
21.443380984
 10
-6.0229756509
 20
21.4607240803
 10
-6.0681243486
 20
21.4742131706
 10
-6.1131106835
 20
21.4838830982
 10
-6.1576544644
 20
21.4896990198
 10
-6.2009151183
 20
21.491556406
 10
-6.242612454
 20
21.4894204134
 10
-6.2830266627
 20
21.4833258853
 10
-6.3221577444
 20
21.4732728217
  0
LWPOLYLINE
  5
3FD
100
AcDbEntity
  8
DRAFT
100
AcDbPolyline
 62
7
  6
CONTINUOUS
 90
13
 70
0
 10
-1.7064882227
 20
18.4437272926
 10
-1.7254200497
 20
18.4525666031
 10
-1.7443518766
 20
18.4601634036
 10
-1.7631211979
 20
18.4664524853
 10
-1.7817266145
 20
18.4714225908
 10
-1.8001695254
 20
18.4750849774
 10
-1.8182916216
 20
18.4774082082
 10
-1.8360901415
 20
18.4783807553
 10
-1.8535678466
 20
18.4780141466
 10
-1.8705747131
 20
18.476311529
 10
-1.8870607331
 20
18.4732739514
 10
-1.9030759144
 20
18.4689003648
 10
-1.9186202571
 20
18.4631907694
  0
LWPOLYLINE
  5
3FE
100
AcDbEntity
  8
DRAFT
100
AcDbPolyline
 62
7
  6
CONTINUOUS
 90
13
 70
0
 10
-4.9591794162
 20
20.0700728893
 10
-4.9781112431
 20
20.0789121998
 10
-4.9970430701
 20
20.0865090003
 10
-5.0158123913
 20
20.092798082
 10
-5.0344178079
 20
20.0977681875
 10
-5.0528607189
 20
20.1014305741
 10
-5.0709828151
 20
20.103753805
 10
-5.0887813349
 20
20.1047263521
 10
-5.10625904
 20
20.1043597434
 10
-5.1232659066
 20
20.1026571257
 10
-5.1397519265
 20
20.0996195481
 10
-5.1557671078
 20
20.0952459616
 10
-5.1713114506
 20
20.0895363661
  0
LINE
  5
3FF
100
AcDbEntity
  8
0
100
AcDbLine
 62
7
  6
CONTINUOUS
 10
-0.7343170454
 20
18.8236671077
 11
-5.9313505936
 21
21.4221838818
  0
LINE
  5
400
100
AcDbEntity
  8
ASSI
100
AcDbLine
 62
7
  6
CONTINUOUS
 10
-0.7343170454
 20
18.8236671077
 11
-5.9313505936
 21
21.4221838818
  0
LINE
  5
401
100
AcDbEntity
  8
RACCORDO
100
AcDbLine
 62
250
  6
CONTINUOUS
 10
4.4051524955
 20
17.2264837045
 11
4.2749159513
 21
17.2916019766
  0
LINE
  5
402
100
AcDbEntity
  8
ASSI
100
AcDbLine
 62
250
  6
CONTINUOUS
 10
4.4051524955
 20
17.2264837045
 11
4.2669712126
 21
17.295574346
  0
LINE
  5
403
100
AcDbEntity
  8
0
100
AcDbLine
 62
7
  6
CONTINUOUS
 10
-4.3675745422
 20
21.955077334
 11
0.3889126718
 21
19.576833727
  0
LINE
  5
404
100
AcDbEntity
  8
ASSI
100
AcDbLine
 62
7
  6
CONTINUOUS
 10
-4.3675745422
 20
21.955077334
 11
0.3889126718
 21
19.576833727
  0
LINE
  5
405
100
AcDbEntity
  8
RACCORDO
100
AcDbLine
 62
250
  6
CONTINUOUS
 10
0.5086131379
 20
19.8031371498
 11
-3.7559041584
 21
21.9353957979
  0
LINE
  5
406
100
AcDbEntity
  8
RACCORDO
100
AcDbLine
 62
7
  6
CONTINUOUS
 10
0.598055857
 20
19.8088175072
 11
-3.6664614393
 21
21.9410761554
  0
LWPOLYLINE
  5
407
100
AcDbEntity
  8
RACCORDO
100
AcDbPolyline
 62
7
  6
CONTINUOUS
 90
4
 70
0
 10
0.5979589972
 20
19.8088658497
 10
0.60176692
 20
19.8069133036
 10
0.6228690303
 20
19.7940831916
 10
0.6268133839
 20
19.7912661985
  0
LINE
  5
408
100
AcDbEntity
  8
RACCORDO
100
AcDbLine
 62
250
  6
CONTINUOUS
 10
4.4185428629
 20
17.2194433292
 11
4.4051524947
 21
17.2264836451
  0
LINE
  5
409
100
AcDbEntity
  8
ASSI
100
AcDbLine
 62
250
  6
CONTINUOUS
 10
4.4185428629
 20
17.2194433292
 11
4.4051524947
 21
17.2264836451
  0
LINE
  5
40A
100
AcDbEntity
  8
RACCORDO
100
AcDbLine
 62
250
  6
CONTINUOUS
 10
0.5277053006
 20
19.7927534914
 11
0.5086131379
 21
19.8031371498
  0
LWPOLYLINE
  5
40B
100
AcDbEntity
  8
RACCORDO
100
AcDbPolyline
 62
7
  6
CONTINUOUS
 90
10
 70
0
 10
4.6371083319
 20
17.0042664879
 10
4.6072178999
 20
17.023122781
 10
4.5779970351
 20
17.0419387878
 10
4.5494462864
 20
17.0607148924
 10
4.5215324811
 20
17.0793803209
 10
4.494289915
 20
17.0980066548
 10
4.4678201193
 20
17.1168076008
 10
4.4421214747
 20
17.1358090873
 10
4.4171962021
 20
17.1549855041
 10
4.4036963637
 20
17.1657858991
  0
LWPOLYLINE
  5
40C
100
AcDbEntity
  8
ASSI
100
AcDbPolyline
 62
7
  6
CONTINUOUS
 90
10
 70
0
 10
4.6371083319
 20
17.0042664879
 10
4.6072178999
 20
17.023122781
 10
4.5779970351
 20
17.0419387878
 10
4.5494462864
 20
17.0607148924
 10
4.5215324811
 20
17.0793803209
 10
4.494289915
 20
17.0980066548
 10
4.4678201193
 20
17.1168076008
 10
4.4421214747
 20
17.1358090873
 10
4.4171962021
 20
17.1549855041
 10
4.4036745265
 20
17.1658036481
  0
LINE
  5
40D
100
AcDbEntity
  8
RACCORDO
100
AcDbLine
 62
250
  6
CONTINUOUS
 10
0.5464707912
 20
19.7795839133
 11
0.5277053006
 21
19.7927534914
  0
LINE
  5
40E
100
AcDbEntity
  8
RACCORDO
100
AcDbLine
 62
7
  6
CONTINUOUS
 10
0.7143342222
 20
19.7271241831
 11
0.6268380076
 21
19.7912481568
  0
LINE
  5
40F
100
AcDbEntity
  8
ASSI
100
AcDbLine
 62
7
  6
CONTINUOUS
 10
4.4036745265
 20
17.1658036481
 11
4.3931512756
 21
17.1744729352
  0
LWPOLYLINE
  5
410
100
AcDbEntity
  8
RACCORDO
100
AcDbPolyline
 62
7
  6
CONTINUOUS
 90
4
 70
0
 10
4.4036963637
 20
17.1657858991
 10
4.3931512756
 20
17.1744729352
 10
4.3699815499
 20
17.1942862622
 10
4.3476925646
 20
17.2144107156
  0
LWPOLYLINE
  5
411
100
AcDbEntity
  8
ASSI
100
AcDbPolyline
 62
7
  6
CONTINUOUS
 90
6
 70
0
 10
4.3931512756
 20
17.1744729352
 10
4.3699815499
 20
17.1942862622
 10
4.3476925646
 20
17.2144107156
 10
4.3264071844
 20
17.234937751
 10
4.3061664615
 20
17.2558978464
 10
4.2869296726
 20
17.2772605529
  0
LINE
  5
412
100
AcDbEntity
  8
ASSI
100
AcDbLine
 62
7
  6
CONTINUOUS
 10
1.400089743
 20
22.6455329698
 11
1.4370137722
 21
22.6095068423
  0
LWPOLYLINE
  5
413
100
AcDbEntity
  8
ASSI
100
AcDbPolyline
 62
7
  6
CONTINUOUS
 90
4
 70
0
 10
0.9466169893
 20
22.9805396158
 10
1.0297122267
 20
22.8993386545
 10
1.122388203
 20
22.8202297572
 10
1.2023686717
 20
22.7593103319
  0
LWPOLYLINE
  5
414
100
AcDbEntity
  8
SMUSSO
100
AcDbPolyline
 62
7
  6
CONTINUOUS
 90
3
 70
0
 10
1.3380466514
 20
22.7156880009
 10
1.400089743
 20
22.6455329698
 10
1.4370137722
 20
22.6095068423
  0
LINE
  5
415
100
AcDbEntity
  8
ASSI
100
AcDbLine
 62
7
  6
CONTINUOUS
 10
1.3380466514
 20
22.7156880009
 11
1.400089743
 21
22.6455329698
  0
LWPOLYLINE
  5
416
100
AcDbEntity
  8
RACCORDO
100
AcDbPolyline
 62
7
  6
CONTINUOUS
 90
3
 70
0
 10
9.5242714837
 20
17.0332742504
 10
9.4724483034
 20
17.1050505444
 10
9.4153838028
 20
17.171733278
  0
LINE
  5
417
100
AcDbEntity
  8
ASSI
100
AcDbLine
 62
7
  6
CONTINUOUS
 10
9.5392113195
 20
17.0100820253
 11
9.4777431499
 21
17.098261547
  0
LWPOLYLINE
  5
418
100
AcDbEntity
  8
ASSI
100
AcDbPolyline
 62
250
  6
CONTINUOUS
 90
8
 70
0
 10
9.563908217
 20
16.5240967703
 10
9.6480459898
 20
16.3953613548
 10
9.7337897795
 20
16.2752656775
 10
9.8216042674
 20
16.163979068
 10
9.911131822
 20
16.0614138839
 10
10.0011943608
 20
15.9672262851
 10
10.0917903827
 20
15.8813451508
 10
10.1830180267
 20
15.8039075265
  0
LWPOLYLINE
  5
419
100
AcDbEntity
  8
SMUSSO
100
AcDbPolyline
 62
7
  6
CONTINUOUS
 90
3
 70
0
 10
8.2766257432
 20
18.2657895275
 10
8.3220052885
 20
18.1927635589
 10
8.375794533
 20
18.1210760101
  0
LINE
  5
41A
100
AcDbEntity
  8
RACCORDO
100
AcDbLine
 62
7
  6
CONTINUOUS
 10
9.5618889296
 20
16.9722117621
 11
9.5242714837
 21
17.0332742504
  0
LWPOLYLINE
  5
41B
100
AcDbEntity
  8
RACCORDO
100
AcDbPolyline
 62
250
  6
CONTINUOUS
 90
22
 70
0
 10
9.4813195977
 20
16.6614264828
 10
9.563908217
 20
16.5240967703
 10
9.6480459898
 20
16.3953613548
 10
9.7337897795
 20
16.2752656775
 10
9.8216042674
 20
16.163979068
 10
9.911131822
 20
16.0614138839
 10
10.0011943608
 20
15.9672262851
 10
10.0917903827
 20
15.8813451508
 10
10.1830180267
 20
15.8039075265
 10
10.2738494085
 20
15.7348796584
 10
10.3644754947
 20
15.6742346532
 10
10.4547907016
 20
15.6220520025
 10
10.5433245098
 20
15.5784567482
 10
10.6301442887
 20
15.5436855452
 10
10.7152559742
 20
15.5175424266
 10
10.7970959318
 20
15.4995014214
 10
10.8754012138
 20
15.4898125474
 10
10.950485083
 20
15.4882507829
 10
11.0216410668
 20
15.4935730499
 10
11.0886404923
 20
15.5053677255
 10
11.1517342861
 20
15.5240556266
 10
11.2109282994
 20
15.5496384904
  0
LINE
  5
41C
100
AcDbEntity
  8
ASSI
100
AcDbLine
 62
250
  6
CONTINUOUS
 10
9.4813195977
 20
16.6614264828
 11
9.563908217
 21
16.5240967703
  0
LINE
  5
41D
100
AcDbEntity
  8
ASSI
100
AcDbLine
 62
7
  6
CONTINUOUS
 10
9.5618846918
 20
16.9722191517
 11
9.5392113195
 21
17.0100820253
  0
LINE
  5
41E
100
AcDbEntity
  8
SMUSSO
100
AcDbLine
 62
250
  6
CONTINUOUS
 10
8.5841896381
 20
20.1366798416
 11
8.9377950215
 21
19.5266646985
  0
LINE
  5
41F
100
AcDbEntity
  8
ASSI
100
AcDbLine
 62
250
  6
CONTINUOUS
 10
8.5841896381
 20
20.1366798416
 11
8.9377950215
 21
19.5266646985
  0
LINE
  5
420
100
AcDbEntity
  8
RACCORDO
100
AcDbLine
 62
250
  6
CONTINUOUS
 10
9.3513057263
 20
16.8903931169
 11
9.3947846719
 21
16.8141681898
  0
LINE
  5
421
100
AcDbEntity
  8
ASSI
100
AcDbLine
 62
250
  6
CONTINUOUS
 10
9.3513057263
 20
16.8903931169
 11
9.3947846719
 21
16.8141681898
  0
LINE
  5
422
100
AcDbEntity
  8
RACCORDO
100
AcDbLine
 62
250
  6
CONTINUOUS
 10
9.3947846719
 20
16.8141681898
 11
9.4381227732
 21
16.7378457243
  0
LINE
  5
423
100
AcDbEntity
  8
ASSI
100
AcDbLine
 62
250
  6
CONTINUOUS
 10
9.3947846719
 20
16.8141681898
 11
9.4381227732
 21
16.7378457243
  0
LINE
  5
424
100
AcDbEntity
  8
RACCORDO
100
AcDbLine
 62
7
  6
CONTINUOUS
 10
9.6479846926
 20
16.820922137
 11
9.5618843662
 21
16.9722101694
  0
LINE
  5
425
100
AcDbEntity
  8
ASSI
100
AcDbLine
 62
7
  6
CONTINUOUS
 10
9.6479846926
 20
16.820922137
 11
9.5618843662
 21
16.9722101694
  0
LINE
  5
426
100
AcDbEntity
  8
RACCORDO
100
AcDbLine
 62
250
  6
CONTINUOUS
 10
9.4381227732
 20
16.7378457243
 11
9.4813195977
 21
16.6614264828
  0
LINE
  5
427
100
AcDbEntity
  8
ASSI
100
AcDbLine
 62
250
  6
CONTINUOUS
 10
9.4381227732
 20
16.7378457243
 11
9.4813195977
 21
16.6614264828
  0
LINE
  5
428
100
AcDbEntity
  8
RACCORDO
100
AcDbLine
 62
7
  6
CONTINUOUS
 10
9.6908243627
 20
16.7451347355
 11
9.6479846926
 21
16.820922137
  0
LINE
  5
429
100
AcDbEntity
  8
ASSI
100
AcDbLine
 62
7
  6
CONTINUOUS
 10
9.6908243949
 20
16.7451346783
 11
9.6479846926
 21
16.820922137
  0
LINE
  5
42A
100
AcDbEntity
  8
RACCORDO
100
AcDbLine
 62
7
  6
CONTINUOUS
 10
19.0095600013
 20
17.3072332209
 11
19.0014021412
 21
17.4596707231
  0
LINE
  5
42B
100
AcDbEntity
  8
ASSI
100
AcDbLine
 62
7
  6
CONTINUOUS
 10
19.0099326865
 20
17.2674083338
 11
19.0045000953
 21
17.4204235576
  0
LWPOLYLINE
  5
42C
100
AcDbEntity
  8
RACCORDO
100
AcDbPolyline
 62
250
  6
CONTINUOUS
 90
13
 70
0
 10
18.8696023622
 20
17.0940648859
 10
18.8674825415
 20
17.192399772
 10
18.860903712
 20
17.2926634554
 10
18.8498735871
 20
17.3945078071
 10
18.8344286907
 20
17.4975985708
 10
18.8146294648
 20
17.6016162399
 10
18.7905362289
 20
17.7062438882
 10
18.7622169299
 20
17.8111609315
 10
18.7297649164
 20
17.9160451054
 10
18.6932779221
 20
18.0205770109
 10
18.6528556504
 20
18.1244339803
 10
18.6086341137
 20
18.2272720852
 10
18.5607823642
 20
18.3287307753
  0
LWPOLYLINE
  5
42D
100
AcDbEntity
  8
ASSI
100
AcDbPolyline
 62
250
  6
CONTINUOUS
 90
12
 70
0
 10
18.8696023622
 20
17.0940648859
 10
18.8674825415
 20
17.192399772
 10
18.860903712
 20
17.2926634554
 10
18.8498735871
 20
17.3945078071
 10
18.8344286907
 20
17.4975985708
 10
18.8146294648
 20
17.6016162399
 10
18.7905362289
 20
17.7062438882
 10
18.7622169299
 20
17.8111609315
 10
18.7297649164
 20
17.9160451054
 10
18.6932779221
 20
18.0205770109
 10
18.6528556504
 20
18.1244339803
 10
18.6086341137
 20
18.2272720852
  0
LINE
  5
42E
100
AcDbEntity
  8
ASSI
100
AcDbLine
 62
250
  6
CONTINUOUS
 10
19.8070402259
 20
15.831122894
 11
19.8077904748
 21
15.7656884325
  0
LINE
  5
42F
100
AcDbEntity
  8
RACCORDO
100
AcDbLine
 62
7
  6
CONTINUOUS
 10
19.0099329449
 20
17.2675328895
 11
19.0095600013
 21
17.3072332209
  0
LINE
  5
430
100
AcDbEntity
  8
RACCORDO
100
AcDbLine
 62
250
  6
CONTINUOUS
 10
18.8696116843
 20
-4.2870459458
 11
18.8696116843
 21
17.0940603859
  0
LINE
  5
431
100
AcDbEntity
  8
ASSI
100
AcDbLine
 62
250
  6
CONTINUOUS
 10
18.8696116843
 20
-4.2870459458
 11
18.8696116843
 21
17.0940603859
  0
LINE
  5
432
100
AcDbEntity
  8
RACCORDO
100
AcDbLine
 62
7
  6
CONTINUOUS
 10
19.0099417841
 20
-4.1133813532
 11
19.0099417841
 21
17.2677249731
  0
LINE
  5
433
100
AcDbEntity
  8
ASSI
100
AcDbLine
 62
7
  6
CONTINUOUS
 10
19.0099417841
 20
-4.1133813532
 11
19.0099417841
 21
17.2677249731
  0
LINE
  5
434
100
AcDbEntity
  8
RACCORDO
100
AcDbLine
 62
250
  6
CONTINUOUS
 10
19.8077904748
 20
15.7656884325
 11
19.8077904748
 21
13.9470350846
  0
LINE
  5
435
100
AcDbEntity
  8
ASSI
100
AcDbLine
 62
250
  6
CONTINUOUS
 10
19.8077904748
 20
15.7656884325
 11
19.8077904748
 21
13.9470350846
  0
LINE
  5
436
100
AcDbEntity
  8
RACCORDO
100
AcDbLine
 62
7
  6
CONTINUOUS
 10
19.8848470271
 20
15.8660580235
 11
19.8848470271
 21
14.0474046756
  0
LINE
  5
437
100
AcDbEntity
  8
ASSI
100
AcDbLine
 62
7
  6
CONTINUOUS
 10
19.8848470271
 20
15.8660580235
 11
19.8848470271
 21
14.0474046756
  0
LWPOLYLINE
  5
438
100
AcDbEntity
  8
RACCORDO
100
AcDbPolyline
 62
250
  6
CONTINUOUS
 90
21
 70
0
 10
19.8077904748
 20
13.9470350846
 10
19.807034631
 20
13.8821116056
 10
19.8047397364
 20
13.8174078346
 10
19.8008654407
 20
13.7530000659
 10
19.7954076939
 20
13.6893236253
 10
19.788310954
 20
13.6260911463
 10
19.7793788907
 20
13.5623514911
 10
19.7684790238
 20
13.4981694836
 10
19.7555038561
 20
13.4337834428
 10
19.7401487528
 20
13.3686208589
 10
19.7222352232
 20
13.3029361233
 10
19.7015730388
 20
13.2369595272
 10
19.6776974723
 20
13.1702298246
 10
19.6503439678
 20
13.1031157179
 10
19.6192495364
 20
13.0360222832
 10
19.5837940778
 20
12.9687463142
 10
19.5436387162
 20
12.9018619133
 10
19.4984444565
 20
12.8359816776
 10
19.4474287702
 20
12.7712325753
 10
19.3900142624
 20
12.7082837237
 10
19.3259718532
 20
12.6482606777
  0
LINE
  5
439
100
AcDbEntity
  8
ASSI
100
AcDbLine
 62
250
  6
CONTINUOUS
 10
19.8077904748
 20
13.9470350846
 11
19.807034631
 21
13.8821116056
  0
LWPOLYLINE
  5
43A
100
AcDbEntity
  8
RACCORDO
100
AcDbPolyline
 62
250
  6
CONTINUOUS
 90
10
 70
0
 10
18.8696116843
 20
-4.2870459458
 10
18.8683217005
 20
-4.3304096232
 10
18.8631879343
 20
-4.3716246452
 10
18.8542191197
 20
-4.4102176886
 10
18.8414470827
 20
-4.445780191
 10
18.8249765903
 20
-4.477827826
 10
18.8050331288
 20
-4.5058574868
 10
18.7818727849
 20
-4.5295288742
 10
18.7557235205
 20
-4.5486258577
 10
18.7473602232
 20
-4.553418266
  0
LWPOLYLINE
  5
43B
100
AcDbEntity
  8
ASSI
100
AcDbPolyline
 62
250
  6
CONTINUOUS
 90
10
 70
0
 10
18.8696116843
 20
-4.2870459458
 10
18.8683217005
 20
-4.3304096232
 10
18.8631879343
 20
-4.3716246452
 10
18.8542191197
 20
-4.4102176886
 10
18.8414470827
 20
-4.445780191
 10
18.8249765903
 20
-4.477827826
 10
18.8050331288
 20
-4.5058574868
 10
18.7818727849
 20
-4.5295288742
 10
18.7557235205
 20
-4.5486258577
 10
18.7473625004
 20
-4.5534170373
  0
LINE
  5
43C
100
AcDbEntity
  8
RACCORDO
100
AcDbLine
 62
7
  6
CONTINUOUS
 10
19.8848470271
 20
14.0474046756
 11
19.8795314054
 21
13.8772426366
  0
LINE
  5
43D
100
AcDbEntity
  8
ASSI
100
AcDbLine
 62
250
  6
CONTINUOUS
 10
19.807034631
 20
13.8821116056
 11
19.8047397364
 21
13.8174078346
  0
LINE
  5
43E
100
AcDbEntity
  8
ASSI
100
AcDbLine
 62
7
  6
CONTINUOUS
 10
19.8848470271
 20
14.0474046756
 11
19.8747564067
 21
13.8143289021
  0
LWPOLYLINE
  5
43F
100
AcDbEntity
  8
RACCORDO
100
AcDbPolyline
 62
7
  6
CONTINUOUS
 90
7
 70
0
 10
19.0099417841
 20
-4.1133813532
 10
19.0073429001
 20
-4.1642917284
 10
18.9994967845
 20
-4.2150461556
 10
18.9863983674
 20
-4.2650030014
 10
18.9681563715
 20
-4.3134797837
 10
18.944946962
 20
-4.3598980541
 10
18.9169413833
 20
-4.4038143511
  0
LWPOLYLINE
  5
440
100
AcDbEntity
  8
ASSI
100
AcDbPolyline
 62
250
  6
CONTINUOUS
 90
19
 70
0
 10
19.8047397364
 20
13.8174078346
 10
19.8008654407
 20
13.7530000659
 10
19.7954076939
 20
13.6893236253
 10
19.788310954
 20
13.6260911463
 10
19.7793788907
 20
13.5623514911
 10
19.7684790238
 20
13.4981694836
 10
19.7555038561
 20
13.4337834428
 10
19.7401487528
 20
13.3686208589
 10
19.7222352232
 20
13.3029361233
 10
19.7015730388
 20
13.2369595272
 10
19.6776974723
 20
13.1702298246
 10
19.6503439678
 20
13.1031157179
 10
19.6192495364
 20
13.0360222832
 10
19.5837940778
 20
12.9687463142
 10
19.5436387162
 20
12.9018619133
 10
19.4984444565
 20
12.8359816776
 10
19.4474287702
 20
12.7712325753
 10
19.3900142624
 20
12.7082837237
 10
19.3259718532
 20
12.6482606777
  0
LWPOLYLINE
  5
441
100
AcDbEntity
  8
ASSI
100
AcDbPolyline
 62
7
  6
CONTINUOUS
 90
9
 70
0
 10
19.0099417841
 20
-4.1133813532
 10
19.0058945188
 20
-4.1768624099
 10
18.9936528835
 20
-4.2399629584
 10
18.9732305607
 20
-4.3014332329
 10
18.9448290167
 20
-4.36010597
 10
18.9089407621
 20
-4.4147113997
 10
18.8663140934
 20
-4.4640931682
 10
18.8174032667
 20
-4.5076748171
 10
18.7632704005
 20
-4.5444499695
  0
LWPOLYLINE
  5
442
100
AcDbEntity
  8
RACCORDO
100
AcDbPolyline
 62
7
  6
CONTINUOUS
 90
13
 70
0
 10
19.8795314054
 20
13.8772426366
 10
19.863685095
 20
13.7132495121
 10
19.8374683668
 20
13.5560337318
 10
19.8009732819
 20
13.4058878939
 10
19.7544372442
 20
13.2637053009
 10
19.6984519569
 20
13.1308312225
 10
19.633593588
 20
13.0079100983
 10
19.5602076269
 20
12.8950117477
 10
19.4787990326
 20
12.7924926646
 10
19.3901778876
 20
12.7009217849
 10
19.2947851203
 20
12.6203350201
 10
19.1925646498
 20
12.5505251866
 10
19.1742900669
 20
12.5396074938
  0
LWPOLYLINE
  5
443
100
AcDbEntity
  8
RACCORDO
100
AcDbPolyline
 62
250
  6
CONTINUOUS
 90
7
 70
0
 10
19.8848470271
 20
15.8660580235
 10
19.8833375826
 20
15.8510298142
 10
19.8771580466
 20
15.8323153653
 10
19.8663044279
 20
15.8141404649
 10
19.8509502771
 20
15.7967957315
 10
19.8313411085
 20
15.7805585091
 10
19.8077904748
 20
15.7656884325
  0
LWPOLYLINE
  5
444
100
AcDbEntity
  8
ASSI
100
AcDbPolyline
 62
250
  6
CONTINUOUS
 90
7
 70
0
 10
19.8848470271
 20
15.8660580235
 10
19.8833375826
 20
15.8510298142
 10
19.8771580466
 20
15.8323153653
 10
19.8663044279
 20
15.8141404649
 10
19.8509502771
 20
15.7967957315
 10
19.8313411085
 20
15.7805585091
 10
19.8077904748
 20
15.7656884325
  0
LWPOLYLINE
  5
445
100
AcDbEntity
  8
RACCORDO
100
AcDbPolyline
 62
250
  6
CONTINUOUS
 90
7
 70
0
 10
19.8848470271
 20
14.0474046756
 10
19.8833375995
 20
14.0323765501
 10
19.8771580796
 20
14.0136620889
 10
19.8663044689
 20
13.9954871726
 10
19.8509503165
 20
13.9781424214
 10
19.8313411347
 20
13.96190518
 10
19.8077904748
 20
13.9470350846
  0
LWPOLYLINE
  5
446
100
AcDbEntity
  8
ASSI
100
AcDbPolyline
 62
250
  6
CONTINUOUS
 90
7
 70
0
 10
19.8848470271
 20
14.0474046756
 10
19.8833375995
 20
14.0323765501
 10
19.8771580796
 20
14.0136620889
 10
19.8663044689
 20
13.9954871726
 10
19.8509503165
 20
13.9781424214
 10
19.8313411347
 20
13.96190518
 10
19.8077904748
 20
13.9470350846
  0
LWPOLYLINE
  5
447
100
AcDbEntity
  8
RACCORDO
100
AcDbPolyline
 62
250
  6
CONTINUOUS
 90
3
 70
0
 10
19.0045779506
 20
-4.1499021103
 10
19.0094784987
 20
-4.1241408925
 10
19.0099417841
 20
-4.1133813532
  0
LWPOLYLINE
  5
448
100
AcDbEntity
  8
ASSI
100
AcDbPolyline
 62
250
  6
CONTINUOUS
 90
3
 70
0
 10
19.0045779506
 20
-4.1499021103
 10
19.0094784987
 20
-4.1241408925
 10
19.0099417841
 20
-4.1133813532
  0
LINE
  5
449
100
AcDbEntity
  8
RACCORDO
100
AcDbLine
 62
250
  6
CONTINUOUS
 10
12.1234696177
 20
-14.8509660774
 11
12.1636355572
 21
-14.7874524818
  0
LINE
  5
44A
100
AcDbEntity
  8
ASSI
100
AcDbLine
 62
250
  6
CONTINUOUS
 10
12.1234696177
 20
-14.8509660774
 11
12.1636355572
 21
-14.7874524818
  0
LINE
  5
44B
100
AcDbEntity
  8
ASSI
100
AcDbLine
 62
7
  6
CONTINUOUS
 10
12.1621931166
 20
-14.846617614
 11
12.2431125515
 21
-14.7376263917
  0
LWPOLYLINE
  5
44C
100
AcDbEntity
  8
RACCORDO
100
AcDbPolyline
 62
250
  6
CONTINUOUS
 90
3
 70
0
 10
12.0319620876
 20
-14.9635853642
 10
12.0795227298
 20
-14.9097400454
 10
12.1234696177
 20
-14.8509660774
  0
LWPOLYLINE
  5
44D
100
AcDbEntity
  8
ASSI
100
AcDbPolyline
 62
250
  6
CONTINUOUS
 90
3
 70
0
 10
12.0319620876
 20
-14.9635853642
 10
12.0795227298
 20
-14.9097400454
 10
12.1234696177
 20
-14.8509660774
  0
LINE
  5
44E
100
AcDbEntity
  8
ASSI
100
AcDbLine
 62
7
  6
CONTINUOUS
 10
12.1104932793
 20
-14.9044048239
 11
12.1621931166
 21
-14.846617614
  0
LWPOLYLINE
  5
44F
100
AcDbEntity
  8
RACCORDO
100
AcDbPolyline
 62
7
  6
CONTINUOUS
 90
10
 70
0
 10
12.1100153435
 20
-14.904905366
 10
12.157631419
 20
-14.8520436367
 10
12.2162989293
 20
-14.7766837125
 10
12.2703416441
 20
-14.6943306662
 10
12.319097862
 20
-14.6053222712
 10
12.3618474578
 20
-14.5105377577
 10
12.3983297174
 20
-14.4102281721
 10
12.4283205154
 20
-14.3045665319
 10
12.4514869556
 20
-14.1944299541
 10
12.4676987846
 20
-14.080293265
  0
LINE
  5
450
100
AcDbEntity
  8
ASSI
100
AcDbLine
 62
7
  6
CONTINUOUS
 10
12.10970181
 20
-14.9052502786
 11
12.1105022133
 21
-14.9044133085
  0
LINE
  5
451
100
AcDbEntity
  8
RACCORDO
100
AcDbLine
 62
7
  6
CONTINUOUS
 10
12.10970181
 20
-14.9052502786
 11
12.1100242712
 21
-14.9049138678
  0
LINE
  5
452
100
AcDbEntity
  8
ASSI
100
AcDbLine
 62
250
  6
CONTINUOUS
 10
11.8908021754
 20
-15.1080976445
 11
12.0319693723
 21
-14.9635957796
  0
LINE
  5
453
100
AcDbEntity
  8
RACCORDO
100
AcDbLine
 62
7
  6
CONTINUOUS
 10
12.10970181
 20
-14.9052502786
 11
11.9645977464
 21
-15.0537751569
  0
LINE
  5
454
100
AcDbEntity
  8
ASSI
100
AcDbLine
 62
7
  6
CONTINUOUS
 10
12.10970181
 20
-14.9052502786
 11
11.9645977464
 21
-15.0537751569
  0
LWPOLYLINE
  5
455
100
AcDbEntity
  8
RACCORDO
100
AcDbPolyline
 62
7
  6
CONTINUOUS
 90
9
 70
0
 10
11.9645977464
 20
-15.0537751569
 10
11.8174634123
 20
-15.1991793544
 10
11.668321645
 20
-15.3414461181
 10
11.5171980793
 20
-15.4805568785
 10
11.3641137206
 20
-15.6164981268
 10
11.2090846997
 20
-15.7492608331
 10
11.0521322894
 20
-15.878831562
 10
10.8932831474
 20
-16.0051930623
 10
10.7325617151
 20
-16.128330737
  0
LINE
  5
456
100
AcDbEntity
  8
ASSI
100
AcDbLine
 62
7
  6
CONTINUOUS
 10
11.9645977464
 20
-15.0537751569
 11
11.8174634123
 21
-15.1991793544
  0
LWPOLYLINE
  5
457
100
AcDbEntity
  8
ASSI
100
AcDbPolyline
 62
7
  6
CONTINUOUS
 90
7
 70
0
 10
11.8174634123
 20
-15.1991793544
 10
11.668321645
 20
-15.3414461181
 10
11.5171980793
 20
-15.4805568785
 10
11.3641137206
 20
-15.6164981268
 10
11.2090846997
 20
-15.7492608331
 10
11.0521322894
 20
-15.878831562
 10
10.8932831474
 20
-16.0051930623
  0
LWPOLYLINE
  5
458
100
AcDbEntity
  8
RACCORDO
100
AcDbPolyline
 62
250
  6
CONTINUOUS
 90
9
 70
0
 10
10.8476092254
 20
-16.0346757995
 10
11.0023959257
 20
-15.9115307776
 10
11.1552959645
 20
-15.7852830175
 10
11.3062892596
 20
-15.6559491009
 10
11.4553559792
 20
-15.5235460148
 10
11.6024765441
 20
-15.3880911496
 10
11.7476316311
 20
-15.2496022964
 10
11.8908021754
 20
-15.1080976445
 10
12.0319693723
 20
-14.9635957796
  0
LWPOLYLINE
  5
459
100
AcDbEntity
  8
ASSI
100
AcDbPolyline
 62
250
  6
CONTINUOUS
 90
8
 70
0
 10
10.8476092254
 20
-16.0346757995
 10
11.0023959257
 20
-15.9115307776
 10
11.1552959645
 20
-15.7852830175
 10
11.3062892596
 20
-15.6559491009
 10
11.4553559792
 20
-15.5235460148
 10
11.6024765441
 20
-15.3880911496
 10
11.7476316311
 20
-15.2496022964
 10
11.8908021754
 20
-15.1080976445
  0
LINE
  5
45A
100
AcDbEntity
  8
RACCORDO
100
AcDbLine
 62
250
  6
CONTINUOUS
 10
10.6909561938
 20
-16.154701909
 11
10.8476092254
 21
-16.0346757995
  0
LINE
  5
45B
100
AcDbEntity
  8
ASSI
100
AcDbLine
 62
250
  6
CONTINUOUS
 10
10.6909561938
 20
-16.154701909
 11
10.8476092254
 21
-16.0346757995
  0
LINE
  5
45C
100
AcDbEntity
  8
ASSI
100
AcDbLine
 62
7
  6
CONTINUOUS
 10
10.8932831474
 20
-16.0051930623
 11
10.7325617151
 21
-16.128330737
  0
LINE
  5
45D
100
AcDbEntity
  8
RACCORDO
100
AcDbLine
 62
7
  6
CONTINUOUS
 10
10.7253493053
 20
-16.1336521951
 11
10.7325618868
 21
-16.128330608
  0
LWPOLYLINE
  5
45E
100
AcDbEntity
  8
RACCORDO
100
AcDbPolyline
 62
250
  6
CONTINUOUS
 90
7
 70
0
 10
1.3178012224
 20
-21.1918860734
 10
1.6892389913
 20
-20.9443834511
 10
2.0475918175
 20
-20.6770846901
 10
2.3926674615
 20
-20.3901466474
 10
2.7241761514
 20
-20.0837948322
 10
3.0417342371
 20
-19.7583293687
 10
3.3450207978
 20
-19.4140394407
  0
LINE
  5
45F
100
AcDbEntity
  8
RACCORDO
100
AcDbLine
 62
250
  6
CONTINUOUS
 10
10.6668123949
 20
-16.1701334172
 11
10.6909561929
 21
-16.1547019097
  0
LINE
  5
460
100
AcDbEntity
  8
ASSI
100
AcDbLine
 62
250
  6
CONTINUOUS
 10
10.6668123949
 20
-16.1701334172
 11
10.6909561929
 21
-16.1547019097
  0
LWPOLYLINE
  5
461
100
AcDbEntity
  8
RACCORDO
100
AcDbPolyline
 62
250
  6
CONTINUOUS
 90
3
 70
0
 10
12.0319693723
 20
-14.9635957796
 10
12.0746100002
 20
-14.9364760907
 10
12.10970181
 20
-14.9052502786
  0
LWPOLYLINE
  5
462
100
AcDbEntity
  8
ASSI
100
AcDbPolyline
 62
250
  6
CONTINUOUS
 90
3
 70
0
 10
12.0319693723
 20
-14.9635957796
 10
12.0746100002
 20
-14.9364760907
 10
12.10970181
 20
-14.9052502786
  0
LINE
  5
463
100
AcDbEntity
  8
RACCORDO
100
AcDbLine
 62
250
  6
CONTINUOUS
 10
10.6909561929
 20
-16.1547019097
 11
10.7324460919
 21
-16.1284175894
  0
LINE
  5
464
100
AcDbEntity
  8
ASSI
100
AcDbLine
 62
250
  6
CONTINUOUS
 10
10.6909561929
 20
-16.1547019097
 11
10.7324460919
 21
-16.1284175894
  0
LINE
  5
465
100
AcDbEntity
  8
ASSI
100
AcDbLine
 62
7
  6
CONTINUOUS
 10
8.873207743
 20
-17.1760959566
 11
9.04404996
 21
-17.0711365099
  0
LINE
  5
466
100
AcDbEntity
  8
RACCORDO
100
AcDbLine
 62
250
  6
CONTINUOUS
 10
9.0462756428
 20
-17.0684917988
 11
8.9240334089
 21
-17.1436786033
  0
LINE
  5
467
100
AcDbEntity
  8
ASSI
100
AcDbLine
 62
250
  6
CONTINUOUS
 10
9.0795333236
 20
-17.0480964472
 11
8.9240334089
 21
-17.1436786033
  0
LWPOLYLINE
  5
468
100
AcDbEntity
  8
RACCORDO
100
AcDbPolyline
 62
7
  6
CONTINUOUS
 90
11
 70
0
 10
8.8267365522
 20
-17.2045458651
 10
9.1287042255
 20
-17.0193568815
 10
9.2239860024
 20
-16.9613977298
 10
9.3170150172
 20
-16.9052229218
 10
9.4077070789
 20
-16.8509451888
 10
9.495491334
 20
-16.7989609386
 10
9.5797429491
 20
-16.749674965
 10
9.6603609765
 20
-16.7031753812
 10
9.7366999951
 20
-16.6598470936
 10
9.8081961878
 20
-16.6199822762
 10
9.8747759669
 20
-16.5836332651
  0
LWPOLYLINE
  5
469
100
AcDbEntity
  8
ASSI
100
AcDbPolyline
 62
7
  6
CONTINUOUS
 90
7
 70
0
 10
9.04404996
 20
-17.0711365099
 10
9.1758146158
 20
-16.9906523605
 10
9.3041952297
 20
-16.9129360939
 10
9.4281367938
 20
-16.8387946069
 10
9.5472058232
 20
-16.7686325055
 10
9.6597756327
 20
-16.7035103114
 10
9.7641519476
 20
-16.6444492301
  0
LWPOLYLINE
  5
46A
100
AcDbEntity
  8
RACCORDO
100
AcDbPolyline
 62
250
  6
CONTINUOUS
 90
6
 70
0
 10
8.9240334089
 20
-17.1436786033
 10
8.6383382262
 20
-17.3180920628
 10
8.3577785245
 20
-17.4860867211
 10
8.0824508217
 20
-17.6477921788
 10
7.8124486186
 20
-17.8033368399
 10
7.5492169111
 20
-17.9520824359
  0
LWPOLYLINE
  5
46B
100
AcDbEntity
  8
ASSI
100
AcDbPolyline
 62
250
  6
CONTINUOUS
 90
6
 70
0
 10
8.9240334089
 20
-17.1436786033
 10
8.6383382262
 20
-17.3180920628
 10
8.3577785245
 20
-17.4860867211
 10
8.0824508217
 20
-17.6477921788
 10
7.8124486186
 20
-17.8033368399
 10
7.5492169111
 20
-17.9520824359
  0
LINE
  5
46C
100
AcDbEntity
  8
RACCORDO
100
AcDbLine
 62
250
  6
CONTINUOUS
 10
9.1875022015
 20
-16.9821621212
 11
9.0462756428
 21
-17.0684917988
  0
LINE
  5
46D
100
AcDbEntity
  8
ASSI
100
AcDbLine
 62
250
  6
CONTINUOUS
 10
9.1875022015
 20
-16.9821621212
 11
9.0795333236
 21
-17.0480964472
  0
LINE
  5
46E
100
AcDbEntity
  8
ASSI
100
AcDbLine
 62
7
  6
CONTINUOUS
 10
8.6557948364
 20
-17.3084415845
 11
8.873207743
 21
-17.1760959566
  0
LINE
  5
46F
100
AcDbEntity
  8
RACCORDO
100
AcDbLine
 62
250
  6
CONTINUOUS
 10
0.9335830823
 20
-21.4193935022
 11
1.3178012224
 21
-21.1918860734
  0
LWPOLYLINE
  5
470
100
AcDbEntity
  8
RACCORDO
100
AcDbPolyline
 62
250
  6
CONTINUOUS
 90
7
 70
0
 10
12.338828332
 20
-14.03978323
 10
12.3806538699
 20
-14.015116467
 10
12.4157613093
 20
-13.9879565697
 10
12.4435632083
 20
-13.9587579963
 10
12.4635943665
 20
-13.9280093172
 10
12.4755196086
 20
-13.8962250408
 10
12.4791584319
 20
-13.8661186371
  0
LWPOLYLINE
  5
471
100
AcDbEntity
  8
ASSI
100
AcDbPolyline
 62
250
  6
CONTINUOUS
 90
7
 70
0
 10
12.338828332
 20
-14.03978323
 10
12.3806538699
 20
-14.015116467
 10
12.4157613093
 20
-13.9879565697
 10
12.4435632083
 20
-13.9587579963
 10
12.4635943665
 20
-13.9280093172
 10
12.4755196086
 20
-13.8962250408
 10
12.4791584316
 20
-13.8661260462
  0
LWPOLYLINE
  5
472
100
AcDbEntity
  8
ASSI
100
AcDbPolyline
 62
250
  6
CONTINUOUS
 90
12
 70
0
 10
9.7634891553
 20
-16.6427143975
 10
9.7068133472
 20
-16.674777231
 10
9.651459125
 20
-16.7064162406
 10
9.5977513332
 20
-16.7374340309
 10
9.5453584982
 20
-16.7680169934
 10
9.4946423041
 20
-16.7978200625
 10
9.4457145131
 20
-16.8267618329
 10
9.3984596664
 20
-16.8549171603
 10
9.3529019987
 20
-16.882180904
 10
9.3090898511
 20
-16.9085139405
 10
9.2669737931
 20
-16.9339531045
 10
9.1875022015
 20
-16.9821621212
  0
LWPOLYLINE
  5
473
100
AcDbEntity
  8
RACCORDO
100
AcDbPolyline
 62
250
  6
CONTINUOUS
 90
13
 70
0
 10
9.8201440126
 20
-16.6111540991
 10
9.7634891553
 20
-16.6427143975
 10
9.7068133472
 20
-16.674777231
 10
9.651459125
 20
-16.7064162406
 10
9.5977513332
 20
-16.7374340309
 10
9.5453584982
 20
-16.7680169934
 10
9.4946423041
 20
-16.7978200625
 10
9.4457145131
 20
-16.8267618329
 10
9.3984596664
 20
-16.8549171603
 10
9.3529019987
 20
-16.882180904
 10
9.3090898511
 20
-16.9085139405
 10
9.2669737931
 20
-16.9339531045
 10
9.1875022015
 20
-16.9821621212
  0
LINE
  5
474
100
AcDbEntity
  8
ASSI
100
AcDbLine
 62
250
  6
CONTINUOUS
 10
9.8201440126
 20
-16.6111540991
 11
9.7634891553
 21
-16.6427143975
  0
LWPOLYLINE
  5
475
100
AcDbEntity
  8
ASSI
100
AcDbPolyline
 62
7
  6
CONTINUOUS
 90
7
 70
0
 10
7.3575845006
 20
-18.0586721642
 10
7.5731350071
 20
-17.9388586739
 10
7.7890312048
 20
-17.8169542229
 10
8.0052587263
 20
-17.6929597466
 10
8.2218042465
 20
-17.566875761
 10
8.4386546728
 20
-17.4387025069
 10
8.6557948364
 20
-17.3084415845
  0
LINE
  5
476
100
AcDbEntity
  8
RACCORDO
100
AcDbLine
 62
250
  6
CONTINUOUS
 10
7.5492169111
 20
-17.9520824359
 11
7.2887799155
 21
-18.0964507981
  0
LINE
  5
477
100
AcDbEntity
  8
ASSI
100
AcDbLine
 62
250
  6
CONTINUOUS
 10
7.5492169111
 20
-17.9520824359
 11
7.2887799155
 21
-18.0964507981
  0
LWPOLYLINE
  5
478
100
AcDbEntity
  8
ASSI
100
AcDbPolyline
 62
7
  6
CONTINUOUS
 90
3
 70
0
 10
9.7641519476
 20
-16.6444492301
 10
9.8598330929
 20
-16.5917199419
 10
9.9438769648
 20
-16.5468266117
  0
LWPOLYLINE
  5
479
100
AcDbEntity
  8
RACCORDO
100
AcDbPolyline
 62
7
  6
CONTINUOUS
 90
9
 70
0
 10
7.2909464161
 20
-18.095329237
 10
7.400681223
 20
-18.0348684981
 10
7.6035484938
 20
-17.9218008394
 10
7.8067201933
 20
-17.8068820724
 10
8.0101843281
 20
-17.690113015
 10
8.213929772
 20
-17.5714941153
 10
8.4179456204
 20
-17.4510255654
 10
8.6222192583
 20
-17.3287086732
 10
8.8267365522
 20
-17.2045458651
  0
LINE
  5
47A
100
AcDbEntity
  8
ASSI
100
AcDbLine
 62
7
  6
CONTINUOUS
 10
7.2909463823
 20
-18.0953292556
 11
7.3575845006
 21
-18.0586721642
  0
LINE
  5
47B
100
AcDbEntity
  8
0
100
AcDbLine
 62
7
  6
CONTINUOUS
 10
1.7535333509
 20
-21.0170193507
 11
1.4407154863
 21
-21.1890401197
  0
LINE
  5
47C
100
AcDbEntity
  8
ASSI
100
AcDbLine
 62
7
  6
CONTINUOUS
 10
1.7535333509
 20
-21.0170193507
 11
1.4407154863
 21
-21.1890401197
  0
LINE
  5
47D
100
AcDbEntity
  8
RACCORDO
100
AcDbLine
 62
250
  6
CONTINUOUS
 10
7.2839040726
 20
-18.099120387
 11
7.2887800208
 21
-18.0964507429
  0
LINE
  5
47E
100
AcDbEntity
  8
RACCORDO
100
AcDbLine
 62
250
  6
CONTINUOUS
 10
9.8763334857
 20
-16.5804097689
 11
9.8201440126
 21
-16.6111540991
  0
LINE
  5
47F
100
AcDbEntity
  8
ASSI
100
AcDbLine
 62
250
  6
CONTINUOUS
 10
9.8763334857
 20
-16.5804097689
 11
9.8201440126
 21
-16.6111540991
  0
LINE
  5
480
100
AcDbEntity
  8
RACCORDO
100
AcDbLine
 62
7
  6
CONTINUOUS
 10
4.5209271456
 20
-19.5602215175
 11
4.6371083301
 21
-19.4967907495
  0
LINE
  5
481
100
AcDbEntity
  8
ASSI
100
AcDbLine
 62
7
  6
CONTINUOUS
 10
4.5209271456
 20
-19.5602215175
 11
4.6371083301
 21
-19.4967907495
  0
LINE
  5
482
100
AcDbEntity
  8
RACCORDO
100
AcDbLine
 62
7
  6
CONTINUOUS
 10
4.3915273053
 20
-19.6302713965
 11
4.5209271456
 21
-19.5602215175
  0
LINE
  5
483
100
AcDbEntity
  8
ASSI
100
AcDbLine
 62
7
  6
CONTINUOUS
 10
4.3915273053
 20
-19.6302713965
 11
4.5209271456
 21
-19.5602215175
  0
LINE
  5
484
100
AcDbEntity
  8
RACCORDO
100
AcDbLine
 62
250
  6
CONTINUOUS
 10
9.9325089145
 20
-16.5501783156
 11
9.8763334857
 21
-16.5804097689
  0
LINE
  5
485
100
AcDbEntity
  8
ASSI
100
AcDbLine
 62
250
  6
CONTINUOUS
 10
9.9325089145
 20
-16.5501783156
 11
9.8763334857
 21
-16.5804097689
  0
LINE
  5
486
100
AcDbEntity
  8
RACCORDO
100
AcDbLine
 62
7
  6
CONTINUOUS
 10
7.2839040726
 20
-18.099120387
 11
7.2909464619
 21
-18.0953289709
  0
LWPOLYLINE
  5
487
100
AcDbEntity
  8
RACCORDO
100
AcDbPolyline
 62
250
  6
CONTINUOUS
 90
3
 70
0
 10
9.9604206301
 20
-16.5381530305
 10
9.9645056581
 20
-16.5359661164
 10
9.9886604814
 20
-16.5204429581
  0
LWPOLYLINE
  5
488
100
AcDbEntity
  8
ASSI
100
AcDbPolyline
 62
250
  6
CONTINUOUS
 90
3
 70
0
 10
9.9604206301
 20
-16.5381530305
 10
9.9645056581
 20
-16.5359661164
 10
9.9886604814
 20
-16.5204429581
  0
LINE
  5
489
100
AcDbEntity
  8
RACCORDO
100
AcDbLine
 62
7
  6
CONTINUOUS
 10
4.3051513813
 20
-19.6766249922
 11
4.3915273053
 21
-19.6302713965
  0
LINE
  5
48A
100
AcDbEntity
  8
ASSI
100
AcDbLine
 62
7
  6
CONTINUOUS
 10
4.3051513813
 20
-19.6766249922
 11
4.3915273053
 21
-19.6302713965
  0
LINE
  5
48B
100
AcDbEntity
  8
RACCORDO
100
AcDbLine
 62
7
  6
CONTINUOUS
 10
9.8747759669
 20
-16.5836332651
 11
9.9360498417
 21
-16.5509307066
  0
LWPOLYLINE
  5
48C
100
AcDbEntity
  8
ASSI
100
AcDbPolyline
 62
7
  6
CONTINUOUS
 90
10
 70
0
 10
10.6631350193
 20
-16.1720962669
 10
10.6711907514
 20
-16.1678053615
 10
10.6791745083
 20
-16.1633637521
 10
10.687082725
 20
-16.1587728912
 10
10.6949133101
 20
-16.1540334517
 10
10.7026612632
 20
-16.1491479642
 10
10.7103189527
 20
-16.1441210098
 10
10.7178818487
 20
-16.1389555982
 10
10.7253482502
 20
-16.1336529736
 10
10.7325618868
 20
-16.128330608
  0
LWPOLYLINE
  5
48D
100
AcDbEntity
  8
RACCORDO
100
AcDbPolyline
 62
7
  6
CONTINUOUS
 90
9
 70
0
 10
10.6631350193
 20
-16.1720962669
 10
10.6711981742
 20
-16.1678013202
 10
10.679186708
 20
-16.1633568181
 10
10.6870971423
 20
-16.1587643442
 10
10.6949266597
 20
-16.1540252037
 10
10.7026711994
 20
-16.1491415707
 10
10.7103256191
 20
-16.1441165456
 10
10.7178861726
 20
-16.1389525865
 10
10.7253493053
 20
-16.1336521951
  0
LINE
  5
48E
100
AcDbEntity
  8
RACCORDO
100
AcDbLine
 62
7
  6
CONTINUOUS
 10
4.2371396117
 20
-19.7127731786
 11
4.3051513813
 21
-19.6766249922
  0
LINE
  5
48F
100
AcDbEntity
  8
ASSI
100
AcDbLine
 62
7
  6
CONTINUOUS
 10
4.2371396117
 20
-19.7127731786
 11
4.3051513813
 21
-19.6766249922
  0
LINE
  5
490
100
AcDbEntity
  8
RACCORDO
100
AcDbLine
 62
250
  6
CONTINUOUS
 10
9.988671888
 20
-16.5204616796
 11
9.9325089145
 21
-16.5501783156
  0
LINE
  5
491
100
AcDbEntity
  8
ASSI
100
AcDbLine
 62
250
  6
CONTINUOUS
 10
9.988671888
 20
-16.5204616796
 11
9.9325089145
 21
-16.5501783156
  0
LINE
  5
492
100
AcDbEntity
  8
RACCORDO
100
AcDbLine
 62
250
  6
CONTINUOUS
 10
7.2887799155
 20
-18.0964507981
 11
7.2839040724
 21
-18.099120387
  0
LINE
  5
493
100
AcDbEntity
  8
ASSI
100
AcDbLine
 62
7
  6
CONTINUOUS
 10
7.2887799155
 20
-18.0964507981
 11
4.6371083301
 21
-19.4967907495
  0
LINE
  5
494
100
AcDbEntity
  8
RACCORDO
100
AcDbLine
 62
7
  6
CONTINUOUS
 10
4.6324146583
 20
-19.499355052
 11
7.2839040724
 21
-18.099120387
  0
LINE
  5
495
100
AcDbEntity
  8
0
100
AcDbLine
 62
7
  6
CONTINUOUS
 10
1.4404065497
 20
-21.1891901844
 11
4.2371858188
 21
-19.7127437243
  0
LINE
  5
496
100
AcDbEntity
  8
ASSI
100
AcDbLine
 62
7
  6
CONTINUOUS
 10
1.4404065497
 20
-21.1891901844
 11
4.2371858188
 21
-19.7127437243
  0
LINE
  5
497
100
AcDbEntity
  8
RACCORDO
100
AcDbLine
 62
250
  6
CONTINUOUS
 10
12.338828332
 20
-14.03978323
 11
4.6556414775
 21
-18.0760688973
  0
LINE
  5
498
100
AcDbEntity
  8
ASSI
100
AcDbLine
 62
250
  6
CONTINUOUS
 10
12.338828332
 20
-14.03978323
 11
4.6556414775
 21
-18.0760688973
  0
LINE
  5
499
100
AcDbEntity
  8
RACCORDO
100
AcDbLine
 62
250
  6
CONTINUOUS
 10
12.0319693723
 20
-14.9635957796
 11
4.2468569066
 21
-19.0522238594
  0
LINE
  5
49A
100
AcDbEntity
  8
ASSI
100
AcDbLine
 62
250
  6
CONTINUOUS
 10
12.0319693723
 20
-14.9635957796
 11
4.2468569066
 21
-19.0522238594
  0
LWPOLYLINE
  5
49B
100
AcDbEntity
  8
RACCORDO
100
AcDbPolyline
 62
250
  6
CONTINUOUS
 90
9
 70
0
 10
0.6380035258
 20
-21.3662497592
 10
0.7042000463
 20
-21.3316483012
 10
1.0848608632
 20
-21.1061993029
 10
1.4532041501
 20
-20.8606539841
 10
1.8089222323
 20
-20.5952334599
 10
2.151092086
 20
-20.3106010748
 10
2.4794060363
 20
-20.0069779438
 10
2.7941717579
 20
-19.684142952
 10
3.0953892509
 20
-19.3420960993
  0
LINE
  5
49C
100
AcDbEntity
  8
RACCORDO
100
AcDbLine
 62
250
  6
CONTINUOUS
 10
0.6231474121
 20
-21.581647036
 11
0.9335830823
 21
-21.4193935022
  0
LINE
  5
49D
100
AcDbEntity
  8
RACCORDO
100
AcDbLine
 62
250
  6
CONTINUOUS
 10
10.6909561938
 20
-16.154701909
 11
9.988671888
 21
-16.5204616796
  0
LINE
  5
49E
100
AcDbEntity
  8
ASSI
100
AcDbLine
 62
250
  6
CONTINUOUS
 10
10.6909561938
 20
-16.154701909
 11
9.988671888
 21
-16.5204616796
  0
LINE
  5
49F
100
AcDbEntity
  8
RACCORDO
100
AcDbLine
 62
7
  6
CONTINUOUS
 10
9.9360498417
 20
-16.5509307066
 11
10.6631350193
 21
-16.1720962669
  0
LINE
  5
4A0
100
AcDbEntity
  8
ASSI
100
AcDbLine
 62
7
  6
CONTINUOUS
 10
9.9438769648
 20
-16.5468266117
 11
10.6631350193
 21
-16.1720962669
  0
LINE
  5
4A1
100
AcDbEntity
  8
0
100
AcDbLine
 62
7
  6
CONTINUOUS
 10
1.4407154863
 20
-21.1890401197
 11
1.2941094089
 21
-21.2649697846
  0
LINE
  5
4A2
100
AcDbEntity
  8
ASSI
100
AcDbLine
 62
7
  6
CONTINUOUS
 10
1.4407154863
 20
-21.1890401197
 11
1.2941094089
 21
-21.2649697846
  0
LWPOLYLINE
  5
4A3
100
AcDbEntity
  8
RACCORDO
100
AcDbPolyline
 62
7
  6
CONTINUOUS
 90
3
 70
0
 10
1.5844854445
 20
-21.1116702618
 10
1.1413615036
 20
-21.340952291
 10
1.0262231227
 20
-21.3962451046
  0
LINE
  5
4A4
100
AcDbEntity
  8
RACCORDO
100
AcDbLine
 62
250
  6
CONTINUOUS
 10
7.2887800208
 20
-18.0964507429
 11
7.2907923243
 21
-18.0954135126
  0
LINE
  5
4A5
100
AcDbEntity
  8
ASSI
100
AcDbLine
 62
250
  6
CONTINUOUS
 10
7.2887800208
 20
-18.0964507429
 11
7.2907922927
 21
-18.0954135299
  0
LINE
  5
4A6
100
AcDbEntity
  8
0
100
AcDbLine
 62
7
  6
CONTINUOUS
 10
1.2941094089
 20
-21.2649697846
 11
1.0248701838
 21
-21.3934090225
  0
LINE
  5
4A7
100
AcDbEntity
  8
ASSI
100
AcDbLine
 62
7
  6
CONTINUOUS
 10
1.2941094089
 20
-21.2649697846
 11
1.0248701838
 21
-21.3934090225
  0
LINE
  5
4A8
100
AcDbEntity
  8
RACCORDO
100
AcDbLine
 62
250
  6
CONTINUOUS
 10
3.5441878295
 20
-18.5474048757
 11
4.6574728079
 21
-18.0178675505
  0
LINE
  5
4A9
100
AcDbEntity
  8
RACCORDO
100
AcDbLine
 62
250
  6
CONTINUOUS
 10
3.3450207978
 20
-19.4140394407
 11
4.36108051
 21
-18.9305775755
  0
LINE
  5
4AA
100
AcDbEntity
  8
DRAFT
100
AcDbLine
 62
7
  6
CONTINUOUS
 10
1.0256953652
 20
-21.3965457766
 11
0.6227778779
 21
-21.5870048742
  0
LINE
  5
4AB
100
AcDbEntity
  8
RACCORDO
100
AcDbLine
 62
250
  6
CONTINUOUS
 10
8.9323929038
 20
-17.1397353317
 11
8.9240334026
 21
-17.1436785926
  0
LINE
  5
4AC
100
AcDbEntity
  8
ASSI
100
AcDbLine
 62
250
  6
CONTINUOUS
 10
8.9323929334
 20
-17.1397353135
 11
8.9240334026
 21
-17.1436785926
  0
LINE
  5
4AD
100
AcDbEntity
  8
0
100
AcDbLine
 62
7
  6
CONTINUOUS
 10
3.9932822588
 20
20.2680520504
 11
3.134693663
 21
20.1116786861
  0
LINE
  5
4AE
100
AcDbEntity
  8
ASSI
100
AcDbLine
 62
7
  6
CONTINUOUS
 10
3.9932822588
 20
20.2680520504
 11
3.134693663
 21
20.1116786861
  0
LWPOLYLINE
  5
4AF
100
AcDbEntity
  8
RACCORDO
100
AcDbPolyline
 62
250
  6
CONTINUOUS
 90
4
 70
0
 10
7.1533705038
 20
18.5679783578
 10
7.1800263517
 20
18.5640288949
 10
7.2053829747
 20
18.5567104152
 10
7.2250781371
 20
18.5482309078
  0
LWPOLYLINE
  5
4B0
100
AcDbEntity
  8
0
100
AcDbPolyline
 62
7
  6
CONTINUOUS
 90
5
 70
0
 10
12.5685604678
 20
18.1484556778
 10
12.5914322422
 20
18.143945949
 10
12.7367579236
 20
18.1114069195
 10
12.8789529943
 20
18.0755765228
 10
13.0180367734
 20
18.0364750701
  0
LINE
  5
4B1
100
AcDbEntity
  8
0
100
AcDbLine
 62
7
  6
CONTINUOUS
 10
11.233565873
 20
17.7645515417
 11
10.7101690138
 21
17.9062373447
  0
LWPOLYLINE
  5
4B2
100
AcDbEntity
  8
RACCORDO
100
AcDbPolyline
 62
250
  6
CONTINUOUS
 90
8
 70
0
 10
-3.6747882009
 20
21.9446299919
 10
-3.6851934803
 20
21.9475460562
 10
-3.6961369107
 20
21.9490514545
 10
-3.7075352059
 20
21.9491347297
 10
-3.719301618
 20
21.9477952481
 10
-3.7313465976
 20
21.9450432039
 10
-3.7435784751
 20
21.940899542
 10
-3.7559041584
 20
21.9353957979
  0
LWPOLYLINE
  5
4B3
100
AcDbEntity
  8
RACCORDO
100
AcDbPolyline
 62
7
  6
CONTINUOUS
 90
6
 70
0
 10
-3.6664363669
 20
21.9410636133
 10
-3.6900514289
 20
21.9510359949
 10
-3.715769271
 20
21.9581208978
 10
-3.7424934712
 20
21.9617405943
 10
-3.7694950439
 20
21.9617282074
 10
-3.7963240691
 20
21.9580637105
  0
LWPOLYLINE
  5
4B4
100
AcDbEntity
  8
RACCORDO
100
AcDbPolyline
 62
250
  6
CONTINUOUS
 90
9
 70
0
 10
-2.4963269666
 20
23.2437591175
 10
-2.5242793151
 20
23.2565242539
 10
-2.5520936826
 20
23.266446434
 10
-2.5795938759
 20
23.2734628045
 10
-2.606605692
 20
23.2775289196
 10
-2.6329580215
 20
23.2786190218
 10
-2.6584839325
 20
23.2767262058
 10
-2.6830217281
 20
23.271862462
 10
-2.706415971
 20
23.2640586003
  0
LWPOLYLINE
  5
4B5
100
AcDbEntity
  8
ASSI
100
AcDbPolyline
 62
250
  6
CONTINUOUS
 90
10
 70
0
 10
-2.4963269666
 20
23.2437591175
 10
-2.5242793151
 20
23.2565242539
 10
-2.5520936826
 20
23.266446434
 10
-2.5795938759
 20
23.2734628045
 10
-2.606605692
 20
23.2775289196
 10
-2.6329580215
 20
23.2786190218
 10
-2.6584839325
 20
23.2767262058
 10
-2.6830217281
 20
23.271862462
 10
-2.706415971
 20
23.2640586003
 10
-2.7157340562
 20
23.2599769441
  0
LWPOLYLINE
  5
4B6
100
AcDbEntity
  8
RACCORDO
100
AcDbPolyline
 62
250
  6
CONTINUOUS
 90
13
 70
0
 10
-2.4008183917
 20
23.2412792873
 10
-2.4083266467
 20
23.2447107419
 10
-2.4160239381
 20
23.2475756675
 10
-2.423910266
 20
23.2498740641
 10
-2.4320501684
 20
23.2516232469
 10
-2.4403791073
 20
23.2528059007
 10
-2.4487034684
 20
23.2533700803
 10
-2.4570268365
 20
23.253294922
 10
-2.4653456269
 20
23.2526012896
 10
-2.4734554719
 20
23.2512998283
 10
-2.4812882489
 20
23.2493940868
 10
-2.4889120805
 20
23.2468805165
 10
-2.4963269666
 20
23.2437591175
  0
LWPOLYLINE
  5
4B7
100
AcDbEntity
  8
ASSI
100
AcDbPolyline
 62
250
  6
CONTINUOUS
 90
13
 70
0
 10
-2.4008183917
 20
23.2412792873
 10
-2.4083266467
 20
23.2447107419
 10
-2.4160239381
 20
23.2475756675
 10
-2.423910266
 20
23.2498740641
 10
-2.4320501684
 20
23.2516232469
 10
-2.4403791073
 20
23.2528059007
 10
-2.4487034684
 20
23.2533700803
 10
-2.4570268365
 20
23.253294922
 10
-2.4653456269
 20
23.2526012896
 10
-2.4734554719
 20
23.2512998283
 10
-2.4812882489
 20
23.2493940868
 10
-2.4889120805
 20
23.2468805165
 10
-2.4963269666
 20
23.2437591175
  0
LINE
  5
4B8
100
AcDbEntity
  8
RACCORDO
100
AcDbLine
 62
7
  6
CONTINUOUS
 10
-2.1831866447
 20
23.2524680022
 11
-2.2102871526
 21
23.2651578685
  0
LWPOLYLINE
  5
4B9
100
AcDbEntity
  8
RACCORDO
100
AcDbPolyline
 62
250
  6
CONTINUOUS
 90
11
 70
0
 10
10.418523642
 20
15.9618489547
 10
10.4653287978
 20
15.939622347
 10
10.5260469757
 20
15.914436191
 10
10.583847782
 20
15.8946893194
 10
10.6383139886
 20
15.8803211034
 10
10.689025288
 20
15.87124597
 10
10.7359860432
 20
15.8672173671
 10
10.7794064012
 20
15.8678367704
 10
10.8192443777
 20
15.8728359103
 10
10.8552083988
 20
15.8820887975
 10
10.88715412
 20
15.8953934195
  0
LWPOLYLINE
  5
4BA
100
AcDbEntity
  8
ASSI
100
AcDbPolyline
 62
250
  6
CONTINUOUS
 90
11
 70
0
 10
10.418523642
 20
15.9618489547
 10
10.4653287978
 20
15.939622347
 10
10.5260469757
 20
15.914436191
 10
10.583847782
 20
15.8946893194
 10
10.6383139886
 20
15.8803211034
 10
10.689025288
 20
15.87124597
 10
10.7359860432
 20
15.8672173671
 10
10.7794064012
 20
15.8678367704
 10
10.8192443777
 20
15.8728359103
 10
10.8552083988
 20
15.8820887975
 10
10.88715412
 20
15.8953934195
  0
LINE
  5
4BB
100
AcDbEntity
  8
RACCORDO
100
AcDbLine
 62
7
  6
CONTINUOUS
 10
10.4180405942
 20
15.9620903439
 11
10.418523642
 21
15.9618489547
  0
LINE
  5
4BC
100
AcDbEntity
  8
ASSI
100
AcDbLine
 62
7
  6
CONTINUOUS
 10
10.4179189417
 20
15.962151174
 11
10.418523642
 21
15.9618489547
  0
LINE
  5
4BD
100
AcDbEntity
  8
0
100
AcDbLine
 62
7
  6
CONTINUOUS
 10
-1.5650668665
 20
21.1827951167
 11
1.0428427509
 21
19.878840308
  0
LINE
  5
4BE
100
AcDbEntity
  8
ASSI
100
AcDbLine
 62
7
  6
CONTINUOUS
 10
-1.5650668665
 20
21.1827951167
 11
1.0428427509
 21
19.878840308
  0
LINE
  5
4BF
100
AcDbEntity
  8
0
100
AcDbLine
 62
7
  6
CONTINUOUS
 10
-3.0880271409
 20
22.7684831615
 11
-2.9085697508
 21
22.6787544665
  0
LINE
  5
4C0
100
AcDbEntity
  8
ASSI
100
AcDbLine
 62
7
  6
CONTINUOUS
 10
-3.0880271409
 20
22.7684831615
 11
-2.9085697508
 21
22.6787544665
  0
LINE
  5
4C1
100
AcDbEntity
  8
0
100
AcDbLine
 62
7
  6
CONTINUOUS
 10
1.8997563613
 20
20.2745914105
 11
2.0792137514
 21
20.1848627154
  0
LINE
  5
4C2
100
AcDbEntity
  8
ASSI
100
AcDbLine
 62
7
  6
CONTINUOUS
 10
1.8997563613
 20
20.2745914105
 11
2.0792137514
 21
20.1848627154
  0
LINE
  5
4C3
100
AcDbEntity
  8
0
100
AcDbLine
 62
7
  6
CONTINUOUS
 10
-1.5650668665
 20
22.073006968
 11
2.8189951769
 21
19.8809759463
  0
LINE
  5
4C4
100
AcDbEntity
  8
ASSI
100
AcDbLine
 62
7
  6
CONTINUOUS
 10
-1.5650668665
 20
22.073006968
 11
2.8189951769
 21
19.8809759463
  0
LINE
  5
4C5
100
AcDbEntity
  8
RACCORDO
100
AcDbLine
 62
250
  6
CONTINUOUS
 10
9.9517226705
 20
16.3631091443
 11
10.88715412
 21
15.8953934195
  0
LINE
  5
4C6
100
AcDbEntity
  8
ASSI
100
AcDbLine
 62
250
  6
CONTINUOUS
 10
9.9517226705
 20
16.3631091443
 11
10.88715412
 21
15.8953934195
  0
LINE
  5
4C7
100
AcDbEntity
  8
0
100
AcDbLine
 62
7
  6
CONTINUOUS
 10
-1.1036613868
 20
22.230856211
 11
3.134693663
 21
20.1116786861
  0
LINE
  5
4C8
100
AcDbEntity
  8
ASSI
100
AcDbLine
 62
7
  6
CONTINUOUS
 10
-1.1036613868
 20
22.230856211
 11
3.134693663
 21
20.1116786861
  0
LINE
  5
4C9
100
AcDbEntity
  8
RACCORDO
100
AcDbLine
 62
250
  6
CONTINUOUS
 10
7.0076416894
 20
18.5370492467
 11
4.1811087745
 21
19.9503157042
  0
LINE
  5
4CA
100
AcDbEntity
  8
ASSI
100
AcDbLine
 62
250
  6
CONTINUOUS
 10
7.0076416894
 20
18.5370492467
 11
4.1811087745
 21
19.9503157042
  0
LINE
  5
4CB
100
AcDbEntity
  8
RACCORDO
100
AcDbLine
 62
250
  6
CONTINUOUS
 10
-0.3283678139
 20
22.2050539984
 11
-2.4008183917
 21
23.2412792873
  0
LINE
  5
4CC
100
AcDbEntity
  8
ASSI
100
AcDbLine
 62
250
  6
CONTINUOUS
 10
-0.3283678139
 20
22.2050539984
 11
-2.4008183917
 21
23.2412792873
  0
LINE
  5
4CD
100
AcDbEntity
  8
RACCORDO
100
AcDbLine
 62
7
  6
CONTINUOUS
 10
-0.0714685348
 20
22.1965042438
 11
-2.1833758556
 21
23.2524579042
  0
LINE
  5
4CE
100
AcDbEntity
  8
ASSI
100
AcDbLine
 62
7
  6
CONTINUOUS
 10
-0.0714685348
 20
22.1965042438
 11
-2.1833758556
 21
23.2524579042
  0
LINE
  5
4CF
100
AcDbEntity
  8
0
100
AcDbLine
 62
7
  6
CONTINUOUS
 10
0.1511988686
 20
22.1890937455
 11
3.9932822588
 21
20.2680520504
  0
LINE
  5
4D0
100
AcDbEntity
  8
ASSI
100
AcDbLine
 62
7
  6
CONTINUOUS
 10
0.1511988686
 20
22.1890937455
 11
3.9932822588
 21
20.2680520504
  0
LINE
  5
4D1
100
AcDbEntity
  8
RACCORDO
100
AcDbLine
 62
7
  6
CONTINUOUS
 10
4.358093335
 20
19.9817233089
 11
7.2253487492
 21
18.5480953287
  0
LINE
  5
4D2
100
AcDbEntity
  8
ASSI
100
AcDbLine
 62
7
  6
CONTINUOUS
 10
4.358093335
 20
19.9817233089
 11
7.2255316763
 21
18.5480033706
  0
LINE
  5
4D3
100
AcDbEntity
  8
ASSI
100
AcDbLine
 62
7
  6
CONTINUOUS
 10
10.4179179882
 20
15.9621535403
 11
10.3775890139
 21
15.9837224351
  0
LINE
  5
4D4
100
AcDbEntity
  8
RACCORDO
100
AcDbLine
 62
7
  6
CONTINUOUS
 10
7.2541822466
 20
18.5327309796
 11
7.225391578
 21
18.5481789486
  0
LWPOLYLINE
  5
4D5
100
AcDbEntity
  8
RACCORDO
100
AcDbPolyline
 62
7
  6
CONTINUOUS
 90
15
 70
0
 10
10.4180397262
 20
15.9620926724
 10
10.3716678205
 20
15.9871184654
 10
10.3238296676
 20
16.0166160806
 10
10.2746320155
 20
16.050636325
 10
10.224644604
 20
16.0888810607
 10
10.1742839783
 20
16.1310773706
 10
10.1228465004
 20
16.1779688514
 10
10.0706300184
 20
16.2295397633
 10
10.0180116597
 20
16.2856476509
 10
9.9644123474
 20
16.3472352308
 10
9.9100964671
 20
16.414473591
 10
9.8556021334
 20
16.48718467
 10
9.80089776
 20
16.5659631048
 10
9.7463653677
 20
16.6509487669
 10
9.6908281324
 20
16.7451326969
  0
LWPOLYLINE
  5
4D6
100
AcDbEntity
  8
0
100
AcDbPolyline
 62
7
  6
CONTINUOUS
 90
10
 70
0
 10
2.0792137514
 20
20.1848627154
 10
2.1255726085
 20
20.1597809275
 10
2.1713499832
 20
20.1313946783
 10
2.2165458754
 20
20.0997039676
 10
2.2613465347
 20
20.0645467967
 10
2.3055657116
 20
20.0260851644
 10
2.3486446576
 20
19.9848050675
 10
2.3903971231
 20
19.940868505
 10
2.4310093578
 20
19.894113478
 10
2.4704813615
 20
19.8445399863
  0
LWPOLYLINE
  5
4D7
100
AcDbEntity
  8
ASSI
100
AcDbPolyline
 62
7
  6
CONTINUOUS
 90
10
 70
0
 10
2.0792137514
 20
20.1848627154
 10
2.1255726085
 20
20.1597809275
 10
2.1713499832
 20
20.1313946783
 10
2.2165458754
 20
20.0997039676
 10
2.2613465347
 20
20.0645467967
 10
2.3055657116
 20
20.0260851644
 10
2.3486446576
 20
19.9848050675
 10
2.3903971231
 20
19.940868505
 10
2.4310093578
 20
19.894113478
 10
2.4704813615
 20
19.8445399863
  0
LWPOLYLINE
  5
4D8
100
AcDbEntity
  8
RACCORDO
100
AcDbPolyline
 62
250
  6
CONTINUOUS
 90
10
 70
0
 10
7.0106233259
 20
18.4902839785
 10
7.038909744
 20
18.4749353305
 10
7.0669765101
 20
18.4569211772
 10
7.094645837
 20
18.4363556313
 10
7.1217424636
 20
18.4133689716
 10
7.1480947651
 20
18.3881068176
 10
7.1735358401
 20
18.3607292072
 10
7.1979045674
 20
18.3314095825
 10
7.2210466261
 20
18.3003336911
 10
7.2428154735
 20
18.2676984093
  0
LWPOLYLINE
  5
4D9
100
AcDbEntity
  8
ASSI
100
AcDbPolyline
 62
250
  6
CONTINUOUS
 90
10
 70
0
 10
7.0106233259
 20
18.4902839785
 10
7.038909744
 20
18.4749353305
 10
7.0669765101
 20
18.4569211772
 10
7.094645837
 20
18.4363556313
 10
7.1217424636
 20
18.4133689716
 10
7.1480947651
 20
18.3881068176
 10
7.1735358401
 20
18.3607292072
 10
7.1979045674
 20
18.3314095825
 10
7.2210466261
 20
18.3003336911
 10
7.2428154735
 20
18.2676984093
  0
LWPOLYLINE
  5
4DA
100
AcDbEntity
  8
RACCORDO
100
AcDbPolyline
 62
250
  6
CONTINUOUS
 90
10
 70
0
 10
10.88715412
 20
15.8953934195
 10
10.9283129479
 20
15.8726876462
 10
10.9690202036
 20
15.8453276021
 10
11.0088973652
 20
15.8135676982
 10
11.0475736292
 20
15.7777032586
 10
11.0846893591
 20
15.7380677735
 10
11.1198994294
 20
15.6950297991
 10
11.1528764344
 20
15.6489895298
 10
11.1833137329
 20
15.6003750775
 10
11.2109282994
 20
15.5496384904
  0
LWPOLYLINE
  5
4DB
100
AcDbEntity
  8
ASSI
100
AcDbPolyline
 62
250
  6
CONTINUOUS
 90
10
 70
0
 10
10.88715412
 20
15.8953934195
 10
10.9283129479
 20
15.8726876462
 10
10.9690202036
 20
15.8453276021
 10
11.0088973652
 20
15.8135676982
 10
11.0475736292
 20
15.7777032586
 10
11.0846893591
 20
15.7380677735
 10
11.1198994294
 20
15.6950297991
 10
11.1528764344
 20
15.6489895298
 10
11.1833137329
 20
15.6003750775
 10
11.2109282994
 20
15.5496384904
  0
LWPOLYLINE
  5
4DC
100
AcDbEntity
  8
ASSI
100
AcDbPolyline
 62
7
  6
CONTINUOUS
 90
3
 70
0
 10
7.2662683364
 20
18.525612943
 10
7.2314152326
 20
18.5451157677
 10
7.2255746112
 20
18.548087118
  0
LINE
  5
4DD
100
AcDbEntity
  8
RACCORDO
100
AcDbLine
 62
7
  6
CONTINUOUS
 10
7.2663049565
 20
18.5255906641
 11
7.2541822466
 21
18.5327309796
  0
LINE
  5
4DE
100
AcDbEntity
  8
ASSI
100
AcDbLine
 62
7
  6
CONTINUOUS
 10
7.600759505
 20
18.322672238
 11
7.2665511559
 21
18.5254417966
  0
LINE
  5
4DF
100
AcDbEntity
  8
RACCORDO
100
AcDbLine
 62
7
  6
CONTINUOUS
 10
7.2668423859
 20
18.5252639257
 11
7.2665891385
 21
18.5254187046
  0
LWPOLYLINE
  5
4E0
100
AcDbEntity
  8
ASSI
100
AcDbPolyline
 62
7
  6
CONTINUOUS
 90
6
 70
0
 10
8.8544598211
 20
17.557973575
 10
8.6028536921
 20
17.7119674893
 10
8.3516570132
 20
17.865447469
 10
8.1008946482
 20
18.018399575
 10
7.8505882712
 20
18.1708118184
 10
7.600759505
 20
18.322672238
  0
LWPOLYLINE
  5
4E1
100
AcDbEntity
  8
RACCORDO
100
AcDbPolyline
 62
7
  6
CONTINUOUS
 90
9
 70
0
 10
9.2158114733
 20
17.336362843
 10
9.0656312198
 20
17.428523739
 10
8.8263831583
 20
17.5751708001
 10
8.5874828146
 20
17.7213665806
 10
8.3489533093
 20
17.8670979878
 10
8.1108159113
 20
18.0123531012
 10
7.8730891769
 20
18.157121658
 10
7.6357916406
 20
18.3013934027
 10
7.2669107125
 20
18.5251973317
  0
LINE
  5
4E2
100
AcDbEntity
  8
ASSI
100
AcDbLine
 62
7
  6
CONTINUOUS
 10
9.2158051412
 20
17.3363527252
 11
8.8544598211
 21
17.557973575
  0
LWPOLYLINE
  5
4E3
100
AcDbEntity
  8
ASSI
100
AcDbPolyline
 62
7
  6
CONTINUOUS
 90
13
 70
0
 10
10.3775890139
 20
15.9837224351
 10
10.3211167769
 20
16.0183963274
 10
10.2639030033
 20
16.0585362447
 10
10.2060187848
 20
16.1040605448
 10
10.1470361404
 20
16.1554375217
 10
10.0876037791
 20
16.2123324574
 10
10.0280787218
 20
16.2745852421
 10
9.9674733881
 20
16.3435935206
 10
9.9058190084
 20
16.4199851938
 10
9.8442303779
 20
16.5030640963
 10
9.7834479046
 20
16.5924168102
 10
9.7241226482
 20
16.6876749338
 10
9.6908275586
 20
16.7451337192
  0
LWPOLYLINE
  5
4E4
100
AcDbEntity
  8
RACCORDO
100
AcDbPolyline
 62
250
  6
CONTINUOUS
 90
6
 70
0
 10
7.242814675
 20
18.2676974832
 10
7.555623358
 20
18.074282294
 10
7.874622619
 20
17.8767593749
 10
8.1996882546
 20
17.6750865557
 10
8.5306919227
 20
17.4692246682
 10
8.8675010818
 20
17.2591377734
  0
LWPOLYLINE
  5
4E5
100
AcDbEntity
  8
ASSI
100
AcDbPolyline
 62
250
  6
CONTINUOUS
 90
6
 70
0
 10
7.242814675
 20
18.2676974832
 10
7.555623358
 20
18.074282294
 10
7.874622619
 20
17.8767593749
 10
8.1996882546
 20
17.6750865557
 10
8.5306919227
 20
17.4692246682
 10
8.8675010818
 20
17.2591377734
  0
LINE
  5
4E6
100
AcDbEntity
  8
RACCORDO
100
AcDbLine
 62
250
  6
CONTINUOUS
 10
8.8675010818
 20
17.2591377734
 11
9.2099789345
 21
17.0447933941
  0
LINE
  5
4E7
100
AcDbEntity
  8
ASSI
100
AcDbLine
 62
250
  6
CONTINUOUS
 10
8.8675010818
 20
17.2591377734
 11
9.2099789345
 21
17.0447933941
  0
LWPOLYLINE
  5
4E8
100
AcDbEntity
  8
RACCORDO
100
AcDbPolyline
 62
250
  6
CONTINUOUS
 90
10
 70
0
 10
9.6908243627
 20
16.7451347355
 10
9.6885310816
 20
16.7466812707
 10
9.6803227931
 20
16.7465999428
 10
9.666627621
 20
16.743344944
 10
9.6475923798
 20
16.7369511954
 10
9.6234210893
 20
16.7274872449
 10
9.5943728032
 20
16.7150545377
 10
9.5607588188
 20
16.6997863229
 10
9.5229393348
 20
16.6818462224
 10
9.4813195997
 20
16.6614264805
  0
LWPOLYLINE
  5
4E9
100
AcDbEntity
  8
ASSI
100
AcDbPolyline
 62
250
  6
CONTINUOUS
 90
10
 70
0
 10
9.6908243627
 20
16.7451347355
 10
9.6885310816
 20
16.7466812707
 10
9.6803227931
 20
16.7465999428
 10
9.666627621
 20
16.743344944
 10
9.6475923798
 20
16.7369511954
 10
9.6234210893
 20
16.7274872449
 10
9.5943728032
 20
16.7150545377
 10
9.5607588188
 20
16.6997863229
 10
9.5229393348
 20
16.6818462224
 10
9.4813195997
 20
16.6614264805
  0
LWPOLYLINE
  5
4EA
100
AcDbEntity
  8
RACCORDO
100
AcDbPolyline
 62
250
  6
CONTINUOUS
 90
10
 70
0
 10
9.2099789345
 20
17.0447933941
 10
9.2273978319
 20
17.0330188597
 10
9.2444985771
 20
17.0197892213
 10
9.2612799445
 20
17.0051035842
 10
9.2778847033
 20
16.9888118185
 10
9.2941672468
 20
16.9710619872
 10
9.3096944325
 20
16.9523009214
 10
9.3243217369
 20
16.9326774209
 10
9.3381924161
 20
16.9120416795
 10
9.3513057263
 20
16.8903931169
  0
LWPOLYLINE
  5
4EB
100
AcDbEntity
  8
ASSI
100
AcDbPolyline
 62
250
  6
CONTINUOUS
 90
10
 70
0
 10
9.2099789345
 20
17.0447933941
 10
9.2273978319
 20
17.0330188597
 10
9.2444985771
 20
17.0197892213
 10
9.2612799445
 20
17.0051035842
 10
9.2778847033
 20
16.9888118185
 10
9.2941672468
 20
16.9710619872
 10
9.3096944325
 20
16.9523009214
 10
9.3243217369
 20
16.9326774209
 10
9.3381924161
 20
16.9120416795
 10
9.3513057263
 20
16.8903931169
  0
LINE
  5
4EC
100
AcDbEntity
  8
RACCORDO
100
AcDbLine
 62
7
  6
CONTINUOUS
 10
9.2873578052
 20
17.2875194495
 11
9.2157377625
 21
17.3364080389
  0
LWPOLYLINE
  5
4ED
100
AcDbEntity
  8
ASSI
100
AcDbPolyline
 62
250
  6
CONTINUOUS
 90
10
 70
0
 10
9.2158128116
 20
17.336362021
 10
9.2205192682
 20
17.3331220877
 10
9.2349915448
 20
17.3170459475
 10
9.2450677795
 20
17.2944764743
 10
9.2506150387
 20
17.2657114932
 10
9.2515601502
 20
17.2311305974
 10
9.2478906681
 20
17.1911901388
 10
9.2396550361
 20
17.1464172059
 10
9.226961948
 20
17.0974026683
 10
9.209978913
 20
17.0447933787
  0
LWPOLYLINE
  5
4EE
100
AcDbEntity
  8
SMUSSO
100
AcDbPolyline
 62
7
  6
CONTINUOUS
 90
32
 70
0
 10
1.2023686394
 20
22.7593103553
 10
1.2237973956
 20
22.7439673963
 10
1.3340657032
 20
22.6705540773
 10
1.453067227
 20
22.5999872948
 10
1.5795767489
 20
22.5330140054
 10
1.7136857904
 20
22.4696780131
 10
1.8553028299
 20
22.4099355139
 10
2.0029280848
 20
22.3544020517
 10
2.1565694254
 20
22.303139146
 10
2.3162189814
 20
22.2560852772
 10
2.4803533588
 20
22.2136714311
 10
2.6490080034
 20
22.1759353765
 10
2.8221474695
 20
22.1428393446
 10
2.9981420253
 20
22.1147010141
 10
3.1770327498
 20
22.0915605076
 10
3.3587785641
 20
22.0733777025
 10
3.5416264998
 20
22.0603499108
 10
3.7256687447
 20
22.0525324846
 10
3.9108131111
 20
22.0498700717
 10
4.0950300681
 20
22.0523939272
 10
4.2782340272
 20
22.0601629053
 10
4.4605105769
 20
22.0731181518
 10
4.6400869507
 20
22.0911143588
 10
4.8169418637
 20
22.1142004232
 10
4.9910966009
 20
22.1423274481
 10
5.1608422511
 20
22.1752034353
 10
5.3260482941
 20
22.2128353681
 10
5.4868452501
 20
22.2552162632
 10
5.6419157681
 20
22.3020331726
 10
5.7908207313
 20
22.3531817803
 10
5.9339992565
 20
22.4087664024
 10
6.0714513439
 20
22.4687870388
  0
LWPOLYLINE
  5
4EF
100
AcDbEntity
  8
ASSI
100
AcDbPolyline
 62
7
  6
CONTINUOUS
 90
32
 70
0
 10
1.2023686717
 20
22.7593103319
 10
1.2237973956
 20
22.7439673963
 10
1.3340657032
 20
22.6705540773
 10
1.453067227
 20
22.5999872948
 10
1.5795767489
 20
22.5330140054
 10
1.7136857904
 20
22.4696780131
 10
1.8553028299
 20
22.4099355139
 10
2.0029280848
 20
22.3544020517
 10
2.1565694254
 20
22.303139146
 10
2.3162189814
 20
22.2560852772
 10
2.4803533588
 20
22.2136714311
 10
2.6490080034
 20
22.1759353765
 10
2.8221474695
 20
22.1428393446
 10
2.9981420253
 20
22.1147010141
 10
3.1770327498
 20
22.0915605076
 10
3.3587785641
 20
22.0733777025
 10
3.5416264998
 20
22.0603499108
 10
3.7256687447
 20
22.0525324846
 10
3.9108131111
 20
22.0498700717
 10
4.0950300681
 20
22.0523939272
 10
4.2782340272
 20
22.0601629053
 10
4.4605105769
 20
22.0731181518
 10
4.6400869507
 20
22.0911143588
 10
4.8169418637
 20
22.1142004232
 10
4.9910966009
 20
22.1423274481
 10
5.1608422511
 20
22.1752034353
 10
5.3260482941
 20
22.2128353681
 10
5.4868452501
 20
22.2552162632
 10
5.6419157681
 20
22.3020331726
 10
5.7908207313
 20
22.3531817803
 10
5.9339992565
 20
22.4087664024
 10
6.0714513439
 20
22.4687870388
  0
LWPOLYLINE
  5
4F0
100
AcDbEntity
  8
SMUSSO
100
AcDbPolyline
 62
7
  6
CONTINUOUS
 90
32
 70
0
 10
8.240116521
 20
18.1646983646
 10
8.2615452772
 20
18.1493554055
 10
8.3718135847
 20
18.0759420865
 10
8.4908151086
 20
18.005375304
 10
8.6173246305
 20
17.9384020146
 10
8.7514336719
 20
17.8750660224
 10
8.8930507114
 20
17.8153235232
 10
9.0406759663
 20
17.759790061
 10
9.1943173069
 20
17.7085271552
 10
9.3539668629
 20
17.6614732864
 10
9.5181012403
 20
17.6190594403
 10
9.686755885
 20
17.5813233857
 10
9.859895351
 20
17.5482273538
 10
10.0358899069
 20
17.5200890234
 10
10.2147806313
 20
17.4969485168
 10
10.3965264456
 20
17.4787657117
 10
10.5793743814
 20
17.46573792
 10
10.7634166263
 20
17.4579204938
 10
10.9485609927
 20
17.455258081
 10
11.1327779496
 20
17.4577819364
 10
11.3159819088
 20
17.4655509146
 10
11.4982584584
 20
17.478506161
 10
11.6778348323
 20
17.496502368
 10
11.8546897453
 20
17.5195884324
 10
12.0288444825
 20
17.5477154573
 10
12.1985901326
 20
17.5805914445
 10
12.3637961756
 20
17.6182233773
 10
12.5245931316
 20
17.6606042724
 10
12.6796636496
 20
17.7074211818
 10
12.8285686128
 20
17.7585697896
 10
12.9717471381
 20
17.8141544116
 10
13.1091992254
 20
17.874175048
  0
LWPOLYLINE
  5
4F1
100
AcDbEntity
  8
ASSI
100
AcDbPolyline
 62
7
  6
CONTINUOUS
 90
32
 70
0
 10
8.2401165533
 20
18.1646983411
 10
8.2615452772
 20
18.1493554055
 10
8.3718135847
 20
18.0759420865
 10
8.4908151086
 20
18.005375304
 10
8.6173246305
 20
17.9384020146
 10
8.7514336719
 20
17.8750660224
 10
8.8930507114
 20
17.8153235232
 10
9.0406759663
 20
17.759790061
 10
9.1943173069
 20
17.7085271552
 10
9.3539668629
 20
17.6614732864
 10
9.5181012403
 20
17.6190594403
 10
9.686755885
 20
17.5813233857
 10
9.859895351
 20
17.5482273538
 10
10.0358899069
 20
17.5200890234
 10
10.2147806313
 20
17.4969485168
 10
10.3965264456
 20
17.4787657117
 10
10.5793743814
 20
17.46573792
 10
10.7634166263
 20
17.4579204938
 10
10.9485609927
 20
17.455258081
 10
11.1327779496
 20
17.4577819364
 10
11.3159819088
 20
17.4655509146
 10
11.4982584584
 20
17.478506161
 10
11.6778348323
 20
17.496502368
 10
11.8546897453
 20
17.5195884324
 10
12.0288444825
 20
17.5477154573
 10
12.1985901326
 20
17.5805914445
 10
12.3637961756
 20
17.6182233773
 10
12.5245931316
 20
17.6606042724
 10
12.6796636496
 20
17.7074211818
 10
12.8285686128
 20
17.7585697896
 10
12.9717471381
 20
17.8141544116
 10
13.1091992254
 20
17.874175048
  0
LWPOLYLINE
  5
4F2
100
AcDbEntity
  8
ASSI
100
AcDbPolyline
 62
250
  6
CONTINUOUS
 90
10
 70
0
 10
9.5618805674
 20
16.9722167951
 10
9.5594616681
 20
16.9739855781
 10
9.5510471743
 20
16.9742689797
 10
9.5371678551
 20
16.9713397397
 10
9.5179724175
 20
16.9652292427
 10
9.4936665275
 20
16.9560029587
 10
9.4645106058
 20
16.9437597407
 10
9.4308170379
 20
16.9286307664
 10
9.3929468271
 20
16.9107781323
 10
9.3513057263
 20
16.8903931169
  0
LWPOLYLINE
  5
4F3
100
AcDbEntity
  8
RACCORDO
100
AcDbPolyline
 62
250
  6
CONTINUOUS
 90
10
 70
0
 10
9.5618843662
 20
16.9722101694
 10
9.5594616681
 20
16.9739855781
 10
9.5510471743
 20
16.9742689797
 10
9.5371678551
 20
16.9713397397
 10
9.5179724175
 20
16.9652292427
 10
9.4936665275
 20
16.9560029587
 10
9.4645106058
 20
16.9437597407
 10
9.4308170379
 20
16.9286307664
 10
9.3929468271
 20
16.9107781323
 10
9.3513057263
 20
16.8903931169
  0
LWPOLYLINE
  5
4F4
100
AcDbEntity
  8
ASSI
100
AcDbPolyline
 62
7
  6
CONTINUOUS
 90
3
 70
0
 10
9.3299822597
 20
17.253429607
 10
9.2458518464
 20
17.317065879
 10
9.2158128116
 20
17.336362021
  0
LWPOLYLINE
  5
4F5
100
AcDbEntity
  8
ASSI
100
AcDbPolyline
 62
250
  6
CONTINUOUS
 90
14
 70
0
 10
10.1830180267
 20
15.8039075265
 10
10.2738494085
 20
15.7348796584
 10
10.3644754947
 20
15.6742346532
 10
10.4547907016
 20
15.6220520025
 10
10.5433245098
 20
15.5784567482
 10
10.6301442887
 20
15.5436855452
 10
10.7152559742
 20
15.5175424266
 10
10.7970959318
 20
15.4995014214
 10
10.8754012138
 20
15.4898125474
 10
10.950485083
 20
15.4882507829
 10
11.0216410668
 20
15.4935730499
 10
11.0886404923
 20
15.5053677255
 10
11.1517342861
 20
15.5240556266
 10
11.2109282994
 20
15.5496384904
  0
LINE
  5
4F6
100
AcDbEntity
  8
RACCORDO
100
AcDbLine
 62
7
  6
CONTINUOUS
 10
3.9932822588
 20
20.2680520504
 11
4.3595530119
 21
19.9836028606
  0
LINE
  5
4F7
100
AcDbEntity
  8
ASSI
100
AcDbLine
 62
7
  6
CONTINUOUS
 10
3.9932822588
 20
20.2680520504
 11
4.3689865063
 21
19.9762767232
  0
LINE
  5
4F8
100
AcDbEntity
  8
RACCORDO
100
AcDbLine
 62
7
  6
CONTINUOUS
 10
9.3532483169
 20
17.2330569161
 11
9.2873578052
 21
17.2875194495
  0
LINE
  5
4F9
100
AcDbEntity
  8
0
100
AcDbLine
 62
7
  6
CONTINUOUS
 10
10.215194267
 20
17.6587499713
 11
10.4112177871
 21
17.4777189636
  0
LINE
  5
4FA
100
AcDbEntity
  8
ASSI
100
AcDbLine
 62
7
  6
CONTINUOUS
 10
9.4080005537
 20
17.1795870744
 11
9.3299822597
 21
17.253429607
  0
LINE
  5
4FB
100
AcDbEntity
  8
ASSI
100
AcDbLine
 62
7
  6
CONTINUOUS
 10
8.4378376245
 20
18.050920979
 11
8.4747616537
 21
18.0148948515
  0
LWPOLYLINE
  5
4FC
100
AcDbEntity
  8
ASSI
100
AcDbPolyline
 62
7
  6
CONTINUOUS
 90
4
 70
0
 10
7.9843648708
 20
18.385927625
 10
8.0674601083
 20
18.3047266637
 10
8.1601360846
 20
18.2256177664
 10
8.2401165533
 20
18.1646983411
  0
LINE
  5
4FD
100
AcDbEntity
  8
RACCORDO
100
AcDbLine
 62
7
  6
CONTINUOUS
 10
9.4153838028
 20
17.171733278
 11
9.3532483169
 21
17.2330569161
  0
LWPOLYLINE
  5
4FE
100
AcDbEntity
  8
RACCORDO
100
AcDbPolyline
 62
250
  6
CONTINUOUS
 90
9
 70
0
 10
9.2205192682
 20
17.3331220877
 10
9.2349915448
 20
17.3170459475
 10
9.2450677795
 20
17.2944764743
 10
9.2506150387
 20
17.2657114932
 10
9.2515601502
 20
17.2311305974
 10
9.2478906681
 20
17.1911901388
 10
9.2396550361
 20
17.1464172059
 10
9.226961948
 20
17.0974026683
 10
9.209978913
 20
17.0447933787
  0
LWPOLYLINE
  5
4FF
100
AcDbEntity
  8
SMUSSO
100
AcDbPolyline
 62
7
  6
CONTINUOUS
 90
3
 70
0
 10
8.375794533
 20
18.1210760101
 10
8.4378376245
 20
18.050920979
 10
8.4747616537
 20
18.0148948515
  0
LINE
  5
500
100
AcDbEntity
  8
ASSI
100
AcDbLine
 62
7
  6
CONTINUOUS
 10
8.375794533
 20
18.1210760101
 11
8.4378376245
 21
18.050920979
  0
LINE
  5
501
100
AcDbEntity
  8
ASSI
100
AcDbLine
 62
7
  6
CONTINUOUS
 10
9.4777431499
 20
17.098261547
 11
9.4080005537
 21
17.1795870744
  0
LINE
  5
502
100
AcDbEntity
  8
RACCORDO
100
AcDbLine
 62
7
  6
CONTINUOUS
 10
6.062355137
 20
26.1997544148
 11
6.0686322584
 21
26.1889256392
  0
LINE
  5
503
100
AcDbEntity
  8
ASSI
100
AcDbLine
 62
7
  6
CONTINUOUS
 10
6.062355137
 20
26.1997544148
 11
6.0686322584
 21
26.1889256392
  0
LWPOLYLINE
  5
504
100
AcDbEntity
  8
ASSI
100
AcDbPolyline
 62
7
  6
CONTINUOUS
 90
5
 70
0
 10
10.7333481561
 20
23.1443748551
 10
10.7141599812
 20
23.1884922811
 10
10.6992974063
 20
23.2312507824
 10
10.6888773591
 20
23.2706655193
 10
10.6824529251
 20
23.3057146263
  0
LINE
  5
505
100
AcDbEntity
  8
ASSI
100
AcDbLine
 62
7
  6
CONTINUOUS
 10
19.0045000953
 20
17.4204235576
 11
18.9865598668
 21
17.5882302802
  0
LWPOLYLINE
  5
506
100
AcDbEntity
  8
ASSI
100
AcDbPolyline
 62
250
  6
CONTINUOUS
 90
4
 70
0
 10
19.7953270396
 20
16.0366782053
 10
19.8008539785
 20
15.9668172931
 10
19.804748451
 20
15.8981747667
 10
19.8070402259
 20
15.831122894
  0
LINE
  5
507
100
AcDbEntity
  8
ASSI
100
AcDbLine
 62
7
  6
CONTINUOUS
 10
19.8726878426
 20
16.1322128136
 11
19.8848470271
 21
15.8660580235
  0
LINE
  5
508
100
AcDbEntity
  8
RACCORDO
100
AcDbLine
 62
7
  6
CONTINUOUS
 10
-3.7963240691
 20
21.9580637105
 11
-3.8227890875
 21
21.9506752159
  0
LWPOLYLINE
  5
509
100
AcDbEntity
  8
RACCORDO
100
AcDbPolyline
 62
7
  6
CONTINUOUS
 90
9
 70
0
 10
2.9676507069
 20
22.6354171613
 10
2.8530077676
 20
22.6044706518
 10
2.7413639123
 20
22.5702258384
 10
2.6330099485
 20
22.5327164029
 10
2.5283002271
 20
22.492002753
 10
2.4275541166
 20
22.4481416151
 10
2.3309740683
 20
22.4011370013
 10
2.2389635486
 20
22.3510892473
 10
2.1589852141
 20
22.3024271352
  0
LINE
  5
50A
100
AcDbEntity
  8
RACCORDO
100
AcDbLine
 62
250
  6
CONTINUOUS
 10
2.9488661312
 20
22.5968749918
 11
3.0488492382
 21
22.6226685227
  0
LINE
  5
50B
100
AcDbEntity
  8
RACCORDO
100
AcDbLine
 62
7
  6
CONTINUOUS
 10
3.0850338629
 20
22.6630396549
 11
2.9676507069
 21
22.6354171613
  0
LINE
  5
50C
100
AcDbEntity
  8
RACCORDO
100
AcDbLine
 62
250
  6
CONTINUOUS
 10
3.0488492382
 20
22.6226685227
 11
3.151567666
 21
22.6459742929
  0
LWPOLYLINE
  5
50D
100
AcDbEntity
  8
RACCORDO
100
AcDbPolyline
 62
250
  6
CONTINUOUS
 90
20
 70
0
 10
3.151567666
 20
22.6459742929
 10
3.2562375298
 20
22.6666134204
 10
3.3628747184
 20
22.6845653854
 10
3.471463343
 20
22.6998507076
 10
3.5811718526
 20
22.7123520638
 10
3.6920077433
 20
22.7220478354
 10
3.803963519
 20
22.728959641
 10
3.9161851401
 20
22.7330350123
 10
4.0286739638
 20
22.7342523023
 10
4.1414286329
 20
22.732633158
 10
4.2535910358
 20
22.7281900517
 10
4.3651569466
 20
22.7209014864
 10
4.4761305913
 20
22.7107889591
 10
4.5856665362
 20
22.6979294337
 10
4.6937550117
 20
22.6823022665
 10
4.8004057874
 20
22.6639281012
 10
4.9048027392
 20
22.6429458324
 10
5.0066738257
 20
22.6194017583
 10
5.1062910883
 20
22.5932495807
 10
5.2036545271
 20
22.5644892995
  0
LINE
  5
50E
100
AcDbEntity
  8
0
100
AcDbLine
 62
7
  6
CONTINUOUS
 10
0.1511988686
 20
22.1890937455
 11
-1.1036613868
 21
22.230856211
  0
LINE
  5
50F
100
AcDbEntity
  8
ASSI
100
AcDbLine
 62
7
  6
CONTINUOUS
 10
0.1511988686
 20
22.1890937455
 11
-1.1036613868
 21
22.230856211
  0
LWPOLYLINE
  5
510
100
AcDbEntity
  8
ASSI
100
AcDbPolyline
 62
7
  6
CONTINUOUS
 90
5
 70
0
 10
-2.2963342433
 20
23.2957020191
 10
-2.3551219819
 20
23.3087897504
 10
-2.4106812981
 20
23.3153921289
 10
-2.4637697055
 20
23.3168729845
 10
-2.5118425782
 20
23.3146425669
  0
LWPOLYLINE
  5
511
100
AcDbEntity
  8
RACCORDO
100
AcDbPolyline
 62
7
  6
CONTINUOUS
 90
8
 70
0
 10
-2.2995961532
 20
23.2965910457
 10
-2.3422745115
 20
23.3064619951
 10
-2.3845195699
 20
23.312984409
 10
-2.4267593893
 20
23.3162973211
 10
-2.4686805227
 20
23.3167984307
 10
-2.5112154598
 20
23.314693792
 10
-2.5541640976
 20
23.3097542683
 10
-2.5972148402
 20
23.3014933191
  0
LINE
  5
512
100
AcDbEntity
  8
0
100
AcDbLine
 62
7
  6
CONTINUOUS
 10
3.7825605023
 20
22.0517143698
 11
3.4976798457
 21
22.1288328008
  0
LWPOLYLINE
  5
513
100
AcDbEntity
  8
RACCORDO
100
AcDbPolyline
 62
7
  6
CONTINUOUS
 90
9
 70
0
 10
12.4981532607
 20
18.3525262281
 10
12.4957095649
 20
18.353269324
 10
12.4854664115
 20
18.3554804361
 10
12.4746079411
 20
18.3563845558
 10
12.4632108667
 20
18.3560140247
 10
12.4516323902
 20
18.3543797045
 10
12.4399915789
 20
18.3514852157
 10
12.4281693655
 20
18.3473269378
 10
12.41616575
 20
18.3419048708
  0
LWPOLYLINE
  5
514
100
AcDbEntity
  8
RACCORDO
100
AcDbPolyline
 62
7
  6
CONTINUOUS
 90
20
 70
0
 10
12.4981514733
 20
18.3525220725
 10
12.4018488933
 20
18.3818135238
 10
12.2870209921
 20
18.4128143522
 10
12.1694268903
 20
18.4404839573
 10
12.0494035342
 20
18.4647777273
 10
11.9272787546
 20
18.485659889
 10
11.8033797829
 20
18.5031005893
 10
11.6780754132
 20
18.517071479
 10
11.5516875146
 20
18.527557517
 10
11.4244837529
 20
18.5345504595
 10
11.2968079417
 20
18.5380396588
 10
11.1690117046
 20
18.5380216548
 10
11.0413765559
 20
18.5344980071
 10
10.9142507863
 20
18.5274751157
 10
10.7879797096
 20
18.5169667587
 10
10.6628372718
 20
18.5029852246
 10
10.5391666748
 20
18.4855529467
 10
10.4173082552
 20
18.4646993724
 10
10.297523031
 20
18.4404441988
 10
10.180139875
 20
18.4128217051
  0
LINE
  5
515
100
AcDbEntity
  8
0
100
AcDbLine
 62
7
  6
CONTINUOUS
 10
13.0180367734
 20
18.0364750701
 11
13.1445352686
 21
17.9970302979
  0
LINE
  5
516
100
AcDbEntity
  8
0
100
AcDbLine
 62
7
  6
CONTINUOUS
 10
13.2679168286
 20
17.9547985601
 11
13.2769972092
 21
17.9516697175
  0
LWPOLYLINE
  5
517
100
AcDbEntity
  8
RACCORDO
100
AcDbPolyline
 62
7
  6
CONTINUOUS
 90
3
 70
0
 10
-2.2102871526
 20
23.2651578685
 10
-2.2554440624
 20
23.282917768
 10
-2.2995961532
 20
23.2965910457
  0
LWPOLYLINE
  5
518
100
AcDbEntity
  8
ASSI
100
AcDbPolyline
 62
7
  6
CONTINUOUS
 90
3
 70
0
 10
-2.1830975649
 20
23.2524234238
 10
-2.2342935595
 20
23.2750931463
 10
-2.2963342433
 20
23.2957020191
  0
LINE
  5
519
100
AcDbEntity
  8
0
100
AcDbLine
 62
7
  6
CONTINUOUS
 10
10.215194267
 20
17.6587499713
 11
9.5082253269
 21
18.0122344413
  0
LINE
  5
51A
100
AcDbEntity
  8
0
100
AcDbLine
 62
7
  6
CONTINUOUS
 10
10.7101690138
 20
17.9062373447
 11
10.0032000737
 21
18.2597218148
  0
LINE
  5
51B
100
AcDbEntity
  8
0
100
AcDbLine
 62
7
  6
CONTINUOUS
 10
2.7907109056
 20
22.4823172709
 11
3.4976798457
 21
22.1288328008
  0
LINE
  5
51C
100
AcDbEntity
  8
RACCORDO
100
AcDbLine
 62
7
  6
CONTINUOUS
 10
13.2736616874
 20
17.950129263
 11
13.228865079
 21
17.9865389784
  0
LINE
  5
51D
100
AcDbEntity
  8
RACCORDO
100
AcDbLine
 62
250
  6
CONTINUOUS
 10
13.1238335048
 20
17.988631967
 11
13.1705154123
 21
17.9499791551
  0
LINE
  5
51E
100
AcDbEntity
  8
RACCORDO
100
AcDbLine
 62
250
  6
CONTINUOUS
 10
13.1705154123
 20
17.9499791551
 11
13.2046532305
 21
17.9182588708
  0
LINE
  5
51F
100
AcDbEntity
  8
RACCORDO
100
AcDbLine
 62
7
  6
CONTINUOUS
 10
13.1328413473
 20
21.6213808765
 11
13.1391184687
 21
21.6105521009
  0
LINE
  5
520
100
AcDbEntity
  8
ASSI
100
AcDbLine
 62
7
  6
CONTINUOUS
 10
13.1328413473
 20
21.6213808765
 11
13.1391184687
 21
21.6105521009
  0
LWPOLYLINE
  5
521
100
AcDbEntity
  8
RACCORDO
100
AcDbPolyline
 62
7
  6
CONTINUOUS
 90
3
 70
0
 10
18.9828813665
 20
17.6130571012
 10
18.9544392058
 20
17.7665999226
 10
18.9164796177
 20
17.9196022358
  0
LINE
  5
522
100
AcDbEntity
  8
ASSI
100
AcDbLine
 62
7
  6
CONTINUOUS
 10
18.9865598668
 20
17.5882302802
 11
18.9565912269
 21
17.7565806894
  0
LINE
  5
523
100
AcDbEntity
  8
RACCORDO
100
AcDbLine
 62
7
  6
CONTINUOUS
 10
19.0014021412
 20
17.4596707231
 11
18.9828813665
 21
17.6130571012
  0
LWPOLYLINE
  5
524
100
AcDbEntity
  8
RACCORDO
100
AcDbPolyline
 62
250
  6
CONTINUOUS
 90
11
 70
0
 10
-4.1441627685
 20
-26.6807822398
 10
-4.1357405384
 20
-26.6776722629
 10
-4.1048522125
 20
-26.662584856
 10
-4.0761828152
 20
-26.6425221287
 10
-4.0500462659
 20
-26.6177038246
 10
-4.0267287291
 20
-26.5884017519
 10
-4.0064854908
 20
-26.5549368036
 10
-3.9895381769
 20
-26.5176754603
 10
-3.9760723159
 20
-26.4770257613
 10
-3.9662353103
 20
-26.4334328329
 10
-3.9601348279
 20
-26.3873740219
  0
LINE
  5
525
100
AcDbEntity
  8
RACCORDO
100
AcDbLine
 62
250
  6
CONTINUOUS
 10
0.3955176135
 20
-24.8820282527
 11
-3.9601348279
 21
-26.3873740219
  0
LINE
  5
526
100
AcDbEntity
  8
RACCORDO
100
AcDbLine
 62
7
  6
CONTINUOUS
 10
-4.144552702
 20
-26.6809165833
 11
0.216483323
 21
-25.173710628
  0
LWPOLYLINE
  5
527
100
AcDbEntity
  8
RACCORDO
100
AcDbPolyline
 62
250
  6
CONTINUOUS
 90
19
 70
0
 10
-3.9601348279
 20
-26.3873740219
 10
-3.9900486829
 20
-26.3961316442
 10
-4.019109978
 20
-26.4016543714
 10
-4.0473187131
 20
-26.4039422034
 10
-4.0748709401
 20
-26.4029686901
 10
-4.1015706071
 20
-26.3987602816
 10
-4.126829559
 20
-26.3913963284
 10
-4.1506049714
 20
-26.3808090865
 10
-4.1729396686
 20
-26.3670662998
 10
-4.1933739688
 20
-26.3504505507
 10
-4.2118687919
 20
-26.3309016164
 10
-4.2284632181
 20
-26.3084797196
 10
-4.2428148059
 20
-26.2836481116
 10
-4.2548775401
 20
-26.256340296
 10
-4.2646974359
 20
-26.2266227692
 10
-4.2720700982
 20
-26.1951582708
 10
-4.2769273952
 20
-26.1621677143
 10
-4.2793374586
 20
-26.1274301862
 10
-4.2793002884
 20
-26.0909456867
  0
LWPOLYLINE
  5
528
100
AcDbEntity
  8
RACCORDO
100
AcDbPolyline
 62
7
  6
CONTINUOUS
 90
3
 70
0
 10
-2.5972148402
 20
23.3014933191
 10
-2.6416649118
 20
23.2892259502
 10
-2.687679724
 20
23.2723919205
  0
LWPOLYLINE
  5
529
100
AcDbEntity
  8
0
100
AcDbPolyline
 62
7
  6
CONTINUOUS
 90
10
 70
0
 10
-3.479294751
 20
22.8194280426
 10
-3.4398227472
 20
22.8295295305
 10
-3.3992105126
 20
22.8356723229
 10
-3.357458047
 20
22.8378564198
 10
-3.314379101
 20
22.8360575707
 10
-3.2701599242
 20
22.8303000261
 10
-3.2253592649
 20
22.8206565378
 10
-3.1801633726
 20
22.8071513562
 10
-3.134385998
 20
22.7897602308
 10
-3.0880271409
 20
22.7684831615
  0
LWPOLYLINE
  5
52A
100
AcDbEntity
  8
ASSI
100
AcDbPolyline
 62
7
  6
CONTINUOUS
 90
10
 70
0
 10
-3.479294751
 20
22.8194280426
 10
-3.4398227472
 20
22.8295295305
 10
-3.3992105126
 20
22.8356723229
 10
-3.357458047
 20
22.8378564198
 10
-3.314379101
 20
22.8360575707
 10
-3.2701599242
 20
22.8303000261
 10
-3.2253592649
 20
22.8206565378
 10
-3.1801633726
 20
22.8071513562
 10
-3.134385998
 20
22.7897602308
 10
-3.0880271409
 20
22.7684831615
  0
LWPOLYLINE
  5
52B
100
AcDbEntity
  8
ASSI
100
AcDbPolyline
 62
7
  6
CONTINUOUS
 90
3
 70
0
 10
-2.5118425782
 20
23.3146425669
 10
-2.5565553836
 20
23.3093871444
 10
-2.6029854344
 20
23.3001176587
  0
LWPOLYLINE
  5
52C
100
AcDbEntity
  8
0
100
AcDbPolyline
 62
7
  6
CONTINUOUS
 90
4
 70
0
 10
5.3560712997
 20
22.3710511339
 10
5.3789430741
 20
22.3665414051
 10
5.5242687555
 20
22.3340023756
 10
5.6458192485
 20
22.3033740116
  0
LWPOLYLINE
  5
52D
100
AcDbEntity
  8
RACCORDO
100
AcDbPolyline
 62
7
  6
CONTINUOUS
 90
8
 70
0
 10
5.2832203968
 20
22.5758647801
 10
5.2729772434
 20
22.5780758922
 10
5.262118773
 20
22.5789800119
 10
5.2507216986
 20
22.5786094808
 10
5.2391432221
 20
22.5769751606
 10
5.2275024108
 20
22.5740806719
 10
5.2156801974
 20
22.569922394
 10
5.2036765819
 20
22.564500327
  0
LWPOLYLINE
  5
52E
100
AcDbEntity
  8
RACCORDO
100
AcDbPolyline
 62
7
  6
CONTINUOUS
 90
19
 70
0
 10
5.2856623052
 20
22.5751175286
 10
5.1893597252
 20
22.60440898
 10
5.074531824
 20
22.6354098084
 10
4.9569377222
 20
22.6630794134
 10
4.8369143661
 20
22.6873731835
 10
4.7147895865
 20
22.7082553452
 10
4.5908906148
 20
22.7256960455
 10
4.4655862451
 20
22.7396669351
 10
4.3391983465
 20
22.7501529731
 10
4.2119945848
 20
22.7571459157
 10
4.0843187736
 20
22.7606351149
 10
3.9565225365
 20
22.760617111
 10
3.8288873878
 20
22.7570934632
 10
3.7017616182
 20
22.7500705718
 10
3.5754905415
 20
22.7395622148
 10
3.4503481037
 20
22.7255806807
 10
3.3266775067
 20
22.7081484028
 10
3.2048190871
 20
22.6872948285
 10
3.0850338629
 20
22.6630396549
  0
LINE
  5
52F
100
AcDbEntity
  8
DRAFT
100
AcDbLine
 62
7
  6
CONTINUOUS
 10
16.0384281786
 20
19.2269900499
 11
13.1391184687
 21
20.6766449048
  0
LINE
  5
530
100
AcDbEntity
  8
ASSI
100
AcDbLine
 62
7
  6
CONTINUOUS
 10
16.0384281786
 20
19.2269900499
 11
13.1391184687
 21
20.6766449048
  0
LWPOLYLINE
  5
531
100
AcDbEntity
  8
RACCORDO
100
AcDbPolyline
 62
250
  6
CONTINUOUS
 90
3
 70
0
 10
16.0605141932
 20
19.2865434001
 10
16.0749929847
 20
19.2644221521
 10
16.085823219
 20
19.2488786501
  0
LWPOLYLINE
  5
532
100
AcDbEntity
  8
ASSI
100
AcDbPolyline
 62
250
  6
CONTINUOUS
 90
3
 70
0
 10
16.0605141932
 20
19.2865434001
 10
16.0749929847
 20
19.2644221521
 10
16.085823219
 20
19.2488786501
  0
LINE
  5
533
100
AcDbEntity
  8
ASSI
100
AcDbLine
 62
7
  6
CONTINUOUS
 10
16.1796314866
 20
19.2922024168
 11
16.1468779502
 21
19.3427524475
  0
LINE
  5
534
100
AcDbEntity
  8
ASSI
100
AcDbLine
 62
7
  6
CONTINUOUS
 10
16.0038639219
 20
19.5654923882
 11
16.1468779502
 21
19.3427524475
  0
LINE
  5
535
100
AcDbEntity
  8
RACCORDO
100
AcDbLine
 62
7
  6
CONTINUOUS
 10
16.1792120458
 20
19.2920087052
 11
16.1468779502
 21
19.3427524475
  0
LINE
  5
536
100
AcDbEntity
  8
ASSI
100
AcDbLine
 62
250
  6
CONTINUOUS
 10
16.002483279
 20
19.3813977143
 11
16.0605141932
 21
19.2865434001
  0
LINE
  5
537
100
AcDbEntity
  8
ASSI
100
AcDbLine
 62
250
  6
CONTINUOUS
 10
18.6086341137
 20
18.2272720852
 11
18.5607823642
 21
18.3287307753
  0
LINE
  5
538
100
AcDbEntity
  8
ASSI
100
AcDbLine
 62
7
  6
CONTINUOUS
 10
18.8001068443
 20
18.2536424088
 11
18.7270470564
 21
18.414278453
  0
LWPOLYLINE
  5
539
100
AcDbEntity
  8
RACCORDO
100
AcDbPolyline
 62
7
  6
CONTINUOUS
 90
3
 70
0
 10
18.8136234093
 20
18.2208318765
 10
18.749520833
 20
18.3675124963
 10
18.7270473406
 20
18.4142779206
  0
LINE
  5
53A
100
AcDbEntity
  8
ASSI
100
AcDbLine
 62
7
  6
CONTINUOUS
 10
18.8627518583
 20
18.0905337052
 11
18.8001068443
 21
18.2536424088
  0
LINE
  5
53B
100
AcDbEntity
  8
RACCORDO
100
AcDbLine
 62
7
  6
CONTINUOUS
 10
18.8694057952
 20
18.0712788759
 11
18.8136234093
 21
18.2208318765
  0
LINE
  5
53C
100
AcDbEntity
  8
ASSI
100
AcDbLine
 62
7
  6
CONTINUOUS
 10
18.9151173226
 20
17.924462186
 11
18.8627518583
 21
18.0905337052
  0
LINE
  5
53D
100
AcDbEntity
  8
RACCORDO
100
AcDbLine
 62
7
  6
CONTINUOUS
 10
18.9164796177
 20
17.9196022358
 11
18.8694057952
 21
18.0712788759
  0
LINE
  5
53E
100
AcDbEntity
  8
ASSI
100
AcDbLine
 62
7
  6
CONTINUOUS
 10
18.9565912269
 20
17.7565806894
 11
18.9151173226
 21
17.924462186
  0
LWPOLYLINE
  5
53F
100
AcDbEntity
  8
RACCORDO
100
AcDbPolyline
 62
7
  6
CONTINUOUS
 90
3
 70
0
 10
5.2391574196
 20
26.7222650269
 10
5.1869054634
 20
26.7145533344
 10
5.1359112391
 20
26.7018531046
  0
LWPOLYLINE
  5
540
100
AcDbEntity
  8
ASSI
100
AcDbPolyline
 62
7
  6
CONTINUOUS
 90
4
 70
0
 10
5.3277652783
 20
26.7236885524
 10
5.2476296212
 20
26.7230280742
 10
5.1688071875
 20
26.7106476822
 10
5.0931143563
 20
26.686958458
  0
LWPOLYLINE
  5
541
100
AcDbEntity
  8
RACCORDO
100
AcDbPolyline
 62
7
  6
CONTINUOUS
 90
10
 70
0
 10
7.2390576534
 20
24.3194956355
 10
7.2534750242
 20
24.3179557325
 10
7.3942556746
 20
24.2898665548
 10
7.5366291071
 20
24.248471488
 10
7.6801379966
 20
24.1937684804
 10
7.8240703095
 20
24.1258700207
 10
7.9666085525
 20
24.0456311974
 10
8.1069447424
 20
23.9536746974
 10
8.2447443371
 20
23.8503572006
 10
8.341739833
 20
23.7681545457
  0
LWPOLYLINE
  5
542
100
AcDbEntity
  8
ASSI
100
AcDbPolyline
 62
7
  6
CONTINUOUS
 90
8
 70
0
 10
7.2435767701
 20
24.3172360772
 10
7.2888353034
 20
24.3121212635
 10
7.4826460049
 20
24.2656851893
 10
7.6796924741
 20
24.1939583137
 10
7.8778137811
 20
24.097148584
 10
8.0725268324
 20
23.9774421105
 10
8.2616335386
 20
23.8367728816
 10
8.3370529213
 20
23.7704980016
  0
LWPOLYLINE
  5
543
100
AcDbEntity
  8
ASSI
100
AcDbPolyline
 62
250
  6
CONTINUOUS
 90
5
 70
0
 10
10.3598622634
 20
24.2503696621
 10
10.32737567
 20
24.255091999
 10
10.2932900113
 20
24.2547743253
 10
10.2579778842
 20
24.2494216639
 10
10.2218157218
 20
24.2390925711
  0
LWPOLYLINE
  5
544
100
AcDbEntity
  8
RACCORDO
100
AcDbPolyline
 62
250
  6
CONTINUOUS
 90
9
 70
0
 10
7.3535884902
 20
24.2622302171
 10
7.3731037551
 20
24.2571091346
 10
7.4868827111
 20
24.2184426195
 10
7.5972730666
 20
24.1727412444
 10
7.7033469834
 20
24.1213259602
 10
7.805249807
 20
24.0650250398
 10
7.9022190376
 20
24.0051219135
 10
7.9936439219
 20
23.9429081284
 10
7.9965727497
 20
23.9407380874
  0
LWPOLYLINE
  5
545
100
AcDbEntity
  8
ASSI
100
AcDbPolyline
 62
250
  6
CONTINUOUS
 90
9
 70
0
 10
7.3535884902
 20
24.2622302171
 10
7.3731037551
 20
24.2571091346
 10
7.4868827111
 20
24.2184426195
 10
7.5972730666
 20
24.1727412444
 10
7.7033469834
 20
24.1213259602
 10
7.805249807
 20
24.0650250398
 10
7.9022190376
 20
24.0051219135
 10
7.9936439219
 20
23.9429081284
 10
7.9965727497
 20
23.9407380874
  0
LWPOLYLINE
  5
546
100
AcDbEntity
  8
ASSI
100
AcDbPolyline
 62
7
  6
CONTINUOUS
 90
4
 70
0
 10
5.5403882525
 20
26.6661637071
 10
5.4866188601
 20
26.6894696759
 10
5.4079384126
 20
26.7125136842
 10
5.3277652783
 20
26.7236885524
  0
LINE
  5
547
100
AcDbEntity
  8
RACCORDO
100
AcDbLine
 62
7
  6
CONTINUOUS
 10
5.5418455069
 20
26.6654503991
 11
5.5033332085
 21
26.6829255575
  0
LWPOLYLINE
  5
548
100
AcDbEntity
  8
RACCORDO
100
AcDbPolyline
 62
250
  6
CONTINUOUS
 90
8
 70
0
 10
10.4025709618
 20
24.2351100933
 10
10.3903873717
 20
24.2406625814
 10
10.3598622634
 20
24.2503696621
 10
10.32737567
 20
24.255091999
 10
10.2932900113
 20
24.2547743253
 10
10.2579778842
 20
24.2494216639
 10
10.2218157218
 20
24.2390925711
 10
10.1851935
 20
24.2238989522
  0
LWPOLYLINE
  5
549
100
AcDbEntity
  8
ASSI
100
AcDbPolyline
 62
250
  6
CONTINUOUS
 90
3
 70
0
 10
10.4026346992
 20
24.2350782374
 10
10.3903873717
 20
24.2406625814
 10
10.3598622634
 20
24.2503696621
  0
LINE
  5
54A
100
AcDbEntity
  8
RACCORDO
100
AcDbLine
 62
250
  6
CONTINUOUS
 10
5.5418537526
 20
26.6654670062
 11
5.5369981283
 21
26.6677842796
  0
LWPOLYLINE
  5
54B
100
AcDbEntity
  8
ASSI
100
AcDbPolyline
 62
250
  6
CONTINUOUS
 90
7
 70
0
 10
10.897116807
 20
22.9447061171
 10
10.8919966867
 20
22.9471545672
 10
10.8542497891
 20
22.9599060585
 10
10.8134855311
 20
22.9649166872
 10
10.7703860082
 20
22.9621026122
 10
10.7256723914
 20
22.9515109203
 10
10.6800928597
 20
22.9333188391
  0
LWPOLYLINE
  5
54C
100
AcDbEntity
  8
RACCORDO
100
AcDbPolyline
 62
250
  6
CONTINUOUS
 90
7
 70
0
 10
10.8974801585
 20
22.9445250657
 10
10.8919966867
 20
22.9471545672
 10
10.8542497891
 20
22.9599060585
 10
10.8134855311
 20
22.9649166872
 10
10.7703860082
 20
22.9621026122
 10
10.7256723914
 20
22.9515109203
 10
10.6800928597
 20
22.9333188391
  0
LINE
  5
54D
100
AcDbEntity
  8
ASSI
100
AcDbLine
 62
250
  6
CONTINUOUS
 10
5.5425307413
 20
26.6651302165
 11
5.5403965041
 21
26.6661804666
  0
LINE
  5
54E
100
AcDbEntity
  8
RACCORDO
100
AcDbLine
 62
7
  6
CONTINUOUS
 10
5.5425307413
 20
26.6651302165
 11
5.5418537526
 21
26.6654670062
  0
LINE
  5
54F
100
AcDbEntity
  8
RACCORDO
100
AcDbLine
 62
250
  6
CONTINUOUS
 10
10.4026346992
 20
24.2350782374
 11
10.4025709618
 21
24.2351100933
  0
LINE
  5
550
100
AcDbEntity
  8
DRAFT
100
AcDbLine
 62
7
  6
CONTINUOUS
 10
8.6025678683
 20
23.6377405281
 11
6.0686322584
 21
24.904708333
  0
LINE
  5
551
100
AcDbEntity
  8
ASSI
100
AcDbLine
 62
7
  6
CONTINUOUS
 10
8.6025678683
 20
23.6377405281
 11
6.0686322584
 21
24.904708333
  0
LINE
  5
552
100
AcDbEntity
  8
RACCORDO
100
AcDbLine
 62
250
  6
CONTINUOUS
 10
10.6800928597
 20
22.9333188391
 11
12.4441917987
 21
22.0512693696
  0
LINE
  5
553
100
AcDbEntity
  8
ASSI
100
AcDbLine
 62
250
  6
CONTINUOUS
 10
10.6800928597
 20
22.9333188391
 11
12.4441917987
 21
22.0512693696
  0
LINE
  5
554
100
AcDbEntity
  8
RACCORDO
100
AcDbLine
 62
250
  6
CONTINUOUS
 10
17.106348474
 20
19.720191032
 11
17.9155684468
 21
19.3155810456
  0
LINE
  5
555
100
AcDbEntity
  8
ASSI
100
AcDbLine
 62
250
  6
CONTINUOUS
 10
17.106348474
 20
19.720191032
 11
17.9155684468
 21
19.3155810456
  0
LINE
  5
556
100
AcDbEntity
  8
RACCORDO
100
AcDbLine
 62
7
  6
CONTINUOUS
 10
10.8974801585
 20
22.9445250657
 11
12.661628239
 21
22.0624510344
  0
LINE
  5
557
100
AcDbEntity
  8
ASSI
100
AcDbLine
 62
7
  6
CONTINUOUS
 10
10.897116807
 20
22.9447061171
 11
12.661628239
 21
22.0624510344
  0
LINE
  5
558
100
AcDbEntity
  8
RACCORDO
100
AcDbLine
 62
7
  6
CONTINUOUS
 10
17.2493795568
 20
19.7685753755
 11
18.1326831391
 21
19.3269235844
  0
LINE
  5
559
100
AcDbEntity
  8
ASSI
100
AcDbLine
 62
7
  6
CONTINUOUS
 10
17.2493795568
 20
19.7685753755
 11
18.1326831391
 21
19.3269235844
  0
LINE
  5
55A
100
AcDbEntity
  8
RACCORDO
100
AcDbLine
 62
250
  6
CONTINUOUS
 10
5.325094302
 20
26.6539485512
 11
5.3737055884
 21
26.629642908
  0
LINE
  5
55B
100
AcDbEntity
  8
ASSI
100
AcDbLine
 62
250
  6
CONTINUOUS
 10
5.325094302
 20
26.6539485512
 11
5.3737055884
 21
26.629642908
  0
LINE
  5
55C
100
AcDbEntity
  8
RACCORDO
100
AcDbLine
 62
250
  6
CONTINUOUS
 10
10.0346990606
 20
24.2991461719
 11
10.1851935
 21
24.2238989522
  0
LINE
  5
55D
100
AcDbEntity
  8
ASSI
100
AcDbLine
 62
250
  6
CONTINUOUS
 10
10.0346990606
 20
24.2991461719
 11
10.1851935
 21
24.2238989522
  0
LINE
  5
55E
100
AcDbEntity
  8
RACCORDO
100
AcDbLine
 62
7
  6
CONTINUOUS
 10
10.1777301434
 20
24.3475305154
 11
10.4026299402
 21
24.235080617
  0
LINE
  5
55F
100
AcDbEntity
  8
ASSI
100
AcDbLine
 62
7
  6
CONTINUOUS
 10
10.1777301434
 20
24.3475305154
 11
10.4026299402
 21
24.235080617
  0
LWPOLYLINE
  5
560
100
AcDbEntity
  8
RACCORDO
100
AcDbPolyline
 62
7
  6
CONTINUOUS
 90
21
 70
0
 10
10.8974790654
 20
22.9445228915
 10
10.8956278524
 20
22.9454845754
 10
10.8890041056
 20
22.9493356737
 10
10.8797862972
 20
22.9554811302
 10
10.8683230185
 20
22.9641500224
 10
10.8550188533
 20
22.9754643529
 10
10.8402135281
 20
22.9895283705
 10
10.8242855242
 20
23.0063573791
 10
10.8076359475
 20
23.0259027913
 10
10.7905743286
 20
23.048165133
 10
10.7735717297
 20
23.0728552694
 10
10.7572245885
 20
23.0993524769
 10
10.7418656024
 20
23.1272968252
 10
10.7277956616
 20
23.1562422518
 10
10.7154203314
 20
23.1852897581
 10
10.7048965376
 20
23.2138731414
 10
10.696253669
 20
23.2415943317
 10
10.689527702
 20
23.2677909179
 10
10.6846301294
 20
23.2919613239
 10
10.6813930689
 20
23.3138299138
 10
10.6796130809
 20
23.3330699243
  0
LINE
  5
561
100
AcDbEntity
  8
RACCORDO
100
AcDbLine
 62
7
  6
CONTINUOUS
 10
10.4302860292
 20
24.2201481129
 11
10.4025709618
 21
24.2351100933
  0
LINE
  5
562
100
AcDbEntity
  8
ASSI
100
AcDbLine
 62
7
  6
CONTINUOUS
 10
10.4301018633
 20
24.2202475349
 11
10.4026727908
 21
24.2350591849
  0
LWPOLYLINE
  5
563
100
AcDbEntity
  8
ASSI
100
AcDbPolyline
 62
7
  6
CONTINUOUS
 90
9
 70
0
 10
10.8971157246
 20
22.9447039604
 10
10.8889414901
 20
22.9493745856
 10
10.8740812018
 20
22.9596632758
 10
10.8545214235
 20
22.9759120746
 10
10.8316313384
 20
22.9983749385
 10
10.8064155236
 20
23.0274177201
 10
10.7805154414
 20
23.0624483672
 10
10.7557961213
 20
23.1018158472
 10
10.7333481561
 20
23.1443748551
  0
LINE
  5
564
100
AcDbEntity
  8
ASSI
100
AcDbLine
 62
7
  6
CONTINUOUS
 10
18.2162391709
 20
19.2761091841
 11
18.1325146117
 21
19.3269891432
  0
LWPOLYLINE
  5
565
100
AcDbEntity
  8
RACCORDO
100
AcDbPolyline
 62
250
  6
CONTINUOUS
 90
8
 70
0
 10
16.1468779502
 20
19.3427524475
 10
16.1442578238
 20
19.3444137906
 10
16.1372353571
 20
19.3443971801
 10
16.1262482271
 20
19.3418952911
 10
16.1114721189
 20
19.3369481291
 10
16.093143304
 20
19.3296347995
 10
16.071554862
 20
19.3200722433
 10
16.0470519943
 20
19.3084133668
  0
LWPOLYLINE
  5
566
100
AcDbEntity
  8
ASSI
100
AcDbPolyline
 62
250
  6
CONTINUOUS
 90
8
 70
0
 10
16.1468779502
 20
19.3427524475
 10
16.1442578238
 20
19.3444137906
 10
16.1372353571
 20
19.3443971801
 10
16.1262482271
 20
19.3418952911
 10
16.1114721189
 20
19.3369481291
 10
16.093143304
 20
19.3296347995
 10
16.071554862
 20
19.3200722433
 10
16.0470519943
 20
19.3084133668
  0
LWPOLYLINE
  5
567
100
AcDbEntity
  8
RACCORDO
100
AcDbPolyline
 62
7
  6
CONTINUOUS
 90
3
 70
0
 10
18.2271183396
 20
19.268020744
 10
18.1812872499
 20
19.2996904971
 10
18.1324966445
 20
19.3269981031
  0
LINE
  5
568
100
AcDbEntity
  8
ASSI
100
AcDbLine
 62
7
  6
CONTINUOUS
 10
18.2914380287
 20
19.2115414635
 11
18.2162391709
 21
19.2761091841
  0
LINE
  5
569
100
AcDbEntity
  8
RACCORDO
100
AcDbLine
 62
7
  6
CONTINUOUS
 10
18.6296888218
 20
18.6111316647
 11
18.6558749857
 21
18.5884305838
  0
LINE
  5
56A
100
AcDbEntity
  8
ASSI
100
AcDbLine
 62
7
  6
CONTINUOUS
 10
18.6295066138
 20
18.6114982973
 11
18.8168182549
 21
18.4303879143
  0
LINE
  5
56B
100
AcDbEntity
  8
RACCORDO
100
AcDbLine
 62
7
  6
CONTINUOUS
 10
18.6558749857
 20
18.5884305838
 11
18.781929893
 21
18.4664910787
  0
LWPOLYLINE
  5
56C
100
AcDbEntity
  8
RACCORDO
100
AcDbPolyline
 62
7
  6
CONTINUOUS
 90
3
 70
0
 10
18.3097550551
 20
19.1922903437
 10
18.2698170713
 20
19.2323177856
 10
18.2271183396
 20
19.268020744
  0
LINE
  5
56D
100
AcDbEntity
  8
RACCORDO
100
AcDbLine
 62
250
  6
CONTINUOUS
 10
18.7483408421
 20
18.3674599553
 11
18.7555005046
 21
18.35992141
  0
LWPOLYLINE
  5
56E
100
AcDbEntity
  8
ASSI
100
AcDbPolyline
 62
250
  6
CONTINUOUS
 90
3
 70
0
 10
18.7483408421
 20
18.3674599553
 10
18.7555005046
 20
18.35992141
 10
18.8625147589
 20
18.2367682428
  0
LINE
  5
56F
100
AcDbEntity
  8
RACCORDO
100
AcDbLine
 62
7
  6
CONTINUOUS
 10
18.781929893
 20
18.4664910787
 11
18.903323864
 21
18.3361624785
  0
LWPOLYLINE
  5
570
100
AcDbEntity
  8
ASSI
100
AcDbPolyline
 62
7
  6
CONTINUOUS
 90
10
 70
0
 10
18.8168182549
 20
18.4303879143
 10
19.0033045882
 20
18.2182909092
 10
19.1757024968
 20
17.9891398653
 10
19.3327062381
 20
17.7453036141
 10
19.4728509486
 20
17.4894059565
 10
19.5946074679
 20
17.2244010825
 10
19.6965881313
 20
16.9533239395
 10
19.7776427408
 20
16.6789579498
 10
19.8366776695
 20
16.4042104483
 10
19.8726878426
 20
16.1322128136
  0
LINE
  5
571
100
AcDbEntity
  8
RACCORDO
100
AcDbLine
 62
250
  6
CONTINUOUS
 10
18.7555005046
 20
18.35992141
 11
18.8625147589
 21
18.2367682428
  0
LINE
  5
572
100
AcDbEntity
  8
ASSI
100
AcDbLine
 62
7
  6
CONTINUOUS
 10
18.352785035
 20
19.1397904568
 11
18.2914380287
 21
19.2115414635
  0
LWPOLYLINE
  5
573
100
AcDbEntity
  8
RACCORDO
100
AcDbPolyline
 62
7
  6
CONTINUOUS
 90
16
 70
0
 10
18.903323864
 20
18.3361624785
 10
19.0195095371
 20
18.1982142157
 10
19.130093514
 20
18.053277512
 10
19.2346509991
 20
17.9020388973
 10
19.3327319805
 20
17.7452603386
 10
19.4239390986
 20
17.5836709533
 10
19.5079267545
 20
17.4179405184
 10
19.5843184972
 20
17.2488309324
 10
19.6527557121
 20
17.0771280554
 10
19.7129349456
 20
16.9035378109
 10
19.7645527559
 20
16.7288082794
 10
19.8073076161
 20
16.5537648217
 10
19.8409375453
 20
16.379197313
 10
19.8652091144
 20
16.2058715724
 10
19.8799090086
 20
16.0345637071
 10
19.8848470271
 20
15.8660580235
  0
LWPOLYLINE
  5
574
100
AcDbEntity
  8
ASSI
100
AcDbPolyline
 62
250
  6
CONTINUOUS
 90
7
 70
0
 10
18.1488736317
 20
19.1142879052
 10
18.1135881376
 20
19.1575031221
 10
18.0764005525
 20
19.197299046
 10
18.0376437445
 20
19.2333150597
 10
17.9976751254
 20
19.265234948
 10
17.956856602
 20
19.2927428676
 10
17.9155681334
 20
19.3155585723
  0
LWPOLYLINE
  5
575
100
AcDbEntity
  8
RACCORDO
100
AcDbPolyline
 62
250
  6
CONTINUOUS
 90
26
 70
0
 10
18.8625147589
 20
18.2367682428
 10
18.9638802643
 20
18.1095744209
 10
19.0592997869
 20
17.9793074246
 10
19.1487424562
 20
17.8466178745
 10
19.2306950959
 20
17.7146363047
 10
19.3050208682
 20
17.5848452256
 10
19.3723524926
 20
17.457422463
 10
19.4326979357
 20
17.333656789
 10
19.4862165316
 20
17.2146882556
 10
19.533598306
 20
17.1004759594
 10
19.5756536232
 20
16.9904010379
 10
19.6127417588
 20
16.8847669192
 10
19.6452225563
 20
16.7838345543
 10
19.6737426486
 20
16.6867990923
 10
19.6985862965
 20
16.5938143068
 10
19.720037851
 20
16.5049982672
 10
19.7385832958
 20
16.4194399715
 10
19.7544282289
 20
16.3372054194
 10
19.767774598
 20
16.2583520806
 10
19.7789534939
 20
16.1819485342
 10
19.7880929577
 20
16.1080563973
 10
19.7953270396
 20
16.0366782053
 10
19.8008539785
 20
15.9668172931
 10
19.804748451
 20
15.8981747667
 10
19.8070402259
 20
15.831122894
 10
19.8077904748
 20
15.7656884325
  0
LWPOLYLINE
  5
576
100
AcDbEntity
  8
ASSI
100
AcDbPolyline
 62
250
  6
CONTINUOUS
 90
22
 70
0
 10
18.8625147589
 20
18.2367682428
 10
18.9638802643
 20
18.1095744209
 10
19.0592997869
 20
17.9793074246
 10
19.1487424562
 20
17.8466178745
 10
19.2306950959
 20
17.7146363047
 10
19.3050208682
 20
17.5848452256
 10
19.3723524926
 20
17.457422463
 10
19.4326979357
 20
17.333656789
 10
19.4862165316
 20
17.2146882556
 10
19.533598306
 20
17.1004759594
 10
19.5756536232
 20
16.9904010379
 10
19.6127417588
 20
16.8847669192
 10
19.6452225563
 20
16.7838345543
 10
19.6737426486
 20
16.6867990923
 10
19.6985862965
 20
16.5938143068
 10
19.720037851
 20
16.5049982672
 10
19.7385832958
 20
16.4194399715
 10
19.7544282289
 20
16.3372054194
 10
19.767774598
 20
16.2583520806
 10
19.7789534939
 20
16.1819485342
 10
19.7880929577
 20
16.1080563973
 10
19.7953270396
 20
16.0366782053
  0
LWPOLYLINE
  5
577
100
AcDbEntity
  8
RACCORDO
100
AcDbPolyline
 62
7
  6
CONTINUOUS
 90
3
 70
0
 10
18.3787829045
 20
19.1017126555
 10
18.3465244922
 20
19.1481591596
 10
18.3097550551
 20
19.1922903437
  0
LINE
  5
578
100
AcDbEntity
  8
ASSI
100
AcDbLine
 62
7
  6
CONTINUOUS
 10
18.4014023114
 20
19.0630890187
 11
18.352785035
 21
19.1397904568
  0
LINE
  5
579
100
AcDbEntity
  8
RACCORDO
100
AcDbLine
 62
7
  6
CONTINUOUS
 10
18.4086635946
 20
19.0492858104
 11
18.3787829045
 21
19.1017126555
  0
LWPOLYLINE
  5
57A
100
AcDbEntity
  8
RACCORDO
100
AcDbPolyline
 62
250
  6
CONTINUOUS
 90
10
 70
0
 10
18.2401468257
 20
18.9682188163
 10
18.21246248
 20
19.01921122
 10
18.1819385426
 20
19.0680549241
 10
18.1488736317
 20
19.1142879052
 10
18.1135881376
 20
19.1575031221
 10
18.0764005525
 20
19.197299046
 10
18.0376437445
 20
19.2333150597
 10
17.9976751254
 20
19.265234948
 10
17.956856602
 20
19.2927428676
 10
17.9155681334
 20
19.3155585723
  0
LWPOLYLINE
  5
57B
100
AcDbEntity
  8
ASSI
100
AcDbPolyline
 62
250
  6
CONTINUOUS
 90
4
 70
0
 10
18.2401468257
 20
18.9682188163
 10
18.21246248
 20
19.01921122
 10
18.1819385426
 20
19.0680549241
 10
18.1488736317
 20
19.1142879052
  0
LINE
  5
57C
100
AcDbEntity
  8
ASSI
100
AcDbLine
 62
7
  6
CONTINUOUS
 10
18.4086610181
 20
19.049290285
 11
18.4014023114
 21
19.0630890187
  0
LWPOLYLINE
  5
57D
100
AcDbEntity
  8
RACCORDO
100
AcDbPolyline
 62
250
  6
CONTINUOUS
 90
7
 70
0
 10
18.5607890916
 20
18.3287339892
 10
18.5080420341
 20
18.4356955833
 10
18.4550172311
 20
18.5425079916
 10
18.4017157603
 20
18.6491692702
 10
18.3481387038
 20
18.7556774794
 10
18.2942871486
 20
18.862030683
 10
18.2401621861
 20
18.9682269493
  0
LWPOLYLINE
  5
57E
100
AcDbEntity
  8
ASSI
100
AcDbPolyline
 62
250
  6
CONTINUOUS
 90
7
 70
0
 10
18.5607890916
 20
18.3287339892
 10
18.5080420341
 20
18.4356955833
 10
18.4550172311
 20
18.5425079916
 10
18.4017157603
 20
18.6491692702
 10
18.3481387038
 20
18.7556774794
 10
18.2942871486
 20
18.862030683
 10
18.2401621861
 20
18.9682269493
  0
LWPOLYLINE
  5
57F
100
AcDbEntity
  8
RACCORDO
100
AcDbPolyline
 62
7
  6
CONTINUOUS
 90
10
 70
0
 10
18.7270539335
 20
18.4142799491
 10
18.6921763194
 20
18.4850841429
 10
18.6571735632
 20
18.5558278145
 10
18.6220459487
 20
18.6265103907
 10
18.5867937622
 20
18.6971312958
 10
18.5514172873
 20
18.7676899614
 10
18.515916805
 20
18.8381858275
 10
18.4802926005
 20
18.908618327
 10
18.4445449642
 20
18.9789868857
 10
18.4086742958
 20
19.0492907176
  0
LWPOLYLINE
  5
580
100
AcDbEntity
  8
ASSI
100
AcDbPolyline
 62
7
  6
CONTINUOUS
 90
10
 70
0
 10
18.7270539335
 20
18.4142799491
 10
18.6921763194
 20
18.4850841429
 10
18.6571735632
 20
18.5558278145
 10
18.6220459487
 20
18.6265103907
 10
18.5867937622
 20
18.6971312958
 10
18.5514172873
 20
18.7676899614
 10
18.515916805
 20
18.8381858275
 10
18.4802926005
 20
18.908618327
 10
18.4445449642
 20
18.9789868857
 10
18.4086742958
 20
19.0492907176
  0
LWPOLYLINE
  5
581
100
AcDbEntity
  8
RACCORDO
100
AcDbPolyline
 62
250
  6
CONTINUOUS
 90
6
 70
0
 10
5.5369981283
 20
26.6677842796
 10
5.4992512304
 20
26.6805357712
 10
5.4584869721
 20
26.6855464
 10
5.4153874494
 20
26.6827323249
 10
5.370673833
 20
26.6721406328
 10
5.325094302
 20
26.6539485512
  0
LWPOLYLINE
  5
582
100
AcDbEntity
  8
ASSI
100
AcDbPolyline
 62
250
  6
CONTINUOUS
 90
6
 70
0
 10
5.5403965041
 20
26.6661804666
 10
5.4992512304
 20
26.6805357712
 10
5.4584869721
 20
26.6855464
 10
5.4153874494
 20
26.6827323249
 10
5.370673833
 20
26.6721406328
 10
5.325094302
 20
26.6539485512
  0
LWPOLYLINE
  5
583
100
AcDbEntity
  8
RACCORDO
100
AcDbPolyline
 62
7
  6
CONTINUOUS
 90
6
 70
0
 10
5.5033332085
 20
26.6829255575
 10
5.4518835761
 20
26.7011915983
 10
5.3992726126
 20
26.7143026471
 10
5.3459454508
 20
26.7222005192
 10
5.2923477732
 20
26.7248507479
 10
5.2391574196
 20
26.7222650269
  0
ELLIPSE
  5
584
100
AcDbEntity
  8
RACCORDO
100
AcDbEllipse
 62
7
  6
CONTINUOUS
 10
2.9299783219
 20
4.2076721981
 30
0.0
 11
0.2005561681
 21
-0.0021295538
 31
0.0
 40
0.4891526878
 41
3.9294042501
 42
5.4828773916
  0
ELLIPSE
  5
585
100
AcDbEntity
  8
DRAFT
100
AcDbEllipse
 62
7
  6
CONTINUOUS
 10
-21.1632275614
 20
11.5350361148
 30
0.0
 11
20.2576050634
 21
10.5582050739
 31
0.0
 40
0.0140162705
 41
0.6466396127
 42
0.6536492917
  0
ELLIPSE
  5
586
100
AcDbEntity
  8
DRAFT
100
AcDbEllipse
 62
7
  6
CONTINUOUS
 10
-21.1632275614
 20
11.5350361148
 30
0.0
 11
20.2576050634
 21
10.5582050739
 31
0.0
 40
0.0140162705
 41
-0.6333529259
 42
-0.6263432469
  0
ELLIPSE
  5
587
100
AcDbEntity
  8
DRAFT
100
AcDbEllipse
 62
7
  6
CONTINUOUS
 10
-17.910536368
 20
9.9086905181
 30
0.0
 11
20.2576050634
 21
10.5582050739
 31
0.0
 40
0.0140162705
 41
0.6466396127
 42
0.6536492917
  0
ELLIPSE
  5
588
100
AcDbEntity
  8
DRAFT
100
AcDbEllipse
 62
7
  6
CONTINUOUS
 10
-17.910536368
 20
9.9086905181
 30
0.0
 11
20.2576050634
 21
10.5582050739
 31
0.0
 40
0.0140162705
 41
-0.6333529259
 42
-0.6263432469
  0
ELLIPSE
  5
589
100
AcDbEntity
  8
RACCORDO
100
AcDbEllipse
 62
7
  6
CONTINUOUS
 10
2.9299783219
 20
-14.0455111295
 30
0.0
 11
0.2005502732
 21
0.0036386004
 31
0.0
 40
0.5104433251
 41
-2.3682357028
 42
-0.8147625613
  0
ELLIPSE
  5
58A
100
AcDbEntity
  8
RACCORDO
100
AcDbEllipse
 62
7
  6
CONTINUOUS
 10
2.8239123047
 20
-13.992478121
 30
0.0
 11
0.2005502732
 21
0.0036386004
 31
0.0
 40
0.5104433251
 41
-2.3682357028
 42
-0.8147625613
  0
ELLIPSE
  5
58B
100
AcDbEntity
  8
DRAFT
100
AcDbEllipse
 62
7
  6
CONTINUOUS
 10
-0.2188794673
 20
15.804344091
 30
0.0
 11
-0.1874317891
 21
0.5510210025
 31
0.0
 40
0.6669031534
 41
-2.8632939338
 42
0.1657057104
  0
ELLIPSE
  5
58C
100
AcDbEntity
  8
DRAFT
100
AcDbEllipse
 62
7
  6
CONTINUOUS
 10
-7.9970540604
 20
19.6934313875
 30
0.0
 11
-0.1874317891
 21
0.5510210025
 31
0.0
 40
0.6669031534
 41
-2.8632939338
 42
0.1657057104
  0
ELLIPSE
  5
58D
100
AcDbEntity
  8
RACCORDO
100
AcDbEllipse
 62
7
  6
CONTINUOUS
 10
-12.240245812
 20
20.9982844421
 30
0.0
 11
-0.1828920694
 21
0.4656153856
 31
0.0
 40
0.6532976604
 41
-0.6278386123
 42
0.0270449745
  0
ELLIPSE
  5
58E
100
AcDbEntity
  8
RACCORDO
100
AcDbEllipse
 62
7
  6
CONTINUOUS
 10
2.6795995589
 20
13.5383617567
 30
0.0
 11
-0.1826623061
 21
0.4654722043
 31
0.0
 40
0.6538654528
 41
-2.1982822863
 42
-0.6279428103
  0
ELLIPSE
  5
58F
100
AcDbEntity
  8
RACCORDO
100
AcDbEllipse
 62
7
  6
CONTINUOUS
 10
0.0419244492
 20
-24.7050204512
 30
0.0
 11
-0.1828920694
 21
0.4656153856
 31
0.0
 40
0.6532976604
 41
-3.1687922215
 42
-2.1990917899
  0
ELLIPSE
  5
590
100
AcDbEntity
  8
DRAFT
100
AcDbEllipse
 62
7
  6
CONTINUOUS
 10
10.8800124824
 20
17.8358760202
 30
0.0
 11
2.6995028143
 21
-0.1108788769
 31
0.0
 40
0.4672909446
 41
2.3928388478
 42
2.8885731487
  0
ELLIPSE
  5
591
100
AcDbEntity
  8
DRAFT
100
AcDbEllipse
 62
7
  6
CONTINUOUS
 10
11.5871192636
 20
17.2625752428
 30
0.0
 11
2.7999338239
 21
-0.0393479794
 31
0.0
 40
0.4892375088
 41
0.7268246302
 42
2.1371003781
  0
ELLIPSE
  5
592
100
AcDbEntity
  8
DRAFT
100
AcDbEllipse
 62
7
  6
CONTINUOUS
 10
4.5160514517
 20
21.4909294718
 30
0.0
 11
2.7999338239
 21
-0.0393479794
 31
0.0
 40
0.4892375088
 41
7.194789037
 42
8.4190700833
  0
ELLIPSE
  5
593
100
AcDbEntity
  8
DRAFT
100
AcDbEllipse
 62
7
  6
CONTINUOUS
 10
3.8422646009
 20
22.078751536
 30
0.0
 11
2.6995028143
 21
-0.1108788769
 31
0.0
 40
0.4672909446
 41
2.3928388478
 42
2.7418921552
  0
ELLIPSE
  5
594
100
AcDbEntity
  8
RACCORDO
100
AcDbEllipse
 62
7
  6
CONTINUOUS
 10
16.7465708863
 20
19.4609627164
 30
0.0
 11
0.5078963414
 21
0.3040339819
 31
0.0
 40
0.0955345833
 41
0.0615844105
 42
0.7281223435
  0
ELLIPSE
  5
595
100
AcDbEntity
  8
RACCORDO
100
AcDbEllipse
 62
7
  6
CONTINUOUS
 10
9.6749214729
 20
24.0399178563
 30
0.0
 11
0.5078963414
 21
0.3040339819
 31
0.0
 40
0.0955345833
 41
0.0615844105
 42
0.7281223435
  0
ELLIPSE
  5
596
100
AcDbEntity
  8
DRAFT
100
AcDbEllipse
 62
7
  6
CONTINUOUS
 10
11.5871192636
 20
18.1440429426
 30
0.0
 11
2.7994844001
 21
-0.114985502
 31
0.0
 40
0.4672909446
 41
0.295419578
 42
2.1494162078
  0
ELLIPSE
  5
597
100
AcDbEntity
  8
DRAFT
100
AcDbEllipse
 62
7
  6
CONTINUOUS
 10
4.5160514517
 20
22.3723971715
 30
0.0
 11
2.7994844001
 21
-0.114985502
 31
0.0
 40
0.4672909446
 41
0.4989599013
 42
2.1482006058
  0
ELLIPSE
  5
598
100
AcDbEntity
  8
RACCORDO
100
AcDbEllipse
 62
7
  6
CONTINUOUS
 10
12.7916286715
 20
21.4384338238
 30
0.0
 11
-0.3622213317
 21
0.604758663
 31
0.0
 40
0.5487841728
 41
4.6863149424
 42
6.2396579766
  0
ELLIPSE
  5
599
100
AcDbEntity
  8
RACCORDO
100
AcDbEllipse
 62
7
  6
CONTINUOUS
 10
5.7211424612
 20
26.0168073622
 30
0.0
 11
-0.3622213317
 21
0.604758663
 31
0.0
 40
0.5487841728
 41
4.6863149424
 42
6.2396579766
  0
ELLIPSE
  5
59A
100
AcDbEntity
  8
RACCORDO
100
AcDbEllipse
 62
7
  6
CONTINUOUS
 10
4.1760953591
 20
19.5137053025
 30
0.0
 11
0.1677841941
 21
0.4740861062
 31
0.0
 40
0.4918293396
 41
-0.0601506597
 42
0.6062934277
  0
ELLIPSE
  5
59B
100
AcDbEntity
  8
ASSI
100
AcDbEllipse
 62
7
  6
CONTINUOUS
 10
10.8800124824
 20
17.8358760202
 30
0.0
 11
2.6995028143
 21
-0.1108788769
 31
0.0
 40
0.4672909446
 41
8.676024155
 42
9.1717584558
  0
ELLIPSE
  5
59C
100
AcDbEntity
  8
ASSI
100
AcDbEllipse
 62
7
  6
CONTINUOUS
 10
3.8422646009
 20
22.078751536
 30
0.0
 11
2.6995028143
 21
-0.1108788769
 31
0.0
 40
0.4672909446
 41
8.676024155
 42
9.0250774624
  0
ELLIPSE
  5
59D
100
AcDbEntity
  8
ASSI
100
AcDbEllipse
 62
7
  6
CONTINUOUS
 10
16.7465708863
 20
19.4609627164
 30
0.0
 11
0.5078963414
 21
0.3040339819
 31
0.0
 40
0.0955345833
 41
0.0615844105
 42
0.7281223435
  0
ELLIPSE
  5
59E
100
AcDbEntity
  8
ASSI
100
AcDbEllipse
 62
7
  6
CONTINUOUS
 10
9.6749214729
 20
24.0399178563
 30
0.0
 11
0.5078963414
 21
0.3040339819
 31
0.0
 40
0.0955345833
 41
0.0615844105
 42
0.7281223435
  0
ELLIPSE
  5
59F
100
AcDbEntity
  8
ASSI
100
AcDbEllipse
 62
7
  6
CONTINUOUS
 10
4.5160514517
 20
21.4909294718
 30
0.0
 11
2.7999338239
 21
-0.0393479794
 31
0.0
 40
0.4892375088
 41
7.194789037
 42
8.4190700833
  0
ELLIPSE
  5
5A0
100
AcDbEntity
  8
ASSI
100
AcDbEllipse
 62
7
  6
CONTINUOUS
 10
11.5871192636
 20
17.2625752428
 30
0.0
 11
2.7999338239
 21
-0.0393479794
 31
0.0
 40
0.4892375088
 41
0.7268246302
 42
2.1371003781
  0
ELLIPSE
  5
5A1
100
AcDbEntity
  8
ASSI
100
AcDbEllipse
 62
7
  6
CONTINUOUS
 10
4.1760953591
 20
19.5137053025
 30
0.0
 11
0.1677841941
 21
0.4740861062
 31
0.0
 40
0.4918293396
 41
-0.0601506597
 42
0.6062934277
  0
ELLIPSE
  5
5A2
100
AcDbEntity
  8
ASSI
100
AcDbEllipse
 62
7
  6
CONTINUOUS
 10
4.5160514517
 20
22.3723971715
 30
0.0
 11
2.7994844001
 21
-0.114985502
 31
0.0
 40
0.4672909446
 41
0.4989599013
 42
2.1482006058
  0
ELLIPSE
  5
5A3
100
AcDbEntity
  8
ASSI
100
AcDbEllipse
 62
7
  6
CONTINUOUS
 10
11.5871192636
 20
18.1440429426
 30
0.0
 11
2.7994844001
 21
-0.114985502
 31
0.0
 40
0.4672909446
 41
0.295419578
 42
2.1494162078
  0
ELLIPSE
  5
5A4
100
AcDbEntity
  8
ASSI
100
AcDbEllipse
 62
7
  6
CONTINUOUS
 10
12.7916286715
 20
21.4384338238
 30
0.0
 11
-0.3622213317
 21
0.604758663
 31
0.0
 40
0.5487841728
 41
4.6863149424
 42
6.2396579766
  0
ELLIPSE
  5
5A5
100
AcDbEntity
  8
ASSI
100
AcDbEllipse
 62
7
  6
CONTINUOUS
 10
5.7211424612
 20
26.0168073622
 30
0.0
 11
-0.3622213317
 21
0.604758663
 31
0.0
 40
0.5487841728
 41
4.6863149424
 42
6.2396579766
  0
ENDSEC
  0
SECTION
  2
OBJECTS
  0
DICTIONARY
  5
C
100
AcDbDictionary
280
0
281
1
  3
ACAD_GROUP
350
D
  3
ACAD_MLINESTYLE
350
17
  3
ACAD_LAYOUT
350
1A
  3
ACAD_PLOTSETTINGS
350
19
  3
ACAD_PLOTSTYLENAME
350
E
  0
DICTIONARY
  5
D
102
{ACAD_REACTORS
330
C
102
}
100
AcDbDictionary
280
0
281
1
  0
ACDBDICTIONARYWDFLT
  5
E
102
{ACAD_REACTORS
330
C
102
}
100
AcDbDictionary
281
1
  3
Normal
350
F
100
AcDbDictionaryWithDefault
340
F
  0
DICTIONARY
  5
17
102
{ACAD_REACTORS
330
C
102
}
100
AcDbDictionary
280
0
281
1
  3
Standard
350
18
  0
DICTIONARY
  5
19
102
{ACAD_REACTORS
330
C
102
}
100
AcDbDictionary
281
1
  0
DICTIONARY
  5
1A
102
{ACAD_REACTORS
330
C
102
}
100
AcDbDictionary
281
1
  3
Model
350
5A6
  3
Layout1
350
5A7
  0
ACDBPLACEHOLDER
  5
F
102
{ACAD_REACTORS
330
E
102
}
  0
MLINESTYLE
  5
18
102
{ACAD_REACTORS
330
17
102
}
100
AcDbMlineStyle
  2
STANDARD
 70
0
  3

 62
256
 51
90.0
 52
90.0
 71
2
 49
0.5
 62
256
  6
BYLAYER
 49
-0.5
 62
256
  6
BYLAYER
  0
LAYOUT
  5
5A6
102
{ACAD_REACTORS
330
1A
102
}
100
AcDbPlotSettings
  1

  2
none_device
  4
ISO_A4_(297.00_x_210.00_MM)
  6

 40
0.0
 41
0.0
 42
0.0
 43
0.0
 44
297.0
 45
210.0
 46
0.0
 47
0.0
 48
0.0
 49
0.0
140
0.0
141
0.0
142
1.0
143
1.0
 70
1024
 72
1
 73
0
 74
0
  7

 75
0
147
1.0
148
0.0
149
0.0
100
AcDbLayout
  1
Model
 70
0
 71
0
 10
0.0
 20
0.0
 11
297.0
 21
210.0
 12
0.0
 22
0.0
 32
0.0
 14
0.0
 24
0.0
 34
0.0
 15
0.0
 25
0.0
 35
0.0
146
0.0
 13
0.0
 23
0.0
 33
0.0
 16
1.0
 26
0.0
 36
0.0
 17
0.0
 27
1.0
 37
0.0
 76
0
330
21F
345
0
346
0
  0
LAYOUT
  5
5A7
102
{ACAD_REACTORS
330
1A
102
}
100
AcDbPlotSettings
  1

  2
none_device
  4
ISO_A4_(297.00_x_210.00_MM)
  6

 40
0.0
 41
0.0
 42
0.0
 43
0.0
 44
297.0
 45
210.0
 46
0.0
 47
0.0
 48
0.0
 49
0.0
140
0.0
141
0.0
142
1.0
143
1.0
 70
0
 72
1
 73
0
 74
0
  7

 75
0
147
1.0
148
0.0
149
0.0
100
AcDbLayout
  1
Layout1
 70
0
 71
1
 10
0.0
 20
0.0
 11
297.0
 21
210.0
 12
0.0
 22
0.0
 32
0.0
 14
0.0
 24
0.0
 34
0.0
 15
0.0
 25
0.0
 35
0.0
146
0.0
 13
0.0
 23
0.0
 33
0.0
 16
1.0
 26
0.0
 36
0.0
 17
0.0
 27
1.0
 37
0.0
 76
0
330
220
345
0
346
0
  0
ENDSEC
  0
EOF
