  0
SECTION
  2
HEADER
  9
$ACADVER
  1
AC1024
  9
$DWGCODEPAGE
  3
ANSI_1252
  9
$EXTMAX
 10
297.0
 20
210.0
 30
0.0
  9
$EXTMIN
 10
0.0
 20
0.0
 30
0.0
  9
$LIMMIN
 10
0.0
 20
0.0
  9
$LIMMAX
 10
297.0
 20
210.0
  9
$VIEWCTR
 10
148.5
 20
105.0
  9
$VIEWSIZE
 40
210.0
  9
$CLAYER
  8
0
  9
$LTSCALE
 40
16.335
  9
$CELTYPE
  6
BYLAYER
  9
$DIMSCALE
 40
1.0
  9
$DIMASZ
 40
3.0
  9
$DIMEXO
 40
0.5
  9
$DIMDLI
 40
11.286
  9
$DIMEXE
 40
1.5
  9
$DIMCEN
 40
2.673
  9
$DIMLFAC
 40
1.0
  9
$DIMBLK
  1
_FILLED
  9
$DIMALT
 70
0
  9
$DIMALTF
 40
0.0393700787
  9
$DIMTXT
 40
3.0
  9
$DIMTOL
 70
1
  9
$DIMLIM
 70
0
  9
$DIMTFAC
 40
1.0
  9
$DIMTP
 40
0.01
  9
$DIMTM
 40
0.01
  9
$DIMGAP
 40
0.625
  9
$DIMDSEP
 70
44
  9
$AUNITS
 70
0
  9
$PDMODE
 70
3
  9
$PDSIZE
 40
3.0
  9
$HANDSEED
  5
63E
  9
$TILEMODE
 70
1
  9
$MEASUREMENT
 70
1
  9
$INSUNITS
 70
4
  0
ENDSEC
  0
SECTION
  2
CLASSES
  0
CLASS
  1
ACDBDICTIONARYWDFLT
  2
AcDbDictionaryWithDefault
  3
AutoCAD 2000
 90
0
 91
1
280
0
281
0
  0
CLASS
  1
ACDBPLACEHOLDER
  2
AcDbPlaceHolder
  3
AutoCAD 2000
 90
0
 91
1
280
0
281
0
  0
CLASS
  1
LAYOUT
  2
AcDbLayout
  3
AutoCAD 2000
 90
0
 91
0
280
0
281
0
  0
ENDSEC
  0
SECTION
  2
TABLES
  0
TABLE
  2
VPORT
  5
8
100
AcDbSymbolTable
 70
2
  0
VPORT
  5
1F4
100
AcDbSymbolTableRecord
100
AcDbViewportTableRecord
  2
*ACTIVE
 70
0
 10
0.0
 20
0.0
 11
1.0
 21
1.0
 12
148.5
 22
105.0
 13
0.0
 23
0.0
 14
1.0
 24
1.0
 15
0.0
 25
0.0
 16
0.0
 26
0.0
 36
1.0
 17
0.0
 27
0.0
 37
0.0
 40
210.0
 41
1.4142857143
 42
50.0
 43
0.0
 44
0.0
 50
0.0
 51
0.0
 71
0
 72
100
 73
1
 74
1
 75
0
 76
0
 77
0
 78
0
  0
ENDTAB
  0
TABLE
  2
LTYPE
  5
5
100
AcDbSymbolTable
 70
6
  0
LTYPE
  5
14
100
AcDbSymbolTableRecord
100
AcDbLinetypeTableRecord
  2
BYBLOCK
 70
0
  3

 72
65
 73
0
 40
0.0
  0
LTYPE
  5
15
100
AcDbSymbolTableRecord
100
AcDbLinetypeTableRecord
  2
BYLAYER
 70
0
  3

 72
65
 73
0
 40
0.0
  0
LTYPE
  5
16
100
AcDbSymbolTableRecord
100
AcDbLinetypeTableRecord
  2
CONTINUOUS
 70
64
  3
Solid line
 72
65
 73
0
 40
0.0
  0
LTYPE
  5
1F5
100
AcDbSymbolTableRecord
100
AcDbLinetypeTableRecord
  2
CENTER
 70
64
  3
____ _ ____ _ ____ _ ____ _ ____ _ ____ _ ____
 72
65
 73
4
 40
0.6
 49
0.375
 74
0
 49
-0.075
 74
0
 49
0.075
 74
0
 49
-0.075
 74
0
  0
LTYPE
  5
1F6
100
AcDbSymbolTableRecord
100
AcDbLinetypeTableRecord
  2
HIDDEN
 70
64
  3
- - - - - - - - - - - - - - - - - - - -
 72
65
 73
2
 40
0.2
 49
0.1
 74
0
 49
-0.1
 74
0
  0
LTYPE
  5
1F7
100
AcDbSymbolTableRecord
100
AcDbLinetypeTableRecord
  2
PHANTOM
 70
64
  3
_____ _ _ _____ _ _ _____ _ _ _____
 72
65
 73
6
 40
0.8
 49
0.45
 74
0
 49
-0.05
 74
0
 49
0.1
 74
0
 49
-0.05
 74
0
 49
0.1
 74
0
 49
-0.05
 74
0
  0
LTYPE
  5
1F8
100
AcDbSymbolTableRecord
100
AcDbLinetypeTableRecord
  2
DOT
 70
64
  3
. . . . . . . . . . . . . . . . . . . .
 72
65
 73
2
 40
0.2
 49
0.1
 74
0
 49
-0.1
 74
0
  0
LTYPE
  5
1F9
100
AcDbSymbolTableRecord
100
AcDbLinetypeTableRecord
  2
DASHED
 70
64
  3
- - - - - - - - - - - - - - - - - - - -
 72
65
 73
2
 40
0.2
 49
0.1
 74
0
 49
-0.1
 74
0
  0
ENDTAB
  0
TABLE
  2
LAYER
  5
2
100
AcDbSymbolTable
 70
36
  0
LAYER
  5
10
100
AcDbSymbolTableRecord
100
AcDbLayerTableRecord
  2
0
 70
0
 62
7
  6
CONTINUOUS
370
-3
390
F
  0
LAYER
  5
1FA
100
AcDbSymbolTableRecord
100
AcDbLayerTableRecord
  2
DEFAULT_1
 70
0
 62
7
  6
CENTER
370
-3
390
F
  0
LAYER
  5
1FB
100
AcDbSymbolTableRecord
100
AcDbLayerTableRecord
  2
DEFAULT_2
 70
0
 62
7
  6
HIDDEN
370
-3
390
F
  0
LAYER
  5
1FC
100
AcDbSymbolTableRecord
100
AcDbLayerTableRecord
  2
DEFAULT_3
 70
0
 62
7
  6
PHANTOM
370
-3
390
F
  0
LAYER
  5
1FD
100
AcDbSymbolTableRecord
100
AcDbLayerTableRecord
  2
ASSI
 70
0
 62
7
  6
CONTINUOUS
370
-3
390
F
  0
LAYER
  5
1FE
100
AcDbSymbolTableRecord
100
AcDbLayerTableRecord
  2
COORDINATE
 70
0
 62
7
  6
CONTINUOUS
370
-3
390
F
  0
LAYER
  5
1FF
100
AcDbSymbolTableRecord
100
AcDbLayerTableRecord
  2
COORD_ORIGINE
 70
0
 62
7
  6
CONTINUOUS
370
-3
390
F
  0
LAYER
  5
200
100
AcDbSymbolTableRecord
100
AcDbLayerTableRecord
  2
COPY_PUBLISH
 70
0
 62
7
  6
CONTINUOUS
370
-3
390
F
  0
LAYER
  5
201
100
AcDbSymbolTableRecord
100
AcDbLayerTableRecord
  2
COSMETIC
 70
0
 62
7
  6
CONTINUOUS
370
-3
390
F
  0
LAYER
  5
202
100
AcDbSymbolTableRecord
100
AcDbLayerTableRecord
  2
COSMETICHE
 70
0
 62
7
  6
CONTINUOUS
370
-3
390
F
  0
LAYER
  5
203
100
AcDbSymbolTableRecord
100
AcDbLayerTableRecord
  2
COSMETICI
 70
0
 62
7
  6
CONTINUOUS
370
-3
390
F
  0
LAYER
  5
204
100
AcDbSymbolTableRecord
100
AcDbLayerTableRecord
  2
CURVE
 70
0
 62
7
  6
CONTINUOUS
370
-3
390
F
  0
LAYER
  5
205
100
AcDbSymbolTableRecord
100
AcDbLayerTableRecord
  2
DRAFT
 70
0
 62
7
  6
CONTINUOUS
370
-3
390
F
  0
LAYER
  5
206
100
AcDbSymbolTableRecord
100
AcDbLayerTableRecord
  2
ESTENSIONE
 70
0
 62
7
  6
CONTINUOUS
370
-3
390
F
  0
LAYER
  5
207
100
AcDbSymbolTableRecord
100
AcDbLayerTableRecord
  2
IMPORT_FEATURES
 70
0
 62
7
  6
CONTINUOUS
370
-3
390
F
  0
LAYER
  5
208
100
AcDbSymbolTableRecord
100
AcDbLayerTableRecord
  2
IMPORT_IGES
 70
0
 62
7
  6
CONTINUOUS
370
-3
390
F
  0
LAYER
  5
209
100
AcDbSymbolTableRecord
100
AcDbLayerTableRecord
  2
INTFCLR_1
 70
0
 62
7
  6
CONTINUOUS
370
-3
390
F
  0
LAYER
  5
20A
100
AcDbSymbolTableRecord
100
AcDbLayerTableRecord
  2
INTF_1
 70
0
 62
7
  6
CONTINUOUS
370
-3
390
F
  0
LAYER
  5
20B
100
AcDbSymbolTableRecord
100
AcDbLayerTableRecord
  2
INTF_11
 70
0
 62
7
  6
CONTINUOUS
370
-3
390
F
  0
LAYER
  5
20C
100
AcDbSymbolTableRecord
100
AcDbLayerTableRecord
  2
INTF_12
 70
0
 62
7
  6
CONTINUOUS
370
-3
390
F
  0
LAYER
  5
20D
100
AcDbSymbolTableRecord
100
AcDbLayerTableRecord
  2
INTF_2
 70
0
 62
7
  6
CONTINUOUS
370
-3
390
F
  0
LAYER
  5
20E
100
AcDbSymbolTableRecord
100
AcDbLayerTableRecord
  2
INTF_6
 70
0
 62
7
  6
CONTINUOUS
370
-3
390
F
  0
LAYER
  5
20F
100
AcDbSymbolTableRecord
100
AcDbLayerTableRecord
  2
INTF_7
 70
0
 62
7
  6
CONTINUOUS
370
-3
390
F
  0
LAYER
  5
210
100
AcDbSymbolTableRecord
100
AcDbLayerTableRecord
  2
INTF_CYAN
 70
0
 62
7
  6
CONTINUOUS
370
-3
390
F
  0
LAYER
  5
211
100
AcDbSymbolTableRecord
100
AcDbLayerTableRecord
  2
NOTE
 70
0
 62
7
  6
CONTINUOUS
370
-3
390
F
  0
LAYER
  5
212
100
AcDbSymbolTableRecord
100
AcDbLayerTableRecord
  2
PIANI
 70
0
 62
7
  6
CONTINUOUS
370
-3
390
F
  0
LAYER
  5
213
100
AcDbSymbolTableRecord
100
AcDbLayerTableRecord
  2
PIANI_ORIGINE
 70
0
 62
7
  6
CONTINUOUS
370
-3
390
F
  0
LAYER
  5
214
100
AcDbSymbolTableRecord
100
AcDbLayerTableRecord
  2
PUNTI
 70
0
 62
7
  6
CONTINUOUS
370
-3
390
F
  0
LAYER
  5
215
100
AcDbSymbolTableRecord
100
AcDbLayerTableRecord
  2
RACCORDO
 70
0
 62
7
  6
CONTINUOUS
370
-3
390
F
  0
LAYER
  5
216
100
AcDbSymbolTableRecord
100
AcDbLayerTableRecord
  2
RGB__255__255__255__
 70
0
 62
7
  6
CONTINUOUS
370
-3
390
F
  0
LAYER
  5
217
100
AcDbSymbolTableRecord
100
AcDbLayerTableRecord
  2
RGB____0____0____0__
 70
0
 62
7
  6
CONTINUOUS
370
-3
390
F
  0
LAYER
  5
218
100
AcDbSymbolTableRecord
100
AcDbLayerTableRecord
  2
SMUSSO
 70
0
 62
7
  6
CONTINUOUS
370
-3
390
F
  0
LAYER
  5
219
100
AcDbSymbolTableRecord
100
AcDbLayerTableRecord
  2
SNAPLINE
 70
0
 62
7
  6
CONTINUOUS
370
-3
390
F
  0
LAYER
  5
21A
100
AcDbSymbolTableRecord
100
AcDbLayerTableRecord
  2
SUPERFICI
 70
0
 62
7
  6
CONTINUOUS
370
-3
390
F
  0
LAYER
  5
21B
100
AcDbSymbolTableRecord
100
AcDbLayerTableRecord
  2
TRASH
 70
0
 62
7
  6
CONTINUOUS
370
-3
390
F
  0
LAYER
  5
21C
100
AcDbSymbolTableRecord
100
AcDbLayerTableRecord
  2
XSEC_DATUMS
 70
0
 62
7
  6
CONTINUOUS
370
-3
390
F
  0
ENDTAB
  0
TABLE
  2
STYLE
  5
3
100
AcDbSymbolTable
 70
1
  0
STYLE
  5
11
100
AcDbSymbolTableRecord
100
AcDbTextStyleTableRecord
  2
STANDARD
 70
0
 40
0.0
 41
0.8
 50
0.0
 71
0
 42
0.2
  3
txt
  4

  0
STYLE
  5
21D
100
AcDbSymbolTableRecord
100
AcDbTextStyleTableRecord
  2
TEXTSTYLE_1
 70
0
 40
0.0
 41
0.8
 50
0.0
 71
0
 42
0.2
  3
gdt
  4

  0
ENDTAB
  0
TABLE
  2
VIEW
  5
6
100
AcDbSymbolTable
 70
0
  0
ENDTAB
  0
TABLE
  2
UCS
  5
7
100
AcDbSymbolTable
 70
0
  0
ENDTAB
  0
TABLE
  2
APPID
  5
9
100
AcDbSymbolTable
 70
1
  0
APPID
  5
21E
100
AcDbSymbolTableRecord
100
AcDbRegAppTableRecord
  2
ACAD
 70
0
  0
ENDTAB
  0
TABLE
  2
BLOCK_RECORD
  5
1
100
AcDbSymbolTable
 70
0
  0
BLOCK_RECORD
  5
21F
100
AcDbSymbolTableRecord
100
AcDbBlockTableRecord
  2
*Model_Space
  0
BLOCK_RECORD
  5
220
100
AcDbSymbolTableRecord
100
AcDbBlockTableRecord
  2
*Paper_Space
  0
BLOCK_RECORD
  5
221
100
AcDbSymbolTableRecord
100
AcDbBlockTableRecord
  2
_FILLED
  0
ENDTAB
  0
TABLE
  2
DIMSTYLE
  5
A
100
AcDbSymbolTable
 70
1
100
AcDbDimStyleTable
 71
0
  0
DIMSTYLE
105
222
100
AcDbSymbolTableRecord
100
AcDbDimStyleTableRecord
  2
STANDARD
 70
0
  3

  4

 40
1.0
 41
3.0
 42
0.5
 43
0.38
 44
1.5
 45
0.0
 46
0.0
 47
0.01
 48
0.01
140
3.0
141
0.09
142
0.0
143
25.4
144
1.0
145
0.0
146
1.0
147
0.625
 71
1
 72
0
 73
0
 74
0
 75
0
 76
0
 77
1
 78
8
 79
2
170
0
171
1
172
0
173
0
174
0
175
0
176
0
177
0
178
0
270
2
179
2
271
2
272
2
273
2
274
2
275
0
280
0
281
0
282
0
283
1
284
8
285
0
286
0
287
3
288
0
340
11
278
44
341
221
342
221
343
221
344
221
  0
ENDTAB
  0
ENDSEC
  0
SECTION
  2
BLOCKS
  0
BLOCK
  5
20
100
AcDbEntity
  8
0
100
AcDbBlockBegin
  2
*Model_Space
 70
0
 10
0.0
 20
0.0
 30
0.0
  3
*Model_Space
  1

  0
ENDBLK
  5
21
100
AcDbEntity
  8
0
100
AcDbBlockEnd
  0
BLOCK
  5
1C
100
AcDbEntity
  8
0
100
AcDbBlockBegin
  2
*Paper_Space
 70
0
 10
0.0
 20
0.0
 30
0.0
  3
*Paper_Space
  1

  0
ENDBLK
  5
1D
100
AcDbEntity
  8
0
100
AcDbBlockEnd
  0
BLOCK
  5
223
100
AcDbEntity
  8
0
100
AcDbBlockBegin
  2
_FILLED
 70
64
 10
0.0
 20
0.0
  3
_FILLED
  1

  0
SOLID
  5
224
100
AcDbEntity
  8
0
  6
BYBLOCK
 62
0
100
AcDbTrace
 10
0.0
 20
0.0
 11
-1.0
 21
0.3166666667
 12
-1.0
 22
-0.3166666667
 13
-1.0
 23
-0.3166666667
  0
ENDBLK
  5
225
100
AcDbEntity
  8
0
  6
BYBLOCK
 62
0
100
AcDbBlockEnd
  0
ENDSEC
  0
SECTION
  2
ENTITIES
  0
LWPOLYLINE
  5
226
100
AcDbEntity
  8
RACCORDO
100
AcDbPolyline
 62
7
  6
CONTINUOUS
 90
15
 70
0
 10
-20.295854281
 20
20.3151413356
 10
-20.3085762456
 20
20.3052999418
 10
-20.3725086903
 20
20.2500089129
 10
-20.4314371558
 20
20.189554499
 10
-20.4859031988
 20
20.124393369
 10
-20.5363318263
 20
20.0547263114
 10
-20.5826915196
 20
19.9811644849
 10
-20.6250195548
 20
19.904041753
 10
-20.6632996999
 20
19.8235681175
 10
-20.697109844
 20
19.7407093462
 10
-20.7263042228
 20
19.6557388162
 10
-20.7506260317
 20
19.5690272542
 10
-20.7695847806
 20
19.4815638186
 10
-20.7828771508
 20
19.3935719864
 10
-20.7870874244
 20
19.3515045013
  0
LINE
  5
227
100
AcDbEntity
  8
RACCORDO
100
AcDbLine
 62
7
  6
CONTINUOUS
 10
-20.296573851
 20
20.3146144597
 11
-16.8908534414
 21
22.9057715108
  0
LINE
  5
228
100
AcDbEntity
  8
RACCORDO
100
AcDbLine
 62
250
  6
CONTINUOUS
 10
-19.9763161775
 20
20.339845353
 11
-16.5717071992
 21
22.9301567994
  0
LWPOLYLINE
  5
229
100
AcDbEntity
  8
RACCORDO
100
AcDbPolyline
 62
250
  6
CONTINUOUS
 90
8
 70
0
 10
-20.2958632217
 20
20.315153158
 10
-20.2744756294
 20
20.3296623801
 10
-20.2322058664
 20
20.350324887
 10
-20.1858596954
 20
20.3635721166
 10
-20.1362296516
 20
20.3691775365
 10
-20.0841644258
 20
20.3670452923
 10
-20.0305543509
 20
20.3572118461
 10
-19.9763161775
 20
20.339845353
  0
LWPOLYLINE
  5
22A
100
AcDbEntity
  8
RACCORDO
100
AcDbPolyline
 62
250
  6
CONTINUOUS
 90
3
 70
0
 10
-2.2883909478
 20
31.0133064329
 10
-2.2562912986
 20
31.0313733516
 10
-2.221605007
 20
31.0453195387
  0
LWPOLYLINE
  5
22B
100
AcDbEntity
  8
ASSI
100
AcDbPolyline
 62
250
  6
CONTINUOUS
 90
3
 70
0
 10
-2.2883909478
 20
31.0133064329
 10
-2.2562912986
 20
31.0313733516
 10
-2.221605007
 20
31.0453195387
  0
LINE
  5
22C
100
AcDbEntity
  8
RACCORDO
100
AcDbLine
 62
7
  6
CONTINUOUS
 10
-2.1976986125
 20
31.0663067716
 11
-2.2466246738
 21
31.0409434933
  0
LWPOLYLINE
  5
22D
100
AcDbEntity
  8
ASSI
100
AcDbPolyline
 62
7
  6
CONTINUOUS
 90
4
 70
0
 10
-2.1068044325
 20
31.0984395609
 10
-2.1778723305
 20
31.0748741222
 10
-2.2443852465
 20
31.0422413909
 10
-2.2681834691
 20
31.0276588648
  0
LWPOLYLINE
  5
22E
100
AcDbEntity
  8
RACCORDO
100
AcDbPolyline
 62
250
  6
CONTINUOUS
 90
23
 70
0
 10
-8.400472325
 20
26.2353858906
 10
-8.4297481852
 20
26.211739057
 10
-8.4552981677
 20
26.1907001178
 10
-8.4773426706
 20
26.1721264459
 10
-8.4965505373
 20
26.1555996242
 10
-8.5128860049
 20
26.1411536273
 10
-8.5263798836
 20
26.1287478563
 10
-8.5378036627
 20
26.1178555291
 10
-8.5472111386
 20
26.1084415277
 10
-8.5545457641
 20
26.1005370575
 10
-8.5604159719
 20
26.0937180489
 10
-8.5648754624
 20
26.0879485579
 10
-8.5678696978
 20
26.0832631243
 10
-8.5698464479
 20
26.0793456888
 10
-8.5708488709
 20
26.0761684329
 10
-8.5708342489
 20
26.0737595103
 10
-8.5701225229
 20
26.0718881824
 10
-8.5687486328
 20
26.0705322899
 10
-8.5666786991
 20
26.0697152153
 10
-8.564129862
 20
26.0692751503
 10
-8.5611749404
 20
26.0691587073
 10
-8.5577423148
 20
26.0694207418
 10
-8.5538325596
 20
26.0700619563
  0
LWPOLYLINE
  5
22F
100
AcDbEntity
  8
ASSI
100
AcDbPolyline
 62
250
  6
CONTINUOUS
 90
23
 70
0
 10
-8.400472325
 20
26.2353858906
 10
-8.4297481852
 20
26.211739057
 10
-8.4552981677
 20
26.1907001178
 10
-8.4773426706
 20
26.1721264459
 10
-8.4965505373
 20
26.1555996242
 10
-8.5128860049
 20
26.1411536273
 10
-8.5263798836
 20
26.1287478563
 10
-8.5378036627
 20
26.1178555291
 10
-8.5472111386
 20
26.1084415277
 10
-8.5545457641
 20
26.1005370575
 10
-8.5604159719
 20
26.0937180489
 10
-8.5648754624
 20
26.0879485579
 10
-8.5678696978
 20
26.0832631243
 10
-8.5698464479
 20
26.0793456888
 10
-8.5708488709
 20
26.0761684329
 10
-8.5708342489
 20
26.0737595103
 10
-8.5701225229
 20
26.0718881824
 10
-8.5687486328
 20
26.0705322899
 10
-8.5666786991
 20
26.0697152153
 10
-8.564129862
 20
26.0692751503
 10
-8.5611749404
 20
26.0691587073
 10
-8.5577423148
 20
26.0694207418
 10
-8.5538325596
 20
26.0700619563
  0
LINE
  5
230
100
AcDbEntity
  8
RACCORDO
100
AcDbLine
 62
250
  6
CONTINUOUS
 10
-8.3676968173
 20
26.2615051802
 11
-8.400472325
 21
26.2353858906
  0
LINE
  5
231
100
AcDbEntity
  8
ASSI
100
AcDbLine
 62
250
  6
CONTINUOUS
 10
-8.3676968173
 20
26.2615051802
 11
-8.400472325
 21
26.2353858906
  0
LINE
  5
232
100
AcDbEntity
  8
RACCORDO
100
AcDbLine
 62
250
  6
CONTINUOUS
 10
-8.3314233574
 20
26.2900988194
 11
-8.3676968173
 21
26.2615051802
  0
LINE
  5
233
100
AcDbEntity
  8
ASSI
100
AcDbLine
 62
250
  6
CONTINUOUS
 10
-8.3314233574
 20
26.2900988194
 11
-8.3676968173
 21
26.2615051802
  0
LINE
  5
234
100
AcDbEntity
  8
RACCORDO
100
AcDbLine
 62
250
  6
CONTINUOUS
 10
-8.1420683252
 20
26.0935099984
 11
-10.2889889474
 21
24.4120180743
  0
LINE
  5
235
100
AcDbEntity
  8
ASSI
100
AcDbLine
 62
250
  6
CONTINUOUS
 10
-8.1420683252
 20
26.0935099984
 11
-10.2889889474
 21
24.4120180743
  0
LINE
  5
236
100
AcDbEntity
  8
RACCORDO
100
AcDbLine
 62
250
  6
CONTINUOUS
 10
-2.2883970425
 20
31.0133148852
 11
-8.3314233574
 21
26.2900988194
  0
LINE
  5
237
100
AcDbEntity
  8
ASSI
100
AcDbLine
 62
250
  6
CONTINUOUS
 10
-2.2883970425
 20
31.0133148852
 11
-8.3314233574
 21
26.2900988194
  0
LINE
  5
238
100
AcDbEntity
  8
RACCORDO
100
AcDbLine
 62
250
  6
CONTINUOUS
 10
-1.9319329441
 20
31.0233019634
 11
-7.9759336292
 21
26.2994533878
  0
LINE
  5
239
100
AcDbEntity
  8
ASSI
100
AcDbLine
 62
250
  6
CONTINUOUS
 10
-1.9319329441
 20
31.0233019634
 11
-7.9759336292
 21
26.2994533878
  0
LINE
  5
23A
100
AcDbEntity
  8
0
100
AcDbLine
 62
7
  6
CONTINUOUS
 10
-3.1510765849
 20
30.3970858014
 11
-14.0267522021
 21
21.9080454979
  0
LINE
  5
23B
100
AcDbEntity
  8
ASSI
100
AcDbLine
 62
7
  6
CONTINUOUS
 10
-3.1510765849
 20
30.3970858014
 11
-14.0267522021
 21
21.9080454979
  0
LINE
  5
23C
100
AcDbEntity
  8
RACCORDO
100
AcDbLine
 62
250
  6
CONTINUOUS
 10
-3.1510764806
 20
30.3970858828
 11
-3.0108350199
 21
30.5049573823
  0
LINE
  5
23D
100
AcDbEntity
  8
ASSI
100
AcDbLine
 62
250
  6
CONTINUOUS
 10
-3.1510764806
 20
30.3970858828
 11
-3.0108350199
 21
30.5049573823
  0
LWPOLYLINE
  5
23E
100
AcDbEntity
  8
RACCORDO
100
AcDbPolyline
 62
250
  6
CONTINUOUS
 90
5
 70
0
 10
-3.0108350199
 20
30.5049573823
 10
-2.869410784
 20
30.610580329
 10
-2.7264452702
 20
30.714234791
 10
-2.5819404865
 20
30.8159187898
 10
-2.4359200345
 20
30.9156152001
  0
LWPOLYLINE
  5
23F
100
AcDbEntity
  8
ASSI
100
AcDbPolyline
 62
250
  6
CONTINUOUS
 90
5
 70
0
 10
-3.0108350199
 20
30.5049573823
 10
-2.869410784
 20
30.610580329
 10
-2.7264452702
 20
30.714234791
 10
-2.5819404865
 20
30.8159187898
 10
-2.4359200345
 20
30.9156152001
  0
LWPOLYLINE
  5
240
100
AcDbEntity
  8
RACCORDO
100
AcDbPolyline
 62
250
  6
CONTINUOUS
 90
3
 70
0
 10
-7.7785093707
 20
26.093100177
 10
-7.7540798501
 20
26.1110024137
 10
-7.7298669673
 20
26.1257647731
  0
LWPOLYLINE
  5
241
100
AcDbEntity
  8
ASSI
100
AcDbPolyline
 62
250
  6
CONTINUOUS
 90
3
 70
0
 10
-7.7785093707
 20
26.093100177
 10
-7.7540798501
 20
26.1110024137
 10
-7.7298669673
 20
26.1257647731
  0
LINE
  5
242
100
AcDbEntity
  8
RACCORDO
100
AcDbLine
 62
250
  6
CONTINUOUS
 10
-2.2694838472
 20
31.0268283597
 11
-2.2883970397
 21
31.013314887
  0
LINE
  5
243
100
AcDbEntity
  8
ASSI
100
AcDbLine
 62
250
  6
CONTINUOUS
 10
-2.2694838472
 20
31.0268283597
 11
-2.2883970397
 21
31.013314887
  0
LWPOLYLINE
  5
244
100
AcDbEntity
  8
ASSI
100
AcDbPolyline
 62
7
  6
CONTINUOUS
 90
8
 70
0
 10
-2.4702450801
 20
30.8931892271
 10
-2.5695976576
 20
30.8250101998
 10
-2.6682586524
 20
30.7559293917
 10
-2.766224583
 20
30.6859494563
 10
-2.8634932573
 20
30.6150721252
 10
-2.9600611903
 20
30.5433000527
 10
-3.0559236515
 20
30.470636874
 10
-3.1510765849
 20
30.3970858014
  0
LWPOLYLINE
  5
245
100
AcDbEntity
  8
RACCORDO
100
AcDbPolyline
 62
7
  6
CONTINUOUS
 90
9
 70
0
 10
-2.3702057382
 20
30.960462956
 10
-2.4702450801
 20
30.8931892271
 10
-2.5695976576
 20
30.8250101998
 10
-2.6682586524
 20
30.7559293917
 10
-2.766224583
 20
30.6859494563
 10
-2.8634932573
 20
30.6150721252
 10
-2.9600611903
 20
30.5433000527
 10
-3.0559236515
 20
30.470636874
 10
-3.1510765849
 20
30.3970858014
  0
LINE
  5
246
100
AcDbEntity
  8
ASSI
100
AcDbLine
 62
7
  6
CONTINUOUS
 10
-2.3702057382
 20
30.960462956
 11
-2.4702450801
 21
30.8931892271
  0
LINE
  5
247
100
AcDbEntity
  8
RACCORDO
100
AcDbLine
 62
250
  6
CONTINUOUS
 10
-2.4359200345
 20
30.9156152001
 11
-2.2883970425
 21
31.0133148852
  0
LINE
  5
248
100
AcDbEntity
  8
ASSI
100
AcDbLine
 62
250
  6
CONTINUOUS
 10
-2.4359200345
 20
30.9156152001
 11
-2.2883970425
 21
31.0133148852
  0
LINE
  5
249
100
AcDbEntity
  8
RACCORDO
100
AcDbLine
 62
7
  6
CONTINUOUS
 10
-2.2694838472
 20
31.0268283597
 11
-2.3702057382
 21
30.960462956
  0
LINE
  5
24A
100
AcDbEntity
  8
ASSI
100
AcDbLine
 62
7
  6
CONTINUOUS
 10
-2.2694838472
 20
31.0268283597
 11
-2.3702057382
 21
30.960462956
  0
LINE
  5
24B
100
AcDbEntity
  8
RACCORDO
100
AcDbLine
 62
7
  6
CONTINUOUS
 10
-2.269060761
 20
31.0271037309
 11
-2.2694838472
 21
31.0268283597
  0
LINE
  5
24C
100
AcDbEntity
  8
RACCORDO
100
AcDbLine
 62
7
  6
CONTINUOUS
 10
-2.2466246738
 20
31.0409434933
 11
-2.2690551459
 21
31.0270950124
  0
LWPOLYLINE
  5
24D
100
AcDbEntity
  8
RACCORDO
100
AcDbPolyline
 62
7
  6
CONTINUOUS
 90
6
 70
0
 10
-13.9418965306
 20
21.8739655472
 10
-13.5857836096
 20
22.0814246957
 10
-13.0993861575
 20
22.3378076364
 10
-12.6005525873
 20
22.5744513826
 10
-12.0888456684
 20
22.7916192015
 10
-11.5642654008
 20
22.989311093
  0
LWPOLYLINE
  5
24E
100
AcDbEntity
  8
RACCORDO
100
AcDbPolyline
 62
250
  6
CONTINUOUS
 90
3
 70
0
 10
-7.7298669673
 20
26.1257647731
 10
-7.7060468668
 20
26.1372799881
 10
-7.6827927203
 20
26.1454644703
  0
LWPOLYLINE
  5
24F
100
AcDbEntity
  8
ASSI
100
AcDbPolyline
 62
250
  6
CONTINUOUS
 90
3
 70
0
 10
-7.7298669673
 20
26.1257647731
 10
-7.7060468668
 20
26.1372799881
 10
-7.6827927203
 20
26.1454644703
  0
LWPOLYLINE
  5
250
100
AcDbEntity
  8
RACCORDO
100
AcDbPolyline
 62
7
  6
CONTINUOUS
 90
10
 70
0
 10
-3.5532879745
 20
26.6284714857
 10
-3.6570744254
 20
26.5825635615
 10
-3.7567987393
 20
26.5332621906
 10
-3.852251615
 20
26.4806195244
 10
-3.9430993368
 20
26.4247595401
 10
-4.0288602661
 20
26.365938806
 10
-4.1093894406
 20
26.30422553
 10
-4.1844152663
 20
26.2397863743
 10
-4.2534164079
 20
26.1730799417
 10
-4.3162666173
 20
26.1042956985
  0
LWPOLYLINE
  5
251
100
AcDbEntity
  8
RACCORDO
100
AcDbPolyline
 62
250
  6
CONTINUOUS
 90
6
 70
0
 10
-3.5587527657
 20
26.5715358265
 10
-3.4692466261
 20
26.610633792
 10
-3.376182731
 20
26.6471937113
 10
-3.2802709313
 20
26.6809354215
 10
-3.1814884533
 20
26.7118373236
 10
-3.0798580706
 20
26.7399210165
  0
LWPOLYLINE
  5
252
100
AcDbEntity
  8
RACCORDO
100
AcDbPolyline
 62
7
  6
CONTINUOUS
 90
5
 70
0
 10
-10.1027851077
 20
24.4587777903
 10
-10.1087763503
 20
24.4562105719
 10
-10.1145874224
 20
24.453753418
 10
-10.1202208886
 20
24.4514090612
 10
-10.1256793955
 20
24.4491799507
  0
LWPOLYLINE
  5
253
100
AcDbEntity
  8
ASSI
100
AcDbPolyline
 62
7
  6
CONTINUOUS
 90
6
 70
0
 10
-9.9562417798
 20
24.5218985013
 10
-10.1087763503
 20
24.4562105719
 10
-10.1145874224
 20
24.453753418
 10
-10.1202208886
 20
24.4514090612
 10
-10.1256793955
 20
24.4491799507
 10
-10.1309656639
 20
24.4470682584
  0
LINE
  5
254
100
AcDbEntity
  8
RACCORDO
100
AcDbLine
 62
250
  6
CONTINUOUS
 10
-10.2704974417
 20
24.4197228357
 11
-10.288988196
 21
24.4120168955
  0
LINE
  5
255
100
AcDbEntity
  8
ASSI
100
AcDbLine
 62
250
  6
CONTINUOUS
 10
-10.2704974417
 20
24.4197228357
 11
-10.288988196
 21
24.4120168955
  0
LWPOLYLINE
  5
256
100
AcDbEntity
  8
RACCORDO
100
AcDbPolyline
 62
7
  6
CONTINUOUS
 90
5
 70
0
 10
-12.0109826122
 20
22.6075831186
 10
-12.5674945825
 20
22.3813127916
 10
-13.1132382204
 20
22.1342618082
 10
-13.6477820102
 20
21.8666084598
 10
-13.7640707583
 20
21.8025467081
  0
LINE
  5
257
100
AcDbEntity
  8
RACCORDO
100
AcDbLine
 62
7
  6
CONTINUOUS
 10
-10.1256793955
 20
24.4491799507
 11
-10.1309656639
 21
24.4470682584
  0
LWPOLYLINE
  5
258
100
AcDbEntity
  8
RACCORDO
100
AcDbPolyline
 62
7
  6
CONTINUOUS
 90
3
 70
0
 10
-10.1309656639
 20
24.4470682584
 10
-10.1459240227
 20
24.4413123936
 10
-10.1601372246
 20
24.4361339461
  0
LWPOLYLINE
  5
259
100
AcDbEntity
  8
ASSI
100
AcDbPolyline
 62
7
  6
CONTINUOUS
 90
3
 70
0
 10
-10.1309656639
 20
24.4470682584
 10
-10.1459240227
 20
24.4413123936
 10
-10.1601372246
 20
24.4361339461
  0
LINE
  5
25A
100
AcDbEntity
  8
0
100
AcDbLine
 62
7
  6
CONTINUOUS
 10
-11.1548321768
 20
23.1231875275
 11
-11.5009462851
 21
23.0029100001
  0
LINE
  5
25B
100
AcDbEntity
  8
ASSI
100
AcDbLine
 62
7
  6
CONTINUOUS
 10
-11.1548321768
 20
23.1231875275
 11
-11.5616593066
 21
22.9818117209
  0
LWPOLYLINE
  5
25C
100
AcDbEntity
  8
RACCORDO
100
AcDbPolyline
 62
7
  6
CONTINUOUS
 90
5
 70
0
 10
-10.1601372246
 20
24.4361339461
 10
-10.1736049757
 20
24.4315325815
 10
-10.1862957598
 20
24.4275357543
 10
-10.1982404793
 20
24.4241153109
 10
-10.2095325524
 20
24.421187626
  0
LWPOLYLINE
  5
25D
100
AcDbEntity
  8
ASSI
100
AcDbPolyline
 62
7
  6
CONTINUOUS
 90
4
 70
0
 10
-10.1601372246
 20
24.4361339461
 10
-10.1736049757
 20
24.4315325815
 10
-10.1862957598
 20
24.4275357543
 10
-10.1982404793
 20
24.4241153109
  0
LWPOLYLINE
  5
25E
100
AcDbEntity
  8
0
100
AcDbPolyline
 62
7
  6
CONTINUOUS
 90
4
 70
0
 10
-3.9735237801
 20
26.4730810862
 10
-3.8557152599
 20
26.512425134
 10
-3.7143221759
 20
26.5548387276
 10
-3.71177786
 20
26.5555194615
  0
LWPOLYLINE
  5
25F
100
AcDbEntity
  8
RACCORDO
100
AcDbPolyline
 62
7
  6
CONTINUOUS
 90
10
 70
0
 10
-8.8006929675
 20
24.9512645222
 10
-8.9482516375
 20
24.9028846587
 10
-9.0949250847
 20
24.8529912464
 10
-9.2407133092
 20
24.8015842851
 10
-9.3856252652
 20
24.7486602912
 10
-9.5296519983
 20
24.6942227483
 10
-9.6727666466
 20
24.6382821078
 10
-9.8149602557
 20
24.5808418534
 10
-9.9562417798
 20
24.5218985013
 10
-10.1027851077
 20
24.4587777903
  0
LWPOLYLINE
  5
260
100
AcDbEntity
  8
ASSI
100
AcDbPolyline
 62
7
  6
CONTINUOUS
 90
9
 70
0
 10
-8.8006929675
 20
24.9512645222
 10
-8.9482516375
 20
24.9028846587
 10
-9.0949250847
 20
24.8529912464
 10
-9.2407133092
 20
24.8015842851
 10
-9.3856252652
 20
24.7486602912
 10
-9.5296519983
 20
24.6942227483
 10
-9.6727666466
 20
24.6382821078
 10
-9.8149602557
 20
24.5808418534
 10
-9.9562417798
 20
24.5218985013
  0
LINE
  5
261
100
AcDbEntity
  8
RACCORDO
100
AcDbLine
 62
250
  6
CONTINUOUS
 10
-10.2516991097
 20
24.4258295984
 11
-10.2704974417
 21
24.4197228357
  0
LWPOLYLINE
  5
262
100
AcDbEntity
  8
RACCORDO
100
AcDbPolyline
 62
250
  6
CONTINUOUS
 90
9
 70
0
 10
-22.8592831355
 20
-16.1724080729
 10
-22.8586220303
 20
-16.191857616
 10
-22.8509455882
 20
-16.2268894318
 10
-22.8350464271
 20
-16.2612770213
 10
-22.8111905879
 20
-16.2944449766
 10
-22.7797772505
 20
-16.3258382976
 10
-22.7413320547
 20
-16.3549316794
 10
-22.6964983045
 20
-16.3812383023
 10
-22.6460262034
 20
-16.4043179771
  0
LWPOLYLINE
  5
263
100
AcDbEntity
  8
RACCORDO
100
AcDbPolyline
 62
7
  6
CONTINUOUS
 90
13
 70
0
 10
-22.859276012
 20
-16.1723845329
 10
-22.8591371568
 20
-16.2478306582
 10
-22.8514632222
 20
-16.3399337411
 10
-22.8352250847
 20
-16.4283913244
 10
-22.81025144
 20
-16.5125030811
 10
-22.7774458401
 20
-16.5897341713
 10
-22.7381536455
 20
-16.6587662876
 10
-22.692732927
 20
-16.720491111
 10
-22.6415211607
 20
-16.7752121144
 10
-22.5856860921
 20
-16.8222722211
 10
-22.5259928288
 20
-16.8616103132
 10
-22.4619802434
 20
-16.8937038805
 10
-22.4487583445
 20
-16.8991953412
  0
LWPOLYLINE
  5
264
100
AcDbEntity
  8
RACCORDO
100
AcDbPolyline
 62
7
  6
CONTINUOUS
 90
7
 70
0
 10
-12.7015889126
 20
21.6498400674
 10
-12.7109368517
 20
21.6398497849
 10
-12.7431110977
 20
21.6002306791
 10
-12.7711414506
 20
21.5565983124
 10
-12.7948151614
 20
21.5086034394
 10
-12.8134901005
 20
21.4562827015
 10
-12.8209534049
 20
21.4237695169
  0
LINE
  5
265
100
AcDbEntity
  8
DRAFT
100
AcDbLine
 62
7
  6
CONTINUOUS
 10
-12.4039217963
 20
21.9588736972
 11
-12.7017080119
 21
21.6497165065
  0
LINE
  5
266
100
AcDbEntity
  8
RACCORDO
100
AcDbLine
 62
250
  6
CONTINUOUS
 10
-12.7015899028
 20
21.6498390394
 11
-12.7017086567
 21
21.649715837
  0
LWPOLYLINE
  5
267
100
AcDbEntity
  8
0
100
AcDbPolyline
 62
7
  6
CONTINUOUS
 90
9
 70
0
 10
-10.6388799179
 20
23.0141949002
 10
-10.6142863428
 20
23.037610898
 10
-10.5921440029
 20
23.0661435042
 10
-10.5742378617
 20
23.0985792458
 10
-10.5604293167
 20
23.1347904175
 10
-10.5511802392
 20
23.1735658198
 10
-10.5466445863
 20
23.2145017194
 10
-10.546668401
 20
23.2580018495
 10
-10.5512516831
 20
23.3040662102
  0
LWPOLYLINE
  5
268
100
AcDbEntity
  8
ASSI
100
AcDbPolyline
 62
7
  6
CONTINUOUS
 90
9
 70
0
 10
-10.6388799179
 20
23.0141949002
 10
-10.6142863428
 20
23.037610898
 10
-10.5921440029
 20
23.0661435042
 10
-10.5742378617
 20
23.0985792458
 10
-10.5604293167
 20
23.1347904175
 10
-10.5511802392
 20
23.1735658198
 10
-10.5466445863
 20
23.2145017194
 10
-10.546668401
 20
23.2580018495
 10
-10.5512516831
 20
23.3040662102
  0
LWPOLYLINE
  5
269
100
AcDbEntity
  8
SMUSSO
100
AcDbPolyline
 62
7
  6
CONTINUOUS
 90
12
 70
0
 10
-4.5468903555
 20
27.8852786858
 10
-4.6304930603
 20
27.811791568
 10
-4.7061903257
 20
27.7357693803
 10
-4.7737710875
 20
27.6574865666
 10
-4.8330177015
 20
27.5772822194
 10
-4.8838241001
 20
27.4953825575
 10
-4.9261413618
 20
27.4118890621
 10
-4.9598441551
 20
27.3270286535
 10
-4.9847868393
 20
27.2411412352
 10
-5.0008827438
 20
27.1544945624
 10
-5.0080731771
 20
27.0673848297
 10
-5.0084889092
 20
27.0407960942
  0
LWPOLYLINE
  5
26A
100
AcDbEntity
  8
ASSI
100
AcDbPolyline
 62
7
  6
CONTINUOUS
 90
12
 70
0
 10
-4.5468903555
 20
27.8852786858
 10
-4.6304930603
 20
27.811791568
 10
-4.7061903257
 20
27.7357693803
 10
-4.7737710875
 20
27.6574865666
 10
-4.8330177015
 20
27.5772822194
 10
-4.8838241001
 20
27.4953825575
 10
-4.9261413618
 20
27.4118890621
 10
-4.9598441551
 20
27.3270286535
 10
-4.9847868393
 20
27.2411412352
 10
-5.0008827438
 20
27.1544945624
 10
-5.0080731771
 20
27.0673848297
 10
-5.0084889092
 20
27.0407960942
  0
LWPOLYLINE
  5
26B
100
AcDbEntity
  8
SMUSSO
100
AcDbPolyline
 62
7
  6
CONTINUOUS
 90
25
 70
0
 10
-4.9565272618
 20
28.4595631462
 10
-5.0564160213
 20
28.3720654428
 10
-5.1465054812
 20
28.2821910937
 10
-5.2267956415
 20
28.1899400989
 10
-5.2974296479
 20
28.0950489207
 10
-5.3582643546
 20
27.9977810967
 10
-5.4088703248
 20
27.8989272406
 10
-5.449213647
 20
27.7984159679
 10
-5.4793282326
 20
27.696318663
 10
-5.4988863792
 20
27.5936400921
 10
-5.5077864366
 20
27.4903773486
 10
-5.506130055
 20
27.3865333392
 10
-5.4938944816
 20
27.2831215505
 10
-5.4709482428
 20
27.1801050989
 10
-5.4374228123
 20
27.0775208681
 10
-5.3936898581
 20
26.9764929959
 10
-5.3396520007
 20
26.8770829272
 10
-5.2754066196
 20
26.7792292171
 10
-5.2016175206
 20
26.6838716689
 10
-5.1182102013
 20
26.5910404895
 10
-5.0252591641
 20
26.500705472
 10
-4.9236517221
 20
26.4137157992
 10
-4.8133172525
 20
26.3300981115
 10
-4.6943263781
 20
26.2498257684
 10
-4.6374078521
 20
26.2144905252
  0
LWPOLYLINE
  5
26C
100
AcDbEntity
  8
ASSI
100
AcDbPolyline
 62
7
  6
CONTINUOUS
 90
25
 70
0
 10
-4.9565272618
 20
28.4595631462
 10
-5.0564160213
 20
28.3720654428
 10
-5.1465054812
 20
28.2821910937
 10
-5.2267956415
 20
28.1899400989
 10
-5.2974296479
 20
28.0950489207
 10
-5.3582643546
 20
27.9977810967
 10
-5.4088703248
 20
27.8989272406
 10
-5.449213647
 20
27.7984159679
 10
-5.4793282326
 20
27.696318663
 10
-5.4988863792
 20
27.5936400921
 10
-5.5077864366
 20
27.4903773486
 10
-5.506130055
 20
27.3865333392
 10
-5.4938944816
 20
27.2831215505
 10
-5.4709482428
 20
27.1801050989
 10
-5.4374228123
 20
27.0775208681
 10
-5.3936898581
 20
26.9764929959
 10
-5.3396520007
 20
26.8770829272
 10
-5.2754066196
 20
26.7792292171
 10
-5.2016175206
 20
26.6838716689
 10
-5.1182102013
 20
26.5910404895
 10
-5.0252591641
 20
26.500705472
 10
-4.9236517221
 20
26.4137157992
 10
-4.8133172525
 20
26.3300981115
 10
-4.6943263781
 20
26.2498257684
 10
-4.6374078092
 20
26.2144904993
  0
LINE
  5
26D
100
AcDbEntity
  8
RACCORDO
100
AcDbLine
 62
250
  6
CONTINUOUS
 10
-11.5642654008
 20
22.989311093
 11
-12.0109826122
 21
22.6075831186
  0
LINE
  5
26E
100
AcDbEntity
  8
RACCORDO
100
AcDbLine
 62
250
  6
CONTINUOUS
 10
-11.3174440419
 20
22.9729226421
 11
-11.7598628361
 21
22.5948406086
  0
LWPOLYLINE
  5
26F
100
AcDbEntity
  8
RACCORDO
100
AcDbPolyline
 62
250
  6
CONTINUOUS
 90
11
 70
0
 10
-7.9759336292
 20
26.2994533878
 10
-7.994825722
 20
26.2835802468
 10
-8.0110432792
 20
26.2689307756
 10
-8.0245499954
 20
26.2553782003
 10
-8.0350751752
 20
26.2426816707
 10
-8.0428446072
 20
26.2308210822
 10
-8.0485810076
 20
26.2199891243
 10
-8.0523136249
 20
26.2100905553
 10
-8.0540170358
 20
26.2009370179
 10
-8.0543386708
 20
26.1925949249
 10
-8.0542733407
 20
26.1920906517
  0
LWPOLYLINE
  5
270
100
AcDbEntity
  8
ASSI
100
AcDbPolyline
 62
250
  6
CONTINUOUS
 90
11
 70
0
 10
-7.9759336292
 20
26.2994533878
 10
-7.994825722
 20
26.2835802468
 10
-8.0110432792
 20
26.2689307756
 10
-8.0245499954
 20
26.2553782003
 10
-8.0350751752
 20
26.2426816707
 10
-8.0428446072
 20
26.2308210822
 10
-8.0485810076
 20
26.2199891243
 10
-8.0523136249
 20
26.2100905553
 10
-8.0540170358
 20
26.2009370179
 10
-8.0543386708
 20
26.1925949249
 10
-8.0542733407
 20
26.1920906517
  0
LINE
  5
271
100
AcDbEntity
  8
RACCORDO
100
AcDbLine
 62
7
  6
CONTINUOUS
 10
-1.8756189111
 20
31.0006849782
 11
-4.9565272618
 21
28.4595631462
  0
LINE
  5
272
100
AcDbEntity
  8
ASSI
100
AcDbLine
 62
7
  6
CONTINUOUS
 10
-1.8756189111
 20
31.0006849782
 11
-4.9565272618
 21
28.4595631462
  0
LINE
  5
273
100
AcDbEntity
  8
SMUSSO
100
AcDbLine
 62
7
  6
CONTINUOUS
 10
-1.1912218501
 20
30.6530216788
 11
-4.5468903555
 21
27.8852786858
  0
LINE
  5
274
100
AcDbEntity
  8
ASSI
100
AcDbLine
 62
7
  6
CONTINUOUS
 10
-1.1912218501
 20
30.6530216788
 11
-4.5468903555
 21
27.8852786858
  0
LINE
  5
275
100
AcDbEntity
  8
0
100
AcDbLine
 62
7
  6
CONTINUOUS
 10
-7.3915718628
 20
25.0409078614
 11
-8.5660558397
 21
24.0721978138
  0
LINE
  5
276
100
AcDbEntity
  8
ASSI
100
AcDbLine
 62
7
  6
CONTINUOUS
 10
-7.3915718628
 20
25.0409078614
 11
-8.5660558397
 21
24.0721978138
  0
LINE
  5
277
100
AcDbEntity
  8
0
100
AcDbLine
 62
7
  6
CONTINUOUS
 10
-8.2516815191
 20
25.1157901631
 11
-8.7563932504
 21
24.7176981034
  0
LINE
  5
278
100
AcDbEntity
  8
ASSI
100
AcDbLine
 62
7
  6
CONTINUOUS
 10
-8.2516815191
 20
25.1157901631
 11
-8.7563932504
 21
24.7176981034
  0
LINE
  5
279
100
AcDbEntity
  8
0
100
AcDbLine
 62
7
  6
CONTINUOUS
 10
-8.7563932504
 20
24.7176981034
 11
-9.2647353531
 21
24.3170248427
  0
LINE
  5
27A
100
AcDbEntity
  8
ASSI
100
AcDbLine
 62
7
  6
CONTINUOUS
 10
-8.7563932504
 20
24.7176981034
 11
-9.2647353531
 21
24.3170248427
  0
LINE
  5
27B
100
AcDbEntity
  8
0
100
AcDbLine
 62
7
  6
CONTINUOUS
 10
-9.2647353531
 20
24.3170248427
 11
-9.7766764939
 21
23.9137588852
  0
LINE
  5
27C
100
AcDbEntity
  8
ASSI
100
AcDbLine
 62
7
  6
CONTINUOUS
 10
-9.2647353531
 20
24.3170248427
 11
-9.7766764939
 21
23.9137588852
  0
LINE
  5
27D
100
AcDbEntity
  8
0
100
AcDbLine
 62
7
  6
CONTINUOUS
 10
-10.2921744445
 20
23.5079425229
 11
-10.5512516831
 21
23.3040662102
  0
LINE
  5
27E
100
AcDbEntity
  8
ASSI
100
AcDbLine
 62
7
  6
CONTINUOUS
 10
-10.2921744445
 20
23.5079425229
 11
-10.5512516831
 21
23.3040662102
  0
LINE
  5
27F
100
AcDbEntity
  8
0
100
AcDbLine
 62
7
  6
CONTINUOUS
 10
-9.7766764939
 20
23.9137588852
 11
-10.2921744445
 21
23.5079425229
  0
LINE
  5
280
100
AcDbEntity
  8
ASSI
100
AcDbLine
 62
7
  6
CONTINUOUS
 10
-9.7766764939
 20
23.9137588852
 11
-10.2921744445
 21
23.5079425229
  0
LINE
  5
281
100
AcDbEntity
  8
0
100
AcDbLine
 62
250
  6
CONTINUOUS
 10
-8.0527316241
 20
25.1695868466
 11
-10.3637608779
 21
23.3544654547
  0
LINE
  5
282
100
AcDbEntity
  8
ASSI
100
AcDbLine
 62
250
  6
CONTINUOUS
 10
-8.0527316241
 20
25.1695868466
 11
-10.3637608779
 21
23.3544654547
  0
LINE
  5
283
100
AcDbEntity
  8
0
100
AcDbLine
 62
250
  6
CONTINUOUS
 10
-7.5994653407
 20
25.124402569
 11
-9.9110276733
 21
23.3091413703
  0
LINE
  5
284
100
AcDbEntity
  8
ASSI
100
AcDbLine
 62
250
  6
CONTINUOUS
 10
-7.5994653407
 20
25.124402569
 11
-9.9110276733
 21
23.3091413703
  0
LINE
  5
285
100
AcDbEntity
  8
DRAFT
100
AcDbLine
 62
7
  6
CONTINUOUS
 10
-9.5349246946
 20
22.3389378908
 11
-9.6039624038
 21
22.2847497867
  0
LINE
  5
286
100
AcDbEntity
  8
RACCORDO
100
AcDbLine
 62
250
  6
CONTINUOUS
 10
-7.8730847084
 20
26.0862071699
 11
-9.7742074627
 21
24.5973042725
  0
LINE
  5
287
100
AcDbEntity
  8
ASSI
100
AcDbLine
 62
250
  6
CONTINUOUS
 10
-7.8730847084
 20
26.0862071699
 11
-9.7742074627
 21
24.5973042725
  0
LINE
  5
288
100
AcDbEntity
  8
0
100
AcDbLine
 62
7
  6
CONTINUOUS
 10
-10.3640952209
 20
23.7377234987
 11
-11.1548321768
 21
23.1231875275
  0
LINE
  5
289
100
AcDbEntity
  8
ASSI
100
AcDbLine
 62
7
  6
CONTINUOUS
 10
-10.3640952209
 20
23.7377234987
 11
-11.1548321768
 21
23.1231875275
  0
LINE
  5
28A
100
AcDbEntity
  8
0
100
AcDbLine
 62
7
  6
CONTINUOUS
 10
-9.5793884298
 20
24.3470893444
 11
-10.3640952209
 21
23.7377234987
  0
LINE
  5
28B
100
AcDbEntity
  8
ASSI
100
AcDbLine
 62
7
  6
CONTINUOUS
 10
-9.5793884298
 20
24.3470893444
 11
-10.3640952209
 21
23.7377234987
  0
LWPOLYLINE
  5
28C
100
AcDbEntity
  8
0
100
AcDbPolyline
 62
7
  6
CONTINUOUS
 90
3
 70
0
 10
-8.8006929675
 20
24.9512645222
 10
-9.0595884776
 20
24.7504423939
 10
-9.5793884298
 20
24.3470893444
  0
LWPOLYLINE
  5
28D
100
AcDbEntity
  8
ASSI
100
AcDbPolyline
 62
7
  6
CONTINUOUS
 90
3
 70
0
 10
-8.8006929675
 20
24.9512645222
 10
-9.0595884776
 20
24.7504423939
 10
-9.5793884298
 20
24.3470893444
  0
LINE
  5
28E
100
AcDbEntity
  8
DRAFT
100
AcDbLine
 62
7
  6
CONTINUOUS
 10
-4.5468903555
 20
26.8423587722
 11
-1.1912218501
 21
29.4383122407
  0
LINE
  5
28F
100
AcDbEntity
  8
ASSI
100
AcDbLine
 62
7
  6
CONTINUOUS
 10
-4.5468903555
 20
26.8423587722
 11
-1.1912218501
 21
29.4383122407
  0
LINE
  5
290
100
AcDbEntity
  8
DRAFT
100
AcDbLine
 62
7
  6
CONTINUOUS
 10
-3.6348979712
 20
26.7321766053
 11
-4.4469155151
 21
26.1108710183
  0
LINE
  5
291
100
AcDbEntity
  8
ASSI
100
AcDbLine
 62
7
  6
CONTINUOUS
 10
-3.6348979712
 20
26.7321766053
 11
-4.4469155151
 21
26.1108710183
  0
LINE
  5
292
100
AcDbEntity
  8
RACCORDO
100
AcDbLine
 62
7
  6
CONTINUOUS
 10
-8.3064545142
 20
23.9679360689
 11
-8.1055976745
 21
24.1208205904
  0
LINE
  5
293
100
AcDbEntity
  8
0
100
AcDbLine
 62
7
  6
CONTINUOUS
 10
-7.3915718628
 20
24.1394719856
 11
-7.5683995949
 21
24.0101037826
  0
LINE
  5
294
100
AcDbEntity
  8
ASSI
100
AcDbLine
 62
7
  6
CONTINUOUS
 10
-7.3915718628
 20
24.1394719856
 11
-7.5683995949
 21
24.0101037826
  0
LINE
  5
295
100
AcDbEntity
  8
RACCORDO
100
AcDbLine
 62
7
  6
CONTINUOUS
 10
-8.0904764773
 20
24.1312689022
 11
-8.1057505596
 21
24.1207039486
  0
LWPOLYLINE
  5
296
100
AcDbEntity
  8
RACCORDO
100
AcDbPolyline
 62
250
  6
CONTINUOUS
 90
8
 70
0
 10
-8.1056041368
 20
24.120815671
 10
-8.0975919659
 20
24.1262301555
 10
-8.0818565132
 20
24.1336241068
 10
-8.0644418339
 20
24.1380588749
 10
-8.0456608184
 20
24.1394567872
 10
-8.0258432877
 20
24.1377995989
 10
-8.0053267046
 20
24.1331214953
 10
-7.9844638712
 20
24.1255076623
  0
LINE
  5
297
100
AcDbEntity
  8
DRAFT
100
AcDbLine
 62
7
  6
CONTINUOUS
 10
-11.7235192615
 20
21.0248550831
 11
-11.7637319999
 21
20.9991655661
  0
LINE
  5
298
100
AcDbEntity
  8
RACCORDO
100
AcDbLine
 62
7
  6
CONTINUOUS
 10
3.4103774745
 20
28.8121896338
 11
3.403105706
 21
28.8078361556
  0
LINE
  5
299
100
AcDbEntity
  8
ASSI
100
AcDbLine
 62
7
  6
CONTINUOUS
 10
3.4103774745
 20
28.8121896338
 11
3.403105706
 21
28.8078361556
  0
LINE
  5
29A
100
AcDbEntity
  8
0
100
AcDbLine
 62
7
  6
CONTINUOUS
 10
-5.8285287245
 20
24.9105431911
 11
-6.2281039513
 21
24.6862607304
  0
LINE
  5
29B
100
AcDbEntity
  8
ASSI
100
AcDbLine
 62
7
  6
CONTINUOUS
 10
-5.8285287245
 20
24.9105431911
 11
-6.2281039513
 21
24.6862607304
  0
LINE
  5
29C
100
AcDbEntity
  8
0
100
AcDbLine
 62
7
  6
CONTINUOUS
 10
-2.2368938395
 20
26.014162818
 11
-2.2910751698
 21
25.9895035547
  0
LWPOLYLINE
  5
29D
100
AcDbEntity
  8
ASSI
100
AcDbPolyline
 62
250
  6
CONTINUOUS
 90
3
 70
0
 10
3.7859613157
 20
28.8119898777
 10
3.7573175457
 20
28.8001637592
 10
3.7279842614
 20
28.7834677539
  0
LWPOLYLINE
  5
29E
100
AcDbEntity
  8
RACCORDO
100
AcDbPolyline
 62
250
  6
CONTINUOUS
 90
4
 70
0
 10
-12.0240903365
 20
22.3655670922
 10
-12.5775221436
 20
22.1404059487
 10
-13.1194550273
 20
21.8949725245
 10
-13.5087081393
 20
21.6999873233
  0
LWPOLYLINE
  5
29F
100
AcDbEntity
  8
RACCORDO
100
AcDbPolyline
 62
7
  6
CONTINUOUS
 90
10
 70
0
 10
-11.5642654008
 20
22.989311093
 10
-11.5399345053
 20
22.996535315
 10
-11.5147227444
 20
23.0014911129
 10
-11.488630118
 20
23.0041784867
 10
-11.4615133721
 20
23.0045879246
 10
-11.4335157609
 20
23.0027289385
 10
-11.405067046
 20
22.9986300637
 10
-11.3763104815
 20
22.9923008119
 10
-11.3471028135
 20
22.9837316714
 10
-11.3174440419
 20
22.9729226421
  0
LWPOLYLINE
  5
2A0
100
AcDbEntity
  8
RACCORDO
100
AcDbPolyline
 62
250
  6
CONTINUOUS
 90
13
 70
0
 10
12.6352400871
 20
-30.5740699206
 10
12.690508442
 20
-30.5934579962
 10
12.7496457915
 20
-30.6089085105
 10
12.8116625896
 20
-30.6201629298
 10
12.8755211084
 20
-30.6270329339
 10
12.9401528025
 20
-30.6294035668
 10
13.0044761891
 20
-30.6272351609
 10
13.0674149442
 20
-30.620564
 10
13.1279159128
 20
-30.6095017129
 10
13.1849667315
 20
-30.5942334049
 10
13.2376127683
 20
-30.5750145607
 10
13.2849730964
 20
-30.5521667695
 10
13.3262552349
 20
-30.5260723437
  0
LWPOLYLINE
  5
2A1
100
AcDbEntity
  8
RACCORDO
100
AcDbPolyline
 62
7
  6
CONTINUOUS
 90
11
 70
0
 10
12.8375037276
 20
-31.0709582104
 10
12.8560650345
 20
-31.0781028995
 10
12.9222612205
 20
-31.0982338723
 10
12.9911260332
 20
-31.1109754153
 10
13.0619975503
 20
-31.1159769781
 10
13.1345869504
 20
-31.1129095291
 10
13.2083109952
 20
-31.1013989345
 10
13.2821124744
 20
-31.0812773387
 10
13.3553716721
 20
-31.0524330201
 10
13.4277321096
 20
-31.0146706564
 10
13.4484396042
 20
-31.0020649615
  0
LINE
  5
2A2
100
AcDbEntity
  8
RACCORDO
100
AcDbLine
 62
7
  6
CONTINUOUS
 10
12.8385473765
 20
-31.0713818299
 11
-22.4487599511
 21
-16.8992036734
  0
LINE
  5
2A3
100
AcDbEntity
  8
RACCORDO
100
AcDbLine
 62
7
  6
CONTINUOUS
 10
-22.4486764673
 20
-16.899237194
 11
-22.4487326652
 21
-16.899214632
  0
LINE
  5
2A4
100
AcDbEntity
  8
RACCORDO
100
AcDbLine
 62
250
  6
CONTINUOUS
 10
12.6352400823
 20
-30.5740699242
 11
-22.6460262114
 21
-16.4043179831
  0
LWPOLYLINE
  5
2A5
100
AcDbEntity
  8
RACCORDO
100
AcDbPolyline
 62
250
  6
CONTINUOUS
 90
12
 70
0
 10
-22.4487326652
 20
-16.899214632
 10
-22.4796404777
 20
-16.8838288929
 10
-22.5117469346
 20
-16.8605191551
 10
-22.5408400532
 20
-16.8310093159
 10
-22.5667192399
 20
-16.7955057338
 10
-22.5892173783
 20
-16.7542409369
 10
-22.6081778963
 20
-16.7074880029
 10
-22.6234578386
 20
-16.655579383
 10
-22.6349482489
 20
-16.5988933506
 10
-22.6425702686
 20
-16.5378343357
 10
-22.6462712104
 20
-16.4728242906
 10
-22.6460262114
 20
-16.4043179831
  0
LWPOLYLINE
  5
2A6
100
AcDbEntity
  8
RACCORDO
100
AcDbPolyline
 62
250
  6
CONTINUOUS
 90
9
 70
0
 10
-20.7870874244
 20
19.3515045013
 10
-20.7866174775
 20
19.3283128226
 10
-20.7787371489
 20
19.2967620908
 10
-20.7626586367
 20
19.2654387646
 10
-20.7386509775
 20
19.234866967
 10
-20.7071158838
 20
19.2055582455
 10
-20.6685810219
 20
19.1780030132
 10
-20.6236911832
 20
19.152662343
 10
-20.5731974949
 20
19.1299602519
  0
LWPOLYLINE
  5
2A7
100
AcDbEntity
  8
RACCORDO
100
AcDbPolyline
 62
250
  6
CONTINUOUS
 90
10
 70
0
 10
-22.6460262114
 20
-16.4043179831
 10
-22.5104371898
 20
-12.5259846101
 10
-22.3511286396
 20
-8.6293937889
 10
-22.168113941
 20
-4.7148766028
 10
-21.9614085415
 20
-0.7827656771
 10
-21.7310299488
 20
3.1666049688
 10
-21.4769977267
 20
7.132899952
 10
-21.199333503
 20
11.115782393
 10
-20.8980609702
 20
15.1149139428
 10
-20.5732058751
 20
19.129954933
  0
LWPOLYLINE
  5
2A8
100
AcDbEntity
  8
RACCORDO
100
AcDbPolyline
 62
7
  6
CONTINUOUS
 90
10
 70
0
 10
-20.7870496366
 20
19.3520437985
 10
-21.1043402986
 20
15.4336596244
 10
-21.4081655593
 20
11.4066626006
 10
-21.6880547497
 20
7.3960829247
 10
-21.9439785321
 20
3.4023127957
 10
-22.1759163879
 20
-0.5743236041
 10
-22.3838502545
 20
-4.5335279131
 10
-22.5677615846
 20
-8.4749778292
 10
-22.7276331422
 20
-12.3982903028
 10
-22.8592831355
 20
-16.1724080729
  0
LWPOLYLINE
  5
2A9
100
AcDbEntity
  8
RACCORDO
100
AcDbPolyline
 62
250
  6
CONTINUOUS
 90
19
 70
0
 10
-20.5732058751
 20
19.129954933
 10
-20.5651350565
 20
19.2040063399
 10
-20.5532039993
 20
19.2800848217
 10
-20.53749496
 20
19.3576612481
 10
-20.5181161458
 20
19.436205796
 10
-20.4952024786
 20
19.5151618047
 10
-20.4689188029
 20
19.5939494575
 10
-20.4394604639
 20
19.6720030903
 10
-20.4070305526
 20
19.7487983084
 10
-20.3718395602
 20
19.823824067
 10
-20.3341299952
 20
19.8965681794
 10
-20.2941706561
 20
19.9665135773
 10
-20.2522357422
 20
20.0331645528
 10
-20.2086213768
 20
20.0960575276
 10
-20.1636344706
 20
20.1547549423
 10
-20.1175839341
 20
20.208840665
 10
-20.0707920033
 20
20.2579369802
 10
-20.0235917092
 20
20.3017062597
 10
-19.9763161775
 20
20.339845353
  0
LWPOLYLINE
  5
2AA
100
AcDbEntity
  8
RACCORDO
100
AcDbPolyline
 62
250
  6
CONTINUOUS
 90
10
 70
0
 10
-4.1806314888
 20
26.1186193046
 10
-4.1301263235
 20
26.1763321044
 10
-4.0744688548
 20
26.2326691101
 10
-4.0141044332
 20
26.2871789238
 10
-3.9490040951
 20
26.3398380483
 10
-3.8791968041
 20
26.3906699808
 10
-3.8052148015
 20
26.4392938155
 10
-3.7270298491
 20
26.4856925665
 10
-3.6446701851
 20
26.5298832196
 10
-3.5587527657
 20
26.5715358265
  0
LINE
  5
2AB
100
AcDbEntity
  8
0
100
AcDbLine
 62
7
  6
CONTINUOUS
 10
-3.6747197791
 20
26.4263647602
 11
-4.0762232845
 21
26.097472343
  0
LINE
  5
2AC
100
AcDbEntity
  8
RACCORDO
100
AcDbLine
 62
7
  6
CONTINUOUS
 10
-2.2368938395
 20
26.014162818
 11
-1.3269722392
 21
26.7595269571
  0
LINE
  5
2AD
100
AcDbEntity
  8
0
100
AcDbLine
 62
7
  6
CONTINUOUS
 10
-1.1680501839
 20
26.0705562393
 11
-1.6668008815
 21
25.6620035857
  0
LINE
  5
2AE
100
AcDbEntity
  8
RACCORDO
100
AcDbLine
 62
7
  6
CONTINUOUS
 10
-1.4030007362
 20
25.6972480582
 11
-0.5078209813
 21
26.4305363845
  0
LINE
  5
2AF
100
AcDbEntity
  8
SMUSSO
100
AcDbLine
 62
7
  6
CONTINUOUS
 10
3.403105706
 20
28.8078361556
 11
-0.1241430248
 21
26.1090036493
  0
LINE
  5
2B0
100
AcDbEntity
  8
ASSI
100
AcDbLine
 62
7
  6
CONTINUOUS
 10
3.403105706
 20
28.8078361556
 11
-0.1241430248
 21
26.1090036493
  0
LINE
  5
2B1
100
AcDbEntity
  8
RACCORDO
100
AcDbLine
 62
7
  6
CONTINUOUS
 10
3.5239366197
 20
28.8321017469
 11
0.285496931
 21
26.3542480517
  0
LINE
  5
2B2
100
AcDbEntity
  8
ASSI
100
AcDbLine
 62
7
  6
CONTINUOUS
 10
3.5239366197
 20
28.8321017469
 11
0.285496931
 21
26.3542480517
  0
LWPOLYLINE
  5
2B3
100
AcDbEntity
  8
RACCORDO
100
AcDbPolyline
 62
7
  6
CONTINUOUS
 90
11
 70
0
 10
-0.5078023049
 20
26.4305516833
 10
-0.4980654572
 20
26.4379792796
 10
-0.4884757557
 20
26.4441767457
 10
-0.4790332001
 20
26.4491440819
 10
-0.469641208
 20
26.452907517
 10
-0.460396362
 20
26.4554408221
 10
-0.4515884097
 20
26.4566653102
 10
-0.4432795778
 20
26.4565356976
 10
-0.4354076395
 20
26.455097268
 10
-0.4280756632
 20
26.4524071851
 10
-0.4234890157
 20
26.4499170386
  0
LINE
  5
2B4
100
AcDbEntity
  8
ASSI
100
AcDbLine
 62
250
  6
CONTINUOUS
 10
3.7279842614
 20
28.7834677539
 11
3.6982777955
 21
28.7620824003
  0
LINE
  5
2B5
100
AcDbEntity
  8
SMUSSO
100
AcDbLine
 62
250
  6
CONTINUOUS
 10
0.285496931
 20
26.3542480517
 11
-0.1241430248
 21
26.1090036493
  0
LINE
  5
2B6
100
AcDbEntity
  8
ASSI
100
AcDbLine
 62
250
  6
CONTINUOUS
 10
0.285496931
 20
26.3542480517
 11
-0.1241430248
 21
26.1090036493
  0
LWPOLYLINE
  5
2B7
100
AcDbEntity
  8
SMUSSO
100
AcDbPolyline
 62
7
  6
CONTINUOUS
 90
4
 70
0
 10
0.0213772052
 20
26.1768324822
 10
0.0512206029
 20
26.1946671183
 10
0.1719547591
 20
26.2722338665
 10
0.285496931
 20
26.3542480517
  0
LWPOLYLINE
  5
2B8
100
AcDbEntity
  8
ASSI
100
AcDbPolyline
 62
7
  6
CONTINUOUS
 90
4
 70
0
 10
0.0213770089
 20
26.1768323665
 10
0.0512206029
 20
26.1946671183
 10
0.1719547591
 20
26.2722338665
 10
0.285496931
 20
26.3542480517
  0
LINE
  5
2B9
100
AcDbEntity
  8
SMUSSO
100
AcDbLine
 62
7
  6
CONTINUOUS
 10
-0.0767055377
 20
26.1215478072
 11
0.0213772052
 21
26.1768324822
  0
LINE
  5
2BA
100
AcDbEntity
  8
0
100
AcDbLine
 62
7
  6
CONTINUOUS
 10
-0.2909406715
 20
23.2873759888
 11
-0.9185811807
 21
22.9385975654
  0
LINE
  5
2BB
100
AcDbEntity
  8
ASSI
100
AcDbLine
 62
7
  6
CONTINUOUS
 10
-0.2909406715
 20
23.2873759888
 11
-0.9185811807
 21
22.9385975654
  0
LWPOLYLINE
  5
2BC
100
AcDbEntity
  8
RACCORDO
100
AcDbPolyline
 62
7
  6
CONTINUOUS
 90
21
 70
0
 10
6.999624833
 20
25.6942981341
 10
7.1216780153
 20
25.7487685728
 10
7.2575646283
 20
25.7941347353
 10
7.4008387598
 20
25.8272012612
 10
7.5504817198
 20
25.8474027121
 10
7.7054341441
 20
25.8543775399
 10
7.865192684
 20
25.8479039883
 10
8.0288164644
 20
25.8278129731
 10
8.194534845
 20
25.794249733
 10
8.3614588899
 20
25.7474344306
 10
8.5288997204
 20
25.6875768474
 10
8.6953177347
 20
25.6152930191
 10
8.8597493802
 20
25.5311471895
 10
9.0215745664
 20
25.4355785483
 10
9.1797444849
 20
25.3293179175
 10
9.3334138816
 20
25.2130665284
 10
9.4819259523
 20
25.0874346771
 10
9.6245191065
 20
24.9531543294
 10
9.7604757283
 20
24.8109773499
 10
9.8891369761
 20
24.6616492482
 10
10.0098586171
 20
24.5059498623
  0
LWPOLYLINE
  5
2BD
100
AcDbEntity
  8
ASSI
100
AcDbPolyline
 62
7
  6
CONTINUOUS
 90
15
 70
0
 10
6.9935073831
 20
25.6915707466
 10
7.1670262637
 20
25.7655416302
 10
7.3531129995
 20
25.8177544674
 10
7.5505088203
 20
25.8474051384
 10
7.7584166139
 20
25.8537189563
 10
7.9743499045
 20
25.8359677368
 10
8.194534845
 20
25.794249733
 10
8.4169590293
 20
25.7290205015
 10
8.6399142177
 20
25.6407818042
 10
8.859916009
 20
25.5310553848
 10
9.074659556
 20
25.4013698702
 10
9.2827482021
 20
25.2528767293
 10
9.4820335705
 20
25.0873385766
 10
9.6706622781
 20
24.9065476317
 10
9.8471209215
 20
24.7121484129
  0
LWPOLYLINE
  5
2BE
100
AcDbEntity
  8
ASSI
100
AcDbPolyline
 62
250
  6
CONTINUOUS
 90
28
 70
0
 10
7.0777199083
 20
25.7264465829
 10
7.1546548364
 20
25.7543066836
 10
7.2368971485
 20
25.7783964011
 10
7.3246944062
 20
25.7982143522
 10
7.4181758893
 20
25.8131924225
 10
7.5173100451
 20
25.8227254367
 10
7.6220561708
 20
25.8262139184
 10
7.7328279636
 20
25.8230293059
 10
7.8490341091
 20
25.8125398766
 10
7.9689644368
 20
25.7944269961
 10
8.0928658151
 20
25.7682651963
 10
8.2198461241
 20
25.7338530079
 10
8.3462750053
 20
25.6921193941
 10
8.471331474
 20
25.6435965426
 10
8.5949754229
 20
25.5885576256
 10
8.7147269705
 20
25.5285066003
 10
8.8296313565
 20
25.4645438054
 10
8.9400988206
 20
25.3970478479
 10
9.0458066574
 20
25.3267685125
 10
9.1465172629
 20
25.2544252368
 10
9.2422599113
 20
25.1805478569
 10
9.333179823
 20
25.1055421253
 10
9.4192794292
 20
25.0299000512
 10
9.5005707936
 20
24.9540979656
 10
9.5772448696
 20
24.8784276338
 10
9.6493647289
 20
24.8032798626
 10
9.7170285914
 20
24.7289999327
 10
9.7804915622
 20
24.6557370282
  0
LWPOLYLINE
  5
2BF
100
AcDbEntity
  8
RACCORDO
100
AcDbPolyline
 62
7
  6
CONTINUOUS
 90
5
 70
0
 10
5.0851227904
 20
22.8321067736
 10
4.9712317306
 20
22.7969674039
 10
4.8604173634
 20
22.7581757884
 10
4.7529477557
 20
22.7157834256
 10
4.6491613048
 20
22.6698755014
  0
LWPOLYLINE
  5
2C0
100
AcDbEntity
  8
ASSI
100
AcDbPolyline
 62
250
  6
CONTINUOUS
 90
9
 70
0
 10
10.8578516857
 20
24.2792991675
 10
10.9117138265
 20
24.2949419231
 10
10.9680258255
 20
24.3088135726
 10
11.0267952412
 20
24.320741396
 10
11.0888221657
 20
24.3306637458
 10
11.1541610032
 20
24.3383124989
 10
11.2228495668
 20
24.3434107623
 10
11.2957285395
 20
24.3456829851
 10
11.3521961421
 20
24.3449869949
  0
LINE
  5
2C1
100
AcDbEntity
  8
RACCORDO
100
AcDbLine
 62
250
  6
CONTINUOUS
 10
5.1013867153
 20
22.7921851151
 11
5.2019219607
 21
22.82081893
  0
LWPOLYLINE
  5
2C2
100
AcDbEntity
  8
RACCORDO
100
AcDbPolyline
 62
250
  6
CONTINUOUS
 90
12
 70
0
 10
12.8375625217
 20
-31.0709837689
 10
12.8067761432
 20
-31.0556520536
 10
12.7737887346
 20
-31.0319930434
 10
12.743876896
 20
-31.002154113
 10
12.7172465095
 20
-30.9663419066
 10
12.6940870191
 20
-30.9248049045
 10
12.6745581653
 20
-30.8778277145
 10
12.6587955838
 20
-30.8257376585
 10
12.6469146261
 20
-30.768904846
 10
12.6389982835
 20
-30.7077284904
 10
12.6350980748
 20
-30.6426322488
 10
12.6352400823
 20
-30.5740699242
  0
LINE
  5
2C3
100
AcDbEntity
  8
RACCORDO
100
AcDbLine
 62
250
  6
CONTINUOUS
 10
-4.2538076214
 20
26.0175369229
 11
-4.2259375014
 21
26.059515178
  0
LINE
  5
2C4
100
AcDbEntity
  8
RACCORDO
100
AcDbLine
 62
250
  6
CONTINUOUS
 10
-4.2259375014
 20
26.059515178
 11
-4.1806314888
 21
26.1186193046
  0
LINE
  5
2C5
100
AcDbEntity
  8
RACCORDO
100
AcDbLine
 62
7
  6
CONTINUOUS
 10
-4.3162666173
 20
26.1042956985
 11
-4.3503167996
 21
26.0617729584
  0
LINE
  5
2C6
100
AcDbEntity
  8
DRAFT
100
AcDbLine
 62
7
  6
CONTINUOUS
 10
-4.1350801932
 20
20.1702386023
 11
-4.1975589115
 21
20.1134162597
  0
LINE
  5
2C7
100
AcDbEntity
  8
RACCORDO
100
AcDbLine
 62
250
  6
CONTINUOUS
 10
-3.0442085179
 20
22.1413897369
 11
-3.2674950251
 21
21.9441763374
  0
LINE
  5
2C8
100
AcDbEntity
  8
RACCORDO
100
AcDbLine
 62
250
  6
CONTINUOUS
 10
3.6982777955
 20
28.7620824003
 11
-2.0720725789
 21
24.0027187175
  0
LINE
  5
2C9
100
AcDbEntity
  8
ASSI
100
AcDbLine
 62
250
  6
CONTINUOUS
 10
3.6982777955
 20
28.7620824003
 11
-2.0720725789
 21
24.0027187175
  0
LINE
  5
2CA
100
AcDbEntity
  8
RACCORDO
100
AcDbLine
 62
250
  6
CONTINUOUS
 10
4.1077914372
 20
28.1880988477
 11
-1.3286488371
 21
23.7041429827
  0
LINE
  5
2CB
100
AcDbEntity
  8
ASSI
100
AcDbLine
 62
250
  6
CONTINUOUS
 10
4.1077914372
 20
28.1880988477
 11
-1.3286488371
 21
23.7041429827
  0
LINE
  5
2CC
100
AcDbEntity
  8
RACCORDO
100
AcDbLine
 62
250
  6
CONTINUOUS
 10
4.1077914372
 20
27.7747466279
 11
-0.991608829
 21
23.568780117
  0
LINE
  5
2CD
100
AcDbEntity
  8
ASSI
100
AcDbLine
 62
250
  6
CONTINUOUS
 10
4.1077914372
 20
27.7747466279
 11
-0.991608829
 21
23.568780117
  0
LINE
  5
2CE
100
AcDbEntity
  8
RACCORDO
100
AcDbLine
 62
250
  6
CONTINUOUS
 10
4.2715968939
 20
27.5451532069
 11
-0.6942393322
 21
23.4493498231
  0
LINE
  5
2CF
100
AcDbEntity
  8
ASSI
100
AcDbLine
 62
250
  6
CONTINUOUS
 10
4.2715968939
 20
27.5451532069
 11
-0.6942393322
 21
23.4493498231
  0
LINE
  5
2D0
100
AcDbEntity
  8
0
100
AcDbLine
 62
250
  6
CONTINUOUS
 10
-3.8904936419
 20
20.8911591736
 11
-1.6134444837
 21
22.7202816411
  0
LINE
  5
2D1
100
AcDbEntity
  8
ASSI
100
AcDbLine
 62
250
  6
CONTINUOUS
 10
-3.8904936419
 20
20.8911591736
 11
-1.6134444837
 21
22.7202816411
  0
LINE
  5
2D2
100
AcDbEntity
  8
0
100
AcDbLine
 62
250
  6
CONTINUOUS
 10
-3.4377604373
 20
20.5728275347
 11
-1.1601782003
 21
22.4013820027
  0
LINE
  5
2D3
100
AcDbEntity
  8
ASSI
100
AcDbLine
 62
250
  6
CONTINUOUS
 10
-3.4377604373
 20
20.5728275347
 11
-1.1601782003
 21
22.4013820027
  0
LWPOLYLINE
  5
2D4
100
AcDbEntity
  8
0
100
AcDbPolyline
 62
7
  6
CONTINUOUS
 90
10
 70
0
 10
-0.9612283053
 20
22.187779793
 10
-1.2129935609
 20
21.9889994893
 10
-1.4653962302
 20
21.7894693284
 10
-1.718439588
 20
21.5891882209
 10
-1.9721291534
 20
21.388149785
 10
-2.2264661405
 20
21.1863586579
 10
-2.4814467526
 20
20.983830154
 10
-2.7370712468
 20
20.78056865
 10
-2.9933446325
 20
20.5765679222
 10
-3.2502696321
 20
20.3718272217
  0
LWPOLYLINE
  5
2D5
100
AcDbEntity
  8
ASSI
100
AcDbPolyline
 62
7
  6
CONTINUOUS
 90
10
 70
0
 10
-0.9612283053
 20
22.187779793
 10
-1.2129935609
 20
21.9889994893
 10
-1.4653962302
 20
21.7894693284
 10
-1.718439588
 20
21.5891882209
 10
-1.9721291534
 20
21.388149785
 10
-2.2264661405
 20
21.1863586579
 10
-2.4814467526
 20
20.983830154
 10
-2.7370712468
 20
20.78056865
 10
-2.9933446325
 20
20.5765679222
 10
-3.2502696321
 20
20.3718272217
  0
LINE
  5
2D6
100
AcDbEntity
  8
0
100
AcDbLine
 62
7
  6
CONTINUOUS
 10
-1.8213379616
 20
22.8037763487
 11
-3.0558750174
 21
21.8591849715
  0
LINE
  5
2D7
100
AcDbEntity
  8
ASSI
100
AcDbLine
 62
7
  6
CONTINUOUS
 10
-1.8213379616
 20
22.8037763487
 11
-3.0558750174
 21
21.8591849715
  0
LWPOLYLINE
  5
2D8
100
AcDbEntity
  8
RACCORDO
100
AcDbPolyline
 62
250
  6
CONTINUOUS
 90
10
 70
0
 10
-3.0442085179
 20
22.1413897369
 10
-3.0342104218
 20
22.1489562736
 10
-3.0242884173
 20
22.155218376
 10
-3.0145180168
 20
22.1601283858
 10
-3.0049735789
 20
22.1636489348
 10
-2.9957277426
 20
22.1657532296
 10
-2.9868508742
 20
22.1664252551
 10
-2.9784105322
 20
22.1656598969
 10
-2.9704709526
 20
22.1634629797
 10
-2.9696708602
 20
22.1631506468
  0
LWPOLYLINE
  5
2D9
100
AcDbEntity
  8
RACCORDO
100
AcDbPolyline
 62
250
  6
CONTINUOUS
 90
31
 70
0
 10
6.999624833
 20
25.6921058969
 10
7.0059701521
 20
25.6953287284
 10
7.0777199083
 20
25.7264465829
 10
7.1546548364
 20
25.7543066836
 10
7.2368971485
 20
25.7783964011
 10
7.3246944062
 20
25.7982143522
 10
7.4181758893
 20
25.8131924225
 10
7.5173100451
 20
25.8227254367
 10
7.6220561708
 20
25.8262139184
 10
7.7328279636
 20
25.8230293059
 10
7.8490341091
 20
25.8125398766
 10
7.9689644368
 20
25.7944269961
 10
8.0928658151
 20
25.7682651963
 10
8.2198461241
 20
25.7338530079
 10
8.3462750053
 20
25.6921193941
 10
8.471331474
 20
25.6435965426
 10
8.5949754229
 20
25.5885576256
 10
8.7147269705
 20
25.5285066003
 10
8.8296313565
 20
25.4645438054
 10
8.9400988206
 20
25.3970478479
 10
9.0458066574
 20
25.3267685125
 10
9.1465172629
 20
25.2544252368
 10
9.2422599113
 20
25.1805478569
 10
9.333179823
 20
25.1055421253
 10
9.4192794292
 20
25.0299000512
 10
9.5005707936
 20
24.9540979656
 10
9.5772448696
 20
24.8784276338
 10
9.6493647289
 20
24.8032798626
 10
9.7170285914
 20
24.7289999327
 10
9.7804915622
 20
24.6557370282
 10
9.8399140612
 20
24.5837137943
  0
LWPOLYLINE
  5
2DA
100
AcDbEntity
  8
ASSI
100
AcDbPolyline
 62
250
  6
CONTINUOUS
 90
3
 70
0
 10
6.999624833
 20
25.6921058969
 10
7.0059701521
 20
25.6953287284
 10
7.0777199083
 20
25.7264465829
  0
LWPOLYLINE
  5
2DB
100
AcDbEntity
  8
RACCORDO
100
AcDbPolyline
 62
7
  6
CONTINUOUS
 90
14
 70
0
 10
4.6491613048
 20
22.6698755014
 10
4.5494369909
 20
22.6205741305
 10
4.4539841152
 20
22.5679314643
 10
4.3631363933
 20
22.5120714801
 10
4.2773754641
 20
22.453250746
 10
4.1968462895
 20
22.39153747
 10
4.1218204639
 20
22.3270983142
 10
4.0528193223
 20
22.2603918817
 10
3.9899691129
 20
22.1916076384
 10
3.9333370085
 20
22.1208840154
 10
3.8831920264
 20
22.0486690571
 10
3.8395926218
 20
21.9752430732
 10
3.8024901529
 20
21.900741871
 10
3.7719056391
 20
21.8254534482
  0
LINE
  5
2DC
100
AcDbEntity
  8
RACCORDO
100
AcDbLine
 62
250
  6
CONTINUOUS
 10
10.7080808886
 20
24.2222372518
 11
10.7565425416
 21
24.2430364377
  0
LWPOLYLINE
  5
2DD
100
AcDbEntity
  8
ASSI
100
AcDbPolyline
 62
250
  6
CONTINUOUS
 90
3
 70
0
 10
10.7080808886
 20
24.2222372518
 10
10.7565425416
 20
24.2430364377
 10
10.806388412
 20
24.2620444758
  0
LWPOLYLINE
  5
2DE
100
AcDbEntity
  8
ASSI
100
AcDbPolyline
 62
7
  6
CONTINUOUS
 90
4
 70
0
 10
10.6308470832
 20
24.1851277093
 10
10.6068627489
 20
24.174935881
 10
10.5747486907
 20
24.168120105
 10
10.534225134
 20
24.1664719466
  0
LINE
  5
2DF
100
AcDbEntity
  8
RACCORDO
100
AcDbLine
 62
250
  6
CONTINUOUS
 10
10.7565425416
 20
24.2430364377
 11
10.806388412
 21
24.2620444758
  0
LWPOLYLINE
  5
2E0
100
AcDbEntity
  8
0
100
AcDbPolyline
 62
7
  6
CONTINUOUS
 90
5
 70
0
 10
4.1929728403
 20
22.50938894
 10
4.3129148473
 20
22.5537814657
 10
4.4505204703
 20
22.5997370739
 10
4.5919135543
 20
22.6421506676
 10
4.5924603763
 20
22.6422969703
  0
LWPOLYLINE
  5
2E1
100
AcDbEntity
  8
RACCORDO
100
AcDbPolyline
 62
250
  6
CONTINUOUS
 90
10
 70
0
 10
10.806388412
 20
24.2620444758
 10
10.8578516857
 20
24.2792991675
 10
10.9117138265
 20
24.2949419231
 10
10.9680258255
 20
24.3088135726
 10
11.0267952412
 20
24.320741396
 10
11.0888221657
 20
24.3306637458
 10
11.1541610032
 20
24.3383124989
 10
11.2228495668
 20
24.3434107623
 10
11.2957285395
 20
24.3456829851
 10
11.3521961421
 20
24.3449869949
  0
LINE
  5
2E2
100
AcDbEntity
  8
ASSI
100
AcDbLine
 62
250
  6
CONTINUOUS
 10
10.806388412
 20
24.2620444758
 11
10.8578516857
 21
24.2792991675
  0
LWPOLYLINE
  5
2E3
100
AcDbEntity
  8
ASSI
100
AcDbPolyline
 62
7
  6
CONTINUOUS
 90
4
 70
0
 10
10.8180207588
 20
24.2722189046
 10
11.0214129679
 20
24.3333645343
 10
11.238930883
 20
24.367149025
 10
11.3855693914
 20
24.3705221406
  0
LINE
  5
2E4
100
AcDbEntity
  8
DRAFT
100
AcDbLine
 62
7
  6
CONTINUOUS
 10
-3.3932493091
 20
18.3399844855
 11
-3.6910355247
 21
18.0308272948
  0
LINE
  5
2E5
100
AcDbEntity
  8
RACCORDO
100
AcDbLine
 62
250
  6
CONTINUOUS
 10
-3.6909174156
 20
18.0309498277
 11
-3.6910361695
 21
18.0308266253
  0
LINE
  5
2E6
100
AcDbEntity
  8
RACCORDO
100
AcDbLine
 62
250
  6
CONTINUOUS
 10
4.140414915
 20
27.8067791784
 11
4.1077914372
 21
27.7747466279
  0
LWPOLYLINE
  5
2E7
100
AcDbEntity
  8
SMUSSO
100
AcDbPolyline
 62
7
  6
CONTINUOUS
 90
12
 70
0
 10
3.6176023068
 20
23.5872419823
 10
3.5339996021
 20
23.5137548644
 10
3.4583023367
 20
23.4377326767
 10
3.3907215749
 20
23.359449863
 10
3.3314749608
 20
23.2792455158
 10
3.2806685622
 20
23.1973458539
 10
3.2383513006
 20
23.1138523585
 10
3.2046485072
 20
23.02899195
 10
3.1797058231
 20
22.9431045316
 10
3.1636099185
 20
22.8564578589
 10
3.1564194853
 20
22.7693481262
 10
3.1560037531
 20
22.7427593906
  0
LWPOLYLINE
  5
2E8
100
AcDbEntity
  8
ASSI
100
AcDbPolyline
 62
7
  6
CONTINUOUS
 90
12
 70
0
 10
3.6176023068
 20
23.5872419823
 10
3.5339996021
 20
23.5137548644
 10
3.4583023367
 20
23.4377326767
 10
3.3907215749
 20
23.359449863
 10
3.3314749608
 20
23.2792455158
 10
3.2806685622
 20
23.1973458539
 10
3.2383513006
 20
23.1138523585
 10
3.2046485072
 20
23.02899195
 10
3.1797058231
 20
22.9431045316
 10
3.1636099185
 20
22.8564578589
 10
3.1564194853
 20
22.7693481262
 10
3.1560037531
 20
22.7427593906
  0
LWPOLYLINE
  5
2E9
100
AcDbEntity
  8
SMUSSO
100
AcDbPolyline
 62
7
  6
CONTINUOUS
 90
21
 70
0
 10
3.2079654005
 20
24.1615264426
 10
3.108076641
 20
24.0740287392
 10
3.0179871811
 20
23.9841543901
 10
2.9376970208
 20
23.8919033954
 10
2.8670630145
 20
23.7970122171
 10
2.8062283077
 20
23.6997443932
 10
2.7556223375
 20
23.600890537
 10
2.7152790153
 20
23.5003792643
 10
2.6851644297
 20
23.3982819594
 10
2.6656062832
 20
23.2956033886
 10
2.6567062257
 20
23.1923406451
 10
2.6583626074
 20
23.0884966356
 10
2.6705981808
 20
22.985084847
 10
2.6935444195
 20
22.8820683954
 10
2.72706985
 20
22.7794841646
 10
2.7708028043
 20
22.6784562924
 10
2.8248406616
 20
22.5790462236
 10
2.8890860427
 20
22.4811925135
 10
2.9628751417
 20
22.3858349653
 10
3.046282461
 20
22.2930037859
 10
3.1392334982
 20
22.2026687685
  0
LWPOLYLINE
  5
2EA
100
AcDbEntity
  8
ASSI
100
AcDbPolyline
 62
7
  6
CONTINUOUS
 90
20
 70
0
 10
3.2079654005
 20
24.1615264426
 10
3.108076641
 20
24.0740287392
 10
3.0179871811
 20
23.9841543901
 10
2.9376970208
 20
23.8919033954
 10
2.8670630145
 20
23.7970122171
 10
2.8062283077
 20
23.6997443932
 10
2.7556223375
 20
23.600890537
 10
2.7152790153
 20
23.5003792643
 10
2.6851644297
 20
23.3982819594
 10
2.6656062832
 20
23.2956033886
 10
2.6567062257
 20
23.1923406451
 10
2.6583626074
 20
23.0884966356
 10
2.6705981808
 20
22.985084847
 10
2.6935444195
 20
22.8820683954
 10
2.72706985
 20
22.7794841646
 10
2.7708028043
 20
22.6784562924
 10
2.8248406616
 20
22.5790462236
 10
2.8890860427
 20
22.4811925135
 10
2.9628751417
 20
22.3858349653
 10
3.046282461
 20
22.2930037859
  0
LWPOLYLINE
  5
2EB
100
AcDbEntity
  8
RACCORDO
100
AcDbPolyline
 62
250
  6
CONTINUOUS
 90
10
 70
0
 10
-2.9091139166
 20
18.7043543397
 10
-2.8897712476
 20
18.7211019849
 10
-2.8679596254
 20
18.7393269396
 10
-2.8442488103
 20
18.7585531338
 10
-2.8192581735
 20
18.7782783432
 10
-2.7936405171
 20
18.7979873083
 10
-2.7680650224
 20
18.817165194
 10
-2.7431997692
 20
18.8353110378
 10
-2.7196942847
 20
18.8519508364
 10
-2.6981625762
 20
18.866649927
  0
LWPOLYLINE
  5
2EC
100
AcDbEntity
  8
0
100
AcDbPolyline
 62
7
  6
CONTINUOUS
 90
10
 70
0
 10
-0.4122168569
 20
21.5822634024
 10
-0.6569872393
 20
21.3757683044
 10
-0.9026354671
 20
21.1687885265
 10
-1.1491626855
 20
20.9613206305
 10
-1.3965754735
 20
20.7533594032
 10
-1.6448691411
 20
20.5449029708
 10
-1.8940280257
 20
20.3359535599
 10
-2.144047647
 20
20.1265103225
 10
-2.3949344163
 20
19.916568581
 10
-2.6466891384
 20
19.7061254717
  0
LWPOLYLINE
  5
2ED
100
AcDbEntity
  8
ASSI
100
AcDbPolyline
 62
7
  6
CONTINUOUS
 90
10
 70
0
 10
-0.4122168569
 20
21.5822634024
 10
-0.6569872393
 20
21.3757683044
 10
-0.9026354671
 20
21.1687885265
 10
-1.1491626855
 20
20.9613206305
 10
-1.3965754735
 20
20.7533594032
 10
-1.6448691411
 20
20.5449029708
 10
-1.8940280257
 20
20.3359535599
 10
-2.144047647
 20
20.1265103225
 10
-2.3949344163
 20
19.916568581
 10
-2.6466891384
 20
19.7061254717
  0
LINE
  5
2EE
100
AcDbEntity
  8
RACCORDO
100
AcDbLine
 62
250
  6
CONTINUOUS
 10
-2.9415478477
 20
19.053206505
 11
-2.4916551615
 21
19.428286855
  0
LINE
  5
2EF
100
AcDbEntity
  8
RACCORDO
100
AcDbLine
 62
250
  6
CONTINUOUS
 10
-2.6981614697
 20
18.8666509404
 11
-2.2439741945
 21
19.2454209569
  0
LINE
  5
2F0
100
AcDbEntity
  8
RACCORDO
100
AcDbLine
 62
7
  6
CONTINUOUS
 10
6.3152277721
 20
26.7243849736
 11
3.2079654005
 21
24.1615264426
  0
LINE
  5
2F1
100
AcDbEntity
  8
ASSI
100
AcDbLine
 62
7
  6
CONTINUOUS
 10
6.3152277721
 20
26.7243849736
 11
3.2079654005
 21
24.1615264426
  0
LINE
  5
2F2
100
AcDbEntity
  8
SMUSSO
100
AcDbLine
 62
7
  6
CONTINUOUS
 10
6.999624833
 20
26.3767216743
 11
3.6176023068
 21
23.5872419823
  0
LINE
  5
2F3
100
AcDbEntity
  8
ASSI
100
AcDbLine
 62
7
  6
CONTINUOUS
 10
6.999624833
 20
26.3767216743
 11
3.6176023068
 21
23.5872419823
  0
LINE
  5
2F4
100
AcDbEntity
  8
DRAFT
100
AcDbLine
 62
7
  6
CONTINUOUS
 10
3.6176023068
 20
22.8770209147
 11
6.999624833
 21
25.493361919
  0
LINE
  5
2F5
100
AcDbEntity
  8
ASSI
100
AcDbLine
 62
7
  6
CONTINUOUS
 10
3.6176023068
 20
22.8770209147
 11
6.999624833
 21
25.493361919
  0
LINE
  5
2F6
100
AcDbEntity
  8
DRAFT
100
AcDbLine
 62
7
  6
CONTINUOUS
 10
4.5540937595
 20
22.7856963256
 11
3.5118180454
 21
21.9882114323
  0
LINE
  5
2F7
100
AcDbEntity
  8
ASSI
100
AcDbLine
 62
7
  6
CONTINUOUS
 10
4.5540937595
 20
22.7856963256
 11
3.5118180454
 21
21.9882114323
  0
LWPOLYLINE
  5
2F8
100
AcDbEntity
  8
RACCORDO
100
AcDbPolyline
 62
250
  6
CONTINUOUS
 90
9
 70
0
 10
3.1207770089
 20
21.7157010483
 10
3.1451962306
 20
21.733605043
 10
3.1694013522
 20
21.7483691782
 10
3.1932162497
 20
21.7598860257
 10
3.2164676395
 20
21.7680717845
 10
3.2389863361
 20
21.7728668938
 10
3.2606084833
 20
21.7742364651
 10
3.2811767503
 20
21.7721705328
 10
3.3021160159
 20
21.766065726
  0
LWPOLYLINE
  5
2F9
100
AcDbEntity
  8
ASSI
100
AcDbPolyline
 62
250
  6
CONTINUOUS
 90
9
 70
0
 10
3.1207770089
 20
21.7157010483
 10
3.1451962306
 20
21.733605043
 10
3.1694013522
 20
21.7483691782
 10
3.1932162497
 20
21.7598860257
 10
3.2164676395
 20
21.7680717845
 10
3.2389863361
 20
21.7728668938
 10
3.2606084833
 20
21.7742364651
 10
3.2811767503
 20
21.7721705328
 10
3.3021160159
 20
21.766065726
  0
LWPOLYLINE
  5
2FA
100
AcDbEntity
  8
RACCORDO
100
AcDbPolyline
 62
250
  6
CONTINUOUS
 90
5
 70
0
 10
1.0327951043
 20
19.9654235552
 10
1.0197881356
 20
19.9561522259
 10
1.0069751941
 20
19.9491395316
 10
0.9945219179
 20
19.9444761284
 10
0.992120373
 20
19.9440225262
  0
LWPOLYLINE
  5
2FB
100
AcDbEntity
  8
ASSI
100
AcDbPolyline
 62
250
  6
CONTINUOUS
 90
5
 70
0
 10
1.0327951043
 20
19.9654235552
 10
1.0197881356
 20
19.9561522259
 10
1.0069751941
 20
19.9491395316
 10
0.9945219179
 20
19.9444761284
 10
0.992120373
 20
19.9440225262
  0
LINE
  5
2FC
100
AcDbEntity
  8
DRAFT
100
AcDbLine
 62
7
  6
CONTINUOUS
 10
-2.7128467744
 20
17.4059658714
 11
-2.7530595127
 21
17.3802763544
  0
LINE
  5
2FD
100
AcDbEntity
  8
RACCORDO
100
AcDbLine
 62
250
  6
CONTINUOUS
 10
10.6160924201
 20
24.1758279937
 11
10.6612631228
 21
24.1998102705
  0
LINE
  5
2FE
100
AcDbEntity
  8
ASSI
100
AcDbLine
 62
250
  6
CONTINUOUS
 10
10.6160924201
 20
24.1758279937
 11
10.6612631228
 21
24.1998102705
  0
LWPOLYLINE
  5
2FF
100
AcDbEntity
  8
RACCORDO
100
AcDbPolyline
 62
7
  6
CONTINUOUS
 90
7
 70
0
 10
10.6308470832
 20
24.1851277093
 10
10.7595325906
 20
24.2485100632
 10
10.896777822
 20
24.2996352412
 10
11.0419298827
 20
24.3378606271
 10
11.1946201076
 20
24.3626628434
 10
11.3537891094
 20
24.373462619
 10
11.3884345447
 20
24.3727143786
  0
LINE
  5
300
100
AcDbEntity
  8
RACCORDO
100
AcDbLine
 62
250
  6
CONTINUOUS
 10
10.6612631228
 20
24.1998102705
 11
10.7080808886
 21
24.2222372518
  0
LINE
  5
301
100
AcDbEntity
  8
ASSI
100
AcDbLine
 62
250
  6
CONTINUOUS
 10
10.6612631228
 20
24.1998102705
 11
10.7080808886
 21
24.2222372518
  0
LWPOLYLINE
  5
302
100
AcDbEntity
  8
RACCORDO
100
AcDbPolyline
 62
7
  6
CONTINUOUS
 90
5
 70
0
 10
10.6308470832
 20
24.1851277093
 10
10.6152536
 20
24.1778655535
 10
10.5960998683
 20
24.1719582219
 10
10.5731856924
 20
24.1679318607
 10
10.5466524875
 20
24.1663150125
  0
LINE
  5
303
100
AcDbEntity
  8
ASSI
100
AcDbLine
 62
7
  6
CONTINUOUS
 10
10.6308470832
 20
24.1851277093
 11
10.8180207588
 21
24.2722189046
  0
LINE
  5
304
100
AcDbEntity
  8
0
100
AcDbLine
 62
7
  6
CONTINUOUS
 10
6.0693418906
 20
22.1014747579
 11
6.0151605603
 21
22.0768154946
  0
LINE
  5
305
100
AcDbEntity
  8
0
100
AcDbLine
 62
7
  6
CONTINUOUS
 10
6.4813988821
 20
21.4698600406
 11
6.197433932
 21
21.3406205694
  0
LWPOLYLINE
  5
306
100
AcDbEntity
  8
RACCORDO
100
AcDbPolyline
 62
250
  6
CONTINUOUS
 90
17
 70
0
 10
-11.9093976993
 20
21.057668195
 10
-11.9080725427
 20
21.082372764
 10
-11.9104584257
 20
21.128900304
 10
-11.9175968153
 20
21.1768373324
 10
-11.9294087222
 20
21.2256556822
 10
-11.9457632651
 20
21.2748182235
 10
-11.9664808903
 20
21.3237876342
 10
-11.991335471
 20
21.3720297416
 10
-12.0200571362
 20
21.419019171
 10
-12.0523291545
 20
21.4642369135
 10
-12.0877909033
 20
21.507179833
 10
-12.1260498267
 20
21.5473765236
 10
-12.1666874438
 20
21.5843903623
 10
-12.2092571579
 20
21.6178169712
 10
-12.2532917916
 20
21.6472922478
 10
-12.2983088441
 20
21.6724961323
 10
-12.3438153915
 20
21.6931553274
  0
LWPOLYLINE
  5
307
100
AcDbEntity
  8
RACCORDO
100
AcDbPolyline
 62
250
  6
CONTINUOUS
 90
10
 70
0
 10
-11.8717209952
 20
22.3593722166
 10
-11.8680708265
 20
22.38785869
 10
-11.86163975
 20
22.4174762231
 10
-11.8525899735
 20
22.4474775063
 10
-11.8411497834
 20
22.4771055316
 10
-11.8276078051
 20
22.5056126478
 10
-11.8123057331
 20
22.5322794349
 10
-11.795629681
 20
22.5564329239
 10
-11.7780004304
 20
22.5774635724
 10
-11.7598628382
 20
22.5948406093
  0
LINE
  5
308
100
AcDbEntity
  8
0
100
AcDbLine
 62
7
  6
CONTINUOUS
 10
-0.9185811807
 20
22.9385975654
 11
-1.1493612768
 21
22.6465231747
  0
LINE
  5
309
100
AcDbEntity
  8
ASSI
100
AcDbLine
 62
7
  6
CONTINUOUS
 10
-0.9185811807
 20
22.9385975654
 11
-1.1493612768
 21
22.6465231747
  0
LINE
  5
30A
100
AcDbEntity
  8
RACCORDO
100
AcDbLine
 62
7
  6
CONTINUOUS
 10
-0.1536368096
 20
23.0307794578
 11
-0.9425349294
 21
22.0592110092
  0
LINE
  5
30B
100
AcDbEntity
  8
ASSI
100
AcDbLine
 62
7
  6
CONTINUOUS
 10
-0.1536368096
 20
23.0307794578
 11
-0.9425349294
 21
22.0592110092
  0
LWPOLYLINE
  5
30C
100
AcDbEntity
  8
RACCORDO
100
AcDbPolyline
 62
7
  6
CONTINUOUS
 90
7
 70
0
 10
-3.6909164254
 20
18.0309508557
 10
-3.7002643645
 20
18.0209605732
 10
-3.7324386105
 20
17.9813414674
 10
-3.7604689634
 20
17.9377091007
 10
-3.7841426742
 20
17.8897142277
 10
-3.8028176133
 20
17.8373934898
 10
-3.8102809177
 20
17.8048803052
  0
LWPOLYLINE
  5
30D
100
AcDbEntity
  8
RACCORDO
100
AcDbPolyline
 62
250
  6
CONTINUOUS
 90
13
 70
0
 10
3.1402982381
 20
21.662984295
 10
3.1454511927
 20
21.6676823545
 10
3.1493497697
 20
21.6723851943
 10
3.1519939692
 20
21.6770928142
 10
3.1533806619
 20
21.6818434239
 10
3.153512977
 20
21.6865988138
 10
3.152400302
 20
21.6912443554
 10
3.1500021081
 20
21.69577445
 10
3.146358924
 20
21.7001946962
 10
3.1416017246
 20
21.7044072624
 10
3.1357741681
 20
21.7083795378
 10
3.1288325962
 20
21.7121441331
 10
3.1207770089
 20
21.7157010483
  0
LWPOLYLINE
  5
30E
100
AcDbEntity
  8
ASSI
100
AcDbPolyline
 62
250
  6
CONTINUOUS
 90
13
 70
0
 10
3.1402982381
 20
21.662984295
 10
3.1454511927
 20
21.6676823545
 10
3.1493497697
 20
21.6723851943
 10
3.1519939692
 20
21.6770928142
 10
3.1533806619
 20
21.6818434239
 10
3.153512977
 20
21.6865988138
 10
3.152400302
 20
21.6912443554
 10
3.1500021081
 20
21.69577445
 10
3.146358924
 20
21.7001946962
 10
3.1416017246
 20
21.7044072624
 10
3.1357741681
 20
21.7083795378
 10
3.1288325962
 20
21.7121441331
 10
3.1207770089
 20
21.7157010483
  0
LINE
  5
30F
100
AcDbEntity
  8
0
100
AcDbLine
 62
7
  6
CONTINUOUS
 10
4.2300124456
 20
22.1847842829
 11
4.6315159511
 21
22.5136767002
  0
LINE
  5
310
100
AcDbEntity
  8
RACCORDO
100
AcDbLine
 62
7
  6
CONTINUOUS
 10
6.9797168904
 20
22.8472103001
 11
6.0693418906
 21
22.1014747579
  0
LINE
  5
311
100
AcDbEntity
  8
RACCORDO
100
AcDbLine
 62
7
  6
CONTINUOUS
 10
5.3970900069
 20
21.5507982531
 11
5.1860612389
 21
21.3779336064
  0
LINE
  5
312
100
AcDbEntity
  8
0
100
AcDbLine
 62
7
  6
CONTINUOUS
 10
7.1381855463
 20
22.1578681792
 11
6.1365200557
 21
21.3373518448
  0
LINE
  5
313
100
AcDbEntity
  8
RACCORDO
100
AcDbLine
 62
250
  6
CONTINUOUS
 10
1.0327951043
 20
19.9654235552
 11
3.1402982381
 21
21.662984295
  0
LINE
  5
314
100
AcDbEntity
  8
ASSI
100
AcDbLine
 62
250
  6
CONTINUOUS
 10
1.0327951043
 20
19.9654235552
 11
3.1402982381
 21
21.662984295
  0
LINE
  5
315
100
AcDbEntity
  8
RACCORDO
100
AcDbLine
 62
250
  6
CONTINUOUS
 10
1.3015056833
 20
19.7570142042
 11
3.4092817135
 21
21.4542274255
  0
LINE
  5
316
100
AcDbEntity
  8
ASSI
100
AcDbLine
 62
250
  6
CONTINUOUS
 10
1.3015056833
 20
19.7570142042
 11
3.4092817135
 21
21.4542274255
  0
LWPOLYLINE
  5
317
100
AcDbEntity
  8
RACCORDO
100
AcDbPolyline
 62
7
  6
CONTINUOUS
 90
11
 70
0
 10
7.7984334253
 20
22.5178636233
 10
7.8081702729
 20
22.5252912195
 10
7.8177599745
 20
22.5314886857
 10
7.8272025301
 20
22.5364560218
 10
7.8365945221
 20
22.540219457
 10
7.8458393682
 20
22.5427527621
 10
7.8546473204
 20
22.5439772501
 10
7.8629561524
 20
22.5438476376
 10
7.8708280906
 20
22.5424092079
 10
7.8781600669
 20
22.539719125
 10
7.8827467145
 20
22.5372289785
  0
LINE
  5
318
100
AcDbEntity
  8
RACCORDO
100
AcDbLine
 62
250
  6
CONTINUOUS
 10
10.4944637594
 20
24.0897558168
 11
10.6160924201
 21
24.1758279937
  0
LINE
  5
319
100
AcDbEntity
  8
ASSI
100
AcDbLine
 62
250
  6
CONTINUOUS
 10
10.4944637594
 20
24.0897558168
 11
10.6160924201
 21
24.1758279937
  0
LINE
  5
31A
100
AcDbEntity
  8
RACCORDO
100
AcDbLine
 62
250
  6
CONTINUOUS
 10
10.6308470832
 20
24.1851277093
 11
10.6160924201
 21
24.1758279937
  0
LINE
  5
31B
100
AcDbEntity
  8
ASSI
100
AcDbLine
 62
250
  6
CONTINUOUS
 10
10.6308470832
 20
24.1851277093
 11
10.6160924201
 21
24.1758279937
  0
LINE
  5
31C
100
AcDbEntity
  8
RACCORDO
100
AcDbLine
 62
7
  6
CONTINUOUS
 10
11.6025716772
 20
24.5353484351
 11
11.5952999087
 21
24.5309949568
  0
LINE
  5
31D
100
AcDbEntity
  8
ASSI
100
AcDbLine
 62
7
  6
CONTINUOUS
 10
11.6025716772
 20
24.5353484351
 11
11.5952999087
 21
24.5309949568
  0
LINE
  5
31E
100
AcDbEntity
  8
SMUSSO
100
AcDbLine
 62
250
  6
CONTINUOUS
 10
8.4499895933
 20
22.0562113481
 11
8.0403496375
 21
21.8109669457
  0
LINE
  5
31F
100
AcDbEntity
  8
ASSI
100
AcDbLine
 62
250
  6
CONTINUOUS
 10
8.4499895933
 20
22.0562113481
 11
8.0403496375
 21
21.8109669457
  0
LWPOLYLINE
  5
320
100
AcDbEntity
  8
ASSI
100
AcDbPolyline
 62
7
  6
CONTINUOUS
 90
4
 70
0
 10
8.1858696713
 20
21.8787956629
 10
8.2157132653
 20
21.8966304147
 10
8.3364474215
 20
21.9741971629
 10
8.4499895933
 20
22.0562113481
  0
LWPOLYLINE
  5
321
100
AcDbEntity
  8
SMUSSO
100
AcDbPolyline
 62
7
  6
CONTINUOUS
 90
4
 70
0
 10
8.1858698676
 20
21.8787957786
 10
8.2157132653
 20
21.8966304147
 10
8.3364474215
 20
21.9741971629
 10
8.4499895933
 20
22.0562113481
  0
LINE
  5
322
100
AcDbEntity
  8
SMUSSO
100
AcDbLine
 62
7
  6
CONTINUOUS
 10
8.0877871247
 20
21.8235111036
 11
8.1858698676
 21
21.8787957786
  0
LINE
  5
323
100
AcDbEntity
  8
DRAFT
100
AcDbLine
 62
7
  6
CONTINUOUS
 10
7.283458959
 20
15.6220279607
 11
7.2291317866
 21
15.6041242185
  0
LWPOLYLINE
  5
324
100
AcDbEntity
  8
DRAFT
100
AcDbPolyline
 62
7
  6
CONTINUOUS
 90
10
 70
0
 10
9.7380595572
 20
17.4824394118
 10
9.5664669755
 20
17.4268557634
 10
9.3960685216
 20
17.3692246962
 10
9.2268641955
 20
17.3095462102
 10
9.058839576
 20
17.2478147924
 10
8.8920090844
 20
17.1840359558
 10
8.726415984
 20
17.11822624
 10
8.5620746961
 20
17.0503911582
 10
8.3989707995
 20
16.9805251971
 10
8.2371042942
 20
16.9086283567
  0
LWPOLYLINE
  5
325
100
AcDbEntity
  8
DRAFT
100
AcDbPolyline
 62
7
  6
CONTINUOUS
 90
3
 70
0
 10
7.3651684243
 20
15.6484953223
 10
7.3379027514
 20
15.6397246275
 10
7.283458959
 20
15.6220279607
  0
LWPOLYLINE
  5
326
100
AcDbEntity
  8
RACCORDO
100
AcDbPolyline
 62
250
  6
CONTINUOUS
 90
7
 70
0
 10
6.3941172429
 20
15.1892586286
 10
6.4316191517
 20
15.2000167595
 10
6.4713524075
 20
15.2054190471
 10
6.5128708275
 20
15.2054333875
 10
6.5557046268
 20
15.2000881159
 10
6.5993660528
 20
15.1894714195
 10
6.6433552005
 20
15.1737300507
  0
LWPOLYLINE
  5
327
100
AcDbEntity
  8
RACCORDO
100
AcDbPolyline
 62
250
  6
CONTINUOUS
 90
13
 70
0
 10
19.4921924532
 20
-22.170358313
 10
19.5142909745
 20
-22.1778634428
 10
19.5379251726
 20
-22.183347932
 10
19.5626995177
 20
-22.1867199949
 10
19.588199399
 20
-22.1879231985
 10
19.6139980635
 20
-22.1869374066
 10
19.639663758
 20
-22.1837791168
 10
19.6647669544
 20
-22.1785011847
 10
19.6888875387
 20
-22.171191939
 10
19.711621841
 20
-22.1619737037
 10
19.7325893916
 20
-22.1510007503
 10
19.7514392883
 20
-22.1384567167
 10
19.767856069
 20
-22.1245515333
  0
LINE
  5
328
100
AcDbEntity
  8
RACCORDO
100
AcDbLine
 62
250
  6
CONTINUOUS
 10
9.837358534
 20
24.3536640894
 11
9.947003408
 21
24.4445492252
  0
LINE
  5
329
100
AcDbEntity
  8
ASSI
100
AcDbLine
 62
250
  6
CONTINUOUS
 10
9.837358534
 20
24.3536640894
 11
9.947003408
 21
24.4445492252
  0
LINE
  5
32A
100
AcDbEntity
  8
0
100
AcDbLine
 62
7
  6
CONTINUOUS
 10
6.7688888454
 20
21.7053580317
 11
6.4813988821
 21
21.4698600406
  0
LINE
  5
32B
100
AcDbEntity
  8
RACCORDO
100
AcDbLine
 62
7
  6
CONTINUOUS
 10
7.7988884644
 20
22.5182363695
 11
6.8884939349
 21
21.7724848296
  0
LWPOLYLINE
  5
32C
100
AcDbEntity
  8
RACCORDO
100
AcDbPolyline
 62
250
  6
CONTINUOUS
 90
3
 70
0
 10
6.9723673806
 20
19.587006112
 10
12.0214589149
 20
23.6678457162
 10
12.653576499
 20
24.1787612302
  0
LWPOLYLINE
  5
32D
100
AcDbEntity
  8
ASSI
100
AcDbPolyline
 62
250
  6
CONTINUOUS
 90
3
 70
0
 10
6.9723673806
 20
19.587006112
 10
12.0214589149
 20
23.6678457162
 10
12.653576499
 20
24.1787612302
  0
LINE
  5
32E
100
AcDbEntity
  8
RACCORDO
100
AcDbLine
 62
250
  6
CONTINUOUS
 10
7.347445499
 20
19.2624502347
 11
13.0296040413
 21
23.8526990308
  0
LINE
  5
32F
100
AcDbEntity
  8
ASSI
100
AcDbLine
 62
250
  6
CONTINUOUS
 10
7.347445499
 20
19.2624502347
 11
13.0296040413
 21
23.8526990308
  0
LINE
  5
330
100
AcDbEntity
  8
SMUSSO
100
AcDbLine
 62
7
  6
CONTINUOUS
 10
11.5952999087
 20
24.5309949568
 11
8.0403496375
 21
21.8109669457
  0
LINE
  5
331
100
AcDbEntity
  8
ASSI
100
AcDbLine
 62
7
  6
CONTINUOUS
 10
11.5952999087
 20
24.5309949568
 11
8.0403496375
 21
21.8109669457
  0
LINE
  5
332
100
AcDbEntity
  8
RACCORDO
100
AcDbLine
 62
7
  6
CONTINUOUS
 10
11.7161308224
 20
24.5552605481
 11
8.4499895933
 21
22.0562113481
  0
LINE
  5
333
100
AcDbEntity
  8
ASSI
100
AcDbLine
 62
7
  6
CONTINUOUS
 10
11.7161308224
 20
24.5552605481
 11
8.4499895933
 21
22.0562113481
  0
LWPOLYLINE
  5
334
100
AcDbEntity
  8
RACCORDO
100
AcDbPolyline
 62
250
  6
CONTINUOUS
 90
8
 70
0
 10
12.653576499
 20
24.1787612302
 10
12.6831147812
 20
24.2001182165
 10
12.7122885303
 20
24.216812403
 10
12.7407844049
 20
24.2286652071
 10
12.7682951873
 20
24.2355504002
 10
12.7945266783
 20
24.2373939263
 10
12.8192008847
 20
24.2341747679
 10
12.8345300294
 20
24.229280724
  0
LWPOLYLINE
  5
335
100
AcDbEntity
  8
ASSI
100
AcDbPolyline
 62
250
  6
CONTINUOUS
 90
8
 70
0
 10
12.653576499
 20
24.1787612302
 10
12.6831147812
 20
24.2001182165
 10
12.7122885303
 20
24.216812403
 10
12.7407844049
 20
24.2286652071
 10
12.7682951873
 20
24.2355504002
 10
12.7945266783
 20
24.2373939263
 10
12.8192008847
 20
24.2341747679
 10
12.834320823
 20
24.2293644977
  0
LWPOLYLINE
  5
336
100
AcDbEntity
  8
RACCORDO
100
AcDbPolyline
 62
7
  6
CONTINUOUS
 90
5
 70
0
 10
4.6824563839
 20
14.3940055405
 10
4.8205853624
 20
14.4701919022
 10
5.3348303642
 20
14.7289943988
 10
5.8594687772
 20
14.9687365179
 10
6.394117243
 20
15.1892586286
  0
LWPOLYLINE
  5
337
100
AcDbEntity
  8
RACCORDO
100
AcDbPolyline
 62
7
  6
CONTINUOUS
 90
9
 70
0
 10
7.776637724
 20
16.6895912676
 10
7.4604750107
 20
16.5261359692
 10
7.150059402
 20
16.3547048919
 10
6.845390898
 20
16.1752980357
 10
6.5463599032
 20
15.9878395016
 10
6.253076013
 20
15.7924051886
 10
5.9658680135
 20
15.5892227934
 10
5.6848455001
 20
15.378368215
 10
5.6348125447
 20
15.3395180465
  0
LWPOLYLINE
  5
338
100
AcDbEntity
  8
RACCORDO
100
AcDbPolyline
 62
250
  6
CONTINUOUS
 90
4
 70
0
 10
4.9361718506
 20
14.2921076892
 10
5.329004814
 20
14.4898868941
 10
5.8499665492
 20
14.7280489063
 10
6.3815717566
 20
14.9474435236
  0
LWPOLYLINE
  5
339
100
AcDbEntity
  8
RACCORDO
100
AcDbPolyline
 62
7
  6
CONTINUOUS
 90
6
 70
0
 10
6.8730388877
 20
15.5835685553
 10
6.3653631931
 20
15.3904710898
 10
5.8697628771
 20
15.1791021899
 10
5.3862379398
 20
14.9494618554
 10
4.9143901814
 20
14.7013116217
 10
4.5062143548
 20
14.4647883127
  0
LINE
  5
33A
100
AcDbEntity
  8
DRAFT
100
AcDbLine
 62
7
  6
CONTINUOUS
 10
7.1749219405
 20
15.5860136347
 11
7.1208295974
 21
15.5676962675
  0
LINE
  5
33B
100
AcDbEntity
  8
DRAFT
100
AcDbLine
 62
7
  6
CONTINUOUS
 10
7.2291317866
 20
15.6041242185
 11
7.1749219405
 21
15.5860136347
  0
LWPOLYLINE
  5
33C
100
AcDbEntity
  8
RACCORDO
100
AcDbPolyline
 62
250
  6
CONTINUOUS
 90
7
 70
0
 10
6.3815717566
 20
14.9474435236
 10
6.4055870362
 20
14.9547459507
 10
6.4302580013
 20
14.9587471195
 10
6.455584652
 20
14.95944703
 10
6.4815669884
 20
14.9568456822
 10
6.5082050103
 20
14.9509430761
 10
6.5354987178
 20
14.9417392118
  0
LINE
  5
33D
100
AcDbEntity
  8
0
100
AcDbLine
 62
7
  6
CONTINUOUS
 10
-9.7430710167
 20
22.3406189418
 11
-9.7430710167
 21
22.4225341462
  0
LINE
  5
33E
100
AcDbEntity
  8
ASSI
100
AcDbLine
 62
7
  6
CONTINUOUS
 10
-9.7430710167
 20
22.3406189418
 11
-9.7430710167
 21
22.4225341462
  0
LINE
  5
33F
100
AcDbEntity
  8
0
100
AcDbLine
 62
7
  6
CONTINUOUS
 10
-7.3915718628
 20
25.0409078614
 11
-7.3915718628
 21
24.1394719856
  0
LINE
  5
340
100
AcDbEntity
  8
RACCORDO
100
AcDbLine
 62
7
  6
CONTINUOUS
 10
-7.3915718628
 20
24.1394719856
 11
-7.3915718628
 21
23.9390857789
  0
LINE
  5
341
100
AcDbEntity
  8
ASSI
100
AcDbLine
 62
7
  6
CONTINUOUS
 10
-7.3915718628
 20
25.0409078614
 11
-7.3915718628
 21
23.9390857789
  0
LWPOLYLINE
  5
342
100
AcDbEntity
  8
RACCORDO
100
AcDbPolyline
 62
250
  6
CONTINUOUS
 90
3
 70
0
 10
4.1827954344
 20
27.8767146392
 10
4.1655564748
 20
27.8409591574
 10
4.140414915
 20
27.8067791784
  0
LWPOLYLINE
  5
343
100
AcDbEntity
  8
RACCORDO
100
AcDbPolyline
 62
250
  6
CONTINUOUS
 90
8
 70
0
 10
13.4010361816
 20
23.2502794462
 10
13.4346094244
 20
23.2792177537
 10
13.4621814415
 20
23.3054798743
 10
13.4832908792
 20
23.3286263721
 10
13.4975845201
 20
23.348269944
 10
13.5048231932
 20
23.3640819002
 10
13.5048857764
 20
23.3757976645
 10
13.5038757992
 20
23.3779020442
  0
LWPOLYLINE
  5
344
100
AcDbEntity
  8
ASSI
100
AcDbPolyline
 62
250
  6
CONTINUOUS
 90
8
 70
0
 10
13.4010361816
 20
23.2502794462
 10
13.4346094244
 20
23.2792177537
 10
13.4621814415
 20
23.3054798743
 10
13.4832908792
 20
23.3286263721
 10
13.4975845201
 20
23.348269944
 10
13.5048231932
 20
23.3640819002
 10
13.5048857764
 20
23.3757976645
 10
13.5038757992
 20
23.3779020442
  0
LWPOLYLINE
  5
345
100
AcDbEntity
  8
RACCORDO
100
AcDbPolyline
 62
250
  6
CONTINUOUS
 90
8
 70
0
 10
13.0296040413
 20
23.8526990308
 10
13.0632494477
 20
23.8815222669
 10
13.091004419
 20
23.9074886832
 10
13.1124046007
 20
23.9301638127
 10
13.127091987
 20
23.949168275
 10
13.1348208956
 20
23.9641841107
 10
13.135462092
 20
23.9749601093
 10
13.1345227946
 20
23.976950171
  0
LWPOLYLINE
  5
346
100
AcDbEntity
  8
ASSI
100
AcDbPolyline
 62
250
  6
CONTINUOUS
 90
8
 70
0
 10
13.0296040413
 20
23.8526990308
 10
13.0632494477
 20
23.8815222669
 10
13.091004419
 20
23.9074886832
 10
13.1124046007
 20
23.9301638127
 10
13.127091987
 20
23.949168275
 10
13.1348208956
 20
23.9641841107
 10
13.135462092
 20
23.9749601093
 10
13.134538644
 20
23.9769246782
  0
LINE
  5
347
100
AcDbEntity
  8
RACCORDO
100
AcDbLine
 62
250
  6
CONTINUOUS
 10
13.4010361816
 20
23.2502794462
 11
3.4681932691
 21
14.8816809824
  0
LINE
  5
348
100
AcDbEntity
  8
ASSI
100
AcDbLine
 62
250
  6
CONTINUOUS
 10
13.4010361816
 20
23.2502794462
 11
3.4681932691
 21
14.8816809824
  0
LINE
  5
349
100
AcDbEntity
  8
RACCORDO
100
AcDbLine
 62
250
  6
CONTINUOUS
 10
13.7587935456
 20
22.0848025826
 11
6.3853909202
 21
15.8805752991
  0
LINE
  5
34A
100
AcDbEntity
  8
ASSI
100
AcDbLine
 62
250
  6
CONTINUOUS
 10
13.7587935456
 20
22.0848025826
 11
6.3853909202
 21
15.8805752991
  0
LINE
  5
34B
100
AcDbEntity
  8
RACCORDO
100
AcDbLine
 62
250
  6
CONTINUOUS
 10
7.1212994574
 20
15.5675075611
 11
6.6433552006
 21
15.1737300506
  0
LINE
  5
34C
100
AcDbEntity
  8
RACCORDO
100
AcDbLine
 62
250
  6
CONTINUOUS
 10
6.8730389322
 20
15.5835685614
 11
6.394117243
 21
15.1892586286
  0
LINE
  5
34D
100
AcDbEntity
  8
DRAFT
100
AcDbLine
 62
7
  6
CONTINUOUS
 10
10.1643612362
 20
17.6101918606
 11
9.6669478868
 21
17.215396955
  0
LINE
  5
34E
100
AcDbEntity
  8
DRAFT
100
AcDbLine
 62
7
  6
CONTINUOUS
 10
9.6669478868
 20
17.215396955
 11
9.1640631686
 21
16.8168130489
  0
LINE
  5
34F
100
AcDbEntity
  8
DRAFT
100
AcDbLine
 62
7
  6
CONTINUOUS
 10
9.1640631686
 20
16.8168130489
 11
8.6558204289
 21
16.4144104045
  0
LWPOLYLINE
  5
350
100
AcDbEntity
  8
DRAFT
100
AcDbPolyline
 62
7
  6
CONTINUOUS
 90
3
 70
0
 10
8.6558204289
 20
16.4144104045
 10
8.1424086789
 20
16.0083473634
 10
7.8837757785
 20
15.803909581
  0
LINE
  5
351
100
AcDbEntity
  8
DRAFT
100
AcDbLine
 62
7
  6
CONTINUOUS
 10
5.6347013898
 20
15.339430511
 11
4.5370547158
 21
14.4826592001
  0
LINE
  5
352
100
AcDbEntity
  8
DRAFT
100
AcDbLine
 62
7
  6
CONTINUOUS
 10
9.9261903097
 20
18.3633009532
 11
7.776637724
 21
16.6895912676
  0
LINE
  5
353
100
AcDbEntity
  8
DRAFT
100
AcDbLine
 62
7
  6
CONTINUOUS
 10
10.0942150797
 20
18.3545739181
 11
8.2371042942
 21
16.9086283567
  0
LINE
  5
354
100
AcDbEntity
  8
DRAFT
100
AcDbLine
 62
7
  6
CONTINUOUS
 10
7.8989901517
 20
16.061776521
 11
7.3651684243
 21
15.6484953223
  0
LWPOLYLINE
  5
355
100
AcDbEntity
  8
DRAFT
100
AcDbPolyline
 62
7
  6
CONTINUOUS
 90
4
 70
0
 10
8.9554401599
 20
16.8785161463
 10
8.6927210347
 20
16.6755630497
 10
8.4290806744
 20
16.4717720504
 10
7.8989901517
 20
16.061776521
  0
LWPOLYLINE
  5
356
100
AcDbEntity
  8
DRAFT
100
AcDbPolyline
 62
7
  6
CONTINUOUS
 90
3
 70
0
 10
9.7380595572
 20
17.4824394118
 10
9.4781154883
 20
17.281933785
 10
8.9554401599
 20
16.8785161463
  0
LWPOLYLINE
  5
357
100
AcDbEntity
  8
DRAFT
100
AcDbPolyline
 62
7
  6
CONTINUOUS
 90
17
 70
0
 10
7.7921427337
 20
15.6118946903
 10
7.7780703599
 20
15.6012458532
 10
7.7569556376
 20
15.5882307832
 10
7.7342079764
 20
15.5773714586
 10
7.7102025571
 20
15.5688373699
 10
7.6849214139
 20
15.5626673189
 10
7.6583825127
 20
15.5588225038
 10
7.6310149317
 20
15.5573560089
 10
7.6028134004
 20
15.5583023777
 10
7.5737831894
 20
15.5616270668
 10
7.5443691883
 20
15.5672795305
 10
7.5145547656
 20
15.5752977784
 10
7.4843565528
 20
15.585643801
 10
7.4542693338
 20
15.5981530241
 10
7.4244580368
 20
15.6127705897
 10
7.3947577336
 20
15.6295513557
 10
7.3651684243
 20
15.6484953223
  0
LINE
  5
358
100
AcDbEntity
  8
0
100
AcDbLine
 62
7
  6
CONTINUOUS
 10
12.5618245667
 20
17.4899055977
 11
12.2028170452
 21
17.2839873428
  0
LINE
  5
359
100
AcDbEntity
  8
0
100
AcDbLine
 62
7
  6
CONTINUOUS
 10
-6.2281039513
 20
24.6862607304
 11
-6.2281039513
 21
23.8442313227
  0
LINE
  5
35A
100
AcDbEntity
  8
ASSI
100
AcDbLine
 62
7
  6
CONTINUOUS
 10
-6.2281039513
 20
24.6862607304
 11
-6.2281039513
 21
23.8442313227
  0
LWPOLYLINE
  5
35B
100
AcDbEntity
  8
0
100
AcDbPolyline
 62
7
  6
CONTINUOUS
 90
22
 70
0
 10
-3.2502696321
 20
20.3718272217
 10
-3.2548529142
 20
20.3294443599
 10
-3.2548767289
 20
20.2859633588
 10
-3.250341076
 20
20.2413842183
 10
-3.2410919985
 20
20.1951795399
 10
-3.2272834535
 20
20.1478767222
 10
-3.2093773124
 20
20.1010579607
 10
-3.1872349724
 20
20.0547396286
 10
-3.1609950363
 20
20.0089053527
 10
-3.1315351835
 20
19.9650882083
 10
-3.098746499
 20
19.9233564255
 10
-3.0627378979
 20
19.8836417743
 10
-3.0247138039
 20
19.8472726392
 10
-2.9846060423
 20
19.8143621837
 10
-2.9424827879
 20
19.7847972444
 10
-2.899752989
 20
19.7595667162
 10
-2.8563961289
 20
19.7388172121
 10
-2.8124327243
 20
19.7224021191
 10
-2.7693332731
 20
19.710870493
 10
-2.7275879414
 20
19.7044053524
 10
-2.6867065632
 20
19.7028236786
 10
-2.6466891384
 20
19.7061254717
  0
LWPOLYLINE
  5
35C
100
AcDbEntity
  8
ASSI
100
AcDbPolyline
 62
7
  6
CONTINUOUS
 90
22
 70
0
 10
-3.2502696321
 20
20.3718272217
 10
-3.2548529142
 20
20.3294443599
 10
-3.2548767289
 20
20.2859633588
 10
-3.250341076
 20
20.2413842183
 10
-3.2410919985
 20
20.1951795399
 10
-3.2272834535
 20
20.1478767222
 10
-3.2093773124
 20
20.1010579607
 10
-3.1872349724
 20
20.0547396286
 10
-3.1609950363
 20
20.0089053527
 10
-3.1315351835
 20
19.9650882083
 10
-3.098746499
 20
19.9233564255
 10
-3.0627378979
 20
19.8836417743
 10
-3.0247138039
 20
19.8472726392
 10
-2.9846060423
 20
19.8143621837
 10
-2.9424827879
 20
19.7847972444
 10
-2.899752989
 20
19.7595667162
 10
-2.8563961289
 20
19.7388172121
 10
-2.8124327243
 20
19.7224021191
 10
-2.7693332731
 20
19.710870493
 10
-2.7275879414
 20
19.7044053524
 10
-2.6867065632
 20
19.7028236786
 10
-2.6466891384
 20
19.7061254717
  0
LWPOLYLINE
  5
35D
100
AcDbEntity
  8
RACCORDO
100
AcDbPolyline
 62
250
  6
CONTINUOUS
 90
10
 70
0
 10
-3.0534060068
 20
18.817738113
 10
-3.0497556753
 20
18.8462254821
 10
-3.0433243333
 20
18.8758437164
 10
-3.0342742679
 20
18.9058454363
 10
-3.0228338463
 20
18.9354735855
 10
-3.0092917533
 20
18.9639805342
 10
-2.9939897071
 20
18.9906469449
 10
-2.9773138361
 20
19.0147999236
 10
-2.9596849351
 20
19.0358299996
 10
-2.9415478477
 20
19.053206505
  0
LINE
  5
35E
100
AcDbEntity
  8
0
100
AcDbLine
 62
7
  6
CONTINUOUS
 10
5.4189582724
 20
21.5884351717
 11
5.3970900069
 21
21.5507982531
  0
LINE
  5
35F
100
AcDbEntity
  8
0
100
AcDbLine
 62
7
  6
CONTINUOUS
 10
6.8666256694
 20
21.734847911
 11
6.8884939349
 21
21.7724848296
  0
LWPOLYLINE
  5
360
100
AcDbEntity
  8
RACCORDO
100
AcDbPolyline
 62
250
  6
CONTINUOUS
 90
10
 70
0
 10
6.394133583
 20
15.1892314449
 10
6.3788696458
 20
15.1720231715
 10
6.3666509279
 20
15.1508625269
 10
6.3577966227
 20
15.1263022981
 10
6.3525380338
 20
15.0989840808
 10
6.3510125329
 20
15.0696215184
 10
6.3532599716
 20
15.0389816597
 10
6.3592216399
 20
15.007864921
 10
6.3687418006
 20
14.9770841767
 10
6.3815717573
 20
14.9474435241
  0
LWPOLYLINE
  5
361
100
AcDbEntity
  8
RACCORDO
100
AcDbPolyline
 62
250
  6
CONTINUOUS
 90
10
 70
0
 10
6.6433552005
 20
15.1737300507
 10
6.6257259304
 20
15.1559991883
 10
6.6086643324
 20
15.1348824951
 10
6.5925802311
 20
15.1108872005
 10
6.5778599717
 20
15.084589679
 10
6.564857139
 20
15.0566216049
 10
6.5538840648
 20
15.0276547795
 10
6.5452043257
 20
14.9983849946
 10
6.5390264116
 20
14.9695153193
 10
6.5354987178
 20
14.9417392118
  0
LWPOLYLINE
  5
362
100
AcDbEntity
  8
RACCORDO
100
AcDbPolyline
 62
250
  6
CONTINUOUS
 90
6
 70
0
 10
13.7587935456
 20
22.0848025826
 10
13.791417368
 20
22.1168355263
 10
13.8165590528
 20
22.1510158838
 10
13.8337979462
 20
22.1867717021
 10
13.8428456375
 20
22.2235046862
 10
13.8442747574
 20
22.2451473472
  0
LWPOLYLINE
  5
363
100
AcDbEntity
  8
ASSI
100
AcDbPolyline
 62
250
  6
CONTINUOUS
 90
6
 70
0
 10
13.7587935456
 20
22.0848025826
 10
13.791417368
 20
22.1168355263
 10
13.8165590528
 20
22.1510158838
 10
13.8337979462
 20
22.1867717021
 10
13.8428456375
 20
22.2235046862
 10
13.8442747181
 20
22.2450560388
  0
LINE
  5
364
100
AcDbEntity
  8
RACCORDO
100
AcDbLine
 62
250
  6
CONTINUOUS
 10
13.8442747593
 20
20.70076926
 11
14.3036532044
 21
21.122439247
  0
LINE
  5
365
100
AcDbEntity
  8
ASSI
100
AcDbLine
 62
250
  6
CONTINUOUS
 10
13.8442747593
 20
20.70076926
 11
14.3036532044
 21
21.122439247
  0
LINE
  5
366
100
AcDbEntity
  8
RACCORDO
100
AcDbLine
 62
7
  6
CONTINUOUS
 10
8.9107182297
 20
14.8488366406
 11
8.4473634386
 21
14.4491996718
  0
LWPOLYLINE
  5
367
100
AcDbEntity
  8
RACCORDO
100
AcDbPolyline
 62
7
  6
CONTINUOUS
 90
8
 70
0
 10
5.7903709242
 20
14.2584046626
 10
5.7820937076
 20
14.2514593495
 10
5.7475078609
 20
14.2183170038
 10
5.7163818933
 20
14.1812607018
 10
5.689105795
 20
14.1404926051
 10
5.6656634123
 20
14.0952994964
 10
5.6466858661
 20
14.0454154901
 10
5.6378831927
 20
14.0102845946
  0
LINE
  5
368
100
AcDbEntity
  8
ASSI
100
AcDbLine
 62
7
  6
CONTINUOUS
 10
6.1009264456
 20
14.5127969137
 11
5.79025816
 21
14.2583123525
  0
LINE
  5
369
100
AcDbEntity
  8
ASSI
100
AcDbLine
 62
7
  6
CONTINUOUS
 10
6.6903325454
 20
13.7029345776
 11
6.595853703
 21
13.6255420407
  0
LINE
  5
36A
100
AcDbEntity
  8
RACCORDO
100
AcDbLine
 62
250
  6
CONTINUOUS
 10
5.7903709242
 20
14.2584046626
 11
5.7902586002
 21
14.2583127131
  0
LINE
  5
36B
100
AcDbEntity
  8
DRAFT
100
AcDbLine
 62
7
  6
CONTINUOUS
 10
12.2028170452
 20
16.3829200941
 11
8.2501492032
 21
13.166308802
  0
LINE
  5
36C
100
AcDbEntity
  8
DRAFT
100
AcDbLine
 62
7
  6
CONTINUOUS
 10
10.7377577921
 20
17.7597603558
 11
8.426707013
 21
15.9442937058
  0
LINE
  5
36D
100
AcDbEntity
  8
DRAFT
100
AcDbLine
 62
7
  6
CONTINUOUS
 10
11.2622173836
 20
15.6936747404
 11
12.2028170452
 21
16.4248029616
  0
LINE
  5
36E
100
AcDbEntity
  8
DRAFT
100
AcDbLine
 62
7
  6
CONTINUOUS
 10
11.2622173836
 20
17.5491255602
 11
8.9107182297
 21
15.7499038893
  0
LWPOLYLINE
  5
36F
100
AcDbEntity
  8
SMUSSO
100
AcDbPolyline
 62
7
  6
CONTINUOUS
 90
10
 70
0
 10
-5.0084889092
 20
27.0407960942
 10
-5.0063299577
 20
26.9801028919
 10
-4.9956509572
 20
26.8929108825
 10
-4.9760519731
 20
26.8060677585
 10
-4.9475907553
 20
26.7199042156
 10
-4.9103956074
 20
26.6347855579
 10
-4.8646291473
 20
26.5510309823
 10
-4.8104460436
 20
26.4688832049
 10
-4.7480260372
 20
26.3885826562
 10
-4.677591831
 20
26.3104007701
  0
LWPOLYLINE
  5
370
100
AcDbEntity
  8
ASSI
100
AcDbPolyline
 62
7
  6
CONTINUOUS
 90
9
 70
0
 10
-5.0084889092
 20
27.0407960942
 10
-5.0063299577
 20
26.9801028919
 10
-4.9956509572
 20
26.8929108825
 10
-4.9760519731
 20
26.8060677585
 10
-4.9475907553
 20
26.7199042156
 10
-4.9103956074
 20
26.6347855579
 10
-4.8646291473
 20
26.5510309823
 10
-4.8104460436
 20
26.4688832049
 10
-4.7480260372
 20
26.3885826562
  0
LWPOLYLINE
  5
371
100
AcDbEntity
  8
RACCORDO
100
AcDbPolyline
 62
250
  6
CONTINUOUS
 90
9
 70
0
 10
-2.8601942267
 20
22.0089078062
 10
-2.8602694856
 20
22.0133102381
 10
-2.8637606041
 20
22.0376230051
 10
-2.8702650516
 20
22.0609372535
 10
-2.8796671651
 20
22.0828462271
 10
-2.8918156483
 20
22.1030027796
 10
-2.9064997878
 20
22.1210595645
 10
-2.9234682206
 20
22.1367155492
 10
-2.93880858
 20
22.1475324225
  0
LINE
  5
372
100
AcDbEntity
  8
SMUSSO
100
AcDbLine
 62
250
  6
CONTINUOUS
 10
-4.5468903555
 20
27.8852786858
 11
-4.5468903555
 21
26.8423587722
  0
LINE
  5
373
100
AcDbEntity
  8
ASSI
100
AcDbLine
 62
250
  6
CONTINUOUS
 10
-4.5468903555
 20
27.8852786858
 11
-4.5468903555
 21
26.8423587722
  0
LINE
  5
374
100
AcDbEntity
  8
0
100
AcDbLine
 62
7
  6
CONTINUOUS
 10
-4.0584502986
 20
20.1394623091
 11
-4.0584502986
 21
20.0575471046
  0
LINE
  5
375
100
AcDbEntity
  8
ASSI
100
AcDbLine
 62
7
  6
CONTINUOUS
 10
-4.0584502986
 20
20.1394623091
 11
-4.0584502986
 21
20.0575471046
  0
LINE
  5
376
100
AcDbEntity
  8
DRAFT
100
AcDbLine
 62
7
  6
CONTINUOUS
 10
-3.6348979712
 20
27.5478783399
 11
-3.6348979712
 21
26.7321766053
  0
LINE
  5
377
100
AcDbEntity
  8
ASSI
100
AcDbLine
 62
7
  6
CONTINUOUS
 10
-3.6348979712
 20
27.5478783399
 11
-3.6348979712
 21
26.7321766053
  0
LINE
  5
378
100
AcDbEntity
  8
DRAFT
100
AcDbLine
 62
7
  6
CONTINUOUS
 10
-3.0310309037
 20
26.9588652474
 11
-3.0310309037
 21
26.7932708581
  0
LINE
  5
379
100
AcDbEntity
  8
ASSI
100
AcDbLine
 62
7
  6
CONTINUOUS
 10
-3.0310309037
 20
26.9588652474
 11
-3.0310309037
 21
26.7932708581
  0
LINE
  5
37A
100
AcDbEntity
  8
0
100
AcDbLine
 62
7
  6
CONTINUOUS
 10
-2.8557274176
 20
26.0974389641
 11
-2.8557274176
 21
25.6621542025
  0
LINE
  5
37B
100
AcDbEntity
  8
0
100
AcDbLine
 62
7
  6
CONTINUOUS
 10
-2.2910751698
 20
25.9895035547
 11
-2.2910751698
 21
25.6309730839
  0
LINE
  5
37C
100
AcDbEntity
  8
0
100
AcDbLine
 62
7
  6
CONTINUOUS
 10
-2.2368938395
 20
26.014162818
 11
-2.2368938395
 21
25.6303432371
  0
LWPOLYLINE
  5
37D
100
AcDbEntity
  8
RACCORDO
100
AcDbPolyline
 62
250
  6
CONTINUOUS
 90
17
 70
0
 10
-2.8987252121
 20
17.4387789832
 10
-2.8974000555
 20
17.4634835523
 10
-2.8997859385
 20
17.5100110923
 10
-2.9069243281
 20
17.5579481207
 10
-2.9187362351
 20
17.6067664704
 10
-2.9350907779
 20
17.6559290118
 10
-2.9558084031
 20
17.7048984225
 10
-2.9806629838
 20
17.7531405299
 10
-3.0093846491
 20
17.8001299593
 10
-3.0416566673
 20
17.8453477018
 10
-3.0771184162
 20
17.8882906213
 10
-3.1153773395
 20
17.9284873119
 10
-3.1560149567
 20
17.9655011506
 10
-3.1985846707
 20
17.9989277595
 10
-3.2426193044
 20
18.0284030361
 10
-3.2876363569
 20
18.0536069206
 10
-3.3331429043
 20
18.0742661157
  0
LINE
  5
37E
100
AcDbEntity
  8
RACCORDO
100
AcDbLine
 62
7
  6
CONTINUOUS
 10
3.7719056391
 20
21.8254534482
 11
3.7604681244
 21
21.789461428
  0
LINE
  5
37F
100
AcDbEntity
  8
ASSI
100
AcDbLine
 62
7
  6
CONTINUOUS
 10
13.9726905587
 20
18.3791053642
 11
13.8726853523
 21
18.2743697815
  0
LWPOLYLINE
  5
380
100
AcDbEntity
  8
RACCORDO
100
AcDbPolyline
 62
250
  6
CONTINUOUS
 90
3
 70
0
 10
13.9452894388
 20
18.3489275641
 10
13.8861900065
 20
18.2872914135
 10
13.8746742928
 20
18.2762477562
  0
LWPOLYLINE
  5
381
100
AcDbEntity
  8
ASSI
100
AcDbPolyline
 62
250
  6
CONTINUOUS
 90
3
 70
0
 10
13.9452894388
 20
18.3489275641
 10
13.8861900065
 20
18.2872914135
 10
13.8746742928
 20
18.2762477562
  0
LINE
  5
382
100
AcDbEntity
  8
RACCORDO
100
AcDbLine
 62
250
  6
CONTINUOUS
 10
13.8746742928
 20
18.2762477562
 11
13.8734818148
 21
18.2751207813
  0
LINE
  5
383
100
AcDbEntity
  8
DRAFT
100
AcDbLine
 62
7
  6
CONTINUOUS
 10
13.8442747593
 20
18.2475294807
 11
13.8738950039
 21
18.2755109252
  0
LINE
  5
384
100
AcDbEntity
  8
ASSI
100
AcDbLine
 62
7
  6
CONTINUOUS
 10
13.8442747593
 20
18.2475294807
 11
13.8738950039
 21
18.2755109252
  0
LINE
  5
385
100
AcDbEntity
  8
RACCORDO
100
AcDbLine
 62
250
  6
CONTINUOUS
 10
13.8442747593
 20
18.980549967
 11
14.3036532044
 21
19.402219954
  0
LINE
  5
386
100
AcDbEntity
  8
ASSI
100
AcDbLine
 62
250
  6
CONTINUOUS
 10
13.8442747593
 20
18.980549967
 11
14.3036532044
 21
19.402219954
  0
LWPOLYLINE
  5
387
100
AcDbEntity
  8
RACCORDO
100
AcDbPolyline
 62
250
  6
CONTINUOUS
 90
13
 70
0
 10
18.336348672
 20
-9.9658345689
 10
18.3584471936
 20
-9.9733396988
 10
18.3820813919
 20
-9.978824188
 10
18.4068557372
 20
-9.9821962509
 10
18.4323556187
 20
-9.9833994545
 10
18.4581542833
 20
-9.9824136625
 10
18.4838199778
 20
-9.9792553727
 10
18.5089231743
 20
-9.9739774406
 10
18.5330437584
 20
-9.9666681949
 10
18.5557780605
 20
-9.9574499596
 10
18.5767456109
 20
-9.9464770062
 10
18.5955955074
 20
-9.9339329725
 10
18.6120122878
 20
-9.9200277891
  0
LWPOLYLINE
  5
388
100
AcDbEntity
  8
RACCORDO
100
AcDbPolyline
 62
250
  6
CONTINUOUS
 90
13
 70
0
 10
18.336348672
 20
-9.7661755253
 10
18.3584471933
 20
-9.7741041041
 10
18.3820813915
 20
-9.7806732339
 10
18.4068557366
 20
-9.7857729772
 10
18.4323556179
 20
-9.7893179873
 10
18.4581542824
 20
-9.7912489368
 10
18.4838199769
 20
-9.7915335102
 10
18.5089231734
 20
-9.790166945
 10
18.5330437576
 20
-9.7871721115
 10
18.5557780599
 20
-9.7825991295
 10
18.5767456104
 20
-9.7765245303
 10
18.5955955072
 20
-9.7690499751
 10
18.6120122878
 20
-9.7603005543
  0
LINE
  5
389
100
AcDbEntity
  8
RACCORDO
100
AcDbLine
 62
250
  6
CONTINUOUS
 10
18.336348672
 20
-9.9658345689
 11
18.2313819706
 21
-9.9236775752
  0
LINE
  5
38A
100
AcDbEntity
  8
RACCORDO
100
AcDbLine
 62
250
  6
CONTINUOUS
 10
18.336348672
 20
-9.7661755253
 11
18.2427620682
 21
-9.7285890354
  0
LWPOLYLINE
  5
38B
100
AcDbEntity
  8
RACCORDO
100
AcDbPolyline
 62
250
  6
CONTINUOUS
 90
10
 70
0
 10
19.2550029076
 20
-22.8941172665
 10
19.2790364923
 20
-22.9162857115
 10
19.3054860073
 20
-22.9348118679
 10
19.3336400167
 20
-22.9491974211
 10
19.362741237
 20
-22.95905543
 10
19.392006907
 20
-22.9641207348
 10
19.420649842
 20
-22.9642570894
 10
19.4478996077
 20
-22.9594608259
 10
19.4730232428
 20
-22.9498609538
 10
19.4953449747
 20
-22.9357156891
  0
LWPOLYLINE
  5
38C
100
AcDbEntity
  8
RACCORDO
100
AcDbPolyline
 62
250
  6
CONTINUOUS
 90
10
 70
0
 10
-12.0240903365
 20
22.3655670922
 10
-12.0368250308
 20
22.3952408275
 10
-12.0462536856
 20
22.4260539356
 10
-12.0521300707
 20
22.4572017298
 10
-12.0543007239
 20
22.487870783
 10
-12.0527089584
 20
22.5172601703
 10
-12.0473963433
 20
22.5446023857
 10
-12.038501618
 20
22.5691833849
 10
-12.0262570689
 20
22.5903612332
 10
-12.0109824634
 20
22.6075828695
  0
LWPOLYLINE
  5
38D
100
AcDbEntity
  8
0
100
AcDbPolyline
 62
7
  6
CONTINUOUS
 90
19
 70
0
 10
-0.9612283053
 20
22.187779793
 10
-0.9586814515
 20
22.1424028508
 10
-0.9517538849
 20
22.0967134845
 10
-0.9404456057
 20
22.050711694
 10
-0.9245264594
 20
22.0038662153
 10
-0.9042266003
 20
21.9567083125
 10
-0.880236492
 20
21.9108317775
 10
-0.8524381103
 20
21.8662923847
 10
-0.8209494794
 20
21.8230343596
 10
-0.7868151348
 20
21.7824841717
 10
-0.749947174
 20
21.7447283993
 10
-0.7104334996
 20
21.709680464
 10
-0.6695823555
 20
21.6785070996
 10
-0.6273404994
 20
21.6513343645
 10
-0.5837611736
 20
21.6280362003
 10
-0.5403123493
 20
21.6094011661
 10
-0.4974833503
 20
21.5956921149
 10
-0.4547848528
 20
21.5866461937
 10
-0.4122168569
 20
21.5822634024
  0
LWPOLYLINE
  5
38E
100
AcDbEntity
  8
ASSI
100
AcDbPolyline
 62
7
  6
CONTINUOUS
 90
19
 70
0
 10
-0.9612283053
 20
22.187779793
 10
-0.9586814515
 20
22.1424028508
 10
-0.9517538849
 20
22.0967134845
 10
-0.9404456057
 20
22.050711694
 10
-0.9245264594
 20
22.0038662153
 10
-0.9042266003
 20
21.9567083125
 10
-0.880236492
 20
21.9108317775
 10
-0.8524381103
 20
21.8662923847
 10
-0.8209494794
 20
21.8230343596
 10
-0.7868151348
 20
21.7824841717
 10
-0.749947174
 20
21.7447283993
 10
-0.7104334996
 20
21.709680464
 10
-0.6695823555
 20
21.6785070996
 10
-0.6273404994
 20
21.6513343645
 10
-0.5837611736
 20
21.6280362003
 10
-0.5403123493
 20
21.6094011661
 10
-0.4974833503
 20
21.5956921149
 10
-0.4547848528
 20
21.5866461937
 10
-0.4122168569
 20
21.5822634024
  0
LINE
  5
38F
100
AcDbEntity
  8
SMUSSO
100
AcDbLine
 62
7
  6
CONTINUOUS
 10
-1.1912218501
 20
30.6530216788
 11
-1.1912218501
 21
29.4383122407
  0
LINE
  5
390
100
AcDbEntity
  8
ASSI
100
AcDbLine
 62
7
  6
CONTINUOUS
 10
-1.1912218501
 20
30.6530216788
 11
-1.1912218501
 21
29.4383122407
  0
LINE
  5
391
100
AcDbEntity
  8
0
100
AcDbLine
 62
7
  6
CONTINUOUS
 10
-1.1493612768
 20
22.6465231747
 11
-1.1493612768
 21
22.4013820027
  0
LINE
  5
392
100
AcDbEntity
  8
ASSI
100
AcDbLine
 62
7
  6
CONTINUOUS
 10
-1.1493612768
 20
22.6465231747
 11
-1.1493612768
 21
22.4013820027
  0
LWPOLYLINE
  5
393
100
AcDbEntity
  8
RACCORDO
100
AcDbPolyline
 62
250
  6
CONTINUOUS
 90
12
 70
0
 10
3.409282648
 20
21.4542283027
 10
3.4183703504
 20
21.4931281896
 10
3.4248916978
 20
21.5294464388
 10
3.4282278704
 20
21.5634982662
 10
3.4276042192
 20
21.5959255868
 10
3.423389891
 20
21.6265204695
 10
3.4167831435
 20
21.6545080815
 10
3.4084004091
 20
21.6793213185
 10
3.3970030434
 20
21.7009260818
 10
3.381559531
 20
21.7197970071
 10
3.3625105244
 20
21.7359218166
 10
3.3394798527
 20
21.7496616054
  0
LWPOLYLINE
  5
394
100
AcDbEntity
  8
ASSI
100
AcDbPolyline
 62
250
  6
CONTINUOUS
 90
12
 70
0
 10
3.409282648
 20
21.4542283027
 10
3.4183703504
 20
21.4931281896
 10
3.4248916978
 20
21.5294464388
 10
3.4282278704
 20
21.5634982662
 10
3.4276042192
 20
21.5959255868
 10
3.423389891
 20
21.6265204695
 10
3.4167831435
 20
21.6545080815
 10
3.4084004091
 20
21.6793213185
 10
3.3970030434
 20
21.7009260818
 10
3.381559531
 20
21.7197970071
 10
3.3625105244
 20
21.7359218166
 10
3.3394798504
 20
21.7496616066
  0
LINE
  5
395
100
AcDbEntity
  8
ASSI
100
AcDbLine
 62
7
  6
CONTINUOUS
 10
14.083824049
 20
18.5271407097
 11
13.9726905587
 21
18.3791053642
  0
LINE
  5
396
100
AcDbEntity
  8
RACCORDO
100
AcDbLine
 62
250
  6
CONTINUOUS
 10
13.9976450023
 20
18.411588944
 11
13.9452894388
 21
18.3489275641
  0
LINE
  5
397
100
AcDbEntity
  8
ASSI
100
AcDbLine
 62
250
  6
CONTINUOUS
 10
13.9976450023
 20
18.411588944
 11
13.9452894388
 21
18.3489275641
  0
LWPOLYLINE
  5
398
100
AcDbEntity
  8
RACCORDO
100
AcDbPolyline
 62
7
  6
CONTINUOUS
 90
3
 70
0
 10
13.994319789
 20
18.4049027156
 10
13.9048561485
 20
18.3056988109
 10
13.8734817134
 20
18.2751206856
  0
LINE
  5
399
100
AcDbEntity
  8
RACCORDO
100
AcDbLine
 62
7
  6
CONTINUOUS
 10
14.1496024481
 20
12.7447826307
 11
13.7087871844
 21
12.3360932795
  0
LINE
  5
39A
100
AcDbEntity
  8
DRAFT
100
AcDbLine
 62
7
  6
CONTINUOUS
 10
16.386714785
 20
15.4910118747
 11
14.1496024481
 21
13.6458498794
  0
LINE
  5
39B
100
AcDbEntity
  8
DRAFT
100
AcDbLine
 62
7
  6
CONTINUOUS
 10
16.9111743765
 20
15.2803770791
 11
14.6336136648
 21
13.451460063
  0
LWPOLYLINE
  5
39C
100
AcDbEntity
  8
DRAFT
100
AcDbPolyline
 62
7
  6
CONTINUOUS
 90
10
 70
0
 10
17.4845709324
 20
14.6702306164
 10
17.2316776586
 20
14.4752563321
 10
16.9779146608
 20
14.2791478767
 10
16.7232716574
 20
14.08190189
 10
16.4677328844
 20
13.8834946337
 10
16.2112929484
 20
13.6839448608
 10
15.9539597557
 20
13.4833131182
 10
15.6957319984
 20
13.2816180766
 10
15.4365962616
 20
13.0788371866
 10
15.1765448993
 20
12.8749690905
  0
LWPOLYLINE
  5
39D
100
AcDbEntity
  8
RACCORDO
100
AcDbPolyline
 62
7
  6
CONTINUOUS
 90
12
 70
0
 10
-1.2099416292
 20
26.7058411726
 10
-1.2111242784
 20
26.7180116031
 10
-1.2130760673
 20
26.7293160572
 10
-1.2157969956
 20
26.7397545348
 10
-1.2193258335
 20
26.7494308426
 10
-1.223623811
 20
26.758241174
 10
-1.2285746181
 20
26.7658741087
 10
-1.2341771075
 20
26.7722505924
 10
-1.2404324266
 20
26.7774496796
 10
-1.2472277075
 20
26.7813971134
 10
-1.2545596838
 20
26.7840871963
 10
-1.2558759472
 20
26.7844248115
  0
LINE
  5
39E
100
AcDbEntity
  8
RACCORDO
100
AcDbLine
 62
7
  6
CONTINUOUS
 10
-1.1680501839
 20
26.0705562393
 11
-1.2099416292
 21
26.7058411726
  0
LWPOLYLINE
  5
39F
100
AcDbEntity
  8
RACCORDO
100
AcDbPolyline
 62
250
  6
CONTINUOUS
 90
7
 70
0
 10
4.1932726509
 20
28.3484687842
 10
4.1918433229
 20
28.3267993954
 10
4.1852670981
 20
28.297354582
 10
4.1734194938
 20
28.268457422
 10
4.1564274488
 20
28.2404175282
 10
4.1344730211
 20
28.2135353287
 10
4.1077914372
 20
28.1880988477
  0
LWPOLYLINE
  5
3A0
100
AcDbEntity
  8
ASSI
100
AcDbPolyline
 62
250
  6
CONTINUOUS
 90
7
 70
0
 10
4.1932726509
 20
28.3484687842
 10
4.1918433229
 20
28.3267993954
 10
4.1852670981
 20
28.297354582
 10
4.1734194938
 20
28.268457422
 10
4.1564274488
 20
28.2404175282
 10
4.1344730211
 20
28.2135353287
 10
4.1077914372
 20
28.1880988477
  0
LWPOLYLINE
  5
3A1
100
AcDbEntity
  8
RACCORDO
100
AcDbPolyline
 62
250
  6
CONTINUOUS
 90
3
 70
0
 10
4.1932726509
 20
27.9351165749
 10
4.1918433444
 20
27.9134473381
 10
4.1827954344
 20
27.8767146392
  0
LWPOLYLINE
  5
3A2
100
AcDbEntity
  8
ASSI
100
AcDbPolyline
 62
250
  6
CONTINUOUS
 90
6
 70
0
 10
4.1932725229
 20
27.9349113455
 10
4.1918433444
 20
27.9134473381
 10
4.1827954344
 20
27.8767146392
 10
4.1655564748
 20
27.8409591574
 10
4.140414915
 20
27.8067791784
 10
4.1077914372
 20
27.7747466279
  0
LWPOLYLINE
  5
3A3
100
AcDbEntity
  8
RACCORDO
100
AcDbPolyline
 62
250
  6
CONTINUOUS
 90
22
 70
0
 10
3.9163244119
 20
21.7170947573
 10
3.9197600175
 20
21.7568698791
 10
3.9310047252
 20
21.8212486769
 10
3.9478401626
 20
21.8850569501
 10
3.9703097194
 20
21.9482903112
 10
3.9983700058
 20
22.0109531475
 10
4.0318043862
 20
22.0725661838
 10
4.0706505766
 20
22.1331180386
 10
4.1148708608
 20
22.1926200933
 10
4.1641354545
 20
22.2506272162
 10
4.2184814826
 20
22.3071298099
 10
4.2778718202
 20
22.3621374718
 10
4.3418653084
 20
22.4152338633
 10
4.4105098399
 20
22.4664114064
 10
4.483757522
 20
22.5156776792
 10
4.5610235179
 20
22.562639077
 10
4.6423516855
 20
22.607276723
 10
4.7276981669
 20
22.649609494
 10
4.8163465516
 20
22.6893004162
 10
4.9082664309
 20
22.7263098421
 10
5.0034882135
 20
22.7606774191
 10
5.1013867153
 20
22.7921851151
  0
LINE
  5
3A4
100
AcDbEntity
  8
0
100
AcDbLine
 62
7
  6
CONTINUOUS
 10
6.7688888454
 20
21.7053580317
 11
6.6824525027
 21
21.3869633843
  0
LINE
  5
3A5
100
AcDbEntity
  8
RACCORDO
100
AcDbLine
 62
250
  6
CONTINUOUS
 10
14.0441632236
 20
18.4751614628
 11
13.9976450023
 21
18.411588944
  0
LINE
  5
3A6
100
AcDbEntity
  8
ASSI
100
AcDbLine
 62
250
  6
CONTINUOUS
 10
14.0441632236
 20
18.4751614628
 11
13.9976450023
 21
18.411588944
  0
LINE
  5
3A7
100
AcDbEntity
  8
RACCORDO
100
AcDbLine
 62
250
  6
CONTINUOUS
 10
15.7613041216
 20
11.4271851998
 11
16.1872817458
 21
11.8427586626
  0
LINE
  5
3A8
100
AcDbEntity
  8
RACCORDO
100
AcDbLine
 62
250
  6
CONTINUOUS
 10
15.5127954224
 20
11.6115629007
 11
15.9390212206
 21
12.0261117101
  0
LWPOLYLINE
  5
3A9
100
AcDbEntity
  8
DRAFT
100
AcDbPolyline
 62
7
  6
CONTINUOUS
 90
10
 70
0
 10
17.9108726114
 20
14.2000534375
 10
17.6699044998
 20
13.9919266385
 10
17.4276213714
 20
13.7831567912
 10
17.184019687
 20
13.5737330993
 10
16.9390750184
 20
13.3636413801
 10
16.6928063247
 20
13.1528735279
 10
16.4452754047
 20
12.9414306505
 10
16.1965012911
 20
12.7293089844
 10
15.9464607604
 20
12.5164967985
 10
15.6951522534
 20
12.3029860214
  0
LWPOLYLINE
  5
3AA
100
AcDbEntity
  8
RACCORDO
100
AcDbPolyline
 62
250
  6
CONTINUOUS
 90
10
 70
0
 10
15.5501332897
 20
11.2651425116
 10
15.5695106072
 20
11.2818487846
 10
15.5913563873
 20
11.3000336956
 10
15.6150998807
 20
11.3192221401
 10
15.6401207578
 20
11.3389127952
 10
15.6657653158
 20
11.3585912168
 10
15.6913635574
 20
11.3777432808
 10
15.7162466953
 20
11.3958686145
 10
15.7397646253
 20
11.4124936701
 10
15.7613029108
 20
11.4271840965
  0
LWPOLYLINE
  5
3AB
100
AcDbEntity
  8
RACCORDO
100
AcDbPolyline
 62
7
  6
CONTINUOUS
 90
8
 70
0
 10
14.8010434114
 20
10.6395154509
 10
14.7927661948
 20
10.6325701378
 10
14.7581803481
 20
10.5994277921
 10
14.7270543804
 20
10.5623714901
 10
14.6997782822
 20
10.5216033933
 10
14.6763358995
 20
10.4764102847
 10
14.6573583533
 20
10.4265262784
 10
14.6485556798
 20
10.3913953828
  0
LINE
  5
3AC
100
AcDbEntity
  8
ASSI
100
AcDbLine
 62
7
  6
CONTINUOUS
 10
15.1115989328
 20
10.893907702
 11
14.8009306472
 21
10.6394231408
  0
LINE
  5
3AD
100
AcDbEntity
  8
ASSI
100
AcDbLine
 62
7
  6
CONTINUOUS
 10
15.7010050326
 20
10.0840453659
 11
15.6065261901
 21
10.006652829
  0
LINE
  5
3AE
100
AcDbEntity
  8
RACCORDO
100
AcDbLine
 62
250
  6
CONTINUOUS
 10
14.8010434114
 20
10.6395154509
 11
14.8009310874
 21
10.6394235014
  0
LWPOLYLINE
  5
3AF
100
AcDbEntity
  8
RACCORDO
100
AcDbPolyline
 62
250
  6
CONTINUOUS
 90
10
 70
0
 10
19.2550029074
 20
5.3696955345
 10
19.2790365161
 20
5.3797373801
 10
19.3054864336
 20
5.3914809314
 10
19.3336411636
 20
5.4046102898
 10
19.3627433507
 20
5.4187722786
 10
19.3920101529
 20
5.4335859438
 10
19.4206543004
 20
5.4486528012
 10
19.4479052725
 20
5.4635675559
 10
19.4730300246
 20
5.4779290048
 10
19.4953527069
 20
5.4913508282
  0
LWPOLYLINE
  5
3B0
100
AcDbEntity
  8
RACCORDO
100
AcDbPolyline
 62
250
  6
CONTINUOUS
 90
16
 70
0
 10
4.1077914372
 20
28.1880988477
 10
4.1060314238
 20
28.2322081805
 10
4.0997508909
 20
28.2775907953
 10
4.0890186227
 20
28.3237496632
 10
4.0739521587
 20
28.3701792542
 10
4.0547165061
 20
28.4163710728
 10
4.0315223333
 20
28.4618192279
 10
4.0046236618
 20
28.5060259731
 10
3.9743150852
 20
28.5485071574
 10
3.9409285417
 20
28.5887975286
 10
3.9048296797
 20
28.6264558279
 10
3.8664138526
 20
28.6610696229
 10
3.8261017891
 20
28.6922598245
 10
3.7843349857
 20
28.7196848389
 10
3.7415708708
 20
28.7430443082
 10
3.6982777955
 20
28.7620824003
  0
LWPOLYLINE
  5
3B1
100
AcDbEntity
  8
ASSI
100
AcDbPolyline
 62
250
  6
CONTINUOUS
 90
5
 70
0
 10
4.1077914372
 20
28.1880988477
 10
4.1060314238
 20
28.2322081805
 10
4.0997508909
 20
28.2775907953
 10
4.0890186227
 20
28.3237496632
 10
4.0739521587
 20
28.3701792542
  0
LINE
  5
3B2
100
AcDbEntity
  8
ASSI
100
AcDbLine
 62
7
  6
CONTINUOUS
 10
4.1935124776
 20
27.9285344246
 11
4.1932725524
 21
27.9349113464
  0
LWPOLYLINE
  5
3B3
100
AcDbEntity
  8
SMUSSO
100
AcDbPolyline
 62
7
  6
CONTINUOUS
 90
10
 70
0
 10
3.1560037531
 20
22.7427593906
 10
3.1581627047
 20
22.6820661883
 10
3.1688417052
 20
22.5948741789
 10
3.1884406893
 20
22.5080310549
 10
3.216901907
 20
22.421867512
 10
3.254097055
 20
22.3367488544
 10
3.2998635151
 20
22.2529942788
 10
3.3540466188
 20
22.1708465014
 10
3.4164666252
 20
22.0905459526
 10
3.4869008314
 20
22.0123640665
  0
LWPOLYLINE
  5
3B4
100
AcDbEntity
  8
ASSI
100
AcDbPolyline
 62
7
  6
CONTINUOUS
 90
9
 70
0
 10
3.1560037531
 20
22.7427593906
 10
3.1581627047
 20
22.6820661883
 10
3.1688417052
 20
22.5948741789
 10
3.1884406893
 20
22.5080310549
 10
3.216901907
 20
22.421867512
 10
3.254097055
 20
22.3367488544
 10
3.2998635151
 20
22.2529942788
 10
3.3540466188
 20
22.1708465014
 10
3.4164666252
 20
22.0905459526
  0
LINE
  5
3B5
100
AcDbEntity
  8
RACCORDO
100
AcDbLine
 62
7
  6
CONTINUOUS
 10
4.1933330733
 20
27.933302775
 11
4.19327268
 21
27.9351353616
  0
LINE
  5
3B6
100
AcDbEntity
  8
SMUSSO
100
AcDbLine
 62
250
  6
CONTINUOUS
 10
3.6176023068
 20
23.5872419823
 11
3.6176023068
 21
22.8770209147
  0
LINE
  5
3B7
100
AcDbEntity
  8
ASSI
100
AcDbLine
 62
250
  6
CONTINUOUS
 10
3.6176023068
 20
23.5872419823
 11
3.6176023068
 21
22.8770209147
  0
LINE
  5
3B8
100
AcDbEntity
  8
RACCORDO
100
AcDbLine
 62
250
  6
CONTINUOUS
 10
4.1077914372
 20
28.1880988477
 11
4.1077914372
 21
27.7747466279
  0
LINE
  5
3B9
100
AcDbEntity
  8
ASSI
100
AcDbLine
 62
250
  6
CONTINUOUS
 10
4.1077914372
 20
28.1880988477
 11
4.1077914372
 21
27.7747466279
  0
LINE
  5
3BA
100
AcDbEntity
  8
RACCORDO
100
AcDbLine
 62
7
  6
CONTINUOUS
 10
4.1932726509
 20
28.3484687842
 11
4.1932726509
 21
27.9351165637
  0
LINE
  5
3BB
100
AcDbEntity
  8
DRAFT
100
AcDbLine
 62
7
  6
CONTINUOUS
 10
4.5540937595
 20
23.6014930224
 11
4.5540937595
 21
22.7856963256
  0
LINE
  5
3BC
100
AcDbEntity
  8
ASSI
100
AcDbLine
 62
7
  6
CONTINUOUS
 10
4.5540937595
 20
23.6014930224
 11
4.5540937595
 21
22.7856963256
  0
LINE
  5
3BD
100
AcDbEntity
  8
DRAFT
100
AcDbLine
 62
7
  6
CONTINUOUS
 10
5.1604895392
 20
23.0136430657
 11
5.1604895392
 21
22.8524096665
  0
LINE
  5
3BE
100
AcDbEntity
  8
ASSI
100
AcDbLine
 62
7
  6
CONTINUOUS
 10
5.1604895392
 20
23.0136430657
 11
5.1604895392
 21
22.8524096665
  0
LINE
  5
3BF
100
AcDbEntity
  8
0
100
AcDbLine
 62
7
  6
CONTINUOUS
 10
5.3970900069
 20
21.5507982531
 11
5.3970900069
 21
21.3550522279
  0
LINE
  5
3C0
100
AcDbEntity
  8
0
100
AcDbLine
 62
7
  6
CONTINUOUS
 10
5.4189582724
 20
21.5884351717
 11
5.4189582724
 21
21.3533736612
  0
LINE
  5
3C1
100
AcDbEntity
  8
0
100
AcDbLine
 62
7
  6
CONTINUOUS
 10
5.4505083126
 20
22.1847509041
 11
5.4505083126
 21
21.3509519399
  0
LINE
  5
3C2
100
AcDbEntity
  8
ASSI
100
AcDbLine
 62
7
  6
CONTINUOUS
 10
4.1932726509
 20
28.3484687842
 11
4.1932725229
 21
27.9349113455
  0
LWPOLYLINE
  5
3C3
100
AcDbEntity
  8
RACCORDO
100
AcDbPolyline
 62
250
  6
CONTINUOUS
 90
18
 70
0
 10
6.5133473986
 20
13.6586784326
 10
6.5144299872
 20
13.6650738627
 10
6.5166778184
 20
13.7069964695
 10
6.514435477
 20
13.7507227327
 10
6.5077275201
 20
13.7957733911
 10
6.4966278968
 20
13.8416530132
 10
6.4812590566
 20
13.8878576142
 10
6.461789658
 20
13.9338816967
 10
6.4384327035
 20
13.9792222063
 10
6.411443206
 20
14.0233836993
 10
6.3811177584
 20
14.0658805194
 10
6.3477913462
 20
14.106243948
 10
6.3118297338
 20
14.144032254
 10
6.2736276341
 20
14.1788318481
 10
6.2336074579
 20
14.2102596956
 10
6.192209469
 20
14.237972529
 10
6.1498863902
 20
14.2616696731
 10
6.1071017971
 20
14.2810937139
  0
LINE
  5
3C4
100
AcDbEntity
  8
ASSI
100
AcDbLine
 62
7
  6
CONTINUOUS
 10
14.1766481789
 20
18.6911415706
 11
14.083824049
 21
18.5271407097
  0
LINE
  5
3C5
100
AcDbEntity
  8
0
100
AcDbLine
 62
7
  6
CONTINUOUS
 10
17.2815597197
 20
15.2442497871
 11
17.4961286346
 21
15.5081778427
  0
LINE
  5
3C6
100
AcDbEntity
  8
DRAFT
100
AcDbLine
 62
7
  6
CONTINUOUS
 10
17.4927078457
 20
14.6412684271
 11
17.9520902585
 21
15.1986740946
  0
LINE
  5
3C7
100
AcDbEntity
  8
DRAFT
100
AcDbLine
 62
7
  6
CONTINUOUS
 10
22.1094067816
 20
13.2408302129
 11
20.1112913319
 21
11.5161689948
  0
LINE
  5
3C8
100
AcDbEntity
  8
DRAFT
100
AcDbLine
 62
7
  6
CONTINUOUS
 10
21.9172837445
 20
13.5474074969
 11
19.8722944446
 21
11.8317028384
  0
LINE
  5
3C9
100
AcDbEntity
  8
DRAFT
100
AcDbLine
 62
7
  6
CONTINUOUS
 10
21.1825952128
 20
13.9012304749
 11
19.4118278744
 21
12.4206074387
  0
LINE
  5
3CA
100
AcDbEntity
  8
RACCORDO
100
AcDbLine
 62
250
  6
CONTINUOUS
 10
15.3188618844
 20
6.1645061322
 11
18.8978258259
 21
8.6847926946
  0
LINE
  5
3CB
100
AcDbEntity
  8
RACCORDO
100
AcDbLine
 62
250
  6
CONTINUOUS
 10
15.7058814258
 20
5.5734210497
 11
19.282284709
 21
8.0919044108
  0
LWPOLYLINE
  5
3CC
100
AcDbEntity
  8
RACCORDO
100
AcDbPolyline
 62
250
  6
CONTINUOUS
 90
9
 70
0
 10
5.6406809718
 20
20.4874801032
 10
5.6411862664
 20
20.4825488163
 10
5.6368649846
 20
20.4734475775
 10
5.6273264764
 20
20.4607981818
 10
5.6126729402
 20
20.4447361587
 10
5.5930613786
 20
20.4254336016
 10
5.5687019158
 20
20.4030973242
 10
5.5398555465
 20
20.377966644
 10
5.5068313397
 20
20.350310819
  0
LWPOLYLINE
  5
3CD
100
AcDbEntity
  8
ASSI
100
AcDbPolyline
 62
250
  6
CONTINUOUS
 90
9
 70
0
 10
5.6406950418
 20
20.4874597395
 10
5.6411862664
 20
20.4825488163
 10
5.6368649846
 20
20.4734475775
 10
5.6273264764
 20
20.4607981818
 10
5.6126729402
 20
20.4447361587
 10
5.5930613786
 20
20.4254336016
 10
5.5687019158
 20
20.4030973242
 10
5.5398555465
 20
20.377966644
 10
5.5068313397
 20
20.350310819
  0
LWPOLYLINE
  5
3CE
100
AcDbEntity
  8
RACCORDO
100
AcDbPolyline
 62
250
  6
CONTINUOUS
 90
19
 70
0
 10
4.1077914372
 20
27.7747466279
 10
4.1088551439
 20
27.7603143685
 10
4.1111456549
 20
27.745488382
 10
4.1146370377
 20
27.7303909793
 10
4.1192961097
 20
27.7151435291
 10
4.1250763598
 20
27.6998677403
 10
4.1319169053
 20
27.6846846816
 10
4.1397471698
 20
27.6697212571
 10
4.1485043983
 20
27.6550770264
 10
4.1581336684
 20
27.6408283105
 10
4.1685537576
 20
27.6270845021
 10
4.1796875869
 20
27.6139397568
 10
4.1914915397
 20
27.601449456
 10
4.2038861176
 20
27.5897031267
 10
4.2167744863
 20
27.5787996879
 10
4.230088658
 20
27.5688126877
 10
4.2437388037
 20
27.5598231634
 10
4.2576110953
 20
27.5519132941
 10
4.2715968939
 20
27.5451532069
  0
LWPOLYLINE
  5
3CF
100
AcDbEntity
  8
ASSI
100
AcDbPolyline
 62
250
  6
CONTINUOUS
 90
19
 70
0
 10
4.1077914372
 20
27.7747466279
 10
4.1088551439
 20
27.7603143685
 10
4.1111456549
 20
27.745488382
 10
4.1146370377
 20
27.7303909793
 10
4.1192961097
 20
27.7151435291
 10
4.1250763598
 20
27.6998677403
 10
4.1319169053
 20
27.6846846816
 10
4.1397471698
 20
27.6697212571
 10
4.1485043983
 20
27.6550770264
 10
4.1581336684
 20
27.6408283105
 10
4.1685537576
 20
27.6270845021
 10
4.1796875869
 20
27.6139397568
 10
4.1914915397
 20
27.601449456
 10
4.2038861176
 20
27.5897031267
 10
4.2167744863
 20
27.5787996879
 10
4.230088658
 20
27.5688126877
 10
4.2437388037
 20
27.5598231634
 10
4.2576110953
 20
27.5519132941
 10
4.2715968939
 20
27.5451532069
  0
LWPOLYLINE
  5
3D0
100
AcDbEntity
  8
ASSI
100
AcDbPolyline
 62
7
  6
CONTINUOUS
 90
8
 70
0
 10
4.1932726509
 20
28.3484687842
 10
4.1887924163
 20
28.4152387643
 10
4.1751586707
 20
28.4818276526
 10
4.1523192374
 20
28.546651103
 10
4.1206801219
 20
28.6079351721
 10
4.080802935
 20
28.6644120018
 10
4.0330657516
 20
28.715266615
 10
3.9779811133
 20
28.7594929944
  0
LINE
  5
3D1
100
AcDbEntity
  8
RACCORDO
100
AcDbLine
 62
7
  6
CONTINUOUS
 10
4.1932726509
 20
28.3484687842
 11
4.1903611181
 21
28.4023443062
  0
LINE
  5
3D2
100
AcDbEntity
  8
0
100
AcDbLine
 62
7
  6
CONTINUOUS
 10
6.0151605603
 20
22.0768154946
 11
6.0151605603
 21
21.3340691516
  0
LINE
  5
3D3
100
AcDbEntity
  8
0
100
AcDbLine
 62
7
  6
CONTINUOUS
 10
6.0693418906
 20
22.1014747579
 11
6.0693418906
 21
21.3351907
  0
LINE
  5
3D4
100
AcDbEntity
  8
0
100
AcDbLine
 62
7
  6
CONTINUOUS
 10
6.4813988821
 20
21.3620116828
 11
6.4813988821
 21
21.4698600406
  0
LINE
  5
3D5
100
AcDbEntity
  8
0
100
AcDbLine
 62
7
  6
CONTINUOUS
 10
6.8666256694
 20
21.734847911
 11
6.8666256694
 21
21.4166008954
  0
LINE
  5
3D6
100
AcDbEntity
  8
SMUSSO
100
AcDbLine
 62
7
  6
CONTINUOUS
 10
6.999624833
 20
25.493361919
 11
6.999624833
 21
26.3767216743
  0
LINE
  5
3D7
100
AcDbEntity
  8
ASSI
100
AcDbLine
 62
7
  6
CONTINUOUS
 10
6.999624833
 20
25.493361919
 11
6.999624833
 21
26.3767216743
  0
LINE
  5
3D8
100
AcDbEntity
  8
RACCORDO
100
AcDbLine
 62
7
  6
CONTINUOUS
 10
8.3368182647
 20
14.218288672
 11
8.2501492032
 21
13.166308802
  0
LWPOLYLINE
  5
3D9
100
AcDbEntity
  8
DRAFT
100
AcDbPolyline
 62
7
  6
CONTINUOUS
 90
10
 70
0
 10
7.8837757785
 20
15.803909581
 10
7.8803288665
 20
15.7750206736
 10
7.8747584484
 20
15.7476304266
 10
7.8670645239
 20
15.7217388403
 10
7.8571817965
 20
15.6972205568
 10
7.8451755628
 20
15.6742009338
 10
7.8312417132
 20
15.6530560447
 10
7.815347319
 20
15.6338175765
 10
7.7975253089
 20
15.6164538422
 10
7.7921427337
 20
15.6118946903
  0
LINE
  5
3DA
100
AcDbEntity
  8
ASSI
100
AcDbLine
 62
7
  6
CONTINUOUS
 10
14.2506930898
 20
18.8709549832
 11
14.1766481789
 21
18.6911415706
  0
LINE
  5
3DB
100
AcDbEntity
  8
RACCORDO
100
AcDbLine
 62
250
  6
CONTINUOUS
 10
20.3108977888
 20
6.14127423
 11
19.4953528857
 21
5.4913508966
  0
LWPOLYLINE
  5
3DC
100
AcDbEntity
  8
RACCORDO
100
AcDbPolyline
 62
250
  6
CONTINUOUS
 90
3
 70
0
 10
-2.8905732754
 20
21.9856636376
 10
-2.8989465144
 20
22.0053666307
 10
-2.9111360986
 20
22.027725496
  0
LINE
  5
3DD
100
AcDbEntity
  8
0
100
AcDbLine
 62
7
  6
CONTINUOUS
 10
-3.6747197791
 20
26.4263647602
 11
-3.4303423588
 21
25.8380720022
  0
LINE
  5
3DE
100
AcDbEntity
  8
ASSI
100
AcDbLine
 62
7
  6
CONTINUOUS
 10
4.195547841
 20
27.9120178416
 11
4.1935124776
 21
27.9285344246
  0
LWPOLYLINE
  5
3DF
100
AcDbEntity
  8
RACCORDO
100
AcDbPolyline
 62
7
  6
CONTINUOUS
 90
12
 70
0
 10
7.096294101
 20
22.7931531125
 10
7.0951114517
 20
22.8053235431
 10
7.0931596629
 20
22.8166279972
 10
7.0904387345
 20
22.8270664748
 10
7.0869098967
 20
22.8367427826
 10
7.0826119192
 20
22.8455531139
 10
7.0776611121
 20
22.8531860487
 10
7.0720586227
 20
22.8595625324
 10
7.0658033036
 20
22.8647616195
 10
7.0590080226
 20
22.8687090534
 10
7.0516760463
 20
22.8713991363
 10
7.050359783
 20
22.8717367515
  0
LINE
  5
3E0
100
AcDbEntity
  8
RACCORDO
100
AcDbLine
 62
7
  6
CONTINUOUS
 10
7.1381855463
 20
22.1578681792
 11
7.096294101
 21
22.7931531125
  0
LINE
  5
3E1
100
AcDbEntity
  8
DRAFT
100
AcDbLine
 62
7
  6
CONTINUOUS
 10
8.9107182297
 20
15.7499038893
 11
8.9107182297
 21
14.8488366406
  0
LWPOLYLINE
  5
3E2
100
AcDbEntity
  8
RACCORDO
100
AcDbPolyline
 62
250
  6
CONTINUOUS
 90
5
 70
0
 10
14.3488276437
 20
19.4843991976
 10
14.344451006
 20
19.4627855144
 10
14.3353538865
 20
19.4416614333
 10
14.3216817469
 20
19.4213647307
 10
14.3036532044
 20
19.402219954
  0
LINE
  5
3E3
100
AcDbEntity
  8
ASSI
100
AcDbLine
 62
7
  6
CONTINUOUS
 10
14.3049011739
 20
19.0658169875
 11
14.2506930898
 21
18.8709549832
  0
LINE
  5
3E4
100
AcDbEntity
  8
RACCORDO
100
AcDbLine
 62
250
  6
CONTINUOUS
 10
22.5079040225
 20
7.958485933
 11
20.3276063693
 21
6.1214436087
  0
LINE
  5
3E5
100
AcDbEntity
  8
RACCORDO
100
AcDbLine
 62
250
  6
CONTINUOUS
 10
22.8598603674
 20
6.8026501333
 11
20.6637056327
 21
4.9545879864
  0
LINE
  5
3E6
100
AcDbEntity
  8
RACCORDO
100
AcDbLine
 62
250
  6
CONTINUOUS
 10
20.6637056327
 20
4.984017781
 11
19.767856069
 21
4.2692086007
  0
LWPOLYLINE
  5
3E7
100
AcDbEntity
  8
RACCORDO
100
AcDbPolyline
 62
250
  6
CONTINUOUS
 90
13
 70
0
 10
14.7080737831
 20
4.9602114694
 10
14.7633191
 20
4.9404463284
 10
14.8223988915
 20
4.9240302904
 10
14.8843246072
 20
4.9112380362
 10
14.9480600771
 20
4.9022836118
 10
15.0125388497
 20
4.8973168469
 10
15.0766820361
 20
4.8964208477
 10
15.1394163627
 20
4.8996106067
 10
15.1996921294
 20
4.9068327512
 10
15.2565007742
 20
4.9179664371
 10
15.3088917484
 20
4.9328253703
 10
15.3559884217
 20
4.9511609241
 10
15.3970027508
 20
4.9726662996
  0
LWPOLYLINE
  5
3E8
100
AcDbEntity
  8
RACCORDO
100
AcDbPolyline
 62
250
  6
CONTINUOUS
 90
13
 70
0
 10
19.4921924532
 20
4.2633336297
 10
19.5142904393
 20
4.2554052217
 10
19.5379241585
 20
4.2488361676
 10
19.5626981233
 20
4.2437364203
 10
19.5881977631
 20
4.2401913454
 10
19.6139963352
 20
4.2382602959
 10
19.6396620647
 20
4.237975612
 10
19.6647654235
 20
4.2393420773
 10
19.6888862771
 20
4.2423368423
 10
19.711620895
 20
4.2469097969
 10
19.732588773
 20
4.2529844153
 10
19.7514389949
 20
4.2604590451
 10
19.7678560689
 20
4.2692085999
  0
LINE
  5
3E9
100
AcDbEntity
  8
RACCORDO
100
AcDbLine
 62
250
  6
CONTINUOUS
 10
-20.5732058751
 20
19.129954933
 11
14.7080604187
 21
4.9602029919
  0
LWPOLYLINE
  5
3EA
100
AcDbEntity
  8
0
100
AcDbPolyline
 62
7
  6
CONTINUOUS
 90
14
 70
0
 10
-11.1548321768
 20
23.1231875275
 10
-11.1148147521
 20
23.0877419345
 10
-11.0739333738
 20
23.056485842
 10
-11.0321880421
 20
23.02941925
 10
-10.989088591
 20
23.0063314536
 10
-10.9451251863
 20
22.9874331577
 10
-10.9017683263
 20
22.9733564769
 10
-10.8590385273
 20
22.9642645039
 10
-10.8169152729
 20
22.959994146
 10
-10.7768075114
 20
22.960688239
 10
-10.7387834174
 20
22.9665147073
 10
-10.7027748162
 20
22.9773056265
 10
-10.6699861318
 20
22.9927000595
 10
-10.6388799179
 20
23.0141949002
  0
LWPOLYLINE
  5
3EB
100
AcDbEntity
  8
ASSI
100
AcDbPolyline
 62
7
  6
CONTINUOUS
 90
14
 70
0
 10
-11.1548321768
 20
23.1231875275
 10
-11.1148147521
 20
23.0877419345
 10
-11.0739333738
 20
23.056485842
 10
-11.0321880421
 20
23.02941925
 10
-10.989088591
 20
23.0063314536
 10
-10.9451251863
 20
22.9874331577
 10
-10.9017683263
 20
22.9733564769
 10
-10.8590385273
 20
22.9642645039
 10
-10.8169152729
 20
22.959994146
 10
-10.7768075114
 20
22.960688239
 10
-10.7387834174
 20
22.9665147073
 10
-10.7027748162
 20
22.9773056265
 10
-10.6699861318
 20
22.9927000595
 10
-10.6388799179
 20
23.0141949002
  0
LWPOLYLINE
  5
3EC
100
AcDbEntity
  8
DRAFT
100
AcDbPolyline
 62
7
  6
CONTINUOUS
 90
13
 70
0
 10
-8.5390647462
 20
21.8570628799
 10
-8.5570721822
 20
21.8770471425
 10
-8.575625064
 20
21.8962094479
 10
-8.5947233916
 20
21.914549796
 10
-8.614425097
 20
21.9321160966
 10
-8.6346722481
 20
21.94886044
 10
-8.655291049
 20
21.9646390971
 10
-8.6762846988
 20
21.9794437552
 10
-8.6976499983
 20
21.9932827271
 10
-8.7192035536
 20
22.0060372228
 10
-8.7409469851
 20
22.0176979067
 10
-8.7628786723
 20
22.0282741145
 10
-8.7848103595
 20
22.0376750628
  0
LWPOLYLINE
  5
3ED
100
AcDbEntity
  8
DRAFT
100
AcDbPolyline
 62
7
  6
CONTINUOUS
 90
13
 70
0
 10
-4.7709653425
 20
20.3437092096
 10
-4.7889727785
 20
20.3636934722
 10
-4.8075256603
 20
20.3828557775
 10
-4.8266239878
 20
20.4011961257
 10
-4.8463256932
 20
20.4187624263
 10
-4.8665728444
 20
20.4355067696
 10
-4.8871916453
 20
20.4512854268
 10
-4.9081852951
 20
20.4660900848
 10
-4.9295505946
 20
20.4799290567
 10
-4.9511041498
 20
20.4926835524
 10
-4.9728475813
 20
20.5043442364
 10
-4.9947792685
 20
20.5149204442
 10
-5.0167109558
 20
20.5243213925
  0
LWPOLYLINE
  5
3EE
100
AcDbEntity
  8
RACCORDO
100
AcDbPolyline
 62
250
  6
CONTINUOUS
 90
10
 70
0
 10
-2.6981625762
 20
18.866649927
 10
-2.721509544
 20
18.894100361
 10
-2.746091528
 20
18.9201487803
 10
-2.7717783195
 20
18.9446667045
 10
-2.7984402447
 20
18.967523033
 10
-2.8259463647
 20
18.9885989686
 10
-2.8541556378
 20
19.0078011919
 10
-2.8829240631
 20
19.0250334529
 10
-2.9121066778
 20
19.040193128
 10
-2.9415477174
 20
19.0531961035
  0
LWPOLYLINE
  5
3EF
100
AcDbEntity
  8
RACCORDO
100
AcDbPolyline
 62
250
  6
CONTINUOUS
 90
10
 70
0
 10
-2.9091139166
 20
18.7043543397
 10
-2.9229021712
 20
18.7213054955
 10
-2.9373192746
 20
18.7372183089
 10
-2.9523652269
 20
18.7520927799
 10
-2.9681304265
 20
18.7659954381
 10
-2.984524475
 20
18.778859754
 10
-3.0012761768
 20
18.7904861383
 10
-3.0182951335
 20
18.8008080614
 10
-3.0356717435
 20
18.8098920529
 10
-3.0534060068
 20
18.817738113
  0
LWPOLYLINE
  5
3F0
100
AcDbEntity
  8
0
100
AcDbPolyline
 62
7
  6
CONTINUOUS
 90
6
 70
0
 10
0.121904797
 20
16.2256258731
 10
0.015443125
 20
16.376966702
 10
-0.4895604052
 20
17.064399313
 10
-1.0084284435
 20
17.7412341227
 10
-1.5406508338
 20
18.406795707
 10
-2.0867377321
 20
19.06175949
  0
LWPOLYLINE
  5
3F1
100
AcDbEntity
  8
ASSI
100
AcDbPolyline
 62
7
  6
CONTINUOUS
 90
6
 70
0
 10
0.121904797
 20
16.2256258731
 10
0.015443125
 20
16.376966702
 10
-0.4895604052
 20
17.064399313
 10
-1.0084284435
 20
17.7412341227
 10
-1.5406508338
 20
18.406795707
 10
-2.0867377321
 20
19.06175949
  0
LWPOLYLINE
  5
3F2
100
AcDbEntity
  8
RACCORDO
100
AcDbPolyline
 62
250
  6
CONTINUOUS
 90
4
 70
0
 10
-1.6283304322
 20
16.9285597993
 10
-1.9527329318
 20
17.4016327514
 10
-2.4238774638
 20
18.0580450461
 10
-2.9091139166
 20
18.7043543397
  0
LWPOLYLINE
  5
3F3
100
AcDbEntity
  8
RACCORDO
100
AcDbPolyline
 62
250
  6
CONTINUOUS
 90
7
 70
0
 10
-2.9111360986
 20
22.027725496
 10
-2.9256025887
 20
22.0492260043
 10
-2.9420984592
 20
22.0695002759
 10
-2.9603414611
 20
22.0882014124
 10
-2.9800194516
 20
22.1050094321
 10
-3.0007957348
 20
22.1196367452
 10
-3.0223148227
 20
22.1318330744
  0
LWPOLYLINE
  5
3F4
100
AcDbEntity
  8
RACCORDO
100
AcDbPolyline
 62
250
  6
CONTINUOUS
 90
5
 70
0
 10
-1.1868206803
 20
16.7512395293
 10
-1.2736488013
 20
16.8837310046
 10
-1.7348370577
 20
17.5555525868
 10
-2.2098199444
 20
18.2167033542
 10
-2.6981614697
 20
18.8666509404
  0
LINE
  5
3F5
100
AcDbEntity
  8
ASSI
100
AcDbLine
 62
7
  6
CONTINUOUS
 10
4.2007283364
 20
27.8888881014
 11
4.195547841
 21
27.9120178416
  0
LWPOLYLINE
  5
3F6
100
AcDbEntity
  8
RACCORDO
100
AcDbPolyline
 62
7
  6
CONTINUOUS
 90
3
 70
0
 10
4.196995117
 20
27.9043928326
 10
4.1945559133
 20
27.9184603875
 10
4.193767223
 20
27.9253412161
  0
LWPOLYLINE
  5
3F7
100
AcDbEntity
  8
RACCORDO
100
AcDbPolyline
 62
7
  6
CONTINUOUS
 90
10
 70
0
 10
4.1903611181
 20
28.4023443062
 10
4.1815656251
 20
28.4560311215
 10
4.166893806
 20
28.5087279539
 10
4.1465890789
 20
28.5594289798
 10
4.1208730924
 20
28.6076170493
 10
4.0897018564
 20
28.6531717297
 10
4.0532117577
 20
28.6955189445
 10
4.0120170361
 20
28.7336985709
 10
3.966721333
 20
28.7670686149
 10
3.9178078396
 20
28.7952169232
  0
LWPOLYLINE
  5
3F8
100
AcDbEntity
  8
RACCORDO
100
AcDbPolyline
 62
250
  6
CONTINUOUS
 90
9
 70
0
 10
5.7902423049
 20
20.2734127113
 10
5.7909477316
 20
20.2681938498
 10
5.7868398697
 20
20.2587858477
 10
5.7774869507
 20
20.2458697561
 10
5.7629892575
 20
20.2295840082
 10
5.743502198
 20
20.2101031441
 10
5.7192346329
 20
20.1876359303
 10
5.6904466298
 20
20.1624231182
 10
5.6574466822
 20
20.1347348707
  0
LWPOLYLINE
  5
3F9
100
AcDbEntity
  8
ASSI
100
AcDbPolyline
 62
250
  6
CONTINUOUS
 90
9
 70
0
 10
5.7902442652
 20
20.2734098796
 10
5.7909477316
 20
20.2681938498
 10
5.7868398697
 20
20.2587858477
 10
5.7774869507
 20
20.2458697561
 10
5.7629892575
 20
20.2295840082
 10
5.743502198
 20
20.2101031441
 10
5.7192346329
 20
20.1876359303
 10
5.6904466298
 20
20.1624231182
 10
5.6574466822
 20
20.1347348707
  0
LINE
  5
3FA
100
AcDbEntity
  8
DRAFT
100
AcDbLine
 62
7
  6
CONTINUOUS
 10
11.2622173836
 20
17.5491255602
 11
11.2622173836
 21
15.6936747404
  0
LINE
  5
3FB
100
AcDbEntity
  8
DRAFT
100
AcDbLine
 62
7
  6
CONTINUOUS
 10
12.2028170452
 20
16.3829200941
 11
12.2028170452
 21
17.2839873428
  0
LWPOLYLINE
  5
3FC
100
AcDbEntity
  8
ASSI
100
AcDbPolyline
 62
250
  6
CONTINUOUS
 90
14
 70
0
 10
14.3001190592
 20
19.2795853223
 10
14.2956308573
 20
19.2186338673
 10
14.2893082955
 20
19.1583620043
 10
14.2810870313
 20
19.0984974939
 10
14.270739627
 20
19.0381391701
 10
14.2581126113
 20
18.9773473308
 10
14.2430814522
 20
18.9163465716
 10
14.2252932417
 20
18.8545930323
 10
14.2045412056
 20
18.7923259661
 10
14.1806049729
 20
18.729761739
 10
14.1529461785
 20
18.6664605025
 10
14.1212583459
 20
18.6027689723
 10
14.0852368141
 20
18.5390682815
 10
14.0441632236
 20
18.4751614628
  0
LINE
  5
3FD
100
AcDbEntity
  8
RACCORDO
100
AcDbLine
 62
7
  6
CONTINUOUS
 10
13.603619393
 20
12.1030226016
 11
13.5211662795
 21
11.0493495119
  0
LWPOLYLINE
  5
3FE
100
AcDbEntity
  8
RACCORDO
100
AcDbPolyline
 62
7
  6
CONTINUOUS
 90
8
 70
0
 10
14.3432905342
 20
19.3325639684
 10
14.3256474219
 20
19.1777643988
 10
14.2966412487
 20
19.0295990196
 10
14.2567028739
 20
18.888802264
 10
14.2062119316
 20
18.7556925375
 10
14.14537576
 20
18.6303028195
 10
14.0745835179
 20
18.513182219
 10
13.994319789
 20
18.4049027156
  0
LINE
  5
3FF
100
AcDbEntity
  8
ASSI
100
AcDbLine
 62
7
  6
CONTINUOUS
 10
14.3380329834
 20
19.2738248676
 11
14.3049011739
 21
19.0658169875
  0
LINE
  5
400
100
AcDbEntity
  8
RACCORDO
100
AcDbLine
 62
250
  6
CONTINUOUS
 10
-19.9763161775
 20
20.339845353
 11
15.3188618844
 21
6.1645061322
  0
LWPOLYLINE
  5
401
100
AcDbEntity
  8
RACCORDO
100
AcDbPolyline
 62
250
  6
CONTINUOUS
 90
13
 70
0
 10
15.3188618844
 20
6.1645061322
 10
15.3714973204
 20
6.1389497742
 10
15.4229332799
 20
6.1065943648
 10
15.4722901904
 20
6.0679931925
 10
15.5187240319
 20
6.0238063505
 10
15.56144077
 20
5.9747894488
 10
15.5997099339
 20
5.9217806932
 10
15.6328771077
 20
5.8656865512
 10
15.6603751216
 20
5.8074662519
 10
15.6817337501
 20
5.7481153822
 10
15.6965877535
 20
5.688648862
 10
15.7046831233
 20
5.6300835892
 10
15.7058814258
 20
5.5734210497
  0
LWPOLYLINE
  5
402
100
AcDbEntity
  8
0
100
AcDbPolyline
 62
7
  6
CONTINUOUS
 90
10
 70
0
 10
-3.437760628
 20
20.5728277385
 10
-3.4830922617
 20
20.6190494511
 10
-3.5299103414
 20
20.6627307121
 10
-3.5782148674
 20
20.7038715214
 10
-3.6283304284
 20
20.742701797
 10
-3.6799324356
 20
20.778991621
 10
-3.732047122
 20
20.8120512399
 10
-3.7843498986
 20
20.8416507358
 10
-3.8371653546
 20
20.8680200267
 10
-3.8904934897
 20
20.8911591124
  0
LWPOLYLINE
  5
403
100
AcDbEntity
  8
ASSI
100
AcDbPolyline
 62
7
  6
CONTINUOUS
 90
10
 70
0
 10
-3.437760628
 20
20.5728277385
 10
-3.4830922617
 20
20.6190494511
 10
-3.5299103414
 20
20.6627307121
 10
-3.5782148674
 20
20.7038715214
 10
-3.6283304284
 20
20.742701797
 10
-3.6799324356
 20
20.778991621
 10
-3.732047122
 20
20.8120512399
 10
-3.7843498986
 20
20.8416507358
 10
-3.8371653546
 20
20.8680200267
 10
-3.8904934897
 20
20.8911591124
  0
LINE
  5
404
100
AcDbEntity
  8
0
100
AcDbLine
 62
7
  6
CONTINUOUS
 10
-3.3751057581
 20
20.505955497
 11
-3.437760628
 21
20.5728277385
  0
LINE
  5
405
100
AcDbEntity
  8
ASSI
100
AcDbLine
 62
7
  6
CONTINUOUS
 10
-3.3751057581
 20
20.505955497
 11
-3.437760628
 21
20.5728277385
  0
LINE
  5
406
100
AcDbEntity
  8
0
100
AcDbLine
 62
7
  6
CONTINUOUS
 10
-3.3126087595
 20
20.4389553247
 11
-3.3751057581
 21
20.505955497
  0
LINE
  5
407
100
AcDbEntity
  8
ASSI
100
AcDbLine
 62
7
  6
CONTINUOUS
 10
-3.3126087595
 20
20.4389553247
 11
-3.3751057581
 21
20.505955497
  0
LINE
  5
408
100
AcDbEntity
  8
0
100
AcDbLine
 62
7
  6
CONTINUOUS
 10
-3.2502696321
 20
20.3718272217
 11
-3.3126087595
 21
20.4389553247
  0
LINE
  5
409
100
AcDbEntity
  8
ASSI
100
AcDbLine
 62
7
  6
CONTINUOUS
 10
-3.2502696321
 20
20.3718272217
 11
-3.3126087595
 21
20.4389553247
  0
LINE
  5
40A
100
AcDbEntity
  8
0
100
AcDbLine
 62
7
  6
CONTINUOUS
 10
-2.0867377321
 20
19.06175949
 11
-2.6466891384
 21
19.7061254717
  0
LINE
  5
40B
100
AcDbEntity
  8
ASSI
100
AcDbLine
 62
7
  6
CONTINUOUS
 10
-2.0867377321
 20
19.06175949
 11
-2.6466891384
 21
19.7061254717
  0
LWPOLYLINE
  5
40C
100
AcDbEntity
  8
RACCORDO
100
AcDbPolyline
 62
7
  6
CONTINUOUS
 90
6
 70
0
 10
-2.2439741945
 20
19.2454209569
 10
-1.7176025506
 20
18.6219737181
 10
-1.2042629932
 20
17.9893627725
 10
-0.7039555223
 20
17.3475881202
 10
-0.2162388248
 20
16.696026868
 10
0.121632892
 20
16.2257350762
  0
LINE
  5
40D
100
AcDbEntity
  8
SMUSSO
100
AcDbLine
 62
250
  6
CONTINUOUS
 10
-4.9565272618
 20
28.4595631462
 11
-4.5468903555
 21
27.8852786858
  0
LINE
  5
40E
100
AcDbEntity
  8
ASSI
100
AcDbLine
 62
250
  6
CONTINUOUS
 10
-4.9565272618
 20
28.4595631462
 11
-4.5468903555
 21
27.8852786858
  0
LINE
  5
40F
100
AcDbEntity
  8
0
100
AcDbLine
 62
7
  6
CONTINUOUS
 10
4.8758933713
 20
21.9253839421
 11
4.6315159511
 21
22.5136767002
  0
LWPOLYLINE
  5
410
100
AcDbEntity
  8
RACCORDO
100
AcDbPolyline
 62
250
  6
CONTINUOUS
 90
3
 70
0
 10
14.2956175789
 20
21.3126288277
 10
14.3001291545
 20
21.2477314491
 10
14.3027840748
 20
21.1843263293
  0
LINE
  5
411
100
AcDbEntity
  8
ASSI
100
AcDbLine
 62
7
  6
CONTINUOUS
 10
14.3355624161
 20
21.4651991506
 11
14.3492387756
 21
21.2136240079
  0
LINE
  5
412
100
AcDbEntity
  8
ASSI
100
AcDbLine
 62
7
  6
CONTINUOUS
 10
13.8442644414
 20
22.2450560469
 11
13.8388429844
 21
22.3835387433
  0
LINE
  5
413
100
AcDbEntity
  8
RACCORDO
100
AcDbLine
 62
7
  6
CONTINUOUS
 10
13.8442644833
 20
22.2451473533
 11
13.8410364719
 21
22.351658407
  0
LWPOLYLINE
  5
414
100
AcDbEntity
  8
RACCORDO
100
AcDbPolyline
 62
250
  6
CONTINUOUS
 90
13
 70
0
 10
13.7587828019
 20
22.0848067381
 10
13.7562882139
 20
22.177823584
 10
13.7486351039
 20
22.2726268774
 10
13.7358324076
 20
22.3688873908
 10
13.7179224068
 20
22.4662892556
 10
13.6949751504
 20
22.5645307067
 10
13.6670606036
 20
22.6633123876
 10
13.6342575393
 20
22.7623315561
 10
13.5966740385
 20
22.861284138
 10
13.5544232326
 20
22.9598688188
 10
13.5076205936
 20
23.0577811763
 10
13.4564237161
 20
23.1546969253
 10
13.4010284392
 20
23.2502763276
  0
LWPOLYLINE
  5
415
100
AcDbEntity
  8
ASSI
100
AcDbPolyline
 62
250
  6
CONTINUOUS
 90
3
 70
0
 10
13.7587828019
 20
22.0848067381
 10
13.7562882139
 20
22.177823584
 10
13.7486351039
 20
22.2726268774
  0
LINE
  5
416
100
AcDbEntity
  8
RACCORDO
100
AcDbLine
 62
250
  6
CONTINUOUS
 10
14.3027840748
 20
21.1843263293
 11
14.3036532044
 21
21.122439247
  0
LINE
  5
417
100
AcDbEntity
  8
ASSI
100
AcDbLine
 62
250
  6
CONTINUOUS
 10
14.3027840748
 20
21.1843263293
 11
14.3036532044
 21
21.122439247
  0
LINE
  5
418
100
AcDbEntity
  8
RACCORDO
100
AcDbLine
 62
250
  6
CONTINUOUS
 10
13.7587935456
 20
17.0091758707
 11
13.7587935456
 21
22.0848025826
  0
LINE
  5
419
100
AcDbEntity
  8
ASSI
100
AcDbLine
 62
250
  6
CONTINUOUS
 10
13.7587935456
 20
17.0091758707
 11
13.7587935456
 21
22.0848025826
  0
LINE
  5
41A
100
AcDbEntity
  8
RACCORDO
100
AcDbLine
 62
7
  6
CONTINUOUS
 10
13.8442747593
 20
16.9748446881
 11
13.8442747593
 21
22.2451725141
  0
LINE
  5
41B
100
AcDbEntity
  8
ASSI
100
AcDbLine
 62
7
  6
CONTINUOUS
 10
13.8442747593
 20
16.9748446881
 11
13.8442747593
 21
22.2451725141
  0
LINE
  5
41C
100
AcDbEntity
  8
DRAFT
100
AcDbLine
 62
7
  6
CONTINUOUS
 10
14.1496024481
 20
13.6458498794
 11
14.1496024481
 21
12.7447826307
  0
LINE
  5
41D
100
AcDbEntity
  8
RACCORDO
100
AcDbLine
 62
250
  6
CONTINUOUS
 10
14.3036532044
 20
21.122439247
 11
14.3036532044
 21
19.402219954
  0
LINE
  5
41E
100
AcDbEntity
  8
ASSI
100
AcDbLine
 62
250
  6
CONTINUOUS
 10
14.3036532044
 20
21.122439247
 11
14.3036532044
 21
19.402219954
  0
LINE
  5
41F
100
AcDbEntity
  8
RACCORDO
100
AcDbLine
 62
7
  6
CONTINUOUS
 10
14.3492387756
 20
21.2136240079
 11
14.3492387756
 21
19.4934047149
  0
LINE
  5
420
100
AcDbEntity
  8
ASSI
100
AcDbLine
 62
7
  6
CONTINUOUS
 10
14.3492387756
 20
21.2136240079
 11
14.3492387756
 21
19.4934047149
  0
LWPOLYLINE
  5
421
100
AcDbEntity
  8
RACCORDO
100
AcDbPolyline
 62
250
  6
CONTINUOUS
 90
16
 70
0
 10
14.3036532044
 20
19.402219954
 10
14.3027775936
 20
19.3408046363
 10
14.3001190592
 20
19.2795853223
 10
14.2956308573
 20
19.2186338673
 10
14.2893082955
 20
19.1583620043
 10
14.2810870313
 20
19.0984974939
 10
14.270739627
 20
19.0381391701
 10
14.2581126113
 20
18.9773473308
 10
14.2430814522
 20
18.9163465716
 10
14.2252932417
 20
18.8545930323
 10
14.2045412056
 20
18.7923259661
 10
14.1806049729
 20
18.729761739
 10
14.1529461785
 20
18.6664605025
 10
14.1212583459
 20
18.6027689723
 10
14.0852368141
 20
18.5390682815
 10
14.0441632236
 20
18.4751614628
  0
LINE
  5
422
100
AcDbEntity
  8
ASSI
100
AcDbLine
 62
250
  6
CONTINUOUS
 10
14.3036532044
 20
19.402219954
 11
14.3027775936
 21
19.3408046363
  0
LWPOLYLINE
  5
423
100
AcDbEntity
  8
RACCORDO
100
AcDbPolyline
 62
250
  6
CONTINUOUS
 90
10
 70
0
 10
12.6352400823
 20
-30.5740699242
 10
12.7659760508
 20
-26.6937874569
 10
12.9216448111
 20
-22.795734815
 10
13.1022329832
 20
-18.8802430817
 10
13.3077251195
 20
-14.9476448822
 10
13.5381037123
 20
-10.9982742359
 10
13.7933491977
 20
-7.0324665261
 10
14.0734399479
 20
-3.0505586324
 10
14.3783522706
 20
0.9471110964
 10
14.7080604187
 20
4.9602029919
  0
LWPOLYLINE
  5
424
100
AcDbEntity
  8
RACCORDO
100
AcDbPolyline
 62
250
  6
CONTINUOUS
 90
10
 70
0
 10
13.3262552349
 20
-30.5260723437
 10
13.45688323
 20
-26.6491253367
 10
13.6123898125
 20
-22.7550849698
 10
13.7927749823
 20
-18.8439512431
 10
13.9980585018
 20
-14.915385439
 10
14.2282206086
 20
-10.9697262752
 10
14.4832020156
 20
-7.0079899042
 10
14.7629829605
 20
-3.0305150435
 10
15.0675832056
 20
0.9630370244
 10
15.3970027509
 20
4.9726662995
  0
LINE
  5
425
100
AcDbEntity
  8
RACCORDO
100
AcDbLine
 62
7
  6
CONTINUOUS
 10
14.3492387756
 20
19.4934047149
 11
14.3432905342
 21
19.3325639684
  0
LINE
  5
426
100
AcDbEntity
  8
ASSI
100
AcDbLine
 62
250
  6
CONTINUOUS
 10
14.3027775936
 20
19.3408046363
 11
14.3001190592
 21
19.2795853223
  0
LWPOLYLINE
  5
427
100
AcDbEntity
  8
RACCORDO
100
AcDbPolyline
 62
250
  6
CONTINUOUS
 90
6
 70
0
 10
14.3492387756
 20
21.2136240079
 10
14.348827636
 20
21.2046184065
 10
14.3444509849
 20
21.1830047405
 10
14.3353538608
 20
21.1618806796
 10
14.3216817277
 20
21.1415839998
 10
14.3036532044
 20
21.122439247
  0
LWPOLYLINE
  5
428
100
AcDbEntity
  8
ASSI
100
AcDbPolyline
 62
250
  6
CONTINUOUS
 90
6
 70
0
 10
14.3492387756
 20
21.2136240079
 10
14.348827636
 20
21.2046184065
 10
14.3444509849
 20
21.1830047405
 10
14.3353538608
 20
21.1618806796
 10
14.3216817277
 20
21.1415839998
 10
14.3036532044
 20
21.122439247
  0
LINE
  5
429
100
AcDbEntity
  8
RACCORDO
100
AcDbLine
 62
250
  6
CONTINUOUS
 10
14.3492387756
 20
19.4934047149
 11
14.3488276437
 21
19.4843991976
  0
LWPOLYLINE
  5
42A
100
AcDbEntity
  8
ASSI
100
AcDbPolyline
 62
250
  6
CONTINUOUS
 90
6
 70
0
 10
14.3492387756
 20
19.4934047149
 10
14.3488276437
 20
19.4843991976
 10
14.344451006
 20
19.4627855144
 10
14.3353538865
 20
19.4416614333
 10
14.3216817469
 20
19.4213647307
 10
14.3036532044
 20
19.402219954
  0
LINE
  5
42B
100
AcDbEntity
  8
ASSI
100
AcDbLine
 62
7
  6
CONTINUOUS
 10
14.3492387756
 20
19.4934047149
 11
14.3380329834
 21
19.2738248676
  0
LWPOLYLINE
  5
42C
100
AcDbEntity
  8
RACCORDO
100
AcDbPolyline
 62
250
  6
CONTINUOUS
 90
19
 70
0
 10
14.7080604187
 20
4.9602029919
 10
14.7162360637
 20
5.0342298389
 10
14.7283673484
 20
5.1102385915
 10
14.7443708112
 20
5.1876994006
 10
14.7641388442
 20
5.2660743939
 10
14.7875331388
 20
5.3448144791
 10
14.8143842892
 20
5.4233631131
 10
14.8445053018
 20
5.501167198
 10
14.8776884573
 20
5.5776888386
 10
14.9136991213
 20
5.6524018184
 10
14.9522888113
 20
5.7247824857
 10
14.9931917754
 20
5.7943277116
 10
15.0361224624
 20
5.8605646795
 10
15.0807910751
 20
5.9230351896
 10
15.1268856145
 20
5.9812940782
 10
15.1740694393
 20
6.0349278363
 10
15.2220108425
 20
6.0835605946
 10
15.2703860243
 20
6.1268542088
 10
15.3188618844
 20
6.1645061322
  0
LWPOLYLINE
  5
42D
100
AcDbEntity
  8
RACCORDO
100
AcDbPolyline
 62
250
  6
CONTINUOUS
 90
19
 70
0
 10
15.3970027509
 20
4.9726662995
 10
15.4011755884
 20
5.0099690922
 10
15.4072535514
 20
5.0477645315
 10
15.4152366399
 20
5.0860526174
 10
15.42520897
 20
5.1251229557
 10
15.4370864257
 20
5.1646859406
 10
15.4506166588
 20
5.2038727552
 10
15.465831617
 20
5.2426582219
 10
15.4826993526
 20
5.2810675182
 10
15.5008716742
 20
5.3183073602
 10
15.5203752813
 20
5.3543525263
 10
15.5411834743
 20
5.3892282381
 10
15.5628679631
 20
5.4222168771
 10
15.5854578027
 20
5.4532890107
 10
15.6089239381
 20
5.4824740714
 10
15.6327509136
 20
5.5091427378
 10
15.6567669108
 20
5.5330852361
 10
15.6811437482
 20
5.5545113401
 10
15.7058814258
 20
5.5734210497
  0
LWPOLYLINE
  5
42E
100
AcDbEntity
  8
RACCORDO
100
AcDbPolyline
 62
250
  6
CONTINUOUS
 90
10
 70
0
 10
15.4049389398
 20
11.3795720618
 10
15.4084666337
 20
11.4073481696
 10
15.414644548
 20
11.4362178452
 10
15.4233242873
 20
11.4654876304
 10
15.4342973619
 20
11.494454456
 10
15.447300195
 20
11.5224225303
 10
15.4620204547
 20
11.5487200517
 10
15.4781045557
 20
11.5727153459
 10
15.4951661532
 20
11.5938320387
 10
15.5127954225
 20
11.6115629007
  0
LWPOLYLINE
  5
42F
100
AcDbEntity
  8
RACCORDO
100
AcDbPolyline
 62
250
  6
CONTINUOUS
 90
18
 70
0
 10
15.5240198858
 20
10.0397892208
 10
15.5251024744
 20
10.046184651
 10
15.5273503056
 20
10.0881072578
 10
15.5251079641
 20
10.131833521
 10
15.5184000073
 20
10.1768841794
 10
15.507300384
 20
10.2227638015
 10
15.4919315437
 20
10.2689684025
 10
15.4724621452
 20
10.314992485
 10
15.4491051906
 20
10.3603329946
 10
15.4221156932
 20
10.4044944876
 10
15.3917902455
 20
10.4469913077
 10
15.3584638334
 20
10.4873547363
 10
15.322502221
 20
10.5251430423
 10
15.2843001213
 20
10.5599426364
 10
15.2442799451
 20
10.5913704839
 10
15.2028819562
 20
10.6190833173
 10
15.1605588773
 20
10.6427804614
 10
15.1177742843
 20
10.6622045022
  0
LWPOLYLINE
  5
430
100
AcDbEntity
  8
RACCORDO
100
AcDbPolyline
 62
7
  6
CONTINUOUS
 90
7
 70
0
 10
6.8730388877
 20
15.5835685553
 10
6.9107033723
 20
15.5937006093
 10
6.9498135327
 20
15.5987184326
 10
6.990369369
 20
15.5986220253
 10
7.0323708812
 20
15.5934113873
 10
7.0758180693
 20
15.5830865186
 10
7.1207109333
 20
15.5676474193
  0
LWPOLYLINE
  5
431
100
AcDbEntity
  8
DRAFT
100
AcDbPolyline
 62
7
  6
CONTINUOUS
 90
10
 70
0
 10
10.7377577921
 20
17.7597603558
 10
10.6734832275
 20
17.7442238615
 10
10.609349085
 20
17.7284166702
 10
10.5453553645
 20
17.712338782
 10
10.4815013499
 20
17.6959900101
 10
10.4177877573
 20
17.6793705413
 10
10.3542167348
 20
17.6624809359
 10
10.2907889985
 20
17.6453213807
 10
10.2275038323
 20
17.627891689
 10
10.1643612362
 20
17.6101918606
  0
LWPOLYLINE
  5
432
100
AcDbEntity
  8
DRAFT
100
AcDbPolyline
 62
7
  6
CONTINUOUS
 90
10
 70
0
 10
8.426707013
 20
15.9442937058
 10
8.3658792354
 20
15.9296615721
 10
8.3051765264
 20
15.9147877957
 10
8.2445988859
 20
15.8996723768
 10
8.1841457104
 20
15.8843151591
 10
8.1238176035
 20
15.8687162988
 10
8.0636163757
 20
15.852876264
 10
8.0035426308
 20
15.8367952108
 10
7.943595765
 20
15.8204729832
 10
7.8837757785
 20
15.803909581
  0
LWPOLYLINE
  5
433
100
AcDbEntity
  8
DRAFT
100
AcDbPolyline
 62
7
  6
CONTINUOUS
 90
25
 70
0
 10
15.6951522534
 20
12.3029860214
 10
15.6655445084
 20
12.3078088104
 10
15.6358138374
 20
12.3148953012
 10
15.6059602403
 20
12.3242454937
 10
15.5758140049
 20
12.3359378537
 10
15.5455448435
 20
12.3498939154
 10
15.5156618933
 20
12.3658782817
 10
15.4861815174
 20
12.38391984
 10
15.4570873527
 20
12.4039897029
 10
15.4288394473
 20
12.4257658109
 10
15.40144796
 20
12.4492778665
 10
15.3749027319
 20
12.4744961673
 10
15.3496333354
 20
12.5010095463
 10
15.3256620742
 20
12.5288376208
 10
15.3029666445
 20
12.5579607735
 10
15.281909707
 20
12.5879089855
 10
15.2625185514
 20
12.6186925848
 10
15.2447658881
 20
12.6503012434
 10
15.2289325087
 20
12.6822339586
 10
15.2150473394
 20
12.7144964826
 10
15.203081454
 20
12.7470830631
 10
15.1932288659
 20
12.7794754401
 10
15.1855542464
 20
12.8115008603
 10
15.1799929242
 20
12.8433320771
 10
15.1765448993
 20
12.8749690905
  0
LWPOLYLINE
  5
434
100
AcDbEntity
  8
RACCORDO
100
AcDbPolyline
 62
250
  6
CONTINUOUS
 90
10
 70
0
 10
15.1177742843
 20
10.6622045022
 10
15.0749567276
 20
10.6771567509
 10
15.0326189453
 20
10.687454652
 10
14.9912241518
 20
10.6929889505
 10
14.9512333237
 20
10.6937030403
 10
14.9130733796
 20
10.6895944948
 10
14.8771369357
 20
10.6807043764
 10
14.8438080805
 20
10.6671180806
 10
14.8134696244
 20
10.648981269
 10
14.8010434114
 20
10.6395154509
  0
LWPOLYLINE
  5
435
100
AcDbEntity
  8
RACCORDO
100
AcDbPolyline
 62
250
  6
CONTINUOUS
 90
10
 70
0
 10
6.1071017971
 20
14.2810937139
 10
6.0642842404
 20
14.2960459626
 10
6.0219464581
 20
14.3063438637
 10
5.9805516646
 20
14.3118781622
 10
5.9405608365
 20
14.312592252
 10
5.9024008924
 20
14.3084837065
 10
5.8664644485
 20
14.2995935881
 10
5.8331355933
 20
14.2860072923
 10
5.8027971373
 20
14.2678704807
 10
5.7903709242
 20
14.2584046626
  0
LINE
  5
436
100
AcDbEntity
  8
RACCORDO
100
AcDbLine
 62
7
  6
CONTINUOUS
 10
-16.5717071992
 20
22.9301567994
 11
18.8978258259
 21
8.6847926946
  0
LINE
  5
437
100
AcDbEntity
  8
DRAFT
100
AcDbLine
 62
7
  6
CONTINUOUS
 10
13.5211662795
 20
11.0493495119
 11
8.2501492032
 21
13.166308802
  0
LWPOLYLINE
  5
438
100
AcDbEntity
  8
0
100
AcDbPolyline
 62
7
  6
CONTINUOUS
 90
6
 70
0
 10
-8.8006929675
 20
24.9512645222
 10
-8.7581249716
 20
24.9214547798
 10
-8.7154264741
 20
24.8962033426
 10
-8.6725974751
 20
24.8755102108
 10
-8.6291486509
 20
24.8592451902
 10
-8.5901765676
 20
24.8487761187
  0
LWPOLYLINE
  5
439
100
AcDbEntity
  8
ASSI
100
AcDbPolyline
 62
7
  6
CONTINUOUS
 90
6
 70
0
 10
-8.8006929675
 20
24.9512645222
 10
-8.7581249716
 20
24.9214547798
 10
-8.7154264741
 20
24.8962033426
 10
-8.6725974751
 20
24.8755102108
 10
-8.6291486509
 20
24.8592451902
 10
-8.5901765676
 20
24.8487761187
  0
LINE
  5
43A
100
AcDbEntity
  8
RACCORDO
100
AcDbLine
 62
7
  6
CONTINUOUS
 10
0.9630299893
 20
19.9687138893
 11
0.942158312
 21
19.9880245295
  0
LWPOLYLINE
  5
43B
100
AcDbEntity
  8
SMUSSO
100
AcDbPolyline
 62
7
  6
CONTINUOUS
 90
3
 70
0
 10
-4.677591831
 20
26.3104007701
 10
-4.5993813381
 20
26.2345901507
 10
-4.5136186074
 20
26.1613562225
  0
LINE
  5
43C
100
AcDbEntity
  8
RACCORDO
100
AcDbLine
 62
7
  6
CONTINUOUS
 10
0.942158312
 20
19.9880245295
 11
0.9221079102
 21
20.0079047253
  0
LINE
  5
43D
100
AcDbEntity
  8
ASSI
100
AcDbLine
 62
7
  6
CONTINUOUS
 10
0.942158312
 20
19.9880245295
 11
0.9221079102
 21
20.0079047253
  0
LWPOLYLINE
  5
43E
100
AcDbEntity
  8
RACCORDO
100
AcDbPolyline
 62
7
  6
CONTINUOUS
 90
5
 70
0
 10
0.9221079102
 20
20.0079047253
 10
0.9156038622
 20
20.0147524385
 10
0.9091374795
 20
20.0217713557
 10
0.90271146
 20
20.0289592806
 10
0.8963284269
 20
20.0363137403
  0
LWPOLYLINE
  5
43F
100
AcDbEntity
  8
ASSI
100
AcDbPolyline
 62
7
  6
CONTINUOUS
 90
7
 70
0
 10
0.9221079102
 20
20.0079047253
 10
0.9156038622
 20
20.0147524385
 10
0.9091374795
 20
20.0217713557
 10
0.90271146
 20
20.0289592806
 10
0.8963284269
 20
20.0363137403
 10
0.8899909214
 20
20.0438319808
 10
0.8837013946
 20
20.0515109606
  0
LINE
  5
440
100
AcDbEntity
  8
0
100
AcDbLine
 62
7
  6
CONTINUOUS
 10
-1.0937061864
 20
22.3303506331
 11
-1.1601782003
 21
22.4013820027
  0
LINE
  5
441
100
AcDbEntity
  8
ASSI
100
AcDbLine
 62
7
  6
CONTINUOUS
 10
-1.0937061864
 20
22.3303506331
 11
-1.1601782003
 21
22.4013820027
  0
LINE
  5
442
100
AcDbEntity
  8
0
100
AcDbLine
 62
7
  6
CONTINUOUS
 10
-1.0273895547
 20
22.2591498965
 11
-1.0937061864
 21
22.3303506331
  0
LINE
  5
443
100
AcDbEntity
  8
ASSI
100
AcDbLine
 62
7
  6
CONTINUOUS
 10
-1.0273895547
 20
22.2591498965
 11
-1.0937061864
 21
22.3303506331
  0
LINE
  5
444
100
AcDbEntity
  8
0
100
AcDbLine
 62
7
  6
CONTINUOUS
 10
-0.9612283053
 20
22.187779793
 11
-1.0273895547
 21
22.2591498965
  0
LINE
  5
445
100
AcDbEntity
  8
ASSI
100
AcDbLine
 62
7
  6
CONTINUOUS
 10
-0.9612283053
 20
22.187779793
 11
-1.0273895547
 21
22.2591498965
  0
LWPOLYLINE
  5
446
100
AcDbEntity
  8
ASSI
100
AcDbPolyline
 62
7
  6
CONTINUOUS
 90
4
 70
0
 10
-4.7480260372
 20
26.3885826562
 10
-4.677591831
 20
26.3104007701
 10
-4.5993813381
 20
26.2345901507
 10
-4.5136186074
 20
26.1613562225
  0
LINE
  5
447
100
AcDbEntity
  8
RACCORDO
100
AcDbLine
 62
7
  6
CONTINUOUS
 10
0.8963284269
 20
20.0363137403
 11
0.8899909214
 21
20.0438319808
  0
LWPOLYLINE
  5
448
100
AcDbEntity
  8
RACCORDO
100
AcDbPolyline
 62
250
  6
CONTINUOUS
 90
15
 70
0
 10
1.3015023773
 20
19.7570120042
 10
1.2826900911
 20
19.7798918501
 10
1.2636263349
 20
19.8013237181
 10
1.2444518364
 20
19.8213025288
 10
1.2253173708
 20
19.839824583
 10
1.2063101001
 20
19.8569460493
 10
1.187448663
 20
19.8727700189
 10
1.1688160666
 20
19.8873351457
 10
1.1504949434
 20
19.9006785618
 10
1.1324826455
 20
19.912891986
 10
1.1148402571
 20
19.9240162218
 10
1.0976162398
 20
19.9341006793
 10
1.0807731363
 20
19.9432371891
 10
1.0643207512
 20
19.9514807108
 10
1.0483188049
 20
19.9588609032
  0
LWPOLYLINE
  5
449
100
AcDbEntity
  8
ASSI
100
AcDbPolyline
 62
250
  6
CONTINUOUS
 90
9
 70
0
 10
1.3015023773
 20
19.7570120042
 10
1.2826900911
 20
19.7798918501
 10
1.2636263349
 20
19.8013237181
 10
1.2444518364
 20
19.8213025288
 10
1.2253173708
 20
19.839824583
 10
1.2063101001
 20
19.8569460493
 10
1.187448663
 20
19.8727700189
 10
1.1688160666
 20
19.8873351457
 10
1.1504949434
 20
19.9006785618
  0
LINE
  5
44A
100
AcDbEntity
  8
RACCORDO
100
AcDbLine
 62
7
  6
CONTINUOUS
 10
0.8899909214
 20
20.0438319808
 11
0.8837013946
 21
20.0515109606
  0
LWPOLYLINE
  5
44B
100
AcDbEntity
  8
RACCORDO
100
AcDbPolyline
 62
7
  6
CONTINUOUS
 90
10
 70
0
 10
0.8837013946
 20
20.0515109606
 10
0.7433319554
 20
20.224708473
 10
0.6020504313
 20
20.3971355155
 10
0.4598568221
 20
20.5687920881
 10
0.3167421739
 20
20.7396888669
 10
0.1727154407
 20
20.9098151759
 10
0.0278034848
 20
21.0791389868
 10
-0.1179847397
 20
21.2476496234
 10
-0.264658187
 20
21.415357762
 10
-0.4122168569
 20
21.5822634024
  0
LWPOLYLINE
  5
44C
100
AcDbEntity
  8
ASSI
100
AcDbPolyline
 62
7
  6
CONTINUOUS
 90
10
 70
0
 10
0.8837013946
 20
20.0515109606
 10
0.7433319554
 20
20.224708473
 10
0.6020504313
 20
20.3971355155
 10
0.4598568221
 20
20.5687920881
 10
0.3167421739
 20
20.7396888669
 10
0.1727154407
 20
20.9098151759
 10
0.0278034848
 20
21.0791389868
 10
-0.1179847397
 20
21.2476496234
 10
-0.264658187
 20
21.415357762
 10
-0.4122168569
 20
21.5822634024
  0
LWPOLYLINE
  5
44D
100
AcDbEntity
  8
RACCORDO
100
AcDbPolyline
 62
7
  6
CONTINUOUS
 90
5
 70
0
 10
4.226542993
 20
27.8220324831
 10
4.2157319255
 20
27.8457413421
 10
4.2073066004
 20
27.8677039115
 10
4.2011480348
 20
27.8873619313
 10
4.196995117
 20
27.9043928326
  0
LWPOLYLINE
  5
44E
100
AcDbEntity
  8
ASSI
100
AcDbPolyline
 62
250
  6
CONTINUOUS
 90
5
 70
0
 10
4.0739521587
 20
28.3701792542
 10
4.0547165061
 20
28.4163710728
 10
4.0315223333
 20
28.4618192279
 10
4.0046236618
 20
28.5060259731
 10
3.9743150852
 20
28.5485071574
  0
LINE
  5
44F
100
AcDbEntity
  8
RACCORDO
100
AcDbLine
 62
250
  6
CONTINUOUS
 10
14.2892148617
 20
21.3786661178
 11
14.2956175789
 21
21.3126288277
  0
LWPOLYLINE
  5
450
100
AcDbEntity
  8
ASSI
100
AcDbPolyline
 62
250
  6
CONTINUOUS
 90
4
 70
0
 10
14.2892148617
 20
21.3786661178
 10
14.2956175789
 20
21.3126288277
 10
14.3001291545
 20
21.2477314491
 10
14.3027840748
 20
21.1843263293
  0
LINE
  5
451
100
AcDbEntity
  8
RACCORDO
100
AcDbLine
 62
7
  6
CONTINUOUS
 10
17.894876396
 20
-15.6923786628
 11
18.562006875
 21
-22.5755959759
  0
LINE
  5
452
100
AcDbEntity
  8
RACCORDO
100
AcDbLine
 62
250
  6
CONTINUOUS
 10
19.4921924532
 20
-22.170358313
 11
18.336348672
 21
-9.9658345689
  0
LINE
  5
453
100
AcDbEntity
  8
RACCORDO
100
AcDbLine
 62
250
  6
CONTINUOUS
 10
19.767856069
 20
-22.1245515333
 11
18.6120122878
 21
-9.9200277891
  0
LINE
  5
454
100
AcDbEntity
  8
RACCORDO
100
AcDbLine
 62
7
  6
CONTINUOUS
 10
13.8410364719
 20
22.351658407
 11
13.8308666351
 21
22.4639246132
  0
LWPOLYLINE
  5
455
100
AcDbEntity
  8
RACCORDO
100
AcDbPolyline
 62
250
  6
CONTINUOUS
 90
16
 70
0
 10
18.6120122878
 20
-9.9200277891
 10
18.6111393111
 20
-9.9100878615
 10
18.6103911686
 20
-9.900043445
 10
18.6097678605
 20
-9.8898945398
 10
18.6092694961
 20
-9.8796398448
 10
18.608895966
 20
-9.869280661
 10
18.608646942
 20
-9.858820891
 10
18.6085223007
 20
-9.8482605883
 10
18.6085221655
 20
-9.8375996994
 10
18.6086465789
 20
-9.8268419658
 10
18.6088954209
 20
-9.8159874777
 10
18.6092688115
 20
-9.8050361448
 10
18.6097671532
 20
-9.7939914389
 10
18.6103905803
 20
-9.7828545171
 10
18.6111389585
 20
-9.7716242223
 10
18.6120122878
 20
-9.7603005543
  0
LWPOLYLINE
  5
456
100
AcDbEntity
  8
RACCORDO
100
AcDbPolyline
 62
250
  6
CONTINUOUS
 90
16
 70
0
 10
18.336348672
 20
-9.9658345689
 10
18.3352625252
 20
-9.9534169358
 10
18.3343318657
 20
-9.9408612742
 10
18.3335566392
 20
-9.9281712067
 10
18.3329368314
 20
-9.9153522878
 10
18.3324721798
 20
-9.902406322
 10
18.3321623976
 20
-9.8893311633
 10
18.3320074676
 20
-9.8761304968
 10
18.3320073332
 20
-9.8628077574
 10
18.3321620083
 20
-9.849360111
 10
18.3324715728
 20
-9.8357909464
 10
18.3329360706
 20
-9.8221038364
 10
18.3335558268
 20
-9.8082959437
 10
18.3343311427
 20
-9.7943685524
 10
18.3352620619
 20
-9.7803272412
 10
18.336348672
 20
-9.7661755253
  0
LINE
  5
457
100
AcDbEntity
  8
DRAFT
100
AcDbLine
 62
7
  6
CONTINUOUS
 10
17.2815597197
 20
14.8890826729
 11
17.2815597197
 21
15.2442497871
  0
LWPOLYLINE
  5
458
100
AcDbEntity
  8
RACCORDO
100
AcDbPolyline
 62
250
  6
CONTINUOUS
 90
11
 70
0
 10
-3.3331429043
 20
18.0742661157
 10
-3.3787107907
 20
18.0901780238
 10
-3.4237577396
 20
18.1011329468
 10
-3.4677913053
 20
18.1070180405
 10
-3.5103153845
 20
18.1077767854
 10
-3.5508848464
 20
18.1034115828
 10
-3.5891022236
 20
18.0939639037
 10
-3.6245661668
 20
18.0795161798
 10
-3.6568567592
 20
18.0602210751
 10
-3.6855923125
 20
18.0363007451
 10
-3.6909174156
 20
18.0309498277
  0
LWPOLYLINE
  5
459
100
AcDbEntity
  8
RACCORDO
100
AcDbPolyline
 62
250
  6
CONTINUOUS
 90
11
 70
0
 10
-12.3438153915
 20
21.6931553274
 10
-12.3893832779
 20
21.7090672355
 10
-12.4344302268
 20
21.7200221585
 10
-12.4784637924
 20
21.7259072522
 10
-12.5209878717
 20
21.7266659971
 10
-12.5615573336
 20
21.7223007945
 10
-12.5997747108
 20
21.7128531154
 10
-12.635238654
 20
21.6984053915
 10
-12.6675292464
 20
21.6791102868
 10
-12.6962647997
 20
21.6551899568
 10
-12.7015899028
 20
21.6498390394
  0
LWPOLYLINE
  5
45A
100
AcDbEntity
  8
RACCORDO
100
AcDbPolyline
 62
250
  6
CONTINUOUS
 90
10
 70
0
 10
-11.8717209952
 20
22.3593722166
 10
-11.8894946442
 20
22.3657929094
 10
-11.9071277803
 20
22.3707865314
 10
-11.9246204036
 20
22.3743530827
 10
-11.9420664043
 20
22.3765005933
 10
-11.9593718921
 20
22.3772210331
 10
-11.9762551963
 20
22.376490312
 10
-11.9926224267
 20
22.3743003997
 10
-12.0085674734
 20
22.3706593265
 10
-12.0240903365
 20
22.3655670922
  0
LWPOLYLINE
  5
45B
100
AcDbEntity
  8
RACCORDO
100
AcDbPolyline
 62
250
  6
CONTINUOUS
 90
10
 70
0
 10
-11.7598627115
 20
22.5948303451
 10
-11.7893771486
 20
22.6055147362
 10
-11.8188370251
 20
22.6139349339
 10
-11.8480851578
 20
22.6200491334
 10
-11.8769682735
 20
22.6238394756
 10
-11.9053411906
 20
22.6252854454
 10
-11.9330681387
 20
22.62436856
 10
-11.9600124536
 20
22.6210990933
 10
-11.9860304611
 20
22.6154971618
 10
-12.0109815131
 20
22.6075812788
  0
LWPOLYLINE
  5
45C
100
AcDbEntity
  8
DRAFT
100
AcDbPolyline
 62
7
  6
CONTINUOUS
 90
13
 70
0
 10
-5.0167109558
 20
20.5243213925
 10
-5.038642643
 20
20.5325369642
 10
-5.0605743302
 20
20.5395772765
 10
-5.0823177617
 20
20.5453818971
 10
-5.1038713169
 20
20.5499401888
 10
-5.1252366164
 20
20.5532627888
 10
-5.1462302662
 20
20.5553211769
 10
-5.1668490671
 20
20.5561044702
 10
-5.1870962183
 20
20.5556235516
 10
-5.2067979237
 20
20.5538825491
 10
-5.2258962512
 20
20.5508828388
 10
-5.244449133
 20
20.5466230446
 10
-5.262456569
 20
20.5411031666
  0
LWPOLYLINE
  5
45D
100
AcDbEntity
  8
DRAFT
100
AcDbPolyline
 62
7
  6
CONTINUOUS
 90
13
 70
0
 10
-8.7848103595
 20
22.0376750628
 10
-8.8067420467
 20
22.0458906346
 10
-8.8286737339
 20
22.0529309468
 10
-8.8504171654
 20
22.0587355674
 10
-8.8719707206
 20
22.0632938591
 10
-8.8933360201
 20
22.0666164591
 10
-8.91432967
 20
22.0686748472
 10
-8.9349484708
 20
22.0694581406
 10
-8.955195622
 20
22.068977222
 10
-8.9748973274
 20
22.0672362195
 10
-8.993995655
 20
22.0642365092
 10
-9.0125485368
 20
22.059976715
 10
-9.0305559728
 20
22.0544568369
  0
LINE
  5
45E
100
AcDbEntity
  8
RACCORDO
100
AcDbLine
 62
250
  6
CONTINUOUS
 10
6.5354987178
 20
14.9417392118
 11
8.3368182647
 21
14.218288672
  0
LINE
  5
45F
100
AcDbEntity
  8
RACCORDO
100
AcDbLine
 62
250
  6
CONTINUOUS
 10
15.4049389398
 20
11.3795720618
 11
13.603619393
 21
12.1030226016
  0
LINE
  5
460
100
AcDbEntity
  8
RACCORDO
100
AcDbLine
 62
250
  6
CONTINUOUS
 10
-3.0534060068
 20
18.817738113
 11
-11.8717209952
 21
22.3593722166
  0
LINE
  5
461
100
AcDbEntity
  8
RACCORDO
100
AcDbLine
 62
250
  6
CONTINUOUS
 10
6.6433552006
 20
15.1737300506
 11
8.4473634386
 21
14.4491996718
  0
LINE
  5
462
100
AcDbEntity
  8
RACCORDO
100
AcDbLine
 62
250
  6
CONTINUOUS
 10
15.5127954224
 20
11.6115629007
 11
13.7087871844
 21
12.3360932795
  0
LINE
  5
463
100
AcDbEntity
  8
RACCORDO
100
AcDbLine
 62
250
  6
CONTINUOUS
 10
-2.9415478477
 20
19.053206505
 11
-11.7598628361
 21
22.5948406086
  0
LINE
  5
464
100
AcDbEntity
  8
RACCORDO
100
AcDbLine
 62
7
  6
CONTINUOUS
 10
-11.3174440419
 20
22.9729226421
 11
-9.6039624038
 21
22.2847497867
  0
LINE
  5
465
100
AcDbEntity
  8
RACCORDO
100
AcDbLine
 62
7
  6
CONTINUOUS
 10
-4.1975589115
 20
20.1134162597
 11
-2.4916551615
 21
19.428286855
  0
LINE
  5
466
100
AcDbEntity
  8
RACCORDO
100
AcDbLine
 62
7
  6
CONTINUOUS
 10
7.1212994574
 20
15.5675075611
 11
8.9107182297
 21
14.8488366406
  0
LINE
  5
467
100
AcDbEntity
  8
RACCORDO
100
AcDbLine
 62
7
  6
CONTINUOUS
 10
14.1496024481
 20
12.7447826307
 11
15.9390212206
 21
12.0261117101
  0
LINE
  5
468
100
AcDbEntity
  8
DRAFT
100
AcDbLine
 62
7
  6
CONTINUOUS
 10
-4.7709653425
 20
20.3437092096
 11
-5.262456569
 21
20.5411031666
  0
LINE
  5
469
100
AcDbEntity
  8
DRAFT
100
AcDbLine
 62
7
  6
CONTINUOUS
 10
-8.5390647462
 20
21.8570628799
 11
-9.0305559728
 21
22.0544568369
  0
LINE
  5
46A
100
AcDbEntity
  8
0
100
AcDbLine
 62
7
  6
CONTINUOUS
 10
-4.0584502986
 20
20.1394623091
 11
-9.7430710167
 21
22.4225341462
  0
LINE
  5
46B
100
AcDbEntity
  8
ASSI
100
AcDbLine
 62
7
  6
CONTINUOUS
 10
-4.0584502986
 20
20.1394623091
 11
-9.7430710167
 21
22.4225341462
  0
LINE
  5
46C
100
AcDbEntity
  8
DRAFT
100
AcDbLine
 62
7
  6
CONTINUOUS
 10
14.6336136648
 20
13.451460063
 11
14.1496024481
 21
13.6458498794
  0
LINE
  5
46D
100
AcDbEntity
  8
DRAFT
100
AcDbLine
 62
7
  6
CONTINUOUS
 10
8.9107182297
 20
15.7499038893
 11
8.426707013
 21
15.9442937058
  0
LINE
  5
46E
100
AcDbEntity
  8
0
100
AcDbLine
 62
7
  6
CONTINUOUS
 10
-3.8904934897
 20
20.8911591124
 11
-9.9110278255
 21
23.3091414315
  0
LINE
  5
46F
100
AcDbEntity
  8
ASSI
100
AcDbLine
 62
7
  6
CONTINUOUS
 10
-3.8904934897
 20
20.8911591124
 11
-9.9110278255
 21
23.3091414315
  0
LWPOLYLINE
  5
470
100
AcDbEntity
  8
RACCORDO
100
AcDbPolyline
 62
7
  6
CONTINUOUS
 90
10
 70
0
 10
-2.4916551615
 20
19.428286855
 10
-2.4618738707
 20
19.4152140559
 10
-2.4325491712
 20
19.4002495903
 10
-2.4036810629
 20
19.3833934583
 10
-2.3751246064
 20
19.3645386493
 10
-2.3470247412
 20
19.3437921739
 10
-2.3198162855
 20
19.3214750637
 10
-2.2936441789
 20
19.2976943295
 10
-2.2683634819
 20
19.2723429606
 10
-2.2439741945
 20
19.2454209569
  0
LWPOLYLINE
  5
471
100
AcDbEntity
  8
RACCORDO
100
AcDbPolyline
 62
7
  6
CONTINUOUS
 90
7
 70
0
 10
15.9396097445
 20
12.0257788393
 10
15.9845026132
 20
12.0051579617
 10
16.0279498013
 20
11.9805840899
 10
16.0699513088
 20
11.9520572239
 10
16.1105071356
 20
11.9195773637
 10
16.1496172818
 20
11.8831445093
 10
16.1872817474
 20
11.8427586607
  0
LWPOLYLINE
  5
472
100
AcDbEntity
  8
RACCORDO
100
AcDbPolyline
 62
7
  6
CONTINUOUS
 90
10
 70
0
 10
1.3015056833
 20
19.7570142042
 10
1.2716369124
 20
19.7721017277
 10
1.2423655628
 20
19.7872506417
 10
1.2136922705
 20
19.8024613141
 10
1.1855997789
 20
19.8176553384
 10
1.1581066456
 20
19.8329118934
 10
1.1312669712
 20
19.8484675234
 10
1.1050749677
 20
19.8643488122
 10
1.0795371199
 20
19.8805294818
 10
1.0701336947
 20
19.8867131796
  0
LWPOLYLINE
  5
473
100
AcDbEntity
  8
ASSI
100
AcDbPolyline
 62
7
  6
CONTINUOUS
 90
10
 70
0
 10
1.3015056833
 20
19.7570142042
 10
1.2716369124
 20
19.7721017277
 10
1.2423655628
 20
19.7872506417
 10
1.2136922705
 20
19.8024613141
 10
1.1855997789
 20
19.8176553384
 10
1.1581066456
 20
19.8329118934
 10
1.1312669712
 20
19.8484675234
 10
1.1050749677
 20
19.8643488122
 10
1.0795371199
 20
19.8805294818
 10
1.0704486541
 20
19.8865038053
  0
LWPOLYLINE
  5
474
100
AcDbEntity
  8
RACCORDO
100
AcDbPolyline
 62
7
  6
CONTINUOUS
 90
3
 70
0
 10
-2.93880858
 20
22.1475324225
 10
-2.9641390104
 20
22.1608318776
 10
-2.9695479885
 20
22.1631010845
  0
LWPOLYLINE
  5
475
100
AcDbEntity
  8
ASSI
100
AcDbPolyline
 62
250
  6
CONTINUOUS
 90
4
 70
0
 10
1.0976162398
 20
19.9341006793
 10
1.0807731363
 20
19.9432371891
 10
1.0643207512
 20
19.9514807108
 10
1.0483188049
 20
19.9588609032
  0
LINE
  5
476
100
AcDbEntity
  8
RACCORDO
100
AcDbLine
 62
7
  6
CONTINUOUS
 10
-2.7952903703
 20
22.0585682217
 11
-2.9388352023
 21
22.1475489289
  0
LWPOLYLINE
  5
477
100
AcDbEntity
  8
ASSI
100
AcDbPolyline
 62
250
  6
CONTINUOUS
 90
4
 70
0
 10
1.1504949434
 20
19.9006785618
 10
1.1324826455
 20
19.912891986
 10
1.1148402571
 20
19.9240162218
 10
1.0976162398
 20
19.9341006793
  0
LWPOLYLINE
  5
478
100
AcDbEntity
  8
ASSI
100
AcDbPolyline
 62
7
  6
CONTINUOUS
 90
7
 70
0
 10
1.0704486541
 20
19.8865038053
 10
1.0547255703
 20
19.897166484
 10
1.0306332262
 20
19.9142744546
 10
1.007267637
 20
19.9318388669
 10
0.9847227487
 20
19.9499727845
 10
0.9630299893
 20
19.9687138893
 10
0.942158312
 20
19.9880245295
  0
LINE
  5
479
100
AcDbEntity
  8
RACCORDO
100
AcDbLine
 62
7
  6
CONTINUOUS
 10
1.0701336947
 20
19.8867131796
 11
1.0547255703
 21
19.897166484
  0
LWPOLYLINE
  5
47A
100
AcDbEntity
  8
RACCORDO
100
AcDbPolyline
 62
7
  6
CONTINUOUS
 90
5
 70
0
 10
1.0547255703
 20
19.897166484
 10
1.0306332262
 20
19.9142744546
 10
1.007267637
 20
19.9318388669
 10
0.9847227487
 20
19.9499727845
 10
0.9630299893
 20
19.9687138893
  0
LINE
  5
47B
100
AcDbEntity
  8
SMUSSO
100
AcDbLine
 62
7
  6
CONTINUOUS
 10
-4.5136186074
 20
26.1613562225
 11
-4.4375689836
 21
26.1037969601
  0
LINE
  5
47C
100
AcDbEntity
  8
ASSI
100
AcDbLine
 62
7
  6
CONTINUOUS
 10
-4.5136186074
 20
26.1613562225
 11
-4.4375689836
 21
26.1037969601
  0
LWPOLYLINE
  5
47D
100
AcDbEntity
  8
SMUSSO
100
AcDbPolyline
 62
7
  6
CONTINUOUS
 90
3
 70
0
 10
3.4869008314
 20
22.0123640665
 10
3.5651113243
 20
21.9365534471
 10
3.6508740549
 20
21.8633195189
  0
LINE
  5
47E
100
AcDbEntity
  8
ASSI
100
AcDbLine
 62
7
  6
CONTINUOUS
 10
3.046282461
 20
22.2930037859
 11
3.1392334982
 21
22.2026687685
  0
LINE
  5
47F
100
AcDbEntity
  8
RACCORDO
100
AcDbLine
 62
250
  6
CONTINUOUS
 10
-0.2419506434
 20
26.2225752592
 11
-0.187242912
 21
26.1659958146
  0
LINE
  5
480
100
AcDbEntity
  8
RACCORDO
100
AcDbLine
 62
7
  6
CONTINUOUS
 10
-0.0598330547
 20
26.1582096597
 11
-0.0746053453
 21
26.1742444454
  0
LWPOLYLINE
  5
481
100
AcDbEntity
  8
ASSI
100
AcDbPolyline
 62
7
  6
CONTINUOUS
 90
3
 70
0
 10
3.4164666252
 20
22.0905459526
 10
3.4869008314
 20
22.0123640665
 10
3.5651113243
 20
21.9365534471
  0
LWPOLYLINE
  5
482
100
AcDbEntity
  8
RACCORDO
100
AcDbPolyline
 62
7
  6
CONTINUOUS
 90
3
 70
0
 10
5.592989303
 20
20.5504552662
 10
5.5339732773
 20
20.6172059098
 10
5.4706007144
 20
20.6779014887
  0
LINE
  5
483
100
AcDbEntity
  8
ASSI
100
AcDbLine
 62
7
  6
CONTINUOUS
 10
5.6063488541
 20
20.5337261371
 11
5.5350226251
 21
20.6161118514
  0
LWPOLYLINE
  5
484
100
AcDbEntity
  8
RACCORDO
100
AcDbPolyline
 62
250
  6
CONTINUOUS
 90
3
 70
0
 10
-0.187242912
 20
26.1659958146
 10
-0.1376953658
 20
26.1080569362
 10
-0.1334138379
 20
26.1023311773
  0
LINE
  5
485
100
AcDbEntity
  8
RACCORDO
100
AcDbLine
 62
7
  6
CONTINUOUS
 10
5.64068417
 20
20.4874823561
 11
5.592989303
 21
20.5504552662
  0
LINE
  5
486
100
AcDbEntity
  8
ASSI
100
AcDbLine
 62
7
  6
CONTINUOUS
 10
5.6406982356
 20
20.4874619892
 11
5.6063488541
 21
20.5337261371
  0
LWPOLYLINE
  5
487
100
AcDbEntity
  8
RACCORDO
100
AcDbPolyline
 62
250
  6
CONTINUOUS
 90
22
 70
0
 10
5.6574466802
 20
20.1347348727
 10
5.7516218159
 20
20.0062661444
 10
5.8456721414
 20
19.8869545401
 10
5.9396635305
 20
19.7768434782
 10
6.0340017777
 20
19.6761668417
 10
6.1284051011
 20
19.5847688349
 10
6.2219062985
 20
19.5021047305
 10
6.3145335609
 20
19.4280914013
 10
6.406370648
 20
19.3628750726
 10
6.4965345655
 20
19.3062530057
 10
6.5852137341
 20
19.2582185947
 10
6.6723186454
 20
19.2188288522
 10
6.7565519484
 20
19.1879757431
 10
6.8379523159
 20
19.1659044732
 10
6.916565996
 20
19.1524088852
 10
6.9911058836
 20
19.1467019254
 10
7.0613143724
 20
19.1489931765
 10
7.1275073568
 20
19.1590970852
 10
7.1892496944
 20
19.1756295357
 10
7.2464042365
 20
19.1981317969
 10
7.2991339119
 20
19.2270714673
 10
7.347445499
 20
19.2624502347
  0
LWPOLYLINE
  5
488
100
AcDbEntity
  8
ASSI
100
AcDbPolyline
 62
250
  6
CONTINUOUS
 90
8
 70
0
 10
5.6574466802
 20
20.1347348727
 10
5.7516218159
 20
20.0062661444
 10
5.8456721414
 20
19.8869545401
 10
5.9396635305
 20
19.7768434782
 10
6.0340017777
 20
19.6761668417
 10
6.1284051011
 20
19.5847688349
 10
6.2219062985
 20
19.5021047305
 10
6.3145335609
 20
19.4280914013
  0
LINE
  5
489
100
AcDbEntity
  8
SMUSSO
100
AcDbLine
 62
250
  6
CONTINUOUS
 10
3.2079654005
 20
24.1615264426
 11
3.6176023068
 21
23.5872419823
  0
LINE
  5
48A
100
AcDbEntity
  8
ASSI
100
AcDbLine
 62
250
  6
CONTINUOUS
 10
3.2079654005
 20
24.1615264426
 11
3.6176023068
 21
23.5872419823
  0
LINE
  5
48B
100
AcDbEntity
  8
RACCORDO
100
AcDbLine
 62
7
  6
CONTINUOUS
 10
-1.1984936186
 20
30.6632161694
 11
-1.1912218501
 21
30.6530216788
  0
LINE
  5
48C
100
AcDbEntity
  8
ASSI
100
AcDbLine
 62
7
  6
CONTINUOUS
 10
-1.1984936186
 20
30.6632161694
 11
-1.1912218501
 21
30.6530216788
  0
LINE
  5
48D
100
AcDbEntity
  8
RACCORDO
100
AcDbLine
 62
250
  6
CONTINUOUS
 10
5.5068313397
 20
20.350310819
 11
5.5571997821
 21
20.2785452712
  0
LINE
  5
48E
100
AcDbEntity
  8
ASSI
100
AcDbLine
 62
250
  6
CONTINUOUS
 10
5.5068313397
 20
20.350310819
 11
5.5571997821
 21
20.2785452712
  0
LINE
  5
48F
100
AcDbEntity
  8
RACCORDO
100
AcDbLine
 62
7
  6
CONTINUOUS
 10
5.7239440972
 20
20.3686661271
 11
5.6406692534
 21
20.4874968549
  0
LINE
  5
490
100
AcDbEntity
  8
ASSI
100
AcDbLine
 62
7
  6
CONTINUOUS
 10
5.7239440972
 20
20.3686661271
 11
5.6406692534
 21
20.4874968549
  0
LINE
  5
491
100
AcDbEntity
  8
RACCORDO
100
AcDbLine
 62
250
  6
CONTINUOUS
 10
5.5571997821
 20
20.2785452712
 11
5.6074050626
 21
20.2066863831
  0
LINE
  5
492
100
AcDbEntity
  8
ASSI
100
AcDbLine
 62
250
  6
CONTINUOUS
 10
5.5571997821
 20
20.2785452712
 11
5.6074050626
 21
20.2066863831
  0
LINE
  5
493
100
AcDbEntity
  8
RACCORDO
100
AcDbLine
 62
250
  6
CONTINUOUS
 10
5.6074050626
 20
20.2066863831
 11
5.6574466802
 21
20.1347348727
  0
LINE
  5
494
100
AcDbEntity
  8
ASSI
100
AcDbLine
 62
250
  6
CONTINUOUS
 10
5.6074050626
 20
20.2066863831
 11
5.6574466802
 21
20.1347348727
  0
LINE
  5
495
100
AcDbEntity
  8
ASSI
100
AcDbLine
 62
7
  6
CONTINUOUS
 10
5.6406692534
 20
20.4874968549
 11
5.6406950418
 21
20.4874597395
  0
LINE
  5
496
100
AcDbEntity
  8
RACCORDO
100
AcDbLine
 62
7
  6
CONTINUOUS
 10
5.7902403898
 20
20.2734154732
 11
5.7239440972
 21
20.3686661271
  0
LINE
  5
497
100
AcDbEntity
  8
ASSI
100
AcDbLine
 62
7
  6
CONTINUOUS
 10
5.7902404279
 20
20.2734154184
 11
5.7239440972
 21
20.3686661271
  0
LWPOLYLINE
  5
498
100
AcDbEntity
  8
ASSI
100
AcDbPolyline
 62
7
  6
CONTINUOUS
 90
5
 70
0
 10
4.2602247406
 20
27.7641666099
 10
4.2394132526
 20
27.7977388754
 10
4.2225266158
 20
27.8304038921
 10
4.2096616764
 20
27.8611342887
 10
4.2007283364
 20
27.8888881014
  0
LWPOLYLINE
  5
499
100
AcDbEntity
  8
RACCORDO
100
AcDbPolyline
 62
7
  6
CONTINUOUS
 90
3
 70
0
 10
4.2552570683
 20
27.7716722581
 10
4.239723401
 20
27.7971927118
 10
4.226542993
 20
27.8220324831
  0
LINE
  5
49A
100
AcDbEntity
  8
ASSI
100
AcDbLine
 62
7
  6
CONTINUOUS
 10
13.818802633
 20
22.5482388147
 11
13.7837950028
 21
22.7161615717
  0
LINE
  5
49B
100
AcDbEntity
  8
ASSI
100
AcDbLine
 62
250
  6
CONTINUOUS
 10
13.7358324076
 20
22.3688873908
 11
13.7179224068
 21
22.4662892556
  0
LWPOLYLINE
  5
49C
100
AcDbEntity
  8
RACCORDO
100
AcDbPolyline
 62
7
  6
CONTINUOUS
 90
3
 70
0
 10
13.8308666351
 20
22.4639246132
 10
13.8136993991
 20
22.5777571038
 10
13.7895742477
 20
22.6926105198
  0
LINE
  5
49D
100
AcDbEntity
  8
ASSI
100
AcDbLine
 62
250
  6
CONTINUOUS
 10
13.7486351039
 20
22.2726268774
 11
13.7358324076
 21
22.3688873908
  0
LINE
  5
49E
100
AcDbEntity
  8
ASSI
100
AcDbLine
 62
250
  6
CONTINUOUS
 10
14.280834494
 20
21.4461254623
 11
14.2892148617
 21
21.3786661178
  0
LINE
  5
49F
100
AcDbEntity
  8
ASSI
100
AcDbLine
 62
7
  6
CONTINUOUS
 10
13.8388429844
 20
22.3835387433
 11
13.818802633
 21
22.5482388147
  0
LINE
  5
4A0
100
AcDbEntity
  8
RACCORDO
100
AcDbLine
 62
7
  6
CONTINUOUS
 10
20.6637056327
 20
-21.4248854958
 11
20.6637056327
 21
4.984017781
  0
LWPOLYLINE
  5
4A1
100
AcDbEntity
  8
RACCORDO
100
AcDbPolyline
 62
250
  6
CONTINUOUS
 90
13
 70
0
 10
19.767856069
 20
4.2692086007
 10
19.7725612585
 20
4.3674944937
 10
19.7721023812
 20
4.467455835
 10
19.7665100215
 20
4.5687977775
 10
19.7558521894
 20
4.6712386035
 10
19.7401684566
 20
4.7744591031
 10
19.7194695996
 20
4.8781035424
 10
19.6938457685
 20
4.9818622035
 10
19.6634041186
 20
5.0854337423
 10
19.6282013174
 20
5.1884745453
 10
19.5883486453
 20
5.2906681499
 10
19.5440129182
 20
5.3917262254
 10
19.4953528857
 20
5.4913508965
  0
LWPOLYLINE
  5
4A2
100
AcDbEntity
  8
RACCORDO
100
AcDbPolyline
 62
250
  6
CONTINUOUS
 90
13
 70
0
 10
19.4921924532
 20
4.2633336297
 10
19.4971411001
 20
4.352599236
 10
19.4974970869
 20
4.4429349943
 10
19.4932604136
 20
4.5343409047
 10
19.4843856853
 20
4.6271467123
 10
19.4709182968
 20
4.721022672
 10
19.4529944327
 20
4.814979548
 10
19.4305533661
 20
4.9090115227
 10
19.4036558239
 20
5.0031244137
 10
19.3726201705
 20
5.0963464386
 10
19.3375525273
 20
5.18835367
 10
19.298346773
 20
5.2794700353
 10
19.2550029074
 20
5.3696955345
  0
LINE
  5
4A3
100
AcDbEntity
  8
RACCORDO
100
AcDbLine
 62
7
  6
CONTINUOUS
 10
17.1476854891
 20
-28.5014413386
 11
19.282284709
 21
8.0919044108
  0
LINE
  5
4A4
100
AcDbEntity
  8
RACCORDO
100
AcDbLine
 62
250
  6
CONTINUOUS
 10
18.336348672
 20
-9.7661755253
 11
19.4921924532
 21
4.2633336297
  0
LINE
  5
4A5
100
AcDbEntity
  8
RACCORDO
100
AcDbLine
 62
250
  6
CONTINUOUS
 10
18.6120122878
 20
-9.7603005543
 11
19.767856069
 21
4.2692086007
  0
LWPOLYLINE
  5
4A6
100
AcDbEntity
  8
RACCORDO
100
AcDbPolyline
 62
250
  6
CONTINUOUS
 90
18
 70
0
 10
5.2019219607
 20
22.82081893
 10
5.3051339254
 20
22.846592864
 10
5.4105173522
 20
22.8693308854
 10
5.5182719476
 20
22.8890453489
 10
5.6281980051
 20
22.9057238999
 10
5.7391911492
 20
22.9191534427
 10
5.851523247
 20
22.9292583868
 10
5.9649224314
 20
22.9361143228
 10
6.0774687242
 20
22.9397349268
 10
6.1891647579
 20
22.9399726706
 10
6.3000079
 20
22.9369750824
 10
6.4080702753
 20
22.9311984222
 10
6.5132453987
 20
22.9224940424
 10
6.6156397552
 20
22.9110105905
 10
6.7136449247
 20
22.89765027
 10
6.806724767
 20
22.8827138153
 10
6.8954154223
 20
22.865900492
 10
6.9797168904
 20
22.8472103001
  0
LWPOLYLINE
  5
4A7
100
AcDbEntity
  8
RACCORDO
100
AcDbPolyline
 62
7
  6
CONTINUOUS
 90
5
 70
0
 10
-7.9099201932
 20
24.1472661537
 10
-7.934642004
 20
24.1553707561
 10
-7.9607741557
 20
24.1602683389
 10
-7.9875472948
 20
24.1616534833
 10
-8.0143224398
 20
24.1594357266
  0
LWPOLYLINE
  5
4A8
100
AcDbEntity
  8
RACCORDO
100
AcDbPolyline
 62
250
  6
CONTINUOUS
 90
11
 70
0
 10
6.5152806299
 20
19.5981103283
 10
6.5819615712
 20
19.5735869493
 10
6.6419529435
 20
19.5557079806
 10
6.6981959154
 20
19.5431467128
 10
6.7503519649
 20
19.5357659331
 10
6.7980305884
 20
19.5334304402
 10
6.8412848921
 20
19.5358816224
 10
6.8804339574
 20
19.5427040992
 10
6.915493268
 20
19.553609855
 10
6.9461767711
 20
19.5684501007
 10
6.9723673806
 20
19.587006112
  0
LWPOLYLINE
  5
4A9
100
AcDbEntity
  8
ASSI
100
AcDbPolyline
 62
250
  6
CONTINUOUS
 90
11
 70
0
 10
6.5152806299
 20
19.5981103283
 10
6.5819615712
 20
19.5735869493
 10
6.6419529435
 20
19.5557079806
 10
6.6981959154
 20
19.5431467128
 10
6.7503519649
 20
19.5357659331
 10
6.7980305884
 20
19.5334304402
 10
6.8412848921
 20
19.5358816224
 10
6.8804339574
 20
19.5427040992
 10
6.915493268
 20
19.553609855
 10
6.9461767711
 20
19.5684501007
 10
6.9723673806
 20
19.587006112
  0
LWPOLYLINE
  5
4AA
100
AcDbEntity
  8
0
100
AcDbPolyline
 62
7
  6
CONTINUOUS
 90
10
 70
0
 10
-9.9110278255
 20
23.3091414315
 10
-9.9643559607
 20
23.3288379084
 10
-10.0171714166
 20
23.3448923731
 10
-10.0694741933
 20
23.3573048256
 10
-10.1215888797
 20
23.3661060727
 10
-10.1731908868
 20
23.3712653076
 10
-10.2233064479
 20
23.3726901102
 10
-10.2716109738
 20
23.3703496741
 10
-10.3184290536
 20
23.3642748058
 10
-10.3637606872
 20
23.3544655053
  0
LWPOLYLINE
  5
4AB
100
AcDbEntity
  8
ASSI
100
AcDbPolyline
 62
7
  6
CONTINUOUS
 90
10
 70
0
 10
-9.9110278255
 20
23.3091414315
 10
-9.9643559607
 20
23.3288379084
 10
-10.0171714166
 20
23.3448923731
 10
-10.0694741933
 20
23.3573048256
 10
-10.1215888797
 20
23.3661060727
 10
-10.1731908868
 20
23.3712653076
 10
-10.2233064479
 20
23.3726901102
 10
-10.2716109738
 20
23.3703496741
 10
-10.3184290536
 20
23.3642748058
 10
-10.3637606872
 20
23.3544655053
  0
LWPOLYLINE
  5
4AC
100
AcDbEntity
  8
RACCORDO
100
AcDbPolyline
 62
250
  6
CONTINUOUS
 90
10
 70
0
 10
-7.9099262135
 20
24.1472685722
 10
-7.9107263059
 20
24.1475809051
 10
-7.9186658855
 20
24.1497778222
 10
-7.9271062276
 20
24.1505431804
 10
-7.9359830959
 20
24.1498711549
 10
-7.9452289322
 20
24.1477668602
 10
-7.9547733701
 20
24.1442463111
 10
-7.9645437706
 20
24.1393363014
 10
-7.9744657751
 20
24.1330741989
 10
-8.2311909067
 20
23.9377085074
  0
LINE
  5
4AD
100
AcDbEntity
  8
ASSI
100
AcDbLine
 62
7
  6
CONTINUOUS
 10
6.515098949
 20
19.5981832025
 11
6.5152806299
 21
19.5981103283
  0
LINE
  5
4AE
100
AcDbEntity
  8
RACCORDO
100
AcDbLine
 62
7
  6
CONTINUOUS
 10
6.514586788
 20
19.5983888048
 11
6.5152806299
 21
19.5981103283
  0
LINE
  5
4AF
100
AcDbEntity
  8
RACCORDO
100
AcDbLine
 62
250
  6
CONTINUOUS
 10
1.0327951043
 20
19.9654235552
 11
0.9227903542
 21
20.0096039428
  0
LINE
  5
4B0
100
AcDbEntity
  8
ASSI
100
AcDbLine
 62
250
  6
CONTINUOUS
 10
1.0327951043
 20
19.9654235552
 11
0.9227903542
 21
20.0096039428
  0
LINE
  5
4B1
100
AcDbEntity
  8
0
100
AcDbLine
 62
7
  6
CONTINUOUS
 10
-8.5660558397
 20
24.0721978138
 11
-3.0558750174
 21
21.8591849715
  0
LINE
  5
4B2
100
AcDbEntity
  8
ASSI
100
AcDbLine
 62
7
  6
CONTINUOUS
 10
-8.5660558397
 20
24.0721978138
 11
-3.0558750174
 21
21.8591849715
  0
LINE
  5
4B3
100
AcDbEntity
  8
RACCORDO
100
AcDbLine
 62
250
  6
CONTINUOUS
 10
-3.0442085179
 20
22.1413897369
 11
-7.9844638712
 21
24.1255076623
  0
LINE
  5
4B4
100
AcDbEntity
  8
RACCORDO
100
AcDbLine
 62
7
  6
CONTINUOUS
 10
-2.9696708602
 20
22.1631506468
 11
-7.9099262135
 21
24.1472685722
  0
LINE
  5
4B5
100
AcDbEntity
  8
DRAFT
100
AcDbLine
 62
7
  6
CONTINUOUS
 10
15.743835368
 20
14.9607673053
 11
12.2028170452
 21
16.3829200941
  0
LINE
  5
4B6
100
AcDbEntity
  8
0
100
AcDbLine
 62
7
  6
CONTINUOUS
 10
-6.2281039513
 20
23.8442313227
 11
-2.4464889546
 21
22.3254494855
  0
LINE
  5
4B7
100
AcDbEntity
  8
ASSI
100
AcDbLine
 62
7
  6
CONTINUOUS
 10
-6.2281039513
 20
23.8442313227
 11
-2.4464889546
 21
22.3254494855
  0
LINE
  5
4B8
100
AcDbEntity
  8
0
100
AcDbLine
 62
7
  6
CONTINUOUS
 10
-7.5994653407
 20
25.124402569
 11
-7.3915718628
 21
25.0409078614
  0
LINE
  5
4B9
100
AcDbEntity
  8
ASSI
100
AcDbLine
 62
7
  6
CONTINUOUS
 10
-7.5994653407
 20
25.124402569
 11
-7.3915718628
 21
25.0409078614
  0
LINE
  5
4BA
100
AcDbEntity
  8
0
100
AcDbLine
 62
7
  6
CONTINUOUS
 10
-1.8213379616
 20
22.8037763487
 11
-1.6134444837
 21
22.7202816411
  0
LINE
  5
4BB
100
AcDbEntity
  8
ASSI
100
AcDbLine
 62
7
  6
CONTINUOUS
 10
-1.8213379616
 20
22.8037763487
 11
-1.6134444837
 21
22.7202816411
  0
LINE
  5
4BC
100
AcDbEntity
  8
DRAFT
100
AcDbLine
 62
7
  6
CONTINUOUS
 10
16.9111743765
 20
15.2803770791
 11
16.386714785
 21
15.4910118747
  0
LINE
  5
4BD
100
AcDbEntity
  8
DRAFT
100
AcDbLine
 62
7
  6
CONTINUOUS
 10
11.2622173836
 20
17.5491255602
 11
10.7377577921
 21
17.7597603558
  0
LINE
  5
4BE
100
AcDbEntity
  8
0
100
AcDbLine
 62
7
  6
CONTINUOUS
 10
-6.2281039513
 20
24.6862607304
 11
-1.1493612768
 21
22.6465231747
  0
LINE
  5
4BF
100
AcDbEntity
  8
ASSI
100
AcDbLine
 62
7
  6
CONTINUOUS
 10
-6.2281039513
 20
24.6862607304
 11
-1.1493612768
 21
22.6465231747
  0
LINE
  5
4C0
100
AcDbEntity
  8
0
100
AcDbLine
 62
7
  6
CONTINUOUS
 10
12.2028170452
 20
17.2839873428
 11
17.2815597197
 21
15.2442497871
  0
LINE
  5
4C1
100
AcDbEntity
  8
RACCORDO
100
AcDbLine
 62
250
  6
CONTINUOUS
 10
6.0404118559
 20
19.9613004612
 11
6.9723673806
 21
19.587006112
  0
LINE
  5
4C2
100
AcDbEntity
  8
ASSI
100
AcDbLine
 62
250
  6
CONTINUOUS
 10
6.0404118559
 20
19.9613004612
 11
6.9723673806
 21
19.587006112
  0
LINE
  5
4C3
100
AcDbEntity
  8
DRAFT
100
AcDbLine
 62
7
  6
CONTINUOUS
 10
10.0942150797
 20
18.3545739181
 11
12.4322312396
 21
17.4155739189
  0
LINE
  5
4C4
100
AcDbEntity
  8
DRAFT
100
AcDbLine
 62
7
  6
CONTINUOUS
 10
17.9520902585
 20
15.1986740946
 11
21.1825952128
 21
13.9012304749
  0
LINE
  5
4C5
100
AcDbEntity
  8
0
100
AcDbLine
 62
7
  6
CONTINUOUS
 10
12.5618245667
 20
17.4899055977
 11
17.4961286346
 21
15.5081778427
  0
LINE
  5
4C6
100
AcDbEntity
  8
RACCORDO
100
AcDbLine
 62
7
  6
CONTINUOUS
 10
6.5145772403
 20
19.5983932261
 11
6.50976413
 21
19.6003511149
  0
LINE
  5
4C7
100
AcDbEntity
  8
RACCORDO
100
AcDbLine
 62
250
  6
CONTINUOUS
 10
1.0483188049
 20
19.9588609032
 11
1.0327951036
 21
19.9654234988
  0
LINE
  5
4C8
100
AcDbEntity
  8
ASSI
100
AcDbLine
 62
250
  6
CONTINUOUS
 10
1.0483188049
 20
19.9588609032
 11
1.0327951036
 21
19.9654234988
  0
LWPOLYLINE
  5
4C9
100
AcDbEntity
  8
ASSI
100
AcDbPolyline
 62
7
  6
CONTINUOUS
 90
13
 70
0
 10
6.5150895373
 20
19.598187635
 10
6.4872077747
 20
19.6101547767
 10
6.4371498779
 20
19.6352840562
 10
6.3821919806
 20
19.6676194409
 10
6.3235766692
 20
19.7070008234
 10
6.2619203736
 20
19.7534814662
 10
6.1967140461
 20
19.8080234601
 10
6.1282536977
 20
19.8710847368
 10
6.0576573238
 20
19.9423119739
 10
5.9854413527
 20
20.0218268969
 10
5.9122249215
 20
20.1096103909
 10
5.8388072753
 20
20.2054019052
 10
5.7902482148
 20
20.2734126142
  0
LWPOLYLINE
  5
4CA
100
AcDbEntity
  8
0
100
AcDbPolyline
 62
7
  6
CONTINUOUS
 90
10
 70
0
 10
-1.6134444837
 20
22.7202816411
 10
-1.5597397908
 20
22.696913231
 10
-1.5067087197
 20
22.6704147492
 10
-1.4543512703
 20
22.6407861957
 10
-1.4024516808
 20
22.6078757694
 10
-1.3512257131
 20
22.5718352714
 10
-1.3013206526
 20
22.5331201054
 10
-1.2529522613
 20
22.4918820725
 10
-1.2059047772
 20
22.4479693716
 10
-1.1601782003
 20
22.4013820027
  0
LWPOLYLINE
  5
4CB
100
AcDbEntity
  8
ASSI
100
AcDbPolyline
 62
7
  6
CONTINUOUS
 90
10
 70
0
 10
-1.6134444837
 20
22.7202816411
 10
-1.5597397908
 20
22.696913231
 10
-1.5067087197
 20
22.6704147492
 10
-1.4543512703
 20
22.6407861957
 10
-1.4024516808
 20
22.6078757694
 10
-1.3512257131
 20
22.5718352714
 10
-1.3013206526
 20
22.5331201054
 10
-1.2529522613
 20
22.4918820725
 10
-1.2059047772
 20
22.4479693716
 10
-1.1601782003
 20
22.4013820027
  0
LINE
  5
4CC
100
AcDbEntity
  8
RACCORDO
100
AcDbLine
 62
250
  6
CONTINUOUS
 10
-3.0223148227
 20
22.1318330744
 11
-3.0442085179
 21
22.1413897369
  0
LWPOLYLINE
  5
4CD
100
AcDbEntity
  8
RACCORDO
100
AcDbPolyline
 62
250
  6
CONTINUOUS
 90
10
 70
0
 10
6.9723673806
 20
19.587006112
 10
7.0199452005
 20
19.5658996577
 10
7.0670247622
 20
19.5403742128
 10
7.11316829
 20
19.5106671293
 10
7.1579467118
 20
19.4770546424
 10
7.2009436493
 20
19.4398493026
 10
7.2417592897
 20
19.3993970688
 10
7.2800141033
 20
19.3560740918
 10
7.3153523723
 20
19.3102832162
 10
7.347445499
 20
19.2624502347
  0
LWPOLYLINE
  5
4CE
100
AcDbEntity
  8
ASSI
100
AcDbPolyline
 62
250
  6
CONTINUOUS
 90
10
 70
0
 10
6.9723673806
 20
19.587006112
 10
7.0199452005
 20
19.5658996577
 10
7.0670247622
 20
19.5403742128
 10
7.11316829
 20
19.5106671293
 10
7.1579467118
 20
19.4770546424
 10
7.2009436493
 20
19.4398493026
 10
7.2417592897
 20
19.3993970688
 10
7.2800141033
 20
19.3560740918
 10
7.3153523723
 20
19.3102832162
 10
7.347445499
 20
19.2624502347
  0
LWPOLYLINE
  5
4CF
100
AcDbEntity
  8
RACCORDO
100
AcDbPolyline
 62
7
  6
CONTINUOUS
 90
16
 70
0
 10
6.50976413
 20
19.6003511149
 10
6.4736485731
 20
19.616520894
 10
6.4344679371
 20
19.6367517157
 10
6.3925800888
 20
19.6611535921
 10
6.3485656386
 20
19.6896222163
 10
6.3027370614
 20
19.7221449175
 10
6.2547607221
 20
19.7592032103
 10
6.2048787452
 20
19.8008970291
 10
6.1534499772
 20
19.847189741
 10
6.1002373362
 20
19.8985935925
 10
6.0454045788
 20
19.9553232409
 10
5.9894169347
 20
20.017270366
 10
5.9325088529
 20
20.0845433208
 10
5.8750157793
 20
20.157143276
 10
5.8173678913
 20
20.2349503486
 10
5.7902462527
 20
20.2734154447
  0
LWPOLYLINE
  5
4D0
100
AcDbEntity
  8
DRAFT
100
AcDbPolyline
 62
7
  6
CONTINUOUS
 90
11
 70
0
 10
9.7380595572
 20
17.4824394118
 10
9.7616638806
 20
17.4718274366
 10
9.7851406094
 20
17.4626064223
 10
9.8084897436
 20
17.4547763688
 10
9.8317871352
 20
17.4483206908
 10
9.8549569323
 20
17.4432559738
 10
9.8777715786
 20
17.4396319736
 10
9.9002276647
 20
17.4374628934
 10
9.9223285999
 20
17.4367345301
 10
9.9438570563
 20
17.4374540312
 10
9.9472588733
 20
17.4378082707
  0
LWPOLYLINE
  5
4D1
100
AcDbEntity
  8
RACCORDO
100
AcDbPolyline
 62
250
  6
CONTINUOUS
 90
7
 70
0
 10
3.4092817135
 20
21.4542274255
 10
3.720754341
 20
21.3006282222
 10
4.0377155353
 20
21.1440820427
 10
4.3600214127
 20
20.9845480461
 10
4.6875232942
 20
20.821988199
 10
5.0200676365
 20
20.6563674901
 10
5.3574959657
 20
20.4876541502
  0
LWPOLYLINE
  5
4D2
100
AcDbEntity
  8
ASSI
100
AcDbPolyline
 62
250
  6
CONTINUOUS
 90
7
 70
0
 10
3.4092817135
 20
21.4542274255
 10
3.720754341
 20
21.3006282222
 10
4.0377155353
 20
21.1440820427
 10
4.3600214127
 20
20.9845480461
 10
4.6875232942
 20
20.821988199
 10
5.0200676365
 20
20.6563674901
 10
5.3574959657
 20
20.4876541502
  0
LINE
  5
4D3
100
AcDbEntity
  8
ASSI
100
AcDbLine
 62
250
  6
CONTINUOUS
 10
5.2665701267
 20
20.8151544941
 11
5.2755349071
 21
20.8103100469
  0
LINE
  5
4D4
100
AcDbEntity
  8
RACCORDO
100
AcDbLine
 62
7
  6
CONTINUOUS
 10
5.3322745816
 20
20.7794067932
 11
5.2665433644
 21
20.815167594
  0
LWPOLYLINE
  5
4D5
100
AcDbEntity
  8
RACCORDO
100
AcDbPolyline
 62
250
  6
CONTINUOUS
 90
10
 70
0
 10
5.3574959657
 20
20.4876541502
 10
5.3747733391
 20
20.4781866695
 10
5.391996018
 20
20.4671742448
 10
5.4091625824
 20
20.4546160204
 10
5.426422497
 20
20.4403795193
 10
5.4436230101
 20
20.4245952418
 10
5.4603101266
 20
20.4076572154
 10
5.4763323497
 20
20.3896966454
 10
5.4918397079
 20
20.3705813647
 10
5.5068313397
 20
20.350310819
  0
LWPOLYLINE
  5
4D6
100
AcDbEntity
  8
ASSI
100
AcDbPolyline
 62
250
  6
CONTINUOUS
 90
10
 70
0
 10
5.3574959657
 20
20.4876541502
 10
5.3747733391
 20
20.4781866695
 10
5.391996018
 20
20.4671742448
 10
5.4091625824
 20
20.4546160204
 10
5.426422497
 20
20.4403795193
 10
5.4436230101
 20
20.4245952418
 10
5.4603101266
 20
20.4076572154
 10
5.4763323497
 20
20.3896966454
 10
5.4918397079
 20
20.3705813647
 10
5.5068313397
 20
20.350310819
  0
LWPOLYLINE
  5
4D7
100
AcDbEntity
  8
SMUSSO
100
AcDbPolyline
 62
7
  6
CONTINUOUS
 90
29
 70
0
 10
-4.6374078521
 20
26.2144905252
 10
-4.5677782802
 20
26.1736680311
 10
-4.4335503395
 20
26.1016405322
 10
-4.2917651754
 20
26.0337276391
 10
-4.1438898267
 20
25.9706517145
 10
-3.989850055
 20
25.9124717203
 10
-3.8297200988
 20
25.8591286945
 10
-3.6651897126
 20
25.8111681139
 10
-3.4962730076
 20
25.7686605253
 10
-3.3229558727
 20
25.731535382
 10
-3.1468857288
 20
25.70012652
 10
-2.9680412065
 20
25.6744803613
 10
-2.7864436751
 20
25.6545504841
 10
-2.6038046637
 20
25.6405314592
 10
-2.4200981121
 20
25.6324729491
 10
-2.2353500805
 20
25.6303252912
 10
-2.0513502786
 20
25.6341340696
 10
-1.8680279127
 20
25.6439714063
 10
-1.6854537765
 20
25.6597651793
 10
-1.5056299611
 20
25.6813446058
 10
-1.3286613162
 20
25.7087677149
 10
-1.1544429921
 20
25.7419764775
 10
-0.9846625308
 20
25.7806260238
 10
-0.8193581659
 20
25.8247696276
 10
-0.6584916637
 20
25.8743540151
 10
-0.5036358657
 20
25.9288744958
 10
-0.3549212922
 20
25.9883257251
 10
-0.2122174227
 20
26.0527130476
 10
-0.0767055377
 20
26.1215478072
  0
LWPOLYLINE
  5
4D8
100
AcDbEntity
  8
ASSI
100
AcDbPolyline
 62
7
  6
CONTINUOUS
 90
30
 70
0
 10
-4.6374078092
 20
26.2144904993
 10
-4.5677782802
 20
26.1736680311
 10
-4.4335503395
 20
26.1016405322
 10
-4.2917651754
 20
26.0337276391
 10
-4.1438898267
 20
25.9706517145
 10
-3.989850055
 20
25.9124717203
 10
-3.8297200988
 20
25.8591286945
 10
-3.6651897126
 20
25.8111681139
 10
-3.4962730076
 20
25.7686605253
 10
-3.3229558727
 20
25.731535382
 10
-3.1468857288
 20
25.70012652
 10
-2.9680412065
 20
25.6744803613
 10
-2.7864436751
 20
25.6545504841
 10
-2.6038046637
 20
25.6405314592
 10
-2.4200981121
 20
25.6324729491
 10
-2.2353500805
 20
25.6303252912
 10
-2.0513502786
 20
25.6341340696
 10
-1.8680279127
 20
25.6439714063
 10
-1.6854537765
 20
25.6597651793
 10
-1.5056299611
 20
25.6813446058
 10
-1.3286613162
 20
25.7087677149
 10
-1.1544429921
 20
25.7419764775
 10
-0.9846625308
 20
25.7806260238
 10
-0.8193581659
 20
25.8247696276
 10
-0.6584916637
 20
25.8743540151
 10
-0.5036358657
 20
25.9288744958
 10
-0.3549212922
 20
25.9883257251
 10
-0.2122174227
 20
26.0527130476
 10
-0.0767055377
 20
26.1215478072
 10
0.0213770089
 20
26.1768323665
  0
LWPOLYLINE
  5
4D9
100
AcDbEntity
  8
SMUSSO
100
AcDbPolyline
 62
7
  6
CONTINUOUS
 90
29
 70
0
 10
3.5270848103
 20
21.9164538217
 10
3.5967143822
 20
21.8756313275
 10
3.7309423228
 20
21.8036038287
 10
3.872727487
 20
21.7356909356
 10
4.0206028356
 20
21.6726150109
 10
4.1746426074
 20
21.6144350167
 10
4.3347725636
 20
21.5610919909
 10
4.4993029498
 20
21.5131314104
 10
4.6682196547
 20
21.4706238218
 10
4.8415367896
 20
21.4334986784
 10
5.0176069335
 20
21.4020898165
 10
5.1964514559
 20
21.3764436578
 10
5.3780489873
 20
21.3565137806
 10
5.5606879987
 20
21.3424947557
 10
5.7443945502
 20
21.3344362455
 10
5.9291425818
 20
21.3322885876
 10
6.1131423837
 20
21.336097366
 10
6.2964647496
 20
21.3459347028
 10
6.4790388858
 20
21.3617284757
 10
6.6588627012
 20
21.3833079022
 10
6.8358313461
 20
21.4107310113
 10
7.0100496702
 20
21.4439397739
 10
7.1798301316
 20
21.4825893203
 10
7.3451344965
 20
21.526732924
 10
7.5060009986
 20
21.5763173115
 10
7.6608567966
 20
21.6308377923
 10
7.8095713702
 20
21.6902890215
 10
7.9522752396
 20
21.7546763441
 10
8.0877871247
 20
21.8235111036
  0
LWPOLYLINE
  5
4DA
100
AcDbEntity
  8
ASSI
100
AcDbPolyline
 62
7
  6
CONTINUOUS
 90
11
 70
0
 10
3.5270848532
 20
21.9164537957
 10
3.5967143822
 20
21.8756313275
 10
3.7309423228
 20
21.8036038287
 10
3.872727487
 20
21.7356909356
 10
4.0206028356
 20
21.6726150109
 10
4.1746426074
 20
21.6144350167
 10
4.3347725636
 20
21.5610919909
 10
4.4993029498
 20
21.5131314104
 10
4.6682196547
 20
21.4706238218
 10
4.8415367896
 20
21.4334986784
 10
5.0176069335
 20
21.4020898165
  0
LWPOLYLINE
  5
4DB
100
AcDbEntity
  8
ASSI
100
AcDbPolyline
 62
7
  6
CONTINUOUS
 90
3
 70
0
 10
5.3710572898
 20
20.7547654162
 10
5.280269744
 20
20.8083023048
 10
5.2665701267
 20
20.8151544941
  0
LINE
  5
4DC
100
AcDbEntity
  8
RACCORDO
100
AcDbLine
 62
7
  6
CONTINUOUS
 10
5.4029724518
 20
20.7323606234
 11
5.3322745816
 21
20.7794067932
  0
LWPOLYLINE
  5
4DD
100
AcDbEntity
  8
ASSI
100
AcDbPolyline
 62
7
  6
CONTINUOUS
 90
3
 70
0
 10
3.3511754098
 20
22.0320614079
 10
3.4701662842
 20
21.9517890648
 10
3.5270848532
 20
21.9164537957
  0
LINE
  5
4DE
100
AcDbEntity
  8
RACCORDO
100
AcDbLine
 62
7
  6
CONTINUOUS
 10
-0.2909406715
 20
23.2873759888
 11
-0.014617771
 21
23.0981407889
  0
LINE
  5
4DF
100
AcDbEntity
  8
ASSI
100
AcDbLine
 62
7
  6
CONTINUOUS
 10
-0.2909406715
 20
23.2873759888
 11
-0.014617771
 21
23.0981407889
  0
LWPOLYLINE
  5
4E0
100
AcDbEntity
  8
ASSI
100
AcDbPolyline
 62
250
  6
CONTINUOUS
 90
15
 70
0
 10
6.3145335609
 20
19.4280914013
 10
6.406370648
 20
19.3628750726
 10
6.4965345655
 20
19.3062530057
 10
6.5852137341
 20
19.2582185947
 10
6.6723186454
 20
19.2188288522
 10
6.7565519484
 20
19.1879757431
 10
6.8379523159
 20
19.1659044732
 10
6.916565996
 20
19.1524088852
 10
6.9911058836
 20
19.1467019254
 10
7.0613143724
 20
19.1489931765
 10
7.1275073568
 20
19.1590970852
 10
7.1892496944
 20
19.1756295357
 10
7.2464042365
 20
19.1981317969
 10
7.2991339119
 20
19.2270714673
 10
7.347445499
 20
19.2624502347
  0
LINE
  5
4E1
100
AcDbEntity
  8
0
100
AcDbLine
 62
7
  6
CONTINUOUS
 10
-3.257230923
 20
25.7685465468
 11
-3.1677202361
 21
25.7038431533
  0
LINE
  5
4E2
100
AcDbEntity
  8
0
100
AcDbLine
 62
7
  6
CONTINUOUS
 10
5.0490048071
 20
21.8558584868
 11
5.4189582724
 21
21.5884351717
  0
LINE
  5
4E3
100
AcDbEntity
  8
SMUSSO
100
AcDbLine
 62
7
  6
CONTINUOUS
 10
3.6508740549
 20
21.8633195189
 11
3.7269236788
 21
21.8057602566
  0
LINE
  5
4E4
100
AcDbEntity
  8
ASSI
100
AcDbLine
 62
7
  6
CONTINUOUS
 10
3.6508740549
 20
21.8633195189
 11
3.7269236788
 21
21.8057602566
  0
LINE
  5
4E5
100
AcDbEntity
  8
ASSI
100
AcDbLine
 62
7
  6
CONTINUOUS
 10
5.4566389501
 20
20.6899656927
 11
5.3710572898
 21
20.7547654162
  0
LWPOLYLINE
  5
4E6
100
AcDbEntity
  8
SMUSSO
100
AcDbPolyline
 62
7
  6
CONTINUOUS
 90
4
 70
0
 10
3.2408409402
 20
22.1156790956
 10
3.3511754098
 20
22.0320614079
 10
3.4701662842
 20
21.9517890648
 10
3.5270848103
 20
21.9164538217
  0
LINE
  5
4E7
100
AcDbEntity
  8
ASSI
100
AcDbLine
 62
7
  6
CONTINUOUS
 10
3.2408409402
 20
22.1156790956
 11
3.3511754098
 21
22.0320614079
  0
LWPOLYLINE
  5
4E8
100
AcDbEntity
  8
RACCORDO
100
AcDbPolyline
 62
250
  6
CONTINUOUS
 90
9
 70
0
 10
5.2755349071
 20
20.8103100469
 10
5.3010252164
 20
20.7905964149
 10
5.3225843904
 20
20.7640922965
 10
5.3399279529
 20
20.7311474491
 10
5.3528270537
 20
20.6921966325
 10
5.3611114883
 20
20.6477538728
 10
5.3646719427
 20
20.5984056782
 10
5.3634614362
 20
20.5448032995
 10
5.3574959409
 20
20.4876541354
  0
LWPOLYLINE
  5
4E9
100
AcDbEntity
  8
ASSI
100
AcDbPolyline
 62
250
  6
CONTINUOUS
 90
9
 70
0
 10
5.2755349071
 20
20.8103100469
 10
5.3010252164
 20
20.7905964149
 10
5.3225843904
 20
20.7640922965
 10
5.3399279529
 20
20.7311474491
 10
5.3528270537
 20
20.6921966325
 10
5.3611114883
 20
20.6477538728
 10
5.3646719427
 20
20.5984056782
 10
5.3634614362
 20
20.5448032995
 10
5.3574959409
 20
20.4876541354
  0
LINE
  5
4EA
100
AcDbEntity
  8
RACCORDO
100
AcDbLine
 62
7
  6
CONTINUOUS
 10
5.4706007144
 20
20.6779014887
 11
5.4029724518
 21
20.7323606234
  0
LINE
  5
4EB
100
AcDbEntity
  8
ASSI
100
AcDbLine
 62
7
  6
CONTINUOUS
 10
3.5651113243
 20
21.9365534471
 11
3.6508740549
 21
21.8633195189
  0
LINE
  5
4EC
100
AcDbEntity
  8
SMUSSO
100
AcDbLine
 62
7
  6
CONTINUOUS
 10
3.1392334982
 20
22.2026687685
 11
3.2408409402
 21
22.1156790956
  0
LINE
  5
4ED
100
AcDbEntity
  8
ASSI
100
AcDbLine
 62
7
  6
CONTINUOUS
 10
3.1392334982
 20
22.2026687685
 11
3.2408409402
 21
22.1156790956
  0
LWPOLYLINE
  5
4EE
100
AcDbEntity
  8
RACCORDO
100
AcDbPolyline
 62
7
  6
CONTINUOUS
 90
5
 70
0
 10
-0.1369571625
 20
26.2347408459
 10
-0.2040187303
 20
26.293185876
 10
-0.2755438616
 20
26.349395294
 10
-0.351500855
 20
26.4033672899
 10
-0.4234875273
 20
26.4499203672
  0
LINE
  5
4EF
100
AcDbEntity
  8
ASSI
100
AcDbLine
 62
7
  6
CONTINUOUS
 10
5.5350226251
 20
20.6161118514
 11
5.4566389501
 21
20.6899656927
  0
LINE
  5
4F0
100
AcDbEntity
  8
RACCORDO
100
AcDbLine
 62
7
  6
CONTINUOUS
 10
-0.0746053453
 20
26.1742444454
 11
-0.1369571625
 21
26.2347408459
  0
LWPOLYLINE
  5
4F1
100
AcDbEntity
  8
DRAFT
100
AcDbPolyline
 62
7
  6
CONTINUOUS
 90
10
 70
0
 10
15.1765448993
 20
12.8749690905
 10
15.1167249128
 20
12.939582603
 10
15.056778047
 20
13.0040568562
 10
14.996704302
 20
13.06839185
 10
14.9365030743
 20
13.1325882253
 10
14.8761749674
 20
13.1966453412
 10
14.8157217919
 20
13.2605612752
 10
14.7551441514
 20
13.3243353864
 10
14.6944414424
 20
13.3879683157
 10
14.6336136648
 20
13.451460063
  0
LINE
  5
4F2
100
AcDbEntity
  8
DRAFT
100
AcDbLine
 62
7
  6
CONTINUOUS
 10
15.7768617188
 20
12.210885933
 11
15.6951522534
 21
12.3029860214
  0
LINE
  5
4F3
100
AcDbEntity
  8
DRAFT
100
AcDbLine
 62
7
  6
CONTINUOUS
 10
15.8583085242
 20
12.1185309932
 11
15.7768617188
 21
12.210885933
  0
LWPOLYLINE
  5
4F4
100
AcDbEntity
  8
RACCORDO
100
AcDbPolyline
 62
250
  6
CONTINUOUS
 90
10
 70
0
 10
15.7613041216
 20
11.4271851998
 10
15.7373494036
 20
11.45448337
 10
15.7121422032
 20
11.480345832
 10
15.6858246285
 20
11.5046464881
 10
15.6585531693
 20
11.5272694688
 10
15.6304692854
 20
11.5481033539
 10
15.6016976868
 20
11.5670392365
 10
15.5723845061
 20
11.5839806084
 10
15.5426973926
 20
11.5988463186
 10
15.5127954225
 20
11.6115629007
  0
LINE
  5
4F5
100
AcDbEntity
  8
DRAFT
100
AcDbLine
 62
7
  6
CONTINUOUS
 10
15.9394910803
 20
12.0259230038
 11
15.8583085242
 21
12.1185309932
  0
LWPOLYLINE
  5
4F6
100
AcDbEntity
  8
RACCORDO
100
AcDbPolyline
 62
250
  6
CONTINUOUS
 90
10
 70
0
 10
15.5501332897
 20
11.2651425116
 10
15.5362204567
 20
11.282290483
 10
15.5216833108
 20
11.2983804924
 10
15.506521852
 20
11.3134125397
 10
15.4906436206
 20
11.327453868
 10
15.4741410763
 20
11.3404372342
 10
15.4572915982
 20
11.3521609096
 10
15.4401876459
 20
11.3625576512
 10
15.4227367598
 20
11.3716947019
 10
15.4049389398
 20
11.3795720618
  0
LWPOLYLINE
  5
4F7
100
AcDbEntity
  8
RACCORDO
100
AcDbPolyline
 62
7
  6
CONTINUOUS
 90
6
 70
0
 10
18.5541063245
 20
8.8228381954
 10
18.1459303715
 20
9.3872269013
 10
17.6740826075
 20
10.0143865315
 10
17.1905576843
 20
10.6324158739
 10
16.6949573976
 20
11.2418732503
 10
16.1872817474
 20
11.8427586607
  0
LWPOLYLINE
  5
4F8
100
AcDbEntity
  8
RACCORDO
100
AcDbPolyline
 62
7
  6
CONTINUOUS
 90
9
 70
0
 10
8.3850110684
 20
22.0746805492
 10
8.340983764
 20
22.1357465109
 10
8.2888885278
 20
22.1994047476
 10
8.2316303849
 20
22.2615563853
 10
8.1692785677
 20
22.3220527858
 10
8.1022169999
 20
22.380497816
 10
8.0306918685
 20
22.436707234
 10
7.9547348752
 20
22.4906792299
 10
7.8827482029
 20
22.5372323072
  0
LWPOLYLINE
  5
4F9
100
AcDbEntity
  8
RACCORDO
100
AcDbPolyline
 62
250
  6
CONTINUOUS
 90
4
 70
0
 10
16.803217061
 20
9.5260347965
 10
16.465683325
 20
10.0171771124
 10
16.0143546875
 20
10.6458202848
 10
15.5501332897
 20
11.2651425116
  0
LWPOLYLINE
  5
4FA
100
AcDbEntity
  8
RACCORDO
100
AcDbPolyline
 62
250
  6
CONTINUOUS
 90
5
 70
0
 10
17.2437282345
 20
9.3491155781
 10
17.1259514709
 20
9.5280794062
 10
16.6835852072
 20
10.1710783303
 10
16.2285749772
 20
10.8042694536
 10
15.7613041216
 20
11.4271851998
  0
LWPOLYLINE
  5
4FB
100
AcDbEntity
  8
RACCORDO
100
AcDbPolyline
 62
7
  6
CONTINUOUS
 90
4
 70
0
 10
20.3108980013
 20
6.1412738785
 10
19.9046037091
 20
6.8040351557
 10
19.4850394408
 20
7.4598994323
 10
19.2646899958
 20
7.7902789736
  0
LINE
  5
4FC
100
AcDbEntity
  8
RACCORDO
100
AcDbLine
 62
7
  6
CONTINUOUS
 10
20.3108980013
 20
6.1412738785
 11
20.3655513712
 21
6.046038257
  0
LWPOLYLINE
  5
4FD
100
AcDbEntity
  8
RACCORDO
100
AcDbPolyline
 62
7
  6
CONTINUOUS
 90
12
 70
0
 10
20.3655513712
 20
6.046038257
 10
20.415817533
 20
5.9500081366
 10
20.4616964866
 20
5.8531835172
 10
20.5033313404
 20
5.7552110979
 10
20.5405789861
 20
5.6564441795
 10
20.5730100987
 20
5.5579426648
 10
20.6005513959
 20
5.4597120379
 10
20.6232761601
 20
5.3617468146
 10
20.6409749137
 20
5.2650904444
 10
20.6535778307
 20
5.1700907437
 10
20.661154737
 20
5.0763998962
 10
20.6637056327
 20
4.9840179017
  0
LINE
  5
4FE
100
AcDbEntity
  8
RACCORDO
100
AcDbLine
 62
250
  6
CONTINUOUS
 10
19.4953528857
 20
5.4913508966
 11
19.167395906
 21
6.1223704344
  0
LINE
  5
4FF
100
AcDbEntity
  8
RACCORDO
100
AcDbLine
 62
250
  6
CONTINUOUS
 10
19.2550029074
 20
5.3696955345
 11
19.1367716976
 21
5.5973809016
  0
LWPOLYLINE
  5
500
100
AcDbEntity
  8
RACCORDO
100
AcDbPolyline
 62
250
  6
CONTINUOUS
 90
8
 70
0
 10
10.0098586171
 20
24.5059498623
 10
10.010027532
 20
24.5055960336
 10
10.0087194908
 20
24.5019122889
 10
10.0035639099
 20
24.4954527811
 10
9.9946432275
 20
24.4863207986
 10
9.9821000863
 20
24.4746623624
 10
9.9661350523
 20
24.4606638924
 10
9.947003408
 20
24.4445492252
  0
LWPOLYLINE
  5
501
100
AcDbEntity
  8
ASSI
100
AcDbPolyline
 62
250
  6
CONTINUOUS
 90
8
 70
0
 10
10.0098586171
 20
24.5059498623
 10
10.010027532
 20
24.5055960336
 10
10.0087194908
 20
24.5019122889
 10
10.0035639099
 20
24.4954527811
 10
9.9946432275
 20
24.4863207986
 10
9.9821000863
 20
24.4746623624
 10
9.9661350523
 20
24.4606638924
 10
9.947003408
 20
24.4445492252
  0
LWPOLYLINE
  5
502
100
AcDbEntity
  8
RACCORDO
100
AcDbPolyline
 62
7
  6
CONTINUOUS
 90
3
 70
0
 10
13.7587247694
 20
22.8074713372
 10
13.7212731702
 20
22.9220369486
 10
13.6773671534
 20
23.0359701617
  0
LINE
  5
503
100
AcDbEntity
  8
ASSI
100
AcDbLine
 62
7
  6
CONTINUOUS
 10
13.7837950028
 20
22.7161615717
 11
13.7339678842
 21
22.8854266155
  0
LWPOLYLINE
  5
504
100
AcDbEntity
  8
DRAFT
100
AcDbPolyline
 62
7
  6
CONTINUOUS
 90
25
 70
0
 10
17.4845709324
 20
14.6702306164
 10
17.4915558655
 20
14.6448240649
 10
17.4997579547
 20
14.6195079547
 10
17.5091771999
 20
14.5942822858
 10
17.519852907
 20
14.5690647063
 10
17.5317457701
 20
14.543937568
 10
17.5447378723
 20
14.5191479268
 10
17.5588400214
 20
14.4946992008
 10
17.5740414095
 20
14.4705879718
 10
17.5901916969
 20
14.447051041
 10
17.6073001582
 20
14.4240942014
 10
17.6253575187
 20
14.40171166
 10
17.644185614
 20
14.3801228397
 10
17.6637916107
 20
14.359335892
 10
17.6841683423
 20
14.3393426654
 10
17.7051161449
 20
14.3203381284
 10
17.7266405135
 20
14.3023318773
 10
17.7487359531
 20
14.2853143159
 10
17.7711863153
 20
14.2694516236
 10
17.793994993
 20
14.2547549951
 10
17.8171585932
 20
14.2412132357
 10
17.840450788
 20
14.2289589408
 10
17.8637961346
 20
14.2180363086
 10
17.8872700757
 20
14.2084011409
 10
17.9108726114
 20
14.2000534375
  0
LINE
  5
505
100
AcDbEntity
  8
RACCORDO
100
AcDbLine
 62
7
  6
CONTINUOUS
 10
13.7895742477
 20
22.6926105198
 11
13.7587247694
 21
22.8074713372
  0
LWPOLYLINE
  5
506
100
AcDbEntity
  8
ASSI
100
AcDbPolyline
 62
250
  6
CONTINUOUS
 90
9
 70
0
 10
13.7179224068
 20
22.4662892556
 10
13.6949751504
 20
22.5645307067
 10
13.6670606036
 20
22.6633123876
 10
13.6342575393
 20
22.7623315561
 10
13.5966740385
 20
22.861284138
 10
13.5544232326
 20
22.9598688188
 10
13.5076205936
 20
23.0577811763
 10
13.4564237161
 20
23.1546969253
 10
13.4010284392
 20
23.2502763276
  0
LINE
  5
507
100
AcDbEntity
  8
DRAFT
100
AcDbLine
 62
7
  6
CONTINUOUS
 10
22.1094067816
 20
13.2408302129
 11
22.1094067816
 21
13.4293867734
  0
LINE
  5
508
100
AcDbEntity
  8
RACCORDO
100
AcDbLine
 62
7
  6
CONTINUOUS
 10
22.8598603674
 20
6.8026501335
 11
22.8598603674
 21
-19.4059080478
  0
LWPOLYLINE
  5
509
100
AcDbEntity
  8
RACCORDO
100
AcDbPolyline
 62
7
  6
CONTINUOUS
 90
12
 70
0
 10
20.6637056327
 20
-21.4248856165
 10
20.661154737
 20
-21.5152186165
 10
20.6535778307
 20
-21.6028233513
 10
20.6409749137
 20
-21.6876998207
 10
20.6232761601
 20
-21.7701397541
 10
20.6005513959
 20
-21.8498514221
 10
20.5730100987
 20
-21.9259596372
 10
20.5405789856
 20
-21.9984110205
 10
20.5033313395
 20
-22.0672589509
 10
20.4616964866
 20
-22.1317883774
 10
20.4158175356
 20
-22.1917609497
 10
20.3655513778
 20
-22.2474150182
  0
LWPOLYLINE
  5
50A
100
AcDbEntity
  8
RACCORDO
100
AcDbPolyline
 62
7
  6
CONTINUOUS
 90
13
 70
0
 10
22.8598603674
 20
-19.4059080478
 10
22.8573158919
 20
-19.4961281557
 10
22.8497579807
 20
-19.5836276125
 10
22.8371866336
 20
-19.6684064182
 10
22.8195324438
 20
-19.7507551144
 10
22.7968648183
 20
-19.8303831594
 10
22.7693919782
 20
-19.9064189283
 10
22.7370410289
 20
-19.9788095032
 10
22.6998848651
 20
-20.0476078019
 10
22.6583503921
 20
-20.1121009522
 10
22.6125799116
 20
-20.1720513303
 10
22.5624311219
 20
-20.22769656
 10
22.507904023
 20
-20.2790366414
  0
LWPOLYLINE
  5
50B
100
AcDbEntity
  8
RACCORDO
100
AcDbPolyline
 62
250
  6
CONTINUOUS
 90
7
 70
0
 10
10.5122213643
 20
24.1416258384
 10
10.5326400793
 20
24.1451710262
 10
10.5519035531
 20
24.1497836746
 10
10.5698600348
 20
24.1552973115
 10
10.5864895673
 20
24.161554159
 10
10.6018857325
 20
24.1684390497
 10
10.6160924201
 20
24.1758279937
  0
LWPOLYLINE
  5
50C
100
AcDbEntity
  8
ASSI
100
AcDbPolyline
 62
7
  6
CONTINUOUS
 90
20
 70
0
 10
5.0176069335
 20
21.4020898165
 10
5.1964514559
 20
21.3764436578
 10
5.3780489873
 20
21.3565137806
 10
5.5606879987
 20
21.3424947557
 10
5.7443945502
 20
21.3344362455
 10
5.9291425818
 20
21.3322885876
 10
6.1131423837
 20
21.336097366
 10
6.2964647496
 20
21.3459347028
 10
6.4790388858
 20
21.3617284757
 10
6.6588627012
 20
21.3833079022
 10
6.8358313461
 20
21.4107310113
 10
7.0100496702
 20
21.4439397739
 10
7.1798301316
 20
21.4825893203
 10
7.3451344965
 20
21.526732924
 10
7.5060009986
 20
21.5763173115
 10
7.6608567966
 20
21.6308377923
 10
7.8095713702
 20
21.6902890215
 10
7.9522752396
 20
21.7546763441
 10
8.0877871247
 20
21.8235111036
 10
8.1858696713
 20
21.8787956629
  0
LINE
  5
50D
100
AcDbEntity
  8
0
100
AcDbLine
 62
7
  6
CONTINUOUS
 10
6.0151605603
 20
22.0768154946
 11
5.4505083126
 21
22.1847509041
  0
LINE
  5
50E
100
AcDbEntity
  8
RACCORDO
100
AcDbLine
 62
7
  6
CONTINUOUS
 10
-7.6407183573
 20
26.1591533776
 11
-7.6950180365
 21
26.1738564076
  0
LINE
  5
50F
100
AcDbEntity
  8
ASSI
100
AcDbLine
 62
250
  6
CONTINUOUS
 10
-7.6180914143
 20
26.149563231
 11
-7.5980244411
 21
26.1438036754
  0
LINE
  5
510
100
AcDbEntity
  8
RACCORDO
100
AcDbLine
 62
250
  6
CONTINUOUS
 10
-7.6180914143
 20
26.149563231
 11
-7.597349258
 21
26.1435365061
  0
LINE
  5
511
100
AcDbEntity
  8
ASSI
100
AcDbLine
 62
7
  6
CONTINUOUS
 10
-7.5979880035
 20
26.143894764
 11
-7.6710668687
 21
26.1679848943
  0
LINE
  5
512
100
AcDbEntity
  8
RACCORDO
100
AcDbLine
 62
7
  6
CONTINUOUS
 10
-7.5973124098
 20
26.1436282413
 11
-7.6407183573
 21
26.1591533776
  0
LWPOLYLINE
  5
513
100
AcDbEntity
  8
RACCORDO
100
AcDbPolyline
 62
250
  6
CONTINUOUS
 90
10
 70
0
 10
-7.9759336301
 20
26.2994533061
 10
-8.0198233925
 20
26.3153446697
 10
-8.0634075813
 20
26.3271042894
 10
-8.1063346374
 20
26.3346373092
 10
-8.148258302
 20
26.3378829658
 10
-8.18884041
 20
26.3368150788
 10
-8.2277536174
 20
26.3314422617
 10
-8.2646840422
 20
26.3218078525
 10
-8.2993337955
 20
26.3079895643
 10
-8.3314233852
 20
26.2900988582
  0
LWPOLYLINE
  5
514
100
AcDbEntity
  8
ASSI
100
AcDbPolyline
 62
250
  6
CONTINUOUS
 90
3
 70
0
 10
-7.9759336301
 20
26.2994533061
 10
-8.0198233925
 20
26.3153446697
 10
-8.0634075813
 20
26.3271042894
  0
LWPOLYLINE
  5
515
100
AcDbEntity
  8
RACCORDO
100
AcDbPolyline
 62
250
  6
CONTINUOUS
 90
13
 70
0
 10
-7.7785093707
 20
26.093100177
 10
-7.787092842
 20
26.0962276553
 10
-7.7956607093
 20
26.0986936285
 10
-7.8042129726
 20
26.1004980969
 10
-7.8128190895
 20
26.1016541334
 10
-7.8214096023
 20
26.102148665
 10
-7.8297761383
 20
26.1019424719
 10
-7.8379148099
 20
26.1010115361
 10
-7.8458295047
 20
26.0993798757
 10
-7.853323513
 20
26.0970803254
 10
-7.8603312647
 20
26.0941238301
 10
-7.8669183298
 20
26.090499445
 10
-7.8730847084
 20
26.0862071699
  0
LWPOLYLINE
  5
516
100
AcDbEntity
  8
ASSI
100
AcDbPolyline
 62
250
  6
CONTINUOUS
 90
13
 70
0
 10
-7.7785093707
 20
26.093100177
 10
-7.787092842
 20
26.0962276553
 10
-7.7956607093
 20
26.0986936285
 10
-7.8042129726
 20
26.1004980969
 10
-7.8128190895
 20
26.1016541334
 10
-7.8214096023
 20
26.102148665
 10
-7.8297761383
 20
26.1019424719
 10
-7.8379148099
 20
26.1010115361
 10
-7.8458295047
 20
26.0993798757
 10
-7.853323513
 20
26.0970803254
 10
-7.8603312647
 20
26.0941238301
 10
-7.8669183298
 20
26.090499445
 10
-7.8730847084
 20
26.0862071699
  0
LWPOLYLINE
  5
517
100
AcDbEntity
  8
RACCORDO
100
AcDbPolyline
 62
250
  6
CONTINUOUS
 90
10
 70
0
 10
-7.8730847084
 20
26.0862071699
 10
-7.9055232897
 20
26.0980970288
 10
-7.9377880902
 20
26.1072914873
 10
-7.9696747249
 20
26.1137323019
 10
-8.0009812043
 20
26.1173786726
 10
-8.0315092139
 20
26.1182075011
 10
-8.0610653706
 20
26.1162135371
 10
-8.0894624475
 20
26.1114094115
 10
-8.1165205602
 20
26.1038255567
 10
-8.1420683061
 20
26.0935100134
  0
LWPOLYLINE
  5
518
100
AcDbEntity
  8
ASSI
100
AcDbPolyline
 62
250
  6
CONTINUOUS
 90
4
 70
0
 10
-7.8730847084
 20
26.0862071699
 10
-7.9055232897
 20
26.0980970288
 10
-7.9377880902
 20
26.1072914873
 10
-7.9696747249
 20
26.1137323019
  0
LINE
  5
519
100
AcDbEntity
  8
ASSI
100
AcDbLine
 62
250
  6
CONTINUOUS
 10
-7.5980244411
 20
26.1438036754
 11
-7.597162384
 21
26.14346165
  0
LINE
  5
51A
100
AcDbEntity
  8
0
100
AcDbLine
 62
7
  6
CONTINUOUS
 10
-5.8285287245
 20
24.9105431911
 11
-0.9185811807
 21
22.9385975654
  0
LINE
  5
51B
100
AcDbEntity
  8
ASSI
100
AcDbLine
 62
7
  6
CONTINUOUS
 10
-5.8285287245
 20
24.9105431911
 11
-0.9185811807
 21
22.9385975654
  0
LINE
  5
51C
100
AcDbEntity
  8
RACCORDO
100
AcDbLine
 62
250
  6
CONTINUOUS
 10
3.1207770089
 20
21.7157010483
 11
-0.1536368096
 21
23.0307794578
  0
LINE
  5
51D
100
AcDbEntity
  8
ASSI
100
AcDbLine
 62
250
  6
CONTINUOUS
 10
3.1207770089
 20
21.7157010483
 11
-0.1536368096
 21
23.0307794578
  0
LINE
  5
51E
100
AcDbEntity
  8
RACCORDO
100
AcDbLine
 62
250
  6
CONTINUOUS
 10
-5.1061717619
 20
25.0198291469
 11
-7.7785093707
 21
26.093100177
  0
LINE
  5
51F
100
AcDbEntity
  8
ASSI
100
AcDbLine
 62
250
  6
CONTINUOUS
 10
-5.1061717619
 20
25.0198291469
 11
-7.7785093707
 21
26.093100177
  0
LINE
  5
520
100
AcDbEntity
  8
RACCORDO
100
AcDbLine
 62
7
  6
CONTINUOUS
 10
-4.8833619589
 20
25.053538218
 11
-7.597349258
 21
26.1435365061
  0
LINE
  5
521
100
AcDbEntity
  8
ASSI
100
AcDbLine
 62
7
  6
CONTINUOUS
 10
-4.8833619589
 20
25.053538218
 11
-7.5971649154
 21
26.1434626666
  0
LINE
  5
522
100
AcDbEntity
  8
RACCORDO
100
AcDbLine
 62
250
  6
CONTINUOUS
 10
-7.5958269814
 20
26.1467939887
 11
-7.9759336292
 21
26.2994533878
  0
LINE
  5
523
100
AcDbEntity
  8
ASSI
100
AcDbLine
 62
250
  6
CONTINUOUS
 10
-7.5958269814
 20
26.1467939887
 11
-7.9759336292
 21
26.2994533878
  0
LINE
  5
524
100
AcDbEntity
  8
0
100
AcDbLine
 62
7
  6
CONTINUOUS
 10
-4.741824961
 20
25.0749514623
 11
-0.2909406715
 21
23.2873759888
  0
LINE
  5
525
100
AcDbEntity
  8
ASSI
100
AcDbLine
 62
7
  6
CONTINUOUS
 10
-4.741824961
 20
25.0749514623
 11
-0.2909406715
 21
23.2873759888
  0
LINE
  5
526
100
AcDbEntity
  8
0
100
AcDbLine
 62
7
  6
CONTINUOUS
 10
5.0490048071
 20
21.8558584868
 11
4.2300124456
 21
22.1847842829
  0
LINE
  5
527
100
AcDbEntity
  8
0
100
AcDbLine
 62
7
  6
CONTINUOUS
 10
5.4505083126
 20
22.1847509041
 11
4.6315159511
 21
22.5136767002
  0
LINE
  5
528
100
AcDbEntity
  8
0
100
AcDbLine
 62
7
  6
CONTINUOUS
 10
6.8666256694
 20
21.6661047198
 11
6.7688888454
 21
21.7053580317
  0
LINE
  5
529
100
AcDbEntity
  8
0
100
AcDbLine
 62
7
  6
CONTINUOUS
 10
-4.0762232845
 20
26.097472343
 11
-3.257230923
 21
25.7685465468
  0
LINE
  5
52A
100
AcDbEntity
  8
0
100
AcDbLine
 62
7
  6
CONTINUOUS
 10
-3.6747197791
 20
26.4263647602
 11
-2.8557274176
 21
26.0974389641
  0
LINE
  5
52B
100
AcDbEntity
  8
RACCORDO
100
AcDbLine
 62
7
  6
CONTINUOUS
 10
-0.0205260887
 20
23.1005137025
 11
3.3023828767
 21
21.7659581446
  0
LINE
  5
52C
100
AcDbEntity
  8
ASSI
100
AcDbLine
 62
7
  6
CONTINUOUS
 10
-0.0205260887
 20
23.1005137025
 11
3.3024190048
 21
21.7659435179
  0
LWPOLYLINE
  5
52D
100
AcDbEntity
  8
RACCORDO
100
AcDbPolyline
 62
250
  6
CONTINUOUS
 90
10
 70
0
 10
3.1402982381
 20
21.662984295
 10
3.1730078155
 20
21.6487147326
 10
3.2054773676
 20
21.6319146087
 10
3.2375012169
 20
21.6126903463
 10
3.2688765164
 20
21.5911637295
 10
3.299404534
 20
21.5674711327
 10
3.3288919116
 20
21.5417626558
 10
3.3571518895
 20
21.5142011738
 10
3.3840054895
 20
21.4849613046
 10
3.409282648
 20
21.4542283027
  0
LWPOLYLINE
  5
52E
100
AcDbEntity
  8
ASSI
100
AcDbPolyline
 62
250
  6
CONTINUOUS
 90
10
 70
0
 10
3.1402982381
 20
21.662984295
 10
3.1730078155
 20
21.6487147326
 10
3.2054773676
 20
21.6319146087
 10
3.2375012169
 20
21.6126903463
 10
3.2688765164
 20
21.5911637295
 10
3.299404534
 20
21.5674711327
 10
3.3288919116
 20
21.5417626558
 10
3.3571518895
 20
21.5142011738
 10
3.3840054895
 20
21.4849613046
 10
3.409282648
 20
21.4542283027
  0
LWPOLYLINE
  5
52F
100
AcDbEntity
  8
RACCORDO
100
AcDbPolyline
 62
7
  6
CONTINUOUS
 90
3
 70
0
 10
3.3382807413
 20
21.7502397591
 10
3.3087308435
 20
21.7634660501
 10
3.3024207553
 20
21.7660501464
  0
LWPOLYLINE
  5
530
100
AcDbEntity
  8
ASSI
100
AcDbPolyline
 62
7
  6
CONTINUOUS
 90
3
 70
0
 10
3.3381669126
 20
21.7502944402
 10
3.3175556269
 20
21.7597128042
 10
3.3024569051
 20
21.7660355545
  0
LINE
  5
531
100
AcDbEntity
  8
ASSI
100
AcDbLine
 62
7
  6
CONTINUOUS
 10
3.6716625132
 20
21.5895350316
 11
3.3386905181
 21
21.7500428859
  0
LINE
  5
532
100
AcDbEntity
  8
RACCORDO
100
AcDbLine
 62
7
  6
CONTINUOUS
 10
3.3394798527
 20
21.7496616054
 11
3.3388088485
 21
21.7499860851
  0
LWPOLYLINE
  5
533
100
AcDbEntity
  8
ASSI
100
AcDbPolyline
 62
7
  6
CONTINUOUS
 90
6
 70
0
 10
4.9111014053
 20
20.9885659247
 10
4.6631634997
 20
21.1092453849
 10
4.4152254545
 20
21.2296931613
 10
4.167313746
 20
21.3498974998
 10
3.9194516732
 20
21.4698481906
 10
3.6716625132
 20
21.5895350316
  0
LWPOLYLINE
  5
534
100
AcDbEntity
  8
RACCORDO
100
AcDbPolyline
 62
7
  6
CONTINUOUS
 90
9
 70
0
 10
5.2664738364
 20
20.8151881698
 10
5.1188829107
 20
20.8872525824
 10
4.8834552698
 20
21.0020337147
 10
4.6480047454
 20
21.1166161159
 10
4.4125557839
 20
21.2309888245
 10
4.1771310392
 20
21.3451417861
 10
3.9417504603
 20
21.4590662602
 10
3.7064339955
 20
21.5727535016
 10
3.3395134392
 20
21.7496123003
  0
LINE
  5
535
100
AcDbEntity
  8
ASSI
100
AcDbLine
 62
7
  6
CONTINUOUS
 10
4.9111014053
 20
20.9885659247
 11
5.2665701267
 21
20.8151544941
  0
LINE
  5
536
100
AcDbEntity
  8
DRAFT
100
AcDbLine
 62
7
  6
CONTINUOUS
 10
21.9172837445
 20
13.5474074969
 11
22.1094067816
 21
13.4293867734
  0
LWPOLYLINE
  5
537
100
AcDbEntity
  8
RACCORDO
100
AcDbPolyline
 62
250
  6
CONTINUOUS
 90
11
 70
0
 10
7.7988884644
 20
22.5182363695
 10
7.8582851495
 20
22.4792188614
 10
7.9161200406
 20
22.4371922956
 10
7.9723931377
 20
22.3921566722
 10
8.0277823306
 20
22.3439267318
 10
8.0816097295
 20
22.2926877337
 10
8.131841665
 20
22.2389954559
 10
8.1782707291
 20
22.1827399196
 10
8.2211043297
 20
22.1240311037
 10
8.2589310213
 20
22.0637547228
 10
8.291029193
 20
22.0027714326
  0
LWPOLYLINE
  5
538
100
AcDbEntity
  8
RACCORDO
100
AcDbPolyline
 62
250
  6
CONTINUOUS
 90
5
 70
0
 10
-0.5078209813
 20
26.4305363845
 10
-0.4342698339
 20
26.3812707386
 10
-0.3654641044
 20
26.3302127212
 10
-0.3014037928
 20
26.2773623322
 10
-0.2419506434
 20
26.2225752592
  0
LINE
  5
539
100
AcDbEntity
  8
DRAFT
100
AcDbLine
 62
7
  6
CONTINUOUS
 10
17.9520902585
 20
15.1986740946
 11
17.4961286346
 21
15.5081778427
  0
LINE
  5
53A
100
AcDbEntity
  8
0
100
AcDbLine
 62
7
  6
CONTINUOUS
 10
7.2059505902
 20
21.4895646423
 11
6.8666256694
 21
21.734847911
  0
LINE
  5
53B
100
AcDbEntity
  8
ASSI
100
AcDbLine
 62
7
  6
CONTINUOUS
 10
4.3413300446
 20
27.6697219381
 11
4.3124157777
 21
27.6984945016
  0
LWPOLYLINE
  5
53C
100
AcDbEntity
  8
RACCORDO
100
AcDbPolyline
 62
7
  6
CONTINUOUS
 90
5
 70
0
 10
4.3348060126
 20
27.675826515
 10
4.3131303368
 20
27.6977275377
 10
4.2923837187
 20
27.7212900249
 10
4.2729674768
 20
27.7460963748
 10
4.2552570683
 20
27.7716722581
  0
LWPOLYLINE
  5
53D
100
AcDbEntity
  8
ASSI
100
AcDbPolyline
 62
250
  6
CONTINUOUS
 90
6
 70
0
 10
3.9409285417
 20
28.5887975286
 10
3.9048296797
 20
28.6264558279
 10
3.8664138526
 20
28.6610696229
 10
3.8261017891
 20
28.6922598245
 10
3.7843349857
 20
28.7196848389
 10
3.7415708708
 20
28.7430443082
  0
LWPOLYLINE
  5
53E
100
AcDbEntity
  8
DRAFT
100
AcDbPolyline
 62
7
  6
CONTINUOUS
 90
10
 70
0
 10
17.4845709324
 20
14.6702306164
 10
17.4214283363
 20
14.7386494249
 10
17.3581431701
 20
14.8069126156
 10
17.2947154338
 20
14.8750201885
 10
17.2311444113
 20
14.9429729055
 10
17.1674308187
 20
15.0107700046
 10
17.1035768041
 20
15.0784092002
 10
17.0395830836
 20
15.1458897301
 10
16.9754489411
 20
15.2132123564
 10
16.9111743765
 20
15.2803770791
  0
LWPOLYLINE
  5
53F
100
AcDbEntity
  8
ASSI
100
AcDbPolyline
 62
7
  6
CONTINUOUS
 90
3
 70
0
 10
4.3124157777
 20
27.6984945016
 10
4.2848562259
 20
27.7305579164
 10
4.2602247406
 20
27.7641666099
  0
LWPOLYLINE
  5
540
100
AcDbEntity
  8
ASSI
100
AcDbPolyline
 62
250
  6
CONTINUOUS
 90
5
 70
0
 10
9.979371814
 20
24.4031534864
 10
9.9973513479
 20
24.3822036193
 10
10.0166138235
 20
24.361161471
 10
10.0371232611
 20
24.340199903
 10
10.0587132092
 20
24.3195993565
  0
LINE
  5
541
100
AcDbEntity
  8
ASSI
100
AcDbLine
 62
250
  6
CONTINUOUS
 10
3.9743150852
 20
28.5485071574
 11
3.9409285417
 21
28.5887975286
  0
LINE
  5
542
100
AcDbEntity
  8
ASSI
100
AcDbLine
 62
250
  6
CONTINUOUS
 10
9.7804915622
 20
24.6557370282
 11
9.8399140612
 21
24.5837137943
  0
LWPOLYLINE
  5
543
100
AcDbEntity
  8
RACCORDO
100
AcDbPolyline
 62
250
  6
CONTINUOUS
 90
3
 70
0
 10
9.9625987721
 20
24.4239662948
 10
9.979371814
 20
24.4031534864
 10
9.9973513479
 20
24.3822036193
  0
LINE
  5
544
100
AcDbEntity
  8
ASSI
100
AcDbLine
 62
250
  6
CONTINUOUS
 10
9.9625987721
 20
24.4239662948
 11
9.979371814
 21
24.4031534864
  0
LWPOLYLINE
  5
545
100
AcDbEntity
  8
DRAFT
100
AcDbPolyline
 62
7
  6
CONTINUOUS
 90
10
 70
0
 10
19.4118278744
 20
12.4206074387
 10
19.2499613691
 20
12.6225227545
 10
19.0868574725
 20
12.8234011195
 10
18.9225161846
 20
13.0232425338
 10
18.7569230842
 20
13.2220640942
 10
18.5900925926
 20
13.4198487039
 10
18.4220679731
 20
13.6165450721
 10
18.252863647
 20
13.812136102
 10
18.0824651931
 20
14.0066388905
 10
17.9108726114
 20
14.2000534375
  0
LINE
  5
546
100
AcDbEntity
  8
ASSI
100
AcDbLine
 62
7
  6
CONTINUOUS
 10
10.0638343323
 20
24.4386318298
 11
10.0098586171
 21
24.5059498623
  0
LINE
  5
547
100
AcDbEntity
  8
ASSI
100
AcDbLine
 62
7
  6
CONTINUOUS
 10
9.8471209215
 20
24.7121484129
 11
10.0098586171
 21
24.5059498623
  0
LWPOLYLINE
  5
548
100
AcDbEntity
  8
RACCORDO
100
AcDbPolyline
 62
250
  6
CONTINUOUS
 90
3
 70
0
 10
9.8399140612
 20
24.5837137943
 10
9.8953725149
 20
24.5132412244
 10
9.9402040083
 20
24.453595444
  0
LWPOLYLINE
  5
549
100
AcDbEntity
  8
ASSI
100
AcDbPolyline
 62
250
  6
CONTINUOUS
 90
3
 70
0
 10
9.8399140612
 20
24.5837137943
 10
9.8953725149
 20
24.5132412244
 10
9.9402040083
 20
24.453595444
  0
LINE
  5
54A
100
AcDbEntity
  8
RACCORDO
100
AcDbLine
 62
7
  6
CONTINUOUS
 10
10.0450042247
 20
24.4608183394
 11
10.0098586171
 21
24.5059498623
  0
LINE
  5
54B
100
AcDbEntity
  8
RACCORDO
100
AcDbLine
 62
250
  6
CONTINUOUS
 10
9.9402040083
 20
24.453595444
 11
9.9625987721
 21
24.4239662948
  0
LINE
  5
54C
100
AcDbEntity
  8
ASSI
100
AcDbLine
 62
250
  6
CONTINUOUS
 10
9.9402040083
 20
24.453595444
 11
9.9625987721
 21
24.4239662948
  0
LINE
  5
54D
100
AcDbEntity
  8
RACCORDO
100
AcDbLine
 62
7
  6
CONTINUOUS
 10
6.9923530645
 20
26.3869161649
 11
6.999624833
 21
26.3767216743
  0
LINE
  5
54E
100
AcDbEntity
  8
ASSI
100
AcDbLine
 62
7
  6
CONTINUOUS
 10
6.9923530645
 20
26.3869161649
 11
6.999624833
 21
26.3767216743
  0
LWPOLYLINE
  5
54F
100
AcDbEntity
  8
RACCORDO
100
AcDbPolyline
 62
7
  6
CONTINUOUS
 90
10
 70
0
 10
22.507904023
 20
7.9584859322
 10
22.2390332911
 20
8.4008057699
 10
21.9640866685
 20
8.8402579549
 10
21.6830641551
 20
9.276842487
 10
21.3958561556
 20
9.7107232973
 10
21.1025722654
 20
10.1417364548
 10
20.8035412706
 20
10.5693901669
 10
20.4988727665
 20
10.9935205028
 10
20.1884571579
 20
11.4142913933
 10
19.8722944446
 20
11.8317028384
  0
LWPOLYLINE
  5
550
100
AcDbEntity
  8
RACCORDO
100
AcDbPolyline
 62
7
  6
CONTINUOUS
 90
13
 70
0
 10
22.507904023
 20
7.9584859322
 10
22.5624311219
 20
7.8633472264
 10
22.6125799116
 20
7.7674202277
 10
22.6583503921
 20
7.670704936
 10
22.6998848651
 20
7.5728494242
 10
22.7370410289
 20
7.4742056194
 10
22.7693919782
 20
7.3758293033
 10
22.7968648183
 20
7.2777261106
 10
22.8195324438
 20
7.1798904066
 10
22.8371866336
 20
7.0833610692
 10
22.8497579807
 20
6.9884843908
 10
22.8573158919
 20
6.8949140789
 10
22.8598603674
 20
6.8026501335
  0
LINE
  5
551
100
AcDbEntity
  8
ASSI
100
AcDbLine
 62
7
  6
CONTINUOUS
 10
13.5947808813
 20
23.2146251852
 11
13.5038426037
 21
23.377942008
  0
LWPOLYLINE
  5
552
100
AcDbEntity
  8
RACCORDO
100
AcDbPolyline
 62
7
  6
CONTINUOUS
 90
4
 70
0
 10
13.6274979517
 20
23.1481853398
 10
13.5720529738
 20
23.2581058849
 10
13.5112335723
 20
23.3656364296
 10
13.4634101544
 20
23.44470775
  0
LWPOLYLINE
  5
553
100
AcDbEntity
  8
RACCORDO
100
AcDbPolyline
 62
250
  6
CONTINUOUS
 90
13
 70
0
 10
13.9860136344
 20
22.3828772229
 10
14.0347328698
 20
22.279082872
 10
14.0776978442
 20
22.1794508407
 10
14.1153254198
 20
22.0842307181
 10
14.1483646926
 20
21.9926661791
 10
14.1771449663
 20
21.9049048562
 10
14.2019956488
 20
21.8210606107
 10
14.2234797307
 20
21.7402754789
 10
14.2418353876
 20
21.6626134665
 10
14.2572965674
 20
21.5881304827
 10
14.2702468259
 20
21.5159480598
 10
14.280834494
 20
21.4461254623
 10
14.2892148617
 20
21.3786661178
  0
LWPOLYLINE
  5
554
100
AcDbEntity
  8
ASSI
100
AcDbPolyline
 62
250
  6
CONTINUOUS
 90
12
 70
0
 10
13.9860136344
 20
22.3828772229
 10
14.0347328698
 20
22.279082872
 10
14.0776978442
 20
22.1794508407
 10
14.1153254198
 20
22.0842307181
 10
14.1483646926
 20
21.9926661791
 10
14.1771449663
 20
21.9049048562
 10
14.2019956488
 20
21.8210606107
 10
14.2234797307
 20
21.7402754789
 10
14.2418353876
 20
21.6626134665
 10
14.2572965674
 20
21.5881304827
 10
14.2702468259
 20
21.5159480598
 10
14.280834494
 20
21.4461254623
  0
LINE
  5
555
100
AcDbEntity
  8
ASSI
100
AcDbLine
 62
7
  6
CONTINUOUS
 10
13.6705545761
 20
23.0522263179
 11
13.5947808813
 21
23.2146251852
  0
LINE
  5
556
100
AcDbEntity
  8
RACCORDO
100
AcDbLine
 62
7
  6
CONTINUOUS
 10
13.6773671534
 20
23.0359701617
 11
13.6274979517
 21
23.1481853398
  0
LINE
  5
557
100
AcDbEntity
  8
ASSI
100
AcDbLine
 62
7
  6
CONTINUOUS
 10
13.7339678842
 20
22.8854266155
 11
13.6705545761
 21
23.0522263179
  0
LINE
  5
558
100
AcDbEntity
  8
0
100
AcDbLine
 62
7
  6
CONTINUOUS
 10
-10.4889125558
 20
23.3211207153
 11
-10.5512516831
 21
23.3040662102
  0
LINE
  5
559
100
AcDbEntity
  8
ASSI
100
AcDbLine
 62
7
  6
CONTINUOUS
 10
-10.4889125558
 20
23.3211207153
 11
-10.5512516831
 21
23.3040662102
  0
LINE
  5
55A
100
AcDbEntity
  8
0
100
AcDbLine
 62
7
  6
CONTINUOUS
 10
-10.4264155571
 20
23.3379204803
 11
-10.4889125558
 21
23.3211207153
  0
LINE
  5
55B
100
AcDbEntity
  8
ASSI
100
AcDbLine
 62
7
  6
CONTINUOUS
 10
-10.4264155571
 20
23.3379204803
 11
-10.4889125558
 21
23.3211207153
  0
LINE
  5
55C
100
AcDbEntity
  8
0
100
AcDbLine
 62
7
  6
CONTINUOUS
 10
-10.3637606872
 20
23.3544655053
 11
-10.4264155571
 21
23.3379204803
  0
LINE
  5
55D
100
AcDbEntity
  8
ASSI
100
AcDbLine
 62
7
  6
CONTINUOUS
 10
-10.3637606872
 20
23.3544655053
 11
-10.4264155571
 21
23.3379204803
  0
LWPOLYLINE
  5
55E
100
AcDbEntity
  8
RACCORDO
100
AcDbPolyline
 62
7
  6
CONTINUOUS
 90
5
 70
0
 10
-10.2095325524
 20
24.421187626
 10
-10.2201456249
 20
24.418764788
 10
-10.2301056657
 20
24.4168343442
 10
-10.2395845534
 20
24.415275796
 10
-10.2485535656
 20
24.4141021139
  0
LWPOLYLINE
  5
55F
100
AcDbEntity
  8
ASSI
100
AcDbPolyline
 62
7
  6
CONTINUOUS
 90
5
 70
0
 10
-10.2095325524
 20
24.421187626
 10
-10.2201456249
 20
24.418764788
 10
-10.2301056657
 20
24.4168343442
 10
-10.2395845534
 20
24.415275796
 10
-10.2485535656
 20
24.4141021139
  0
LWPOLYLINE
  5
560
100
AcDbEntity
  8
RACCORDO
100
AcDbPolyline
 62
7
  6
CONTINUOUS
 90
4
 70
0
 10
-8.0143224398
 20
24.1594357266
 10
-8.0406391403
 20
24.1536260444
 10
-8.0661962363
 20
24.1442144291
 10
-8.0904764773
 20
24.1312689022
  0
LINE
  5
561
100
AcDbEntity
  8
RACCORDO
100
AcDbLine
 62
250
  6
CONTINUOUS
 10
-10.213744281
 20
24.4336313528
 11
-10.2327330372
 21
24.4304338594
  0
LINE
  5
562
100
AcDbEntity
  8
ASSI
100
AcDbLine
 62
250
  6
CONTINUOUS
 10
-10.213744281
 20
24.4336313528
 11
-10.2327330372
 21
24.4304338594
  0
LINE
  5
563
100
AcDbEntity
  8
0
100
AcDbLine
 62
7
  6
CONTINUOUS
 10
-4.741824961
 20
25.0749514623
 11
-5.8285287245
 21
24.9105431911
  0
LINE
  5
564
100
AcDbEntity
  8
ASSI
100
AcDbLine
 62
7
  6
CONTINUOUS
 10
-4.741824961
 20
25.0749514623
 11
-5.8285287245
 21
24.9105431911
  0
LINE
  5
565
100
AcDbEntity
  8
RACCORDO
100
AcDbLine
 62
250
  6
CONTINUOUS
 10
-10.1948252116
 20
24.4355360111
 11
-10.213744281
 21
24.4336313528
  0
LINE
  5
566
100
AcDbEntity
  8
ASSI
100
AcDbLine
 62
250
  6
CONTINUOUS
 10
-10.1948252116
 20
24.4355360111
 11
-10.213744281
 21
24.4336313528
  0
LINE
  5
567
100
AcDbEntity
  8
RACCORDO
100
AcDbLine
 62
7
  6
CONTINUOUS
 10
-10.2485535656
 20
24.4141021139
 11
-10.2540387117
 21
24.4135546284
  0
LINE
  5
568
100
AcDbEntity
  8
ASSI
100
AcDbLine
 62
7
  6
CONTINUOUS
 10
-10.2485535656
 20
24.4141021139
 11
-10.2544561366
 21
24.4135174694
  0
LWPOLYLINE
  5
569
100
AcDbEntity
  8
RACCORDO
100
AcDbPolyline
 62
7
  6
CONTINUOUS
 90
6
 70
0
 10
-10.2540387117
 20
24.4135546284
 10
-10.2570408173
 20
24.4132995977
 10
-10.2653029957
 20
24.412707025
 10
-10.2734250589
 20
24.4122697823
 10
-10.2813206087
 20
24.4120404557
 10
-10.2889889474
 20
24.4120180743
  0
LWPOLYLINE
  5
56A
100
AcDbEntity
  8
ASSI
100
AcDbPolyline
 62
7
  6
CONTINUOUS
 90
6
 70
0
 10
-10.2544561366
 20
24.4135174694
 10
-10.2570408173
 20
24.4132995977
 10
-10.2653029957
 20
24.412707025
 10
-10.2734250589
 20
24.4122697823
 10
-10.2813206087
 20
24.4120404557
 10
-10.2889889474
 20
24.4120180743
  0
LWPOLYLINE
  5
56B
100
AcDbEntity
  8
RACCORDO
100
AcDbPolyline
 62
250
  6
CONTINUOUS
 90
4
 70
0
 10
10.444260768
 20
24.1385272324
 10
10.4679152106
 20
24.1381930952
 10
10.490642201
 20
24.1392613124
 10
10.5122213643
 20
24.1416258384
  0
LWPOLYLINE
  5
56C
100
AcDbEntity
  8
ASSI
100
AcDbPolyline
 62
250
  6
CONTINUOUS
 90
10
 70
0
 10
10.444260768
 20
24.1385272324
 10
10.4679152106
 20
24.1381930952
 10
10.490642201
 20
24.1392613124
 10
10.5122213643
 20
24.1416258384
 10
10.5326400793
 20
24.1451710262
 10
10.5519035531
 20
24.1497836746
 10
10.5698600348
 20
24.1552973115
 10
10.5864895673
 20
24.161554159
 10
10.6018857325
 20
24.1684390497
 10
10.6160924201
 20
24.1758279937
  0
LINE
  5
56D
100
AcDbEntity
  8
ASSI
100
AcDbLine
 62
250
  6
CONTINUOUS
 10
-8.2164855815
 20
26.0945634711
 11
-8.1420683252
 21
26.0935099984
  0
LWPOLYLINE
  5
56E
100
AcDbEntity
  8
RACCORDO
100
AcDbPolyline
 62
7
  6
CONTINUOUS
 90
4
 70
0
 10
-7.8912741799
 20
26.1917969373
 10
-7.9545880671
 20
26.1930503273
 10
-8.0182805568
 20
26.1929857545
 10
-8.0817335664
 20
26.1914516048
  0
LINE
  5
56F
100
AcDbEntity
  8
ASSI
100
AcDbLine
 62
7
  6
CONTINUOUS
 10
-7.8830806581
 20
26.1915455386
 11
-7.9499338262
 21
26.1930012607
  0
LINE
  5
570
100
AcDbEntity
  8
ASSI
100
AcDbLine
 62
250
  6
CONTINUOUS
 10
-7.7939742576
 20
26.187714566
 11
-7.8187344257
 21
26.1884366894
  0
LINE
  5
571
100
AcDbEntity
  8
RACCORDO
100
AcDbLine
 62
250
  6
CONTINUOUS
 10
-7.7940619377
 20
26.1877191832
 11
-7.8187344257
 21
26.1884366894
  0
LINE
  5
572
100
AcDbEntity
  8
RACCORDO
100
AcDbLine
 62
7
  6
CONTINUOUS
 10
-7.8280030846
 20
26.1893593495
 11
-7.8912741799
 21
26.1917969373
  0
LWPOLYLINE
  5
573
100
AcDbEntity
  8
RACCORDO
100
AcDbPolyline
 62
7
  6
CONTINUOUS
 90
3
 70
0
 10
10.5466524875
 20
24.1663150125
 10
10.5168424493
 20
24.1675395582
 10
10.4840326211
 20
24.1719464569
  0
LINE
  5
574
100
AcDbEntity
  8
ASSI
100
AcDbLine
 62
7
  6
CONTINUOUS
 10
-7.8163391614
 20
26.1887896532
 11
-7.8830806581
 21
26.1915455386
  0
LINE
  5
575
100
AcDbEntity
  8
RACCORDO
100
AcDbLine
 62
7
  6
CONTINUOUS
 10
-7.7939945944
 20
26.1875988229
 11
-7.8280030846
 21
26.1893593495
  0
LINE
  5
576
100
AcDbEntity
  8
ASSI
100
AcDbLine
 62
7
  6
CONTINUOUS
 10
-7.7939069734
 20
26.1875938719
 11
-7.8163391614
 21
26.1887896532
  0
LWPOLYLINE
  5
577
100
AcDbEntity
  8
ASSI
100
AcDbPolyline
 62
7
  6
CONTINUOUS
 90
3
 70
0
 10
10.534225134
 20
24.1664719466
 10
10.4863401779
 20
24.1715418229
 10
10.4326616272
 20
24.1842932433
  0
LWPOLYLINE
  5
578
100
AcDbEntity
  8
ASSI
100
AcDbPolyline
 62
250
  6
CONTINUOUS
 90
3
 70
0
 10
-7.9696747249
 20
26.1137323019
 10
-8.0009812043
 20
26.1173786726
 10
-8.0315092139
 20
26.1182075011
  0
LWPOLYLINE
  5
579
100
AcDbEntity
  8
ASSI
100
AcDbPolyline
 62
250
  6
CONTINUOUS
 90
3
 70
0
 10
10.3943311579
 20
24.1437077316
 10
10.4197165327
 20
24.1403408
 10
10.444260768
 20
24.1385272324
  0
LWPOLYLINE
  5
57A
100
AcDbEntity
  8
RACCORDO
100
AcDbPolyline
 62
7
  6
CONTINUOUS
 90
9
 70
0
 10
7.050359783
 20
22.8717367515
 10
7.0438041081
 20
22.8728375659
 10
7.0354952761
 20
22.8729671785
 10
7.0266873239
 20
22.8717426904
 10
7.0174424778
 20
22.8692093853
 10
7.0080504858
 20
22.8654459502
 10
6.9986079302
 20
22.860478614
 10
6.9890182286
 20
22.8542811478
 10
6.979281381
 20
22.8468535516
  0
LWPOLYLINE
  5
57B
100
AcDbEntity
  8
0
100
AcDbPolyline
 62
7
  6
CONTINUOUS
 90
13
 70
0
 10
7.0975853466
 20
22.7735828827
 10
7.2267652454
 20
22.7512881317
 10
7.3773158214
 20
22.7209670558
 10
7.525005506
 20
22.6868285857
 10
7.6698165348
 20
22.6488490178
 10
7.8117666722
 20
22.6070520557
 10
7.949976318
 20
22.5616966961
 10
8.0844222459
 20
22.5127608437
 10
8.2151276822
 20
22.4602665938
 10
8.3412827049
 20
22.4045392294
 10
8.4628590587
 20
22.3455586747
 10
8.5798849989
 20
22.2833450056
 10
8.6240898627
 20
22.2576088514
  0
LWPOLYLINE
  5
57C
100
AcDbEntity
  8
ASSI
100
AcDbPolyline
 62
250
  6
CONTINUOUS
 90
8
 70
0
 10
-8.0634075813
 20
26.3271042894
 10
-8.1063346374
 20
26.3346373092
 10
-8.148258302
 20
26.3378829658
 10
-8.18884041
 20
26.3368150788
 10
-8.2277536174
 20
26.3314422617
 10
-8.2646840422
 20
26.3218078525
 10
-8.2993337955
 20
26.3079895643
 10
-8.3314233852
 20
26.2900988582
  0
LWPOLYLINE
  5
57D
100
AcDbEntity
  8
RACCORDO
100
AcDbPolyline
 62
7
  6
CONTINUOUS
 90
3
 70
0
 10
-7.6950180365
 20
26.1738564076
 10
-7.7490098797
 20
26.1835281922
 10
-7.773468128
 20
26.1862522637
  0
LINE
  5
57E
100
AcDbEntity
  8
0
100
AcDbLine
 62
7
  6
CONTINUOUS
 10
-2.2910751698
 20
25.9895035547
 11
-2.8557274176
 21
26.0974389641
  0
LWPOLYLINE
  5
57F
100
AcDbEntity
  8
ASSI
100
AcDbPolyline
 62
7
  6
CONTINUOUS
 90
3
 70
0
 10
-7.6710668687
 20
26.1679848943
 10
-7.7475930378
 20
26.1833383194
 10
-7.7736340337
 20
26.1862669469
  0
LWPOLYLINE
  5
580
100
AcDbEntity
  8
RACCORDO
100
AcDbPolyline
 62
7
  6
CONTINUOUS
 90
11
 70
0
 10
10.4840326211
 20
24.1719464569
 10
10.4487231302
 20
24.179771295
 10
10.4114230268
 20
24.1911434952
 10
10.3722010888
 20
24.2062885843
 10
10.3313742014
 20
24.2253651433
 10
10.2895963879
 20
24.2483183977
 10
10.2472770573
 20
24.2751383808
 10
10.2048412356
 20
24.3057675219
 10
10.1628665432
 20
24.3399783385
 10
10.1219237686
 20
24.377450346
 10
10.082496977
 20
24.4178462005
  0
LWPOLYLINE
  5
581
100
AcDbEntity
  8
RACCORDO
100
AcDbPolyline
 62
7
  6
CONTINUOUS
 90
17
 70
0
 10
7.0503600578
 20
22.8717375053
 10
6.9461226618
 20
22.8951186797
 10
6.824495654
 20
22.9183823818
 10
6.7010828759
 20
22.9377802362
 10
6.5762132293
 20
22.9532761343
 10
6.4502215531
 20
22.9648412527
 10
6.3234517851
 20
22.9724545213
 10
6.1962589864
 20
22.9761037793
 10
6.0689655389
 20
22.9757865734
 10
5.9418697926
 20
22.971505472
 10
5.8153102775
 20
22.9632695376
 10
5.6896231816
 20
22.9510959622
 10
5.5650998734
 20
22.9350037306
 10
5.4420671333
 20
22.9150208103
 10
5.3208610105
 20
22.891184692
 10
5.2017769224
 20
22.8635319895
 10
5.0851227904
 20
22.8321067736
  0
LWPOLYLINE
  5
582
100
AcDbEntity
  8
RACCORDO
100
AcDbPolyline
 62
7
  6
CONTINUOUS
 90
16
 70
0
 10
-1.2558756723
 20
26.7844255654
 10
-1.3601130684
 20
26.8078067398
 10
-1.4817400762
 20
26.8310704419
 10
-1.6051528542
 20
26.8504682963
 10
-1.7300225008
 20
26.8659641944
 10
-1.8560141771
 20
26.8775293128
 10
-1.982783945
 20
26.8851425813
 10
-2.1099767437
 20
26.8887918393
 10
-2.2372701913
 20
26.8884746334
 10
-2.3643659376
 20
26.884193532
 10
-2.4909254527
 20
26.8759575976
 10
-2.6166125486
 20
26.8637840223
 10
-2.7411358568
 20
26.8476917906
 10
-2.8641685968
 20
26.8277088704
 10
-2.9853747196
 20
26.8038727521
 10
-3.1044588078
 20
26.7762200495
  0
LINE
  5
583
100
AcDbEntity
  8
0
100
AcDbLine
 62
7
  6
CONTINUOUS
 10
0.0350469747
 20
26.3172272894
 11
0.1041690894
 21
26.2836939539
  0
LWPOLYLINE
  5
584
100
AcDbEntity
  8
RACCORDO
100
AcDbPolyline
 62
7
  6
CONTINUOUS
 90
4
 70
0
 10
4.3989421651
 20
27.6244339494
 10
4.3782166032
 20
27.6390179775
 10
4.3567096333
 20
27.6561564769
 10
4.3348060126
 20
27.675826515
  0
LINE
  5
585
100
AcDbEntity
  8
ASSI
100
AcDbLine
 62
7
  6
CONTINUOUS
 10
4.3701990854
 20
27.6451651678
 11
4.3413300446
 21
27.6697219381
  0
LWPOLYLINE
  5
586
100
AcDbEntity
  8
ASSI
100
AcDbPolyline
 62
7
  6
CONTINUOUS
 90
3
 70
0
 10
10.1847241983
 20
24.3216586753
 10
10.1226346399
 20
24.3767624722
 10
10.0638343323
 20
24.4386318298
  0
LWPOLYLINE
  5
587
100
AcDbEntity
  8
ASSI
100
AcDbPolyline
 62
250
  6
CONTINUOUS
 90
3
 70
0
 10
10.0587132092
 20
24.3195993565
 10
10.0813695809
 20
24.2994663215
 10
10.1050642503
 20
24.2799183274
  0
LWPOLYLINE
  5
588
100
AcDbEntity
  8
RACCORDO
100
AcDbPolyline
 62
250
  6
CONTINUOUS
 90
4
 70
0
 10
9.9973513479
 20
24.3822036193
 10
10.0166138235
 20
24.361161471
 10
10.0371232611
 20
24.340199903
 10
10.0587132092
 20
24.3195993565
  0
LINE
  5
589
100
AcDbEntity
  8
RACCORDO
100
AcDbLine
 62
7
  6
CONTINUOUS
 10
13.0899146925
 20
24.039349741
 11
13.0459260221
 21
24.0884300613
  0
LINE
  5
58A
100
AcDbEntity
  8
RACCORDO
100
AcDbLine
 62
7
  6
CONTINUOUS
 10
10.082496977
 20
24.4178462005
 11
10.0450042247
 21
24.4608183394
  0
LINE
  5
58B
100
AcDbEntity
  8
ASSI
100
AcDbLine
 62
7
  6
CONTINUOUS
 10
13.11623282
 20
24.0044402079
 11
13.0681342698
 21
24.064904235
  0
LWPOLYLINE
  5
58C
100
AcDbEntity
  8
ASSI
100
AcDbPolyline
 62
7
  6
CONTINUOUS
 90
8
 70
0
 10
13.6661867069
 20
23.0615875746
 10
13.7229308458
 20
22.988433614
 10
13.8819161747
 20
22.7474792954
 10
14.020317995
 20
22.4973006489
 10
14.1363210851
 20
22.2408441901
 10
14.2282582857
 20
21.9814692442
 10
14.2949692688
 20
21.7220737185
 10
14.3355624161
 20
21.4651991506
  0
LWPOLYLINE
  5
58D
100
AcDbEntity
  8
RACCORDO
100
AcDbPolyline
 62
7
  6
CONTINUOUS
 90
12
 70
0
 10
13.6640570976
 20
23.0661517724
 10
13.7229173269
 20
22.9884525137
 10
13.8362866983
 20
22.8208755611
 10
13.9398106286
 20
22.6484287431
 10
14.032852453
 20
22.4720945844
 10
14.1148103427
 20
22.292921241
 10
14.18521915
 20
22.1117820806
 10
14.2435958314
 20
21.9296941497
 10
14.2894722294
 20
21.7478840648
 10
14.3225309814
 20
21.5673607106
 10
14.3425293382
 20
21.3889612093
 10
14.3492387756
 20
21.2136240079
  0
LINE
  5
58E
100
AcDbEntity
  8
RACCORDO
100
AcDbLine
 62
7
  6
CONTINUOUS
 10
13.1293518127
 20
23.9850166982
 11
13.0899146925
 21
24.039349741
  0
LWPOLYLINE
  5
58F
100
AcDbEntity
  8
RACCORDO
100
AcDbPolyline
 62
250
  6
CONTINUOUS
 90
10
 70
0
 10
13.029586366
 20
23.8526911572
 10
12.9974281318
 20
23.9007572472
 10
12.9620021434
 20
23.946757606
 10
12.923654336
 20
23.9902575093
 10
12.8827558703
 20
24.0308744048
 10
12.8396757022
 20
24.0682309427
 10
12.7947994363
 20
24.1019885834
 10
12.7485411157
 20
24.1318509718
 10
12.701319997
 20
24.1575221354
 10
12.6535762464
 20
24.1787399124
  0
LWPOLYLINE
  5
590
100
AcDbEntity
  8
ASSI
100
AcDbPolyline
 62
250
  6
CONTINUOUS
 90
10
 70
0
 10
13.029586366
 20
23.8526911572
 10
12.9974281318
 20
23.9007572472
 10
12.9620021434
 20
23.946757606
 10
12.923654336
 20
23.9902575093
 10
12.8827558703
 20
24.0308744048
 10
12.8396757022
 20
24.0682309427
 10
12.7947994363
 20
24.1019885834
 10
12.7485411157
 20
24.1318509718
 10
12.701319997
 20
24.1575221354
 10
12.6535762464
 20
24.1787399124
  0
LINE
  5
591
100
AcDbEntity
  8
ASSI
100
AcDbLine
 62
7
  6
CONTINUOUS
 10
13.1345267907
 20
23.9769172278
 11
13.11623282
 21
24.0044402079
  0
LWPOLYLINE
  5
592
100
AcDbEntity
  8
RACCORDO
100
AcDbPolyline
 62
250
  6
CONTINUOUS
 90
5
 70
0
 10
13.7693566976
 20
22.7652091672
 10
13.7992174425
 20
22.7192664547
 10
13.8691249902
 20
22.6026627435
 10
13.9311239322
 20
22.4905441308
 10
13.9860136344
 20
22.3828772229
  0
LWPOLYLINE
  5
593
100
AcDbEntity
  8
ASSI
100
AcDbPolyline
 62
250
  6
CONTINUOUS
 90
5
 70
0
 10
13.7693566976
 20
22.7652091672
 10
13.7992174425
 20
22.7192664547
 10
13.8691249902
 20
22.6026627435
 10
13.9311239322
 20
22.4905441308
 10
13.9860136344
 20
22.3828772229
  0
LINE
  5
594
100
AcDbEntity
  8
RACCORDO
100
AcDbLine
 62
7
  6
CONTINUOUS
 10
13.1345109515
 20
23.9769427261
 11
13.1293518127
 21
23.9850166982
  0
LINE
  5
595
100
AcDbEntity
  8
ASSI
100
AcDbLine
 62
7
  6
CONTINUOUS
 10
13.1761188126
 20
23.9106608672
 11
13.1345054063
 21
23.9769779297
  0
LWPOLYLINE
  5
596
100
AcDbEntity
  8
RACCORDO
100
AcDbPolyline
 62
7
  6
CONTINUOUS
 90
9
 70
0
 10
13.4634101544
 20
23.44470775
 10
13.4227998455
 20
23.511454291
 10
13.3820452056
 20
23.5781411285
 10
13.3411465653
 20
23.6447677292
 10
13.3001042628
 20
23.7113335506
 10
13.2589186437
 20
23.7778380401
 10
13.2175900485
 20
23.844280656
 10
13.1761188126
 20
23.9106608672
 10
13.1345054063
 20
23.9769779297
  0
LWPOLYLINE
  5
597
100
AcDbEntity
  8
RACCORDO
100
AcDbPolyline
 62
250
  6
CONTINUOUS
 90
7
 70
0
 10
13.4010361816
 20
23.2502794462
 10
13.3399310396
 20
23.3510469099
 10
13.2785041419
 20
23.4516711304
 10
13.2167567368
 20
23.5521502774
 10
13.1546900781
 20
23.6524825244
 10
13.0923054248
 20
23.7526660486
 10
13.0296040413
 20
23.8526990308
  0
LWPOLYLINE
  5
598
100
AcDbEntity
  8
ASSI
100
AcDbPolyline
 62
250
  6
CONTINUOUS
 90
7
 70
0
 10
13.4010361816
 20
23.2502794462
 10
13.3399310396
 20
23.3510469099
 10
13.2785041419
 20
23.4516711304
 10
13.2167567368
 20
23.5521502774
 10
13.1546900781
 20
23.6524825244
 10
13.0923054248
 20
23.7526660486
 10
13.0296040413
 20
23.8526990308
  0
LWPOLYLINE
  5
599
100
AcDbEntity
  8
ASSI
100
AcDbPolyline
 62
7
  6
CONTINUOUS
 90
9
 70
0
 10
13.5038757992
 20
23.3779020442
 10
13.4634101544
 20
23.44470775
 10
13.4227998455
 20
23.511454291
 10
13.3820452056
 20
23.5781411285
 10
13.3411465653
 20
23.6447677292
 10
13.3001042628
 20
23.7113335506
 10
13.2589186437
 20
23.7778380401
 10
13.2175900485
 20
23.844280656
 10
13.1761188126
 20
23.9106608672
  0
LINE
  5
59A
100
AcDbEntity
  8
0
100
AcDbLine
 62
7
  6
CONTINUOUS
 10
-8.1855202697
 20
25.1340165679
 11
-8.2516815191
 21
25.1157901631
  0
LINE
  5
59B
100
AcDbEntity
  8
ASSI
100
AcDbLine
 62
7
  6
CONTINUOUS
 10
-8.1855202697
 20
25.1340165679
 11
-8.2516815191
 21
25.1157901631
  0
LWPOLYLINE
  5
59C
100
AcDbEntity
  8
RACCORDO
100
AcDbPolyline
 62
7
  6
CONTINUOUS
 90
5
 70
0
 10
-3.1044588078
 20
26.7762200495
 10
-3.2211129397
 20
26.7447948336
 10
-3.3350039995
 20
26.7096554639
 10
-3.4458183667
 20
26.6708638485
 10
-3.5532879745
 20
26.6284714857
  0
LINE
  5
59D
100
AcDbEntity
  8
0
100
AcDbLine
 62
7
  6
CONTINUOUS
 10
-8.119203638
 20
25.1519487958
 11
-8.1855202697
 21
25.1340165679
  0
LINE
  5
59E
100
AcDbEntity
  8
ASSI
100
AcDbLine
 62
7
  6
CONTINUOUS
 10
-8.119203638
 20
25.1519487958
 11
-8.1855202697
 21
25.1340165679
  0
LINE
  5
59F
100
AcDbEntity
  8
0
100
AcDbLine
 62
7
  6
CONTINUOUS
 10
-8.0527316241
 20
25.1695868466
 11
-8.119203638
 21
25.1519487958
  0
LINE
  5
5A0
100
AcDbEntity
  8
ASSI
100
AcDbLine
 62
7
  6
CONTINUOUS
 10
-8.0527316241
 20
25.1695868466
 11
-8.119203638
 21
25.1519487958
  0
LINE
  5
5A1
100
AcDbEntity
  8
ASSI
100
AcDbLine
 62
7
  6
CONTINUOUS
 10
-10.1982404793
 20
24.4241153109
 11
-10.2095325524
 21
24.421187626
  0
LINE
  5
5A2
100
AcDbEntity
  8
RACCORDO
100
AcDbLine
 62
250
  6
CONTINUOUS
 10
-10.2327330372
 20
24.4304338594
 11
-10.2516991097
 21
24.4258295984
  0
LWPOLYLINE
  5
5A3
100
AcDbEntity
  8
ASSI
100
AcDbPolyline
 62
250
  6
CONTINUOUS
 90
3
 70
0
 10
-10.2327330372
 20
24.4304338594
 10
-10.2516991097
 20
24.4258295984
 10
-10.2704974417
 20
24.4197228357
  0
LINE
  5
5A4
100
AcDbEntity
  8
RACCORDO
100
AcDbLine
 62
250
  6
CONTINUOUS
 10
-3.0798580706
 20
26.7399210165
 11
-2.9761579552
 21
26.7649711344
  0
LWPOLYLINE
  5
5A5
100
AcDbEntity
  8
0
100
AcDbPolyline
 62
7
  6
CONTINUOUS
 90
10
 70
0
 10
-8.0527316241
 20
25.1695868466
 10
-8.0070050472
 20
25.1794445673
 10
-7.9599575631
 20
25.1855666076
 10
-7.9115891718
 20
25.1879529677
 10
-7.8616841113
 20
25.186582139
 10
-7.8104581436
 20
25.18147563
 10
-7.7585585542
 20
25.172697966
 10
-7.7062011048
 20
25.1602706553
 10
-7.6531700336
 20
25.1441721897
 10
-7.5994653407
 20
25.124402569
  0
LWPOLYLINE
  5
5A6
100
AcDbEntity
  8
ASSI
100
AcDbPolyline
 62
7
  6
CONTINUOUS
 90
10
 70
0
 10
-8.0527316241
 20
25.1695868466
 10
-8.0070050472
 20
25.1794445673
 10
-7.9599575631
 20
25.1855666076
 10
-7.9115891718
 20
25.1879529677
 10
-7.8616841113
 20
25.186582139
 10
-7.8104581436
 20
25.18147563
 10
-7.7585585542
 20
25.172697966
 10
-7.7062011048
 20
25.1602706553
 10
-7.6531700336
 20
25.1441721897
 10
-7.5994653407
 20
25.124402569
  0
LWPOLYLINE
  5
5A7
100
AcDbEntity
  8
RACCORDO
100
AcDbPolyline
 62
250
  6
CONTINUOUS
 90
4
 70
0
 10
-7.6827927203
 20
26.1454644703
 10
-7.6602738124
 20
26.1502587811
 10
-7.6386542704
 20
26.1516282314
 10
-7.6180914143
 20
26.149563231
  0
LWPOLYLINE
  5
5A8
100
AcDbEntity
  8
ASSI
100
AcDbPolyline
 62
250
  6
CONTINUOUS
 90
4
 70
0
 10
-7.6827927203
 20
26.1454644703
 10
-7.6602738124
 20
26.1502587811
 10
-7.6386542704
 20
26.1516282314
 10
-7.6180914143
 20
26.149563231
  0
LWPOLYLINE
  5
5A9
100
AcDbEntity
  8
RACCORDO
100
AcDbPolyline
 62
250
  6
CONTINUOUS
 90
5
 70
0
 10
-8.2960586317
 20
26.1729322147
 10
-8.3690487432
 20
26.1576995791
 10
-8.4338653433
 20
26.1357194863
 10
-8.4957326537
 20
26.1063776021
 10
-8.5538325483
 20
26.0700619401
  0
LWPOLYLINE
  5
5AA
100
AcDbEntity
  8
ASSI
100
AcDbPolyline
 62
250
  6
CONTINUOUS
 90
5
 70
0
 10
-8.2961260753
 20
26.172922533
 10
-8.3690487432
 20
26.1576995791
 10
-8.4338653433
 20
26.1357194863
 10
-8.4957326537
 20
26.1063776021
 10
-8.5538325483
 20
26.0700619401
  0
LWPOLYLINE
  5
5AB
100
AcDbEntity
  8
RACCORDO
100
AcDbPolyline
 62
250
  6
CONTINUOUS
 90
16
 70
0
 10
-2.9761579552
 20
26.7649711344
 10
-2.8703732169
 20
26.7869640009
 10
-2.7625187459
 20
26.8059232923
 10
-2.653417385
 20
26.8217046712
 10
-2.5430602796
 20
26.8342838176
 10
-2.4314562844
 20
26.8436850515
 10
-2.3194548058
 20
26.8498369948
 10
-2.2070525397
 20
26.8527149408
 10
-2.0942527902
 20
26.8523435963
 10
-1.981914876
 20
26.8487257036
 10
-1.8700412492
 20
26.8418369681
 10
-1.7586294578
 20
26.8317016843
 10
-1.6485314648
 20
26.8183954787
 10
-1.5400312579
 20
26.80194356
 10
-1.4328448493
 20
26.7823207195
 10
-1.3269722392
 20
26.7595269571
  0
LWPOLYLINE
  5
5AC
100
AcDbEntity
  8
RACCORDO
100
AcDbPolyline
 62
250
  6
CONTINUOUS
 90
7
 70
0
 10
-8.5538325596
 20
26.0700619563
 10
-8.4916614333
 20
26.0796733565
 10
-8.4266333703
 20
26.0867040375
 10
-8.3589601651
 20
26.0913803867
 10
-8.2888455971
 20
26.0939264131
 10
-8.2164855815
 20
26.0945634711
 10
-8.1420683252
 20
26.0935099984
  0
LWPOLYLINE
  5
5AD
100
AcDbEntity
  8
ASSI
100
AcDbPolyline
 62
250
  6
CONTINUOUS
 90
6
 70
0
 10
-8.5538325596
 20
26.0700619563
 10
-8.4916614333
 20
26.0796733565
 10
-8.4266333703
 20
26.0867040375
 10
-8.3589601651
 20
26.0913803867
 10
-8.2888455971
 20
26.0939264131
 10
-8.2164855815
 20
26.0945634711
  0
LINE
  5
5AE
100
AcDbEntity
  8
RACCORDO
100
AcDbLine
 62
7
  6
CONTINUOUS
 10
-8.2953180832
 20
26.1730379998
 11
-8.2960586317
 21
26.1729322147
  0
LINE
  5
5AF
100
AcDbEntity
  8
ASSI
100
AcDbLine
 62
7
  6
CONTINUOUS
 10
-8.2947048882
 20
26.173124868
 11
-8.2961260753
 21
26.172922533
  0
LINE
  5
5B0
100
AcDbEntity
  8
ASSI
100
AcDbLine
 62
7
  6
CONTINUOUS
 10
-8.2739209194
 20
26.1759585711
 11
-8.2961260753
 21
26.172922533
  0
LWPOLYLINE
  5
5B1
100
AcDbEntity
  8
RACCORDO
100
AcDbPolyline
 62
250
  6
CONTINUOUS
 90
7
 70
0
 10
-7.8675520861
 20
26.1865985546
 10
-7.916472581
 20
26.1809058155
 10
-7.9650041473
 20
26.1714822384
 10
-8.0119185457
 20
26.1581361932
 10
-8.0566717168
 20
26.1407138188
 10
-8.0999793962
 20
26.1191660875
 10
-8.1420695851
 20
26.0935122831
  0
LWPOLYLINE
  5
5B2
100
AcDbEntity
  8
ASSI
100
AcDbPolyline
 62
250
  6
CONTINUOUS
 90
7
 70
0
 10
-7.8675520861
 20
26.1865985546
 10
-7.916472581
 20
26.1809058155
 10
-7.9650041473
 20
26.1714822384
 10
-8.0119185457
 20
26.1581361932
 10
-8.0566717168
 20
26.1407138188
 10
-8.0999793962
 20
26.1191660875
 10
-8.1420695851
 20
26.0935122831
  0
LWPOLYLINE
  5
5B3
100
AcDbEntity
  8
ASSI
100
AcDbPolyline
 62
7
  6
CONTINUOUS
 90
3
 70
0
 10
-8.1497191869
 20
26.1879848946
 10
-8.2126501866
 20
26.1828871102
 10
-8.2739209194
 20
26.1759585711
  0
LWPOLYLINE
  5
5B4
100
AcDbEntity
  8
ASSI
100
AcDbPolyline
 62
250
  6
CONTINUOUS
 90
5
 70
0
 10
-8.0315092139
 20
26.1182075011
 10
-8.0610653706
 20
26.1162135371
 10
-8.0894624475
 20
26.1114094115
 10
-8.1165205602
 20
26.1038255567
 10
-8.1420683061
 20
26.0935100134
  0
LINE
  5
5B5
100
AcDbEntity
  8
ASSI
100
AcDbLine
 62
7
  6
CONTINUOUS
 10
-8.0844888698
 20
26.1913492051
 11
-8.1497191869
 21
26.1879848946
  0
LWPOLYLINE
  5
5B6
100
AcDbEntity
  8
RACCORDO
100
AcDbPolyline
 62
7
  6
CONTINUOUS
 90
5
 70
0
 10
-8.0817335664
 20
26.1914516048
 10
-8.1436088384
 20
26.188379508
 10
-8.2036025131
 20
26.1837403815
 10
-8.2622090516
 20
26.1774437904
 10
-8.2960586317
 20
26.1729322147
  0
LINE
  5
5B7
100
AcDbEntity
  8
RACCORDO
100
AcDbLine
 62
250
  6
CONTINUOUS
 10
-7.8187344257
 20
26.1884366894
 11
-7.8675520861
 21
26.1865985546
  0
LINE
  5
5B8
100
AcDbEntity
  8
ASSI
100
AcDbLine
 62
250
  6
CONTINUOUS
 10
-7.8187344257
 20
26.1884366894
 11
-7.8675520861
 21
26.1865985546
  0
LWPOLYLINE
  5
5B9
100
AcDbEntity
  8
ASSI
100
AcDbPolyline
 62
7
  6
CONTINUOUS
 90
3
 70
0
 10
-7.9499338262
 20
26.1930012607
 10
-8.0173304692
 20
26.1929971779
 10
-8.0844888698
 20
26.1913492051
  0
LWPOLYLINE
  5
5BA
100
AcDbEntity
  8
RACCORDO
100
AcDbPolyline
 62
7
  6
CONTINUOUS
 90
9
 70
0
 10
-1.2558759472
 20
26.7844248115
 10
-1.262431622
 20
26.7855256259
 10
-1.270740454
 20
26.7856552385
 10
-1.2795484063
 20
26.7844307505
 10
-1.2887932523
 20
26.7818974454
 10
-1.2981852444
 20
26.7781340102
 10
-1.3076277999
 20
26.7731666741
 10
-1.3172175015
 20
26.7669692079
 10
-1.3269543492
 20
26.7595416117
  0
LWPOLYLINE
  5
5BB
100
AcDbEntity
  8
0
100
AcDbPolyline
 62
7
  6
CONTINUOUS
 90
10
 70
0
 10
-1.2086503836
 20
26.6862709428
 10
-1.0794704848
 20
26.6639761917
 10
-0.9289199088
 20
26.6336551158
 10
-0.7812302242
 20
26.5995166457
 10
-0.6364191953
 20
26.5615370778
 10
-0.4944690579
 20
26.5197401157
 10
-0.3562594122
 20
26.4743847562
 10
-0.2218134842
 20
26.4254489038
 10
-0.0911080479
 20
26.3729546539
 10
0.0350469747
 20
26.3172272894
  0
LWPOLYLINE
  5
5BC
100
AcDbEntity
  8
RACCORDO
100
AcDbPolyline
 62
250
  6
CONTINUOUS
 90
8
 70
0
 10
3.8796113402
 20
28.8124492716
 10
3.8647227693
 20
28.8172385356
 10
3.8399620354
 20
28.8205738908
 10
3.8136102241
 20
28.8188186259
 10
3.7859613157
 20
28.8119898777
 10
3.7573175457
 20
28.8001637592
 10
3.7279842614
 20
28.7834677539
 10
3.6982777955
 20
28.7620824003
  0
LWPOLYLINE
  5
5BD
100
AcDbEntity
  8
ASSI
100
AcDbPolyline
 62
250
  6
CONTINUOUS
 90
5
 70
0
 10
3.8796215428
 20
28.8124451741
 10
3.8647227693
 20
28.8172385356
 10
3.8399620354
 20
28.8205738908
 10
3.8136102241
 20
28.8188186259
 10
3.7859613157
 20
28.8119898777
  0
LWPOLYLINE
  5
5BE
100
AcDbEntity
  8
RACCORDO
100
AcDbPolyline
 62
250
  6
CONTINUOUS
 90
7
 70
0
 10
4.4529358933
 20
27.5955178877
 10
4.4434847122
 20
27.5988250396
 10
4.4128659548
 20
27.6036568717
 10
4.3797996365
 20
27.6005889121
 10
4.3448390459
 20
27.5896724958
 10
4.3085691674
 20
27.571090284
 10
4.2715968939
 20
27.5451532069
  0
LWPOLYLINE
  5
5BF
100
AcDbEntity
  8
ASSI
100
AcDbPolyline
 62
250
  6
CONTINUOUS
 90
7
 70
0
 10
4.4529358933
 20
27.5955178877
 10
4.4434847122
 20
27.5988250396
 10
4.4128659548
 20
27.6036568717
 10
4.3797996365
 20
27.6005889121
 10
4.3448390459
 20
27.5896724958
 10
4.3085691674
 20
27.571090284
 10
4.2715968939
 20
27.5451532069
  0
LWPOLYLINE
  5
5C0
100
AcDbEntity
  8
ASSI
100
AcDbPolyline
 62
7
  6
CONTINUOUS
 90
5
 70
0
 10
10.4326616272
 20
24.1842932433
 10
10.3741163239
 20
24.2054757855
 10
10.3119752165
 20
24.2355916782
 10
10.2483479491
 20
24.2744145671
 10
10.1847241983
 20
24.3216586753
  0
LINE
  5
5C1
100
AcDbEntity
  8
ASSI
100
AcDbLine
 62
250
  6
CONTINUOUS
 10
-1.7505939456
 20
31.0736666446
 11
-1.7515298898
 21
31.074037593
  0
LINE
  5
5C2
100
AcDbEntity
  8
RACCORDO
100
AcDbLine
 62
7
  6
CONTINUOUS
 10
-1.7505939456
 20
31.0736666446
 11
-1.7507964384
 21
31.073747738
  0
LINE
  5
5C3
100
AcDbEntity
  8
DRAFT
100
AcDbLine
 62
7
  6
CONTINUOUS
 10
10.8381954117
 20
23.951705436
 11
6.999624833
 21
25.493361919
  0
LINE
  5
5C4
100
AcDbEntity
  8
ASSI
100
AcDbLine
 62
7
  6
CONTINUOUS
 10
10.8381954117
 20
23.951705436
 11
6.999624833
 21
25.493361919
  0
LINE
  5
5C5
100
AcDbEntity
  8
DRAFT
100
AcDbLine
 62
7
  6
CONTINUOUS
 10
2.3620100792
 20
28.0112541921
 11
-1.1912218501
 21
29.4383122407
  0
LINE
  5
5C6
100
AcDbEntity
  8
ASSI
100
AcDbLine
 62
7
  6
CONTINUOUS
 10
2.3620100792
 20
28.0112541921
 11
-1.1912218501
 21
29.4383122407
  0
LINE
  5
5C7
100
AcDbEntity
  8
RACCORDO
100
AcDbLine
 62
250
  6
CONTINUOUS
 10
4.2715968939
 20
27.5451532069
 11
6.3152277721
 21
26.7243849736
  0
LINE
  5
5C8
100
AcDbEntity
  8
ASSI
100
AcDbLine
 62
250
  6
CONTINUOUS
 10
4.2715968939
 20
27.5451532069
 11
6.3152277721
 21
26.7243849736
  0
LINE
  5
5C9
100
AcDbEntity
  8
RACCORDO
100
AcDbLine
 62
250
  6
CONTINUOUS
 10
11.7161308224
 20
24.5552605481
 11
12.653576499
 21
24.1787612302
  0
LINE
  5
5CA
100
AcDbEntity
  8
ASSI
100
AcDbLine
 62
250
  6
CONTINUOUS
 10
11.7161308224
 20
24.5552605481
 11
12.653576499
 21
24.1787612302
  0
LINE
  5
5CB
100
AcDbEntity
  8
RACCORDO
100
AcDbLine
 62
7
  6
CONTINUOUS
 10
4.4529358933
 20
27.5955178877
 11
6.4965667717
 21
26.7747496544
  0
LINE
  5
5CC
100
AcDbEntity
  8
ASSI
100
AcDbLine
 62
7
  6
CONTINUOUS
 10
4.4529358933
 20
27.5955178877
 11
6.4965667717
 21
26.7747496544
  0
LINE
  5
5CD
100
AcDbEntity
  8
ASSI
100
AcDbLine
 62
7
  6
CONTINUOUS
 10
11.8051631546
 20
24.6426976675
 11
12.8345382766
 21
24.2292774118
  0
LINE
  5
5CE
100
AcDbEntity
  8
RACCORDO
100
AcDbLine
 62
250
  6
CONTINUOUS
 10
-1.9319329441
 20
31.0233019634
 11
-1.8756189111
 21
31.0006849782
  0
LINE
  5
5CF
100
AcDbEntity
  8
ASSI
100
AcDbLine
 62
250
  6
CONTINUOUS
 10
-1.9319329441
 20
31.0233019634
 11
-1.8756189111
 21
31.0006849782
  0
LINE
  5
5D0
100
AcDbEntity
  8
RACCORDO
100
AcDbLine
 62
250
  6
CONTINUOUS
 10
3.5239366197
 20
28.8321017469
 11
3.6982777955
 21
28.7620824003
  0
LINE
  5
5D1
100
AcDbEntity
  8
ASSI
100
AcDbLine
 62
250
  6
CONTINUOUS
 10
3.5239366197
 20
28.8321017469
 11
3.6982777955
 21
28.7620824003
  0
LINE
  5
5D2
100
AcDbEntity
  8
RACCORDO
100
AcDbLine
 62
7
  6
CONTINUOUS
 10
3.612968952
 20
28.9195388662
 11
3.8796167951
 21
28.812447081
  0
LINE
  5
5D3
100
AcDbEntity
  8
ASSI
100
AcDbLine
 62
7
  6
CONTINUOUS
 10
3.612968952
 20
28.9195388662
 11
3.8796167951
 21
28.812447081
  0
LINE
  5
5D4
100
AcDbEntity
  8
RACCORDO
100
AcDbLine
 62
7
  6
CONTINUOUS
 10
11.8051631546
 20
24.6426976675
 11
12.8347019734
 21
24.2292114991
  0
LINE
  5
5D5
100
AcDbEntity
  8
ASSI
100
AcDbLine
 62
7
  6
CONTINUOUS
 10
4.4529501763
 20
27.5955091448
 11
4.4462661999
 21
27.5983194912
  0
LINE
  5
5D6
100
AcDbEntity
  8
ASSI
100
AcDbLine
 62
250
  6
CONTINUOUS
 10
3.7415708708
 20
28.7430443082
 11
3.6982777955
 21
28.7620824003
  0
LWPOLYLINE
  5
5D7
100
AcDbEntity
  8
RACCORDO
100
AcDbPolyline
 62
7
  6
CONTINUOUS
 90
4
 70
0
 10
4.4529527055
 20
27.5955081284
 10
4.4363137138
 20
27.6029395865
 10
4.418458336
 20
27.6124222369
 10
4.3989421651
 20
27.6244339494
  0
LINE
  5
5D8
100
AcDbEntity
  8
RACCORDO
100
AcDbLine
 62
7
  6
CONTINUOUS
 10
3.9178078396
 20
28.7952169232
 11
3.8796113402
 21
28.8124492716
  0
LINE
  5
5D9
100
AcDbEntity
  8
ASSI
100
AcDbLine
 62
7
  6
CONTINUOUS
 10
12.8874093704
 20
24.2050808186
 11
12.8343141579
 21
24.2293497893
  0
LWPOLYLINE
  5
5DA
100
AcDbEntity
  8
ASSI
100
AcDbPolyline
 62
7
  6
CONTINUOUS
 90
4
 70
0
 10
4.4462661999
 20
27.5983194912
 10
4.4238353731
 20
27.609411402
 10
4.3980920579
 20
27.6249952021
 10
4.3701990854
 20
27.6451651678
  0
LWPOLYLINE
  5
5DB
100
AcDbEntity
  8
RACCORDO
100
AcDbPolyline
 62
7
  6
CONTINUOUS
 90
3
 70
0
 10
12.9415333879
 20
24.1735478674
 10
12.8839012074
 20
24.2068787925
 10
12.8346953084
 20
24.2291968349
  0
LWPOLYLINE
  5
5DC
100
AcDbEntity
  8
ASSI
100
AcDbPolyline
 62
7
  6
CONTINUOUS
 90
3
 70
0
 10
3.9779811133
 20
28.7594929944
 10
3.917118819
 20
28.7955625901
 10
3.879750022
 20
28.8123934734
  0
LINE
  5
5DD
100
AcDbEntity
  8
ASSI
100
AcDbLine
 62
7
  6
CONTINUOUS
 10
12.9542640512
 20
24.1650240057
 11
12.8874093704
 21
24.2050808186
  0
LINE
  5
5DE
100
AcDbEntity
  8
RACCORDO
100
AcDbLine
 62
7
  6
CONTINUOUS
 10
12.9964040389
 20
24.1334083521
 11
12.9415333879
 21
24.1735478674
  0
LINE
  5
5DF
100
AcDbEntity
  8
ASSI
100
AcDbLine
 62
7
  6
CONTINUOUS
 10
13.0145984281
 20
24.1179654198
 11
12.9542640512
 21
24.1650240057
  0
LINE
  5
5E0
100
AcDbEntity
  8
RACCORDO
100
AcDbLine
 62
7
  6
CONTINUOUS
 10
13.0459260221
 20
24.0884300613
 11
12.9964040389
 21
24.1334083521
  0
LINE
  5
5E1
100
AcDbEntity
  8
ASSI
100
AcDbLine
 62
7
  6
CONTINUOUS
 10
13.0681342698
 20
24.064904235
 11
13.0145984281
 21
24.1179654198
  0
LWPOLYLINE
  5
5E2
100
AcDbEntity
  8
RACCORDO
100
AcDbPolyline
 62
250
  6
CONTINUOUS
 90
13
 70
0
 10
19.2550029074
 20
-22.8941172667
 10
19.2983467733
 20
-22.8525408746
 10
19.3375525279
 20
-22.8072346657
 10
19.3726201711
 20
-22.7581986401
 10
19.4036558244
 20
-22.7052475524
 10
19.4305533663
 20
-22.6485666479
 10
19.4529944326
 20
-22.5887116629
 10
19.4709182967
 20
-22.5256337398
 10
19.4843856853
 20
-22.4593817361
 10
19.4932604137
 20
-22.3906579607
 10
19.497497087
 20
-22.3196965165
 10
19.4971411002
 20
-22.2462633006
 10
19.4921924532
 20
-22.170358313
  0
LWPOLYLINE
  5
5E3
100
AcDbEntity
  8
RACCORDO
100
AcDbPolyline
 62
250
  6
CONTINUOUS
 90
13
 70
0
 10
19.4953528857
 20
-22.9357253721
 10
19.5440129311
 20
-22.8891570399
 10
19.5883486644
 20
-22.8381354139
 10
19.6282013372
 20
-22.7828285055
 10
19.6634041337
 20
-22.7234359032
 10
19.6938457765
 20
-22.6601361933
 10
19.7194696023
 20
-22.5930851941
 10
19.7401684566
 20
-22.5225026573
 10
19.755852188
 20
-22.4486210288
 10
19.7665100202
 20
-22.371631799
 10
19.7721023807
 20
-22.2917714019
 10
19.7725612587
 20
-22.2093205355
 10
19.767856069
 20
-22.1245515333
  0
LINE
  5
5E4
100
AcDbEntity
  8
RACCORDO
100
AcDbLine
 62
7
  6
CONTINUOUS
 10
20.3655513778
 20
-22.2474150182
 11
20.3108980132
 21
-22.2987505828
  0
LINE
  5
5E5
100
AcDbEntity
  8
RACCORDO
100
AcDbLine
 62
7
  6
CONTINUOUS
 10
22.4706092353
 20
-20.3112082076
 11
22.507904023
 21
-20.2790366414
  0
LINE
  5
5E6
100
AcDbEntity
  8
RACCORDO
100
AcDbLine
 62
250
  6
CONTINUOUS
 10
20.6637056327
 20
-21.2928991283
 11
22.8598603674
 21
-19.4059080476
  0
LINE
  5
5E7
100
AcDbEntity
  8
RACCORDO
100
AcDbLine
 62
250
  6
CONTINUOUS
 10
20.5616765779
 20
-21.9512788195
 11
22.4705770992
 21
-20.3111089748
  0
LINE
  5
5E8
100
AcDbEntity
  8
DRAFT
100
AcDbLine
 62
7
  6
CONTINUOUS
 10
22.4706408134
 20
-20.3111831277
 11
20.5615174323
 21
-21.951634352
  0
LINE
  5
5E9
100
AcDbEntity
  8
RACCORDO
100
AcDbLine
 62
7
  6
CONTINUOUS
 10
19.1359272533
 20
-23.2351890663
 11
19.4953528857
 21
-22.9357253721
  0
LINE
  5
5EA
100
AcDbEntity
  8
RACCORDO
100
AcDbLine
 62
250
  6
CONTINUOUS
 10
18.8979430986
 20
-23.1915423392
 11
19.2550029074
 21
-22.8941172667
  0
LINE
  5
5EB
100
AcDbEntity
  8
RACCORDO
100
AcDbLine
 62
7
  6
CONTINUOUS
 10
19.9046037463
 20
-22.6351579482
 11
20.3108980132
 21
-22.2987505828
  0
LINE
  5
5EC
100
AcDbEntity
  8
RACCORDO
100
AcDbLine
 62
7
  6
CONTINUOUS
 10
19.8256642461
 20
-22.6972806408
 11
19.9046037463
 21
-22.6351579482
  0
LINE
  5
5ED
100
AcDbEntity
  8
RACCORDO
100
AcDbLine
 62
7
  6
CONTINUOUS
 10
19.0666788828
 20
-23.2897263767
 11
19.1359272533
 21
-23.2351890663
  0
LINE
  5
5EE
100
AcDbEntity
  8
RACCORDO
100
AcDbLine
 62
250
  6
CONTINUOUS
 10
19.767856069
 20
-22.1245515333
 11
20.6637056327
 21
-21.4248854958
  0
LINE
  5
5EF
100
AcDbEntity
  8
RACCORDO
100
AcDbLine
 62
250
  6
CONTINUOUS
 10
19.4953528857
 20
-22.9357253721
 11
20.3108977888
 21
-22.2987507767
  0
LINE
  5
5F0
100
AcDbEntity
  8
DRAFT
100
AcDbLine
 62
7
  6
CONTINUOUS
 10
19.826132032
 20
-22.6969330079
 11
19.0656183485
 21
-23.2905541803
  0
LINE
  5
5F1
100
AcDbEntity
  8
RACCORDO
100
AcDbLine
 62
7
  6
CONTINUOUS
 10
18.9919793169
 20
-23.3474697448
 11
19.0751934862
 21
-23.2830617218
  0
LINE
  5
5F2
100
AcDbEntity
  8
RACCORDO
100
AcDbLine
 62
7
  6
CONTINUOUS
 10
18.7618629701
 20
-23.51858689
 11
19.0666788828
 21
-23.2897263767
  0
LINE
  5
5F3
100
AcDbEntity
  8
RACCORDO
100
AcDbLine
 62
7
  6
CONTINUOUS
 10
18.6218217197
 20
-23.6181173881
 11
18.9919793169
 21
-23.3474697448
  0
LINE
  5
5F4
100
AcDbEntity
  8
RACCORDO
100
AcDbLine
 62
250
  6
CONTINUOUS
 10
18.562006875
 20
-22.5755959759
 11
17.4469375993
 21
-23.3713748446
  0
LINE
  5
5F5
100
AcDbEntity
  8
RACCORDO
100
AcDbLine
 62
7
  6
CONTINUOUS
 10
18.4340196439
 20
-22.9176545175
 11
17.4316770985
 21
-23.6329849765
  0
LINE
  5
5F6
100
AcDbEntity
  8
RACCORDO
100
AcDbLine
 62
7
  6
CONTINUOUS
 10
18.373489287
 20
-23.785679706
 11
18.7618629701
 21
-23.51858689
  0
LINE
  5
5F7
100
AcDbEntity
  8
RACCORDO
100
AcDbLine
 62
7
  6
CONTINUOUS
 10
18.2382783234
 20
-23.8733422544
 11
18.6218217197
 21
-23.6181173881
  0
LINE
  5
5F8
100
AcDbEntity
  8
RACCORDO
100
AcDbLine
 62
7
  6
CONTINUOUS
 10
17.9711855955
 20
-24.0362126057
 11
18.373489287
 21
-23.785679706
  0
LINE
  5
5F9
100
AcDbEntity
  8
RACCORDO
100
AcDbLine
 62
7
  6
CONTINUOUS
 10
17.8416399895
 20
-24.1129386837
 11
18.2382783234
 21
-23.8733422544
  0
LINE
  5
5FA
100
AcDbEntity
  8
RACCORDO
100
AcDbLine
 62
7
  6
CONTINUOUS
 10
17.5552615736
 20
-24.2700040131
 11
17.9711855955
 21
-24.0362126057
  0
LWPOLYLINE
  5
5FB
100
AcDbEntity
  8
RACCORDO
100
AcDbPolyline
 62
250
  6
CONTINUOUS
 90
5
 70
0
 10
17.3998519055
 20
-24.1785629385
 10
17.7430467649
 20
-23.985704035
 10
18.142131241
 20
-23.7372460544
 10
18.5269858764
 20
-23.4725852684
 10
18.8979430986
 20
-23.1915423392
  0
LINE
  5
5FC
100
AcDbEntity
  8
RACCORDO
100
AcDbLine
 62
7
  6
CONTINUOUS
 10
17.432193101
 20
-24.3367385363
 11
17.8416399895
 21
-24.1129386837
  0
LINE
  5
5FD
100
AcDbEntity
  8
RACCORDO
100
AcDbLine
 62
7
  6
CONTINUOUS
 10
17.3896357595
 20
-24.353697905
 11
17.5552615736
 21
-24.2700040131
  0
LINE
  5
5FE
100
AcDbEntity
  8
RACCORDO
100
AcDbLine
 62
7
  6
CONTINUOUS
 10
17.3893953921
 20
-24.3578185124
 11
17.432193101
 21
-24.3367385363
  0
LINE
  5
5FF
100
AcDbEntity
  8
RACCORDO
100
AcDbLine
 62
250
  6
CONTINUOUS
 10
-2.221605007
 20
31.0453195387
 11
-2.1846257748
 21
31.0550662659
  0
LINE
  5
600
100
AcDbEntity
  8
ASSI
100
AcDbLine
 62
250
  6
CONTINUOUS
 10
-2.221605007
 20
31.0453195387
 11
-2.1846257748
 21
31.0550662659
  0
LWPOLYLINE
  5
601
100
AcDbEntity
  8
RACCORDO
100
AcDbPolyline
 62
7
  6
CONTINUOUS
 90
4
 70
0
 10
-2.0348896465
 20
31.1119923279
 10
-2.091221006
 20
31.1022164633
 10
-2.1457109871
 20
31.0868720247
 10
-2.1976986125
 20
31.0663067716
  0
LINE
  5
602
100
AcDbEntity
  8
RACCORDO
100
AcDbLine
 62
250
  6
CONTINUOUS
 10
-2.1846257748
 20
31.0550662659
 11
-2.1456496771
 21
31.0605382117
  0
LWPOLYLINE
  5
603
100
AcDbEntity
  8
ASSI
100
AcDbPolyline
 62
250
  6
CONTINUOUS
 90
3
 70
0
 10
-2.1846257748
 20
31.0550662659
 10
-2.1456496771
 20
31.0605382117
 10
-2.1049761677
 20
31.0616750788
  0
LWPOLYLINE
  5
604
100
AcDbEntity
  8
ASSI
100
AcDbPolyline
 62
7
  6
CONTINUOUS
 90
3
 70
0
 10
-1.9570991886
 20
31.1159469153
 10
-2.032696636
 20
31.1122533381
 10
-2.1068044325
 20
31.0984395609
  0
LINE
  5
605
100
AcDbEntity
  8
RACCORDO
100
AcDbLine
 62
250
  6
CONTINUOUS
 10
-2.1456496771
 20
31.0605382117
 11
-2.1049761677
 21
31.0616750788
  0
LWPOLYLINE
  5
606
100
AcDbEntity
  8
ASSI
100
AcDbPolyline
 62
7
  6
CONTINUOUS
 90
10
 70
0
 10
-0.4548636378
 20
29.1425741818
 10
-0.4239144926
 20
29.1433516658
 10
-0.208677179
 20
29.1246906278
 10
0.0107017885
 20
29.0822773311
 10
0.2322556336
 20
29.0165604319
 10
0.454275367
 20
28.9280429375
 10
0.6733265271
 20
28.8182317891
 10
0.88714089
 20
28.6886316238
 10
1.094326678
 20
28.540383751
 10
1.1407653263
 20
28.5017336172
  0
LWPOLYLINE
  5
607
100
AcDbEntity
  8
RACCORDO
100
AcDbPolyline
 62
7
  6
CONTINUOUS
 90
12
 70
0
 10
-0.4551651731
 20
29.1426952852
 10
-0.4047087282
 20
29.1426508725
 10
-0.24884413
 20
29.1299413065
 10
-0.089810933
 20
29.1045567226
 10
0.0708560903
 20
29.0666798734
 10
0.2324175496
 20
29.0165041344
 10
0.3941858637
 20
28.9542414991
 10
0.5546475158
 20
28.8805363047
 10
0.7128775724
 20
28.7959653667
 10
0.8683799565
 20
28.700925239
 10
1.0202694557
 20
28.5960667368
 10
1.1439715486
 20
28.500445926
  0
LWPOLYLINE
  5
608
100
AcDbEntity
  8
RACCORDO
100
AcDbPolyline
 62
7
  6
CONTINUOUS
 90
3
 70
0
 10
-1.9191686396
 20
31.1139806585
 10
-1.9773754513
 20
31.1159575045
 10
-2.0348896465
 20
31.1119923279
  0
LWPOLYLINE
  5
609
100
AcDbEntity
  8
RACCORDO
100
AcDbPolyline
 62
250
  6
CONTINUOUS
 90
5
 70
0
 10
-2.1049761677
 20
31.0616750788
 10
-2.0629291845
 20
31.0584839824
 10
-2.0198429788
 20
31.0509909274
 10
-1.9760554387
 20
31.0392240372
 10
-1.9319332394
 20
31.0232779217
  0
LINE
  5
60A
100
AcDbEntity
  8
ASSI
100
AcDbLine
 62
250
  6
CONTINUOUS
 10
-2.1049761677
 20
31.0616750788
 11
-2.0629291845
 21
31.0584839824
  0
LWPOLYLINE
  5
60B
100
AcDbEntity
  8
RACCORDO
100
AcDbPolyline
 62
250
  6
CONTINUOUS
 90
12
 70
0
 10
-0.3590313472
 20
29.1040857734
 10
-0.2342787733
 20
29.0864140092
 10
-0.1013834813
 20
29.0588203511
 10
0.0304244415
 20
29.0231199662
 10
0.1583068193
 20
28.9807394718
 10
0.2811887918
 20
28.932921201
 10
0.399238736
 20
28.8804497122
 10
0.5115733274
 20
28.8245331187
 10
0.617485034
 20
28.766388376
 10
0.7173212597
 20
28.7066526885
 10
0.8118772067
 20
28.6455452294
 10
0.8520998982
 20
28.6176681609
  0
LWPOLYLINE
  5
60C
100
AcDbEntity
  8
ASSI
100
AcDbPolyline
 62
250
  6
CONTINUOUS
 90
12
 70
0
 10
-0.3590313472
 20
29.1040857734
 10
-0.2342787733
 20
29.0864140092
 10
-0.1013834813
 20
29.0588203511
 10
0.0304244415
 20
29.0231199662
 10
0.1583068193
 20
28.9807394718
 10
0.2811887918
 20
28.932921201
 10
0.399238736
 20
28.8804497122
 10
0.5115733274
 20
28.8245331187
 10
0.617485034
 20
28.766388376
 10
0.7173212597
 20
28.7066526885
 10
0.8118772067
 20
28.6455452294
 10
0.8520998982
 20
28.6176681609
  0
LWPOLYLINE
  5
60D
100
AcDbEntity
  8
RACCORDO
100
AcDbPolyline
 62
250
  6
CONTINUOUS
 90
6
 70
0
 10
-1.7601345266
 20
31.0769879043
 10
-1.7906638845
 20
31.0818056289
 10
-1.8237302029
 20
31.0787376693
 10
-1.8586907934
 20
31.067821253
 10
-1.8949606714
 20
31.0492390409
 10
-1.9319329441
 20
31.0233019634
  0
LWPOLYLINE
  5
60E
100
AcDbEntity
  8
ASSI
100
AcDbPolyline
 62
250
  6
CONTINUOUS
 90
6
 70
0
 10
-1.7601975861
 20
31.0769978555
 10
-1.7906638845
 20
31.0818056289
 10
-1.8237302029
 20
31.0787376693
 10
-1.8586907934
 20
31.067821253
 10
-1.8949606714
 20
31.0492390409
 10
-1.9319329441
 20
31.0233019634
  0
LWPOLYLINE
  5
60F
100
AcDbEntity
  8
ASSI
100
AcDbPolyline
 62
250
  6
CONTINUOUS
 90
4
 70
0
 10
-2.0629291845
 20
31.0584839824
 10
-2.0198429788
 20
31.0509909274
 10
-1.9760554387
 20
31.0392240372
 10
-1.9319332394
 20
31.0232779217
  0
LWPOLYLINE
  5
610
100
AcDbEntity
  8
ASSI
100
AcDbPolyline
 62
7
  6
CONTINUOUS
 90
4
 70
0
 10
-1.7515365505
 20
31.0740208802
 10
-1.8060904564
 20
31.0928465611
 10
-1.8812157636
 20
31.1094697006
 10
-1.9570991886
 20
31.1159469153
  0
LWPOLYLINE
  5
611
100
AcDbEntity
  8
RACCORDO
100
AcDbPolyline
 62
7
  6
CONTINUOUS
 90
4
 70
0
 10
-1.7508030929
 20
31.073731119
 10
-1.8041228349
 20
31.0922719327
 10
-1.8611135634
 20
31.1060382451
 10
-1.9191686396
 20
31.1139806585
  0
LWPOLYLINE
  5
612
100
AcDbEntity
  8
RACCORDO
100
AcDbPolyline
 62
250
  6
CONTINUOUS
 90
7
 70
0
 10
13.4493903616
 20
-31.0014844192
 10
13.4838172964
 20
-30.9755977737
 10
13.5167489997
 20
-30.9406592382
 10
13.5439683907
 20
-30.8995286572
 10
13.5650100967
 20
-30.8529094554
 10
13.5795144019
 20
-30.8015988784
 10
13.5872333802
 20
-30.746474381
  0
LINE
  5
613
100
AcDbEntity
  8
RACCORDO
100
AcDbLine
 62
250
  6
CONTINUOUS
 10
17.1476854891
 20
-28.5014413386
 11
13.5872333802
 21
-30.746474381
  0
LINE
  5
614
100
AcDbEntity
  8
RACCORDO
100
AcDbLine
 62
7
  6
CONTINUOUS
 10
13.4484468644
 20
-31.0020765351
 11
17.0137234567
 21
-28.7540042319
  0
LWPOLYLINE
  5
615
100
AcDbEntity
  8
RACCORDO
100
AcDbPolyline
 62
250
  6
CONTINUOUS
 90
19
 70
0
 10
13.5872333802
 20
-30.746474381
 10
13.5627868585
 20
-30.7603928185
 10
13.5390358845
 20
-30.7710897724
 10
13.5159804583
 20
-30.7785652426
 10
13.4934603048
 20
-30.7828311121
 10
13.4716356991
 20
-30.783875498
 10
13.450987466
 20
-30.781662751
 10
13.4315505877
 20
-30.7761206968
 10
13.4132900821
 20
-30.7673215098
 10
13.3965818275
 20
-30.7554460638
 10
13.3814577487
 20
-30.740430008
 10
13.3678859209
 20
-30.7223376932
 10
13.3561464489
 20
-30.7015430452
 10
13.3462769251
 20
-30.6779744713
 10
13.338239757
 20
-30.6517035642
 10
13.3322022713
 20
-30.6233190275
 10
13.3282202435
 20
-30.5930170958
 10
13.326237898
 20
-30.5606015346
 10
13.3262552349
 20
-30.5260723437
  0
ELLIPSE
  5
616
100
AcDbEntity
  8
DRAFT
100
AcDbEllipse
 62
7
  6
CONTINUOUS
 10
-21.9288791718
 20
10.8611082028
 30
0.0
 11
16.4332670843
 21
13.8660889487
 31
0.0
 40
0.018131993
 41
0.6464256088
 42
0.653126114
  0
ELLIPSE
  5
617
100
AcDbEntity
  8
DRAFT
100
AcDbEllipse
 62
7
  6
CONTINUOUS
 10
-21.9288791718
 20
10.8611082028
 30
0.0
 11
16.4332670843
 21
13.8660889487
 31
0.0
 40
0.018131993
 41
-0.6338761035
 42
-0.6271755983
  0
ELLIPSE
  5
618
100
AcDbEntity
  8
DRAFT
100
AcDbEllipse
 62
7
  6
CONTINUOUS
 10
-18.1607797681
 20
9.3477545324
 30
0.0
 11
16.4332670843
 21
13.8660889487
 31
0.0
 40
0.018131993
 41
0.6464256088
 42
0.653126114
  0
ELLIPSE
  5
619
100
AcDbEntity
  8
DRAFT
100
AcDbEllipse
 62
7
  6
CONTINUOUS
 10
-18.1607797681
 20
9.3477545324
 30
0.0
 11
16.4332670843
 21
13.8660889487
 31
0.0
 40
0.018131993
 41
-0.6338761035
 42
-0.6271755983
  0
ELLIPSE
  5
61A
100
AcDbEntity
  8
DRAFT
100
AcDbEllipse
 62
7
  6
CONTINUOUS
 10
-3.024180924
 20
17.8967043515
 30
0.0
 11
-0.3086611384
 21
0.4924323206
 31
0.0
 40
0.7360444175
 41
-3.1351172288
 42
0.1809901811
  0
ELLIPSE
  5
61B
100
AcDbEntity
  8
DRAFT
100
AcDbEllipse
 62
7
  6
CONTINUOUS
 10
-12.0348534112
 20
21.5155935632
 30
0.0
 11
-0.3086611384
 21
0.4924323206
 31
0.0
 40
0.7360444175
 41
-3.1351172288
 42
0.1809901811
  0
ELLIPSE
  5
61C
100
AcDbEntity
  8
RACCORDO
100
AcDbEllipse
 62
7
  6
CONTINUOUS
 10
13.714641255
 20
12.177465474
 30
0.0
 11
0.0721848261
 21
0.1865326386
 31
0.0
 40
0.458075675
 41
0.7538272547
 42
2.1500906563
  0
ELLIPSE
  5
61D
100
AcDbEntity
  8
DRAFT
100
AcDbEllipse
 62
7
  6
CONTINUOUS
 10
36.7033663716
 20
5.2104674028
 30
0.0
 11
27.3920680544
 21
-12.971182629
 31
0.0
 40
0.0797046865
 41
2.9367607259
 42
2.9637573733
  0
ELLIPSE
  5
61E
100
AcDbEntity
  8
DRAFT
100
AcDbEllipse
 62
7
  6
CONTINUOUS
 10
18.2724453751
 20
12.6127407904
 30
0.0
 11
27.3920680544
 21
-12.971182629
 31
0.0
 40
0.0797046865
 41
1.4751595017
 42
1.5021561491
  0
ELLIPSE
  5
61F
100
AcDbEntity
  8
RACCORDO
100
AcDbEllipse
 62
7
  6
CONTINUOUS
 10
8.4535168364
 20
14.2904516498
 30
0.0
 11
0.076955137
 21
0.1846161603
 31
0.0
 40
0.4814960025
 41
0.7659071672
 42
2.1621705688
  0
ELLIPSE
  5
620
100
AcDbEntity
  8
ASSI
100
AcDbEllipse
 62
7
  6
CONTINUOUS
 10
15.4063019827
 20
10.488976534
 30
0.0
 11
-0.266560819
 21
0.4251786748
 31
0.0
 40
0.7360439218
 41
3.2352313045
 42
6.3768239581
  0
ELLIPSE
  5
621
100
AcDbEntity
  8
ASSI
100
AcDbEllipse
 62
7
  6
CONTINUOUS
 10
6.3956294955
 20
14.1078657457
 30
0.0
 11
-0.266560819
 21
0.4251786748
 31
0.0
 40
0.7360439218
 41
3.2352313045
 42
6.3768239581
  0
ELLIPSE
  5
622
100
AcDbEntity
  8
RACCORDO
100
AcDbEllipse
 62
7
  6
CONTINUOUS
 10
17.9062133933
 20
-22.3114966222
 30
0.0
 11
-0.5614530059
 21
0.5781455747
 31
0.0
 40
0.5950886564
 41
-3.2322211743
 42
-2.5014341392
  0
ELLIPSE
  5
623
100
AcDbEntity
  8
DRAFT
100
AcDbEllipse
 62
7
  6
CONTINUOUS
 10
6.4295801891
 20
21.6021581753
 30
0.0
 11
2.7999365399
 21
-0.0335547164
 31
0.0
 40
0.5618086952
 41
0.5564593706
 42
2.3114907372
  0
ELLIPSE
  5
624
100
AcDbEntity
  8
DRAFT
100
AcDbEllipse
 62
7
  6
CONTINUOUS
 10
-1.7619402538
 20
25.5473790941
 30
0.0
 11
2.7999365399
 21
-0.0335547164
 31
0.0
 40
0.5618086952
 41
0.6877294379
 42
2.3102751351
  0
ELLIPSE
  5
625
100
AcDbEntity
  8
DRAFT
100
AcDbEllipse
 62
7
  6
CONTINUOUS
 10
5.8560037527
 20
22.0090003351
 30
0.0
 11
2.6995307002
 21
-0.0935751183
 31
0.0
 40
0.537951126
 41
8.8500111103
 42
9.2161639043
  0
ELLIPSE
  5
626
100
AcDbEntity
  8
DRAFT
100
AcDbEllipse
 62
7
  6
CONTINUOUS
 10
-2.3084889096
 20
25.9743381925
 30
0.0
 11
2.6995307002
 21
-0.0935751183
 31
0.0
 40
0.537951126
 41
2.5668258031
 42
2.8162511552
  0
ELLIPSE
  5
627
100
AcDbEntity
  8
RACCORDO
100
AcDbEllipse
 62
7
  6
CONTINUOUS
 10
-1.4709856626
 20
30.4225513483
 30
0.0
 11
-0.3886967453
 21
0.5899066789
 31
0.0
 40
0.510858305
 41
4.7846916253
 42
6.3380346596
  0
ELLIPSE
  5
628
100
AcDbEntity
  8
DRAFT
100
AcDbEllipse
 62
7
  6
CONTINUOUS
 10
6.4295801891
 20
22.4359167059
 30
0.0
 11
2.7995133187
 21
-0.0970408635
 31
0.0
 40
0.537951126
 41
0.2237157917
 42
2.3234031631
  0
ELLIPSE
  5
629
100
AcDbEntity
  8
DRAFT
100
AcDbEllipse
 62
7
  6
CONTINUOUS
 10
-1.7619402538
 20
26.3811376248
 30
0.0
 11
2.7995133187
 21
-0.0970408635
 31
0.0
 40
0.537951126
 41
0.3845683211
 42
2.3221875611
  0
ELLIPSE
  5
62A
100
AcDbEntity
  8
RACCORDO
100
AcDbEllipse
 62
7
  6
CONTINUOUS
 10
-0.1573016878
 20
22.6166275604
 30
0.0
 11
0.1297337271
 21
0.4862542225
 31
0.0
 40
0.3395847085
 41
-0.040545788
 42
0.6484899198
  0
ELLIPSE
  5
62B
100
AcDbEntity
  8
RACCORDO
100
AcDbEllipse
 62
7
  6
CONTINUOUS
 10
11.3014872848
 20
24.3061669457
 30
0.0
 11
0.5079113271
 21
0.3344494979
 31
0.0
 40
0.0541693697
 41
-0.6522511795
 42
0.9010918548
  0
ELLIPSE
  5
62C
100
AcDbEntity
  8
RACCORDO
100
AcDbEllipse
 62
7
  6
CONTINUOUS
 10
6.7198610206
 20
26.1462513438
 30
0.0
 11
-0.3886967453
 21
0.5899066789
 31
0.0
 40
0.510858305
 41
4.7846916253
 42
6.3380346596
  0
ELLIPSE
  5
62D
100
AcDbEntity
  8
RACCORDO
100
AcDbEllipse
 62
7
  6
CONTINUOUS
 10
3.1092930821
 20
28.5830081445
 30
0.0
 11
0.5079113271
 21
0.3344494979
 31
0.0
 40
0.0541693697
 41
-0.6522511795
 42
0.9010918548
  0
ELLIPSE
  5
62E
100
AcDbEntity
  8
ASSI
100
AcDbEllipse
 62
7
  6
CONTINUOUS
 10
5.8560037527
 20
22.0090003351
 30
0.0
 11
2.6995307002
 21
-0.0935751183
 31
0.0
 40
0.537951126
 41
8.8500111103
 42
9.2161639043
  0
ELLIPSE
  5
62F
100
AcDbEntity
  8
ASSI
100
AcDbEllipse
 62
7
  6
CONTINUOUS
 10
-2.3084889096
 20
25.9743381925
 30
0.0
 11
2.6995307002
 21
-0.0935751183
 31
0.0
 40
0.537951126
 41
2.5668258031
 42
2.8162511552
  0
ELLIPSE
  5
630
100
AcDbEntity
  8
ASSI
100
AcDbEllipse
 62
7
  6
CONTINUOUS
 10
-1.7619402538
 20
25.5473790941
 30
0.0
 11
2.7999365399
 21
-0.0335547164
 31
0.0
 40
0.5618086952
 41
6.970914745
 42
8.5934604423
  0
ELLIPSE
  5
631
100
AcDbEntity
  8
ASSI
100
AcDbEllipse
 62
7
  6
CONTINUOUS
 10
6.4295801891
 20
21.6021581753
 30
0.0
 11
2.7999365399
 21
-0.0335547164
 31
0.0
 40
0.5618086952
 41
0.5564593706
 42
2.3114907372
  0
ELLIPSE
  5
632
100
AcDbEntity
  8
ASSI
100
AcDbEllipse
 62
7
  6
CONTINUOUS
 10
11.3014872848
 20
24.3061669457
 30
0.0
 11
0.5079113271
 21
0.3344494979
 31
0.0
 40
0.0541693697
 41
5.6309341277
 42
7.1842771619
  0
ELLIPSE
  5
633
100
AcDbEntity
  8
ASSI
100
AcDbEllipse
 62
7
  6
CONTINUOUS
 10
-0.1573016878
 20
22.6166275604
 30
0.0
 11
0.1297337271
 21
0.4862542225
 31
0.0
 40
0.3395847085
 41
-0.040545788
 42
0.6484899198
  0
ELLIPSE
  5
634
100
AcDbEntity
  8
ASSI
100
AcDbEllipse
 62
7
  6
CONTINUOUS
 10
-1.7619402538
 20
26.3811376248
 30
0.0
 11
2.7995133187
 21
-0.0970408635
 31
0.0
 40
0.537951126
 41
0.3845683211
 42
2.3221875611
  0
ELLIPSE
  5
635
100
AcDbEntity
  8
ASSI
100
AcDbEllipse
 62
7
  6
CONTINUOUS
 10
6.4295801891
 20
22.4359167059
 30
0.0
 11
2.7995133187
 21
-0.0970408635
 31
0.0
 40
0.537951126
 41
0.2237157917
 42
2.3234031631
  0
ELLIPSE
  5
636
100
AcDbEntity
  8
ASSI
100
AcDbEllipse
 62
7
  6
CONTINUOUS
 10
3.1092930821
 20
28.5830081445
 30
0.0
 11
0.5079113271
 21
0.3344494979
 31
0.0
 40
0.0541693697
 41
5.6309341277
 42
7.1842771619
  0
ELLIPSE
  5
637
100
AcDbEntity
  8
ASSI
100
AcDbEllipse
 62
7
  6
CONTINUOUS
 10
6.7198610206
 20
26.1462513438
 30
0.0
 11
-0.3886967453
 21
0.5899066789
 31
0.0
 40
0.510858305
 41
4.7846916253
 42
6.3380346596
  0
ELLIPSE
  5
638
100
AcDbEntity
  8
ASSI
100
AcDbEllipse
 62
7
  6
CONTINUOUS
 10
-1.4709856626
 20
30.4225513483
 30
0.0
 11
-0.3886967453
 21
0.5899066789
 31
0.0
 40
0.510858305
 41
4.7846916253
 42
6.3380346596
  0
ELLIPSE
  5
639
100
AcDbEntity
  8
RACCORDO
100
AcDbEllipse
 62
7
  6
CONTINUOUS
 10
-16.596523864
 20
22.5014423906
 30
0.0
 11
-0.2851247898
 21
0.411019867
 31
0.0
 40
0.7181321676
 41
-0.8286030717
 42
0.0314716294
  0
ELLIPSE
  5
63A
100
AcDbEntity
  8
RACCORDO
100
AcDbEllipse
 62
7
  6
CONTINUOUS
 10
18.8726348739
 20
8.256228608
 30
0.0
 11
-0.2850434808
 21
0.4107992458
 31
0.0
 40
0.7187861426
 41
-2.3995237847
 42
-0.8291843087
  0
ELLIPSE
  5
63B
100
AcDbEntity
  8
RACCORDO
100
AcDbEllipse
 62
7
  6
CONTINUOUS
 10
16.7380585001
 20
-28.3367254931
 30
0.0
 11
-0.2851247898
 21
0.411019867
 31
0.0
 40
0.7181321676
 41
-3.1731963523
 42
-2.3998562493
  0
ENDSEC
  0
SECTION
  2
OBJECTS
  0
DICTIONARY
  5
C
100
AcDbDictionary
280
0
281
1
  3
ACAD_GROUP
350
D
  3
ACAD_MLINESTYLE
350
17
  3
ACAD_LAYOUT
350
1A
  3
ACAD_PLOTSETTINGS
350
19
  3
ACAD_PLOTSTYLENAME
350
E
  0
DICTIONARY
  5
D
102
{ACAD_REACTORS
330
C
102
}
100
AcDbDictionary
280
0
281
1
  0
ACDBDICTIONARYWDFLT
  5
E
102
{ACAD_REACTORS
330
C
102
}
100
AcDbDictionary
281
1
  3
Normal
350
F
100
AcDbDictionaryWithDefault
340
F
  0
DICTIONARY
  5
17
102
{ACAD_REACTORS
330
C
102
}
100
AcDbDictionary
280
0
281
1
  3
Standard
350
18
  0
DICTIONARY
  5
19
102
{ACAD_REACTORS
330
C
102
}
100
AcDbDictionary
281
1
  0
DICTIONARY
  5
1A
102
{ACAD_REACTORS
330
C
102
}
100
AcDbDictionary
281
1
  3
Model
350
63C
  3
Layout1
350
63D
  0
ACDBPLACEHOLDER
  5
F
102
{ACAD_REACTORS
330
E
102
}
  0
MLINESTYLE
  5
18
102
{ACAD_REACTORS
330
17
102
}
100
AcDbMlineStyle
  2
STANDARD
 70
0
  3

 62
256
 51
90.0
 52
90.0
 71
2
 49
0.5
 62
256
  6
BYLAYER
 49
-0.5
 62
256
  6
BYLAYER
  0
LAYOUT
  5
63C
102
{ACAD_REACTORS
330
1A
102
}
100
AcDbPlotSettings
  1

  2
none_device
  4
ISO_A4_(297.00_x_210.00_MM)
  6

 40
0.0
 41
0.0
 42
0.0
 43
0.0
 44
297.0
 45
210.0
 46
0.0
 47
0.0
 48
0.0
 49
0.0
140
0.0
141
0.0
142
1.0
143
1.0
 70
1024
 72
1
 73
0
 74
0
  7

 75
0
147
1.0
148
0.0
149
0.0
100
AcDbLayout
  1
Model
 70
0
 71
0
 10
0.0
 20
0.0
 11
297.0
 21
210.0
 12
0.0
 22
0.0
 32
0.0
 14
0.0
 24
0.0
 34
0.0
 15
0.0
 25
0.0
 35
0.0
146
0.0
 13
0.0
 23
0.0
 33
0.0
 16
1.0
 26
0.0
 36
0.0
 17
0.0
 27
1.0
 37
0.0
 76
0
330
21F
345
0
346
0
  0
LAYOUT
  5
63D
102
{ACAD_REACTORS
330
1A
102
}
100
AcDbPlotSettings
  1

  2
none_device
  4
ISO_A4_(297.00_x_210.00_MM)
  6

 40
0.0
 41
0.0
 42
0.0
 43
0.0
 44
297.0
 45
210.0
 46
0.0
 47
0.0
 48
0.0
 49
0.0
140
0.0
141
0.0
142
1.0
143
1.0
 70
0
 72
1
 73
0
 74
0
  7

 75
0
147
1.0
148
0.0
149
0.0
100
AcDbLayout
  1
Layout1
 70
0
 71
1
 10
0.0
 20
0.0
 11
297.0
 21
210.0
 12
0.0
 22
0.0
 32
0.0
 14
0.0
 24
0.0
 34
0.0
 15
0.0
 25
0.0
 35
0.0
146
0.0
 13
0.0
 23
0.0
 33
0.0
 16
1.0
 26
0.0
 36
0.0
 17
0.0
 27
1.0
 37
0.0
 76
0
330
220
345
0
346
0
  0
ENDSEC
  0
EOF
