  0
SECTION
  2
HEADER
  9
$ACADVER
  1
AC1024
  9
$DWGCODEPAGE
  3
ANSI_1252
  9
$EXTMAX
 10
279.4
 20
215.9
 30
0.0
  9
$EXTMIN
 10
0.0
 20
0.0
 30
0.0
  9
$LIMMIN
 10
0.0
 20
0.0
  9
$LIMMAX
 10
279.4
 20
215.9
  9
$VIEWCTR
 10
139.7
 20
107.95
  9
$VIEWSIZE
 40
215.9
  9
$CLAYER
  8
0
  9
$LTSCALE
 40
15.367
  9
$CELTYPE
  6
BYLAYER
  9
$DIMSCALE
 40
1.0
  9
$DIMASZ
 40
3.0
  9
$DIMEXO
 40
0.5
  9
$DIMDLI
 40
10.6172
  9
$DIMEXE
 40
1.5
  9
$DIMCEN
 40
2.5146
  9
$DIMLFAC
 40
1.0
  9
$DIMBLK
  1
_FILLED
  9
$DIMALT
 70
0
  9
$DIMALTF
 40
0.0393700787
  9
$DIMTXT
 40
3.0
  9
$DIMTOL
 70
1
  9
$DIMLIM
 70
0
  9
$DIMTFAC
 40
1.0
  9
$DIMTP
 40
0.01
  9
$DIMTM
 40
0.01
  9
$DIMGAP
 40
0.625
  9
$DIMDSEP
 70
44
  9
$AUNITS
 70
0
  9
$PDMODE
 70
3
  9
$PDSIZE
 40
3.0
  9
$HANDSEED
  5
61F
  9
$TILEMODE
 70
1
  9
$MEASUREMENT
 70
1
  9
$INSUNITS
 70
4
  0
ENDSEC
  0
SECTION
  2
CLASSES
  0
CLASS
  1
ACDBDICTIONARYWDFLT
  2
AcDbDictionaryWithDefault
  3
AutoCAD 2000
 90
0
 91
1
280
0
281
0
  0
CLASS
  1
ACDBPLACEHOLDER
  2
AcDbPlaceHolder
  3
AutoCAD 2000
 90
0
 91
1
280
0
281
0
  0
CLASS
  1
LAYOUT
  2
AcDbLayout
  3
AutoCAD 2000
 90
0
 91
0
280
0
281
0
  0
ENDSEC
  0
SECTION
  2
TABLES
  0
TABLE
  2
VPORT
  5
8
100
AcDbSymbolTable
 70
2
  0
VPORT
  5
1F4
100
AcDbSymbolTableRecord
100
AcDbViewportTableRecord
  2
*ACTIVE
 70
0
 10
0.0
 20
0.0
 11
1.0
 21
1.0
 12
139.7
 22
107.95
 13
0.0
 23
0.0
 14
1.0
 24
1.0
 15
0.0
 25
0.0
 16
0.0
 26
0.0
 36
1.0
 17
0.0
 27
0.0
 37
0.0
 40
215.9
 41
1.2941176471
 42
50.0
 43
0.0
 44
0.0
 50
0.0
 51
0.0
 71
0
 72
100
 73
1
 74
1
 75
0
 76
0
 77
0
 78
0
  0
ENDTAB
  0
TABLE
  2
LTYPE
  5
5
100
AcDbSymbolTable
 70
6
  0
LTYPE
  5
14
100
AcDbSymbolTableRecord
100
AcDbLinetypeTableRecord
  2
BYBLOCK
 70
0
  3

 72
65
 73
0
 40
0.0
  0
LTYPE
  5
15
100
AcDbSymbolTableRecord
100
AcDbLinetypeTableRecord
  2
BYLAYER
 70
0
  3

 72
65
 73
0
 40
0.0
  0
LTYPE
  5
16
100
AcDbSymbolTableRecord
100
AcDbLinetypeTableRecord
  2
CONTINUOUS
 70
64
  3
Solid line
 72
65
 73
0
 40
0.0
  0
LTYPE
  5
1F5
100
AcDbSymbolTableRecord
100
AcDbLinetypeTableRecord
  2
CENTER
 70
64
  3
____ _ ____ _ ____ _ ____ _ ____ _ ____ _ ____
 72
65
 73
4
 40
0.6
 49
0.375
 74
0
 49
-0.075
 74
0
 49
0.075
 74
0
 49
-0.075
 74
0
  0
LTYPE
  5
1F6
100
AcDbSymbolTableRecord
100
AcDbLinetypeTableRecord
  2
HIDDEN
 70
64
  3
- - - - - - - - - - - - - - - - - - - -
 72
65
 73
2
 40
0.2
 49
0.1
 74
0
 49
-0.1
 74
0
  0
LTYPE
  5
1F7
100
AcDbSymbolTableRecord
100
AcDbLinetypeTableRecord
  2
PHANTOM
 70
64
  3
_____ _ _ _____ _ _ _____ _ _ _____
 72
65
 73
6
 40
0.8
 49
0.45
 74
0
 49
-0.05
 74
0
 49
0.1
 74
0
 49
-0.05
 74
0
 49
0.1
 74
0
 49
-0.05
 74
0
  0
LTYPE
  5
1F8
100
AcDbSymbolTableRecord
100
AcDbLinetypeTableRecord
  2
DOT
 70
64
  3
. . . . . . . . . . . . . . . . . . . .
 72
65
 73
2
 40
0.2
 49
0.1
 74
0
 49
-0.1
 74
0
  0
LTYPE
  5
1F9
100
AcDbSymbolTableRecord
100
AcDbLinetypeTableRecord
  2
DASHED
 70
64
  3
- - - - - - - - - - - - - - - - - - - -
 72
65
 73
2
 40
0.2
 49
0.1
 74
0
 49
-0.1
 74
0
  0
ENDTAB
  0
TABLE
  2
LAYER
  5
2
100
AcDbSymbolTable
 70
36
  0
LAYER
  5
10
100
AcDbSymbolTableRecord
100
AcDbLayerTableRecord
  2
0
 70
0
 62
7
  6
CONTINUOUS
370
-3
390
F
  0
LAYER
  5
1FA
100
AcDbSymbolTableRecord
100
AcDbLayerTableRecord
  2
DEFAULT_1
 70
0
 62
7
  6
CENTER
370
-3
390
F
  0
LAYER
  5
1FB
100
AcDbSymbolTableRecord
100
AcDbLayerTableRecord
  2
DEFAULT_2
 70
0
 62
7
  6
HIDDEN
370
-3
390
F
  0
LAYER
  5
1FC
100
AcDbSymbolTableRecord
100
AcDbLayerTableRecord
  2
DEFAULT_3
 70
0
 62
7
  6
PHANTOM
370
-3
390
F
  0
LAYER
  5
1FD
100
AcDbSymbolTableRecord
100
AcDbLayerTableRecord
  2
ASSI
 70
0
 62
7
  6
CONTINUOUS
370
-3
390
F
  0
LAYER
  5
1FE
100
AcDbSymbolTableRecord
100
AcDbLayerTableRecord
  2
COORDINATE
 70
0
 62
7
  6
CONTINUOUS
370
-3
390
F
  0
LAYER
  5
1FF
100
AcDbSymbolTableRecord
100
AcDbLayerTableRecord
  2
COORD_ORIGINE
 70
0
 62
7
  6
CONTINUOUS
370
-3
390
F
  0
LAYER
  5
200
100
AcDbSymbolTableRecord
100
AcDbLayerTableRecord
  2
COPY_PUBLISH
 70
0
 62
7
  6
CONTINUOUS
370
-3
390
F
  0
LAYER
  5
201
100
AcDbSymbolTableRecord
100
AcDbLayerTableRecord
  2
COSMETIC
 70
0
 62
7
  6
CONTINUOUS
370
-3
390
F
  0
LAYER
  5
202
100
AcDbSymbolTableRecord
100
AcDbLayerTableRecord
  2
COSMETICHE
 70
0
 62
7
  6
CONTINUOUS
370
-3
390
F
  0
LAYER
  5
203
100
AcDbSymbolTableRecord
100
AcDbLayerTableRecord
  2
COSMETICI
 70
0
 62
7
  6
CONTINUOUS
370
-3
390
F
  0
LAYER
  5
204
100
AcDbSymbolTableRecord
100
AcDbLayerTableRecord
  2
CURVE
 70
0
 62
7
  6
CONTINUOUS
370
-3
390
F
  0
LAYER
  5
205
100
AcDbSymbolTableRecord
100
AcDbLayerTableRecord
  2
DRAFT
 70
0
 62
7
  6
CONTINUOUS
370
-3
390
F
  0
LAYER
  5
206
100
AcDbSymbolTableRecord
100
AcDbLayerTableRecord
  2
ESTENSIONE
 70
0
 62
7
  6
CONTINUOUS
370
-3
390
F
  0
LAYER
  5
207
100
AcDbSymbolTableRecord
100
AcDbLayerTableRecord
  2
IMPORT_FEATURES
 70
0
 62
7
  6
CONTINUOUS
370
-3
390
F
  0
LAYER
  5
208
100
AcDbSymbolTableRecord
100
AcDbLayerTableRecord
  2
IMPORT_IGES
 70
0
 62
7
  6
CONTINUOUS
370
-3
390
F
  0
LAYER
  5
209
100
AcDbSymbolTableRecord
100
AcDbLayerTableRecord
  2
INTFCLR_1
 70
0
 62
7
  6
CONTINUOUS
370
-3
390
F
  0
LAYER
  5
20A
100
AcDbSymbolTableRecord
100
AcDbLayerTableRecord
  2
INTF_1
 70
0
 62
7
  6
CONTINUOUS
370
-3
390
F
  0
LAYER
  5
20B
100
AcDbSymbolTableRecord
100
AcDbLayerTableRecord
  2
INTF_11
 70
0
 62
7
  6
CONTINUOUS
370
-3
390
F
  0
LAYER
  5
20C
100
AcDbSymbolTableRecord
100
AcDbLayerTableRecord
  2
INTF_12
 70
0
 62
7
  6
CONTINUOUS
370
-3
390
F
  0
LAYER
  5
20D
100
AcDbSymbolTableRecord
100
AcDbLayerTableRecord
  2
INTF_2
 70
0
 62
7
  6
CONTINUOUS
370
-3
390
F
  0
LAYER
  5
20E
100
AcDbSymbolTableRecord
100
AcDbLayerTableRecord
  2
INTF_6
 70
0
 62
7
  6
CONTINUOUS
370
-3
390
F
  0
LAYER
  5
20F
100
AcDbSymbolTableRecord
100
AcDbLayerTableRecord
  2
INTF_7
 70
0
 62
7
  6
CONTINUOUS
370
-3
390
F
  0
LAYER
  5
210
100
AcDbSymbolTableRecord
100
AcDbLayerTableRecord
  2
INTF_8
 70
0
 62
7
  6
CONTINUOUS
370
-3
390
F
  0
LAYER
  5
211
100
AcDbSymbolTableRecord
100
AcDbLayerTableRecord
  2
NOTE
 70
0
 62
7
  6
CONTINUOUS
370
-3
390
F
  0
LAYER
  5
212
100
AcDbSymbolTableRecord
100
AcDbLayerTableRecord
  2
PIANI
 70
0
 62
7
  6
CONTINUOUS
370
-3
390
F
  0
LAYER
  5
213
100
AcDbSymbolTableRecord
100
AcDbLayerTableRecord
  2
PIANI_ORIGINE
 70
0
 62
7
  6
CONTINUOUS
370
-3
390
F
  0
LAYER
  5
214
100
AcDbSymbolTableRecord
100
AcDbLayerTableRecord
  2
PUNTI
 70
0
 62
7
  6
CONTINUOUS
370
-3
390
F
  0
LAYER
  5
215
100
AcDbSymbolTableRecord
100
AcDbLayerTableRecord
  2
RACCORDO
 70
0
 62
7
  6
CONTINUOUS
370
-3
390
F
  0
LAYER
  5
216
100
AcDbSymbolTableRecord
100
AcDbLayerTableRecord
  2
RGB__255__255__255__
 70
0
 62
7
  6
CONTINUOUS
370
-3
390
F
  0
LAYER
  5
217
100
AcDbSymbolTableRecord
100
AcDbLayerTableRecord
  2
RGB____0____0____0__
 70
0
 62
7
  6
CONTINUOUS
370
-3
390
F
  0
LAYER
  5
218
100
AcDbSymbolTableRecord
100
AcDbLayerTableRecord
  2
SMUSSO
 70
0
 62
7
  6
CONTINUOUS
370
-3
390
F
  0
LAYER
  5
219
100
AcDbSymbolTableRecord
100
AcDbLayerTableRecord
  2
SNAPLINE
 70
0
 62
7
  6
CONTINUOUS
370
-3
390
F
  0
LAYER
  5
21A
100
AcDbSymbolTableRecord
100
AcDbLayerTableRecord
  2
SUPERFICI
 70
0
 62
7
  6
CONTINUOUS
370
-3
390
F
  0
LAYER
  5
21B
100
AcDbSymbolTableRecord
100
AcDbLayerTableRecord
  2
TRASH
 70
0
 62
7
  6
CONTINUOUS
370
-3
390
F
  0
LAYER
  5
21C
100
AcDbSymbolTableRecord
100
AcDbLayerTableRecord
  2
XSEC_DATUMS
 70
0
 62
7
  6
CONTINUOUS
370
-3
390
F
  0
ENDTAB
  0
TABLE
  2
STYLE
  5
3
100
AcDbSymbolTable
 70
1
  0
STYLE
  5
11
100
AcDbSymbolTableRecord
100
AcDbTextStyleTableRecord
  2
STANDARD
 70
0
 40
0.0
 41
0.8
 50
0.0
 71
0
 42
0.2
  3
txt
  4

  0
STYLE
  5
21D
100
AcDbSymbolTableRecord
100
AcDbTextStyleTableRecord
  2
TEXTSTYLE_1
 70
0
 40
0.0
 41
0.8
 50
0.0
 71
0
 42
0.2
  3
gdt
  4

  0
ENDTAB
  0
TABLE
  2
VIEW
  5
6
100
AcDbSymbolTable
 70
0
  0
ENDTAB
  0
TABLE
  2
UCS
  5
7
100
AcDbSymbolTable
 70
0
  0
ENDTAB
  0
TABLE
  2
APPID
  5
9
100
AcDbSymbolTable
 70
1
  0
APPID
  5
21E
100
AcDbSymbolTableRecord
100
AcDbRegAppTableRecord
  2
ACAD
 70
0
  0
ENDTAB
  0
TABLE
  2
BLOCK_RECORD
  5
1
100
AcDbSymbolTable
 70
0
  0
BLOCK_RECORD
  5
21F
100
AcDbSymbolTableRecord
100
AcDbBlockTableRecord
  2
*Model_Space
  0
BLOCK_RECORD
  5
220
100
AcDbSymbolTableRecord
100
AcDbBlockTableRecord
  2
*Paper_Space
  0
BLOCK_RECORD
  5
221
100
AcDbSymbolTableRecord
100
AcDbBlockTableRecord
  2
_FILLED
  0
ENDTAB
  0
TABLE
  2
DIMSTYLE
  5
A
100
AcDbSymbolTable
 70
1
100
AcDbDimStyleTable
 71
0
  0
DIMSTYLE
105
222
100
AcDbSymbolTableRecord
100
AcDbDimStyleTableRecord
  2
STANDARD
 70
0
  3

  4

 40
1.0
 41
3.0
 42
0.5
 43
0.38
 44
1.5
 45
0.0
 46
0.0
 47
0.01
 48
0.01
140
3.0
141
0.09
142
0.0
143
25.4
144
1.0
145
0.0
146
1.0
147
0.625
 71
1
 72
0
 73
0
 74
0
 75
0
 76
0
 77
1
 78
8
 79
2
170
0
171
1
172
0
173
0
174
0
175
0
176
0
177
0
178
0
270
2
179
2
271
2
272
2
273
2
274
2
275
0
280
0
281
0
282
0
283
1
284
8
285
0
286
0
287
3
288
0
340
11
278
44
341
221
342
221
343
221
344
221
  0
ENDTAB
  0
ENDSEC
  0
SECTION
  2
BLOCKS
  0
BLOCK
  5
20
100
AcDbEntity
  8
0
100
AcDbBlockBegin
  2
*Model_Space
 70
0
 10
0.0
 20
0.0
 30
0.0
  3
*Model_Space
  1

  0
ENDBLK
  5
21
100
AcDbEntity
  8
0
100
AcDbBlockEnd
  0
BLOCK
  5
1C
100
AcDbEntity
  8
0
100
AcDbBlockBegin
  2
*Paper_Space
 70
0
 10
0.0
 20
0.0
 30
0.0
  3
*Paper_Space
  1

  0
ENDBLK
  5
1D
100
AcDbEntity
  8
0
100
AcDbBlockEnd
  0
BLOCK
  5
223
100
AcDbEntity
  8
0
100
AcDbBlockBegin
  2
_FILLED
 70
64
 10
0.0
 20
0.0
  3
_FILLED
  1

  0
SOLID
  5
224
100
AcDbEntity
  8
0
  6
BYBLOCK
 62
0
100
AcDbTrace
 10
0.0
 20
0.0
 11
-1.0
 21
0.3166666667
 12
-1.0
 22
-0.3166666667
 13
-1.0
 23
-0.3166666667
  0
ENDBLK
  5
225
100
AcDbEntity
  8
0
  6
BYBLOCK
 62
0
100
AcDbBlockEnd
  0
ENDSEC
  0
SECTION
  2
ENTITIES
  0
LWPOLYLINE
  5
226
100
AcDbEntity
  8
RACCORDO
100
AcDbPolyline
 62
7
  6
CONTINUOUS
 90
9
 70
0
 10
-14.4214324639
 20
-31.7759111576
 10
-14.3604756252
 20
-31.8029252994
 10
-14.2924157834
 20
-31.8253305216
 10
-14.2219976551
 20
-31.8407707182
 10
-14.1493758901
 20
-31.8490761928
 10
-14.075155436
 20
-31.8500066182
 10
-14.000079517
 20
-31.8434229443
 10
-13.9243237314
 20
-31.8291580373
 10
-13.8469942279
 20
-31.8065828104
  0
LWPOLYLINE
  5
227
100
AcDbEntity
  8
RACCORDO
100
AcDbPolyline
 62
250
  6
CONTINUOUS
 90
16
 70
0
 10
-14.6822733131
 20
-31.1942783263
 10
-14.6438324153
 20
-31.211678976
 10
-14.6020191934
 20
-31.2272129917
 10
-14.5572816558
 20
-31.2407139339
 10
-14.5100991435
 20
-31.2520371467
 10
-14.4609771941
 20
-31.2610613071
 10
-14.4104421257
 20
-31.2676897259
 10
-14.3590353968
 20
-31.2718513828
 10
-14.3073078057
 20
-31.2735016875
 10
-14.2558135883
 20
-31.272622958
 10
-14.2051044802
 20
-31.2692246093
 10
-14.155723805
 20
-31.2633430531
 10
-14.1082006524
 20
-31.2550413074
 10
-14.0630442102
 20
-31.2444083215
 10
-14.0207383075
 20
-31.2315580226
 10
-13.9817362317
 20
-31.2166280953
  0
LINE
  5
228
100
AcDbEntity
  8
RACCORDO
100
AcDbLine
 62
250
  6
CONTINUOUS
 10
-14.6822733191
 20
-31.1942783289
 11
-29.439977943
 21
-23.8154260169
  0
LINE
  5
229
100
AcDbEntity
  8
RACCORDO
100
AcDbLine
 62
7
  6
CONTINUOUS
 10
-14.4204245294
 20
-31.7764226949
 11
-29.1837978829
 21
-24.3947358702
  0
LWPOLYLINE
  5
22A
100
AcDbEntity
  8
RACCORDO
100
AcDbPolyline
 62
250
  6
CONTINUOUS
 90
13
 70
0
 10
-29.1837978829
 20
-24.3947358702
 10
-29.1906937901
 20
-24.3911892427
 10
-29.2338824502
 20
-24.364459822
 10
-29.2736259621
 20
-24.3317001437
 10
-29.3096420952
 20
-24.29314706
 10
-29.3416838887
 20
-24.2490685357
 10
-29.369542582
 20
-24.1997538513
 10
-29.3930248931
 20
-24.1455308846
 10
-29.4119548709
 20
-24.086786508
 10
-29.4261962573
 20
-24.0239489938
 10
-29.4356511771
 20
-23.9574659059
 10
-29.4402552999
 20
-23.8877959547
 10
-29.439977943
 20
-23.8154260169
  0
LWPOLYLINE
  5
22B
100
AcDbEntity
  8
RACCORDO
100
AcDbPolyline
 62
250
  6
CONTINUOUS
 90
13
 70
0
 10
-14.4213356687
 20
-31.7759655973
 10
-14.4277249265
 20
-31.7726738854
 10
-14.4717264616
 20
-31.7455415064
 10
-14.5122296463
 20
-31.7124069067
 10
-14.5489550517
 20
-31.6734984986
 10
-14.5816486323
 20
-31.6290862405
 10
-14.6100796763
 20
-31.579478189
 10
-14.6340515763
 20
-31.5250148178
 10
-14.6533968226
 20
-31.4660761332
 10
-14.6679751037
 20
-31.4030808619
 10
-14.6776847277
 20
-31.3364712483
 10
-14.682461528
 20
-31.2667083501
 10
-14.6822733191
 20
-31.1942783289
  0
LWPOLYLINE
  5
22C
100
AcDbEntity
  8
RACCORDO
100
AcDbPolyline
 62
250
  6
CONTINUOUS
 90
9
 70
0
 10
-29.586450965
 20
-23.6401073918
 10
-29.5855947697
 20
-23.6585716945
 10
-29.5797732024
 20
-23.6830241856
 10
-29.568669597
 20
-23.7072151037
 10
-29.5524029233
 20
-23.7308852547
 10
-29.5311474707
 20
-23.7537810243
 10
-29.5051309813
 20
-23.7756570952
 10
-29.4746322089
 20
-23.7962790761
 10
-29.4399779331
 20
-23.8154260125
  0
LWPOLYLINE
  5
22D
100
AcDbEntity
  8
RACCORDO
100
AcDbPolyline
 62
7
  6
CONTINUOUS
 90
15
 70
0
 10
-29.5864423765
 20
-23.6401077055
 10
-29.5871620935
 20
-23.6732815847
 10
-29.5844305166
 20
-23.7540185466
 10
-29.5754391802
 20
-23.8317778703
 10
-29.5603828949
 20
-23.9064340248
 10
-29.5394205414
 20
-23.9777581886
 10
-29.5128028641
 20
-24.0453736759
 10
-29.480745725
 20
-24.109052095
 10
-29.4434396388
 20
-24.1685515541
 10
-29.401269652
 20
-24.2234007305
 10
-29.354622658
 20
-24.2732949779
 10
-29.3037695341
 20
-24.3180611197
 10
-29.2492320487
 20
-24.35731552
 10
-29.1915629686
 20
-24.3907741196
 10
-29.1838836421
 20
-24.3946791041
  0
LINE
  5
22E
100
AcDbEntity
  8
0
100
AcDbLine
 62
250
  6
CONTINUOUS
 10
-5.963834115
 20
-28.6409138207
 11
-5.9844951641
 21
-28.6338031104
  0
LINE
  5
22F
100
AcDbEntity
  8
0
100
AcDbLine
 62
250
  6
CONTINUOUS
 10
-5.9844951641
 20
-28.6338031104
 11
-6.0062474775
 21
-28.6244973718
  0
LWPOLYLINE
  5
230
100
AcDbEntity
  8
0
100
AcDbPolyline
 62
7
  6
CONTINUOUS
 90
9
 70
0
 10
-5.967229422
 20
-28.7056454663
 10
-5.9280167902
 20
-28.7227911694
 10
-5.8867265484
 20
-28.7356891393
 10
-5.8454267072
 20
-28.7433675502
 10
-5.8045557103
 20
-28.7457451719
 10
-5.7647995018
 20
-28.7428637575
 10
-5.7267490814
 20
-28.734917651
 10
-5.6907928077
 20
-28.7221835295
 10
-5.6834032171
 20
-28.7188639391
  0
LWPOLYLINE
  5
231
100
AcDbEntity
  8
RACCORDO
100
AcDbPolyline
 62
250
  6
CONTINUOUS
 90
9
 70
0
 10
-27.0253212429
 20
13.4936435309
 10
-27.0246981204
 20
13.4714758346
 10
-27.0187070207
 20
13.4494727837
 10
-27.0074560715
 20
13.4274117901
 10
-26.9910658189
 20
13.4055292217
 10
-26.969711873
 20
13.3840595347
 10
-26.9436230264
 20
13.3632327616
 10
-26.9130788027
 20
13.3432720466
 10
-26.8784064619
 20
13.3243912549
  0
LWPOLYLINE
  5
232
100
AcDbEntity
  8
RACCORDO
100
AcDbPolyline
 62
250
  6
CONTINUOUS
 90
10
 70
0
 10
-29.439977943
 20
-23.8154260169
 10
-29.2736038155
 20
-19.7387106821
 10
-29.0776210296
 20
-15.6486942248
 10
-28.8520461816
 20
-11.5457258491
 10
-28.5968984418
 20
-7.4301558843
 10
-28.3121995446
 20
-3.3023356288
 10
-27.9979737838
 20
0.8373826814
 10
-27.6542480226
 20
4.9886457332
 10
-27.2810516939
 20
9.1510991654
 10
-26.8784167883
 20
13.3243877265
  0
LWPOLYLINE
  5
233
100
AcDbEntity
  8
RACCORDO
100
AcDbPolyline
 62
7
  6
CONTINUOUS
 90
10
 70
0
 10
-27.0253186222
 20
13.493753477
 10
-27.4186549038
 20
9.4202241055
 10
-27.7950579068
 20
5.2284261776
 10
-28.1415764947
 20
1.0479321108
 10
-28.4581744875
 20
-3.1208478196
 10
-28.7448267097
 20
-7.2775733454
 10
-29.0015110422
 20
-11.4219308617
 10
-29.2282047985
 20
-15.5535815694
 10
-29.4248870009
 20
-19.6721218292
 10
-29.586450965
 20
-23.6401073918
  0
LWPOLYLINE
  5
234
100
AcDbEntity
  8
RACCORDO
100
AcDbPolyline
 62
250
  6
CONTINUOUS
 90
16
 70
0
 10
-26.8784167883
 20
13.3243877265
 10
-26.8684431475
 20
13.4006459571
 10
-26.8536937477
 20
13.4780713424
 10
-26.8342700113
 20
13.5561251085
 10
-26.8103046988
 20
13.6342738068
 10
-26.7819647845
 20
13.7119631389
 10
-26.7494554097
 20
13.7886226478
 10
-26.7130170962
 20
13.863703001
 10
-26.6729004607
 20
13.936700785
 10
-26.6293677236
 20
14.0071301764
 10
-26.5827175054
 20
14.0745101278
 10
-26.533281427
 20
14.138361388
 10
-26.4814011229
 20
14.1982308375
 10
-26.4274414045
 20
14.2537022661
 10
-26.3717807454
 20
14.3043898985
 10
-26.3148041101
 20
14.3499337494
  0
LWPOLYLINE
  5
235
100
AcDbEntity
  8
0
100
AcDbPolyline
 62
250
  6
CONTINUOUS
 90
5
 70
0
 10
-21.2809164357
 20
17.3523398975
 10
-21.2700431921
 20
17.3734020545
 10
-21.2579421472
 20
17.3915618078
 10
-21.2446839421
 20
17.4065704739
 10
-21.2301979356
 20
17.4186767362
  0
LWPOLYLINE
  5
236
100
AcDbEntity
  8
RACCORDO
100
AcDbPolyline
 62
250
  6
CONTINUOUS
 90
4
 70
0
 10
-26.3148041101
 20
14.3499337494
 10
-26.2569100778
 20
14.3900159213
 10
-26.1985077254
 20
14.4243617393
 10
-26.1400076488
 20
14.4527339138
  0
LWPOLYLINE
  5
237
100
AcDbEntity
  8
0
100
AcDbPolyline
 62
250
  6
CONTINUOUS
 90
11
 70
0
 10
-21.2301979356
 20
17.4186767362
 10
-21.2152350177
 20
17.4284007281
 10
-21.2000777159
 20
17.4357504544
 10
-21.1844435027
 20
17.4407179102
 10
-21.1682356853
 20
17.4437992146
 10
-21.1515945861
 20
17.4452626993
 10
-21.1343798827
 20
17.4448400324
 10
-21.1160739152
 20
17.4422223373
 10
-21.0965041302
 20
17.4373066552
 10
-21.075843081
 20
17.4301959449
 10
-21.0540907676
 20
17.4208902063
  0
LWPOLYLINE
  5
238
100
AcDbEntity
  8
0
100
AcDbPolyline
 62
250
  6
CONTINUOUS
 90
10
 70
0
 10
-20.9498758577
 20
17.6028816869
 10
-20.9680611566
 20
17.591469954
 10
-20.9856510783
 20
17.5765653543
 10
-21.0021229437
 20
17.5586107737
 10
-21.0169872959
 20
17.5381397273
 10
-21.0298024455
 20
17.5157605064
 10
-21.0401875956
 20
17.4921381032
 10
-21.047834155
 20
17.4679744505
 10
-21.052514908
 20
17.4439875638
 10
-21.0540907676
 20
17.4208902063
  0
LWPOLYLINE
  5
239
100
AcDbEntity
  8
0
100
AcDbPolyline
 62
7
  6
CONTINUOUS
 90
9
 70
0
 10
-21.1796486545
 20
17.6138527569
 10
-21.2041579283
 20
17.5989295059
 10
-21.2360580979
 20
17.5737106939
 10
-21.2645045509
 20
17.5438662002
 10
-21.2891235159
 20
17.5096940786
 10
-21.3095207952
 20
17.4717059282
 10
-21.3255031106
 20
17.4302369779
 10
-21.3369052144
 20
17.3855297968
 10
-21.3435938606
 20
17.3379766099
  0
LINE
  5
23A
100
AcDbEntity
  8
RACCORDO
100
AcDbLine
 62
250
  6
CONTINUOUS
 10
-8.762884407
 20
-24.2016606596
 11
-8.795524389
 21
-24.1898630994
  0
LWPOLYLINE
  5
23B
100
AcDbEntity
  8
RACCORDO
100
AcDbPolyline
 62
250
  6
CONTINUOUS
 90
4
 70
0
 10
-8.795524389
 20
-24.1898630994
 10
-8.827683717
 20
-24.1770266433
 10
-8.8593431828
 20
-24.163035428
 10
-8.8834207692
 20
-24.151331861
  0
LINE
  5
23C
100
AcDbEntity
  8
0
100
AcDbLine
 62
7
  6
CONTINUOUS
 10
-5.9672294228
 20
-28.7056454659
 11
-9.1087764632
 21
-27.1348719601
  0
LINE
  5
23D
100
AcDbEntity
  8
0
100
AcDbLine
 62
250
  6
CONTINUOUS
 10
-6.0062474775
 20
-28.6244973718
 11
-9.1046668891
 21
-27.075287666
  0
LWPOLYLINE
  5
23E
100
AcDbEntity
  8
0
100
AcDbPolyline
 62
250
  6
CONTINUOUS
 90
7
 70
0
 10
-5.967263495
 20
-28.7056284442
 10
-5.9691439968
 20
-28.7046434166
 10
-5.9819591496
 20
-28.6950793469
 10
-5.9923443023
 20
-28.6818420951
 10
-5.9999908632
 20
-28.6653250025
 10
-6.0046716173
 20
-28.6460188694
 10
-6.0062474775
 20
-28.6244973718
  0
LWPOLYLINE
  5
23F
100
AcDbEntity
  8
0
100
AcDbPolyline
 62
7
  6
CONTINUOUS
 90
8
 70
0
 10
-16.5860236845
 20
16.0589937072
 10
-16.6005040493
 20
16.0427124792
 10
-16.6146052604
 20
16.0230105752
 10
-16.6273042202
 20
15.9998088448
 10
-16.6371329535
 20
15.9745561451
 10
-16.6435963026
 20
15.9478921926
 10
-16.6464383911
 20
15.9198667186
 10
-16.6465396277
 20
15.9134647508
  0
LINE
  5
240
100
AcDbEntity
  8
0
100
AcDbLine
 62
7
  6
CONTINUOUS
 10
-21.1796529439
 20
17.6138503715
 11
-20.7947709769
 21
17.8215033135
  0
LINE
  5
241
100
AcDbEntity
  8
0
100
AcDbLine
 62
250
  6
CONTINUOUS
 10
-20.9498758577
 20
17.6028816869
 11
-20.5660108303
 21
17.8099856757
  0
LWPOLYLINE
  5
242
100
AcDbEntity
  8
RACCORDO
100
AcDbPolyline
 62
7
  6
CONTINUOUS
 90
16
 70
0
 10
-26.3636197802
 20
14.4670828727
 10
-26.4215840713
 20
14.438903638
 10
-26.48736853
 20
14.400356055
 10
-26.5511670622
 20
14.3557335464
 10
-26.6122865609
 20
14.3055962477
 10
-26.6707152318
 20
14.2499931435
 10
-26.7262424824
 20
14.1890955101
 10
-26.7780200013
 20
14.1238646932
 10
-26.825946382
 20
14.0544503656
 10
-26.8698396421
 20
13.9810638129
 10
-26.9088935899
 20
13.9050069707
 10
-26.9430060362
 20
13.8265312962
 10
-26.9720114404
 20
13.7458824914
 10
-26.9953381963
 20
13.664478857
 10
-27.0128686247
 20
13.5829040703
 10
-27.0253212429
 20
13.4936435309
  0
LWPOLYLINE
  5
243
100
AcDbEntity
  8
0
100
AcDbPolyline
 62
250
  6
CONTINUOUS
 90
10
 70
0
 10
-21.1793799544
 20
17.6139979466
 10
-21.1589479133
 20
17.6234884154
 10
-21.1367394361
 20
17.6307003815
 10
-21.1135736134
 20
17.6352670065
 10
-21.089650583
 20
17.6372033703
 10
-21.0650704324
 20
17.6365494237
 10
-21.038820506
 20
17.6331418097
 10
-21.0105889109
 20
17.6265697595
 10
-20.9808826175
 20
17.6165725653
 10
-20.9498758832
 20
17.6028816731
  0
LINE
  5
244
100
AcDbEntity
  8
RACCORDO
100
AcDbLine
 62
7
  6
CONTINUOUS
 10
-26.3636275569
 20
14.4671004953
 11
-22.1337601482
 21
16.3348039773
  0
LINE
  5
245
100
AcDbEntity
  8
RACCORDO
100
AcDbLine
 62
250
  6
CONTINUOUS
 10
-26.1400076488
 20
14.4527339138
 11
-21.9120185298
 21
16.3196080184
  0
LWPOLYLINE
  5
246
100
AcDbEntity
  8
RACCORDO
100
AcDbPolyline
 62
250
  6
CONTINUOUS
 90
8
 70
0
 10
-26.3635551743
 20
14.4671324721
 10
-26.3554749975
 20
14.4705034278
 10
-26.322678428
 20
14.4804606355
 10
-26.2881179826
 20
14.4852634924
 10
-26.2521720928
 20
14.4848594078
 10
-26.2152343604
 20
14.4792528065
 10
-26.1777092477
 20
14.4685050799
 10
-26.1400076488
 20
14.4527339138
  0
LWPOLYLINE
  5
247
100
AcDbEntity
  8
RACCORDO
100
AcDbPolyline
 62
250
  6
CONTINUOUS
 90
13
 70
0
 10
-6.4375470108
 20
-23.6924453053
 10
-6.4181204652
 20
-23.7007649142
 10
-6.3966699184
 20
-23.7074174742
 10
-6.3735543555
 20
-23.7122916514
 10
-6.349160627
 20
-23.715305874
 10
-6.3238969737
 20
-23.7164096975
 10
-6.2981861953
 20
-23.715584649
 10
-6.2724585741
 20
-23.712844536
 10
-6.2471446745
 20
-23.7082352156
 10
-6.2226681369
 20
-23.7018338272
 10
-6.1994385882
 20
-23.6937475012
 10
-6.1778447862
 20
-23.6841115663
 10
-6.1582481138
 20
-23.6730872844
  0
LINE
  5
248
100
AcDbEntity
  8
0
100
AcDbLine
 62
7
  6
CONTINUOUS
 10
-21.3454744304
 20
16.0363359687
 11
-21.3454744304
 21
17.294585296
  0
LINE
  5
249
100
AcDbEntity
  8
0
100
AcDbLine
 62
250
  6
CONTINUOUS
 10
-21.3015404475
 20
16.0143689773
 11
-21.3015404475
 21
17.2415523199
  0
LINE
  5
24A
100
AcDbEntity
  8
0
100
AcDbLine
 62
7
  6
CONTINUOUS
 10
-21.3435938606
 20
17.3379766099
 11
-21.3454744301
 21
17.2945900751
  0
LWPOLYLINE
  5
24B
100
AcDbEntity
  8
0
100
AcDbPolyline
 62
250
  6
CONTINUOUS
 90
5
 70
0
 10
-21.3015404475
 20
17.2415523199
 10
-21.2997506014
 20
17.2732451178
 10
-21.2957701403
 20
17.3022614291
 10
-21.2895990643
 20
17.3286012538
 10
-21.2809164357
 20
17.3523398975
  0
LWPOLYLINE
  5
24C
100
AcDbEntity
  8
RACCORDO
100
AcDbPolyline
 62
7
  6
CONTINUOUS
 90
7
 70
0
 10
-18.3374242149
 20
14.8367673168
 10
-18.3699596977
 20
14.8136244323
 10
-18.4084629464
 20
14.7799194845
 10
-18.4444934523
 20
14.7401814843
 10
-18.4765331811
 20
14.6951047547
 10
-18.5034827642
 20
14.6455516374
 10
-18.5134954675
 20
14.6203464873
  0
LWPOLYLINE
  5
24D
100
AcDbEntity
  8
0
100
AcDbPolyline
 62
7
  6
CONTINUOUS
 90
5
 70
0
 10
-16.5299941603
 20
16.1028268151
 10
-16.5433480679
 20
16.0941045149
 10
-16.5569301833
 20
16.0843869473
 10
-16.5713436195
 20
16.0727637171
 10
-16.5860236845
 20
16.0589937072
  0
LINE
  5
24E
100
AcDbEntity
  8
DRAFT
100
AcDbLine
 62
7
  6
CONTINUOUS
 10
-17.9450920175
 20
15.0905244786
 11
-18.3374705044
 21
14.836737386
  0
LINE
  5
24F
100
AcDbEntity
  8
RACCORDO
100
AcDbLine
 62
250
  6
CONTINUOUS
 10
-18.3374260327
 20
14.836766141
 11
-18.3374723218
 21
14.8367362106
  0
LWPOLYLINE
  5
250
100
AcDbEntity
  8
0
100
AcDbPolyline
 62
250
  6
CONTINUOUS
 90
10
 70
0
 10
-16.3611397773
 20
16.0798785377
 10
-16.3853868374
 20
16.0646628933
 10
-16.4088400632
 20
16.0447900939
 10
-16.4308025491
 20
16.0208506537
 10
-16.4506216864
 20
15.993555926
 10
-16.4677085553
 20
15.9637169657
 10
-16.4815554246
 20
15.9322204284
 10
-16.4917508387
 20
15.9000022244
 10
-16.4979918439
 20
15.8680197081
 10
-16.5000929906
 20
15.8372232303
  0
LWPOLYLINE
  5
251
100
AcDbEntity
  8
0
100
AcDbPolyline
 62
7
  6
CONTINUOUS
 90
3
 70
0
 10
-16.4994834573
 20
16.1207903837
 10
-16.5154933679
 20
16.1116344911
 10
-16.5299941603
 20
16.1028268151
  0
LWPOLYLINE
  5
252
100
AcDbEntity
  8
RACCORDO
100
AcDbPolyline
 62
7
  6
CONTINUOUS
 90
3
 70
0
 10
-18.4855358925
 20
15.2594780892
 10
-18.6696723447
 20
15.1602207323
 10
-19.0982449157
 20
14.9127212114
  0
LINE
  5
253
100
AcDbEntity
  8
RACCORDO
100
AcDbLine
 62
7
  6
CONTINUOUS
 10
-18.4794425986
 20
15.2627090296
 11
-18.4855216611
 21
15.2594977343
  0
LINE
  5
254
100
AcDbEntity
  8
DRAFT
100
AcDbLine
 62
7
  6
CONTINUOUS
 10
-18.3436597112
 20
15.3343901114
 11
-18.4793886969
 21
15.2627374849
  0
LINE
  5
255
100
AcDbEntity
  8
0
100
AcDbLine
 62
250
  6
CONTINUOUS
 10
-17.5477454494
 20
15.7131924821
 11
-17.6129763969
 21
15.678790823
  0
LINE
  5
256
100
AcDbEntity
  8
0
100
AcDbLine
 62
250
  6
CONTINUOUS
 10
-17.2362285051
 20
15.7460580105
 11
-17.3946236637
 21
15.6625218204
  0
LWPOLYLINE
  5
257
100
AcDbEntity
  8
ASSI
100
AcDbPolyline
 62
7
  6
CONTINUOUS
 90
15
 70
0
 10
-7.8023888034
 20
18.9955942806
 10
-7.9076488492
 20
18.9402118558
 10
-8.0058826587
 20
18.8819612396
 10
-8.0967992873
 20
18.821059711
 10
-8.1800834429
 20
18.7577805966
 10
-8.2555604778
 20
18.6923077722
 10
-8.3231463764
 20
18.6247207528
 10
-8.3826493173
 20
18.5552036633
 10
-8.4338226626
 20
18.4840354587
 10
-8.4764939679
 20
18.4114345188
 10
-8.5105155577
 20
18.337649891
 10
-8.5357718273
 20
18.2629289554
 10
-8.5521759029
 20
18.1874930068
 10
-8.5596648579
 20
18.1115656702
 10
-8.5601713424
 20
18.0859794444
  0
LWPOLYLINE
  5
258
100
AcDbEntity
  8
SMUSSO
100
AcDbPolyline
 62
7
  6
CONTINUOUS
 90
15
 70
0
 10
-7.8023888034
 20
18.9955942806
 10
-7.9076488492
 20
18.9402118558
 10
-8.0058826587
 20
18.8819612396
 10
-8.0967992873
 20
18.821059711
 10
-8.1800834429
 20
18.7577805966
 10
-8.2555604778
 20
18.6923077722
 10
-8.3231463764
 20
18.6247207528
 10
-8.3826493173
 20
18.5552036633
 10
-8.4338226626
 20
18.4840354587
 10
-8.4764939679
 20
18.4114345188
 10
-8.5105155577
 20
18.337649891
 10
-8.5357718273
 20
18.2629289554
 10
-8.5521759029
 20
18.1874930068
 10
-8.5596648579
 20
18.1115656702
 10
-8.5601713424
 20
18.0859794444
  0
LWPOLYLINE
  5
259
100
AcDbEntity
  8
ASSI
100
AcDbPolyline
 62
7
  6
CONTINUOUS
 90
22
 70
0
 10
-8.1559941868
 20
19.6056094238
 10
-8.2816604029
 20
19.5396958518
 10
-8.398385875
 20
19.4708847032
 10
-8.506170603
 20
19.3991759779
 10
-8.605237369
 20
19.3243571924
 10
-8.6953633909
 20
19.2466408303
 10
-8.7758803226
 20
19.1666643418
 10
-8.8467767435
 20
19.08436374
 10
-8.9080640741
 20
18.9998030118
 10
-8.9591082294
 20
18.9138115686
 10
-8.9998097444
 20
18.8263779322
 10
-9.0302680841
 20
18.7375135807
 10
-9.0501475582
 20
18.6480823601
 10
-9.0593297566
 20
18.5580411253
 10
-9.0579330894
 20
18.4674330214
 10
-9.0459770972
 20
18.377251329
 10
-9.0233466432
 20
18.2875399259
 10
-8.9901568642
 20
18.1982549343
 10
-8.9467727107
 20
18.1102580019
 10
-8.8931112878
 20
18.0235683429
 10
-8.8292554903
 20
17.9381667431
 10
-8.755818954
 20
17.8548572071
  0
LWPOLYLINE
  5
25A
100
AcDbEntity
  8
SMUSSO
100
AcDbPolyline
 62
7
  6
CONTINUOUS
 90
25
 70
0
 10
-8.1559941868
 20
19.6056094238
 10
-8.2816604029
 20
19.5396958518
 10
-8.398385875
 20
19.4708847032
 10
-8.506170603
 20
19.3991759779
 10
-8.605237369
 20
19.3243571924
 10
-8.6953633909
 20
19.2466408303
 10
-8.7758803226
 20
19.1666643418
 10
-8.8467767435
 20
19.08436374
 10
-8.9080640741
 20
18.9998030118
 10
-8.9591082294
 20
18.9138115686
 10
-8.9998097444
 20
18.8263779322
 10
-9.0302680841
 20
18.7375135807
 10
-9.0501475582
 20
18.6480823601
 10
-9.0593297566
 20
18.5580411253
 10
-9.0579330894
 20
18.4674330214
 10
-9.0459770972
 20
18.377251329
 10
-9.0233466432
 20
18.2875399259
 10
-8.9901568642
 20
18.1982549343
 10
-8.9467727107
 20
18.1102580019
 10
-8.8931112878
 20
18.0235683429
 10
-8.8292554903
 20
17.9381667431
 10
-8.755818954
 20
17.8548572071
 10
-8.6727237166
 20
17.7736562459
 10
-8.5800477403
 20
17.6945473485
 10
-8.5000673039
 20
17.6336279467
  0
LWPOLYLINE
  5
25B
100
AcDbEntity
  8
0
100
AcDbPolyline
 62
7
  6
CONTINUOUS
 90
3
 70
0
 10
-16.4615590366
 20
16.1409565374
 10
-16.4818137296
 20
16.1304019363
 10
-16.4994834573
 20
16.1207903837
  0
LINE
  5
25C
100
AcDbEntity
  8
0
100
AcDbLine
 62
7
  6
CONTINUOUS
 10
-16.4615590366
 20
16.1409565374
 11
-16.0945609629
 21
16.3245282214
  0
LINE
  5
25D
100
AcDbEntity
  8
0
100
AcDbLine
 62
250
  6
CONTINUOUS
 10
-16.4449191394
 20
16.1482995355
 11
-16.083709902
 21
16.3289352335
  0
LINE
  5
25E
100
AcDbEntity
  8
0
100
AcDbLine
 62
7
  6
CONTINUOUS
 10
-16.4481143533
 20
16.1477515261
 11
-16.4480546477
 21
16.1477813457
  0
LINE
  5
25F
100
AcDbEntity
  8
0
100
AcDbLine
 62
7
  6
CONTINUOUS
 10
-12.6110056941
 20
17.5530720578
 11
-14.0700104855
 21
16.8293949253
  0
LINE
  5
260
100
AcDbEntity
  8
ASSI
100
AcDbLine
 62
7
  6
CONTINUOUS
 10
-12.6110056941
 20
17.5530720578
 11
-14.0700104855
 21
16.8293949253
  0
LINE
  5
261
100
AcDbEntity
  8
ASSI
100
AcDbLine
 62
7
  6
CONTINUOUS
 10
-4.3287303549
 20
21.5039604993
 11
-8.1559941868
 21
19.6056094238
  0
LINE
  5
262
100
AcDbEntity
  8
RACCORDO
100
AcDbLine
 62
7
  6
CONTINUOUS
 10
-4.3287303549
 20
21.5039604993
 11
-8.1559941868
 21
19.6056094238
  0
LINE
  5
263
100
AcDbEntity
  8
ASSI
100
AcDbLine
 62
7
  6
CONTINUOUS
 10
-3.6338036849
 20
21.0632432306
 11
-7.8023888034
 21
18.9955942806
  0
LINE
  5
264
100
AcDbEntity
  8
SMUSSO
100
AcDbLine
 62
7
  6
CONTINUOUS
 10
-3.6338036849
 20
21.0632432306
 11
-7.8023888034
 21
18.9955942806
  0
LINE
  5
265
100
AcDbEntity
  8
0
100
AcDbLine
 62
250
  6
CONTINUOUS
 10
-15.8801327198
 20
16.3916111857
 11
-16.45955457
 21
16.1049774163
  0
LINE
  5
266
100
AcDbEntity
  8
0
100
AcDbLine
 62
250
  6
CONTINUOUS
 10
-15.8029250006
 20
16.381070705
 11
-16.3847737789
 21
16.0932149125
  0
LWPOLYLINE
  5
267
100
AcDbEntity
  8
0
100
AcDbPolyline
 62
250
  6
CONTINUOUS
 90
13
 70
0
 10
-16.3847737858
 20
16.0932141016
 10
-16.4050600427
 20
16.0833971267
 10
-16.424954496
 20
16.0708695473
 10
-16.4441248031
 20
16.0558452748
 10
-16.4622454976
 20
16.0385857266
 10
-16.4790226403
 20
16.0193776861
 10
-16.4941936526
 20
15.9985220433
 10
-16.5075088619
 20
15.9763540288
 10
-16.5187342418
 20
15.9532523951
 10
-16.5276742255
 20
15.9296122786
 10
-16.5341774876
 20
15.9058328083
 10
-16.5381363385
 20
15.8823094054
 10
-16.5394840079
 20
15.859436481
  0
LINE
  5
268
100
AcDbEntity
  8
ASSI
100
AcDbLine
 62
7
  6
CONTINUOUS
 10
-13.3534678228
 20
17.6382642277
 11
-13.975577494
 21
17.343314752
  0
LINE
  5
269
100
AcDbEntity
  8
0
100
AcDbLine
 62
7
  6
CONTINUOUS
 10
-13.3534678228
 20
17.6382642277
 11
-13.975577494
 21
17.343314752
  0
LINE
  5
26A
100
AcDbEntity
  8
0
100
AcDbLine
 62
7
  6
CONTINUOUS
 10
-13.975577494
 20
17.343314752
 11
-15.2326036151
 21
16.7475462702
  0
LINE
  5
26B
100
AcDbEntity
  8
ASSI
100
AcDbLine
 62
7
  6
CONTINUOUS
 10
-13.975577494
 20
17.343314752
 11
-15.7347598131
 21
16.5096180437
  0
LINE
  5
26C
100
AcDbEntity
  8
ASSI
100
AcDbLine
 62
7
  6
CONTINUOUS
 10
-15.7347598131
 20
16.5096180437
 11
-16.1002186395
 21
16.3364698721
  0
LINE
  5
26D
100
AcDbEntity
  8
0
100
AcDbLine
 62
7
  6
CONTINUOUS
 10
-15.2326036151
 20
16.7475462702
 11
-16.1002186395
 21
16.3364698721
  0
LINE
  5
26E
100
AcDbEntity
  8
ASSI
100
AcDbLine
 62
250
  6
CONTINUOUS
 10
-13.1817306943
 20
17.6937456339
 11
-16.0245938523
 21
16.3475903609
  0
LINE
  5
26F
100
AcDbEntity
  8
0
100
AcDbLine
 62
250
  6
CONTINUOUS
 10
-13.1817306943
 20
17.6937456339
 11
-16.0245938523
 21
16.3475903609
  0
LINE
  5
270
100
AcDbEntity
  8
ASSI
100
AcDbLine
 62
250
  6
CONTINUOUS
 10
-12.7904630842
 20
17.6428007529
 11
-15.6337864055
 21
16.2965014074
  0
LINE
  5
271
100
AcDbEntity
  8
0
100
AcDbLine
 62
250
  6
CONTINUOUS
 10
-12.7904630842
 20
17.6428007529
 11
-15.6337864055
 21
16.2965014074
  0
LINE
  5
272
100
AcDbEntity
  8
ASSI
100
AcDbLine
 62
7
  6
CONTINUOUS
 10
-14.5346671653
 20
17.1650319825
 11
-16.7444008674
 21
16.1204908541
  0
LINE
  5
273
100
AcDbEntity
  8
0
100
AcDbLine
 62
7
  6
CONTINUOUS
 10
-14.5346671653
 20
17.1650319825
 11
-16.9719223634
 21
16.0129414422
  0
LINE
  5
274
100
AcDbEntity
  8
RACCORDO
100
AcDbLine
 62
7
  6
CONTINUOUS
 10
-12.418452861
 20
18.1341612334
 11
-13.8276136437
 21
17.4686553392
  0
LINE
  5
275
100
AcDbEntity
  8
RACCORDO
100
AcDbLine
 62
250
  6
CONTINUOUS
 10
-12.1987628744
 20
18.1180767042
 11
-13.0583721894
 21
17.7121104653
  0
LINE
  5
276
100
AcDbEntity
  8
ASSI
100
AcDbLine
 62
250
  6
CONTINUOUS
 10
-12.1987628744
 20
18.1180767042
 11
-13.0583721894
 21
17.7121104653
  0
LINE
  5
277
100
AcDbEntity
  8
ASSI
100
AcDbLine
 62
7
  6
CONTINUOUS
 10
-16.3840042597
 20
16.2613532123
 11
-16.707460829
 21
16.108619655
  0
LINE
  5
278
100
AcDbEntity
  8
0
100
AcDbLine
 62
7
  6
CONTINUOUS
 10
-16.3840042597
 20
16.2613532123
 11
-16.707460829
 21
16.108619655
  0
LINE
  5
279
100
AcDbEntity
  8
ASSI
100
AcDbLine
 62
7
  6
CONTINUOUS
 10
-15.8626172598
 20
16.5075115608
 11
-16.3840042597
 21
16.2613532123
  0
LINE
  5
27A
100
AcDbEntity
  8
0
100
AcDbLine
 62
7
  6
CONTINUOUS
 10
-15.8626172598
 20
16.5075115608
 11
-16.3840042597
 21
16.2613532123
  0
LINE
  5
27B
100
AcDbEntity
  8
ASSI
100
AcDbLine
 62
7
  6
CONTINUOUS
 10
-13.8273843818
 20
17.4681698935
 11
-15.8626172598
 21
16.5075115608
  0
LINE
  5
27C
100
AcDbEntity
  8
0
100
AcDbLine
 62
7
  6
CONTINUOUS
 10
-13.8273843818
 20
17.4681698935
 11
-15.8626172598
 21
16.5075115608
  0
LINE
  5
27D
100
AcDbEntity
  8
ASSI
100
AcDbLine
 62
7
  6
CONTINUOUS
 10
-12.4181699662
 20
18.1342945511
 11
-13.8276136437
 21
17.4686553392
  0
LINE
  5
27E
100
AcDbEntity
  8
ASSI
100
AcDbLine
 62
7
  6
CONTINUOUS
 10
-4.6406194746
 20
21.5477329074
 11
-11.8879379834
 21
18.1316977646
  0
LINE
  5
27F
100
AcDbEntity
  8
RACCORDO
100
AcDbLine
 62
7
  6
CONTINUOUS
 10
-4.6406167983
 20
21.5477292611
 11
-11.8879379783
 21
18.1316977544
  0
LINE
  5
280
100
AcDbEntity
  8
ASSI
100
AcDbLine
 62
250
  6
CONTINUOUS
 10
-4.3773416413
 20
21.5282661425
 11
-11.7441119962
 21
18.0559255942
  0
LINE
  5
281
100
AcDbEntity
  8
RACCORDO
100
AcDbLine
 62
250
  6
CONTINUOUS
 10
-4.3773416413
 20
21.5282661425
 11
-11.7441119962
 21
18.0559255942
  0
LINE
  5
282
100
AcDbEntity
  8
RACCORDO
100
AcDbLine
 62
7
  6
CONTINUOUS
 10
-13.8036102893
 20
16.6961948272
 11
-13.5428562923
 21
16.8177733452
  0
LINE
  5
283
100
AcDbEntity
  8
RACCORDO
100
AcDbLine
 62
250
  6
CONTINUOUS
 10
-13.7544864634
 20
16.6716329143
 11
-13.4583401017
 21
16.8097133893
  0
LINE
  5
284
100
AcDbEntity
  8
RACCORDO
100
AcDbLine
 62
250
  6
CONTINUOUS
 10
-13.5428562923
 20
16.8177733452
 11
-13.5427873404
 21
16.8178054488
  0
LWPOLYLINE
  5
285
100
AcDbEntity
  8
RACCORDO
100
AcDbPolyline
 62
250
  6
CONTINUOUS
 90
3
 70
0
 10
-17.6129763969
 20
15.678790823
 10
-18.1062353163
 20
15.4519184213
 10
-18.4794425986
 20
15.2627090296
  0
LWPOLYLINE
  5
286
100
AcDbEntity
  8
RACCORDO
100
AcDbPolyline
 62
250
  6
CONTINUOUS
 90
4
 70
0
 10
-17.665632325
 20
15.4501569346
 10
-18.1562313109
 20
15.2244349
 10
-18.6373543793
 20
14.9774955331
 10
-18.9136339987
 20
14.8204157529
  0
LWPOLYLINE
  5
287
100
AcDbEntity
  8
0
100
AcDbPolyline
 62
7
  6
CONTINUOUS
 90
3
 70
0
 10
-17.5961918286
 20
15.6919407368
 10
-18.0424356722
 20
15.4872041369
 10
-18.3436483126
 20
15.334367777
  0
LINE
  5
288
100
AcDbEntity
  8
RACCORDO
100
AcDbLine
 62
7
  6
CONTINUOUS
 10
-12.3901156249
 20
18.1467094874
 11
-12.4186352882
 21
18.1340775448
  0
LWPOLYLINE
  5
289
100
AcDbEntity
  8
0
100
AcDbPolyline
 62
7
  6
CONTINUOUS
 90
4
 70
0
 10
-17.5477454494
 20
15.7131924821
 10
-17.5805353631
 20
15.698706525
 10
-17.5884364264
 20
15.6952636373
 10
-17.5961918286
 20
15.6919407368
  0
LINE
  5
28A
100
AcDbEntity
  8
ASSI
100
AcDbLine
 62
7
  6
CONTINUOUS
 10
-4.609321587
 20
21.5612760493
 11
-4.6425845699
 21
21.5467917503
  0
LINE
  5
28B
100
AcDbEntity
  8
RACCORDO
100
AcDbLine
 62
250
  6
CONTINUOUS
 10
-4.6406167983
 20
21.5477292611
 11
-4.6272789693
 21
21.553498668
  0
LWPOLYLINE
  5
28C
100
AcDbEntity
  8
ASSI
100
AcDbPolyline
 62
250
  6
CONTINUOUS
 90
9
 70
0
 10
-12.1032542941
 20
18.1155968582
 10
-12.0731404938
 20
18.1284272626
 10
-12.0432930167
 20
18.1379917068
 10
-12.0139290147
 20
18.1442207558
 10
-11.9852619732
 20
18.1470692653
 10
-11.9575005879
 20
18.1465166535
 10
-11.9308471971
 20
18.1425672177
 10
-11.905495746
 20
18.1352500901
 10
-11.8858098856
 20
18.1267745389
  0
LWPOLYLINE
  5
28D
100
AcDbEntity
  8
RACCORDO
100
AcDbPolyline
 62
250
  6
CONTINUOUS
 90
9
 70
0
 10
-12.1032542941
 20
18.1155968582
 10
-12.0731404938
 20
18.1284272626
 10
-12.0432930167
 20
18.1379917068
 10
-12.0139290147
 20
18.1442207558
 10
-11.9852619732
 20
18.1470692653
 10
-11.9575005879
 20
18.1465166535
 10
-11.9308471971
 20
18.1425672177
 10
-11.905495746
 20
18.1352500901
 10
-11.8858098856
 20
18.1267745389
  0
LINE
  5
28E
100
AcDbEntity
  8
ASSI
100
AcDbLine
 62
7
  6
CONTINUOUS
 10
-16.707460829
 20
16.108619655
 11
-16.9558645663
 21
16.0049125437
  0
LINE
  5
28F
100
AcDbEntity
  8
0
100
AcDbLine
 62
7
  6
CONTINUOUS
 10
-16.707460829
 20
16.108619655
 11
-16.9558645663
 21
16.0049125437
  0
LINE
  5
290
100
AcDbEntity
  8
ASSI
100
AcDbLine
 62
7
  6
CONTINUOUS
 10
-12.6110056941
 20
16.6000543931
 11
-12.7894795234
 21
16.5256848171
  0
LINE
  5
291
100
AcDbEntity
  8
0
100
AcDbLine
 62
7
  6
CONTINUOUS
 10
-12.6110056941
 20
16.6000543931
 11
-12.7894795234
 21
16.5256848171
  0
LINE
  5
292
100
AcDbEntity
  8
0
100
AcDbLine
 62
7
  6
CONTINUOUS
 10
-16.0945295058
 20
16.3244653193
 11
-16.0837139256
 21
16.328933951
  0
LINE
  5
293
100
AcDbEntity
  8
RACCORDO
100
AcDbLine
 62
7
  6
CONTINUOUS
 10
-13.5252250308
 20
16.8249928072
 11
-13.5427873404
 21
16.8178054488
  0
LINE
  5
294
100
AcDbEntity
  8
0
100
AcDbLine
 62
250
  6
CONTINUOUS
 10
-16.4480546477
 20
16.1477813457
 11
-16.4372673161
 21
16.1521572557
  0
LWPOLYLINE
  5
295
100
AcDbEntity
  8
ASSI
100
AcDbPolyline
 62
7
  6
CONTINUOUS
 90
7
 70
0
 10
-13.8273843818
 20
17.4681698935
 10
-13.9547596803
 20
17.4180552781
 10
-14.0813708386
 20
17.366334305
 10
-14.2072178567
 20
17.313006974
 10
-14.332308464
 20
17.2580696649
 10
-14.4566349312
 20
17.2015259979
 10
-14.5346671348
 20
17.1650319201
  0
LWPOLYLINE
  5
296
100
AcDbEntity
  8
RACCORDO
100
AcDbPolyline
 62
7
  6
CONTINUOUS
 90
7
 70
0
 10
-13.8273843818
 20
17.4681698935
 10
-13.9547596803
 20
17.4180552781
 10
-14.0813708386
 20
17.366334305
 10
-14.2072178567
 20
17.313006974
 10
-14.332308464
 20
17.2580696649
 10
-14.4566349312
 20
17.2015259979
 10
-14.5346671348
 20
17.1650319201
  0
LWPOLYLINE
  5
297
100
AcDbEntity
  8
ASSI
100
AcDbPolyline
 62
7
  6
CONTINUOUS
 90
3
 70
0
 10
-12.3549839847
 20
18.1599470754
 10
-12.4058507413
 20
18.1399529876
 10
-12.4181711746
 20
18.1342965522
  0
LINE
  5
298
100
AcDbEntity
  8
RACCORDO
100
AcDbLine
 62
7
  6
CONTINUOUS
 10
-12.3441008124
 20
18.163543517
 11
-12.3901156249
 21
18.1467094874
  0
LWPOLYLINE
  5
299
100
AcDbEntity
  8
RACCORDO
100
AcDbPolyline
 62
7
  6
CONTINUOUS
 90
3
 70
0
 10
-4.5665247042
 20
21.576170696
 10
-4.6157821518
 20
21.5586734569
 10
-4.641250948
 20
21.5474296187
  0
LINE
  5
29A
100
AcDbEntity
  8
ASSI
100
AcDbLine
 62
7
  6
CONTINUOUS
 10
-13.296356242
 20
17.6570701285
 11
-13.3534678228
 21
17.6382642277
  0
LINE
  5
29B
100
AcDbEntity
  8
0
100
AcDbLine
 62
7
  6
CONTINUOUS
 10
-13.296356242
 20
17.6570701285
 11
-13.3534678228
 21
17.6382642277
  0
LINE
  5
29C
100
AcDbEntity
  8
0
100
AcDbLine
 62
7
  6
CONTINUOUS
 10
-16.1864392884
 20
16.2956205318
 11
-16.1408369638
 21
16.3105503247
  0
LINE
  5
29D
100
AcDbEntity
  8
ASSI
100
AcDbLine
 62
7
  6
CONTINUOUS
 10
-16.1326270322
 20
16.3132142482
 11
-16.1864392884
 21
16.2956205318
  0
LWPOLYLINE
  5
29E
100
AcDbEntity
  8
RACCORDO
100
AcDbPolyline
 62
250
  6
CONTINUOUS
 90
6
 70
0
 10
-13.5427873404
 20
16.8178054488
 10
-13.5266376401
 20
16.8230566821
 10
-13.5105995081
 20
16.8245172372
 10
-13.4936762392
 20
16.8227469157
 10
-13.4761560115
 20
16.8177821709
 10
-13.4583401017
 20
16.8097133893
  0
LINE
  5
29F
100
AcDbEntity
  8
ASSI
100
AcDbLine
 62
7
  6
CONTINUOUS
 10
-13.2391105325
 20
17.6755639306
 11
-13.296356242
 21
17.6570701285
  0
LINE
  5
2A0
100
AcDbEntity
  8
0
100
AcDbLine
 62
7
  6
CONTINUOUS
 10
-13.2391105325
 20
17.6755639306
 11
-13.296356242
 21
17.6570701285
  0
LINE
  5
2A1
100
AcDbEntity
  8
0
100
AcDbLine
 62
7
  6
CONTINUOUS
 10
-16.1408369638
 20
16.3105503247
 11
-16.0951491913
 21
16.3252819981
  0
LINE
  5
2A2
100
AcDbEntity
  8
ASSI
100
AcDbLine
 62
7
  6
CONTINUOUS
 10
-16.0786784986
 20
16.3305375419
 11
-16.1326270322
 21
16.3132142482
  0
LINE
  5
2A3
100
AcDbEntity
  8
ASSI
100
AcDbLine
 62
7
  6
CONTINUOUS
 10
-13.1817306943
 20
17.6937456339
 11
-13.2391105325
 21
17.6755639306
  0
LINE
  5
2A4
100
AcDbEntity
  8
0
100
AcDbLine
 62
7
  6
CONTINUOUS
 10
-13.1817306943
 20
17.6937456339
 11
-13.2391105325
 21
17.6755639306
  0
LINE
  5
2A5
100
AcDbEntity
  8
0
100
AcDbLine
 62
7
  6
CONTINUOUS
 10
-16.0443190431
 20
16.3414073833
 11
-16.0951491913
 21
16.3252819981
  0
LWPOLYLINE
  5
2A6
100
AcDbEntity
  8
ASSI
100
AcDbPolyline
 62
250
  6
CONTINUOUS
 90
8
 70
0
 10
-4.6272789693
 20
21.553498668
 10
-4.595325576
 20
21.5635229112
 10
-4.561664551
 20
21.5690243426
 10
-4.5265544014
 20
21.5699413209
 10
-4.4902747953
 20
21.5662836631
 10
-4.4531142777
 20
21.5580812124
 10
-4.4153645068
 20
21.5453660597
 10
-4.3773420038
 20
21.5282407978
  0
LWPOLYLINE
  5
2A7
100
AcDbEntity
  8
RACCORDO
100
AcDbPolyline
 62
250
  6
CONTINUOUS
 90
8
 70
0
 10
-4.6272789693
 20
21.553498668
 10
-4.595325576
 20
21.5635229112
 10
-4.561664551
 20
21.5690243426
 10
-4.5265544014
 20
21.5699413209
 10
-4.4902747953
 20
21.5662836631
 10
-4.4531142777
 20
21.5580812124
 10
-4.4153645068
 20
21.5453660597
 10
-4.3773420038
 20
21.5282407978
  0
LINE
  5
2A8
100
AcDbEntity
  8
ASSI
100
AcDbLine
 62
7
  6
CONTINUOUS
 10
-16.0245936877
 20
16.3475904131
 11
-16.0786784986
 21
16.3305375419
  0
LINE
  5
2A9
100
AcDbEntity
  8
0
100
AcDbLine
 62
7
  6
CONTINUOUS
 10
-16.0005758015
 20
16.3550628248
 11
-16.0443190431
 21
16.3414073833
  0
LINE
  5
2AA
100
AcDbEntity
  8
0
100
AcDbLine
 62
7
  6
CONTINUOUS
 10
-15.9524691315
 20
16.3698449617
 11
-16.0005758015
 21
16.3550628248
  0
LWPOLYLINE
  5
2AB
100
AcDbEntity
  8
0
100
AcDbPolyline
 62
7
  6
CONTINUOUS
 90
3
 70
0
 10
-15.8801327054
 20
16.3916111899
 10
-15.9042683703
 20
16.3844100442
 10
-15.9524691315
 20
16.3698449617
  0
LINE
  5
2AC
100
AcDbEntity
  8
ASSI
100
AcDbLine
 62
7
  6
CONTINUOUS
 10
-12.3054214081
 20
18.1744352093
 11
-12.3549839847
 21
18.1599470754
  0
LINE
  5
2AD
100
AcDbEntity
  8
RACCORDO
100
AcDbLine
 62
250
  6
CONTINUOUS
 10
-8.0678510562
 20
-19.4385814618
 11
-8.2212062025
 21
-19.3619038887
  0
LINE
  5
2AE
100
AcDbEntity
  8
RACCORDO
100
AcDbLine
 62
7
  6
CONTINUOUS
 10
-6.9146679275
 20
-19.2453065681
 11
-7.0207339447
 21
-19.1922735595
  0
LWPOLYLINE
  5
2AF
100
AcDbEntity
  8
RACCORDO
100
AcDbPolyline
 62
250
  6
CONTINUOUS
 90
4
 70
0
 10
-8.1246551932
 20
-19.3201092801
 10
-8.1207570668
 20
-19.3228518203
 10
-8.1046335008
 20
-19.339615739
 10
-8.0911004212
 20
-19.3598964388
  0
LWPOLYLINE
  5
2B0
100
AcDbEntity
  8
RACCORDO
100
AcDbPolyline
 62
250
  6
CONTINUOUS
 90
10
 70
0
 10
-6.6070466921
 20
-24.4677785078
 10
-6.5850878271
 20
-24.4919798608
 10
-6.559940335
 20
-24.5130706568
 10
-6.5322814548
 20
-24.5304829062
 10
-6.502856059
 20
-24.5437476852
 10
-6.4724565934
 20
-24.5525077641
 10
-6.4419017362
 20
-24.5565272279
 10
-6.4120143503
 20
-24.5556978295
 10
-6.3835993234
 20
-24.5500419051
 10
-6.3574218914
 20
-24.5397117725
  0
LWPOLYLINE
  5
2B1
100
AcDbEntity
  8
0
100
AcDbPolyline
 62
250
  6
CONTINUOUS
 90
6
 70
0
 10
-21.3454744304
 20
17.294585296
 10
-21.3447971619
 20
17.2874662744
 10
-21.3401335135
 20
17.2747500405
 10
-21.3311718234
 20
17.2626235395
 10
-21.3181786883
 20
17.2514469754
 10
-21.3015404475
 20
17.2415523199
  0
LWPOLYLINE
  5
2B2
100
AcDbEntity
  8
RACCORDO
100
AcDbPolyline
 62
250
  6
CONTINUOUS
 90
16
 70
0
 10
-17.7056026664
 20
14.2164000867
 10
-17.7062981818
 20
14.2330173911
 10
-17.7124601742
 20
14.2837474705
 10
-17.7226564224
 20
14.3354420338
 10
-17.7367739325
 20
14.3875322895
 10
-17.7546577252
 20
14.4394489205
 10
-17.7761126348
 20
14.4906256242
 10
-17.8009057411
 20
14.5405050971
 10
-17.8287635983
 20
14.5885363886
 10
-17.85937483
 20
14.6341849928
 10
-17.8924005174
 20
14.676949742
 10
-17.9274794776
 20
14.7163661348
 10
-17.964226291
 20
14.7520035855
 10
-18.0022377122
 20
14.7834739042
 10
-18.0410972074
 20
14.8104353171
 10
-18.0803792759
 20
14.8325954355
  0
LWPOLYLINE
  5
2B3
100
AcDbEntity
  8
RACCORDO
100
AcDbPolyline
 62
250
  6
CONTINUOUS
 90
10
 70
0
 10
-17.5325227436
 20
15.4415019691
 10
-17.528022802
 20
15.470707319
 10
-17.5200945493
 20
15.5004142693
 10
-17.5089379558
 20
15.529873239
 10
-17.4948344538
 20
15.5583408882
 10
-17.4781398615
 20
15.5850988318
 10
-17.4592754209
 20
15.6094717785
 10
-17.4387171341
 20
15.6308446337
 10
-17.4169837421
 20
15.6486780132
 10
-17.3946236656
 20
15.6625218212
  0
LWPOLYLINE
  5
2B4
100
AcDbEntity
  8
RACCORDO
100
AcDbPolyline
 62
250
  6
CONTINUOUS
 90
10
 70
0
 10
-7.4736459161
 20
17.1561709987
 10
-7.4359094095
 20
17.181527096
 10
-7.3640416795
 20
17.2250588774
 10
-7.2880916815
 20
17.2666133742
 10
-7.2080380056
 20
17.3061678998
 10
-7.1239020617
 20
17.3437451408
 10
-7.0363233231
 20
17.3790643085
 10
-6.9452791229
 20
17.4121083692
 10
-6.8507921279
 20
17.4428943565
 10
-6.7535698121
 20
17.4711925832
  0
LWPOLYLINE
  5
2B5
100
AcDbEntity
  8
0
100
AcDbPolyline
 62
250
  6
CONTINUOUS
 90
10
 70
0
 10
-10.8457068841
 20
13.3221620911
 10
-10.8699539759
 20
13.3069464125
 10
-10.893407221
 20
13.2870735753
 10
-10.915369713
 20
13.2631341026
 10
-10.9351888433
 20
13.2358393564
 10
-10.9522756968
 20
13.2060003952
 10
-10.9661225492
 20
13.1745038716
 10
-10.9763179495
 20
13.1422856934
 10
-10.9825589474
 20
13.110303215
 10
-10.9846600973
 20
13.0795067837
  0
LINE
  5
2B6
100
AcDbEntity
  8
RACCORDO
100
AcDbLine
 62
250
  6
CONTINUOUS
 10
-9.1938228054
 20
14.6774547411
 11
-9.4699837554
 21
14.5293815603
  0
LINE
  5
2B7
100
AcDbEntity
  8
0
100
AcDbLine
 62
7
  6
CONTINUOUS
 10
-6.9117250377
 20
17.3566348622
 11
-7.3716945019
 21
17.1266501301
  0
LINE
  5
2B8
100
AcDbEntity
  8
RACCORDO
100
AcDbLine
 62
7
  6
CONTINUOUS
 10
-5.5151475134
 20
16.9306238423
 11
-4.4987814163
 21
17.4388068909
  0
LINE
  5
2B9
100
AcDbEntity
  8
ASSI
100
AcDbLine
 62
7
  6
CONTINUOUS
 10
-6.6694646557
 20
17.5431976968
 11
-6.7519599231
 21
17.5050986485
  0
LINE
  5
2BA
100
AcDbEntity
  8
DRAFT
100
AcDbLine
 62
7
  6
CONTINUOUS
 10
-6.6694646557
 20
17.5431976968
 11
-6.7519599231
 21
17.5050986485
  0
LINE
  5
2BB
100
AcDbEntity
  8
ASSI
100
AcDbLine
 62
7
  6
CONTINUOUS
 10
0.5443310932
 20
19.2714037822
 11
-3.6309845994
 21
17.3431046301
  0
LINE
  5
2BC
100
AcDbEntity
  8
RACCORDO
100
AcDbLine
 62
7
  6
CONTINUOUS
 10
0.5443310932
 20
19.2714037822
 11
-3.6309845994
 21
17.3431046301
  0
LINE
  5
2BD
100
AcDbEntity
  8
ASSI
100
AcDbLine
 62
7
  6
CONTINUOUS
 10
-7.802679582
 20
15.1489090018
 11
-9.3135232715
 21
14.4511513183
  0
LINE
  5
2BE
100
AcDbEntity
  8
0
100
AcDbLine
 62
7
  6
CONTINUOUS
 10
-7.802679582
 20
15.1489090018
 11
-9.3135232715
 21
14.4511513183
  0
LINE
  5
2BF
100
AcDbEntity
  8
ASSI
100
AcDbLine
 62
7
  6
CONTINUOUS
 10
-7.8023888034
 20
17.8929966058
 11
-3.6338036849
 21
19.7790259244
  0
LINE
  5
2C0
100
AcDbEntity
  8
DRAFT
100
AcDbLine
 62
7
  6
CONTINUOUS
 10
-7.8023888034
 20
17.8929966058
 11
-3.6338036849
 21
19.7790259244
  0
LWPOLYLINE
  5
2C1
100
AcDbEntity
  8
RACCORDO
100
AcDbPolyline
 62
250
  6
CONTINUOUS
 90
9
 70
0
 10
-9.1938228054
 20
14.6774547411
 10
-9.1814971221
 20
14.6829584852
 10
-9.1692652446
 20
14.6871021472
 10
-9.1572202651
 20
14.6898541913
 10
-9.1454538529
 20
14.6911936729
 10
-9.1340555577
 20
14.6911103977
 10
-9.1231121273
 20
14.6896049994
 10
-9.1127068479
 20
14.6866889351
 10
-9.1044769461
 20
14.6831834411
  0
LINE
  5
2C2
100
AcDbEntity
  8
ASSI
100
AcDbLine
 62
7
  6
CONTINUOUS
 10
-10.8060973301
 20
17.1051738024
 11
-11.2675028098
 21
16.9473245593
  0
LINE
  5
2C3
100
AcDbEntity
  8
0
100
AcDbLine
 62
7
  6
CONTINUOUS
 10
-10.8060973301
 20
17.1051738024
 11
-11.2675028098
 21
16.9473245593
  0
LINE
  5
2C4
100
AcDbEntity
  8
DRAFT
100
AcDbLine
 62
7
  6
CONTINUOUS
 10
-5.0449631354
 20
-18.4427739563
 11
-5.1510291525
 21
-18.3897409477
  0
LINE
  5
2C5
100
AcDbEntity
  8
ASSI
100
AcDbLine
 62
7
  6
CONTINUOUS
 10
-16.1851105145
 20
16.2792534455
 11
-16.1864392884
 21
16.2956205318
  0
LINE
  5
2C6
100
AcDbEntity
  8
0
100
AcDbLine
 62
7
  6
CONTINUOUS
 10
-16.1851105145
 20
16.2792534455
 11
-16.1864392884
 21
16.2956205318
  0
LINE
  5
2C7
100
AcDbEntity
  8
0
100
AcDbLine
 62
7
  6
CONTINUOUS
 10
-16.646533281
 20
15.5175760985
 11
-16.6432564347
 21
15.4751403762
  0
LWPOLYLINE
  5
2C8
100
AcDbEntity
  8
0
100
AcDbPolyline
 62
250
  6
CONTINUOUS
 90
7
 70
0
 10
-16.5000929906
 20
15.3418472035
 10
-16.4979918439
 20
15.3131518724
 10
-16.4917508387
 20
15.2874103613
 10
-16.4815554246
 20
15.2653875714
 10
-16.4677085553
 20
15.2477379034
 10
-16.4506216864
 20
15.2349858119
 10
-16.4481143535
 20
15.2336724434
  0
LINE
  5
2C9
100
AcDbEntity
  8
0
100
AcDbLine
 62
7
  6
CONTINUOUS
 10
-16.6465396
 20
15.5172958753
 11
-16.6465396
 21
15.9134610519
  0
LINE
  5
2CA
100
AcDbEntity
  8
0
100
AcDbLine
 62
250
  6
CONTINUOUS
 10
-16.5000929906
 20
15.3418472035
 11
-16.5000929906
 21
15.8372232303
  0
LWPOLYLINE
  5
2CB
100
AcDbEntity
  8
0
100
AcDbPolyline
 62
250
  6
CONTINUOUS
 90
4
 70
0
 10
-10.9402965491
 20
13.0598412448
 10
-10.9294636403
 20
13.0746458292
 10
-10.9161145383
 20
13.0899451676
 10
-10.9008042865
 20
13.1057971541
  0
LWPOLYLINE
  5
2CC
100
AcDbEntity
  8
0
100
AcDbPolyline
 62
250
  6
CONTINUOUS
 90
8
 70
0
 10
-10.9008042865
 20
13.1057971541
 10
-10.867226101
 20
13.139802651
 10
-10.849018364
 20
13.1569701948
 10
-10.830221655
 20
13.1738215387
 10
-10.8114085492
 20
13.1903063643
 10
-10.7924190158
 20
13.2057429145
 10
-10.7735880312
 20
13.2198880178
 10
-10.7393777276
 20
13.2448895378
  0
LWPOLYLINE
  5
2CD
100
AcDbEntity
  8
RACCORDO
100
AcDbPolyline
 62
250
  6
CONTINUOUS
 90
10
 70
0
 10
-9.7974331447
 20
11.5156017999
 10
-9.7795262417
 20
11.5323779862
 10
-9.7584204655
 20
11.5499978629
 10
-9.7346671388
 20
11.5680011658
 10
-9.7088867428
 20
11.5859176148
 10
-9.6817527099
 20
11.6032791988
 10
-9.653973832
 20
11.6196324003
 10
-9.6262757453
 20
11.6345500433
 10
-9.5993819759
 20
11.6476424509
 10
-9.5739950396
 20
11.6585676247
  0
LINE
  5
2CE
100
AcDbEntity
  8
ASSI
100
AcDbLine
 62
7
  6
CONTINUOUS
 10
-6.5677422804
 20
14.9859962775
 11
-6.8834407665
 21
14.7552935376
  0
LINE
  5
2CF
100
AcDbEntity
  8
0
100
AcDbLine
 62
7
  6
CONTINUOUS
 10
-6.5677422804
 20
14.9859962775
 11
-6.8834407665
 21
14.7552935376
  0
LWPOLYLINE
  5
2D0
100
AcDbEntity
  8
RACCORDO
100
AcDbPolyline
 62
7
  6
CONTINUOUS
 90
7
 70
0
 10
-10.5592496218
 20
10.9476800203
 10
-10.5917851046
 20
10.9245371358
 10
-10.6302883533
 20
10.8908321879
 10
-10.6663188593
 20
10.8510941877
 10
-10.698358588
 20
10.8060174582
 10
-10.7253081712
 20
10.7564643409
 10
-10.7353208744
 20
10.7312591907
  0
LINE
  5
2D1
100
AcDbEntity
  8
ASSI
100
AcDbLine
 62
7
  6
CONTINUOUS
 10
-5.5213271688
 20
14.8246332955
 11
-6.7862815802
 21
13.9335262373
  0
LINE
  5
2D2
100
AcDbEntity
  8
RACCORDO
100
AcDbLine
 62
7
  6
CONTINUOUS
 10
-5.5213271688
 20
14.8246332955
 11
-6.7862815802
 21
13.9335262373
  0
LINE
  5
2D3
100
AcDbEntity
  8
DRAFT
100
AcDbLine
 62
7
  6
CONTINUOUS
 10
-10.1669174245
 20
11.201437182
 11
-10.5592959114
 21
10.9476500895
  0
LINE
  5
2D4
100
AcDbEntity
  8
RACCORDO
100
AcDbLine
 62
250
  6
CONTINUOUS
 10
-10.5592514397
 20
10.9476788445
 11
-10.5592977287
 21
10.9476489141
  0
LINE
  5
2D5
100
AcDbEntity
  8
0
100
AcDbLine
 62
250
  6
CONTINUOUS
 10
-10.7393802116
 20
13.2448928169
 11
-10.1904068292
 21
13.5467482591
  0
LINE
  5
2D6
100
AcDbEntity
  8
0
100
AcDbLine
 62
250
  6
CONTINUOUS
 10
-10.8190944703
 20
13.3103775885
 11
-10.2676145598
 21
13.6134154846
  0
LINE
  5
2D7
100
AcDbEntity
  8
0
100
AcDbLine
 62
250
  6
CONTINUOUS
 10
-9.5081464574
 20
11.6925179995
 11
-9.5739940929
 21
11.6585686939
  0
LINE
  5
2D8
100
AcDbEntity
  8
0
100
AcDbLine
 62
250
  6
CONTINUOUS
 10
-9.7824955242
 20
11.8564577506
 11
-9.6222312822
 21
11.9390593991
  0
LWPOLYLINE
  5
2D9
100
AcDbEntity
  8
ASSI
100
AcDbPolyline
 62
7
  6
CONTINUOUS
 90
10
 70
0
 10
-6.5863008943
 20
13.8476281498
 10
-6.8906647868
 20
13.6921310735
 10
-7.1960724863
 20
13.5363155037
 10
-7.5025249813
 20
13.3801778135
 10
-7.8100286689
 20
13.2237130089
 10
-8.1185787827
 20
13.0669186045
 10
-8.4281596484
 20
12.9097954307
 10
-8.7387666807
 20
12.7523420884
 10
-9.0504061319
 20
12.5945541484
 10
-9.3630786966
 20
12.4364285889
  0
LWPOLYLINE
  5
2DA
100
AcDbEntity
  8
0
100
AcDbPolyline
 62
7
  6
CONTINUOUS
 90
10
 70
0
 10
-6.5863008943
 20
13.8476281498
 10
-6.8906647868
 20
13.6921310735
 10
-7.1960724863
 20
13.5363155037
 10
-7.5025249813
 20
13.3801778135
 10
-7.8100286689
 20
13.2237130089
 10
-8.1185787827
 20
13.0669186045
 10
-8.4281596484
 20
12.9097954307
 10
-8.7387666807
 20
12.7523420884
 10
-9.0504061319
 20
12.5945541484
 10
-9.3630786966
 20
12.4364285889
  0
LINE
  5
2DB
100
AcDbEntity
  8
0
100
AcDbLine
 62
250
  6
CONTINUOUS
 10
-9.9868296236
 20
13.2804950943
 11
-10.3403789906
 21
13.1037130929
  0
LINE
  5
2DC
100
AcDbEntity
  8
0
100
AcDbLine
 62
250
  6
CONTINUOUS
 10
-9.9239999256
 20
13.105083624
 11
-10.2775533161
 21
12.9283069288
  0
LINE
  5
2DD
100
AcDbEntity
  8
ASSI
100
AcDbLine
 62
250
  6
CONTINUOUS
 10
-6.3852133276
 20
15.4803994633
 11
0.8996489461
 21
19.0937448557
  0
LINE
  5
2DE
100
AcDbEntity
  8
RACCORDO
100
AcDbLine
 62
250
  6
CONTINUOUS
 10
-6.3852133276
 20
15.4803994633
 11
0.8996489461
 21
19.0937448557
  0
LINE
  5
2DF
100
AcDbEntity
  8
ASSI
100
AcDbLine
 62
250
  6
CONTINUOUS
 10
-6.0699405999
 20
15.3227630994
 11
1.0410487632
 21
18.8498662464
  0
LINE
  5
2E0
100
AcDbEntity
  8
RACCORDO
100
AcDbLine
 62
250
  6
CONTINUOUS
 10
-6.0699405999
 20
15.3227630994
 11
1.0410487632
 21
18.8498662464
  0
LINE
  5
2E1
100
AcDbEntity
  8
ASSI
100
AcDbLine
 62
250
  6
CONTINUOUS
 10
1.0410487632
 20
18.1530932148
 11
-5.4440096927
 21
14.9364564122
  0
LINE
  5
2E2
100
AcDbEntity
  8
RACCORDO
100
AcDbLine
 62
250
  6
CONTINUOUS
 10
1.0410487632
 20
18.1530932148
 11
-5.4440096927
 21
14.9364564122
  0
LINE
  5
2E3
100
AcDbEntity
  8
ASSI
100
AcDbLine
 62
250
  6
CONTINUOUS
 10
1.1824485803
 20
17.9092146055
 11
-5.1594415267
 21
14.7635903594
  0
LINE
  5
2E4
100
AcDbEntity
  8
RACCORDO
100
AcDbLine
 62
250
  6
CONTINUOUS
 10
1.1824485803
 20
17.9092146055
 11
-5.1594415267
 21
14.7635903594
  0
LINE
  5
2E5
100
AcDbEntity
  8
0
100
AcDbLine
 62
250
  6
CONTINUOUS
 10
-10.4367531201
 20
13.6979847647
 11
-7.6232221919
 21
15.0591803067
  0
LINE
  5
2E6
100
AcDbEntity
  8
ASSI
100
AcDbLine
 62
250
  6
CONTINUOUS
 10
-10.4367531201
 20
13.6979847647
 11
-7.6232221919
 21
15.0591803067
  0
LINE
  5
2E7
100
AcDbEntity
  8
0
100
AcDbLine
 62
250
  6
CONTINUOUS
 10
-10.0459456732
 20
13.3582662714
 11
-7.2319545818
 21
14.7188575777
  0
LINE
  5
2E8
100
AcDbEntity
  8
ASSI
100
AcDbLine
 62
250
  6
CONTINUOUS
 10
-10.0459456732
 20
13.3582662714
 11
-7.2319545818
 21
14.7188575777
  0
LINE
  5
2E9
100
AcDbEntity
  8
0
100
AcDbLine
 62
250
  6
CONTINUOUS
 10
-10.2775533161
 20
12.5795957979
 11
-9.9239999256
 21
12.7488142284
  0
LINE
  5
2EA
100
AcDbEntity
  8
0
100
AcDbLine
 62
7
  6
CONTINUOUS
 10
-10.3326305595
 20
12.4699049955
 11
-9.9771488539
 21
12.64004636
  0
LWPOLYLINE
  5
2EB
100
AcDbEntity
  8
ASSI
100
AcDbPolyline
 62
7
  6
CONTINUOUS
 90
5
 70
0
 10
-8.6206237755
 20
13.7491535636
 10
-8.9352300612
 20
13.5988594933
 10
-9.2506753206
 20
13.4479808757
 10
-9.5669645959
 20
13.2965116376
 10
-9.8841002372
 20
13.1444510062
  0
LWPOLYLINE
  5
2EC
100
AcDbEntity
  8
0
100
AcDbPolyline
 62
7
  6
CONTINUOUS
 90
5
 70
0
 10
-8.6206237755
 20
13.7491535636
 10
-8.9352300612
 20
13.5988594933
 10
-9.2506753206
 20
13.4479808757
 10
-9.5669645959
 20
13.2965116376
 10
-9.8841002372
 20
13.1444510062
  0
LINE
  5
2ED
100
AcDbEntity
  8
ASSI
100
AcDbLine
 62
7
  6
CONTINUOUS
 10
-8.1713201721
 20
13.9634398773
 11
-8.6206237755
 21
13.7491535636
  0
LINE
  5
2EE
100
AcDbEntity
  8
0
100
AcDbLine
 62
7
  6
CONTINUOUS
 10
-8.1713201721
 20
13.9634398773
 11
-8.6206237755
 21
13.7491535636
  0
LWPOLYLINE
  5
2EF
100
AcDbEntity
  8
ASSI
100
AcDbPolyline
 62
7
  6
CONTINUOUS
 90
5
 70
0
 10
-7.0602174533
 20
14.4916390429
 10
-7.3706194462
 20
14.3443472137
 10
-7.681857701
 20
14.1964548555
 10
-7.9939350448
 20
14.0479608397
 10
-8.1713201721
 20
13.9634398773
  0
LWPOLYLINE
  5
2F0
100
AcDbEntity
  8
0
100
AcDbPolyline
 62
7
  6
CONTINUOUS
 90
5
 70
0
 10
-7.0602174533
 20
14.4916390429
 10
-7.3706194462
 20
14.3443472137
 10
-7.681857701
 20
14.1964548555
 10
-7.9939350448
 20
14.0479608397
 10
-8.1713201721
 20
13.9634398773
  0
LINE
  5
2F1
100
AcDbEntity
  8
0
100
AcDbLine
 62
250
  6
CONTINUOUS
 10
-10.2910387295
 20
12.5732710933
 11
-10.2775533161
 21
12.5795957979
  0
LWPOLYLINE
  5
2F2
100
AcDbEntity
  8
0
100
AcDbPolyline
 62
250
  6
CONTINUOUS
 90
8
 70
0
 10
-10.2775533161
 20
12.9283069288
 10
-10.3113598578
 20
12.9136172855
 10
-10.3481397524
 20
12.9019090668
 10
-10.3876395769
 20
12.8933400172
 10
-10.429549616
 20
12.8880886247
 10
-10.4735658196
 20
12.8862588938
 10
-10.5193991119
 20
12.8878883091
 10
-10.5667057616
 20
12.8931471148
  0
LWPOLYLINE
  5
2F3
100
AcDbEntity
  8
0
100
AcDbPolyline
 62
250
  6
CONTINUOUS
 90
16
 70
0
 10
-10.3403789906
 20
13.1037130929
 10
-10.3609595753
 20
13.0950478735
 10
-10.3829961557
 20
13.0889599709
 10
-10.4064893321
 20
13.0854485851
 10
-10.4316407959
 20
13.0844637572
 10
-10.4582512791
 20
13.0860522085
 10
-10.4857204588
 20
13.0903574652
 10
-10.5141266345
 20
13.0974595039
 10
-10.5433961097
 20
13.1072721528
 10
-10.5727005583
 20
13.1196897093
 10
-10.6020751668
 20
13.1348083121
 10
-10.6314902855
 20
13.1525242714
 10
-10.6600192158
 20
13.1724336233
 10
-10.6873540795
 20
13.1944002722
 10
-10.7138069545
 20
13.2185544486
 10
-10.7393802116
 20
13.2448928169
  0
LWPOLYLINE
  5
2F4
100
AcDbEntity
  8
0
100
AcDbPolyline
 62
250
  6
CONTINUOUS
 90
6
 70
0
 10
-10.3604821444
 20
12.547117684
 10
-10.346362595
 20
12.5516823886
 10
-10.3324232509
 20
12.5565365226
 10
-10.3185437837
 20
12.5617398319
 10
-10.3047175122
 20
12.5673214727
 10
-10.2910387295
 20
12.5732710933
  0
LINE
  5
2F5
100
AcDbEntity
  8
RACCORDO
100
AcDbLine
 62
250
  6
CONTINUOUS
 10
-8.0911004212
 20
-19.3598964388
 11
-8.0803595752
 21
-19.3833915812
  0
LINE
  5
2F6
100
AcDbEntity
  8
0
100
AcDbLine
 62
7
  6
CONTINUOUS
 10
-12.6110056941
 20
17.5530720578
 11
-12.6110056941
 21
16.6000543931
  0
LINE
  5
2F7
100
AcDbEntity
  8
ASSI
100
AcDbLine
 62
7
  6
CONTINUOUS
 10
-12.6110056941
 20
17.5530720578
 11
-12.6110056941
 21
16.4364479024
  0
LINE
  5
2F8
100
AcDbEntity
  8
RACCORDO
100
AcDbLine
 62
7
  6
CONTINUOUS
 10
-12.6110056941
 20
16.6000543931
 11
-12.6110056941
 21
16.4364479024
  0
LINE
  5
2F9
100
AcDbEntity
  8
ASSI
100
AcDbLine
 62
7
  6
CONTINUOUS
 10
-11.2675028098
 20
16.9473245593
 11
-11.2675028098
 21
16.0571127081
  0
LINE
  5
2FA
100
AcDbEntity
  8
0
100
AcDbLine
 62
7
  6
CONTINUOUS
 10
-11.2675028098
 20
16.9473245593
 11
-11.2675028098
 21
16.0571127081
  0
LWPOLYLINE
  5
2FB
100
AcDbEntity
  8
RACCORDO
100
AcDbPolyline
 62
250
  6
CONTINUOUS
 90
10
 70
0
 10
-14.6822733191
 20
-31.1942783289
 10
-14.5201087363
 20
-27.115458223
 10
-14.327283109
 20
-23.0238631874
 10
-14.1038130334
 20
-18.9198424261
 10
-13.8497176798
 20
-14.8037462683
 10
-13.5650187824
 20
-10.6759260124
 10
-13.2497406354
 20
-6.5367338948
 10
-12.9039101018
 20
-2.3865232286
 10
-12.5275566146
 20
1.774351625
 10
-12.1207121643
 20
5.9455354145
  0
LWPOLYLINE
  5
2FC
100
AcDbEntity
  8
RACCORDO
100
AcDbPolyline
 62
250
  6
CONTINUOUS
 90
9
 70
0
 10
-13.9817362317
 20
-31.2166280953
 10
-13.8197046584
 20
-27.1413129209
 10
-13.6270792516
 20
-23.0539299128
 10
-13.4038600112
 20
-18.954479071
 10
-13.1500223975
 20
-14.8426046677
 10
-12.8655909503
 20
-10.7186624306
 10
-12.5506392888
 20
-6.5837195435
 10
-12.2051919528
 20
-2.4381317343
 10
-11.8292244026
 20
1.718456725
  0
LWPOLYLINE
  5
2FD
100
AcDbEntity
  8
0
100
AcDbPolyline
 62
250
  6
CONTINUOUS
 90
13
 70
0
 10
-10.9402965491
 20
13.0598412448
 10
-10.9392778713
 20
13.083104062
 10
-10.9361685427
 20
13.107300197
 10
-10.931024862
 20
13.132016343
 10
-10.9239279994
 20
13.1568627696
 10
-10.9150064636
 20
13.181384524
 10
-10.9044559569
 20
13.2050751685
 10
-10.8924970103
 20
13.2275052549
 10
-10.8793301296
 20
13.2483618536
 10
-10.8651643156
 20
13.2673528
 10
-10.8502313673
 20
13.2841896978
 10
-10.8347884767
 20
13.2986018348
 10
-10.8190904915
 20
13.3103731664
  0
LINE
  5
2FE
100
AcDbEntity
  8
RACCORDO
100
AcDbLine
 62
250
  6
CONTINUOUS
 10
-11.8292244026
 20
1.718456725
 11
-11.4227366382
 21
5.8860458343
  0
LWPOLYLINE
  5
2FF
100
AcDbEntity
  8
RACCORDO
100
AcDbPolyline
 62
250
  6
CONTINUOUS
 90
19
 70
0
 10
-12.1207121643
 20
5.9455354145
 10
-12.1106471141
 20
6.0217663515
 10
-12.0957238529
 20
6.0991159544
 10
-12.0760452885
 20
6.1770449904
 10
-12.0517447186
 20
6.2550121916
 10
-12.0229920152
 20
6.3324712667
 10
-11.9899941128
 20
6.4088749834
 10
-11.9529818197
 20
6.4836855876
 10
-11.9122108775
 20
6.55638617
 10
-11.8679676953
 20
6.6264772406
 10
-11.8205588232
 20
6.6934674973
 10
-11.7703115602
 20
6.7568912899
 10
-11.7175742624
 20
6.8163177549
 10
-11.6627043403
 20
6.8713350481
 10
-11.6060861433
 20
6.9215503669
 10
-11.5481303574
 20
6.9666078674
 10
-11.4892444165
 20
7.006192117
 10
-11.4298288383
 20
7.0400274415
 10
-11.3702941878
 20
7.0678771832
  0
LWPOLYLINE
  5
300
100
AcDbEntity
  8
RACCORDO
100
AcDbPolyline
 62
250
  6
CONTINUOUS
 90
19
 70
0
 10
-11.4227366382
 20
5.8860458343
 10
-11.4176085404
 20
5.9244520258
 10
-11.4101497986
 20
5.9629147697
 10
-11.4003604128
 20
6.0014340658
 10
-11.3881373211
 20
6.0402954486
 10
-11.3735835855
 20
6.0792133838
 10
-11.3570083912
 20
6.1173312682
 10
-11.3383726806
 20
6.1546147184
 10
-11.3177155114
 20
6.1910981178
 10
-11.295463242
 20
6.2260280136
 10
-11.2715832322
 20
6.2593712554
 10
-11.2461081221
 20
6.2911609935
 10
-11.2195621906
 20
6.3207432262
 10
-11.1919099182
 20
6.3480797825
 10
-11.1631868244
 20
6.3732088334
 10
-11.134023746
 20
6.3955908909
 10
-11.1046309621
 20
6.4150461254
 10
-11.0747981936
 20
6.4317543665
 10
-11.0445254406
 20
6.4457156141
  0
LWPOLYLINE
  5
301
100
AcDbEntity
  8
RACCORDO
100
AcDbPolyline
 62
250
  6
CONTINUOUS
 90
10
 70
0
 10
-9.9203946041
 20
11.6354378993
 10
-9.9158944642
 20
11.6646441572
 10
-9.9079658863
 20
11.6943517839
 10
-9.8968089381
 20
11.723811144
 10
-9.8827051514
 20
11.7522788671
 10
-9.8660104179
 20
11.7790366052
 10
-9.8471460087
 20
11.8034091599
 10
-9.826587944
 20
11.82478152
 10
-9.804854981
 20
11.8426143803
 10
-9.7824955242
 20
11.8564577506
  0
LWPOLYLINE
  5
302
100
AcDbEntity
  8
ASSI
100
AcDbPolyline
 62
250
  6
CONTINUOUS
 90
13
 70
0
 10
-2.6918071901
 20
13.3645919126
 10
-2.6852574771
 20
13.3681481556
 10
-2.6799475872
 20
13.371820843
 10
-2.6758775204
 20
13.3756099748
 10
-2.6730390221
 20
13.3795492584
 10
-2.6714403469
 20
13.3836049864
 10
-2.6711062583
 20
13.387676037
 10
-2.6720797087
 20
13.3917608066
 10
-2.6743177457
 20
13.395860899
 10
-2.6777162761
 20
13.3998800033
 10
-2.6822406021
 20
13.4037860162
 10
-2.6879254214
 20
13.4076110412
 10
-2.6947707342
 20
13.4113550782
  0
LWPOLYLINE
  5
303
100
AcDbEntity
  8
RACCORDO
100
AcDbPolyline
 62
250
  6
CONTINUOUS
 90
13
 70
0
 10
-2.6918071901
 20
13.3645919126
 10
-2.6852574771
 20
13.3681481556
 10
-2.6799475872
 20
13.371820843
 10
-2.6758775204
 20
13.3756099748
 10
-2.6730390221
 20
13.3795492584
 10
-2.6714403469
 20
13.3836049864
 10
-2.6711062583
 20
13.387676037
 10
-2.6720797087
 20
13.3917608066
 10
-2.6743177457
 20
13.395860899
 10
-2.6777162761
 20
13.3998800033
 10
-2.6822406021
 20
13.4037860162
 10
-2.6879254214
 20
13.4076110412
 10
-2.6947707342
 20
13.4113550782
  0
LWPOLYLINE
  5
304
100
AcDbEntity
  8
ASSI
100
AcDbPolyline
 62
7
  6
CONTINUOUS
 90
15
 70
0
 10
-0.7646409218
 20
14.4009822898
 10
-0.8699009677
 20
14.345599865
 10
-0.9681347772
 20
14.2873492488
 10
-1.0590514058
 20
14.2264477203
 10
-1.1423355614
 20
14.1631686058
 10
-1.2178125962
 20
14.0976957814
 10
-1.2853984949
 20
14.030108762
 10
-1.3449014357
 20
13.9605916725
 10
-1.396074781
 20
13.8894234679
 10
-1.4387460864
 20
13.816822528
 10
-1.4727676762
 20
13.7430379002
 10
-1.4980239458
 20
13.6683169646
 10
-1.5144280214
 20
13.592881016
 10
-1.5219169763
 20
13.5169536794
 10
-1.5224234609
 20
13.4913674536
  0
LWPOLYLINE
  5
305
100
AcDbEntity
  8
SMUSSO
100
AcDbPolyline
 62
7
  6
CONTINUOUS
 90
15
 70
0
 10
-0.7646409218
 20
14.4009822898
 10
-0.8699009677
 20
14.345599865
 10
-0.9681347772
 20
14.2873492488
 10
-1.0590514058
 20
14.2264477203
 10
-1.1423355614
 20
14.1631686058
 10
-1.2178125962
 20
14.0976957814
 10
-1.2853984949
 20
14.030108762
 10
-1.3449014357
 20
13.9605916725
 10
-1.396074781
 20
13.8894234679
 10
-1.4387460864
 20
13.816822528
 10
-1.4727676762
 20
13.7430379002
 10
-1.4980239458
 20
13.6683169646
 10
-1.5144280214
 20
13.592881016
 10
-1.5219169763
 20
13.5169536794
 10
-1.5224234609
 20
13.4913674536
  0
LWPOLYLINE
  5
306
100
AcDbEntity
  8
ASSI
100
AcDbPolyline
 62
7
  6
CONTINUOUS
 90
22
 70
0
 10
-1.1182463052
 20
15.010997433
 10
-1.2439125214
 20
14.945083861
 10
-1.3606379935
 20
14.8762727124
 10
-1.4684227215
 20
14.8045639871
 10
-1.5674894875
 20
14.7297452016
 10
-1.6576155094
 20
14.6520288395
 10
-1.738132441
 20
14.5720523511
 10
-1.809028862
 20
14.4897517492
 10
-1.8703161926
 20
14.405191021
 10
-1.9213603479
 20
14.3191995778
 10
-1.9620618629
 20
14.2317659414
 10
-1.9925202026
 20
14.1429015899
 10
-2.0123996767
 20
14.0534703693
 10
-2.021581875
 20
13.9634291345
 10
-2.0201852079
 20
13.8728210306
 10
-2.0082292156
 20
13.7826393382
 10
-1.9855987617
 20
13.6929279351
 10
-1.9524089827
 20
13.6036429435
 10
-1.9090248292
 20
13.5156460111
 10
-1.8553634062
 20
13.4289563521
 10
-1.7915076088
 20
13.3435547523
 10
-1.7180710725
 20
13.2602452164
  0
LWPOLYLINE
  5
307
100
AcDbEntity
  8
SMUSSO
100
AcDbPolyline
 62
7
  6
CONTINUOUS
 90
25
 70
0
 10
-1.1182463052
 20
15.010997433
 10
-1.2439125214
 20
14.945083861
 10
-1.3606379935
 20
14.8762727124
 10
-1.4684227215
 20
14.8045639871
 10
-1.5674894875
 20
14.7297452016
 10
-1.6576155094
 20
14.6520288395
 10
-1.738132441
 20
14.5720523511
 10
-1.809028862
 20
14.4897517492
 10
-1.8703161926
 20
14.405191021
 10
-1.9213603479
 20
14.3191995778
 10
-1.9620618629
 20
14.2317659414
 10
-1.9925202026
 20
14.1429015899
 10
-2.0123996767
 20
14.0534703693
 10
-2.021581875
 20
13.9634291345
 10
-2.0201852079
 20
13.8728210306
 10
-2.0082292156
 20
13.7826393382
 10
-1.9855987617
 20
13.6929279351
 10
-1.9524089827
 20
13.6036429435
 10
-1.9090248292
 20
13.5156460111
 10
-1.8553634062
 20
13.4289563521
 10
-1.7915076088
 20
13.3435547523
 10
-1.7180710725
 20
13.2602452164
 10
-1.634975835
 20
13.1790442551
 10
-1.5422998587
 20
13.0999353577
 10
-1.4623194223
 20
13.0390159559
  0
LINE
  5
308
100
AcDbEntity
  8
0
100
AcDbLine
 62
250
  6
CONTINUOUS
 10
-5.5045286952
 20
10.2792446081
 11
-5.9020325675
 21
10.0789600418
  0
LINE
  5
309
100
AcDbEntity
  8
0
100
AcDbLine
 62
7
  6
CONTINUOUS
 10
-0.1942106164
 20
12.8865520327
 11
0.3007641304
 21
13.1340394061
  0
LINE
  5
30A
100
AcDbEntity
  8
ASSI
100
AcDbLine
 62
7
  6
CONTINUOUS
 10
2.9465475192
 20
17.027165136
 11
-1.1182463052
 21
15.010997433
  0
LINE
  5
30B
100
AcDbEntity
  8
RACCORDO
100
AcDbLine
 62
7
  6
CONTINUOUS
 10
2.9465475192
 20
17.027165136
 11
-1.1182463052
 21
15.010997433
  0
LINE
  5
30C
100
AcDbEntity
  8
ASSI
100
AcDbLine
 62
7
  6
CONTINUOUS
 10
3.4366825254
 20
16.4848696922
 11
-0.7646409218
 21
14.4009822898
  0
LINE
  5
30D
100
AcDbEntity
  8
SMUSSO
100
AcDbLine
 62
7
  6
CONTINUOUS
 10
3.4366825254
 20
16.4848696922
 11
-0.7646409218
 21
14.4009822898
  0
LINE
  5
30E
100
AcDbEntity
  8
ASSI
100
AcDbLine
 62
250
  6
CONTINUOUS
 10
-5.2972834478
 20
12.1008012959
 11
-2.6918071901
 21
13.3645919126
  0
LINE
  5
30F
100
AcDbEntity
  8
RACCORDO
100
AcDbLine
 62
250
  6
CONTINUOUS
 10
-5.2972834478
 20
12.1008012959
 11
-2.6918071901
 21
13.3645919126
  0
LINE
  5
310
100
AcDbEntity
  8
ASSI
100
AcDbLine
 62
250
  6
CONTINUOUS
 10
-5.0653276114
 20
11.8785840793
 11
-2.4596236534
 21
13.1420017635
  0
LINE
  5
311
100
AcDbEntity
  8
RACCORDO
100
AcDbLine
 62
250
  6
CONTINUOUS
 10
-5.0653276114
 20
11.8785840793
 11
-2.4596236534
 21
13.1420017635
  0
LWPOLYLINE
  5
312
100
AcDbEntity
  8
0
100
AcDbPolyline
 62
7
  6
CONTINUOUS
 90
5
 70
0
 10
-0.8286085179
 20
12.6977506411
 10
-0.8281055956
 20
12.6979907557
 10
-0.7080901386
 20
12.7503147817
 10
-0.5836974337
 20
12.7997526743
 10
-0.5040913965
 20
12.8285254298
  0
LINE
  5
313
100
AcDbEntity
  8
ASSI
100
AcDbLine
 62
7
  6
CONTINUOUS
 10
0.3987172367
 20
13.3139913099
 11
-0.8845340272
 21
12.7213433508
  0
LINE
  5
314
100
AcDbEntity
  8
DRAFT
100
AcDbLine
 62
7
  6
CONTINUOUS
 10
0.3987172367
 20
13.3139913099
 11
-0.8845340272
 21
12.7213433508
  0
LINE
  5
315
100
AcDbEntity
  8
ASSI
100
AcDbLine
 62
7
  6
CONTINUOUS
 10
-0.7646409218
 20
13.65012109
 11
3.4366825254
 21
15.5509624962
  0
LINE
  5
316
100
AcDbEntity
  8
DRAFT
100
AcDbLine
 62
7
  6
CONTINUOUS
 10
-0.7646409218
 20
13.65012109
 11
3.4366825254
 21
15.5509624962
  0
LWPOLYLINE
  5
317
100
AcDbEntity
  8
ASSI
100
AcDbPolyline
 62
250
  6
CONTINUOUS
 90
9
 70
0
 10
-2.6947707342
 20
13.4113550782
 10
-2.6646666428
 20
13.4241879508
 10
-2.6348264952
 20
13.4337547403
 10
-2.6054674176
 20
13.439985836
 10
-2.5768030353
 20
13.4428358979
 10
-2.5490419198
 20
13.4422841893
 10
-2.5223860718
 20
13.4383347264
 10
-2.4970294488
 20
13.4310162467
 10
-2.4773342849
 20
13.4225367385
  0
LWPOLYLINE
  5
318
100
AcDbEntity
  8
RACCORDO
100
AcDbPolyline
 62
250
  6
CONTINUOUS
 90
9
 70
0
 10
-2.6947707342
 20
13.4113550782
 10
-2.6646666428
 20
13.4241879508
 10
-2.6348264952
 20
13.4337547403
 10
-2.6054674176
 20
13.439985836
 10
-2.5768030353
 20
13.4428358979
 10
-2.5490419198
 20
13.4422841893
 10
-2.5223860718
 20
13.4383347264
 10
-2.4970294488
 20
13.4310162467
 10
-2.4773342849
 20
13.4225367385
  0
LINE
  5
319
100
AcDbEntity
  8
ASSI
100
AcDbLine
 62
7
  6
CONTINUOUS
 10
3.6242474453
 20
15.4571800362
 11
3.9129118215
 21
15.5783412618
  0
LINE
  5
31A
100
AcDbEntity
  8
DRAFT
100
AcDbLine
 62
7
  6
CONTINUOUS
 10
3.6242474453
 20
15.4571800362
 11
3.9129118215
 21
15.5783412618
  0
LINE
  5
31B
100
AcDbEntity
  8
ASSI
100
AcDbLine
 62
250
  6
CONTINUOUS
 10
3.9129119148
 20
15.578341301
 11
3.9146163575
 21
15.5790548592
  0
LWPOLYLINE
  5
31C
100
AcDbEntity
  8
ASSI
100
AcDbPolyline
 62
250
  6
CONTINUOUS
 90
5
 70
0
 10
-5.2972834478
 20
12.1008012959
 10
-5.3133184785
 20
12.0942462944
 10
-5.3291143118
 20
12.0900307372
 10
-5.3444667487
 20
12.0882091207
 10
-5.3546240421
 20
12.0886205569
  0
LWPOLYLINE
  5
31D
100
AcDbEntity
  8
RACCORDO
100
AcDbPolyline
 62
250
  6
CONTINUOUS
 90
5
 70
0
 10
-5.2972834478
 20
12.1008012959
 10
-5.3133184785
 20
12.0942462944
 10
-5.3291143118
 20
12.0900307372
 10
-5.3444667487
 20
12.0882091207
 10
-5.3546240421
 20
12.0886205569
  0
LINE
  5
31E
100
AcDbEntity
  8
RACCORDO
100
AcDbLine
 62
250
  6
CONTINUOUS
 10
3.9129119148
 20
15.578341301
 11
3.9342105582
 21
15.5869951605
  0
LINE
  5
31F
100
AcDbEntity
  8
ASSI
100
AcDbLine
 62
250
  6
CONTINUOUS
 10
3.9146163575
 20
15.5790548592
 11
3.9342105582
 21
15.5869951605
  0
LWPOLYLINE
  5
320
100
AcDbEntity
  8
RACCORDO
100
AcDbPolyline
 62
7
  6
CONTINUOUS
 90
19
 70
0
 10
3.9120930302
 20
15.5779971631
 10
3.9897823157
 20
15.6075305397
 10
4.1160428606
 20
15.6430606298
 10
4.247586358
 20
15.6652802636
 10
4.3844221226
 20
15.6738747635
 10
4.5264207603
 20
15.6683317252
 10
4.6723277412
 20
15.6482068791
 10
4.8206113638
 20
15.6134236944
 10
4.9707729334
 20
15.5638920341
 10
5.1219566457
 20
15.4996623334
 10
5.2721204288
 20
15.4215590417
 10
5.4204036319
 20
15.3301734852
 10
5.5663340752
 20
15.2259032904
 10
5.7084503253
 20
15.1099535566
 10
5.8458740808
 20
14.983328346
 10
5.9782439826
 20
14.8466184192
 10
6.104870183
 20
14.7007400805
 10
6.2251286432
 20
14.546613678
 10
6.3384948592
 20
14.3850910239
  0
LWPOLYLINE
  5
321
100
AcDbEntity
  8
ASSI
100
AcDbPolyline
 62
250
  6
CONTINUOUS
 90
28
 70
0
 10
3.9342105582
 20
15.5869951605
 10
4.005203607
 20
15.6118872338
 10
4.0809917847
 20
15.6322241908
 10
4.1616866875
 20
15.6474045033
 10
4.247261079
 20
15.6567885875
 10
4.3376798254
 20
15.659742948
 10
4.4333000394
 20
15.6556001563
 10
4.5336112859
 20
15.6436964851
 10
4.6371373101
 20
15.6237070499
 10
4.7440912114
 20
15.5951803082
 10
4.8537028976
 20
15.5579095107
 10
4.9628385783
 20
15.5129022072
 10
5.0707895633
 20
15.4607267901
 10
5.1775212327
 20
15.4016723431
 10
5.280892913
 20
15.3373462506
 10
5.3800804397
 20
15.2689185014
 10
5.4754379374
 20
15.1967864948
 10
5.5666868393
 20
15.1217451808
 10
5.6536220405
 20
15.0445568296
 10
5.7362688119
 20
14.9657813899
 10
5.8147525113
 20
14.885846814
 10
5.8890752383
 20
14.8052732475
 10
5.9592474055
 20
14.7245641938
 10
6.0254338454
 20
14.6440267772
 10
6.0876890015
 20
14.5640737262
 10
6.1460976601
 20
14.4850693903
 10
6.2008800343
 20
14.4071697019
 10
6.2521746022
 20
14.3306089223
  0
LINE
  5
322
100
AcDbEntity
  8
RACCORDO
100
AcDbLine
 62
250
  6
CONTINUOUS
 10
3.9342105582
 20
15.5869951605
 11
4.0049566237
 21
15.6118006348
  0
LWPOLYLINE
  5
323
100
AcDbEntity
  8
ASSI
100
AcDbPolyline
 62
7
  6
CONTINUOUS
 90
14
 70
0
 10
3.9146162638
 20
15.5790548199
 10
4.0730556889
 20
15.6326049286
 10
4.247091274
 20
15.6652230653
 10
4.4317587868
 20
15.6736140303
 10
4.6239038524
 20
15.6564628051
 10
4.8206113638
 20
15.6134236944
 10
5.0208879581
 20
15.5441948792
 10
5.2225237033
 20
15.4489441586
 10
5.4209205299
 20
15.3298296209
 10
5.6138148988
 20
15.1887905909
 10
5.8003918109
 20
15.0268898601
 10
5.9782411241
 20
14.8466215389
 10
6.1456035487
 20
14.6503480531
 10
6.3014279786
 20
14.4398099795
  0
LWPOLYLINE
  5
324
100
AcDbEntity
  8
RACCORDO
100
AcDbPolyline
 62
7
  6
CONTINUOUS
 90
14
 70
0
 10
0.3630609924
 20
13.256192787
 10
0.2514171371
 20
13.2219479736
 10
0.1430631733
 20
13.1844385381
 10
0.0383534519
 20
13.1437248882
 10
-0.0623926586
 20
13.0998637503
 10
-0.1589727069
 20
13.0528591366
 10
-0.2509832266
 20
13.0028113825
 10
-0.3378991759
 20
12.9499281399
 10
-0.4196287444
 20
12.8941813647
 10
-0.4957836431
 20
12.8357343089
 10
-0.5656212529
 20
12.7751341842
 10
-0.6290767026
 20
12.7124843962
 10
-0.6860552625
 20
12.6479152298
 10
-0.688814898
 20
12.6442851347
  0
LINE
  5
325
100
AcDbEntity
  8
RACCORDO
100
AcDbLine
 62
250
  6
CONTINUOUS
 10
0.3397723117
 20
13.2134523472
 11
0.4366382806
 21
13.2423840524
  0
LINE
  5
326
100
AcDbEntity
  8
RACCORDO
100
AcDbLine
 62
250
  6
CONTINUOUS
 10
-7.9412190175
 20
-10.612635398
 11
-7.9682916518
 21
-10.5990990809
  0
LINE
  5
327
100
AcDbEntity
  8
RACCORDO
100
AcDbLine
 62
250
  6
CONTINUOUS
 10
-7.9412190175
 20
-10.4015515033
 11
-7.9542183582
 21
-10.395051833
  0
LWPOLYLINE
  5
328
100
AcDbEntity
  8
RACCORDO
100
AcDbPolyline
 62
250
  6
CONTINUOUS
 90
10
 70
0
 10
-17.665632325
 20
15.4501569346
 10
-17.6754141106
 20
15.480822862
 10
-17.6812747402
 20
15.5119695423
 10
-17.6830611629
 20
15.5427835776
 10
-17.6807267262
 20
15.5724602568
 10
-17.674332394
 20
15.6002245712
 10
-17.6640451548
 20
15.6253514533
 10
-17.6501336608
 20
15.6471847128
 10
-17.6329612117
 20
15.6651541723
 10
-17.6129762674
 20
15.6787905579
  0
LWPOLYLINE
  5
329
100
AcDbEntity
  8
RACCORDO
100
AcDbPolyline
 62
250
  6
CONTINUOUS
 90
3
 70
0
 10
-8.0803595752
 20
-19.3833915812
 10
-8.0725710841
 20
-19.4097509079
 10
-8.0678510562
 20
-19.4385814618
  0
LWPOLYLINE
  5
32A
100
AcDbEntity
  8
0
100
AcDbPolyline
 62
250
  6
CONTINUOUS
 90
13
 70
0
 10
-16.5394840079
 20
15.859436481
 10
-16.5460994037
 20
15.8829674149
 10
-16.5508087385
 20
15.9072978045
 10
-16.5531660393
 20
15.9319847852
 10
-16.5526419346
 20
15.9566146125
 10
-16.5491762483
 20
15.9807836438
 10
-16.5431903031
 20
16.0040610981
 10
-16.5346676109
 20
16.0260489134
 10
-16.5235776624
 20
16.0463947783
 10
-16.5103922351
 20
16.06473243
 10
-16.4953086158
 20
16.0807497869
 10
-16.478305604
 20
16.0942219008
 10
-16.4595559431
 20
16.1049767383
  0
LWPOLYLINE
  5
32B
100
AcDbEntity
  8
0
100
AcDbPolyline
 62
250
  6
CONTINUOUS
 90
10
 70
0
 10
-16.6449685159
 20
15.4977367268
 10
-16.640315986
 20
15.4784395044
 10
-16.632981471
 20
15.460127949
 10
-16.6229430262
 20
15.4422235335
 10
-16.6103407318
 20
15.4248706407
 10
-16.5952660741
 20
15.4081066722
 10
-16.5769935326
 20
15.3912907732
 10
-16.5550125106
 20
15.3743744992
 10
-16.529415901
 20
15.3578169258
 10
-16.5000929906
 20
15.3418472035
  0
LWPOLYLINE
  5
32C
100
AcDbEntity
  8
0
100
AcDbPolyline
 62
7
  6
CONTINUOUS
 90
6
 70
0
 10
-16.6432564347
 20
15.4751403762
 10
-16.6332803447
 20
15.433189414
 10
-16.6167925937
 20
15.3928066787
 10
-16.5943702124
 20
15.3551072076
 10
-16.5665933783
 20
15.3205892928
 10
-16.5338525483
 20
15.2893640761
  0
LWPOLYLINE
  5
32D
100
AcDbEntity
  8
RACCORDO
100
AcDbPolyline
 62
250
  6
CONTINUOUS
 90
12
 70
0
 10
-8.1120580296
 20
-19.1844105267
 10
-8.1084724356
 20
-19.204671469
 10
-8.1066692304
 20
-19.2239967912
 10
-8.1066287189
 20
-19.2422259346
 10
-8.1082973806
 20
-19.2592055153
 10
-8.111655558
 20
-19.274796996
 10
-8.1167101477
 20
-19.2888858172
 10
-8.1233875789
 20
-19.3013544844
 10
-8.1316060419
 20
-19.3121268442
 10
-8.1413471654
 20
-19.3211675323
 10
-8.1525267234
 20
-19.3284054973
 10
-8.1548099365
 20
-19.3295739358
  0
LWPOLYLINE
  5
32E
100
AcDbEntity
  8
RACCORDO
100
AcDbPolyline
 62
250
  6
CONTINUOUS
 90
16
 70
0
 10
-8.504215614
 20
-23.5591361707
 10
-8.497926418
 20
-23.6072017717
 10
-8.4942752598
 20
-23.654930018
 10
-8.4934137172
 20
-23.7020144472
 10
-8.495454878
 20
-23.748344048
 10
-8.5005864841
 20
-23.7933254526
 10
-8.5089244611
 20
-23.8360164084
 10
-8.520496985
 20
-23.8762614734
 10
-8.5352157743
 20
-23.9137096747
 10
-8.5527005652
 20
-23.9474632672
 10
-8.5727145915
 20
-23.9774719651
 10
-8.5950292551
 20
-24.0038342645
 10
-8.6190170058
 20
-24.0262743799
 10
-8.6442935218
 20
-24.044952381
 10
-8.6706642819
 20
-24.0602068901
 10
-8.6870894776
 20
-24.0679011919
  0
LINE
  5
32F
100
AcDbEntity
  8
RACCORDO
100
AcDbLine
 62
250
  6
CONTINUOUS
 10
-8.7234615664
 20
-21.5482305981
 11
-8.504215614
 21
-23.5591361707
  0
LINE
  5
330
100
AcDbEntity
  8
RACCORDO
100
AcDbLine
 62
250
  6
CONTINUOUS
 10
-8.5274556685
 20
-19.5110211018
 11
-8.0890652717
 21
-23.5319012246
  0
LINE
  5
331
100
AcDbEntity
  8
RACCORDO
100
AcDbLine
 62
250
  6
CONTINUOUS
 10
-8.386694013
 20
-16.6654722134
 11
-8.1120580296
 21
-19.1844105267
  0
LINE
  5
332
100
AcDbEntity
  8
RACCORDO
100
AcDbLine
 62
250
  6
CONTINUOUS
 10
-8.2246818763
 20
-14.3164747776
 11
-7.6969076873
 21
-19.1571755806
  0
LINE
  5
333
100
AcDbEntity
  8
RACCORDO
100
AcDbLine
 62
250
  6
CONTINUOUS
 10
-7.9412190175
 20
-10.612635398
 11
-7.0207339447
 21
-19.1922735595
  0
LINE
  5
334
100
AcDbEntity
  8
RACCORDO
100
AcDbLine
 62
250
  6
CONTINUOUS
 10
-6.4375470108
 20
-23.6924453053
 11
-6.9146679275
 21
-19.2453065681
  0
LINE
  5
335
100
AcDbEntity
  8
RACCORDO
100
AcDbLine
 62
250
  6
CONTINUOUS
 10
-7.6619201205
 20
-10.5932773771
 11
-6.739586594
 21
-19.1901445676
  0
LINE
  5
336
100
AcDbEntity
  8
RACCORDO
100
AcDbLine
 62
250
  6
CONTINUOUS
 10
-6.1582481138
 20
-23.6730872844
 11
-6.6335205768
 21
-19.2431775762
  0
LWPOLYLINE
  5
337
100
AcDbEntity
  8
RACCORDO
100
AcDbPolyline
 62
250
  6
CONTINUOUS
 90
27
 70
0
 10
-8.0890652717
 20
-23.5319012246
 10
-8.0832960963
 20
-23.5960657217
 10
-8.0813060573
 20
-23.658989678
 10
-8.0830951547
 20
-23.7206730935
 10
-8.0885955466
 20
-23.7818005241
 10
-8.0978750749
 20
-23.841687414
 10
-8.1111372654
 20
-23.8982800954
 10
-8.1287481907
 20
-23.9513901808
 10
-8.1503417782
 20
-24.0012060578
 10
-8.1750233366
 20
-24.0462392212
 10
-8.2029892574
 20
-24.0860089049
 10
-8.234043149
 20
-24.1209958751
 10
-8.2667011448
 20
-24.151153925
 10
-8.3008574811
 20
-24.1761583403
 10
-8.3366179216
 20
-24.1963338353
 10
-8.3728158906
 20
-24.2126083462
 10
-8.4092590468
 20
-24.2249462604
 10
-8.4461397316
 20
-24.2333831904
 10
-8.4828683937
 20
-24.2389539102
 10
-8.5193530183
 20
-24.241737176
 10
-8.5556856203
 20
-24.2416542316
 10
-8.5915526933
 20
-24.2395035824
 10
-8.6268803878
 20
-24.2353629453
 10
-8.6617425533
 20
-24.2291546034
 10
-8.696047232
 20
-24.2214439124
 10
-8.7297445629
 20
-24.2123034606
 10
-8.762884407
 20
-24.2016606596
  0
LWPOLYLINE
  5
338
100
AcDbEntity
  8
0
100
AcDbPolyline
 62
250
  6
CONTINUOUS
 90
7
 70
0
 10
-10.9846600973
 20
12.5841307568
 10
-10.9825586826
 20
12.5554335676
 10
-10.9763169781
 20
12.5296910267
 10
-10.9661206618
 20
12.507667992
 10
-10.9522728818
 20
12.4900187016
 10
-10.9351853167
 20
12.4772674577
 10
-10.9330855142
 20
12.4761595491
  0
LWPOLYLINE
  5
339
100
AcDbEntity
  8
RACCORDO
100
AcDbPolyline
 62
250
  6
CONTINUOUS
 90
19
 70
0
 10
-7.6969076873
 20
-19.1571755806
 10
-7.6938874808
 20
-19.2002616566
 10
-7.6941097539
 20
-19.2407384446
 10
-7.6975745064
 20
-19.2786059444
 10
-7.7043817024
 20
-19.314107025
 10
-7.7144313779
 20
-19.3469988174
 10
-7.727423641
 20
-19.3765527154
 10
-7.7433977772
 20
-19.4026636209
 10
-7.7623145009
 20
-19.425436632
 10
-7.7837560636
 20
-19.4444584356
 10
-7.8077598029
 20
-19.4596759576
 10
-7.8342883811
 20
-19.4711422722
 10
-7.8628120366
 20
-19.4786032882
 10
-7.8934112195
 20
-19.4819805483
 10
-7.9260054797
 20
-19.4813525099
 10
-7.9598237047
 20
-19.4767004539
 10
-7.994608857
 20
-19.4680181407
 10
-8.0306179742
 20
-19.45531181
 10
-8.0678510562
 20
-19.4385814618
  0
LWPOLYLINE
  5
33A
100
AcDbEntity
  8
0
100
AcDbPolyline
 62
250
  6
CONTINUOUS
 90
10
 70
0
 10
-10.2775533161
 20
12.9283069288
 10
-10.2783947011
 20
12.9475808656
 10
-10.280906498
 20
12.9674656146
 10
-10.2850587127
 20
12.9877248153
 10
-10.2908018462
 20
13.0081176596
 10
-10.2980675228
 20
13.0284018624
 10
-10.3067693329
 20
13.0483365366
 10
-10.3168038016
 20
13.0676849057
 10
-10.3280515942
 20
13.0862171204
 10
-10.3403789906
 20
13.1037130929
  0
LWPOLYLINE
  5
33B
100
AcDbEntity
  8
RACCORDO
100
AcDbPolyline
 62
250
  6
CONTINUOUS
 90
16
 70
0
 10
-9.9274280733
 20
10.3273127902
 10
-9.9281235887
 20
10.3439300946
 10
-9.9342855812
 20
10.3946601739
 10
-9.9444818294
 20
10.4463547373
 10
-9.9585993394
 20
10.498444993
 10
-9.9764831322
 20
10.550361624
 10
-9.9979380418
 20
10.6015383277
 10
-10.022731148
 20
10.6514178006
 10
-10.0505890053
 20
10.699449092
 10
-10.081200237
 20
10.7450976963
 10
-10.1142259244
 20
10.7878624455
 10
-10.1493048846
 20
10.8272788383
 10
-10.186051698
 20
10.862916289
 10
-10.2240631192
 20
10.8943866077
 10
-10.2629226144
 20
10.9213480206
 10
-10.3022046828
 20
10.943508139
  0
LINE
  5
33C
100
AcDbEntity
  8
0
100
AcDbLine
 62
250
  6
CONTINUOUS
 10
-10.9846600973
 20
13.0795067837
 11
-10.9846600973
 21
12.5841307568
  0
LINE
  5
33D
100
AcDbEntity
  8
0
100
AcDbLine
 62
250
  6
CONTINUOUS
 10
-10.2775533161
 20
12.9283069288
 11
-10.2775533161
 21
12.5795957979
  0
LINE
  5
33E
100
AcDbEntity
  8
0
100
AcDbLine
 62
7
  6
CONTINUOUS
 10
-9.9239999256
 20
12.7488142284
 11
-9.9239999256
 21
13.105083624
  0
LWPOLYLINE
  5
33F
100
AcDbEntity
  8
0
100
AcDbPolyline
 62
250
  6
CONTINUOUS
 90
8
 70
0
 10
-10.2775533161
 20
12.5795957979
 10
-10.2790853569
 20
12.5574353
 10
-10.2830109416
 20
12.5368638544
 10
-10.2892629021
 20
12.5182334444
 10
-10.2977342654
 20
12.5018628414
 10
-10.3082800844
 20
12.488032151
 10
-10.3207199186
 20
12.4769780192
 10
-10.3322358834
 20
12.4700952759
  0
LWPOLYLINE
  5
340
100
AcDbEntity
  8
ASSI
100
AcDbPolyline
 62
7
  6
CONTINUOUS
 90
22
 70
0
 10
-9.8841002372
 20
13.1444510062
 10
-9.8880566088
 20
13.0996750258
 10
-9.888077166
 20
13.0537061301
 10
-9.8841619088
 20
13.0065443189
 10
-9.8761779388
 20
12.9576309368
 10
-9.8642581543
 20
12.9075246392
 10
-9.8488012511
 20
12.8579013931
 10
-9.8296875849
 20
12.8087775379
 10
-9.8070368
 20
12.7601367343
 10
-9.7816065251
 20
12.7136059309
 10
-9.7533027428
 20
12.6692564992
 10
-9.7222194705
 20
12.6270170678
 10
-9.6893963885
 20
12.5883004709
 10
-9.6547746472
 20
12.5532258695
 10
-9.6184130962
 20
12.5216741025
 10
-9.581527965
 20
12.4947005206
 10
-9.5441015434
 20
12.4724599827
 10
-9.5061515416
 20
12.4547976299
 10
-9.46894732
 20
12.4423042367
 10
-9.4329119987
 20
12.4351767279
 10
-9.3976224576
 20
12.4332181786
 10
-9.3630786966
 20
12.4364285889
  0
LWPOLYLINE
  5
341
100
AcDbEntity
  8
0
100
AcDbPolyline
 62
7
  6
CONTINUOUS
 90
22
 70
0
 10
-9.8841002372
 20
13.1444510062
 10
-9.8880566088
 20
13.0996750258
 10
-9.888077166
 20
13.0537061301
 10
-9.8841619088
 20
13.0065443189
 10
-9.8761779388
 20
12.9576309368
 10
-9.8642581543
 20
12.9075246392
 10
-9.8488012511
 20
12.8579013931
 10
-9.8296875849
 20
12.8087775379
 10
-9.8070368
 20
12.7601367343
 10
-9.7816065251
 20
12.7136059309
 10
-9.7533027428
 20
12.6692564992
 10
-9.7222194705
 20
12.6270170678
 10
-9.6893963885
 20
12.5883004709
 10
-9.6547746472
 20
12.5532258695
 10
-9.6184130962
 20
12.5216741025
 10
-9.581527965
 20
12.4947005206
 10
-9.5441015434
 20
12.4724599827
 10
-9.5061515416
 20
12.4547976299
 10
-9.46894732
 20
12.4423042367
 10
-9.4329119987
 20
12.4351767279
 10
-9.3976224576
 20
12.4332181786
 10
-9.3630786966
 20
12.4364285889
  0
LINE
  5
342
100
AcDbEntity
  8
0
100
AcDbLine
 62
250
  6
CONTINUOUS
 10
-5.1510291525
 20
9.6695480848
 11
-5.5485330248
 21
9.4692635185
  0
LINE
  5
343
100
AcDbEntity
  8
RACCORDO
100
AcDbLine
 62
7
  6
CONTINUOUS
 10
2.7142667041
 20
13.2164909108
 11
1.591953626
 21
12.6553343718
  0
LINE
  5
344
100
AcDbEntity
  8
RACCORDO
100
AcDbLine
 62
7
  6
CONTINUOUS
 10
3.4213975615
 20
12.8629495584
 11
2.7020064457
 21
12.5032540005
  0
LINE
  5
345
100
AcDbEntity
  8
ASSI
100
AcDbLine
 62
250
  6
CONTINUOUS
 10
6.257978727
 20
14.1403143954
 11
6.344616051
 21
14.1827309581
  0
LINE
  5
346
100
AcDbEntity
  8
RACCORDO
100
AcDbLine
 62
250
  6
CONTINUOUS
 10
6.257978727
 20
14.1403143954
 11
6.344616051
 21
14.1827309581
  0
LINE
  5
347
100
AcDbEntity
  8
ASSI
100
AcDbLine
 62
250
  6
CONTINUOUS
 10
1.1847181767
 20
10.7697110109
 11
8.2131325035
 21
14.189898637
  0
LINE
  5
348
100
AcDbEntity
  8
RACCORDO
100
AcDbLine
 62
250
  6
CONTINUOUS
 10
1.1847181767
 20
10.7697110109
 11
8.2131325035
 21
14.189898637
  0
LINE
  5
349
100
AcDbEntity
  8
ASSI
100
AcDbLine
 62
250
  6
CONTINUOUS
 10
1.5084923561
 20
10.4239560817
 11
8.5377262428
 21
13.8425445406
  0
LINE
  5
34A
100
AcDbEntity
  8
RACCORDO
100
AcDbLine
 62
250
  6
CONTINUOUS
 10
1.5084923561
 20
10.4239560817
 11
8.5377262428
 21
13.8425445406
  0
LINE
  5
34B
100
AcDbEntity
  8
ASSI
100
AcDbLine
 62
7
  6
CONTINUOUS
 10
7.4039125307
 20
14.5945086233
 11
3.4067632821
 21
12.7484926393
  0
LINE
  5
34C
100
AcDbEntity
  8
RACCORDO
100
AcDbLine
 62
7
  6
CONTINUOUS
 10
7.4039125307
 20
14.5945086233
 11
3.4067632821
 21
12.7484926393
  0
LWPOLYLINE
  5
34D
100
AcDbEntity
  8
RACCORDO
100
AcDbPolyline
 62
7
  6
CONTINUOUS
 90
11
 70
0
 10
3.4208365879
 20
12.8626690716
 10
3.4328402034
 20
12.8680911386
 10
3.4446624167
 20
12.8722494165
 10
3.456303228
 20
12.8751439052
 10
3.4678817045
 20
12.8767782255
 10
3.4792787789
 20
12.8771487565
 10
3.4901372494
 20
12.8762446368
 10
3.5003804028
 20
12.8740335247
 10
3.5100849522
 20
12.8705477618
 10
3.519123835
 20
12.8658735111
 10
3.5264264956
 20
12.8608521447
  0
LINE
  5
34E
100
AcDbEntity
  8
RACCORDO
100
AcDbLine
 62
250
  6
CONTINUOUS
 10
-11.3702941878
 20
7.0678771832
 11
-6.9918500675
 21
8.8595237873
  0
LINE
  5
34F
100
AcDbEntity
  8
RACCORDO
100
AcDbLine
 62
250
  6
CONTINUOUS
 10
-11.0445254406
 20
6.4457156141
 11
-6.6692150554
 21
8.2360799028
  0
LWPOLYLINE
  5
350
100
AcDbEntity
  8
RACCORDO
100
AcDbPolyline
 62
250
  6
CONTINUOUS
 90
8
 70
0
 10
8.70623749
 20
13.9236099536
 10
8.7028543963
 20
13.922645703
 10
8.6920780784
 20
13.9179677774
 10
8.6740896873
 20
13.9095753049
 10
8.6491902173
 20
13.8976087142
 10
8.6177963035
 20
13.8822682384
 10
8.5804332506
 20
13.863810565
 10
8.5377262428
 20
13.8425445406
  0
LWPOLYLINE
  5
351
100
AcDbEntity
  8
ASSI
100
AcDbPolyline
 62
250
  6
CONTINUOUS
 90
8
 70
0
 10
8.7062380565
 20
13.9236088851
 10
8.7028543963
 20
13.922645703
 10
8.6920780784
 20
13.9179677774
 10
8.6740896873
 20
13.9095753049
 10
8.6491902173
 20
13.8976087142
 10
8.6177963035
 20
13.8822682384
 10
8.5804332506
 20
13.863810565
 10
8.5377262428
 20
13.8425445406
  0
LWPOLYLINE
  5
352
100
AcDbEntity
  8
ASSI
100
AcDbPolyline
 62
7
  6
CONTINUOUS
 90
19
 70
0
 10
-7.0602174533
 20
14.4916390429
 10
-7.0580189632
 20
14.4436477098
 10
-7.0520389632
 20
14.3952953886
 10
-7.0422774531
 20
14.3465820794
 10
-7.0285357596
 20
14.2969445061
 10
-7.0110125561
 20
14.2469459447
 10
-6.990303863
 20
14.1982762236
 10
-6.9663077998
 20
14.1509934819
 10
-6.9391262471
 20
14.1050395803
 10
-6.9096608668
 20
14.0619299303
 10
-6.8778357798
 20
14.0217554487
 10
-6.8437268652
 20
13.9844252185
 10
-6.8084634227
 20
13.9511819005
 10
-6.7719994925
 20
13.9221583931
 10
-6.7343810345
 20
13.8972217978
 10
-6.6968752277
 20
13.8772160793
 10
-6.6599044653
 20
13.8624225593
 10
-6.6230463542
 20
13.8525599161
 10
-6.5863008943
 20
13.8476281498
  0
LWPOLYLINE
  5
353
100
AcDbEntity
  8
0
100
AcDbPolyline
 62
7
  6
CONTINUOUS
 90
19
 70
0
 10
-7.0602174533
 20
14.4916390429
 10
-7.0580189632
 20
14.4436477098
 10
-7.0520389632
 20
14.3952953886
 10
-7.0422774531
 20
14.3465820794
 10
-7.0285357596
 20
14.2969445061
 10
-7.0110125561
 20
14.2469459447
 10
-6.990303863
 20
14.1982762236
 10
-6.9663077998
 20
14.1509934819
 10
-6.9391262471
 20
14.1050395803
 10
-6.9096608668
 20
14.0619299303
 10
-6.8778357798
 20
14.0217554487
 10
-6.8437268652
 20
13.9844252185
 10
-6.8084634227
 20
13.9511819005
 10
-6.7719994925
 20
13.9221583931
 10
-6.7343810345
 20
13.8972217978
 10
-6.6968752277
 20
13.8772160793
 10
-6.6599044653
 20
13.8624225593
 10
-6.6230463542
 20
13.8525599161
 10
-6.5863008943
 20
13.8476281498
  0
LWPOLYLINE
  5
354
100
AcDbEntity
  8
ASSI
100
AcDbPolyline
 62
7
  6
CONTINUOUS
 90
5
 70
0
 10
-8.5601713424
 20
18.0859794444
 10
-8.5581955336
 20
18.0354359114
 10
-8.5477785296
 20
17.959425089
 10
-8.5284768229
 20
17.8838209952
 10
-8.5003697856
 20
17.8088457769
  0
LWPOLYLINE
  5
355
100
AcDbEntity
  8
SMUSSO
100
AcDbPolyline
 62
7
  6
CONTINUOUS
 90
6
 70
0
 10
-8.5601713424
 20
18.0859794444
 10
-8.5581955336
 20
18.0354359114
 10
-8.5477785296
 20
17.959425089
 10
-8.5284768229
 20
17.8838209952
 10
-8.5003697856
 20
17.8088457769
 10
-8.4635580816
 20
17.7347191096
  0
LWPOLYLINE
  5
356
100
AcDbEntity
  8
0
100
AcDbPolyline
 62
250
  6
CONTINUOUS
 90
19
 70
0
 10
-5.7587977976
 20
9.4701809949
 10
-5.759771436
 20
9.4968262682
 10
-5.7624540811
 20
9.5237248956
 10
-5.7668457329
 20
9.5508768774
 10
-5.7730104032
 20
9.5784765758
 10
-5.7808840801
 20
9.6063296285
 10
-5.7902747284
 20
9.6338529479
 10
-5.8012047878
 20
9.6610275784
 10
-5.8136518185
 20
9.6878724756
 10
-5.8273564664
 20
9.7138614185
 10
-5.8422203637
 20
9.7388769052
 10
-5.8583418782
 20
9.7630364375
 10
-5.8757567586
 20
9.7861663004
 10
-5.8945225042
 20
9.8084310492
 10
-5.9145816156
 20
9.8296661286
 10
-5.9357973436
 20
9.8492041576
 10
-5.958124105
 20
9.8668226759
 10
-5.981607483
 20
9.8827441438
 10
-6.0062474775
 20
9.8969685612
  0
LINE
  5
357
100
AcDbEntity
  8
ASSI
100
AcDbLine
 62
250
  6
CONTINUOUS
 10
-7.8023888034
 20
18.9955942806
 11
-7.8023888034
 21
17.8929966058
  0
LINE
  5
358
100
AcDbEntity
  8
SMUSSO
100
AcDbLine
 62
250
  6
CONTINUOUS
 10
-7.8023888034
 20
18.9955942806
 11
-7.8023888034
 21
17.8929966058
  0
LINE
  5
359
100
AcDbEntity
  8
ASSI
100
AcDbLine
 62
7
  6
CONTINUOUS
 10
-6.8834407665
 20
14.7552935376
 11
-6.8834407665
 21
14.0288309182
  0
LINE
  5
35A
100
AcDbEntity
  8
0
100
AcDbLine
 62
7
  6
CONTINUOUS
 10
-6.8834407665
 20
14.7552935376
 11
-6.8834407665
 21
14.0288309182
  0
LINE
  5
35B
100
AcDbEntity
  8
ASSI
100
AcDbLine
 62
7
  6
CONTINUOUS
 10
-6.6694646557
 20
18.4055753579
 11
-6.6694646557
 21
17.5431976968
  0
LINE
  5
35C
100
AcDbEntity
  8
DRAFT
100
AcDbLine
 62
7
  6
CONTINUOUS
 10
-6.6694646557
 20
18.4055753579
 11
-6.6694646557
 21
17.5431976968
  0
LINE
  5
35D
100
AcDbEntity
  8
0
100
AcDbLine
 62
7
  6
CONTINUOUS
 10
-6.2047560976
 20
17.0031503922
 11
-6.2047560976
 21
16.9377986715
  0
LINE
  5
35E
100
AcDbEntity
  8
0
100
AcDbLine
 62
250
  6
CONTINUOUS
 10
-5.7587977976
 20
-24.186614691
 11
-5.7587977976
 21
-28.4451594854
  0
LINE
  5
35F
100
AcDbEntity
  8
0
100
AcDbLine
 62
250
  6
CONTINUOUS
 10
-5.7587977976
 20
5.2116362004
 11
-5.7587977976
 21
9.4701809949
  0
LINE
  5
360
100
AcDbEntity
  8
0
100
AcDbLine
 62
250
  6
CONTINUOUS
 10
-5.5485330248
 20
-23.9376637472
 11
-5.5485330248
 21
-28.4460769618
  0
LINE
  5
361
100
AcDbEntity
  8
0
100
AcDbLine
 62
250
  6
CONTINUOUS
 10
-5.5485330248
 20
4.9608503038
 11
-5.5485330248
 21
9.4692635185
  0
LINE
  5
362
100
AcDbEntity
  8
ASSI
100
AcDbLine
 62
7
  6
CONTINUOUS
 10
-5.5399378822
 20
17.7274600728
 11
-5.5399378822
 21
17.632816177
  0
LINE
  5
363
100
AcDbEntity
  8
DRAFT
100
AcDbLine
 62
7
  6
CONTINUOUS
 10
-5.5399378822
 20
17.7274600728
 11
-5.5399378822
 21
17.632816177
  0
LWPOLYLINE
  5
364
100
AcDbEntity
  8
RACCORDO
100
AcDbPolyline
 62
250
  6
CONTINUOUS
 90
13
 70
0
 10
-6.1582564364
 20
3.8989903526
 10
-6.1516924698
 20
3.9996622958
 10
-6.1494135379
 20
4.1021617581
 10
-6.1514406668
 20
4.2061490906
 10
-6.1577683668
 20
4.3113056619
 10
-6.1683642918
 20
4.417315082
 10
-6.1831871783
 20
4.523852446
 10
-6.2021953961
 20
4.6306045345
 10
-6.2253266077
 20
4.7372597078
 10
-6.2525039589
 20
4.843497252
 10
-6.2836531476
 20
4.9490011326
 10
-6.3186689665
 20
5.0534366687
 10
-6.3574198351
 20
5.1564529104
  0
LWPOLYLINE
  5
365
100
AcDbEntity
  8
0
100
AcDbPolyline
 62
250
  6
CONTINUOUS
 90
10
 70
0
 10
-6.0062474775
 20
9.8969685612
 10
-6.0046716174
 20
9.9200659196
 10
-5.9999908635
 20
9.9440528068
 10
-5.992344303
 20
9.9682164598
 10
-5.981959151
 20
9.9918388628
 10
-5.9691439994
 20
10.014218083
 10
-5.9542796464
 20
10.0346891288
 10
-5.937807782
 20
10.0526437089
 10
-5.9202178626
 20
10.0675483085
 10
-5.9020325675
 20
10.0789600418
  0
LINE
  5
366
100
AcDbEntity
  8
RACCORDO
100
AcDbLine
 62
7
  6
CONTINUOUS
 10
-9.3069183298
 20
-30.0077106613
 11
-6.6692150554
 21
8.2360799028
  0
LWPOLYLINE
  5
367
100
AcDbEntity
  8
RACCORDO
100
AcDbPolyline
 62
250
  6
CONTINUOUS
 90
13
 70
0
 10
-6.4375470108
 20
3.9218448025
 10
-6.4307216611
 20
4.0130647287
 10
-6.4277689919
 20
4.1054524425
 10
-6.4286890032
 20
4.1990079439
 10
-6.4335073564
 20
4.2940557312
 10
-6.4421983901
 20
4.390271306
 10
-6.4546851197
 20
4.4866811733
 10
-6.4710201968
 20
4.5832915186
 10
-6.4911509698
 20
4.6800961563
 10
-6.5148424997
 20
4.7761030345
 10
-6.5420164736
 20
4.8709814691
 10
-6.5727512045
 20
4.9650621441
 10
-6.6070466924
 20
5.0583450596
  0
LWPOLYLINE
  5
368
100
AcDbEntity
  8
RACCORDO
100
AcDbPolyline
 62
250
  6
CONTINUOUS
 90
16
 70
0
 10
-7.9412190175
 20
-10.4015515033
 10
-7.9425489842
 20
-10.4162260305
 10
-7.9436888963
 20
-10.4308252367
 10
-7.944638744
 20
-10.4453453531
 10
-7.9453984667
 20
-10.4597804569
 10
-7.9459683125
 20
-10.474129052
 10
-7.9463485542
 20
-10.4883939448
 10
-7.9465391289
 20
-10.50257137
 10
-7.9465400182
 20
-10.5166575981
 10
-7.9463511239
 20
-10.5306552851
 10
-7.9459722746
 20
-10.5445606344
 10
-7.9454033446
 20
-10.5583698172
 10
-7.9446438692
 20
-10.5720851975
 10
-7.9436934138
 20
-10.585704891
 10
-7.9425518548
 20
-10.5992229232
 10
-7.9412190175
 20
-10.612635398
  0
LWPOLYLINE
  5
369
100
AcDbEntity
  8
RACCORDO
100
AcDbPolyline
 62
250
  6
CONTINUOUS
 90
16
 70
0
 10
-7.6619201205
 20
-10.4244102614
 10
-7.6629876997
 20
-10.4361530267
 10
-7.6639027638
 20
-10.4478298097
 10
-7.6646653128
 20
-10.4594406104
 10
-7.6652752672
 20
-10.4709866731
 10
-7.6657327064
 20
-10.4824667535
 10
-7.666037869
 20
-10.4938771184
 10
-7.6661909117
 20
-10.5052178325
 10
-7.6661916777
 20
-10.5164888312
 10
-7.6660399353
 20
-10.5276861875
 10
-7.6657358379
 20
-10.5388100223
 10
-7.6652792321
 20
-10.5498602148
 10
-7.6646694266
 20
-10.5608324754
 10
-7.663906191
 20
-10.5717253745
 10
-7.6629897556
 20
-10.5825403417
 10
-7.6619201205
 20
-10.5932773771
  0
LINE
  5
36A
100
AcDbEntity
  8
RACCORDO
100
AcDbLine
 62
250
  6
CONTINUOUS
 10
-7.0207339447
 20
-0.9330112396
 11
-7.9412190175
 21
-10.4015515033
  0
LINE
  5
36B
100
AcDbEntity
  8
RACCORDO
100
AcDbLine
 62
250
  6
CONTINUOUS
 10
-6.9146679275
 20
-0.9860442482
 11
-6.4375470108
 21
3.9218448025
  0
LINE
  5
36C
100
AcDbEntity
  8
RACCORDO
100
AcDbLine
 62
250
  6
CONTINUOUS
 10
-6.7472260966
 20
-1.0154394376
 11
-7.6619201205
 21
-10.4244102614
  0
LINE
  5
36D
100
AcDbEntity
  8
RACCORDO
100
AcDbLine
 62
250
  6
CONTINUOUS
 10
-6.6335205768
 20
-0.9898889463
 11
-6.1582481138
 21
3.8989860444
  0
LWPOLYLINE
  5
36E
100
AcDbEntity
  8
ASSI
100
AcDbPolyline
 62
250
  6
CONTINUOUS
 90
12
 70
0
 10
-2.4596135949
 20
13.1420145074
 10
-2.4423065727
 20
13.1768824533
 10
-2.4274718845
 20
13.2091985451
 10
-2.4157128839
 20
13.2393553887
 10
-2.4077035843
 20
13.2680507774
 10
-2.4031512515
 20
13.295071373
 10
-2.4010365891
 20
13.3195843859
 10
-2.4008041181
 20
13.3409679144
 10
-2.4037702413
 20
13.3593601914
 10
-2.4109988993
 20
13.3753888191
 10
-2.4220802767
 20
13.3890252276
 10
-2.4355734629
 20
13.3995714679
  0
LWPOLYLINE
  5
36F
100
AcDbEntity
  8
RACCORDO
100
AcDbPolyline
 62
250
  6
CONTINUOUS
 90
12
 70
0
 10
-2.4596135949
 20
13.1420145074
 10
-2.4423065727
 20
13.1768824533
 10
-2.4274718845
 20
13.2091985451
 10
-2.4157128839
 20
13.2393553887
 10
-2.4077035843
 20
13.2680507774
 10
-2.4031512515
 20
13.295071373
 10
-2.4010365891
 20
13.3195843859
 10
-2.4008041181
 20
13.3409679144
 10
-2.4037702413
 20
13.3593601914
 10
-2.4109988993
 20
13.3753888191
 10
-2.4220802767
 20
13.3890252276
 10
-2.4355734668
 20
13.3995714703
  0
LWPOLYLINE
  5
370
100
AcDbEntity
  8
RACCORDO
100
AcDbPolyline
 62
250
  6
CONTINUOUS
 90
15
 70
0
 10
-0.5917778345
 20
12.6107578953
 10
-0.5628374271
 20
12.6537414752
 10
-0.5215655636
 20
12.7060751497
 10
-0.4749606303
 20
12.7574336302
 10
-0.423381071
 20
12.8074242775
 10
-0.366793188
 20
12.8560340464
 10
-0.3052306788
 20
12.9032759821
 10
-0.2391530797
 20
12.9487965812
 10
-0.1685267354
 20
12.9925843812
 10
-0.0933853011
 20
13.0346508447
 10
-0.0142892786
 20
13.0746768565
 10
0.0688062031
 20
13.1126517528
 10
0.155856273
 20
13.1485861975
 10
0.246165817
 20
13.1821930667
 10
0.3397723117
 20
13.2134523472
  0
LWPOLYLINE
  5
371
100
AcDbEntity
  8
ASSI
100
AcDbPolyline
 62
250
  6
CONTINUOUS
 90
8
 70
0
 10
9.0246179843
 20
13.2885975526
 10
9.0217478312
 20
13.2866111381
 10
9.0114718784
 20
13.28093616
 10
8.9939073295
 20
13.2716989246
 10
8.9693480544
 20
13.2590539808
 10
8.9382049749
 20
13.2432129029
 10
8.9009991616
 20
13.2244407366
 10
8.8583531478
 20
13.2030515816
  0
LWPOLYLINE
  5
372
100
AcDbEntity
  8
RACCORDO
100
AcDbPolyline
 62
250
  6
CONTINUOUS
 90
8
 70
0
 10
9.0246179843
 20
13.2885975526
 10
9.0217478312
 20
13.2866111381
 10
9.0114718784
 20
13.28093616
 10
8.9939073295
 20
13.2716989246
 10
8.9693480544
 20
13.2590539808
 10
8.9382049749
 20
13.2432129029
 10
8.9009991616
 20
13.2244407366
 10
8.8583531478
 20
13.2030515816
  0
LINE
  5
373
100
AcDbEntity
  8
ASSI
100
AcDbLine
 62
250
  6
CONTINUOUS
 10
8.8583531483
 20
13.2030515805
 11
-0.6947299063
 21
8.3220770155
  0
LINE
  5
374
100
AcDbEntity
  8
RACCORDO
100
AcDbLine
 62
250
  6
CONTINUOUS
 10
8.8583531483
 20
13.2030515805
 11
-0.6947299063
 21
8.3220770155
  0
LINE
  5
375
100
AcDbEntity
  8
RACCORDO
100
AcDbLine
 62
250
  6
CONTINUOUS
 10
-0.6947299063
 20
8.3220770155
 11
-5.1510291525
 21
6.0451193224
  0
LINE
  5
376
100
AcDbEntity
  8
ASSI
100
AcDbLine
 62
250
  6
CONTINUOUS
 10
-0.6947299063
 20
8.3220770155
 11
-5.1510291525
 21
6.0451193224
  0
LINE
  5
377
100
AcDbEntity
  8
ASSI
100
AcDbLine
 62
250
  6
CONTINUOUS
 10
9.167175741
 20
11.9683779773
 11
1.9962851464
 21
8.3100611262
  0
LINE
  5
378
100
AcDbEntity
  8
RACCORDO
100
AcDbLine
 62
250
  6
CONTINUOUS
 10
9.167175741
 20
11.9683779773
 11
1.9962851464
 21
8.3100611262
  0
LINE
  5
379
100
AcDbEntity
  8
ASSI
100
AcDbLine
 62
250
  6
CONTINUOUS
 10
1.9962851464
 20
8.3100611262
 11
-5.0612189746
 21
4.7093814359
  0
LINE
  5
37A
100
AcDbEntity
  8
RACCORDO
100
AcDbLine
 62
250
  6
CONTINUOUS
 10
1.9962851464
 20
8.3100611262
 11
-5.0612189746
 21
4.7093814359
  0
LINE
  5
37B
100
AcDbEntity
  8
0
100
AcDbLine
 62
7
  6
CONTINUOUS
 10
-5.5485330248
 20
4.9608503038
 11
-5.1510291525
 21
5.1556408916
  0
LINE
  5
37C
100
AcDbEntity
  8
RACCORDO
100
AcDbLine
 62
250
  6
CONTINUOUS
 10
-6.1582481138
 20
3.8989860444
 11
-5.0449631354
 21
4.444535526
  0
LINE
  5
37D
100
AcDbEntity
  8
0
100
AcDbLine
 62
250
  6
CONTINUOUS
 10
-6.3574151455
 20
5.1564550139
 11
-5.845032624
 21
5.4071766466
  0
LWPOLYLINE
  5
37E
100
AcDbEntity
  8
RACCORDO
100
AcDbPolyline
 62
250
  6
CONTINUOUS
 90
10
 70
0
 10
-6.6070466924
 20
5.0583450596
 10
-6.5850881267
 20
5.0678017044
 10
-6.5599405226
 20
5.0783253752
 10
-6.5322811685
 20
5.0896326428
 10
-6.5028550004
 20
5.1014189741
 10
-6.4724545394
 20
5.1133669334
 10
-6.4418985465
 20
5.1251547321
 10
-6.4120099715
 20
5.1364648949
 10
-6.3835937892
 20
5.1469928107
 10
-6.357415319
 20
5.1564549361
  0
LWPOLYLINE
  5
37F
100
AcDbEntity
  8
0
100
AcDbPolyline
 62
7
  6
CONTINUOUS
 90
25
 70
0
 10
-5.5485330248
 20
4.9608503038
 10
-5.557097064
 20
4.9582380322
 10
-5.5659246184
 20
4.957378023
 10
-5.5749177905
 20
4.9582568069
 10
-5.5839653878
 20
4.9610362769
 10
-5.5930072035
 20
4.9655147832
 10
-5.602041052
 20
4.9711352417
 10
-5.6109746966
 20
4.977782552
 10
-5.6197882436
 20
4.9855307447
 10
-5.6286120153
 20
4.9941264378
 10
-5.6374439687
 20
5.0035410422
 10
-5.6462174665
 20
5.0137904275
 10
-5.6549782077
 20
5.0247089188
 10
-5.6636726376
 20
5.0362344193
 10
-5.6722953741
 20
5.0484210878
 10
-5.6809638522
 20
5.0612959597
 10
-5.6896500917
 20
5.0748630648
 10
-5.6983141412
 20
5.0891324655
 10
-5.7070432085
 20
5.1041631129
 10
-5.7157873088
 20
5.1199812676
 10
-5.7244946379
 20
5.1365901786
 10
-5.7332234566
 20
5.1540354996
 10
-5.7419313903
 20
5.172351478
 10
-5.7504888505
 20
5.1915468382
 10
-5.7587977976
 20
5.2116362004
  0
LWPOLYLINE
  5
380
100
AcDbEntity
  8
RACCORDO
100
AcDbPolyline
 62
250
  6
CONTINUOUS
 90
13
 70
0
 10
-7.6619201205
 20
-10.4244102614
 10
-7.6815167914
 20
-10.4299837585
 10
-7.7031105918
 20
-10.4342601304
 10
-7.7263401392
 20
-10.4371678098
 10
-7.7508166758
 20
-10.4386581352
 10
-7.7761305749
 20
-10.4387061652
 10
-7.801858196
 20
-10.437311096
 10
-7.8275689749
 20
-10.4344962747
 10
-7.852832629
 20
-10.4303088086
 10
-7.8772263586
 20
-10.4248187771
 10
-7.9003419226
 20
-10.4181180584
 10
-7.9217924707
 20
-10.4103187923
 10
-7.9412190175
 20
-10.4015515033
  0
LINE
  5
381
100
AcDbEntity
  8
RACCORDO
100
AcDbLine
 62
7
  6
CONTINUOUS
 10
-4.335204005
 20
17.0980076407
 11
-4.3545057231
 21
17.3528354741
  0
LWPOLYLINE
  5
382
100
AcDbEntity
  8
0
100
AcDbPolyline
 62
250
  6
CONTINUOUS
 90
19
 70
0
 10
-5.5485330625
 20
9.4692634995
 10
-5.5499726654
 20
9.5067755994
 10
-5.5539588748
 20
9.54522704
 10
-5.5604449918
 20
9.5843342918
 10
-5.5693644847
 20
9.6238076991
 10
-5.5806384986
 20
9.6633659679
 10
-5.5941794379
 20
9.7027382903
 10
-5.6098733442
 20
9.7416320242
 10
-5.6276002975
 20
9.7797869207
 10
-5.647253031
 20
9.8169858803
 10
-5.6685577698
 20
9.8527582147
 10
-5.6914753462
 20
9.8870773665
 10
-5.7163269245
 20
9.9203135266
 10
-5.7430863778
 20
9.9522119605
 10
-5.7715502449
 20
9.9823122093
 10
-5.8018474326
 20
10.0104944583
 10
-5.8339002821
 20
10.0363671648
 10
-5.8673871504
 20
10.059353605
 10
-5.9020326136
 20
10.0789600185
  0
LINE
  5
383
100
AcDbEntity
  8
0
100
AcDbLine
 62
7
  6
CONTINUOUS
 10
-5.1510291525
 20
9.6695480848
 11
-5.1510291525
 21
5.1556408916
  0
LINE
  5
384
100
AcDbEntity
  8
DRAFT
100
AcDbLine
 62
7
  6
CONTINUOUS
 10
-5.1510291525
 20
-18.3897409477
 11
-5.1510291525
 21
-0.3052252785
  0
LINE
  5
385
100
AcDbEntity
  8
ASSI
100
AcDbLine
 62
7
  6
CONTINUOUS
 10
-5.1510291525
 20
-18.3897409477
 11
-5.1510291525
 21
-0.3052252785
  0
LINE
  5
386
100
AcDbEntity
  8
0
100
AcDbLine
 62
7
  6
CONTINUOUS
 10
-5.1510291525
 20
-18.3897409477
 11
-5.1510291525
 21
-0.3052252785
  0
LINE
  5
387
100
AcDbEntity
  8
0
100
AcDbLine
 62
7
  6
CONTINUOUS
 10
-5.1510291525
 20
-23.7485893075
 11
-5.1510291525
 21
-28.2624965008
  0
LINE
  5
388
100
AcDbEntity
  8
RACCORDO
100
AcDbLine
 62
7
  6
CONTINUOUS
 10
-5.0449631354
 20
-23.1435499592
 11
-5.0449631354
 21
-18.4427739563
  0
LINE
  5
389
100
AcDbEntity
  8
RACCORDO
100
AcDbLine
 62
7
  6
CONTINUOUS
 10
-5.0449631354
 20
-0.2562404768
 11
-5.0449631354
 21
4.444535526
  0
LINE
  5
38A
100
AcDbEntity
  8
ASSI
100
AcDbLine
 62
7
  6
CONTINUOUS
 10
-3.6338036849
 20
21.0632432306
 11
-3.6338036849
 21
19.7790259244
  0
LINE
  5
38B
100
AcDbEntity
  8
SMUSSO
100
AcDbLine
 62
7
  6
CONTINUOUS
 10
-3.6338036849
 20
21.0632432306
 11
-3.6338036849
 21
19.7790259244
  0
LWPOLYLINE
  5
38C
100
AcDbEntity
  8
0
100
AcDbPolyline
 62
7
  6
CONTINUOUS
 90
7
 70
0
 10
-5.0449631354
 20
-23.1435499592
 10
-5.048067477
 20
-23.2553123372
 10
-5.0570011498
 20
-23.3627057206
 10
-5.0717641537
 20
-23.4657301094
 10
-5.0923564889
 20
-23.5643855034
 10
-5.1187781551
 20
-23.6586719028
 10
-5.1510291525
 20
-23.7485893075
  0
LWPOLYLINE
  5
38D
100
AcDbEntity
  8
0
100
AcDbPolyline
 62
250
  6
CONTINUOUS
 90
11
 70
0
 10
-5.5485330916
 20
-28.4460769927
 10
-5.5507194978
 20
-28.4911211737
 10
-5.5566742055
 20
-28.5327385373
 10
-5.5660789277
 20
-28.570657394
 10
-5.5786543699
 20
-28.6048200007
 10
-5.5940137302
 20
-28.6349568112
 10
-5.6115517568
 20
-28.6607158836
 10
-5.6307138272
 20
-28.6821416312
 10
-5.6511690237
 20
-28.6995909979
 10
-5.6725984989
 20
-28.7133597958
 10
-5.6834264815
 20
-28.7188756235
  0
LWPOLYLINE
  5
38E
100
AcDbEntity
  8
0
100
AcDbPolyline
 62
250
  6
CONTINUOUS
 90
17
 70
0
 10
-5.7587977976
 20
-28.4451594854
 10
-5.7605876438
 20
-28.4768522834
 10
-5.7645681048
 20
-28.5058685947
 10
-5.7707391808
 20
-28.5322084193
 10
-5.7794218095
 20
-28.555947063
 10
-5.790295053
 20
-28.5770092201
 10
-5.8023960979
 20
-28.5951689734
 10
-5.815654303
 20
-28.6101776394
 10
-5.8301403095
 20
-28.6222839017
 10
-5.8451032274
 20
-28.6320078936
 10
-5.8602605292
 20
-28.6393576199
 10
-5.8758947424
 20
-28.6443250758
 10
-5.8921025598
 20
-28.6474063801
 10
-5.908743659
 20
-28.6488698648
 10
-5.9259583624
 20
-28.6484471979
 10
-5.9442643299
 20
-28.6458295029
 10
-5.963834115
 20
-28.6409138207
  0
LINE
  5
38F
100
AcDbEntity
  8
ASSI
100
AcDbLine
 62
250
  6
CONTINUOUS
 10
9.3075058408
 20
10.1969556535
 11
10.1053545315
 21
10.6400060239
  0
LINE
  5
390
100
AcDbEntity
  8
RACCORDO
100
AcDbLine
 62
250
  6
CONTINUOUS
 10
9.3075058408
 20
10.1969556535
 11
10.1053545315
 21
10.6400060239
  0
LINE
  5
391
100
AcDbEntity
  8
ASSI
100
AcDbLine
 62
250
  6
CONTINUOUS
 10
9.3075058408
 20
8.3783023055
 11
10.1053545315
 21
8.8213526759
  0
LINE
  5
392
100
AcDbEntity
  8
RACCORDO
100
AcDbLine
 62
250
  6
CONTINUOUS
 10
9.3075058408
 20
8.3783023055
 11
10.1053545315
 21
8.8213526759
  0
LINE
  5
393
100
AcDbEntity
  8
RACCORDO
100
AcDbLine
 62
7
  6
CONTINUOUS
 10
-7.0207339447
 20
-0.9330112396
 11
-6.9146679275
 21
-0.9860442482
  0
LWPOLYLINE
  5
394
100
AcDbEntity
  8
RACCORDO
100
AcDbPolyline
 62
250
  6
CONTINUOUS
 90
4
 70
0
 10
-8.7839798821
 20
9.7555886946
 10
-8.9982843423
 20
10.1489782323
 10
-9.3915499025
 20
10.837432435
 10
-9.7974331447
 20
11.5156017999
  0
LWPOLYLINE
  5
395
100
AcDbEntity
  8
RACCORDO
100
AcDbPolyline
 62
250
  6
CONTINUOUS
 90
5
 70
0
 10
-8.3686642402
 20
9.5479308736
 10
-8.3846371579
 20
9.5786646901
 10
-8.7688547939
 20
10.2830424867
 10
-9.1654325575
 20
10.9765324491
 10
-9.5739940929
 20
11.6585686939
  0
LWPOLYLINE
  5
396
100
AcDbEntity
  8
0
100
AcDbPolyline
 62
7
  6
CONTINUOUS
 90
4
 70
0
 10
-5.845032624
 20
5.4071766466
 10
-6.2008337673
 20
6.1306350632
 10
-6.5686591219
 20
6.8465025425
 10
-6.742675915
 20
7.1709783971
  0
LWPOLYLINE
  5
397
100
AcDbEntity
  8
0
100
AcDbPolyline
 62
7
  6
CONTINUOUS
 90
4
 70
0
 10
-9.5081464574
 20
11.6925179995
 10
-9.5182961785
 20
11.7137743215
 10
-9.5281785852
 20
11.7353634072
 10
-9.5378440374
 20
11.7571377929
  0
LWPOLYLINE
  5
398
100
AcDbEntity
  8
0
100
AcDbPolyline
 62
7
  6
CONTINUOUS
 90
7
 70
0
 10
-5.845032624
 20
5.4071766466
 10
-5.8296996987
 20
5.3748315029
 10
-5.814750955
 20
5.342388387
 10
-5.8001863931
 20
5.3098472988
 10
-5.7860060129
 20
5.2772082383
 10
-5.7722098144
 20
5.2444712055
 10
-5.7587977976
 20
5.2116362004
  0
LWPOLYLINE
  5
399
100
AcDbEntity
  8
0
100
AcDbPolyline
 62
7
  6
CONTINUOUS
 90
6
 70
0
 10
-9.5755589414
 20
11.8434923316
 10
-9.5849737642
 20
11.8644075951
 10
-9.5942640123
 20
11.884568496
 10
-9.6034495039
 20
11.9037852956
 10
-9.6127312569
 20
11.9219875286
 10
-9.6222312822
 20
11.9390593991
  0
LINE
  5
39A
100
AcDbEntity
  8
0
100
AcDbLine
 62
7
  6
CONTINUOUS
 10
-9.5378440374
 20
11.7571377929
 11
-9.5755589414
 21
11.8434923316
  0
LWPOLYLINE
  5
39B
100
AcDbEntity
  8
RACCORDO
100
AcDbPolyline
 62
250
  6
CONTINUOUS
 90
3
 70
0
 10
-6.3574151455
 20
5.1564550139
 10
-6.6607026922
 20
5.9138364938
 10
-6.80575277
 20
6.2564335144
  0
LINE
  5
39C
100
AcDbEntity
  8
RACCORDO
100
AcDbLine
 62
250
  6
CONTINUOUS
 10
-6.6070466924
 20
5.0583450596
 11
-6.8470096637
 21
5.6582540242
  0
LWPOLYLINE
  5
39D
100
AcDbEntity
  8
0
100
AcDbPolyline
 62
7
  6
CONTINUOUS
 90
7
 70
0
 10
-5.1510291525
 20
5.1556408916
 10
-5.1187781551
 20
5.0334724894
 10
-5.0923564889
 20
4.9127644238
 10
-5.0717641537
 20
4.7935166946
 10
-5.0570011498
 20
4.6757293019
 10
-5.048067477
 20
4.5594022457
 10
-5.0449631354
 20
4.444535526
  0
LWPOLYLINE
  5
39E
100
AcDbEntity
  8
RACCORDO
100
AcDbPolyline
 62
250
  6
CONTINUOUS
 90
6
 70
0
 10
-9.0238674381
 20
14.5849239811
 10
-9.0273975228
 20
14.5983973864
 10
-9.0358389148
 20
14.6184497039
 10
-9.0469107161
 20
14.6365897478
 10
-9.0604222891
 20
14.6525147925
 10
-9.0755979357
 20
14.6655657481
  0
LWPOLYLINE
  5
39F
100
AcDbEntity
  8
ASSI
100
AcDbPolyline
 62
7
  6
CONTINUOUS
 90
5
 70
0
 10
-1.5224234609
 20
13.4913674536
 10
-1.5204476521
 20
13.4408239206
 10
-1.510030648
 20
13.3648130982
 10
-1.4907289414
 20
13.2892090044
 10
-1.4626219041
 20
13.2142337861
  0
LWPOLYLINE
  5
3A0
100
AcDbEntity
  8
SMUSSO
100
AcDbPolyline
 62
7
  6
CONTINUOUS
 90
6
 70
0
 10
-1.5224234609
 20
13.4913674536
 10
-1.5204476521
 20
13.4408239206
 10
-1.510030648
 20
13.3648130982
 10
-1.4907289414
 20
13.2892090044
 10
-1.4626219041
 20
13.2142337861
 10
-1.4258102001
 20
13.1401071188
  0
LINE
  5
3A1
100
AcDbEntity
  8
ASSI
100
AcDbLine
 62
250
  6
CONTINUOUS
 10
-0.7646409218
 20
14.4009822898
 11
-0.7646409218
 21
13.65012109
  0
LINE
  5
3A2
100
AcDbEntity
  8
SMUSSO
100
AcDbLine
 62
250
  6
CONTINUOUS
 10
-0.7646409218
 20
14.4009822898
 11
-0.7646409218
 21
13.65012109
  0
LWPOLYLINE
  5
3A3
100
AcDbEntity
  8
ASSI
100
AcDbPolyline
 62
250
  6
CONTINUOUS
 90
7
 70
0
 10
1.0971808031
 20
18.9193320835
 10
1.0957252738
 20
18.907289522
 10
1.090955177
 20
18.8945758113
 10
1.0829427137
 20
18.8822763397
 10
1.0718219541
 20
18.8705969104
 10
1.0577789783
 20
18.8597329515
 10
1.0410487632
 20
18.8498662464
  0
LWPOLYLINE
  5
3A4
100
AcDbEntity
  8
RACCORDO
100
AcDbPolyline
 62
250
  6
CONTINUOUS
 90
7
 70
0
 10
1.0971808031
 20
18.9193320835
 10
1.0957252738
 20
18.907289522
 10
1.090955177
 20
18.8945758113
 10
1.0829427137
 20
18.8822763397
 10
1.0718219541
 20
18.8705969104
 10
1.0577789783
 20
18.8597329515
 10
1.0410487632
 20
18.8498662464
  0
LINE
  5
3A5
100
AcDbEntity
  8
ASSI
100
AcDbLine
 62
250
  6
CONTINUOUS
 10
9.6235359099
 20
7.522578269
 11
9.5525557913
 21
7.4664939407
  0
LINE
  5
3A6
100
AcDbEntity
  8
RACCORDO
100
AcDbLine
 62
250
  6
CONTINUOUS
 10
9.6235359099
 20
7.522578269
 11
9.5525557913
 21
7.4664939407
  0
LINE
  5
3A7
100
AcDbEntity
  8
ASSI
100
AcDbLine
 62
250
  6
CONTINUOUS
 10
9.5525557913
 20
7.4664939407
 11
9.4729741559
 21
7.4145815783
  0
LINE
  5
3A8
100
AcDbEntity
  8
RACCORDO
100
AcDbLine
 62
250
  6
CONTINUOUS
 10
9.5525557913
 20
7.4664939407
 11
9.4721827715
 21
7.414117516
  0
LINE
  5
3A9
100
AcDbEntity
  8
ASSI
100
AcDbLine
 62
250
  6
CONTINUOUS
 10
9.4729741559
 20
7.4145815783
 11
9.4721827715
 21
7.414117516
  0
LINE
  5
3AA
100
AcDbEntity
  8
ASSI
100
AcDbLine
 62
7
  6
CONTINUOUS
 10
9.3075058408
 20
7.3176534193
 11
9.4721824895
 21
7.4141173508
  0
LINE
  5
3AB
100
AcDbEntity
  8
DRAFT
100
AcDbLine
 62
7
  6
CONTINUOUS
 10
9.3075058408
 20
7.3176534193
 11
9.4721824895
 21
7.4141173508
  0
LINE
  5
3AC
100
AcDbEntity
  8
RACCORDO
100
AcDbLine
 62
7
  6
CONTINUOUS
 10
-5.0449631354
 20
-0.2562404768
 11
-6.6335205768
 21
-0.9898889463
  0
LWPOLYLINE
  5
3AD
100
AcDbEntity
  8
RACCORDO
100
AcDbPolyline
 62
250
  6
CONTINUOUS
 90
16
 70
0
 10
-12.1206956927
 20
5.9455410374
 10
-12.0822738742
 20
5.9278747063
 10
-12.0405071585
 20
5.9116798458
 10
-11.9958430411
 20
5.8971299704
 10
-11.9487600606
 20
5.8843809698
 10
-11.899762672
 20
5.8735694389
 10
-11.8493758412
 20
5.8648112144
 10
-11.798139421
 20
5.8582001334
 10
-11.746602367
 20
5.8538070281
 10
-11.6953168556
 20
5.851678967
 10
-11.6448323682
 20
5.8518387504
 10
-11.5956898039
 20
5.8542846665
 10
-11.5484156843
 20
5.8589905092
 10
-11.503516512
 20
5.8659058595
 10
-11.4614733442
 20
5.874956625
 10
-11.4227366383
 20
5.8860458344
  0
LINE
  5
3AE
100
AcDbEntity
  8
RACCORDO
100
AcDbLine
 62
250
  6
CONTINUOUS
 10
-26.8784167883
 20
13.3243877265
 11
-12.1207121643
 21
5.9455354145
  0
LWPOLYLINE
  5
3AF
100
AcDbEntity
  8
RACCORDO
100
AcDbPolyline
 62
250
  6
CONTINUOUS
 90
16
 70
0
 10
-11.3702941878
 20
7.0678771832
 10
-11.3341156659
 20
7.0467082889
 10
-11.2985696337
 20
7.020920443
 10
-11.2640453144
 20
6.9907960184
 10
-11.230920744
 20
6.9566648728
 10
-11.1995586314
 20
6.918900737
 10
-11.1703023868
 20
6.8779171223
 10
-11.1434723616
 20
6.8341627927
 10
-11.1193623404
 20
6.7881168514
 10
-11.0982363239
 20
6.7402834942
 10
-11.0803256389
 20
6.6911864887
 10
-11.0658264046
 20
6.6413634396
 10
-11.0548973851
 20
6.5913599013
 10
-11.0476582517
 20
6.5417234048
 10
-11.0441882716
 20
6.4929974619
 10
-11.0445254406
 20
6.4457156141
  0
LINE
  5
3B0
100
AcDbEntity
  8
ASSI
100
AcDbLine
 62
7
  6
CONTINUOUS
 10
-16.672917068
 20
16.0708654838
 11
-16.6376275269
 21
16.0375344919
  0
LINE
  5
3B1
100
AcDbEntity
  8
ASSI
100
AcDbLine
 62
7
  6
CONTINUOUS
 10
-16.707460829
 20
16.108619655
 11
-16.672917068
 21
16.0708654838
  0
LWPOLYLINE
  5
3B2
100
AcDbEntity
  8
0
100
AcDbPolyline
 62
7
  6
CONTINUOUS
 90
3
 70
0
 10
-16.707460829
 20
16.108619655
 10
-16.672917068
 20
16.0708654838
 10
-16.6376275269
 20
16.0375344919
  0
LINE
  5
3B3
100
AcDbEntity
  8
0
100
AcDbLine
 62
7
  6
CONTINUOUS
 10
-10.1180704364
 20
13.4526456482
 11
-10.1904069056
 21
13.5467483381
  0
LINE
  5
3B4
100
AcDbEntity
  8
0
100
AcDbLine
 62
7
  6
CONTINUOUS
 10
-9.9966698923
 20
13.2934666647
 11
-10.1180704364
 21
13.4526456482
  0
LINE
  5
3B5
100
AcDbEntity
  8
ASSI
100
AcDbLine
 62
7
  6
CONTINUOUS
 10
-9.9648697255
 20
13.2515096606
 11
-10.0459458378
 21
13.3582664881
  0
LINE
  5
3B6
100
AcDbEntity
  8
0
100
AcDbLine
 62
7
  6
CONTINUOUS
 10
-9.9966698923
 20
13.2934666647
 11
-9.9411165124
 21
13.2200985724
  0
LINE
  5
3B7
100
AcDbEntity
  8
ASSI
100
AcDbLine
 62
7
  6
CONTINUOUS
 10
-9.8841002372
 20
13.1444510062
 11
-9.9648697255
 21
13.2515096606
  0
LINE
  5
3B8
100
AcDbEntity
  8
0
100
AcDbLine
 62
7
  6
CONTINUOUS
 10
-9.9411165124
 20
13.2200985724
 11
-9.8841002372
 21
13.1444510062
  0
LINE
  5
3B9
100
AcDbEntity
  8
ASSI
100
AcDbLine
 62
7
  6
CONTINUOUS
 10
-9.1146749592
 20
12.0843177401
 11
-9.3630786966
 21
12.4364285889
  0
LINE
  5
3BA
100
AcDbEntity
  8
0
100
AcDbLine
 62
7
  6
CONTINUOUS
 10
-9.1146749592
 20
12.0843177401
 11
-9.3630786966
 21
12.4364285889
  0
LWPOLYLINE
  5
3BB
100
AcDbEntity
  8
0
100
AcDbPolyline
 62
7
  6
CONTINUOUS
 90
10
 70
0
 10
-9.9868256
 20
13.2804897882
 10
-9.9742981347
 20
13.2626110295
 10
-9.9630933998
 20
13.2441509428
 10
-9.9532113953
 20
13.2251095281
 10
-9.9445668169
 20
13.2052486198
 10
-9.9372449688
 20
13.1848063835
 10
-9.9315017643
 20
13.164497316
 10
-9.9274225078
 20
13.1445595831
 10
-9.9249218949
 20
13.1247550191
 10
-9.9239999256
 20
13.105083624
  0
LWPOLYLINE
  5
3BC
100
AcDbEntity
  8
RACCORDO
100
AcDbPolyline
 62
250
  6
CONTINUOUS
 90
10
 70
0
 10
-9.5739950396
 20
11.6585676247
 10
-9.5938406473
 20
11.6875502302
 10
-9.6147809751
 20
11.715078042
 10
-9.6367058568
 20
11.7410157813
 10
-9.6595062533
 20
11.7652258394
 10
-9.6830704864
 20
11.7875825909
 10
-9.707276131
 20
11.807985945
 10
-9.7319994249
 20
11.8263334914
 10
-9.7571171131
 20
11.8425169524
 10
-9.7824953642
 20
11.8564467218
  0
LWPOLYLINE
  5
3BD
100
AcDbEntity
  8
0
100
AcDbPolyline
 62
7
  6
CONTINUOUS
 90
7
 70
0
 10
-9.0230168681
 20
10.973564898
 10
-9.478220616
 20
11.6400438526
 10
-9.4850578716
 20
11.6507296199
 10
-9.4914548203
 20
11.6613423169
 10
-9.4974255495
 20
11.6718588226
 10
-9.5029845187
 20
11.682257457
 10
-9.5081464574
 20
11.6925179995
  0
LWPOLYLINE
  5
3BE
100
AcDbEntity
  8
RACCORDO
100
AcDbPolyline
 62
250
  6
CONTINUOUS
 90
10
 70
0
 10
-9.7974331447
 20
11.5156017999
 10
-9.8090071992
 20
11.5334040556
 10
-9.8211612096
 20
11.5501373275
 10
-9.8338951758
 20
11.5658016154
 10
-9.8472862623
 20
11.5804673187
 10
-9.8612573046
 20
11.5940640382
 10
-9.8755768092
 20
11.6063805757
 10
-9.8901676118
 20
11.6173465321
 10
-9.9051068768
 20
11.6270323067
 10
-9.9203946041
 20
11.6354378993
  0
LWPOLYLINE
  5
3BF
100
AcDbEntity
  8
0
100
AcDbPolyline
 62
7
  6
CONTINUOUS
 90
4
 70
0
 10
-7.9943884624
 20
9.3607929847
 10
-8.1602026531
 20
9.6340630873
 10
-8.5861079368
 20
10.3084827451
 10
-9.0230168681
 20
10.973564898
  0
LWPOLYLINE
  5
3C0
100
AcDbEntity
  8
RACCORDO
100
AcDbPolyline
 62
250
  6
CONTINUOUS
 90
7
 70
0
 10
-9.079728278
 20
14.5591255941
 10
-9.0903937731
 20
14.578499581
 10
-9.1047788205
 20
14.6001450601
 10
-9.1206874353
 20
14.6201497424
 10
-9.1378474165
 20
14.6381713421
 10
-9.1559651521
 20
14.6539015047
 10
-9.1747306427
 20
14.6670710827
  0
LWPOLYLINE
  5
3C1
100
AcDbEntity
  8
ASSI
100
AcDbPolyline
 62
7
  6
CONTINUOUS
 90
4
 70
0
 10
-8.5003697856
 20
17.8088457769
 10
-8.4635580816
 20
17.7347191096
 10
-8.4181785363
 20
17.6616931411
 10
-8.3643892919
 20
17.5900055923
  0
LINE
  5
3C2
100
AcDbEntity
  8
0
100
AcDbLine
 62
7
  6
CONTINUOUS
 10
-6.9117250377
 20
17.3566348622
 11
-6.7921317393
 21
17.0030622765
  0
LWPOLYLINE
  5
3C3
100
AcDbEntity
  8
RACCORDO
100
AcDbPolyline
 62
7
  6
CONTINUOUS
 90
12
 70
0
 10
-4.3545057231
 20
17.3528354741
 10
-4.3559636967
 20
17.3659975362
 10
-4.3583698679
 20
17.3784360647
 10
-4.3617242367
 20
17.3901510595
 10
-4.3660745988
 20
17.4012619453
 10
-4.3713731585
 20
17.4116492975
 10
-4.3774765287
 20
17.4209548423
 10
-4.3843832947
 20
17.429094715
 10
-4.3920948712
 20
17.4361527803
 10
-4.4004721143
 20
17.4420223579
 10
-4.4095109971
 20
17.4466966085
 10
-4.4167718507
 20
17.4494392756
  0
LINE
  5
3C4
100
AcDbEntity
  8
ASSI
100
AcDbLine
 62
7
  6
CONTINUOUS
 10
1.0971808031
 20
18.9193320835
 11
1.0942594103
 21
18.9533774984
  0
LINE
  5
3C5
100
AcDbEntity
  8
RACCORDO
100
AcDbLine
 62
7
  6
CONTINUOUS
 10
1.0971808031
 20
18.9193320835
 11
1.0955472031
 21
18.9448389674
  0
LINE
  5
3C6
100
AcDbEntity
  8
ASSI
100
AcDbLine
 62
250
  6
CONTINUOUS
 10
1.0410487632
 20
18.1530932148
 11
1.0419627169
 21
18.1297353443
  0
LINE
  5
3C7
100
AcDbEntity
  8
RACCORDO
100
AcDbLine
 62
250
  6
CONTINUOUS
 10
1.0410487632
 20
18.1530932148
 11
1.0419627169
 21
18.1297353443
  0
LINE
  5
3C8
100
AcDbEntity
  8
ASSI
100
AcDbLine
 62
250
  6
CONTINUOUS
 10
1.0401795591
 20
18.8727206668
 11
1.0410487632
 21
18.8498662464
  0
LINE
  5
3C9
100
AcDbEntity
  8
RACCORDO
100
AcDbLine
 62
250
  6
CONTINUOUS
 10
1.0401795591
 20
18.8727206668
 11
1.0410487632
 21
18.8498662464
  0
LWPOLYLINE
  5
3CA
100
AcDbEntity
  8
ASSI
100
AcDbPolyline
 62
250
  6
CONTINUOUS
 90
12
 70
0
 10
1.097180766
 20
18.1211960651
 10
1.0969466829
 20
18.1279008482
 10
1.0957669578
 20
18.1366119378
 10
1.0935504207
 20
18.1440971681
 10
1.0902644513
 20
18.1504370474
 10
1.0859520511
 20
18.1552794769
 10
1.0806526334
 20
18.1585610134
 10
1.0743834506
 20
18.1604169125
 10
1.0672260186
 20
18.1607821278
 10
1.0592529118
 20
18.159650642
 10
1.0505072376
 20
18.1570801953
 10
1.0410487632
 20
18.1530932148
  0
LWPOLYLINE
  5
3CB
100
AcDbEntity
  8
RACCORDO
100
AcDbPolyline
 62
250
  6
CONTINUOUS
 90
12
 70
0
 10
1.0971807964
 20
18.1211447312
 10
1.0969466829
 20
18.1279008482
 10
1.0957669578
 20
18.1366119378
 10
1.0935504207
 20
18.1440971681
 10
1.0902644513
 20
18.1504370474
 10
1.0859520511
 20
18.1552794769
 10
1.0806526334
 20
18.1585610134
 10
1.0743834506
 20
18.1604169125
 10
1.0672260186
 20
18.1607821278
 10
1.0592529118
 20
18.159650642
 10
1.0505072376
 20
18.1570801953
 10
1.0410487632
 20
18.1530932148
  0
LINE
  5
3CC
100
AcDbEntity
  8
ASSI
100
AcDbLine
 62
7
  6
CONTINUOUS
 10
0.3987172367
 20
14.1764693671
 11
0.3987172367
 21
13.3139913099
  0
LINE
  5
3CD
100
AcDbEntity
  8
DRAFT
100
AcDbLine
 62
7
  6
CONTINUOUS
 10
0.3987172367
 20
14.1764693671
 11
0.3987172367
 21
13.3139913099
  0
LINE
  5
3CE
100
AcDbEntity
  8
0
100
AcDbLine
 62
7
  6
CONTINUOUS
 10
1.0077330705
 20
12.780554936
 11
1.0077330705
 21
12.3344998446
  0
LINE
  5
3CF
100
AcDbEntity
  8
ASSI
100
AcDbLine
 62
250
  6
CONTINUOUS
 10
1.0410487632
 20
18.8498662464
 11
1.0410487632
 21
18.1530932148
  0
LINE
  5
3D0
100
AcDbEntity
  8
RACCORDO
100
AcDbLine
 62
250
  6
CONTINUOUS
 10
1.0410487632
 20
18.8498662464
 11
1.0410487632
 21
18.1530932148
  0
LINE
  5
3D1
100
AcDbEntity
  8
ASSI
100
AcDbLine
 62
7
  6
CONTINUOUS
 10
1.0971808031
 20
18.9193320835
 11
1.0971808031
 21
18.1211094844
  0
LINE
  5
3D2
100
AcDbEntity
  8
RACCORDO
100
AcDbLine
 62
7
  6
CONTINUOUS
 10
1.0971808031
 20
18.9193320835
 11
1.0971808031
 21
18.1211094844
  0
LINE
  5
3D3
100
AcDbEntity
  8
ASSI
100
AcDbLine
 62
7
  6
CONTINUOUS
 10
1.5311299297
 20
13.4991296873
 11
1.5311299297
 21
13.4123483406
  0
LINE
  5
3D4
100
AcDbEntity
  8
DRAFT
100
AcDbLine
 62
7
  6
CONTINUOUS
 10
1.5311299297
 20
13.4991296873
 11
1.5311299297
 21
13.4123483406
  0
LINE
  5
3D5
100
AcDbEntity
  8
0
100
AcDbLine
 62
7
  6
CONTINUOUS
 10
1.5311299297
 20
12.6388691331
 11
1.5311299297
 21
12.3363735575
  0
LINE
  5
3D6
100
AcDbEntity
  8
0
100
AcDbLine
 62
7
  6
CONTINUOUS
 10
1.591953626
 20
12.6553343718
 11
1.591953626
 21
12.3389528575
  0
LINE
  5
3D7
100
AcDbEntity
  8
ASSI
100
AcDbLine
 62
250
  6
CONTINUOUS
 10
2.6363923887
 20
-13.7872765943
 11
2.6363923887
 21
-19.1654656386
  0
LINE
  5
3D8
100
AcDbEntity
  8
RACCORDO
100
AcDbLine
 62
250
  6
CONTINUOUS
 10
2.6363923887
 20
-13.7872765943
 11
2.6363923887
 21
-19.1654656386
  0
LINE
  5
3D9
100
AcDbEntity
  8
ASSI
100
AcDbLine
 62
7
  6
CONTINUOUS
 10
2.7767223333
 20
-13.6134149931
 11
2.7767224886
 21
-18.9918010338
  0
LINE
  5
3DA
100
AcDbEntity
  8
RACCORDO
100
AcDbLine
 62
7
  6
CONTINUOUS
 10
2.7767224733
 20
-13.6135502055
 11
2.7767224886
 21
-18.9918010338
  0
LWPOLYLINE
  5
3DB
100
AcDbEntity
  8
ASSI
100
AcDbPolyline
 62
250
  6
CONTINUOUS
 90
9
 70
0
 10
2.6363794557
 20
-19.165459393
 10
2.6342771848
 20
-19.2611537711
 10
2.6277426648
 20
-19.354361745
 10
2.6167822535
 20
-19.4447493499
 10
2.6014393457
 20
-19.5320353253
 10
2.5817715274
 20
-19.6159622158
 10
2.5578354574
 20
-19.6962745739
 10
2.529699644
 20
-19.7727238549
 10
2.4974569543
 20
-19.8450833656
  0
LWPOLYLINE
  5
3DC
100
AcDbEntity
  8
RACCORDO
100
AcDbPolyline
 62
250
  6
CONTINUOUS
 90
9
 70
0
 10
2.6363794557
 20
-19.165459393
 10
2.6342771848
 20
-19.2611537711
 10
2.6277426648
 20
-19.354361745
 10
2.6167822535
 20
-19.4447493499
 10
2.6014393457
 20
-19.5320353253
 10
2.5817715274
 20
-19.6159622158
 10
2.5578354574
 20
-19.6962745739
 10
2.529699644
 20
-19.7727238549
 10
2.4974569543
 20
-19.8450833656
  0
LINE
  5
3DD
100
AcDbEntity
  8
RACCORDO
100
AcDbLine
 62
7
  6
CONTINUOUS
 10
2.7746075493
 20
-19.0847736422
 11
2.7767104879
 21
-18.991789775
  0
LWPOLYLINE
  5
3DE
100
AcDbEntity
  8
RACCORDO
100
AcDbPolyline
 62
7
  6
CONTINUOUS
 90
21
 70
0
 10
2.7767223182
 20
-13.6135502054
 10
2.7773680638
 20
-13.5856626498
 10
2.7804983609
 20
-13.5441787368
 10
2.786584298
 20
-13.4986570352
 10
2.7958560179
 20
-13.450048203
 10
2.8084774741
 20
-13.3989664877
 10
2.824537062
 20
-13.3460732373
 10
2.8438958077
 20
-13.2924239586
 10
2.8664331085
 20
-13.2386850993
 10
2.8919216311
 20
-13.185618999
 10
2.9198142071
 20
-13.134364571
 10
2.9496928376
 20
-13.0855425524
 10
2.9810963981
 20
-13.0397153532
 10
3.0132002159
 20
-12.9977628998
 10
3.0453384568
 20
-12.9601187893
 10
3.077029217
 20
-12.9268891524
 10
3.1075982148
 20
-12.8982902654
 10
3.1364693841
 20
-12.874332098
 10
3.1630739604
 20
-12.8549269849
 10
3.1866572704
 20
-12.8400004532
 10
3.1967067372
 20
-12.8343482851
  0
LWPOLYLINE
  5
3DF
100
AcDbEntity
  8
ASSI
100
AcDbPolyline
 62
7
  6
CONTINUOUS
 90
15
 70
0
 10
2.7767221796
 20
-13.613414993
 10
2.7776006657
 20
-13.5809049708
 10
2.7838420853
 20
-13.5168202787
 10
2.797002933
 20
-13.4448732743
 10
2.8173454802
 20
-13.3685482784
 10
2.8446938701
 20
-13.2903821222
 10
2.8787017475
 20
-13.2122800854
 10
2.9184250265
 20
-13.136776563
 10
2.962763375
 20
-13.065843827
 10
3.0102877964
 20
-13.0013821216
 10
3.058809517
 20
-12.9455375369
 10
3.1066849129
 20
-12.8990961909
 10
3.1514028214
 20
-12.8631168413
 10
3.1889712366
 20
-12.8386595157
 10
3.1967295932
 20
-12.8343359633
  0
LWPOLYLINE
  5
3E0
100
AcDbEntity
  8
RACCORDO
100
AcDbPolyline
 62
250
  6
CONTINUOUS
 90
13
 70
0
 10
-6.4375470108
 20
3.9218448025
 10
-6.4181211895
 20
3.9130778084
 10
-6.3966713349
 20
3.9052787106
 10
-6.3735563603
 20
3.898578046
 10
-6.3491630476
 20
3.8930879722
 10
-6.3238996061
 20
3.888900396
 10
-6.2981888451
 20
3.8860854298
 10
-6.2724610318
 20
3.8846902081
 10
-6.2471467541
 20
3.8847381083
 10
-6.2226697413
 20
3.8862283493
 10
-6.1994396716
 20
3.8891360022
 10
-6.1778453201
 20
3.8934124193
 10
-6.1582481139
 20
3.8989860435
  0
LINE
  5
3E1
100
AcDbEntity
  8
RACCORDO
100
AcDbLine
 62
250
  6
CONTINUOUS
 10
-26.1400076488
 20
14.4527339138
 11
-11.3702941878
 21
7.0678771832
  0
LWPOLYLINE
  5
3E2
100
AcDbEntity
  8
0
100
AcDbPolyline
 62
7
  6
CONTINUOUS
 90
4
 70
0
 10
-16.5338525483
 20
15.2893640761
 10
-16.4963724595
 20
15.2614432972
 10
-16.454304653
 20
15.2368223701
 10
-16.4479505331
 20
15.2335907829
  0
LINE
  5
3E3
100
AcDbEntity
  8
ASSI
100
AcDbLine
 62
7
  6
CONTINUOUS
 10
-16.6376275269
 20
16.0375344919
 11
-16.6161055741
 21
16.0202694156
  0
LINE
  5
3E4
100
AcDbEntity
  8
0
100
AcDbLine
 62
7
  6
CONTINUOUS
 10
-16.6376275269
 20
16.0375344919
 11
-16.6161055741
 21
16.0202694156
  0
LWPOLYLINE
  5
3E5
100
AcDbEntity
  8
ASSI
100
AcDbPolyline
 62
7
  6
CONTINUOUS
 90
6
 70
0
 10
-10.0459458378
 20
13.3582664881
 10
-10.0850769195
 20
13.4074506334
 10
-10.1254911282
 20
13.4539593702
 10
-10.167188464
 20
13.4977926985
 10
-10.2104491178
 20
13.5391959663
 10
-10.2549928988
 20
13.5779238255
  0
LWPOLYLINE
  5
3E6
100
AcDbEntity
  8
ASSI
100
AcDbPolyline
 62
7
  6
CONTINUOUS
 90
7
 70
0
 10
-5.4337389584
 20
12.173343482
 10
-5.4395782302
 20
12.1807762071
 10
-5.4453462646
 20
12.1883642481
 10
-5.4510397357
 20
12.196104609
 10
-5.4566554096
 20
12.2039940211
 10
-5.4621901537
 20
12.212028938
 10
-5.467640946
 20
12.2202055325
  0
LWPOLYLINE
  5
3E7
100
AcDbEntity
  8
RACCORDO
100
AcDbPolyline
 62
7
  6
CONTINUOUS
 90
7
 70
0
 10
-5.4337389584
 20
12.173343482
 10
-5.4395782302
 20
12.1807762071
 10
-5.4453462646
 20
12.1883642481
 10
-5.4510397357
 20
12.196104609
 10
-5.4566554096
 20
12.2039940211
 10
-5.4621901537
 20
12.212028938
 10
-5.467640946
 20
12.2202055325
  0
LINE
  5
3E8
100
AcDbEntity
  8
ASSI
100
AcDbLine
 62
7
  6
CONTINUOUS
 10
-7.1745747435
 20
14.6432960361
 11
-7.2319545818
 21
14.7188575777
  0
LINE
  5
3E9
100
AcDbEntity
  8
0
100
AcDbLine
 62
7
  6
CONTINUOUS
 10
-7.1745747435
 20
14.6432960361
 11
-7.2319545818
 21
14.7188575777
  0
LINE
  5
3EA
100
AcDbEntity
  8
ASSI
100
AcDbLine
 62
7
  6
CONTINUOUS
 10
-7.117329034
 20
14.5675565245
 11
-7.1745747435
 21
14.6432960361
  0
LINE
  5
3EB
100
AcDbEntity
  8
0
100
AcDbLine
 62
7
  6
CONTINUOUS
 10
-7.117329034
 20
14.5675565245
 11
-7.1745747435
 21
14.6432960361
  0
LINE
  5
3EC
100
AcDbEntity
  8
ASSI
100
AcDbLine
 62
7
  6
CONTINUOUS
 10
-7.0602174533
 20
14.4916390429
 11
-7.117329034
 21
14.5675565245
  0
LINE
  5
3ED
100
AcDbEntity
  8
0
100
AcDbLine
 62
7
  6
CONTINUOUS
 10
-7.0602174533
 20
14.4916390429
 11
-7.117329034
 21
14.5675565245
  0
LWPOLYLINE
  5
3EE
100
AcDbEntity
  8
ASSI
100
AcDbPolyline
 62
250
  6
CONTINUOUS
 90
15
 70
0
 10
-5.0653305168
 20
11.8785818101
 10
-5.0815847813
 20
11.9029126802
 10
-5.0980531265
 20
11.9257124913
 10
-5.1146142601
 20
11.9469750126
 10
-5.1311382356
 20
11.9666954145
 10
-5.1475500352
 20
11.9849326187
 10
-5.1638337787
 20
12.0017956251
 10
-5.1799179983
 20
12.0173248421
 10
-5.1957315486
 20
12.0315590725
 10
-5.2112768785
 20
12.0445954119
 10
-5.2265014187
 20
12.0564766773
 10
-5.2413634949
 20
12.0672548738
 10
-5.2558955573
 20
12.0770274277
 10
-5.2700892572
 20
12.0858524519
 10
-5.283893181
 20
12.0937609758
  0
LWPOLYLINE
  5
3EF
100
AcDbEntity
  8
RACCORDO
100
AcDbPolyline
 62
250
  6
CONTINUOUS
 90
15
 70
0
 10
-5.0653305168
 20
11.8785818101
 10
-5.0815847813
 20
11.9029126802
 10
-5.0980531265
 20
11.9257124913
 10
-5.1146142601
 20
11.9469750126
 10
-5.1311382356
 20
11.9666954145
 10
-5.1475500352
 20
11.9849326187
 10
-5.1638337787
 20
12.0017956251
 10
-5.1799179983
 20
12.0173248421
 10
-5.1957315486
 20
12.0315590725
 10
-5.2112768785
 20
12.0445954119
 10
-5.2265014187
 20
12.0564766773
 10
-5.2413634949
 20
12.0672548738
 10
-5.2558955573
 20
12.0770274277
 10
-5.2700892572
 20
12.0858524519
 10
-5.283893181
 20
12.0937609758
  0
LWPOLYLINE
  5
3F0
100
AcDbEntity
  8
ASSI
100
AcDbPolyline
 62
7
  6
CONTINUOUS
 90
10
 70
0
 10
-5.467640946
 20
12.2202055325
 10
-5.5888103712
 20
12.4042969909
 10
-5.7107671245
 20
12.5875802808
 10
-5.8335112059
 20
12.7700554022
 10
-5.9570503449
 20
12.9517337048
 10
-6.081376812
 20
13.1326038389
 10
-6.2064674193
 20
13.3126317553
 10
-6.3323144375
 20
13.4918061044
 10
-6.4589255958
 20
13.6701382359
 10
-6.5863008943
 20
13.8476281498
  0
LWPOLYLINE
  5
3F1
100
AcDbEntity
  8
RACCORDO
100
AcDbPolyline
 62
7
  6
CONTINUOUS
 90
10
 70
0
 10
-5.467640946
 20
12.2202055325
 10
-5.5888103712
 20
12.4042969909
 10
-5.7107671245
 20
12.5875802808
 10
-5.8335112059
 20
12.7700554022
 10
-5.9570503449
 20
12.9517337048
 10
-6.081376812
 20
13.1326038389
 10
-6.2064674193
 20
13.3126317553
 10
-6.3323144375
 20
13.4918061044
 10
-6.4589255958
 20
13.6701382359
 10
-6.5863008943
 20
13.8476281498
  0
LWPOLYLINE
  5
3F2
100
AcDbEntity
  8
SMUSSO
100
AcDbPolyline
 62
7
  6
CONTINUOUS
 90
3
 70
0
 10
-8.4635580816
 20
17.7347191096
 10
-8.4181785363
 20
17.6616931411
 10
-8.3643892919
 20
17.5900055923
  0
LINE
  5
3F3
100
AcDbEntity
  8
ASSI
100
AcDbLine
 62
250
  6
CONTINUOUS
 10
-8.1559941868
 20
19.6056094238
 11
-7.8023888034
 21
18.9955942806
  0
LINE
  5
3F4
100
AcDbEntity
  8
SMUSSO
100
AcDbLine
 62
250
  6
CONTINUOUS
 10
-8.1559941868
 20
19.6056094238
 11
-7.8023888034
 21
18.9955942806
  0
LINE
  5
3F5
100
AcDbEntity
  8
RACCORDO
100
AcDbLine
 62
7
  6
CONTINUOUS
 10
2.8980394731
 20
12.6012705142
 11
2.857983445
 21
13.130240018
  0
LINE
  5
3F6
100
AcDbEntity
  8
ASSI
100
AcDbLine
 62
7
  6
CONTINUOUS
 10
3.4366825254
 20
15.5509624962
 11
3.4366825254
 21
16.4848696922
  0
LINE
  5
3F7
100
AcDbEntity
  8
SMUSSO
100
AcDbLine
 62
7
  6
CONTINUOUS
 10
3.4366825254
 20
15.5509624962
 11
3.4366825254
 21
16.4848696922
  0
LINE
  5
3F8
100
AcDbEntity
  8
RACCORDO
100
AcDbLine
 62
7
  6
CONTINUOUS
 10
2.765681787
 20
-19.2021348546
 11
2.7746075493
 21
-19.0847736422
  0
LWPOLYLINE
  5
3F9
100
AcDbEntity
  8
ASSI
100
AcDbPolyline
 62
7
  6
CONTINUOUS
 90
3
 70
0
 10
2.7522556292
 20
-19.3012457794
 10
2.7713543773
 20
-19.1393958309
 10
2.7767104877
 20
-18.9918025886
  0
LWPOLYLINE
  5
3FA
100
AcDbEntity
  8
ASSI
100
AcDbPolyline
 62
250
  6
CONTINUOUS
 90
7
 70
0
 10
2.7767224886
 20
-13.6136120017
 10
2.7730836653
 20
-13.6437184055
 10
2.7611584232
 20
-13.675502682
 10
2.741127265
 20
-13.706251361
 10
2.7133253659
 20
-13.7354499345
 10
2.6782179266
 20
-13.7626098316
 10
2.6363923887
 20
-13.7872765943
  0
LWPOLYLINE
  5
3FB
100
AcDbEntity
  8
RACCORDO
100
AcDbPolyline
 62
250
  6
CONTINUOUS
 90
7
 70
0
 10
2.7767224886
 20
-13.6136120017
 10
2.7730836653
 20
-13.6437184055
 10
2.7611584232
 20
-13.675502682
 10
2.741127265
 20
-13.706251361
 10
2.7133253659
 20
-13.7354499345
 10
2.6782179266
 20
-13.7626098316
 10
2.6363923887
 20
-13.7872765943
  0
LWPOLYLINE
  5
3FC
100
AcDbEntity
  8
RACCORDO
100
AcDbPolyline
 62
250
  6
CONTINUOUS
 90
7
 70
0
 10
2.7767224886
 20
-18.9918010338
 10
2.7730840809
 20
-19.0219057249
 10
2.7611591687
 20
-19.0536902563
 10
2.7411281687
 20
-19.0844392632
 10
2.7133262232
 20
-19.1136382033
 10
2.6782184905
 20
-19.1407984915
 10
2.6363923887
 20
-19.1654656376
  0
LWPOLYLINE
  5
3FD
100
AcDbEntity
  8
ASSI
100
AcDbPolyline
 62
250
  6
CONTINUOUS
 90
7
 70
0
 10
2.7767224885
 20
-18.991802588
 10
2.7730840809
 20
-19.0219057249
 10
2.7611591687
 20
-19.0536902563
 10
2.7411281687
 20
-19.0844392632
 10
2.7133262232
 20
-19.1136382033
 10
2.6782184905
 20
-19.1407984915
 10
2.6363923887
 20
-19.1654656376
  0
LWPOLYLINE
  5
3FE
100
AcDbEntity
  8
ASSI
100
AcDbPolyline
 62
250
  6
CONTINUOUS
 90
5
 70
0
 10
2.6617050367
 20
-13.543715223
 10
2.6499303331
 20
-13.6101627979
 10
2.6417122563
 20
-13.6725663099
 10
2.6371996082
 20
-13.731604242
 10
2.6363923887
 20
-13.7872765943
  0
LWPOLYLINE
  5
3FF
100
AcDbEntity
  8
RACCORDO
100
AcDbPolyline
 62
250
  6
CONTINUOUS
 90
5
 70
0
 10
2.6617050367
 20
-13.543715223
 10
2.6499303331
 20
-13.6101627979
 10
2.6417122563
 20
-13.6725663099
 10
2.6371996082
 20
-13.731604242
 10
2.6363923887
 20
-13.7872765943
  0
LINE
  5
400
100
AcDbEntity
  8
RACCORDO
100
AcDbLine
 62
250
  6
CONTINUOUS
 10
2.6771851691
 20
-13.4739020682
 11
2.6617050367
 21
-13.543715223
  0
LWPOLYLINE
  5
401
100
AcDbEntity
  8
ASSI
100
AcDbPolyline
 62
250
  6
CONTINUOUS
 90
3
 70
0
 10
2.6968171355
 20
-13.4027587826
 10
2.6771851691
 20
-13.4739020682
 10
2.6617050367
 20
-13.543715223
  0
LWPOLYLINE
  5
402
100
AcDbEntity
  8
RACCORDO
100
AcDbPolyline
 62
250
  6
CONTINUOUS
 90
13
 70
0
 10
-7.6619201205
 20
-10.5932773771
 10
-7.6815167928
 20
-10.6043016594
 10
-7.7031105947
 20
-10.6139375947
 10
-7.7263401434
 20
-10.6220239208
 10
-7.7508166809
 20
-10.6284253091
 10
-7.7761305805
 20
-10.6330346294
 10
-7.8018582017
 20
-10.6357747423
 10
-7.8275689802
 20
-10.6365997907
 10
-7.8528326335
 20
-10.635495967
 10
-7.8772263621
 20
-10.6324817443
 10
-7.900341925
 20
-10.6276075671
 10
-7.9217924719
 20
-10.620955007
 10
-7.9412190175
 20
-10.612635398
  0
LWPOLYLINE
  5
403
100
AcDbEntity
  8
RACCORDO
100
AcDbPolyline
 62
250
  6
CONTINUOUS
 90
9
 70
0
 10
-10.3022046828
 20
10.943508139
 10
-10.3415397035
 20
10.9606497538
 10
-10.3804250829
 20
10.9725471139
 10
-10.4184357327
 20
10.9790774682
 10
-10.455143448
 20
10.9801776146
 10
-10.4901639437
 20
10.9758469469
 10
-10.5231539982
 20
10.9661264462
 10
-10.553767083
 20
10.9511003993
 10
-10.5592514397
 20
10.9476788445
  0
LINE
  5
404
100
AcDbEntity
  8
RACCORDO
100
AcDbLine
 62
7
  6
CONTINUOUS
 10
-21.9120185298
 20
16.3196080184
 11
-6.9918500675
 21
8.8595237873
  0
LINE
  5
405
100
AcDbEntity
  8
RACCORDO
100
AcDbLine
 62
250
  6
CONTINUOUS
 10
-9.9203946041
 20
11.6354378993
 11
-17.5325227436
 21
15.4415019691
  0
LINE
  5
406
100
AcDbEntity
  8
0
100
AcDbLine
 62
250
  6
CONTINUOUS
 10
-21.0540907676
 20
17.4208902063
 11
-17.5961918286
 21
15.6919407368
  0
LINE
  5
407
100
AcDbEntity
  8
0
100
AcDbLine
 62
250
  6
CONTINUOUS
 10
-6.0062474775
 20
9.8969685612
 11
-9.4709294469
 21
11.6293095459
  0
LWPOLYLINE
  5
408
100
AcDbEntity
  8
0
100
AcDbPolyline
 62
250
  6
CONTINUOUS
 90
7
 70
0
 10
-16.5394790465
 20
15.8594365144
 10
-16.5333447829
 20
15.8556065207
 10
-16.5270374102
 20
15.8518247248
 10
-16.5205576548
 20
15.8480933038
 10
-16.5139063515
 20
15.8444144465
 10
-16.5070844447
 20
15.8407903524
 10
-16.5000929906
 20
15.8372232303
  0
LWPOLYLINE
  5
409
100
AcDbEntity
  8
0
100
AcDbPolyline
 62
250
  6
CONTINUOUS
 90
7
 70
0
 10
-16.3847737789
 20
16.0932149125
 10
-16.3811251205
 20
16.0909290579
 10
-16.3773603253
 20
16.0886684536
 10
-16.3734793934
 20
16.0864330993
 10
-16.3694823248
 20
16.0842229953
 10
-16.3653691194
 20
16.0820381414
 10
-16.3611397773
 20
16.0798785377
  0
LWPOLYLINE
  5
40A
100
AcDbEntity
  8
ASSI
100
AcDbPolyline
 62
7
  6
CONTINUOUS
 90
3
 70
0
 10
-10.2999792336
 20
13.6132402328
 10
-10.3451279314
 20
13.6448998402
 10
-10.3907191831
 20
13.6731479956
  0
LINE
  5
40B
100
AcDbEntity
  8
ASSI
100
AcDbLine
 62
7
  6
CONTINUOUS
 10
-5.2987614187
 20
12.0401212409
 11
-5.309284578
 21
12.0487904521
  0
LWPOLYLINE
  5
40C
100
AcDbEntity
  8
RACCORDO
100
AcDbPolyline
 62
7
  6
CONTINUOUS
 90
4
 70
0
 10
-5.29873958
 20
12.0401034906
 10
-5.309284578
 20
12.0487904521
 10
-5.332454312
 20
12.068603782
 10
-5.3547433087
 20
12.0887282412
  0
LWPOLYLINE
  5
40D
100
AcDbEntity
  8
ASSI
100
AcDbPolyline
 62
7
  6
CONTINUOUS
 90
6
 70
0
 10
-5.309284578
 20
12.0487904521
 10
-5.332454312
 20
12.068603782
 10
-5.3547433087
 20
12.0887282412
 10
-5.3760287027
 20
12.1092552864
 10
-5.3962694419
 20
12.1302153964
 10
-5.4155062495
 20
12.1515781214
  0
LWPOLYLINE
  5
40E
100
AcDbEntity
  8
RACCORDO
100
AcDbPolyline
 62
7
  6
CONTINUOUS
 90
4
 70
0
 10
-5.3547433087
 20
12.0887282412
 10
-5.3760287027
 20
12.1092552864
 10
-5.3962694419
 20
12.1302153964
 10
-5.4155062495
 20
12.1515781214
  0
LINE
  5
40F
100
AcDbEntity
  8
ASSI
100
AcDbLine
 62
7
  6
CONTINUOUS
 10
-8.3643892919
 20
17.5900055923
 11
-8.3023462003
 21
17.5198505612
  0
LWPOLYLINE
  5
410
100
AcDbEntity
  8
SMUSSO
100
AcDbPolyline
 62
7
  6
CONTINUOUS
 90
3
 70
0
 10
-8.3643892919
 20
17.5900055923
 10
-8.3023462003
 20
17.5198505612
 10
-8.2654221711
 20
17.4838244337
  0
LINE
  5
411
100
AcDbEntity
  8
ASSI
100
AcDbLine
 62
7
  6
CONTINUOUS
 10
-5.4155062495
 20
12.1515781214
 11
-5.4337389584
 21
12.173343482
  0
LINE
  5
412
100
AcDbEntity
  8
RACCORDO
100
AcDbLine
 62
7
  6
CONTINUOUS
 10
-5.4155062495
 20
12.1515781214
 11
-5.4337389584
 21
12.173343482
  0
LWPOLYLINE
  5
413
100
AcDbEntity
  8
ASSI
100
AcDbPolyline
 62
250
  6
CONTINUOUS
 90
8
 70
0
 10
-0.1385277263
 20
11.3984143616
 10
-0.0543899535
 20
11.2696789461
 10
0.0313538362
 20
11.1495832688
 10
0.119168324
 20
11.0382966594
 10
0.2086958787
 20
10.9357314752
 10
0.2987584175
 20
10.8415438764
 10
0.3893544394
 20
10.7556627422
 10
0.4805820834
 20
10.6782251178
  0
LWPOLYLINE
  5
414
100
AcDbEntity
  8
SMUSSO
100
AcDbPolyline
 62
7
  6
CONTINUOUS
 90
3
 70
0
 10
-1.4258102001
 20
13.1401071188
 10
-1.3804306548
 20
13.0670811503
 10
-1.3266414103
 20
12.9953936015
  0
LWPOLYLINE
  5
415
100
AcDbEntity
  8
ASSI
100
AcDbPolyline
 62
7
  6
CONTINUOUS
 90
5
 70
0
 10
-0.19901395
 20
11.948478503
 10
-0.2176461108
 20
11.9787590982
 10
-0.2380360223
 20
12.0078788291
 10
-0.2601124195
 20
12.0357372531
 10
-0.2837980437
 20
12.0622377273
  0
LWPOLYLINE
  5
416
100
AcDbEntity
  8
RACCORDO
100
AcDbPolyline
 62
7
  6
CONTINUOUS
 90
10
 70
0
 10
-0.19901395
 20
11.948478503
 10
-0.2176461108
 20
11.9787590982
 10
-0.2380360223
 20
12.0078788291
 10
-0.2601124195
 20
12.0357372531
 10
-0.2837980437
 20
12.0622377273
 10
-0.3090107804
 20
12.0872887932
 10
-0.3356635344
 20
12.110803839
 10
-0.3636632851
 20
12.1327004457
 10
-0.3929116783
 20
12.1529013516
 10
-0.405336032
 20
12.1607353179
  0
LINE
  5
417
100
AcDbEntity
  8
ASSI
100
AcDbLine
 62
250
  6
CONTINUOUS
 10
-0.2211163456
 20
11.5357440741
 11
-0.1385277263
 21
11.3984143616
  0
LWPOLYLINE
  5
418
100
AcDbEntity
  8
RACCORDO
100
AcDbPolyline
 62
250
  6
CONTINUOUS
 90
22
 70
0
 10
-0.2211163456
 20
11.5357440741
 10
-0.1385277263
 20
11.3984143616
 10
-0.0543899535
 20
11.2696789461
 10
0.0313538362
 20
11.1495832688
 10
0.119168324
 20
11.0382966594
 10
0.2086958787
 20
10.9357314752
 10
0.2987584175
 20
10.8415438764
 10
0.3893544394
 20
10.7556627422
 10
0.4805820834
 20
10.6782251178
 10
0.5714134652
 20
10.6091972498
 10
0.6620395514
 20
10.5485522446
 10
0.7523547583
 20
10.4963695938
 10
0.8408885664
 20
10.4527743395
 10
0.9277083454
 20
10.4180031366
 10
1.0128200309
 20
10.3918600179
 10
1.0946599885
 20
10.3738190128
 10
1.1729652705
 20
10.3641301387
 10
1.2480491397
 20
10.3625683743
 10
1.3192051235
 20
10.3678906413
 10
1.386204549
 20
10.3796853168
 10
1.4492983428
 20
10.398373218
 10
1.5084923561
 20
10.4239560817
  0
LINE
  5
419
100
AcDbEntity
  8
ASSI
100
AcDbLine
 62
250
  6
CONTINUOUS
 10
-0.4101433734
 20
11.8676216019
 11
-0.3468096405
 21
11.7571515022
  0
LINE
  5
41A
100
AcDbEntity
  8
RACCORDO
100
AcDbLine
 62
250
  6
CONTINUOUS
 10
-0.4101433734
 20
11.8676216019
 11
-0.3468096405
 21
11.7571515022
  0
LINE
  5
41B
100
AcDbEntity
  8
ASSI
100
AcDbLine
 62
7
  6
CONTINUOUS
 10
-0.1362523346
 20
11.8390058746
 11
-0.19901395
 21
11.948478503
  0
LINE
  5
41C
100
AcDbEntity
  8
RACCORDO
100
AcDbLine
 62
7
  6
CONTINUOUS
 10
-0.1362523346
 20
11.8390058746
 11
-0.19901395
 21
11.948478503
  0
LINE
  5
41D
100
AcDbEntity
  8
ASSI
100
AcDbLine
 62
250
  6
CONTINUOUS
 10
-0.3468096405
 20
11.7571515022
 11
-0.2838003247
 21
11.6465247909
  0
LINE
  5
41E
100
AcDbEntity
  8
RACCORDO
100
AcDbLine
 62
250
  6
CONTINUOUS
 10
-0.3468096405
 20
11.7571515022
 11
-0.2838003247
 21
11.6465247909
  0
LINE
  5
41F
100
AcDbEntity
  8
ASSI
100
AcDbLine
 62
7
  6
CONTINUOUS
 10
-0.0737844495
 20
11.7293297228
 11
-0.1362523346
 21
11.8390058746
  0
LINE
  5
420
100
AcDbEntity
  8
RACCORDO
100
AcDbLine
 62
7
  6
CONTINUOUS
 10
-0.0737844495
 20
11.7293297228
 11
-0.1362523346
 21
11.8390058746
  0
LINE
  5
421
100
AcDbEntity
  8
ASSI
100
AcDbLine
 62
250
  6
CONTINUOUS
 10
-0.2838003247
 20
11.6465247909
 11
-0.2211163456
 21
11.5357440741
  0
LINE
  5
422
100
AcDbEntity
  8
RACCORDO
100
AcDbLine
 62
250
  6
CONTINUOUS
 10
-0.2838003247
 20
11.6465247909
 11
-0.2211163456
 21
11.5357440741
  0
LINE
  5
423
100
AcDbEntity
  8
ASSI
100
AcDbLine
 62
7
  6
CONTINUOUS
 10
-0.0116115888
 20
11.6194523413
 11
-0.0737844495
 21
11.7293297228
  0
LINE
  5
424
100
AcDbEntity
  8
RACCORDO
100
AcDbLine
 62
7
  6
CONTINUOUS
 10
-0.0116115888
 20
11.6194523413
 11
-0.0737844495
 21
11.7293297228
  0
LWPOLYLINE
  5
425
100
AcDbEntity
  8
ASSI
100
AcDbPolyline
 62
7
  6
CONTINUOUS
 90
4
 70
0
 10
-1.4626219041
 20
13.2142337861
 10
-1.4258102001
 20
13.1401071188
 10
-1.3804306548
 20
13.0670811503
 10
-1.3266414103
 20
12.9953936015
  0
LINE
  5
426
100
AcDbEntity
  8
0
100
AcDbLine
 62
7
  6
CONTINUOUS
 10
0.5022634883
 20
12.5383149803
 11
0.3007641304
 21
13.1340394061
  0
LWPOLYLINE
  5
427
100
AcDbEntity
  8
ASSI
100
AcDbPolyline
 62
7
  6
CONTINUOUS
 90
3
 70
0
 10
1.0942594103
 20
18.9533774984
 10
1.0854561757
 20
18.9867990466
 10
1.0709097147
 20
19.0184192436
  0
LWPOLYLINE
  5
428
100
AcDbEntity
  8
ASSI
100
AcDbPolyline
 62
250
  6
CONTINUOUS
 90
3
 70
0
 10
1.0313291092
 20
18.9208187431
 10
1.0369373433
 20
18.8964993226
 10
1.0401795591
 20
18.8727206668
  0
LWPOLYLINE
  5
429
100
AcDbEntity
  8
RACCORDO
100
AcDbPolyline
 62
250
  6
CONTINUOUS
 90
3
 70
0
 10
1.0313291092
 20
18.9208187431
 10
1.0369373433
 20
18.8964993226
 10
1.0401795591
 20
18.8727206668
  0
LINE
  5
42A
100
AcDbEntity
  8
RACCORDO
100
AcDbLine
 62
7
  6
CONTINUOUS
 10
1.0955472031
 20
18.9448389674
 11
1.0906044626
 21
18.9701963947
  0
LWPOLYLINE
  5
42B
100
AcDbEntity
  8
ASSI
100
AcDbPolyline
 62
250
  6
CONTINUOUS
 90
4
 70
0
 10
1.0419627169
 20
18.1297353443
 10
1.0453217076
 20
18.1055888602
 10
1.051068284
 20
18.0810667556
 10
1.0591041602
 20
18.0565884488
  0
LWPOLYLINE
  5
42C
100
AcDbEntity
  8
RACCORDO
100
AcDbPolyline
 62
250
  6
CONTINUOUS
 90
4
 70
0
 10
1.0419627169
 20
18.1297353443
 10
1.0453217076
 20
18.1055888602
 10
1.051068284
 20
18.0810667556
 10
1.0591041602
 20
18.0565884488
  0
LWPOLYLINE
  5
42D
100
AcDbEntity
  8
RACCORDO
100
AcDbPolyline
 62
7
  6
CONTINUOUS
 90
12
 70
0
 10
2.857983445
 20
13.130240018
 10
2.8565254714
 20
13.1434020801
 10
2.8541193002
 20
13.1558406085
 10
2.8507649314
 20
13.1675556034
 10
2.8464145693
 20
13.1786664892
 10
2.8411160096
 20
13.1890538414
 10
2.8350126394
 20
13.1983593861
 10
2.8281058734
 20
13.2064992589
 10
2.8203942969
 20
13.2135573242
 10
2.8120170538
 20
13.2194269017
 10
2.8029781711
 20
13.2241011524
 10
2.7957173174
 20
13.2268438195
  0
LWPOLYLINE
  5
42E
100
AcDbEntity
  8
ASSI
100
AcDbPolyline
 62
250
  6
CONTINUOUS
 90
7
 70
0
 10
10.1824110838
 20
10.7403756148
 10
10.1809016393
 20
10.7253474056
 10
10.1747221033
 20
10.7066329567
 10
10.1638684846
 20
10.6884580563
 10
10.1485143338
 20
10.6711133228
 10
10.1289051652
 20
10.6548761004
 10
10.1053545315
 20
10.6400060239
  0
LWPOLYLINE
  5
42F
100
AcDbEntity
  8
RACCORDO
100
AcDbPolyline
 62
250
  6
CONTINUOUS
 90
7
 70
0
 10
10.1824110838
 20
10.7403756148
 10
10.1809016393
 20
10.7253474056
 10
10.1747221033
 20
10.7066329567
 10
10.1638684846
 20
10.6884580563
 10
10.1485143338
 20
10.6711133228
 10
10.1289051652
 20
10.6548761004
 10
10.1053545315
 20
10.6400060239
  0
LWPOLYLINE
  5
430
100
AcDbEntity
  8
RACCORDO
100
AcDbPolyline
 62
250
  6
CONTINUOUS
 90
7
 70
0
 10
9.307505716
 20
12.141865929
 10
9.3038670176
 20
12.1119361657
 10
9.2919417754
 20
12.080151889
 10
9.2719106173
 20
12.04940321
 10
9.2441087182
 20
12.0202046367
 10
9.2090012788
 20
11.9930447397
 10
9.167175741
 20
11.9683779773
  0
LWPOLYLINE
  5
431
100
AcDbEntity
  8
ASSI
100
AcDbPolyline
 62
250
  6
CONTINUOUS
 90
7
 70
0
 10
9.3075054919
 20
12.1417472174
 10
9.3038670176
 20
12.1119361657
 10
9.2919417754
 20
12.080151889
 10
9.2719106173
 20
12.04940321
 10
9.2441087182
 20
12.0202046367
 10
9.2090012788
 20
11.9930447397
 10
9.167175741
 20
11.9683779773
  0
LWPOLYLINE
  5
432
100
AcDbEntity
  8
ASSI
100
AcDbPolyline
 62
7
  6
CONTINUOUS
 90
9
 70
0
 10
10.1723204634
 20
8.6886464934
 10
10.1424345281
 20
8.4683671825
 10
10.0933653853
 20
8.2623256451
 10
10.0256481608
 20
8.0715482445
 10
9.9400915179
 20
7.8976664341
 10
9.8382028204
 20
7.7427817857
 10
9.7220916813
 20
7.6085967694
 10
9.5927526792
 20
7.4949602671
 10
9.4729738743
 20
7.4145814134
  0
LWPOLYLINE
  5
433
100
AcDbEntity
  8
0
100
AcDbPolyline
 62
7
  6
CONTINUOUS
 90
3
 70
0
 10
-5.7587977976
 20
-24.186614691
 10
-5.7503981245
 20
-24.1740923614
 10
-5.7417537169
 20
-24.1616013765
  0
LWPOLYLINE
  5
434
100
AcDbEntity
  8
0
100
AcDbPolyline
 62
7
  6
CONTINUOUS
 90
7
 70
0
 10
-5.7587977976
 20
-24.186614691
 10
-5.7722084518
 20
-24.2060359517
 10
-5.7860038327
 20
-24.2249757494
 10
-5.8001839404
 20
-24.2434340841
 10
-5.8147487748
 20
-24.2614109559
 10
-5.829698336
 20
-24.2789063648
 10
-5.845032624
 20
-24.2959203107
  0
LWPOLYLINE
  5
435
100
AcDbEntity
  8
0
100
AcDbPolyline
 62
250
  6
CONTINUOUS
 90
10
 70
0
 10
-5.7587977976
 20
9.4701809949
 10
-5.7390075456
 20
9.4618615469
 10
-5.7166535653
 20
9.4553648844
 10
-5.6923999442
 20
9.4508841248
 10
-5.6669672236
 20
9.4485524978
 10
-5.6411111176
 20
9.4484393932
 10
-5.6156000622
 20
9.4505482568
 10
-5.5911921962
 20
9.4548164811
 10
-5.5686128326
 20
9.4611172969
 10
-5.5485330249
 20
9.4692635237
  0
LWPOLYLINE
  5
436
100
AcDbEntity
  8
RACCORDO
100
AcDbPolyline
 62
250
  6
CONTINUOUS
 90
9
 70
0
 10
-18.0803792759
 20
14.8325954355
 10
-18.1197142966
 20
14.8497370503
 10
-18.1585996759
 20
14.8616344104
 10
-18.1966103257
 20
14.8681647648
 10
-18.2333180411
 20
14.8692649111
 10
-18.2683385367
 20
14.8649342435
 10
-18.3013285913
 20
14.8552137427
 10
-18.3319416761
 20
14.8401876958
 10
-18.3374260327
 20
14.836766141
  0
LWPOLYLINE
  5
437
100
AcDbEntity
  8
RACCORDO
100
AcDbPolyline
 62
250
  6
CONTINUOUS
 90
10
 70
0
 10
-17.5325227436
 20
15.4415019691
 10
-17.5478859132
 20
15.4484281146
 10
-17.5631672047
 20
15.4538704201
 10
-17.578366618
 20
15.4578288856
 10
-17.5935660545
 20
15.4603132186
 10
-17.6086836128
 20
15.4613137116
 10
-17.6234735894
 20
15.4608012419
 10
-17.637854083
 20
15.4587661021
 10
-17.6519069948
 20
15.4552179997
 10
-17.665632325
 20
15.4501569346
  0
LWPOLYLINE
  5
438
100
AcDbEntity
  8
RACCORDO
100
AcDbPolyline
 62
250
  6
CONTINUOUS
 90
10
 70
0
 10
-17.3946235094
 20
15.662510938
 10
-17.4201363959
 20
15.6740367545
 10
-17.4456393654
 20
15.6831928421
 10
-17.4709961139
 20
15.689933495
 10
-17.4960724836
 20
15.6942375447
 10
-17.5207426181
 20
15.696081935
 10
-17.5448899846
 20
15.6954466122
 10
-17.5683952827
 20
15.692340608
 10
-17.5911316372
 20
15.6867823107
 10
-17.61297544
 20
15.6787888649
  0
LWPOLYLINE
  5
439
100
AcDbEntity
  8
0
100
AcDbPolyline
 62
7
  6
CONTINUOUS
 90
14
 70
0
 10
-10.9330855156
 20
12.4761595498
 10
-10.8997048121
 20
12.4608846142
 10
-10.8558446961
 20
12.4446461143
 10
-10.8098163874
 20
12.4314875354
 10
-10.7618542673
 20
12.421366299
 10
-10.7126293561
 20
12.4143474721
 10
-10.6624685532
 20
12.4104288891
 10
-10.6117228018
 20
12.4096455924
 10
-10.5613345178
 20
12.4120225174
 10
-10.5116425514
 20
12.4175585551
 10
-10.4630005717
 20
12.4262898852
 10
-10.4161449415
 20
12.4381806426
 10
-10.3713442904
 20
12.4532872683
 10
-10.3322358834
 20
12.4700952759
  0
LWPOLYLINE
  5
43A
100
AcDbEntity
  8
ASSI
100
AcDbPolyline
 62
7
  6
CONTINUOUS
 90
6
 70
0
 10
-15.6337865369
 20
16.2965014731
 10
-15.6798203425
 20
16.3176985753
 10
-15.7254115942
 20
16.3350416716
 10
-15.7705602919
 20
16.348530762
 10
-15.8155466268
 20
16.3582006896
 10
-15.8600904077
 20
16.3640166112
  0
LWPOLYLINE
  5
43B
100
AcDbEntity
  8
0
100
AcDbPolyline
 62
250
  6
CONTINUOUS
 90
5
 70
0
 10
-10.9846600973
 20
12.5841307568
 10
-10.9592525416
 20
12.5722659713
 10
-10.9331873588
 20
12.5616466769
 10
-10.9067298136
 20
12.5522299826
 10
-10.8801713095
 20
12.5439756205
  0
LWPOLYLINE
  5
43C
100
AcDbEntity
  8
0
100
AcDbPolyline
 62
250
  6
CONTINUOUS
 90
10
 70
0
 10
-16.3847737858
 20
16.0932141016
 10
-16.3936819643
 20
16.0975273494
 10
-16.4024158347
 20
16.1010971443
 10
-16.4110164827
 20
16.1039309583
 10
-16.4195743129
 20
16.1060176296
 10
-16.4280502453
 20
16.1073449146
 10
-16.4362862419
 20
16.1079169813
 10
-16.4442444851
 20
16.1077301802
 10
-16.4519971104
 20
16.1067570952
 10
-16.4595559431
 20
16.1049767383
  0
LWPOLYLINE
  5
43D
100
AcDbEntity
  8
0
100
AcDbPolyline
 62
250
  6
CONTINUOUS
 90
7
 70
0
 10
-10.8457068841
 20
13.3221620911
 10
-10.8414265304
 20
13.3200650335
 10
-10.8370841573
 20
13.3180211654
 10
-10.8326797647
 20
13.3160304869
 10
-10.8282133527
 20
13.3140929979
 10
-10.8236849212
 20
13.3122086985
 10
-10.8190944703
 20
13.3103775885
  0
LWPOLYLINE
  5
43E
100
AcDbEntity
  8
0
100
AcDbPolyline
 62
250
  6
CONTINUOUS
 90
7
 70
0
 10
-10.9846600973
 20
13.0795067837
 10
-10.9775959268
 20
13.0760447559
 10
-10.9703960207
 20
13.0726550256
 10
-10.9630631924
 20
13.0693389235
 10
-10.9556003076
 20
13.0660977526
 10
-10.9480102831
 20
13.0629327869
 10
-10.9402960857
 20
13.0598452717
  0
LINE
  5
43F
100
AcDbEntity
  8
RACCORDO
100
AcDbLine
 62
250
  6
CONTINUOUS
 10
-9.7824955242
 20
11.8564577506
 11
-17.3946236637
 21
15.6625218204
  0
LINE
  5
440
100
AcDbEntity
  8
0
100
AcDbLine
 62
7
  6
CONTINUOUS
 10
-16.4481143535
 20
15.2336724434
 11
-10.9326815088
 21
12.475956021
  0
LINE
  5
441
100
AcDbEntity
  8
0
100
AcDbLine
 62
250
  6
CONTINUOUS
 10
-16.5000929906
 20
15.3418472035
 11
-10.9846600973
 21
12.5841307568
  0
LINE
  5
442
100
AcDbEntity
  8
0
100
AcDbLine
 62
250
  6
CONTINUOUS
 10
-20.9498758577
 20
17.6028816869
 11
-17.2362285051
 21
15.7460580105
  0
LINE
  5
443
100
AcDbEntity
  8
0
100
AcDbLine
 62
250
  6
CONTINUOUS
 10
-5.9020325675
 20
10.0789600418
 11
-9.6222312822
 21
11.9390593991
  0
LINE
  5
444
100
AcDbEntity
  8
0
100
AcDbLine
 62
7
  6
CONTINUOUS
 10
-5.5045286952
 20
10.2792446081
 11
-10.1043600475
 21
12.5791602843
  0
LINE
  5
445
100
AcDbEntity
  8
0
100
AcDbLine
 62
7
  6
CONTINUOUS
 10
-16.6465396
 20
15.8502500605
 11
-20.5660108303
 21
17.8099856757
  0
LINE
  5
446
100
AcDbEntity
  8
0
100
AcDbLine
 62
250
  6
CONTINUOUS
 10
-16.5000929906
 20
15.8372232303
 11
-10.9846600973
 21
13.0795067837
  0
LINE
  5
447
100
AcDbEntity
  8
0
100
AcDbLine
 62
250
  6
CONTINUOUS
 10
-16.3611397773
 20
16.0798785377
 11
-10.8457068841
 21
13.3221620911
  0
LINE
  5
448
100
AcDbEntity
  8
0
100
AcDbLine
 62
7
  6
CONTINUOUS
 10
-15.8029250006
 20
16.381070705
 11
-10.2676145598
 21
13.6134154846
  0
LINE
  5
449
100
AcDbEntity
  8
ASSI
100
AcDbLine
 62
7
  6
CONTINUOUS
 10
-10.4367529887
 20
13.697984699
 11
-15.6337865369
 21
16.2965014731
  0
LINE
  5
44A
100
AcDbEntity
  8
ASSI
100
AcDbLine
 62
250
  6
CONTINUOUS
 10
-5.2972834478
 20
12.1008012959
 11
-5.4354647307
 21
12.1698919374
  0
LINE
  5
44B
100
AcDbEntity
  8
RACCORDO
100
AcDbLine
 62
250
  6
CONTINUOUS
 10
-5.2972834478
 20
12.1008012959
 11
-5.4275199907
 21
12.1659195674
  0
LINE
  5
44C
100
AcDbEntity
  8
ASSI
100
AcDbLine
 62
7
  6
CONTINUOUS
 10
-14.0700104855
 20
16.8293949253
 11
-9.3135232715
 21
14.4511513183
  0
LINE
  5
44D
100
AcDbEntity
  8
0
100
AcDbLine
 62
7
  6
CONTINUOUS
 10
-14.0700104855
 20
16.8293949253
 11
-9.3135232715
 21
14.4511513183
  0
LINE
  5
44E
100
AcDbEntity
  8
RACCORDO
100
AcDbLine
 62
250
  6
CONTINUOUS
 10
-9.1938228054
 20
14.6774547411
 11
-13.4583401017
 21
16.8097133893
  0
LINE
  5
44F
100
AcDbEntity
  8
RACCORDO
100
AcDbLine
 62
7
  6
CONTINUOUS
 10
-9.1043800863
 20
14.6831350986
 11
-13.3688973826
 21
16.8153937467
  0
LINE
  5
450
100
AcDbEntity
  8
0
100
AcDbLine
 62
7
  6
CONTINUOUS
 10
-10.9330855142
 20
12.4761595491
 11
-10.9326815088
 21
12.475956021
  0
LWPOLYLINE
  5
451
100
AcDbEntity
  8
RACCORDO
100
AcDbPolyline
 62
7
  6
CONTINUOUS
 90
4
 70
0
 10
-9.1044769461
 20
14.6831834411
 10
-9.1006690233
 20
14.681230895
 10
-9.079566913
 20
14.668400783
 10
-9.0756225594
 20
14.6655837898
  0
LWPOLYLINE
  5
452
100
AcDbEntity
  8
0
100
AcDbPolyline
 62
250
  6
CONTINUOUS
 90
10
 70
0
 10
-10.8190904915
 20
13.3103731664
 10
-10.8097541225
 20
13.3055621093
 10
-10.8004920354
 20
13.3001324927
 10
-10.7913131429
 20
13.2940756965
 10
-10.7822175896
 20
13.2873355483
 10
-10.7732191102
 20
13.2799261429
 10
-10.7643784913
 20
13.2719607543
 10
-10.7557612126
 20
13.2634872661
 10
-10.7474085021
 20
13.2544629294
 10
-10.7393777276
 20
13.2448895378
  0
LINE
  5
453
100
AcDbEntity
  8
ASSI
100
AcDbLine
 62
250
  6
CONTINUOUS
 10
-5.283893181
 20
12.0937609758
 11
-5.2972834486
 21
12.1008012363
  0
LINE
  5
454
100
AcDbEntity
  8
RACCORDO
100
AcDbLine
 62
250
  6
CONTINUOUS
 10
-5.283893181
 20
12.0937609758
 11
-5.2972834486
 21
12.1008012363
  0
LINE
  5
455
100
AcDbEntity
  8
ASSI
100
AcDbLine
 62
7
  6
CONTINUOUS
 10
-10.3907191831
 20
13.6731479956
 11
-10.4367529887
 21
13.697984699
  0
LINE
  5
456
100
AcDbEntity
  8
RACCORDO
100
AcDbLine
 62
250
  6
CONTINUOUS
 10
-9.1747306427
 20
14.6670710827
 11
-9.1938228054
 21
14.6774547411
  0
LWPOLYLINE
  5
457
100
AcDbEntity
  8
0
100
AcDbPolyline
 62
7
  6
CONTINUOUS
 90
7
 70
0
 10
-10.2676145462
 20
13.6134154778
 10
-10.2541558654
 20
13.6059442964
 10
-10.2409334809
 20
13.5970171115
 10
-10.2279473926
 20
13.5866339233
 10
-10.2151976007
 20
13.5747947316
 10
-10.202684105
 20
13.5614995366
 10
-10.1904069056
 20
13.5467483381
  0
LWPOLYLINE
  5
458
100
AcDbEntity
  8
ASSI
100
AcDbPolyline
 62
7
  6
CONTINUOUS
 90
10
 70
0
 10
-5.0653276114
 20
11.8785840793
 10
-5.0952180179
 20
11.8974403563
 10
-5.1244388612
 20
11.916256349
 10
-5.1529895922
 20
11.9350324414
 10
-5.180903384
 20
11.9536978595
 10
-5.2081459405
 20
11.9723241849
 10
-5.2346157303
 20
11.9911251244
 10
-5.2603143727
 20
12.0101266063
 10
-5.2852396469
 20
12.0293030207
 10
-5.2987614187
 20
12.0401212409
  0
LWPOLYLINE
  5
459
100
AcDbEntity
  8
RACCORDO
100
AcDbPolyline
 62
7
  6
CONTINUOUS
 90
10
 70
0
 10
-5.0653276114
 20
11.8785840793
 10
-5.0952180179
 20
11.8974403563
 10
-5.1244388612
 20
11.916256349
 10
-5.1529895922
 20
11.9350324414
 10
-5.180903384
 20
11.9536978595
 10
-5.2081459405
 20
11.9723241849
 10
-5.2346157303
 20
11.9911251244
 10
-5.2603143727
 20
12.0101266063
 10
-5.2852396469
 20
12.0293030207
 10
-5.29873958
 20
12.0401034906
  0
LINE
  5
45A
100
AcDbEntity
  8
RACCORDO
100
AcDbLine
 62
7
  6
CONTINUOUS
 10
-8.9881017211
 20
14.6014417744
 11
-9.0755979357
 21
14.6655657481
  0
LWPOLYLINE
  5
45B
100
AcDbEntity
  8
ASSI
100
AcDbPolyline
 62
250
  6
CONTINUOUS
 90
14
 70
0
 10
0.4805820834
 20
10.6782251178
 10
0.5714134652
 20
10.6091972498
 10
0.6620395514
 20
10.5485522446
 10
0.7523547583
 20
10.4963695938
 10
0.8408885664
 20
10.4527743395
 10
0.9277083454
 20
10.4180031366
 10
1.0128200309
 20
10.3918600179
 10
1.0946599885
 20
10.3738190128
 10
1.1729652705
 20
10.3641301387
 10
1.2480491397
 20
10.3625683743
 10
1.3192051235
 20
10.3678906413
 10
1.386204549
 20
10.3796853168
 10
1.4492983428
 20
10.398373218
 10
1.5084923561
 20
10.4239560817
  0
LINE
  5
45C
100
AcDbEntity
  8
ASSI
100
AcDbLine
 62
7
  6
CONTINUOUS
 10
-5.7091536845
 20
15.1423696418
 11
-5.333449437
 21
14.8505943146
  0
LINE
  5
45D
100
AcDbEntity
  8
RACCORDO
100
AcDbLine
 62
7
  6
CONTINUOUS
 10
-5.7091536845
 20
15.1423696418
 11
-5.3431578457
 21
14.8581339529
  0
LWPOLYLINE
  5
45E
100
AcDbEntity
  8
ASSI
100
AcDbPolyline
 62
7
  6
CONTINUOUS
 90
5
 70
0
 10
-0.3090107804
 20
12.0872887932
 10
-0.3356635344
 20
12.110803839
 10
-0.3636632851
 20
12.1327004457
 10
-0.3929116783
 20
12.1529013516
 10
-0.405336032
 20
12.1607353179
  0
LINE
  5
45F
100
AcDbEntity
  8
ASSI
100
AcDbLine
 62
7
  6
CONTINUOUS
 10
-8.3023462003
 20
17.5198505612
 11
-8.2654221711
 21
17.4838244337
  0
LINE
  5
460
100
AcDbEntity
  8
ASSI
100
AcDbLine
 62
7
  6
CONTINUOUS
 10
-1.2645983188
 20
12.9252385704
 11
-1.2276742896
 21
12.8892124429
  0
LWPOLYLINE
  5
461
100
AcDbEntity
  8
ASSI
100
AcDbPolyline
 62
7
  6
CONTINUOUS
 90
4
 70
0
 10
-8.755818954
 20
17.8548572071
 10
-8.6727237166
 20
17.7736562459
 10
-8.5800477403
 20
17.6945473485
 10
-8.5000672716
 20
17.6336279233
  0
LWPOLYLINE
  5
462
100
AcDbEntity
  8
ASSI
100
AcDbPolyline
 62
7
  6
CONTINUOUS
 90
4
 70
0
 10
-1.7180710725
 20
13.2602452164
 10
-1.634975835
 20
13.1790442551
 10
-1.5422998587
 20
13.0999353577
 10
-1.46231939
 20
13.0390159325
  0
LINE
  5
463
100
AcDbEntity
  8
ASSI
100
AcDbLine
 62
7
  6
CONTINUOUS
 10
-0.2837980437
 20
12.0622377273
 11
-0.3090107804
 21
12.0872887932
  0
LINE
  5
464
100
AcDbEntity
  8
ASSI
100
AcDbLine
 62
7
  6
CONTINUOUS
 10
-1.3266414103
 20
12.9953936015
 11
-1.2645983188
 21
12.9252385704
  0
LWPOLYLINE
  5
465
100
AcDbEntity
  8
SMUSSO
100
AcDbPolyline
 62
7
  6
CONTINUOUS
 90
3
 70
0
 10
-1.3266414103
 20
12.9953936015
 10
-1.2645983188
 20
12.9252385704
 10
-1.2276742896
 20
12.8892124429
  0
LINE
  5
466
100
AcDbEntity
  8
ASSI
100
AcDbLine
 62
250
  6
CONTINUOUS
 10
-1.1182463052
 20
15.010997433
 11
-0.7646409218
 21
14.4009822898
  0
LINE
  5
467
100
AcDbEntity
  8
SMUSSO
100
AcDbLine
 62
250
  6
CONTINUOUS
 10
-1.1182463052
 20
15.010997433
 11
-0.7646409218
 21
14.4009822898
  0
LINE
  5
468
100
AcDbEntity
  8
ASSI
100
AcDbLine
 62
7
  6
CONTINUOUS
 10
-3.6400808063
 20
21.0740720062
 11
-3.6338036849
 21
21.0632432306
  0
LINE
  5
469
100
AcDbEntity
  8
RACCORDO
100
AcDbLine
 62
7
  6
CONTINUOUS
 10
-3.6400808063
 20
21.0740720062
 11
-3.6338036849
 21
21.0632432306
  0
LWPOLYLINE
  5
46A
100
AcDbEntity
  8
ASSI
100
AcDbPolyline
 62
250
  6
CONTINUOUS
 90
3
 70
0
 10
1.0591041602
 20
18.0565884488
 10
1.0692918917
 20
18.0325726075
 10
1.0814572262
 20
18.0094299876
  0
LWPOLYLINE
  5
46B
100
AcDbEntity
  8
RACCORDO
100
AcDbPolyline
 62
250
  6
CONTINUOUS
 90
3
 70
0
 10
1.0591041602
 20
18.0565884488
 10
1.0692918917
 20
18.0325726075
 10
1.0814572262
 20
18.0094299876
  0
LWPOLYLINE
  5
46C
100
AcDbEntity
  8
RACCORDO
100
AcDbPolyline
 62
250
  6
CONTINUOUS
 90
3
 70
0
 10
1.0132032778
 20
18.9695447408
 10
1.023383711
 20
18.9453265546
 10
1.0313291092
 20
18.9208187431
  0
LWPOLYLINE
  5
46D
100
AcDbEntity
  8
RACCORDO
100
AcDbPolyline
 62
7
  6
CONTINUOUS
 90
5
 70
0
 10
1.1130115054
 20
18.0440279975
 10
1.104832441
 20
18.0669909176
 10
1.0997258411
 20
18.0897453759
 10
1.0973981616
 20
18.1120184408
 10
1.0971837733
 20
18.1211781064
  0
LINE
  5
46E
100
AcDbEntity
  8
RACCORDO
100
AcDbLine
 62
7
  6
CONTINUOUS
 10
1.0906044626
 20
18.9701963947
 11
1.0823573066
 21
18.9948943927
  0
LWPOLYLINE
  5
46F
100
AcDbEntity
  8
ASSI
100
AcDbPolyline
 62
250
  6
CONTINUOUS
 90
4
 70
0
 10
10.0928910962
 20
10.9109957967
 10
10.0984180352
 20
10.8411348845
 10
10.1023125077
 20
10.772492358
 10
10.1046042826
 20
10.7054404854
  0
LINE
  5
470
100
AcDbEntity
  8
RACCORDO
100
AcDbLine
 62
7
  6
CONTINUOUS
 10
9.3069320357
 20
12.1907012615
 11
9.2981425034
 21
12.3431629659
  0
LINE
  5
471
100
AcDbEntity
  8
ASSI
100
AcDbLine
 62
7
  6
CONTINUOUS
 10
10.1702518993
 20
11.0065304049
 11
10.1824110838
 21
10.7403756148
  0
LINE
  5
472
100
AcDbEntity
  8
ASSI
100
AcDbLine
 62
7
  6
CONTINUOUS
 10
9.307496417
 20
12.1417472216
 11
9.3009953546
 21
12.3092613086
  0
LINE
  5
473
100
AcDbEntity
  8
RACCORDO
100
AcDbLine
 62
7
  6
CONTINUOUS
 10
9.307496646
 20
12.1418659311
 11
9.3069320357
 21
12.1907012615
  0
LINE
  5
474
100
AcDbEntity
  8
ASSI
100
AcDbLine
 62
250
  6
CONTINUOUS
 10
10.1046042826
 20
10.7054404854
 11
10.1053545315
 21
10.6400060239
  0
LINE
  5
475
100
AcDbEntity
  8
ASSI
100
AcDbLine
 62
250
  6
CONTINUOUS
 10
9.167175741
 20
11.9683779773
 11
9.167175741
 21
-9.4127283544
  0
LINE
  5
476
100
AcDbEntity
  8
RACCORDO
100
AcDbLine
 62
250
  6
CONTINUOUS
 10
9.167175741
 20
11.9683779773
 11
9.167175741
 21
-9.4127283544
  0
LINE
  5
477
100
AcDbEntity
  8
ASSI
100
AcDbLine
 62
7
  6
CONTINUOUS
 10
9.3075058408
 20
12.1420425696
 11
9.3075058408
 21
-9.2390637618
  0
LINE
  5
478
100
AcDbEntity
  8
RACCORDO
100
AcDbLine
 62
7
  6
CONTINUOUS
 10
9.3075058408
 20
12.1420425696
 11
9.3075058408
 21
-9.2390637618
  0
LINE
  5
479
100
AcDbEntity
  8
RACCORDO
100
AcDbLine
 62
250
  6
CONTINUOUS
 10
10.1053545315
 20
10.6400060239
 11
10.1053545315
 21
8.8213526759
  0
LINE
  5
47A
100
AcDbEntity
  8
ASSI
100
AcDbLine
 62
250
  6
CONTINUOUS
 10
10.1053545315
 20
10.6400060239
 11
10.1053545315
 21
8.8213526759
  0
LINE
  5
47B
100
AcDbEntity
  8
ASSI
100
AcDbLine
 62
7
  6
CONTINUOUS
 10
10.1824110838
 20
10.7403756148
 11
10.1824110838
 21
8.9217222669
  0
LINE
  5
47C
100
AcDbEntity
  8
RACCORDO
100
AcDbLine
 62
7
  6
CONTINUOUS
 10
10.1824110838
 20
10.7403756148
 11
10.1824110838
 21
8.9217222669
  0
LINE
  5
47D
100
AcDbEntity
  8
ASSI
100
AcDbLine
 62
250
  6
CONTINUOUS
 10
10.1053545315
 20
8.8213526759
 11
10.1045986877
 21
8.756429197
  0
LWPOLYLINE
  5
47E
100
AcDbEntity
  8
RACCORDO
100
AcDbPolyline
 62
250
  6
CONTINUOUS
 90
21
 70
0
 10
10.1053545315
 20
8.8213526759
 10
10.1045986877
 20
8.756429197
 10
10.1023037931
 20
8.6917254259
 10
10.0984294974
 20
8.6273176572
 10
10.0929717506
 20
8.5636412166
 10
10.0858750107
 20
8.5004087376
 10
10.0769429474
 20
8.4366690825
 10
10.0660430805
 20
8.372487075
 10
10.0530679128
 20
8.3081010342
 10
10.0377128095
 20
8.2429384502
 10
10.0197992799
 20
8.1772537147
 10
9.9991370955
 20
8.1112771185
 10
9.975261529
 20
8.044547416
 10
9.9479080245
 20
7.9774333092
 10
9.9168135931
 20
7.9103398745
 10
9.8813581345
 20
7.8430639056
 10
9.8412027729
 20
7.7761795046
 10
9.7960085132
 20
7.710299269
 10
9.7449928269
 20
7.6455501666
 10
9.6875783191
 20
7.5826013151
 10
9.6235359099
 20
7.522578269
  0
LINE
  5
47F
100
AcDbEntity
  8
RACCORDO
100
AcDbLine
 62
7
  6
CONTINUOUS
 10
10.1824110838
 20
8.9217222669
 11
10.1770954621
 21
8.751560228
  0
LWPOLYLINE
  5
480
100
AcDbEntity
  8
ASSI
100
AcDbPolyline
 62
250
  6
CONTINUOUS
 90
20
 70
0
 10
10.1045986877
 20
8.756429197
 10
10.1023037931
 20
8.6917254259
 10
10.0984294974
 20
8.6273176572
 10
10.0929717506
 20
8.5636412166
 10
10.0858750107
 20
8.5004087376
 10
10.0769429474
 20
8.4366690825
 10
10.0660430805
 20
8.372487075
 10
10.0530679128
 20
8.3081010342
 10
10.0377128095
 20
8.2429384502
 10
10.0197992799
 20
8.1772537147
 10
9.9991370955
 20
8.1112771185
 10
9.975261529
 20
8.044547416
 10
9.9479080245
 20
7.9774333092
 10
9.9168135931
 20
7.9103398745
 10
9.8813581345
 20
7.8430639056
 10
9.8412027729
 20
7.7761795046
 10
9.7960085132
 20
7.710299269
 10
9.7449928269
 20
7.6455501666
 10
9.6875783191
 20
7.5826013151
 10
9.6235359099
 20
7.522578269
  0
LINE
  5
481
100
AcDbEntity
  8
ASSI
100
AcDbLine
 62
7
  6
CONTINUOUS
 10
10.1824110838
 20
8.9217222669
 11
10.1723204634
 21
8.6886464934
  0
LINE
  5
482
100
AcDbEntity
  8
RACCORDO
100
AcDbLine
 62
250
  6
CONTINUOUS
 10
9.3075058408
 20
-9.2390637618
 11
9.3069874588
 21
-9.2504448123
  0
LINE
  5
483
100
AcDbEntity
  8
ASSI
100
AcDbLine
 62
250
  6
CONTINUOUS
 10
9.3075058399
 20
-9.2390790832
 11
9.3069874588
 21
-9.2504448123
  0
LINE
  5
484
100
AcDbEntity
  8
RACCORDO
100
AcDbLine
 62
7
  6
CONTINUOUS
 10
9.3039940499
 20
-9.2982199807
 11
9.3075057619
 21
-9.2389232732
  0
LWPOLYLINE
  5
485
100
AcDbEntity
  8
RACCORDO
100
AcDbPolyline
 62
7
  6
CONTINUOUS
 90
13
 70
0
 10
10.1770954621
 20
8.751560228
 10
10.1612491517
 20
8.5875671034
 10
10.1350324235
 20
8.4303513231
 10
10.0985373386
 20
8.2802054853
 10
10.0520013009
 20
8.1380228923
 10
9.9960160136
 20
8.0051488139
 10
9.9311576447
 20
7.8822276897
 10
9.8577716836
 20
7.7693293391
 10
9.7763630893
 20
7.6668102559
 10
9.6877419443
 20
7.5752393763
 10
9.5923491769
 20
7.4946526114
 10
9.4901287065
 20
7.4248427779
 10
9.4718541236
 20
7.4139250851
  0
LWPOLYLINE
  5
486
100
AcDbEntity
  8
ASSI
100
AcDbPolyline
 62
250
  6
CONTINUOUS
 90
7
 70
0
 10
10.1824110838
 20
8.9217222669
 10
10.1809016562
 20
8.9066941415
 10
10.1747221363
 20
8.8879796802
 10
10.1638685256
 20
8.8698047639
 10
10.1485143732
 20
8.8524600128
 10
10.1289051914
 20
8.8362227713
 10
10.1053545315
 20
8.8213526759
  0
LWPOLYLINE
  5
487
100
AcDbEntity
  8
RACCORDO
100
AcDbPolyline
 62
250
  6
CONTINUOUS
 90
7
 70
0
 10
10.1824110838
 20
8.9217222669
 10
10.1809016562
 20
8.9066941415
 10
10.1747221363
 20
8.8879796802
 10
10.1638685256
 20
8.8698047639
 10
10.1485143732
 20
8.8524600128
 10
10.1289051914
 20
8.8362227713
 10
10.1053545315
 20
8.8213526759
  0
LWPOLYLINE
  5
488
100
AcDbEntity
  8
ASSI
100
AcDbPolyline
 62
250
  6
CONTINUOUS
 90
8
 70
0
 10
9.3069874588
 20
-9.2504448123
 10
9.3019426503
 20
-9.2762532812
 10
9.2915564573
 20
-9.3017036068
 10
9.2759442067
 20
-9.3264787168
 10
9.2553770318
 20
-9.3502071335
 10
9.2301815855
 20
-9.3726163871
 10
9.2006588593
 20
-9.393523064
 10
9.167175741
 20
-9.4127283544
  0
LWPOLYLINE
  5
489
100
AcDbEntity
  8
RACCORDO
100
AcDbPolyline
 62
250
  6
CONTINUOUS
 90
8
 70
0
 10
9.3069874588
 20
-9.2504448123
 10
9.3019426503
 20
-9.2762532812
 10
9.2915564573
 20
-9.3017036068
 10
9.2759442067
 20
-9.3264787168
 10
9.2553770318
 20
-9.3502071335
 10
9.2301815855
 20
-9.3726163871
 10
9.2006588593
 20
-9.393523064
 10
9.167175741
 20
-9.4127283544
  0
LWPOLYLINE
  5
48A
100
AcDbEntity
  8
ASSI
100
AcDbPolyline
 62
250
  6
CONTINUOUS
 90
4
 70
0
 10
2.4974569543
 20
-19.8450833656
 10
2.461201965
 20
-19.9131316704
 10
2.421032071
 20
-19.9766462998
 10
2.377084281
 20
-20.0354216053
  0
LINE
  5
48B
100
AcDbEntity
  8
RACCORDO
100
AcDbLine
 62
250
  6
CONTINUOUS
 10
2.4974569543
 20
-19.8450833656
 11
2.461201965
 21
-19.9131316704
  0
LWPOLYLINE
  5
48C
100
AcDbEntity
  8
0
100
AcDbPolyline
 62
7
  6
CONTINUOUS
 90
3
 70
0
 10
-5.7417537169
 20
-24.1616013765
 10
-5.7154200551
 20
-24.1244859111
 10
-5.7066297879
 20
-24.1123283811
  0
LWPOLYLINE
  5
48D
100
AcDbEntity
  8
0
100
AcDbPolyline
 62
7
  6
CONTINUOUS
 90
18
 70
0
 10
-5.7066297879
 20
-24.1123283811
 10
-5.689147586
 20
-24.0884826285
 10
-5.6804127067
 20
-24.0767931209
 10
-5.6716819651
 20
-24.0652471502
 10
-5.6629917978
 20
-24.0538664821
 10
-5.654241377
 20
-24.0426664139
 10
-5.6454371746
 20
-24.0315902091
 10
-5.6366327707
 20
-24.0206884839
 10
-5.6277974185
 20
-24.0101218735
 10
-5.6190057353
 20
-23.9998818325
 10
-5.6102501427
 20
-23.9899691945
 10
-5.6013885553
 20
-23.9805380616
 10
-5.5924338493
 20
-23.9714584718
 10
-5.5834824361
 20
-23.9628216863
 10
-5.5745408599
 20
-23.9550934747
 10
-5.5656677859
 20
-23.9484147552
 10
-5.556967647
 20
-23.9426088063
 10
-5.5485330248
 20
-23.9376637472
  0
LWPOLYLINE
  5
48E
100
AcDbEntity
  8
RACCORDO
100
AcDbPolyline
 62
250
  6
CONTINUOUS
 90
13
 70
0
 10
-6.6070466924
 20
-24.467778508
 10
-6.5727727196
 20
-24.4227000136
 10
-6.5420537974
 20
-24.3737323457
 10
-6.5148899257
 20
-24.3208755045
 10
-6.4912021614
 20
-24.2639357257
 10
-6.4710694476
 20
-24.2031067735
 10
-6.4547286139
 20
-24.13896994
 10
-6.4422304457
 20
-24.071474571
 10
-6.4335241577
 20
-24.0006713205
 10
-6.4286942228
 20
-23.9272934433
 10
-6.4277687989
 20
-23.8515853575
 10
-6.4307197282
 20
-23.7733026448
 10
-6.4375470108
 20
-23.6924453053
  0
LWPOLYLINE
  5
48F
100
AcDbEntity
  8
RACCORDO
100
AcDbPolyline
 62
250
  6
CONTINUOUS
 90
13
 70
0
 10
-6.3574218914
 20
-24.5397117725
 10
-6.3186626895
 20
-24.4893585331
 10
-6.2836449841
 20
-24.434395077
 10
-6.2525021837
 20
-24.3749848923
 10
-6.2253276232
 20
-24.3113034755
 10
-6.2021963374
 20
-24.2435439745
 10
-6.183188918
 20
-24.1719088224
 10
-6.1683661175
 20
-24.096596607
 10
-6.1577681207
 20
-24.0178273594
 10
-6.1514402517
 20
-23.9358412647
 10
-6.1494164832
 20
-23.8508731475
 10
-6.1516938427
 20
-23.7631883589
 10
-6.1582539282
 20
-23.6730842732
  0
LWPOLYLINE
  5
490
100
AcDbEntity
  8
ASSI
100
AcDbPolyline
 62
250
  6
CONTINUOUS
 90
9
 70
0
 10
2.9904781587
 20
-12.8495177261
 10
2.9433173855
 20
-12.910009913
 10
2.8986170885
 20
-12.9737959514
 10
2.8565614699
 20
-13.0411000946
 10
2.8169663276
 20
-13.1116980893
 10
2.7810704446
 20
-13.18338359
 10
2.7491358906
 20
-13.2562270272
 10
2.720900596
 20
-13.3301579703
 10
2.6968171355
 20
-13.4027587826
  0
LINE
  5
491
100
AcDbEntity
  8
ASSI
100
AcDbLine
 62
250
  6
CONTINUOUS
 10
3.0383080184
 20
-12.7938529764
 11
2.9904781587
 21
-12.8495177261
  0
LWPOLYLINE
  5
492
100
AcDbEntity
  8
RACCORDO
100
AcDbPolyline
 62
250
  6
CONTINUOUS
 90
11
 70
0
 10
3.0383080184
 20
-12.7938529764
 10
2.9904781587
 20
-12.8495177261
 10
2.9433173855
 20
-12.910009913
 10
2.8986170885
 20
-12.9737959514
 10
2.8565614699
 20
-13.0411000946
 10
2.8169663276
 20
-13.1116980893
 10
2.7810704446
 20
-13.18338359
 10
2.7491358906
 20
-13.2562270272
 10
2.720900596
 20
-13.3301579703
 10
2.6968171355
 20
-13.4027587826
 10
2.6771851691
 20
-13.4739020682
  0
LINE
  5
493
100
AcDbEntity
  8
RACCORDO
100
AcDbLine
 62
250
  6
CONTINUOUS
 10
3.0868292401
 20
-12.7433924655
 11
3.0383080184
 21
-12.7938529764
  0
LINE
  5
494
100
AcDbEntity
  8
0
100
AcDbLine
 62
7
  6
CONTINUOUS
 10
1.591953626
 20
12.6553343718
 11
1.5311299297
 21
12.6388691331
  0
LWPOLYLINE
  5
495
100
AcDbEntity
  8
0
100
AcDbPolyline
 62
250
  6
CONTINUOUS
 90
16
 70
0
 10
-10.8011809746
 20
12.5253865703
 10
-10.7754693625
 20
12.5210151997
 10
-10.750180955
 20
12.5174434036
 10
-10.7254020497
 20
12.5146130294
 10
-10.70124376
 20
12.5124688837
 10
-10.6777253849
 20
12.5109532314
 10
-10.654925235
 20
12.5100126181
 10
-10.6328869835
 20
12.5095920289
 10
-10.6115602278
 20
12.5096424846
 10
-10.5910077041
 20
12.5101173432
 10
-10.5712334885
 20
12.5109709431
 10
-10.55208967
 20
12.5121737128
 10
-10.5335986478
 20
12.5136925244
 10
-10.515773244
 20
12.5154948166
 10
-10.4984505755
 20
12.5175728607
 10
-10.4816432233
 20
12.5199051785
  0
LWPOLYLINE
  5
496
100
AcDbEntity
  8
0
100
AcDbPolyline
 62
250
  6
CONTINUOUS
 90
9
 70
0
 10
-10.5667057616
 20
12.8931471148
 10
-10.6150329682
 20
12.9020846145
 10
-10.6638866378
 20
12.9145328113
 10
-10.7128018889
 20
12.9305924667
 10
-10.7612880278
 20
12.9502418617
 10
-10.808787472
 20
12.9730784278
 10
-10.8547794532
 20
12.998934245
 10
-10.8987811805
 20
13.027885027
 10
-10.9402960857
 20
13.0598452717
  0
LWPOLYLINE
  5
497
100
AcDbEntity
  8
0
100
AcDbPolyline
 62
250
  6
CONTINUOUS
 90
4
 70
0
 10
-10.8801713095
 20
12.5439756205
 10
-10.8536841454
 20
12.5368076679
 10
-10.8273055853
 20
12.5306314102
 10
-10.8011809746
 20
12.5253865703
  0
LWPOLYLINE
  5
498
100
AcDbEntity
  8
RACCORDO
100
AcDbPolyline
 62
7
  6
CONTINUOUS
 90
7
 70
0
 10
-13.3688723102
 20
16.8153812047
 10
-13.3924873722
 20
16.8253535863
 10
-13.4182052143
 20
16.8324384891
 10
-13.4449294145
 20
16.8360581856
 10
-13.4719309872
 20
16.8360457987
 10
-13.4987600124
 20
16.8323813019
 10
-13.5252250308
 20
16.8249928072
  0
LWPOLYLINE
  5
499
100
AcDbEntity
  8
ASSI
100
AcDbPolyline
 62
7
  6
CONTINUOUS
 90
3
 70
0
 10
-11.8855334792
 20
18.1267410022
 10
-11.9367290677
 20
18.149410564
 10
-11.9987698159
 20
18.1700194966
  0
LWPOLYLINE
  5
49A
100
AcDbEntity
  8
ASSI
100
AcDbPolyline
 62
250
  6
CONTINUOUS
 90
10
 70
0
 10
-12.1987628744
 20
18.1180767042
 10
-12.2267152232
 20
18.1308418424
 10
-12.2545295911
 20
18.1407640244
 10
-12.282029785
 20
18.147780397
 10
-12.3090416019
 20
18.1518465141
 10
-12.3353939323
 20
18.1529366185
 10
-12.3609198443
 20
18.1510438048
 10
-12.3854576411
 20
18.1461800634
 10
-12.4088518853
 20
18.138376204
 10
-12.4181699662
 20
18.1342945511
  0
LWPOLYLINE
  5
49B
100
AcDbEntity
  8
RACCORDO
100
AcDbPolyline
 62
250
  6
CONTINUOUS
 90
9
 70
0
 10
-12.1987628744
 20
18.1180767042
 10
-12.2267152232
 20
18.1308418424
 10
-12.2545295911
 20
18.1407640244
 10
-12.282029785
 20
18.147780397
 10
-12.3090416019
 20
18.1518465141
 10
-12.3353939323
 20
18.1529366185
 10
-12.3609198443
 20
18.1510438048
 10
-12.3854576411
 20
18.1461800634
 10
-12.4088518853
 20
18.138376204
  0
LWPOLYLINE
  5
49C
100
AcDbEntity
  8
ASSI
100
AcDbPolyline
 62
250
  6
CONTINUOUS
 90
13
 70
0
 10
-12.1032542941
 20
18.1155968582
 10
-12.1107625693
 20
18.1190283185
 10
-12.1184598744
 20
18.1218932476
 10
-12.1263462093
 20
18.1241916455
 10
-12.1344861107
 20
18.1259408262
 10
-12.1428150419
 20
18.1271234755
 10
-12.1511393935
 20
18.1276876519
 10
-12.1594627491
 20
18.1276124927
 10
-12.167781525
 20
18.1269188605
 10
-12.1758913615
 20
18.1256174009
 10
-12.1837241386
 20
18.1237116627
 10
-12.1913479762
 20
18.1211980971
 10
-12.1987628744
 20
18.1180767042
  0
LWPOLYLINE
  5
49D
100
AcDbEntity
  8
RACCORDO
100
AcDbPolyline
 62
250
  6
CONTINUOUS
 90
13
 70
0
 10
-12.1032542941
 20
18.1155968582
 10
-12.1107625693
 20
18.1190283185
 10
-12.1184598744
 20
18.1218932476
 10
-12.1263462093
 20
18.1241916455
 10
-12.1344861107
 20
18.1259408262
 10
-12.1428150419
 20
18.1271234755
 10
-12.1511393935
 20
18.1276876519
 10
-12.1594627491
 20
18.1276124927
 10
-12.167781525
 20
18.1269188605
 10
-12.1758913615
 20
18.1256174009
 10
-12.1837241386
 20
18.1237116627
 10
-12.1913479762
 20
18.1211980971
 10
-12.1987628744
 20
18.1180767042
  0
LINE
  5
49E
100
AcDbEntity
  8
RACCORDO
100
AcDbLine
 62
7
  6
CONTINUOUS
 10
-11.8856225507
 20
18.1267855764
 11
-11.9127230596
 21
18.1394754429
  0
LWPOLYLINE
  5
49F
100
AcDbEntity
  8
ASSI
100
AcDbPolyline
 62
250
  6
CONTINUOUS
 90
11
 70
0
 10
0.7155856072
 20
10.8364174567
 10
0.7628928545
 20
10.8139399384
 10
0.8236110324
 20
10.7887537824
 10
0.8814118387
 20
10.7690069108
 10
0.9358780453
 20
10.7546386948
 10
0.9865893447
 20
10.7455635614
 10
1.0335500999
 20
10.7415349584
 10
1.0769704579
 20
10.7421543617
 10
1.1168084344
 20
10.7471535017
 10
1.1527724555
 20
10.7564063889
 10
1.1847181767
 20
10.7697110109
  0
LWPOLYLINE
  5
4A0
100
AcDbEntity
  8
RACCORDO
100
AcDbPolyline
 62
250
  6
CONTINUOUS
 90
11
 70
0
 10
0.7156046509
 20
10.8364079353
 10
0.7628928545
 20
10.8139399384
 10
0.8236110324
 20
10.7887537824
 10
0.8814118387
 20
10.7690069108
 10
0.9358780453
 20
10.7546386948
 10
0.9865893447
 20
10.7455635614
 10
1.0335500999
 20
10.7415349584
 10
1.0769704579
 20
10.7421543617
 10
1.1168084344
 20
10.7471535017
 10
1.1527724555
 20
10.7564063889
 10
1.1847181767
 20
10.7697110109
  0
LINE
  5
4A1
100
AcDbEntity
  8
ASSI
100
AcDbLine
 62
7
  6
CONTINUOUS
 10
-11.2675028098
 20
16.0571127081
 11
-8.6595931924
 21
14.7531578994
  0
LINE
  5
4A2
100
AcDbEntity
  8
0
100
AcDbLine
 62
7
  6
CONTINUOUS
 10
-11.2675028098
 20
16.0571127081
 11
-8.6595931924
 21
14.7531578994
  0
LINE
  5
4A3
100
AcDbEntity
  8
ASSI
100
AcDbLine
 62
7
  6
CONTINUOUS
 10
0.7154832514
 20
10.8364686389
 11
0.7155856072
 21
10.8364174567
  0
LINE
  5
4A4
100
AcDbEntity
  8
ASSI
100
AcDbLine
 62
7
  6
CONTINUOUS
 10
-12.7904630842
 20
17.6428007529
 11
-12.6110056941
 21
17.5530720578
  0
LINE
  5
4A5
100
AcDbEntity
  8
0
100
AcDbLine
 62
7
  6
CONTINUOUS
 10
-12.7904630842
 20
17.6428007529
 11
-12.6110056941
 21
17.5530720578
  0
LINE
  5
4A6
100
AcDbEntity
  8
ASSI
100
AcDbLine
 62
7
  6
CONTINUOUS
 10
-7.802679582
 20
15.1489090018
 11
-7.6232221919
 21
15.0591803067
  0
LINE
  5
4A7
100
AcDbEntity
  8
0
100
AcDbLine
 62
7
  6
CONTINUOUS
 10
-7.802679582
 20
15.1489090018
 11
-7.6232221919
 21
15.0591803067
  0
LINE
  5
4A8
100
AcDbEntity
  8
ASSI
100
AcDbLine
 62
7
  6
CONTINUOUS
 10
-11.2675028098
 20
16.9473245593
 11
-6.8834407665
 21
14.7552935376
  0
LINE
  5
4A9
100
AcDbEntity
  8
0
100
AcDbLine
 62
7
  6
CONTINUOUS
 10
-11.2675028098
 20
16.9473245593
 11
-6.8834407665
 21
14.7552935376
  0
LINE
  5
4AA
100
AcDbEntity
  8
ASSI
100
AcDbLine
 62
250
  6
CONTINUOUS
 10
0.2490628643
 20
11.237538667
 11
1.1847181767
 21
10.7697110109
  0
LINE
  5
4AB
100
AcDbEntity
  8
RACCORDO
100
AcDbLine
 62
250
  6
CONTINUOUS
 10
0.2490628643
 20
11.237538667
 11
1.1847181767
 21
10.7697110109
  0
LINE
  5
4AC
100
AcDbEntity
  8
ASSI
100
AcDbLine
 62
7
  6
CONTINUOUS
 10
-10.8060973301
 20
17.1051738024
 11
-6.5677422804
 21
14.9859962775
  0
LINE
  5
4AD
100
AcDbEntity
  8
0
100
AcDbLine
 62
7
  6
CONTINUOUS
 10
-10.8060973301
 20
17.1051738024
 11
-6.5677422804
 21
14.9859962775
  0
LINE
  5
4AE
100
AcDbEntity
  8
ASSI
100
AcDbLine
 62
250
  6
CONTINUOUS
 10
-2.6947707342
 20
13.4113550782
 11
-5.5213271688
 21
14.8246332955
  0
LINE
  5
4AF
100
AcDbEntity
  8
RACCORDO
100
AcDbLine
 62
250
  6
CONTINUOUS
 10
-2.6947707342
 20
13.4113550782
 11
-5.5213271688
 21
14.8246332955
  0
LINE
  5
4B0
100
AcDbEntity
  8
ASSI
100
AcDbLine
 62
250
  6
CONTINUOUS
 10
-10.0308037572
 20
17.0793715898
 11
-12.1032542941
 21
18.1155968582
  0
LINE
  5
4B1
100
AcDbEntity
  8
RACCORDO
100
AcDbLine
 62
250
  6
CONTINUOUS
 10
-10.0308037572
 20
17.0793715898
 11
-12.1032542941
 21
18.1155968582
  0
LINE
  5
4B2
100
AcDbEntity
  8
ASSI
100
AcDbLine
 62
7
  6
CONTINUOUS
 10
-9.7739044781
 20
17.0708218351
 11
-11.8858098856
 21
18.1267745389
  0
LINE
  5
4B3
100
AcDbEntity
  8
RACCORDO
100
AcDbLine
 62
7
  6
CONTINUOUS
 10
-9.7739044781
 20
17.0708218351
 11
-11.8858098856
 21
18.1267745389
  0
LINE
  5
4B4
100
AcDbEntity
  8
ASSI
100
AcDbLine
 62
7
  6
CONTINUOUS
 10
-9.5512370747
 20
17.0634113368
 11
-5.7091536845
 21
15.1423696418
  0
LINE
  5
4B5
100
AcDbEntity
  8
0
100
AcDbLine
 62
7
  6
CONTINUOUS
 10
-9.5512370747
 20
17.0634113368
 11
-5.7091536845
 21
15.1423696418
  0
LINE
  5
4B6
100
AcDbEntity
  8
0
100
AcDbLine
 62
7
  6
CONTINUOUS
 10
0.5127583237
 20
12.5330675626
 11
-0.1942106164
 21
12.8865520327
  0
LINE
  5
4B7
100
AcDbEntity
  8
0
100
AcDbLine
 62
7
  6
CONTINUOUS
 10
1.0077330705
 20
12.780554936
 11
0.3007641304
 21
13.1340394061
  0
LINE
  5
4B8
100
AcDbEntity
  8
RACCORDO
100
AcDbLine
 62
7
  6
CONTINUOUS
 10
-5.3446600611
 20
14.8561996266
 11
-2.4770630394
 21
13.4224008414
  0
LINE
  5
4B9
100
AcDbEntity
  8
ASSI
100
AcDbLine
 62
7
  6
CONTINUOUS
 10
-5.3446600611
 20
14.8561996266
 11
-2.4768802938
 21
13.4223089738
  0
LINE
  5
4BA
100
AcDbEntity
  8
ASSI
100
AcDbLine
 62
7
  6
CONTINUOUS
 10
0.7154822781
 20
10.836471015
 11
0.6751530706
 21
10.8580400265
  0
LINE
  5
4BB
100
AcDbEntity
  8
RACCORDO
100
AcDbLine
 62
7
  6
CONTINUOUS
 10
-2.4482419743
 20
13.4070431826
 11
-2.4770202984
 21
13.4224842734
  0
LWPOLYLINE
  5
4BC
100
AcDbEntity
  8
RACCORDO
100
AcDbPolyline
 62
7
  6
CONTINUOUS
 90
15
 70
0
 10
0.7156037829
 20
10.8364102638
 10
0.6692318772
 20
10.8614360568
 10
0.6213937243
 20
10.8909336719
 10
0.5721960722
 20
10.9249539164
 10
0.5222086607
 20
10.963198652
 10
0.471848035
 20
11.0053949619
 10
0.4204105571
 20
11.0522864428
 10
0.3681940751
 20
11.1038573546
 10
0.3155757164
 20
11.1599652422
 10
0.2619764041
 20
11.2215528221
 10
0.2076605238
 20
11.2887911823
 10
0.1531661901
 20
11.3615022614
 10
0.0984618166
 20
11.4402806962
 10
0.0439294244
 20
11.5252663582
 10
-0.0116078191
 20
11.6194503029
  0
LWPOLYLINE
  5
4BD
100
AcDbEntity
  8
ASSI
100
AcDbPolyline
 62
7
  6
CONTINUOUS
 90
10
 70
0
 10
-7.6232221919
 20
15.0591803067
 10
-7.5768633348
 20
15.0340985189
 10
-7.5310859601
 20
15.0057122696
 10
-7.4858900679
 20
14.974021559
 10
-7.4410894086
 20
14.9388643881
 10
-7.3968702317
 20
14.9004027558
 10
-7.3537912858
 20
14.8591226589
 10
-7.3120388202
 20
14.8151860964
 10
-7.2714265855
 20
14.7684310693
 10
-7.2319545818
 20
14.7188575777
  0
LWPOLYLINE
  5
4BE
100
AcDbEntity
  8
0
100
AcDbPolyline
 62
7
  6
CONTINUOUS
 90
10
 70
0
 10
-7.6232221919
 20
15.0591803067
 10
-7.5768633348
 20
15.0340985189
 10
-7.5310859601
 20
15.0057122696
 10
-7.4858900679
 20
14.974021559
 10
-7.4410894086
 20
14.9388643881
 10
-7.3968702317
 20
14.9004027558
 10
-7.3537912858
 20
14.8591226589
 10
-7.3120388202
 20
14.8151860964
 10
-7.2714265855
 20
14.7684310693
 10
-7.2319545818
 20
14.7188575777
  0
LWPOLYLINE
  5
4BF
100
AcDbEntity
  8
ASSI
100
AcDbPolyline
 62
250
  6
CONTINUOUS
 90
10
 70
0
 10
-2.6918071901
 20
13.3645919123
 10
-2.6635222507
 20
13.3492437048
 10
-2.6354565552
 20
13.3312301267
 10
-2.6077878835
 20
13.3106652855
 10
-2.5806914937
 20
13.2876794532
 10
-2.5543390121
 20
13.2624182406
 10
-2.5288973456
 20
13.2350416753
 10
-2.5045276257
 20
13.2057231875
 10
-2.4813841881
 20
13.1746485111
 10
-2.4596135949
 20
13.1420145074
  0
LWPOLYLINE
  5
4C0
100
AcDbEntity
  8
RACCORDO
100
AcDbPolyline
 62
250
  6
CONTINUOUS
 90
10
 70
0
 10
-2.6918071901
 20
13.3645919123
 10
-2.6635222507
 20
13.3492437048
 10
-2.6354565552
 20
13.3312301267
 10
-2.6077878835
 20
13.3106652855
 10
-2.5806914937
 20
13.2876794532
 10
-2.5543390121
 20
13.2624182406
 10
-2.5288973456
 20
13.2350416753
 10
-2.5045276257
 20
13.2057231875
 10
-2.4813841881
 20
13.1746485111
 10
-2.4596135949
 20
13.1420145074
  0
LWPOLYLINE
  5
4C1
100
AcDbEntity
  8
ASSI
100
AcDbPolyline
 62
250
  6
CONTINUOUS
 90
10
 70
0
 10
1.1847181767
 20
10.7697110109
 10
1.2258770046
 20
10.7470052376
 10
1.2665842603
 20
10.7196451934
 10
1.3064614219
 20
10.6878852896
 10
1.3451376858
 20
10.6520208499
 10
1.3822534158
 20
10.6123853649
 10
1.4174634861
 20
10.5693473904
 10
1.4504404911
 20
10.5233071212
 10
1.4808777896
 20
10.4746926689
 10
1.5084923561
 20
10.4239560817
  0
LWPOLYLINE
  5
4C2
100
AcDbEntity
  8
RACCORDO
100
AcDbPolyline
 62
250
  6
CONTINUOUS
 90
10
 70
0
 10
1.1847181767
 20
10.7697110109
 10
1.2258770046
 20
10.7470052376
 10
1.2665842603
 20
10.7196451934
 10
1.3064614219
 20
10.6878852896
 10
1.3451376858
 20
10.6520208499
 10
1.3822534158
 20
10.6123853649
 10
1.4174634861
 20
10.5693473904
 10
1.4504404911
 20
10.5233071212
 10
1.4808777896
 20
10.4746926689
 10
1.5084923561
 20
10.4239560817
  0
LWPOLYLINE
  5
4C3
100
AcDbEntity
  8
ASSI
100
AcDbPolyline
 62
7
  6
CONTINUOUS
 90
3
 70
0
 10
-2.436142985
 20
13.3999177377
 10
-2.47101136
 20
13.4194286325
 10
-2.4768374471
 20
13.4223925329
  0
LINE
  5
4C4
100
AcDbEntity
  8
RACCORDO
100
AcDbLine
 62
7
  6
CONTINUOUS
 10
-2.4361056346
 20
13.3998950152
 11
-2.4482419743
 21
13.4070431826
  0
LINE
  5
4C5
100
AcDbEntity
  8
ASSI
100
AcDbLine
 62
7
  6
CONTINUOUS
 10
-2.083919754
 20
13.1862079704
 11
-2.4355012487
 21
13.3995029062
  0
LINE
  5
4C6
100
AcDbEntity
  8
ASSI
100
AcDbLine
 62
7
  6
CONTINUOUS
 10
-2.4355734629
 20
13.3995714679
 11
-2.4358646079
 21
13.3997492813
  0
LINE
  5
4C7
100
AcDbEntity
  8
RACCORDO
100
AcDbLine
 62
7
  6
CONTINUOUS
 10
-2.4355734668
 20
13.3995714703
 11
-2.4358259082
 21
13.3997257537
  0
LWPOLYLINE
  5
4C8
100
AcDbEntity
  8
ASSI
100
AcDbPolyline
 62
7
  6
CONTINUOUS
 90
6
 70
0
 10
-0.7848417696
 20
12.3936099607
 10
-1.0456286349
 20
12.5532872923
 10
-1.3059567265
 20
12.7124007865
 10
-1.5657996475
 20
12.8709356635
 10
-1.82512917
 20
13.0288760969
 10
-2.083919754
 20
13.1862079704
  0
LWPOLYLINE
  5
4C9
100
AcDbEntity
  8
ASSI
100
AcDbPolyline
 62
7
  6
CONTINUOUS
 90
13
 70
0
 10
0.6751530706
 20
10.8580400265
 10
0.6186808336
 20
10.8927139187
 10
0.56146706
 20
10.932853836
 10
0.5035828415
 20
10.9783781361
 10
0.4446001971
 20
11.0297551131
 10
0.3851678358
 20
11.0866500488
 10
0.3256427785
 20
11.1489028335
 10
0.2650374448
 20
11.2179111119
 10
0.2033830651
 20
11.2943027852
 10
0.1417944346
 20
11.3773816877
 10
0.0810119613
 20
11.4667344015
 10
0.0216867049
 20
11.5619925252
 10
-0.0116083929
 20
11.6194513251
  0
LINE
  5
4CA
100
AcDbEntity
  8
ASSI
100
AcDbLine
 62
7
  6
CONTINUOUS
 10
-0.4049296479
 20
12.160485979
 11
-0.7848417696
 21
12.3936099607
  0
LWPOLYLINE
  5
4CB
100
AcDbEntity
  8
RACCORDO
100
AcDbPolyline
 62
7
  6
CONTINUOUS
 90
10
 70
0
 10
-0.4049296471
 20
12.1604859785
 10
-0.5643840848
 20
12.2584046384
 10
-0.812863677
 20
12.4107811084
 10
-1.0609458851
 20
12.562657081
 10
-1.3086095298
 20
12.7140207342
 10
-1.5558318813
 20
12.8648593492
 10
-1.8025886289
 20
13.0151593009
 10
-2.0488577465
 20
13.1649084154
 10
-2.2946195154
 20
13.3140959731
 10
-2.4355012528
 20
13.3995029087
  0
LWPOLYLINE
  5
4CC
100
AcDbEntity
  8
ASSI
100
AcDbPolyline
 62
250
  6
CONTINUOUS
 90
6
 70
0
 10
-2.4596236534
 20
13.1420017635
 10
-2.1200053865
 20
12.9321679119
 10
-1.7795469243
 20
12.7212604388
 10
-1.4382898515
 20
12.5093150744
 10
-1.0962757941
 20
12.2963683929
 10
-0.753546409
 20
12.0824578137
  0
LWPOLYLINE
  5
4CD
100
AcDbEntity
  8
RACCORDO
100
AcDbPolyline
 62
250
  6
CONTINUOUS
 90
6
 70
0
 10
-2.4596236534
 20
13.1420017635
 10
-2.1200053865
 20
12.9321679119
 10
-1.7795469243
 20
12.7212604388
 10
-1.4382898515
 20
12.5093150744
 10
-1.0962757941
 20
12.2963683929
 10
-0.753546409
 20
12.0824578137
  0
LINE
  5
4CE
100
AcDbEntity
  8
ASSI
100
AcDbLine
 62
250
  6
CONTINUOUS
 10
-0.753546409
 20
12.0824578137
 11
-0.4101433734
 21
11.8676216019
  0
LINE
  5
4CF
100
AcDbEntity
  8
RACCORDO
100
AcDbLine
 62
250
  6
CONTINUOUS
 10
-0.753546409
 20
12.0824578137
 11
-0.4101433734
 21
11.8676216019
  0
LWPOLYLINE
  5
4D0
100
AcDbEntity
  8
ASSI
100
AcDbPolyline
 62
250
  6
CONTINUOUS
 90
10
 70
0
 10
-0.0116115888
 20
11.6194523413
 10
-0.0139055113
 20
11.6209990483
 10
-0.0221144528
 20
11.6209173287
 10
-0.035810182
 20
11.6176619665
 10
-0.0548457757
 20
11.6112679428
 10
-0.0790171437
 20
11.6018038533
 10
-0.1080652512
 20
11.5893711531
 10
-0.141678814
 20
11.5741030932
 10
-0.1794975956
 20
11.5561633159
 10
-0.2211163445
 20
11.5357440722
  0
LWPOLYLINE
  5
4D1
100
AcDbEntity
  8
RACCORDO
100
AcDbPolyline
 62
250
  6
CONTINUOUS
 90
10
 70
0
 10
-0.0116115888
 20
11.6194523413
 10
-0.0139055113
 20
11.6209990483
 10
-0.0221144528
 20
11.6209173287
 10
-0.035810182
 20
11.6176619665
 10
-0.0548457757
 20
11.6112679428
 10
-0.0790171437
 20
11.6018038533
 10
-0.1080652512
 20
11.5893711531
 10
-0.141678814
 20
11.5741030932
 10
-0.1794975956
 20
11.5561633159
 10
-0.2211163445
 20
11.5357440722
  0
LWPOLYLINE
  5
4D2
100
AcDbEntity
  8
ASSI
100
AcDbPolyline
 62
7
  6
CONTINUOUS
 90
32
 70
0
 10
-8.5000672716
 20
17.6336279233
 10
-8.4786385477
 20
17.6182849877
 10
-8.3683702401
 20
17.5448716687
 10
-8.2493687163
 20
17.4743048862
 10
-8.1228591944
 20
17.4073315967
 10
-7.9887501529
 20
17.3439956045
 10
-7.8471331134
 20
17.2842531053
 10
-7.6995078585
 20
17.2287196431
 10
-7.5458665179
 20
17.1774567373
 10
-7.3862169619
 20
17.1304028685
 10
-7.2220825845
 20
17.0879890224
 10
-7.0534279399
 20
17.0502529678
 10
-6.8802884738
 20
17.0171569359
 10
-6.704293918
 20
16.9890186055
 10
-6.5254031935
 20
16.9658780989
 10
-6.3436573793
 20
16.9476952939
 10
-6.1608094435
 20
16.9346675021
 10
-5.9767671986
 20
16.926850076
 10
-5.7916228322
 20
16.9241876631
 10
-5.6074058752
 20
16.9267115186
 10
-5.4242019161
 20
16.9344804967
 10
-5.2419253664
 20
16.9474357432
 10
-5.0623489926
 20
16.9654319502
 10
-4.8854940796
 20
16.9885180145
 10
-4.7113393424
 20
17.0166450394
 10
-4.5415936922
 20
17.0495210267
 10
-4.3763876492
 20
17.0871529594
 10
-4.2155906932
 20
17.1295338545
 10
-4.0605201752
 20
17.176350764
 10
-3.911615212
 20
17.2274993717
 10
-3.7684366868
 20
17.2830839937
 10
-3.6309845994
 20
17.3431046301
  0
LWPOLYLINE
  5
4D3
100
AcDbEntity
  8
SMUSSO
100
AcDbPolyline
 62
7
  6
CONTINUOUS
 90
32
 70
0
 10
-8.5000673039
 20
17.6336279467
 10
-8.4786385477
 20
17.6182849877
 10
-8.3683702401
 20
17.5448716687
 10
-8.2493687163
 20
17.4743048862
 10
-8.1228591944
 20
17.4073315967
 10
-7.9887501529
 20
17.3439956045
 10
-7.8471331134
 20
17.2842531053
 10
-7.6995078585
 20
17.2287196431
 10
-7.5458665179
 20
17.1774567373
 10
-7.3862169619
 20
17.1304028685
 10
-7.2220825845
 20
17.0879890224
 10
-7.0534279399
 20
17.0502529678
 10
-6.8802884738
 20
17.0171569359
 10
-6.704293918
 20
16.9890186055
 10
-6.5254031935
 20
16.9658780989
 10
-6.3436573793
 20
16.9476952939
 10
-6.1608094435
 20
16.9346675021
 10
-5.9767671986
 20
16.926850076
 10
-5.7916228322
 20
16.9241876631
 10
-5.6074058752
 20
16.9267115186
 10
-5.4242019161
 20
16.9344804967
 10
-5.2419253664
 20
16.9474357432
 10
-5.0623489926
 20
16.9654319502
 10
-4.8854940796
 20
16.9885180145
 10
-4.7113393424
 20
17.0166450394
 10
-4.5415936922
 20
17.0495210267
 10
-4.3763876492
 20
17.0871529594
 10
-4.2155906932
 20
17.1295338545
 10
-4.0605201752
 20
17.176350764
 10
-3.911615212
 20
17.2274993717
 10
-3.7684366868
 20
17.2830839937
 10
-3.6309845994
 20
17.3431046301
  0
LWPOLYLINE
  5
4D4
100
AcDbEntity
  8
ASSI
100
AcDbPolyline
 62
7
  6
CONTINUOUS
 90
32
 70
0
 10
-1.46231939
 20
13.0390159325
 10
-1.4408906661
 20
13.0236729969
 10
-1.3306223586
 20
12.9502596779
 10
-1.2116208347
 20
12.8796928954
 10
-1.0851113128
 20
12.8127196059
 10
-0.9510022714
 20
12.7493836137
 10
-0.8093852319
 20
12.6896411145
 10
-0.661759977
 20
12.6341076523
 10
-0.5081186364
 20
12.5828447465
 10
-0.3484690804
 20
12.5357908778
 10
-0.184334703
 20
12.4933770316
 10
-0.0156800583
 20
12.4556409771
 10
0.1574594077
 20
12.4225449451
 10
0.3334539636
 20
12.3944066147
 10
0.512344688
 20
12.3712661081
 10
0.6940905023
 20
12.3530833031
 10
0.8769384381
 20
12.3400555114
 10
1.0609806829
 20
12.3322380852
 10
1.2461250494
 20
12.3295756723
 10
1.4303420063
 20
12.3320995278
 10
1.6135459655
 20
12.3398685059
 10
1.7958225151
 20
12.3528237524
 10
1.975398889
 20
12.3708199594
 10
2.152253802
 20
12.3939060238
 10
2.3264085392
 20
12.4220330487
 10
2.4961541893
 20
12.4549090359
 10
2.6613602323
 20
12.4925409687
 10
2.8221571883
 20
12.5349218638
 10
2.9772277063
 20
12.5817387732
 10
3.1261326695
 20
12.6328873809
 10
3.2693111948
 20
12.688472003
 10
3.4067632821
 20
12.7484926393
  0
LWPOLYLINE
  5
4D5
100
AcDbEntity
  8
SMUSSO
100
AcDbPolyline
 62
7
  6
CONTINUOUS
 90
32
 70
0
 10
-1.4623194223
 20
13.0390159559
 10
-1.4408906661
 20
13.0236729969
 10
-1.3306223586
 20
12.9502596779
 10
-1.2116208347
 20
12.8796928954
 10
-1.0851113128
 20
12.8127196059
 10
-0.9510022714
 20
12.7493836137
 10
-0.8093852319
 20
12.6896411145
 10
-0.661759977
 20
12.6341076523
 10
-0.5081186364
 20
12.5828447465
 10
-0.3484690804
 20
12.5357908778
 10
-0.184334703
 20
12.4933770316
 10
-0.0156800583
 20
12.4556409771
 10
0.1574594077
 20
12.4225449451
 10
0.3334539636
 20
12.3944066147
 10
0.512344688
 20
12.3712661081
 10
0.6940905023
 20
12.3530833031
 10
0.8769384381
 20
12.3400555114
 10
1.0609806829
 20
12.3322380852
 10
1.2461250494
 20
12.3295756723
 10
1.4303420063
 20
12.3320995278
 10
1.6135459655
 20
12.3398685059
 10
1.7958225151
 20
12.3528237524
 10
1.975398889
 20
12.3708199594
 10
2.152253802
 20
12.3939060238
 10
2.3264085392
 20
12.4220330487
 10
2.4961541893
 20
12.4549090359
 10
2.6613602323
 20
12.4925409687
 10
2.8221571883
 20
12.5349218638
 10
2.9772277063
 20
12.5817387732
 10
3.1261326695
 20
12.6328873809
 10
3.2693111948
 20
12.688472003
 10
3.4067632821
 20
12.7484926393
  0
LWPOLYLINE
  5
4D6
100
AcDbEntity
  8
ASSI
100
AcDbPolyline
 62
250
  6
CONTINUOUS
 90
10
 70
0
 10
-0.19901395
 20
11.948478503
 10
-0.2014947186
 20
11.9503551795
 10
-0.2100030154
 20
11.9508021614
 10
-0.2239661064
 20
11.9480190084
 10
-0.2432343869
 20
11.9420355401
 10
-0.2676014106
 20
11.9329158652
 10
-0.2968061017
 20
11.9207576946
 10
-0.3305355521
 20
11.9056912947
 10
-0.3684283742
 20
11.8878780917
 10
-0.4100785727
 20
11.8675089415
  0
LWPOLYLINE
  5
4D7
100
AcDbEntity
  8
RACCORDO
100
AcDbPolyline
 62
250
  6
CONTINUOUS
 90
10
 70
0
 10
-0.19901395
 20
11.948478503
 10
-0.2014947186
 20
11.9503551795
 10
-0.2100030154
 20
11.9508021614
 10
-0.2239661064
 20
11.9480190084
 10
-0.2432343869
 20
11.9420355401
 10
-0.2676014106
 20
11.9329158652
 10
-0.2968061017
 20
11.9207576946
 10
-0.3305355521
 20
11.9056912947
 10
-0.3684283742
 20
11.8878780917
 10
-0.4100785727
 20
11.8675089415
  0
LWPOLYLINE
  5
4D8
100
AcDbEntity
  8
ASSI
100
AcDbPolyline
 62
250
  6
CONTINUOUS
 90
12
 70
0
 10
-0.4053263699
 20
12.1607293896
 10
-0.3925850741
 20
12.1501169743
 10
-0.382493954
 20
12.1358745201
 10
-0.3752720714
 20
12.1181810165
 10
-0.3708983938
 20
12.097120556
 10
-0.3687485462
 20
12.0724255561
 10
-0.3692054983
 20
12.0445432433
 10
-0.3725023712
 20
12.0138861841
 10
-0.3779465363
 20
11.9802623176
 10
-0.3856232395
 20
11.9440621365
 10
-0.3962323896
 20
11.9062232855
 10
-0.4100785728
 20
11.8675089415
  0
LWPOLYLINE
  5
4D9
100
AcDbEntity
  8
RACCORDO
100
AcDbPolyline
 62
250
  6
CONTINUOUS
 90
12
 70
0
 10
-0.4053263692
 20
12.1607293891
 10
-0.3925850741
 20
12.1501169743
 10
-0.382493954
 20
12.1358745201
 10
-0.3752720714
 20
12.1181810165
 10
-0.3708983938
 20
12.097120556
 10
-0.3687485462
 20
12.0724255561
 10
-0.3692054983
 20
12.0445432433
 10
-0.3725023712
 20
12.0138861841
 10
-0.3779465363
 20
11.9802623176
 10
-0.3856232395
 20
11.9440621365
 10
-0.3962323896
 20
11.9062232855
 10
-0.4100785728
 20
11.8675089415
  0
LINE
  5
4DA
100
AcDbEntity
  8
0
100
AcDbLine
 62
7
  6
CONTINUOUS
 10
0.5127583237
 20
12.5330675626
 11
0.7087818438
 21
12.3520365549
  0
LINE
  5
4DB
100
AcDbEntity
  8
RACCORDO
100
AcDbLine
 62
250
  6
CONTINUOUS
 10
3.468079469
 20
12.8242967465
 11
3.5022172872
 21
12.7925764621
  0
LWPOLYLINE
  5
4DC
100
AcDbEntity
  8
RACCORDO
100
AcDbPolyline
 62
250
  6
CONTINUOUS
 90
4
 70
0
 10
1.095392087
 20
17.9875564104
 10
1.1108581418
 20
17.9673259958
 10
1.127590875
 20
17.9490847611
 10
1.1453040994
 20
17.9331446995
  0
LWPOLYLINE
  5
4DD
100
AcDbEntity
  8
ASSI
100
AcDbPolyline
 62
7
  6
CONTINUOUS
 90
3
 70
0
 10
1.0709097147
 20
19.0184192436
 10
1.0509127343
 20
19.047263353
 10
1.0261922996
 20
19.0721588918
  0
LWPOLYLINE
  5
4DE
100
AcDbEntity
  8
ASSI
100
AcDbPolyline
 62
250
  6
CONTINUOUS
 90
5
 70
0
 10
1.0814572262
 20
18.0094299876
 10
1.095392087
 20
17.9875564104
 10
1.1108581418
 20
17.9673259958
 10
1.127590875
 20
17.9490847611
 10
1.1453040994
 20
17.9331446995
  0
LINE
  5
4DF
100
AcDbEntity
  8
RACCORDO
100
AcDbLine
 62
250
  6
CONTINUOUS
 10
1.0814572262
 20
18.0094299876
 11
1.095392087
 21
17.9875564104
  0
LWPOLYLINE
  5
4E0
100
AcDbEntity
  8
ASSI
100
AcDbPolyline
 62
7
  6
CONTINUOUS
 90
6
 70
0
 10
1.1336536498
 20
18.0072520493
 10
1.1176464501
 20
18.0339819171
 10
1.1063266424
 20
18.0620434828
 10
1.0996693257
 20
18.0900946851
 10
1.0972227116
 20
18.1172654415
 10
1.0971837789
 20
18.1212288773
  0
LINE
  5
4E1
100
AcDbEntity
  8
ASSI
100
AcDbLine
 62
7
  6
CONTINUOUS
 10
3.2220073387
 20
16.8552097387
 11
3.4366825254
 21
16.4848696922
  0
LINE
  5
4E2
100
AcDbEntity
  8
RACCORDO
100
AcDbLine
 62
7
  6
CONTINUOUS
 10
3.2220073387
 20
16.8552097387
 11
3.4366825254
 21
16.4848696922
  0
LWPOLYLINE
  5
4E3
100
AcDbEntity
  8
ASSI
100
AcDbPolyline
 62
250
  6
CONTINUOUS
 90
4
 70
0
 10
1.0010093802
 20
18.9928911758
 10
1.0132032778
 20
18.9695447408
 10
1.023383711
 20
18.9453265546
 10
1.0313291092
 20
18.9208187431
  0
LINE
  5
4E4
100
AcDbEntity
  8
RACCORDO
100
AcDbLine
 62
250
  6
CONTINUOUS
 10
1.0010093802
 20
18.9928911758
 11
1.0132032778
 21
18.9695447408
  0
LINE
  5
4E5
100
AcDbEntity
  8
RACCORDO
100
AcDbLine
 62
7
  6
CONTINUOUS
 10
1.1246906409
 20
18.0210212289
 11
1.1130115054
 21
18.0440279975
  0
LWPOLYLINE
  5
4E6
100
AcDbEntity
  8
RACCORDO
100
AcDbPolyline
 62
7
  6
CONTINUOUS
 90
3
 70
0
 10
1.0823573066
 20
18.9948943927
 10
1.0708940863
 20
19.0184465945
 10
1.0564145033
 20
19.0403470619
  0
LWPOLYLINE
  5
4E7
100
AcDbEntity
  8
RACCORDO
100
AcDbPolyline
 62
7
  6
CONTINUOUS
 90
3
 70
0
 10
9.2790123929
 20
12.4966041781
 10
9.2499520381
 20
12.650290485
 10
9.2113601589
 20
12.8034627076
  0
LINE
  5
4E8
100
AcDbEntity
  8
ASSI
100
AcDbLine
 62
7
  6
CONTINUOUS
 10
9.2819939566
 20
12.4771387496
 11
9.2509525444
 21
12.6457374374
  0
LINE
  5
4E9
100
AcDbEntity
  8
RACCORDO
100
AcDbLine
 62
7
  6
CONTINUOUS
 10
9.2981425034
 20
12.3431629659
 11
9.2790123929
 21
12.4966041781
  0
LINE
  5
4EA
100
AcDbEntity
  8
ASSI
100
AcDbLine
 62
7
  6
CONTINUOUS
 10
9.3009953546
 20
12.3092613086
 11
9.2819939566
 21
12.4771387496
  0
LWPOLYLINE
  5
4EB
100
AcDbEntity
  8
ASSI
100
AcDbPolyline
 62
7
  6
CONTINUOUS
 90
5
 70
0
 10
2.5464676738
 20
-19.8544246931
 10
2.6158698146
 20
-19.7325925267
 10
2.6741197829
 20
-19.5984886822
 10
2.7197599995
 20
-19.4543045161
 10
2.7522556292
 20
-19.3012457794
  0
LWPOLYLINE
  5
4EC
100
AcDbEntity
  8
RACCORDO
100
AcDbPolyline
 62
250
  6
CONTINUOUS
 90
3
 70
0
 10
2.461201965
 20
-19.9131316704
 10
2.421032071
 20
-19.9766462998
 10
2.377084281
 20
-20.0354216053
  0
LWPOLYLINE
  5
4ED
100
AcDbEntity
  8
RACCORDO
100
AcDbPolyline
 62
7
  6
CONTINUOUS
 90
6
 70
0
 10
9.203682783
 20
-9.5440946116
 10
9.2338124369
 20
-9.500334978
 10
9.2592918759
 20
-9.4532818248
 10
9.2797389635
 20
-9.4033678966
 10
9.294717371
 20
-9.351424366
 10
9.3039940499
 20
-9.2982199807
  0
LINE
  5
4EE
100
AcDbEntity
  8
ASSI
100
AcDbLine
 62
7
  6
CONTINUOUS
 10
2.4674051884
 20
-19.9630482332
 11
2.5464676738
 21
-19.8544246931
  0
LINE
  5
4EF
100
AcDbEntity
  8
RACCORDO
100
AcDbLine
 62
250
  6
CONTINUOUS
 10
0.1391373721
 20
-21.6968261183
 11
0.1427377151
 21
-21.6924854357
  0
LINE
  5
4F0
100
AcDbEntity
  8
ASSI
100
AcDbLine
 62
250
  6
CONTINUOUS
 10
0.1391287246
 20
-21.696831333
 11
0.1427377151
 21
-21.6924854357
  0
LWPOLYLINE
  5
4F1
100
AcDbEntity
  8
ASSI
100
AcDbPolyline
 62
7
  6
CONTINUOUS
 90
8
 70
0
 10
9.0995778239
 20
-9.6448864448
 10
9.1501515649
 20
-9.603196498
 10
9.1953413281
 20
-9.55463251
 10
9.233929456
 20
-9.5001439164
 10
9.265005404
 20
-9.4407913342
 10
9.2879582639
 20
-9.3775031679
 10
9.3023098157
 20
-9.3109579304
 10
9.3075058399
 20
-9.2390790832
  0
LWPOLYLINE
  5
4F2
100
AcDbEntity
  8
RACCORDO
100
AcDbPolyline
 62
7
  6
CONTINUOUS
 90
4
 70
0
 10
9.0891386089
 20
-9.6522011772
 10
9.1307821716
 20
-9.6204980456
 10
9.1691895406
 20
-9.584295425
 10
9.203682783
 20
-9.5440946116
  0
LWPOLYLINE
  5
4F3
100
AcDbEntity
  8
ASSI
100
AcDbPolyline
 62
250
  6
CONTINUOUS
 90
9
 70
0
 10
9.0527187944
 20
-9.6746524053
 10
9.078881703
 20
-9.6556909715
 10
9.1020725128
 20
-9.6321666512
 10
9.1220372388
 20
-9.6043370819
 10
9.1385572281
 20
-9.5725070522
 10
9.1514515543
 20
-9.5370251634
 10
9.1605789992
 20
-9.4982800118
 10
9.1658395994
 20
-9.456695933
 10
9.167175741
 20
-9.4127283544
  0
LWPOLYLINE
  5
4F4
100
AcDbEntity
  8
RACCORDO
100
AcDbPolyline
 62
250
  6
CONTINUOUS
 90
9
 70
0
 10
9.0527187944
 20
-9.6746524053
 10
9.078881703
 20
-9.6556909715
 10
9.1020725128
 20
-9.6321666512
 10
9.1220372388
 20
-9.6043370819
 10
9.1385572281
 20
-9.5725070522
 10
9.1514515543
 20
-9.5370251634
 10
9.1605789992
 20
-9.4982800118
 10
9.1658395994
 20
-9.456695933
 10
9.167175741
 20
-9.4127283544
  0
LINE
  5
4F5
100
AcDbEntity
  8
ASSI
100
AcDbLine
 62
7
  6
CONTINUOUS
 10
9.044917751
 20
-9.6791041973
 11
9.0995778239
 21
-9.6448864448
  0
LINE
  5
4F6
100
AcDbEntity
  8
RACCORDO
100
AcDbLine
 62
7
  6
CONTINUOUS
 10
9.044917751
 20
-9.6791041973
 11
9.0891386089
 21
-9.6522011772
  0
LWPOLYLINE
  5
4F7
100
AcDbEntity
  8
ASSI
100
AcDbPolyline
 62
250
  6
CONTINUOUS
 90
10
 70
0
 10
3.1967732782
 20
-12.8343123067
 10
3.20457379
 20
-12.829860835
 10
3.2307367453
 20
-12.8108994983
 10
3.2539276264
 20
-12.7873752527
 10
3.2738924413
 20
-12.7595457224
 10
3.2904125255
 20
-12.7277156876
 10
3.3033069411
 20
-12.692233746
 10
3.3124344602
 20
-12.6534884909
 10
3.3176951103
 20
-12.6119042544
 10
3.3190312682
 20
-12.5679364638
  0
LWPOLYLINE
  5
4F8
100
AcDbEntity
  8
RACCORDO
100
AcDbPolyline
 62
250
  6
CONTINUOUS
 90
10
 70
0
 10
3.1967732782
 20
-12.8343123067
 10
3.20457379
 20
-12.829860835
 10
3.2307367453
 20
-12.8108994983
 10
3.2539276264
 20
-12.7873752527
 10
3.2738924413
 20
-12.7595457224
 10
3.2904125255
 20
-12.7277156876
 10
3.3033069411
 20
-12.692233746
 10
3.3124344602
 20
-12.6534884909
 10
3.3176951103
 20
-12.6119042544
 10
3.3190312682
 20
-12.5679364638
  0
LINE
  5
4F9
100
AcDbEntity
  8
ASSI
100
AcDbLine
 62
250
  6
CONTINUOUS
 10
9.044917751
 20
-9.6791041973
 11
9.0527187944
 21
-9.6746524053
  0
LINE
  5
4FA
100
AcDbEntity
  8
RACCORDO
100
AcDbLine
 62
250
  6
CONTINUOUS
 10
9.044917751
 20
-9.6791041973
 11
9.0527187944
 21
-9.6746524053
  0
LWPOLYLINE
  5
4FB
100
AcDbEntity
  8
ASSI
100
AcDbPolyline
 62
250
  6
CONTINUOUS
 90
7
 70
0
 10
3.3190312682
 20
-12.5679364639
 10
3.275216884
 20
-12.5925126696
 10
3.2302133702
 20
-12.6223194939
 10
3.1840207267
 20
-12.6573569367
 10
3.1360195482
 20
-12.6977593919
 10
3.0868292401
 20
-12.7433924655
 10
3.0383080184
 20
-12.7938529764
  0
LWPOLYLINE
  5
4FC
100
AcDbEntity
  8
RACCORDO
100
AcDbPolyline
 62
250
  6
CONTINUOUS
 90
6
 70
0
 10
3.3190312682
 20
-12.5679364639
 10
3.275216884
 20
-12.5925126696
 10
3.2302133702
 20
-12.6223194939
 10
3.1840207267
 20
-12.6573569367
 10
3.1360195482
 20
-12.6977593919
 10
3.0868292401
 20
-12.7433924655
  0
LWPOLYLINE
  5
4FD
100
AcDbEntity
  8
RACCORDO
100
AcDbPolyline
 62
250
  6
CONTINUOUS
 90
13
 70
0
 10
-8.1120580296
 20
-19.1844105267
 10
-8.082582896
 20
-19.1683011576
 10
-8.0502418818
 20
-19.1542506827
 10
-8.0155642404
 20
-19.1424890361
 10
-7.9791174651
 20
-19.133208696
 10
-7.9414979994
 20
-19.1265615344
 10
-7.9033214759
 20
-19.1226563315
 10
-7.8652126466
 20
-19.1215569972
 10
-7.8277951567
 20
-19.1232815236
 10
-7.7916813366
 20
-19.1278016909
 10
-7.7574621842
 20
-19.1350435295
 10
-7.7256976933
 20
-19.1448885295
 10
-7.6969076873
 20
-19.1571755806
  0
LINE
  5
4FE
100
AcDbEntity
  8
ASSI
100
AcDbLine
 62
250
  6
CONTINUOUS
 10
9.167175741
 20
-9.4127283544
 11
3.3190312682
 21
-12.5679364639
  0
LINE
  5
4FF
100
AcDbEntity
  8
RACCORDO
100
AcDbLine
 62
250
  6
CONTINUOUS
 10
9.167175741
 20
-9.4127283544
 11
3.3190312682
 21
-12.5679364639
  0
LINE
  5
500
100
AcDbEntity
  8
ASSI
100
AcDbLine
 62
7
  6
CONTINUOUS
 10
9.044917751
 20
-9.6791041973
 11
3.1967732782
 21
-12.8343123067
  0
LINE
  5
501
100
AcDbEntity
  8
RACCORDO
100
AcDbLine
 62
7
  6
CONTINUOUS
 10
9.044917751
 20
-9.6791041973
 11
3.1967732782
 21
-12.8343123067
  0
LINE
  5
502
100
AcDbEntity
  8
RACCORDO
100
AcDbLine
 62
7
  6
CONTINUOUS
 10
-5.1510291525
 20
-18.3897409477
 11
-6.739586594
 21
-19.1901445676
  0
LINE
  5
503
100
AcDbEntity
  8
RACCORDO
100
AcDbLine
 62
7
  6
CONTINUOUS
 10
-5.0449631354
 20
-18.4427739563
 11
-6.6335205768
 21
-19.2431775762
  0
LINE
  5
504
100
AcDbEntity
  8
RACCORDO
100
AcDbLine
 62
7
  6
CONTINUOUS
 10
-8.1548099365
 20
-19.3295739358
 11
-8.1550896786
 21
-19.3297108145
  0
LINE
  5
505
100
AcDbEntity
  8
RACCORDO
100
AcDbLine
 62
250
  6
CONTINUOUS
 10
-8.5760078548
 20
-19.4103142838
 11
-8.1120580296
 21
-19.1844105267
  0
LINE
  5
506
100
AcDbEntity
  8
0
100
AcDbLine
 62
7
  6
CONTINUOUS
 10
-8.5848822276
 20
-19.5389829088
 11
-8.1550839741
 21
-19.3297080368
  0
LWPOLYLINE
  5
507
100
AcDbEntity
  8
RACCORDO
100
AcDbPolyline
 62
7
  6
CONTINUOUS
 90
5
 70
0
 10
-8.1548277574
 20
-19.3295817852
 10
-8.1419360208
 20
-19.3242742365
 10
-8.1311074553
 20
-19.321210228
 10
-8.1221025908
 20
-19.3196737303
 10
-8.1166095802
 20
-19.3192637784
  0
LINE
  5
508
100
AcDbEntity
  8
RACCORDO
100
AcDbLine
 62
7
  6
CONTINUOUS
 10
0.4777039317
 20
13.2871392965
 11
0.3630609924
 21
13.256192787
  0
LWPOLYLINE
  5
509
100
AcDbEntity
  8
RACCORDO
100
AcDbPolyline
 62
250
  6
CONTINUOUS
 90
29
 70
0
 10
4.0049566237
 20
15.6118006348
 10
4.0809917847
 20
15.6322241908
 10
4.1616866875
 20
15.6474045033
 10
4.247261079
 20
15.6567885875
 10
4.3376798254
 20
15.659742948
 10
4.4333000394
 20
15.6556001563
 10
4.5336112859
 20
15.6436964851
 10
4.6371373101
 20
15.6237070499
 10
4.7440912114
 20
15.5951803082
 10
4.8537028976
 20
15.5579095107
 10
4.9628385783
 20
15.5129022072
 10
5.0707895633
 20
15.4607267901
 10
5.1775212327
 20
15.4016723431
 10
5.280892913
 20
15.3373462506
 10
5.3800804397
 20
15.2689185014
 10
5.4754379374
 20
15.1967864948
 10
5.5666868393
 20
15.1217451808
 10
5.6536220405
 20
15.0445568296
 10
5.7362688119
 20
14.9657813899
 10
5.8147525113
 20
14.885846814
 10
5.8890752383
 20
14.8052732475
 10
5.9592474055
 20
14.7245641938
 10
6.0254338454
 20
14.6440267772
 10
6.0876890015
 20
14.5640737262
 10
6.1460976601
 20
14.4850693903
 10
6.2008800343
 20
14.4071697019
 10
6.2521746022
 20
14.3306089223
 10
6.3000473357
 20
14.2557153056
 10
6.3580782499
 20
14.1608609914
  0
LWPOLYLINE
  5
50A
100
AcDbEntity
  8
RACCORDO
100
AcDbPolyline
 62
250
  6
CONTINUOUS
 90
23
 70
0
 10
0.4366382806
 20
13.2423840524
 10
0.5359561793
 20
13.2687610984
 10
0.6376840581
 20
13.2925520891
 10
0.7418638666
 20
13.3137884208
 10
0.8478139105
 20
13.3323371982
 10
0.9554905828
 20
13.3481898734
 10
1.0649374905
 20
13.3613549944
 10
1.1756037595
 20
13.3717253101
 10
1.2876898024
 20
13.3792940874
 10
1.4009952068
 20
13.3840680594
 10
1.5143678607
 20
13.3859601742
 10
1.6280526167
 20
13.3848819342
 10
1.7418046223
 20
13.3809218371
 10
1.8537372087
 20
13.3742583236
 10
1.9638083047
 20
13.3647645156
 10
2.0720599815
 20
13.3525672914
 10
2.1767317837
 20
13.3382257272
 10
2.2776738413
 20
13.3216214572
 10
2.3750360242
 20
13.3028728472
 10
2.4675074866
 20
13.2828940702
 10
2.5546512797
 20
13.2619898507
 10
2.6369043522
 20
13.2398554643
 10
2.7142667041
 20
13.2164909108
  0
LWPOLYLINE
  5
50B
100
AcDbEntity
  8
0
100
AcDbPolyline
 62
250
  6
CONTINUOUS
 90
9
 70
0
 10
-10.4816432233
 20
12.5199051785
 10
-10.465361049
 20
12.5224703016
 10
-10.4494432065
 20
12.5252795501
 10
-10.4339020183
 20
12.5283208921
 10
-10.4187476825
 20
12.5315822242
 10
-10.4038274805
 20
12.5350918981
 10
-10.389158634
 20
12.5388457596
 10
-10.374756585
 20
12.5428396311
 10
-10.3604821444
 20
12.547117684
  0
LWPOLYLINE
  5
50C
100
AcDbEntity
  8
0
100
AcDbPolyline
 62
250
  6
CONTINUOUS
 90
15
 70
0
 10
-16.5394790465
 20
15.8594365144
 10
-16.5571271078
 20
15.8613798467
 10
-16.5728779483
 20
15.863869877
 10
-16.5868042742
 20
15.866825689
 10
-16.5989650956
 20
15.8701559579
 10
-16.6094782604
 20
15.8738097825
 10
-16.6184928229
 20
15.8777822545
 10
-16.6260939717
 20
15.8820357721
 10
-16.632351309
 20
15.8865135317
 10
-16.6373624812
 20
15.8911957988
 10
-16.6412050287
 20
15.8960568108
 10
-16.6439520137
 20
15.9010570542
 10
-16.6456826372
 20
15.9061637336
 10
-16.6464711314
 20
15.9113551499
 10
-16.6465396
 20
15.9134625082
  0
LWPOLYLINE
  5
50D
100
AcDbEntity
  8
0
100
AcDbPolyline
 62
7
  6
CONTINUOUS
 90
13
 70
0
 10
-17.2362285051
 20
15.7460580105
 10
-17.2683977995
 20
15.7498188288
 10
-17.2998588347
 20
15.7520101862
 10
-17.3304912816
 20
15.752754351
 10
-17.3602640918
 20
15.7522216671
 10
-17.3889950918
 20
15.7505124703
 10
-17.4163522699
 20
15.7476559877
 10
-17.4421536527
 20
15.7438055448
 10
-17.4664391617
 20
15.7391090749
 10
-17.4892046366
 20
15.7335746615
 10
-17.5103939914
 20
15.7272922565
 10
-17.5299251955
 20
15.7204496786
 10
-17.5477454494
 20
15.7131924821
  0
LWPOLYLINE
  5
50E
100
AcDbEntity
  8
0
100
AcDbPolyline
 62
7
  6
CONTINUOUS
 90
5
 70
0
 10
2.8661245245
 20
13.0227732691
 10
2.8889962989
 20
13.0182635404
 10
3.0343219803
 20
12.9857245108
 10
3.176517051
 20
12.9498941142
 10
3.3156008301
 20
12.9107926615
  0
LWPOLYLINE
  5
50F
100
AcDbEntity
  8
RACCORDO
100
AcDbPolyline
 62
7
  6
CONTINUOUS
 90
8
 70
0
 10
2.7932736216
 20
13.2275869153
 10
2.7830304682
 20
13.2297980274
 10
2.7721719978
 20
13.2307021471
 10
2.7607749234
 20
13.230331616
 10
2.7491964469
 20
13.2286972958
 10
2.7375556356
 20
13.2258028071
 10
2.7257334222
 20
13.2216445292
 10
2.7137298067
 20
13.2162224622
  0
LINE
  5
510
100
AcDbEntity
  8
0
100
AcDbLine
 62
7
  6
CONTINUOUS
 10
1.5311299297
 20
12.6388691331
 11
1.0077330705
 21
12.780554936
  0
LINE
  5
511
100
AcDbEntity
  8
0
100
AcDbLine
 62
7
  6
CONTINUOUS
 10
-5.919875441
 20
16.9260319612
 11
-6.2047560976
 21
17.0031503922
  0
LWPOLYLINE
  5
512
100
AcDbEntity
  8
RACCORDO
100
AcDbPolyline
 62
250
  6
CONTINUOUS
 90
8
 70
0
 10
-13.3772241442
 20
16.8189475832
 10
-13.3876294236
 20
16.8218636476
 10
-13.398572854
 20
16.8233690458
 10
-13.4099711492
 20
16.823452321
 10
-13.4217375613
 20
16.8221128394
 10
-13.4337825409
 20
16.8193607953
 10
-13.4460144184
 20
16.8152171333
 10
-13.4583401017
 20
16.8097133893
  0
LWPOLYLINE
  5
513
100
AcDbEntity
  8
RACCORDO
100
AcDbPolyline
 62
7
  6
CONTINUOUS
 90
20
 70
0
 10
2.79571553
 20
13.2268396639
 10
2.69941295
 20
13.2561311152
 10
2.5845850488
 20
13.2871319436
 10
2.466990947
 20
13.3148015486
 10
2.3469675909
 20
13.3390953187
 10
2.2248428113
 20
13.3599774804
 10
2.1009438396
 20
13.3774181807
 10
1.9756394699
 20
13.3913890703
 10
1.8492515713
 20
13.4018751083
 10
1.7220478096
 20
13.4088680509
 10
1.5943719984
 20
13.4123572501
 10
1.4665757613
 20
13.4123392462
 10
1.3389406126
 20
13.4088155984
 10
1.211814843
 20
13.4017927071
 10
1.0855437663
 20
13.39128435
 10
0.9604013285
 20
13.3773028159
 10
0.8367307315
 20
13.359870538
 10
0.7148723119
 20
13.3390169637
 10
0.5950870877
 20
13.3147617901
 10
0.4777039317
 20
13.2871392965
  0
LWPOLYLINE
  5
514
100
AcDbEntity
  8
RACCORDO
100
AcDbPolyline
 62
7
  6
CONTINUOUS
 90
10
 70
0
 10
-11.9578799651
 20
18.1572353382
 10
-12.0020320539
 20
18.1709086136
 10
-12.0447104117
 20
18.1807795636
 10
-12.0869554692
 20
18.1873019806
 10
-12.1291952865
 20
18.190614896
 10
-12.1711164197
 20
18.1911160066
 10
-12.2136513576
 20
18.189011367
 10
-12.2565999967
 20
18.1840718407
 10
-12.2996507398
 20
18.1758108881
 10
-12.3441008124
 20
18.163543517
  0
LINE
  5
515
100
AcDbEntity
  8
0
100
AcDbLine
 62
7
  6
CONTINUOUS
 10
3.3156008301
 20
12.9107926615
 11
3.4420993252
 21
12.8713478893
  0
LINE
  5
516
100
AcDbEntity
  8
0
100
AcDbLine
 62
7
  6
CONTINUOUS
 10
3.5654808853
 20
12.8291161515
 11
3.5745612659
 21
12.8259873089
  0
LINE
  5
517
100
AcDbEntity
  8
RACCORDO
100
AcDbLine
 62
7
  6
CONTINUOUS
 10
-11.9127230596
 20
18.1394754429
 11
-11.9578799651
 21
18.1572353382
  0
LINE
  5
518
100
AcDbEntity
  8
0
100
AcDbLine
 62
7
  6
CONTINUOUS
 10
-6.9117250377
 20
17.3566348622
 11
-6.2047560976
 21
17.0031503922
  0
LINE
  5
519
100
AcDbEntity
  8
RACCORDO
100
AcDbLine
 62
7
  6
CONTINUOUS
 10
3.5712257441
 20
12.8244468544
 11
3.5264291357
 21
12.8608565697
  0
LINE
  5
51A
100
AcDbEntity
  8
RACCORDO
100
AcDbLine
 62
250
  6
CONTINUOUS
 10
3.4213975615
 20
12.8629495584
 11
3.468079469
 21
12.8242967465
  0
LINE
  5
51B
100
AcDbEntity
  8
RACCORDO
100
AcDbLine
 62
250
  6
CONTINUOUS
 10
0.9547296263
 20
19.0536531247
 11
0.97152728
 21
19.0352888895
  0
LINE
  5
51C
100
AcDbEntity
  8
RACCORDO
100
AcDbLine
 62
7
  6
CONTINUOUS
 10
1.0564145033
 20
19.0403470619
 11
1.0392059268
 21
19.0601470836
  0
LWPOLYLINE
  5
51D
100
AcDbEntity
  8
ASSI
100
AcDbPolyline
 62
250
  6
CONTINUOUS
 90
3
 70
0
 10
0.97152728
 20
19.0352888895
 10
0.9870447482
 20
19.0149161018
 10
1.0010093802
 20
18.9928911758
  0
LWPOLYLINE
  5
51E
100
AcDbEntity
  8
RACCORDO
100
AcDbPolyline
 62
250
  6
CONTINUOUS
 90
3
 70
0
 10
0.97152728
 20
19.0352888895
 10
0.9870447482
 20
19.0149161018
 10
1.0010093802
 20
18.9928911758
  0
LWPOLYLINE
  5
51F
100
AcDbEntity
  8
ASSI
100
AcDbPolyline
 62
250
  6
CONTINUOUS
 90
3
 70
0
 10
6.3580782499
 20
14.1608609914
 10
6.3725570414
 20
14.1387397435
 10
6.3833872757
 20
14.1231962415
  0
LWPOLYLINE
  5
520
100
AcDbEntity
  8
RACCORDO
100
AcDbPolyline
 62
250
  6
CONTINUOUS
 90
3
 70
0
 10
6.3580782499
 20
14.1608609914
 10
6.3725570414
 20
14.1387397435
 10
6.3833872757
 20
14.1231962415
  0
LINE
  5
521
100
AcDbEntity
  8
ASSI
100
AcDbLine
 62
7
  6
CONTINUOUS
 10
6.477195543
 20
14.166520008
 11
6.4444420069
 21
14.2170700388
  0
LINE
  5
522
100
AcDbEntity
  8
ASSI
100
AcDbLine
 62
7
  6
CONTINUOUS
 10
6.3014279786
 20
14.4398099795
 11
6.4444420069
 21
14.2170700388
  0
LWPOLYLINE
  5
523
100
AcDbEntity
  8
ASSI
100
AcDbPolyline
 62
250
  6
CONTINUOUS
 90
3
 70
0
 10
6.2521746022
 20
14.3306089223
 10
6.3000473357
 20
14.2557153056
 10
6.3580782499
 20
14.1608609914
  0
LINE
  5
524
100
AcDbEntity
  8
RACCORDO
100
AcDbLine
 62
7
  6
CONTINUOUS
 10
6.4767769658
 20
14.1663266952
 11
6.4444420069
 21
14.2170700388
  0
LINE
  5
525
100
AcDbEntity
  8
RACCORDO
100
AcDbLine
 62
7
  6
CONTINUOUS
 10
6.3384948592
 20
14.3850910239
 11
6.4444420069
 21
14.2170700388
  0
LWPOLYLINE
  5
526
100
AcDbEntity
  8
RACCORDO
100
AcDbPolyline
 62
7
  6
CONTINUOUS
 90
3
 70
0
 10
8.6985399036
 20
13.9382136021
 10
8.6694169218
 20
13.9867556579
 10
8.6358367033
 20
14.0330978173
  0
LINE
  5
527
100
AcDbEntity
  8
ASSI
100
AcDbLine
 62
7
  6
CONTINUOUS
 10
8.7062382371
 20
13.9236089773
 11
8.6779906108
 21
13.9734152497
  0
LINE
  5
528
100
AcDbEntity
  8
RACCORDO
100
AcDbLine
 62
7
  6
CONTINUOUS
 10
8.7062376706
 20
13.9236100458
 11
8.6985399036
 21
13.9382136021
  0
LWPOLYLINE
  5
529
100
AcDbEntity
  8
ASSI
100
AcDbPolyline
 62
250
  6
CONTINUOUS
 90
7
 70
0
 10
8.5377262428
 20
13.8425445406
 10
8.5918514371
 20
13.7363478179
 10
8.6457031294
 20
13.6299943393
 10
8.6992802298
 20
13.5234860376
 10
8.7525816529
 20
13.4168248495
 10
8.8056063177
 20
13.3100127157
 10
8.8583531483
 20
13.2030515805
  0
LWPOLYLINE
  5
52A
100
AcDbEntity
  8
RACCORDO
100
AcDbPolyline
 62
250
  6
CONTINUOUS
 90
7
 70
0
 10
8.5377262428
 20
13.8425445406
 10
8.5918514371
 20
13.7363478179
 10
8.6457031294
 20
13.6299943393
 10
8.6992802298
 20
13.5234860376
 10
8.7525816529
 20
13.4168248495
 10
8.8056063177
 20
13.3100127157
 10
8.8583531483
 20
13.2030515805
  0
LWPOLYLINE
  5
52B
100
AcDbEntity
  8
ASSI
100
AcDbPolyline
 62
7
  6
CONTINUOUS
 90
10
 70
0
 10
9.0246179843
 20
13.2885975526
 10
8.9897403761
 20
13.3594017343
 10
8.9547376199
 20
13.4301454058
 10
8.9196100054
 20
13.5008279821
 10
8.8843578189
 20
13.5714488871
 10
8.848981344
 20
13.6420075528
 10
8.8134808617
 20
13.7125034189
 10
8.7778566572
 20
13.7829359183
 10
8.7421090209
 20
13.853304477
 10
8.706238242
 20
13.923608525
  0
LWPOLYLINE
  5
52C
100
AcDbEntity
  8
RACCORDO
100
AcDbPolyline
 62
7
  6
CONTINUOUS
 90
10
 70
0
 10
9.0246179843
 20
13.2885975526
 10
8.9897403761
 20
13.3594017343
 10
8.9547376199
 20
13.4301454058
 10
8.9196100054
 20
13.5008279821
 10
8.8843578189
 20
13.5714488871
 10
8.848981344
 20
13.6420075528
 10
8.8134808617
 20
13.7125034189
 10
8.7778566572
 20
13.7829359183
 10
8.7421090209
 20
13.853304477
 10
8.706238242
 20
13.923608525
  0
LINE
  5
52D
100
AcDbEntity
  8
ASSI
100
AcDbLine
 62
250
  6
CONTINUOUS
 10
8.8583428867
 20
13.2030466773
 11
8.9062078666
 21
13.1015698145
  0
LWPOLYLINE
  5
52E
100
AcDbEntity
  8
RACCORDO
100
AcDbPolyline
 62
250
  6
CONTINUOUS
 90
13
 70
0
 10
8.8583428867
 20
13.2030466773
 10
8.9062078666
 20
13.1015698145
 10
8.9504318242
 20
12.998729326
 10
8.9908463718
 20
12.8948804915
 10
9.0273300802
 20
12.790356711
 10
9.0597812739
 20
12.6854793622
 10
9.0880987007
 20
12.5805670196
 10
9.1121910865
 20
12.4759416291
 10
9.1319916581
 20
12.3719238612
 10
9.1474373114
 20
12.2688303235
 10
9.1584658275
 20
12.1669814189
 10
9.1650448413
 20
12.0667157177
 10
9.1671660238
 20
11.9683826678
  0
LINE
  5
52F
100
AcDbEntity
  8
ASSI
100
AcDbLine
 62
7
  6
CONTINUOUS
 10
9.0913865458
 20
13.1428465527
 11
9.0246079063
 21
13.2885946282
  0
LWPOLYLINE
  5
530
100
AcDbEntity
  8
RACCORDO
100
AcDbPolyline
 62
7
  6
CONTINUOUS
 90
3
 70
0
 10
9.1073795509
 20
13.1045152186
 10
9.0428157486
 20
13.2508729777
 10
9.0246081956
 20
13.288594089
  0
LWPOLYLINE
  5
531
100
AcDbEntity
  8
ASSI
100
AcDbPolyline
 62
250
  6
CONTINUOUS
 90
12
 70
0
 10
8.9062078666
 20
13.1015698145
 10
8.9504318242
 20
12.998729326
 10
8.9908463718
 20
12.8948804915
 10
9.0273300802
 20
12.790356711
 10
9.0597812739
 20
12.6854793622
 10
9.0880987007
 20
12.5805670196
 10
9.1121910865
 20
12.4759416291
 10
9.1319916581
 20
12.3719238612
 10
9.1474373114
 20
12.2688303235
 10
9.1584658275
 20
12.1669814189
 10
9.1650448413
 20
12.0667157177
 10
9.1671660238
 20
11.9683826678
  0
LINE
  5
532
100
AcDbEntity
  8
ASSI
100
AcDbLine
 62
7
  6
CONTINUOUS
 10
9.1549524481
 20
12.9800529386
 11
9.0913865458
 21
13.1428465527
  0
LINE
  5
533
100
AcDbEntity
  8
RACCORDO
100
AcDbLine
 62
7
  6
CONTINUOUS
 10
9.1636846252
 20
12.9551555847
 11
9.1073795509
 21
13.1045152186
  0
LINE
  5
534
100
AcDbEntity
  8
ASSI
100
AcDbLine
 62
7
  6
CONTINUOUS
 10
9.2083726639
 20
12.813932135
 11
9.1549524481
 21
12.9800529386
  0
LINE
  5
535
100
AcDbEntity
  8
RACCORDO
100
AcDbLine
 62
7
  6
CONTINUOUS
 10
9.2113601589
 20
12.8034627076
 11
9.1636846252
 21
12.9551555847
  0
LINE
  5
536
100
AcDbEntity
  8
ASSI
100
AcDbLine
 62
7
  6
CONTINUOUS
 10
9.2509525444
 20
12.6457374374
 11
9.2083726639
 21
12.813932135
  0
LINE
  5
537
100
AcDbEntity
  8
ASSI
100
AcDbLine
 62
250
  6
CONTINUOUS
 10
2.377084281
 20
-20.0354216053
 11
2.3295258302
 21
-20.089267324
  0
LINE
  5
538
100
AcDbEntity
  8
RACCORDO
100
AcDbLine
 62
250
  6
CONTINUOUS
 10
2.377084281
 20
-20.0354216053
 11
2.3295258302
 21
-20.089267324
  0
LINE
  5
539
100
AcDbEntity
  8
ASSI
100
AcDbLine
 62
7
  6
CONTINUOUS
 10
2.4080374307
 20
-20.0301073533
 11
2.4674051884
 21
-19.9630482332
  0
LWPOLYLINE
  5
53A
100
AcDbEntity
  8
RACCORDO
100
AcDbPolyline
 62
7
  6
CONTINUOUS
 90
10
 70
0
 10
2.407572763
 20
-20.0305939384
 10
2.4604299578
 20
-19.9714921262
 10
2.5182634792
 20
-19.8961721189
 10
2.5715400829
 20
-19.8139230474
 10
2.6195949112
 20
-19.7250804825
 10
2.6617032259
 20
-19.6305429598
 10
2.697612926
 20
-19.530554261
 10
2.7270996159
 20
-19.425283486
 10
2.7498280161
 20
-19.3156458213
 10
2.765681787
 20
-19.2021348546
  0
LINE
  5
53B
100
AcDbEntity
  8
ASSI
100
AcDbLine
 62
7
  6
CONTINUOUS
 10
2.4080467507
 20
-20.0301162058
 11
2.4072658678
 21
-20.0309326861
  0
LINE
  5
53C
100
AcDbEntity
  8
RACCORDO
100
AcDbLine
 62
7
  6
CONTINUOUS
 10
2.4075820766
 20
-20.0306028081
 11
2.4072658678
 21
-20.0309326861
  0
LWPOLYLINE
  5
53D
100
AcDbEntity
  8
ASSI
100
AcDbPolyline
 62
7
  6
CONTINUOUS
 90
3
 70
0
 10
2.4072658678
 20
-20.0309326861
 10
2.3204810816
 20
-20.1203877362
 10
2.2329634508
 20
-20.2087218668
  0
LINE
  5
53E
100
AcDbEntity
  8
RACCORDO
100
AcDbLine
 62
7
  6
CONTINUOUS
 10
2.4072658678
 20
-20.0309326861
 11
2.3204810816
 21
-20.1203877362
  0
LINE
  5
53F
100
AcDbEntity
  8
ASSI
100
AcDbLine
 62
250
  6
CONTINUOUS
 10
2.329533429
 20
-20.0892781883
 11
2.2024805425
 21
-20.2195581709
  0
LWPOLYLINE
  5
540
100
AcDbEntity
  8
RACCORDO
100
AcDbPolyline
 62
250
  6
CONTINUOUS
 90
6
 70
0
 10
2.329533429
 20
-20.0892781883
 10
2.2024805425
 20
-20.2195581709
 10
2.0738031409
 20
-20.3474063735
 10
1.9435150106
 20
-20.4728092917
 10
1.8116301089
 20
-20.5957536827
 10
1.6781625618
 20
-20.7162265667
  0
LINE
  5
541
100
AcDbEntity
  8
RACCORDO
100
AcDbLine
 62
7
  6
CONTINUOUS
 10
2.3204810816
 20
-20.1203877362
 11
2.2329634508
 21
-20.2087218668
  0
LWPOLYLINE
  5
542
100
AcDbEntity
  8
ASSI
100
AcDbPolyline
 62
250
  6
CONTINUOUS
 90
4
 70
0
 10
2.2024805425
 20
-20.2195581709
 10
2.0738031409
 20
-20.3474063735
 10
1.9435150106
 20
-20.4728092917
 10
1.8116301089
 20
-20.5957536827
  0
LINE
  5
543
100
AcDbEntity
  8
ASSI
100
AcDbLine
 62
7
  6
CONTINUOUS
 10
2.2329634508
 20
-20.2087218668
 11
2.1447178753
 21
-20.2959314429
  0
LWPOLYLINE
  5
544
100
AcDbEntity
  8
RACCORDO
100
AcDbPolyline
 62
7
  6
CONTINUOUS
 90
7
 70
0
 10
2.2329634508
 20
-20.2087218668
 10
2.1447178753
 20
-20.2959314429
 10
2.0557497028
 20
-20.3820124949
 10
1.9660635077
 20
-20.4669619032
 10
1.8756630689
 20
-20.5507773373
 10
1.7845530087
 20
-20.6334557046
 10
1.6927388151
 20
-20.7149932117
  0
LWPOLYLINE
  5
545
100
AcDbEntity
  8
ASSI
100
AcDbPolyline
 62
7
  6
CONTINUOUS
 90
6
 70
0
 10
2.1447178753
 20
-20.2959314429
 10
2.0557497028
 20
-20.3820124949
 10
1.9660635077
 20
-20.4669619032
 10
1.8756630689
 20
-20.5507773373
 10
1.7845530087
 20
-20.6334557046
 10
1.6927388151
 20
-20.7149932117
  0
LINE
  5
546
100
AcDbEntity
  8
ASSI
100
AcDbLine
 62
250
  6
CONTINUOUS
 10
1.8116301089
 20
-20.5957536827
 11
1.6781625618
 21
-20.7162265667
  0
LWPOLYLINE
  5
547
100
AcDbEntity
  8
ASSI
100
AcDbPolyline
 62
250
  6
CONTINUOUS
 90
3
 70
0
 10
2.4072658678
 20
-20.0309326861
 10
2.3721736409
 20
-20.0621588147
 10
2.329533429
 20
-20.0892781883
  0
LWPOLYLINE
  5
548
100
AcDbEntity
  8
RACCORDO
100
AcDbPolyline
 62
250
  6
CONTINUOUS
 90
3
 70
0
 10
2.4072658678
 20
-20.0309326861
 10
2.3721736409
 20
-20.0621588147
 10
2.329533429
 20
-20.0892781883
  0
LINE
  5
549
100
AcDbEntity
  8
ASSI
100
AcDbLine
 62
250
  6
CONTINUOUS
 10
1.6781625618
 20
-20.7162265667
 11
1.5431266628
 21
-20.8342152282
  0
LINE
  5
54A
100
AcDbEntity
  8
RACCORDO
100
AcDbLine
 62
250
  6
CONTINUOUS
 10
1.6781625618
 20
-20.7162265667
 11
1.5431266628
 21
-20.8342152282
  0
LINE
  5
54B
100
AcDbEntity
  8
ASSI
100
AcDbLine
 62
7
  6
CONTINUOUS
 10
1.6927388151
 20
-20.7149932117
 11
1.6002256046
 21
-20.7953865075
  0
LINE
  5
54C
100
AcDbEntity
  8
RACCORDO
100
AcDbLine
 62
7
  6
CONTINUOUS
 10
1.6927388151
 20
-20.7149932117
 11
1.6002256046
 21
-20.7953865075
  0
LINE
  5
54D
100
AcDbEntity
  8
RACCORDO
100
AcDbLine
 62
7
  6
CONTINUOUS
 10
1.5814067107
 20
-20.8107829815
 11
1.6002095202
 21
-20.7954003321
  0
LINE
  5
54E
100
AcDbEntity
  8
ASSI
100
AcDbLine
 62
250
  6
CONTINUOUS
 10
1.6002256046
 20
-20.7953865075
 11
1.5777184
 21
-20.8129723069
  0
LINE
  5
54F
100
AcDbEntity
  8
RACCORDO
100
AcDbLine
 62
250
  6
CONTINUOUS
 10
1.6002095202
 20
-20.7954003321
 11
1.5777184
 21
-20.8129723069
  0
LINE
  5
550
100
AcDbEntity
  8
ASSI
100
AcDbLine
 62
7
  6
CONTINUOUS
 10
1.5382663514
 20
-20.8408559888
 11
1.6002926386
 21
-20.7953288706
  0
LWPOLYLINE
  5
551
100
AcDbEntity
  8
RACCORDO
100
AcDbPolyline
 62
250
  6
CONTINUOUS
 90
7
 70
0
 10
-8.3846347209
 20
-26.317568482
 10
-8.013196952
 20
-26.0700658597
 10
-7.6548441259
 20
-25.8027670988
 10
-7.3097684818
 20
-25.5158290561
 10
-6.9782597919
 20
-25.2094772408
 10
-6.6607017062
 20
-24.8840117774
 10
-6.3574151455
 20
-24.5397218494
  0
LWPOLYLINE
  5
552
100
AcDbEntity
  8
0
100
AcDbPolyline
 62
7
  6
CONTINUOUS
 90
7
 70
0
 10
-8.1602026531
 20
-26.2076367222
 10
-7.7449608292
 20
-25.9385391943
 10
-7.3407226528
 20
-25.6491005139
 10
-6.9485086878
 20
-25.3400466849
 10
-6.5686591219
 20
-25.0116197087
 10
-6.2008337673
 20
-24.663577584
 10
-5.845032624
 20
-24.2959203107
  0
LWPOLYLINE
  5
553
100
AcDbEntity
  8
RACCORDO
100
AcDbPolyline
 62
250
  6
CONTINUOUS
 90
13
 70
0
 10
-8.504215614
 20
-23.5591361707
 10
-8.4747408648
 20
-23.5430269888
 10
-8.4424002416
 20
-23.5289766247
 10
-8.4077229669
 20
-23.5172150172
 10
-8.3712765215
 20
-23.5079346558
 10
-8.3336573139
 20
-23.5012874186
 10
-8.2954809163
 20
-23.4973820968
 10
-8.2573720629
 20
-23.4962826257
 10
-8.2199544127
 20
-23.4980070254
 10
-8.1838402972
 20
-23.5025271047
 10
-8.1496207379
 20
-23.5097689224
 10
-8.1178557722
 20
-23.5196139927
 10
-8.0890652717
 20
-23.5319012246
  0
LINE
  5
554
100
AcDbEntity
  8
ASSI
100
AcDbLine
 62
7
  6
CONTINUOUS
 10
-5.7091536845
 20
15.1423696418
 11
-6.5677422804
 21
14.9859962775
  0
LINE
  5
555
100
AcDbEntity
  8
0
100
AcDbLine
 62
7
  6
CONTINUOUS
 10
-5.7091536845
 20
15.1423696418
 11
-6.5677422804
 21
14.9859962775
  0
LINE
  5
556
100
AcDbEntity
  8
ASSI
100
AcDbLine
 62
7
  6
CONTINUOUS
 10
-9.5512370747
 20
17.0634113368
 11
-10.8060973301
 21
17.1051738024
  0
LINE
  5
557
100
AcDbEntity
  8
0
100
AcDbLine
 62
7
  6
CONTINUOUS
 10
-9.5512370747
 20
17.0634113368
 11
-10.8060973301
 21
17.1051738024
  0
LWPOLYLINE
  5
558
100
AcDbEntity
  8
0
100
AcDbPolyline
 62
7
  6
CONTINUOUS
 90
4
 70
0
 10
-4.3463646436
 20
17.2453687253
 10
-4.3234928692
 20
17.2408589965
 10
-4.1781671878
 20
17.208319967
 10
-4.0566166948
 20
17.177691603
  0
LWPOLYLINE
  5
559
100
AcDbEntity
  8
ASSI
100
AcDbPolyline
 62
7
  6
CONTINUOUS
 90
5
 70
0
 10
-11.9987698159
 20
18.1700194966
 10
-12.0575576333
 20
18.1831072775
 10
-12.1131170238
 20
18.189709691
 10
-12.1662055058
 20
18.1911905615
 10
-12.2142784417
 20
18.1889601447
  0
LWPOLYLINE
  5
55A
100
AcDbEntity
  8
RACCORDO
100
AcDbPolyline
 62
7
  6
CONTINUOUS
 90
19
 70
0
 10
-4.4167736381
 20
17.44943512
 10
-4.5130762181
 20
17.4787265713
 10
-4.6279041193
 20
17.5097273997
 10
-4.7454982211
 20
17.5373970047
 10
-4.8655215772
 20
17.5616907748
 10
-4.9876463568
 20
17.5825729365
 10
-5.1115453285
 20
17.6000136368
 10
-5.2368496982
 20
17.6139845265
 10
-5.3632375968
 20
17.6244705644
 10
-5.4904413585
 20
17.631463507
 10
-5.6181171697
 20
17.6349527063
 10
-5.7459134068
 20
17.6349347023
 10
-5.8735485555
 20
17.6314110545
 10
-6.0006743251
 20
17.6243881632
 10
-6.1269454018
 20
17.6138798061
 10
-6.2520878396
 20
17.599898272
 10
-6.3757584366
 20
17.5824659941
 10
-6.4976168562
 20
17.5616124199
 10
-6.6174020804
 20
17.5373572462
  0
LWPOLYLINE
  5
55B
100
AcDbEntity
  8
RACCORDO
100
AcDbPolyline
 62
7
  6
CONTINUOUS
 90
9
 70
0
 10
-4.4167718507
 20
17.4494392756
 10
-4.4192155465
 20
17.4501823714
 10
-4.4294586999
 20
17.4523934835
 10
-4.4403171703
 20
17.4532976033
 10
-4.4517142448
 20
17.4529270722
 10
-4.4632927212
 20
17.451292752
 10
-4.4749335325
 20
17.4483982632
 10
-4.4867557459
 20
17.4442399853
 10
-4.4987593614
 20
17.4388179183
  0
LINE
  5
55C
100
AcDbEntity
  8
RACCORDO
100
AcDbLine
 62
250
  6
CONTINUOUS
 10
-4.1605821907
 20
21.5397845976
 11
-4.165437815
 21
21.542101871
  0
LWPOLYLINE
  5
55D
100
AcDbEntity
  8
ASSI
100
AcDbPolyline
 62
250
  6
CONTINUOUS
 90
7
 70
0
 10
8.4303416085
 20
14.201193777
 10
8.4250375767
 20
14.2037337931
 10
8.3872906637
 20
14.2164855839
 10
8.3465262729
 20
14.2214964648
 10
8.3034264989
 20
14.2186825476
 10
8.2587125124
 20
14.2080908752
 10
8.2131325054
 20
14.189898636
  0
LWPOLYLINE
  5
55E
100
AcDbEntity
  8
RACCORDO
100
AcDbPolyline
 62
250
  6
CONTINUOUS
 90
7
 70
0
 10
8.4304240329
 20
14.201152679
 10
8.4250375767
 20
14.2037337931
 10
8.3872906637
 20
14.2164855839
 10
8.3465262729
 20
14.2214964648
 10
8.3034264989
 20
14.2186825476
 10
8.2587125124
 20
14.2080908752
 10
8.2131325054
 20
14.189898636
  0
LWPOLYLINE
  5
55F
100
AcDbEntity
  8
ASSI
100
AcDbPolyline
 62
250
  6
CONTINUOUS
 90
7
 70
0
 10
0.9864869698
 20
19.0982856243
 10
0.9847435547
 20
19.0991250279
 10
0.9695938849
 20
19.1043153644
 10
0.9532243741
 20
19.1063780094
 10
0.9359139854
 20
19.1052808192
 10
0.9179543379
 20
19.1010451197
 10
0.8996489461
 20
19.0937448557
  0
LWPOLYLINE
  5
560
100
AcDbEntity
  8
RACCORDO
100
AcDbPolyline
 62
250
  6
CONTINUOUS
 90
7
 70
0
 10
0.9866235222
 20
19.0982175217
 10
0.9847435547
 20
19.0991250279
 10
0.9695938849
 20
19.1043153644
 10
0.9532243741
 20
19.1063780094
 10
0.9359139854
 20
19.1052808192
 10
0.9179543379
 20
19.1010451197
 10
0.8996489461
 20
19.0937448557
  0
LINE
  5
561
100
AcDbEntity
  8
ASSI
100
AcDbLine
 62
250
  6
CONTINUOUS
 10
-4.1599052021
 20
21.5394478078
 11
-4.1620394392
 21
21.540498058
  0
LINE
  5
562
100
AcDbEntity
  8
RACCORDO
100
AcDbLine
 62
7
  6
CONTINUOUS
 10
-4.1599052021
 20
21.5394478078
 11
-4.1605821907
 21
21.5397845976
  0
LINE
  5
563
100
AcDbEntity
  8
ASSI
100
AcDbLine
 62
7
  6
CONTINUOUS
 10
6.3359922353
 20
14.1013076412
 11
3.4366825254
 21
15.5509624962
  0
LINE
  5
564
100
AcDbEntity
  8
DRAFT
100
AcDbLine
 62
7
  6
CONTINUOUS
 10
6.3359922353
 20
14.1013076412
 11
3.4366825254
 21
15.5509624962
  0
LINE
  5
565
100
AcDbEntity
  8
ASSI
100
AcDbLine
 62
7
  6
CONTINUOUS
 10
-1.099868075
 20
18.5120581194
 11
-3.6338036849
 21
19.7790259244
  0
LINE
  5
566
100
AcDbEntity
  8
DRAFT
100
AcDbLine
 62
7
  6
CONTINUOUS
 10
-1.099868075
 20
18.5120581194
 11
-3.6338036849
 21
19.7790259244
  0
LINE
  5
567
100
AcDbEntity
  8
ASSI
100
AcDbLine
 62
250
  6
CONTINUOUS
 10
7.4039125307
 20
14.5945086233
 11
8.2131325035
 21
14.189898637
  0
LINE
  5
568
100
AcDbEntity
  8
RACCORDO
100
AcDbLine
 62
250
  6
CONTINUOUS
 10
7.4039125307
 20
14.5945086233
 11
8.2131325035
 21
14.189898637
  0
LINE
  5
569
100
AcDbEntity
  8
ASSI
100
AcDbLine
 62
7
  6
CONTINUOUS
 10
7.5493245457
 20
14.6417025008
 11
8.4305689187
 21
14.2010803143
  0
LINE
  5
56A
100
AcDbEntity
  8
RACCORDO
100
AcDbLine
 62
7
  6
CONTINUOUS
 10
7.5493245457
 20
14.6417025008
 11
8.4305689187
 21
14.2010803143
  0
LINE
  5
56B
100
AcDbEntity
  8
ASSI
100
AcDbLine
 62
250
  6
CONTINUOUS
 10
1.1824485803
 20
17.9092146055
 11
2.9465475192
 21
17.027165136
  0
LINE
  5
56C
100
AcDbEntity
  8
RACCORDO
100
AcDbLine
 62
250
  6
CONTINUOUS
 10
1.1824485803
 20
17.9092146055
 11
2.9465475192
 21
17.027165136
  0
LINE
  5
56D
100
AcDbEntity
  8
ASSI
100
AcDbLine
 62
7
  6
CONTINUOUS
 10
1.205745467
 20
17.9455261017
 11
3.0623318655
 21
17.0172329168
  0
LINE
  5
56E
100
AcDbEntity
  8
RACCORDO
100
AcDbLine
 62
7
  6
CONTINUOUS
 10
1.205745467
 20
17.9455261017
 11
3.0623318655
 21
17.0172329168
  0
LINE
  5
56F
100
AcDbEntity
  8
ASSI
100
AcDbLine
 62
250
  6
CONTINUOUS
 10
-4.3773416413
 20
21.5282661425
 11
-4.3287303549
 21
21.5039604993
  0
LINE
  5
570
100
AcDbEntity
  8
RACCORDO
100
AcDbLine
 62
250
  6
CONTINUOUS
 10
-4.3773416413
 20
21.5282661425
 11
-4.3287303549
 21
21.5039604993
  0
LINE
  5
571
100
AcDbEntity
  8
ASSI
100
AcDbLine
 62
250
  6
CONTINUOUS
 10
0.5443310932
 20
19.2714037822
 11
0.8996489461
 21
19.0937448557
  0
LINE
  5
572
100
AcDbEntity
  8
RACCORDO
100
AcDbLine
 62
250
  6
CONTINUOUS
 10
0.5443310932
 20
19.2714037822
 11
0.8996489461
 21
19.0937448557
  0
LINE
  5
573
100
AcDbEntity
  8
ASSI
100
AcDbLine
 62
7
  6
CONTINUOUS
 10
0.6024958992
 20
19.2902813332
 11
0.9866235222
 21
19.0982175217
  0
LINE
  5
574
100
AcDbEntity
  8
RACCORDO
100
AcDbLine
 62
7
  6
CONTINUOUS
 10
0.6024958992
 20
19.2902813332
 11
0.9866235222
 21
19.0982175217
  0
LINE
  5
575
100
AcDbEntity
  8
RACCORDO
100
AcDbLine
 62
7
  6
CONTINUOUS
 10
1.2057329395
 20
17.9455276616
 11
1.2019836577
 21
17.9474525658
  0
LWPOLYLINE
  5
576
100
AcDbEntity
  8
ASSI
100
AcDbPolyline
 62
250
  6
CONTINUOUS
 90
11
 70
0
 10
1.2057836408
 20
17.9455070247
 10
1.2069492594
 20
17.9448873239
 10
1.2106688357
 20
17.9421602518
 10
1.2129201383
 20
17.93898112
 10
1.2134446847
 20
17.9354916576
 10
1.2122024795
 20
17.93173718
 10
1.2093319994
 20
17.9276636023
 10
1.2048677637
 20
17.9233351244
 10
1.1988603686
 20
17.9188039693
 10
1.1913698325
 20
17.9140847859
 10
1.1824485803
 20
17.9092146055
  0
LWPOLYLINE
  5
577
100
AcDbEntity
  8
RACCORDO
100
AcDbPolyline
 62
250
  6
CONTINUOUS
 90
11
 70
0
 10
1.2057805528
 20
17.9455085705
 10
1.2069492594
 20
17.9448873239
 10
1.2106688357
 20
17.9421602518
 10
1.2129201383
 20
17.93898112
 10
1.2134446847
 20
17.9354916576
 10
1.2122024795
 20
17.93173718
 10
1.2093319994
 20
17.9276636023
 10
1.2048677637
 20
17.9233351244
 10
1.1988603686
 20
17.9188039693
 10
1.1913698325
 20
17.9140847859
 10
1.1824485803
 20
17.9092146055
  0
LWPOLYLINE
  5
578
100
AcDbEntity
  8
ASSI
100
AcDbPolyline
 62
250
  6
CONTINUOUS
 90
9
 70
0
 10
8.2131323624
 20
14.1898885317
 10
8.2441187492
 20
14.1732235524
 10
8.2748955522
 20
14.1538878895
 10
8.3053037875
 20
14.1319923755
 10
8.3351891246
 20
14.1076570524
 10
8.3643992718
 20
14.080999841
 10
8.3927858209
 20
14.052151463
 10
8.4202049015
 20
14.0212690542
 10
8.4465049346
 20
13.9885231456
  0
LWPOLYLINE
  5
579
100
AcDbEntity
  8
RACCORDO
100
AcDbPolyline
 62
250
  6
CONTINUOUS
 90
13
 70
0
 10
8.2131323624
 20
14.1898885317
 10
8.2441187492
 20
14.1732235524
 10
8.2748955522
 20
14.1538878895
 10
8.3053037875
 20
14.1319923755
 10
8.3351891246
 20
14.1076570524
 10
8.3643992718
 20
14.080999841
 10
8.3927858209
 20
14.052151463
 10
8.4202049015
 20
14.0212690542
 10
8.4465049346
 20
13.9885231456
 10
8.4715314939
 20
13.9540934782
 10
8.4951532762
 20
13.9181640985
 10
8.5172568676
 20
13.880918587
 10
8.5377265071
 20
13.8425446806
  0
LINE
  5
57A
100
AcDbEntity
  8
ASSI
100
AcDbLine
 62
7
  6
CONTINUOUS
 10
0.9976709688
 20
19.0922448439
 11
0.9864869859
 21
19.0982856163
  0
LINE
  5
57B
100
AcDbEntity
  8
ASSI
100
AcDbLine
 62
250
  6
CONTINUOUS
 10
1.1636948508
 20
17.9197784435
 11
1.1824485803
 21
17.9092146055
  0
LINE
  5
57C
100
AcDbEntity
  8
ASSI
100
AcDbLine
 62
250
  6
CONTINUOUS
 10
0.8996489461
 20
19.0937448557
 11
0.9184778286
 21
19.0831325591
  0
LINE
  5
57D
100
AcDbEntity
  8
RACCORDO
100
AcDbLine
 62
250
  6
CONTINUOUS
 10
0.8996489461
 20
19.0937448557
 11
0.9184778286
 21
19.0831325591
  0
LWPOLYLINE
  5
57E
100
AcDbEntity
  8
ASSI
100
AcDbPolyline
 62
7
  6
CONTINUOUS
 90
4
 70
0
 10
1.2057349524
 20
17.9455266576
 10
1.180388265
 20
17.9606924648
 10
1.1547501709
 20
17.9823008301
 10
1.1336536498
 20
18.0072520493
  0
LWPOLYLINE
  5
57F
100
AcDbEntity
  8
RACCORDO
100
AcDbPolyline
 62
7
  6
CONTINUOUS
 90
5
 70
0
 10
1.2019836577
 20
17.9474525658
 10
1.1789171708
 20
17.9617413279
 10
1.1580453777
 20
17.9790795981
 10
1.1399226187
 20
17.9989238602
 10
1.1246906409
 20
18.0210212289
  0
LWPOLYLINE
  5
580
100
AcDbEntity
  8
ASSI
100
AcDbPolyline
 62
250
  6
CONTINUOUS
 90
8
 70
0
 10
6.4444420069
 20
14.2170700388
 10
6.4418218805
 20
14.2187313819
 10
6.4347994138
 20
14.2187147715
 10
6.4238122838
 20
14.2162128825
 10
6.4090361756
 20
14.2112657204
 10
6.3907073607
 20
14.2039523909
 10
6.3691189187
 20
14.1943898347
 10
6.344616051
 20
14.1827309581
  0
LWPOLYLINE
  5
581
100
AcDbEntity
  8
RACCORDO
100
AcDbPolyline
 62
250
  6
CONTINUOUS
 90
8
 70
0
 10
6.4444420069
 20
14.2170700388
 10
6.4418218805
 20
14.2187313819
 10
6.4347994138
 20
14.2187147715
 10
6.4238122838
 20
14.2162128825
 10
6.4090361756
 20
14.2112657204
 10
6.3907073607
 20
14.2039523909
 10
6.3691189187
 20
14.1943898347
 10
6.344616051
 20
14.1827309581
  0
LWPOLYLINE
  5
582
100
AcDbEntity
  8
RACCORDO
100
AcDbPolyline
 62
7
  6
CONTINUOUS
 90
3
 70
0
 10
8.5129657094
 20
14.1510434355
 10
8.4663787528
 20
14.1815826641
 10
8.4304207552
 20
14.2011460944
  0
LWPOLYLINE
  5
583
100
AcDbEntity
  8
RACCORDO
100
AcDbPolyline
 62
7
  6
CONTINUOUS
 90
3
 70
0
 10
1.0194548803
 20
19.0776009482
 10
0.9975791698
 20
19.0923065543
 10
0.9866406624
 20
19.0982089488
  0
LWPOLYLINE
  5
584
100
AcDbEntity
  8
ASSI
100
AcDbPolyline
 62
7
  6
CONTINUOUS
 90
3
 70
0
 10
8.5298954526
 20
14.138325168
 10
8.4703613221
 20
14.1792107347
 10
8.4303383307
 20
14.2011871889
  0
LINE
  5
585
100
AcDbEntity
  8
ASSI
100
AcDbLine
 62
7
  6
CONTINUOUS
 10
1.0261922996
 20
19.0721588918
 11
0.9976709688
 21
19.0922448439
  0
LINE
  5
586
100
AcDbEntity
  8
ASSI
100
AcDbLine
 62
250
  6
CONTINUOUS
 10
1.1453040994
 20
17.9331446995
 11
1.1636948508
 21
17.9197784435
  0
LWPOLYLINE
  5
587
100
AcDbEntity
  8
RACCORDO
100
AcDbPolyline
 62
250
  6
CONTINUOUS
 90
3
 70
0
 10
1.1453040994
 20
17.9331446995
 10
1.1636948508
 20
17.9197784435
 10
1.1824485803
 20
17.9092146055
  0
LWPOLYLINE
  5
588
100
AcDbEntity
  8
ASSI
100
AcDbPolyline
 62
250
  6
CONTINUOUS
 90
4
 70
0
 10
0.9184778286
 20
19.0831325591
 10
0.9369443852
 20
19.0696920858
 10
0.9547296263
 20
19.0536531247
 10
0.97152728
 20
19.0352888895
  0
LWPOLYLINE
  5
589
100
AcDbEntity
  8
RACCORDO
100
AcDbPolyline
 62
250
  6
CONTINUOUS
 90
3
 70
0
 10
0.9184778286
 20
19.0831325591
 10
0.9369443852
 20
19.0696920858
 10
0.9547296263
 20
19.0536531247
  0
LINE
  5
58A
100
AcDbEntity
  8
RACCORDO
100
AcDbLine
 62
7
  6
CONTINUOUS
 10
8.5566542949
 20
14.1162384293
 11
8.5129657094
 21
14.1510434355
  0
LINE
  5
58B
100
AcDbEntity
  8
ASSI
100
AcDbLine
 62
7
  6
CONTINUOUS
 10
8.5854480246
 20
14.0894143232
 11
8.5298954526
 21
14.138325168
  0
LINE
  5
58C
100
AcDbEntity
  8
RACCORDO
100
AcDbLine
 62
7
  6
CONTINUOUS
 10
1.0392059268
 20
19.0601470836
 11
1.0194548803
 21
19.0776009482
  0
LINE
  5
58D
100
AcDbEntity
  8
RACCORDO
100
AcDbLine
 62
7
  6
CONTINUOUS
 10
8.9279478869
 20
13.484050784
 11
9.0170042581
 21
13.4028830161
  0
LINE
  5
58E
100
AcDbEntity
  8
RACCORDO
100
AcDbLine
 62
7
  6
CONTINUOUS
 10
8.5977828173
 20
14.076828704
 11
8.5566542949
 21
14.1162384293
  0
LINE
  5
58F
100
AcDbEntity
  8
ASSI
100
AcDbLine
 62
7
  6
CONTINUOUS
 10
8.9270706705
 20
13.4858158887
 11
9.1143823116
 21
13.3047055056
  0
LINE
  5
590
100
AcDbEntity
  8
RACCORDO
100
AcDbLine
 62
7
  6
CONTINUOUS
 10
9.0170042581
 20
13.4028830161
 11
9.152828931
 21
13.2636742579
  0
LINE
  5
591
100
AcDbEntity
  8
RACCORDO
100
AcDbLine
 62
250
  6
CONTINUOUS
 10
9.0476287973
 20
13.239962421
 11
9.0530645613
 21
13.2342390014
  0
LINE
  5
592
100
AcDbEntity
  8
ASSI
100
AcDbLine
 62
7
  6
CONTINUOUS
 10
8.6357859456
 20
14.0331561472
 11
8.5902611934
 21
14.0840359927
  0
LINE
  5
593
100
AcDbEntity
  8
ASSI
100
AcDbLine
 62
7
  6
CONTINUOUS
 10
8.5902611934
 20
14.0840359927
 11
8.5854480246
 21
14.0894143232
  0
LWPOLYLINE
  5
594
100
AcDbEntity
  8
ASSI
100
AcDbPolyline
 62
7
  6
CONTINUOUS
 90
10
 70
0
 10
9.1143823116
 20
13.3047055056
 10
9.3008686449
 20
13.0926085006
 10
9.4732665535
 20
12.8634574566
 10
9.6302702948
 20
12.6196212054
 10
9.7704150053
 20
12.3637235479
 10
9.8921715246
 20
12.0987186738
 10
9.994152188
 20
11.8276415308
 10
10.0752067975
 20
11.5532755411
 10
10.1342417262
 20
11.2785280396
 10
10.1702518993
 20
11.0065304049
  0
LWPOLYLINE
  5
595
100
AcDbEntity
  8
RACCORDO
100
AcDbPolyline
 62
7
  6
CONTINUOUS
 90
15
 70
0
 10
9.152828931
 20
13.2636742579
 10
9.2827191336
 20
13.1147625141
 10
9.4060057496
 20
12.9571137666
 10
9.5220381352
 20
12.7917504647
 10
9.6302858942
 20
12.6195949919
 10
9.7302569552
 20
12.4415444682
 10
9.8214188813
 20
12.2586169945
 10
9.903279434
 20
12.0718376177
 10
9.9754231829
 20
11.8821278222
 10
10.03742754
 20
11.6904805433
 10
10.0888726706
 20
11.4979947347
 10
10.1293987635
 20
11.3057142535
 10
10.1586855354
 20
11.1146575636
 10
10.1764417111
 20
10.9258625334
 10
10.1824110838
 20
10.7403756148
  0
LINE
  5
596
100
AcDbEntity
  8
RACCORDO
100
AcDbLine
 62
7
  6
CONTINUOUS
 10
8.6358367033
 20
14.0330978173
 11
8.5977828173
 21
14.076828704
  0
LINE
  5
597
100
AcDbEntity
  8
ASSI
100
AcDbLine
 62
250
  6
CONTINUOUS
 10
9.0530645613
 20
13.2342390014
 11
9.1600788156
 21
13.1110858341
  0
LINE
  5
598
100
AcDbEntity
  8
RACCORDO
100
AcDbLine
 62
250
  6
CONTINUOUS
 10
9.0530645613
 20
13.2342390014
 11
9.1600788156
 21
13.1110858341
  0
LWPOLYLINE
  5
599
100
AcDbEntity
  8
ASSI
100
AcDbPolyline
 62
250
  6
CONTINUOUS
 90
22
 70
0
 10
9.1600788156
 20
13.1110858341
 10
9.2614443209
 20
12.9838920122
 10
9.3568638436
 20
12.853625016
 10
9.4463065128
 20
12.7209354658
 10
9.5282591526
 20
12.588953896
 10
9.6025849249
 20
12.459162817
 10
9.6699165493
 20
12.3317400544
 10
9.7302619924
 20
12.2079743804
 10
9.7837805883
 20
12.0890058469
 10
9.8311623627
 20
11.9747935507
 10
9.8732176799
 20
11.8647186292
 10
9.9103058155
 20
11.7590845106
 10
9.942786613
 20
11.6581521457
 10
9.9713067053
 20
11.5611166836
 10
9.9961503532
 20
11.4681318982
 10
10.0176019077
 20
11.3793158585
 10
10.0361473525
 20
11.2937575629
 10
10.0519922856
 20
11.2115230107
 10
10.0653386547
 20
11.132669672
 10
10.0765175506
 20
11.0562661255
 10
10.0856570144
 20
10.9823739886
 10
10.0928910962
 20
10.9109957967
  0
LWPOLYLINE
  5
59A
100
AcDbEntity
  8
RACCORDO
100
AcDbPolyline
 62
250
  6
CONTINUOUS
 90
26
 70
0
 10
9.1600788156
 20
13.1110858341
 10
9.2614443209
 20
12.9838920122
 10
9.3568638436
 20
12.853625016
 10
9.4463065128
 20
12.7209354658
 10
9.5282591526
 20
12.588953896
 10
9.6025849249
 20
12.459162817
 10
9.6699165493
 20
12.3317400544
 10
9.7302619924
 20
12.2079743804
 10
9.7837805883
 20
12.0890058469
 10
9.8311623627
 20
11.9747935507
 10
9.8732176799
 20
11.8647186292
 10
9.9103058155
 20
11.7590845106
 10
9.942786613
 20
11.6581521457
 10
9.9713067053
 20
11.5611166836
 10
9.9961503532
 20
11.4681318982
 10
10.0176019077
 20
11.3793158585
 10
10.0361473525
 20
11.2937575629
 10
10.0519922856
 20
11.2115230107
 10
10.0653386547
 20
11.132669672
 10
10.0765175506
 20
11.0562661255
 10
10.0856570144
 20
10.9823739886
 10
10.0928910962
 20
10.9109957967
 10
10.0984180352
 20
10.8411348845
 10
10.1023125077
 20
10.772492358
 10
10.1046042826
 20
10.7054404854
 10
10.1053545315
 20
10.6400060239
  0
LWPOLYLINE
  5
59B
100
AcDbEntity
  8
ASSI
100
AcDbPolyline
 62
250
  6
CONTINUOUS
 90
5
 70
0
 10
8.4465049346
 20
13.9885231456
 10
8.4715314939
 20
13.9540934782
 10
8.4951532762
 20
13.9181640985
 10
8.5172568676
 20
13.880918587
 10
8.5377265071
 20
13.8425446806
  0
LINE
  5
59C
100
AcDbEntity
  8
ASSI
100
AcDbLine
 62
7
  6
CONTINUOUS
 10
8.6779906108
 20
13.9734152497
 11
8.6357859456
 21
14.0331561472
  0
LINE
  5
59D
100
AcDbEntity
  8
RACCORDO
100
AcDbLine
 62
7
  6
CONTINUOUS
 10
1.5382663515
 20
-20.8408559887
 11
1.5814067107
 21
-20.8107829815
  0
LWPOLYLINE
  5
59E
100
AcDbEntity
  8
RACCORDO
100
AcDbPolyline
 62
250
  6
CONTINUOUS
 90
3
 70
0
 10
1.5382670165
 20
-20.8408555753
 10
1.5388647708
 20
-20.8404516544
 10
1.5431160814
 20
-20.8342243236
  0
LWPOLYLINE
  5
59F
100
AcDbEntity
  8
ASSI
100
AcDbPolyline
 62
250
  6
CONTINUOUS
 90
3
 70
0
 10
1.5382670146
 20
-20.8408555765
 10
1.5388647708
 20
-20.8404516544
 10
1.5431160814
 20
-20.8342243236
  0
LINE
  5
5A0
100
AcDbEntity
  8
RACCORDO
100
AcDbLine
 62
250
  6
CONTINUOUS
 10
-0.1473181447
 20
-21.872432972
 11
-0.2089325203
 21
-21.9116870898
  0
LWPOLYLINE
  5
5A1
100
AcDbEntity
  8
ASSI
100
AcDbPolyline
 62
250
  6
CONTINUOUS
 90
7
 70
0
 10
-0.2089325203
 20
-21.9116870898
 10
-0.4581716551
 20
-22.0698758884
 10
-0.7063907518
 20
-22.2248706056
 10
-0.9535642218
 20
-22.3766888408
 10
-1.1996516694
 20
-22.5253397649
 10
-1.444642921
 20
-22.6708503434
 10
-1.6885585022
 20
-22.8132645145
  0
LWPOLYLINE
  5
5A2
100
AcDbEntity
  8
RACCORDO
100
AcDbPolyline
 62
250
  6
CONTINUOUS
 90
7
 70
0
 10
-0.2089325203
 20
-21.9116870898
 10
-0.4581716551
 20
-22.0698758884
 10
-0.7063907518
 20
-22.2248706056
 10
-0.9535642218
 20
-22.3766888408
 10
-1.1996516694
 20
-22.5253397649
 10
-1.444642921
 20
-22.6708503434
 10
-1.6885585022
 20
-22.8132645145
  0
LINE
  5
5A3
100
AcDbEntity
  8
RACCORDO
100
AcDbLine
 62
7
  6
CONTINUOUS
 10
-0.3690725447
 20
-22.0153273142
 11
-0.1028614935
 21
-21.846262276
  0
LINE
  5
5A4
100
AcDbEntity
  8
RACCORDO
100
AcDbLine
 62
250
  6
CONTINUOUS
 10
-0.086923524
 20
-21.8342357039
 11
-0.1473181447
 21
-21.872432972
  0
LINE
  5
5A5
100
AcDbEntity
  8
ASSI
100
AcDbLine
 62
7
  6
CONTINUOUS
 10
-0.3230235497
 20
-21.9861871637
 11
-0.1212170639
 21
-21.8578905452
  0
LINE
  5
5A6
100
AcDbEntity
  8
ASSI
100
AcDbLine
 62
7
  6
CONTINUOUS
 10
-0.1212170639
 20
-21.8578905452
 11
-0.0634768319
 21
-21.821482807
  0
LINE
  5
5A7
100
AcDbEntity
  8
ASSI
100
AcDbLine
 62
7
  6
CONTINUOUS
 10
-0.6043036041
 20
-22.1628369966
 11
-0.3230235497
 21
-21.9861871637
  0
LINE
  5
5A8
100
AcDbEntity
  8
RACCORDO
100
AcDbLine
 62
7
  6
CONTINUOUS
 10
-0.1028614935
 20
-21.846262276
 11
-0.0383596779
 21
-21.805759365
  0
LWPOLYLINE
  5
5A9
100
AcDbEntity
  8
ASSI
100
AcDbPolyline
 62
250
  6
CONTINUOUS
 90
4
 70
0
 10
-0.0277340898
 20
-21.7971198735
 10
-0.086923524
 20
-21.8342357039
 10
-0.1473181447
 20
-21.872432972
 10
-0.2089325203
 20
-21.9116870898
  0
LINE
  5
5AA
100
AcDbEntity
  8
RACCORDO
100
AcDbLine
 62
250
  6
CONTINUOUS
 10
-0.0277340898
 20
-21.7971198735
 11
-0.086923524
 21
-21.8342357039
  0
LINE
  5
5AB
100
AcDbEntity
  8
ASSI
100
AcDbLine
 62
7
  6
CONTINUOUS
 10
-0.0634768319
 20
-21.821482807
 11
0.0072708758
 21
-21.7773841258
  0
LWPOLYLINE
  5
5AC
100
AcDbEntity
  8
ASSI
100
AcDbPolyline
 62
250
  6
CONTINUOUS
 90
7
 70
0
 10
1.5431266628
 20
-20.8342152282
 10
1.3077624745
 20
-20.9804180873
 10
1.0731788429
 20
-21.125354959
 10
0.8393798128
 20
-21.2690273875
 10
0.6063694182
 20
-21.4114369489
 10
0.3741516818
 20
-21.5525852504
 10
0.0870814494
 20
-21.7262198839
  0
LWPOLYLINE
  5
5AD
100
AcDbEntity
  8
RACCORDO
100
AcDbPolyline
 62
250
  6
CONTINUOUS
 90
7
 70
0
 10
1.5431266628
 20
-20.8342152282
 10
1.3077624745
 20
-20.9804180873
 10
1.0731788429
 20
-21.125354959
 10
0.8393798128
 20
-21.2690273875
 10
0.6063694182
 20
-21.4114369489
 10
0.3741516818
 20
-21.5525852504
 10
0.0870814494
 20
-21.7262198839
  0
LINE
  5
5AE
100
AcDbEntity
  8
RACCORDO
100
AcDbLine
 62
7
  6
CONTINUOUS
 10
1.4608722045
 20
-20.8889396872
 11
1.5382738687
 21
-20.8408646971
  0
LINE
  5
5AF
100
AcDbEntity
  8
ASSI
100
AcDbLine
 62
250
  6
CONTINUOUS
 10
0.0302635199
 20
-21.7611078684
 11
-0.0277340898
 21
-21.7971198735
  0
LINE
  5
5B0
100
AcDbEntity
  8
RACCORDO
100
AcDbLine
 62
250
  6
CONTINUOUS
 10
0.0302635199
 20
-21.7611078684
 11
-0.0277340898
 21
-21.7971198735
  0
LINE
  5
5B1
100
AcDbEntity
  8
RACCORDO
100
AcDbLine
 62
7
  6
CONTINUOUS
 10
-0.0383596779
 20
-21.805759365
 11
0.0249444355
 21
-21.7664626118
  0
LINE
  5
5B2
100
AcDbEntity
  8
ASSI
100
AcDbLine
 62
250
  6
CONTINUOUS
 10
1.5777184
 20
-20.8129723069
 11
1.5431160815
 21
-20.8342243236
  0
LINE
  5
5B3
100
AcDbEntity
  8
RACCORDO
100
AcDbLine
 62
250
  6
CONTINUOUS
 10
1.5777184
 20
-20.8129723069
 11
1.5431160815
 21
-20.8342243236
  0
LINE
  5
5B4
100
AcDbEntity
  8
ASSI
100
AcDbLine
 62
250
  6
CONTINUOUS
 10
0.0870814494
 20
-21.7262198839
 11
0.0302635199
 21
-21.7611078684
  0
LINE
  5
5B5
100
AcDbEntity
  8
RACCORDO
100
AcDbLine
 62
250
  6
CONTINUOUS
 10
0.0870814494
 20
-21.7262198839
 11
0.0302635199
 21
-21.7611078684
  0
LINE
  5
5B6
100
AcDbEntity
  8
ASSI
100
AcDbLine
 62
7
  6
CONTINUOUS
 10
0.0072708758
 20
-21.7773841258
 11
0.0813647602
 21
-21.7318696133
  0
LWPOLYLINE
  5
5B7
100
AcDbEntity
  8
RACCORDO
100
AcDbPolyline
 62
7
  6
CONTINUOUS
 90
3
 70
0
 10
0.0249444355
 20
-21.7664626118
 10
0.0866445816
 20
-21.7286323959
 10
0.1391373721
 20
-21.6968261183
  0
LINE
  5
5B8
100
AcDbEntity
  8
ASSI
100
AcDbLine
 62
7
  6
CONTINUOUS
 10
0.0813647602
 20
-21.7318696133
 11
0.1391287246
 21
-21.696831333
  0
LWPOLYLINE
  5
5B9
100
AcDbEntity
  8
ASSI
100
AcDbPolyline
 62
7
  6
CONTINUOUS
 90
7
 70
0
 10
0.3646789342
 20
-21.5607519768
 10
0.5539125647
 20
-21.4459945645
 10
0.7437132206
 20
-21.3303806347
 10
0.9340782713
 20
-21.2139094659
 10
1.1250058039
 20
-21.0965799823
 10
1.3164931881
 20
-20.9783916334
 10
1.5382738667
 20
-20.8408646983
  0
LWPOLYLINE
  5
5BA
100
AcDbEntity
  8
RACCORDO
100
AcDbPolyline
 62
7
  6
CONTINUOUS
 90
8
 70
0
 10
0.2199589554
 20
-21.6481690922
 10
0.3957613646
 20
-21.5419377056
 10
0.5720578964
 20
-21.4349637964
 10
0.748845844
 20
-21.3272470734
 10
0.9261230831
 20
-21.2187869589
 10
1.1038880678
 20
-21.1095825851
 10
1.2821386741
 20
-20.999633503
 10
1.4608722045
 20
-20.8889396872
  0
LINE
  5
5BB
100
AcDbEntity
  8
ASSI
100
AcDbLine
 62
7
  6
CONTINUOUS
 10
0.139142716
 20
-21.6968547796
 11
0.3646789342
 21
-21.5607519768
  0
LINE
  5
5BC
100
AcDbEntity
  8
RACCORDO
100
AcDbLine
 62
7
  6
CONTINUOUS
 10
0.139142714
 20
-21.6968547808
 11
0.2199589554
 21
-21.6481690922
  0
LINE
  5
5BD
100
AcDbEntity
  8
0
100
AcDbLine
 62
7
  6
CONTINUOUS
 10
-8.5861079368
 20
-26.4561510964
 11
-8.1602026531
 21
-26.2076367222
  0
LINE
  5
5BE
100
AcDbEntity
  8
ASSI
100
AcDbLine
 62
250
  6
CONTINUOUS
 10
-1.6885585022
 20
-22.8132645145
 11
-1.9313893717
 21
-22.952608585
  0
LINE
  5
5BF
100
AcDbEntity
  8
RACCORDO
100
AcDbLine
 62
250
  6
CONTINUOUS
 10
-1.6885585022
 20
-22.8132645145
 11
-1.9313893717
 21
-22.952608585
  0
LINE
  5
5C0
100
AcDbEntity
  8
ASSI
100
AcDbLine
 62
250
  6
CONTINUOUS
 10
-1.9313893717
 20
-22.952608585
 11
-2.1730964481
 21
-23.0888920359
  0
LINE
  5
5C1
100
AcDbEntity
  8
RACCORDO
100
AcDbLine
 62
250
  6
CONTINUOUS
 10
-1.9313893717
 20
-22.952608585
 11
-2.1730964481
 21
-23.0888920359
  0
LWPOLYLINE
  5
5C2
100
AcDbEntity
  8
ASSI
100
AcDbPolyline
 62
7
  6
CONTINUOUS
 90
7
 70
0
 10
-2.2822799882
 20
-23.1497693581
 10
-2.0039248691
 20
-22.9939792825
 10
-1.7250068412
 20
-22.8347076522
 10
-1.4455561193
 20
-22.6719559817
 10
-1.1656020513
 20
-22.5057254372
 10
-0.8851741523
 20
-22.3360179956
 10
-0.6043036041
 20
-22.1628369966
  0
LINE
  5
5C3
100
AcDbEntity
  8
ASSI
100
AcDbLine
 62
250
  6
CONTINUOUS
 10
-2.1730964481
 20
-23.0888920359
 11
-2.4136559706
 21
-23.2221331766
  0
LINE
  5
5C4
100
AcDbEntity
  8
RACCORDO
100
AcDbLine
 62
250
  6
CONTINUOUS
 10
-2.1730964481
 20
-23.0888920359
 11
-2.4136559706
 21
-23.2221331766
  0
LWPOLYLINE
  5
5C5
100
AcDbEntity
  8
RACCORDO
100
AcDbPolyline
 62
7
  6
CONTINUOUS
 90
9
 70
0
 10
-2.411489431
 20
-23.2210114772
 10
-2.2390945318
 20
-23.1258063347
 10
-1.973347193
 20
-22.9766730257
 10
-1.7070901914
 20
-22.8243683726
 10
-1.4403496734
 20
-22.6688936031
 10
-1.173151199
 20
-22.5102497752
 10
-0.9055205396
 20
-22.3484386768
 10
-0.6374847542
 20
-22.1834631921
 10
-0.3690725447
 20
-22.0153273142
  0
LINE
  5
5C6
100
AcDbEntity
  8
ASSI
100
AcDbLine
 62
7
  6
CONTINUOUS
 10
-2.4114895066
 20
-23.2210115187
 11
-2.2822799882
 21
-23.1497693581
  0
LINE
  5
5C7
100
AcDbEntity
  8
RACCORDO
100
AcDbLine
 62
250
  6
CONTINUOUS
 10
-2.4185318712
 20
-23.2248027959
 11
-2.4136559225
 21
-23.2221331516
  0
LINE
  5
5C8
100
AcDbEntity
  8
ASSI
100
AcDbLine
 62
7
  6
CONTINUOUS
 10
-5.1510291525
 20
-24.6693108956
 11
-5.0653276132
 21
-24.6224731582
  0
LINE
  5
5C9
100
AcDbEntity
  8
RACCORDO
100
AcDbLine
 62
7
  6
CONTINUOUS
 10
-5.1510291525
 20
-24.6693108956
 11
-5.0653276132
 21
-24.6224731582
  0
LINE
  5
5CA
100
AcDbEntity
  8
RACCORDO
100
AcDbLine
 62
7
  6
CONTINUOUS
 10
-2.418531871
 20
-23.2248027958
 11
-2.4114893041
 21
-23.2210112823
  0
LINE
  5
5CB
100
AcDbEntity
  8
ASSI
100
AcDbLine
 62
7
  6
CONTINUOUS
 10
-2.4136559706
 20
-23.2221331766
 11
-5.0653276132
 21
-24.6224731582
  0
LINE
  5
5CC
100
AcDbEntity
  8
RACCORDO
100
AcDbLine
 62
250
  6
CONTINUOUS
 10
-2.4136559706
 20
-23.2221331766
 11
-2.4185318711
 21
-23.2248027958
  0
LINE
  5
5CD
100
AcDbEntity
  8
RACCORDO
100
AcDbLine
 62
7
  6
CONTINUOUS
 10
-5.070021285
 20
-24.6250374607
 11
-2.4185318711
 21
-23.2248027958
  0
LINE
  5
5CE
100
AcDbEntity
  8
ASSI
100
AcDbLine
 62
250
  6
CONTINUOUS
 10
2.6363923887
 20
-19.1654656386
 11
-5.0465765721
 21
-23.2016368406
  0
LINE
  5
5CF
100
AcDbEntity
  8
RACCORDO
100
AcDbLine
 62
250
  6
CONTINUOUS
 10
2.6363923887
 20
-19.1654656386
 11
-5.0465765721
 21
-23.2016368406
  0
LINE
  5
5D0
100
AcDbEntity
  8
RACCORDO
100
AcDbLine
 62
250
  6
CONTINUOUS
 10
2.329533429
 20
-20.0892781883
 11
-5.1510291525
 21
-24.0179651625
  0
LINE
  5
5D1
100
AcDbEntity
  8
ASSI
100
AcDbLine
 62
250
  6
CONTINUOUS
 10
2.329533429
 20
-20.0892781883
 11
-5.1510291525
 21
-24.0179651625
  0
LWPOLYLINE
  5
5D2
100
AcDbEntity
  8
RACCORDO
100
AcDbPolyline
 62
250
  6
CONTINUOUS
 90
9
 70
0
 10
-9.0644324175
 20
-26.4919321679
 10
-8.998235897
 20
-26.4573307098
 10
-8.6175750801
 20
-26.2318817115
 10
-8.2492317932
 20
-25.9863363928
 10
-7.893513711
 20
-25.7209158686
 10
-7.5513438573
 20
-25.4362834835
 10
-7.223029907
 20
-25.1326603525
 10
-6.9082641854
 20
-24.8098253606
 10
-6.6070466924
 20
-24.467778508
  0
LWPOLYLINE
  5
5D3
100
AcDbEntity
  8
RACCORDO
100
AcDbPolyline
 62
250
  6
CONTINUOUS
 90
3
 70
0
 10
-9.0792885312
 20
-26.7073294447
 10
-8.768852861
 20
-26.5450759108
 10
-8.3846347209
 20
-26.317568482
  0
LINE
  5
5D4
100
AcDbEntity
  8
RACCORDO
100
AcDbLine
 62
250
  6
CONTINUOUS
 10
-2.4136559225
 20
-23.2221331516
 11
-2.4116436653
 21
-23.2210959466
  0
LINE
  5
5D5
100
AcDbEntity
  8
ASSI
100
AcDbLine
 62
250
  6
CONTINUOUS
 10
-2.4136559225
 20
-23.2221331516
 11
-2.4116437359
 21
-23.2210959853
  0
LWPOLYLINE
  5
5D6
100
AcDbEntity
  8
0
100
AcDbPolyline
 62
7
  6
CONTINUOUS
 90
3
 70
0
 10
-9.0795851765
 20
-26.7116304749
 10
-9.0230168681
 20
-26.684324318
 10
-8.5861079368
 20
-26.4561510964
  0
LINE
  5
5D7
100
AcDbEntity
  8
RACCORDO
100
AcDbLine
 62
250
  6
CONTINUOUS
 10
-6.1582481138
 20
-23.6730872844
 11
-5.0449631354
 21
-23.1435499592
  0
LINE
  5
5D8
100
AcDbEntity
  8
0
100
AcDbLine
 62
7
  6
CONTINUOUS
 10
-5.1510291525
 20
-23.7485893075
 11
-5.5485330248
 21
-23.9376637472
  0
LINE
  5
5D9
100
AcDbEntity
  8
0
100
AcDbLine
 62
250
  6
CONTINUOUS
 10
-6.3574151455
 20
-24.5397218494
 11
-5.845032624
 21
-24.2959203107
  0
LINE
  5
5DA
100
AcDbEntity
  8
ASSI
100
AcDbLine
 62
250
  6
CONTINUOUS
 10
-0.198660251
 20
-21.9070577724
 11
-0.2089325277
 21
-21.9116870777
  0
LINE
  5
5DB
100
AcDbEntity
  8
RACCORDO
100
AcDbLine
 62
250
  6
CONTINUOUS
 10
-0.1986603058
 20
-21.9070578074
 11
-0.2089325277
 21
-21.9116870777
  0
LINE
  5
5DC
100
AcDbEntity
  8
RACCORDO
100
AcDbLine
 62
250
  6
CONTINUOUS
 10
-8.504215614
 20
-23.5591361707
 11
-8.87296243
 21
-23.7158283607
  0
LINE
  5
5DD
100
AcDbEntity
  8
RACCORDO
100
AcDbLine
 62
7
  6
CONTINUOUS
 10
-8.6870894776
 20
-24.0679011919
 11
-8.9035905707
 21
-24.1599026479
  0
LWPOLYLINE
  5
5DE
100
AcDbEntity
  8
RACCORDO
100
AcDbPolyline
 62
7
  6
CONTINUOUS
 90
9
 70
0
 10
-6.7347852364
 20
17.5097347526
 10
-6.8494281757
 20
17.4787882432
 10
-6.961072031
 20
17.4445434298
 10
-7.0694259948
 20
17.4070339942
 10
-7.1741357162
 20
17.3663203444
 10
-7.2748818267
 20
17.3224592065
 10
-7.371461875
 20
17.2754545927
 10
-7.4634723947
 20
17.2254068387
 10
-7.5434507292
 20
17.1767447266
  0
LWPOLYLINE
  5
5DF
100
AcDbEntity
  8
0
100
AcDbPolyline
 62
250
  6
CONTINUOUS
 90
36
 70
0
 10
-16.45955457
 20
16.1049774163
 10
-16.4701525939
 20
16.1022016681
 10
-16.4797030234
 20
16.0998263505
 10
-16.4882066084
 20
16.0978532607
 10
-16.4956020464
 20
16.0963130678
 10
-16.5019520531
 20
16.0951784788
 10
-16.5074433197
 20
16.0943641358
 10
-16.5120884665
 20
16.0938659085
 10
-16.5158760147
 20
16.0936906411
 10
-16.5189563999
 20
16.0937691796
 10
-16.5213345471
 20
16.0941002184
 10
-16.5230064603
 20
16.0946872619
 10
-16.5241091045
 20
16.0954681596
 10
-16.5246463935
 20
16.0964407794
 10
-16.5246151468
 20
16.0976089825
 10
-16.524141593
 20
16.0989193849
 10
-16.5232359821
 20
16.1003665401
 10
-16.5218885986
 20
16.1019571514
 10
-16.5201956214
 20
16.1036558194
 10
-16.5181704381
 20
16.1054568118
 10
-16.5158000175
 20
16.1073666974
 10
-16.5131408238
 20
16.109368325
 10
-16.510205849
 20
16.111456485
 10
-16.5069823346
 20
16.113636934
 10
-16.5034880626
 20
16.1159088354
 10
-16.4997352688
 20
16.118267495
 10
-16.495711872
 20
16.1207179686
 10
-16.4913991458
 20
16.1232739688
 10
-16.4868087882
 20
16.1259312369
 10
-16.4819292071
 20
16.1286942788
 10
-16.4767067261
 20
16.1315899192
 10
-16.4711530374
 20
16.1346141574
 10
-16.4652565231
 20
16.1377711675
 10
-16.458928538
 20
16.1411000272
 10
-16.4521395508
 20
16.1446138021
 10
-16.4449191394
 20
16.1482995355
  0
LINE
  5
5E0
100
AcDbEntity
  8
RACCORDO
100
AcDbLine
 62
250
  6
CONTINUOUS
 10
-6.7535698121
 20
17.4711925832
 11
-6.6535867052
 21
17.4969861141
  0
LINE
  5
5E1
100
AcDbEntity
  8
ASSI
100
AcDbLine
 62
7
  6
CONTINUOUS
 10
-15.9854626061
 20
16.3576434767
 11
-16.0245936877
 21
16.3475904131
  0
LWPOLYLINE
  5
5E2
100
AcDbEntity
  8
ASSI
100
AcDbPolyline
 62
7
  6
CONTINUOUS
 90
10
 70
0
 10
-13.1817306943
 20
17.6937456339
 10
-13.1422586905
 20
17.7038471218
 10
-13.1016464559
 20
17.7099899142
 10
-13.0598939903
 20
17.7121740112
 10
-13.0168150443
 20
17.7103751621
 10
-12.9725958675
 20
17.7046176175
 10
-12.9277952082
 20
17.6949741291
 10
-12.8825993159
 20
17.6814689475
 10
-12.8368219413
 20
17.6640778221
 10
-12.7904630842
 20
17.6428007529
  0
LWPOLYLINE
  5
5E3
100
AcDbEntity
  8
0
100
AcDbPolyline
 62
7
  6
CONTINUOUS
 90
10
 70
0
 10
-13.1817306943
 20
17.6937456339
 10
-13.1422586905
 20
17.7038471218
 10
-13.1016464559
 20
17.7099899142
 10
-13.0598939903
 20
17.7121740112
 10
-13.0168150443
 20
17.7103751621
 10
-12.9725958675
 20
17.7046176175
 10
-12.9277952082
 20
17.6949741291
 10
-12.8825993159
 20
17.6814689475
 10
-12.8368219413
 20
17.6640778221
 10
-12.7904630842
 20
17.6428007529
  0
LINE
  5
5E4
100
AcDbEntity
  8
RACCORDO
100
AcDbLine
 62
7
  6
CONTINUOUS
 10
-6.6174020804
 20
17.5373572462
 11
-6.7347852364
 21
17.5097347526
  0
LINE
  5
5E5
100
AcDbEntity
  8
RACCORDO
100
AcDbLine
 62
250
  6
CONTINUOUS
 10
-6.6535867052
 20
17.4969861141
 11
-6.5508682773
 21
17.5202918843
  0
LWPOLYLINE
  5
5E6
100
AcDbEntity
  8
0
100
AcDbPolyline
 62
7
  6
CONTINUOUS
 90
7
 70
0
 10
-15.8801327054
 20
16.3916111899
 10
-15.8681287484
 20
16.3941234649
 10
-15.8557791924
 20
16.3949281302
 10
-15.8430840375
 20
16.3940251858
 10
-15.8300432837
 20
16.3914146317
 10
-15.816656931
 20
16.3870964679
 10
-15.8029249793
 20
16.3810706943
  0
LWPOLYLINE
  5
5E7
100
AcDbEntity
  8
RACCORDO
100
AcDbPolyline
 62
250
  6
CONTINUOUS
 90
20
 70
0
 10
-6.5508682773
 20
17.5202918843
 10
-6.4461984135
 20
17.5409310117
 10
-6.3395612249
 20
17.5588829767
 10
-6.2309726003
 20
17.574168299
 10
-6.1212640907
 20
17.5866696551
 10
-6.0104282
 20
17.5963654268
 10
-5.8984724243
 20
17.6032772324
 10
-5.7862508032
 20
17.6073526036
 10
-5.6737619795
 20
17.6085698937
 10
-5.5610073104
 20
17.6069507493
 10
-5.4488449075
 20
17.6025076431
 10
-5.3372789967
 20
17.5952190777
 10
-5.226305352
 20
17.5851065504
 10
-5.1167694071
 20
17.572247025
 10
-5.0086809316
 20
17.5566198579
 10
-4.9020301559
 20
17.5382456926
 10
-4.7976332041
 20
17.5172634238
 10
-4.6957621176
 20
17.4937193497
 10
-4.596144855
 20
17.467567172
 10
-4.4987814163
 20
17.4388068909
  0
LWPOLYLINE
  5
5E8
100
AcDbEntity
  8
ASSI
100
AcDbPolyline
 62
7
  6
CONTINUOUS
 90
3
 70
0
 10
-12.2142784417
 20
18.1889601447
 10
-12.2589913006
 20
18.1837047138
 10
-12.3054214081
 20
18.1744352093
  0
LWPOLYLINE
  5
5E9
100
AcDbEntity
  8
RACCORDO
100
AcDbPolyline
 62
7
  6
CONTINUOUS
 90
10
 70
0
 10
-2.46337829
 20
19.1938132269
 10
-2.4489609192
 20
19.1922733239
 10
-2.3081802687
 20
19.1641841461
 10
-2.1658068362
 20
19.1227890793
 10
-2.0222979467
 20
19.0680860717
 10
-1.8783656338
 20
19.0001876121
 10
-1.7358273908
 20
18.9199487887
 10
-1.5954912009
 20
18.8279922888
 10
-1.4576916062
 20
18.724674792
 10
-1.3606961103
 20
18.6424721371
  0
LWPOLYLINE
  5
5EA
100
AcDbEntity
  8
ASSI
100
AcDbPolyline
 62
7
  6
CONTINUOUS
 90
8
 70
0
 10
-2.4588591732
 20
19.1915536685
 10
-2.4136006399
 20
19.1864388548
 10
-2.2197899384
 20
19.1400027807
 10
-2.0227434692
 20
19.068275905
 10
-1.8246221622
 20
18.9714661753
 10
-1.6299091109
 20
18.8517597019
 10
-1.4408024047
 20
18.7110904729
 10
-1.365383022
 20
18.6448155929
  0
LWPOLYLINE
  5
5EB
100
AcDbEntity
  8
ASSI
100
AcDbPolyline
 62
250
  6
CONTINUOUS
 90
9
 70
0
 10
-2.3488474531
 20
19.1365478085
 10
-2.3293321882
 20
19.1314267259
 10
-2.2155532322
 20
19.0927602108
 10
-2.1051628767
 20
19.0470588358
 10
-1.9990889599
 20
18.9956435515
 10
-1.8971861363
 20
18.9393426311
 10
-1.8002169057
 20
18.8794395048
 10
-1.7087920214
 20
18.8172257198
 10
-1.7058631936
 20
18.8150556787
  0
LWPOLYLINE
  5
5EC
100
AcDbEntity
  8
RACCORDO
100
AcDbPolyline
 62
250
  6
CONTINUOUS
 90
9
 70
0
 10
-2.3488474531
 20
19.1365478085
 10
-2.3293321882
 20
19.1314267259
 10
-2.2155532322
 20
19.0927602108
 10
-2.1051628767
 20
19.0470588358
 10
-1.9990889599
 20
18.9956435515
 10
-1.8971861363
 20
18.9393426311
 10
-1.8002169057
 20
18.8794395048
 10
-1.7087920214
 20
18.8172257198
 10
-1.7058631936
 20
18.8150556787
  0
LWPOLYLINE
  5
5ED
100
AcDbEntity
  8
RACCORDO
100
AcDbPolyline
 62
250
  6
CONTINUOUS
 90
6
 70
0
 10
-4.165437815
 20
21.542101871
 10
-4.2031847129
 20
21.5548533625
 10
-4.2439489712
 20
21.5598639914
 10
-4.2870484939
 20
21.5570499162
 10
-4.3317621103
 20
21.5464582241
 10
-4.3773416413
 20
21.5282661425
  0
LWPOLYLINE
  5
5EE
100
AcDbEntity
  8
ASSI
100
AcDbPolyline
 62
250
  6
CONTINUOUS
 90
6
 70
0
 10
-4.1620394392
 20
21.540498058
 10
-4.2031847129
 20
21.5548533625
 10
-4.2439489712
 20
21.5598639914
 10
-4.2870484939
 20
21.5570499162
 10
-4.3317621103
 20
21.5464582241
 10
-4.3773416413
 20
21.5282661425
  0
LWPOLYLINE
  5
5EF
100
AcDbEntity
  8
RACCORDO
100
AcDbPolyline
 62
7
  6
CONTINUOUS
 90
7
 70
0
 10
-4.1991027348
 20
21.5572431488
 10
-4.2505523672
 20
21.5755091896
 10
-4.3031633307
 20
21.5886202384
 10
-4.3564904925
 20
21.5965181106
 10
-4.4100881701
 20
21.5991683392
 10
-4.4632785237
 20
21.5965826182
 10
-4.5155304799
 20
21.5888709257
  0
LWPOLYLINE
  5
5F0
100
AcDbEntity
  8
ASSI
100
AcDbPolyline
 62
7
  6
CONTINUOUS
 90
4
 70
0
 10
-4.1620476908
 20
21.5404812985
 10
-4.2158170832
 20
21.5637872672
 10
-4.2944975307
 20
21.5868312755
 10
-4.374670665
 20
21.5980061437
  0
LINE
  5
5F1
100
AcDbEntity
  8
RACCORDO
100
AcDbLine
 62
7
  6
CONTINUOUS
 10
-4.1605904364
 20
21.5397679904
 11
-4.1991027348
 21
21.5572431488
  0
LINE
  5
5F2
100
AcDbEntity
  8
0
100
AcDbLine
 62
250
  6
CONTINUOUS
 10
-5.5485330248
 20
-28.4460769618
 11
-5.1510291525
 21
-28.2624965008
  0
LINE
  5
5F3
100
AcDbEntity
  8
RACCORDO
100
AcDbLine
 62
7
  6
CONTINUOUS
 10
-4.5155304799
 20
21.5888709257
 11
-4.5665247042
 21
21.576170696
  0
LWPOLYLINE
  5
5F4
100
AcDbEntity
  8
ASSI
100
AcDbPolyline
 62
7
  6
CONTINUOUS
 90
4
 70
0
 10
-4.374670665
 20
21.5980061437
 10
-4.4548063221
 20
21.5973456656
 10
-4.5336287558
 20
21.5849652736
 10
-4.609321587
 20
21.5612760493
  0
LINE
  5
5F5
100
AcDbEntity
  8
0
100
AcDbLine
 62
7
  6
CONTINUOUS
 10
-5.6844448737
 20
-28.7193496649
 11
-5.2861833209
 21
-28.5354192819
  0
LWPOLYLINE
  5
5F6
100
AcDbEntity
  8
0
100
AcDbPolyline
 62
250
  6
CONTINUOUS
 90
10
 70
0
 10
-5.5485330248
 20
-28.4460769618
 10
-5.5686135955
 20
-28.4542234278
 10
-5.5911936889
 20
-28.460524306
 10
-5.6156021413
 20
-28.4647924495
 10
-5.6411135915
 20
-28.4669011367
 10
-5.6669698223
 20
-28.4667878095
 10
-5.6924022942
 20
-28.4644559873
 10
-5.7166553091
 20
-28.4599751487
 10
-5.7390084579
 20
-28.4534785915
 10
-5.7587977976
 20
-28.4451594854
  0
LWPOLYLINE
  5
5F7
100
AcDbEntity
  8
RACCORDO
100
AcDbPolyline
 62
250
  6
CONTINUOUS
 90
11
 70
0
 10
-13.8465987455
 20
-31.8064646601
 10
-13.8381764817
 20
-31.8033546715
 10
-13.8072881559
 20
-31.7882672646
 10
-13.7786187585
 20
-31.7682045374
 10
-13.7524822092
 20
-31.7433862332
 10
-13.7291646724
 20
-31.7140841605
 10
-13.7089214341
 20
-31.6806192123
 10
-13.6919741202
 20
-31.643357869
 10
-13.6785082592
 20
-31.60270817
 10
-13.6686712536
 20
-31.5591152415
 10
-13.6625707713
 20
-31.5130564306
  0
LINE
  5
5F8
100
AcDbEntity
  8
RACCORDO
100
AcDbLine
 62
250
  6
CONTINUOUS
 10
-9.3069183298
 20
-30.0077106613
 11
-13.6625707713
 21
-31.5130564306
  0
LINE
  5
5F9
100
AcDbEntity
  8
RACCORDO
100
AcDbLine
 62
7
  6
CONTINUOUS
 10
-13.8469886453
 20
-31.806598992
 11
-9.4859404246
 21
-30.2993888218
  0
LWPOLYLINE
  5
5FA
100
AcDbEntity
  8
RACCORDO
100
AcDbPolyline
 62
250
  6
CONTINUOUS
 90
19
 70
0
 10
-13.6625707713
 20
-31.5130564306
 10
-13.6924846262
 20
-31.5218140529
 10
-13.7215459213
 20
-31.52733678
 10
-13.7497546564
 20
-31.529624612
 10
-13.7773068834
 20
-31.5286510987
 10
-13.8040065504
 20
-31.5244426903
 10
-13.8292655023
 20
-31.5170787371
 10
-13.8530409147
 20
-31.5064914951
 10
-13.8753756119
 20
-31.4927487085
 10
-13.8958099121
 20
-31.4761329594
 10
-13.9143047352
 20
-31.456584025
 10
-13.9308991614
 20
-31.4341621283
 10
-13.9452507492
 20
-31.4093305202
 10
-13.9573134834
 20
-31.3820227047
 10
-13.9671333792
 20
-31.3523051778
 10
-13.9745060415
 20
-31.3208406795
 10
-13.9793633385
 20
-31.2878501229
 10
-13.9817734019
 20
-31.2531125949
 10
-13.9817362317
 20
-31.2166280953
  0
ELLIPSE
  5
5FB
100
AcDbEntity
  8
0
100
AcDbEllipse
 62
7
  6
CONTINUOUS
 10
-20.5659031263
 20
17.3768531618
 30
0.0
 11
-0.2237009107
 21
0.4473351135
 31
0.0
 40
0.6121897086
 41
-0.6846338794
 42
0.019016077
  0
ELLIPSE
  5
5FC
100
AcDbEntity
  8
0
100
AcDbEllipse
 62
7
  6
CONTINUOUS
 10
-5.5046363992
 20
-28.0855609675
 30
0.0
 11
-0.2237009107
 21
0.4473351135
 31
0.0
 40
0.6121897086
 41
-3.1606090686
 42
-2.2557347926
  0
ELLIPSE
  5
5FD
100
AcDbEntity
  8
0
100
AcDbEllipse
 62
7
  6
CONTINUOUS
 10
-5.5046363992
 20
9.8462197983
 30
0.0
 11
-0.2235807756
 21
0.4472283268
 31
0.0
 40
0.6125552124
 41
-2.255296188
 42
-0.6848044477
  0
ELLIPSE
  5
5FE
100
AcDbEntity
  8
RACCORDO
100
AcDbEllipse
 62
7
  6
CONTINUOUS
 10
-6.7724576215
 20
-0.9180102105
 30
0.0
 11
0.2005561681
 21
-0.0021295538
 31
0.0
 40
0.4891526878
 41
3.9294042501
 42
5.4828773916
  0
ELLIPSE
  5
5FF
100
AcDbEntity
  8
RACCORDO
100
AcDbEllipse
 62
7
  6
CONTINUOUS
 10
-6.7724576215
 20
-19.1711935382
 30
0.0
 11
0.2005502732
 21
0.0036386004
 31
0.0
 40
0.5104433251
 41
-2.3682357028
 42
-0.8147625613
  0
ELLIPSE
  5
600
100
AcDbEntity
  8
RACCORDO
100
AcDbEllipse
 62
7
  6
CONTINUOUS
 10
-6.8785236386
 20
-19.1181605296
 30
0.0
 11
0.2005502732
 21
0.0036386004
 31
0.0
 40
0.5104433251
 41
-2.3682357028
 42
-0.8147625613
  0
ELLIPSE
  5
601
100
AcDbEntity
  8
DRAFT
100
AcDbEllipse
 62
7
  6
CONTINUOUS
 10
-9.9213154107
 20
10.6786616823
 30
0.0
 11
-0.1874317891
 21
0.5510210025
 31
0.0
 40
0.6669031534
 41
-2.8632939338
 42
0.1660758833
  0
ELLIPSE
  5
602
100
AcDbEntity
  8
DRAFT
100
AcDbEllipse
 62
7
  6
CONTINUOUS
 10
-17.6994900037
 20
14.5677489789
 30
0.0
 11
-0.1874317891
 21
0.5510210025
 31
0.0
 40
0.6669031534
 41
-2.8632939338
 42
0.1660758833
  0
ELLIPSE
  5
603
100
AcDbEntity
  8
RACCORDO
100
AcDbEllipse
 62
7
  6
CONTINUOUS
 10
-21.9426817553
 20
15.8726020334
 30
0.0
 11
-0.1828920694
 21
0.4656153856
 31
0.0
 40
0.6532976604
 41
-0.6278386123
 42
0.0271369703
  0
ELLIPSE
  5
604
100
AcDbEntity
  8
RACCORDO
100
AcDbEllipse
 62
7
  6
CONTINUOUS
 10
-7.0228363844
 20
8.412679348
 30
0.0
 11
-0.1826623061
 21
0.4654722043
 31
0.0
 40
0.6538654528
 41
-2.1982822863
 42
-0.6279428103
  0
ELLIPSE
  5
605
100
AcDbEntity
  8
RACCORDO
100
AcDbEllipse
 62
7
  6
CONTINUOUS
 10
-9.6605114941
 20
-29.8307028599
 30
0.0
 11
-0.1828920694
 21
0.4656153856
 31
0.0
 40
0.6532976604
 41
-3.1687296359
 42
-2.1990917899
  0
ELLIPSE
  5
606
100
AcDbEntity
  8
ASSI
100
AcDbEllipse
 62
7
  6
CONTINUOUS
 10
-5.8601713425
 20
16.9530691273
 30
0.0
 11
2.6995028143
 21
-0.1108788769
 31
0.0
 40
0.4672909446
 41
8.676024155
 42
9.0250774624
  0
ELLIPSE
  5
607
100
AcDbEntity
  8
ASSI
100
AcDbEllipse
 62
7
  6
CONTINUOUS
 10
1.1775765391
 20
12.7101936115
 30
0.0
 11
2.6995028143
 21
-0.1108788769
 31
0.0
 40
0.4672909446
 41
8.676024155
 42
9.1717584558
  0
ELLIPSE
  5
608
100
AcDbEntity
  8
ASSI
100
AcDbEllipse
 62
7
  6
CONTINUOUS
 10
7.044134943
 20
14.3352803078
 30
0.0
 11
0.5078963414
 21
0.3040339819
 31
0.0
 40
0.0955345833
 41
0.0608564282
 42
0.7281223435
  0
ELLIPSE
  5
609
100
AcDbEntity
  8
ASSI
100
AcDbEllipse
 62
7
  6
CONTINUOUS
 10
0.4004200581
 20
19.167712456
 30
0.0
 11
0.2031585365
 21
0.1216135928
 31
0.0
 40
0.0955345833
 41
0.0608565573
 42
0.7281223435
  0
ELLIPSE
  5
60A
100
AcDbEntity
  8
ASSI
100
AcDbEllipse
 62
7
  6
CONTINUOUS
 10
1.8846833203
 20
12.1368928342
 30
0.0
 11
2.7999338239
 21
-0.0393479794
 31
0.0
 40
0.4892375088
 41
0.7268246302
 42
2.1371003781
  0
ELLIPSE
  5
60B
100
AcDbEntity
  8
ASSI
100
AcDbEllipse
 62
7
  6
CONTINUOUS
 10
-5.1863844916
 20
16.3652470631
 30
0.0
 11
2.7999338239
 21
-0.0393479794
 31
0.0
 40
0.4892375088
 41
7.194789037
 42
8.4190700833
  0
ELLIPSE
  5
60C
100
AcDbEntity
  8
ASSI
100
AcDbEllipse
 62
7
  6
CONTINUOUS
 10
1.8846833203
 20
13.0183605339
 30
0.0
 11
2.7994844001
 21
-0.114985502
 31
0.0
 40
0.4672909446
 41
0.295419578
 42
2.1494162078
  0
ELLIPSE
  5
60D
100
AcDbEntity
  8
ASSI
100
AcDbEllipse
 62
7
  6
CONTINUOUS
 10
-5.1863844916
 20
17.2467147629
 30
0.0
 11
2.7994844001
 21
-0.114985502
 31
0.0
 40
0.4672909446
 41
0.4989599013
 42
2.1482006058
  0
ELLIPSE
  5
60E
100
AcDbEntity
  8
ASSI
100
AcDbEllipse
 62
7
  6
CONTINUOUS
 10
-5.5263405842
 20
14.3880228938
 30
0.0
 11
0.1677841941
 21
0.4740861062
 31
0.0
 40
0.4918293396
 41
-0.0609724642
 42
0.6062934277
  0
ELLIPSE
  5
60F
100
AcDbEntity
  8
ASSI
100
AcDbEllipse
 62
7
  6
CONTINUOUS
 10
3.0855222684
 20
16.7820309177
 30
0.0
 11
-0.1448885327
 21
0.2419034652
 31
0.0
 40
0.5487841728
 41
4.6863149424
 42
6.2396579766
  0
ELLIPSE
  5
610
100
AcDbEntity
  8
ASSI
100
AcDbEllipse
 62
7
  6
CONTINUOUS
 10
-3.9812934821
 20
20.8911249535
 30
0.0
 11
-0.3622213317
 21
0.604758663
 31
0.0
 40
0.5487841728
 41
4.6863149424
 42
6.2396579766
  0
ELLIPSE
  5
611
100
AcDbEntity
  8
DRAFT
100
AcDbEllipse
 62
7
  6
CONTINUOUS
 10
-5.8601713425
 20
16.9530691273
 30
0.0
 11
2.6995028143
 21
-0.1108788769
 31
0.0
 40
0.4672909446
 41
2.3928388478
 42
2.7418921552
  0
ELLIPSE
  5
612
100
AcDbEntity
  8
DRAFT
100
AcDbEllipse
 62
7
  6
CONTINUOUS
 10
1.1775765391
 20
12.7101936115
 30
0.0
 11
2.6995028143
 21
-0.1108788769
 31
0.0
 40
0.4672909446
 41
2.3928388478
 42
2.8885731487
  0
ELLIPSE
  5
613
100
AcDbEntity
  8
DRAFT
100
AcDbEllipse
 62
7
  6
CONTINUOUS
 10
1.8846833203
 20
12.1368928342
 30
0.0
 11
2.7999338239
 21
-0.0393479794
 31
0.0
 40
0.4892375088
 41
0.7268246302
 42
2.1371003781
  0
ELLIPSE
  5
614
100
AcDbEntity
  8
DRAFT
100
AcDbEllipse
 62
7
  6
CONTINUOUS
 10
-5.1863844916
 20
16.3652470631
 30
0.0
 11
2.7999338239
 21
-0.0393479794
 31
0.0
 40
0.4892375088
 41
7.194789037
 42
8.4190700833
  0
ELLIPSE
  5
615
100
AcDbEntity
  8
RACCORDO
100
AcDbEllipse
 62
7
  6
CONTINUOUS
 10
7.044134943
 20
14.3352803078
 30
0.0
 11
0.5078963414
 21
0.3040339819
 31
0.0
 40
0.0955345833
 41
0.0608564282
 42
0.7281223435
  0
ELLIPSE
  5
616
100
AcDbEntity
  8
RACCORDO
100
AcDbEllipse
 62
7
  6
CONTINUOUS
 10
0.4004200581
 20
19.167712456
 30
0.0
 11
0.2031585365
 21
0.1216135928
 31
0.0
 40
0.0955345833
 41
0.0608565573
 42
0.7281223435
  0
ELLIPSE
  5
617
100
AcDbEntity
  8
RACCORDO
100
AcDbEllipse
 62
7
  6
CONTINUOUS
 10
-3.9812934821
 20
20.8911249535
 30
0.0
 11
-0.3622213317
 21
0.604758663
 31
0.0
 40
0.5487841728
 41
4.6863149424
 42
6.2396579766
  0
ELLIPSE
  5
618
100
AcDbEntity
  8
DRAFT
100
AcDbEllipse
 62
7
  6
CONTINUOUS
 10
1.8846833203
 20
13.0183605339
 30
0.0
 11
2.7994844001
 21
-0.114985502
 31
0.0
 40
0.4672909446
 41
0.295419578
 42
2.1494162078
  0
ELLIPSE
  5
619
100
AcDbEntity
  8
DRAFT
100
AcDbEllipse
 62
7
  6
CONTINUOUS
 10
-5.1863844916
 20
17.2467147629
 30
0.0
 11
2.7994844001
 21
-0.114985502
 31
0.0
 40
0.4672909446
 41
0.4989599013
 42
2.1482006058
  0
ELLIPSE
  5
61A
100
AcDbEntity
  8
0
100
AcDbEllipse
 62
7
  6
CONTINUOUS
 10
-10.0654212818
 20
12.8195249065
 30
0.0
 11
-0.0894247358
 21
0.1789148665
 31
0.0
 40
0.6123537661
 41
-3.1520643271
 42
-2.2553513767
  0
ELLIPSE
  5
61B
100
AcDbEntity
  8
RACCORDO
100
AcDbEllipse
 62
7
  6
CONTINUOUS
 10
3.0855222684
 20
16.7820309177
 30
0.0
 11
-0.1448885327
 21
0.2419034652
 31
0.0
 40
0.5487841728
 41
4.6863149424
 42
6.2396579766
  0
ELLIPSE
  5
61C
100
AcDbEntity
  8
RACCORDO
100
AcDbEllipse
 62
7
  6
CONTINUOUS
 10
-5.5263405842
 20
14.3880228938
 30
0.0
 11
0.1677841941
 21
0.4740861062
 31
0.0
 40
0.4918293396
 41
-0.0609724642
 42
0.6062934277
  0
ENDSEC
  0
SECTION
  2
OBJECTS
  0
DICTIONARY
  5
C
100
AcDbDictionary
280
0
281
1
  3
ACAD_GROUP
350
D
  3
ACAD_MLINESTYLE
350
17
  3
ACAD_LAYOUT
350
1A
  3
ACAD_PLOTSETTINGS
350
19
  3
ACAD_PLOTSTYLENAME
350
E
  0
DICTIONARY
  5
D
102
{ACAD_REACTORS
330
C
102
}
100
AcDbDictionary
280
0
281
1
  0
ACDBDICTIONARYWDFLT
  5
E
102
{ACAD_REACTORS
330
C
102
}
100
AcDbDictionary
281
1
  3
Normal
350
F
100
AcDbDictionaryWithDefault
340
F
  0
DICTIONARY
  5
17
102
{ACAD_REACTORS
330
C
102
}
100
AcDbDictionary
280
0
281
1
  3
Standard
350
18
  0
DICTIONARY
  5
19
102
{ACAD_REACTORS
330
C
102
}
100
AcDbDictionary
281
1
  0
DICTIONARY
  5
1A
102
{ACAD_REACTORS
330
C
102
}
100
AcDbDictionary
281
1
  3
Model
350
61D
  3
Layout1
350
61E
  0
ACDBPLACEHOLDER
  5
F
102
{ACAD_REACTORS
330
E
102
}
  0
MLINESTYLE
  5
18
102
{ACAD_REACTORS
330
17
102
}
100
AcDbMlineStyle
  2
STANDARD
 70
0
  3

 62
256
 51
90.0
 52
90.0
 71
2
 49
0.5
 62
256
  6
BYLAYER
 49
-0.5
 62
256
  6
BYLAYER
  0
LAYOUT
  5
61D
102
{ACAD_REACTORS
330
1A
102
}
100
AcDbPlotSettings
  1

  2
none_device
  4
ANSI_A_(11.00_x_8.50_Inches)
  6

 40
0.0
 41
0.0
 42
0.0
 43
0.0
 44
279.4
 45
215.9
 46
0.0
 47
0.0
 48
0.0
 49
0.0
140
0.0
141
0.0
142
1.0
143
1.0
 70
1024
 72
1
 73
0
 74
0
  7

 75
0
147
1.0
148
0.0
149
0.0
100
AcDbLayout
  1
Model
 70
0
 71
0
 10
0.0
 20
0.0
 11
279.4
 21
215.9
 12
0.0
 22
0.0
 32
0.0
 14
0.0
 24
0.0
 34
0.0
 15
0.0
 25
0.0
 35
0.0
146
0.0
 13
0.0
 23
0.0
 33
0.0
 16
1.0
 26
0.0
 36
0.0
 17
0.0
 27
1.0
 37
0.0
 76
0
330
21F
345
0
346
0
  0
LAYOUT
  5
61E
102
{ACAD_REACTORS
330
1A
102
}
100
AcDbPlotSettings
  1

  2
none_device
  4
ANSI_A_(11.00_x_8.50_Inches)
  6

 40
0.0
 41
0.0
 42
0.0
 43
0.0
 44
279.4
 45
215.9
 46
0.0
 47
0.0
 48
0.0
 49
0.0
140
0.0
141
0.0
142
1.0
143
1.0
 70
0
 72
1
 73
0
 74
0
  7

 75
0
147
1.0
148
0.0
149
0.0
100
AcDbLayout
  1
Layout1
 70
0
 71
1
 10
0.0
 20
0.0
 11
279.4
 21
215.9
 12
0.0
 22
0.0
 32
0.0
 14
0.0
 24
0.0
 34
0.0
 15
0.0
 25
0.0
 35
0.0
146
0.0
 13
0.0
 23
0.0
 33
0.0
 16
1.0
 26
0.0
 36
0.0
 17
0.0
 27
1.0
 37
0.0
 76
0
330
220
345
0
346
0
  0
ENDSEC
  0
EOF
