  0
SECTION
  2
HEADER
  9
$ACADVER
  1
AC1024
  9
$DWGCODEPAGE
  3
ANSI_1252
  9
$EXTMAX
 10
279.4
 20
215.9
 30
0.0
  9
$EXTMIN
 10
0.0
 20
0.0
 30
0.0
  9
$LIMMIN
 10
0.0
 20
0.0
  9
$LIMMAX
 10
279.4
 20
215.9
  9
$VIEWCTR
 10
139.7
 20
107.95
  9
$VIEWSIZE
 40
215.9
  9
$CLAYER
  8
0
  9
$LTSCALE
 40
15.367
  9
$CELTYPE
  6
BYLAYER
  9
$DIMSCALE
 40
1.0
  9
$DIMASZ
 40
3.0
  9
$DIMEXO
 40
0.5
  9
$DIMDLI
 40
10.6172
  9
$DIMEXE
 40
1.5
  9
$DIMCEN
 40
2.5146
  9
$DIMLFAC
 40
1.0
  9
$DIMBLK
  1
_FILLED
  9
$DIMALT
 70
0
  9
$DIMALTF
 40
0.0393700787
  9
$DIMTXT
 40
3.0
  9
$DIMTOL
 70
1
  9
$DIMLIM
 70
0
  9
$DIMTFAC
 40
1.0
  9
$DIMTP
 40
0.01
  9
$DIMTM
 40
0.01
  9
$DIMGAP
 40
0.625
  9
$DIMDSEP
 70
44
  9
$AUNITS
 70
0
  9
$PDMODE
 70
3
  9
$PDSIZE
 40
3.0
  9
$HANDSEED
  5
40F
  9
$TILEMODE
 70
1
  9
$MEASUREMENT
 70
1
  9
$INSUNITS
 70
4
  0
ENDSEC
  0
SECTION
  2
CLASSES
  0
CLASS
  1
ACDBDICTIONARYWDFLT
  2
AcDbDictionaryWithDefault
  3
AutoCAD 2000
 90
0
 91
1
280
0
281
0
  0
CLASS
  1
ACDBPLACEHOLDER
  2
AcDbPlaceHolder
  3
AutoCAD 2000
 90
0
 91
1
280
0
281
0
  0
CLASS
  1
LAYOUT
  2
AcDbLayout
  3
AutoCAD 2000
 90
0
 91
0
280
0
281
0
  0
ENDSEC
  0
SECTION
  2
TABLES
  0
TABLE
  2
VPORT
  5
8
100
AcDbSymbolTable
 70
2
  0
VPORT
  5
1F4
100
AcDbSymbolTableRecord
100
AcDbViewportTableRecord
  2
*ACTIVE
 70
0
 10
0.0
 20
0.0
 11
1.0
 21
1.0
 12
139.7
 22
107.95
 13
0.0
 23
0.0
 14
1.0
 24
1.0
 15
0.0
 25
0.0
 16
0.0
 26
0.0
 36
1.0
 17
0.0
 27
0.0
 37
0.0
 40
215.9
 41
1.2941176471
 42
50.0
 43
0.0
 44
0.0
 50
0.0
 51
0.0
 71
0
 72
100
 73
1
 74
1
 75
0
 76
0
 77
0
 78
0
  0
ENDTAB
  0
TABLE
  2
LTYPE
  5
5
100
AcDbSymbolTable
 70
6
  0
LTYPE
  5
14
100
AcDbSymbolTableRecord
100
AcDbLinetypeTableRecord
  2
BYBLOCK
 70
0
  3

 72
65
 73
0
 40
0.0
  0
LTYPE
  5
15
100
AcDbSymbolTableRecord
100
AcDbLinetypeTableRecord
  2
BYLAYER
 70
0
  3

 72
65
 73
0
 40
0.0
  0
LTYPE
  5
16
100
AcDbSymbolTableRecord
100
AcDbLinetypeTableRecord
  2
CONTINUOUS
 70
64
  3
Solid line
 72
65
 73
0
 40
0.0
  0
LTYPE
  5
1F5
100
AcDbSymbolTableRecord
100
AcDbLinetypeTableRecord
  2
CENTER
 70
64
  3
____ _ ____ _ ____ _ ____ _ ____ _ ____ _ ____
 72
65
 73
4
 40
0.6
 49
0.375
 74
0
 49
-0.075
 74
0
 49
0.075
 74
0
 49
-0.075
 74
0
  0
LTYPE
  5
1F6
100
AcDbSymbolTableRecord
100
AcDbLinetypeTableRecord
  2
HIDDEN
 70
64
  3
- - - - - - - - - - - - - - - - - - - -
 72
65
 73
2
 40
0.2
 49
0.1
 74
0
 49
-0.1
 74
0
  0
LTYPE
  5
1F7
100
AcDbSymbolTableRecord
100
AcDbLinetypeTableRecord
  2
PHANTOM
 70
64
  3
_____ _ _ _____ _ _ _____ _ _ _____
 72
65
 73
6
 40
0.8
 49
0.45
 74
0
 49
-0.05
 74
0
 49
0.1
 74
0
 49
-0.05
 74
0
 49
0.1
 74
0
 49
-0.05
 74
0
  0
LTYPE
  5
1F8
100
AcDbSymbolTableRecord
100
AcDbLinetypeTableRecord
  2
DOT
 70
64
  3
. . . . . . . . . . . . . . . . . . . .
 72
65
 73
2
 40
0.2
 49
0.1
 74
0
 49
-0.1
 74
0
  0
LTYPE
  5
1F9
100
AcDbSymbolTableRecord
100
AcDbLinetypeTableRecord
  2
DASHED
 70
64
  3
- - - - - - - - - - - - - - - - - - - -
 72
65
 73
2
 40
0.2
 49
0.1
 74
0
 49
-0.1
 74
0
  0
ENDTAB
  0
TABLE
  2
LAYER
  5
2
100
AcDbSymbolTable
 70
36
  0
LAYER
  5
10
100
AcDbSymbolTableRecord
100
AcDbLayerTableRecord
  2
0
 70
0
 62
7
  6
CONTINUOUS
370
-3
390
F
  0
LAYER
  5
1FA
100
AcDbSymbolTableRecord
100
AcDbLayerTableRecord
  2
DEFAULT_1
 70
0
 62
7
  6
CENTER
370
-3
390
F
  0
LAYER
  5
1FB
100
AcDbSymbolTableRecord
100
AcDbLayerTableRecord
  2
DEFAULT_2
 70
0
 62
7
  6
HIDDEN
370
-3
390
F
  0
LAYER
  5
1FC
100
AcDbSymbolTableRecord
100
AcDbLayerTableRecord
  2
DEFAULT_3
 70
0
 62
7
  6
PHANTOM
370
-3
390
F
  0
LAYER
  5
1FD
100
AcDbSymbolTableRecord
100
AcDbLayerTableRecord
  2
ASSI
 70
0
 62
7
  6
CONTINUOUS
370
-3
390
F
  0
LAYER
  5
1FE
100
AcDbSymbolTableRecord
100
AcDbLayerTableRecord
  2
COORDINATE
 70
0
 62
7
  6
CONTINUOUS
370
-3
390
F
  0
LAYER
  5
1FF
100
AcDbSymbolTableRecord
100
AcDbLayerTableRecord
  2
COORD_ORIGINE
 70
0
 62
7
  6
CONTINUOUS
370
-3
390
F
  0
LAYER
  5
200
100
AcDbSymbolTableRecord
100
AcDbLayerTableRecord
  2
COPY_PUBLISH
 70
0
 62
7
  6
CONTINUOUS
370
-3
390
F
  0
LAYER
  5
201
100
AcDbSymbolTableRecord
100
AcDbLayerTableRecord
  2
COSMETIC
 70
0
 62
7
  6
CONTINUOUS
370
-3
390
F
  0
LAYER
  5
202
100
AcDbSymbolTableRecord
100
AcDbLayerTableRecord
  2
COSMETICHE
 70
0
 62
7
  6
CONTINUOUS
370
-3
390
F
  0
LAYER
  5
203
100
AcDbSymbolTableRecord
100
AcDbLayerTableRecord
  2
COSMETICI
 70
0
 62
7
  6
CONTINUOUS
370
-3
390
F
  0
LAYER
  5
204
100
AcDbSymbolTableRecord
100
AcDbLayerTableRecord
  2
CURVE
 70
0
 62
7
  6
CONTINUOUS
370
-3
390
F
  0
LAYER
  5
205
100
AcDbSymbolTableRecord
100
AcDbLayerTableRecord
  2
DRAFT
 70
0
 62
7
  6
CONTINUOUS
370
-3
390
F
  0
LAYER
  5
206
100
AcDbSymbolTableRecord
100
AcDbLayerTableRecord
  2
ESTENSIONE
 70
0
 62
7
  6
CONTINUOUS
370
-3
390
F
  0
LAYER
  5
207
100
AcDbSymbolTableRecord
100
AcDbLayerTableRecord
  2
IMPORT_FEATURES
 70
0
 62
7
  6
CONTINUOUS
370
-3
390
F
  0
LAYER
  5
208
100
AcDbSymbolTableRecord
100
AcDbLayerTableRecord
  2
IMPORT_IGES
 70
0
 62
7
  6
CONTINUOUS
370
-3
390
F
  0
LAYER
  5
209
100
AcDbSymbolTableRecord
100
AcDbLayerTableRecord
  2
INTFCLR_1
 70
0
 62
7
  6
CONTINUOUS
370
-3
390
F
  0
LAYER
  5
20A
100
AcDbSymbolTableRecord
100
AcDbLayerTableRecord
  2
INTF_1
 70
0
 62
7
  6
CONTINUOUS
370
-3
390
F
  0
LAYER
  5
20B
100
AcDbSymbolTableRecord
100
AcDbLayerTableRecord
  2
INTF_11
 70
0
 62
7
  6
CONTINUOUS
370
-3
390
F
  0
LAYER
  5
20C
100
AcDbSymbolTableRecord
100
AcDbLayerTableRecord
  2
INTF_12
 70
0
 62
7
  6
CONTINUOUS
370
-3
390
F
  0
LAYER
  5
20D
100
AcDbSymbolTableRecord
100
AcDbLayerTableRecord
  2
INTF_2
 70
0
 62
7
  6
CONTINUOUS
370
-3
390
F
  0
LAYER
  5
20E
100
AcDbSymbolTableRecord
100
AcDbLayerTableRecord
  2
INTF_6
 70
0
 62
7
  6
CONTINUOUS
370
-3
390
F
  0
LAYER
  5
20F
100
AcDbSymbolTableRecord
100
AcDbLayerTableRecord
  2
INTF_7
 70
0
 62
7
  6
CONTINUOUS
370
-3
390
F
  0
LAYER
  5
210
100
AcDbSymbolTableRecord
100
AcDbLayerTableRecord
  2
INTF_8
 70
0
 62
7
  6
CONTINUOUS
370
-3
390
F
  0
LAYER
  5
211
100
AcDbSymbolTableRecord
100
AcDbLayerTableRecord
  2
NOTE
 70
0
 62
7
  6
CONTINUOUS
370
-3
390
F
  0
LAYER
  5
212
100
AcDbSymbolTableRecord
100
AcDbLayerTableRecord
  2
PIANI
 70
0
 62
7
  6
CONTINUOUS
370
-3
390
F
  0
LAYER
  5
213
100
AcDbSymbolTableRecord
100
AcDbLayerTableRecord
  2
PIANI_ORIGINE
 70
0
 62
7
  6
CONTINUOUS
370
-3
390
F
  0
LAYER
  5
214
100
AcDbSymbolTableRecord
100
AcDbLayerTableRecord
  2
PUNTI
 70
0
 62
7
  6
CONTINUOUS
370
-3
390
F
  0
LAYER
  5
215
100
AcDbSymbolTableRecord
100
AcDbLayerTableRecord
  2
RACCORDO
 70
0
 62
7
  6
CONTINUOUS
370
-3
390
F
  0
LAYER
  5
216
100
AcDbSymbolTableRecord
100
AcDbLayerTableRecord
  2
RGB__255__255__255__
 70
0
 62
7
  6
CONTINUOUS
370
-3
390
F
  0
LAYER
  5
217
100
AcDbSymbolTableRecord
100
AcDbLayerTableRecord
  2
RGB____0____0____0__
 70
0
 62
7
  6
CONTINUOUS
370
-3
390
F
  0
LAYER
  5
218
100
AcDbSymbolTableRecord
100
AcDbLayerTableRecord
  2
SMUSSO
 70
0
 62
7
  6
CONTINUOUS
370
-3
390
F
  0
LAYER
  5
219
100
AcDbSymbolTableRecord
100
AcDbLayerTableRecord
  2
SNAPLINE
 70
0
 62
7
  6
CONTINUOUS
370
-3
390
F
  0
LAYER
  5
21A
100
AcDbSymbolTableRecord
100
AcDbLayerTableRecord
  2
SUPERFICI
 70
0
 62
7
  6
CONTINUOUS
370
-3
390
F
  0
LAYER
  5
21B
100
AcDbSymbolTableRecord
100
AcDbLayerTableRecord
  2
TRASH
 70
0
 62
7
  6
CONTINUOUS
370
-3
390
F
  0
LAYER
  5
21C
100
AcDbSymbolTableRecord
100
AcDbLayerTableRecord
  2
XSEC_DATUMS
 70
0
 62
7
  6
CONTINUOUS
370
-3
390
F
  0
ENDTAB
  0
TABLE
  2
STYLE
  5
3
100
AcDbSymbolTable
 70
1
  0
STYLE
  5
11
100
AcDbSymbolTableRecord
100
AcDbTextStyleTableRecord
  2
STANDARD
 70
0
 40
0.0
 41
0.8
 50
0.0
 71
0
 42
0.2
  3
txt
  4

  0
STYLE
  5
21D
100
AcDbSymbolTableRecord
100
AcDbTextStyleTableRecord
  2
TEXTSTYLE_1
 70
0
 40
0.0
 41
0.8
 50
0.0
 71
0
 42
0.2
  3
gdt
  4

  0
ENDTAB
  0
TABLE
  2
VIEW
  5
6
100
AcDbSymbolTable
 70
0
  0
ENDTAB
  0
TABLE
  2
UCS
  5
7
100
AcDbSymbolTable
 70
0
  0
ENDTAB
  0
TABLE
  2
APPID
  5
9
100
AcDbSymbolTable
 70
1
  0
APPID
  5
21E
100
AcDbSymbolTableRecord
100
AcDbRegAppTableRecord
  2
ACAD
 70
0
  0
ENDTAB
  0
TABLE
  2
BLOCK_RECORD
  5
1
100
AcDbSymbolTable
 70
0
  0
BLOCK_RECORD
  5
21F
100
AcDbSymbolTableRecord
100
AcDbBlockTableRecord
  2
*Model_Space
  0
BLOCK_RECORD
  5
220
100
AcDbSymbolTableRecord
100
AcDbBlockTableRecord
  2
*Paper_Space
  0
BLOCK_RECORD
  5
221
100
AcDbSymbolTableRecord
100
AcDbBlockTableRecord
  2
_FILLED
  0
ENDTAB
  0
TABLE
  2
DIMSTYLE
  5
A
100
AcDbSymbolTable
 70
1
100
AcDbDimStyleTable
 71
0
  0
DIMSTYLE
105
222
100
AcDbSymbolTableRecord
100
AcDbDimStyleTableRecord
  2
STANDARD
 70
0
  3

  4

 40
1.0
 41
3.0
 42
0.5
 43
0.38
 44
1.5
 45
0.0
 46
0.0
 47
0.01
 48
0.01
140
3.0
141
0.09
142
0.0
143
25.4
144
1.0
145
0.0
146
1.0
147
0.625
 71
1
 72
0
 73
0
 74
0
 75
0
 76
0
 77
1
 78
8
 79
2
170
0
171
1
172
0
173
0
174
0
175
0
176
0
177
0
178
0
270
2
179
2
271
2
272
2
273
2
274
2
275
0
280
0
281
0
282
0
283
1
284
8
285
0
286
0
287
3
288
0
340
11
278
44
341
221
342
221
343
221
344
221
  0
ENDTAB
  0
ENDSEC
  0
SECTION
  2
BLOCKS
  0
BLOCK
  5
20
100
AcDbEntity
  8
0
100
AcDbBlockBegin
  2
*Model_Space
 70
0
 10
0.0
 20
0.0
 30
0.0
  3
*Model_Space
  1

  0
ENDBLK
  5
21
100
AcDbEntity
  8
0
100
AcDbBlockEnd
  0
BLOCK
  5
1C
100
AcDbEntity
  8
0
100
AcDbBlockBegin
  2
*Paper_Space
 70
0
 10
0.0
 20
0.0
 30
0.0
  3
*Paper_Space
  1

  0
ENDBLK
  5
1D
100
AcDbEntity
  8
0
100
AcDbBlockEnd
  0
BLOCK
  5
223
100
AcDbEntity
  8
0
100
AcDbBlockBegin
  2
_FILLED
 70
64
 10
0.0
 20
0.0
  3
_FILLED
  1

  0
SOLID
  5
224
100
AcDbEntity
  8
0
  6
BYBLOCK
 62
0
100
AcDbTrace
 10
0.0
 20
0.0
 11
-1.0
 21
0.3166666667
 12
-1.0
 22
-0.3166666667
 13
-1.0
 23
-0.3166666667
  0
ENDBLK
  5
225
100
AcDbEntity
  8
0
  6
BYBLOCK
 62
0
100
AcDbBlockEnd
  0
ENDSEC
  0
SECTION
  2
ENTITIES
  0
LWPOLYLINE
  5
226
100
AcDbEntity
  8
RACCORDO
100
AcDbPolyline
 62
7
  6
CONTINUOUS
 90
12
 70
0
 10
-12.3436261236
 20
-30.5392335655
 10
-12.2984099236
 20
-30.5598769013
 10
-12.233964951
 20
-30.5829066773
 10
-12.1666158671
 20
-30.5997166043
 10
-12.0969972749
 20
-30.609959291
 10
-12.0256934666
 20
-30.6133848287
 10
-11.9531353935
 20
-30.6097907425
 10
-11.879822177
 20
-30.5990174835
 10
-11.8063889971
 20
-30.5810128603
 10
-11.7332488606
 20
-30.5557172243
 10
-11.6607523125
 20
-30.5230502351
 10
-11.6409385569
 20
-30.5127510604
  0
LINE
  5
227
100
AcDbEntity
  8
RACCORDO
100
AcDbLine
 62
250
  6
CONTINUOUS
 10
-12.6008547358
 20
-30.0915845709
 11
-27.3585593598
 21
-22.7127322589
  0
LINE
  5
228
100
AcDbEntity
  8
RACCORDO
100
AcDbLine
 62
7
  6
CONTINUOUS
 10
-27.1051347784
 20
-23.1584869616
 11
-12.3434042352
 21
-30.5393522748
  0
LWPOLYLINE
  5
229
100
AcDbEntity
  8
RACCORDO
100
AcDbPolyline
 62
250
  6
CONTINUOUS
 90
8
 70
0
 10
-27.3585428535
 20
-22.7127217454
 10
-27.3932105992
 20
-22.6932185022
 10
-27.4237424356
 20
-22.6715262825
 10
-27.4498112394
 20
-22.6478775004
 10
-27.4711377053
 20
-22.6225255329
 10
-27.487493338
 20
-22.5957420052
 10
-27.4987029005
 20
-22.5678138806
 10
-27.5049064874
 20
-22.5365623753
  0
LINE
  5
22A
100
AcDbEntity
  8
RACCORDO
100
AcDbLine
 62
7
  6
CONTINUOUS
 10
-27.5049064874
 20
-22.5365623753
 11
-27.5049361592
 21
-22.5362537763
  0
LINE
  5
22B
100
AcDbEntity
  8
RACCORDO
100
AcDbLine
 62
250
  6
CONTINUOUS
 10
-27.7045627004
 20
-18.9099257872
 11
-27.3585593598
 21
-22.7127322589
  0
LWPOLYLINE
  5
22C
100
AcDbEntity
  8
RACCORDO
100
AcDbPolyline
 62
250
  6
CONTINUOUS
 90
9
 70
0
 10
-29.4087452431
 20
12.1704991782
 10
-29.2993332271
 20
8.2245647104
 10
-29.1602882237
 20
4.2953578949
 10
-28.991621969
 20
0.3832140724
 10
-28.7933487745
 20
-3.5115328108
 10
-28.5654855203
 20
-7.3885503508
 10
-28.3080516506
 20
-11.2475077129
 10
-28.0210691811
 20
-15.0880755009
 10
-27.7045627004
 20
-18.9099257872
  0
LWPOLYLINE
  5
22D
100
AcDbEntity
  8
RACCORDO
100
AcDbPolyline
 62
7
  6
CONTINUOUS
 90
10
 70
0
 10
-29.5551897718
 20
12.3474727401
 10
-29.4490631044
 20
8.5061156503
 10
-29.3097037851
 20
4.548355144
 10
-29.1402959413
 20
0.6078502742
 10
-28.9408538314
 20
-3.3150117284
 10
-28.7113943331
 20
-7.2199111006
 10
-28.4519341032
 20
-11.106553691
 10
-28.1624924593
 20
-14.9746214676
 10
-27.8430988198
 20
-18.8237365818
 10
-27.5049511921
 20
-22.5362552177
  0
LWPOLYLINE
  5
22E
100
AcDbEntity
  8
RACCORDO
100
AcDbPolyline
 62
250
  6
CONTINUOUS
 90
17
 70
0
 10
-28.890727001
 20
13.2951825808
 10
-28.9465424744
 20
13.2450846914
 10
-29.0006984579
 20
13.1901445725
 10
-29.0528137975
 20
13.1307471414
 10
-29.1025230704
 20
13.0673202577
 10
-29.1494733321
 20
13.0003130792
 10
-29.1933403037
 20
12.9301856019
 10
-29.2338305456
 20
12.8574199616
 10
-29.2706606829
 20
12.7825199576
 10
-29.3035697948
 20
12.7060075271
 10
-29.3323343864
 20
12.6284129754
 10
-29.3567530593
 20
12.5502715253
 10
-29.3766502895
 20
12.4721310333
 10
-29.3918877415
 20
12.3945465715
 10
-29.4023596863
 20
12.3180618779
 10
-29.4079919661
 20
12.2432056939
 10
-29.4087452431
 20
12.1704991782
  0
LWPOLYLINE
  5
22F
100
AcDbEntity
  8
RACCORDO
100
AcDbPolyline
 62
250
  6
CONTINUOUS
 90
11
 70
0
 10
-27.3585593598
 20
-22.7127322589
 10
-27.349599725
 20
-22.7796541928
 10
-27.3358465651
 20
-22.8429720841
 10
-27.3173958216
 20
-22.9022439993
 10
-27.2943769824
 20
-22.9570572547
 10
-27.2669503456
 20
-23.0070271149
 10
-27.2353075692
 20
-23.0518013838
 10
-27.1996748394
 20
-23.0910659201
 10
-27.1603008839
 20
-23.1245506573
 10
-27.1174537753
 20
-23.1520274198
 10
-27.1051347784
 20
-23.1584869616
  0
LWPOLYLINE
  5
230
100
AcDbEntity
  8
RACCORDO
100
AcDbPolyline
 62
7
  6
CONTINUOUS
 90
12
 70
0
 10
-27.5049064874
 20
-22.5365623753
 10
-27.4994429477
 20
-22.5822060439
 10
-27.4841282787
 20
-22.6625454277
 10
-27.4623442661
 20
-22.7382210744
 10
-27.4347009102
 20
-22.8087382343
 10
-27.4016169328
 20
-22.8741639453
 10
-27.3632075076
 20
-22.9348621268
 10
-27.3200244592
 20
-22.9903727439
 10
-27.2725361926
 20
-23.040470033
 10
-27.2205471618
 20
-23.0854767558
 10
-27.1645511942
 20
-23.1249356126
 10
-27.105110275
 20
-23.1584895402
  0
LWPOLYLINE
  5
231
100
AcDbEntity
  8
RACCORDO
100
AcDbPolyline
 62
250
  6
CONTINUOUS
 90
3
 70
0
 10
-28.775697933
 20
13.3795159943
 10
-28.8336449863
 20
13.3400964822
 10
-28.890727001
 20
13.2951825808
  0
LWPOLYLINE
  5
232
100
AcDbEntity
  8
RACCORDO
100
AcDbPolyline
 62
7
  6
CONTINUOUS
 90
15
 70
0
 10
-29.0105925789
 20
13.3870347407
 10
-29.021236336
 20
13.3801498413
 10
-29.0926964048
 20
13.328571189
 10
-29.1607584656
 20
13.2699247019
 10
-29.225046376
 20
13.2046478913
 10
-29.2846900501
 20
13.1337582252
 10
-29.3396369067
 20
13.0574902361
 10
-29.389590299
 20
12.9761500793
 10
-29.433567155
 20
12.8913350848
 10
-29.4714067742
 20
12.8033854183
 10
-29.5028353646
 20
12.7126231411
 10
-29.5271465778
 20
12.6208085368
 10
-29.5440995802
 20
12.5286664009
 10
-29.5535544875
 20
12.4359682997
 10
-29.5551750405
 20
12.3474571809
  0
LINE
  5
233
100
AcDbEntity
  8
RACCORDO
100
AcDbLine
 62
7
  6
CONTINUOUS
 10
-24.7928304026
 20
16.0774623802
 11
-29.0107027458
 21
13.3869818022
  0
LINE
  5
234
100
AcDbEntity
  8
RACCORDO
100
AcDbLine
 62
250
  6
CONTINUOUS
 10
-24.5595156253
 20
16.0689185388
 11
-28.775697933
 21
13.3795159943
  0
LWPOLYLINE
  5
235
100
AcDbEntity
  8
RACCORDO
100
AcDbPolyline
 62
7
  6
CONTINUOUS
 90
21
 70
0
 10
-18.2898268524
 20
15.3876894149
 10
-18.3302865473
 20
15.3592581494
 10
-18.3688321716
 20
15.3251973314
 10
-18.4048340407
 20
15.2851175409
 10
-18.4367898352
 20
15.23973081
 10
-18.4636057382
 20
15.1899413709
 10
-18.4847606599
 20
15.1361465949
 10
-18.4996612361
 20
15.0792698245
 10
-18.5079169318
 20
15.0208814739
 10
-18.5095864884
 20
14.9607013046
 10
-18.5045541869
 20
14.8997495381
 10
-18.4933760917
 20
14.8409358578
 10
-18.4765034016
 20
14.7840203566
 10
-18.4540102372
 20
14.7286920023
 10
-18.427102148
 20
14.6772652024
 10
-18.3961491085
 20
14.6296185247
 10
-18.3609342965
 20
14.5852431993
 10
-18.3228648081
 20
14.5457158974
 10
-18.2828075892
 20
14.5113951417
 10
-18.2404466588
 20
14.4816636396
 10
-18.1959393945
 20
14.4565559589
  0
LINE
  5
236
100
AcDbEntity
  8
DRAFT
100
AcDbLine
 62
7
  6
CONTINUOUS
 10
-17.8964837459
 20
15.6331057098
 11
-18.2898081355
 21
15.3877010941
  0
LWPOLYLINE
  5
237
100
AcDbEntity
  8
RACCORDO
100
AcDbPolyline
 62
250
  6
CONTINUOUS
 90
13
 70
0
 10
-6.8525980068
 20
-23.4007544673
 10
-6.8331684497
 20
-23.4090976093
 10
-6.8117102656
 20
-23.4158212359
 10
-6.7885825677
 20
-23.420812824
 10
-6.7641724092
 20
-23.4239888369
 10
-6.7388883062
 20
-23.4252961225
 10
-6.7131534004
 20
-23.4247128027
 10
-6.6873983781
 20
-23.4222486396
 10
-6.662054262
 20
-23.4179448723
 10
-6.6375451985
 20
-23.4118735265
 10
-6.6142813586
 20
-23.4041362092
 10
-6.592652074
 20
-23.3948624081
 10
-6.5730193215
 20
-23.3842073249
  0
LWPOLYLINE
  5
238
100
AcDbEntity
  8
RACCORDO
100
AcDbPolyline
 62
250
  6
CONTINUOUS
 90
10
 70
0
 10
-17.4732394109
 20
15.9812916099
 10
-17.4683560479
 20
16.0105883692
 10
-17.4600621763
 20
16.0403047369
 10
-17.4485669912
 20
16.069690893
 10
-17.4341604681
 20
16.0980053333
 10
-17.4172060717
 20
16.124533536
 10
-17.398131601
 20
16.1486060046
 10
-17.3774183588
 20
16.1696152248
 10
-17.355588997
 20
16.1870309865
 10
-17.3331943595
 20
16.20041373
  0
LWPOLYLINE
  5
239
100
AcDbEntity
  8
RACCORDO
100
AcDbPolyline
 62
7
  6
CONTINUOUS
 90
7
 70
0
 10
-18.2011172775
 20
15.910875559
 10
-18.6677313836
 20
15.6633010168
 10
-19.1434297082
 20
15.3856072012
 10
-19.6098494757
 20
15.0870603734
 10
-20.0666258771
 20
14.7678911994
 10
-20.5134027078
 20
14.4283315085
 10
-20.8022318039
 20
14.1902766281
  0
LINE
  5
23A
100
AcDbEntity
  8
DRAFT
100
AcDbLine
 62
7
  6
CONTINUOUS
 10
-17.6057191007
 20
16.2123380957
 11
-18.2115551408
 21
15.9056089583
  0
LINE
  5
23B
100
AcDbEntity
  8
RACCORDO
100
AcDbLine
 62
250
  6
CONTINUOUS
 10
-17.0013902768
 20
16.4952012388
 11
-17.5535880213
 21
16.2158415756
  0
LINE
  5
23C
100
AcDbEntity
  8
RACCORDO
100
AcDbLine
 62
250
  6
CONTINUOUS
 10
-16.786331296
 20
16.4770780931
 11
-17.3331943576
 21
16.2004137292
  0
LINE
  5
23D
100
AcDbEntity
  8
RACCORDO
100
AcDbLine
 62
7
  6
CONTINUOUS
 10
-18.2012593849
 20
15.9108157966
 11
-18.2116167764
 21
15.9055777528
  0
LINE
  5
23E
100
AcDbEntity
  8
RACCORDO
100
AcDbLine
 62
7
  6
CONTINUOUS
 10
-17.6057017335
 20
16.2123025943
 11
-17.4619712953
 21
16.283728098
  0
LINE
  5
23F
100
AcDbEntity
  8
0
100
AcDbLine
 62
7
  6
CONTINUOUS
 10
-17.6168902543
 20
16.2066832694
 11
-17.171899385
 21
16.4199535562
  0
LINE
  5
240
100
AcDbEntity
  8
0
100
AcDbLine
 62
7
  6
CONTINUOUS
 10
-12.5437656719
 20
18.0280738127
 11
-14.0020919454
 21
17.3364709817
  0
LINE
  5
241
100
AcDbEntity
  8
DRAFT
100
AcDbLine
 62
7
  6
CONTINUOUS
 10
-15.3137644899
 20
15.74079469
 11
-15.2228746736
 21
15.7831732037
  0
LWPOLYLINE
  5
242
100
AcDbEntity
  8
RACCORDO
100
AcDbPolyline
 62
250
  6
CONTINUOUS
 90
8
 70
0
 10
-17.6075903263
 20
15.9894784561
 10
-18.1062609311
 20
15.7583916091
 10
-18.5955432926
 20
15.5058456731
 10
-19.0754374109
 20
15.2318406481
 10
-19.5463404497
 20
14.9361116312
 10
-20.0078552454
 20
14.6189235253
 10
-20.4587903063
 20
14.2810710394
 10
-20.6585299927
 20
14.1184257225
  0
LWPOLYLINE
  5
243
100
AcDbEntity
  8
RACCORDO
100
AcDbPolyline
 62
250
  6
CONTINUOUS
 90
3
 70
0
 10
-17.5535880213
 20
16.2158415756
 10
-18.0549528104
 20
15.9835747555
 10
-18.2012593849
 20
15.9108157966
  0
LINE
  5
244
100
AcDbEntity
  8
RACCORDO
100
AcDbLine
 62
7
  6
CONTINUOUS
 10
-17.4619712953
 20
16.283728098
 11
-17.0013902768
 21
16.4952012388
  0
LINE
  5
245
100
AcDbEntity
  8
0
100
AcDbLine
 62
7
  6
CONTINUOUS
 10
-13.2903038063
 20
18.1112715449
 11
-14.5381633717
 21
17.5464015691
  0
LINE
  5
246
100
AcDbEntity
  8
0
100
AcDbLine
 62
7
  6
CONTINUOUS
 10
-14.5381633717
 20
17.5464015691
 11
-16.1218570083
 21
16.8297833357
  0
LINE
  5
247
100
AcDbEntity
  8
0
100
AcDbLine
 62
250
  6
CONTINUOUS
 10
-15.958117876
 20
16.8826797728
 11
-13.1165524647
 21
18.1677385293
  0
LINE
  5
248
100
AcDbEntity
  8
0
100
AcDbLine
 62
250
  6
CONTINUOUS
 10
-15.5652539682
 20
16.8325970699
 11
-12.723223062
 21
18.1178025078
  0
LINE
  5
249
100
AcDbEntity
  8
0
100
AcDbLine
 62
7
  6
CONTINUOUS
 10
-16.6553707636
 20
16.6532053215
 11
-14.3143116798
 21
17.7102800783
  0
LINE
  5
24A
100
AcDbEntity
  8
0
100
AcDbLine
 62
7
  6
CONTINUOUS
 10
-16.0034012088
 20
16.9310306189
 11
-16.6492555139
 21
16.6396621346
  0
LINE
  5
24B
100
AcDbEntity
  8
0
100
AcDbLine
 62
7
  6
CONTINUOUS
 10
-13.7700207959
 20
17.9383389915
 11
-16.0034012088
 21
16.9310306189
  0
LINE
  5
24C
100
AcDbEntity
  8
RACCORDO
100
AcDbLine
 62
7
  6
CONTINUOUS
 10
-12.3316664973
 20
18.557824006
 11
-13.7479377718
 21
17.919063029
  0
LINE
  5
24D
100
AcDbEntity
  8
RACCORDO
100
AcDbLine
 62
250
  6
CONTINUOUS
 10
-12.1137619078
 20
18.5409543209
 11
-12.913267318
 21
18.1803669298
  0
LINE
  5
24E
100
AcDbEntity
  8
RACCORDO
100
AcDbLine
 62
7
  6
CONTINUOUS
 10
-13.7329873195
 20
17.2019186688
 11
-13.475482045
 21
17.3166619963
  0
LINE
  5
24F
100
AcDbEntity
  8
RACCORDO
100
AcDbLine
 62
250
  6
CONTINUOUS
 10
-13.6847170546
 20
17.1777835363
 11
-13.3916105715
 21
17.308390621
  0
LINE
  5
250
100
AcDbEntity
  8
RACCORDO
100
AcDbLine
 62
250
  6
CONTINUOUS
 10
-13.475482045
 20
17.3166619963
 11
-13.4754048338
 21
17.3166963468
  0
LINE
  5
251
100
AcDbEntity
  8
0
100
AcDbLine
 62
7
  6
CONTINUOUS
 10
-17.171899385
 20
16.4199535562
 11
-16.6492555139
 21
16.6396621346
  0
LWPOLYLINE
  5
252
100
AcDbEntity
  8
RACCORDO
100
AcDbPolyline
 62
250
  6
CONTINUOUS
 90
7
 70
0
 10
-12.1137619113
 20
18.5409543227
 10
-12.0837141173
 20
18.5531188885
 10
-12.0539677249
 20
18.562007248
 10
-12.0247392639
 20
18.5675525648
 10
-11.9962396463
 20
18.5697122863
 10
-11.96867904
 20
18.5684678819
 10
-11.9422645665
 20
18.5638275489
  0
LINE
  5
253
100
AcDbEntity
  8
RACCORDO
100
AcDbLine
 62
7
  6
CONTINUOUS
 10
-13.4602341497
 20
17.3227196257
 11
-13.4754048338
 21
17.3166963468
  0
LINE
  5
254
100
AcDbEntity
  8
0
100
AcDbLine
 62
7
  6
CONTINUOUS
 10
-12.5573460117
 20
17.0684111273
 11
-12.7017293476
 21
17.011409963
  0
LWPOLYLINE
  5
255
100
AcDbEntity
  8
RACCORDO
100
AcDbPolyline
 62
7
  6
CONTINUOUS
 90
6
 70
0
 10
-13.7700207959
 20
17.9383389915
 10
-13.8990177573
 20
17.8874308773
 10
-14.0272680244
 20
17.8349078688
 10
-14.1547715973
 20
17.780769966
 10
-14.2815363119
 20
17.7250134964
 10
-14.3143116069
 20
17.7102799227
  0
LWPOLYLINE
  5
256
100
AcDbEntity
  8
RACCORDO
100
AcDbPolyline
 62
7
  6
CONTINUOUS
 90
7
 70
0
 10
-12.331666497
 20
18.5578240061
 10
-12.2802363279
 20
18.5776845166
 10
-12.2263782922
 20
18.5918767324
 10
-12.1708919402
 20
18.6000256904
 10
-12.1148276062
 20
18.601908861
 10
-12.0588575959
 20
18.5974936636
 10
-12.0032706696
 20
18.5867139915
  0
LWPOLYLINE
  5
257
100
AcDbEntity
  8
0
100
AcDbPolyline
 62
7
  6
CONTINUOUS
 90
12
 70
0
 10
-16.2560296679
 20
16.4836779788
 10
-16.289957734
 20
16.4711866646
 10
-16.3230986593
 20
16.4651376251
 10
-16.3579735308
 20
16.4645609055
 10
-16.3945256161
 20
16.4692774588
 10
-16.4315323128
 20
16.4791295247
 10
-16.4690089982
 20
16.4942908137
 10
-16.506940295
 20
16.5145876153
 10
-16.5440574684
 20
16.5393410374
 10
-16.5799376069
 20
16.5683247826
 10
-16.6150036221
 20
16.6017651484
 10
-16.6492555139
 20
16.6396621346
  0
LWPOLYLINE
  5
258
100
AcDbEntity
  8
RACCORDO
100
AcDbPolyline
 62
7
  6
CONTINUOUS
 90
10
 70
0
 10
-17.0013902768
 20
16.4952012388
 10
-16.9800789872
 20
16.5029075918
 10
-16.9580272723
 20
16.5081759818
 10
-16.9352351321
 20
16.5110064087
 10
-16.9115767171
 20
16.5113882672
 10
-16.8871778767
 20
16.5093321627
 10
-16.8624161595
 20
16.5048699114
 10
-16.8374174151
 20
16.4980121187
 10
-16.812055794
 20
16.4887481793
 10
-16.786331296
 20
16.4770780931
  0
LINE
  5
259
100
AcDbEntity
  8
0
100
AcDbLine
 62
7
  6
CONTINUOUS
 10
-13.2903038063
 20
18.1112715449
 11
-13.2325173294
 21
18.1304076803
  0
LINE
  5
25A
100
AcDbEntity
  8
0
100
AcDbLine
 62
7
  6
CONTINUOUS
 10
-16.1218570083
 20
16.8297833357
 11
-16.0674106307
 21
16.8476873341
  0
LINE
  5
25B
100
AcDbEntity
  8
0
100
AcDbLine
 62
7
  6
CONTINUOUS
 10
-10.754270097
 20
17.5401434598
 11
-11.2156163984
 21
17.3906290056
  0
LINE
  5
25C
100
AcDbEntity
  8
0
100
AcDbLine
 62
7
  6
CONTINUOUS
 10
-13.2325173294
 20
18.1304076803
 11
-13.1746002156
 21
18.1492300084
  0
LINE
  5
25D
100
AcDbEntity
  8
0
100
AcDbLine
 62
7
  6
CONTINUOUS
 10
-16.0674106307
 20
16.8476873341
 11
-16.012830883
 21
16.8653194916
  0
LWPOLYLINE
  5
25E
100
AcDbEntity
  8
RACCORDO
100
AcDbPolyline
 62
250
  6
CONTINUOUS
 90
6
 70
0
 10
-13.4754048338
 20
17.3166963468
 10
-13.4602401764
 20
17.3215186023
 10
-13.4440586034
 20
17.32306175
 10
-13.4270311652
 20
17.3213554898
 10
-13.4094477237
 20
17.316435228
 10
-13.3916105715
 20
17.308390621
  0
LINE
  5
25F
100
AcDbEntity
  8
0
100
AcDbLine
 62
7
  6
CONTINUOUS
 10
-13.1746002156
 20
18.1492300084
 11
-13.1165524647
 21
18.1677385293
  0
LINE
  5
260
100
AcDbEntity
  8
0
100
AcDbLine
 62
7
  6
CONTINUOUS
 10
-16.012830883
 20
16.8653194916
 11
-15.9581177651
 21
16.8826798081
  0
LINE
  5
261
100
AcDbEntity
  8
RACCORDO
100
AcDbLine
 62
7
  6
CONTINUOUS
 10
-7.2659789113
 20
-18.8782836006
 11
-7.3720449285
 21
-18.825250592
  0
LWPOLYLINE
  5
262
100
AcDbEntity
  8
RACCORDO
100
AcDbPolyline
 62
250
  6
CONTINUOUS
 90
10
 70
0
 10
-7.0381320798
 20
-24.1876269233
 10
-7.0164623952
 20
-24.2120685248
 10
-6.9915902606
 20
-24.2334716316
 10
-6.9641851879
 20
-24.2512601113
 10
-6.9349848713
 20
-24.2649551307
 10
-6.9047753294
 20
-24.2741880449
 10
-6.8743697475
 20
-24.2787103207
 10
-6.8445865876
 20
-24.2784002265
 10
-6.8162275578
 20
-24.2732661095
 10
-6.7900560307
 20
-24.2634461705
  0
LINE
  5
263
100
AcDbEntity
  8
RACCORDO
100
AcDbLine
 62
250
  6
CONTINUOUS
 10
-9.1270932752
 20
15.1761319728
 11
-9.4004165812
 21
15.0356332996
  0
LINE
  5
264
100
AcDbEntity
  8
0
100
AcDbLine
 62
250
  6
CONTINUOUS
 10
-7.5559821697
 20
15.5341820617
 11
-10.3682206828
 21
14.2340804272
  0
LINE
  5
265
100
AcDbEntity
  8
0
100
AcDbLine
 62
7
  6
CONTINUOUS
 10
-7.7354395598
 20
15.6239107567
 11
-9.2456047314
 21
14.9582273747
  0
LWPOLYLINE
  5
266
100
AcDbEntity
  8
RACCORDO
100
AcDbPolyline
 62
250
  6
CONTINUOUS
 90
9
 70
0
 10
-9.1270932752
 20
15.1761319728
 10
-9.1147788611
 20
15.1813667243
 10
-9.1025769513
 20
15.1852342496
 10
-9.0905804095
 20
15.1877051146
 10
-9.0788805367
 20
15.1887605144
 10
-9.0675663761
 20
15.188392417
 10
-9.0567240351
 20
15.1866036236
 10
-9.0464360306
 20
15.1834077482
 10
-9.0402404054
 20
15.1806653541
  0
LWPOLYLINE
  5
267
100
AcDbEntity
  8
RACCORDO
100
AcDbPolyline
 62
250
  6
CONTINUOUS
 90
26
 70
0
 10
-17.8316114722
 20
14.4303711812
 10
-17.8244219557
 20
14.4330239758
 10
-17.7933764423
 20
14.4482616151
 10
-17.7650159427
 20
14.4686728907
 10
-17.7396762213
 20
14.4940224076
 10
-17.7176408905
 20
14.5240204519
 10
-17.6991419085
 20
14.5583440452
 10
-17.6843786925
 20
14.5966223784
 10
-17.6735130787
 20
14.6384398401
 10
-17.6666662857
 20
14.6833357882
 10
-17.6639142767
 20
14.730815461
 10
-17.6652873028
 20
14.7803580232
 10
-17.6707703036
 20
14.8314203417
 10
-17.6803025606
 20
14.8834398036
 10
-17.6937783806
 20
14.935844044
 10
-17.7110497923
 20
14.9880603179
 10
-17.7319283076
 20
15.0395190573
 10
-17.7561872863
 20
15.0896598885
 10
-17.7835591872
 20
15.1379289692
 10
-17.8137380359
 20
15.1837891444
 10
-17.8463896431
 20
15.226736928
 10
-17.8811568688
 20
15.2663058447
 10
-17.9176576788
 20
15.3020636586
 10
-17.9554914846
 20
15.3336208818
 10
-17.9942436565
 20
15.3606348068
 10
-18.0334898285
 20
15.3828124896
  0
LINE
  5
268
100
AcDbEntity
  8
DRAFT
100
AcDbLine
 62
7
  6
CONTINUOUS
 10
-17.4758522
 20
14.5542079141
 11
-17.8316093352
 21
14.4303719251
  0
LINE
  5
269
100
AcDbEntity
  8
DRAFT
100
AcDbLine
 62
7
  6
CONTINUOUS
 10
-5.396015006
 20
-18.1119858524
 11
-5.5020810232
 21
-18.0589528439
  0
LWPOLYLINE
  5
26A
100
AcDbEntity
  8
0
100
AcDbPolyline
 62
7
  6
CONTINUOUS
 90
11
 70
0
 10
-16.1218570083
 20
16.8297833357
 10
-16.1185668756
 20
16.7807249852
 10
-16.1192015138
 20
16.7344149373
 10
-16.1237609229
 20
16.6908531922
 10
-16.1323850153
 20
16.6496105607
 10
-16.1449338785
 20
16.6111162319
 10
-16.1609877754
 20
16.5766577729
 10
-16.1806652649
 20
16.5463716985
 10
-16.2038477881
 20
16.5201214939
 10
-16.2297599306
 20
16.498785182
 10
-16.2560296679
 20
16.4836779788
  0
LWPOLYLINE
  5
26B
100
AcDbEntity
  8
RACCORDO
100
AcDbPolyline
 62
250
  6
CONTINUOUS
 90
9
 70
0
 10
-14.5458381478
 20
0.8478171695
 10
-14.4099503029
 20
-3.0798110676
 10
-14.2433888205
 20
-6.9909025044
 10
-14.0461680121
 20
-10.8851231945
 10
-13.8183047579
 20
-14.7621407343
 10
-13.559818502
 20
-18.621624289
 10
-13.2707312601
 20
-22.4632444627
 10
-12.951067621
 20
-26.2866733276
 10
-12.6008547358
 20
-30.0915845709
  0
LINE
  5
26C
100
AcDbEntity
  8
RACCORDO
100
AcDbLine
 62
250
  6
CONTINUOUS
 10
-14.6510406191
 20
4.7916468662
 11
-14.5458381478
 21
0.8478171695
  0
LINE
  5
26D
100
AcDbEntity
  8
0
100
AcDbLine
 62
7
  6
CONTINUOUS
 10
-15.4326114756
 20
15.8880416047
 11
-15.4338455471
 21
15.8008352186
  0
LWPOLYLINE
  5
26E
100
AcDbEntity
  8
RACCORDO
100
AcDbPolyline
 62
250
  6
CONTINUOUS
 90
14
 70
0
 10
-11.955400103
 20
9.8507175905
 10
-11.9066229618
 20
9.9314567347
 10
-11.8220745314
 20
10.0496325688
 10
-11.7309925466
 20
10.157271172
 10
-11.6332952943
 20
10.2542309373
 10
-11.5290644878
 20
10.3406534718
 10
-11.4197159052
 20
10.4154481863
 10
-11.3051871241
 20
10.4784571098
 10
-11.1855405671
 20
10.5298382133
 10
-11.0623792801
 20
10.5689748209
 10
-10.9356674345
 20
10.5957060839
 10
-10.805440859
 20
10.6101928511
 10
-10.6734100849
 20
10.6123009922
 10
-10.5395598152
 20
10.6018762962
  0
LWPOLYLINE
  5
26F
100
AcDbEntity
  8
RACCORDO
100
AcDbPolyline
 62
250
  6
CONTINUOUS
 90
10
 70
0
 10
-9.7393022356
 20
12.0557948986
 10
-9.7211322032
 20
12.0727042976
 10
-9.6997794361
 20
12.0903712079
 10
-9.6758015598
 20
12.1083342601
 10
-9.6498247542
 20
12.1261243506
 10
-9.622527401
 20
12.143276893
 10
-9.5946223679
 20
12.1593439502
 10
-9.5668383921
 20
12.1739059327
 10
-9.5399010494
 20
12.1865825557
 10
-9.514513806
 20
12.1970427704
  0
LINE
  5
270
100
AcDbEntity
  8
0
100
AcDbLine
 62
7
  6
CONTINUOUS
 10
-6.5159150473
 20
15.420965935
 11
-6.831554355
 21
15.198597984
  0
LWPOLYLINE
  5
271
100
AcDbEntity
  8
RACCORDO
100
AcDbPolyline
 62
7
  6
CONTINUOUS
 90
21
 70
0
 10
-10.5116522593
 20
11.4986021183
 10
-10.5521119542
 20
11.4701708528
 10
-10.5906575785
 20
11.4361100349
 10
-10.6266594476
 20
11.3960302444
 10
-10.6586152421
 20
11.3506435135
 10
-10.6854311452
 20
11.3008540744
 10
-10.7065860669
 20
11.2470592983
 10
-10.721486643
 20
11.1901825279
 10
-10.7297423387
 20
11.1317941774
 10
-10.7314118953
 20
11.0716140081
 10
-10.7263795939
 20
11.0106622416
 10
-10.7152014987
 20
10.9518485613
 10
-10.6983288085
 20
10.89493306
 10
-10.6758356441
 20
10.8396047058
 10
-10.6489275549
 20
10.7881779059
 10
-10.6179745154
 20
10.7405312282
 10
-10.5827597034
 20
10.6961559028
 10
-10.5446902151
 20
10.6566286009
 10
-10.5046329961
 20
10.6223078451
 10
-10.4622720658
 20
10.5925763431
 10
-10.4177648014
 20
10.5674686624
  0
LINE
  5
272
100
AcDbEntity
  8
RACCORDO
100
AcDbLine
 62
7
  6
CONTINUOUS
 10
-6.7131903334
 20
14.3910638995
 11
-5.4828921572
 21
15.2255194456
  0
LINE
  5
273
100
AcDbEntity
  8
DRAFT
100
AcDbLine
 62
7
  6
CONTINUOUS
 10
-10.1183091528
 20
11.7440184132
 11
-10.5116335425
 21
11.4986137976
  0
LINE
  5
274
100
AcDbEntity
  8
DRAFT
100
AcDbLine
 62
7
  6
CONTINUOUS
 10
-10.646859734
 20
13.4073423121
 11
-10.5621027065
 21
13.4527872202
  0
LINE
  5
275
100
AcDbEntity
  8
RACCORDO
100
AcDbLine
 62
7
  6
CONTINUOUS
 10
-11.3966802462
 20
10.1335921291
 11
-11.396232398
 21
10.1338189851
  0
LINE
  5
276
100
AcDbEntity
  8
DRAFT
100
AcDbLine
 62
7
  6
CONTINUOUS
 10
-11.3962102366
 20
10.1338302052
 11
-12.0387326976
 21
9.808527075
  0
LINE
  5
277
100
AcDbEntity
  8
RACCORDO
100
AcDbLine
 62
250
  6
CONTINUOUS
 10
-9.721066218
 20
12.3943496594
 11
-9.1677515585
 21
12.6677882243
  0
LINE
  5
278
100
AcDbEntity
  8
RACCORDO
100
AcDbLine
 62
250
  6
CONTINUOUS
 10
-9.5145128819
 20
12.1970438092
 11
-8.955937427
 21
12.4731728394
  0
LWPOLYLINE
  5
279
100
AcDbEntity
  8
0
100
AcDbPolyline
 62
7
  6
CONTINUOUS
 90
10
 70
0
 10
-6.5289373084
 20
14.3177972477
 10
-6.8332142818
 20
14.1689792199
 10
-7.1385332964
 20
14.019863958
 10
-7.4448953996
 20
13.8704478063
 10
-7.7523070706
 20
13.7207257818
 10
-8.0607635791
 20
13.5706953303
 10
-8.3702492306
 20
13.4203571385
 10
-8.6807594617
 20
13.2697097453
 10
-8.9923005978
 20
13.1187487372
 10
-9.3048733815
 20
12.9674710685
  0
LWPOLYLINE
  5
27A
100
AcDbEntity
  8
RACCORDO
100
AcDbPolyline
 62
250
  6
CONTINUOUS
 90
37
 70
0
 10
-11.396232398
 20
10.1338189851
 10
-11.3640910515
 20
10.1495041586
 10
-11.25380401
 20
10.1948212707
 10
-11.1399667874
 20
10.2288268043
 10
-11.0230882155
 20
10.2513963312
 10
-10.9036549858
 20
10.2624728016
 10
-10.7822546893
 20
10.2619940167
 10
-10.6594357327
 20
10.249982595
 10
-10.5357239802
 20
10.2265254124
 10
-10.4116858326
 20
10.1917171849
 10
-10.2878933912
 20
10.1457228765
 10
-10.1648881696
 20
10.0887683435
 10
-10.0431947779
 20
10.0210936893
 10
-9.9233821099
 20
9.9429924498
 10
-9.8059963543
 20
9.8548233601
 10
-9.6915243618
 20
9.7569758609
 10
-9.5805258005
 20
9.6498743445
 10
-9.4735186912
 20
9.5339949305
 10
-9.3709157202
 20
9.4098528138
 10
-9.2732352768
 20
9.2779746795
 10
-9.1809621965
 20
9.1389482964
 10
-9.0944377344
 20
8.9934234963
 10
-9.014127278
 20
8.8420252716
 10
-8.9404523791
 20
8.685426027
 10
-8.8736557036
 20
8.5243837725
 10
-8.8141239423
 20
8.3595880143
 10
-8.7622024483
 20
8.1917817536
 10
-8.7180245596
 20
8.0218296972
 10
-8.6818827026
 20
7.8504831543
 10
-8.6540168183
 20
7.6785016438
 10
-8.63442299
 20
7.5067723117
 10
-8.6232799455
 20
7.3360560705
 10
-8.6207196417
 20
7.1671107285
 10
-8.6266062556
 20
7.0008101155
 10
-8.6409187028
 20
6.8379321349
 10
-8.6637530808
 20
6.6791572501
 10
-8.6950884457
 20
6.5251892305
  0
LINE
  5
27B
100
AcDbEntity
  8
RACCORDO
100
AcDbLine
 62
7
  6
CONTINUOUS
 10
2.7382758768
 20
16.9728420239
 11
-1.1199330154
 21
15.1431086914
  0
LINE
  5
27C
100
AcDbEntity
  8
0
100
AcDbLine
 62
250
  6
CONTINUOUS
 10
-7.1667763522
 20
15.1928504731
 11
-9.9794696969
 21
13.8933556832
  0
LWPOLYLINE
  5
27D
100
AcDbEntity
  8
0
100
AcDbPolyline
 62
7
  6
CONTINUOUS
 90
5
 70
0
 10
-8.5566638675
 20
14.2559369658
 10
-8.8711134312
 20
14.112457974
 10
-9.1864026726
 20
13.9684142811
 10
-9.502536722
 20
13.8237998219
 10
-9.8195179571
 20
13.6786138101
  0
LINE
  5
27E
100
AcDbEntity
  8
0
100
AcDbLine
 62
7
  6
CONTINUOUS
 10
-8.1290517258
 20
14.4507254185
 11
-8.5566638675
 21
14.2559369658
  0
LWPOLYLINE
  5
27F
100
AcDbEntity
  8
0
100
AcDbPolyline
 62
7
  6
CONTINUOUS
 90
5
 70
0
 10
-6.9970534367
 20
14.9646463601
 10
-7.3072946081
 20
14.8240697406
 10
-7.6183728159
 20
14.6829126087
 10
-7.9302909233
 20
14.5411738177
 10
-8.1290517258
 20
14.4507254185
  0
LINE
  5
280
100
AcDbEntity
  8
RACCORDO
100
AcDbLine
 62
7
  6
CONTINUOUS
 10
-4.3995722858
 20
14.9691655686
 11
1.4297078573
 21
17.5387221927
  0
LINE
  5
281
100
AcDbEntity
  8
RACCORDO
100
AcDbLine
 62
250
  6
CONTINUOUS
 10
-4.2795233824
 20
14.9091411169
 11
1.6437232581
 21
17.5201183333
  0
LINE
  5
282
100
AcDbEntity
  8
RACCORDO
100
AcDbLine
 62
250
  6
CONTINUOUS
 10
1.4297078573
 20
17.5387221927
 11
1.4297396211
 21
17.5387361908
  0
LWPOLYLINE
  5
283
100
AcDbEntity
  8
RACCORDO
100
AcDbPolyline
 62
250
  6
CONTINUOUS
 90
8
 70
0
 10
1.4297396211
 20
17.5387361908
 10
1.4379786435
 20
17.5421393896
 10
1.4693227154
 20
17.551288174
 10
1.5024536021
 20
17.5552545527
 10
1.5368653296
 20
17.5540101845
 10
1.5721188104
 20
17.5476429626
 10
1.6078678146
 20
17.5362850302
 10
1.6437232581
 20
17.5201183333
  0
LWPOLYLINE
  5
284
100
AcDbEntity
  8
RACCORDO
100
AcDbPolyline
 62
250
  6
CONTINUOUS
 90
19
 70
0
 10
-11.9021482507
 20
-30.0481245303
 10
-11.8975054378
 20
-30.0819420575
 10
-11.8905200637
 20
-30.1135821465
 10
-11.8811921283
 20
-30.1430447972
 10
-11.8694214065
 20
-30.1705112402
 10
-11.8553081234
 20
-30.195800245
 10
-11.8391529546
 20
-30.2183681202
 10
-11.8209183462
 20
-30.2381492985
 10
-11.800641852
 20
-30.2552093471
 10
-11.7787368086
 20
-30.2692012774
 10
-11.7551666689
 20
-30.280063328
 10
-11.72996798
 20
-30.2878572603
 10
-11.7036637194
 20
-30.2924213693
 10
-11.6762173732
 20
-30.2936815512
 10
-11.6476654552
 20
-30.29171191
 10
-11.618640485
 20
-30.2865730521
 10
-11.5893533024
 20
-30.2782851798
 10
-11.5595930676
 20
-30.2668280908
 10
-11.5293597806
 20
-30.2522017852
  0
LWPOLYLINE
  5
285
100
AcDbEntity
  8
RACCORDO
100
AcDbPolyline
 62
250
  6
CONTINUOUS
 90
11
 70
0
 10
-12.6008547358
 20
-30.0915845709
 10
-12.5918089795
 20
-30.1585363858
 10
-12.5778881123
 20
-30.2219330708
 10
-12.5591865865
 20
-30.2813316957
 10
-12.5358274541
 20
-30.3363239841
 10
-12.5079739874
 20
-30.386517231
 10
-12.4758337275
 20
-30.4315429099
 10
-12.4396397472
 20
-30.4710834237
 10
-12.3996385351
 20
-30.5048785985
 10
-12.356100209
 20
-30.53270309
 10
-12.3436915952
 20
-30.5392084445
  0
LWPOLYLINE
  5
286
100
AcDbEntity
  8
RACCORDO
100
AcDbPolyline
 62
250
  6
CONTINUOUS
 90
10
 70
0
 10
-13.9502839481
 20
4.8002236754
 10
-13.8451658021
 20
0.8598002455
 10
-13.7094197935
 20
-3.0637781345
 10
-13.5430459222
 20
-6.9705114647
 10
-13.3460245338
 20
-10.8607345921
 10
-13.1183752828
 20
-14.7341126697
 10
-12.8601571326
 20
-18.5896411564
 10
-12.5713897378
 20
-22.4269852052
 10
-12.2520534438
 20
-26.2464796632
 10
-11.9021482507
 20
-30.0481245303
  0
LWPOLYLINE
  5
287
100
AcDbEntity
  8
RACCORDO
100
AcDbPolyline
 62
250
  6
CONTINUOUS
 90
10
 70
0
 10
-11.5293597806
 20
-30.2522017852
 10
-11.5296664969
 20
-30.2956059477
 10
-11.5337732194
 20
-30.336559987
 10
-11.54163498
 20
-30.3746154627
 10
-11.5531656937
 20
-30.4093556735
 10
-11.5682391011
 20
-30.4404002193
 10
-11.5866901506
 20
-30.4674091675
 10
-11.6083168063
 20
-30.4900867741
 10
-11.6328822595
 20
-30.508184723
 10
-11.6407044691
 20
-30.5126467199
  0
LINE
  5
288
100
AcDbEntity
  8
RACCORDO
100
AcDbLine
 62
7
  6
CONTINUOUS
 10
-12.5591613953
 20
16.9401259868
 11
-12.5573460117
 21
17.0684111273
  0
LINE
  5
289
100
AcDbEntity
  8
0
100
AcDbLine
 62
7
  6
CONTINUOUS
 10
-12.5573460117
 20
17.0684111273
 11
-12.5437656719
 21
18.0280738127
  0
LINE
  5
28A
100
AcDbEntity
  8
0
100
AcDbLine
 62
7
  6
CONTINUOUS
 10
-11.2156163984
 20
17.3906290056
 11
-11.2283017661
 21
16.4942100541
  0
LWPOLYLINE
  5
28B
100
AcDbEntity
  8
RACCORDO
100
AcDbPolyline
 62
250
  6
CONTINUOUS
 90
10
 70
0
 10
-9.8611112713
 20
12.1752275402
 10
-9.8562276958
 20
12.204525221
 10
-9.8479334872
 20
12.2342422708
 10
-9.8364379397
 20
12.2636288166
 10
-9.8220311291
 20
12.2919433249
 10
-9.8050765937
 20
12.3184713144
 10
-9.7860021602
 20
12.3425433838
 10
-9.7652891485
 20
12.3635521045
 10
-9.7434602258
 20
12.380967347
 10
-9.721066218
 20
12.3943496594
  0
LWPOLYLINE
  5
28C
100
AcDbEntity
  8
RACCORDO
100
AcDbPolyline
 62
250
  6
CONTINUOUS
 90
19
 70
0
 10
-14.005984472
 20
5.9946592638
 10
-14.0649760363
 20
5.9557559829
 10
-14.1230770813
 20
5.9113473085
 10
-14.1798861523
 20
5.8617442326
 10
-14.2350151028
 20
5.8072943661
 10
-14.2880784746
 20
5.7483780617
 10
-14.3386966319
 20
5.6854066691
 10
-14.3865199563
 20
5.6188208582
 10
-14.431218899
 20
5.5490869951
 10
-14.472474008
 20
5.4766937347
 10
-14.5099963015
 20
5.4021574302
 10
-14.5435346864
 20
5.3259897499
 10
-14.5728618323
 20
5.2486933588
 10
-14.5977771394
 20
5.1707888658
 10
-14.618099215
 20
5.0928379958
 10
-14.6336756497
 20
5.0154102694
 10
-14.6443984759
 20
4.9390539721
 10
-14.6501994105
 20
4.8642927033
 10
-14.6510406191
 20
4.7916468662
  0
LWPOLYLINE
  5
28D
100
AcDbEntity
  8
RACCORDO
100
AcDbPolyline
 62
250
  6
CONTINUOUS
 90
19
 70
0
 10
-13.6247536653
 20
5.4002287695
 10
-13.6547008413
 20
5.3807343808
 10
-13.6838449607
 20
5.3587942945
 10
-13.7121860237
 20
5.3344085108
 10
-13.7399235697
 20
5.3073645579
 10
-13.7668580592
 20
5.2778749075
 10
-13.7923908733
 20
5.2465769751
 10
-13.8164794234
 20
5.2134415058
 10
-13.839166298
 20
5.1784977546
 10
-13.8599806445
 20
5.1424709011
 10
-13.8788812473
 20
5.1053432734
 10
-13.8959093219
 20
5.0671325435
 10
-13.9107176621
 20
5.0286169074
 10
-13.9232636777
 20
4.9897762372
 10
-13.9335899588
 20
4.9506306608
 10
-13.94147707
 20
4.9120187584
 10
-13.946851866
 20
4.8742200567
 10
-13.949787492
 20
4.8369550291
 10
-13.9502839481
 20
4.8002236754
  0
LINE
  5
28E
100
AcDbEntity
  8
RACCORDO
100
AcDbLine
 62
250
  6
CONTINUOUS
 10
-9.639347163
 20
8.6088343077
 11
-14.005984472
 21
5.9946592638
  0
LINE
  5
28F
100
AcDbEntity
  8
RACCORDO
100
AcDbLine
 62
250
  6
CONTINUOUS
 10
-9.2612416411
 20
8.012532799
 11
-13.6247536653
 21
5.4002287695
  0
LWPOLYLINE
  5
290
100
AcDbEntity
  8
SMUSSO
100
AcDbPolyline
 62
7
  6
CONTINUOUS
 90
15
 70
0
 10
-0.7724970822
 20
14.5302067459
 10
-0.8777064255
 20
14.4772087717
 10
-0.9758900737
 20
14.4213279376
 10
-1.0667571356
 20
14.36277374
 10
-1.1499922993
 20
14.3018104266
 10
-1.2254210391
 20
14.2386158874
 10
-1.2929596074
 20
14.1732665273
 10
-1.3524162076
 20
14.1059404963
 10
-1.4035442799
 20
14.0369080876
 10
-1.4461717292
 20
13.9663805476
 10
-1.4801509383
 20
13.8945999768
 10
-1.5053663372
 20
13.821807229
 10
-1.521731364
 20
13.7482173819
 10
-1.5291831336
 20
13.6740485793
 10
-1.5296158174
 20
13.6580730176
  0
LWPOLYLINE
  5
291
100
AcDbEntity
  8
RACCORDO
100
AcDbPolyline
 62
7
  6
CONTINUOUS
 90
19
 70
0
 10
-1.1199330154
 20
15.1431086914
 10
-1.2455329525
 20
15.0800353745
 10
-1.3621988493
 20
15.0140311868
 10
-1.4699307058
 20
14.9450961282
 10
-1.5689571105
 20
14.8730262808
 10
-1.6590494748
 20
14.7980255625
 10
-1.7395220333
 20
14.7207057275
 10
-1.8103854892
 20
14.6410032466
 10
-1.8716291392
 20
14.5589816491
 10
-1.9225351084
 20
14.4754432765
 10
-1.9629068425
 20
14.3903689581
 10
-1.9929408957
 20
14.3037778646
 10
-2.0125090558
 20
14.21652985
 10
-2.0215704809
 20
14.1285958394
 10
-2.020166013
 20
14.0400049078
 10
-2.0082899655
 20
13.9517041345
 10
-1.9858900361
 20
13.8637204364
 10
-1.9530185272
 20
13.7760268966
 10
-1.9329738237
 20
13.7358663376
  0
LINE
  5
292
100
AcDbEntity
  8
RACCORDO
100
AcDbLine
 62
250
  6
CONTINUOUS
 10
-0.118772303
 20
13.2900376401
 11
-0.0396884
 21
13.3283567177
  0
LINE
  5
293
100
AcDbEntity
  8
0
100
AcDbLine
 62
7
  6
CONTINUOUS
 10
-0.2195673841
 20
13.1461970774
 11
0.2753319757
 21
13.3830667981
  0
LINE
  5
294
100
AcDbEntity
  8
SMUSSO
100
AcDbLine
 62
7
  6
CONTINUOUS
 10
3.4268725173
 20
16.5217335778
 11
-0.7724970822
 21
14.5302067459
  0
LINE
  5
295
100
AcDbEntity
  8
RACCORDO
100
AcDbLine
 62
250
  6
CONTINUOUS
 10
-5.257628931
 20
12.5593348214
 11
-2.6074166497
 21
13.7877816919
  0
LINE
  5
296
100
AcDbEntity
  8
RACCORDO
100
AcDbLine
 62
250
  6
CONTINUOUS
 10
-5.0271870642
 20
12.3363768013
 11
-2.3767384234
 21
13.5644459799
  0
LWPOLYLINE
  5
297
100
AcDbEntity
  8
RACCORDO
100
AcDbPolyline
 62
7
  6
CONTINUOUS
 90
7
 70
0
 10
-0.0814921504
 20
13.355478298
 10
-0.1782274635
 20
13.3107336994
 10
-0.2704690452
 20
13.2629388874
 10
-0.3577042381
 20
13.2122753956
 10
-0.4398528642
 20
13.1586955857
 10
-0.5165028807
 20
13.1023552165
 10
-0.5725959351
 20
13.0556773933
  0
LINE
  5
298
100
AcDbEntity
  8
DRAFT
100
AcDbLine
 62
7
  6
CONTINUOUS
 10
-0.6988428584
 20
13.1188008549
 11
-0.0902595174
 21
13.3870654291
  0
LWPOLYLINE
  5
299
100
AcDbEntity
  8
RACCORDO
100
AcDbPolyline
 62
250
  6
CONTINUOUS
 90
28
 70
0
 10
-0.0396884
 20
13.3283567177
 10
0.04339497
 20
13.3646257821
 10
0.1304329378
 20
13.3988557496
 10
0.220730486
 20
13.4307731109
 10
0.3143250915
 20
13.4603578801
 10
0.4111792773
 20
13.4876300432
 10
0.5104855954
 20
13.5123760489
 10
0.6122021038
 20
13.5345656244
 10
0.7163707445
 20
13.5542290424
 10
0.8223098949
 20
13.5712435702
 10
0.929975953
 20
13.5856013106
 10
1.0394125208
 20
13.5973101608
 10
1.1500687829
 20
13.6062710784
 10
1.2621451375
 20
13.6124753256
 10
1.3754411862
 20
13.6159316403
 10
1.4888049184
 20
13.6165671949
 10
1.6024811812
 20
13.6142927641
 10
1.7162251275
 20
13.6091975732
 10
1.8281502048
 20
13.6014764709
 10
1.9382143646
 20
13.5910057517
 10
2.0464596555
 20
13.5779091211
 10
2.1511256709
 20
13.5627525442
 10
2.2520625705
 20
13.5454218018
 10
2.3494201946
 20
13.5260311132
 10
2.4418876578
 20
13.5054891011
 10
2.5290279985
 20
13.4840986395
 10
2.6112781784
 20
13.4615568544
 10
2.6886381975
 20
13.4378637457
  0
LINE
  5
29A
100
AcDbEntity
  8
DRAFT
100
AcDbLine
 62
7
  6
CONTINUOUS
 10
-0.7811737724
 20
13.9170633476
 11
3.4155874528
 21
15.7242678749
  0
LINE
  5
29B
100
AcDbEntity
  8
RACCORDO
100
AcDbLine
 62
7
  6
CONTINUOUS
 10
0.0193308058
 20
13.3970845145
 11
-0.0814921504
 21
13.355478298
  0
LWPOLYLINE
  5
29C
100
AcDbEntity
  8
RACCORDO
100
AcDbPolyline
 62
250
  6
CONTINUOUS
 90
9
 70
0
 10
-2.6074166321
 20
13.7877816831
 10
-2.577348748
 20
13.7999533219
 10
-2.5475894286
 20
13.8088426874
 10
-2.5183552121
 20
13.8143850979
 10
-2.4898588159
 20
13.816540225
 10
-2.4623075889
 20
13.8152923872
 10
-2.4359020023
 20
13.8106506643
 10
-2.4108341916
 20
13.8026488309
 10
-2.3961486697
 20
13.7960769386
  0
LINE
  5
29D
100
AcDbEntity
  8
DRAFT
100
AcDbLine
 62
7
  6
CONTINUOUS
 10
3.6264840023
 20
15.6188196002
 11
3.8958244195
 21
15.7262658649
  0
LWPOLYLINE
  5
29E
100
AcDbEntity
  8
RACCORDO
100
AcDbPolyline
 62
250
  6
CONTINUOUS
 90
5
 70
0
 10
-5.257628931
 20
12.5593348214
 10
-5.2736406825
 20
12.5531339821
 10
-5.28938164
 20
12.5492829353
 10
-5.3046483136
 20
12.5478314653
 10
-5.3117271318
 20
12.5483004126
  0
LWPOLYLINE
  5
29F
100
AcDbEntity
  8
RACCORDO
100
AcDbPolyline
 62
7
  6
CONTINUOUS
 90
20
 70
0
 10
3.8957519257
 20
15.7262369423
 10
3.9431157195
 20
15.7440020139
 10
4.0638738116
 20
15.7796154686
 10
4.18979916
 20
15.8031963887
 10
4.3200050473
 20
15.8143281126
 10
4.4542671606
 20
15.8127285382
 10
4.5923805305
 20
15.7980252318
 10
4.7333195357
 20
15.7699550208
 10
4.875732008
 20
15.7285687101
 10
5.0191689966
 20
15.67384434
 10
5.1628823047
 20
15.6058929703
 10
5.3050977338
 20
15.5255350359
 10
5.4450309242
 20
15.433358013
 10
5.5823147649
 20
15.3297187482
 10
5.7158142421
 20
15.2156137556
 10
5.8448276654
 20
15.0918653839
 10
5.9689894744
 20
14.9590231603
 10
6.0876747454
 20
14.817924302
 10
6.2003440641
 20
14.6693854845
 10
6.3065630326
 20
14.5141368095
  0
LWPOLYLINE
  5
2A0
100
AcDbEntity
  8
RACCORDO
100
AcDbPolyline
 62
250
  6
CONTINUOUS
 90
26
 70
0
 10
-10.0534368792
 20
10.5412838847
 10
-10.0462473627
 20
10.5439366793
 10
-10.0152018493
 20
10.5591743186
 10
-9.9868413496
 20
10.5795855942
 10
-9.9615016283
 20
10.604935111
 10
-9.9394662974
 20
10.6349331554
 10
-9.9209673154
 20
10.6692567487
 10
-9.9062040995
 20
10.7075350819
 10
-9.8953384856
 20
10.7493525436
 10
-9.8884916926
 20
10.7942484916
 10
-9.8857396836
 20
10.8417281645
 10
-9.8871127098
 20
10.8912707267
 10
-9.8925957106
 20
10.9423330452
 10
-9.9021279676
 20
10.9943525071
 10
-9.9156037876
 20
11.0467567475
 10
-9.9328751993
 20
11.0989730213
 10
-9.9537537145
 20
11.1504317608
 10
-9.9780126932
 20
11.200572592
 10
-10.0053845942
 20
11.2488416726
 10
-10.0355634429
 20
11.2947018479
 10
-10.06821505
 20
11.3376496315
 10
-10.1029822757
 20
11.3772185482
 10
-10.1394830857
 20
11.4129763621
 10
-10.1773168915
 20
11.4445335853
 10
-10.2160690635
 20
11.4715475103
 10
-10.2553152355
 20
11.4937251931
  0
LINE
  5
2A1
100
AcDbEntity
  8
DRAFT
100
AcDbLine
 62
7
  6
CONTINUOUS
 10
-9.697677607
 20
10.6651206175
 11
-10.0534347421
 21
10.5412846286
  0
LINE
  5
2A2
100
AcDbEntity
  8
0
100
AcDbLine
 62
7
  6
CONTINUOUS
 10
-0.574865261
 20
13.0568120562
 11
-0.5686849102
 21
13.0589319519
  0
LWPOLYLINE
  5
2A3
100
AcDbEntity
  8
RACCORDO
100
AcDbPolyline
 62
250
  6
CONTINUOUS
 90
31
 70
0
 10
3.9375118694
 20
15.7418628029
 10
4.0375631095
 20
15.7713515607
 10
4.1436737257
 20
15.7914679204
 10
4.2534475775
 20
15.8013710122
 10
4.3664430811
 20
15.8009576492
 10
4.4822185957
 20
15.7901676582
 10
4.5980007747
 20
15.7694918334
 10
4.7131067536
 20
15.7395783493
 10
4.8271453844
 20
15.7010388972
 10
4.9376710257
 20
15.65540372
 10
5.0437680516
 20
15.6039997443
 10
5.1455946462
 20
15.5476615249
 10
5.2424011654
 20
15.4876787827
 10
5.3335909087
 20
15.4253499408
 10
5.4194754619
 20
15.361351959
 10
5.5007493695
 20
15.2959149525
 10
5.577385685
 20
15.229714263
 10
5.6493825509
 20
15.1633834816
 10
5.7174747846
 20
15.0967975127
 10
5.7816917571
 20
15.0304044344
 10
5.8420825753
 20
14.9646179929
 10
5.8993755144
 20
14.8990422327
 10
5.9536118156
 20
14.8339642448
 10
6.0048483859
 20
14.7696444583
 10
6.0537785008
 20
14.7054825137
 10
6.1004253442
 20
14.6416624433
 10
6.1448353333
 20
14.5783341646
 10
6.187663373
 20
14.5147207865
 10
6.2291116761
 20
14.4506052453
 10
6.2689775713
 20
14.3863854057
 10
6.3072702559
 20
14.3221511997
  0
LINE
  5
2A4
100
AcDbEntity
  8
RACCORDO
100
AcDbLine
 62
250
  6
CONTINUOUS
 10
-8.1938815787
 20
-10.1482439312
 11
-8.1638004733
 21
-10.1632844839
  0
LINE
  5
2A5
100
AcDbEntity
  8
RACCORDO
100
AcDbLine
 62
250
  6
CONTINUOUS
 10
-8.2068433688
 20
-9.9277033809
 11
-8.1607925636
 21
-9.9507287835
  0
LWPOLYLINE
  5
2A6
100
AcDbEntity
  8
RACCORDO
100
AcDbPolyline
 62
250
  6
CONTINUOUS
 90
10
 70
0
 10
-17.6075903263
 20
15.9894784561
 10
-17.6171169275
 20
16.0201904167
 10
-17.6227364058
 20
16.0512995579
 10
-17.6243019689
 20
16.081993245
 10
-17.6217727212
 20
16.1114696953
 10
-17.6152147317
 20
16.1389589234
 10
-17.6047993086
 20
16.1637428538
 10
-17.5907985244
 20
16.1851740792
 10
-17.5735781084
 20
16.2026927718
 10
-17.5535878933
 20
16.2158413072
  0
LWPOLYLINE
  5
2A7
100
AcDbEntity
  8
RACCORDO
100
AcDbPolyline
 62
250
  6
CONTINUOUS
 90
16
 70
0
 10
-13.6247536653
 20
5.4002287695
 10
-13.6302127991
 20
5.4444937
 10
-13.6394153572
 20
5.4902489134
 10
-13.6522606277
 20
5.5369934381
 10
-13.668608012
 20
5.5842154634
 10
-13.6882785591
 20
5.6313979296
 10
-13.7110569209
 20
5.6780241906
 10
-13.7366937226
 20
5.7235836984
 10
-13.7649082776
 20
5.7675775625
 10
-13.7953916488
 20
5.809524004
 10
-13.8278100703
 20
5.848963691
 10
-13.8618085739
 20
5.885464723
 10
-13.8970148497
 20
5.9186273436
 10
-13.9330433775
 20
5.9480883802
 10
-13.9694996536
 20
5.9735252107
 10
-14.005984473
 20
5.9946592632
  0
LINE
  5
2A8
100
AcDbEntity
  8
RACCORDO
100
AcDbLine
 62
250
  6
CONTINUOUS
 10
-8.1638004733
 20
-10.1632844839
 11
-7.3720449285
 21
-18.825250592
  0
LINE
  5
2A9
100
AcDbEntity
  8
RACCORDO
100
AcDbLine
 62
250
  6
CONTINUOUS
 10
-6.8525980068
 20
-23.4007544673
 11
-7.2659789113
 21
-18.8782836006
  0
LINE
  5
2AA
100
AcDbEntity
  8
RACCORDO
100
AcDbLine
 62
250
  6
CONTINUOUS
 10
-7.884221788
 20
-10.1467373415
 11
-7.0908762951
 21
-18.8260978038
  0
LINE
  5
2AB
100
AcDbEntity
  8
RACCORDO
100
AcDbLine
 62
250
  6
CONTINUOUS
 10
-6.5730193215
 20
-23.3842073249
 11
-6.984810278
 21
-18.8791308123
  0
LINE
  5
2AC
100
AcDbEntity
  8
RACCORDO
100
AcDbLine
 62
7
  6
CONTINUOUS
 10
-9.2612416411
 20
8.012532799
 11
-7.150114211
 21
-27.9075988015
  0
LINE
  5
2AD
100
AcDbEntity
  8
0
100
AcDbLine
 62
7
  6
CONTINUOUS
 10
-10.5267786768
 20
13.3473017834
 11
-10.5255446053
 21
13.4345081696
  0
LINE
  5
2AE
100
AcDbEntity
  8
RACCORDO
100
AcDbLine
 62
250
  6
CONTINUOUS
 10
-8.1408065727
 20
5.7447484396
 11
-8.6412485662
 21
1.2776691455
  0
LWPOLYLINE
  5
2AF
100
AcDbEntity
  8
RACCORDO
100
AcDbPolyline
 62
250
  6
CONTINUOUS
 90
8
 70
0
 10
-0.502407843
 20
13.0205833472
 10
-0.5002763529
 20
13.0228595504
 10
-0.4487083352
 20
13.0712246396
 10
-0.392132165
 20
13.1181847548
 10
-0.3305815392
 20
13.163753023
 10
-0.264515905
 20
13.2075884526
 10
-0.1939016082
 20
13.2496794657
 10
-0.118772303
 20
13.2900376401
  0
LINE
  5
2B0
100
AcDbEntity
  8
0
100
AcDbLine
 62
7
  6
CONTINUOUS
 10
0.7707914405
 20
12.5335885563
 11
0.7547030601
 21
12.5192188219
  0
LINE
  5
2B1
100
AcDbEntity
  8
RACCORDO
100
AcDbLine
 62
7
  6
CONTINUOUS
 10
-9.1606791486
 20
6.3014954101
 11
-8.6950884457
 21
6.5251892305
  0
LINE
  5
2B2
100
AcDbEntity
  8
RACCORDO
100
AcDbLine
 62
7
  6
CONTINUOUS
 10
2.6886381975
 20
13.4378637457
 11
1.5664960532
 21
12.9007818297
  0
LINE
  5
2B3
100
AcDbEntity
  8
RACCORDO
100
AcDbLine
 62
7
  6
CONTINUOUS
 10
3.3957690513
 20
13.0843218767
 11
2.3296036762
 21
12.5740316739
  0
LINE
  5
2B4
100
AcDbEntity
  8
RACCORDO
100
AcDbLine
 62
250
  6
CONTINUOUS
 10
6.262071508
 20
14.3010258473
 11
6.3072702559
 21
14.3221511997
  0
LWPOLYLINE
  5
2B5
100
AcDbEntity
  8
RACCORDO
100
AcDbPolyline
 62
250
  6
CONTINUOUS
 90
16
 70
0
 10
-13.9502839481
 20
4.8002236754
 10
-13.9893095394
 20
4.7819817999
 10
-14.0316386149
 20
4.7658677893
 10
-14.0768176393
 20
4.7520542973
 10
-14.124362541
 20
4.7406893287
 10
-14.1737638997
 20
4.7318946538
 10
-14.2244924037
 20
4.7257645032
 10
-14.2760045218
 20
4.7223645584
 10
-14.3277483267
 20
4.7217312482
 10
-14.3791694085
 20
4.7238713582
 10
-14.4297168153
 20
4.7287619582
 10
-14.4788489563
 20
4.7363506479
 10
-14.5260394044
 20
4.7465561177
 10
-14.5707825368
 20
4.759269021
 10
-14.6125989526
 20
4.7743531453
 10
-14.6510406092
 20
4.7916468715
  0
LINE
  5
2B6
100
AcDbEntity
  8
RACCORDO
100
AcDbLine
 62
250
  6
CONTINUOUS
 10
8.3397011791
 20
14.1721293728
 11
2.1206832518
 21
11.279501407
  0
LINE
  5
2B7
100
AcDbEntity
  8
RACCORDO
100
AcDbLine
 62
250
  6
CONTINUOUS
 10
2.0193197876
 20
10.8151866803
 11
8.6093682213
 21
13.8788293002
  0
LINE
  5
2B8
100
AcDbEntity
  8
RACCORDO
100
AcDbLine
 62
250
  6
CONTINUOUS
 10
-9.1156002018
 20
5.5344921134
 11
-8.5554746103
 21
5.7854170541
  0
LINE
  5
2B9
100
AcDbEntity
  8
RACCORDO
100
AcDbLine
 62
7
  6
CONTINUOUS
 10
3.4050765063
 20
12.8806039305
 11
7.4004325521
 21
14.6417636863
  0
LWPOLYLINE
  5
2BA
100
AcDbEntity
  8
RACCORDO
100
AcDbPolyline
 62
7
  6
CONTINUOUS
 90
11
 70
0
 10
3.3952081631
 20
13.0840534233
 10
3.4072016892
 20
13.0892139597
 10
3.4189971245
 20
13.0931064187
 10
3.430594469
 20
13.0957308004
 10
3.4421119752
 20
13.0970877812
 10
3.4534313905
 20
13.0971766847
 10
3.464197958
 20
13.0959954811
 10
3.4743350617
 20
13.0935135161
 10
3.4839193175
 20
13.089761444
 10
3.492825815
 20
13.0848291972
 10
3.498079519
 20
13.0811209493
  0
LWPOLYLINE
  5
2BB
100
AcDbEntity
  8
RACCORDO
100
AcDbPolyline
 62
7
  6
CONTINUOUS
 90
10
 70
0
 10
-8.6700189027
 20
6.534686345
 10
-8.6728710622
 20
6.5338545574
 10
-8.6757076597
 20
6.5329671897
 10
-8.6785281479
 20
6.5320242415
 10
-8.681331904
 20
6.5310256179
 10
-8.6841184639
 20
6.5299714192
 10
-8.686887511
 20
6.5288619317
 10
-8.6896385692
 20
6.5276972469
 10
-8.692371014
 20
6.5264772693
 10
-8.6950842991
 20
6.5252020001
  0
LINE
  5
2BC
100
AcDbEntity
  8
0
100
AcDbLine
 62
7
  6
CONTINUOUS
 10
-6.831554355
 20
15.198597984
 11
-6.8411691169
 21
14.5191651917
  0
LWPOLYLINE
  5
2BD
100
AcDbEntity
  8
RACCORDO
100
AcDbPolyline
 62
250
  6
CONTINUOUS
 90
13
 70
0
 10
-6.1791607338
 20
4.4486419347
 10
-6.171207918
 20
4.5503482462
 10
-6.1675908962
 20
4.6538984696
 10
-6.1683355553
 20
4.7589457818
 10
-6.1734403244
 20
4.8651648552
 10
-6.182875989
 20
4.9722326827
 10
-6.1966043793
 20
5.0798175194
 10
-6.2145866693
 20
5.1875996982
 10
-6.2367627242
 20
5.2952612629
 10
-6.263057772
 20
5.4024749362
 10
-6.2933994797
 20
5.5089182906
 10
-6.3276838419
 20
5.6142501195
 10
-6.3657801009
 20
5.7181127829
  0
LWPOLYLINE
  5
2BE
100
AcDbEntity
  8
RACCORDO
100
AcDbPolyline
 62
250
  6
CONTINUOUS
 90
13
 70
0
 10
-6.4581293929
 20
4.4746015645
 10
-6.4500467847
 20
4.5667402363
 10
-6.4458887484
 20
4.6600513393
 10
-6.445655284
 20
4.7545348736
 10
-6.4493686905
 20
4.8505219522
 10
-6.4570066689
 20
4.947681462
 10
-6.4685023221
 20
5.0450200637
 10
-6.4839095897
 20
5.1425436884
 10
-6.5031745322
 20
5.2402464051
 10
-6.5260684331
 20
5.3371170808
 10
-6.5525150539
 20
5.4328186714
 10
-6.5825906333
 20
5.527688221
 10
-6.6162951711
 20
5.6217257297
  0
LWPOLYLINE
  5
2BF
100
AcDbEntity
  8
RACCORDO
100
AcDbPolyline
 62
250
  6
CONTINUOUS
 90
16
 70
0
 10
-8.1607925636
 20
-9.9507287835
 10
-8.1623255611
 20
-9.9655072369
 10
-8.1636674877
 20
-9.9802093602
 10
-8.164818464
 20
-9.9948314014
 10
-8.1657785293
 20
-10.0093674737
 10
-8.1665480943
 20
-10.0238160987
 10
-8.1671276604
 20
-10.0381800895
 10
-8.1675172998
 20
-10.052455709
 10
-8.1677171309
 20
-10.0666393077
 10
-8.1677272902
 20
-10.0807336485
 10
-8.1675477434
 20
-10.0947349888
 10
-8.1671784999
 20
-10.108639604
 10
-8.1666193253
 20
-10.1224500603
 10
-8.1658699483
 20
-10.1361646102
 10
-8.1649303455
 20
-10.1497773467
 10
-8.1638004733
 20
-10.1632844839
  0
LWPOLYLINE
  5
2C0
100
AcDbEntity
  8
RACCORDO
100
AcDbPolyline
 62
250
  6
CONTINUOUS
 90
16
 70
0
 10
-7.8818154603
 20
-9.9766927812
 10
-7.8830452957
 20
-9.9885186665
 10
-7.8841220109
 20
-10.0002777979
 10
-7.8850456056
 20
-10.0119701753
 10
-7.8858158684
 20
-10.0235970202
 10
-7.8864330109
 20
-10.035157111
 10
-7.8868976679
 20
-10.046646784
 10
-7.887209992
 20
-10.0580660627
 10
-7.8873698307
 20
-10.0694149236
 10
-7.8873773612
 20
-10.0806896318
 10
-7.8872327404
 20
-10.091890271
 10
-7.8869358114
 20
-10.1030167576
 10
-7.886486281
 20
-10.1140651065
 10
-7.8858840514
 20
-10.1250339892
 10
-7.8851292204
 20
-10.1359247343
 10
-7.884221788
 20
-10.1467373415
  0
LINE
  5
2C1
100
AcDbEntity
  8
RACCORDO
100
AcDbLine
 62
250
  6
CONTINUOUS
 10
-7.1118535411
 20
-0.4386735524
 11
-8.1607925636
 21
-9.9507287835
  0
LINE
  5
2C2
100
AcDbEntity
  8
RACCORDO
100
AcDbLine
 62
250
  6
CONTINUOUS
 10
-7.0057875239
 20
-0.491706561
 11
-6.4581293929
 21
4.4746015645
  0
LINE
  5
2C3
100
AcDbEntity
  8
RACCORDO
100
AcDbLine
 62
250
  6
CONTINUOUS
 10
-6.8392418253
 20
-0.52236056
 11
-7.8818154603
 21
-9.9766927812
  0
LINE
  5
2C4
100
AcDbEntity
  8
RACCORDO
100
AcDbLine
 62
250
  6
CONTINUOUS
 10
-6.7247040147
 20
-0.498569115
 11
-6.1791522895
 21
4.4486375668
  0
LINE
  5
2C5
100
AcDbEntity
  8
RACCORDO
100
AcDbLine
 62
250
  6
CONTINUOUS
 10
-8.1979020243
 20
0.3122150586
 11
-8.5985064203
 21
-3.2636867262
  0
LINE
  5
2C6
100
AcDbEntity
  8
RACCORDO
100
AcDbLine
 62
250
  6
CONTINUOUS
 10
-7.7832338087
 20
0.2715463685
 11
-8.4542514835
 21
-5.7181365328
  0
LWPOLYLINE
  5
2C7
100
AcDbEntity
  8
RACCORDO
100
AcDbPolyline
 62
250
  6
CONTINUOUS
 90
3
 70
0
 10
-5.4509759033
 20
6.394320632
 10
-0.7031972843
 20
8.7168874955
 10
8.847432744
 20
13.388761334
  0
LINE
  5
2C8
100
AcDbEntity
  8
RACCORDO
100
AcDbLine
 62
250
  6
CONTINUOUS
 10
-5.0788668764
 20
5.201349854
 11
9.1408617823
 21
12.1465554828
  0
LINE
  5
2C9
100
AcDbEntity
  8
RACCORDO
100
AcDbLine
 62
250
  6
CONTINUOUS
 10
9.0121925754
 20
13.4677253272
 11
9.0096392456
 21
13.4664808269
  0
LWPOLYLINE
  5
2CA
100
AcDbEntity
  8
RACCORDO
100
AcDbPolyline
 62
250
  6
CONTINUOUS
 90
3
 70
0
 10
9.0096392456
 20
13.4664808269
 10
8.8900307952
 20
13.4091526816
 10
8.8474327433
 20
13.3887613355
  0
LINE
  5
2CB
100
AcDbEntity
  8
RACCORDO
100
AcDbLine
 62
250
  6
CONTINUOUS
 10
-6.1791522895
 20
4.4486375668
 11
-5.0693895925
 21
4.969190623
  0
LINE
  5
2CC
100
AcDbEntity
  8
RACCORDO
100
AcDbLine
 62
250
  6
CONTINUOUS
 10
-6.3657752951
 20
5.7181149774
 11
-5.3536845672
 21
6.192133394
  0
LWPOLYLINE
  5
2CD
100
AcDbEntity
  8
RACCORDO
100
AcDbPolyline
 62
250
  6
CONTINUOUS
 90
10
 70
0
 10
-6.6162951711
 20
5.6217257297
 10
-6.5941440086
 20
5.6313287423
 10
-6.5688191444
 20
5.6419093272
 10
-6.5410023247
 20
5.6531826548
 10
-6.511442379
 20
5.6648452467
 10
-6.480935062
 20
5.6765831457
 10
-6.4503016313
 20
5.688080367
 10
-6.4203667399
 20
5.6990274052
 10
-6.3919362359
 20
5.7091295656
 10
-6.3657754693
 20
5.7181148978
  0
LWPOLYLINE
  5
2CE
100
AcDbEntity
  8
RACCORDO
100
AcDbPolyline
 62
250
  6
CONTINUOUS
 90
13
 70
0
 10
-7.8818154603
 20
-9.9766927812
 10
-7.9013705398
 20
-9.9818590738
 10
-7.9229234513
 20
-9.9857359418
 10
-7.9461134962
 20
-9.9882585037
 10
-7.9705525778
 20
-9.9893845435
 10
-7.9958316961
 20
-9.9890952161
 10
-8.0215277928
 20
-9.9873953636
 10
-8.0472108312
 20
-9.9843134339
 10
-8.0724509929
 20
-9.9799010046
 10
-8.0968258717
 20
-9.9742319199
 10
-8.1199275418
 20
-9.9674010546
 10
-8.1413693857
 20
-9.9595227266
 10
-8.1607925636
 20
-9.9507287835
  0
LWPOLYLINE
  5
2CF
100
AcDbEntity
  8
RACCORDO
100
AcDbPolyline
 62
250
  6
CONTINUOUS
 90
13
 70
0
 10
-8.6700189695
 20
6.534686333
 10
-8.6448851846
 20
6.4755561737
 10
-8.6223313451
 20
6.4149456593
 10
-8.6024683025
 20
6.3531010202
 10
-8.5853740128
 20
6.2902715928
 10
-8.5711273786
 20
6.2267286791
 10
-8.5598089857
 20
6.1627647661
 10
-8.5514816304
 20
6.0986446558
 10
-8.5461748178
 20
6.0346365329
 10
-8.5439108358
 20
5.9710410189
 10
-8.5447066963
 20
5.9081370932
 10
-8.5485718309
 20
5.8461795147
 10
-8.9325341071
 20
2.4196833523
  0
LWPOLYLINE
  5
2D0
100
AcDbEntity
  8
RACCORDO
100
AcDbPolyline
 62
250
  6
CONTINUOUS
 90
10
 70
0
 10
-8.2547034822
 20
6.5740673955
 10
-8.2226102968
 20
6.4827618947
 10
-8.1953167949
 20
6.3908591893
 10
-8.1728229766
 20
6.2983592796
 10
-8.1550490954
 20
6.2047462426
 10
-8.1420748977
 20
6.1105360012
 10
-8.1341396227
 20
6.0172763234
 10
-8.1313230167
 20
5.9254831318
 10
-8.1335453333
 20
5.8346405039
 10
-8.1408065727
 20
5.7447484396
  0
LINE
  5
2D1
100
AcDbEntity
  8
DRAFT
100
AcDbLine
 62
7
  6
CONTINUOUS
 10
-5.2443469763
 20
0.153974791
 11
-5.5020810232
 21
-18.0589528439
  0
LINE
  5
2D2
100
AcDbEntity
  8
0
100
AcDbLine
 62
7
  6
CONTINUOUS
 10
-5.5020810232
 20
-18.0589528439
 11
-5.2443469763
 21
0.153974791
  0
LINE
  5
2D3
100
AcDbEntity
  8
RACCORDO
100
AcDbLine
 62
7
  6
CONTINUOUS
 10
-5.4634854059
 20
-22.8798212387
 11
-5.396015006
 21
-18.1119858524
  0
LINE
  5
2D4
100
AcDbEntity
  8
RACCORDO
100
AcDbLine
 62
7
  6
CONTINUOUS
 10
-5.1368599923
 20
0.2013552368
 11
-5.0693895925
 21
4.969190623
  0
LWPOLYLINE
  5
2D5
100
AcDbEntity
  8
RACCORDO
100
AcDbPolyline
 62
7
  6
CONTINUOUS
 90
10
 70
0
 10
-5.4634854059
 20
-22.8798212387
 10
-5.4693235727
 20
-23.0072901451
 10
-5.4825869289
 20
-23.1289658849
 10
-5.5032754743
 20
-23.2448484583
 10
-5.5315811069
 20
-23.3555010286
 10
-5.5673119288
 20
-23.4603604324
 10
-5.6098922463
 20
-23.5577371791
 10
-5.6591301617
 20
-23.6470681051
 10
-5.7152175727
 20
-23.7289163739
 10
-5.7781544794
 20
-23.8032819856
  0
LWPOLYLINE
  5
2D6
100
AcDbEntity
  8
RACCORDO
100
AcDbPolyline
 62
250
  6
CONTINUOUS
 90
6
 70
0
 10
-2.3364863202
 20
13.726523785
 10
-2.338077417
 20
13.7021667217
 10
-2.3426929852
 20
13.6731704682
 10
-2.3502978886
 20
13.639843777
 10
-2.3615846364
 20
13.6033141418
 10
-2.3767384495
 20
13.564446065
  0
LINE
  5
2D7
100
AcDbEntity
  8
RACCORDO
100
AcDbLine
 62
250
  6
CONTINUOUS
 10
9.2533094579
 20
10.346420547
 11
10.04432045
 21
10.7678353071
  0
LINE
  5
2D8
100
AcDbEntity
  8
RACCORDO
100
AcDbLine
 62
250
  6
CONTINUOUS
 10
9.2273939565
 20
8.5150864381
 11
10.0184049486
 21
8.9365011982
  0
LWPOLYLINE
  5
2D9
100
AcDbEntity
  8
RACCORDO
100
AcDbPolyline
 62
250
  6
CONTINUOUS
 90
13
 70
0
 10
-8.8462778771
 20
0.952062265
 10
-8.8328275063
 20
0.9592188181
 10
-8.8072113014
 20
0.976715694
 10
-8.7822525964
 20
0.9976723159
 10
-8.7583234682
 20
1.0217762689
 10
-8.7357806449
 20
1.0486682184
 10
-8.7149601881
 20
1.0779472675
 10
-8.6961724828
 20
1.1091769331
 10
-8.6796976105
 20
1.1418916526
 10
-8.6657811736
 20
1.1756037251
 10
-8.6546306341
 20
1.2098105811
 10
-8.6464122208
 20
1.2440022752
 10
-8.6412484514
 20
1.277669088
  0
LWPOLYLINE
  5
2DA
100
AcDbEntity
  8
RACCORDO
100
AcDbPolyline
 62
250
  6
CONTINUOUS
 90
13
 70
0
 10
-8.3642617619
 20
0.698213741
 10
-8.338370178
 20
0.7119898846
 10
-8.3127541716
 20
0.7294865713
 10
-8.2877956143
 20
0.7504429848
 10
-8.2638665843
 20
0.7745467257
 10
-8.2413238039
 20
0.801438483
 10
-8.2205033243
 20
0.8307173968
 10
-8.2017155393
 20
0.8619470039
 10
-8.1852405472
 20
0.8946617508
 10
-8.1713239633
 20
0.9283739549
 10
-8.1601732722
 20
0.9625810505
 10
-8.15195473
 20
0.9967730785
 10
-8.1467908807
 20
1.0304403027
  0
LINE
  5
2DB
100
AcDbEntity
  8
RACCORDO
100
AcDbLine
 62
250
  6
CONTINUOUS
 10
-8.3642617619
 20
0.698213741
 11
-8.8199776213
 21
0.5045721543
  0
LINE
  5
2DC
100
AcDbEntity
  8
RACCORDO
100
AcDbLine
 62
250
  6
CONTINUOUS
 10
-8.1979020243
 20
0.3122150586
 11
-8.7937907697
 21
0.0590115771
  0
LINE
  5
2DD
100
AcDbEntity
  8
RACCORDO
100
AcDbLine
 62
7
  6
CONTINUOUS
 10
-7.1118535411
 20
-0.4386735524
 11
-7.0057875239
 21
-0.491706561
  0
LINE
  5
2DE
100
AcDbEntity
  8
RACCORDO
100
AcDbLine
 62
250
  6
CONTINUOUS
 10
-8.8455003582
 20
0.9388330391
 11
-8.3642617619
 21
0.698213741
  0
LINE
  5
2DF
100
AcDbEntity
  8
RACCORDO
100
AcDbLine
 62
250
  6
CONTINUOUS
 10
-8.6412485662
 20
1.2776691455
 11
-8.1467908807
 21
1.0304403027
  0
LWPOLYLINE
  5
2E0
100
AcDbEntity
  8
RACCORDO
100
AcDbPolyline
 62
250
  6
CONTINUOUS
 90
19
 70
0
 10
-8.3642617619
 20
0.698213741
 10
-8.3453151568
 20
0.6881872141
 10
-8.326919963
 20
0.6760797384
 10
-8.3092102056
 20
0.661983589
 10
-8.2923101645
 20
0.6459926112
 10
-8.2763570139
 20
0.6282371143
 10
-8.26149554
 20
0.6088931556
 10
-8.2478652958
 20
0.5881364955
 10
-8.2355456655
 20
0.5661057154
 10
-8.2245819995
 20
0.54293689
 10
-8.2150764549
 20
0.5187984472
 10
-8.2071115097
 20
0.4938652827
 10
-8.2007042453
 20
0.4682832077
 10
-8.195934882
 20
0.4421995635
 10
-8.1928745759
 20
0.4158373351
 10
-8.191513755
 20
0.3894595251
 10
-8.1918695635
 20
0.3632817986
 10
-8.1939932464
 20
0.3374709931
 10
-8.1979020243
 20
0.3122150586
  0
LWPOLYLINE
  5
2E1
100
AcDbEntity
  8
RACCORDO
100
AcDbPolyline
 62
250
  6
CONTINUOUS
 90
9
 70
0
 10
-29.4087452372
 20
12.1704991813
 10
-29.443398754
 20
12.1897530413
 10
-29.4738943323
 20
12.2108249138
 10
-29.4999052267
 20
12.2334890238
 10
-29.521152743
 20
12.2575025364
 10
-29.5374092246
 20
12.2826081585
 10
-29.5485004911
 20
12.3085368956
 10
-29.5543077049
 20
12.3350109338
 10
-29.5551893901
 20
12.3474568265
  0
LWPOLYLINE
  5
2E2
100
AcDbEntity
  8
RACCORDO
100
AcDbPolyline
 62
250
  6
CONTINUOUS
 90
19
 70
0
 10
-8.1467908807
 20
1.0304403027
 10
-8.1095876321
 20
1.0095071455
 10
-8.0736623326
 20
0.984995277
 10
-8.0390149822
 20
0.9569046973
 10
-8.005390678
 20
0.9249413712
 10
-7.9730443228
 20
0.8893993337
 10
-7.9427406255
 20
0.8511606905
 10
-7.9145606373
 20
0.8102187176
 10
-7.8884233069
 20
0.766580139
 10
-7.86485019
 20
0.7211472314
 10
-7.8438791687
 20
0.6738964037
 10
-7.8254723609
 20
0.624851247
 10
-7.8100376756
 20
0.5749848121
 10
-7.7976157546
 20
0.5242117856
 10
-7.7881659563
 20
0.4726174808
 10
-7.7819742641
 20
0.4214308877
 10
-7.7791360061
 20
0.3710616697
 10
-7.7795558543
 20
0.3211001632
 10
-7.7832338087
 20
0.2715463685
  0
LWPOLYLINE
  5
2E3
100
AcDbEntity
  8
DRAFT
100
AcDbPolyline
 62
7
  6
CONTINUOUS
 90
25
 70
0
 10
-14.3945256743
 20
15.2811752822
 10
-14.4098779041
 20
15.3025232235
 10
-14.4257166558
 20
15.3229983205
 10
-14.4420419293
 20
15.3426005732
 10
-14.4589033613
 20
15.3613812202
 10
-14.4762513152
 20
15.3792890228
 10
-14.4939368807
 20
15.3961702655
 10
-14.5119629642
 20
15.412016111
 10
-14.5303266593
 20
15.4268353965
 10
-14.548870337
 20
15.4405009172
 10
-14.5675955468
 20
15.453002741
 10
-14.5865007392
 20
15.4643508
 10
-14.6054236372
 20
15.4744476855
 10
-14.6243643931
 20
15.483282627
 10
-14.6433228546
 20
15.4908663949
 10
-14.6621362873
 20
15.4971338923
 10
-14.6808034428
 20
15.5020737883
 10
-14.6993255695
 20
15.5056974137
 10
-14.7175436784
 20
15.5079736643
 10
-14.7354551526
 20
15.5088909415
 10
-14.753062609
 20
15.508460844
 10
-14.77021491
 20
15.5066870636
 10
-14.7868616764
 20
15.5035708308
 10
-14.8030532874
 20
15.4991109151
 10
-14.818789743
 20
15.4933073166
  0
LWPOLYLINE
  5
2E4
100
AcDbEntity
  8
RACCORDO
100
AcDbPolyline
 62
250
  6
CONTINUOUS
 90
10
 70
0
 10
-6.3657752951
 20
5.7181149774
 10
-6.661343543
 20
6.4731462047
 10
-6.9712079218
 20
7.2207759899
 10
-7.2950565921
 20
7.9603994907
 10
-7.6325160417
 20
8.6914171626
 10
-7.9833046134
 20
9.413240108
 10
-8.3472361229
 20
10.1252877742
 10
-8.7240140977
 20
10.8269829739
 10
-9.1132287556
 20
11.5177551624
 10
-9.5145128819
 20
12.1970438092
  0
LWPOLYLINE
  5
2E5
100
AcDbEntity
  8
RACCORDO
100
AcDbPolyline
 62
250
  6
CONTINUOUS
 90
10
 70
0
 10
-6.6162951711
 20
5.6217257297
 10
-6.9098562197
 20
6.3724687467
 10
-7.2170022166
 20
7.1147044272
 10
-7.5377331619
 20
7.848432771
 10
-7.8723490747
 20
8.574259477
 10
-8.2205499358
 20
9.2915788464
 10
-8.5814356882
 20
9.9985737829
 10
-8.9547063128
 20
10.6946385877
 10
-9.3406618286
 20
11.3803789596
 10
-9.7393022356
 20
12.0557948986
  0
LWPOLYLINE
  5
2E6
100
AcDbEntity
  8
RACCORDO
100
AcDbPolyline
 62
250
  6
CONTINUOUS
 90
6
 70
0
 10
-8.959143194
 20
15.0845001087
 10
-8.9617804954
 20
15.0947911389
 10
-8.9700945512
 20
15.1147599188
 10
-8.9810637932
 20
15.132835788
 10
-8.9944992741
 20
15.1487170725
 10
-9.0067369244
 20
15.1595613487
  0
LWPOLYLINE
  5
2E7
100
AcDbEntity
  8
SMUSSO
100
AcDbPolyline
 62
7
  6
CONTINUOUS
 90
3
 70
0
 10
-1.5296158174
 20
13.6580730176
 10
-1.527678529
 20
13.5995831347
 10
-1.5176599878
 20
13.5282094196
  0
LINE
  5
2E8
100
AcDbEntity
  8
SMUSSO
100
AcDbLine
 62
250
  6
CONTINUOUS
 10
-0.7724970822
 20
14.5302067459
 11
-0.7811737724
 21
13.9170633476
  0
LINE
  5
2E9
100
AcDbEntity
  8
DRAFT
100
AcDbLine
 62
250
  6
CONTINUOUS
 10
-0.0784773717
 20
14.2196576694
 11
-0.0902595174
 21
13.3870654291
  0
LWPOLYLINE
  5
2EA
100
AcDbEntity
  8
RACCORDO
100
AcDbPolyline
 62
250
  6
CONTINUOUS
 90
5
 70
0
 10
-0.1563112744
 20
12.3193477518
 10
-0.1592511152
 20
12.2862180043
 10
-0.1661246642
 20
12.2490508705
 10
-0.1768403356
 20
12.2083415907
 10
-0.1912553488
 20
12.1646326029
  0
LINE
  5
2EB
100
AcDbEntity
  8
RACCORDO
100
AcDbLine
 62
250
  6
CONTINUOUS
 10
9.5146460926
 20
7.6269911711
 11
9.4423610539
 21
7.570268329
  0
LWPOLYLINE
  5
2EC
100
AcDbEntity
  8
RACCORDO
100
AcDbPolyline
 62
250
  6
CONTINUOUS
 90
3
 70
0
 10
9.4423610539
 20
7.570268329
 10
9.3624303211
 20
7.5182779728
 10
9.3467348456
 20
7.5092495485
  0
LINE
  5
2ED
100
AcDbEntity
  8
DRAFT
100
AcDbLine
 62
7
  6
CONTINUOUS
 10
9.2120863061
 20
7.4333623424
 11
9.346734556
 21
7.5092493853
  0
LINE
  5
2EE
100
AcDbEntity
  8
RACCORDO
100
AcDbLine
 62
7
  6
CONTINUOUS
 10
-5.1368599923
 20
0.2013552368
 11
-6.7247040147
 21
-0.498569115
  0
LINE
  5
2EF
100
AcDbEntity
  8
RACCORDO
100
AcDbLine
 62
250
  6
CONTINUOUS
 10
-29.4087452431
 20
12.1704991782
 11
-14.6510406191
 21
4.7916468662
  0
LINE
  5
2F0
100
AcDbEntity
  8
RACCORDO
100
AcDbLine
 62
250
  6
CONTINUOUS
 10
-28.775697933
 20
13.3795159943
 11
-14.005984472
 21
5.9946592638
  0
LINE
  5
2F1
100
AcDbEntity
  8
0
100
AcDbLine
 62
7
  6
CONTINUOUS
 10
-9.9794698053
 20
13.8933558282
 11
-9.9260133868
 21
13.8219107436
  0
LINE
  5
2F2
100
AcDbEntity
  8
0
100
AcDbLine
 62
7
  6
CONTINUOUS
 10
-9.9260133868
 20
13.8219107436
 11
-9.8726961041
 21
13.7503300709
  0
LINE
  5
2F3
100
AcDbEntity
  8
0
100
AcDbLine
 62
7
  6
CONTINUOUS
 10
-9.8726961041
 20
13.7503300709
 11
-9.8195179571
 21
13.6786138101
  0
LWPOLYLINE
  5
2F4
100
AcDbEntity
  8
DRAFT
100
AcDbPolyline
 62
7
  6
CONTINUOUS
 90
25
 70
0
 10
-11.1418344809
 20
13.6548296855
 10
-11.1571867107
 20
13.6761776268
 10
-11.1730254623
 20
13.6966527238
 10
-11.1893507358
 20
13.7162549765
 10
-11.2062121678
 20
13.7350356234
 10
-11.2235601217
 20
13.7529434261
 10
-11.2412456872
 20
13.7698246687
 10
-11.2592717707
 20
13.7856705143
 10
-11.2776354658
 20
13.8004897998
 10
-11.2961791436
 20
13.8141553204
 10
-11.3149043533
 20
13.8266571443
 10
-11.3338095458
 20
13.8380052033
 10
-11.3527324437
 20
13.8481020888
 10
-11.3716731996
 20
13.8569370302
 10
-11.3906316611
 20
13.8645207982
 10
-11.4094450938
 20
13.8707882956
 10
-11.4281122493
 20
13.8757281915
 10
-11.446634376
 20
13.8793518169
 10
-11.464852485
 20
13.8816280676
 10
-11.4827639591
 20
13.8825453448
 10
-11.5003714155
 20
13.8821152473
 10
-11.5175237166
 20
13.8803414668
 10
-11.534170483
 20
13.8772252341
 10
-11.550362094
 20
13.8727653184
 10
-11.5660985496
 20
13.8669617198
  0
LWPOLYLINE
  5
2F5
100
AcDbEntity
  8
0
100
AcDbPolyline
 62
7
  6
CONTINUOUS
 90
10
 70
0
 10
-9.3048733815
 20
12.9674710685
 10
-8.8278327701
 20
12.2792186934
 10
-8.3630037975
 20
11.5797400411
 10
-7.9103864637
 20
10.8690351114
 10
-7.4695474815
 20
10.1463827891
 10
-7.0409201381
 20
9.4125041895
 10
-6.625804295
 20
8.6695626586
 10
-6.2246332393
 20
7.9182793118
 10
-5.8369736838
 20
7.1579330337
 10
-5.4628256286
 20
6.3885238243
  0
LWPOLYLINE
  5
2F6
100
AcDbEntity
  8
RACCORDO
100
AcDbPolyline
 62
250
  6
CONTINUOUS
 90
10
 70
0
 10
-9.514513806
 20
12.1970427704
 10
-9.5340639602
 20
12.2259635297
 10
-9.554723534
 20
12.2534254789
 10
-9.5763845995
 20
12.2792948496
 10
-9.5989403426
 20
12.3034355904
 10
-9.6222812438
 20
12.3257234464
 10
-9.6462868993
 20
12.3460593852
 10
-9.670835552
 20
12.3643421587
 10
-9.6958059483
 20
12.3804648037
 10
-9.7210662164
 20
12.3943386954
  0
LWPOLYLINE
  5
2F7
100
AcDbEntity
  8
RACCORDO
100
AcDbPolyline
 62
7
  6
CONTINUOUS
 90
10
 70
0
 10
-8.955937427
 20
12.4731728394
 10
-8.5092625689
 20
11.8120057835
 10
-8.0739157357
 20
11.1411652267
 10
-7.6498969273
 20
10.4606511687
 10
-7.2368353301
 20
9.7698076803
 10
-6.8351017579
 20
9.0692906908
 10
-6.4458086514
 20
8.3610679886
 10
-6.0693268242
 20
7.6457955032
 10
-5.7052854628
 20
6.922817305
 10
-5.3536845672
 20
6.192133394
  0
LWPOLYLINE
  5
2F8
100
AcDbEntity
  8
RACCORDO
100
AcDbPolyline
 62
250
  6
CONTINUOUS
 90
10
 70
0
 10
-9.7393022356
 20
12.0557948986
 10
-9.7507003628
 20
12.0735470819
 10
-9.762689395
 20
12.0902309056
 10
-9.7752693322
 20
12.1058463699
 10
-9.7885159778
 20
12.1204629586
 10
-9.8023535283
 20
12.1340111878
 10
-9.816554574
 20
12.1462826057
 10
-9.8310433114
 20
12.1572077284
 10
-9.8458955438
 20
12.1668560399
 10
-9.8611112713
 20
12.1752275402
  0
LWPOLYLINE
  5
2F9
100
AcDbEntity
  8
RACCORDO
100
AcDbPolyline
 62
250
  6
CONTINUOUS
 90
6
 70
0
 10
-9.0152668388
 20
15.0597607105
 10
-9.0243876767
 20
15.0767482255
 10
-9.0385597814
 20
15.0985082758
 10
-9.0542889493
 20
15.1186122383
 10
-9.0713060501
 20
15.1367161284
 10
-9.0893199163
 20
15.1525101837
  0
LWPOLYLINE
  5
2FA
100
AcDbEntity
  8
RACCORDO
100
AcDbPolyline
 62
7
  6
CONTINUOUS
 90
10
 70
0
 10
-5.3536845672
 20
6.192133394
 10
-5.2937219651
 20
6.0563180279
 10
-5.2407228999
 20
5.919926521
 10
-5.1946873718
 20
5.7829588733
 10
-5.1554420062
 20
5.6446692851
 10
-5.1231601776
 20
5.505803556
 10
-5.0983620096
 20
5.3685990854
 10
-5.0812208767
 20
5.2338016729
 10
-5.0715634043
 20
5.1006655187
 10
-5.0693895925
 20
4.969190623
  0
LINE
  5
2FB
100
AcDbEntity
  8
0
100
AcDbLine
 62
7
  6
CONTINUOUS
 10
0.7707914405
 20
12.5335885563
 11
0.7705701238
 21
12.5179490788
  0
LINE
  5
2FC
100
AcDbEntity
  8
0
100
AcDbLine
 62
7
  6
CONTINUOUS
 10
0.9823009158
 20
13.0295823281
 11
0.9748681276
 21
12.5043399896
  0
LINE
  5
2FD
100
AcDbEntity
  8
DRAFT
100
AcDbLine
 62
7
  6
CONTINUOUS
 10
1.48298932
 20
13.7165317907
 11
1.4819322424
 21
13.6418327822
  0
LINE
  5
2FE
100
AcDbEntity
  8
0
100
AcDbLine
 62
7
  6
CONTINUOUS
 10
1.5056794964
 20
12.8853221465
 11
1.5001951312
 21
12.4977662611
  0
LINE
  5
2FF
100
AcDbEntity
  8
0
100
AcDbLine
 62
7
  6
CONTINUOUS
 10
1.5664960532
 20
12.9007818297
 11
1.5608184353
 21
12.4995696317
  0
LINE
  5
300
100
AcDbEntity
  8
SMUSSO
100
AcDbLine
 62
7
  6
CONTINUOUS
 10
3.4268725173
 20
16.5217335778
 11
3.4155874528
 21
15.7242678749
  0
LWPOLYLINE
  5
301
100
AcDbEntity
  8
RACCORDO
100
AcDbPolyline
 62
250
  6
CONTINUOUS
 90
13
 70
0
 10
-8.1979020243
 20
0.3122150586
 10
-8.1684885792
 20
0.319632159
 10
-8.1362082248
 20
0.3251352063
 10
-8.1015892236
 20
0.3286341441
 10
-8.0651981098
 20
0.3300717126
 10
-8.0276304181
 20
0.3294243865
 10
-7.9895009375
 20
0.3267027591
 10
-7.9514336507
 20
0.3219513693
 10
-7.9140515224
 20
0.3152479729
 10
-7.8779663052
 20
0.3067022698
 10
-7.8437685275
 20
0.2964541091
 10
-7.8120178304
 20
0.2846712002
 10
-7.7832338087
 20
0.2715463685
  0
LWPOLYLINE
  5
302
100
AcDbEntity
  8
RACCORDO
100
AcDbPolyline
 62
250
  6
CONTINUOUS
 90
8
 70
0
 10
-8.8687455362
 20
1.3343420182
 10
-8.8465592206
 20
1.3327310446
 10
-8.8082800087
 20
1.3278957365
 10
-8.7707129733
 20
1.3210883912
 10
-8.7346730241
 20
1.3124737214
 10
-8.7007843057
 20
1.3022420659
 10
-8.6694909728
 20
1.2905707038
 10
-8.6412485662
 20
1.2776691461
  0
LWPOLYLINE
  5
303
100
AcDbEntity
  8
RACCORDO
100
AcDbPolyline
 62
250
  6
CONTINUOUS
 90
9
 70
0
 10
-28.775697933
 20
13.3795159943
 10
-28.8130947698
 20
13.395322787
 10
-28.8497109591
 20
13.4064222336
 10
-28.8851455517
 20
13.4126928231
 10
-28.919010551
 20
13.414065922
 10
-28.9509351318
 20
13.4105265232
 10
-28.9805697064
 20
13.4021134233
 10
-29.0075897952
 20
13.3889187905
 10
-29.0106004005
 20
13.3870470325
  0
LWPOLYLINE
  5
304
100
AcDbEntity
  8
RACCORDO
100
AcDbPolyline
 62
250
  6
CONTINUOUS
 90
13
 70
0
 10
-6.4581293929
 20
4.4746015645
 10
-6.4387069497
 20
4.465807922
 10
-6.4172658078
 20
4.4579297694
 10
-6.3941647339
 20
4.4510989654
 10
-6.3697902765
 20
4.4454298445
 10
-6.3445503291
 20
4.4410173095
 10
-6.3188673081
 20
4.4379352371
 10
-6.2931710163
 20
4.4362352316
 10
-6.2678915144
 20
4.4359457712
 10
-6.2434519511
 20
4.4370717213
 10
-6.2202613781
 20
4.4395942502
 10
-6.1987079098
 20
4.4434711553
 10
-6.1791522896
 20
4.4486375658
  0
LWPOLYLINE
  5
305
100
AcDbEntity
  8
0
100
AcDbPolyline
 62
7
  6
CONTINUOUS
 90
10
 70
0
 10
-9.9794698053
 20
13.8933558282
 10
-10.0182272427
 20
13.9427994744
 10
-10.05830413
 20
13.989529674
 10
-10.0997004672
 20
14.0335464268
 10
-10.1426964937
 20
14.0750935936
 10
-10.18701197
 20
14.1139273136
 10
-10.2318061785
 20
14.149316005
 10
-10.2767988798
 20
14.1810158071
 10
-10.3222703133
 20
14.2092705805
 10
-10.3682204788
 20
14.2340803252
  0
LWPOLYLINE
  5
306
100
AcDbEntity
  8
RACCORDO
100
AcDbPolyline
 62
7
  6
CONTINUOUS
 90
15
 70
0
 10
8.9937534855
 20
-7.9952545241
 10
9.0915390665
 20
-8.1254338352
 10
9.1948851435
 20
-8.2776138819
 10
9.2916085943
 20
-8.4353966989
 10
9.3813211435
 20
-8.5980501178
 10
9.4636780829
 20
-8.764886338
 10
9.5383116584
 20
-8.9351345973
 10
9.6048739373
 20
-9.1080028321
 10
9.6630679363
 20
-9.2827683028
 10
9.7126014655
 20
-9.4586735443
 10
9.7531866603
 20
-9.6348863591
 10
9.7845736978
 20
-9.8106010297
 10
9.8065436854
 20
-9.9850398677
 10
9.8188999056
 20
-10.1574212442
 10
9.8214692864
 20
-10.3269537059
  0
LWPOLYLINE
  5
307
100
AcDbEntity
  8
RACCORDO
100
AcDbPolyline
 62
250
  6
CONTINUOUS
 90
25
 70
0
 10
8.9915027003
 20
-8.1543075767
 10
9.0221611467
 20
-8.196872306
 10
9.1103502845
 20
-8.3301752228
 10
9.1910061155
 20
-8.4627913355
 10
9.2640119524
 20
-8.5932282736
 10
9.3300075567
 20
-8.7213047658
 10
9.3890193166
 20
-8.845723026
 10
9.4412239469
 20
-8.965334498
 10
9.4873158068
 20
-9.0801779643
 10
9.5281022158
 20
-9.1908737773
 10
9.5639493331
 20
-9.2971151407
 10
9.5952232846
 20
-9.3986380294
 10
9.6225638414
 20
-9.4962506519
 10
9.6462594809
 20
-9.5897971713
 10
9.6665982624
 20
-9.6791577037
 10
9.6840566509
 20
-9.7652479089
 10
9.6988426494
 20
-9.8480006102
 10
9.7111604635
 20
-9.9273572331
 10
9.7213302705
 20
-10.0042545386
 10
9.7294819019
 20
-10.0786300335
 10
9.735750399
 20
-10.1504806973
 10
9.7403212108
 20
-10.2208094537
 10
9.7432652868
 20
-10.2899170203
 10
9.7446179126
 20
-10.3574284297
 10
9.744441077
 20
-10.4233165246
  0
LWPOLYLINE
  5
308
100
AcDbEntity
  8
RACCORDO
100
AcDbPolyline
 62
250
  6
CONTINUOUS
 90
15
 70
0
 10
-5.0271878206
 20
12.3363762117
 10
-5.043005476
 20
12.3605131465
 10
-5.0590942707
 20
12.3832024168
 10
-5.0753340958
 20
12.4044276914
 10
-5.0916003094
 20
12.424167064
 10
-5.1078131818
 20
12.4424631269
 10
-5.1239407515
 20
12.4594056073
 10
-5.1399119888
 20
12.4750297447
 10
-5.1556612672
 20
12.4893742616
 10
-5.171180856
 20
12.5025277955
 10
-5.1864179876
 20
12.5145314366
 10
-5.2013287092
 20
12.5254310313
 10
-5.2159308392
 20
12.5353125391
 10
-5.2302099231
 20
12.5442326093
 10
-5.2441176507
 20
12.552224311
  0
LWPOLYLINE
  5
309
100
AcDbEntity
  8
RACCORDO
100
AcDbPolyline
 62
7
  6
CONTINUOUS
 90
10
 70
0
 10
-5.4254974989
 20
12.6829272368
 10
-5.5449069739
 20
12.8678798596
 10
-5.6651209029
 20
13.0520159339
 10
-5.7861392861
 20
13.2353354599
 10
-5.907969746
 20
13.4178498393
 10
-6.0306046599
 20
13.5995476704
 10
-6.1540211599
 20
13.7803947473
 10
-6.2782116234
 20
13.9603796682
 10
-6.4031836728
 20
14.139513835
 10
-6.5289373084
 20
14.3177972477
  0
LWPOLYLINE
  5
30A
100
AcDbEntity
  8
RACCORDO
100
AcDbPolyline
 62
250
  6
CONTINUOUS
 90
19
 70
0
 10
2.1206832986
 20
11.2795030702
 10
2.1222116686
 20
11.2649254337
 10
2.1230321656
 20
11.2490743133
 10
2.1231223516
 20
11.2319500017
 10
2.1224610437
 20
11.2135641851
 10
2.1210313028
 20
11.1939166359
 10
2.1188115627
 20
11.1729812855
 10
2.1157797109
 20
11.1507686636
 10
2.1119145371
 20
11.12727479
 10
2.1071828253
 20
11.1024368104
 10
2.1015550068
 20
11.0762543372
 10
2.0950013447
 20
11.0487241306
 10
2.0874716424
 20
11.0197642806
 10
2.0789288934
 20
10.9893733718
 10
2.0693369626
 20
10.9575589775
 10
2.0586340239
 20
10.9242491716
 10
2.046764291
 20
10.8894156448
 10
2.0336789386
 20
10.8530673398
 10
2.019319795
 20
10.8151866977
  0
LWPOLYLINE
  5
30B
100
AcDbEntity
  8
RACCORDO
100
AcDbPolyline
 62
7
  6
CONTINUOUS
 90
12
 70
0
 10
2.8300800195
 20
13.3474275655
 10
2.8288202131
 20
13.3607177592
 10
2.826608799
 20
13.3733030199
 10
2.8234457774
 20
13.3851833474
 10
2.8192854021
 20
13.396480191
 10
2.8141734191
 20
13.4070721014
 10
2.808247067
 20
13.416594731
 10
2.8015065548
 20
13.4249635954
 10
2.7939516735
 20
13.432263179
 10
2.7857190339
 20
13.4383825878
 10
2.7768125363
 20
13.4433148346
 10
2.7678071323
 20
13.4468809494
  0
LINE
  5
30C
100
AcDbEntity
  8
RACCORDO
100
AcDbLine
 62
7
  6
CONTINUOUS
 10
2.8614137413
 20
12.8285676702
 11
2.8300800195
 21
13.3474275655
  0
LWPOLYLINE
  5
30D
100
AcDbEntity
  8
RACCORDO
100
AcDbPolyline
 62
250
  6
CONTINUOUS
 90
13
 70
0
 10
-7.884221788
 20
-10.1467373415
 10
-7.9038545404
 20
-10.1573924252
 10
-7.9254838249
 20
-10.1666662266
 10
-7.9487476647
 20
-10.174403544
 10
-7.9732567282
 20
-10.1804748898
 10
-7.9986008442
 20
-10.184778657
 10
-8.0243558666
 20
-10.1872428199
 10
-8.0500907724
 20
-10.1878261396
 10
-8.0753748755
 20
-10.1865188539
 10
-8.099785034
 20
-10.1833428409
 10
-8.122912732
 20
-10.1783512527
 10
-8.1443709161
 20
-10.171627626
 10
-8.1638004733
 20
-10.1632844839
  0
LWPOLYLINE
  5
30E
100
AcDbEntity
  8
RACCORDO
100
AcDbPolyline
 62
250
  6
CONTINUOUS
 90
31
 70
0
 10
-10.5216789289
 20
10.7898853784
 10
-10.5117031434
 20
10.7855762477
 10
-10.5020086144
 20
10.7826200336
 10
-10.4925953418
 20
10.7810167361
 10
-10.4833629248
 20
10.7807742843
 10
-10.4744117642
 20
10.7818847491
 10
-10.4660430626
 20
10.7843243426
 10
-10.4582774238
 20
10.7881404798
 10
-10.4510942438
 20
10.7932857456
 10
-10.4447329133
 20
10.7995941075
 10
-10.4392229728
 20
10.80710349
 10
-10.4345348816
 20
10.8157759685
 10
-10.4308194085
 20
10.8253317372
 10
-10.4281078875
 20
10.8358001026
 10
-10.4263689845
 20
10.847151758
 10
-10.425659466
 20
10.8590189783
 10
-10.4260132737
 20
10.8714187492
 10
-10.427396466
 20
10.8843340848
 10
-10.4297639836
 20
10.8973463027
 10
-10.4331478633
 20
10.910458145
 10
-10.4375160683
 20
10.9236668695
 10
-10.4427274297
 20
10.9365455668
 10
-10.448810191
 20
10.9490840011
 10
-10.4557361085
 20
10.9612924082
 10
-10.4632792824
 20
10.9727745867
 10
-10.4714630851
 20
10.9835079013
 10
-10.4802641441
 20
10.9935149872
 10
-10.4893864428
 20
11.0024675495
 10
-10.4987313087
 20
11.0102561562
 10
-10.5083974143
 20
11.0169902391
 10
-10.5183847594
 20
11.0226697983
  0
LWPOLYLINE
  5
30F
100
AcDbEntity
  8
RACCORDO
100
AcDbPolyline
 62
250
  6
CONTINUOUS
 90
31
 70
0
 10
-10.5183847594
 20
11.0226697983
 10
-10.5283605449
 20
11.0269789289
 10
-10.5380550739
 20
11.0299351431
 10
-10.5474683465
 20
11.0315384406
 10
-10.5567007635
 20
11.0317808924
 10
-10.565651924
 20
11.0306704276
 10
-10.5740206257
 20
11.0282308341
 10
-10.5817862645
 20
11.0244146969
 10
-10.5889694444
 20
11.0192694311
 10
-10.595330775
 20
11.0129610692
 10
-10.6008407155
 20
11.0054516867
 10
-10.6055288066
 20
10.9967792082
 10
-10.6092442797
 20
10.9872234395
 10
-10.6119558008
 20
10.9767550741
 10
-10.6136947038
 20
10.9654034187
 10
-10.6144042223
 20
10.9535361984
 10
-10.6140504145
 20
10.9411364275
 10
-10.6126672223
 20
10.9282210919
 10
-10.6102997047
 20
10.915208874
 10
-10.606915825
 20
10.9020970317
 10
-10.6025476199
 20
10.8888883072
 10
-10.5973362586
 20
10.8760096099
 10
-10.5912534973
 20
10.8634711756
 10
-10.5843275798
 20
10.8512627685
 10
-10.5767844058
 20
10.83978059
 10
-10.5686006032
 20
10.8290472754
 10
-10.5597995441
 20
10.8190401894
 10
-10.5506772455
 20
10.8100876272
 10
-10.5413323795
 20
10.8022990205
 10
-10.531666274
 20
10.7955649376
 10
-10.5216789289
 20
10.7898853784
  0
LWPOLYLINE
  5
310
100
AcDbEntity
  8
RACCORDO
100
AcDbPolyline
 62
250
  6
CONTINUOUS
 90
27
 70
0
 10
-10.1324562655
 20
10.4971701192
 10
-9.9966616524
 20
10.4380705863
 10
-9.8625661354
 20
10.3676869621
 10
-9.7301871588
 20
10.2858794832
 10
-9.5995072784
 20
10.1927879132
 10
-9.4722210339
 20
10.0895975743
 10
-9.3483675301
 20
9.9761810959
 10
-9.2279076622
 20
9.8526658487
 10
-9.1124186554
 20
9.7206192668
 10
-9.0019566168
 20
9.5799266352
 10
-8.8964654394
 20
9.430702669
 10
-8.7973540271
 20
9.2748589474
 10
-8.7046972971
 20
9.1122963476
 10
-8.6184203322
 20
8.9431139925
 10
-8.5397072854
 20
8.76952083
 10
-8.4686542754
 20
8.5914420126
 10
-8.4051651834
 20
8.4089523878
 10
-8.350135806
 20
8.224485446
 10
-8.3036817147
 20
8.0380017068
 10
-8.2656873379
 20
7.8495406507
 10
-8.2367017581
 20
7.66165421
 10
-8.2168475473
 20
7.4743574348
 10
-8.2060021335
 20
7.287635275
 10
-8.2043468834
 20
7.103994513
 10
-8.2119422526
 20
6.9242707428
 10
-8.2287277856
 20
6.7476283703
 10
-8.2547034822
 20
6.5740673955
  0
LWPOLYLINE
  5
311
100
AcDbEntity
  8
RACCORDO
100
AcDbPolyline
 62
7
  6
CONTINUOUS
 90
9
 70
0
 10
-10.4177647997
 20
10.5674686616
 10
-10.3730234134
 20
10.5477635763
 10
-10.3272034949
 20
10.5327668559
 10
-10.2808481056
 20
10.5225506629
 10
-10.2350321513
 20
10.5171265803
 10
-10.1897057642
 20
10.5162381024
 10
-10.1437093528
 20
10.5199156096
 10
-10.0970744206
 20
10.5285130349
 10
-10.0535940176
 20
10.5412292587
  0
LWPOLYLINE
  5
312
100
AcDbEntity
  8
RACCORDO
100
AcDbPolyline
 62
7
  6
CONTINUOUS
 90
9
 70
0
 10
-18.1959393927
 20
14.4565559581
 10
-18.1511980064
 20
14.4368508728
 10
-18.1053780879
 20
14.4218541525
 10
-18.0590226986
 20
14.4116379594
 10
-18.0132067444
 20
14.4062138768
 10
-17.9678803572
 20
14.4053253989
 10
-17.9218839459
 20
14.4090029061
 10
-17.8752490136
 20
14.4176003315
 10
-17.8317686107
 20
14.4303165552
  0
LINE
  5
313
100
AcDbEntity
  8
RACCORDO
100
AcDbLine
 62
7
  6
CONTINUOUS
 10
-9.639347163
 20
8.6088343077
 11
-24.5595156253
 21
16.0689185388
  0
LINE
  5
314
100
AcDbEntity
  8
0
100
AcDbLine
 62
7
  6
CONTINUOUS
 10
-13.7366372587
 20
17.9091989695
 11
-13.7700207959
 21
17.9383389915
  0
LWPOLYLINE
  5
315
100
AcDbEntity
  8
RACCORDO
100
AcDbPolyline
 62
7
  6
CONTINUOUS
 90
5
 70
0
 10
-5.3203096825
 20
12.5564761332
 10
-5.3350106221
 20
12.5710462482
 10
-5.3495434974
 20
12.5862478898
 10
-5.3638817438
 20
12.6021301919
 10
-5.3780529719
 20
12.6186429547
  0
LINE
  5
316
100
AcDbEntity
  8
RACCORDO
100
AcDbLine
 62
7
  6
CONTINUOUS
 10
-5.3780529719
 20
12.6186429547
 11
-5.392057711
 21
12.6357856346
  0
LWPOLYLINE
  5
317
100
AcDbEntity
  8
0
100
AcDbPolyline
 62
7
  6
CONTINUOUS
 90
10
 70
0
 10
-7.1667763522
 20
15.1928504731
 10
-7.2058231768
 20
15.2426320099
 10
-7.2460585189
 20
15.2895714549
 10
-7.2874823787
 20
15.3336688081
 10
-7.3302800242
 20
15.3750865487
 10
-7.3742661872
 20
15.4136621974
 10
-7.4188850637
 20
15.4489083168
 10
-7.4639513856
 20
15.4806624278
 10
-7.5096504209
 20
15.5090870094
 10
-7.5559821697
 20
15.5341820617
  0
LWPOLYLINE
  5
318
100
AcDbEntity
  8
RACCORDO
100
AcDbPolyline
 62
7
  6
CONTINUOUS
 90
7
 70
0
 10
-5.392057711
 20
12.6357856346
 10
-5.397821935
 20
12.6432712326
 10
-5.4035140327
 20
12.6509097736
 10
-5.4091307466
 20
12.6586981567
 10
-5.4146689149
 20
12.6666330083
 10
-5.4201254802
 20
12.6747106784
 10
-5.4254974989
 20
12.6829272368
  0
LINE
  5
319
100
AcDbEntity
  8
0
100
AcDbLine
 62
7
  6
CONTINUOUS
 10
-7.1667763522
 20
15.1928504731
 11
-7.1100644266
 21
15.1169621139
  0
LWPOLYLINE
  5
31A
100
AcDbEntity
  8
0
100
AcDbPolyline
 62
7
  6
CONTINUOUS
 90
4
 70
0
 10
-7.1100644266
 20
15.1169621139
 10
-7.0534901214
 20
15.0408940763
 10
-7.0252545765
 20
15.002792678
 10
-6.9970534367
 20
14.9646463601
  0
LINE
  5
31B
100
AcDbEntity
  8
0
100
AcDbLine
 62
7
  6
CONTINUOUS
 10
0.4629472663
 20
12.8049397522
 11
0.2753319757
 21
13.3830667981
  0
LWPOLYLINE
  5
31C
100
AcDbEntity
  8
RACCORDO
100
AcDbPolyline
 62
250
  6
CONTINUOUS
 90
16
 70
0
 10
1.9708978455
 20
11.306271385
 10
1.9779137365
 20
11.2841443157
 10
1.9845192215
 20
11.2605681675
 10
1.9906771506
 20
11.2355479733
 10
1.9963674712
 20
11.2090879511
 10
2.0015768612
 20
11.1811645953
 10
2.0062643618
 20
11.1517343702
 10
2.0104091806
 20
11.1207898315
 10
2.0139901323
 20
11.088316377
 10
2.0169447844
 20
11.0542490627
 10
2.0192536375
 20
11.0185695937
 10
2.0208871948
 20
10.9812728582
 10
2.0217447268
 20
10.9423019552
 10
2.0217691348
 20
10.9016273752
 10
2.0209652866
 20
10.8592567769
 10
2.0193196851
 20
10.8151868872
  0
LWPOLYLINE
  5
31D
100
AcDbEntity
  8
RACCORDO
100
AcDbPolyline
 62
250
  6
CONTINUOUS
 90
5
 70
0
 10
1.5183742346
 20
11.9042605131
 10
1.5304451207
 20
11.8658605609
 10
1.5404763397
 20
11.8243425263
 10
1.5472214326
 20
11.7805509832
 10
1.5500911712
 20
11.7352140742
  0
LINE
  5
31E
100
AcDbEntity
  8
RACCORDO
100
AcDbLine
 62
250
  6
CONTINUOUS
 10
9.1408617823
 20
12.1465554828
 11
8.746102026
 21
-15.7493742937
  0
LWPOLYLINE
  5
31F
100
AcDbEntity
  8
RACCORDO
100
AcDbPolyline
 62
250
  6
CONTINUOUS
 90
7
 70
0
 10
10.1213486595
 20
10.8641981259
 10
10.1198488068
 20
10.850535763
 10
10.1136725917
 20
10.8322890341
 10
10.1028225677
 20
10.8146204115
 10
10.0874722278
 20
10.7978124184
 10
10.0678670255
 20
10.7821338161
 10
10.04432045
 20
10.7678353071
  0
LWPOLYLINE
  5
320
100
AcDbEntity
  8
RACCORDO
100
AcDbPolyline
 62
250
  6
CONTINUOUS
 90
7
 70
0
 10
9.2811404976
 20
12.313124241
 10
9.2775207849
 20
12.285568144
 10
9.2656012918
 20
12.2545935722
 10
9.2455763422
 20
12.2247193231
 10
9.2177810075
 20
12.1964452732
 10
9.1826803782
 20
12.1702445234
 10
9.1408617823
 20
12.1465554828
  0
LWPOLYLINE
  5
321
100
AcDbEntity
  8
RACCORDO
100
AcDbPolyline
 62
250
  6
CONTINUOUS
 90
13
 70
0
 10
-8.5554746103
 20
5.7854170542
 10
-8.5260611804
 20
5.79283415
 10
-8.4937808441
 20
5.7983371948
 10
-8.4591618634
 20
5.8018361321
 10
-8.4227707715
 20
5.8032737025
 10
-8.3852031019
 20
5.8026263804
 10
-8.3470736428
 20
5.7999047593
 10
-8.3090063756
 20
5.7951533778
 10
-8.2716242644
 20
5.7884499916
 10
-8.2355390603
 20
5.7799043003
 10
-8.2013412911
 20
5.7696561525
 10
-8.1695905971
 20
5.7578732573
 10
-8.1408065726
 20
5.7447484396
  0
LWPOLYLINE
  5
322
100
AcDbEntity
  8
RACCORDO
100
AcDbPolyline
 62
7
  6
CONTINUOUS
 90
13
 70
0
 10
-8.6700189695
 20
6.534686333
 10
-8.6383078554
 20
6.5424732759
 10
-8.6043580034
 20
6.5501876746
 10
-8.5686873559
 20
6.5574729006
 10
-8.5317182035
 20
6.5636279019
 10
-8.4940067462
 20
6.5685253846
 10
-8.456245131
 20
6.572702559
 10
-8.4188870379
 20
6.5758765801
 10
-8.3823431146
 20
6.5776304386
 10
-8.3472351348
 20
6.5784546408
 10
-8.3140371906
 20
6.5783960261
 10
-8.2830500048
 20
6.576989036
 10
-8.2546155532
 20
6.5740665351
  0
LINE
  5
323
100
AcDbEntity
  8
RACCORDO
100
AcDbLine
 62
250
  6
CONTINUOUS
 10
-10.5395598152
 20
10.6018762962
 11
-10.4529494488
 21
10.5873172176
  0
LINE
  5
324
100
AcDbEntity
  8
RACCORDO
100
AcDbLine
 62
250
  6
CONTINUOUS
 10
-10.1878900139
 20
10.5163832754
 11
-10.1324562655
 21
10.4971701192
  0
LWPOLYLINE
  5
325
100
AcDbEntity
  8
RACCORDO
100
AcDbPolyline
 62
250
  6
CONTINUOUS
 90
31
 70
0
 10
-18.2998535219
 20
14.6789726749
 10
-18.2898777365
 20
14.6746635443
 10
-18.2801832074
 20
14.6717073302
 10
-18.2707699348
 20
14.6701040326
 10
-18.2615375178
 20
14.6698615808
 10
-18.2525863573
 20
14.6709720456
 10
-18.2442176556
 20
14.6734116392
 10
-18.2364520168
 20
14.6772277763
 10
-18.2292688369
 20
14.6823730421
 10
-18.2229075064
 20
14.688681404
 10
-18.2173975658
 20
14.6961907865
 10
-18.2127094747
 20
14.7048632651
 10
-18.2089940016
 20
14.7144190338
 10
-18.2062824806
 20
14.7248873991
 10
-18.2045435776
 20
14.7362390546
 10
-18.203834059
 20
14.7481062749
 10
-18.2041878668
 20
14.7605060457
 10
-18.205571059
 20
14.7734213813
 10
-18.2079385766
 20
14.7864335992
 10
-18.2113224563
 20
14.7995454415
 10
-18.2156906614
 20
14.812754166
 10
-18.2209020228
 20
14.8256328634
 10
-18.226984784
 20
14.8381712976
 10
-18.2339107015
 20
14.8503797047
 10
-18.2414538755
 20
14.8618618833
 10
-18.2496376781
 20
14.8725951978
 10
-18.2584387372
 20
14.8826022838
 10
-18.2675610358
 20
14.891554846
 10
-18.2769059018
 20
14.8993434527
 10
-18.2865720073
 20
14.9060775356
 10
-18.2965593524
 20
14.9117570948
  0
LWPOLYLINE
  5
326
100
AcDbEntity
  8
RACCORDO
100
AcDbPolyline
 62
250
  6
CONTINUOUS
 90
31
 70
0
 10
-18.2965593524
 20
14.9117570948
 10
-18.3065351379
 20
14.9160662255
 10
-18.316229667
 20
14.9190224396
 10
-18.3256429396
 20
14.9206257372
 10
-18.3348753565
 20
14.9208681889
 10
-18.3438265171
 20
14.9197577241
 10
-18.3521952187
 20
14.9173181306
 10
-18.3599608576
 20
14.9135019935
 10
-18.3671440375
 20
14.9083567276
 10
-18.373505368
 20
14.9020483657
 10
-18.3790153085
 20
14.8945389832
 10
-18.3837033997
 20
14.8858665047
 10
-18.3874188728
 20
14.876310736
 10
-18.3901303938
 20
14.8658423707
 10
-18.3918692968
 20
14.8544907152
 10
-18.3925788154
 20
14.8426234949
 10
-18.3922250076
 20
14.8302237241
 10
-18.3908418154
 20
14.8173083884
 10
-18.3884742977
 20
14.8042961706
 10
-18.3850904181
 20
14.7911843283
 10
-18.380722213
 20
14.7779756038
 10
-18.3755108516
 20
14.7650969064
 10
-18.3694280904
 20
14.7525584721
 10
-18.3625021728
 20
14.740350065
 10
-18.3549589989
 20
14.7288678865
 10
-18.3467751962
 20
14.7181345719
 10
-18.3379741372
 20
14.708127486
 10
-18.3288518385
 20
14.6991749238
 10
-18.3195069726
 20
14.6913863171
 10
-18.3098408671
 20
14.6846522341
 10
-18.2998535219
 20
14.6789726749
  0
LWPOLYLINE
  5
327
100
AcDbEntity
  8
RACCORDO
100
AcDbPolyline
 62
250
  6
CONTINUOUS
 90
9
 70
0
 10
-10.2553152355
 20
11.4937251931
 10
-10.2946862497
 20
11.510849196
 10
-10.3336791466
 20
11.5226939495
 10
-10.3718675586
 20
11.5291373286
 10
-10.4088211285
 20
11.5301171872
 10
-10.4441528436
 20
11.5256342509
 10
-10.4775164588
 20
11.5157309716
 10
-10.5085617793
 20
11.5004934246
 10
-10.5116353893
 20
11.4986126453
  0
LWPOLYLINE
  5
328
100
AcDbEntity
  8
RACCORDO
100
AcDbPolyline
 62
250
  6
CONTINUOUS
 90
9
 70
0
 10
-18.0334898285
 20
15.3828124896
 10
-18.0728608427
 20
15.3999364925
 10
-18.1118537397
 20
15.411781246
 10
-18.1500421517
 20
15.4182246252
 10
-18.1869957215
 20
15.4192044837
 10
-18.2223274366
 20
15.4147215475
 10
-18.2556910519
 20
15.4048182681
 10
-18.2867363723
 20
15.3895807211
 10
-18.2898099824
 20
15.3876999418
  0
LWPOLYLINE
  5
329
100
AcDbEntity
  8
RACCORDO
100
AcDbPolyline
 62
250
  6
CONTINUOUS
 90
10
 70
0
 10
-17.4732394109
 20
15.9812916099
 10
-17.488675808
 20
15.9882398132
 10
-17.5040476064
 20
15.9936855218
 10
-17.5193548062
 20
15.9976287357
 10
-17.5346807818
 20
16.0000789799
 10
-17.5499421588
 20
16.0010267295
 10
-17.5648888141
 20
16.0004434094
 10
-17.5794373732
 20
15.9983194946
 10
-17.5936712107
 20
15.9946645102
 10
-17.6075903263
 20
15.9894784561
  0
LWPOLYLINE
  5
32A
100
AcDbEntity
  8
RACCORDO
100
AcDbPolyline
 62
250
  6
CONTINUOUS
 90
10
 70
0
 10
-17.3331943595
 20
16.2004026214
 10
-17.3588272958
 20
16.2119652079
 10
-17.3844819191
 20
16.2211255105
 10
-17.4100199174
 20
16.2278373095
 10
-17.4353049242
 20
16.2320795074
 10
-17.460209008
 20
16.2338291758
 10
-17.4846136636
 20
16.233066569
 10
-17.5083972747
 20
16.2298014854
 10
-17.5314304311
 20
16.2240531319
 10
-17.5535870404
 20
16.2158395192
  0
LWPOLYLINE
  5
32B
100
AcDbEntity
  8
0
100
AcDbPolyline
 62
7
  6
CONTINUOUS
 90
10
 70
0
 10
-15.5652541722
 20
16.8325971719
 10
-15.6112558981
 20
16.8537633729
 10
-15.6568824362
 20
16.8710575852
 10
-15.7021337864
 20
16.8844798089
 10
-15.7472931036
 20
16.8940678804
 10
-15.7920772329
 20
16.8997839632
 10
-15.8356367102
 20
16.9015145483
 10
-15.8776883806
 20
16.8992217993
 10
-15.9185153989
 20
16.8929435525
 10
-15.9581177651
 20
16.8826798081
  0
LINE
  5
32C
100
AcDbEntity
  8
RACCORDO
100
AcDbLine
 62
250
  6
CONTINUOUS
 10
-9.8611112713
 20
12.1752275402
 11
-17.4732394109
 21
15.9812916099
  0
LINE
  5
32D
100
AcDbEntity
  8
RACCORDO
100
AcDbLine
 62
250
  6
CONTINUOUS
 10
-9.721066218
 20
12.3943496594
 11
-17.3331943576
 21
16.2004137292
  0
LINE
  5
32E
100
AcDbEntity
  8
DRAFT
100
AcDbLine
 62
7
  6
CONTINUOUS
 10
-14.818789743
 20
15.4933073166
 11
-14.3945256743
 21
15.2811752822
  0
LINE
  5
32F
100
AcDbEntity
  8
DRAFT
100
AcDbLine
 62
7
  6
CONTINUOUS
 10
-11.5660985496
 20
13.8669617198
 11
-11.1418344809
 21
13.6548296855
  0
LINE
  5
330
100
AcDbEntity
  8
RACCORDO
100
AcDbLine
 62
7
  6
CONTINUOUS
 10
-9.1677515585
 20
12.6677882243
 11
-10.646859734
 21
13.4073423121
  0
LINE
  5
331
100
AcDbEntity
  8
RACCORDO
100
AcDbLine
 62
7
  6
CONTINUOUS
 10
-15.3137644899
 20
15.74079469
 11
-16.786331296
 21
16.4770780931
  0
LINE
  5
332
100
AcDbEntity
  8
0
100
AcDbLine
 62
7
  6
CONTINUOUS
 10
-15.4326114756
 20
15.8880416047
 11
-10.5255446053
 21
13.4345081696
  0
LINE
  5
333
100
AcDbEntity
  8
0
100
AcDbLine
 62
7
  6
CONTINUOUS
 10
-15.5652541722
 20
16.8325971719
 11
-10.3682204788
 21
14.2340803252
  0
LINE
  5
334
100
AcDbEntity
  8
RACCORDO
100
AcDbLine
 62
250
  6
CONTINUOUS
 10
-5.257628931
 20
12.5593348214
 11
-5.3793013264
 21
12.6201710191
  0
LINE
  5
335
100
AcDbEntity
  8
RACCORDO
100
AcDbLine
 62
250
  6
CONTINUOUS
 10
-5.2441176507
 20
12.552224311
 11
-5.2576289313
 21
12.5593348104
  0
LINE
  5
336
100
AcDbEntity
  8
RACCORDO
100
AcDbLine
 62
250
  6
CONTINUOUS
 10
-9.1080223258
 20
15.1657241635
 11
-9.1270932752
 21
15.1761319728
  0
LWPOLYLINE
  5
337
100
AcDbEntity
  8
RACCORDO
100
AcDbPolyline
 62
7
  6
CONTINUOUS
 90
10
 70
0
 10
-9.1677515585
 20
12.6677882243
 10
-9.1421661842
 20
12.6538134088
 10
-9.1170012257
 20
12.6378415988
 10
-9.0922566829
 20
12.6198727944
 10
-9.0678096199
 20
12.5997940418
 10
-9.0437829727
 20
12.5777182947
 10
-9.020545549
 20
12.5539844147
 10
-8.9982202848
 20
12.5287053558
 10
-8.9766842441
 20
12.501768164
 10
-8.955937427
 20
12.4731728394
  0
LINE
  5
338
100
AcDbEntity
  8
RACCORDO
100
AcDbLine
 62
7
  6
CONTINUOUS
 10
-5.0271870642
 20
12.3363768013
 11
-5.0591352768
 21
12.3573020785
  0
LWPOLYLINE
  5
339
100
AcDbEntity
  8
RACCORDO
100
AcDbPolyline
 62
7
  6
CONTINUOUS
 90
13
 70
0
 10
-5.0591352768
 20
12.3573020785
 10
-5.0908252958
 20
12.3783543262
 10
-5.1065730586
 20
12.3889253705
 10
-5.1222671566
 20
12.3995975202
 10
-5.1379151489
 20
12.4103694275
 10
-5.1535095888
 20
12.4212423147
 10
-5.1690381254
 20
12.4322839824
 10
-5.1845002934
 20
12.4434920157
 10
-5.1998967663
 20
12.4548686117
 10
-5.2152170051
 20
12.4664883907
 10
-5.2304578321
 20
12.4783414081
 10
-5.2456227451
 20
12.4904372814
 10
-5.2550891086
 20
12.4981890444
  0
LINE
  5
33A
100
AcDbEntity
  8
RACCORDO
100
AcDbLine
 62
250
  6
CONTINUOUS
 10
-9.0893199163
 20
15.1525101837
 11
-9.1080223258
 21
15.1657241635
  0
LINE
  5
33B
100
AcDbEntity
  8
RACCORDO
100
AcDbLine
 62
7
  6
CONTINUOUS
 10
-8.9279472368
 20
15.0982513399
 11
-9.0067369244
 21
15.1595613487
  0
LINE
  5
33C
100
AcDbEntity
  8
RACCORDO
100
AcDbLine
 62
7
  6
CONTINUOUS
 10
-5.6641998746
 20
15.5513871165
 11
-5.309353325
 21
15.2563188161
  0
LWPOLYLINE
  5
33D
100
AcDbEntity
  8
RACCORDO
100
AcDbPolyline
 62
7
  6
CONTINUOUS
 90
6
 70
0
 10
-5.2550891086
 20
12.4981890444
 10
-5.2607113615
 20
12.502879839
 10
-5.2757279404
 20
12.5156575233
 10
-5.2906687286
 20
12.5287813841
 10
-5.3055215278
 20
12.5423889668
 10
-5.3203096825
 20
12.5564761332
  0
LWPOLYLINE
  5
33E
100
AcDbEntity
  8
RACCORDO
100
AcDbPolyline
 62
7
  6
CONTINUOUS
 90
6
 70
0
 10
1.6988111238
 20
11.840488908
 10
1.67473608
 20
11.8749773047
 10
1.6478518094
 20
11.9073156286
 10
1.6183469196
 20
11.9372787218
 10
1.5864280379
 20
11.9646570542
 10
1.5523201328
 20
11.9892572764
  0
LWPOLYLINE
  5
33F
100
AcDbEntity
  8
RACCORDO
100
AcDbPolyline
 62
250
  6
CONTINUOUS
 90
5
 70
0
 10
1.9475684435
 20
11.3640441399
 10
1.9588646275
 20
11.3458962623
 10
1.9727686013
 20
11.3294557
 10
1.9890629297
 20
11.3149795565
 10
2.0074927961
 20
11.302694215
  0
LINE
  5
340
100
AcDbEntity
  8
RACCORDO
100
AcDbLine
 62
7
  6
CONTINUOUS
 10
1.7199071368
 20
11.8040900632
 11
1.6988111238
 21
11.840488908
  0
LINE
  5
341
100
AcDbEntity
  8
SMUSSO
100
AcDbLine
 62
250
  6
CONTINUOUS
 10
-1.1199330154
 20
15.1431086914
 11
-0.7724970822
 21
14.5302067459
  0
LWPOLYLINE
  5
342
100
AcDbEntity
  8
RACCORDO
100
AcDbPolyline
 62
250
  6
CONTINUOUS
 90
3
 70
0
 10
1.4878532543
 20
11.9704962658
 10
1.5045030693
 20
11.9391542801
 10
1.5183742346
 20
11.9042605131
  0
LWPOLYLINE
  5
343
100
AcDbEntity
  8
RACCORDO
100
AcDbPolyline
 62
250
  6
CONTINUOUS
 90
10
 70
0
 10
1.5500947338
 20
11.7352072871
 10
1.6032533928
 20
11.6335712219
 10
1.6561585186
 20
11.5317839934
 10
1.7088092038
 20
11.4298473342
 10
1.7612045451
 20
11.3277629794
 10
1.8133436439
 20
11.2255326666
 10
1.8652256054
 20
11.1231581363
 10
1.9168495397
 20
11.0206411313
 10
1.9682145609
 20
10.9179833967
 10
2.0193197876
 20
10.8151866803
  0
LWPOLYLINE
  5
344
100
AcDbEntity
  8
RACCORDO
100
AcDbPolyline
 62
7
  6
CONTINUOUS
 90
3
 70
0
 10
1.7199071368
 20
11.8040900632
 10
1.7727075336
 20
11.7031390031
 10
1.8252554208
 20
11.6020390943
  0
LINE
  5
345
100
AcDbEntity
  8
RACCORDO
100
AcDbLine
 62
7
  6
CONTINUOUS
 10
1.8252554208
 20
11.6020390943
 11
1.877549924
 21
11.5007920269
  0
LINE
  5
346
100
AcDbEntity
  8
RACCORDO
100
AcDbLine
 62
7
  6
CONTINUOUS
 10
1.877549924
 20
11.5007920269
 11
1.9440174043
 21
11.37117633
  0
LINE
  5
347
100
AcDbEntity
  8
RACCORDO
100
AcDbLine
 62
250
  6
CONTINUOUS
 10
1.9440180598
 20
11.3711750466
 11
1.9475689652
 21
11.3640444066
  0
LWPOLYLINE
  5
348
100
AcDbEntity
  8
RACCORDO
100
AcDbPolyline
 62
250
  6
CONTINUOUS
 90
4
 70
0
 10
1.9475689652
 20
11.3640444066
 10
1.9557100404
 20
11.3462070933
 10
1.9634927661
 20
11.3269534768
 10
1.9708978455
 20
11.306271385
  0
LWPOLYLINE
  5
349
100
AcDbEntity
  8
RACCORDO
100
AcDbPolyline
 62
7
  6
CONTINUOUS
 90
10
 70
0
 10
9.2811282793
 20
12.3131244159
 10
9.2812590184
 20
12.3620375953
 10
9.2746082652
 20
12.5152818153
 10
9.2575484888
 20
12.6696652744
 10
9.2304522056
 20
12.8245294123
 10
9.1936740108
 20
12.9790331254
 10
9.1476993137
 20
13.1319969742
 10
9.0929960338
 20
13.2824905935
 10
9.0299510682
 20
13.4298728425
 10
9.0121854605
 20
13.4677219814
  0
LINE
  5
34A
100
AcDbEntity
  8
RACCORDO
100
AcDbLine
 62
7
  6
CONTINUOUS
 10
9.2811427656
 20
12.3132775634
 11
8.8863830094
 21
-15.5826522078
  0
LINE
  5
34B
100
AcDbEntity
  8
RACCORDO
100
AcDbLine
 62
250
  6
CONTINUOUS
 10
10.04432045
 20
10.7678353071
 11
10.0184049486
 21
8.9365011982
  0
LINE
  5
34C
100
AcDbEntity
  8
RACCORDO
100
AcDbLine
 62
250
  6
CONTINUOUS
 10
9.744441077
 20
-10.4233165246
 11
9.7185255756
 21
-12.2546506336
  0
LINE
  5
34D
100
AcDbEntity
  8
RACCORDO
100
AcDbLine
 62
7
  6
CONTINUOUS
 10
10.1213486595
 20
10.8641981259
 11
10.0954331581
 21
9.032864017
  0
LINE
  5
34E
100
AcDbEntity
  8
RACCORDO
100
AcDbLine
 62
7
  6
CONTINUOUS
 10
9.8214692864
 20
-10.3269537059
 11
9.7955537851
 21
-12.1582878147
  0
LWPOLYLINE
  5
34F
100
AcDbEntity
  8
RACCORDO
100
AcDbPolyline
 62
250
  6
CONTINUOUS
 90
21
 70
0
 10
10.0184049486
 20
8.9365011982
 10
10.016718571
 20
8.8711223981
 10
10.0134853077
 20
8.8059594722
 10
10.0086656082
 20
8.7410891062
 10
10.0022615969
 20
8.676949647
 10
9.9942132411
 20
8.6132515309
 10
9.9843092582
 20
8.5490363038
 10
9.9724171479
 20
8.4843687799
 10
9.9584320431
 20
8.419488565
 10
9.9420389802
 20
8.3538180952
 10
9.9230618219
 20
8.2876129134
 10
9.9013122658
 20
8.2211042533
 10
9.8763157009
 20
8.1538260328
 10
9.8478109402
 20
8.0861486026
 10
9.8155388935
 20
8.0184789466
 10
9.7788721464
 20
7.9506102796
 10
9.7374775897
 20
7.8831195256
 10
9.6910225424
 20
7.8166223713
 10
9.6387207096
 20
7.7512439418
 10
9.5800001173
 20
7.687656007
 10
9.5146460926
 20
7.6269911711
  0
LWPOLYLINE
  5
350
100
AcDbEntity
  8
RACCORDO
100
AcDbPolyline
 62
250
  6
CONTINUOUS
 90
21
 70
0
 10
9.7185255756
 20
-12.2546506336
 10
9.716839198
 20
-12.3200294337
 10
9.7136059347
 20
-12.3851923596
 10
9.7087862351
 20
-12.4500627256
 10
9.7023822238
 20
-12.5142021848
 10
9.694333868
 20
-12.5779003009
 10
9.6844298852
 20
-12.642115528
 10
9.6725377749
 20
-12.7067830519
 10
9.6585526701
 20
-12.7716632668
 10
9.6421596072
 20
-12.8373337366
 10
9.6231824489
 20
-12.9035389184
 10
9.6014328927
 20
-12.9700475785
 10
9.5764363279
 20
-13.037325799
 10
9.5479315672
 20
-13.1050032292
 10
9.5156595204
 20
-13.1726728852
 10
9.4789927734
 20
-13.2405415522
 10
9.4375982167
 20
-13.3080323062
 10
9.3911431693
 20
-13.3745294605
 10
9.3388413366
 20
-13.43990789
 10
9.2801207443
 20
-13.5034958248
 10
9.2147667195
 20
-13.5641606607
  0
LWPOLYLINE
  5
351
100
AcDbEntity
  8
RACCORDO
100
AcDbPolyline
 62
250
  6
CONTINUOUS
 90
10
 70
0
 10
8.7460923087
 20
-15.7493695967
 10
8.7425865883
 20
-15.8460374864
 10
8.7346269724
 20
-15.9402183953
 10
8.7222267102
 20
-16.0315687989
 10
8.7054227618
 20
-16.1197800777
 10
8.6842814676
 20
-16.2045921965
 10
8.6588699902
 20
-16.2857501642
 10
8.6292591942
 20
-16.3629984067
 10
8.5955442933
 20
-16.4361039987
 10
8.5578303609
 20
-16.5048472706
  0
LINE
  5
352
100
AcDbEntity
  8
RACCORDO
100
AcDbLine
 62
7
  6
CONTINUOUS
 10
10.0954331581
 20
9.032864017
 11
10.0876844985
 21
8.8619432236
  0
LINE
  5
353
100
AcDbEntity
  8
RACCORDO
100
AcDbLine
 62
7
  6
CONTINUOUS
 10
9.7955537851
 20
-12.1582878147
 11
9.7878051255
 21
-12.3292086082
  0
LWPOLYLINE
  5
354
100
AcDbEntity
  8
RACCORDO
100
AcDbPolyline
 62
7
  6
CONTINUOUS
 90
3
 70
0
 10
8.8750431241
 20
-15.7701201339
 10
8.8843241006
 20
-15.6499930502
 10
8.8863742203
 20
-15.5826276358
  0
LWPOLYLINE
  5
355
100
AcDbEntity
  8
RACCORDO
100
AcDbPolyline
 62
250
  6
CONTINUOUS
 90
7
 70
0
 10
10.0954331581
 20
9.032864017
 10
10.0939333223
 20
9.0192017359
 10
10.0877571233
 20
9.0009549948
 10
10.0769071073
 20
8.9832863566
 10
10.0615567658
 20
8.9664783461
 10
10.0419515503
 20
8.9507997253
 10
10.0184049486
 20
8.9365011982
  0
LWPOLYLINE
  5
356
100
AcDbEntity
  8
RACCORDO
100
AcDbPolyline
 62
250
  6
CONTINUOUS
 90
7
 70
0
 10
9.8214692864
 20
-10.3269537059
 10
9.8199694338
 20
-10.3406160688
 10
9.8137932186
 20
-10.3588627977
 10
9.8029431946
 20
-10.3765314203
 10
9.7875928548
 20
-10.3933394134
 10
9.7679876525
 20
-10.4090180157
 10
9.744441077
 20
-10.4233165246
  0
LWPOLYLINE
  5
357
100
AcDbEntity
  8
RACCORDO
100
AcDbPolyline
 62
250
  6
CONTINUOUS
 90
7
 70
0
 10
9.7955537851
 20
-12.1582878147
 10
9.7940539493
 20
-12.1719500959
 10
9.7878777503
 20
-12.190196837
 10
9.7770277343
 20
-12.2078654752
 10
9.7616773928
 20
-12.2246734857
 10
9.7420721772
 20
-12.2403521064
 10
9.7185255756
 20
-12.2546506336
  0
LWPOLYLINE
  5
358
100
AcDbEntity
  8
RACCORDO
100
AcDbPolyline
 62
7
  6
CONTINUOUS
 90
13
 70
0
 10
10.0876844985
 20
8.8619432236
 10
10.0694596666
 20
8.6971673603
 10
10.0409235989
 20
8.5391612273
 10
10.0021750564
 20
8.3882483581
 10
9.9534611739
 20
8.2453205529
 10
9.8953727818
 20
8.1116952239
 10
9.8284710641
 20
7.9880093481
 10
9.7531063733
 20
7.8743792367
 10
9.6698071187
 20
7.7712058088
 10
9.5793823413
 20
7.679054442
 10
9.4822722965
 20
7.5979671361
 10
9.3784601453
 20
7.5277670217
 10
9.3462434584
 20
7.5089727823
  0
LWPOLYLINE
  5
359
100
AcDbEntity
  8
RACCORDO
100
AcDbPolyline
 62
7
  6
CONTINUOUS
 90
13
 70
0
 10
9.7878051255
 20
-12.3292086082
 10
9.7695802936
 20
-12.4939844715
 10
9.7410442259
 20
-12.6519906045
 10
9.7022956834
 20
-12.8029034737
 10
9.6535818008
 20
-12.9458312789
 10
9.5954934088
 20
-13.0794566079
 10
9.5285916911
 20
-13.2031424837
 10
9.4532270002
 20
-13.3167725951
 10
9.3699277457
 20
-13.419946023
 10
9.2795029682
 20
-13.5120973898
 10
9.1823929234
 20
-13.5931846957
 10
9.0785807723
 20
-13.6633848101
 10
9.0463640853
 20
-13.6821790495
  0
LWPOLYLINE
  5
35A
100
AcDbEntity
  8
RACCORDO
100
AcDbPolyline
 62
250
  6
CONTINUOUS
 90
7
 70
0
 10
8.8863830094
 20
-15.5826522078
 10
8.8827613405
 20
-15.610360372
 10
8.8708420946
 20
-15.6413351341
 10
8.8508172631
 20
-15.671209625
 10
8.8230218932
 20
-15.699483943
 10
8.787921044
 20
-15.7256849763
 10
8.7461020261
 20
-15.7493742923
  0
LWPOLYLINE
  5
35B
100
AcDbEntity
  8
RACCORDO
100
AcDbPolyline
 62
250
  6
CONTINUOUS
 90
13
 70
0
 10
-7.03813208
 20
-24.1876269235
 10
-7.0024724838
 20
-24.1419336639
 10
-6.9703681111
 20
-24.0922795605
 10
-6.9418189621
 20
-24.0386646133
 10
-6.9167405559
 20
-23.9808901082
 10
-6.8952173734
 20
-23.9191547592
 10
-6.8775028564
 20
-23.8540547086
 10
-6.8636483974
 20
-23.785538059
 10
-6.8536026039
 20
-23.7136567078
 10
-6.8474647416
 20
-23.6391624895
 10
-6.8452678989
 20
-23.5623060158
 10
-6.8469789872
 20
-23.482836675
 10
-6.8525980068
 20
-23.4007544673
  0
LWPOLYLINE
  5
35C
100
AcDbEntity
  8
RACCORDO
100
AcDbPolyline
 62
250
  6
CONTINUOUS
 90
13
 70
0
 10
-6.7900560307
 20
-24.2634461705
 10
-6.7497594711
 20
-24.2124276734
 10
-6.7131941538
 20
-24.1567126394
 10
-6.6805001603
 20
-24.0964686322
 10
-6.6517767277
 20
-24.0318756728
 10
-6.6271042741
 20
-23.9631318409
 10
-6.6065689597
 20
-23.8904445679
 10
-6.5902366831
 20
-23.8140176156
 10
-6.5781525116
 20
-23.7340767675
 10
-6.5703669458
 20
-23.6508682083
 10
-6.5669188286
 20
-23.5646328499
 10
-6.5678095667
 20
-23.4756431605
 10
-6.5730252139
 20
-23.3842042755
  0
LWPOLYLINE
  5
35D
100
AcDbEntity
  8
RACCORDO
100
AcDbPolyline
 62
250
  6
CONTINUOUS
 90
7
 70
0
 10
0.1577756615
 20
12.0135520011
 10
0.387910405
 20
11.9670109046
 10
0.6188177574
 20
11.9205266594
 10
0.8504937998
 20
11.8741016893
 10
1.0829346036
 20
11.8277384593
 10
1.3161362307
 20
11.781439476
 10
1.5500947338
 20
11.7352072871
  0
LWPOLYLINE
  5
35E
100
AcDbEntity
  8
RACCORDO
100
AcDbPolyline
 62
7
  6
CONTINUOUS
 90
6
 70
0
 10
-13.3045975193
 20
17.3128440351
 10
-13.3278914331
 20
17.3227062012
 10
-13.3535482336
 20
17.329826625
 10
-13.3801943496
 20
17.3334953277
 10
-13.4071129957
 20
17.3335524758
 10
-13.4338578542
 20
17.3299819787
  0
LINE
  5
35F
100
AcDbEntity
  8
RACCORDO
100
AcDbLine
 62
250
  6
CONTINUOUS
 10
-13.3046359953
 20
17.3128632869
 11
-13.3109533269
 21
17.3156663963
  0
LWPOLYLINE
  5
360
100
AcDbEntity
  8
RACCORDO
100
AcDbPolyline
 62
250
  6
CONTINUOUS
 90
10
 70
0
 10
-12.1137619113
 20
18.5409543227
 10
-12.1417344926
 20
18.5537066178
 10
-12.169608036
 20
18.5635976264
 10
-12.1972059655
 20
18.57056469
 10
-12.2243534509
 20
18.5745636728
 10
-12.250878516
 20
18.5755692418
 10
-12.2766131271
 20
18.5735750268
 10
-12.3013942581
 20
18.568593661
 10
-12.3250649232
 20
18.5606567007
 10
-12.331666497
 20
18.5578240061
  0
LWPOLYLINE
  5
361
100
AcDbEntity
  8
0
100
AcDbPolyline
 62
7
  6
CONTINUOUS
 90
10
 70
0
 10
-12.723223062
 20
18.1178025078
 10
-12.7696090274
 20
18.1390663126
 10
-12.8154647413
 20
18.1564191056
 10
-12.8607902039
 20
18.169860887
 10
-12.9057726461
 20
18.1794154268
 10
-12.9502248368
 20
18.185058955
 10
-12.9935850833
 20
18.1867201604
 10
-13.0356661546
 20
18.1843752728
 10
-13.0766552818
 20
18.1780480624
 10
-13.1165524647
 20
18.1677385293
  0
LWPOLYLINE
  5
362
100
AcDbEntity
  8
RACCORDO
100
AcDbPolyline
 62
250
  6
CONTINUOUS
 90
5
 70
0
 10
-0.1168974279
 20
12.3656557964
 10
-0.0715538193
 20
12.3442563384
 10
-0.0320821564
 20
12.3278537133
 10
0.0055555087
 20
12.314381047
 10
0.0412769263
 20
12.3038148001
  0
LINE
  5
363
100
AcDbEntity
  8
RACCORDO
100
AcDbLine
 62
7
  6
CONTINUOUS
 10
-11.2953947541
 20
18.4167162503
 11
-11.2790008017
 21
18.4088796862
  0
LWPOLYLINE
  5
364
100
AcDbEntity
  8
RACCORDO
100
AcDbPolyline
 62
250
  6
CONTINUOUS
 90
6
 70
0
 10
2.0074927961
 20
11.302694215
 10
2.0277699874
 20
11.2927917982
 10
2.0495774017
 20
11.2854271636
 10
2.0725740066
 20
11.2807154821
 10
2.096400173
 20
11.2787304367
 10
2.1206832986
 20
11.2795030702
  0
LINE
  5
365
100
AcDbEntity
  8
0
100
AcDbLine
 62
7
  6
CONTINUOUS
 10
-9.2456047314
 20
14.9582273747
 11
-14.0020919454
 21
17.3364709817
  0
LINE
  5
366
100
AcDbEntity
  8
RACCORDO
100
AcDbLine
 62
250
  6
CONTINUOUS
 10
-13.3916105715
 20
17.308390621
 11
-9.1270932752
 21
15.1761319728
  0
LINE
  5
367
100
AcDbEntity
  8
RACCORDO
100
AcDbLine
 62
7
  6
CONTINUOUS
 10
-13.3046359953
 20
17.3128632869
 11
-9.0401186991
 21
15.1806046388
  0
LINE
  5
368
100
AcDbEntity
  8
0
100
AcDbLine
 62
7
  6
CONTINUOUS
 10
-8.666700421
 20
15.2134093816
 11
-11.2283017661
 21
16.4942100541
  0
LINE
  5
369
100
AcDbEntity
  8
0
100
AcDbLine
 62
7
  6
CONTINUOUS
 10
-7.5559821697
 20
15.5341820617
 11
-7.7354395598
 21
15.6239107567
  0
LINE
  5
36A
100
AcDbEntity
  8
0
100
AcDbLine
 62
7
  6
CONTINUOUS
 10
-12.5437656719
 20
18.0280738127
 11
-12.723223062
 21
18.1178025078
  0
LINE
  5
36B
100
AcDbEntity
  8
0
100
AcDbLine
 62
7
  6
CONTINUOUS
 10
-6.831554355
 20
15.198597984
 11
-11.2156163984
 21
17.3906290056
  0
LINE
  5
36C
100
AcDbEntity
  8
0
100
AcDbLine
 62
7
  6
CONTINUOUS
 10
-6.5159150473
 20
15.420965935
 11
-10.754270097
 21
17.5401434598
  0
LINE
  5
36D
100
AcDbEntity
  8
RACCORDO
100
AcDbLine
 62
250
  6
CONTINUOUS
 10
-0.2775747102
 20
12.4632406183
 11
0.0412769263
 21
12.3038148001
  0
LINE
  5
36E
100
AcDbEntity
  8
RACCORDO
100
AcDbLine
 62
250
  6
CONTINUOUS
 10
-2.6074166497
 20
13.7877816919
 11
-5.4828921572
 21
15.2255194456
  0
LINE
  5
36F
100
AcDbEntity
  8
RACCORDO
100
AcDbLine
 62
250
  6
CONTINUOUS
 10
-10.0339750577
 20
17.5010608958
 11
-12.1137619078
 21
18.5409543209
  0
LINE
  5
370
100
AcDbEntity
  8
RACCORDO
100
AcDbLine
 62
7
  6
CONTINUOUS
 10
-2.3961486697
 20
13.7960769386
 11
-5.3114909783
 21
15.2537480929
  0
LINE
  5
371
100
AcDbEntity
  8
RACCORDO
100
AcDbLine
 62
7
  6
CONTINUOUS
 10
-9.7783798499
 20
17.4871925287
 11
-11.9024939489
 21
18.5492495782
  0
LINE
  5
372
100
AcDbEntity
  8
0
100
AcDbLine
 62
7
  6
CONTINUOUS
 10
-5.6641998746
 20
15.5513871165
 11
-9.5062832647
 21
17.4724288116
  0
LINE
  5
373
100
AcDbEntity
  8
RACCORDO
100
AcDbLine
 62
250
  6
CONTINUOUS
 10
-11.3535932799
 20
18.4289298846
 11
1.4266084162
 21
12.0388290365
  0
LINE
  5
374
100
AcDbEntity
  8
RACCORDO
100
AcDbLine
 62
7
  6
CONTINUOUS
 10
-11.2791947881
 20
18.4089768198
 11
1.5007543406
 21
12.0190022554
  0
LINE
  5
375
100
AcDbEntity
  8
0
100
AcDbLine
 62
7
  6
CONTINUOUS
 10
0.487401556
 20
12.7927126073
 11
-0.2195673841
 21
13.1461970774
  0
LWPOLYLINE
  5
376
100
AcDbEntity
  8
RACCORDO
100
AcDbPolyline
 62
7
  6
CONTINUOUS
 90
5
 70
0
 10
-0.1169018978
 20
12.3656531729
 10
-0.1298949692
 20
12.3723272735
 10
-0.1468019229
 20
12.3815345992
 10
-0.1644523428
 20
12.3917515781
 10
-0.1827930215
 20
12.4029965558
  0
LWPOLYLINE
  5
377
100
AcDbEntity
  8
RACCORDO
100
AcDbPolyline
 62
7
  6
CONTINUOUS
 90
5
 70
0
 10
-2.3961486697
 20
13.7960769386
 10
-2.3863087223
 20
13.791020122
 10
-2.3765758065
 20
13.7857427915
 10
-2.3669559986
 20
13.7802476596
 10
-2.3574546945
 20
13.7745372846
  0
LWPOLYLINE
  5
378
100
AcDbEntity
  8
RACCORDO
100
AcDbPolyline
 62
7
  6
CONTINUOUS
 90
4
 70
0
 10
-9.0402404054
 20
15.1806653541
 10
-9.0336194305
 20
15.1772045658
 10
-9.012189779
 20
15.1636571464
 10
-9.0067731344
 20
15.159589515
  0
LWPOLYLINE
  5
379
100
AcDbEntity
  8
RACCORDO
100
AcDbPolyline
 62
250
  6
CONTINUOUS
 90
10
 70
0
 10
-2.6074166321
 20
13.7877816831
 10
-2.579056178
 20
13.7723922027
 10
-2.5510874049
 20
13.7543553947
 10
-2.5236149837
 20
13.7337795646
 10
-2.4966728519
 20
13.7107482561
 10
-2.4704388785
 20
13.6853816058
 10
-2.4452201484
 20
13.6578887445
 10
-2.4211722005
 20
13.6284679794
 10
-2.3983159192
 20
13.5972605773
 10
-2.3767384495
 20
13.564446065
  0
LINE
  5
37A
100
AcDbEntity
  8
RACCORDO
100
AcDbLine
 62
250
  6
CONTINUOUS
 10
1.8733932193
 20
11.5088397974
 11
1.8815971143
 21
11.5042599001
  0
LWPOLYLINE
  5
37B
100
AcDbEntity
  8
RACCORDO
100
AcDbPolyline
 62
250
  6
CONTINUOUS
 90
6
 70
0
 10
1.8815971143
 20
11.5042599001
 10
1.911293606
 20
11.4864838437
 10
1.9388509267
 20
11.4686341087
 10
1.96432924
 20
11.4507472722
 10
1.9879090366
 20
11.4329330658
 10
2.0096005005
 20
11.4151953359
  0
LWPOLYLINE
  5
37C
100
AcDbEntity
  8
RACCORDO
100
AcDbPolyline
 62
7
  6
CONTINUOUS
 90
3
 70
0
 10
1.5523201328
 20
11.9892572764
 10
1.5162643295
 20
12.0109050009
 10
1.5007863799
 20
12.0189862319
  0
LWPOLYLINE
  5
37D
100
AcDbEntity
  8
RACCORDO
100
AcDbPolyline
 62
250
  6
CONTINUOUS
 90
7
 70
0
 10
-0.1912583431
 20
12.1646305374
 10
-0.1301853463
 20
12.1275588079
 10
-0.0702911351
 20
12.0952313443
 10
-0.011560894
 20
12.0676582876
 10
0.0460189635
 20
12.0448487729
 10
0.1024607834
 20
12.0268109501
 10
0.1577756615
 20
12.0135520011
  0
LINE
  5
37E
100
AcDbEntity
  8
RACCORDO
100
AcDbLine
 62
7
  6
CONTINUOUS
 10
-2.1939349925
 20
13.6722411628
 11
-2.3574546945
 21
13.7745372846
  0
LWPOLYLINE
  5
37F
100
AcDbEntity
  8
RACCORDO
100
AcDbPolyline
 62
250
  6
CONTINUOUS
 90
10
 70
0
 10
1.7199071368
 20
11.8040900632
 10
1.718679826
 20
11.8048596953
 10
1.7127315972
 20
11.8044338435
 10
1.702116387
 20
11.8015153598
 10
1.6869479302
 20
11.7961355137
 10
1.6673887463
 20
11.7883519466
 10
1.6436483983
 20
11.7782480539
 10
1.6159812476
 20
11.7659320919
 10
1.5846837286
 20
11.7515360175
 10
1.5500911725
 20
11.7352140748
  0
LWPOLYLINE
  5
380
100
AcDbEntity
  8
RACCORDO
100
AcDbPolyline
 62
250
  6
CONTINUOUS
 90
10
 70
0
 10
-2.3767384234
 20
13.5644459799
 10
-2.1418106048
 20
13.4151775719
 10
-1.9048356148
 20
13.2643448951
 10
-1.6658486169
 20
13.1119434827
 10
-1.4249024181
 20
12.9579621645
 10
-1.1820163006
 20
12.8024052623
 10
-0.9371760696
 20
12.6452926206
 10
-0.6904022612
 20
12.4866300557
 10
-0.4417500963
 20
12.3264093664
 10
-0.1912583431
 20
12.1646305374
  0
LWPOLYLINE
  5
381
100
AcDbEntity
  8
RACCORDO
100
AcDbPolyline
 62
7
  6
CONTINUOUS
 90
9
 70
0
 10
-0.1827930215
 20
12.4029965558
 10
-0.3611291005
 20
12.5163552021
 10
-0.6242504212
 20
12.6833298502
 10
-0.886987224
 20
12.8497147907
 10
-1.1493102705
 20
13.0154932102
 10
-1.411192301
 20
13.1806495665
 10
-1.672607703
 20
13.3451693934
 10
-1.933530777
 20
13.5090382404
 10
-2.1939349925
 20
13.6722411628
  0
LWPOLYLINE
  5
382
100
AcDbEntity
  8
RACCORDO
100
AcDbPolyline
 62
250
  6
CONTINUOUS
 90
5
 70
0
 10
-2.3553583293
 20
13.7732383159
 10
-2.3540395253
 20
13.7723570847
 10
-2.3449528968
 20
13.7621747775
 10
-2.3387818598
 20
13.7466252795
 10
-2.3364863202
 20
13.726523785
  0
LWPOLYLINE
  5
383
100
AcDbEntity
  8
RACCORDO
100
AcDbPolyline
 62
250
  6
CONTINUOUS
 90
6
 70
0
 10
-0.1861024417
 20
12.4050920364
 10
-0.1838801406
 20
12.4035888482
 10
-0.1712211997
 20
12.3904017222
 10
-0.1623364606
 20
12.3717889928
 10
-0.1573443118
 20
12.3479986696
 10
-0.1563112744
 20
12.3193477518
  0
LWPOLYLINE
  5
384
100
AcDbEntity
  8
RACCORDO
100
AcDbPolyline
 62
250
  6
CONTINUOUS
 90
10
 70
0
 10
0.0412769268
 20
12.3038148
 10
0.0621272736
 20
12.2861971646
 10
0.0813626029
 20
12.264310092
 10
0.0988002301
 20
12.2383614334
 10
0.114274543
 20
12.2085976129
 10
0.1276385732
 20
12.1753012914
 10
0.1387653932
 20
12.1387886839
 10
0.1475493237
 20
12.0994065502
 10
0.1539069363
 20
12.057528901
 10
0.1577778452
 20
12.0135534506
  0
LWPOLYLINE
  5
385
100
AcDbEntity
  8
RACCORDO
100
AcDbPolyline
 62
250
  6
CONTINUOUS
 90
4
 70
0
 10
1.4263558493
 20
12.0389553202
 10
1.4477668056
 20
12.0208378089
 10
1.4685081369
 20
11.9979172326
 10
1.4878532543
 20
11.9704962658
  0
LWPOLYLINE
  5
386
100
AcDbEntity
  8
RACCORDO
100
AcDbPolyline
 62
250
  6
CONTINUOUS
 90
9
 70
0
 10
2.0096005005
 20
11.4151953359
 10
2.0293934478
 20
11.397530236
 10
2.0474378175
 20
11.3800359578
 10
2.0637317571
 20
11.3627212514
 10
2.0782771191
 20
11.3455773666
 10
2.0912293999
 20
11.3286762457
 10
2.1026404317
 20
11.312041869
 10
2.1124583824
 20
11.2956502562
 10
2.1206832518
 20
11.279501407
  0
LINE
  5
387
100
AcDbEntity
  8
0
100
AcDbLine
 62
7
  6
CONTINUOUS
 10
0.487401556
 20
12.7927126073
 11
0.7707914405
 21
12.5335885563
  0
LWPOLYLINE
  5
388
100
AcDbEntity
  8
RACCORDO
100
AcDbPolyline
 62
7
  6
CONTINUOUS
 90
4
 70
0
 10
3.6210329998
 20
12.975797921
 10
3.6178007277
 20
12.9790540379
 10
3.5571399712
 20
13.0334549733
 10
3.498081221
 20
13.0811238104
  0
LINE
  5
389
100
AcDbEntity
  8
RACCORDO
100
AcDbLine
 62
7
  6
CONTINUOUS
 10
3.42080894
 20
16.5324301637
 11
3.4268725173
 21
16.5217335778
  0
LWPOLYLINE
  5
38A
100
AcDbEntity
  8
RACCORDO
100
AcDbPolyline
 62
7
  6
CONTINUOUS
 90
5
 70
0
 10
-5.7781544794
 20
-23.8032819856
 10
-6.1453495263
 20
-24.1745679252
 10
-6.5245936716
 20
-24.5259033701
 10
-6.9158869153
 20
-24.8572883202
 10
-7.3114401886
 20
-25.1626909094
  0
LWPOLYLINE
  5
38B
100
AcDbEntity
  8
RACCORDO
100
AcDbPolyline
 62
250
  6
CONTINUOUS
 90
3
 70
0
 10
-7.3485144168
 20
-24.5318852376
 10
-7.3471452862
 20
-24.5305098174
 10
-7.03813208
 20
-24.1876269235
  0
LWPOLYLINE
  5
38C
100
AcDbEntity
  8
RACCORDO
100
AcDbPolyline
 62
250
  6
CONTINUOUS
 90
3
 70
0
 10
-7.3304779224
 20
-24.8387701962
 10
-7.1011851369
 20
-24.6085875093
 10
-6.7900492995
 20
-24.2634564605
  0
LINE
  5
38D
100
AcDbEntity
  8
RACCORDO
100
AcDbLine
 62
250
  6
CONTINUOUS
 10
8.9534300849
 20
-10.8447312848
 11
9.744441077
 21
-10.4233165246
  0
LINE
  5
38E
100
AcDbEntity
  8
RACCORDO
100
AcDbLine
 62
7
  6
CONTINUOUS
 10
-5.5020810232
 20
-18.0589528439
 11
-7.0908762951
 21
-18.8260978038
  0
LINE
  5
38F
100
AcDbEntity
  8
RACCORDO
100
AcDbLine
 62
7
  6
CONTINUOUS
 10
-5.396015006
 20
-18.1119858524
 11
-6.984810278
 21
-18.8791308123
  0
LINE
  5
390
100
AcDbEntity
  8
0
100
AcDbLine
 62
7
  6
CONTINUOUS
 10
1.5664960532
 20
12.9007818297
 11
1.5056794964
 21
12.8853221465
  0
LWPOLYLINE
  5
391
100
AcDbEntity
  8
0
100
AcDbPolyline
 62
7
  6
CONTINUOUS
 90
22
 70
0
 10
-9.3048733815
 20
12.9674710685
 10
-9.3397090116
 20
12.9641178432
 10
-9.3752220787
 20
12.9659670185
 10
-9.4114125829
 20
12.9730185946
 10
-9.4487038527
 20
12.9854693941
 10
-9.4866725595
 20
13.0031225943
 10
-9.5240487173
 20
13.0253877269
 10
-9.5608122829
 20
13.0524207922
 10
-9.5969832995
 20
13.0840657899
 10
-9.6313519107
 20
13.1192642509
 10
-9.6638571494
 20
13.1581363723
 10
-9.6945599827
 20
13.200561957
 10
-9.7224334552
 20
13.2451219443
 10
-9.7473818626
 20
13.2918885312
 10
-9.7695009092
 20
13.3407895207
 10
-9.7880507521
 20
13.3901892613
 10
-9.8029106615
 20
13.4401046234
 10
-9.8142013672
 20
13.4905187367
 10
-9.821545215
 20
13.5397453383
 10
-9.8248163203
 20
13.5872223406
 10
-9.8241405676
 20
13.6335118312
 10
-9.8195179571
 20
13.6786138101
  0
LWPOLYLINE
  5
392
100
AcDbEntity
  8
RACCORDO
100
AcDbPolyline
 62
250
  6
CONTINUOUS
 90
10
 70
0
 10
8.7757592344
 20
13.9544354175
 10
8.774904317
 20
13.9544731397
 10
8.7696252423
 20
13.9527324125
 10
8.7596076272
 20
13.9486396659
 10
8.7449588033
 20
13.9422387507
 10
8.7258357228
 20
13.9335982484
 10
8.7024432762
 20
13.922810736
 10
8.6750320974
 20
13.9099917941
 10
8.6438958781
 20
13.8952787689
 10
8.6093682213
 20
13.8788293002
  0
LWPOLYLINE
  5
393
100
AcDbEntity
  8
0
100
AcDbPolyline
 62
7
  6
CONTINUOUS
 90
19
 70
0
 10
-6.5289373084
 20
14.3177972477
 10
-6.5658742997
 20
14.3226352955
 10
-6.6028544808
 20
14.3324382084
 10
-6.6398778516
 20
14.3472059865
 10
-6.677365806
 20
14.3672204404
 10
-6.7148969501
 20
14.3921997594
 10
-6.7512071026
 20
14.421298512
 10
-6.7862480825
 20
14.4546506836
 10
-6.8200680707
 20
14.4921222888
 10
-6.8515474293
 20
14.5324659395
 10
-6.8806084427
 20
14.575773451
 10
-6.9073288264
 20
14.621953008
 10
-6.9308220884
 20
14.6694817763
 10
-6.9509847939
 20
14.7184186556
 10
-6.9679203778
 20
14.7687047462
 10
-6.9810526527
 20
14.8186405152
 10
-6.9901895563
 20
14.8676594517
 10
-6.995523151
 20
14.9163280667
 10
-6.9970534367
 20
14.9646463601
  0
LWPOLYLINE
  5
394
100
AcDbEntity
  8
RACCORDO
100
AcDbPolyline
 62
7
  6
CONTINUOUS
 90
19
 70
0
 10
0.428514134
 20
12.5551223587
 10
0.5115283992
 20
12.5437534334
 10
0.6932830677
 20
12.5241338845
 10
0.8761118508
 20
12.5095032263
 10
1.0600733249
 20
12.4998852389
 10
1.2451089137
 20
12.4952561422
 10
1.4292395736
 20
12.4956555354
 10
1.6124063812
 20
12.5011042261
 10
1.79466826
 20
12.5115814068
 10
1.974222937
 20
12.5270642538
 10
2.1510391393
 20
12.5476475099
 10
2.3251481397
 20
12.5732364322
 10
2.4948414831
 20
12.6035239693
 10
2.6599859561
 20
12.638507847
 10
2.8207147721
 20
12.6781903395
 10
2.9757191166
 20
12.722271217
 10
3.124562718
 20
12.7706504031
 10
3.2676818479
 20
12.8234279742
 10
3.4050765063
 20
12.8806039305
  0
LWPOLYLINE
  5
395
100
AcDbEntity
  8
RACCORDO
100
AcDbPolyline
 62
250
  6
CONTINUOUS
 90
3
 70
0
 10
1.4263558488
 20
12.0389553202
 10
1.4660695766
 20
12.0322588266
 10
1.5007543406
 20
12.0190022554
  0
LWPOLYLINE
  5
396
100
AcDbEntity
  8
RACCORDO
100
AcDbPolyline
 62
250
  6
CONTINUOUS
 90
7
 70
0
 10
0.0412769263
 20
12.3038148001
 10
0.2701636233
 20
12.2595183268
 10
0.4998510742
 20
12.2152747252
 10
0.730339279
 20
12.1710839954
 10
0.9616282375
 20
12.1269461373
 10
1.19371795
 20
12.082861151
 10
1.4266084162
 20
12.0388290365
  0
LWPOLYLINE
  5
397
100
AcDbEntity
  8
0
100
AcDbPolyline
 62
7
  6
CONTINUOUS
 90
6
 70
0
 10
2.8377742537
 20
13.2200749018
 10
2.8509120625
 20
13.217398997
 10
2.9962316328
 20
13.1839992757
 10
3.1384213321
 20
13.1474123672
 10
3.2775004751
 20
13.1076579398
 10
3.3781212881
 20
13.0758752691
  0
LWPOLYLINE
  5
398
100
AcDbEntity
  8
RACCORDO
100
AcDbPolyline
 62
7
  6
CONTINUOUS
 90
8
 70
0
 10
2.7678071323
 20
13.4468809494
 10
2.7570911768
 20
13.4495488716
 10
2.7463246094
 20
13.4507300753
 10
2.735005194
 20
13.4506411718
 10
2.7234876878
 20
13.449284191
 10
2.7118903433
 20
13.4466598093
 10
2.700094908
 20
13.4427673503
 10
2.6881013819
 20
13.4376068139
  0
LINE
  5
399
100
AcDbEntity
  8
0
100
AcDbLine
 62
7
  6
CONTINUOUS
 10
1.5056794964
 20
12.8853221465
 11
0.9823009158
 21
13.0295823281
  0
LWPOLYLINE
  5
39A
100
AcDbEntity
  8
RACCORDO
100
AcDbPolyline
 62
7
  6
CONTINUOUS
 90
24
 70
0
 10
2.767804547
 20
13.4468749595
 10
2.6723765385
 20
13.4762983901
 10
2.5579937358
 20
13.5077580829
 10
2.4408682814
 20
13.5360060716
 10
2.3213402206
 20
13.5609952442
 10
2.1997307202
 20
13.5826893802
 10
2.0763495409
 20
13.6010588987
 10
1.9515585289
 20
13.616072344
 10
1.8256804222
 20
13.627710705
 10
1.6989760471
 20
13.635963017
 10
1.5717860694
 20
13.6408145473
 10
1.4444593069
 20
13.6422574302
 10
1.3172706989
 20
13.6402893612
 10
1.1905641509
 20
13.6349116656
 10
1.0646839866
 20
13.6261329507
 10
0.9399025598
 20
13.613961242
 10
0.8165605585
 20
13.5984135833
 10
0.6949959999
 20
13.5795138517
 10
0.5754682641
 20
13.5572773934
 10
0.4583093928
 20
13.5317341375
 10
0.3438493618
 20
13.5029203235
 10
0.2323289165
 20
13.4708520056
 10
0.1240384212
 20
13.4355561422
 10
0.0193308058
 20
13.3970845145
  0
LWPOLYLINE
  5
39B
100
AcDbEntity
  8
RACCORDO
100
AcDbPolyline
 62
250
  6
CONTINUOUS
 90
8
 70
0
 10
-13.3109533269
 20
17.3156663963
 10
-13.3212413314
 20
17.3188622718
 10
-13.3320836723
 20
17.3206510651
 10
-13.343397833
 20
17.3210191626
 10
-13.3550977058
 20
17.3199637627
 10
-13.3670942475
 20
17.3174928977
 10
-13.3792961574
 20
17.3136253724
 10
-13.3916105715
 20
17.308390621
  0
LWPOLYLINE
  5
39C
100
AcDbEntity
  8
RACCORDO
100
AcDbPolyline
 62
7
  6
CONTINUOUS
 90
3
 70
0
 10
-12.0032706696
 20
18.5867139915
 10
-11.9487842363
 20
18.5695381577
 10
-11.9018220715
 20
18.5489119538
  0
LWPOLYLINE
  5
39D
100
AcDbEntity
  8
RACCORDO
100
AcDbPolyline
 62
250
  6
CONTINUOUS
 90
3
 70
0
 10
-11.9422645665
 20
18.5638275489
 10
-11.9171903544
 20
18.5558257921
 10
-11.9024939489
 20
18.5492495782
  0
LINE
  5
39E
100
AcDbEntity
  8
RACCORDO
100
AcDbLine
 62
250
  6
CONTINUOUS
 10
-11.3535932799
 20
18.4289298846
 11
-11.398323227
 21
18.4440670405
  0
LINE
  5
39F
100
AcDbEntity
  8
0
100
AcDbLine
 62
7
  6
CONTINUOUS
 10
3.5944414358
 20
13.000002793
 11
3.6381177113
 21
12.9833288909
  0
LWPOLYLINE
  5
3A0
100
AcDbEntity
  8
RACCORDO
100
AcDbPolyline
 62
250
  6
CONTINUOUS
 90
3
 70
0
 10
-11.2791947881
 20
18.4089768198
 10
-11.3138795521
 20
18.4222333909
 10
-11.3535932799
 20
18.4289298846
  0
LINE
  5
3A1
100
AcDbEntity
  8
0
100
AcDbLine
 62
7
  6
CONTINUOUS
 10
0.9823009158
 20
13.0295823281
 11
0.2753319757
 21
13.3830667981
  0
LWPOLYLINE
  5
3A2
100
AcDbEntity
  8
RACCORDO
100
AcDbPolyline
 62
250
  6
CONTINUOUS
 90
5
 70
0
 10
3.3957690513
 20
13.0843218767
 10
3.4424532908
 20
13.045997518
 10
3.4866890416
 20
13.0053043155
 10
3.5284763035
 20
12.9622422693
 10
3.545681028
 20
12.9425826434
  0
LWPOLYLINE
  5
3A3
100
AcDbEntity
  8
RACCORDO
100
AcDbPolyline
 62
7
  6
CONTINUOUS
 90
4
 70
0
 10
6.4839408619
 20
14.2377725869
 10
6.4755640428
 20
14.2481888654
 10
6.4397140711
 20
14.2987382371
 10
6.4058838031
 20
14.3529613453
  0
LINE
  5
3A4
100
AcDbEntity
  8
RACCORDO
100
AcDbLine
 62
7
  6
CONTINUOUS
 10
6.3065630326
 20
14.5141368095
 11
6.4058838031
 21
14.3529613453
  0
LWPOLYLINE
  5
3A5
100
AcDbEntity
  8
RACCORDO
100
AcDbPolyline
 62
250
  6
CONTINUOUS
 90
4
 70
0
 10
6.3072702559
 20
14.3221511997
 10
6.3205167285
 20
14.3001756756
 10
6.3347834561
 20
14.2779506623
 10
6.3486005062
 20
14.2577613482
  0
LWPOLYLINE
  5
3A6
100
AcDbEntity
  8
RACCORDO
100
AcDbPolyline
 62
7
  6
CONTINUOUS
 90
7
 70
0
 10
8.7757592344
 20
13.9544354175
 10
8.7475375185
 20
14.0042328387
 10
8.7138290837
 20
14.0504545617
 10
8.6750744157
 20
14.0925107893
 10
8.6317719854
 20
14.1298655046
 10
8.584482171
 20
14.162034299
 10
8.550954044
 20
14.1804321762
  0
LWPOLYLINE
  5
3A7
100
AcDbEntity
  8
RACCORDO
100
AcDbPolyline
 62
250
  6
CONTINUOUS
 90
10
 70
0
 10
8.6093682213
 20
13.8788293002
 10
8.5866636797
 20
13.922865697
 10
8.5615915104
 20
13.9639028524
 10
8.5344465894
 20
14.0022953388
 10
8.5054557565
 20
14.0385716951
 10
8.4745625574
 20
14.0724522168
 10
8.4419389267
 20
14.1029101708
 10
8.4081827753
 20
14.1295742578
 10
8.3738957712
 20
14.1526722968
 10
8.3397011791
 20
14.1721293728
  0
LWPOLYLINE
  5
3A8
100
AcDbEntity
  8
RACCORDO
100
AcDbPolyline
 62
250
  6
CONTINUOUS
 90
7
 70
0
 10
8.6093682213
 20
13.8788293002
 10
8.6494559505
 20
13.7973666353
 10
8.6893801536
 20
13.7158166766
 10
8.7291403815
 20
13.6341802947
 10
8.7687361862
 20
13.5524583615
 10
8.8081671218
 20
13.47065175
 10
8.847432744
 20
13.388761334
  0
LINE
  5
3A9
100
AcDbEntity
  8
RACCORDO
100
AcDbLine
 62
7
  6
CONTINUOUS
 10
8.7757592344
 20
13.9544354175
 11
8.8288119748
 21
13.8465337836
  0
LINE
  5
3AA
100
AcDbEntity
  8
RACCORDO
100
AcDbLine
 62
7
  6
CONTINUOUS
 10
8.8288119748
 20
13.8465337836
 11
8.8815729659
 21
13.7384840829
  0
LINE
  5
3AB
100
AcDbEntity
  8
RACCORDO
100
AcDbLine
 62
7
  6
CONTINUOUS
 10
8.8815729659
 20
13.7384840829
 11
8.9340412195
 21
13.6302883416
  0
LWPOLYLINE
  5
3AC
100
AcDbEntity
  8
RACCORDO
100
AcDbPolyline
 62
7
  6
CONTINUOUS
 90
3
 70
0
 10
8.9340412195
 20
13.6302883416
 10
8.9862157583
 20
13.5219485766
 10
9.0121925754
 20
13.4677253272
  0
LWPOLYLINE
  5
3AD
100
AcDbEntity
  8
RACCORDO
100
AcDbPolyline
 62
250
  6
CONTINUOUS
 90
13
 70
0
 10
8.8474249919
 20
13.3887576331
 10
8.8941707511
 20
13.2867532358
 10
8.9372420101
 20
13.1833470736
 10
8.9764733429
 20
13.0789019618
 10
9.0117298539
 20
12.9737660129
 10
9.0429167548
 20
12.8682640251
 10
9.0699420916
 20
12.7627165396
 10
9.0927157076
 20
12.6574479061
 10
9.1111722637
 20
12.5527806909
 10
9.1252584174
 20
12.4490326209
 10
9.1349199174
 20
12.3465241007
 10
9.1401172191
 20
12.2455851023
 10
9.1408487274
 20
12.1465617901
  0
LWPOLYLINE
  5
3AE
100
AcDbEntity
  8
RACCORDO
100
AcDbPolyline
 62
250
  6
CONTINUOUS
 90
3
 70
0
 10
8.5578303609
 20
-16.5048472706
 10
8.5162229287
 20
-16.5690064751
 10
8.4708473102
 20
-16.6283679
  0
LINE
  5
3AF
100
AcDbEntity
  8
RACCORDO
100
AcDbLine
 62
250
  6
CONTINUOUS
 10
8.4708473102
 20
-16.6283679
 11
8.4218757572
 21
-16.6827427627
  0
LWPOLYLINE
  5
3B0
100
AcDbEntity
  8
RACCORDO
100
AcDbPolyline
 62
7
  6
CONTINUOUS
 90
10
 70
0
 10
8.5011224443
 20
-16.6247920899
 10
8.5587010574
 20
-16.561310795
 10
8.6188271984
 20
-16.4837041175
 10
8.6741208939
 20
-16.3989521719
 10
8.7239355574
 20
-16.307435852
 10
8.7675367829
 20
-16.2101098533
 10
8.8046762532
 20
-16.1072499941
 10
8.835156401
 20
-15.9990606024
 10
8.8586493904
 20
-15.8865076795
 10
8.8750431241
 20
-15.7701201339
  0
LINE
  5
3B1
100
AcDbEntity
  8
RACCORDO
100
AcDbLine
 62
250
  6
CONTINUOUS
 10
9.2147667195
 20
-13.5641606607
 11
9.1424816808
 21
-13.6208835028
  0
LWPOLYLINE
  5
3B2
100
AcDbEntity
  8
RACCORDO
100
AcDbPolyline
 62
250
  6
CONTINUOUS
 90
3
 70
0
 10
9.1424816808
 20
-13.6208835028
 10
9.0625509481
 20
-13.672873859
 10
9.0468554725
 20
-13.6819022833
  0
LINE
  5
3B3
100
AcDbEntity
  8
DRAFT
100
AcDbLine
 62
7
  6
CONTINUOUS
 10
8.9122069331
 20
-13.7577894894
 11
9.046855183
 21
-13.6819024465
  0
LINE
  5
3B4
100
AcDbEntity
  8
RACCORDO
100
AcDbLine
 62
250
  6
CONTINUOUS
 10
8.9275145835
 20
-12.6760653937
 11
9.7185255756
 21
-12.2546506336
  0
LINE
  5
3B5
100
AcDbEntity
  8
0
100
AcDbLine
 62
7
  6
CONTINUOUS
 10
-5.6641998746
 20
15.5513871165
 11
-6.5159150473
 21
15.420965935
  0
LINE
  5
3B6
100
AcDbEntity
  8
0
100
AcDbLine
 62
7
  6
CONTINUOUS
 10
-9.5062832647
 20
17.4724288116
 11
-10.754270097
 21
17.5401434598
  0
LWPOLYLINE
  5
3B7
100
AcDbEntity
  8
RACCORDO
100
AcDbPolyline
 62
7
  6
CONTINUOUS
 90
6
 70
0
 10
-11.4829127899
 20
18.4613675035
 10
-11.4444022751
 20
18.4583410327
 10
-11.4061806828
 20
18.4523387945
 10
-11.3684333801
 20
18.4433701026
 10
-11.3314048444
 20
18.4314685184
 10
-11.2953947541
 20
18.4167162503
  0
LWPOLYLINE
  5
3B8
100
AcDbEntity
  8
RACCORDO
100
AcDbPolyline
 62
7
  6
CONTINUOUS
 90
8
 70
0
 10
1.7647087995
 20
17.5630965756
 10
1.7165153204
 20
17.5738994253
 10
1.6668511349
 20
17.5799404943
 10
1.6164509383
 20
17.5809769245
 10
1.5662577631
 20
17.5769403671
 10
1.5166856277
 20
17.567866356
 10
1.4683386308
 20
17.5538690845
 10
1.4297396211
 20
17.5387361908
  0
LWPOLYLINE
  5
3B9
100
AcDbEntity
  8
RACCORDO
100
AcDbPolyline
 62
250
  6
CONTINUOUS
 90
4
 70
0
 10
-11.398323227
 20
18.4440670405
 10
-11.4441058256
 20
18.4543441265
 10
-11.4904797276
 20
18.4596576261
 10
-11.5369776355
 20
18.45995404
  0
LWPOLYLINE
  5
3BA
100
AcDbEntity
  8
RACCORDO
100
AcDbPolyline
 62
250
  6
CONTINUOUS
 90
7
 70
0
 10
1.8471033142
 20
17.5321309182
 10
1.8169916727
 20
17.5425479482
 10
1.7848913782
 20
17.5480219547
 10
1.751146363
 20
17.5484942873
 10
1.7161181816
 20
17.5439598855
 10
1.6801821367
 20
17.5344673321
 10
1.6437232581
 20
17.5201183333
  0
LWPOLYLINE
  5
3BB
100
AcDbEntity
  8
RACCORDO
100
AcDbPolyline
 62
7
  6
CONTINUOUS
 90
3
 70
0
 10
1.8549912205
 20
17.5284135888
 10
1.8110249437
 20
17.5478142162
 10
1.7647087995
 20
17.5630965756
  0
LINE
  5
3BC
100
AcDbEntity
  8
RACCORDO
100
AcDbLine
 62
250
  6
CONTINUOUS
 10
1.8549912205
 20
17.5284135888
 11
1.8471033142
 21
17.5321309182
  0
LWPOLYLINE
  5
3BD
100
AcDbEntity
  8
RACCORDO
100
AcDbPolyline
 62
250
  6
CONTINUOUS
 90
8
 70
0
 10
8.550954044
 20
14.1804321762
 10
8.543260169
 20
14.1840625461
 10
8.5131158853
 20
14.1945215598
 10
8.4809758636
 20
14.2000233437
 10
8.4471934139
 20
14.2005094001
 10
8.4121351425
 20
14.1959786388
 10
8.3761756274
 20
14.1864834987
 10
8.3397011791
 20
14.1721293728
  0
LINE
  5
3BE
100
AcDbEntity
  8
DRAFT
100
AcDbLine
 62
7
  6
CONTINUOUS
 10
6.433259176
 20
14.2154320133
 11
3.4155874528
 21
15.7242678749
  0
LINE
  5
3BF
100
AcDbEntity
  8
RACCORDO
100
AcDbLine
 62
250
  6
CONTINUOUS
 10
1.6437232581
 20
17.5201183333
 11
2.7382758768
 21
16.9728420239
  0
LINE
  5
3C0
100
AcDbEntity
  8
RACCORDO
100
AcDbLine
 62
250
  6
CONTINUOUS
 10
7.4004325521
 20
14.6417636863
 11
8.3397011791
 21
14.1721293728
  0
LINE
  5
3C1
100
AcDbEntity
  8
RACCORDO
100
AcDbLine
 62
7
  6
CONTINUOUS
 10
1.8549912205
 20
17.5284135888
 11
2.9495438391
 21
16.9811372795
  0
LINE
  5
3C2
100
AcDbEntity
  8
RACCORDO
100
AcDbLine
 62
7
  6
CONTINUOUS
 10
7.543345708
 20
14.6842363451
 11
8.5509691415
 21
14.1804246283
  0
LWPOLYLINE
  5
3C3
100
AcDbEntity
  8
RACCORDO
100
AcDbPolyline
 62
250
  6
CONTINUOUS
 90
8
 70
0
 10
6.4058838031
 20
14.3529613453
 10
6.4036254324
 20
14.3546834199
 10
6.3968358128
 20
14.3552009626
 10
6.3860487761
 20
14.3532630767
 10
6.3714368082
 20
14.3489007494
 10
6.3532335558
 20
14.3421837346
 10
6.3317300909
 20
14.333219438
 10
6.3072702559
 20
14.3221511997
  0
LINE
  5
3C4
100
AcDbEntity
  8
RACCORDO
100
AcDbLine
 62
7
  6
CONTINUOUS
 10
8.9701693294
 20
13.5553268311
 11
9.04600135
 21
13.4812572554
  0
LWPOLYLINE
  5
3C5
100
AcDbEntity
  8
RACCORDO
100
AcDbPolyline
 62
7
  6
CONTINUOUS
 90
17
 70
0
 10
9.04600135
 20
13.4812572554
 10
9.1666268834
 20
13.3502470023
 10
9.2818946155
 20
13.2115241146
 10
9.3914184395
 20
13.0657179966
 10
9.4947645166
 20
12.9135379498
 10
9.5914879674
 20
12.7557551329
 10
9.6812005165
 20
12.593101714
 10
9.7635574559
 20
12.4262654938
 10
9.8381910315
 20
12.2560172345
 10
9.9047533103
 20
12.0831489997
 10
9.9629473093
 20
11.908383529
 10
10.0124808386
 20
11.7324782875
 10
10.0530660334
 20
11.5562654727
 10
10.0844530708
 20
11.3805508021
 10
10.1064230585
 20
11.2061119641
 10
10.1187792786
 20
11.0337305876
 10
10.1213486595
 20
10.8641981259
  0
LWPOLYLINE
  5
3C6
100
AcDbEntity
  8
RACCORDO
100
AcDbPolyline
 62
250
  6
CONTINUOUS
 90
27
 70
0
 10
9.0839295438
 20
13.3036856196
 10
9.1275221871
 20
13.2528494634
 10
9.2277974231
 20
13.1251221604
 10
9.3220405197
 20
12.9942795258
 10
9.4102296575
 20
12.8609766089
 10
9.4908854886
 20
12.7283604963
 10
9.5638913255
 20
12.5979235582
 10
9.6298869298
 20
12.469847066
 10
9.6888986897
 20
12.3454288058
 10
9.7411033199
 20
12.2258173338
 10
9.7871951798
 20
12.1109738675
 10
9.8279815888
 20
12.0002780545
 10
9.8638287061
 20
11.8940366911
 10
9.8951026576
 20
11.7925138024
 10
9.9224432144
 20
11.6949011799
 10
9.9461388539
 20
11.6013546605
 10
9.9664776355
 20
11.5119941281
 10
9.9839360239
 20
11.4259039229
 10
9.9987220224
 20
11.3431512216
 10
10.0110398365
 20
11.2637945987
 10
10.0212096435
 20
11.1868972932
 10
10.029361275
 20
11.1125217983
 10
10.035629772
 20
11.0406711345
 10
10.0402005838
 20
10.9703423781
 10
10.0431446598
 20
10.9012348115
 10
10.0444972856
 20
10.8337234021
 10
10.04432045
 20
10.7678353071
  0
LINE
  5
3C7
100
AcDbEntity
  8
RACCORDO
100
AcDbLine
 62
7
  6
CONTINUOUS
 10
8.5011349108
 20
-16.6248041801
 11
8.5008079787
 21
-16.6251391433
  0
LWPOLYLINE
  5
3C8
100
AcDbEntity
  8
RACCORDO
100
AcDbPolyline
 62
250
  6
CONTINUOUS
 90
9
 70
0
 10
8.4218858789
 20
-16.6827575523
 10
8.3025972842
 20
-16.8030549285
 10
8.1819790191
 20
-16.9212623296
 10
8.0600428394
 20
-17.0373703167
 10
7.9368098527
 20
-17.1513612246
 10
7.8122829815
 20
-17.2632347569
 10
7.6864459816
 20
-17.37300642
 10
7.5593006282
 20
-17.4806741157
 10
7.4308676956
 20
-17.5862197083
  0
LINE
  5
3C9
100
AcDbEntity
  8
RACCORDO
100
AcDbLine
 62
7
  6
CONTINUOUS
 10
8.3784704777
 20
-16.7485084567
 11
8.5008079787
 21
-16.6251391433
  0
LWPOLYLINE
  5
3CA
100
AcDbEntity
  8
RACCORDO
100
AcDbPolyline
 62
250
  6
CONTINUOUS
 90
3
 70
0
 10
8.5008079787
 20
-16.6251391433
 10
8.4645652341
 20
-16.6565904886
 10
8.4218858789
 20
-16.6827575523
  0
LINE
  5
3CB
100
AcDbEntity
  8
RACCORDO
100
AcDbLine
 62
250
  6
CONTINUOUS
 10
7.4308676956
 20
-17.5862197083
 11
7.3011587333
 21
-17.6896335234
  0
LWPOLYLINE
  5
3CC
100
AcDbEntity
  8
RACCORDO
100
AcDbPolyline
 62
7
  6
CONTINUOUS
 90
9
 70
0
 10
7.351598691
 20
-17.6575379359
 10
7.4845210432
 20
-17.5515652035
 10
7.6161664443
 20
-17.4433878901
 10
7.7465210234
 20
-17.3330145697
 10
7.8755701416
 20
-17.220454835
 10
8.0033011809
 20
-17.1057168731
 10
8.1297034839
 20
-16.9888072746
 10
8.2547646261
 20
-16.8697343777
 10
8.3784704777
 20
-16.7485084567
  0
LINE
  5
3CD
100
AcDbEntity
  8
RACCORDO
100
AcDbLine
 62
7
  6
CONTINUOUS
 10
7.3518132759
 20
-17.6573692879
 11
7.351598691
 21
-17.6575379359
  0
LINE
  5
3CE
100
AcDbEntity
  8
RACCORDO
100
AcDbLine
 62
250
  6
CONTINUOUS
 10
7.351598691
 20
-17.6575379359
 11
7.3440537554
 21
-17.6632727666
  0
LINE
  5
3CF
100
AcDbEntity
  8
RACCORDO
100
AcDbLine
 62
7
  6
CONTINUOUS
 10
7.3101047018
 20
-17.6870660749
 11
7.3518069358
 21
-17.6573613517
  0
LWPOLYLINE
  5
3D0
100
AcDbEntity
  8
RACCORDO
100
AcDbPolyline
 62
250
  6
CONTINUOUS
 90
3
 70
0
 10
7.3011533419
 20
-17.6896246527
 10
7.2733468018
 20
-17.70847439
 10
7.2627378429
 20
-17.7142178851
  0
LINE
  5
3D1
100
AcDbEntity
  8
RACCORDO
100
AcDbLine
 62
250
  6
CONTINUOUS
 10
-0.8327129473
 20
-21.8741226798
 11
-0.9084750358
 21
-21.9209835576
  0
LINE
  5
3D2
100
AcDbEntity
  8
RACCORDO
100
AcDbLine
 62
7
  6
CONTINUOUS
 10
-1.0468983545
 20
-22.0086586264
 11
-0.8304690179
 21
-21.8752094188
  0
LINE
  5
3D3
100
AcDbEntity
  8
RACCORDO
100
AcDbLine
 62
250
  6
CONTINUOUS
 10
7.3440537554
 20
-17.6632727666
 11
7.3011587308
 21
-17.6896335254
  0
LWPOLYLINE
  5
3D4
100
AcDbEntity
  8
RACCORDO
100
AcDbPolyline
 62
250
  6
CONTINUOUS
 90
6
 70
0
 10
-0.9084750358
 20
-21.9209835576
 10
-1.2630598006
 20
-22.1384591762
 10
-1.6115185873
 20
-22.3472312085
 10
-1.9537036743
 20
-22.5474855869
 10
-2.2894721637
 20
-22.7394073102
 10
-2.6186859105
 20
-22.9231802396
  0
LWPOLYLINE
  5
3D5
100
AcDbEntity
  8
RACCORDO
100
AcDbPolyline
 62
7
  6
CONTINUOUS
 90
11
 70
0
 10
-0.8304690179
 20
-21.8752094188
 10
-0.7479427393
 20
-21.8246005962
 10
-0.6669516306
 20
-21.775377526
 10
-0.5878153314
 20
-21.727777947
 10
-0.510591404
 20
-21.6818790824
 10
-0.4357849499
 20
-21.6380132709
 10
-0.3639407184
 20
-21.5965258537
 10
-0.2951539315
 20
-21.5574749158
 10
-0.229992428
 20
-21.5212035573
 10
-0.1690391685
 20
-21.4879893604
 10
-0.1124266783
 20
-21.4578883278
  0
LINE
  5
3D6
100
AcDbEntity
  8
RACCORDO
100
AcDbLine
 62
250
  6
CONTINUOUS
 10
-0.7483821561
 20
-21.8223390912
 11
-0.8327129473
 21
-21.8741226798
  0
LINE
  5
3D7
100
AcDbEntity
  8
RACCORDO
100
AcDbLine
 62
250
  6
CONTINUOUS
 10
-0.6866231686
 20
-21.784700491
 11
-0.7483821561
 21
-21.8223390912
  0
LINE
  5
3D8
100
AcDbEntity
  8
RACCORDO
100
AcDbLine
 62
7
  6
CONTINUOUS
 10
7.2628019038
 20
-17.7141853611
 11
7.3101047018
 21
-17.6870660749
  0
LWPOLYLINE
  5
3D9
100
AcDbEntity
  8
RACCORDO
100
AcDbPolyline
 62
250
  6
CONTINUOUS
 90
16
 70
0
 10
-11.9021482507
 20
-30.0481245303
 10
-11.9409615288
 20
-30.0699720697
 10
-11.9830804376
 20
-30.0896531178
 10
-12.0280537023
 20
-30.106956806
 10
-12.075399466
 20
-30.1216977373
 10
-12.1246104521
 20
-30.1337179731
 10
-12.1751593993
 20
-30.142888725
 10
-12.2265047111
 20
-30.1491117347
 10
-12.2780962585
 20
-30.1523203271
 10
-12.3293812742
 20
-30.1524801244
 10
-12.3798102753
 20
-30.1495894144
 10
-12.4288429504
 20
-30.1436791689
 10
-12.4759539487
 20
-30.1348127119
 10
-12.520638509
 20
-30.1230850412
 10
-12.5624178675
 20
-30.1086218104
 10
-12.6008443876
 20
-30.091577983
  0
LWPOLYLINE
  5
3DA
100
AcDbEntity
  8
RACCORDO
100
AcDbPolyline
 62
250
  6
CONTINUOUS
 90
13
 70
0
 10
-0.1600944559
 20
-21.4793701288
 10
-0.2072620969
 20
-21.5051370332
 10
-0.2541775765
 20
-21.5312134029
 10
-0.2999929203
 20
-21.5569770184
 10
-0.3445062086
 20
-21.5823028688
 10
-0.3879235665
 20
-21.6073088929
 10
-0.4300067167
 20
-21.6317410277
 10
-0.470681838
 20
-21.6555438099
 10
-0.5100250839
 20
-21.6787685262
 10
-0.5480210506
 20
-21.7013246843
 10
-0.5846384898
 20
-21.7231852507
 10
-0.6199093568
 20
-21.7443757604
 10
-0.6866231686
 20
-21.784700491
  0
LINE
  5
3DB
100
AcDbEntity
  8
RACCORDO
100
AcDbLine
 62
250
  6
CONTINUOUS
 10
-2.6186859105
 20
-22.9231802396
 11
-2.941211449
 21
-23.0989869034
  0
LWPOLYLINE
  5
3DC
100
AcDbEntity
  8
RACCORDO
100
AcDbPolyline
 62
7
  6
CONTINUOUS
 90
9
 70
0
 10
-2.9354461038
 20
-23.0960741475
 10
-2.7892651256
 20
-23.0169580925
 10
-2.5416125127
 20
-22.8809843247
 10
-2.2935069337
 20
-22.7423188203
 10
-2.044968809
 20
-22.600962585
 10
-1.7960177706
 20
-22.4569166235
 10
-1.5466737349
 20
-22.3101820338
 10
-1.2969592156
 20
-22.1607613796
 10
-1.0468983545
 20
-22.0086586264
  0
LWPOLYLINE
  5
3DD
100
AcDbEntity
  8
RACCORDO
100
AcDbPolyline
 62
250
  6
CONTINUOUS
 90
3
 70
0
 10
-0.0555164947
 20
-21.4285257122
 10
-0.0456313816
 20
-21.4231993066
 10
-0.0179036778
 20
-21.4045836284
  0
LINE
  5
3DE
100
AcDbEntity
  8
RACCORDO
100
AcDbLine
 62
250
  6
CONTINUOUS
 10
-2.948852103
 20
-23.1030859865
 11
-2.9412114256
 21
-23.0989868916
  0
LINE
  5
3DF
100
AcDbEntity
  8
RACCORDO
100
AcDbLine
 62
250
  6
CONTINUOUS
 10
-0.1129551425
 20
-21.4541234654
 11
-0.1600944559
 21
-21.4793701288
  0
LINE
  5
3E0
100
AcDbEntity
  8
RACCORDO
100
AcDbLine
 62
7
  6
CONTINUOUS
 10
-2.9360197469
 20
-23.0964055486
 11
-2.9362189346
 21
-23.0965120815
  0
LINE
  5
3E1
100
AcDbEntity
  8
RACCORDO
100
AcDbLine
 62
7
  6
CONTINUOUS
 10
-5.6640469105
 20
-24.4817531834
 11
-5.5473209322
 21
-24.4191880846
  0
LINE
  5
3E2
100
AcDbEntity
  8
RACCORDO
100
AcDbLine
 62
250
  6
CONTINUOUS
 10
-5.5549298754
 20
-24.4232529729
 11
-5.5473216388
 21
-24.4191868757
  0
LINE
  5
3E3
100
AcDbEntity
  8
RACCORDO
100
AcDbLine
 62
7
  6
CONTINUOUS
 10
-5.8815409543
 20
-24.5973290592
 11
-5.6640469105
 21
-24.4817531834
  0
LINE
  5
3E4
100
AcDbEntity
  8
RACCORDO
100
AcDbLine
 62
7
  6
CONTINUOUS
 10
-5.9535946871
 20
-24.6353703941
 11
-5.8815409543
 21
-24.5973290592
  0
LINE
  5
3E5
100
AcDbEntity
  8
RACCORDO
100
AcDbLine
 62
7
  6
CONTINUOUS
 10
-2.9488512875
 20
-23.1030882985
 11
-2.9348270442
 21
-23.0957641642
  0
LWPOLYLINE
  5
3E6
100
AcDbEntity
  8
RACCORDO
100
AcDbPolyline
 62
250
  6
CONTINUOUS
 90
3
 70
0
 10
-0.0179037024
 20
-21.4045835877
 10
-0.0655587065
 20
-21.4291939441
 10
-0.1129551425
 20
-21.4541234654
  0
LINE
  5
3E7
100
AcDbEntity
  8
RACCORDO
100
AcDbLine
 62
7
  6
CONTINUOUS
 10
-0.1124266783
 20
-21.4578883278
 11
-0.0557332676
 21
-21.4286355847
  0
LWPOLYLINE
  5
3E8
100
AcDbEntity
  8
RACCORDO
100
AcDbPolyline
 62
7
  6
CONTINUOUS
 90
3
 70
0
 10
-6.1104536901
 20
-24.7164072342
 10
-6.0765240624
 20
-24.6991535918
 10
-5.9535946871
 20
-24.6353703941
  0
LINE
  5
3E9
100
AcDbEntity
  8
RACCORDO
100
AcDbLine
 62
250
  6
CONTINUOUS
 10
7.3011587333
 20
-17.6896335234
 11
-0.0179037024
 21
-21.4045835877
  0
LINE
  5
3EA
100
AcDbEntity
  8
RACCORDO
100
AcDbLine
 62
7
  6
CONTINUOUS
 10
-0.0557332676
 20
-21.4286355847
 11
7.2627378429
 21
-17.7142178851
  0
LINE
  5
3EB
100
AcDbEntity
  8
RACCORDO
100
AcDbLine
 62
250
  6
CONTINUOUS
 10
-2.941211449
 20
-23.0989869034
 11
-5.5473209322
 21
-24.4191880846
  0
LINE
  5
3EC
100
AcDbEntity
  8
RACCORDO
100
AcDbLine
 62
7
  6
CONTINUOUS
 10
-5.5549282785
 20
-24.4232564146
 11
-2.948852103
 21
-23.1030859865
  0
LINE
  5
3ED
100
AcDbEntity
  8
0
100
AcDbLine
 62
7
  6
CONTINUOUS
 10
-6.110453644
 20
-24.7164073283
 11
-7.3022075482
 21
-25.3197812164
  0
LWPOLYLINE
  5
3EE
100
AcDbEntity
  8
RACCORDO
100
AcDbPolyline
 62
250
  6
CONTINUOUS
 90
3
 70
0
 10
-5.4646796992
 20
-22.9058971066
 10
-3.1917255289
 20
-21.7612984021
 10
8.746102026
 20
-15.7493742937
  0
LWPOLYLINE
  5
3EF
100
AcDbEntity
  8
RACCORDO
100
AcDbPolyline
 62
250
  6
CONTINUOUS
 90
3
 70
0
 10
-5.8339070276
 20
-23.8596556688
 10
-3.5122919367
 20
-22.6909252737
 10
8.4218858789
 20
-16.6827575523
  0
LINE
  5
3F0
100
AcDbEntity
  8
RACCORDO
100
AcDbLine
 62
250
  6
CONTINUOUS
 10
-2.9362189346
 20
-23.0965120815
 11
-2.9412103178
 21
-23.0989892414
  0
LINE
  5
3F1
100
AcDbEntity
  8
RACCORDO
100
AcDbLine
 62
250
  6
CONTINUOUS
 10
-6.7900492995
 20
-24.2634564605
 11
-5.7781544794
 21
-23.8032819856
  0
LINE
  5
3F2
100
AcDbEntity
  8
RACCORDO
100
AcDbLine
 62
250
  6
CONTINUOUS
 10
-6.5730193215
 20
-23.3842073249
 11
-5.4634854059
 21
-22.8798212387
  0
LINE
  5
3F3
100
AcDbEntity
  8
RACCORDO
100
AcDbLine
 62
250
  6
CONTINUOUS
 10
-0.8960648292
 20
-21.9157146193
 11
-0.9084750426
 21
-21.9209835461
  0
LINE
  5
3F4
100
AcDbEntity
  8
RACCORDO
100
AcDbLine
 62
7
  6
CONTINUOUS
 10
-13.4338578542
 20
17.3299819787
 11
-13.4602341497
 21
17.3227196257
  0
LWPOLYLINE
  5
3F5
100
AcDbEntity
  8
RACCORDO
100
AcDbPolyline
 62
250
  6
CONTINUOUS
 90
3
 70
0
 10
-11.3535932799
 20
18.4289298846
 10
-11.4577521382
 20
18.4085758809
 10
-11.5605635369
 20
18.3880095219
  0
LINE
  5
3F6
100
AcDbEntity
  8
RACCORDO
100
AcDbLine
 62
7
  6
CONTINUOUS
 10
-11.5976460366
 20
18.4526935552
 11
-11.677995688
 21
18.4370004477
  0
LWPOLYLINE
  5
3F7
100
AcDbEntity
  8
RACCORDO
100
AcDbPolyline
 62
7
  6
CONTINUOUS
 90
4
 70
0
 10
-11.5976515821
 20
18.4526842752
 10
-11.5598068493
 20
18.458502924
 10
-11.5214764175
 20
18.4614143068
 10
-11.4829127899
 20
18.4613675035
  0
LWPOLYLINE
  5
3F8
100
AcDbEntity
  8
RACCORDO
100
AcDbPolyline
 62
250
  6
CONTINUOUS
 90
3
 70
0
 10
-11.5369776355
 20
18.45995404
 10
-11.5831310084
 20
18.4552304242
 10
-11.5976453899
 20
18.4526854715
  0
LINE
  5
3F9
100
AcDbEntity
  8
RACCORDO
100
AcDbLine
 62
250
  6
CONTINUOUS
 10
-11.5293597806
 20
-30.2522017852
 11
-7.150114211
 21
-27.9075988015
  0
LINE
  5
3FA
100
AcDbEntity
  8
RACCORDO
100
AcDbLine
 62
7
  6
CONTINUOUS
 10
-7.2564983512
 20
-28.1653879097
 11
-11.6409299345
 21
-30.5127672108
  0
ELLIPSE
  5
3FB
100
AcDbEntity
  8
RACCORDO
100
AcDbEllipse
 62
7
  6
CONTINUOUS
 10
-6.8636421847
 20
-0.4267435771
 30
0.0
 11
0.2004988202
 21
-0.0049527007
 31
0.0
 40
0.4782777378
 41
3.9362526391
 42
5.4897257806
  0
ELLIPSE
  5
3FC
100
AcDbEntity
  8
DRAFT
100
AcDbEllipse
 62
7
  6
CONTINUOUS
 10
-30.8131741848
 20
7.2839830613
 30
0.0
 11
20.2607373223
 21
10.126665928
 31
0.0
 40
0.0139603941
 41
0.6467136299
 42
0.6539742112
  0
ELLIPSE
  5
3FD
100
AcDbEntity
  8
DRAFT
100
AcDbEllipse
 62
7
  6
CONTINUOUS
 10
-30.8131741848
 20
7.2839830613
 30
0.0
 11
20.2607373223
 21
10.126665928
 31
0.0
 40
0.0139603941
 41
-0.6330280064
 42
-0.6257674252
  0
ELLIPSE
  5
3FE
100
AcDbEntity
  8
DRAFT
100
AcDbEllipse
 62
7
  6
CONTINUOUS
 10
-27.5604829914
 20
5.6576374646
 30
0.0
 11
20.2607373223
 21
10.126665928
 31
0.0
 40
0.0139603941
 41
0.6467136299
 42
0.6539742112
  0
ELLIPSE
  5
3FF
100
AcDbEntity
  8
DRAFT
100
AcDbEllipse
 62
7
  6
CONTINUOUS
 10
-27.5604829914
 20
5.6576374646
 30
0.0
 11
20.2607373223
 21
10.126665928
 31
0.0
 40
0.0139603941
 41
-0.6330280064
 42
-0.6257674252
  0
ELLIPSE
  5
400
100
AcDbEntity
  8
RACCORDO
100
AcDbEllipse
 62
7
  6
CONTINUOUS
 10
-7.1237469475
 20
-18.8071992379
 30
0.0
 11
0.2005738952
 21
0.000733927
 31
0.0
 40
0.4998756674
 41
-2.3608802023
 42
-0.8074070608
  0
ELLIPSE
  5
401
100
AcDbEntity
  8
RACCORDO
100
AcDbEllipse
 62
7
  6
CONTINUOUS
 10
-7.2298129646
 20
-18.7541662293
 30
0.0
 11
0.2005738952
 21
0.000733927
 31
0.0
 40
0.4998756674
 41
-2.3608802023
 42
-0.8074070608
  0
ELLIPSE
  5
402
100
AcDbEntity
  8
DRAFT
100
AcDbEllipse
 62
7
  6
CONTINUOUS
 10
-17.6591463884
 20
15.1066210488
 30
0.0
 11
-0.1765808401
 21
0.5546497752
 31
0.0
 40
0.6740159887
 41
-3.1235571803
 42
0.1701602888
  0
ELLIPSE
  5
403
100
AcDbEntity
  8
DRAFT
100
AcDbEllipse
 62
7
  6
CONTINUOUS
 10
-9.8809717953
 20
11.2175337523
 30
0.0
 11
-0.1765808401
 21
0.5546497752
 31
0.0
 40
0.6740159887
 41
-3.1235571803
 42
0.1701602888
  0
ELLIPSE
  5
404
100
AcDbEntity
  8
RACCORDO
100
AcDbEllipse
 62
7
  6
CONTINUOUS
 10
-24.5346829876
 20
15.6490673353
 30
0.0
 11
-0.2527518165
 21
0.4316938247
 31
0.0
 40
0.5757279535
 41
-0.7236919984
 42
0.0219562188
  0
ELLIPSE
  5
405
100
AcDbEntity
  8
RACCORDO
100
AcDbEllipse
 62
7
  6
CONTINUOUS
 10
-7.5037327287
 20
-27.7306034057
 30
0.0
 11
-0.2527518165
 21
0.4316938247
 31
0.0
 40
0.5757279535
 41
-3.1635488576
 42
-2.2949451759
  0
ELLIPSE
  5
406
100
AcDbEntity
  8
RACCORDO
100
AcDbEllipse
 62
7
  6
CONTINUOUS
 10
-9.6148376168
 20
8.1891446499
 30
0.0
 11
-0.2525955278
 21
0.4315225638
 31
0.0
 40
0.5762502552
 41
-2.2943765573
 42
-0.7240370813
  0
ELLIPSE
  5
407
100
AcDbEntity
  8
DRAFT
100
AcDbEllipse
 62
7
  6
CONTINUOUS
 10
1.161008138
 20
12.9764062146
 30
0.0
 11
2.6977199759
 21
-0.1476172035
 31
0.0
 40
0.4560976035
 41
2.399133678
 42
2.8503757399
  0
ELLIPSE
  5
408
100
AcDbEntity
  8
DRAFT
100
AcDbEllipse
 62
7
  6
CONTINUOUS
 10
1.8547997089
 20
12.3814747691
 30
0.0
 11
2.7991090131
 21
-0.0784237722
 31
0.0
 40
0.4783259183
 41
0.6824476454
 42
2.3523703677
  0
ELLIPSE
  5
409
100
AcDbEntity
  8
RACCORDO
100
AcDbEllipse
 62
7
  6
CONTINUOUS
 10
7.0343787661
 20
14.3797028216
 30
0.0
 11
0.5121384735
 21
0.3017206714
 31
0.0
 40
0.1024672078
 41
0.0662703845
 42
0.7160830048
  0
ELLIPSE
  5
40A
100
AcDbEntity
  8
DRAFT
100
AcDbEllipse
 62
7
  6
CONTINUOUS
 10
1.8673604739
 20
13.2690885995
 30
0.0
 11
2.7976355305
 21
-0.1530845073
 31
0.0
 40
0.4560976035
 41
0.2293670563
 42
2.1557110381
  0
ELLIPSE
  5
40B
100
AcDbEntity
  8
RACCORDO
100
AcDbEllipse
 62
7
  6
CONTINUOUS
 10
3.0796519921
 20
16.3570662086
 30
0.0
 11
-0.357990544
 21
0.6069608283
 31
0.0
 40
0.5437069087
 41
4.6807823977
 42
6.2341254319
  0
ELLIPSE
  5
40C
100
AcDbEntity
  8
RACCORDO
100
AcDbEllipse
 62
7
  6
CONTINUOUS
 10
-5.4940740505
 20
14.7860226346
 30
0.0
 11
0.1690980934
 21
0.4734825341
 31
0.0
 40
0.4904800353
 41
-0.0593848315
 42
0.5904277781
  0
ENDSEC
  0
SECTION
  2
OBJECTS
  0
DICTIONARY
  5
C
100
AcDbDictionary
280
0
281
1
  3
ACAD_GROUP
350
D
  3
ACAD_MLINESTYLE
350
17
  3
ACAD_LAYOUT
350
1A
  3
ACAD_PLOTSETTINGS
350
19
  3
ACAD_PLOTSTYLENAME
350
E
  0
DICTIONARY
  5
D
102
{ACAD_REACTORS
330
C
102
}
100
AcDbDictionary
280
0
281
1
  0
ACDBDICTIONARYWDFLT
  5
E
102
{ACAD_REACTORS
330
C
102
}
100
AcDbDictionary
281
1
  3
Normal
350
F
100
AcDbDictionaryWithDefault
340
F
  0
DICTIONARY
  5
17
102
{ACAD_REACTORS
330
C
102
}
100
AcDbDictionary
280
0
281
1
  3
Standard
350
18
  0
DICTIONARY
  5
19
102
{ACAD_REACTORS
330
C
102
}
100
AcDbDictionary
281
1
  0
DICTIONARY
  5
1A
102
{ACAD_REACTORS
330
C
102
}
100
AcDbDictionary
281
1
  3
Model
350
40D
  3
Layout1
350
40E
  0
ACDBPLACEHOLDER
  5
F
102
{ACAD_REACTORS
330
E
102
}
  0
MLINESTYLE
  5
18
102
{ACAD_REACTORS
330
17
102
}
100
AcDbMlineStyle
  2
STANDARD
 70
0
  3

 62
256
 51
90.0
 52
90.0
 71
2
 49
0.5
 62
256
  6
BYLAYER
 49
-0.5
 62
256
  6
BYLAYER
  0
LAYOUT
  5
40D
102
{ACAD_REACTORS
330
1A
102
}
100
AcDbPlotSettings
  1

  2
none_device
  4
ANSI_A_(11.00_x_8.50_Inches)
  6

 40
0.0
 41
0.0
 42
0.0
 43
0.0
 44
279.4
 45
215.9
 46
0.0
 47
0.0
 48
0.0
 49
0.0
140
0.0
141
0.0
142
1.0
143
1.0
 70
1024
 72
1
 73
0
 74
0
  7

 75
0
147
1.0
148
0.0
149
0.0
100
AcDbLayout
  1
Model
 70
0
 71
0
 10
0.0
 20
0.0
 11
279.4
 21
215.9
 12
0.0
 22
0.0
 32
0.0
 14
0.0
 24
0.0
 34
0.0
 15
0.0
 25
0.0
 35
0.0
146
0.0
 13
0.0
 23
0.0
 33
0.0
 16
1.0
 26
0.0
 36
0.0
 17
0.0
 27
1.0
 37
0.0
 76
0
330
21F
345
0
346
0
  0
LAYOUT
  5
40E
102
{ACAD_REACTORS
330
1A
102
}
100
AcDbPlotSettings
  1

  2
none_device
  4
ANSI_A_(11.00_x_8.50_Inches)
  6

 40
0.0
 41
0.0
 42
0.0
 43
0.0
 44
279.4
 45
215.9
 46
0.0
 47
0.0
 48
0.0
 49
0.0
140
0.0
141
0.0
142
1.0
143
1.0
 70
0
 72
1
 73
0
 74
0
  7

 75
0
147
1.0
148
0.0
149
0.0
100
AcDbLayout
  1
Layout1
 70
0
 71
1
 10
0.0
 20
0.0
 11
279.4
 21
215.9
 12
0.0
 22
0.0
 32
0.0
 14
0.0
 24
0.0
 34
0.0
 15
0.0
 25
0.0
 35
0.0
146
0.0
 13
0.0
 23
0.0
 33
0.0
 16
1.0
 26
0.0
 36
0.0
 17
0.0
 27
1.0
 37
0.0
 76
0
330
220
345
0
346
0
  0
ENDSEC
  0
EOF
