  0
SECTION
  2
HEADER
  9
$ACADVER
  1
AC1024
  9
$DWGCODEPAGE
  3
ANSI_1252
  9
$EXTMAX
 10
279.4
 20
215.9
 30
0.0
  9
$EXTMIN
 10
0.0
 20
0.0
 30
0.0
  9
$LIMMIN
 10
0.0
 20
0.0
  9
$LIMMAX
 10
279.4
 20
215.9
  9
$VIEWCTR
 10
139.7
 20
107.95
  9
$VIEWSIZE
 40
215.9
  9
$CLAYER
  8
0
  9
$LTSCALE
 40
15.367
  9
$CELTYPE
  6
BYLAYER
  9
$DIMSCALE
 40
1.0
  9
$DIMASZ
 40
3.0
  9
$DIMEXO
 40
0.5
  9
$DIMDLI
 40
10.6172
  9
$DIMEXE
 40
1.5
  9
$DIMCEN
 40
2.5146
  9
$DIMLFAC
 40
1.0
  9
$DIMBLK
  1
_FILLED
  9
$DIMALT
 70
0
  9
$DIMALTF
 40
0.0393700787
  9
$DIMTXT
 40
3.0
  9
$DIMTOL
 70
1
  9
$DIMLIM
 70
0
  9
$DIMTFAC
 40
1.0
  9
$DIMTP
 40
0.01
  9
$DIMTM
 40
0.01
  9
$DIMGAP
 40
0.625
  9
$DIMDSEP
 70
44
  9
$AUNITS
 70
0
  9
$PDMODE
 70
3
  9
$PDSIZE
 40
3.0
  9
$HANDSEED
  5
60B
  9
$TILEMODE
 70
1
  9
$MEASUREMENT
 70
1
  9
$INSUNITS
 70
4
  0
ENDSEC
  0
SECTION
  2
CLASSES
  0
CLASS
  1
ACDBDICTIONARYWDFLT
  2
AcDbDictionaryWithDefault
  3
AutoCAD 2000
 90
0
 91
1
280
0
281
0
  0
CLASS
  1
ACDBPLACEHOLDER
  2
AcDbPlaceHolder
  3
AutoCAD 2000
 90
0
 91
1
280
0
281
0
  0
CLASS
  1
LAYOUT
  2
AcDbLayout
  3
AutoCAD 2000
 90
0
 91
0
280
0
281
0
  0
ENDSEC
  0
SECTION
  2
TABLES
  0
TABLE
  2
VPORT
  5
8
100
AcDbSymbolTable
 70
2
  0
VPORT
  5
1F4
100
AcDbSymbolTableRecord
100
AcDbViewportTableRecord
  2
*ACTIVE
 70
0
 10
0.0
 20
0.0
 11
1.0
 21
1.0
 12
139.7
 22
107.95
 13
0.0
 23
0.0
 14
1.0
 24
1.0
 15
0.0
 25
0.0
 16
0.0
 26
0.0
 36
1.0
 17
0.0
 27
0.0
 37
0.0
 40
215.9
 41
1.2941176471
 42
50.0
 43
0.0
 44
0.0
 50
0.0
 51
0.0
 71
0
 72
100
 73
1
 74
1
 75
0
 76
0
 77
0
 78
0
  0
ENDTAB
  0
TABLE
  2
LTYPE
  5
5
100
AcDbSymbolTable
 70
6
  0
LTYPE
  5
14
100
AcDbSymbolTableRecord
100
AcDbLinetypeTableRecord
  2
BYBLOCK
 70
0
  3

 72
65
 73
0
 40
0.0
  0
LTYPE
  5
15
100
AcDbSymbolTableRecord
100
AcDbLinetypeTableRecord
  2
BYLAYER
 70
0
  3

 72
65
 73
0
 40
0.0
  0
LTYPE
  5
16
100
AcDbSymbolTableRecord
100
AcDbLinetypeTableRecord
  2
CONTINUOUS
 70
64
  3
Solid line
 72
65
 73
0
 40
0.0
  0
LTYPE
  5
1F5
100
AcDbSymbolTableRecord
100
AcDbLinetypeTableRecord
  2
CENTER
 70
64
  3
____ _ ____ _ ____ _ ____ _ ____ _ ____ _ ____
 72
65
 73
4
 40
0.6
 49
0.375
 74
0
 49
-0.075
 74
0
 49
0.075
 74
0
 49
-0.075
 74
0
  0
LTYPE
  5
1F6
100
AcDbSymbolTableRecord
100
AcDbLinetypeTableRecord
  2
HIDDEN
 70
64
  3
- - - - - - - - - - - - - - - - - - - -
 72
65
 73
2
 40
0.2
 49
0.1
 74
0
 49
-0.1
 74
0
  0
LTYPE
  5
1F7
100
AcDbSymbolTableRecord
100
AcDbLinetypeTableRecord
  2
PHANTOM
 70
64
  3
_____ _ _ _____ _ _ _____ _ _ _____
 72
65
 73
6
 40
0.8
 49
0.45
 74
0
 49
-0.05
 74
0
 49
0.1
 74
0
 49
-0.05
 74
0
 49
0.1
 74
0
 49
-0.05
 74
0
  0
LTYPE
  5
1F8
100
AcDbSymbolTableRecord
100
AcDbLinetypeTableRecord
  2
DOT
 70
64
  3
. . . . . . . . . . . . . . . . . . . .
 72
65
 73
2
 40
0.2
 49
0.1
 74
0
 49
-0.1
 74
0
  0
LTYPE
  5
1F9
100
AcDbSymbolTableRecord
100
AcDbLinetypeTableRecord
  2
DASHED
 70
64
  3
- - - - - - - - - - - - - - - - - - - -
 72
65
 73
2
 40
0.2
 49
0.1
 74
0
 49
-0.1
 74
0
  0
ENDTAB
  0
TABLE
  2
LAYER
  5
2
100
AcDbSymbolTable
 70
36
  0
LAYER
  5
10
100
AcDbSymbolTableRecord
100
AcDbLayerTableRecord
  2
0
 70
0
 62
7
  6
CONTINUOUS
370
-3
390
F
  0
LAYER
  5
1FA
100
AcDbSymbolTableRecord
100
AcDbLayerTableRecord
  2
DEFAULT_1
 70
0
 62
7
  6
CENTER
370
-3
390
F
  0
LAYER
  5
1FB
100
AcDbSymbolTableRecord
100
AcDbLayerTableRecord
  2
DEFAULT_2
 70
0
 62
7
  6
HIDDEN
370
-3
390
F
  0
LAYER
  5
1FC
100
AcDbSymbolTableRecord
100
AcDbLayerTableRecord
  2
DEFAULT_3
 70
0
 62
7
  6
PHANTOM
370
-3
390
F
  0
LAYER
  5
1FD
100
AcDbSymbolTableRecord
100
AcDbLayerTableRecord
  2
ASSI
 70
0
 62
7
  6
CONTINUOUS
370
-3
390
F
  0
LAYER
  5
1FE
100
AcDbSymbolTableRecord
100
AcDbLayerTableRecord
  2
COORDINATE
 70
0
 62
7
  6
CONTINUOUS
370
-3
390
F
  0
LAYER
  5
1FF
100
AcDbSymbolTableRecord
100
AcDbLayerTableRecord
  2
COORD_ORIGINE
 70
0
 62
7
  6
CONTINUOUS
370
-3
390
F
  0
LAYER
  5
200
100
AcDbSymbolTableRecord
100
AcDbLayerTableRecord
  2
COPY_PUBLISH
 70
0
 62
7
  6
CONTINUOUS
370
-3
390
F
  0
LAYER
  5
201
100
AcDbSymbolTableRecord
100
AcDbLayerTableRecord
  2
COSMETIC
 70
0
 62
7
  6
CONTINUOUS
370
-3
390
F
  0
LAYER
  5
202
100
AcDbSymbolTableRecord
100
AcDbLayerTableRecord
  2
COSMETICHE
 70
0
 62
7
  6
CONTINUOUS
370
-3
390
F
  0
LAYER
  5
203
100
AcDbSymbolTableRecord
100
AcDbLayerTableRecord
  2
COSMETICI
 70
0
 62
7
  6
CONTINUOUS
370
-3
390
F
  0
LAYER
  5
204
100
AcDbSymbolTableRecord
100
AcDbLayerTableRecord
  2
CURVE
 70
0
 62
7
  6
CONTINUOUS
370
-3
390
F
  0
LAYER
  5
205
100
AcDbSymbolTableRecord
100
AcDbLayerTableRecord
  2
DRAFT
 70
0
 62
7
  6
CONTINUOUS
370
-3
390
F
  0
LAYER
  5
206
100
AcDbSymbolTableRecord
100
AcDbLayerTableRecord
  2
ESTENSIONE
 70
0
 62
7
  6
CONTINUOUS
370
-3
390
F
  0
LAYER
  5
207
100
AcDbSymbolTableRecord
100
AcDbLayerTableRecord
  2
IMPORT_FEATURES
 70
0
 62
7
  6
CONTINUOUS
370
-3
390
F
  0
LAYER
  5
208
100
AcDbSymbolTableRecord
100
AcDbLayerTableRecord
  2
IMPORT_IGES
 70
0
 62
7
  6
CONTINUOUS
370
-3
390
F
  0
LAYER
  5
209
100
AcDbSymbolTableRecord
100
AcDbLayerTableRecord
  2
INTFCLR_1
 70
0
 62
7
  6
CONTINUOUS
370
-3
390
F
  0
LAYER
  5
20A
100
AcDbSymbolTableRecord
100
AcDbLayerTableRecord
  2
INTF_1
 70
0
 62
7
  6
CONTINUOUS
370
-3
390
F
  0
LAYER
  5
20B
100
AcDbSymbolTableRecord
100
AcDbLayerTableRecord
  2
INTF_11
 70
0
 62
7
  6
CONTINUOUS
370
-3
390
F
  0
LAYER
  5
20C
100
AcDbSymbolTableRecord
100
AcDbLayerTableRecord
  2
INTF_12
 70
0
 62
7
  6
CONTINUOUS
370
-3
390
F
  0
LAYER
  5
20D
100
AcDbSymbolTableRecord
100
AcDbLayerTableRecord
  2
INTF_2
 70
0
 62
7
  6
CONTINUOUS
370
-3
390
F
  0
LAYER
  5
20E
100
AcDbSymbolTableRecord
100
AcDbLayerTableRecord
  2
INTF_6
 70
0
 62
7
  6
CONTINUOUS
370
-3
390
F
  0
LAYER
  5
20F
100
AcDbSymbolTableRecord
100
AcDbLayerTableRecord
  2
INTF_7
 70
0
 62
7
  6
CONTINUOUS
370
-3
390
F
  0
LAYER
  5
210
100
AcDbSymbolTableRecord
100
AcDbLayerTableRecord
  2
INTF_8
 70
0
 62
7
  6
CONTINUOUS
370
-3
390
F
  0
LAYER
  5
211
100
AcDbSymbolTableRecord
100
AcDbLayerTableRecord
  2
NOTE
 70
0
 62
7
  6
CONTINUOUS
370
-3
390
F
  0
LAYER
  5
212
100
AcDbSymbolTableRecord
100
AcDbLayerTableRecord
  2
PIANI
 70
0
 62
7
  6
CONTINUOUS
370
-3
390
F
  0
LAYER
  5
213
100
AcDbSymbolTableRecord
100
AcDbLayerTableRecord
  2
PIANI_ORIGINE
 70
0
 62
7
  6
CONTINUOUS
370
-3
390
F
  0
LAYER
  5
214
100
AcDbSymbolTableRecord
100
AcDbLayerTableRecord
  2
PUNTI
 70
0
 62
7
  6
CONTINUOUS
370
-3
390
F
  0
LAYER
  5
215
100
AcDbSymbolTableRecord
100
AcDbLayerTableRecord
  2
RACCORDO
 70
0
 62
7
  6
CONTINUOUS
370
-3
390
F
  0
LAYER
  5
216
100
AcDbSymbolTableRecord
100
AcDbLayerTableRecord
  2
RGB__255__255__255__
 70
0
 62
7
  6
CONTINUOUS
370
-3
390
F
  0
LAYER
  5
217
100
AcDbSymbolTableRecord
100
AcDbLayerTableRecord
  2
RGB____0____0____0__
 70
0
 62
7
  6
CONTINUOUS
370
-3
390
F
  0
LAYER
  5
218
100
AcDbSymbolTableRecord
100
AcDbLayerTableRecord
  2
SMUSSO
 70
0
 62
7
  6
CONTINUOUS
370
-3
390
F
  0
LAYER
  5
219
100
AcDbSymbolTableRecord
100
AcDbLayerTableRecord
  2
SNAPLINE
 70
0
 62
7
  6
CONTINUOUS
370
-3
390
F
  0
LAYER
  5
21A
100
AcDbSymbolTableRecord
100
AcDbLayerTableRecord
  2
SUPERFICI
 70
0
 62
7
  6
CONTINUOUS
370
-3
390
F
  0
LAYER
  5
21B
100
AcDbSymbolTableRecord
100
AcDbLayerTableRecord
  2
TRASH
 70
0
 62
7
  6
CONTINUOUS
370
-3
390
F
  0
LAYER
  5
21C
100
AcDbSymbolTableRecord
100
AcDbLayerTableRecord
  2
XSEC_DATUMS
 70
0
 62
7
  6
CONTINUOUS
370
-3
390
F
  0
ENDTAB
  0
TABLE
  2
STYLE
  5
3
100
AcDbSymbolTable
 70
1
  0
STYLE
  5
11
100
AcDbSymbolTableRecord
100
AcDbTextStyleTableRecord
  2
STANDARD
 70
0
 40
0.0
 41
0.8
 50
0.0
 71
0
 42
0.2
  3
txt
  4

  0
STYLE
  5
21D
100
AcDbSymbolTableRecord
100
AcDbTextStyleTableRecord
  2
TEXTSTYLE_1
 70
0
 40
0.0
 41
0.8
 50
0.0
 71
0
 42
0.2
  3
gdt
  4

  0
ENDTAB
  0
TABLE
  2
VIEW
  5
6
100
AcDbSymbolTable
 70
0
  0
ENDTAB
  0
TABLE
  2
UCS
  5
7
100
AcDbSymbolTable
 70
0
  0
ENDTAB
  0
TABLE
  2
APPID
  5
9
100
AcDbSymbolTable
 70
1
  0
APPID
  5
21E
100
AcDbSymbolTableRecord
100
AcDbRegAppTableRecord
  2
ACAD
 70
0
  0
ENDTAB
  0
TABLE
  2
BLOCK_RECORD
  5
1
100
AcDbSymbolTable
 70
0
  0
BLOCK_RECORD
  5
21F
100
AcDbSymbolTableRecord
100
AcDbBlockTableRecord
  2
*Model_Space
  0
BLOCK_RECORD
  5
220
100
AcDbSymbolTableRecord
100
AcDbBlockTableRecord
  2
*Paper_Space
  0
BLOCK_RECORD
  5
221
100
AcDbSymbolTableRecord
100
AcDbBlockTableRecord
  2
_FILLED
  0
ENDTAB
  0
TABLE
  2
DIMSTYLE
  5
A
100
AcDbSymbolTable
 70
1
100
AcDbDimStyleTable
 71
0
  0
DIMSTYLE
105
222
100
AcDbSymbolTableRecord
100
AcDbDimStyleTableRecord
  2
STANDARD
 70
0
  3

  4

 40
1.0
 41
3.0
 42
0.5
 43
0.38
 44
1.5
 45
0.0
 46
0.0
 47
0.01
 48
0.01
140
3.0
141
0.09
142
0.0
143
25.4
144
1.0
145
0.0
146
1.0
147
0.625
 71
1
 72
0
 73
0
 74
0
 75
0
 76
0
 77
1
 78
8
 79
2
170
0
171
1
172
0
173
0
174
0
175
0
176
0
177
0
178
0
270
2
179
2
271
2
272
2
273
2
274
2
275
0
280
0
281
0
282
0
283
1
284
8
285
0
286
0
287
3
288
0
340
11
278
44
341
221
342
221
343
221
344
221
  0
ENDTAB
  0
ENDSEC
  0
SECTION
  2
BLOCKS
  0
BLOCK
  5
20
100
AcDbEntity
  8
0
100
AcDbBlockBegin
  2
*Model_Space
 70
0
 10
0.0
 20
0.0
 30
0.0
  3
*Model_Space
  1

  0
ENDBLK
  5
21
100
AcDbEntity
  8
0
100
AcDbBlockEnd
  0
BLOCK
  5
1C
100
AcDbEntity
  8
0
100
AcDbBlockBegin
  2
*Paper_Space
 70
0
 10
0.0
 20
0.0
 30
0.0
  3
*Paper_Space
  1

  0
ENDBLK
  5
1D
100
AcDbEntity
  8
0
100
AcDbBlockEnd
  0
BLOCK
  5
223
100
AcDbEntity
  8
0
100
AcDbBlockBegin
  2
_FILLED
 70
64
 10
0.0
 20
0.0
  3
_FILLED
  1

  0
SOLID
  5
224
100
AcDbEntity
  8
0
  6
BYBLOCK
 62
0
100
AcDbTrace
 10
0.0
 20
0.0
 11
-1.0
 21
0.3166666667
 12
-1.0
 22
-0.3166666667
 13
-1.0
 23
-0.3166666667
  0
ENDBLK
  5
225
100
AcDbEntity
  8
0
  6
BYBLOCK
 62
0
100
AcDbBlockEnd
  0
ENDSEC
  0
SECTION
  2
ENTITIES
  0
LWPOLYLINE
  5
226
100
AcDbEntity
  8
RACCORDO
100
AcDbPolyline
 62
7
  6
CONTINUOUS
 90
9
 70
0
 10
-14.4214324639
 20
-31.7759111576
 10
-14.3604756252
 20
-31.8029252994
 10
-14.2924157834
 20
-31.8253305216
 10
-14.2219976551
 20
-31.8407707182
 10
-14.1493758901
 20
-31.8490761928
 10
-14.075155436
 20
-31.8500066182
 10
-14.000079517
 20
-31.8434229443
 10
-13.9243237314
 20
-31.8291580373
 10
-13.8469942279
 20
-31.8065828104
  0
LWPOLYLINE
  5
227
100
AcDbEntity
  8
RACCORDO
100
AcDbPolyline
 62
250
  6
CONTINUOUS
 90
16
 70
0
 10
-14.6822733131
 20
-31.1942783263
 10
-14.6438324153
 20
-31.211678976
 10
-14.6020191934
 20
-31.2272129917
 10
-14.5572816558
 20
-31.2407139339
 10
-14.5100991435
 20
-31.2520371467
 10
-14.4609771941
 20
-31.2610613071
 10
-14.4104421257
 20
-31.2676897259
 10
-14.3590353968
 20
-31.2718513828
 10
-14.3073078057
 20
-31.2735016875
 10
-14.2558135883
 20
-31.272622958
 10
-14.2051044802
 20
-31.2692246093
 10
-14.155723805
 20
-31.2633430531
 10
-14.1082006524
 20
-31.2550413074
 10
-14.0630442102
 20
-31.2444083215
 10
-14.0207383075
 20
-31.2315580226
 10
-13.9817362317
 20
-31.2166280953
  0
LINE
  5
228
100
AcDbEntity
  8
RACCORDO
100
AcDbLine
 62
250
  6
CONTINUOUS
 10
-14.6822733191
 20
-31.1942783289
 11
-29.439977943
 21
-23.8154260169
  0
LINE
  5
229
100
AcDbEntity
  8
RACCORDO
100
AcDbLine
 62
7
  6
CONTINUOUS
 10
-14.4204245294
 20
-31.7764226949
 11
-29.1837978829
 21
-24.3947358702
  0
LWPOLYLINE
  5
22A
100
AcDbEntity
  8
RACCORDO
100
AcDbPolyline
 62
250
  6
CONTINUOUS
 90
13
 70
0
 10
-29.1837978829
 20
-24.3947358702
 10
-29.1906937901
 20
-24.3911892427
 10
-29.2338824502
 20
-24.364459822
 10
-29.2736259621
 20
-24.3317001437
 10
-29.3096420952
 20
-24.29314706
 10
-29.3416838887
 20
-24.2490685357
 10
-29.369542582
 20
-24.1997538513
 10
-29.3930248931
 20
-24.1455308846
 10
-29.4119548709
 20
-24.086786508
 10
-29.4261962573
 20
-24.0239489938
 10
-29.4356511771
 20
-23.9574659059
 10
-29.4402552999
 20
-23.8877959547
 10
-29.439977943
 20
-23.8154260169
  0
LWPOLYLINE
  5
22B
100
AcDbEntity
  8
RACCORDO
100
AcDbPolyline
 62
250
  6
CONTINUOUS
 90
13
 70
0
 10
-14.4213356687
 20
-31.7759655973
 10
-14.4277249265
 20
-31.7726738854
 10
-14.4717264616
 20
-31.7455415064
 10
-14.5122296463
 20
-31.7124069067
 10
-14.5489550517
 20
-31.6734984986
 10
-14.5816486323
 20
-31.6290862405
 10
-14.6100796763
 20
-31.579478189
 10
-14.6340515763
 20
-31.5250148178
 10
-14.6533968226
 20
-31.4660761332
 10
-14.6679751037
 20
-31.4030808619
 10
-14.6776847277
 20
-31.3364712483
 10
-14.682461528
 20
-31.2667083501
 10
-14.6822733191
 20
-31.1942783289
  0
LWPOLYLINE
  5
22C
100
AcDbEntity
  8
RACCORDO
100
AcDbPolyline
 62
250
  6
CONTINUOUS
 90
9
 70
0
 10
-29.586450965
 20
-23.6401073918
 10
-29.5855947697
 20
-23.6585716945
 10
-29.5797732024
 20
-23.6830241856
 10
-29.568669597
 20
-23.7072151037
 10
-29.5524029233
 20
-23.7308852547
 10
-29.5311474707
 20
-23.7537810243
 10
-29.5051309813
 20
-23.7756570952
 10
-29.4746322089
 20
-23.7962790761
 10
-29.4399779331
 20
-23.8154260125
  0
LWPOLYLINE
  5
22D
100
AcDbEntity
  8
RACCORDO
100
AcDbPolyline
 62
7
  6
CONTINUOUS
 90
15
 70
0
 10
-29.5864423765
 20
-23.6401077055
 10
-29.5871620935
 20
-23.6732815847
 10
-29.5844305166
 20
-23.7540185466
 10
-29.5754391802
 20
-23.8317778703
 10
-29.5603828949
 20
-23.9064340248
 10
-29.5394205414
 20
-23.9777581886
 10
-29.5128028641
 20
-24.0453736759
 10
-29.480745725
 20
-24.109052095
 10
-29.4434396388
 20
-24.1685515541
 10
-29.401269652
 20
-24.2234007305
 10
-29.354622658
 20
-24.2732949779
 10
-29.3037695341
 20
-24.3180611197
 10
-29.2492320487
 20
-24.35731552
 10
-29.1915629686
 20
-24.3907741196
 10
-29.1838836421
 20
-24.3946791041
  0
LINE
  5
22E
100
AcDbEntity
  8
0
100
AcDbLine
 62
250
  6
CONTINUOUS
 10
-5.963834115
 20
-28.6409138207
 11
-5.9844951641
 21
-28.6338031104
  0
LINE
  5
22F
100
AcDbEntity
  8
0
100
AcDbLine
 62
250
  6
CONTINUOUS
 10
-5.9844951641
 20
-28.6338031104
 11
-6.0062474775
 21
-28.6244973718
  0
LWPOLYLINE
  5
230
100
AcDbEntity
  8
0
100
AcDbPolyline
 62
7
  6
CONTINUOUS
 90
9
 70
0
 10
-5.967229422
 20
-28.7056454663
 10
-5.9280167902
 20
-28.7227911694
 10
-5.8867265484
 20
-28.7356891393
 10
-5.8454267072
 20
-28.7433675502
 10
-5.8045557103
 20
-28.7457451719
 10
-5.7647995018
 20
-28.7428637575
 10
-5.7267490814
 20
-28.734917651
 10
-5.6907928077
 20
-28.7221835295
 10
-5.6834032171
 20
-28.7188639391
  0
LWPOLYLINE
  5
231
100
AcDbEntity
  8
RACCORDO
100
AcDbPolyline
 62
250
  6
CONTINUOUS
 90
9
 70
0
 10
-27.0253212429
 20
13.4936435309
 10
-27.0246981204
 20
13.4714758346
 10
-27.0187070207
 20
13.4494727837
 10
-27.0074560715
 20
13.4274117901
 10
-26.9910658189
 20
13.4055292217
 10
-26.969711873
 20
13.3840595347
 10
-26.9436230264
 20
13.3632327616
 10
-26.9130788027
 20
13.3432720466
 10
-26.8784064619
 20
13.3243912549
  0
LWPOLYLINE
  5
232
100
AcDbEntity
  8
RACCORDO
100
AcDbPolyline
 62
250
  6
CONTINUOUS
 90
10
 70
0
 10
-29.439977943
 20
-23.8154260169
 10
-29.2736038155
 20
-19.7387106821
 10
-29.0776210296
 20
-15.6486942248
 10
-28.8520461816
 20
-11.5457258491
 10
-28.5968984418
 20
-7.4301558843
 10
-28.3121995446
 20
-3.3023356288
 10
-27.9979737838
 20
0.8373826814
 10
-27.6542480226
 20
4.9886457332
 10
-27.2810516939
 20
9.1510991654
 10
-26.8784167883
 20
13.3243877265
  0
LWPOLYLINE
  5
233
100
AcDbEntity
  8
RACCORDO
100
AcDbPolyline
 62
7
  6
CONTINUOUS
 90
10
 70
0
 10
-27.0253186222
 20
13.493753477
 10
-27.4186549038
 20
9.4202241055
 10
-27.7950579068
 20
5.2284261776
 10
-28.1415764947
 20
1.0479321108
 10
-28.4581744875
 20
-3.1208478196
 10
-28.7448267097
 20
-7.2775733454
 10
-29.0015110422
 20
-11.4219308617
 10
-29.2282047985
 20
-15.5535815694
 10
-29.4248870009
 20
-19.6721218292
 10
-29.586450965
 20
-23.6401073918
  0
LWPOLYLINE
  5
234
100
AcDbEntity
  8
RACCORDO
100
AcDbPolyline
 62
250
  6
CONTINUOUS
 90
16
 70
0
 10
-26.8784167883
 20
13.3243877265
 10
-26.8684431475
 20
13.4006459571
 10
-26.8536937477
 20
13.4780713424
 10
-26.8342700113
 20
13.5561251085
 10
-26.8103046988
 20
13.6342738068
 10
-26.7819647845
 20
13.7119631389
 10
-26.7494554097
 20
13.7886226478
 10
-26.7130170962
 20
13.863703001
 10
-26.6729004607
 20
13.936700785
 10
-26.6293677236
 20
14.0071301764
 10
-26.5827175054
 20
14.0745101278
 10
-26.533281427
 20
14.138361388
 10
-26.4814011229
 20
14.1982308375
 10
-26.4274414045
 20
14.2537022661
 10
-26.3717807454
 20
14.3043898985
 10
-26.3148041101
 20
14.3499337494
  0
LWPOLYLINE
  5
235
100
AcDbEntity
  8
0
100
AcDbPolyline
 62
250
  6
CONTINUOUS
 90
5
 70
0
 10
-21.2809164357
 20
17.3523398975
 10
-21.2700431921
 20
17.3734020545
 10
-21.2579421472
 20
17.3915618078
 10
-21.2446839421
 20
17.4065704739
 10
-21.2301979356
 20
17.4186767362
  0
LWPOLYLINE
  5
236
100
AcDbEntity
  8
RACCORDO
100
AcDbPolyline
 62
250
  6
CONTINUOUS
 90
4
 70
0
 10
-26.3148041101
 20
14.3499337494
 10
-26.2569100778
 20
14.3900159213
 10
-26.1985077254
 20
14.4243617393
 10
-26.1400076488
 20
14.4527339138
  0
LWPOLYLINE
  5
237
100
AcDbEntity
  8
0
100
AcDbPolyline
 62
250
  6
CONTINUOUS
 90
11
 70
0
 10
-21.2301979356
 20
17.4186767362
 10
-21.2152350177
 20
17.4284007281
 10
-21.2000777159
 20
17.4357504544
 10
-21.1844435027
 20
17.4407179102
 10
-21.1682356853
 20
17.4437992146
 10
-21.1515945861
 20
17.4452626993
 10
-21.1343798827
 20
17.4448400324
 10
-21.1160739152
 20
17.4422223373
 10
-21.0965041302
 20
17.4373066552
 10
-21.075843081
 20
17.4301959449
 10
-21.0540907676
 20
17.4208902063
  0
LWPOLYLINE
  5
238
100
AcDbEntity
  8
0
100
AcDbPolyline
 62
250
  6
CONTINUOUS
 90
10
 70
0
 10
-20.9498758577
 20
17.6028816869
 10
-20.9680611566
 20
17.591469954
 10
-20.9856510783
 20
17.5765653543
 10
-21.0021229437
 20
17.5586107737
 10
-21.0169872959
 20
17.5381397273
 10
-21.0298024455
 20
17.5157605064
 10
-21.0401875956
 20
17.4921381032
 10
-21.047834155
 20
17.4679744505
 10
-21.052514908
 20
17.4439875638
 10
-21.0540907676
 20
17.4208902063
  0
LWPOLYLINE
  5
239
100
AcDbEntity
  8
0
100
AcDbPolyline
 62
7
  6
CONTINUOUS
 90
9
 70
0
 10
-21.1796486545
 20
17.6138527569
 10
-21.2041579283
 20
17.5989295059
 10
-21.2360580979
 20
17.5737106939
 10
-21.2645045509
 20
17.5438662002
 10
-21.2891235159
 20
17.5096940786
 10
-21.3095207952
 20
17.4717059282
 10
-21.3255031106
 20
17.4302369779
 10
-21.3369052144
 20
17.3855297968
 10
-21.3435938606
 20
17.3379766099
  0
LINE
  5
23A
100
AcDbEntity
  8
RACCORDO
100
AcDbLine
 62
250
  6
CONTINUOUS
 10
-8.762884407
 20
-24.2016606596
 11
-8.795524389
 21
-24.1898630994
  0
LWPOLYLINE
  5
23B
100
AcDbEntity
  8
RACCORDO
100
AcDbPolyline
 62
250
  6
CONTINUOUS
 90
4
 70
0
 10
-8.795524389
 20
-24.1898630994
 10
-8.827683717
 20
-24.1770266433
 10
-8.8593431828
 20
-24.163035428
 10
-8.8834207692
 20
-24.151331861
  0
LINE
  5
23C
100
AcDbEntity
  8
0
100
AcDbLine
 62
7
  6
CONTINUOUS
 10
-5.9672294228
 20
-28.7056454659
 11
-9.1087764632
 21
-27.1348719601
  0
LINE
  5
23D
100
AcDbEntity
  8
0
100
AcDbLine
 62
250
  6
CONTINUOUS
 10
-6.0062474775
 20
-28.6244973718
 11
-9.1046668891
 21
-27.075287666
  0
LWPOLYLINE
  5
23E
100
AcDbEntity
  8
0
100
AcDbPolyline
 62
250
  6
CONTINUOUS
 90
7
 70
0
 10
-5.967263495
 20
-28.7056284442
 10
-5.9691439968
 20
-28.7046434166
 10
-5.9819591496
 20
-28.6950793469
 10
-5.9923443023
 20
-28.6818420951
 10
-5.9999908632
 20
-28.6653250025
 10
-6.0046716173
 20
-28.6460188694
 10
-6.0062474775
 20
-28.6244973718
  0
LWPOLYLINE
  5
23F
100
AcDbEntity
  8
ASSI
100
AcDbPolyline
 62
7
  6
CONTINUOUS
 90
4
 70
0
 10
-16.5895669939
 20
16.0552924501
 10
-16.6069218115
 20
16.034326632
 10
-16.6231380417
 20
16.0082223753
 10
-16.6363748526
 20
15.9769133362
  0
LWPOLYLINE
  5
240
100
AcDbEntity
  8
ASSI
100
AcDbPolyline
 62
7
  6
CONTINUOUS
 90
3
 70
0
 10
-16.5542223702
 20
16.0864071112
 10
-16.5716763129
 20
16.0724722188
 10
-16.5895669939
 20
16.0552924501
  0
LINE
  5
241
100
AcDbEntity
  8
0
100
AcDbLine
 62
7
  6
CONTINUOUS
 10
-21.1796529439
 20
17.6138503715
 11
-20.7947709769
 21
17.8215033135
  0
LINE
  5
242
100
AcDbEntity
  8
0
100
AcDbLine
 62
250
  6
CONTINUOUS
 10
-20.9498758577
 20
17.6028816869
 11
-20.5660108303
 21
17.8099856757
  0
LWPOLYLINE
  5
243
100
AcDbEntity
  8
RACCORDO
100
AcDbPolyline
 62
7
  6
CONTINUOUS
 90
16
 70
0
 10
-26.3636197802
 20
14.4670828727
 10
-26.4215840713
 20
14.438903638
 10
-26.48736853
 20
14.400356055
 10
-26.5511670622
 20
14.3557335464
 10
-26.6122865609
 20
14.3055962477
 10
-26.6707152318
 20
14.2499931435
 10
-26.7262424824
 20
14.1890955101
 10
-26.7780200013
 20
14.1238646932
 10
-26.825946382
 20
14.0544503656
 10
-26.8698396421
 20
13.9810638129
 10
-26.9088935899
 20
13.9050069707
 10
-26.9430060362
 20
13.8265312962
 10
-26.9720114404
 20
13.7458824914
 10
-26.9953381963
 20
13.664478857
 10
-27.0128686247
 20
13.5829040703
 10
-27.0253212429
 20
13.4936435309
  0
LWPOLYLINE
  5
244
100
AcDbEntity
  8
0
100
AcDbPolyline
 62
250
  6
CONTINUOUS
 90
10
 70
0
 10
-21.1793799544
 20
17.6139979466
 10
-21.1589479133
 20
17.6234884154
 10
-21.1367394361
 20
17.6307003815
 10
-21.1135736134
 20
17.6352670065
 10
-21.089650583
 20
17.6372033703
 10
-21.0650704324
 20
17.6365494237
 10
-21.038820506
 20
17.6331418097
 10
-21.0105889109
 20
17.6265697595
 10
-20.9808826175
 20
17.6165725653
 10
-20.9498758832
 20
17.6028816731
  0
LINE
  5
245
100
AcDbEntity
  8
RACCORDO
100
AcDbLine
 62
7
  6
CONTINUOUS
 10
-26.3636275569
 20
14.4671004953
 11
-22.1337601482
 21
16.3348039773
  0
LINE
  5
246
100
AcDbEntity
  8
RACCORDO
100
AcDbLine
 62
250
  6
CONTINUOUS
 10
-26.1400076488
 20
14.4527339138
 11
-21.9120185298
 21
16.3196080184
  0
LWPOLYLINE
  5
247
100
AcDbEntity
  8
RACCORDO
100
AcDbPolyline
 62
250
  6
CONTINUOUS
 90
8
 70
0
 10
-26.3635551743
 20
14.4671324721
 10
-26.3554749975
 20
14.4705034278
 10
-26.322678428
 20
14.4804606355
 10
-26.2881179826
 20
14.4852634924
 10
-26.2521720928
 20
14.4848594078
 10
-26.2152343604
 20
14.4792528065
 10
-26.1777092477
 20
14.4685050799
 10
-26.1400076488
 20
14.4527339138
  0
LWPOLYLINE
  5
248
100
AcDbEntity
  8
RACCORDO
100
AcDbPolyline
 62
250
  6
CONTINUOUS
 90
13
 70
0
 10
-6.4375470108
 20
-23.6924453053
 10
-6.4181204652
 20
-23.7007649142
 10
-6.3966699184
 20
-23.7074174742
 10
-6.3735543555
 20
-23.7122916514
 10
-6.349160627
 20
-23.715305874
 10
-6.3238969737
 20
-23.7164096975
 10
-6.2981861953
 20
-23.715584649
 10
-6.2724585741
 20
-23.712844536
 10
-6.2471446745
 20
-23.7082352156
 10
-6.2226681369
 20
-23.7018338272
 10
-6.1994385882
 20
-23.6937475012
 10
-6.1778447862
 20
-23.6841115663
 10
-6.1582481138
 20
-23.6730872844
  0
LINE
  5
249
100
AcDbEntity
  8
0
100
AcDbLine
 62
7
  6
CONTINUOUS
 10
-21.3454744304
 20
16.0363359687
 11
-21.3454744304
 21
17.294585296
  0
LINE
  5
24A
100
AcDbEntity
  8
0
100
AcDbLine
 62
250
  6
CONTINUOUS
 10
-21.3015404475
 20
16.0143689773
 11
-21.3015404475
 21
17.2415523199
  0
LINE
  5
24B
100
AcDbEntity
  8
0
100
AcDbLine
 62
7
  6
CONTINUOUS
 10
-21.3435938606
 20
17.3379766099
 11
-21.3454744301
 21
17.2945900751
  0
LWPOLYLINE
  5
24C
100
AcDbEntity
  8
0
100
AcDbPolyline
 62
250
  6
CONTINUOUS
 90
5
 70
0
 10
-21.3015404475
 20
17.2415523199
 10
-21.2997506014
 20
17.2732451178
 10
-21.2957701403
 20
17.3022614291
 10
-21.2895990643
 20
17.3286012538
 10
-21.2809164357
 20
17.3523398975
  0
LWPOLYLINE
  5
24D
100
AcDbEntity
  8
ASSI
100
AcDbPolyline
 62
250
  6
CONTINUOUS
 90
5
 70
0
 10
-16.5496237038
 20
16.0245242485
 10
-16.5379564476
 20
16.044278798
 10
-16.5242523272
 20
16.0621215929
 10
-16.5087093821
 20
16.0777641201
 10
-16.4913559435
 20
16.0909825083
  0
LWPOLYLINE
  5
24E
100
AcDbEntity
  8
RACCORDO
100
AcDbPolyline
 62
7
  6
CONTINUOUS
 90
7
 70
0
 10
-18.3374242149
 20
14.8367673168
 10
-18.3699596977
 20
14.8136244323
 10
-18.4084629464
 20
14.7799194845
 10
-18.4444934523
 20
14.7401814843
 10
-18.4765331811
 20
14.6951047547
 10
-18.5034827642
 20
14.6455516374
 10
-18.5134954675
 20
14.6203464873
  0
LINE
  5
24F
100
AcDbEntity
  8
ASSI
100
AcDbLine
 62
7
  6
CONTINUOUS
 10
-16.5383401959
 20
16.0974563267
 11
-16.5542223702
 21
16.0864071112
  0
LWPOLYLINE
  5
250
100
AcDbEntity
  8
ASSI
100
AcDbPolyline
 62
250
  6
CONTINUOUS
 90
10
 70
0
 10
-16.3636071685
 20
16.066385923
 10
-16.3875380499
 20
16.0508794434
 10
-16.410630295
 20
16.0308662133
 10
-16.4322130204
 20
16.0069276636
 10
-16.4516591981
 20
15.9797592646
 10
-16.4684038713
 20
15.9501503213
 10
-16.4819605685
 20
15.9189610423
 10
-16.4919354362
 20
15.8870975484
 10
-16.4980386814
 20
15.855485548
 10
-16.5000929906
 20
15.8250434431
  0
LINE
  5
251
100
AcDbEntity
  8
DRAFT
100
AcDbLine
 62
7
  6
CONTINUOUS
 10
-17.9450920175
 20
15.0905244786
 11
-18.3374705044
 21
14.836737386
  0
LINE
  5
252
100
AcDbEntity
  8
RACCORDO
100
AcDbLine
 62
250
  6
CONTINUOUS
 10
-18.3374260327
 20
14.836766141
 11
-18.3374723218
 21
14.8367362106
  0
LWPOLYLINE
  5
253
100
AcDbEntity
  8
ASSI
100
AcDbPolyline
 62
7
  6
CONTINUOUS
 90
3
 70
0
 10
-16.5060970649
 20
16.1170683404
 10
-16.52306365
 20
16.1071087221
 10
-16.5383401959
 20
16.0974563267
  0
LINE
  5
254
100
AcDbEntity
  8
ASSI
100
AcDbLine
 62
250
  6
CONTINUOUS
 10
-16.4913559435
 20
16.0909825083
 11
-16.4723820628
 21
16.10160684
  0
LWPOLYLINE
  5
255
100
AcDbEntity
  8
RACCORDO
100
AcDbPolyline
 62
7
  6
CONTINUOUS
 90
3
 70
0
 10
-18.4855358925
 20
15.2594780892
 10
-18.6696723447
 20
15.1602207323
 10
-19.0982449157
 20
14.9127212114
  0
LINE
  5
256
100
AcDbEntity
  8
RACCORDO
100
AcDbLine
 62
7
  6
CONTINUOUS
 10
-18.4794425986
 20
15.2627090296
 11
-18.4855216611
 21
15.2594977343
  0
LINE
  5
257
100
AcDbEntity
  8
DRAFT
100
AcDbLine
 62
7
  6
CONTINUOUS
 10
-18.3436597112
 20
15.3343901114
 11
-18.4793886969
 21
15.2627374849
  0
LINE
  5
258
100
AcDbEntity
  8
0
100
AcDbLine
 62
250
  6
CONTINUOUS
 10
-17.5477454494
 20
15.7131924821
 11
-17.6129763969
 21
15.678790823
  0
LINE
  5
259
100
AcDbEntity
  8
0
100
AcDbLine
 62
250
  6
CONTINUOUS
 10
-17.2362285051
 20
15.7460580105
 11
-17.3946236637
 21
15.6625218204
  0
LWPOLYLINE
  5
25A
100
AcDbEntity
  8
SMUSSO
100
AcDbPolyline
 62
7
  6
CONTINUOUS
 90
15
 70
0
 10
-7.8023888034
 20
18.9955942806
 10
-7.9076488492
 20
18.9402118558
 10
-8.0058826587
 20
18.8819612396
 10
-8.0967992873
 20
18.821059711
 10
-8.1800834429
 20
18.7577805966
 10
-8.2555604778
 20
18.6923077722
 10
-8.3231463764
 20
18.6247207528
 10
-8.3826493173
 20
18.5552036633
 10
-8.4338226626
 20
18.4840354587
 10
-8.4764939679
 20
18.4114345188
 10
-8.5105155577
 20
18.337649891
 10
-8.5357718273
 20
18.2629289554
 10
-8.5521759029
 20
18.1874930068
 10
-8.5596648579
 20
18.1115656702
 10
-8.5601713424
 20
18.0859794444
  0
LWPOLYLINE
  5
25B
100
AcDbEntity
  8
ASSI
100
AcDbPolyline
 62
7
  6
CONTINUOUS
 90
15
 70
0
 10
-7.8023888034
 20
18.9955942806
 10
-7.9076488492
 20
18.9402118558
 10
-8.0058826587
 20
18.8819612396
 10
-8.0967992873
 20
18.821059711
 10
-8.1800834429
 20
18.7577805966
 10
-8.2555604778
 20
18.6923077722
 10
-8.3231463764
 20
18.6247207528
 10
-8.3826493173
 20
18.5552036633
 10
-8.4338226626
 20
18.4840354587
 10
-8.4764939679
 20
18.4114345188
 10
-8.5105155577
 20
18.337649891
 10
-8.5357718273
 20
18.2629289554
 10
-8.5521759029
 20
18.1874930068
 10
-8.5596648579
 20
18.1115656702
 10
-8.5601713424
 20
18.0859794444
  0
LWPOLYLINE
  5
25C
100
AcDbEntity
  8
SMUSSO
100
AcDbPolyline
 62
7
  6
CONTINUOUS
 90
25
 70
0
 10
-8.1559941868
 20
19.6056094238
 10
-8.2816604029
 20
19.5396958518
 10
-8.398385875
 20
19.4708847032
 10
-8.506170603
 20
19.3991759779
 10
-8.605237369
 20
19.3243571924
 10
-8.6953633909
 20
19.2466408303
 10
-8.7758803226
 20
19.1666643418
 10
-8.8467767435
 20
19.08436374
 10
-8.9080640741
 20
18.9998030118
 10
-8.9591082294
 20
18.9138115686
 10
-8.9998097444
 20
18.8263779322
 10
-9.0302680841
 20
18.7375135807
 10
-9.0501475582
 20
18.6480823601
 10
-9.0593297566
 20
18.5580411253
 10
-9.0579330894
 20
18.4674330214
 10
-9.0459770972
 20
18.377251329
 10
-9.0233466432
 20
18.2875399259
 10
-8.9901568642
 20
18.1982549343
 10
-8.9467727107
 20
18.1102580019
 10
-8.8931112878
 20
18.0235683429
 10
-8.8292554903
 20
17.9381667431
 10
-8.755818954
 20
17.8548572071
 10
-8.6727237166
 20
17.7736562459
 10
-8.5800477403
 20
17.6945473485
 10
-8.5000673039
 20
17.6336279467
  0
LWPOLYLINE
  5
25D
100
AcDbEntity
  8
ASSI
100
AcDbPolyline
 62
7
  6
CONTINUOUS
 90
22
 70
0
 10
-8.1559941868
 20
19.6056094238
 10
-8.2816604029
 20
19.5396958518
 10
-8.398385875
 20
19.4708847032
 10
-8.506170603
 20
19.3991759779
 10
-8.605237369
 20
19.3243571924
 10
-8.6953633909
 20
19.2466408303
 10
-8.7758803226
 20
19.1666643418
 10
-8.8467767435
 20
19.08436374
 10
-8.9080640741
 20
18.9998030118
 10
-8.9591082294
 20
18.9138115686
 10
-8.9998097444
 20
18.8263779322
 10
-9.0302680841
 20
18.7375135807
 10
-9.0501475582
 20
18.6480823601
 10
-9.0593297566
 20
18.5580411253
 10
-9.0579330894
 20
18.4674330214
 10
-9.0459770972
 20
18.377251329
 10
-9.0233466432
 20
18.2875399259
 10
-8.9901568642
 20
18.1982549343
 10
-8.9467727107
 20
18.1102580019
 10
-8.8931112878
 20
18.0235683429
 10
-8.8292554903
 20
17.9381667431
 10
-8.755818954
 20
17.8548572071
  0
LWPOLYLINE
  5
25E
100
AcDbEntity
  8
ASSI
100
AcDbPolyline
 62
7
  6
CONTINUOUS
 90
4
 70
0
 10
-16.448128574
 20
16.1477444139
 10
-16.4654584216
 20
16.1389565949
 10
-16.4869213707
 20
16.127667588
 10
-16.5060970649
 20
16.1170683404
  0
LINE
  5
25F
100
AcDbEntity
  8
ASSI
100
AcDbLine
 62
7
  6
CONTINUOUS
 10
-16.4481143533
 20
16.1477515261
 11
-16.0945609629
 21
16.3245282214
  0
LINE
  5
260
100
AcDbEntity
  8
ASSI
100
AcDbLine
 62
250
  6
CONTINUOUS
 10
-16.4452925092
 20
16.1481095672
 11
-16.083709902
 21
16.3289352335
  0
LINE
  5
261
100
AcDbEntity
  8
0
100
AcDbLine
 62
7
  6
CONTINUOUS
 10
-12.6110056941
 20
17.5530720578
 11
-14.0700104855
 21
16.8293949253
  0
LINE
  5
262
100
AcDbEntity
  8
ASSI
100
AcDbLine
 62
7
  6
CONTINUOUS
 10
-12.6110056941
 20
17.5530720578
 11
-14.0700104855
 21
16.8293949253
  0
LINE
  5
263
100
AcDbEntity
  8
RACCORDO
100
AcDbLine
 62
7
  6
CONTINUOUS
 10
-4.3287303549
 20
21.5039604993
 11
-8.1559941868
 21
19.6056094238
  0
LINE
  5
264
100
AcDbEntity
  8
ASSI
100
AcDbLine
 62
7
  6
CONTINUOUS
 10
-4.3287303549
 20
21.5039604993
 11
-8.1559941868
 21
19.6056094238
  0
LINE
  5
265
100
AcDbEntity
  8
SMUSSO
100
AcDbLine
 62
7
  6
CONTINUOUS
 10
-3.6338036849
 20
21.0632432306
 11
-7.8023888034
 21
18.9955942806
  0
LINE
  5
266
100
AcDbEntity
  8
ASSI
100
AcDbLine
 62
7
  6
CONTINUOUS
 10
-3.6338036849
 20
21.0632432306
 11
-7.8023888034
 21
18.9955942806
  0
LINE
  5
267
100
AcDbEntity
  8
ASSI
100
AcDbLine
 62
250
  6
CONTINUOUS
 10
-16.2626699675
 20
16.2043162261
 11
-16.4723808495
 21
16.1016074275
  0
LINE
  5
268
100
AcDbEntity
  8
ASSI
100
AcDbLine
 62
250
  6
CONTINUOUS
 10
-15.8802328248
 20
16.3915814448
 11
-16.2626699675
 21
16.2043162261
  0
LINE
  5
269
100
AcDbEntity
  8
ASSI
100
AcDbLine
 62
250
  6
CONTINUOUS
 10
-16.0551238372
 20
16.2574683874
 11
-16.3999588622
 21
16.0885646579
  0
LINE
  5
26A
100
AcDbEntity
  8
ASSI
100
AcDbLine
 62
250
  6
CONTINUOUS
 10
-15.8028257868
 20
16.3810210981
 11
-16.0551238372
 21
16.2574683874
  0
LINE
  5
26B
100
AcDbEntity
  8
0
100
AcDbLine
 62
7
  6
CONTINUOUS
 10
-13.3534678228
 20
17.6382642277
 11
-13.8062495032
 21
17.4235881925
  0
LINE
  5
26C
100
AcDbEntity
  8
ASSI
100
AcDbLine
 62
7
  6
CONTINUOUS
 10
-13.3534678228
 20
17.6382642277
 11
-13.975577494
 21
17.343314752
  0
LINE
  5
26D
100
AcDbEntity
  8
0
100
AcDbLine
 62
7
  6
CONTINUOUS
 10
-13.8062495032
 20
17.4235881925
 11
-14.6019658253
 21
17.0464133619
  0
LINE
  5
26E
100
AcDbEntity
  8
0
100
AcDbLine
 62
7
  6
CONTINUOUS
 10
-14.6019658253
 20
17.0464133619
 11
-15.7347598131
 21
16.5096180437
  0
LINE
  5
26F
100
AcDbEntity
  8
ASSI
100
AcDbLine
 62
7
  6
CONTINUOUS
 10
-13.975577494
 20
17.343314752
 11
-15.7347598131
 21
16.5096180437
  0
LINE
  5
270
100
AcDbEntity
  8
0
100
AcDbLine
 62
7
  6
CONTINUOUS
 10
-15.7347598131
 20
16.5096180437
 11
-16.1002186395
 21
16.3364698721
  0
LINE
  5
271
100
AcDbEntity
  8
ASSI
100
AcDbLine
 62
7
  6
CONTINUOUS
 10
-15.7347598131
 20
16.5096180437
 11
-16.1002186395
 21
16.3364698721
  0
LINE
  5
272
100
AcDbEntity
  8
0
100
AcDbLine
 62
250
  6
CONTINUOUS
 10
-13.1817306943
 20
17.6937456339
 11
-16.0245938523
 21
16.3475903609
  0
LINE
  5
273
100
AcDbEntity
  8
ASSI
100
AcDbLine
 62
250
  6
CONTINUOUS
 10
-13.1817306943
 20
17.6937456339
 11
-16.0245938523
 21
16.3475903609
  0
LINE
  5
274
100
AcDbEntity
  8
0
100
AcDbLine
 62
250
  6
CONTINUOUS
 10
-12.7904630842
 20
17.6428007529
 11
-15.6337864055
 21
16.2965014074
  0
LINE
  5
275
100
AcDbEntity
  8
ASSI
100
AcDbLine
 62
250
  6
CONTINUOUS
 10
-12.7904630842
 20
17.6428007529
 11
-15.6337864055
 21
16.2965014074
  0
LINE
  5
276
100
AcDbEntity
  8
0
100
AcDbLine
 62
7
  6
CONTINUOUS
 10
-14.5346671653
 20
17.1650319825
 11
-16.7444587457
 21
16.120463495
  0
LINE
  5
277
100
AcDbEntity
  8
ASSI
100
AcDbLine
 62
7
  6
CONTINUOUS
 10
-14.5346671653
 20
17.1650319825
 11
-16.7444587457
 21
16.120463495
  0
LINE
  5
278
100
AcDbEntity
  8
RACCORDO
100
AcDbLine
 62
7
  6
CONTINUOUS
 10
-12.4184528697
 20
18.1341612293
 11
-13.8276136437
 21
17.4686553392
  0
LINE
  5
279
100
AcDbEntity
  8
RACCORDO
100
AcDbLine
 62
250
  6
CONTINUOUS
 10
-12.1987629099
 20
18.1180767088
 11
-13.0583721993
 21
17.7121104657
  0
LINE
  5
27A
100
AcDbEntity
  8
ASSI
100
AcDbLine
 62
250
  6
CONTINUOUS
 10
-12.1987629099
 20
18.1180767088
 11
-13.0583721993
 21
17.7121104657
  0
LINE
  5
27B
100
AcDbEntity
  8
0
100
AcDbLine
 62
7
  6
CONTINUOUS
 10
-16.3840042597
 20
16.2613532123
 11
-16.707460829
 21
16.108619655
  0
LINE
  5
27C
100
AcDbEntity
  8
ASSI
100
AcDbLine
 62
7
  6
CONTINUOUS
 10
-16.3840042597
 20
16.2613532123
 11
-16.707460829
 21
16.108619655
  0
LINE
  5
27D
100
AcDbEntity
  8
0
100
AcDbLine
 62
7
  6
CONTINUOUS
 10
-15.8625552395
 20
16.5075408403
 11
-16.3840042597
 21
16.2613532123
  0
LINE
  5
27E
100
AcDbEntity
  8
ASSI
100
AcDbLine
 62
7
  6
CONTINUOUS
 10
-15.7569534243
 20
16.5573950793
 11
-16.3840042597
 21
16.2613532123
  0
LINE
  5
27F
100
AcDbEntity
  8
0
100
AcDbLine
 62
7
  6
CONTINUOUS
 10
-13.8273843818
 20
17.4681698935
 11
-15.8625552395
 21
16.5075408403
  0
LINE
  5
280
100
AcDbEntity
  8
ASSI
100
AcDbLine
 62
7
  6
CONTINUOUS
 10
-13.8273843818
 20
17.4681698935
 11
-15.7569534243
 21
16.5573950793
  0
LINE
  5
281
100
AcDbEntity
  8
ASSI
100
AcDbLine
 62
7
  6
CONTINUOUS
 10
-12.4181699067
 20
18.1342945791
 11
-13.8276136437
 21
17.4686553392
  0
LINE
  5
282
100
AcDbEntity
  8
ASSI
100
AcDbLine
 62
7
  6
CONTINUOUS
 10
-4.6406194746
 20
21.5477329074
 11
-11.8880955445
 21
18.1316234958
  0
LINE
  5
283
100
AcDbEntity
  8
RACCORDO
100
AcDbLine
 62
7
  6
CONTINUOUS
 10
-4.6406167983
 20
21.5477292611
 11
-11.8880955394
 21
18.1316234857
  0
LINE
  5
284
100
AcDbEntity
  8
RACCORDO
100
AcDbLine
 62
250
  6
CONTINUOUS
 10
-4.3773416413
 20
21.5282661425
 11
-11.7441119962
 21
18.0559255942
  0
LINE
  5
285
100
AcDbEntity
  8
ASSI
100
AcDbLine
 62
250
  6
CONTINUOUS
 10
-4.3773416413
 20
21.5282661425
 11
-11.7441119962
 21
18.0559255942
  0
LINE
  5
286
100
AcDbEntity
  8
RACCORDO
100
AcDbLine
 62
7
  6
CONTINUOUS
 10
-13.8036102893
 20
16.6961948272
 11
-13.5428562923
 21
16.8177733452
  0
LINE
  5
287
100
AcDbEntity
  8
RACCORDO
100
AcDbLine
 62
250
  6
CONTINUOUS
 10
-13.7544864634
 20
16.6716329143
 11
-13.4583401017
 21
16.8097133893
  0
LINE
  5
288
100
AcDbEntity
  8
RACCORDO
100
AcDbLine
 62
250
  6
CONTINUOUS
 10
-13.5428562923
 20
16.8177733452
 11
-13.5427873404
 21
16.8178054488
  0
LWPOLYLINE
  5
289
100
AcDbEntity
  8
RACCORDO
100
AcDbPolyline
 62
250
  6
CONTINUOUS
 90
3
 70
0
 10
-17.6129763969
 20
15.678790823
 10
-18.1062353163
 20
15.4519184213
 10
-18.4794425986
 20
15.2627090296
  0
LWPOLYLINE
  5
28A
100
AcDbEntity
  8
RACCORDO
100
AcDbPolyline
 62
250
  6
CONTINUOUS
 90
4
 70
0
 10
-17.665632325
 20
15.4501569346
 10
-18.1562313109
 20
15.2244349
 10
-18.6373543793
 20
14.9774955331
 10
-18.9136339987
 20
14.8204157529
  0
LWPOLYLINE
  5
28B
100
AcDbEntity
  8
0
100
AcDbPolyline
 62
7
  6
CONTINUOUS
 90
3
 70
0
 10
-17.5961918286
 20
15.6919407368
 10
-18.0424356722
 20
15.4872041369
 10
-18.3436483126
 20
15.334367777
  0
LINE
  5
28C
100
AcDbEntity
  8
RACCORDO
100
AcDbLine
 62
7
  6
CONTINUOUS
 10
-12.3901156673
 20
18.1467095118
 11
-12.4186353441
 21
18.1340775617
  0
LWPOLYLINE
  5
28D
100
AcDbEntity
  8
ASSI
100
AcDbPolyline
 62
250
  6
CONTINUOUS
 90
13
 70
0
 10
-16.3999588663
 20
16.0885643317
 10
-16.4210954941
 20
16.0792463961
 10
-16.4417845997
 20
16.0672921623
 10
-16.4616887751
 20
16.0529048472
 10
-16.4804733134
 20
16.036337831
 10
-16.4978485787
 20
16.0178586672
 10
-16.5135648741
 20
15.997732812
 10
-16.5273725823
 20
15.9762644799
 10
-16.5390241224
 20
15.9538190492
 10
-16.5483142607
 20
15.9307797597
 10
-16.5550875255
 20
15.9075303189
 10
-16.559234715
 20
15.8844466089
 10
-16.5606865644
 20
15.8619078981
  0
LWPOLYLINE
  5
28E
100
AcDbEntity
  8
0
100
AcDbPolyline
 62
7
  6
CONTINUOUS
 90
4
 70
0
 10
-17.5477454494
 20
15.7131924821
 10
-17.5805353631
 20
15.698706525
 10
-17.5884364264
 20
15.6952636373
 10
-17.5961918286
 20
15.6919407368
  0
LINE
  5
28F
100
AcDbEntity
  8
ASSI
100
AcDbLine
 62
7
  6
CONTINUOUS
 10
-4.609321587
 20
21.5612760493
 11
-4.6425845699
 21
21.5467917503
  0
LINE
  5
290
100
AcDbEntity
  8
RACCORDO
100
AcDbLine
 62
250
  6
CONTINUOUS
 10
-4.6406167983
 20
21.5477292611
 11
-4.6272789693
 21
21.553498668
  0
LWPOLYLINE
  5
291
100
AcDbEntity
  8
RACCORDO
100
AcDbPolyline
 62
250
  6
CONTINUOUS
 90
9
 70
0
 10
-12.103254335
 20
18.1155968787
 10
-12.0731405346
 20
18.128427283
 10
-12.0432930576
 20
18.1379917272
 10
-12.0139290555
 20
18.1442207761
 10
-11.985262014
 20
18.1470692856
 10
-11.9575006287
 20
18.1465166738
 10
-11.9308472379
 20
18.1425672381
 10
-11.9054957868
 20
18.1352501105
 10
-11.8858099265
 20
18.1267745593
  0
LWPOLYLINE
  5
292
100
AcDbEntity
  8
ASSI
100
AcDbPolyline
 62
250
  6
CONTINUOUS
 90
9
 70
0
 10
-12.103254335
 20
18.1155968787
 10
-12.0731405346
 20
18.128427283
 10
-12.0432930576
 20
18.1379917272
 10
-12.0139290555
 20
18.1442207761
 10
-11.985262014
 20
18.1470692856
 10
-11.9575006287
 20
18.1465166738
 10
-11.9308472379
 20
18.1425672381
 10
-11.9054957868
 20
18.1352501105
 10
-11.8858099265
 20
18.1267745593
  0
LINE
  5
293
100
AcDbEntity
  8
0
100
AcDbLine
 62
7
  6
CONTINUOUS
 10
-16.707460829
 20
16.108619655
 11
-16.9558645663
 21
16.0049125437
  0
LINE
  5
294
100
AcDbEntity
  8
ASSI
100
AcDbLine
 62
7
  6
CONTINUOUS
 10
-16.707460829
 20
16.108619655
 11
-16.9558645663
 21
16.0049125437
  0
LINE
  5
295
100
AcDbEntity
  8
0
100
AcDbLine
 62
7
  6
CONTINUOUS
 10
-12.6110056941
 20
16.6000543931
 11
-12.7894795234
 21
16.5256848171
  0
LINE
  5
296
100
AcDbEntity
  8
ASSI
100
AcDbLine
 62
7
  6
CONTINUOUS
 10
-12.6110056941
 20
16.6000543931
 11
-12.7894795234
 21
16.5256848171
  0
LINE
  5
297
100
AcDbEntity
  8
ASSI
100
AcDbLine
 62
7
  6
CONTINUOUS
 10
-16.0945295058
 20
16.3244653193
 11
-16.0837139256
 21
16.328933951
  0
LINE
  5
298
100
AcDbEntity
  8
RACCORDO
100
AcDbLine
 62
7
  6
CONTINUOUS
 10
-13.5252250308
 20
16.8249928072
 11
-13.5427873404
 21
16.8178054488
  0
LINE
  5
299
100
AcDbEntity
  8
ASSI
100
AcDbLine
 62
250
  6
CONTINUOUS
 10
-16.4481143533
 20
16.1477515261
 11
-16.4372673161
 21
16.1521572557
  0
LWPOLYLINE
  5
29A
100
AcDbEntity
  8
ASSI
100
AcDbPolyline
 62
7
  6
CONTINUOUS
 90
3
 70
0
 10
-12.3554454869
 20
18.1597894117
 10
-12.4065005972
 20
18.1396627957
 10
-12.4181711374
 20
18.1342966129
  0
LWPOLYLINE
  5
29B
100
AcDbEntity
  8
RACCORDO
100
AcDbPolyline
 62
7
  6
CONTINUOUS
 90
7
 70
0
 10
-13.8273843818
 20
17.4681698935
 10
-13.9547596803
 20
17.4180552781
 10
-14.0813708386
 20
17.366334305
 10
-14.2072178567
 20
17.313006974
 10
-14.332308464
 20
17.2580696649
 10
-14.4566349312
 20
17.2015259979
 10
-14.5346671348
 20
17.1650319201
  0
LWPOLYLINE
  5
29C
100
AcDbEntity
  8
ASSI
100
AcDbPolyline
 62
7
  6
CONTINUOUS
 90
7
 70
0
 10
-13.8273843818
 20
17.4681698935
 10
-13.9547596803
 20
17.4180552781
 10
-14.0813708386
 20
17.366334305
 10
-14.2072178567
 20
17.313006974
 10
-14.332308464
 20
17.2580696649
 10
-14.4566349312
 20
17.2015259979
 10
-14.5346671348
 20
17.1650319201
  0
LWPOLYLINE
  5
29D
100
AcDbEntity
  8
RACCORDO
100
AcDbPolyline
 62
7
  6
CONTINUOUS
 90
3
 70
0
 10
-4.5665247042
 20
21.576170696
 10
-4.6157821518
 20
21.5586734569
 10
-4.641250948
 20
21.5474296187
  0
LINE
  5
29E
100
AcDbEntity
  8
0
100
AcDbLine
 62
7
  6
CONTINUOUS
 10
-13.296356242
 20
17.6570701285
 11
-13.3534678228
 21
17.6382642277
  0
LINE
  5
29F
100
AcDbEntity
  8
ASSI
100
AcDbLine
 62
7
  6
CONTINUOUS
 10
-13.296356242
 20
17.6570701285
 11
-13.3534678228
 21
17.6382642277
  0
LINE
  5
2A0
100
AcDbEntity
  8
0
100
AcDbLine
 62
7
  6
CONTINUOUS
 10
-16.1326270322
 20
16.3132142482
 11
-16.1864392884
 21
16.2956205318
  0
LWPOLYLINE
  5
2A1
100
AcDbEntity
  8
RACCORDO
100
AcDbPolyline
 62
250
  6
CONTINUOUS
 90
6
 70
0
 10
-13.5427873404
 20
16.8178054488
 10
-13.5266376401
 20
16.8230566821
 10
-13.5105995081
 20
16.8245172372
 10
-13.4936762392
 20
16.8227469157
 10
-13.4761560115
 20
16.8177821709
 10
-13.4583401017
 20
16.8097133893
  0
LINE
  5
2A2
100
AcDbEntity
  8
0
100
AcDbLine
 62
7
  6
CONTINUOUS
 10
-13.2391105325
 20
17.6755639306
 11
-13.296356242
 21
17.6570701285
  0
LINE
  5
2A3
100
AcDbEntity
  8
ASSI
100
AcDbLine
 62
7
  6
CONTINUOUS
 10
-13.2391105325
 20
17.6755639306
 11
-13.296356242
 21
17.6570701285
  0
LINE
  5
2A4
100
AcDbEntity
  8
0
100
AcDbLine
 62
7
  6
CONTINUOUS
 10
-16.0786784986
 20
16.3305375419
 11
-16.1326270322
 21
16.3132142482
  0
LINE
  5
2A5
100
AcDbEntity
  8
0
100
AcDbLine
 62
7
  6
CONTINUOUS
 10
-13.1817306943
 20
17.6937456339
 11
-13.2391105325
 21
17.6755639306
  0
LINE
  5
2A6
100
AcDbEntity
  8
ASSI
100
AcDbLine
 62
7
  6
CONTINUOUS
 10
-13.1817306943
 20
17.6937456339
 11
-13.2391105325
 21
17.6755639306
  0
LINE
  5
2A7
100
AcDbEntity
  8
ASSI
100
AcDbLine
 62
7
  6
CONTINUOUS
 10
-16.0443190431
 20
16.3414073833
 11
-16.0948338498
 21
16.3253827052
  0
LWPOLYLINE
  5
2A8
100
AcDbEntity
  8
RACCORDO
100
AcDbPolyline
 62
250
  6
CONTINUOUS
 90
8
 70
0
 10
-4.6272789693
 20
21.553498668
 10
-4.595325576
 20
21.5635229112
 10
-4.561664551
 20
21.5690243426
 10
-4.5265544014
 20
21.5699413209
 10
-4.4902747953
 20
21.5662836631
 10
-4.4531142777
 20
21.5580812124
 10
-4.4153645068
 20
21.5453660597
 10
-4.3773420038
 20
21.5282407978
  0
LWPOLYLINE
  5
2A9
100
AcDbEntity
  8
ASSI
100
AcDbPolyline
 62
250
  6
CONTINUOUS
 90
8
 70
0
 10
-4.6272789693
 20
21.553498668
 10
-4.595325576
 20
21.5635229112
 10
-4.561664551
 20
21.5690243426
 10
-4.5265544014
 20
21.5699413209
 10
-4.4902747953
 20
21.5662836631
 10
-4.4531142777
 20
21.5580812124
 10
-4.4153645068
 20
21.5453660597
 10
-4.3773420038
 20
21.5282407978
  0
LINE
  5
2AA
100
AcDbEntity
  8
0
100
AcDbLine
 62
7
  6
CONTINUOUS
 10
-16.0245936877
 20
16.3475904131
 11
-16.0786784986
 21
16.3305375419
  0
LINE
  5
2AB
100
AcDbEntity
  8
ASSI
100
AcDbLine
 62
7
  6
CONTINUOUS
 10
-16.0005923979
 20
16.3550576826
 11
-16.0443190431
 21
16.3414073833
  0
LINE
  5
2AC
100
AcDbEntity
  8
ASSI
100
AcDbLine
 62
7
  6
CONTINUOUS
 10
-15.9525190181
 20
16.36982976
 11
-16.0005923979
 21
16.3550576826
  0
LWPOLYLINE
  5
2AD
100
AcDbEntity
  8
ASSI
100
AcDbPolyline
 62
7
  6
CONTINUOUS
 90
3
 70
0
 10
-15.8802327709
 20
16.3915814608
 10
-15.904351677
 20
16.3843850825
 10
-15.9525190181
 20
16.36982976
  0
LINE
  5
2AE
100
AcDbEntity
  8
ASSI
100
AcDbLine
 62
7
  6
CONTINUOUS
 10
-12.3056922294
 20
18.1743691013
 11
-12.3554454869
 21
18.1597894117
  0
LINE
  5
2AF
100
AcDbEntity
  8
RACCORDO
100
AcDbLine
 62
250
  6
CONTINUOUS
 10
-8.0678510562
 20
-19.4385814618
 11
-8.2212062025
 21
-19.3619038887
  0
LINE
  5
2B0
100
AcDbEntity
  8
RACCORDO
100
AcDbLine
 62
7
  6
CONTINUOUS
 10
-6.9146679275
 20
-19.2453065681
 11
-7.0207339447
 21
-19.1922735595
  0
LWPOLYLINE
  5
2B1
100
AcDbEntity
  8
RACCORDO
100
AcDbPolyline
 62
250
  6
CONTINUOUS
 90
4
 70
0
 10
-8.1246551932
 20
-19.3201092801
 10
-8.1207570668
 20
-19.3228518203
 10
-8.1046335008
 20
-19.339615739
 10
-8.0911004212
 20
-19.3598964388
  0
LWPOLYLINE
  5
2B2
100
AcDbEntity
  8
RACCORDO
100
AcDbPolyline
 62
250
  6
CONTINUOUS
 90
10
 70
0
 10
-6.6070466921
 20
-24.4677785078
 10
-6.5850878271
 20
-24.4919798608
 10
-6.559940335
 20
-24.5130706568
 10
-6.5322814548
 20
-24.5304829062
 10
-6.502856059
 20
-24.5437476852
 10
-6.4724565934
 20
-24.5525077641
 10
-6.4419017362
 20
-24.5565272279
 10
-6.4120143503
 20
-24.5556978295
 10
-6.3835993234
 20
-24.5500419051
 10
-6.3574218914
 20
-24.5397117725
  0
LWPOLYLINE
  5
2B3
100
AcDbEntity
  8
0
100
AcDbPolyline
 62
250
  6
CONTINUOUS
 90
6
 70
0
 10
-21.3454744304
 20
17.294585296
 10
-21.3447971619
 20
17.2874662744
 10
-21.3401335135
 20
17.2747500405
 10
-21.3311718234
 20
17.2626235395
 10
-21.3181786883
 20
17.2514469754
 10
-21.3015404475
 20
17.2415523199
  0
LWPOLYLINE
  5
2B4
100
AcDbEntity
  8
RACCORDO
100
AcDbPolyline
 62
250
  6
CONTINUOUS
 90
16
 70
0
 10
-17.7056026664
 20
14.2164000867
 10
-17.7062981818
 20
14.2330173911
 10
-17.7124601742
 20
14.2837474705
 10
-17.7226564224
 20
14.3354420338
 10
-17.7367739325
 20
14.3875322895
 10
-17.7546577252
 20
14.4394489205
 10
-17.7761126348
 20
14.4906256242
 10
-17.8009057411
 20
14.5405050971
 10
-17.8287635983
 20
14.5885363886
 10
-17.85937483
 20
14.6341849928
 10
-17.8924005174
 20
14.676949742
 10
-17.9274794776
 20
14.7163661348
 10
-17.964226291
 20
14.7520035855
 10
-18.0022377122
 20
14.7834739042
 10
-18.0410972074
 20
14.8104353171
 10
-18.0803792759
 20
14.8325954355
  0
LINE
  5
2B5
100
AcDbEntity
  8
ASSI
100
AcDbLine
 62
7
  6
CONTINUOUS
 10
-16.6444033334
 20
15.942821902
 11
-16.6465393705
 21
15.9133144056
  0
LWPOLYLINE
  5
2B6
100
AcDbEntity
  8
RACCORDO
100
AcDbPolyline
 62
250
  6
CONTINUOUS
 90
10
 70
0
 10
-17.5325227436
 20
15.4415019691
 10
-17.528022802
 20
15.470707319
 10
-17.5200945493
 20
15.5004142693
 10
-17.5089379558
 20
15.529873239
 10
-17.4948344538
 20
15.5583408882
 10
-17.4781398615
 20
15.5850988318
 10
-17.4592754209
 20
15.6094717785
 10
-17.4387171341
 20
15.6308446337
 10
-17.4169837421
 20
15.6486780132
 10
-17.3946236656
 20
15.6625218212
  0
LINE
  5
2B7
100
AcDbEntity
  8
ASSI
100
AcDbLine
 62
7
  6
CONTINUOUS
 10
-16.6363748526
 20
15.9769133362
 11
-16.6444033334
 21
15.942821902
  0
LWPOLYLINE
  5
2B8
100
AcDbEntity
  8
RACCORDO
100
AcDbPolyline
 62
250
  6
CONTINUOUS
 90
10
 70
0
 10
-7.4736459161
 20
17.1561709987
 10
-7.4359094095
 20
17.181527096
 10
-7.3640416795
 20
17.2250588774
 10
-7.2880916815
 20
17.2666133742
 10
-7.2080380056
 20
17.3061678998
 10
-7.1239020617
 20
17.3437451408
 10
-7.0363233231
 20
17.3790643085
 10
-6.9452791229
 20
17.4121083692
 10
-6.8507921279
 20
17.4428943565
 10
-6.7535698121
 20
17.4711925832
  0
LWPOLYLINE
  5
2B9
100
AcDbEntity
  8
ASSI
100
AcDbPolyline
 62
250
  6
CONTINUOUS
 90
10
 70
0
 10
-10.8481742753
 20
13.3086694764
 10
-10.8721052065
 20
13.2931629557
 10
-10.8951974834
 20
13.2731496793
 10
-10.9167802216
 20
13.2492110887
 10
-10.9362263934
 20
13.2220426649
 10
-10.9529710475
 20
13.192433718
 10
-10.9665277206
 20
13.1612444544
 10
-10.976502565
 20
13.1293809929
 10
-10.9826057931
 20
13.0977690413
 10
-10.9846600973
 20
13.0673269964
  0
LINE
  5
2BA
100
AcDbEntity
  8
RACCORDO
100
AcDbLine
 62
250
  6
CONTINUOUS
 10
-9.1938228054
 20
14.6774547411
 11
-9.4699837554
 21
14.5293815603
  0
LINE
  5
2BB
100
AcDbEntity
  8
0
100
AcDbLine
 62
7
  6
CONTINUOUS
 10
-6.9117250377
 20
17.3566348622
 11
-7.3716945019
 21
17.1266501301
  0
LINE
  5
2BC
100
AcDbEntity
  8
RACCORDO
100
AcDbLine
 62
7
  6
CONTINUOUS
 10
-5.5151475134
 20
16.9306238423
 11
-4.4987814163
 21
17.4388068909
  0
LINE
  5
2BD
100
AcDbEntity
  8
DRAFT
100
AcDbLine
 62
7
  6
CONTINUOUS
 10
-6.6694646557
 20
17.5431976968
 11
-6.7519599231
 21
17.5050986485
  0
LINE
  5
2BE
100
AcDbEntity
  8
ASSI
100
AcDbLine
 62
7
  6
CONTINUOUS
 10
-6.6694646557
 20
17.5431976968
 11
-6.7519599231
 21
17.5050986485
  0
LINE
  5
2BF
100
AcDbEntity
  8
RACCORDO
100
AcDbLine
 62
7
  6
CONTINUOUS
 10
0.3322631173
 20
19.1734637632
 11
-3.6309845994
 21
17.3431046301
  0
LINE
  5
2C0
100
AcDbEntity
  8
ASSI
100
AcDbLine
 62
7
  6
CONTINUOUS
 10
0.3322631173
 20
19.1734637632
 11
-3.6309845994
 21
17.3431046301
  0
LINE
  5
2C1
100
AcDbEntity
  8
0
100
AcDbLine
 62
7
  6
CONTINUOUS
 10
-7.802679582
 20
15.1489090018
 11
-9.3135232715
 21
14.4511513183
  0
LINE
  5
2C2
100
AcDbEntity
  8
ASSI
100
AcDbLine
 62
7
  6
CONTINUOUS
 10
-7.802679582
 20
15.1489090018
 11
-9.3135232715
 21
14.4511513183
  0
LINE
  5
2C3
100
AcDbEntity
  8
DRAFT
100
AcDbLine
 62
7
  6
CONTINUOUS
 10
-7.8023888034
 20
17.8929966058
 11
-3.6338036849
 21
19.7790259244
  0
LINE
  5
2C4
100
AcDbEntity
  8
ASSI
100
AcDbLine
 62
7
  6
CONTINUOUS
 10
-7.8023888034
 20
17.8929966058
 11
-3.6338036849
 21
19.7790259244
  0
LWPOLYLINE
  5
2C5
100
AcDbEntity
  8
RACCORDO
100
AcDbPolyline
 62
250
  6
CONTINUOUS
 90
9
 70
0
 10
-9.1938228054
 20
14.6774547411
 10
-9.1814971221
 20
14.6829584852
 10
-9.1692652446
 20
14.6871021472
 10
-9.1572202651
 20
14.6898541913
 10
-9.1454538529
 20
14.6911936729
 10
-9.1340555577
 20
14.6911103977
 10
-9.1231121273
 20
14.6896049994
 10
-9.1127068479
 20
14.6866889351
 10
-9.1044769461
 20
14.6831834411
  0
LINE
  5
2C6
100
AcDbEntity
  8
ASSI
100
AcDbLine
 62
250
  6
CONTINUOUS
 10
0.5193797785
 20
19.1134101625
 11
0.4827575566
 21
19.0982165436
  0
LINE
  5
2C7
100
AcDbEntity
  8
0
100
AcDbLine
 62
7
  6
CONTINUOUS
 10
-10.8060973301
 20
17.1051738024
 11
-11.2675028098
 21
16.9473245593
  0
LINE
  5
2C8
100
AcDbEntity
  8
ASSI
100
AcDbLine
 62
7
  6
CONTINUOUS
 10
-10.8060973301
 20
17.1051738024
 11
-11.2675028098
 21
16.9473245593
  0
LINE
  5
2C9
100
AcDbEntity
  8
DRAFT
100
AcDbLine
 62
7
  6
CONTINUOUS
 10
-5.0449631354
 20
-18.4427739563
 11
-5.1510291525
 21
-18.3897409477
  0
LWPOLYLINE
  5
2CA
100
AcDbEntity
  8
ASSI
100
AcDbPolyline
 62
250
  6
CONTINUOUS
 90
11
 70
0
 10
-16.6465358895
 20
15.5272062688
 10
-16.6449688603
 20
15.5088336737
 10
-16.6403168501
 20
15.4897590287
 10
-16.6329827468
 20
15.4716376733
 10
-16.6229446529
 20
15.4538994492
 10
-16.6103427602
 20
15.4366917614
 10
-16.5952684216
 20
15.4200489942
 10
-16.5769959508
 20
15.4033295955
 10
-16.5550146038
 20
15.3864849176
 10
-16.5294172163
 20
15.369974315
 10
-16.5000929906
 20
15.3540269907
  0
LINE
  5
2CB
100
AcDbEntity
  8
0
100
AcDbLine
 62
7
  6
CONTINUOUS
 10
-16.1851105145
 20
16.2792534455
 11
-16.1864392884
 21
16.2956205318
  0
LINE
  5
2CC
100
AcDbEntity
  8
ASSI
100
AcDbLine
 62
7
  6
CONTINUOUS
 10
-16.1851105145
 20
16.2792534455
 11
-16.1864392884
 21
16.2956205318
  0
LWPOLYLINE
  5
2CD
100
AcDbEntity
  8
ASSI
100
AcDbPolyline
 62
250
  6
CONTINUOUS
 90
7
 70
0
 10
-16.5000929906
 20
15.3540269907
 10
-16.4980386814
 20
15.325639195
 10
-16.4919354362
 20
15.3001304398
 10
-16.4819605685
 20
15.2782418136
 10
-16.4684038713
 20
15.2606092318
 10
-16.4516591981
 20
15.2477449617
 10
-16.4481143535
 20
15.2458522306
  0
LWPOLYLINE
  5
2CE
100
AcDbEntity
  8
ASSI
100
AcDbPolyline
 62
250
  6
CONTINUOUS
 90
6
 70
0
 10
-16.5700508271
 20
15.9089446432
 10
-16.5713759983
 20
15.933081072
 10
-16.569904773
 20
15.9570828219
 10
-16.5656030232
 20
15.9805749185
 10
-16.558839241
 20
16.0031791933
 10
-16.5496237038
 20
16.0245242485
  0
LWPOLYLINE
  5
2CF
100
AcDbEntity
  8
ASSI
100
AcDbPolyline
 62
7
  6
CONTINUOUS
 90
7
 70
0
 10
-16.6465303769
 20
15.5271702343
 10
-16.6462584162
 20
15.5159714683
 10
-16.6368551177
 20
15.4564743399
 10
-16.6149644038
 20
15.400747392
 10
-16.5822527737
 20
15.3506586839
 10
-16.540132196
 20
15.306781915
 10
-16.4902174031
 20
15.2695990171
  0
LINE
  5
2D0
100
AcDbEntity
  8
ASSI
100
AcDbLine
 62
250
  6
CONTINUOUS
 10
-16.6465396
 20
15.5281446852
 11
-16.6465358895
 21
15.5272062688
  0
LINE
  5
2D1
100
AcDbEntity
  8
ASSI
100
AcDbLine
 62
7
  6
CONTINUOUS
 10
-16.6465396
 20
15.5281468303
 11
-16.6465396
 21
15.9134621438
  0
LINE
  5
2D2
100
AcDbEntity
  8
ASSI
100
AcDbLine
 62
250
  6
CONTINUOUS
 10
-16.5000929906
 20
15.3540269907
 11
-16.5000929906
 21
15.8250434431
  0
LWPOLYLINE
  5
2D3
100
AcDbEntity
  8
ASSI
100
AcDbPolyline
 62
250
  6
CONTINUOUS
 90
3
 70
0
 10
-10.9112675888
 20
13.0371953306
 10
-10.9003289578
 20
13.052056729
 10
-10.8871493336
 20
13.0674880701
  0
LINE
  5
2D4
100
AcDbEntity
  8
ASSI
100
AcDbLine
 62
250
  6
CONTINUOUS
 10
-10.8871493336
 20
13.0674880701
 11
-10.8402300593
 21
13.1178829222
  0
LWPOLYLINE
  5
2D5
100
AcDbEntity
  8
ASSI
100
AcDbPolyline
 62
250
  6
CONTINUOUS
 90
8
 70
0
 10
-10.8402300593
 20
13.1178829222
 10
-10.8230889843
 20
13.1352995484
 10
-10.805515734
 20
13.1524665815
 10
-10.7880447823
 20
13.1693201461
 10
-10.7704963076
 20
13.1852416122
 10
-10.753160866
 20
13.1999886876
 10
-10.7367747199
 20
13.213691436
 10
-10.7218507947
 20
13.2263413457
  0
LWPOLYLINE
  5
2D6
100
AcDbEntity
  8
RACCORDO
100
AcDbPolyline
 62
250
  6
CONTINUOUS
 90
10
 70
0
 10
-9.7974331447
 20
11.5156017999
 10
-9.7795262417
 20
11.5323779862
 10
-9.7584204655
 20
11.5499978629
 10
-9.7346671388
 20
11.5680011658
 10
-9.7088867428
 20
11.5859176148
 10
-9.6817527099
 20
11.6032791988
 10
-9.653973832
 20
11.6196324003
 10
-9.6262757453
 20
11.6345500433
 10
-9.5993819759
 20
11.6476424509
 10
-9.5739950396
 20
11.6585676247
  0
LINE
  5
2D7
100
AcDbEntity
  8
0
100
AcDbLine
 62
7
  6
CONTINUOUS
 10
-6.5677422804
 20
14.9859962775
 11
-6.8834407665
 21
14.7552935376
  0
LINE
  5
2D8
100
AcDbEntity
  8
ASSI
100
AcDbLine
 62
7
  6
CONTINUOUS
 10
-6.5677422804
 20
14.9859962775
 11
-6.8834407665
 21
14.7552935376
  0
LWPOLYLINE
  5
2D9
100
AcDbEntity
  8
RACCORDO
100
AcDbPolyline
 62
7
  6
CONTINUOUS
 90
7
 70
0
 10
-10.5592496218
 20
10.9476800203
 10
-10.5917851046
 20
10.9245371358
 10
-10.6302883533
 20
10.8908321879
 10
-10.6663188593
 20
10.8510941877
 10
-10.698358588
 20
10.8060174582
 10
-10.7253081712
 20
10.7564643409
 10
-10.7353208744
 20
10.7312591907
  0
LINE
  5
2DA
100
AcDbEntity
  8
RACCORDO
100
AcDbLine
 62
7
  6
CONTINUOUS
 10
-5.5213271688
 20
14.8246332955
 11
-6.7862815802
 21
13.9335262373
  0
LINE
  5
2DB
100
AcDbEntity
  8
ASSI
100
AcDbLine
 62
7
  6
CONTINUOUS
 10
-5.5213271688
 20
14.8246332955
 11
-6.7862815802
 21
13.9335262373
  0
LINE
  5
2DC
100
AcDbEntity
  8
DRAFT
100
AcDbLine
 62
7
  6
CONTINUOUS
 10
-10.1669174245
 20
11.201437182
 11
-10.5592959114
 21
10.9476500895
  0
LINE
  5
2DD
100
AcDbEntity
  8
RACCORDO
100
AcDbLine
 62
250
  6
CONTINUOUS
 10
-10.5592514397
 20
10.9476788445
 11
-10.5592977287
 21
10.9476489141
  0
LINE
  5
2DE
100
AcDbEntity
  8
ASSI
100
AcDbLine
 62
250
  6
CONTINUOUS
 10
-10.7218498888
 20
13.2263419429
 11
-10.1903067935
 21
13.5466185031
  0
LINE
  5
2DF
100
AcDbEntity
  8
ASSI
100
AcDbLine
 62
250
  6
CONTINUOUS
 10
-10.8041450702
 20
13.2906578623
 11
-10.2677138858
 21
13.6134651476
  0
LINE
  5
2E0
100
AcDbEntity
  8
0
100
AcDbLine
 62
250
  6
CONTINUOUS
 10
-9.5081464574
 20
11.6925179995
 11
-9.5739940929
 21
11.6585686939
  0
LINE
  5
2E1
100
AcDbEntity
  8
0
100
AcDbLine
 62
250
  6
CONTINUOUS
 10
-9.7824955242
 20
11.8564577506
 11
-9.6222312822
 21
11.9390593991
  0
LWPOLYLINE
  5
2E2
100
AcDbEntity
  8
0
100
AcDbPolyline
 62
7
  6
CONTINUOUS
 90
10
 70
0
 10
-6.5863008943
 20
13.8476281498
 10
-6.8906647868
 20
13.6921310735
 10
-7.1960724863
 20
13.5363155037
 10
-7.5025249813
 20
13.3801778135
 10
-7.8100286689
 20
13.2237130089
 10
-8.1185787827
 20
13.0669186045
 10
-8.4281596484
 20
12.9097954307
 10
-8.7387666807
 20
12.7523420884
 10
-9.0504061319
 20
12.5945541484
 10
-9.3630786966
 20
12.4364285889
  0
LWPOLYLINE
  5
2E3
100
AcDbEntity
  8
ASSI
100
AcDbPolyline
 62
7
  6
CONTINUOUS
 90
10
 70
0
 10
-6.5863008943
 20
13.8476281498
 10
-6.8906647868
 20
13.6921310735
 10
-7.1960724863
 20
13.5363155037
 10
-7.5025249813
 20
13.3801778135
 10
-7.8100286689
 20
13.2237130089
 10
-8.1185787827
 20
13.0669186045
 10
-8.4281596484
 20
12.9097954307
 10
-8.7387666807
 20
12.7523420884
 10
-9.0504061319
 20
12.5945541484
 10
-9.3630786966
 20
12.4364285889
  0
LINE
  5
2E4
100
AcDbEntity
  8
ASSI
100
AcDbLine
 62
250
  6
CONTINUOUS
 10
-9.9868296236
 20
13.2804950943
 11
-10.3403789906
 21
13.1037130929
  0
LINE
  5
2E5
100
AcDbEntity
  8
ASSI
100
AcDbLine
 62
250
  6
CONTINUOUS
 10
-9.9239999256
 20
13.105083624
 11
-10.2775533161
 21
12.9283069288
  0
LINE
  5
2E6
100
AcDbEntity
  8
RACCORDO
100
AcDbLine
 62
250
  6
CONTINUOUS
 10
0.4827575566
 20
19.0982165436
 11
-6.5973130532
 21
15.5864493261
  0
LINE
  5
2E7
100
AcDbEntity
  8
ASSI
100
AcDbLine
 62
250
  6
CONTINUOUS
 10
0.4827575566
 20
19.0982165436
 11
-6.5973130532
 21
15.5864493261
  0
LINE
  5
2E8
100
AcDbEntity
  8
RACCORDO
100
AcDbLine
 62
250
  6
CONTINUOUS
 10
0.8362570993
 20
18.4885200202
 11
-5.8091312339
 21
15.1923584165
  0
LINE
  5
2E9
100
AcDbEntity
  8
ASSI
100
AcDbLine
 62
250
  6
CONTINUOUS
 10
0.8362570993
 20
18.4885200202
 11
-5.8091312339
 21
15.1923584165
  0
LINE
  5
2EA
100
AcDbEntity
  8
RACCORDO
100
AcDbLine
 62
250
  6
CONTINUOUS
 10
0.8362570993
 20
18.0515150398
 11
-5.4440096927
 21
14.9364564122
  0
LINE
  5
2EB
100
AcDbEntity
  8
ASSI
100
AcDbLine
 62
250
  6
CONTINUOUS
 10
0.8362570993
 20
18.0515150398
 11
-5.4440096927
 21
14.9364564122
  0
LINE
  5
2EC
100
AcDbEntity
  8
RACCORDO
100
AcDbLine
 62
250
  6
CONTINUOUS
 10
0.9776569164
 20
17.8076364305
 11
-5.1594415267
 21
14.7635903594
  0
LINE
  5
2ED
100
AcDbEntity
  8
ASSI
100
AcDbLine
 62
250
  6
CONTINUOUS
 10
0.9776569164
 20
17.8076364305
 11
-5.1594415267
 21
14.7635903594
  0
LINE
  5
2EE
100
AcDbEntity
  8
0
100
AcDbLine
 62
250
  6
CONTINUOUS
 10
-10.4367531201
 20
13.6979847647
 11
-7.6232221919
 21
15.0591803067
  0
LINE
  5
2EF
100
AcDbEntity
  8
ASSI
100
AcDbLine
 62
250
  6
CONTINUOUS
 10
-10.4367531201
 20
13.6979847647
 11
-7.6232221919
 21
15.0591803067
  0
LINE
  5
2F0
100
AcDbEntity
  8
0
100
AcDbLine
 62
250
  6
CONTINUOUS
 10
-10.0459456732
 20
13.3582662714
 11
-7.2319545818
 21
14.7188575777
  0
LINE
  5
2F1
100
AcDbEntity
  8
ASSI
100
AcDbLine
 62
250
  6
CONTINUOUS
 10
-10.0459456732
 20
13.3582662714
 11
-7.2319545818
 21
14.7188575777
  0
LWPOLYLINE
  5
2F2
100
AcDbEntity
  8
0
100
AcDbPolyline
 62
7
  6
CONTINUOUS
 90
5
 70
0
 10
-8.6206237755
 20
13.7491535636
 10
-8.9352300612
 20
13.5988594933
 10
-9.2506753206
 20
13.4479808757
 10
-9.5669645959
 20
13.2965116376
 10
-9.8841002372
 20
13.1444510062
  0
LWPOLYLINE
  5
2F3
100
AcDbEntity
  8
ASSI
100
AcDbPolyline
 62
7
  6
CONTINUOUS
 90
5
 70
0
 10
-8.6206237755
 20
13.7491535636
 10
-8.9352300612
 20
13.5988594933
 10
-9.2506753206
 20
13.4479808757
 10
-9.5669645959
 20
13.2965116376
 10
-9.8841002372
 20
13.1444510062
  0
LINE
  5
2F4
100
AcDbEntity
  8
0
100
AcDbLine
 62
7
  6
CONTINUOUS
 10
-8.1713201721
 20
13.9634398773
 11
-8.6206237755
 21
13.7491535636
  0
LINE
  5
2F5
100
AcDbEntity
  8
ASSI
100
AcDbLine
 62
7
  6
CONTINUOUS
 10
-8.1713201721
 20
13.9634398773
 11
-8.6206237755
 21
13.7491535636
  0
LWPOLYLINE
  5
2F6
100
AcDbEntity
  8
0
100
AcDbPolyline
 62
7
  6
CONTINUOUS
 90
5
 70
0
 10
-7.0602174533
 20
14.4916390429
 10
-7.3706194462
 20
14.3443472137
 10
-7.681857701
 20
14.1964548555
 10
-7.9939350448
 20
14.0479608397
 10
-8.1713201721
 20
13.9634398773
  0
LWPOLYLINE
  5
2F7
100
AcDbEntity
  8
ASSI
100
AcDbPolyline
 62
7
  6
CONTINUOUS
 90
5
 70
0
 10
-7.0602174533
 20
14.4916390429
 10
-7.3706194462
 20
14.3443472137
 10
-7.681857701
 20
14.1964548555
 10
-7.9939350448
 20
14.0479608397
 10
-8.1713201721
 20
13.9634398773
  0
LINE
  5
2F8
100
AcDbEntity
  8
ASSI
100
AcDbLine
 62
7
  6
CONTINUOUS
 10
-10.335809468
 20
12.4760597038
 11
-9.9783664692
 21
12.6394937117
  0
LINE
  5
2F9
100
AcDbEntity
  8
ASSI
100
AcDbLine
 62
250
  6
CONTINUOUS
 10
-10.2910354546
 20
12.581084799
 11
-9.9239999256
 21
12.7488934206
  0
LWPOLYLINE
  5
2FA
100
AcDbEntity
  8
ASSI
100
AcDbPolyline
 62
250
  6
CONTINUOUS
 90
8
 70
0
 10
-10.2775533161
 20
12.9283069288
 10
-10.3105024008
 20
12.9139754121
 10
-10.34607277
 20
12.9024923689
 10
-10.3839925951
 20
12.8939746889
 10
-10.4239829633
 20
12.8885735108
 10
-10.4657180986
 20
12.8863354708
 10
-10.5088224066
 20
12.8871952249
 10
-10.5528025227
 20
12.8912128355
  0
LWPOLYLINE
  5
2FB
100
AcDbEntity
  8
ASSI
100
AcDbPolyline
 62
250
  6
CONTINUOUS
 90
16
 70
0
 10
-10.3403789906
 20
13.1037130929
 10
-10.3604487705
 20
13.0953066043
 10
-10.3817548124
 20
13.0892921212
 10
-10.4042976304
 20
13.0856689581
 10
-10.4282854588
 20
13.084438781
 10
-10.4535121266
 20
13.0855971683
 10
-10.4793568773
 20
13.0891338489
 10
-10.5057561265
 20
13.0950562114
 10
-10.5327769601
 20
13.1033521577
 10
-10.5599946595
 20
13.1139821299
 10
-10.5874490931
 20
13.1269378543
 10
-10.6151049354
 20
13.1422214244
 10
-10.6424244864
 20
13.1598090684
 10
-10.6692300478
 20
13.1796907375
 10
-10.6957042662
 20
13.2018696387
 10
-10.7218498888
 20
13.2263419429
  0
LINE
  5
2FC
100
AcDbEntity
  8
RACCORDO
100
AcDbLine
 62
250
  6
CONTINUOUS
 10
-8.0911004212
 20
-19.3598964388
 11
-8.0803595752
 21
-19.3833915812
  0
LINE
  5
2FD
100
AcDbEntity
  8
0
100
AcDbLine
 62
7
  6
CONTINUOUS
 10
-12.6110056941
 20
17.5530720578
 11
-12.6110056941
 21
16.6000543931
  0
LINE
  5
2FE
100
AcDbEntity
  8
RACCORDO
100
AcDbLine
 62
7
  6
CONTINUOUS
 10
-12.6110056941
 20
16.6000543931
 11
-12.6110056941
 21
16.4364479024
  0
LINE
  5
2FF
100
AcDbEntity
  8
ASSI
100
AcDbLine
 62
7
  6
CONTINUOUS
 10
-12.6110056941
 20
17.5530720578
 11
-12.6110056941
 21
16.4364479024
  0
LINE
  5
300
100
AcDbEntity
  8
0
100
AcDbLine
 62
7
  6
CONTINUOUS
 10
-11.2675028098
 20
16.9473245593
 11
-11.2675028098
 21
16.0571127081
  0
LINE
  5
301
100
AcDbEntity
  8
ASSI
100
AcDbLine
 62
7
  6
CONTINUOUS
 10
-11.2675028098
 20
16.9473245593
 11
-11.2675028098
 21
16.0571127081
  0
LWPOLYLINE
  5
302
100
AcDbEntity
  8
ASSI
100
AcDbPolyline
 62
250
  6
CONTINUOUS
 90
13
 70
0
 10
-10.9112675888
 20
13.0371953306
 10
-10.9104776318
 20
13.0601889762
 10
-10.9078427326
 20
13.0841735093
 10
-10.903407125
 20
13.1087510732
 10
-10.8972389297
 20
13.1335358184
 10
-10.8894439065
 20
13.1580947568
 10
-10.8801773943
 20
13.1819583028
 10
-10.8696126894
 20
13.204721046
 10
-10.8579264073
 20
13.2260389456
 10
-10.8453204614
 20
13.2455727398
 10
-10.832007748
 20
13.2630209742
 10
-10.8182076646
 20
13.2781230535
 10
-10.8041450706
 20
13.2906583754
  0
LWPOLYLINE
  5
303
100
AcDbEntity
  8
RACCORDO
100
AcDbPolyline
 62
250
  6
CONTINUOUS
 90
10
 70
0
 10
-14.6822733191
 20
-31.1942783289
 10
-14.5201087363
 20
-27.115458223
 10
-14.327283109
 20
-23.0238631874
 10
-14.1038130334
 20
-18.9198424261
 10
-13.8497176798
 20
-14.8037462683
 10
-13.5650187824
 20
-10.6759260124
 10
-13.2497406354
 20
-6.5367338948
 10
-12.9039101018
 20
-2.3865232286
 10
-12.5275566146
 20
1.774351625
 10
-12.1207121643
 20
5.9455354145
  0
LWPOLYLINE
  5
304
100
AcDbEntity
  8
RACCORDO
100
AcDbPolyline
 62
250
  6
CONTINUOUS
 90
9
 70
0
 10
-13.9817362317
 20
-31.2166280953
 10
-13.8197046584
 20
-27.1413129209
 10
-13.6270792516
 20
-23.0539299128
 10
-13.4038600112
 20
-18.954479071
 10
-13.1500223975
 20
-14.8426046677
 10
-12.8655909503
 20
-10.7186624306
 10
-12.5506392888
 20
-6.5837195435
 10
-12.2051919528
 20
-2.4381317343
 10
-11.8292244026
 20
1.718456725
  0
LWPOLYLINE
  5
305
100
AcDbEntity
  8
ASSI
100
AcDbPolyline
 62
250
  6
CONTINUOUS
 90
8
 70
0
 10
-10.2775533161
 20
12.587237862
 10
-10.2794074161
 20
12.5649266634
 10
-10.2836495493
 20
12.5442070956
 10
-10.2902071318
 20
12.5254336763
 10
-10.2989679609
 20
12.5089276239
 10
-10.3097821369
 20
12.4949713614
 10
-10.3224646276
 20
12.4838036836
 10
-10.3352823685
 20
12.4763030486
  0
LINE
  5
306
100
AcDbEntity
  8
RACCORDO
100
AcDbLine
 62
250
  6
CONTINUOUS
 10
-11.8292244026
 20
1.718456725
 11
-11.4227366382
 21
5.8860458343
  0
LWPOLYLINE
  5
307
100
AcDbEntity
  8
RACCORDO
100
AcDbPolyline
 62
250
  6
CONTINUOUS
 90
19
 70
0
 10
-12.1207121643
 20
5.9455354145
 10
-12.1106471141
 20
6.0217663515
 10
-12.0957238529
 20
6.0991159544
 10
-12.0760452885
 20
6.1770449904
 10
-12.0517447186
 20
6.2550121916
 10
-12.0229920152
 20
6.3324712667
 10
-11.9899941128
 20
6.4088749834
 10
-11.9529818197
 20
6.4836855876
 10
-11.9122108775
 20
6.55638617
 10
-11.8679676953
 20
6.6264772406
 10
-11.8205588232
 20
6.6934674973
 10
-11.7703115602
 20
6.7568912899
 10
-11.7175742624
 20
6.8163177549
 10
-11.6627043403
 20
6.8713350481
 10
-11.6060861433
 20
6.9215503669
 10
-11.5481303574
 20
6.9666078674
 10
-11.4892444165
 20
7.006192117
 10
-11.4298288383
 20
7.0400274415
 10
-11.3702941878
 20
7.0678771832
  0
LWPOLYLINE
  5
308
100
AcDbEntity
  8
RACCORDO
100
AcDbPolyline
 62
250
  6
CONTINUOUS
 90
19
 70
0
 10
-11.4227366382
 20
5.8860458343
 10
-11.4176085404
 20
5.9244520258
 10
-11.4101497986
 20
5.9629147697
 10
-11.4003604128
 20
6.0014340658
 10
-11.3881373211
 20
6.0402954486
 10
-11.3735835855
 20
6.0792133838
 10
-11.3570083912
 20
6.1173312682
 10
-11.3383726806
 20
6.1546147184
 10
-11.3177155114
 20
6.1910981178
 10
-11.295463242
 20
6.2260280136
 10
-11.2715832322
 20
6.2593712554
 10
-11.2461081221
 20
6.2911609935
 10
-11.2195621906
 20
6.3207432262
 10
-11.1919099182
 20
6.3480797825
 10
-11.1631868244
 20
6.3732088334
 10
-11.134023746
 20
6.3955908909
 10
-11.1046309621
 20
6.4150461254
 10
-11.0747981936
 20
6.4317543665
 10
-11.0445254406
 20
6.4457156141
  0
LWPOLYLINE
  5
309
100
AcDbEntity
  8
RACCORDO
100
AcDbPolyline
 62
250
  6
CONTINUOUS
 90
10
 70
0
 10
-9.9203946041
 20
11.6354378993
 10
-9.9158944642
 20
11.6646441572
 10
-9.9079658863
 20
11.6943517839
 10
-9.8968089381
 20
11.723811144
 10
-9.8827051514
 20
11.7522788671
 10
-9.8660104179
 20
11.7790366052
 10
-9.8471460087
 20
11.8034091599
 10
-9.826587944
 20
11.82478152
 10
-9.804854981
 20
11.8426143803
 10
-9.7824955242
 20
11.8564577506
  0
LWPOLYLINE
  5
30A
100
AcDbEntity
  8
RACCORDO
100
AcDbPolyline
 62
250
  6
CONTINUOUS
 90
13
 70
0
 10
-2.6918126174
 20
13.3646015699
 10
-2.685272917
 20
13.3681593215
 10
-2.6799702394
 20
13.3718321543
 10
-2.6759045846
 20
13.3756200684
 10
-2.6730672332
 20
13.3795559845
 10
-2.6714669046
 20
13.3836069818
 10
-2.6711297569
 20
13.3876742984
 10
-2.6720975364
 20
13.3917567372
 10
-2.6743284968
 20
13.3958554953
 10
-2.6777235569
 20
13.3998754015
 10
-2.6822496895
 20
13.4037847322
 10
-2.6879399219
 20
13.4076152111
 10
-2.6947942539
 20
13.4113668381
  0
LWPOLYLINE
  5
30B
100
AcDbEntity
  8
ASSI
100
AcDbPolyline
 62
250
  6
CONTINUOUS
 90
13
 70
0
 10
-2.6918126174
 20
13.3646015699
 10
-2.685272917
 20
13.3681593215
 10
-2.6799702394
 20
13.3718321543
 10
-2.6759045846
 20
13.3756200684
 10
-2.6730672332
 20
13.3795559845
 10
-2.6714669046
 20
13.3836069818
 10
-2.6711297569
 20
13.3876742984
 10
-2.6720975364
 20
13.3917567372
 10
-2.6743284968
 20
13.3958554953
 10
-2.6777235569
 20
13.3998754015
 10
-2.6822496895
 20
13.4037847322
 10
-2.6879399219
 20
13.4076152111
 10
-2.6947942539
 20
13.4113668381
  0
LWPOLYLINE
  5
30C
100
AcDbEntity
  8
SMUSSO
100
AcDbPolyline
 62
7
  6
CONTINUOUS
 90
15
 70
0
 10
-0.7646409218
 20
14.4009822898
 10
-0.8699009677
 20
14.345599865
 10
-0.9681347772
 20
14.2873492488
 10
-1.0590514058
 20
14.2264477203
 10
-1.1423355614
 20
14.1631686058
 10
-1.2178125962
 20
14.0976957814
 10
-1.2853984949
 20
14.030108762
 10
-1.3449014357
 20
13.9605916725
 10
-1.396074781
 20
13.8894234679
 10
-1.4387460864
 20
13.816822528
 10
-1.4727676762
 20
13.7430379002
 10
-1.4980239458
 20
13.6683169646
 10
-1.5144280214
 20
13.592881016
 10
-1.5219169763
 20
13.5169536794
 10
-1.5224234609
 20
13.4913674536
  0
LWPOLYLINE
  5
30D
100
AcDbEntity
  8
ASSI
100
AcDbPolyline
 62
7
  6
CONTINUOUS
 90
15
 70
0
 10
-0.7646409218
 20
14.4009822898
 10
-0.8699009677
 20
14.345599865
 10
-0.9681347772
 20
14.2873492488
 10
-1.0590514058
 20
14.2264477203
 10
-1.1423355614
 20
14.1631686058
 10
-1.2178125962
 20
14.0976957814
 10
-1.2853984949
 20
14.030108762
 10
-1.3449014357
 20
13.9605916725
 10
-1.396074781
 20
13.8894234679
 10
-1.4387460864
 20
13.816822528
 10
-1.4727676762
 20
13.7430379002
 10
-1.4980239458
 20
13.6683169646
 10
-1.5144280214
 20
13.592881016
 10
-1.5219169763
 20
13.5169536794
 10
-1.5224234609
 20
13.4913674536
  0
LWPOLYLINE
  5
30E
100
AcDbEntity
  8
SMUSSO
100
AcDbPolyline
 62
7
  6
CONTINUOUS
 90
25
 70
0
 10
-1.1182463052
 20
15.010997433
 10
-1.2439125214
 20
14.945083861
 10
-1.3606379935
 20
14.8762727124
 10
-1.4684227215
 20
14.8045639871
 10
-1.5674894875
 20
14.7297452016
 10
-1.6576155094
 20
14.6520288395
 10
-1.738132441
 20
14.5720523511
 10
-1.809028862
 20
14.4897517492
 10
-1.8703161926
 20
14.405191021
 10
-1.9213603479
 20
14.3191995778
 10
-1.9620618629
 20
14.2317659414
 10
-1.9925202026
 20
14.1429015899
 10
-2.0123996767
 20
14.0534703693
 10
-2.021581875
 20
13.9634291345
 10
-2.0201852079
 20
13.8728210306
 10
-2.0082292156
 20
13.7826393382
 10
-1.9855987617
 20
13.6929279351
 10
-1.9524089827
 20
13.6036429435
 10
-1.9090248292
 20
13.5156460111
 10
-1.8553634062
 20
13.4289563521
 10
-1.7915076088
 20
13.3435547523
 10
-1.7180710725
 20
13.2602452164
 10
-1.634975835
 20
13.1790442551
 10
-1.5422998587
 20
13.0999353577
 10
-1.4623194223
 20
13.0390159559
  0
LWPOLYLINE
  5
30F
100
AcDbEntity
  8
ASSI
100
AcDbPolyline
 62
7
  6
CONTINUOUS
 90
22
 70
0
 10
-1.1182463052
 20
15.010997433
 10
-1.2439125214
 20
14.945083861
 10
-1.3606379935
 20
14.8762727124
 10
-1.4684227215
 20
14.8045639871
 10
-1.5674894875
 20
14.7297452016
 10
-1.6576155094
 20
14.6520288395
 10
-1.738132441
 20
14.5720523511
 10
-1.809028862
 20
14.4897517492
 10
-1.8703161926
 20
14.405191021
 10
-1.9213603479
 20
14.3191995778
 10
-1.9620618629
 20
14.2317659414
 10
-1.9925202026
 20
14.1429015899
 10
-2.0123996767
 20
14.0534703693
 10
-2.021581875
 20
13.9634291345
 10
-2.0201852079
 20
13.8728210306
 10
-2.0082292156
 20
13.7826393382
 10
-1.9855987617
 20
13.6929279351
 10
-1.9524089827
 20
13.6036429435
 10
-1.9090248292
 20
13.5156460111
 10
-1.8553634062
 20
13.4289563521
 10
-1.7915076088
 20
13.3435547523
 10
-1.7180710725
 20
13.2602452164
  0
LINE
  5
310
100
AcDbEntity
  8
0
100
AcDbLine
 62
250
  6
CONTINUOUS
 10
-5.5045286952
 20
10.2792446081
 11
-5.9020325675
 21
10.0789600418
  0
LINE
  5
311
100
AcDbEntity
  8
0
100
AcDbLine
 62
7
  6
CONTINUOUS
 10
-0.1942106164
 20
12.8865520327
 11
0.3007641304
 21
13.1340394061
  0
LINE
  5
312
100
AcDbEntity
  8
RACCORDO
100
AcDbLine
 62
7
  6
CONTINUOUS
 10
2.7417558554
 20
16.925586961
 11
-1.1182463052
 21
15.010997433
  0
LINE
  5
313
100
AcDbEntity
  8
ASSI
100
AcDbLine
 62
7
  6
CONTINUOUS
 10
2.7417558554
 20
16.925586961
 11
-1.1182463052
 21
15.010997433
  0
LINE
  5
314
100
AcDbEntity
  8
SMUSSO
100
AcDbLine
 62
7
  6
CONTINUOUS
 10
3.4366825254
 20
16.4848696922
 11
-0.7646409218
 21
14.4009822898
  0
LINE
  5
315
100
AcDbEntity
  8
ASSI
100
AcDbLine
 62
7
  6
CONTINUOUS
 10
3.4366825254
 20
16.4848696922
 11
-0.7646409218
 21
14.4009822898
  0
LINE
  5
316
100
AcDbEntity
  8
RACCORDO
100
AcDbLine
 62
250
  6
CONTINUOUS
 10
-5.2972834478
 20
12.1008012959
 11
-2.6918126174
 21
13.3646015699
  0
LINE
  5
317
100
AcDbEntity
  8
ASSI
100
AcDbLine
 62
250
  6
CONTINUOUS
 10
-5.2972834478
 20
12.1008012959
 11
-2.6918126174
 21
13.3646015699
  0
LINE
  5
318
100
AcDbEntity
  8
RACCORDO
100
AcDbLine
 62
250
  6
CONTINUOUS
 10
-5.0653276114
 20
11.8785840792
 11
-2.4596212683
 21
13.1420150745
  0
LINE
  5
319
100
AcDbEntity
  8
ASSI
100
AcDbLine
 62
250
  6
CONTINUOUS
 10
-5.0653276114
 20
11.8785840792
 11
-2.4596212683
 21
13.1420150745
  0
LWPOLYLINE
  5
31A
100
AcDbEntity
  8
0
100
AcDbPolyline
 62
7
  6
CONTINUOUS
 90
5
 70
0
 10
-0.8286085179
 20
12.6977506411
 10
-0.8281055956
 20
12.6979907557
 10
-0.7080901386
 20
12.7503147817
 10
-0.5836974337
 20
12.7997526743
 10
-0.5040913965
 20
12.8285254298
  0
LINE
  5
31B
100
AcDbEntity
  8
DRAFT
100
AcDbLine
 62
7
  6
CONTINUOUS
 10
0.3987172367
 20
13.3139913099
 11
-0.8845340272
 21
12.7213433508
  0
LINE
  5
31C
100
AcDbEntity
  8
ASSI
100
AcDbLine
 62
7
  6
CONTINUOUS
 10
0.3987172367
 20
13.3139913099
 11
-0.8845340272
 21
12.7213433508
  0
LINE
  5
31D
100
AcDbEntity
  8
DRAFT
100
AcDbLine
 62
7
  6
CONTINUOUS
 10
-0.7646409218
 20
13.65012109
 11
3.4366825254
 21
15.5509624962
  0
LINE
  5
31E
100
AcDbEntity
  8
ASSI
100
AcDbLine
 62
7
  6
CONTINUOUS
 10
-0.7646409218
 20
13.65012109
 11
3.4366825254
 21
15.5509624962
  0
LWPOLYLINE
  5
31F
100
AcDbEntity
  8
RACCORDO
100
AcDbPolyline
 62
250
  6
CONTINUOUS
 90
6
 70
0
 10
-2.6947942539
 20
13.4113668381
 10
-2.6646901625
 20
13.4241997106
 10
-2.6348500149
 20
13.4337665001
 10
-2.6054909373
 20
13.4399975958
 10
-2.576826555
 20
13.4428476578
 10
-2.5490654395
 20
13.4422959491
  0
LWPOLYLINE
  5
320
100
AcDbEntity
  8
ASSI
100
AcDbPolyline
 62
250
  6
CONTINUOUS
 90
9
 70
0
 10
-2.6947942539
 20
13.4113668381
 10
-2.6646901625
 20
13.4241997106
 10
-2.6348500149
 20
13.4337665001
 10
-2.6054909373
 20
13.4399975958
 10
-2.576826555
 20
13.4428476578
 10
-2.5490654395
 20
13.4422959491
 10
-2.5224095916
 20
13.4383464863
 10
-2.4970529686
 20
13.4310280066
 10
-2.4773578047
 20
13.4225484984
  0
LINE
  5
321
100
AcDbEntity
  8
DRAFT
100
AcDbLine
 62
7
  6
CONTINUOUS
 10
3.6242474453
 20
15.4571800362
 11
3.9129118215
 21
15.5783412618
  0
LINE
  5
322
100
AcDbEntity
  8
ASSI
100
AcDbLine
 62
7
  6
CONTINUOUS
 10
3.6242474453
 20
15.4571800362
 11
3.9129118215
 21
15.5783412618
  0
LINE
  5
323
100
AcDbEntity
  8
ASSI
100
AcDbLine
 62
250
  6
CONTINUOUS
 10
3.9129119148
 20
15.578341301
 11
3.9146163575
 21
15.5790548592
  0
LWPOLYLINE
  5
324
100
AcDbEntity
  8
RACCORDO
100
AcDbPolyline
 62
250
  6
CONTINUOUS
 90
5
 70
0
 10
-5.2972834478
 20
12.1008012959
 10
-5.3133184785
 20
12.0942462944
 10
-5.3291143119
 20
12.0900307372
 10
-5.3444667487
 20
12.0882091207
 10
-5.3546240392
 20
12.0886205568
  0
LWPOLYLINE
  5
325
100
AcDbEntity
  8
ASSI
100
AcDbPolyline
 62
250
  6
CONTINUOUS
 90
5
 70
0
 10
-5.2972834478
 20
12.1008012959
 10
-5.3133184785
 20
12.0942462944
 10
-5.3291143119
 20
12.0900307372
 10
-5.3444667487
 20
12.0882091207
 10
-5.3546240392
 20
12.0886205568
  0
LINE
  5
326
100
AcDbEntity
  8
RACCORDO
100
AcDbLine
 62
250
  6
CONTINUOUS
 10
3.9129119148
 20
15.578341301
 11
3.9342105582
 21
15.5869951605
  0
LINE
  5
327
100
AcDbEntity
  8
ASSI
100
AcDbLine
 62
250
  6
CONTINUOUS
 10
3.9146163575
 20
15.5790548592
 11
3.9342105582
 21
15.5869951605
  0
LWPOLYLINE
  5
328
100
AcDbEntity
  8
RACCORDO
100
AcDbPolyline
 62
7
  6
CONTINUOUS
 90
19
 70
0
 10
3.9120930302
 20
15.5779971631
 10
3.9897823157
 20
15.6075305397
 10
4.1160428606
 20
15.6430606298
 10
4.247586358
 20
15.6652802636
 10
4.3844221226
 20
15.6738747635
 10
4.5264207603
 20
15.6683317252
 10
4.6723277412
 20
15.6482068791
 10
4.8206113638
 20
15.6134236944
 10
4.9707729334
 20
15.5638920341
 10
5.1219566457
 20
15.4996623334
 10
5.2721204288
 20
15.4215590417
 10
5.4204036319
 20
15.3301734852
 10
5.5663340752
 20
15.2259032904
 10
5.7084503253
 20
15.1099535566
 10
5.8458740808
 20
14.983328346
 10
5.9782439826
 20
14.8466184192
 10
6.104870183
 20
14.7007400805
 10
6.2251286432
 20
14.546613678
 10
6.3384948592
 20
14.3850910239
  0
LINE
  5
329
100
AcDbEntity
  8
RACCORDO
100
AcDbLine
 62
250
  6
CONTINUOUS
 10
3.9342105582
 20
15.5869951605
 11
4.0049566237
 21
15.6118006348
  0
LWPOLYLINE
  5
32A
100
AcDbEntity
  8
ASSI
100
AcDbPolyline
 62
250
  6
CONTINUOUS
 90
29
 70
0
 10
3.9342105582
 20
15.5869951605
 10
4.005203607
 20
15.6118872338
 10
4.0809917847
 20
15.6322241908
 10
4.1616866875
 20
15.6474045033
 10
4.247261079
 20
15.6567885875
 10
4.3376798254
 20
15.659742948
 10
4.4333000394
 20
15.6556001563
 10
4.5336112859
 20
15.6436964851
 10
4.6371373101
 20
15.6237070499
 10
4.7440912114
 20
15.5951803082
 10
4.8537028976
 20
15.5579095107
 10
4.9628385783
 20
15.5129022072
 10
5.0707895633
 20
15.4607267901
 10
5.1775212327
 20
15.4016723431
 10
5.280892913
 20
15.3373462506
 10
5.3800804397
 20
15.2689185014
 10
5.4754379374
 20
15.1967864948
 10
5.5666868393
 20
15.1217451808
 10
5.6536220405
 20
15.0445568296
 10
5.7362688119
 20
14.9657813899
 10
5.8147525113
 20
14.885846814
 10
5.8890752383
 20
14.8052732475
 10
5.9592474055
 20
14.7245641938
 10
6.0254338454
 20
14.6440267772
 10
6.0876890015
 20
14.5640737262
 10
6.1460976601
 20
14.4850693903
 10
6.2008800343
 20
14.4071697019
 10
6.2521746022
 20
14.3306089223
 10
6.3000473357
 20
14.2557153056
  0
LWPOLYLINE
  5
32B
100
AcDbEntity
  8
ASSI
100
AcDbPolyline
 62
7
  6
CONTINUOUS
 90
14
 70
0
 10
3.9146162638
 20
15.5790548199
 10
4.0730556889
 20
15.6326049286
 10
4.247091274
 20
15.6652230653
 10
4.4317587868
 20
15.6736140303
 10
4.6239038524
 20
15.6564628051
 10
4.8206113638
 20
15.6134236944
 10
5.0208879581
 20
15.5441948792
 10
5.2225237033
 20
15.4489441586
 10
5.4209205299
 20
15.3298296209
 10
5.6138148988
 20
15.1887905909
 10
5.8003918109
 20
15.0268898601
 10
5.9782411241
 20
14.8466215389
 10
6.1456035487
 20
14.6503480531
 10
6.3014279786
 20
14.4398099795
  0
LWPOLYLINE
  5
32C
100
AcDbEntity
  8
RACCORDO
100
AcDbPolyline
 62
7
  6
CONTINUOUS
 90
14
 70
0
 10
0.3630609924
 20
13.256192787
 10
0.2514171371
 20
13.2219479736
 10
0.1430631733
 20
13.1844385381
 10
0.0383534519
 20
13.1437248882
 10
-0.0623926586
 20
13.0998637503
 10
-0.1589727069
 20
13.0528591366
 10
-0.2509832266
 20
13.0028113825
 10
-0.3378991759
 20
12.9499281399
 10
-0.4196287444
 20
12.8941813647
 10
-0.4957836431
 20
12.8357343089
 10
-0.5656212529
 20
12.7751341842
 10
-0.6290767026
 20
12.7124843962
 10
-0.6860552625
 20
12.6479152298
 10
-0.688814898
 20
12.6442851347
  0
LINE
  5
32D
100
AcDbEntity
  8
RACCORDO
100
AcDbLine
 62
250
  6
CONTINUOUS
 10
0.3397723117
 20
13.2134523472
 11
0.4366382806
 21
13.2423840524
  0
LINE
  5
32E
100
AcDbEntity
  8
RACCORDO
100
AcDbLine
 62
250
  6
CONTINUOUS
 10
-7.9412190175
 20
-10.612635398
 11
-7.9682916518
 21
-10.5990990809
  0
LINE
  5
32F
100
AcDbEntity
  8
RACCORDO
100
AcDbLine
 62
250
  6
CONTINUOUS
 10
-7.9412190175
 20
-10.4015515033
 11
-7.9542183582
 21
-10.395051833
  0
LWPOLYLINE
  5
330
100
AcDbEntity
  8
RACCORDO
100
AcDbPolyline
 62
250
  6
CONTINUOUS
 90
10
 70
0
 10
-17.665632325
 20
15.4501569346
 10
-17.6754141106
 20
15.480822862
 10
-17.6812747402
 20
15.5119695423
 10
-17.6830611629
 20
15.5427835776
 10
-17.6807267262
 20
15.5724602568
 10
-17.674332394
 20
15.6002245712
 10
-17.6640451548
 20
15.6253514533
 10
-17.6501336608
 20
15.6471847128
 10
-17.6329612117
 20
15.6651541723
 10
-17.6129762674
 20
15.6787905579
  0
LWPOLYLINE
  5
331
100
AcDbEntity
  8
RACCORDO
100
AcDbPolyline
 62
250
  6
CONTINUOUS
 90
3
 70
0
 10
-8.0803595752
 20
-19.3833915812
 10
-8.0725710841
 20
-19.4097509079
 10
-8.0678510562
 20
-19.4385814618
  0
LWPOLYLINE
  5
332
100
AcDbEntity
  8
ASSI
100
AcDbPolyline
 62
250
  6
CONTINUOUS
 90
3
 70
0
 10
-16.5606865644
 20
15.8619078981
 10
-16.5663630866
 20
15.8850784056
 10
-16.5700508271
 20
15.9089446432
  0
LWPOLYLINE
  5
333
100
AcDbEntity
  8
RACCORDO
100
AcDbPolyline
 62
250
  6
CONTINUOUS
 90
12
 70
0
 10
-8.1120580296
 20
-19.1844105267
 10
-8.1084724356
 20
-19.204671469
 10
-8.1066692304
 20
-19.2239967912
 10
-8.1066287189
 20
-19.2422259346
 10
-8.1082973806
 20
-19.2592055153
 10
-8.111655558
 20
-19.274796996
 10
-8.1167101477
 20
-19.2888858172
 10
-8.1233875789
 20
-19.3013544844
 10
-8.1316060419
 20
-19.3121268442
 10
-8.1413471654
 20
-19.3211675323
 10
-8.1525267234
 20
-19.3284054973
 10
-8.1548099365
 20
-19.3295739358
  0
LWPOLYLINE
  5
334
100
AcDbEntity
  8
RACCORDO
100
AcDbPolyline
 62
250
  6
CONTINUOUS
 90
16
 70
0
 10
-8.504215614
 20
-23.5591361707
 10
-8.497926418
 20
-23.6072017717
 10
-8.4942752598
 20
-23.654930018
 10
-8.4934137172
 20
-23.7020144472
 10
-8.495454878
 20
-23.748344048
 10
-8.5005864841
 20
-23.7933254526
 10
-8.5089244611
 20
-23.8360164084
 10
-8.520496985
 20
-23.8762614734
 10
-8.5352157743
 20
-23.9137096747
 10
-8.5527005652
 20
-23.9474632672
 10
-8.5727145915
 20
-23.9774719651
 10
-8.5950292551
 20
-24.0038342645
 10
-8.6190170058
 20
-24.0262743799
 10
-8.6442935218
 20
-24.044952381
 10
-8.6706642819
 20
-24.0602068901
 10
-8.6870894776
 20
-24.0679011919
  0
LINE
  5
335
100
AcDbEntity
  8
RACCORDO
100
AcDbLine
 62
250
  6
CONTINUOUS
 10
-8.7234615664
 20
-21.5482305981
 11
-8.504215614
 21
-23.5591361707
  0
LINE
  5
336
100
AcDbEntity
  8
RACCORDO
100
AcDbLine
 62
250
  6
CONTINUOUS
 10
-8.5274556685
 20
-19.5110211018
 11
-8.0890652717
 21
-23.5319012246
  0
LINE
  5
337
100
AcDbEntity
  8
RACCORDO
100
AcDbLine
 62
250
  6
CONTINUOUS
 10
-8.386694013
 20
-16.6654722134
 11
-8.1120580296
 21
-19.1844105267
  0
LINE
  5
338
100
AcDbEntity
  8
RACCORDO
100
AcDbLine
 62
250
  6
CONTINUOUS
 10
-8.2246818763
 20
-14.3164747776
 11
-7.6969076873
 21
-19.1571755806
  0
LINE
  5
339
100
AcDbEntity
  8
RACCORDO
100
AcDbLine
 62
250
  6
CONTINUOUS
 10
-7.9412190175
 20
-10.612635398
 11
-7.0207339447
 21
-19.1922735595
  0
LINE
  5
33A
100
AcDbEntity
  8
RACCORDO
100
AcDbLine
 62
250
  6
CONTINUOUS
 10
-6.4375470108
 20
-23.6924453053
 11
-6.9146679275
 21
-19.2453065681
  0
LINE
  5
33B
100
AcDbEntity
  8
RACCORDO
100
AcDbLine
 62
250
  6
CONTINUOUS
 10
-7.6619201205
 20
-10.5932773771
 11
-6.739586594
 21
-19.1901445676
  0
LINE
  5
33C
100
AcDbEntity
  8
RACCORDO
100
AcDbLine
 62
250
  6
CONTINUOUS
 10
-6.1582481138
 20
-23.6730872844
 11
-6.6335205768
 21
-19.2431775762
  0
LWPOLYLINE
  5
33D
100
AcDbEntity
  8
RACCORDO
100
AcDbPolyline
 62
250
  6
CONTINUOUS
 90
27
 70
0
 10
-8.0890652717
 20
-23.5319012246
 10
-8.0832960963
 20
-23.5960657217
 10
-8.0813060573
 20
-23.658989678
 10
-8.0830951547
 20
-23.7206730935
 10
-8.0885955466
 20
-23.7818005241
 10
-8.0978750749
 20
-23.841687414
 10
-8.1111372654
 20
-23.8982800954
 10
-8.1287481907
 20
-23.9513901808
 10
-8.1503417782
 20
-24.0012060578
 10
-8.1750233366
 20
-24.0462392212
 10
-8.2029892574
 20
-24.0860089049
 10
-8.234043149
 20
-24.1209958751
 10
-8.2667011448
 20
-24.151153925
 10
-8.3008574811
 20
-24.1761583403
 10
-8.3366179216
 20
-24.1963338353
 10
-8.3728158906
 20
-24.2126083462
 10
-8.4092590468
 20
-24.2249462604
 10
-8.4461397316
 20
-24.2333831904
 10
-8.4828683937
 20
-24.2389539102
 10
-8.5193530183
 20
-24.241737176
 10
-8.5556856203
 20
-24.2416542316
 10
-8.5915526933
 20
-24.2395035824
 10
-8.6268803878
 20
-24.2353629453
 10
-8.6617425533
 20
-24.2291546034
 10
-8.696047232
 20
-24.2214439124
 10
-8.7297445629
 20
-24.2123034606
 10
-8.762884407
 20
-24.2016606596
  0
LWPOLYLINE
  5
33E
100
AcDbEntity
  8
ASSI
100
AcDbPolyline
 62
250
  6
CONTINUOUS
 90
7
 70
0
 10
-10.9846600973
 20
12.5963105441
 10
-10.9826055223
 20
12.5679208962
 10
-10.9765015878
 20
12.5424111099
 10
-10.9665258325
 20
12.5205222297
 10
-10.9529682426
 20
12.5028900114
 10
-10.9362228903
 20
12.49002657
 10
-10.9332044856
 20
12.488399855
  0
LWPOLYLINE
  5
33F
100
AcDbEntity
  8
RACCORDO
100
AcDbPolyline
 62
250
  6
CONTINUOUS
 90
19
 70
0
 10
-7.6969076873
 20
-19.1571755806
 10
-7.6938874808
 20
-19.2002616566
 10
-7.6941097539
 20
-19.2407384446
 10
-7.6975745064
 20
-19.2786059444
 10
-7.7043817024
 20
-19.314107025
 10
-7.7144313779
 20
-19.3469988174
 10
-7.727423641
 20
-19.3765527154
 10
-7.7433977772
 20
-19.4026636209
 10
-7.7623145009
 20
-19.425436632
 10
-7.7837560636
 20
-19.4444584356
 10
-7.8077598029
 20
-19.4596759576
 10
-7.8342883811
 20
-19.4711422722
 10
-7.8628120366
 20
-19.4786032882
 10
-7.8934112195
 20
-19.4819805483
 10
-7.9260054797
 20
-19.4813525099
 10
-7.9598237047
 20
-19.4767004539
 10
-7.994608857
 20
-19.4680181407
 10
-8.0306179742
 20
-19.45531181
 10
-8.0678510562
 20
-19.4385814618
  0
LWPOLYLINE
  5
340
100
AcDbEntity
  8
ASSI
100
AcDbPolyline
 62
250
  6
CONTINUOUS
 90
10
 70
0
 10
-10.2775533161
 20
12.9283069288
 10
-10.2783947011
 20
12.9475808656
 10
-10.280906498
 20
12.9674656146
 10
-10.2850587127
 20
12.9877248153
 10
-10.2908018462
 20
13.0081176596
 10
-10.2980675228
 20
13.0284018624
 10
-10.3067693329
 20
13.0483365366
 10
-10.3168038016
 20
13.0676849057
 10
-10.3280515942
 20
13.0862171204
 10
-10.3403789906
 20
13.1037130929
  0
LWPOLYLINE
  5
341
100
AcDbEntity
  8
RACCORDO
100
AcDbPolyline
 62
250
  6
CONTINUOUS
 90
16
 70
0
 10
-9.9274280733
 20
10.3273127902
 10
-9.9281235887
 20
10.3439300946
 10
-9.9342855812
 20
10.3946601739
 10
-9.9444818294
 20
10.4463547373
 10
-9.9585993394
 20
10.498444993
 10
-9.9764831322
 20
10.550361624
 10
-9.9979380418
 20
10.6015383277
 10
-10.022731148
 20
10.6514178006
 10
-10.0505890053
 20
10.699449092
 10
-10.081200237
 20
10.7450976963
 10
-10.1142259244
 20
10.7878624455
 10
-10.1493048846
 20
10.8272788383
 10
-10.186051698
 20
10.862916289
 10
-10.2240631192
 20
10.8943866077
 10
-10.2629226144
 20
10.9213480206
 10
-10.3022046828
 20
10.943508139
  0
LINE
  5
342
100
AcDbEntity
  8
ASSI
100
AcDbLine
 62
250
  6
CONTINUOUS
 10
-10.9846600973
 20
13.0673269964
 11
-10.9846600973
 21
12.5963105441
  0
LINE
  5
343
100
AcDbEntity
  8
ASSI
100
AcDbLine
 62
250
  6
CONTINUOUS
 10
-10.2775533161
 20
12.9283069288
 11
-10.2775533161
 21
12.587237862
  0
LINE
  5
344
100
AcDbEntity
  8
ASSI
100
AcDbLine
 62
7
  6
CONTINUOUS
 10
-9.9239999256
 20
12.7488934206
 11
-9.9239999256
 21
13.105083624
  0
LWPOLYLINE
  5
345
100
AcDbEntity
  8
0
100
AcDbPolyline
 62
7
  6
CONTINUOUS
 90
22
 70
0
 10
-9.8841002372
 20
13.1444510062
 10
-9.8880566088
 20
13.0996750258
 10
-9.888077166
 20
13.0537061301
 10
-9.8841619088
 20
13.0065443189
 10
-9.8761779388
 20
12.9576309368
 10
-9.8642581543
 20
12.9075246392
 10
-9.8488012511
 20
12.8579013931
 10
-9.8296875849
 20
12.8087775379
 10
-9.8070368
 20
12.7601367343
 10
-9.7816065251
 20
12.7136059309
 10
-9.7533027428
 20
12.6692564992
 10
-9.7222194705
 20
12.6270170678
 10
-9.6893963885
 20
12.5883004709
 10
-9.6547746472
 20
12.5532258695
 10
-9.6184130962
 20
12.5216741025
 10
-9.581527965
 20
12.4947005206
 10
-9.5441015434
 20
12.4724599827
 10
-9.5061515416
 20
12.4547976299
 10
-9.46894732
 20
12.4423042367
 10
-9.4329119987
 20
12.4351767279
 10
-9.3976224576
 20
12.4332181786
 10
-9.3630786966
 20
12.4364285889
  0
LWPOLYLINE
  5
346
100
AcDbEntity
  8
ASSI
100
AcDbPolyline
 62
7
  6
CONTINUOUS
 90
22
 70
0
 10
-9.8841002372
 20
13.1444510062
 10
-9.8880566088
 20
13.0996750258
 10
-9.888077166
 20
13.0537061301
 10
-9.8841619088
 20
13.0065443189
 10
-9.8761779388
 20
12.9576309368
 10
-9.8642581543
 20
12.9075246392
 10
-9.8488012511
 20
12.8579013931
 10
-9.8296875849
 20
12.8087775379
 10
-9.8070368
 20
12.7601367343
 10
-9.7816065251
 20
12.7136059309
 10
-9.7533027428
 20
12.6692564992
 10
-9.7222194705
 20
12.6270170678
 10
-9.6893963885
 20
12.5883004709
 10
-9.6547746472
 20
12.5532258695
 10
-9.6184130962
 20
12.5216741025
 10
-9.581527965
 20
12.4947005206
 10
-9.5441015434
 20
12.4724599827
 10
-9.5061515416
 20
12.4547976299
 10
-9.46894732
 20
12.4423042367
 10
-9.4329119987
 20
12.4351767279
 10
-9.3976224576
 20
12.4332181786
 10
-9.3630786966
 20
12.4364285889
  0
LINE
  5
347
100
AcDbEntity
  8
0
100
AcDbLine
 62
250
  6
CONTINUOUS
 10
-5.1510291525
 20
9.6695480848
 11
-5.5485330248
 21
9.4692635185
  0
LINE
  5
348
100
AcDbEntity
  8
RACCORDO
100
AcDbLine
 62
7
  6
CONTINUOUS
 10
2.7142667041
 20
13.2164909108
 11
1.591953626
 21
12.6553343718
  0
LINE
  5
349
100
AcDbEntity
  8
RACCORDO
100
AcDbLine
 62
7
  6
CONTINUOUS
 10
3.4213975615
 20
12.8629495584
 11
2.7020064457
 21
12.5032540005
  0
LWPOLYLINE
  5
34A
100
AcDbEntity
  8
RACCORDO
100
AcDbPolyline
 62
250
  6
CONTINUOUS
 90
8
 70
0
 10
8.5377262428
 20
13.8425445406
 10
8.5804343094
 20
13.8638110088
 10
8.6177979752
 20
13.8822689113
 10
8.6491920932
 20
13.8976094227
 10
8.674091425
 20
13.9095758897
 10
8.6920794067
 20
13.9179681176
 10
8.7028551326
 20
13.9226457266
 10
8.7062381221
 20
13.9236087555
  0
LWPOLYLINE
  5
34B
100
AcDbEntity
  8
ASSI
100
AcDbPolyline
 62
250
  6
CONTINUOUS
 90
8
 70
0
 10
8.5377262428
 20
13.8425445406
 10
8.5804343094
 20
13.8638110088
 10
8.6177979752
 20
13.8822689113
 10
8.6491920932
 20
13.8976094227
 10
8.674091425
 20
13.9095758897
 10
8.6920794067
 20
13.9179681176
 10
8.7028551326
 20
13.9226457266
 10
8.7062383525
 20
13.9236083089
  0
LINE
  5
34C
100
AcDbEntity
  8
RACCORDO
100
AcDbLine
 62
250
  6
CONTINUOUS
 10
6.257978727
 20
14.1403143954
 11
6.344616051
 21
14.1827309581
  0
LINE
  5
34D
100
AcDbEntity
  8
ASSI
100
AcDbLine
 62
250
  6
CONTINUOUS
 10
6.257978727
 20
14.1403143954
 11
6.344616051
 21
14.1827309581
  0
LINE
  5
34E
100
AcDbEntity
  8
RACCORDO
100
AcDbLine
 62
250
  6
CONTINUOUS
 10
1.1847181767
 20
10.7697110109
 11
8.2131325035
 21
14.189898637
  0
LINE
  5
34F
100
AcDbEntity
  8
ASSI
100
AcDbLine
 62
250
  6
CONTINUOUS
 10
1.1847181767
 20
10.7697110109
 11
8.2131325035
 21
14.189898637
  0
LINE
  5
350
100
AcDbEntity
  8
RACCORDO
100
AcDbLine
 62
250
  6
CONTINUOUS
 10
1.5084923561
 20
10.4239560817
 11
8.5377262428
 21
13.8425445406
  0
LINE
  5
351
100
AcDbEntity
  8
ASSI
100
AcDbLine
 62
250
  6
CONTINUOUS
 10
1.5084923561
 20
10.4239560817
 11
8.5377262428
 21
13.8425445406
  0
LINE
  5
352
100
AcDbEntity
  8
RACCORDO
100
AcDbLine
 62
7
  6
CONTINUOUS
 10
7.4039125307
 20
14.5945086233
 11
3.4067632821
 21
12.7484926393
  0
LINE
  5
353
100
AcDbEntity
  8
ASSI
100
AcDbLine
 62
7
  6
CONTINUOUS
 10
7.4039125307
 20
14.5945086233
 11
3.4067632821
 21
12.7484926393
  0
LWPOLYLINE
  5
354
100
AcDbEntity
  8
RACCORDO
100
AcDbPolyline
 62
7
  6
CONTINUOUS
 90
11
 70
0
 10
3.4208365879
 20
12.8626690716
 10
3.4328402034
 20
12.8680911386
 10
3.4446624167
 20
12.8722494165
 10
3.456303228
 20
12.8751439052
 10
3.4678817045
 20
12.8767782255
 10
3.4792787789
 20
12.8771487565
 10
3.4901372494
 20
12.8762446368
 10
3.5003804028
 20
12.8740335247
 10
3.5100849522
 20
12.8705477618
 10
3.519123835
 20
12.8658735111
 10
3.5264264956
 20
12.8608521447
  0
LWPOLYLINE
  5
355
100
AcDbEntity
  8
ASSI
100
AcDbPolyline
 62
250
  6
CONTINUOUS
 90
8
 70
0
 10
8.2131325035
 20
14.189898637
 10
8.249575687
 20
14.205085671
 10
8.2855671126
 20
14.2154356372
 10
8.3207204919
 20
14.2208379516
 10
8.3546575472
 20
14.2212355486
 10
8.3870151276
 20
14.2166238766
 10
8.4174491381
 20
14.2070510178
 10
8.4296780936
 20
14.2015245412
  0
LWPOLYLINE
  5
356
100
AcDbEntity
  8
RACCORDO
100
AcDbPolyline
 62
250
  6
CONTINUOUS
 90
8
 70
0
 10
8.2131325035
 20
14.189898637
 10
8.2495756849
 20
14.2050856721
 10
8.2855671085
 20
14.2154356393
 10
8.320720486
 20
14.2208379545
 10
8.3546575397
 20
14.2212355523
 10
8.3870151187
 20
14.216623881
 10
8.417449128
 20
14.2070510228
 10
8.430068628
 20
14.2013303474
  0
LINE
  5
357
100
AcDbEntity
  8
RACCORDO
100
AcDbLine
 62
250
  6
CONTINUOUS
 10
-11.3702941878
 20
7.0678771832
 11
-6.9918500675
 21
8.8595237873
  0
LINE
  5
358
100
AcDbEntity
  8
RACCORDO
100
AcDbLine
 62
250
  6
CONTINUOUS
 10
-11.0445254406
 20
6.4457156141
 11
-6.6692150554
 21
8.2360799028
  0
LWPOLYLINE
  5
359
100
AcDbEntity
  8
0
100
AcDbPolyline
 62
7
  6
CONTINUOUS
 90
19
 70
0
 10
-7.0602174533
 20
14.4916390429
 10
-7.0580189632
 20
14.4436477098
 10
-7.0520389632
 20
14.3952953886
 10
-7.0422774531
 20
14.3465820794
 10
-7.0285357596
 20
14.2969445061
 10
-7.0110125561
 20
14.2469459447
 10
-6.990303863
 20
14.1982762236
 10
-6.9663077998
 20
14.1509934819
 10
-6.9391262471
 20
14.1050395803
 10
-6.9096608668
 20
14.0619299303
 10
-6.8778357798
 20
14.0217554487
 10
-6.8437268652
 20
13.9844252185
 10
-6.8084634227
 20
13.9511819005
 10
-6.7719994925
 20
13.9221583931
 10
-6.7343810345
 20
13.8972217978
 10
-6.6968752277
 20
13.8772160793
 10
-6.6599044653
 20
13.8624225593
 10
-6.6230463542
 20
13.8525599161
 10
-6.5863008943
 20
13.8476281498
  0
LWPOLYLINE
  5
35A
100
AcDbEntity
  8
ASSI
100
AcDbPolyline
 62
7
  6
CONTINUOUS
 90
19
 70
0
 10
-7.0602174533
 20
14.4916390429
 10
-7.0580189632
 20
14.4436477098
 10
-7.0520389632
 20
14.3952953886
 10
-7.0422774531
 20
14.3465820794
 10
-7.0285357596
 20
14.2969445061
 10
-7.0110125561
 20
14.2469459447
 10
-6.990303863
 20
14.1982762236
 10
-6.9663077998
 20
14.1509934819
 10
-6.9391262471
 20
14.1050395803
 10
-6.9096608668
 20
14.0619299303
 10
-6.8778357798
 20
14.0217554487
 10
-6.8437268652
 20
13.9844252185
 10
-6.8084634227
 20
13.9511819005
 10
-6.7719994925
 20
13.9221583931
 10
-6.7343810345
 20
13.8972217978
 10
-6.6968752277
 20
13.8772160793
 10
-6.6599044653
 20
13.8624225593
 10
-6.6230463542
 20
13.8525599161
 10
-6.5863008943
 20
13.8476281498
  0
LWPOLYLINE
  5
35B
100
AcDbEntity
  8
SMUSSO
100
AcDbPolyline
 62
7
  6
CONTINUOUS
 90
6
 70
0
 10
-8.5601713424
 20
18.0859794444
 10
-8.5581955336
 20
18.0354359114
 10
-8.5477785296
 20
17.959425089
 10
-8.5284768229
 20
17.8838209952
 10
-8.5003697856
 20
17.8088457769
 10
-8.4635580816
 20
17.7347191096
  0
LWPOLYLINE
  5
35C
100
AcDbEntity
  8
ASSI
100
AcDbPolyline
 62
7
  6
CONTINUOUS
 90
5
 70
0
 10
-8.5601713424
 20
18.0859794444
 10
-8.5581955336
 20
18.0354359114
 10
-8.5477785296
 20
17.959425089
 10
-8.5284768229
 20
17.8838209952
 10
-8.5003697856
 20
17.8088457769
  0
LWPOLYLINE
  5
35D
100
AcDbEntity
  8
0
100
AcDbPolyline
 62
250
  6
CONTINUOUS
 90
19
 70
0
 10
-5.7587977976
 20
9.4701809949
 10
-5.759771436
 20
9.4968262682
 10
-5.7624540811
 20
9.5237248956
 10
-5.7668457329
 20
9.5508768774
 10
-5.7730104032
 20
9.5784765758
 10
-5.7808840801
 20
9.6063296285
 10
-5.7902747284
 20
9.6338529479
 10
-5.8012047878
 20
9.6610275784
 10
-5.8136518185
 20
9.6878724756
 10
-5.8273564664
 20
9.7138614185
 10
-5.8422203637
 20
9.7388769052
 10
-5.8583418782
 20
9.7630364375
 10
-5.8757567586
 20
9.7861663004
 10
-5.8945225042
 20
9.8084310492
 10
-5.9145816156
 20
9.8296661286
 10
-5.9357973436
 20
9.8492041576
 10
-5.958124105
 20
9.8668226759
 10
-5.981607483
 20
9.8827441438
 10
-6.0062474775
 20
9.8969685612
  0
LINE
  5
35E
100
AcDbEntity
  8
SMUSSO
100
AcDbLine
 62
250
  6
CONTINUOUS
 10
-7.8023888034
 20
18.9955942806
 11
-7.8023888034
 21
17.8929966058
  0
LINE
  5
35F
100
AcDbEntity
  8
ASSI
100
AcDbLine
 62
250
  6
CONTINUOUS
 10
-7.8023888034
 20
18.9955942806
 11
-7.8023888034
 21
17.8929966058
  0
LINE
  5
360
100
AcDbEntity
  8
0
100
AcDbLine
 62
7
  6
CONTINUOUS
 10
-6.8834407665
 20
14.7552935376
 11
-6.8834407665
 21
14.0288309182
  0
LINE
  5
361
100
AcDbEntity
  8
ASSI
100
AcDbLine
 62
7
  6
CONTINUOUS
 10
-6.8834407665
 20
14.7552935376
 11
-6.8834407665
 21
14.0288309182
  0
LINE
  5
362
100
AcDbEntity
  8
DRAFT
100
AcDbLine
 62
7
  6
CONTINUOUS
 10
-6.6694646557
 20
18.4055753579
 11
-6.6694646557
 21
17.5431976968
  0
LINE
  5
363
100
AcDbEntity
  8
ASSI
100
AcDbLine
 62
7
  6
CONTINUOUS
 10
-6.6694646557
 20
18.4055753579
 11
-6.6694646557
 21
17.5431976968
  0
LINE
  5
364
100
AcDbEntity
  8
0
100
AcDbLine
 62
7
  6
CONTINUOUS
 10
-6.2047560976
 20
17.0031503922
 11
-6.2047560976
 21
16.9377986715
  0
LINE
  5
365
100
AcDbEntity
  8
0
100
AcDbLine
 62
250
  6
CONTINUOUS
 10
-5.7587977976
 20
-24.186614691
 11
-5.7587977976
 21
-28.4451594854
  0
LINE
  5
366
100
AcDbEntity
  8
0
100
AcDbLine
 62
250
  6
CONTINUOUS
 10
-5.7587977976
 20
5.2116362004
 11
-5.7587977976
 21
9.4701809949
  0
LINE
  5
367
100
AcDbEntity
  8
0
100
AcDbLine
 62
250
  6
CONTINUOUS
 10
-5.5485330248
 20
-23.9376637472
 11
-5.5485330248
 21
-28.4460769618
  0
LINE
  5
368
100
AcDbEntity
  8
0
100
AcDbLine
 62
250
  6
CONTINUOUS
 10
-5.5485330248
 20
4.9608503038
 11
-5.5485330248
 21
9.4692635185
  0
LINE
  5
369
100
AcDbEntity
  8
DRAFT
100
AcDbLine
 62
7
  6
CONTINUOUS
 10
-5.5399378822
 20
17.7274600728
 11
-5.5399378822
 21
17.632816177
  0
LINE
  5
36A
100
AcDbEntity
  8
ASSI
100
AcDbLine
 62
7
  6
CONTINUOUS
 10
-5.5399378822
 20
17.7274600728
 11
-5.5399378822
 21
17.632816177
  0
LWPOLYLINE
  5
36B
100
AcDbEntity
  8
RACCORDO
100
AcDbPolyline
 62
250
  6
CONTINUOUS
 90
13
 70
0
 10
-6.1582564364
 20
3.8989903526
 10
-6.1516924698
 20
3.9996622958
 10
-6.1494135379
 20
4.1021617581
 10
-6.1514406668
 20
4.2061490906
 10
-6.1577683668
 20
4.3113056619
 10
-6.1683642918
 20
4.417315082
 10
-6.1831871783
 20
4.523852446
 10
-6.2021953961
 20
4.6306045345
 10
-6.2253266077
 20
4.7372597078
 10
-6.2525039589
 20
4.843497252
 10
-6.2836531476
 20
4.9490011326
 10
-6.3186689665
 20
5.0534366687
 10
-6.3574198351
 20
5.1564529104
  0
LWPOLYLINE
  5
36C
100
AcDbEntity
  8
0
100
AcDbPolyline
 62
250
  6
CONTINUOUS
 90
10
 70
0
 10
-6.0062474775
 20
9.8969685612
 10
-6.0046716174
 20
9.9200659196
 10
-5.9999908635
 20
9.9440528068
 10
-5.992344303
 20
9.9682164598
 10
-5.981959151
 20
9.9918388628
 10
-5.9691439994
 20
10.014218083
 10
-5.9542796464
 20
10.0346891288
 10
-5.937807782
 20
10.0526437089
 10
-5.9202178626
 20
10.0675483085
 10
-5.9020325675
 20
10.0789600418
  0
LINE
  5
36D
100
AcDbEntity
  8
RACCORDO
100
AcDbLine
 62
7
  6
CONTINUOUS
 10
-9.3069183298
 20
-30.0077106613
 11
-6.6692150554
 21
8.2360799028
  0
LWPOLYLINE
  5
36E
100
AcDbEntity
  8
RACCORDO
100
AcDbPolyline
 62
250
  6
CONTINUOUS
 90
13
 70
0
 10
-6.4375470108
 20
3.9218448025
 10
-6.4307216611
 20
4.0130647287
 10
-6.4277689919
 20
4.1054524425
 10
-6.4286890032
 20
4.1990079439
 10
-6.4335073564
 20
4.2940557312
 10
-6.4421983901
 20
4.390271306
 10
-6.4546851197
 20
4.4866811733
 10
-6.4710201968
 20
4.5832915186
 10
-6.4911509698
 20
4.6800961563
 10
-6.5148424997
 20
4.7761030345
 10
-6.5420164736
 20
4.8709814691
 10
-6.5727512045
 20
4.9650621441
 10
-6.6070466924
 20
5.0583450596
  0
LWPOLYLINE
  5
36F
100
AcDbEntity
  8
RACCORDO
100
AcDbPolyline
 62
250
  6
CONTINUOUS
 90
16
 70
0
 10
-7.9412190175
 20
-10.4015515033
 10
-7.9425489842
 20
-10.4162260305
 10
-7.9436888963
 20
-10.4308252367
 10
-7.944638744
 20
-10.4453453531
 10
-7.9453984667
 20
-10.4597804569
 10
-7.9459683125
 20
-10.474129052
 10
-7.9463485542
 20
-10.4883939448
 10
-7.9465391289
 20
-10.50257137
 10
-7.9465400182
 20
-10.5166575981
 10
-7.9463511239
 20
-10.5306552851
 10
-7.9459722746
 20
-10.5445606344
 10
-7.9454033446
 20
-10.5583698172
 10
-7.9446438692
 20
-10.5720851975
 10
-7.9436934138
 20
-10.585704891
 10
-7.9425518548
 20
-10.5992229232
 10
-7.9412190175
 20
-10.612635398
  0
LWPOLYLINE
  5
370
100
AcDbEntity
  8
RACCORDO
100
AcDbPolyline
 62
250
  6
CONTINUOUS
 90
16
 70
0
 10
-7.6619201205
 20
-10.4244102614
 10
-7.6629876997
 20
-10.4361530267
 10
-7.6639027638
 20
-10.4478298097
 10
-7.6646653128
 20
-10.4594406104
 10
-7.6652752672
 20
-10.4709866731
 10
-7.6657327064
 20
-10.4824667535
 10
-7.666037869
 20
-10.4938771184
 10
-7.6661909117
 20
-10.5052178325
 10
-7.6661916777
 20
-10.5164888312
 10
-7.6660399353
 20
-10.5276861875
 10
-7.6657358379
 20
-10.5388100223
 10
-7.6652792321
 20
-10.5498602148
 10
-7.6646694266
 20
-10.5608324754
 10
-7.663906191
 20
-10.5717253745
 10
-7.6629897556
 20
-10.5825403417
 10
-7.6619201205
 20
-10.5932773771
  0
LINE
  5
371
100
AcDbEntity
  8
RACCORDO
100
AcDbLine
 62
250
  6
CONTINUOUS
 10
-7.0207339447
 20
-0.9330112396
 11
-7.9412190175
 21
-10.4015515033
  0
LINE
  5
372
100
AcDbEntity
  8
RACCORDO
100
AcDbLine
 62
250
  6
CONTINUOUS
 10
-6.9146679275
 20
-0.9860442482
 11
-6.4375470108
 21
3.9218448025
  0
LINE
  5
373
100
AcDbEntity
  8
RACCORDO
100
AcDbLine
 62
250
  6
CONTINUOUS
 10
-6.7472260966
 20
-1.0154394376
 11
-7.6619201205
 21
-10.4244102614
  0
LINE
  5
374
100
AcDbEntity
  8
RACCORDO
100
AcDbLine
 62
250
  6
CONTINUOUS
 10
-6.6335205768
 20
-0.9898889463
 11
-6.1582481138
 21
3.8989860444
  0
LWPOLYLINE
  5
375
100
AcDbEntity
  8
RACCORDO
100
AcDbPolyline
 62
250
  6
CONTINUOUS
 90
12
 70
0
 10
-2.4596204698
 20
13.1420160006
 10
-2.4423196037
 20
13.1768705051
 10
-2.4274833926
 20
13.2091772996
 10
-2.4157195471
 20
13.2393222445
 10
-2.4077088911
 20
13.2679973777
 10
-2.4031625836
 20
13.2949998552
 10
-2.4010499776
 20
13.3195045491
 10
-2.4008159278
 20
13.3408924681
 10
-2.4037738927
 20
13.3592965724
 10
-2.4109898837
 20
13.3753411505
 10
-2.4220639896
 20
13.388997313
 10
-2.4355935574
 20
13.399581517
  0
LWPOLYLINE
  5
376
100
AcDbEntity
  8
ASSI
100
AcDbPolyline
 62
250
  6
CONTINUOUS
 90
12
 70
0
 10
-2.4596204698
 20
13.1420160006
 10
-2.4423196037
 20
13.1768705051
 10
-2.4274833926
 20
13.2091772996
 10
-2.4157195471
 20
13.2393222445
 10
-2.4077088911
 20
13.2679973777
 10
-2.4031625836
 20
13.2949998552
 10
-2.4010499776
 20
13.3195045491
 10
-2.4008159278
 20
13.3408924681
 10
-2.4037738927
 20
13.3592965724
 10
-2.4109898837
 20
13.3753411505
 10
-2.4220639896
 20
13.388997313
 10
-2.4355935547
 20
13.3995815153
  0
LWPOLYLINE
  5
377
100
AcDbEntity
  8
RACCORDO
100
AcDbPolyline
 62
250
  6
CONTINUOUS
 90
15
 70
0
 10
-0.5917778345
 20
12.6107578953
 10
-0.5628374271
 20
12.6537414752
 10
-0.5215655636
 20
12.7060751497
 10
-0.4749606303
 20
12.7574336302
 10
-0.423381071
 20
12.8074242775
 10
-0.366793188
 20
12.8560340464
 10
-0.3052306788
 20
12.9032759821
 10
-0.2391530797
 20
12.9487965812
 10
-0.1685267354
 20
12.9925843812
 10
-0.0933853011
 20
13.0346508447
 10
-0.0142892786
 20
13.0746768565
 10
0.0688062031
 20
13.1126517528
 10
0.155856273
 20
13.1485861975
 10
0.246165817
 20
13.1821930667
 10
0.3397723117
 20
13.2134523472
  0
LWPOLYLINE
  5
378
100
AcDbEntity
  8
RACCORDO
100
AcDbPolyline
 62
250
  6
CONTINUOUS
 90
7
 70
0
 10
9.167175741
 20
11.9683779773
 10
9.2090017919
 20
11.9930450835
 10
9.2441094972
 20
12.0202053312
 10
9.2719114373
 20
12.0494042333
 10
9.2919424512
 20
12.0801532064
 10
9.3038673937
 20
12.1119377107
 10
9.3075056932
 20
12.1418504785
  0
LWPOLYLINE
  5
379
100
AcDbEntity
  8
ASSI
100
AcDbPolyline
 62
250
  6
CONTINUOUS
 90
7
 70
0
 10
9.167175741
 20
11.9683779773
 10
9.2090017919
 20
11.9930450835
 10
9.2441094972
 20
12.0202053312
 10
9.2719114373
 20
12.0494042333
 10
9.2919424512
 20
12.0801532064
 10
9.3038673937
 20
12.1119377107
 10
9.3075054398
 20
12.1417259207
  0
LINE
  5
37A
100
AcDbEntity
  8
RACCORDO
100
AcDbLine
 62
250
  6
CONTINUOUS
 10
8.8583531483
 20
13.2030515805
 11
-0.6947299269
 21
8.322077005
  0
LINE
  5
37B
100
AcDbEntity
  8
ASSI
100
AcDbLine
 62
250
  6
CONTINUOUS
 10
8.8583531483
 20
13.2030515805
 11
-0.6947299269
 21
8.322077005
  0
LINE
  5
37C
100
AcDbEntity
  8
RACCORDO
100
AcDbLine
 62
250
  6
CONTINUOUS
 10
-0.6947299269
 20
8.322077005
 11
-5.1510291525
 21
6.0451193224
  0
LINE
  5
37D
100
AcDbEntity
  8
ASSI
100
AcDbLine
 62
250
  6
CONTINUOUS
 10
-0.6947299269
 20
8.322077005
 11
-5.1510291525
 21
6.0451193224
  0
LINE
  5
37E
100
AcDbEntity
  8
RACCORDO
100
AcDbLine
 62
250
  6
CONTINUOUS
 10
9.167175741
 20
11.9683779773
 11
1.9962851446
 21
8.3100611252
  0
LINE
  5
37F
100
AcDbEntity
  8
ASSI
100
AcDbLine
 62
250
  6
CONTINUOUS
 10
9.167175741
 20
11.9683779773
 11
1.9962851446
 21
8.3100611252
  0
LINE
  5
380
100
AcDbEntity
  8
RACCORDO
100
AcDbLine
 62
250
  6
CONTINUOUS
 10
1.9962851446
 20
8.3100611252
 11
-5.0612189746
 21
4.7093814359
  0
LINE
  5
381
100
AcDbEntity
  8
ASSI
100
AcDbLine
 62
250
  6
CONTINUOUS
 10
1.9962851446
 20
8.3100611252
 11
-5.0612189746
 21
4.7093814359
  0
LWPOLYLINE
  5
382
100
AcDbEntity
  8
RACCORDO
100
AcDbPolyline
 62
250
  6
CONTINUOUS
 90
8
 70
0
 10
8.8583531483
 20
13.2030515805
 10
8.9009985769
 20
13.2244404369
 10
8.9382040446
 20
13.2432124224
 10
8.9693470039
 20
13.2590534315
 10
8.9939063497
 20
13.2716984015
 10
9.0114711382
 20
13.2809357481
 10
9.0217474634
 20
13.2866109058
 10
9.0246179902
 20
13.2885975404
  0
LWPOLYLINE
  5
383
100
AcDbEntity
  8
ASSI
100
AcDbPolyline
 62
250
  6
CONTINUOUS
 90
8
 70
0
 10
8.8583531483
 20
13.2030515805
 10
8.9009985769
 20
13.2244404369
 10
8.9382040446
 20
13.2432124224
 10
8.9693470039
 20
13.2590534315
 10
8.9939063497
 20
13.2716984015
 10
9.0114711382
 20
13.2809357481
 10
9.0217474634
 20
13.2866109058
 10
9.0246179902
 20
13.2885975404
  0
LINE
  5
384
100
AcDbEntity
  8
0
100
AcDbLine
 62
7
  6
CONTINUOUS
 10
-5.5485330248
 20
4.9608503038
 11
-5.1510291525
 21
5.1556408916
  0
LINE
  5
385
100
AcDbEntity
  8
RACCORDO
100
AcDbLine
 62
250
  6
CONTINUOUS
 10
-6.1582481138
 20
3.8989860444
 11
-5.0449631354
 21
4.444535526
  0
LINE
  5
386
100
AcDbEntity
  8
0
100
AcDbLine
 62
250
  6
CONTINUOUS
 10
-6.3574151455
 20
5.1564550139
 11
-5.845032624
 21
5.4071766466
  0
LWPOLYLINE
  5
387
100
AcDbEntity
  8
RACCORDO
100
AcDbPolyline
 62
250
  6
CONTINUOUS
 90
10
 70
0
 10
-6.6070466924
 20
5.0583450596
 10
-6.5850881267
 20
5.0678017044
 10
-6.5599405226
 20
5.0783253752
 10
-6.5322811685
 20
5.0896326428
 10
-6.5028550004
 20
5.1014189741
 10
-6.4724545394
 20
5.1133669334
 10
-6.4418985465
 20
5.1251547321
 10
-6.4120099715
 20
5.1364648949
 10
-6.3835937892
 20
5.1469928107
 10
-6.357415319
 20
5.1564549361
  0
LWPOLYLINE
  5
388
100
AcDbEntity
  8
0
100
AcDbPolyline
 62
7
  6
CONTINUOUS
 90
25
 70
0
 10
-5.5485330248
 20
4.9608503038
 10
-5.557097064
 20
4.9582380322
 10
-5.5659246184
 20
4.957378023
 10
-5.5749177905
 20
4.9582568069
 10
-5.5839653878
 20
4.9610362769
 10
-5.5930072035
 20
4.9655147832
 10
-5.602041052
 20
4.9711352417
 10
-5.6109746966
 20
4.977782552
 10
-5.6197882436
 20
4.9855307447
 10
-5.6286120153
 20
4.9941264378
 10
-5.6374439687
 20
5.0035410422
 10
-5.6462174665
 20
5.0137904275
 10
-5.6549782077
 20
5.0247089188
 10
-5.6636726376
 20
5.0362344193
 10
-5.6722953741
 20
5.0484210878
 10
-5.6809638522
 20
5.0612959597
 10
-5.6896500917
 20
5.0748630648
 10
-5.6983141412
 20
5.0891324655
 10
-5.7070432085
 20
5.1041631129
 10
-5.7157873088
 20
5.1199812676
 10
-5.7244946379
 20
5.1365901786
 10
-5.7332234566
 20
5.1540354996
 10
-5.7419313903
 20
5.172351478
 10
-5.7504888505
 20
5.1915468382
 10
-5.7587977976
 20
5.2116362004
  0
LWPOLYLINE
  5
389
100
AcDbEntity
  8
RACCORDO
100
AcDbPolyline
 62
250
  6
CONTINUOUS
 90
13
 70
0
 10
-7.6619201205
 20
-10.4244102614
 10
-7.6815167914
 20
-10.4299837585
 10
-7.7031105918
 20
-10.4342601304
 10
-7.7263401392
 20
-10.4371678098
 10
-7.7508166758
 20
-10.4386581352
 10
-7.7761305749
 20
-10.4387061652
 10
-7.801858196
 20
-10.437311096
 10
-7.8275689749
 20
-10.4344962747
 10
-7.852832629
 20
-10.4303088086
 10
-7.8772263586
 20
-10.4248187771
 10
-7.9003419226
 20
-10.4181180584
 10
-7.9217924707
 20
-10.4103187923
 10
-7.9412190175
 20
-10.4015515033
  0
LINE
  5
38A
100
AcDbEntity
  8
RACCORDO
100
AcDbLine
 62
7
  6
CONTINUOUS
 10
-4.335204005
 20
17.0980076407
 11
-4.3545057231
 21
17.3528354741
  0
LWPOLYLINE
  5
38B
100
AcDbEntity
  8
0
100
AcDbPolyline
 62
250
  6
CONTINUOUS
 90
19
 70
0
 10
-5.5485330625
 20
9.4692634995
 10
-5.5499726654
 20
9.5067755994
 10
-5.5539588748
 20
9.54522704
 10
-5.5604449918
 20
9.5843342918
 10
-5.5693644847
 20
9.6238076991
 10
-5.5806384986
 20
9.6633659679
 10
-5.5941794379
 20
9.7027382903
 10
-5.6098733442
 20
9.7416320242
 10
-5.6276002975
 20
9.7797869207
 10
-5.647253031
 20
9.8169858803
 10
-5.6685577698
 20
9.8527582147
 10
-5.6914753462
 20
9.8870773665
 10
-5.7163269245
 20
9.9203135266
 10
-5.7430863778
 20
9.9522119605
 10
-5.7715502449
 20
9.9823122093
 10
-5.8018474326
 20
10.0104944583
 10
-5.8339002821
 20
10.0363671648
 10
-5.8673871504
 20
10.059353605
 10
-5.9020326136
 20
10.0789600185
  0
LINE
  5
38C
100
AcDbEntity
  8
0
100
AcDbLine
 62
7
  6
CONTINUOUS
 10
-5.1510291525
 20
9.6695480848
 11
-5.1510291525
 21
5.1556408916
  0
LINE
  5
38D
100
AcDbEntity
  8
DRAFT
100
AcDbLine
 62
7
  6
CONTINUOUS
 10
-5.1510291525
 20
-18.3897409477
 11
-5.1510291525
 21
-0.3052252785
  0
LINE
  5
38E
100
AcDbEntity
  8
0
100
AcDbLine
 62
7
  6
CONTINUOUS
 10
-5.1510291525
 20
-18.3897409477
 11
-5.1510291525
 21
-0.3052252785
  0
LINE
  5
38F
100
AcDbEntity
  8
ASSI
100
AcDbLine
 62
7
  6
CONTINUOUS
 10
-5.1510291525
 20
-18.3897409477
 11
-5.1510291525
 21
-0.3052252785
  0
LINE
  5
390
100
AcDbEntity
  8
0
100
AcDbLine
 62
7
  6
CONTINUOUS
 10
-5.1510291525
 20
-23.7485893075
 11
-5.1510291525
 21
-28.2624965008
  0
LINE
  5
391
100
AcDbEntity
  8
RACCORDO
100
AcDbLine
 62
7
  6
CONTINUOUS
 10
-5.0449631354
 20
-23.1435499592
 11
-5.0449631354
 21
-18.4427739563
  0
LINE
  5
392
100
AcDbEntity
  8
RACCORDO
100
AcDbLine
 62
7
  6
CONTINUOUS
 10
-5.0449631354
 20
-0.2562404768
 11
-5.0449631354
 21
4.444535526
  0
LINE
  5
393
100
AcDbEntity
  8
SMUSSO
100
AcDbLine
 62
7
  6
CONTINUOUS
 10
-3.6338036849
 20
21.0632432306
 11
-3.6338036849
 21
19.7790259244
  0
LINE
  5
394
100
AcDbEntity
  8
ASSI
100
AcDbLine
 62
7
  6
CONTINUOUS
 10
-3.6338036849
 20
21.0632432306
 11
-3.6338036849
 21
19.7790259244
  0
LWPOLYLINE
  5
395
100
AcDbEntity
  8
0
100
AcDbPolyline
 62
7
  6
CONTINUOUS
 90
7
 70
0
 10
-5.0449631354
 20
-23.1435499592
 10
-5.048067477
 20
-23.2553123372
 10
-5.0570011498
 20
-23.3627057206
 10
-5.0717641537
 20
-23.4657301094
 10
-5.0923564889
 20
-23.5643855034
 10
-5.1187781551
 20
-23.6586719028
 10
-5.1510291525
 20
-23.7485893075
  0
LWPOLYLINE
  5
396
100
AcDbEntity
  8
0
100
AcDbPolyline
 62
250
  6
CONTINUOUS
 90
11
 70
0
 10
-5.5485330916
 20
-28.4460769927
 10
-5.5507194978
 20
-28.4911211737
 10
-5.5566742055
 20
-28.5327385373
 10
-5.5660789277
 20
-28.570657394
 10
-5.5786543699
 20
-28.6048200007
 10
-5.5940137302
 20
-28.6349568112
 10
-5.6115517568
 20
-28.6607158836
 10
-5.6307138272
 20
-28.6821416312
 10
-5.6511690237
 20
-28.6995909979
 10
-5.6725984989
 20
-28.7133597958
 10
-5.6834264815
 20
-28.7188756235
  0
LWPOLYLINE
  5
397
100
AcDbEntity
  8
0
100
AcDbPolyline
 62
250
  6
CONTINUOUS
 90
17
 70
0
 10
-5.7587977976
 20
-28.4451594854
 10
-5.7605876438
 20
-28.4768522834
 10
-5.7645681048
 20
-28.5058685947
 10
-5.7707391808
 20
-28.5322084193
 10
-5.7794218095
 20
-28.555947063
 10
-5.790295053
 20
-28.5770092201
 10
-5.8023960979
 20
-28.5951689734
 10
-5.815654303
 20
-28.6101776394
 10
-5.8301403095
 20
-28.6222839017
 10
-5.8451032274
 20
-28.6320078936
 10
-5.8602605292
 20
-28.6393576199
 10
-5.8758947424
 20
-28.6443250758
 10
-5.8921025598
 20
-28.6474063801
 10
-5.908743659
 20
-28.6488698648
 10
-5.9259583624
 20
-28.6484471979
 10
-5.9442643299
 20
-28.6458295029
 10
-5.963834115
 20
-28.6409138207
  0
LINE
  5
398
100
AcDbEntity
  8
RACCORDO
100
AcDbLine
 62
250
  6
CONTINUOUS
 10
9.3075058408
 20
10.1969556535
 11
10.1053545315
 21
10.6400060239
  0
LINE
  5
399
100
AcDbEntity
  8
ASSI
100
AcDbLine
 62
250
  6
CONTINUOUS
 10
9.3075058408
 20
10.1969556535
 11
10.1053545315
 21
10.6400060239
  0
LINE
  5
39A
100
AcDbEntity
  8
RACCORDO
100
AcDbLine
 62
250
  6
CONTINUOUS
 10
9.3075058408
 20
8.3783023055
 11
10.1053545315
 21
8.8213526759
  0
LINE
  5
39B
100
AcDbEntity
  8
ASSI
100
AcDbLine
 62
250
  6
CONTINUOUS
 10
9.3075058408
 20
8.3783023055
 11
10.1053545315
 21
8.8213526759
  0
LINE
  5
39C
100
AcDbEntity
  8
RACCORDO
100
AcDbLine
 62
7
  6
CONTINUOUS
 10
-7.0207339447
 20
-0.9330112396
 11
-6.9146679275
 21
-0.9860442482
  0
LWPOLYLINE
  5
39D
100
AcDbEntity
  8
RACCORDO
100
AcDbPolyline
 62
250
  6
CONTINUOUS
 90
4
 70
0
 10
-8.7839798821
 20
9.7555886946
 10
-8.9982843423
 20
10.1489782323
 10
-9.3915499025
 20
10.837432435
 10
-9.7974331447
 20
11.5156017999
  0
LWPOLYLINE
  5
39E
100
AcDbEntity
  8
RACCORDO
100
AcDbPolyline
 62
250
  6
CONTINUOUS
 90
5
 70
0
 10
-8.3686642402
 20
9.5479308736
 10
-8.3846371579
 20
9.5786646901
 10
-8.7688547939
 20
10.2830424867
 10
-9.1654325575
 20
10.9765324491
 10
-9.5739940929
 20
11.6585686939
  0
LWPOLYLINE
  5
39F
100
AcDbEntity
  8
ASSI
100
AcDbPolyline
 62
7
  6
CONTINUOUS
 90
8
 70
0
 10
-9.9630933998
 20
13.2441509428
 10
-9.9532113953
 20
13.2251095281
 10
-9.9445668169
 20
13.2052486198
 10
-9.9372449688
 20
13.1848063835
 10
-9.9315017643
 20
13.164497316
 10
-9.9274225078
 20
13.1445595831
 10
-9.9249218949
 20
13.1247550191
 10
-9.9239999256
 20
13.105083624
  0
LWPOLYLINE
  5
3A0
100
AcDbEntity
  8
0
100
AcDbPolyline
 62
7
  6
CONTINUOUS
 90
4
 70
0
 10
-5.845032624
 20
5.4071766466
 10
-6.2008337673
 20
6.1306350632
 10
-6.5686591219
 20
6.8465025425
 10
-6.742675915
 20
7.1709783971
  0
LWPOLYLINE
  5
3A1
100
AcDbEntity
  8
0
100
AcDbPolyline
 62
7
  6
CONTINUOUS
 90
4
 70
0
 10
-9.5081464574
 20
11.6925179995
 10
-9.5182961785
 20
11.7137743215
 10
-9.5281785852
 20
11.7353634072
 10
-9.5378440374
 20
11.7571377929
  0
LWPOLYLINE
  5
3A2
100
AcDbEntity
  8
0
100
AcDbPolyline
 62
7
  6
CONTINUOUS
 90
7
 70
0
 10
-5.845032624
 20
5.4071766466
 10
-5.8296996987
 20
5.3748315029
 10
-5.814750955
 20
5.342388387
 10
-5.8001863931
 20
5.3098472988
 10
-5.7860060129
 20
5.2772082383
 10
-5.7722098144
 20
5.2444712055
 10
-5.7587977976
 20
5.2116362004
  0
LWPOLYLINE
  5
3A3
100
AcDbEntity
  8
0
100
AcDbPolyline
 62
7
  6
CONTINUOUS
 90
6
 70
0
 10
-9.5755589414
 20
11.8434923316
 10
-9.5849737642
 20
11.8644075951
 10
-9.5942640123
 20
11.884568496
 10
-9.6034495039
 20
11.9037852956
 10
-9.6127312569
 20
11.9219875286
 10
-9.6222312822
 20
11.9390593991
  0
LINE
  5
3A4
100
AcDbEntity
  8
0
100
AcDbLine
 62
7
  6
CONTINUOUS
 10
-9.5378440374
 20
11.7571377929
 11
-9.5755589414
 21
11.8434923316
  0
LWPOLYLINE
  5
3A5
100
AcDbEntity
  8
RACCORDO
100
AcDbPolyline
 62
250
  6
CONTINUOUS
 90
3
 70
0
 10
-6.3574151455
 20
5.1564550139
 10
-6.6607026922
 20
5.9138364938
 10
-6.80575277
 20
6.2564335144
  0
LINE
  5
3A6
100
AcDbEntity
  8
RACCORDO
100
AcDbLine
 62
250
  6
CONTINUOUS
 10
-6.6070466924
 20
5.0583450596
 11
-6.8470096637
 21
5.6582540242
  0
LWPOLYLINE
  5
3A7
100
AcDbEntity
  8
0
100
AcDbPolyline
 62
7
  6
CONTINUOUS
 90
7
 70
0
 10
-5.1510291525
 20
5.1556408916
 10
-5.1187781551
 20
5.0334724894
 10
-5.0923564889
 20
4.9127644238
 10
-5.0717641537
 20
4.7935166946
 10
-5.0570011498
 20
4.6757293019
 10
-5.048067477
 20
4.5594022457
 10
-5.0449631354
 20
4.444535526
  0
LWPOLYLINE
  5
3A8
100
AcDbEntity
  8
RACCORDO
100
AcDbPolyline
 62
250
  6
CONTINUOUS
 90
6
 70
0
 10
-9.0238674381
 20
14.5849239811
 10
-9.0273975228
 20
14.5983973864
 10
-9.0358389148
 20
14.6184497039
 10
-9.0469107161
 20
14.6365897478
 10
-9.0604222891
 20
14.6525147925
 10
-9.0755979357
 20
14.6655657481
  0
LWPOLYLINE
  5
3A9
100
AcDbEntity
  8
SMUSSO
100
AcDbPolyline
 62
7
  6
CONTINUOUS
 90
6
 70
0
 10
-1.5224234609
 20
13.4913674536
 10
-1.5204476521
 20
13.4408239206
 10
-1.510030648
 20
13.3648130982
 10
-1.4907289414
 20
13.2892090044
 10
-1.4626219041
 20
13.2142337861
 10
-1.4258102001
 20
13.1401071188
  0
LWPOLYLINE
  5
3AA
100
AcDbEntity
  8
ASSI
100
AcDbPolyline
 62
7
  6
CONTINUOUS
 90
5
 70
0
 10
-1.5224234609
 20
13.4913674536
 10
-1.5204476521
 20
13.4408239206
 10
-1.510030648
 20
13.3648130982
 10
-1.4907289414
 20
13.2892090044
 10
-1.4626219041
 20
13.2142337861
  0
LINE
  5
3AB
100
AcDbEntity
  8
SMUSSO
100
AcDbLine
 62
250
  6
CONTINUOUS
 10
-0.7646409218
 20
14.4009822898
 11
-0.7646409218
 21
13.65012109
  0
LINE
  5
3AC
100
AcDbEntity
  8
ASSI
100
AcDbLine
 62
250
  6
CONTINUOUS
 10
-0.7646409218
 20
14.4009822898
 11
-0.7646409218
 21
13.65012109
  0
LWPOLYLINE
  5
3AD
100
AcDbEntity
  8
RACCORDO
100
AcDbPolyline
 62
250
  6
CONTINUOUS
 90
9
 70
0
 10
0.9765871992
 20
18.6621846129
 10
0.9761239138
 20
18.6514250735
 10
0.9712233657
 20
18.6256638557
 10
0.9610231338
 20
18.6002939325
 10
0.9456325066
 20
18.575587125
 10
0.925216384
 20
18.5518081497
 10
0.8999935106
 20
18.5292117816
 10
0.870234132
 20
18.5080401252
 10
0.8362570993
 20
18.4885200202
  0
LWPOLYLINE
  5
3AE
100
AcDbEntity
  8
ASSI
100
AcDbPolyline
 62
250
  6
CONTINUOUS
 90
9
 70
0
 10
0.9765871992
 20
18.6621846129
 10
0.9761239138
 20
18.6514250735
 10
0.9712233657
 20
18.6256638557
 10
0.9610231338
 20
18.6002939325
 10
0.9456325066
 20
18.575587125
 10
0.925216384
 20
18.5518081497
 10
0.8999935106
 20
18.5292117816
 10
0.870234132
 20
18.5080401252
 10
0.8362570993
 20
18.4885200202
  0
LWPOLYLINE
  5
3AF
100
AcDbEntity
  8
ASSI
100
AcDbPolyline
 62
250
  6
CONTINUOUS
 90
7
 70
0
 10
0.976587174
 20
18.225100318
 10
0.9729484151
 20
18.1950733892
 10
0.9610232044
 20
18.1632890896
 10
0.9409920616
 20
18.1325403803
 10
0.9131901585
 20
18.1033417727
 10
0.8780826913
 20
18.0761818388
 10
0.8362570993
 20
18.0515150398
  0
LWPOLYLINE
  5
3B0
100
AcDbEntity
  8
RACCORDO
100
AcDbPolyline
 62
250
  6
CONTINUOUS
 90
7
 70
0
 10
0.9765871885
 20
18.225128003
 10
0.9729484151
 20
18.1950733892
 10
0.9610232044
 20
18.1632890896
 10
0.9409920616
 20
18.1325403803
 10
0.9131901585
 20
18.1033417727
 10
0.8780826913
 20
18.0761818388
 10
0.8362570993
 20
18.0515150398
  0
LINE
  5
3B1
100
AcDbEntity
  8
RACCORDO
100
AcDbLine
 62
250
  6
CONTINUOUS
 10
9.6235359099
 20
7.522578269
 11
9.5525557913
 21
7.4664939407
  0
LINE
  5
3B2
100
AcDbEntity
  8
ASSI
100
AcDbLine
 62
250
  6
CONTINUOUS
 10
9.6235359099
 20
7.522578269
 11
9.5525557913
 21
7.4664939407
  0
LINE
  5
3B3
100
AcDbEntity
  8
ASSI
100
AcDbLine
 62
250
  6
CONTINUOUS
 10
9.5525557913
 20
7.4664939407
 11
9.4729741559
 21
7.4145815783
  0
LINE
  5
3B4
100
AcDbEntity
  8
RACCORDO
100
AcDbLine
 62
250
  6
CONTINUOUS
 10
9.5525557913
 20
7.4664939407
 11
9.4721827715
 21
7.414117516
  0
LINE
  5
3B5
100
AcDbEntity
  8
ASSI
100
AcDbLine
 62
250
  6
CONTINUOUS
 10
9.4729741559
 20
7.4145815783
 11
9.4721827715
 21
7.414117516
  0
LINE
  5
3B6
100
AcDbEntity
  8
DRAFT
100
AcDbLine
 62
7
  6
CONTINUOUS
 10
9.3075058408
 20
7.3176534193
 11
9.4721824895
 21
7.4141173508
  0
LINE
  5
3B7
100
AcDbEntity
  8
ASSI
100
AcDbLine
 62
7
  6
CONTINUOUS
 10
9.3075058408
 20
7.3176534193
 11
9.4721824895
 21
7.4141173508
  0
LINE
  5
3B8
100
AcDbEntity
  8
RACCORDO
100
AcDbLine
 62
7
  6
CONTINUOUS
 10
-5.0449631354
 20
-0.2562404768
 11
-6.6335205768
 21
-0.9898889463
  0
LWPOLYLINE
  5
3B9
100
AcDbEntity
  8
RACCORDO
100
AcDbPolyline
 62
250
  6
CONTINUOUS
 90
16
 70
0
 10
-12.1206956927
 20
5.9455410374
 10
-12.0822738742
 20
5.9278747063
 10
-12.0405071585
 20
5.9116798458
 10
-11.9958430411
 20
5.8971299704
 10
-11.9487600606
 20
5.8843809698
 10
-11.899762672
 20
5.8735694389
 10
-11.8493758412
 20
5.8648112144
 10
-11.798139421
 20
5.8582001334
 10
-11.746602367
 20
5.8538070281
 10
-11.6953168556
 20
5.851678967
 10
-11.6448323682
 20
5.8518387504
 10
-11.5956898039
 20
5.8542846665
 10
-11.5484156843
 20
5.8589905092
 10
-11.503516512
 20
5.8659058595
 10
-11.4614733442
 20
5.874956625
 10
-11.4227366383
 20
5.8860458344
  0
LINE
  5
3BA
100
AcDbEntity
  8
RACCORDO
100
AcDbLine
 62
250
  6
CONTINUOUS
 10
-26.8784167883
 20
13.3243877265
 11
-12.1207121643
 21
5.9455354145
  0
LWPOLYLINE
  5
3BB
100
AcDbEntity
  8
RACCORDO
100
AcDbPolyline
 62
250
  6
CONTINUOUS
 90
16
 70
0
 10
-11.3702941878
 20
7.0678771832
 10
-11.3341156659
 20
7.0467082889
 10
-11.2985696337
 20
7.020920443
 10
-11.2640453144
 20
6.9907960184
 10
-11.230920744
 20
6.9566648728
 10
-11.1995586314
 20
6.918900737
 10
-11.1703023868
 20
6.8779171223
 10
-11.1434723616
 20
6.8341627927
 10
-11.1193623404
 20
6.7881168514
 10
-11.0982363239
 20
6.7402834942
 10
-11.0803256389
 20
6.6911864887
 10
-11.0658264046
 20
6.6413634396
 10
-11.0548973851
 20
6.5913599013
 10
-11.0476582517
 20
6.5417234048
 10
-11.0441882716
 20
6.4929974619
 10
-11.0445254406
 20
6.4457156141
  0
LWPOLYLINE
  5
3BC
100
AcDbEntity
  8
0
100
AcDbPolyline
 62
7
  6
CONTINUOUS
 90
3
 70
0
 10
-16.672917068
 20
16.0708654838
 10
-16.6376275269
 20
16.0375344919
 10
-16.6158043897
 20
16.0200278031
  0
LWPOLYLINE
  5
3BD
100
AcDbEntity
  8
ASSI
100
AcDbPolyline
 62
7
  6
CONTINUOUS
 90
3
 70
0
 10
-16.672917068
 20
16.0708654838
 10
-16.6376275269
 20
16.0375344919
 10
-16.6158043897
 20
16.0200278031
  0
LINE
  5
3BE
100
AcDbEntity
  8
0
100
AcDbLine
 62
7
  6
CONTINUOUS
 10
-16.707460829
 20
16.108619655
 11
-16.672917068
 21
16.0708654838
  0
LINE
  5
3BF
100
AcDbEntity
  8
ASSI
100
AcDbLine
 62
7
  6
CONTINUOUS
 10
-16.707460829
 20
16.108619655
 11
-16.672917068
 21
16.0708654838
  0
LINE
  5
3C0
100
AcDbEntity
  8
ASSI
100
AcDbLine
 62
7
  6
CONTINUOUS
 10
-10.1180205075
 20
13.4525805047
 11
-10.1903067546
 21
13.5466184526
  0
LINE
  5
3C1
100
AcDbEntity
  8
ASSI
100
AcDbLine
 62
7
  6
CONTINUOUS
 10
-9.9966698923
 20
13.2934666647
 11
-10.1180205075
 21
13.4525805047
  0
LINE
  5
3C2
100
AcDbEntity
  8
0
100
AcDbLine
 62
7
  6
CONTINUOUS
 10
-9.9648697255
 20
13.2515096606
 11
-10.0459458378
 21
13.3582664881
  0
LINE
  5
3C3
100
AcDbEntity
  8
ASSI
100
AcDbLine
 62
7
  6
CONTINUOUS
 10
-9.9966698923
 20
13.2934666647
 11
-9.9411165124
 21
13.2200985724
  0
LINE
  5
3C4
100
AcDbEntity
  8
0
100
AcDbLine
 62
7
  6
CONTINUOUS
 10
-9.8841002372
 20
13.1444510062
 11
-9.9648697255
 21
13.2515096606
  0
LINE
  5
3C5
100
AcDbEntity
  8
ASSI
100
AcDbLine
 62
7
  6
CONTINUOUS
 10
-9.9411165124
 20
13.2200985724
 11
-9.8841002372
 21
13.1444510062
  0
LINE
  5
3C6
100
AcDbEntity
  8
0
100
AcDbLine
 62
7
  6
CONTINUOUS
 10
-9.1146749592
 20
12.0843177401
 11
-9.3630786966
 21
12.4364285889
  0
LINE
  5
3C7
100
AcDbEntity
  8
ASSI
100
AcDbLine
 62
7
  6
CONTINUOUS
 10
-9.1146749592
 20
12.0843177401
 11
-9.3630786966
 21
12.4364285889
  0
LWPOLYLINE
  5
3C8
100
AcDbEntity
  8
ASSI
100
AcDbPolyline
 62
7
  6
CONTINUOUS
 90
3
 70
0
 10
-9.9868256
 20
13.2804897882
 10
-9.9742981347
 20
13.2626110295
 10
-9.9630933998
 20
13.2441509428
  0
LWPOLYLINE
  5
3C9
100
AcDbEntity
  8
RACCORDO
100
AcDbPolyline
 62
250
  6
CONTINUOUS
 90
10
 70
0
 10
-9.5739950396
 20
11.6585676247
 10
-9.5938406473
 20
11.6875502302
 10
-9.6147809751
 20
11.715078042
 10
-9.6367058568
 20
11.7410157813
 10
-9.6595062533
 20
11.7652258394
 10
-9.6830704864
 20
11.7875825909
 10
-9.707276131
 20
11.807985945
 10
-9.7319994249
 20
11.8263334914
 10
-9.7571171131
 20
11.8425169524
 10
-9.7824953642
 20
11.8564467218
  0
LWPOLYLINE
  5
3CA
100
AcDbEntity
  8
0
100
AcDbPolyline
 62
7
  6
CONTINUOUS
 90
7
 70
0
 10
-9.0230168681
 20
10.973564898
 10
-9.478220616
 20
11.6400438526
 10
-9.4850578716
 20
11.6507296199
 10
-9.4914548203
 20
11.6613423169
 10
-9.4974255495
 20
11.6718588226
 10
-9.5029845187
 20
11.682257457
 10
-9.5081464574
 20
11.6925179995
  0
LWPOLYLINE
  5
3CB
100
AcDbEntity
  8
RACCORDO
100
AcDbPolyline
 62
250
  6
CONTINUOUS
 90
10
 70
0
 10
-9.7974331447
 20
11.5156017999
 10
-9.8090071992
 20
11.5334040556
 10
-9.8211612096
 20
11.5501373275
 10
-9.8338951758
 20
11.5658016154
 10
-9.8472862623
 20
11.5804673187
 10
-9.8612573046
 20
11.5940640382
 10
-9.8755768092
 20
11.6063805757
 10
-9.8901676118
 20
11.6173465321
 10
-9.9051068768
 20
11.6270323067
 10
-9.9203946041
 20
11.6354378993
  0
LWPOLYLINE
  5
3CC
100
AcDbEntity
  8
0
100
AcDbPolyline
 62
7
  6
CONTINUOUS
 90
4
 70
0
 10
-7.9943884624
 20
9.3607929847
 10
-8.1602026531
 20
9.6340630873
 10
-8.5861079368
 20
10.3084827451
 10
-9.0230168681
 20
10.973564898
  0
LWPOLYLINE
  5
3CD
100
AcDbEntity
  8
RACCORDO
100
AcDbPolyline
 62
250
  6
CONTINUOUS
 90
7
 70
0
 10
-9.079728278
 20
14.5591255941
 10
-9.0903937731
 20
14.578499581
 10
-9.1047788205
 20
14.6001450601
 10
-9.1206874353
 20
14.6201497424
 10
-9.1378474165
 20
14.6381713421
 10
-9.1559651521
 20
14.6539015047
 10
-9.1747306427
 20
14.6670710827
  0
LWPOLYLINE
  5
3CE
100
AcDbEntity
  8
ASSI
100
AcDbPolyline
 62
7
  6
CONTINUOUS
 90
4
 70
0
 10
-8.5003697856
 20
17.8088457769
 10
-8.4635580816
 20
17.7347191096
 10
-8.4181785363
 20
17.6616931411
 10
-8.3643892919
 20
17.5900055923
  0
LINE
  5
3CF
100
AcDbEntity
  8
0
100
AcDbLine
 62
7
  6
CONTINUOUS
 10
-6.9117250377
 20
17.3566348622
 11
-6.7921317393
 21
17.0030622765
  0
LWPOLYLINE
  5
3D0
100
AcDbEntity
  8
RACCORDO
100
AcDbPolyline
 62
7
  6
CONTINUOUS
 90
12
 70
0
 10
-4.3545057231
 20
17.3528354741
 10
-4.3559636967
 20
17.3659975362
 10
-4.3583698679
 20
17.3784360647
 10
-4.3617242367
 20
17.3901510595
 10
-4.3660745988
 20
17.4012619453
 10
-4.3713731585
 20
17.4116492975
 10
-4.3774765287
 20
17.4209548423
 10
-4.3843832947
 20
17.429094715
 10
-4.3920948712
 20
17.4361527803
 10
-4.4004721143
 20
17.4420223579
 10
-4.4095109971
 20
17.4466966085
 10
-4.4167718507
 20
17.4494392756
  0
LWPOLYLINE
  5
3D1
100
AcDbEntity
  8
ASSI
100
AcDbPolyline
 62
7
  6
CONTINUOUS
 90
3
 70
0
 10
0.9800169818
 20
18.1800322176
 10
0.9770604893
 20
18.2093143536
 10
0.9765873558
 20
18.225100318
  0
LWPOLYLINE
  5
3D2
100
AcDbEntity
  8
RACCORDO
100
AcDbPolyline
 62
250
  6
CONTINUOUS
 90
19
 70
0
 10
0.8362570993
 20
18.0515150398
 10
0.8373341848
 20
18.0361451939
 10
0.8394516175
 20
18.020362742
 10
0.8425873902
 20
18.0042969275
 10
0.846713793
 20
17.9880756831
 10
0.8517903205
 20
17.9718282418
 10
0.8577627601
 20
17.9556841146
 10
0.8645697734
 20
17.9397782348
 10
0.8721577789
 20
17.924215911
 10
0.8804791655
 20
17.9090783485
 10
0.8894634901
 20
17.8944819853
 10
0.8990444665
 20
17.8805267409
 10
0.9091851522
 20
17.867271006
 10
0.9198164825
 20
17.8548102769
 10
0.9308550503
 20
17.8432496912
 10
0.9422438383
 20
17.8326663854
 10
0.9539056958
 20
17.8231464059
 10
0.9657414352
 20
17.8147780416
 10
0.9776569164
 20
17.8076364305
  0
LWPOLYLINE
  5
3D3
100
AcDbEntity
  8
ASSI
100
AcDbPolyline
 62
250
  6
CONTINUOUS
 90
19
 70
0
 10
0.8362570993
 20
18.0515150398
 10
0.8373341848
 20
18.0361451939
 10
0.8394516175
 20
18.020362742
 10
0.8425873902
 20
18.0042969275
 10
0.846713793
 20
17.9880756831
 10
0.8517903205
 20
17.9718282418
 10
0.8577627601
 20
17.9556841146
 10
0.8645697734
 20
17.9397782348
 10
0.8721577789
 20
17.924215911
 10
0.8804791655
 20
17.9090783485
 10
0.8894634901
 20
17.8944819853
 10
0.8990444665
 20
17.8805267409
 10
0.9091851522
 20
17.867271006
 10
0.9198164825
 20
17.8548102769
 10
0.9308550503
 20
17.8432496912
 10
0.9422438383
 20
17.8326663854
 10
0.9539056958
 20
17.8231464059
 10
0.9657414352
 20
17.8147780416
 10
0.9776569164
 20
17.8076364305
  0
LWPOLYLINE
  5
3D4
100
AcDbEntity
  8
ASSI
100
AcDbPolyline
 62
7
  6
CONTINUOUS
 90
9
 70
0
 10
0.9765871992
 20
18.6621846129
 10
0.9725031991
 20
18.7259518228
 10
0.9601463479
 20
18.7893453911
 10
0.9395284578
 20
18.8510903859
 10
0.9108704072
 20
18.9099708904
 10
0.8746714495
 20
18.964722059
 10
0.8316500083
 20
19.0142221131
 10
0.7822723921
 20
19.0578567746
 10
0.72766592
 20
19.0945651262
  0
LINE
  5
3D5
100
AcDbEntity
  8
RACCORDO
100
AcDbLine
 62
7
  6
CONTINUOUS
 10
0.9765871992
 20
18.6621846129
 11
0.973961988
 21
18.7133515083
  0
LINE
  5
3D6
100
AcDbEntity
  8
RACCORDO
100
AcDbLine
 62
7
  6
CONTINUOUS
 10
0.9771771376
 20
18.2073875156
 11
0.9765873704
 21
18.225128003
  0
LWPOLYLINE
  5
3D7
100
AcDbEntity
  8
RACCORDO
100
AcDbPolyline
 62
250
  6
CONTINUOUS
 90
16
 70
0
 10
0.8362570993
 20
18.4885200202
 10
0.8349209578
 20
18.5350454768
 10
0.8296603576
 20
18.5829633567
 10
0.8205329127
 20
18.631748865
 10
0.8076385865
 20
18.6808677046
 10
0.7911185972
 20
18.7297819276
 10
0.7711538712
 20
18.7779558271
 10
0.7479630614
 20
18.8248618045
 10
0.7218001527
 20
18.869986147
 10
0.6929516805
 20
18.9128346544
 10
0.6617335921
 20
18.9529380515
 10
0.628487787
 20
18.9898571271
 10
0.593578372
 20
19.023187545
 10
0.5573876739
 20
19.0525642716
 10
0.5203120518
 20
19.077665574
 10
0.4827575566
 20
19.0982165436
  0
LWPOLYLINE
  5
3D8
100
AcDbEntity
  8
ASSI
100
AcDbPolyline
 62
250
  6
CONTINUOUS
 90
16
 70
0
 10
0.8362570993
 20
18.4885200202
 10
0.8349209578
 20
18.5350454768
 10
0.8296603576
 20
18.5829633567
 10
0.8205329127
 20
18.631748865
 10
0.8076385865
 20
18.6808677046
 10
0.7911185972
 20
18.7297819276
 10
0.7711538712
 20
18.7779558271
 10
0.7479630614
 20
18.8248618045
 10
0.7218001527
 20
18.869986147
 10
0.6929516805
 20
18.9128346544
 10
0.6617335921
 20
18.9529380515
 10
0.628487787
 20
18.9898571271
 10
0.593578372
 20
19.023187545
 10
0.5573876739
 20
19.0525642716
 10
0.5203120518
 20
19.077665574
 10
0.4827575566
 20
19.0982165436
  0
LINE
  5
3D9
100
AcDbEntity
  8
DRAFT
100
AcDbLine
 62
7
  6
CONTINUOUS
 10
0.3987172367
 20
14.1764693671
 11
0.3987172367
 21
13.3139913099
  0
LINE
  5
3DA
100
AcDbEntity
  8
ASSI
100
AcDbLine
 62
7
  6
CONTINUOUS
 10
0.3987172367
 20
14.1764693671
 11
0.3987172367
 21
13.3139913099
  0
LINE
  5
3DB
100
AcDbEntity
  8
RACCORDO
100
AcDbLine
 62
250
  6
CONTINUOUS
 10
0.8362570993
 20
18.4885200202
 11
0.8362570993
 21
18.0515150398
  0
LINE
  5
3DC
100
AcDbEntity
  8
ASSI
100
AcDbLine
 62
250
  6
CONTINUOUS
 10
0.8362570993
 20
18.4885200202
 11
0.8362570993
 21
18.0515150398
  0
LINE
  5
3DD
100
AcDbEntity
  8
RACCORDO
100
AcDbLine
 62
7
  6
CONTINUOUS
 10
0.9765871992
 20
18.6621846129
 11
0.9765871992
 21
18.2251796316
  0
LINE
  5
3DE
100
AcDbEntity
  8
ASSI
100
AcDbLine
 62
7
  6
CONTINUOUS
 10
0.9765871992
 20
18.6621846129
 11
0.9765871992
 21
18.2251796316
  0
LINE
  5
3DF
100
AcDbEntity
  8
0
100
AcDbLine
 62
7
  6
CONTINUOUS
 10
1.0077330705
 20
12.780554936
 11
1.0077330705
 21
12.3344998446
  0
LINE
  5
3E0
100
AcDbEntity
  8
DRAFT
100
AcDbLine
 62
7
  6
CONTINUOUS
 10
1.5311299297
 20
13.4991296873
 11
1.5311299297
 21
13.4123483406
  0
LINE
  5
3E1
100
AcDbEntity
  8
ASSI
100
AcDbLine
 62
7
  6
CONTINUOUS
 10
1.5311299297
 20
13.4991296873
 11
1.5311299297
 21
13.4123483406
  0
LINE
  5
3E2
100
AcDbEntity
  8
0
100
AcDbLine
 62
7
  6
CONTINUOUS
 10
1.5311299297
 20
12.6388691331
 11
1.5311299297
 21
12.3363735575
  0
LINE
  5
3E3
100
AcDbEntity
  8
0
100
AcDbLine
 62
7
  6
CONTINUOUS
 10
1.591953626
 20
12.6553343718
 11
1.591953626
 21
12.3389528575
  0
LINE
  5
3E4
100
AcDbEntity
  8
RACCORDO
100
AcDbLine
 62
250
  6
CONTINUOUS
 10
2.6363923887
 20
-19.1654656386
 11
2.6363923887
 21
-13.7872765943
  0
LINE
  5
3E5
100
AcDbEntity
  8
ASSI
100
AcDbLine
 62
250
  6
CONTINUOUS
 10
2.6363923887
 20
-19.1654656386
 11
2.6363923887
 21
-13.7872765943
  0
LINE
  5
3E6
100
AcDbEntity
  8
RACCORDO
100
AcDbLine
 62
7
  6
CONTINUOUS
 10
2.7767224886
 20
-18.9918010458
 11
2.7767224886
 21
-13.6136120017
  0
LINE
  5
3E7
100
AcDbEntity
  8
ASSI
100
AcDbLine
 62
7
  6
CONTINUOUS
 10
2.7767224886
 20
-18.9918010458
 11
2.7767224886
 21
-13.6136120017
  0
LWPOLYLINE
  5
3E8
100
AcDbEntity
  8
RACCORDO
100
AcDbPolyline
 62
250
  6
CONTINUOUS
 90
6
 70
0
 10
2.6363923887
 20
-13.7872765943
 10
2.6368981948
 20
-13.7414799238
 10
2.6399993868
 20
-13.6927920197
 10
2.6456959646
 20
-13.6412128821
 10
2.653821045
 20
-13.5863547772
 10
2.6645415114
 20
-13.5286054388
  0
LWPOLYLINE
  5
3E9
100
AcDbEntity
  8
ASSI
100
AcDbPolyline
 62
250
  6
CONTINUOUS
 90
6
 70
0
 10
2.6363923887
 20
-13.7872765943
 10
2.6368981948
 20
-13.7414799238
 10
2.6399993868
 20
-13.6927920197
 10
2.6456959646
 20
-13.6412128821
 10
2.653821045
 20
-13.5863547772
 10
2.6645415114
 20
-13.5286054388
  0
LINE
  5
3EA
100
AcDbEntity
  8
RACCORDO
100
AcDbLine
 62
7
  6
CONTINUOUS
 10
2.7767224665
 20
-13.6135619075
 11
2.7770691265
 21
-13.5932436529
  0
LWPOLYLINE
  5
3EB
100
AcDbEntity
  8
ASSI
100
AcDbPolyline
 62
7
  6
CONTINUOUS
 90
15
 70
0
 10
2.7767224745
 20
-13.6136342685
 10
2.7782367875
 20
-13.5703504902
 10
2.7841406978
 20
-13.5147086498
 10
2.7950570639
 20
-13.4537332221
 10
2.8113935361
 20
-13.3885840617
 10
2.8333106507
 20
-13.3206867904
 10
2.8604484439
 20
-13.252236199
 10
2.8924541444
 20
-13.18457895
 10
2.92868355
 20
-13.1192801357
 10
2.9677053904
 20
-13.0586338394
 10
3.0082991487
 20
-13.0038748057
 10
3.0494708924
 20
-12.9555732556
 10
3.0897404429
 20
-12.9145921172
 10
3.1277807617
 20
-12.8812294309
 10
3.1624902453
 20
-12.8553242565
  0
LWPOLYLINE
  5
3EC
100
AcDbEntity
  8
RACCORDO
100
AcDbPolyline
 62
250
  6
CONTINUOUS
 90
13
 70
0
 10
-6.4375470108
 20
3.9218448025
 10
-6.4181211895
 20
3.9130778084
 10
-6.3966713349
 20
3.9052787106
 10
-6.3735563603
 20
3.898578046
 10
-6.3491630476
 20
3.8930879722
 10
-6.3238996061
 20
3.888900396
 10
-6.2981888451
 20
3.8860854298
 10
-6.2724610318
 20
3.8846902081
 10
-6.2471467541
 20
3.8847381083
 10
-6.2226697413
 20
3.8862283493
 10
-6.1994396716
 20
3.8891360022
 10
-6.1778453201
 20
3.8934124193
 10
-6.1582481139
 20
3.8989860435
  0
LINE
  5
3ED
100
AcDbEntity
  8
RACCORDO
100
AcDbLine
 62
250
  6
CONTINUOUS
 10
-26.1400076488
 20
14.4527339138
 11
-11.3702941878
 21
7.0678771832
  0
LWPOLYLINE
  5
3EE
100
AcDbEntity
  8
ASSI
100
AcDbPolyline
 62
250
  6
CONTINUOUS
 90
7
 70
0
 10
-16.5606810537
 20
15.8619067132
 10
-16.5517183354
 20
15.8554504549
 10
-16.5422983962
 20
15.8491069693
 10
-16.5324230248
 20
15.8428853178
 10
-16.5220947209
 20
15.8367946642
 10
-16.5113167154
 20
15.8308442624
 10
-16.5000929906
 20
15.8250434431
  0
LWPOLYLINE
  5
3EF
100
AcDbEntity
  8
0
100
AcDbPolyline
 62
7
  6
CONTINUOUS
 90
3
 70
0
 10
-10.0459458378
 20
13.3582664881
 10
-10.0850769195
 20
13.4074506334
 10
-10.1254911282
 20
13.4539593702
  0
LWPOLYLINE
  5
3F0
100
AcDbEntity
  8
RACCORDO
100
AcDbPolyline
 62
7
  6
CONTINUOUS
 90
7
 70
0
 10
-5.4337389584
 20
12.173343482
 10
-5.439578229
 20
12.1807762056
 10
-5.4453462628
 20
12.1883642456
 10
-5.4510397337
 20
12.1961046062
 10
-5.4566554078
 20
12.2039940185
 10
-5.4621901526
 20
12.2120289364
 10
-5.467640946
 20
12.2202055325
  0
LWPOLYLINE
  5
3F1
100
AcDbEntity
  8
ASSI
100
AcDbPolyline
 62
7
  6
CONTINUOUS
 90
7
 70
0
 10
-5.4337389584
 20
12.173343482
 10
-5.439578229
 20
12.1807762056
 10
-5.4453462628
 20
12.1883642456
 10
-5.4510397337
 20
12.1961046062
 10
-5.4566554078
 20
12.2039940185
 10
-5.4621901526
 20
12.2120289364
 10
-5.467640946
 20
12.2202055325
  0
LINE
  5
3F2
100
AcDbEntity
  8
0
100
AcDbLine
 62
7
  6
CONTINUOUS
 10
-7.1745747435
 20
14.6432960361
 11
-7.2319545818
 21
14.7188575777
  0
LINE
  5
3F3
100
AcDbEntity
  8
ASSI
100
AcDbLine
 62
7
  6
CONTINUOUS
 10
-7.1745747435
 20
14.6432960361
 11
-7.2319545818
 21
14.7188575777
  0
LINE
  5
3F4
100
AcDbEntity
  8
0
100
AcDbLine
 62
7
  6
CONTINUOUS
 10
-7.117329034
 20
14.5675565245
 11
-7.1745747435
 21
14.6432960361
  0
LINE
  5
3F5
100
AcDbEntity
  8
ASSI
100
AcDbLine
 62
7
  6
CONTINUOUS
 10
-7.117329034
 20
14.5675565245
 11
-7.1745747435
 21
14.6432960361
  0
LINE
  5
3F6
100
AcDbEntity
  8
0
100
AcDbLine
 62
7
  6
CONTINUOUS
 10
-7.0602174533
 20
14.4916390429
 11
-7.117329034
 21
14.5675565245
  0
LINE
  5
3F7
100
AcDbEntity
  8
ASSI
100
AcDbLine
 62
7
  6
CONTINUOUS
 10
-7.0602174533
 20
14.4916390429
 11
-7.117329034
 21
14.5675565245
  0
LWPOLYLINE
  5
3F8
100
AcDbEntity
  8
RACCORDO
100
AcDbPolyline
 62
250
  6
CONTINUOUS
 90
15
 70
0
 10
-5.0653305166
 20
11.8785818102
 10
-5.0815846944
 20
11.9029125557
 10
-5.0980529586
 20
11.9257122678
 10
-5.1146140199
 20
11.9469747153
 10
-5.1311379338
 20
11.9666950672
 10
-5.1475496845
 20
11.9849322427
 10
-5.1638333933
 20
12.0017952397
 10
-5.1799175932
 20
12.0173244647
 10
-5.1957311399
 20
12.0315587176
 10
-5.2112764821
 20
12.0445950912
 10
-5.2265010516
 20
12.0564764011
 10
-5.2413631735
 20
12.0672546494
 10
-5.255895296
 20
12.0770272587
 10
-5.2700890694
 20
12.0858523397
 10
-5.2838930804
 20
12.0937609205
  0
LWPOLYLINE
  5
3F9
100
AcDbEntity
  8
ASSI
100
AcDbPolyline
 62
250
  6
CONTINUOUS
 90
15
 70
0
 10
-5.0653305166
 20
11.8785818102
 10
-5.0815846944
 20
11.9029125557
 10
-5.0980529586
 20
11.9257122678
 10
-5.1146140199
 20
11.9469747153
 10
-5.1311379338
 20
11.9666950672
 10
-5.1475496845
 20
11.9849322427
 10
-5.1638333933
 20
12.0017952397
 10
-5.1799175932
 20
12.0173244647
 10
-5.1957311399
 20
12.0315587176
 10
-5.2112764821
 20
12.0445950912
 10
-5.2265010516
 20
12.0564764011
 10
-5.2413631735
 20
12.0672546494
 10
-5.255895296
 20
12.0770272587
 10
-5.2700890694
 20
12.0858523397
 10
-5.2838930804
 20
12.0937609205
  0
LWPOLYLINE
  5
3FA
100
AcDbEntity
  8
RACCORDO
100
AcDbPolyline
 62
7
  6
CONTINUOUS
 90
10
 70
0
 10
-5.467640946
 20
12.2202055325
 10
-5.5888103712
 20
12.4042969909
 10
-5.7107671245
 20
12.5875802808
 10
-5.8335112059
 20
12.7700554022
 10
-5.9570503449
 20
12.9517337048
 10
-6.081376812
 20
13.1326038389
 10
-6.2064674193
 20
13.3126317553
 10
-6.3323144375
 20
13.4918061044
 10
-6.4589255958
 20
13.6701382359
 10
-6.5863008943
 20
13.8476281498
  0
LWPOLYLINE
  5
3FB
100
AcDbEntity
  8
ASSI
100
AcDbPolyline
 62
7
  6
CONTINUOUS
 90
10
 70
0
 10
-5.467640946
 20
12.2202055325
 10
-5.5888103712
 20
12.4042969909
 10
-5.7107671245
 20
12.5875802808
 10
-5.8335112059
 20
12.7700554022
 10
-5.9570503449
 20
12.9517337048
 10
-6.081376812
 20
13.1326038389
 10
-6.2064674193
 20
13.3126317553
 10
-6.3323144375
 20
13.4918061044
 10
-6.4589255958
 20
13.6701382359
 10
-6.5863008943
 20
13.8476281498
  0
LWPOLYLINE
  5
3FC
100
AcDbEntity
  8
SMUSSO
100
AcDbPolyline
 62
7
  6
CONTINUOUS
 90
3
 70
0
 10
-8.4635580816
 20
17.7347191096
 10
-8.4181785363
 20
17.6616931411
 10
-8.3643892919
 20
17.5900055923
  0
LINE
  5
3FD
100
AcDbEntity
  8
SMUSSO
100
AcDbLine
 62
250
  6
CONTINUOUS
 10
-8.1559941868
 20
19.6056094238
 11
-7.8023888034
 21
18.9955942806
  0
LINE
  5
3FE
100
AcDbEntity
  8
ASSI
100
AcDbLine
 62
250
  6
CONTINUOUS
 10
-8.1559941868
 20
19.6056094238
 11
-7.8023888034
 21
18.9955942806
  0
LINE
  5
3FF
100
AcDbEntity
  8
RACCORDO
100
AcDbLine
 62
7
  6
CONTINUOUS
 10
2.8980394731
 20
12.6012705142
 11
2.857983445
 21
13.130240018
  0
LINE
  5
400
100
AcDbEntity
  8
SMUSSO
100
AcDbLine
 62
7
  6
CONTINUOUS
 10
3.4366825254
 20
15.5509624962
 11
3.4366825254
 21
16.4848696922
  0
LINE
  5
401
100
AcDbEntity
  8
ASSI
100
AcDbLine
 62
7
  6
CONTINUOUS
 10
3.4366825254
 20
15.5509624962
 11
3.4366825254
 21
16.4848696922
  0
LWPOLYLINE
  5
402
100
AcDbEntity
  8
RACCORDO
100
AcDbPolyline
 62
250
  6
CONTINUOUS
 90
10
 70
0
 10
3.3190312682
 20
-12.5679364639
 10
3.3176951266
 20
-12.6119040424
 10
3.3124345265
 20
-12.6534881212
 10
3.3033070815
 20
-12.6922332728
 10
3.2904127553
 20
-12.7277151616
 10
3.273892766
 20
-12.7595451913
 10
3.25392804
 20
-12.7873747606
 10
3.2307372302
 20
-12.8108990809
 10
3.2045743216
 20
-12.8298605147
 10
3.1967732782
 20
-12.8343123067
  0
LWPOLYLINE
  5
403
100
AcDbEntity
  8
ASSI
100
AcDbPolyline
 62
250
  6
CONTINUOUS
 90
10
 70
0
 10
3.3190312682
 20
-12.5679364639
 10
3.3176951266
 20
-12.6119040424
 10
3.3124345265
 20
-12.6534881212
 10
3.3033070815
 20
-12.6922332728
 10
3.2904127553
 20
-12.7277151616
 10
3.273892766
 20
-12.7595451913
 10
3.25392804
 20
-12.7873747606
 10
3.2307372302
 20
-12.8108990809
 10
3.2045743216
 20
-12.8298605147
 10
3.1967732782
 20
-12.8343123067
  0
LWPOLYLINE
  5
404
100
AcDbEntity
  8
RACCORDO
100
AcDbPolyline
 62
7
  6
CONTINUOUS
 90
19
 70
0
 10
2.7770691265
 20
-13.5932436529
 10
2.7796828093
 20
-13.5524356989
 10
2.7852000995
 20
-13.5074941499
 10
2.7938391818
 20
-13.4594974279
 10
2.8057383974
 20
-13.4091311122
 10
2.8209783495
 20
-13.3569851144
 10
2.8394328122
 20
-13.3040601218
 10
2.8609469455
 20
-13.2510896723
 10
2.8853260893
 20
-13.198706242
 10
2.9122165505
 20
-13.1477247953
 10
2.9412591039
 20
-13.0987662119
 10
2.9720394249
 20
-13.052413138
 10
3.0039691246
 20
-13.0093592509
 10
3.0365773193
 20
-12.9699748893
 10
3.0692333113
 20
-12.9347196445
 10
3.100925521
 20
-12.904249121
 10
3.1310433091
 20
-12.8786077461
 10
3.1589314941
 20
-12.8577750131
 10
3.1834565287
 20
-12.8418931015
  0
LWPOLYLINE
  5
405
100
AcDbEntity
  8
RACCORDO
100
AcDbPolyline
 62
7
  6
CONTINUOUS
 90
3
 70
0
 10
2.7652628413
 20
-19.2059756736
 10
2.7744618643
 20
-19.0878947188
 10
2.7767145827
 20
-18.9917960803
  0
LWPOLYLINE
  5
406
100
AcDbEntity
  8
ASSI
100
AcDbPolyline
 62
7
  6
CONTINUOUS
 90
3
 70
0
 10
2.7514290633
 20
-19.3062405918
 10
2.7710911505
 20
-19.1428825641
 10
2.7767145821
 20
-18.9918084551
  0
LINE
  5
407
100
AcDbEntity
  8
RACCORDO
100
AcDbLine
 62
250
  6
CONTINUOUS
 10
2.6645415114
 20
-13.5286054388
 11
2.6783580128
 21
-13.4691280681
  0
LWPOLYLINE
  5
408
100
AcDbEntity
  8
ASSI
100
AcDbPolyline
 62
250
  6
CONTINUOUS
 90
3
 70
0
 10
2.6645415114
 20
-13.5286054388
 10
2.6783580128
 20
-13.4691280681
 10
2.6954418
 20
-13.4077873368
  0
LWPOLYLINE
  5
409
100
AcDbEntity
  8
RACCORDO
100
AcDbPolyline
 62
250
  6
CONTINUOUS
 90
13
 70
0
 10
-7.6619201205
 20
-10.5932773771
 10
-7.6815167928
 20
-10.6043016594
 10
-7.7031105947
 20
-10.6139375947
 10
-7.7263401434
 20
-10.6220239208
 10
-7.7508166809
 20
-10.6284253091
 10
-7.7761305805
 20
-10.6330346294
 10
-7.8018582017
 20
-10.6357747423
 10
-7.8275689802
 20
-10.6365997907
 10
-7.8528326335
 20
-10.635495967
 10
-7.8772263621
 20
-10.6324817443
 10
-7.900341925
 20
-10.6276075671
 10
-7.9217924719
 20
-10.620955007
 10
-7.9412190175
 20
-10.612635398
  0
LWPOLYLINE
  5
40A
100
AcDbEntity
  8
RACCORDO
100
AcDbPolyline
 62
250
  6
CONTINUOUS
 90
9
 70
0
 10
-10.3022046828
 20
10.943508139
 10
-10.3415397035
 20
10.9606497538
 10
-10.3804250829
 20
10.9725471139
 10
-10.4184357327
 20
10.9790774682
 10
-10.455143448
 20
10.9801776146
 10
-10.4901639437
 20
10.9758469469
 10
-10.5231539982
 20
10.9661264462
 10
-10.553767083
 20
10.9511003993
 10
-10.5592514397
 20
10.9476788445
  0
LINE
  5
40B
100
AcDbEntity
  8
RACCORDO
100
AcDbLine
 62
7
  6
CONTINUOUS
 10
-21.9120185298
 20
16.3196080184
 11
-6.9918500675
 21
8.8595237873
  0
LINE
  5
40C
100
AcDbEntity
  8
RACCORDO
100
AcDbLine
 62
250
  6
CONTINUOUS
 10
-9.9203946041
 20
11.6354378993
 11
-17.5325227436
 21
15.4415019691
  0
LINE
  5
40D
100
AcDbEntity
  8
0
100
AcDbLine
 62
250
  6
CONTINUOUS
 10
-21.0540907676
 20
17.4208902063
 11
-17.5961918286
 21
15.6919407368
  0
LINE
  5
40E
100
AcDbEntity
  8
0
100
AcDbLine
 62
250
  6
CONTINUOUS
 10
-6.0062474775
 20
9.8969685612
 11
-9.4709294469
 21
11.6293095459
  0
LINE
  5
40F
100
AcDbEntity
  8
ASSI
100
AcDbLine
 62
7
  6
CONTINUOUS
 10
-16.4902174031
 20
15.2695990171
 11
-16.4476838818
 21
15.2456387158
  0
LINE
  5
410
100
AcDbEntity
  8
0
100
AcDbLine
 62
7
  6
CONTINUOUS
 10
-10.3451279314
 20
13.6448998402
 11
-10.3907191831
 21
13.6731479956
  0
LWPOLYLINE
  5
411
100
AcDbEntity
  8
ASSI
100
AcDbPolyline
 62
250
  6
CONTINUOUS
 90
7
 70
0
 10
-16.3999588622
 20
16.0885646579
 10
-16.3946581517
 20
16.0847093376
 10
-16.3890542791
 20
16.0809175631
 10
-16.3831472445
 20
16.0771893344
 10
-16.3769370479
 20
16.0735246515
 10
-16.3704236892
 20
16.0699235143
 10
-16.3636071685
 20
16.066385923
  0
LINE
  5
412
100
AcDbEntity
  8
ASSI
100
AcDbLine
 62
7
  6
CONTINUOUS
 10
-5.2987614168
 20
12.0401212395
 11
-5.3092846677
 21
12.0487905266
  0
LWPOLYLINE
  5
413
100
AcDbEntity
  8
RACCORDO
100
AcDbPolyline
 62
7
  6
CONTINUOUS
 90
4
 70
0
 10
-5.2987395796
 20
12.0401034904
 10
-5.3092846677
 20
12.0487905266
 10
-5.3324543934
 20
12.0686038536
 10
-5.3547433787
 20
12.088728307
  0
LWPOLYLINE
  5
414
100
AcDbEntity
  8
ASSI
100
AcDbPolyline
 62
7
  6
CONTINUOUS
 90
6
 70
0
 10
-5.3092846677
 20
12.0487905266
 10
-5.3324543934
 20
12.0686038536
 10
-5.3547433787
 20
12.088728307
 10
-5.3760287589
 20
12.1092553423
 10
-5.3962694818
 20
12.1302154378
 10
-5.4155062707
 20
12.1515781442
  0
LWPOLYLINE
  5
415
100
AcDbEntity
  8
RACCORDO
100
AcDbPolyline
 62
7
  6
CONTINUOUS
 90
4
 70
0
 10
-5.3547433787
 20
12.088728307
 10
-5.3760287589
 20
12.1092553423
 10
-5.3962694818
 20
12.1302154378
 10
-5.4155062707
 20
12.1515781442
  0
LWPOLYLINE
  5
416
100
AcDbEntity
  8
SMUSSO
100
AcDbPolyline
 62
7
  6
CONTINUOUS
 90
3
 70
0
 10
-8.3643892919
 20
17.5900055923
 10
-8.3023462003
 20
17.5198505612
 10
-8.2654221711
 20
17.4838244337
  0
LINE
  5
417
100
AcDbEntity
  8
ASSI
100
AcDbLine
 62
7
  6
CONTINUOUS
 10
-8.3643892919
 20
17.5900055923
 11
-8.3023462003
 21
17.5198505612
  0
LINE
  5
418
100
AcDbEntity
  8
RACCORDO
100
AcDbLine
 62
7
  6
CONTINUOUS
 10
-5.4155062707
 20
12.1515781442
 11
-5.4337389584
 21
12.173343482
  0
LINE
  5
419
100
AcDbEntity
  8
ASSI
100
AcDbLine
 62
7
  6
CONTINUOUS
 10
-5.4155062707
 20
12.1515781442
 11
-5.4337389584
 21
12.173343482
  0
LWPOLYLINE
  5
41A
100
AcDbEntity
  8
ASSI
100
AcDbPolyline
 62
250
  6
CONTINUOUS
 90
8
 70
0
 10
-0.1385277263
 20
11.3984143616
 10
-0.0543899535
 20
11.2696789461
 10
0.0313538362
 20
11.1495832688
 10
0.119168324
 20
11.0382966594
 10
0.2086958787
 20
10.9357314752
 10
0.2987584175
 20
10.8415438764
 10
0.3893544394
 20
10.7556627422
 10
0.4805820834
 20
10.6782251178
  0
LWPOLYLINE
  5
41B
100
AcDbEntity
  8
SMUSSO
100
AcDbPolyline
 62
7
  6
CONTINUOUS
 90
3
 70
0
 10
-1.4258102001
 20
13.1401071188
 10
-1.3804306548
 20
13.0670811503
 10
-1.3266414103
 20
12.9953936015
  0
LINE
  5
41C
100
AcDbEntity
  8
RACCORDO
100
AcDbLine
 62
7
  6
CONTINUOUS
 10
-0.1405470137
 20
11.8465293535
 11
-0.1781644596
 21
11.9075918417
  0
LWPOLYLINE
  5
41D
100
AcDbEntity
  8
RACCORDO
100
AcDbPolyline
 62
250
  6
CONTINUOUS
 90
22
 70
0
 10
-0.2211163456
 20
11.5357440741
 10
-0.1385277263
 20
11.3984143616
 10
-0.0543899535
 20
11.2696789461
 10
0.0313538362
 20
11.1495832688
 10
0.119168324
 20
11.0382966594
 10
0.2086958787
 20
10.9357314752
 10
0.2987584175
 20
10.8415438764
 10
0.3893544394
 20
10.7556627422
 10
0.4805820834
 20
10.6782251178
 10
0.5714134652
 20
10.6091972498
 10
0.6620395514
 20
10.5485522446
 10
0.7523547583
 20
10.4963695938
 10
0.8408885664
 20
10.4527743395
 10
0.9277083454
 20
10.4180031366
 10
1.0128200309
 20
10.3918600179
 10
1.0946599885
 20
10.3738190128
 10
1.1729652705
 20
10.3641301387
 10
1.2480491397
 20
10.3625683743
 10
1.3192051235
 20
10.3678906413
 10
1.386204549
 20
10.3796853168
 10
1.4492983428
 20
10.398373218
 10
1.5084923561
 20
10.4239560817
  0
LINE
  5
41E
100
AcDbEntity
  8
ASSI
100
AcDbLine
 62
250
  6
CONTINUOUS
 10
-0.2211163456
 20
11.5357440741
 11
-0.1385277263
 21
11.3984143616
  0
LINE
  5
41F
100
AcDbEntity
  8
ASSI
100
AcDbLine
 62
7
  6
CONTINUOUS
 10
-0.1405512515
 20
11.8465367431
 11
-0.1632246238
 21
11.8843996167
  0
LINE
  5
420
100
AcDbEntity
  8
RACCORDO
100
AcDbLine
 62
250
  6
CONTINUOUS
 10
-0.351130217
 20
11.7647107083
 11
-0.3076512714
 21
11.6884857811
  0
LINE
  5
421
100
AcDbEntity
  8
ASSI
100
AcDbLine
 62
250
  6
CONTINUOUS
 10
-0.351130217
 20
11.7647107083
 11
-0.3076512714
 21
11.6884857811
  0
LINE
  5
422
100
AcDbEntity
  8
RACCORDO
100
AcDbLine
 62
250
  6
CONTINUOUS
 10
-0.3076512714
 20
11.6884857811
 11
-0.2643131701
 21
11.6121633156
  0
LINE
  5
423
100
AcDbEntity
  8
ASSI
100
AcDbLine
 62
250
  6
CONTINUOUS
 10
-0.3076512714
 20
11.6884857811
 11
-0.2643131701
 21
11.6121633156
  0
LINE
  5
424
100
AcDbEntity
  8
RACCORDO
100
AcDbLine
 62
7
  6
CONTINUOUS
 10
-0.0544512507
 20
11.6952397283
 11
-0.1405515771
 21
11.8465277607
  0
LINE
  5
425
100
AcDbEntity
  8
ASSI
100
AcDbLine
 62
7
  6
CONTINUOUS
 10
-0.0544512507
 20
11.6952397283
 11
-0.1405515771
 21
11.8465277607
  0
LINE
  5
426
100
AcDbEntity
  8
RACCORDO
100
AcDbLine
 62
250
  6
CONTINUOUS
 10
-0.2643131701
 20
11.6121633156
 11
-0.2211163456
 21
11.5357440741
  0
LINE
  5
427
100
AcDbEntity
  8
ASSI
100
AcDbLine
 62
250
  6
CONTINUOUS
 10
-0.2643131701
 20
11.6121633156
 11
-0.2211163456
 21
11.5357440741
  0
LINE
  5
428
100
AcDbEntity
  8
RACCORDO
100
AcDbLine
 62
7
  6
CONTINUOUS
 10
-0.0116115806
 20
11.6194523269
 11
-0.0544512507
 21
11.6952397283
  0
LINE
  5
429
100
AcDbEntity
  8
ASSI
100
AcDbLine
 62
7
  6
CONTINUOUS
 10
-0.0116115484
 20
11.6194522697
 11
-0.0544512507
 21
11.6952397283
  0
LWPOLYLINE
  5
42A
100
AcDbEntity
  8
ASSI
100
AcDbPolyline
 62
7
  6
CONTINUOUS
 90
4
 70
0
 10
-1.4626219041
 20
13.2142337861
 10
-1.4258102001
 20
13.1401071188
 10
-1.3804306548
 20
13.0670811503
 10
-1.3266414103
 20
12.9953936015
  0
LINE
  5
42B
100
AcDbEntity
  8
0
100
AcDbLine
 62
7
  6
CONTINUOUS
 10
0.5022634883
 20
12.5383149803
 11
0.3007641304
 21
13.1340394061
  0
LWPOLYLINE
  5
42C
100
AcDbEntity
  8
RACCORDO
100
AcDbPolyline
 62
7
  6
CONTINUOUS
 90
10
 70
0
 10
0.973961988
 20
18.7133515083
 10
0.9660372605
 20
18.7643534175
 10
0.9528106175
 20
18.8145370197
 10
0.9344029303
 20
18.8631939327
 10
0.9109946716
 20
18.9097530585
 10
0.8827399988
 20
18.9538006333
 10
0.8497820216
 20
18.9949391812
 10
0.8125848145
 20
19.0324623482
 10
0.7718288883
 20
19.0657095129
 10
0.7278500859
 20
19.0944657043
  0
LWPOLYLINE
  5
42D
100
AcDbEntity
  8
RACCORDO
100
AcDbPolyline
 62
7
  6
CONTINUOUS
 90
12
 70
0
 10
2.857983445
 20
13.130240018
 10
2.8565254714
 20
13.1434020801
 10
2.8541193002
 20
13.1558406085
 10
2.8507649314
 20
13.1675556034
 10
2.8464145693
 20
13.1786664892
 10
2.8411160096
 20
13.1890538414
 10
2.8350126394
 20
13.1983593861
 10
2.8281058734
 20
13.2064992589
 10
2.8203942969
 20
13.2135573242
 10
2.8120170538
 20
13.2194269017
 10
2.8029781711
 20
13.2241011524
 10
2.7957173174
 20
13.2268438195
  0
LWPOLYLINE
  5
42E
100
AcDbEntity
  8
RACCORDO
100
AcDbPolyline
 62
250
  6
CONTINUOUS
 90
7
 70
0
 10
10.1824110838
 20
10.7403756148
 10
10.1809016393
 20
10.7253474056
 10
10.1747221033
 20
10.7066329567
 10
10.1638684846
 20
10.6884580563
 10
10.1485143338
 20
10.6711133228
 10
10.1289051652
 20
10.6548761004
 10
10.1053545315
 20
10.6400060239
  0
LWPOLYLINE
  5
42F
100
AcDbEntity
  8
ASSI
100
AcDbPolyline
 62
250
  6
CONTINUOUS
 90
7
 70
0
 10
10.1824110838
 20
10.7403756148
 10
10.1809016393
 20
10.7253474056
 10
10.1747221033
 20
10.7066329567
 10
10.1638684846
 20
10.6884580563
 10
10.1485143338
 20
10.6711133228
 10
10.1289051652
 20
10.6548761004
 10
10.1053545315
 20
10.6400060239
  0
LWPOLYLINE
  5
430
100
AcDbEntity
  8
ASSI
100
AcDbPolyline
 62
7
  6
CONTINUOUS
 90
9
 70
0
 10
10.1723204634
 20
8.6886464934
 10
10.1424345281
 20
8.4683671825
 10
10.0933653853
 20
8.2623256451
 10
10.0256481608
 20
8.0715482445
 10
9.9400915179
 20
7.8976664341
 10
9.8382028204
 20
7.7427817857
 10
9.7220916813
 20
7.6085967694
 10
9.5927526792
 20
7.4949602671
 10
9.4729738743
 20
7.4145814134
  0
LWPOLYLINE
  5
431
100
AcDbEntity
  8
RACCORDO
100
AcDbPolyline
 62
250
  6
CONTINUOUS
 90
12
 70
0
 10
2.6783580128
 20
-13.4691280681
 10
2.6954418
 20
-13.4077873368
 10
2.7156216223
 20
-13.3447185732
 10
2.7388843777
 20
-13.2814909634
 10
2.7653947391
 20
-13.2180969322
 10
2.7949880337
 20
-13.1545440548
 10
2.8271571407
 20
-13.0924242428
 10
2.8620365054
 20
-13.0318101965
 10
2.8994916825
 20
-12.9726292156
 10
2.9386122157
 20
-12.9162551102
 10
2.9794979776
 20
-12.8628250543
 10
3.0220490956
 20
-12.812201874
  0
LWPOLYLINE
  5
432
100
AcDbEntity
  8
ASSI
100
AcDbPolyline
 62
250
  6
CONTINUOUS
 90
10
 70
0
 10
2.6954418
 20
-13.4077873368
 10
2.7156216223
 20
-13.3447185732
 10
2.7388843777
 20
-13.2814909634
 10
2.7653947391
 20
-13.2180969322
 10
2.7949880337
 20
-13.1545440548
 10
2.8271571407
 20
-13.0924242428
 10
2.8620365054
 20
-13.0318101965
 10
2.8994916825
 20
-12.9726292156
 10
2.9386122157
 20
-12.9162551102
 10
2.9794979776
 20
-12.8628250543
  0
LWPOLYLINE
  5
433
100
AcDbEntity
  8
0
100
AcDbPolyline
 62
7
  6
CONTINUOUS
 90
3
 70
0
 10
-5.7587977976
 20
-24.186614691
 10
-5.7503981245
 20
-24.1740923614
 10
-5.7417537169
 20
-24.1616013765
  0
LWPOLYLINE
  5
434
100
AcDbEntity
  8
0
100
AcDbPolyline
 62
7
  6
CONTINUOUS
 90
7
 70
0
 10
-5.7587977976
 20
-24.186614691
 10
-5.7722084518
 20
-24.2060359517
 10
-5.7860038327
 20
-24.2249757494
 10
-5.8001839404
 20
-24.2434340841
 10
-5.8147487748
 20
-24.2614109559
 10
-5.829698336
 20
-24.2789063648
 10
-5.845032624
 20
-24.2959203107
  0
LWPOLYLINE
  5
435
100
AcDbEntity
  8
ASSI
100
AcDbPolyline
 62
7
  6
CONTINUOUS
 90
4
 70
0
 10
-10.9223086934
 20
12.4830969145
 10
-10.8705148197
 20
12.4617544005
 10
-10.8157464712
 20
12.4449317865
 10
-10.7581474443
 20
12.4324095991
  0
LWPOLYLINE
  5
436
100
AcDbEntity
  8
0
100
AcDbPolyline
 62
250
  6
CONTINUOUS
 90
10
 70
0
 10
-5.7587977976
 20
9.4701809949
 10
-5.7390075456
 20
9.4618615469
 10
-5.7166535653
 20
9.4553648844
 10
-5.6923999442
 20
9.4508841248
 10
-5.6669672236
 20
9.4485524978
 10
-5.6411111176
 20
9.4484393932
 10
-5.6156000622
 20
9.4505482568
 10
-5.5911921962
 20
9.4548164811
 10
-5.5686128326
 20
9.4611172969
 10
-5.5485330249
 20
9.4692635237
  0
LWPOLYLINE
  5
437
100
AcDbEntity
  8
RACCORDO
100
AcDbPolyline
 62
250
  6
CONTINUOUS
 90
9
 70
0
 10
-18.0803792759
 20
14.8325954355
 10
-18.1197142966
 20
14.8497370503
 10
-18.1585996759
 20
14.8616344104
 10
-18.1966103257
 20
14.8681647648
 10
-18.2333180411
 20
14.8692649111
 10
-18.2683385367
 20
14.8649342435
 10
-18.3013285913
 20
14.8552137427
 10
-18.3319416761
 20
14.8401876958
 10
-18.3374260327
 20
14.836766141
  0
LWPOLYLINE
  5
438
100
AcDbEntity
  8
RACCORDO
100
AcDbPolyline
 62
250
  6
CONTINUOUS
 90
10
 70
0
 10
-17.5325227436
 20
15.4415019691
 10
-17.5478859132
 20
15.4484281146
 10
-17.5631672047
 20
15.4538704201
 10
-17.578366618
 20
15.4578288856
 10
-17.5935660545
 20
15.4603132186
 10
-17.6086836128
 20
15.4613137116
 10
-17.6234735894
 20
15.4608012419
 10
-17.637854083
 20
15.4587661021
 10
-17.6519069948
 20
15.4552179997
 10
-17.665632325
 20
15.4501569346
  0
LWPOLYLINE
  5
439
100
AcDbEntity
  8
RACCORDO
100
AcDbPolyline
 62
250
  6
CONTINUOUS
 90
10
 70
0
 10
-17.3946235094
 20
15.662510938
 10
-17.4201363959
 20
15.6740367545
 10
-17.4456393654
 20
15.6831928421
 10
-17.4709961139
 20
15.689933495
 10
-17.4960724836
 20
15.6942375447
 10
-17.5207426181
 20
15.696081935
 10
-17.5448899846
 20
15.6954466122
 10
-17.5683952827
 20
15.692340608
 10
-17.5911316372
 20
15.6867823107
 10
-17.61297544
 20
15.6787888649
  0
LWPOLYLINE
  5
43A
100
AcDbEntity
  8
0
100
AcDbPolyline
 62
7
  6
CONTINUOUS
 90
3
 70
0
 10
-15.6337865369
 20
16.2965014731
 10
-15.6798203425
 20
16.3176985753
 10
-15.7254115942
 20
16.3350416716
  0
LWPOLYLINE
  5
43B
100
AcDbEntity
  8
ASSI
100
AcDbPolyline
 62
250
  6
CONTINUOUS
 90
7
 70
0
 10
-10.9846600973
 20
12.5963105441
 10
-10.9592480474
 20
12.5844291239
 10
-10.9331782367
 20
12.5737776828
 10
-10.9067160695
 20
12.5643132999
 10
-10.8801530574
 20
12.5559938438
 10
-10.8536616153
 20
12.5487451789
 10
-10.827279136
 20
12.5424780275
  0
LWPOLYLINE
  5
43C
100
AcDbEntity
  8
ASSI
100
AcDbPolyline
 62
250
  6
CONTINUOUS
 90
7
 70
0
 10
-10.8481742753
 20
13.3086694764
 10
-10.8412129326
 20
13.3053087832
 10
-10.8341008466
 20
13.302091593
 10
-10.8268380174
 20
13.2990179059
 10
-10.819424445
 20
13.2960877217
 10
-10.8118601292
 20
13.2933010405
 10
-10.8041450702
 20
13.2906578623
  0
LWPOLYLINE
  5
43D
100
AcDbEntity
  8
ASSI
100
AcDbPolyline
 62
250
  6
CONTINUOUS
 90
7
 70
0
 10
-10.9846600973
 20
13.0673269964
 10
-10.9732416398
 20
13.0618009392
 10
-10.9614810403
 20
13.0564699721
 10
-10.9493904987
 20
13.0513393197
 10
-10.9369825289
 20
13.0464140051
 10
-10.9242699461
 20
13.0416988456
 10
-10.9112658528
 20
13.037198448
  0
LINE
  5
43E
100
AcDbEntity
  8
ASSI
100
AcDbLine
 62
7
  6
CONTINUOUS
 10
-10.9332044868
 20
12.4883998556
 11
-10.9223086934
 21
12.4830969145
  0
LWPOLYLINE
  5
43F
100
AcDbEntity
  8
ASSI
100
AcDbPolyline
 62
250
  6
CONTINUOUS
 90
10
 70
0
 10
-10.8041450706
 20
13.2906583754
 10
-10.7945569743
 20
13.285978993
 10
-10.7850185193
 20
13.2806780001
 10
-10.7755470668
 20
13.2747473798
 10
-10.7661599046
 20
13.2681362146
 10
-10.7568748744
 20
13.2608597585
 10
-10.747739608
 20
13.2530247883
 10
-10.7388187117
 20
13.2446775672
 10
-10.7301680008
 20
13.2357814811
 10
-10.7218507947
 20
13.2263413457
  0
LINE
  5
440
100
AcDbEntity
  8
RACCORDO
100
AcDbLine
 62
250
  6
CONTINUOUS
 10
-9.7824955242
 20
11.8564577506
 11
-17.3946236637
 21
15.6625218204
  0
LINE
  5
441
100
AcDbEntity
  8
ASSI
100
AcDbLine
 62
7
  6
CONTINUOUS
 10
-16.4481143535
 20
15.2458522306
 11
-10.9326815025
 21
12.4881358052
  0
LINE
  5
442
100
AcDbEntity
  8
ASSI
100
AcDbLine
 62
250
  6
CONTINUOUS
 10
-16.5000929906
 20
15.3540269907
 11
-10.9846600973
 21
12.5963105441
  0
LINE
  5
443
100
AcDbEntity
  8
0
100
AcDbLine
 62
250
  6
CONTINUOUS
 10
-20.9498758577
 20
17.6028816869
 11
-17.2362285051
 21
15.7460580105
  0
LINE
  5
444
100
AcDbEntity
  8
0
100
AcDbLine
 62
250
  6
CONTINUOUS
 10
-5.9020325675
 20
10.0789600418
 11
-9.6222312822
 21
11.9390593991
  0
LINE
  5
445
100
AcDbEntity
  8
0
100
AcDbLine
 62
7
  6
CONTINUOUS
 10
-5.5045286952
 20
10.2792446081
 11
-10.1072070739
 21
12.5805837975
  0
LINE
  5
446
100
AcDbEntity
  8
0
100
AcDbLine
 62
7
  6
CONTINUOUS
 10
-16.6465396
 20
15.8502500605
 11
-20.5660108303
 21
17.8099856757
  0
LINE
  5
447
100
AcDbEntity
  8
ASSI
100
AcDbLine
 62
250
  6
CONTINUOUS
 10
-16.5000929906
 20
15.8250434431
 11
-10.9846600973
 21
13.0673269964
  0
LINE
  5
448
100
AcDbEntity
  8
ASSI
100
AcDbLine
 62
250
  6
CONTINUOUS
 10
-16.3636071685
 20
16.066385923
 11
-10.8481742753
 21
13.3086694764
  0
LINE
  5
449
100
AcDbEntity
  8
ASSI
100
AcDbLine
 62
7
  6
CONTINUOUS
 10
-15.8028257868
 20
16.3810210981
 11
-10.2677138858
 21
13.6134651476
  0
LINE
  5
44A
100
AcDbEntity
  8
0
100
AcDbLine
 62
7
  6
CONTINUOUS
 10
-10.4367529887
 20
13.697984699
 11
-15.6337865369
 21
16.2965014731
  0
LINE
  5
44B
100
AcDbEntity
  8
RACCORDO
100
AcDbLine
 62
250
  6
CONTINUOUS
 10
-5.2972834478
 20
12.1008012959
 11
-5.427519992
 21
12.165919568
  0
LINE
  5
44C
100
AcDbEntity
  8
ASSI
100
AcDbLine
 62
250
  6
CONTINUOUS
 10
-5.2972834478
 20
12.1008012959
 11
-5.4354647307
 21
12.1698919374
  0
LINE
  5
44D
100
AcDbEntity
  8
0
100
AcDbLine
 62
7
  6
CONTINUOUS
 10
-14.0700104855
 20
16.8293949253
 11
-9.3135232715
 21
14.4511513183
  0
LINE
  5
44E
100
AcDbEntity
  8
ASSI
100
AcDbLine
 62
7
  6
CONTINUOUS
 10
-14.0700104855
 20
16.8293949253
 11
-9.3135232715
 21
14.4511513183
  0
LINE
  5
44F
100
AcDbEntity
  8
RACCORDO
100
AcDbLine
 62
250
  6
CONTINUOUS
 10
-9.1938228054
 20
14.6774547411
 11
-13.4583401017
 21
16.8097133893
  0
LINE
  5
450
100
AcDbEntity
  8
RACCORDO
100
AcDbLine
 62
7
  6
CONTINUOUS
 10
-9.1043800863
 20
14.6831350986
 11
-13.3688973826
 21
16.8153937467
  0
LWPOLYLINE
  5
451
100
AcDbEntity
  8
RACCORDO
100
AcDbPolyline
 62
7
  6
CONTINUOUS
 90
4
 70
0
 10
-9.1044769461
 20
14.6831834411
 10
-9.1006690233
 20
14.681230895
 10
-9.079566913
 20
14.668400783
 10
-9.0756225594
 20
14.6655837898
  0
LWPOLYLINE
  5
452
100
AcDbEntity
  8
ASSI
100
AcDbPolyline
 62
250
  6
CONTINUOUS
 90
9
 70
0
 10
-16.3999588663
 20
16.0885643317
 10
-16.4086307349
 20
16.0930160772
 10
-16.4171275041
 20
16.0967335808
 10
-16.4254849251
 20
16.0997180255
 10
-16.4337858291
 20
16.1019512525
 10
-16.4419933213
 20
16.1034211466
 10
-16.449957478
 20
16.1041357236
 10
-16.4576406294
 20
16.1040901052
 10
-16.4651112286
 20
16.1032539676
  0
LINE
  5
453
100
AcDbEntity
  8
RACCORDO
100
AcDbLine
 62
250
  6
CONTINUOUS
 10
-5.2838930804
 20
12.0937609205
 11
-5.2972834486
 21
12.1008012364
  0
LINE
  5
454
100
AcDbEntity
  8
ASSI
100
AcDbLine
 62
250
  6
CONTINUOUS
 10
-5.2838930804
 20
12.0937609205
 11
-5.2972834486
 21
12.1008012364
  0
LINE
  5
455
100
AcDbEntity
  8
0
100
AcDbLine
 62
7
  6
CONTINUOUS
 10
-10.3907191831
 20
13.6731479956
 11
-10.4367529887
 21
13.697984699
  0
LINE
  5
456
100
AcDbEntity
  8
RACCORDO
100
AcDbLine
 62
250
  6
CONTINUOUS
 10
-9.1747306427
 20
14.6670710827
 11
-9.1938228054
 21
14.6774547411
  0
LWPOLYLINE
  5
457
100
AcDbEntity
  8
ASSI
100
AcDbPolyline
 62
7
  6
CONTINUOUS
 90
7
 70
0
 10
-10.2677138235
 20
13.6134651164
 10
-10.254222556
 20
13.6059752582
 10
-10.2409673243
 20
13.597024899
 10
-10.2279481283
 20
13.5866140388
 10
-10.215164968
 20
13.5747426777
 10
-10.2026178434
 20
13.5614108156
 10
-10.1903067546
 20
13.5466184526
  0
LWPOLYLINE
  5
458
100
AcDbEntity
  8
RACCORDO
100
AcDbPolyline
 62
7
  6
CONTINUOUS
 90
10
 70
0
 10
-5.0653276114
 20
11.8785840792
 10
-5.0952180435
 20
11.8974403724
 10
-5.1244389082
 20
11.9162563791
 10
-5.1529896569
 20
11.9350324838
 10
-5.1809034622
 20
11.9536979123
 10
-5.2081460283
 20
11.9723242462
 10
-5.234615824
 20
11.9911251921
 10
-5.2603144686
 20
12.0101266786
 10
-5.2852397412
 20
12.0293030954
 10
-5.2987395796
 20
12.0401034904
  0
LWPOLYLINE
  5
459
100
AcDbEntity
  8
ASSI
100
AcDbPolyline
 62
7
  6
CONTINUOUS
 90
10
 70
0
 10
-5.0653276114
 20
11.8785840792
 10
-5.0952180435
 20
11.8974403724
 10
-5.1244389082
 20
11.9162563791
 10
-5.1529896569
 20
11.9350324838
 10
-5.1809034622
 20
11.9536979123
 10
-5.2081460283
 20
11.9723242462
 10
-5.234615824
 20
11.9911251921
 10
-5.2603144686
 20
12.0101266786
 10
-5.2852397412
 20
12.0293030954
 10
-5.2987614168
 20
12.0401212395
  0
LINE
  5
45A
100
AcDbEntity
  8
RACCORDO
100
AcDbLine
 62
7
  6
CONTINUOUS
 10
-8.9881017211
 20
14.6014417744
 11
-9.0755979357
 21
14.6655657481
  0
LWPOLYLINE
  5
45B
100
AcDbEntity
  8
ASSI
100
AcDbPolyline
 62
250
  6
CONTINUOUS
 90
14
 70
0
 10
0.4805820834
 20
10.6782251178
 10
0.5714134652
 20
10.6091972498
 10
0.6620395514
 20
10.5485522446
 10
0.7523547583
 20
10.4963695938
 10
0.8408885664
 20
10.4527743395
 10
0.9277083454
 20
10.4180031366
 10
1.0128200309
 20
10.3918600179
 10
1.0946599885
 20
10.3738190128
 10
1.1729652705
 20
10.3641301387
 10
1.2480491397
 20
10.3625683743
 10
1.3192051235
 20
10.3678906413
 10
1.386204549
 20
10.3796853168
 10
1.4492983428
 20
10.398373218
 10
1.5084923561
 20
10.4239560817
  0
LINE
  5
45C
100
AcDbEntity
  8
RACCORDO
100
AcDbLine
 62
7
  6
CONTINUOUS
 10
-5.7091536845
 20
15.1423696418
 11
-5.3431578457
 21
14.8581339529
  0
LINE
  5
45D
100
AcDbEntity
  8
ASSI
100
AcDbLine
 62
7
  6
CONTINUOUS
 10
-5.7091536845
 20
15.1423696418
 11
-5.333449437
 21
14.8505943146
  0
LINE
  5
45E
100
AcDbEntity
  8
ASSI
100
AcDbLine
 62
7
  6
CONTINUOUS
 10
-0.2944353896
 20
12.0539046657
 11
-0.3724536836
 21
12.1277471984
  0
LINE
  5
45F
100
AcDbEntity
  8
ASSI
100
AcDbLine
 62
7
  6
CONTINUOUS
 10
-8.3023462003
 20
17.5198505612
 11
-8.2654221711
 21
17.4838244337
  0
LINE
  5
460
100
AcDbEntity
  8
ASSI
100
AcDbLine
 62
7
  6
CONTINUOUS
 10
-1.2645983188
 20
12.9252385704
 11
-1.2276742896
 21
12.8892124429
  0
LWPOLYLINE
  5
461
100
AcDbEntity
  8
ASSI
100
AcDbPolyline
 62
7
  6
CONTINUOUS
 90
4
 70
0
 10
-8.755818954
 20
17.8548572071
 10
-8.6727237166
 20
17.7736562459
 10
-8.5800477403
 20
17.6945473485
 10
-8.5000672716
 20
17.6336279233
  0
LWPOLYLINE
  5
462
100
AcDbEntity
  8
ASSI
100
AcDbPolyline
 62
7
  6
CONTINUOUS
 90
4
 70
0
 10
-1.7180710725
 20
13.2602452164
 10
-1.634975835
 20
13.1790442551
 10
-1.5422998587
 20
13.0999353577
 10
-1.46231939
 20
13.0390159325
  0
LINE
  5
463
100
AcDbEntity
  8
RACCORDO
100
AcDbLine
 62
7
  6
CONTINUOUS
 10
-0.2870521405
 20
12.0460508693
 11
-0.3491876264
 21
12.1073745074
  0
LWPOLYLINE
  5
464
100
AcDbEntity
  8
RACCORDO
100
AcDbPolyline
 62
250
  6
CONTINUOUS
 90
9
 70
0
 10
-0.4819166751
 20
12.207439679
 10
-0.4674443985
 20
12.1913635388
 10
-0.4573681638
 20
12.1687940656
 10
-0.4518209046
 20
12.1400290845
 10
-0.4508757931
 20
12.1054481888
 10
-0.4545452752
 20
12.0655077301
 10
-0.4627809072
 20
12.0207347972
 10
-0.4754739953
 20
11.9717202596
 10
-0.4924570303
 20
11.91911097
  0
LWPOLYLINE
  5
465
100
AcDbEntity
  8
SMUSSO
100
AcDbPolyline
 62
7
  6
CONTINUOUS
 90
3
 70
0
 10
-1.3266414103
 20
12.9953936015
 10
-1.2645983188
 20
12.9252385704
 10
-1.2276742896
 20
12.8892124429
  0
LINE
  5
466
100
AcDbEntity
  8
ASSI
100
AcDbLine
 62
7
  6
CONTINUOUS
 10
-1.3266414103
 20
12.9953936015
 11
-1.2645983188
 21
12.9252385704
  0
LINE
  5
467
100
AcDbEntity
  8
ASSI
100
AcDbLine
 62
7
  6
CONTINUOUS
 10
-0.2246927934
 20
11.9725791383
 11
-0.2944353896
 21
12.0539046657
  0
LWPOLYLINE
  5
468
100
AcDbEntity
  8
RACCORDO
100
AcDbPolyline
 62
7
  6
CONTINUOUS
 90
3
 70
0
 10
-0.1781644596
 20
11.9075918417
 10
-0.2299876399
 20
11.9793681357
 10
-0.2870521405
 20
12.0460508693
  0
LINE
  5
469
100
AcDbEntity
  8
ASSI
100
AcDbLine
 62
7
  6
CONTINUOUS
 10
-0.1632246238
 20
11.8843996167
 11
-0.2246927934
 21
11.9725791383
  0
LINE
  5
46A
100
AcDbEntity
  8
SMUSSO
100
AcDbLine
 62
250
  6
CONTINUOUS
 10
-1.1182463052
 20
15.010997433
 11
-0.7646409218
 21
14.4009822898
  0
LINE
  5
46B
100
AcDbEntity
  8
ASSI
100
AcDbLine
 62
250
  6
CONTINUOUS
 10
-1.1182463052
 20
15.010997433
 11
-0.7646409218
 21
14.4009822898
  0
LINE
  5
46C
100
AcDbEntity
  8
RACCORDO
100
AcDbLine
 62
7
  6
CONTINUOUS
 10
-3.6400808063
 20
21.0740720062
 11
-3.6338036849
 21
21.0632432306
  0
LINE
  5
46D
100
AcDbEntity
  8
ASSI
100
AcDbLine
 62
7
  6
CONTINUOUS
 10
-3.6400808063
 20
21.0740720062
 11
-3.6338036849
 21
21.0632432306
  0
LWPOLYLINE
  5
46E
100
AcDbEntity
  8
ASSI
100
AcDbPolyline
 62
7
  6
CONTINUOUS
 90
5
 70
0
 10
1.0309122128
 20
18.0186924465
 10
1.0117240379
 20
18.0628098725
 10
0.996861463
 20
18.1055683737
 10
0.9864414158
 20
18.1449831107
 10
0.9800169818
 20
18.1800322176
  0
LINE
  5
46F
100
AcDbEntity
  8
ASSI
100
AcDbLine
 62
7
  6
CONTINUOUS
 10
9.302064152
 20
12.2947411489
 11
9.2841239235
 21
12.4625478715
  0
LWPOLYLINE
  5
470
100
AcDbEntity
  8
ASSI
100
AcDbPolyline
 62
250
  6
CONTINUOUS
 90
4
 70
0
 10
10.0928910962
 20
10.9109957967
 10
10.0984180352
 20
10.8411348845
 10
10.1023125077
 20
10.772492358
 10
10.1046042826
 20
10.7054404854
  0
LINE
  5
471
100
AcDbEntity
  8
RACCORDO
100
AcDbLine
 62
7
  6
CONTINUOUS
 10
9.307124058
 20
12.1815508123
 11
9.2989661979
 21
12.3339883144
  0
LINE
  5
472
100
AcDbEntity
  8
ASSI
100
AcDbLine
 62
7
  6
CONTINUOUS
 10
10.1730909944
 20
10.9728833179
 11
10.1824110838
 21
10.7403756148
  0
LINE
  5
473
100
AcDbEntity
  8
ASSI
100
AcDbLine
 62
7
  6
CONTINUOUS
 10
9.3074967432
 20
12.1417259251
 11
9.302064152
 21
12.2947411489
  0
LWPOLYLINE
  5
474
100
AcDbEntity
  8
RACCORDO
100
AcDbPolyline
 62
250
  6
CONTINUOUS
 90
13
 70
0
 10
9.1671664189
 20
11.9683824772
 10
9.1650465982
 20
12.0667173634
 10
9.1584677687
 20
12.1669810468
 10
9.1474376438
 20
12.2688253984
 10
9.1319927474
 20
12.3719161621
 10
9.1121935215
 20
12.4759338313
 10
9.0881002856
 20
12.5805614796
 10
9.0597809866
 20
12.6854785229
 10
9.0273289731
 20
12.7903626968
 10
8.9908419788
 20
12.8948946022
 10
8.9504197071
 20
12.9987515716
 10
8.9061981704
 20
13.1015896766
 10
8.8583464209
 20
13.2030483666
  0
LWPOLYLINE
  5
475
100
AcDbEntity
  8
ASSI
100
AcDbPolyline
 62
250
  6
CONTINUOUS
 90
12
 70
0
 10
9.1671664189
 20
11.9683824772
 10
9.1650465982
 20
12.0667173634
 10
9.1584677687
 20
12.1669810468
 10
9.1474376438
 20
12.2688253984
 10
9.1319927474
 20
12.3719161621
 10
9.1121935215
 20
12.4759338313
 10
9.0881002856
 20
12.5805614796
 10
9.0597809866
 20
12.6854785229
 10
9.0273289731
 20
12.7903626968
 10
8.9908419788
 20
12.8948946022
 10
8.9504197071
 20
12.9987515716
 10
8.9061981704
 20
13.1015896766
  0
LINE
  5
476
100
AcDbEntity
  8
ASSI
100
AcDbLine
 62
250
  6
CONTINUOUS
 10
10.1046042826
 20
10.7054404854
 11
10.1053545315
 21
10.6400060239
  0
LINE
  5
477
100
AcDbEntity
  8
RACCORDO
100
AcDbLine
 62
7
  6
CONTINUOUS
 10
9.3074970016
 20
12.1418504809
 11
9.307124058
 21
12.1815508123
  0
LINE
  5
478
100
AcDbEntity
  8
RACCORDO
100
AcDbLine
 62
250
  6
CONTINUOUS
 10
9.167175741
 20
-9.4127283544
 11
9.167175741
 21
11.9683779773
  0
LINE
  5
479
100
AcDbEntity
  8
ASSI
100
AcDbLine
 62
250
  6
CONTINUOUS
 10
9.167175741
 20
-9.4127283544
 11
9.167175741
 21
11.9683779773
  0
LINE
  5
47A
100
AcDbEntity
  8
RACCORDO
100
AcDbLine
 62
7
  6
CONTINUOUS
 10
9.3075058408
 20
-9.2390637618
 11
9.3075058408
 21
12.1420425644
  0
LINE
  5
47B
100
AcDbEntity
  8
ASSI
100
AcDbLine
 62
7
  6
CONTINUOUS
 10
9.3075058408
 20
-9.2390637618
 11
9.3075058408
 21
12.1420425644
  0
LINE
  5
47C
100
AcDbEntity
  8
RACCORDO
100
AcDbLine
 62
250
  6
CONTINUOUS
 10
10.1053545315
 20
10.6400060239
 11
10.1053545315
 21
8.8213526759
  0
LINE
  5
47D
100
AcDbEntity
  8
ASSI
100
AcDbLine
 62
250
  6
CONTINUOUS
 10
10.1053545315
 20
10.6400060239
 11
10.1053545315
 21
8.8213526759
  0
LINE
  5
47E
100
AcDbEntity
  8
RACCORDO
100
AcDbLine
 62
7
  6
CONTINUOUS
 10
10.1824110838
 20
10.7403756148
 11
10.1824110838
 21
8.9217222669
  0
LINE
  5
47F
100
AcDbEntity
  8
ASSI
100
AcDbLine
 62
7
  6
CONTINUOUS
 10
10.1824110838
 20
10.7403756148
 11
10.1824110838
 21
8.9217222669
  0
LWPOLYLINE
  5
480
100
AcDbEntity
  8
RACCORDO
100
AcDbPolyline
 62
250
  6
CONTINUOUS
 90
21
 70
0
 10
10.1053545315
 20
8.8213526759
 10
10.1045986877
 20
8.756429197
 10
10.1023037931
 20
8.6917254259
 10
10.0984294974
 20
8.6273176572
 10
10.0929717506
 20
8.5636412166
 10
10.0858750107
 20
8.5004087376
 10
10.0769429474
 20
8.4366690825
 10
10.0660430805
 20
8.372487075
 10
10.0530679128
 20
8.3081010342
 10
10.0377128095
 20
8.2429384502
 10
10.0197992799
 20
8.1772537147
 10
9.9991370955
 20
8.1112771185
 10
9.975261529
 20
8.044547416
 10
9.9479080245
 20
7.9774333092
 10
9.9168135931
 20
7.9103398745
 10
9.8813581345
 20
7.8430639056
 10
9.8412027729
 20
7.7761795046
 10
9.7960085132
 20
7.710299269
 10
9.7449928269
 20
7.6455501666
 10
9.6875783191
 20
7.5826013151
 10
9.6235359099
 20
7.522578269
  0
LINE
  5
481
100
AcDbEntity
  8
ASSI
100
AcDbLine
 62
250
  6
CONTINUOUS
 10
10.1053545315
 20
8.8213526759
 11
10.1045986877
 21
8.756429197
  0
LWPOLYLINE
  5
482
100
AcDbEntity
  8
RACCORDO
100
AcDbPolyline
 62
250
  6
CONTINUOUS
 90
10
 70
0
 10
9.167175741
 20
-9.4127283544
 10
9.1658857572
 20
-9.4560920319
 10
9.160751991
 20
-9.4973070539
 10
9.1517831764
 20
-9.5359000973
 10
9.1390111394
 20
-9.5714625997
 10
9.122540647
 20
-9.6035102346
 10
9.1025971855
 20
-9.6315398955
 10
9.0794368416
 20
-9.6552112829
 10
9.0532875772
 20
-9.6743082664
 10
9.044917751
 20
-9.6791041973
  0
LWPOLYLINE
  5
483
100
AcDbEntity
  8
ASSI
100
AcDbPolyline
 62
250
  6
CONTINUOUS
 90
10
 70
0
 10
9.167175741
 20
-9.4127283544
 10
9.1658857572
 20
-9.4560920319
 10
9.160751991
 20
-9.4973070539
 10
9.1517831764
 20
-9.5359000973
 10
9.1390111394
 20
-9.5714625997
 10
9.122540647
 20
-9.6035102346
 10
9.1025971855
 20
-9.6315398955
 10
9.0794368416
 20
-9.6552112829
 10
9.0532875772
 20
-9.6743082664
 10
9.0449265571
 20
-9.6790994459
  0
LINE
  5
484
100
AcDbEntity
  8
RACCORDO
100
AcDbLine
 62
7
  6
CONTINUOUS
 10
10.1824110838
 20
8.9217222669
 11
10.1770954621
 21
8.751560228
  0
LWPOLYLINE
  5
485
100
AcDbEntity
  8
ASSI
100
AcDbPolyline
 62
250
  6
CONTINUOUS
 90
20
 70
0
 10
10.1045986877
 20
8.756429197
 10
10.1023037931
 20
8.6917254259
 10
10.0984294974
 20
8.6273176572
 10
10.0929717506
 20
8.5636412166
 10
10.0858750107
 20
8.5004087376
 10
10.0769429474
 20
8.4366690825
 10
10.0660430805
 20
8.372487075
 10
10.0530679128
 20
8.3081010342
 10
10.0377128095
 20
8.2429384502
 10
10.0197992799
 20
8.1772537147
 10
9.9991370955
 20
8.1112771185
 10
9.975261529
 20
8.044547416
 10
9.9479080245
 20
7.9774333092
 10
9.9168135931
 20
7.9103398745
 10
9.8813581345
 20
7.8430639056
 10
9.8412027729
 20
7.7761795046
 10
9.7960085132
 20
7.710299269
 10
9.7449928269
 20
7.6455501666
 10
9.6875783191
 20
7.5826013151
 10
9.6235359099
 20
7.522578269
  0
LINE
  5
486
100
AcDbEntity
  8
ASSI
100
AcDbLine
 62
7
  6
CONTINUOUS
 10
10.1824110838
 20
8.9217222669
 11
10.1723204634
 21
8.6886464934
  0
LWPOLYLINE
  5
487
100
AcDbEntity
  8
RACCORDO
100
AcDbPolyline
 62
7
  6
CONTINUOUS
 90
7
 70
0
 10
9.3075058408
 20
-9.2390637618
 10
9.3049069568
 20
-9.289974137
 10
9.2970608412
 20
-9.3407285643
 10
9.2839624241
 20
-9.39068541
 10
9.2657204282
 20
-9.4391621924
 10
9.2425110187
 20
-9.4855804627
 10
9.2145054399
 20
-9.5294967598
  0
LWPOLYLINE
  5
488
100
AcDbEntity
  8
ASSI
100
AcDbPolyline
 62
7
  6
CONTINUOUS
 90
9
 70
0
 10
9.3075058408
 20
-9.2390637618
 10
9.3034585754
 20
-9.3025448185
 10
9.2912169401
 20
-9.3656453671
 10
9.2707946174
 20
-9.4271156415
 10
9.2423930734
 20
-9.4857883787
 10
9.2065048187
 20
-9.5403938083
 10
9.16387815
 20
-9.5897755769
 10
9.1149673234
 20
-9.6333572257
 10
9.0608344572
 20
-9.6701323781
  0
LWPOLYLINE
  5
489
100
AcDbEntity
  8
RACCORDO
100
AcDbPolyline
 62
7
  6
CONTINUOUS
 90
13
 70
0
 10
10.1770954621
 20
8.751560228
 10
10.1612491517
 20
8.5875671034
 10
10.1350324235
 20
8.4303513231
 10
10.0985373386
 20
8.2802054853
 10
10.0520013009
 20
8.1380228923
 10
9.9960160136
 20
8.0051488139
 10
9.9311576447
 20
7.8822276897
 10
9.8577716836
 20
7.7693293391
 10
9.7763630893
 20
7.6668102559
 10
9.6877419443
 20
7.5752393763
 10
9.5923491769
 20
7.4946526114
 10
9.4901287065
 20
7.4248427779
 10
9.4718541236
 20
7.4139250851
  0
LWPOLYLINE
  5
48A
100
AcDbEntity
  8
RACCORDO
100
AcDbPolyline
 62
250
  6
CONTINUOUS
 90
7
 70
0
 10
10.1824110838
 20
8.9217222669
 10
10.1809016562
 20
8.9066941415
 10
10.1747221363
 20
8.8879796802
 10
10.1638685256
 20
8.8698047639
 10
10.1485143732
 20
8.8524600128
 10
10.1289051914
 20
8.8362227713
 10
10.1053545315
 20
8.8213526759
  0
LWPOLYLINE
  5
48B
100
AcDbEntity
  8
ASSI
100
AcDbPolyline
 62
250
  6
CONTINUOUS
 90
7
 70
0
 10
10.1824110838
 20
8.9217222669
 10
10.1809016562
 20
8.9066941415
 10
10.1747221363
 20
8.8879796802
 10
10.1638685256
 20
8.8698047639
 10
10.1485143732
 20
8.8524600128
 10
10.1289051914
 20
8.8362227713
 10
10.1053545315
 20
8.8213526759
  0
LWPOLYLINE
  5
48C
100
AcDbEntity
  8
RACCORDO
100
AcDbPolyline
 62
250
  6
CONTINUOUS
 90
3
 70
0
 10
9.3021420073
 20
-9.275584519
 10
9.3070425554
 20
-9.2498233012
 10
9.3075058408
 20
-9.2390637618
  0
LWPOLYLINE
  5
48D
100
AcDbEntity
  8
ASSI
100
AcDbPolyline
 62
250
  6
CONTINUOUS
 90
3
 70
0
 10
9.3021420073
 20
-9.275584519
 10
9.3070425554
 20
-9.2498233012
 10
9.3075058408
 20
-9.2390637618
  0
LWPOLYLINE
  5
48E
100
AcDbEntity
  8
RACCORDO
100
AcDbPolyline
 62
250
  6
CONTINUOUS
 90
9
 70
0
 10
2.4974540451
 20
-19.8450886671
 10
2.5296981505
 20
-19.7727302492
 10
2.5578342901
 20
-19.6962788663
 10
2.581770863
 20
-19.6159622262
 10
2.6014413149
 20
-19.5320308521
 10
2.61678494
 20
-19.444737609
 10
2.6277414888
 20
-19.3543389346
 10
2.634277251
 20
-19.2611344719
 10
2.6363839131
 20
-19.1654615451
  0
LWPOLYLINE
  5
48F
100
AcDbEntity
  8
ASSI
100
AcDbPolyline
 62
250
  6
CONTINUOUS
 90
9
 70
0
 10
2.4974540451
 20
-19.8450886671
 10
2.5296981505
 20
-19.7727302492
 10
2.5578342901
 20
-19.6962788663
 10
2.581770863
 20
-19.6159622262
 10
2.6014413149
 20
-19.5320308521
 10
2.61678494
 20
-19.444737609
 10
2.6277414888
 20
-19.3543389346
 10
2.634277251
 20
-19.2611344719
 10
2.6363839131
 20
-19.1654615451
  0
LINE
  5
490
100
AcDbEntity
  8
RACCORDO
100
AcDbLine
 62
250
  6
CONTINUOUS
 10
2.4611996139
 20
-19.9131348905
 11
2.4974540451
 21
-19.8450886671
  0
LINE
  5
491
100
AcDbEntity
  8
ASSI
100
AcDbLine
 62
250
  6
CONTINUOUS
 10
2.4611996139
 20
-19.9131348905
 11
2.4974540451
 21
-19.8450886671
  0
LWPOLYLINE
  5
492
100
AcDbEntity
  8
0
100
AcDbPolyline
 62
7
  6
CONTINUOUS
 90
3
 70
0
 10
-5.7417537169
 20
-24.1616013765
 10
-5.7154200551
 20
-24.1244859111
 10
-5.7066297879
 20
-24.1123283811
  0
LWPOLYLINE
  5
493
100
AcDbEntity
  8
0
100
AcDbPolyline
 62
7
  6
CONTINUOUS
 90
18
 70
0
 10
-5.7066297879
 20
-24.1123283811
 10
-5.689147586
 20
-24.0884826285
 10
-5.6804127067
 20
-24.0767931209
 10
-5.6716819651
 20
-24.0652471502
 10
-5.6629917978
 20
-24.0538664821
 10
-5.654241377
 20
-24.0426664139
 10
-5.6454371746
 20
-24.0315902091
 10
-5.6366327707
 20
-24.0206884839
 10
-5.6277974185
 20
-24.0101218735
 10
-5.6190057353
 20
-23.9998818325
 10
-5.6102501427
 20
-23.9899691945
 10
-5.6013885553
 20
-23.9805380616
 10
-5.5924338493
 20
-23.9714584718
 10
-5.5834824361
 20
-23.9628216863
 10
-5.5745408599
 20
-23.9550934747
 10
-5.5656677859
 20
-23.9484147552
 10
-5.556967647
 20
-23.9426088063
 10
-5.5485330248
 20
-23.9376637472
  0
LWPOLYLINE
  5
494
100
AcDbEntity
  8
RACCORDO
100
AcDbPolyline
 62
250
  6
CONTINUOUS
 90
13
 70
0
 10
-6.6070466924
 20
-24.467778508
 10
-6.5727727196
 20
-24.4227000136
 10
-6.5420537974
 20
-24.3737323457
 10
-6.5148899257
 20
-24.3208755045
 10
-6.4912021614
 20
-24.2639357257
 10
-6.4710694476
 20
-24.2031067735
 10
-6.4547286139
 20
-24.13896994
 10
-6.4422304457
 20
-24.071474571
 10
-6.4335241577
 20
-24.0006713205
 10
-6.4286942228
 20
-23.9272934433
 10
-6.4277687989
 20
-23.8515853575
 10
-6.4307197282
 20
-23.7733026448
 10
-6.4375470108
 20
-23.6924453053
  0
LWPOLYLINE
  5
495
100
AcDbEntity
  8
RACCORDO
100
AcDbPolyline
 62
250
  6
CONTINUOUS
 90
13
 70
0
 10
-6.3574218914
 20
-24.5397117725
 10
-6.3186626895
 20
-24.4893585331
 10
-6.2836449841
 20
-24.434395077
 10
-6.2525021837
 20
-24.3749848923
 10
-6.2253276232
 20
-24.3113034755
 10
-6.2021963374
 20
-24.2435439745
 10
-6.183188918
 20
-24.1719088224
 10
-6.1683661175
 20
-24.096596607
 10
-6.1577681207
 20
-24.0178273594
 10
-6.1514402517
 20
-23.9358412647
 10
-6.1494164832
 20
-23.8508731475
 10
-6.1516938427
 20
-23.7631883589
 10
-6.1582539282
 20
-23.6730842732
  0
LINE
  5
496
100
AcDbEntity
  8
ASSI
100
AcDbLine
 62
250
  6
CONTINUOUS
 10
2.9794979776
 20
-12.8628250543
 11
3.0220490956
 21
-12.812201874
  0
LINE
  5
497
100
AcDbEntity
  8
RACCORDO
100
AcDbLine
 62
250
  6
CONTINUOUS
 10
3.0220490956
 20
-12.812201874
 11
3.0650554957
 21
-12.7653478573
  0
LWPOLYLINE
  5
498
100
AcDbEntity
  8
ASSI
100
AcDbPolyline
 62
250
  6
CONTINUOUS
 90
8
 70
0
 10
3.0220490956
 20
-12.812201874
 10
3.0650554957
 20
-12.7653478573
 10
3.1085287609
 20
-12.7224861486
 10
3.1524573082
 20
-12.6833936036
 10
3.1955963149
 20
-12.6483630771
 10
3.2375308399
 20
-12.6174921875
 10
3.2786758244
 20
-12.5906833164
 10
3.3190312682
 20
-12.5679364639
  0
LWPOLYLINE
  5
499
100
AcDbEntity
  8
RACCORDO
100
AcDbPolyline
 62
250
  6
CONTINUOUS
 90
7
 70
0
 10
3.0650554957
 20
-12.7653478573
 10
3.1085287609
 20
-12.7224861486
 10
3.1524573082
 20
-12.6833936036
 10
3.1955963149
 20
-12.6483630771
 10
3.2375308399
 20
-12.6174921875
 10
3.2786758244
 20
-12.5906833164
 10
3.3190312682
 20
-12.5679364639
  0
LINE
  5
49A
100
AcDbEntity
  8
0
100
AcDbLine
 62
7
  6
CONTINUOUS
 10
1.591953626
 20
12.6553343718
 11
1.5311299297
 21
12.6388691331
  0
LWPOLYLINE
  5
49B
100
AcDbEntity
  8
ASSI
100
AcDbPolyline
 62
250
  6
CONTINUOUS
 90
7
 70
0
 10
-10.7012052505
 20
12.5237345734
 10
-10.6776860386
 20
12.5220868404
 10
-10.6548855392
 20
12.5210116002
 10
-10.632847395
 20
12.5204534298
 10
-10.6115209871
 20
12.5203655564
 10
-10.5909690007
 20
12.5207018085
 10
-10.5711955431
 20
12.521416034
  0
LWPOLYLINE
  5
49C
100
AcDbEntity
  8
ASSI
100
AcDbPolyline
 62
7
  6
CONTINUOUS
 90
5
 70
0
 10
-10.7581474443
 20
12.4324095991
 10
-10.6982928839
 20
12.4242283067
 10
-10.6376557181
 20
12.4205274983
 10
-10.5768725446
 20
12.4213036024
 10
-10.516616114
 20
12.4266219726
  0
LWPOLYLINE
  5
49D
100
AcDbEntity
  8
ASSI
100
AcDbPolyline
 62
250
  6
CONTINUOUS
 90
9
 70
0
 10
-10.5528025227
 20
12.8912128355
 10
-10.5974455829
 20
12.8984124447
 10
-10.6427898232
 20
12.9086988085
 10
-10.6884617021
 20
12.9221391482
 10
-10.7340730963
 20
12.938773772
 10
-10.7796037047
 20
12.958550503
 10
-10.8247159962
 20
12.9815105413
 10
-10.8687788146
 20
13.0077233684
 10
-10.9112658528
 20
13.037198448
  0
LWPOLYLINE
  5
49E
100
AcDbEntity
  8
ASSI
100
AcDbPolyline
 62
250
  6
CONTINUOUS
 90
6
 70
0
 10
-10.827279136
 20
12.5424780275
 10
-10.8011510584
 20
12.5371324908
 10
-10.775436471
 20
12.5326501461
 10
-10.7501456078
 20
12.5289612551
 10
-10.7253648347
 20
12.5260079052
 10
-10.7012052505
 20
12.5237345734
  0
LWPOLYLINE
  5
49F
100
AcDbEntity
  8
RACCORDO
100
AcDbPolyline
 62
7
  6
CONTINUOUS
 90
7
 70
0
 10
-13.3688723102
 20
16.8153812047
 10
-13.3924873722
 20
16.8253535863
 10
-13.4182052143
 20
16.8324384891
 10
-13.4449294145
 20
16.8360581856
 10
-13.4719309872
 20
16.8360457987
 10
-13.4987600124
 20
16.8323813019
 10
-13.5252250308
 20
16.8249928072
  0
LWPOLYLINE
  5
4A0
100
AcDbEntity
  8
ASSI
100
AcDbPolyline
 62
7
  6
CONTINUOUS
 90
3
 70
0
 10
-11.8855660843
 20
18.1267573241
 10
-11.9355448548
 20
18.1489473926
 10
-11.9977876758
 20
18.1697479883
  0
LWPOLYLINE
  5
4A1
100
AcDbEntity
  8
RACCORDO
100
AcDbPolyline
 62
250
  6
CONTINUOUS
 90
9
 70
0
 10
-12.1987629099
 20
18.1180767088
 10
-12.2267152584
 20
18.1308418452
 10
-12.2545296259
 20
18.1407640253
 10
-12.2820298192
 20
18.1477803959
 10
-12.3090416353
 20
18.1518465109
 10
-12.3353939648
 20
18.1529366131
 10
-12.3609198758
 20
18.1510437972
 10
-12.3854576714
 20
18.1461800534
 10
-12.4088519143
 20
18.1383761916
  0
LWPOLYLINE
  5
4A2
100
AcDbEntity
  8
ASSI
100
AcDbPolyline
 62
250
  6
CONTINUOUS
 90
10
 70
0
 10
-12.1987629099
 20
18.1180767088
 10
-12.2267152584
 20
18.1308418452
 10
-12.2545296259
 20
18.1407640253
 10
-12.2820298192
 20
18.1477803959
 10
-12.3090416353
 20
18.1518465109
 10
-12.3353939648
 20
18.1529366131
 10
-12.3609198758
 20
18.1510437972
 10
-12.3854576714
 20
18.1461800534
 10
-12.4088519143
 20
18.1383761916
 10
-12.4181699067
 20
18.1342945791
  0
LWPOLYLINE
  5
4A3
100
AcDbEntity
  8
RACCORDO
100
AcDbPolyline
 62
250
  6
CONTINUOUS
 90
13
 70
0
 10
-12.103254335
 20
18.1155968787
 10
-12.11076259
 20
18.1190283332
 10
-12.1184598815
 20
18.1218932588
 10
-12.1263462093
 20
18.1241916555
 10
-12.1344861117
 20
18.1259408382
 10
-12.1428150506
 20
18.1271234921
 10
-12.1511394118
 20
18.1276876716
 10
-12.1594627798
 20
18.1276125134
 10
-12.1677815702
 20
18.1269188809
 10
-12.1758914152
 20
18.1256174196
 10
-12.1837241922
 20
18.1237116781
 10
-12.1913480238
 20
18.1211981078
 10
-12.1987629099
 20
18.1180767088
  0
LWPOLYLINE
  5
4A4
100
AcDbEntity
  8
ASSI
100
AcDbPolyline
 62
250
  6
CONTINUOUS
 90
13
 70
0
 10
-12.103254335
 20
18.1155968787
 10
-12.11076259
 20
18.1190283332
 10
-12.1184598815
 20
18.1218932588
 10
-12.1263462093
 20
18.1241916555
 10
-12.1344861117
 20
18.1259408382
 10
-12.1428150506
 20
18.1271234921
 10
-12.1511394118
 20
18.1276876716
 10
-12.1594627798
 20
18.1276125134
 10
-12.1677815702
 20
18.1269188809
 10
-12.1758914152
 20
18.1256174196
 10
-12.1837241922
 20
18.1237116781
 10
-12.1913480238
 20
18.1211981078
 10
-12.1987629099
 20
18.1180767088
  0
LINE
  5
4A5
100
AcDbEntity
  8
RACCORDO
100
AcDbLine
 62
7
  6
CONTINUOUS
 10
-11.8856225881
 20
18.1267855935
 11
-11.9127230959
 21
18.1394754598
  0
LWPOLYLINE
  5
4A6
100
AcDbEntity
  8
ASSI
100
AcDbPolyline
 62
250
  6
CONTINUOUS
 90
11
 70
0
 10
0.7155856072
 20
10.8364174567
 10
0.7628928545
 20
10.8139399384
 10
0.8236110324
 20
10.7887537824
 10
0.8814118387
 20
10.7690069108
 10
0.9358780453
 20
10.7546386948
 10
0.9865893447
 20
10.7455635614
 10
1.0335500999
 20
10.7415349584
 10
1.0769704579
 20
10.7421543617
 10
1.1168084344
 20
10.7471535017
 10
1.1527724555
 20
10.7564063889
 10
1.1847181767
 20
10.7697110109
  0
LWPOLYLINE
  5
4A7
100
AcDbEntity
  8
RACCORDO
100
AcDbPolyline
 62
250
  6
CONTINUOUS
 90
11
 70
0
 10
0.7156046509
 20
10.8364079353
 10
0.7628928545
 20
10.8139399384
 10
0.8236110324
 20
10.7887537824
 10
0.8814118387
 20
10.7690069108
 10
0.9358780453
 20
10.7546386948
 10
0.9865893447
 20
10.7455635614
 10
1.0335500999
 20
10.7415349584
 10
1.0769704579
 20
10.7421543617
 10
1.1168084344
 20
10.7471535017
 10
1.1527724555
 20
10.7564063889
 10
1.1847181767
 20
10.7697110109
  0
LINE
  5
4A8
100
AcDbEntity
  8
0
100
AcDbLine
 62
7
  6
CONTINUOUS
 10
-11.2675028098
 20
16.0571127081
 11
-8.6595931924
 21
14.7531578994
  0
LINE
  5
4A9
100
AcDbEntity
  8
ASSI
100
AcDbLine
 62
7
  6
CONTINUOUS
 10
-11.2675028098
 20
16.0571127081
 11
-8.6595931924
 21
14.7531578994
  0
LINE
  5
4AA
100
AcDbEntity
  8
ASSI
100
AcDbLine
 62
7
  6
CONTINUOUS
 10
0.7154832514
 20
10.8364686389
 11
0.7155856072
 21
10.8364174567
  0
LINE
  5
4AB
100
AcDbEntity
  8
0
100
AcDbLine
 62
7
  6
CONTINUOUS
 10
-12.7904630842
 20
17.6428007529
 11
-12.6110056941
 21
17.5530720578
  0
LINE
  5
4AC
100
AcDbEntity
  8
ASSI
100
AcDbLine
 62
7
  6
CONTINUOUS
 10
-12.7904630842
 20
17.6428007529
 11
-12.6110056941
 21
17.5530720578
  0
LINE
  5
4AD
100
AcDbEntity
  8
0
100
AcDbLine
 62
7
  6
CONTINUOUS
 10
-7.802679582
 20
15.1489090018
 11
-7.6232221919
 21
15.0591803067
  0
LINE
  5
4AE
100
AcDbEntity
  8
ASSI
100
AcDbLine
 62
7
  6
CONTINUOUS
 10
-7.802679582
 20
15.1489090018
 11
-7.6232221919
 21
15.0591803067
  0
LINE
  5
4AF
100
AcDbEntity
  8
0
100
AcDbLine
 62
7
  6
CONTINUOUS
 10
-11.2675028098
 20
16.9473245593
 11
-6.8834407665
 21
14.7552935376
  0
LINE
  5
4B0
100
AcDbEntity
  8
ASSI
100
AcDbLine
 62
7
  6
CONTINUOUS
 10
-11.2675028098
 20
16.9473245593
 11
-6.8834407665
 21
14.7552935376
  0
LINE
  5
4B1
100
AcDbEntity
  8
RACCORDO
100
AcDbLine
 62
250
  6
CONTINUOUS
 10
0.2492867272
 20
11.2374267356
 11
1.1847181767
 21
10.7697110109
  0
LINE
  5
4B2
100
AcDbEntity
  8
ASSI
100
AcDbLine
 62
250
  6
CONTINUOUS
 10
0.2492867272
 20
11.2374267356
 11
1.1847181767
 21
10.7697110109
  0
LINE
  5
4B3
100
AcDbEntity
  8
0
100
AcDbLine
 62
7
  6
CONTINUOUS
 10
-10.8060973301
 20
17.1051738024
 11
-6.5677422804
 21
14.9859962775
  0
LINE
  5
4B4
100
AcDbEntity
  8
ASSI
100
AcDbLine
 62
7
  6
CONTINUOUS
 10
-10.8060973301
 20
17.1051738024
 11
-6.5677422804
 21
14.9859962775
  0
LINE
  5
4B5
100
AcDbEntity
  8
RACCORDO
100
AcDbLine
 62
250
  6
CONTINUOUS
 10
-2.6947942539
 20
13.4113668381
 11
-5.5213271688
 21
14.8246332955
  0
LINE
  5
4B6
100
AcDbEntity
  8
ASSI
100
AcDbLine
 62
250
  6
CONTINUOUS
 10
-2.6947942539
 20
13.4113668381
 11
-5.5213271688
 21
14.8246332955
  0
LINE
  5
4B7
100
AcDbEntity
  8
RACCORDO
100
AcDbLine
 62
250
  6
CONTINUOUS
 10
-10.0308037572
 20
17.0793715898
 11
-12.103254335
 21
18.1155968787
  0
LINE
  5
4B8
100
AcDbEntity
  8
ASSI
100
AcDbLine
 62
250
  6
CONTINUOUS
 10
-10.0308037572
 20
17.0793715898
 11
-12.103254335
 21
18.1155968787
  0
LINE
  5
4B9
100
AcDbEntity
  8
RACCORDO
100
AcDbLine
 62
7
  6
CONTINUOUS
 10
-9.7739044781
 20
17.0708218351
 11
-11.8858099265
 21
18.1267745593
  0
LINE
  5
4BA
100
AcDbEntity
  8
ASSI
100
AcDbLine
 62
7
  6
CONTINUOUS
 10
-9.7739044781
 20
17.0708218351
 11
-11.8858099265
 21
18.1267745593
  0
LINE
  5
4BB
100
AcDbEntity
  8
0
100
AcDbLine
 62
7
  6
CONTINUOUS
 10
-9.5512370747
 20
17.0634113368
 11
-5.7091536845
 21
15.1423696418
  0
LINE
  5
4BC
100
AcDbEntity
  8
ASSI
100
AcDbLine
 62
7
  6
CONTINUOUS
 10
-9.5512370747
 20
17.0634113368
 11
-5.7091536845
 21
15.1423696418
  0
LINE
  5
4BD
100
AcDbEntity
  8
0
100
AcDbLine
 62
7
  6
CONTINUOUS
 10
0.5127583237
 20
12.5330675626
 11
-0.1942106164
 21
12.8865520327
  0
LINE
  5
4BE
100
AcDbEntity
  8
0
100
AcDbLine
 62
7
  6
CONTINUOUS
 10
1.0077330705
 20
12.780554936
 11
0.3007641304
 21
13.1340394061
  0
LINE
  5
4BF
100
AcDbEntity
  8
RACCORDO
100
AcDbLine
 62
7
  6
CONTINUOUS
 10
-5.3446600611
 20
14.8561996266
 11
-2.4770871941
 21
13.42241292
  0
LINE
  5
4C0
100
AcDbEntity
  8
ASSI
100
AcDbLine
 62
7
  6
CONTINUOUS
 10
-5.3446600611
 20
14.8561996266
 11
-2.4769314753
 21
13.4223346555
  0
LINE
  5
4C1
100
AcDbEntity
  8
ASSI
100
AcDbLine
 62
7
  6
CONTINUOUS
 10
0.7154822781
 20
10.836471015
 11
0.6751530706
 21
10.8580400265
  0
LINE
  5
4C2
100
AcDbEntity
  8
RACCORDO
100
AcDbLine
 62
7
  6
CONTINUOUS
 10
-2.4482536967
 20
13.4070485709
 11
-2.4770443653
 21
13.4224965399
  0
LWPOLYLINE
  5
4C3
100
AcDbEntity
  8
RACCORDO
100
AcDbPolyline
 62
7
  6
CONTINUOUS
 90
15
 70
0
 10
0.7156037829
 20
10.8364102638
 10
0.6692318772
 20
10.8614360568
 10
0.6213937243
 20
10.8909336719
 10
0.5721960722
 20
10.9249539164
 10
0.5222086607
 20
10.963198652
 10
0.471848035
 20
11.0053949619
 10
0.4204105571
 20
11.0522864428
 10
0.3681940751
 20
11.1038573546
 10
0.3155757164
 20
11.1599652422
 10
0.2619764041
 20
11.2215528221
 10
0.2076605238
 20
11.2887911823
 10
0.1531661901
 20
11.3615022614
 10
0.0984618166
 20
11.4402806962
 10
0.0439294244
 20
11.5252663582
 10
-0.0116078109
 20
11.6194502883
  0
LWPOLYLINE
  5
4C4
100
AcDbEntity
  8
0
100
AcDbPolyline
 62
7
  6
CONTINUOUS
 90
10
 70
0
 10
-7.6232221919
 20
15.0591803067
 10
-7.5768633348
 20
15.0340985189
 10
-7.5310859601
 20
15.0057122696
 10
-7.4858900679
 20
14.974021559
 10
-7.4410894086
 20
14.9388643881
 10
-7.3968702317
 20
14.9004027558
 10
-7.3537912858
 20
14.8591226589
 10
-7.3120388202
 20
14.8151860964
 10
-7.2714265855
 20
14.7684310693
 10
-7.2319545818
 20
14.7188575777
  0
LWPOLYLINE
  5
4C5
100
AcDbEntity
  8
ASSI
100
AcDbPolyline
 62
7
  6
CONTINUOUS
 90
10
 70
0
 10
-7.6232221919
 20
15.0591803067
 10
-7.5768633348
 20
15.0340985189
 10
-7.5310859601
 20
15.0057122696
 10
-7.4858900679
 20
14.974021559
 10
-7.4410894086
 20
14.9388643881
 10
-7.3968702317
 20
14.9004027558
 10
-7.3537912858
 20
14.8591226589
 10
-7.3120388202
 20
14.8151860964
 10
-7.2714265855
 20
14.7684310693
 10
-7.2319545818
 20
14.7188575777
  0
LWPOLYLINE
  5
4C6
100
AcDbEntity
  8
RACCORDO
100
AcDbPolyline
 62
250
  6
CONTINUOUS
 90
10
 70
0
 10
-2.6918126174
 20
13.3646015699
 10
-2.6635261993
 20
13.3492529219
 10
-2.6354594332
 20
13.3312387686
 10
-2.6077901063
 20
13.3106732226
 10
-2.5806934797
 20
13.2876865629
 10
-2.5543411782
 20
13.262424409
 10
-2.5289001032
 20
13.2350467986
 10
-2.5045313759
 20
13.2057271739
 10
-2.4813893172
 20
13.1746512824
 10
-2.4596204698
 20
13.1420160006
  0
LWPOLYLINE
  5
4C7
100
AcDbEntity
  8
ASSI
100
AcDbPolyline
 62
250
  6
CONTINUOUS
 90
10
 70
0
 10
-2.6918126174
 20
13.3646015699
 10
-2.6635261993
 20
13.3492529219
 10
-2.6354594332
 20
13.3312387686
 10
-2.6077901063
 20
13.3106732226
 10
-2.5806934797
 20
13.2876865629
 10
-2.5543411782
 20
13.262424409
 10
-2.5289001032
 20
13.2350467986
 10
-2.5045313759
 20
13.2057271739
 10
-2.4813893172
 20
13.1746512824
 10
-2.4596204698
 20
13.1420160006
  0
LWPOLYLINE
  5
4C8
100
AcDbEntity
  8
RACCORDO
100
AcDbPolyline
 62
250
  6
CONTINUOUS
 90
10
 70
0
 10
1.1847181767
 20
10.7697110109
 10
1.2258770046
 20
10.7470052376
 10
1.2665842603
 20
10.7196451934
 10
1.3064614219
 20
10.6878852896
 10
1.3451376858
 20
10.6520208499
 10
1.3822534158
 20
10.6123853649
 10
1.4174634861
 20
10.5693473904
 10
1.4504404911
 20
10.5233071212
 10
1.4808777896
 20
10.4746926689
 10
1.5084923561
 20
10.4239560817
  0
LWPOLYLINE
  5
4C9
100
AcDbEntity
  8
ASSI
100
AcDbPolyline
 62
250
  6
CONTINUOUS
 90
10
 70
0
 10
1.1847181767
 20
10.7697110109
 10
1.2258770046
 20
10.7470052376
 10
1.2665842603
 20
10.7196451934
 10
1.3064614219
 20
10.6878852896
 10
1.3451376858
 20
10.6520208499
 10
1.3822534158
 20
10.6123853649
 10
1.4174634861
 20
10.5693473904
 10
1.4504404911
 20
10.5233071212
 10
1.4808777896
 20
10.4746926689
 10
1.5084923561
 20
10.4239560817
  0
LWPOLYLINE
  5
4CA
100
AcDbEntity
  8
ASSI
100
AcDbPolyline
 62
7
  6
CONTINUOUS
 90
3
 70
0
 10
-2.4361600675
 20
13.3999259544
 10
-2.472501549
 20
13.4201944455
 10
-2.4768885562
 20
13.4224183839
  0
LINE
  5
4CB
100
AcDbEntity
  8
RACCORDO
100
AcDbLine
 62
7
  6
CONTINUOUS
 10
-2.4361309868
 20
13.3999082555
 11
-2.4482536967
 21
13.4070485709
  0
LINE
  5
4CC
100
AcDbEntity
  8
ASSI
100
AcDbLine
 62
7
  6
CONTINUOUS
 10
-2.1016764383
 20
13.1969898293
 11
-2.4358782585
 21
13.3997554208
  0
LINE
  5
4CD
100
AcDbEntity
  8
RACCORDO
100
AcDbLine
 62
7
  6
CONTINUOUS
 10
-2.4355935574
 20
13.399581517
 11
-2.4358468048
 21
13.3997362959
  0
LWPOLYLINE
  5
4CE
100
AcDbEntity
  8
ASSI
100
AcDbPolyline
 62
7
  6
CONTINUOUS
 90
6
 70
0
 10
-0.8479761222
 20
12.4322911664
 10
-1.0995822512
 20
12.5862850807
 10
-1.3507789301
 20
12.7397650603
 10
-1.6015412951
 20
12.8927171663
 10
-1.8518476721
 20
13.0451294097
 10
-2.1016764383
 20
13.1969898293
  0
LWPOLYLINE
  5
4CF
100
AcDbEntity
  8
RACCORDO
100
AcDbPolyline
 62
7
  6
CONTINUOUS
 90
9
 70
0
 10
-0.48662447
 20
12.2106804344
 10
-0.6368047235
 20
12.3028413303
 10
-0.876052785
 20
12.4494883915
 10
-1.1149531287
 20
12.595684172
 10
-1.353482634
 20
12.7414155791
 10
-1.591620032
 20
12.8866706926
 10
-1.8293467664
 20
13.0314392494
 10
-2.0666443027
 20
13.175710994
 10
-2.4355252308
 20
13.3995149231
  0
LINE
  5
4D0
100
AcDbEntity
  8
ASSI
100
AcDbLine
 62
7
  6
CONTINUOUS
 10
-0.4866308021
 20
12.2106703166
 11
-0.8479761222
 21
12.4322911664
  0
LWPOLYLINE
  5
4D1
100
AcDbEntity
  8
ASSI
100
AcDbPolyline
 62
7
  6
CONTINUOUS
 90
13
 70
0
 10
0.6751530706
 20
10.8580400265
 10
0.6186808336
 20
10.8927139187
 10
0.56146706
 20
10.932853836
 10
0.5035828415
 20
10.9783781361
 10
0.4446001971
 20
11.0297551131
 10
0.3851678358
 20
11.0866500488
 10
0.3256427785
 20
11.1489028335
 10
0.2650374448
 20
11.2179111119
 10
0.2033830651
 20
11.2943027852
 10
0.1417944346
 20
11.3773816877
 10
0.0810119613
 20
11.4667344015
 10
0.0216867049
 20
11.5619925252
 10
-0.0116083847
 20
11.6194513106
  0
LWPOLYLINE
  5
4D2
100
AcDbEntity
  8
RACCORDO
100
AcDbPolyline
 62
250
  6
CONTINUOUS
 90
6
 70
0
 10
-2.4596212683
 20
13.1420150745
 10
-2.1468125853
 20
12.9485998853
 10
-1.8278133243
 20
12.7510769662
 10
-1.5027476887
 20
12.549404147
 10
-1.1717440206
 20
12.3435422595
 10
-0.8349348615
 20
12.1334553647
  0
LWPOLYLINE
  5
4D3
100
AcDbEntity
  8
ASSI
100
AcDbPolyline
 62
250
  6
CONTINUOUS
 90
6
 70
0
 10
-2.4596212683
 20
13.1420150745
 10
-2.1468125853
 20
12.9485998853
 10
-1.8278133243
 20
12.7510769662
 10
-1.5027476887
 20
12.549404147
 10
-1.1717440206
 20
12.3435422595
 10
-0.8349348615
 20
12.1334553647
  0
LINE
  5
4D4
100
AcDbEntity
  8
RACCORDO
100
AcDbLine
 62
250
  6
CONTINUOUS
 10
-0.8349348615
 20
12.1334553647
 11
-0.4924570088
 21
11.9191109854
  0
LINE
  5
4D5
100
AcDbEntity
  8
ASSI
100
AcDbLine
 62
250
  6
CONTINUOUS
 10
-0.8349348615
 20
12.1334553647
 11
-0.4924570088
 21
11.9191109854
  0
LWPOLYLINE
  5
4D6
100
AcDbEntity
  8
RACCORDO
100
AcDbPolyline
 62
250
  6
CONTINUOUS
 90
10
 70
0
 10
-0.0116115806
 20
11.6194523269
 10
-0.0139048617
 20
11.6209988621
 10
-0.0221131502
 20
11.6209175342
 10
-0.0358083223
 20
11.6176625353
 10
-0.0548435635
 20
11.6112687867
 10
-0.079014854
 20
11.6018048362
 10
-0.1080631401
 20
11.589372129
 10
-0.1416771245
 20
11.5741039143
 10
-0.1794966085
 20
11.5561638138
 10
-0.2211163436
 20
11.5357440718
  0
LWPOLYLINE
  5
4D7
100
AcDbEntity
  8
ASSI
100
AcDbPolyline
 62
250
  6
CONTINUOUS
 90
10
 70
0
 10
-0.0116115806
 20
11.6194523269
 10
-0.0139048617
 20
11.6209988621
 10
-0.0221131502
 20
11.6209175342
 10
-0.0358083223
 20
11.6176625353
 10
-0.0548435635
 20
11.6112687867
 10
-0.079014854
 20
11.6018048362
 10
-0.1080631401
 20
11.589372129
 10
-0.1416771245
 20
11.5741039143
 10
-0.1794966085
 20
11.5561638138
 10
-0.2211163436
 20
11.5357440718
  0
LWPOLYLINE
  5
4D8
100
AcDbEntity
  8
RACCORDO
100
AcDbPolyline
 62
250
  6
CONTINUOUS
 90
10
 70
0
 10
-0.4924570088
 20
11.9191109854
 10
-0.4750381114
 20
11.907336451
 10
-0.4579373662
 20
11.8941068127
 10
-0.4411559988
 20
11.8794211756
 10
-0.42455124
 20
11.8631294099
 10
-0.4082686965
 20
11.8453795786
 10
-0.3927415108
 20
11.8266185128
 10
-0.3781142064
 20
11.8069950123
 10
-0.3642435272
 20
11.7863592708
 10
-0.351130217
 20
11.7647107083
  0
LWPOLYLINE
  5
4D9
100
AcDbEntity
  8
ASSI
100
AcDbPolyline
 62
250
  6
CONTINUOUS
 90
10
 70
0
 10
-0.4924570088
 20
11.9191109854
 10
-0.4750381114
 20
11.907336451
 10
-0.4579373662
 20
11.8941068127
 10
-0.4411559988
 20
11.8794211756
 10
-0.42455124
 20
11.8631294099
 10
-0.4082686965
 20
11.8453795786
 10
-0.3927415108
 20
11.8266185128
 10
-0.3781142064
 20
11.8069950123
 10
-0.3642435272
 20
11.7863592708
 10
-0.351130217
 20
11.7647107083
  0
LINE
  5
4DA
100
AcDbEntity
  8
RACCORDO
100
AcDbLine
 62
7
  6
CONTINUOUS
 10
-0.4150781381
 20
12.1618370408
 11
-0.4866981808
 21
12.2107256302
  0
LWPOLYLINE
  5
4DB
100
AcDbEntity
  8
ASSI
100
AcDbPolyline
 62
250
  6
CONTINUOUS
 90
10
 70
0
 10
-0.4866231317
 20
12.2106796123
 10
-0.4819166751
 20
12.207439679
 10
-0.4674443985
 20
12.1913635388
 10
-0.4573681638
 20
12.1687940656
 10
-0.4518209046
 20
12.1400290845
 10
-0.4508757931
 20
12.1054481888
 10
-0.4545452752
 20
12.0655077301
 10
-0.4627809072
 20
12.0207347972
 10
-0.4754739953
 20
11.9717202596
 10
-0.4924570303
 20
11.91911097
  0
LWPOLYLINE
  5
4DC
100
AcDbEntity
  8
SMUSSO
100
AcDbPolyline
 62
7
  6
CONTINUOUS
 90
32
 70
0
 10
-8.5000673039
 20
17.6336279467
 10
-8.4786385477
 20
17.6182849877
 10
-8.3683702401
 20
17.5448716687
 10
-8.2493687163
 20
17.4743048862
 10
-8.1228591944
 20
17.4073315967
 10
-7.9887501529
 20
17.3439956045
 10
-7.8471331134
 20
17.2842531053
 10
-7.6995078585
 20
17.2287196431
 10
-7.5458665179
 20
17.1774567373
 10
-7.3862169619
 20
17.1304028685
 10
-7.2220825845
 20
17.0879890224
 10
-7.0534279399
 20
17.0502529678
 10
-6.8802884738
 20
17.0171569359
 10
-6.704293918
 20
16.9890186055
 10
-6.5254031935
 20
16.9658780989
 10
-6.3436573793
 20
16.9476952939
 10
-6.1608094435
 20
16.9346675021
 10
-5.9767671986
 20
16.926850076
 10
-5.7916228322
 20
16.9241876631
 10
-5.6074058752
 20
16.9267115186
 10
-5.4242019161
 20
16.9344804967
 10
-5.2419253664
 20
16.9474357432
 10
-5.0623489926
 20
16.9654319502
 10
-4.8854940796
 20
16.9885180145
 10
-4.7113393424
 20
17.0166450394
 10
-4.5415936922
 20
17.0495210267
 10
-4.3763876492
 20
17.0871529594
 10
-4.2155906932
 20
17.1295338545
 10
-4.0605201752
 20
17.176350764
 10
-3.911615212
 20
17.2274993717
 10
-3.7684366868
 20
17.2830839937
 10
-3.6309845994
 20
17.3431046301
  0
LWPOLYLINE
  5
4DD
100
AcDbEntity
  8
ASSI
100
AcDbPolyline
 62
7
  6
CONTINUOUS
 90
32
 70
0
 10
-8.5000672716
 20
17.6336279233
 10
-8.4786385477
 20
17.6182849877
 10
-8.3683702401
 20
17.5448716687
 10
-8.2493687163
 20
17.4743048862
 10
-8.1228591944
 20
17.4073315967
 10
-7.9887501529
 20
17.3439956045
 10
-7.8471331134
 20
17.2842531053
 10
-7.6995078585
 20
17.2287196431
 10
-7.5458665179
 20
17.1774567373
 10
-7.3862169619
 20
17.1304028685
 10
-7.2220825845
 20
17.0879890224
 10
-7.0534279399
 20
17.0502529678
 10
-6.8802884738
 20
17.0171569359
 10
-6.704293918
 20
16.9890186055
 10
-6.5254031935
 20
16.9658780989
 10
-6.3436573793
 20
16.9476952939
 10
-6.1608094435
 20
16.9346675021
 10
-5.9767671986
 20
16.926850076
 10
-5.7916228322
 20
16.9241876631
 10
-5.6074058752
 20
16.9267115186
 10
-5.4242019161
 20
16.9344804967
 10
-5.2419253664
 20
16.9474357432
 10
-5.0623489926
 20
16.9654319502
 10
-4.8854940796
 20
16.9885180145
 10
-4.7113393424
 20
17.0166450394
 10
-4.5415936922
 20
17.0495210267
 10
-4.3763876492
 20
17.0871529594
 10
-4.2155906932
 20
17.1295338545
 10
-4.0605201752
 20
17.176350764
 10
-3.911615212
 20
17.2274993717
 10
-3.7684366868
 20
17.2830839937
 10
-3.6309845994
 20
17.3431046301
  0
LWPOLYLINE
  5
4DE
100
AcDbEntity
  8
SMUSSO
100
AcDbPolyline
 62
7
  6
CONTINUOUS
 90
32
 70
0
 10
-1.4623194223
 20
13.0390159559
 10
-1.4408906661
 20
13.0236729969
 10
-1.3306223586
 20
12.9502596779
 10
-1.2116208347
 20
12.8796928954
 10
-1.0851113128
 20
12.8127196059
 10
-0.9510022714
 20
12.7493836137
 10
-0.8093852319
 20
12.6896411145
 10
-0.661759977
 20
12.6341076523
 10
-0.5081186364
 20
12.5828447465
 10
-0.3484690804
 20
12.5357908778
 10
-0.184334703
 20
12.4933770316
 10
-0.0156800583
 20
12.4556409771
 10
0.1574594077
 20
12.4225449451
 10
0.3334539636
 20
12.3944066147
 10
0.512344688
 20
12.3712661081
 10
0.6940905023
 20
12.3530833031
 10
0.8769384381
 20
12.3400555114
 10
1.0609806829
 20
12.3322380852
 10
1.2461250494
 20
12.3295756723
 10
1.4303420063
 20
12.3320995278
 10
1.6135459655
 20
12.3398685059
 10
1.7958225151
 20
12.3528237524
 10
1.975398889
 20
12.3708199594
 10
2.152253802
 20
12.3939060238
 10
2.3264085392
 20
12.4220330487
 10
2.4961541893
 20
12.4549090359
 10
2.6613602323
 20
12.4925409687
 10
2.8221571883
 20
12.5349218638
 10
2.9772277063
 20
12.5817387732
 10
3.1261326695
 20
12.6328873809
 10
3.2693111948
 20
12.688472003
 10
3.4067632821
 20
12.7484926393
  0
LWPOLYLINE
  5
4DF
100
AcDbEntity
  8
ASSI
100
AcDbPolyline
 62
7
  6
CONTINUOUS
 90
32
 70
0
 10
-1.46231939
 20
13.0390159325
 10
-1.4408906661
 20
13.0236729969
 10
-1.3306223586
 20
12.9502596779
 10
-1.2116208347
 20
12.8796928954
 10
-1.0851113128
 20
12.8127196059
 10
-0.9510022714
 20
12.7493836137
 10
-0.8093852319
 20
12.6896411145
 10
-0.661759977
 20
12.6341076523
 10
-0.5081186364
 20
12.5828447465
 10
-0.3484690804
 20
12.5357908778
 10
-0.184334703
 20
12.4933770316
 10
-0.0156800583
 20
12.4556409771
 10
0.1574594077
 20
12.4225449451
 10
0.3334539636
 20
12.3944066147
 10
0.512344688
 20
12.3712661081
 10
0.6940905023
 20
12.3530833031
 10
0.8769384381
 20
12.3400555114
 10
1.0609806829
 20
12.3322380852
 10
1.2461250494
 20
12.3295756723
 10
1.4303420063
 20
12.3320995278
 10
1.6135459655
 20
12.3398685059
 10
1.7958225151
 20
12.3528237524
 10
1.975398889
 20
12.3708199594
 10
2.152253802
 20
12.3939060238
 10
2.3264085392
 20
12.4220330487
 10
2.4961541893
 20
12.4549090359
 10
2.6613602323
 20
12.4925409687
 10
2.8221571883
 20
12.5349218638
 10
2.9772277063
 20
12.5817387732
 10
3.1261326695
 20
12.6328873809
 10
3.2693111948
 20
12.688472003
 10
3.4067632821
 20
12.7484926393
  0
LWPOLYLINE
  5
4E0
100
AcDbEntity
  8
ASSI
100
AcDbPolyline
 62
250
  6
CONTINUOUS
 90
10
 70
0
 10
-0.1405553759
 20
11.8465343865
 10
-0.1429742752
 20
11.8483031695
 10
-0.151388769
 20
11.8485865711
 10
-0.1652680882
 20
11.845657331
 10
-0.1844635258
 20
11.8395468341
 10
-0.2087694158
 20
11.83032055
 10
-0.2379253375
 20
11.818077332
 10
-0.2716189054
 20
11.8029483578
 10
-0.3094891162
 20
11.7850957236
 10
-0.351130217
 20
11.7647107083
  0
LWPOLYLINE
  5
4E1
100
AcDbEntity
  8
RACCORDO
100
AcDbPolyline
 62
250
  6
CONTINUOUS
 90
10
 70
0
 10
-0.1405515771
 20
11.8465277607
 10
-0.1429742752
 20
11.8483031695
 10
-0.151388769
 20
11.8485865711
 10
-0.1652680882
 20
11.845657331
 10
-0.1844635258
 20
11.8395468341
 10
-0.2087694158
 20
11.83032055
 10
-0.2379253375
 20
11.818077332
 10
-0.2716189054
 20
11.8029483578
 10
-0.3094891162
 20
11.7850957236
 10
-0.351130217
 20
11.7647107083
  0
LWPOLYLINE
  5
4E2
100
AcDbEntity
  8
ASSI
100
AcDbPolyline
 62
7
  6
CONTINUOUS
 90
3
 70
0
 10
-0.3724536836
 20
12.1277471984
 10
-0.4565840969
 20
12.1913834703
 10
-0.4866231317
 20
12.2106796123
  0
LINE
  5
4E3
100
AcDbEntity
  8
RACCORDO
100
AcDbLine
 62
7
  6
CONTINUOUS
 10
-0.3491876264
 20
12.1073745074
 11
-0.4150781381
 21
12.1618370408
  0
LINE
  5
4E4
100
AcDbEntity
  8
0
100
AcDbLine
 62
7
  6
CONTINUOUS
 10
0.5127583237
 20
12.5330675626
 11
0.7087818438
 21
12.3520365549
  0
LINE
  5
4E5
100
AcDbEntity
  8
RACCORDO
100
AcDbLine
 62
250
  6
CONTINUOUS
 10
3.468079469
 20
12.8242967465
 11
3.5022172872
 21
12.7925764621
  0
LINE
  5
4E6
100
AcDbEntity
  8
RACCORDO
100
AcDbLine
 62
7
  6
CONTINUOUS
 10
3.430405404
 20
16.4956984678
 11
3.4366825254
 21
16.4848696922
  0
LINE
  5
4E7
100
AcDbEntity
  8
ASSI
100
AcDbLine
 62
7
  6
CONTINUOUS
 10
3.430405404
 20
16.4956984678
 11
3.4366825254
 21
16.4848696922
  0
LWPOLYLINE
  5
4E8
100
AcDbEntity
  8
RACCORDO
100
AcDbPolyline
 62
7
  6
CONTINUOUS
 90
3
 70
0
 10
9.2804454232
 20
12.4873746926
 10
9.2520032625
 20
12.640917514
 10
9.2140436744
 20
12.7939198271
  0
LINE
  5
4E9
100
AcDbEntity
  8
ASSI
100
AcDbLine
 62
7
  6
CONTINUOUS
 10
9.2841239235
 20
12.4625478715
 11
9.2541552836
 21
12.6308982807
  0
LINE
  5
4EA
100
AcDbEntity
  8
RACCORDO
100
AcDbLine
 62
7
  6
CONTINUOUS
 10
9.2989661979
 20
12.3339883144
 11
9.2804454232
 21
12.4873746926
  0
LWPOLYLINE
  5
4EB
100
AcDbEntity
  8
ASSI
100
AcDbPolyline
 62
7
  6
CONTINUOUS
 90
5
 70
0
 10
2.5406766082
 20
-19.8633088003
 10
2.6117043857
 20
-19.7408534321
 10
2.6713302339
 20
-19.6058959683
 10
2.7180852608
 20
-19.4606181454
 10
2.7514290633
 20
-19.3062405918
  0
LINE
  5
4EC
100
AcDbEntity
  8
RACCORDO
100
AcDbLine
 62
250
  6
CONTINUOUS
 10
2.4210336744
 20
-19.976648486
 11
2.4611996139
 21
-19.9131348905
  0
LINE
  5
4ED
100
AcDbEntity
  8
ASSI
100
AcDbLine
 62
250
  6
CONTINUOUS
 10
2.4210336744
 20
-19.976648486
 11
2.4611996139
 21
-19.9131348905
  0
LINE
  5
4EE
100
AcDbEntity
  8
ASSI
100
AcDbLine
 62
7
  6
CONTINUOUS
 10
2.4597571733
 20
-19.9723000226
 11
2.5406766082
 21
-19.8633088003
  0
LWPOLYLINE
  5
4EF
100
AcDbEntity
  8
RACCORDO
100
AcDbPolyline
 62
7
  6
CONTINUOUS
 90
5
 70
0
 10
9.2145054399
 20
-9.5294967598
 10
9.1818460232
 20
-9.5705293045
 10
9.144984288
 20
-9.6079923416
 10
9.1046103003
 20
-9.64121913
 10
9.0610452014
 20
-9.6700136126
  0
LWPOLYLINE
  5
4F0
100
AcDbEntity
  8
ASSI
100
AcDbPolyline
 62
7
  6
CONTINUOUS
 90
3
 70
0
 10
3.1624902453
 20
-12.8553242565
 10
3.1923596849
 20
-12.8367381618
 10
3.1967092484
 20
-12.8343469964
  0
LWPOLYLINE
  5
4F1
100
AcDbEntity
  8
RACCORDO
100
AcDbPolyline
 62
250
  6
CONTINUOUS
 90
7
 70
0
 10
2.6363923887
 20
-13.7872765943
 10
2.6782179346
 20
-13.7626098262
 10
2.7133253777
 20
-13.7354499239
 10
2.7411272769
 20
-13.7062513461
 10
2.7611584324
 20
-13.6755026639
 10
2.7730836701
 20
-13.6437183857
 10
2.7767224886
 20
-13.6136120017
  0
LWPOLYLINE
  5
4F2
100
AcDbEntity
  8
ASSI
100
AcDbPolyline
 62
250
  6
CONTINUOUS
 90
7
 70
0
 10
2.6363923887
 20
-13.7872765943
 10
2.6782179346
 20
-13.7626098262
 10
2.7133253777
 20
-13.7354499239
 10
2.7411272769
 20
-13.7062513461
 10
2.7611584324
 20
-13.6755026639
 10
2.7730836701
 20
-13.6437183857
 10
2.7767224866
 20
-13.6136342685
  0
LWPOLYLINE
  5
4F3
100
AcDbEntity
  8
RACCORDO
100
AcDbPolyline
 62
250
  6
CONTINUOUS
 90
7
 70
0
 10
9.167175741
 20
-9.4127283544
 10
9.2011527736
 20
-9.3932082495
 10
9.2309121522
 20
-9.3720365931
 10
9.2561350256
 20
-9.349440225
 10
9.2765511482
 20
-9.3256612496
 10
9.2919417754
 20
-9.3009544422
 10
9.3021420073
 20
-9.275584519
  0
LWPOLYLINE
  5
4F4
100
AcDbEntity
  8
ASSI
100
AcDbPolyline
 62
250
  6
CONTINUOUS
 90
7
 70
0
 10
9.167175741
 20
-9.4127283544
 10
9.2011527736
 20
-9.3932082495
 10
9.2309121522
 20
-9.3720365931
 10
9.2561350256
 20
-9.349440225
 10
9.2765511482
 20
-9.3256612496
 10
9.2919417754
 20
-9.3009544422
 10
9.3021420073
 20
-9.275584519
  0
LINE
  5
4F5
100
AcDbEntity
  8
RACCORDO
100
AcDbLine
 62
7
  6
CONTINUOUS
 10
3.1834565287
 20
-12.8418931015
 11
3.196756623
 21
-12.8343214511
  0
LINE
  5
4F6
100
AcDbEntity
  8
ASSI
100
AcDbLine
 62
7
  6
CONTINUOUS
 10
9.0608344572
 20
-9.6701323781
 11
9.0449265571
 21
-9.6790994459
  0
LINE
  5
4F7
100
AcDbEntity
  8
RACCORDO
100
AcDbLine
 62
7
  6
CONTINUOUS
 10
9.0610452014
 20
-9.6700136126
 11
9.0448390662
 21
-9.6791466255
  0
LWPOLYLINE
  5
4F8
100
AcDbEntity
  8
RACCORDO
100
AcDbPolyline
 62
250
  6
CONTINUOUS
 90
13
 70
0
 10
-8.1120580296
 20
-19.1844105267
 10
-8.082582896
 20
-19.1683011576
 10
-8.0502418818
 20
-19.1542506827
 10
-8.0155642404
 20
-19.1424890361
 10
-7.9791174651
 20
-19.133208696
 10
-7.9414979994
 20
-19.1265615344
 10
-7.9033214759
 20
-19.1226563315
 10
-7.8652126466
 20
-19.1215569972
 10
-7.8277951567
 20
-19.1232815236
 10
-7.7916813366
 20
-19.1278016909
 10
-7.7574621842
 20
-19.1350435295
 10
-7.7256976933
 20
-19.1448885295
 10
-7.6969076873
 20
-19.1571755806
  0
LINE
  5
4F9
100
AcDbEntity
  8
RACCORDO
100
AcDbLine
 62
250
  6
CONTINUOUS
 10
3.3190312682
 20
-12.5679364639
 11
9.167175741
 21
-9.4127283544
  0
LINE
  5
4FA
100
AcDbEntity
  8
ASSI
100
AcDbLine
 62
250
  6
CONTINUOUS
 10
3.3190312682
 20
-12.5679364639
 11
9.167175741
 21
-9.4127283544
  0
LINE
  5
4FB
100
AcDbEntity
  8
RACCORDO
100
AcDbLine
 62
7
  6
CONTINUOUS
 10
3.1967732782
 20
-12.8343123067
 11
9.044917751
 21
-9.6791041973
  0
LINE
  5
4FC
100
AcDbEntity
  8
ASSI
100
AcDbLine
 62
7
  6
CONTINUOUS
 10
3.1967732782
 20
-12.8343123067
 11
9.044917751
 21
-9.6791041973
  0
LINE
  5
4FD
100
AcDbEntity
  8
RACCORDO
100
AcDbLine
 62
7
  6
CONTINUOUS
 10
-5.1510291525
 20
-18.3897409477
 11
-6.739586594
 21
-19.1901445676
  0
LINE
  5
4FE
100
AcDbEntity
  8
RACCORDO
100
AcDbLine
 62
7
  6
CONTINUOUS
 10
-5.0449631354
 20
-18.4427739563
 11
-6.6335205768
 21
-19.2431775762
  0
LINE
  5
4FF
100
AcDbEntity
  8
RACCORDO
100
AcDbLine
 62
7
  6
CONTINUOUS
 10
-8.1548099365
 20
-19.3295739358
 11
-8.1550896786
 21
-19.3297108145
  0
LINE
  5
500
100
AcDbEntity
  8
RACCORDO
100
AcDbLine
 62
250
  6
CONTINUOUS
 10
-8.5760078548
 20
-19.4103142838
 11
-8.1120580296
 21
-19.1844105267
  0
LINE
  5
501
100
AcDbEntity
  8
0
100
AcDbLine
 62
7
  6
CONTINUOUS
 10
-8.5848822276
 20
-19.5389829088
 11
-8.1550839741
 21
-19.3297080368
  0
LWPOLYLINE
  5
502
100
AcDbEntity
  8
RACCORDO
100
AcDbPolyline
 62
7
  6
CONTINUOUS
 90
5
 70
0
 10
-8.1548277574
 20
-19.3295817852
 10
-8.1419360208
 20
-19.3242742365
 10
-8.1311074553
 20
-19.321210228
 10
-8.1221025908
 20
-19.3196737303
 10
-8.1166095802
 20
-19.3192637784
  0
LINE
  5
503
100
AcDbEntity
  8
RACCORDO
100
AcDbLine
 62
7
  6
CONTINUOUS
 10
0.4777039317
 20
13.2871392965
 11
0.3630609924
 21
13.256192787
  0
LWPOLYLINE
  5
504
100
AcDbEntity
  8
RACCORDO
100
AcDbPolyline
 62
250
  6
CONTINUOUS
 90
29
 70
0
 10
4.0049566237
 20
15.6118006348
 10
4.0809917847
 20
15.6322241908
 10
4.1616866875
 20
15.6474045033
 10
4.247261079
 20
15.6567885875
 10
4.3376798254
 20
15.659742948
 10
4.4333000394
 20
15.6556001563
 10
4.5336112859
 20
15.6436964851
 10
4.6371373101
 20
15.6237070499
 10
4.7440912114
 20
15.5951803082
 10
4.8537028976
 20
15.5579095107
 10
4.9628385783
 20
15.5129022072
 10
5.0707895633
 20
15.4607267901
 10
5.1775212327
 20
15.4016723431
 10
5.280892913
 20
15.3373462506
 10
5.3800804397
 20
15.2689185014
 10
5.4754379374
 20
15.1967864948
 10
5.5666868393
 20
15.1217451808
 10
5.6536220405
 20
15.0445568296
 10
5.7362688119
 20
14.9657813899
 10
5.8147525113
 20
14.885846814
 10
5.8890752383
 20
14.8052732475
 10
5.9592474055
 20
14.7245641938
 10
6.0254338454
 20
14.6440267772
 10
6.0876890015
 20
14.5640737262
 10
6.1460976601
 20
14.4850693903
 10
6.2008800343
 20
14.4071697019
 10
6.2521746022
 20
14.3306089223
 10
6.3000473357
 20
14.2557153056
 10
6.3580782499
 20
14.1608609914
  0
LWPOLYLINE
  5
505
100
AcDbEntity
  8
RACCORDO
100
AcDbPolyline
 62
250
  6
CONTINUOUS
 90
23
 70
0
 10
0.4366382806
 20
13.2423840524
 10
0.5359561793
 20
13.2687610984
 10
0.6376840581
 20
13.2925520891
 10
0.7418638666
 20
13.3137884208
 10
0.8478139105
 20
13.3323371982
 10
0.9554905828
 20
13.3481898734
 10
1.0649374905
 20
13.3613549944
 10
1.1756037595
 20
13.3717253101
 10
1.2876898024
 20
13.3792940874
 10
1.4009952068
 20
13.3840680594
 10
1.5143678607
 20
13.3859601742
 10
1.6280526167
 20
13.3848819342
 10
1.7418046223
 20
13.3809218371
 10
1.8537372087
 20
13.3742583236
 10
1.9638083047
 20
13.3647645156
 10
2.0720599815
 20
13.3525672914
 10
2.1767317837
 20
13.3382257272
 10
2.2776738413
 20
13.3216214572
 10
2.3750360242
 20
13.3028728472
 10
2.4675074866
 20
13.2828940702
 10
2.5546512797
 20
13.2619898507
 10
2.6369043522
 20
13.2398554643
 10
2.7142667041
 20
13.2164909108
  0
LWPOLYLINE
  5
506
100
AcDbEntity
  8
ASSI
100
AcDbPolyline
 62
7
  6
CONTINUOUS
 90
5
 70
0
 10
-10.516616114
 20
12.4266219726
 10
-10.4583873318
 20
12.4364403841
 10
-10.4027702598
 20
12.4507707124
 10
-10.3498934846
 20
12.4698817499
 10
-10.3352823684
 20
12.4763030486
  0
LWPOLYLINE
  5
507
100
AcDbEntity
  8
ASSI
100
AcDbPolyline
 62
250
  6
CONTINUOUS
 90
19
 70
0
 10
-10.5711955431
 20
12.521416034
 10
-10.5520526116
 20
12.522479447
 10
-10.5335625657
 20
12.5238591979
 10
-10.5157382493
 20
12.5255224403
 10
-10.4984167817
 20
12.5274613905
 10
-10.4816107253
 20
12.5296547499
 10
-10.4653299436
 20
12.5320808636
 10
-10.449413624
 20
12.5347504437
 10
-10.4338740721
 20
12.537651576
 10
-10.4187214832
 20
12.5407720296
 10
-10.4038031905
 20
12.5441391746
 10
-10.3891363959
 20
12.547748918
 10
-10.3747365322
 20
12.5515970057
 10
-10.3604644693
 20
12.5557264123
 10
-10.3463474614
 20
12.5601396283
 10
-10.3324108039
 20
12.5648393888
 10
-10.3185342262
 20
12.5698841388
 10
-10.304711036
 20
12.575302588
 10
-10.2910354546
 20
12.581084799
  0
LWPOLYLINE
  5
508
100
AcDbEntity
  8
0
100
AcDbPolyline
 62
7
  6
CONTINUOUS
 90
13
 70
0
 10
-17.2362285051
 20
15.7460580105
 10
-17.2683977995
 20
15.7498188288
 10
-17.2998588347
 20
15.7520101862
 10
-17.3304912816
 20
15.752754351
 10
-17.3602640918
 20
15.7522216671
 10
-17.3889950918
 20
15.7505124703
 10
-17.4163522699
 20
15.7476559877
 10
-17.4421536527
 20
15.7438055448
 10
-17.4664391617
 20
15.7391090749
 10
-17.4892046366
 20
15.7335746615
 10
-17.5103939914
 20
15.7272922565
 10
-17.5299251955
 20
15.7204496786
 10
-17.5477454494
 20
15.7131924821
  0
LWPOLYLINE
  5
509
100
AcDbEntity
  8
RACCORDO
100
AcDbPolyline
 62
250
  6
CONTINUOUS
 90
4
 70
0
 10
-2.5490654395
 20
13.4422959491
 10
-2.5224095916
 20
13.4383464863
 10
-2.4970529686
 20
13.4310280066
 10
-2.4773578047
 20
13.4225484984
  0
LWPOLYLINE
  5
50A
100
AcDbEntity
  8
ASSI
100
AcDbPolyline
 62
250
  6
CONTINUOUS
 90
13
 70
0
 10
-16.5606810537
 20
15.8619067132
 10
-16.5766619711
 20
15.8645870111
 10
-16.5907390678
 20
15.867792633
 10
-16.6029878946
 20
15.8714465616
 10
-16.613486504
 20
15.8754688629
 10
-16.6223338787
 20
15.8798052485
 10
-16.6296397839
 20
15.8844284677
 10
-16.6354968962
 20
15.889297246
 10
-16.6400016173
 20
15.8943590564
 10
-16.6432581727
 20
15.8995804026
 10
-16.6453574905
 20
15.9049327815
 10
-16.6463916563
 20
15.9103832221
 10
-16.6465392747
 20
15.9133199388
  0
LWPOLYLINE
  5
50B
100
AcDbEntity
  8
0
100
AcDbPolyline
 62
7
  6
CONTINUOUS
 90
5
 70
0
 10
2.8661245245
 20
13.0227732691
 10
2.8889962989
 20
13.0182635404
 10
3.0343219803
 20
12.9857245108
 10
3.176517051
 20
12.9498941142
 10
3.3156008301
 20
12.9107926615
  0
LWPOLYLINE
  5
50C
100
AcDbEntity
  8
RACCORDO
100
AcDbPolyline
 62
7
  6
CONTINUOUS
 90
8
 70
0
 10
2.7932736216
 20
13.2275869153
 10
2.7830304682
 20
13.2297980274
 10
2.7721719978
 20
13.2307021471
 10
2.7607749234
 20
13.230331616
 10
2.7491964469
 20
13.2286972958
 10
2.7375556356
 20
13.2258028071
 10
2.7257334222
 20
13.2216445292
 10
2.7137298067
 20
13.2162224622
  0
LINE
  5
50D
100
AcDbEntity
  8
0
100
AcDbLine
 62
7
  6
CONTINUOUS
 10
1.5311299297
 20
12.6388691331
 11
1.0077330705
 21
12.780554936
  0
LINE
  5
50E
100
AcDbEntity
  8
0
100
AcDbLine
 62
7
  6
CONTINUOUS
 10
-5.919875441
 20
16.9260319612
 11
-6.2047560976
 21
17.0031503922
  0
LWPOLYLINE
  5
50F
100
AcDbEntity
  8
RACCORDO
100
AcDbPolyline
 62
250
  6
CONTINUOUS
 90
8
 70
0
 10
-13.3772241442
 20
16.8189475832
 10
-13.3876294236
 20
16.8218636476
 10
-13.398572854
 20
16.8233690458
 10
-13.4099711492
 20
16.823452321
 10
-13.4217375613
 20
16.8221128394
 10
-13.4337825409
 20
16.8193607953
 10
-13.4460144184
 20
16.8152171333
 10
-13.4583401017
 20
16.8097133893
  0
LWPOLYLINE
  5
510
100
AcDbEntity
  8
RACCORDO
100
AcDbPolyline
 62
7
  6
CONTINUOUS
 90
20
 70
0
 10
2.79571553
 20
13.2268396639
 10
2.69941295
 20
13.2561311152
 10
2.5845850488
 20
13.2871319436
 10
2.466990947
 20
13.3148015486
 10
2.3469675909
 20
13.3390953187
 10
2.2248428113
 20
13.3599774804
 10
2.1009438396
 20
13.3774181807
 10
1.9756394699
 20
13.3913890703
 10
1.8492515713
 20
13.4018751083
 10
1.7220478096
 20
13.4088680509
 10
1.5943719984
 20
13.4123572501
 10
1.4665757613
 20
13.4123392462
 10
1.3389406126
 20
13.4088155984
 10
1.211814843
 20
13.4017927071
 10
1.0855437663
 20
13.39128435
 10
0.9604013285
 20
13.3773028159
 10
0.8367307315
 20
13.359870538
 10
0.7148723119
 20
13.3390169637
 10
0.5950870877
 20
13.3147617901
 10
0.4777039317
 20
13.2871392965
  0
LINE
  5
511
100
AcDbEntity
  8
0
100
AcDbLine
 62
7
  6
CONTINUOUS
 10
3.3156008301
 20
12.9107926615
 11
3.4420993252
 21
12.8713478893
  0
LINE
  5
512
100
AcDbEntity
  8
0
100
AcDbLine
 62
7
  6
CONTINUOUS
 10
3.5654808853
 20
12.8291161515
 11
3.5745612659
 21
12.8259873089
  0
LWPOLYLINE
  5
513
100
AcDbEntity
  8
RACCORDO
100
AcDbPolyline
 62
7
  6
CONTINUOUS
 90
3
 70
0
 10
-11.9127230959
 20
18.1394754598
 10
-11.9578800057
 20
18.1572353593
 10
-12.0020320965
 20
18.1709086371
  0
LINE
  5
514
100
AcDbEntity
  8
0
100
AcDbLine
 62
7
  6
CONTINUOUS
 10
-6.9117250377
 20
17.3566348622
 11
-6.2047560976
 21
17.0031503922
  0
LINE
  5
515
100
AcDbEntity
  8
RACCORDO
100
AcDbLine
 62
7
  6
CONTINUOUS
 10
3.5712257441
 20
12.8244468544
 11
3.5264291357
 21
12.8608565697
  0
LINE
  5
516
100
AcDbEntity
  8
RACCORDO
100
AcDbLine
 62
250
  6
CONTINUOUS
 10
3.4213975615
 20
12.8629495584
 11
3.468079469
 21
12.8242967465
  0
LWPOLYLINE
  5
517
100
AcDbEntity
  8
RACCORDO
100
AcDbPolyline
 62
250
  6
CONTINUOUS
 90
3
 70
0
 10
6.3580782499
 20
14.1608609914
 10
6.3725570414
 20
14.1387397435
 10
6.3833872757
 20
14.1231962415
  0
LWPOLYLINE
  5
518
100
AcDbEntity
  8
ASSI
100
AcDbPolyline
 62
250
  6
CONTINUOUS
 90
3
 70
0
 10
6.3580782499
 20
14.1608609914
 10
6.3725570414
 20
14.1387397435
 10
6.3833872757
 20
14.1231962415
  0
LINE
  5
519
100
AcDbEntity
  8
ASSI
100
AcDbLine
 62
7
  6
CONTINUOUS
 10
6.4771947811
 20
14.1665196562
 11
6.4444420069
 21
14.2170700388
  0
LINE
  5
51A
100
AcDbEntity
  8
ASSI
100
AcDbLine
 62
7
  6
CONTINUOUS
 10
6.3014279786
 20
14.4398099795
 11
6.4444420069
 21
14.2170700388
  0
LINE
  5
51B
100
AcDbEntity
  8
RACCORDO
100
AcDbLine
 62
7
  6
CONTINUOUS
 10
6.4767761025
 20
14.1663262965
 11
6.4444420069
 21
14.2170700388
  0
LINE
  5
51C
100
AcDbEntity
  8
RACCORDO
100
AcDbLine
 62
7
  6
CONTINUOUS
 10
6.3384948592
 20
14.3850910239
 11
6.4444420069
 21
14.2170700388
  0
LINE
  5
51D
100
AcDbEntity
  8
ASSI
100
AcDbLine
 62
250
  6
CONTINUOUS
 10
6.3000473357
 20
14.2557153056
 11
6.3580782499
 21
14.1608609914
  0
LINE
  5
51E
100
AcDbEntity
  8
RACCORDO
100
AcDbLine
 62
7
  6
CONTINUOUS
 10
8.7062276513
 20
13.9236034018
 11
8.6763469612
 21
13.9760302468
  0
LINE
  5
51F
100
AcDbEntity
  8
ASSI
100
AcDbLine
 62
7
  6
CONTINUOUS
 10
8.706228298
 20
13.9236021415
 11
8.6902135814
 21
13.9530741746
  0
LWPOLYLINE
  5
520
100
AcDbEntity
  8
RACCORDO
100
AcDbPolyline
 62
250
  6
CONTINUOUS
 90
10
 70
0
 10
8.5377108824
 20
13.8425364077
 10
8.5100265367
 20
13.8935288113
 10
8.4795025993
 20
13.9423725155
 10
8.4464376884
 20
13.9886054965
 10
8.4111521943
 20
14.0318207134
 10
8.3739646092
 20
14.0716166374
 10
8.3352078012
 20
14.107632651
 10
8.295239182
 20
14.1395525394
 10
8.2544206587
 20
14.167060459
 10
8.2131321901
 20
14.1898761637
  0
LWPOLYLINE
  5
521
100
AcDbEntity
  8
ASSI
100
AcDbPolyline
 62
250
  6
CONTINUOUS
 90
4
 70
0
 10
8.5377108824
 20
13.8425364077
 10
8.5100265367
 20
13.8935288113
 10
8.4795025993
 20
13.9423725155
 10
8.4464376884
 20
13.9886054965
  0
LWPOLYLINE
  5
522
100
AcDbEntity
  8
RACCORDO
100
AcDbPolyline
 62
250
  6
CONTINUOUS
 90
7
 70
0
 10
8.8583531483
 20
13.2030515805
 10
8.8056060908
 20
13.3100131747
 10
8.7525812878
 20
13.4168255829
 10
8.699279817
 20
13.5234868616
 10
8.6457027605
 20
13.6299950707
 10
8.5918512053
 20
13.7363482744
 10
8.5377262428
 20
13.8425445406
  0
LWPOLYLINE
  5
523
100
AcDbEntity
  8
ASSI
100
AcDbPolyline
 62
250
  6
CONTINUOUS
 90
7
 70
0
 10
8.8583531483
 20
13.2030515805
 10
8.8056060908
 20
13.3100131747
 10
8.7525812878
 20
13.4168255829
 10
8.699279817
 20
13.5234868616
 10
8.6457027605
 20
13.6299950707
 10
8.5918512053
 20
13.7363482744
 10
8.5377262428
 20
13.8425445406
  0
LWPOLYLINE
  5
524
100
AcDbEntity
  8
RACCORDO
100
AcDbPolyline
 62
7
  6
CONTINUOUS
 90
10
 70
0
 10
9.0246179902
 20
13.2885975404
 10
8.9897403761
 20
13.3594017343
 10
8.9547376199
 20
13.4301454058
 10
8.9196100054
 20
13.5008279821
 10
8.8843578189
 20
13.5714488871
 10
8.848981344
 20
13.6420075528
 10
8.8134808617
 20
13.7125034189
 10
8.7778566572
 20
13.7829359183
 10
8.7421090209
 20
13.853304477
 10
8.7062383525
 20
13.9236083089
  0
LWPOLYLINE
  5
525
100
AcDbEntity
  8
ASSI
100
AcDbPolyline
 62
7
  6
CONTINUOUS
 90
10
 70
0
 10
9.0246179902
 20
13.2885975404
 10
8.9897403761
 20
13.3594017343
 10
8.9547376199
 20
13.4301454058
 10
8.9196100054
 20
13.5008279821
 10
8.8843578189
 20
13.5714488871
 10
8.848981344
 20
13.6420075528
 10
8.8134808617
 20
13.7125034189
 10
8.7778566572
 20
13.7829359183
 10
8.7421090209
 20
13.853304477
 10
8.7062383525
 20
13.9236083089
  0
LINE
  5
526
100
AcDbEntity
  8
ASSI
100
AcDbLine
 62
250
  6
CONTINUOUS
 10
8.9061981704
 20
13.1015896766
 11
8.8583464209
 21
13.2030483666
  0
LINE
  5
527
100
AcDbEntity
  8
ASSI
100
AcDbLine
 62
7
  6
CONTINUOUS
 10
9.097670901
 20
13.1279600002
 11
9.024611113
 21
13.2885960443
  0
LWPOLYLINE
  5
528
100
AcDbEntity
  8
RACCORDO
100
AcDbPolyline
 62
7
  6
CONTINUOUS
 90
3
 70
0
 10
9.111187466
 20
13.0951494679
 10
9.0470848897
 20
13.2418300876
 10
9.0246113973
 20
13.288595512
  0
LINE
  5
529
100
AcDbEntity
  8
ASSI
100
AcDbLine
 62
7
  6
CONTINUOUS
 10
9.160315915
 20
12.9648512965
 11
9.097670901
 21
13.1279600002
  0
LINE
  5
52A
100
AcDbEntity
  8
RACCORDO
100
AcDbLine
 62
7
  6
CONTINUOUS
 10
9.1669698519
 20
12.9455964673
 11
9.111187466
 21
13.0951494679
  0
LINE
  5
52B
100
AcDbEntity
  8
ASSI
100
AcDbLine
 62
7
  6
CONTINUOUS
 10
9.2126813793
 20
12.7987797774
 11
9.160315915
 21
12.9648512965
  0
LINE
  5
52C
100
AcDbEntity
  8
RACCORDO
100
AcDbLine
 62
7
  6
CONTINUOUS
 10
9.2140436744
 20
12.7939198271
 11
9.1669698519
 21
12.9455964673
  0
LINE
  5
52D
100
AcDbEntity
  8
ASSI
100
AcDbLine
 62
7
  6
CONTINUOUS
 10
9.2541552836
 20
12.6308982807
 11
9.2126813793
 21
12.7987797774
  0
LWPOLYLINE
  5
52E
100
AcDbEntity
  8
RACCORDO
100
AcDbPolyline
 62
250
  6
CONTINUOUS
 90
3
 70
0
 10
2.3295261443
 20
-20.0892677728
 10
2.3770867865
 20
-20.035422454
 10
2.4210336744
 20
-19.976648486
  0
LWPOLYLINE
  5
52F
100
AcDbEntity
  8
ASSI
100
AcDbPolyline
 62
250
  6
CONTINUOUS
 90
3
 70
0
 10
2.3295261443
 20
-20.0892677728
 10
2.3770867865
 20
-20.035422454
 10
2.4210336744
 20
-19.976648486
  0
LINE
  5
530
100
AcDbEntity
  8
ASSI
100
AcDbLine
 62
7
  6
CONTINUOUS
 10
2.408057336
 20
-20.0300872325
 11
2.4597571733
 21
-19.9723000226
  0
LWPOLYLINE
  5
531
100
AcDbEntity
  8
RACCORDO
100
AcDbPolyline
 62
7
  6
CONTINUOUS
 90
10
 70
0
 10
2.4075794002
 20
-20.0305877747
 10
2.4551954757
 20
-19.9777260454
 10
2.513862986
 20
-19.9023661211
 10
2.5679057008
 20
-19.8200130749
 10
2.6166619187
 20
-19.7310046798
 10
2.6594115145
 20
-19.6362201664
 10
2.6958937741
 20
-19.5359105808
 10
2.7258845721
 20
-19.4302489405
 10
2.7490510123
 20
-19.3201123627
 10
2.7652628413
 20
-19.2059756736
  0
LINE
  5
532
100
AcDbEntity
  8
ASSI
100
AcDbLine
 62
7
  6
CONTINUOUS
 10
2.4072658667
 20
-20.0309326872
 11
2.4080662699
 21
-20.0300957172
  0
LINE
  5
533
100
AcDbEntity
  8
RACCORDO
100
AcDbLine
 62
7
  6
CONTINUOUS
 10
2.4072658667
 20
-20.0309326872
 11
2.4075883279
 21
-20.0305962764
  0
LINE
  5
534
100
AcDbEntity
  8
ASSI
100
AcDbLine
 62
250
  6
CONTINUOUS
 10
2.1883662321
 20
-20.2337800532
 11
2.329533429
 21
-20.0892781883
  0
LINE
  5
535
100
AcDbEntity
  8
ASSI
100
AcDbLine
 62
7
  6
CONTINUOUS
 10
2.4072658667
 20
-20.0309326872
 11
2.262161803
 21
-20.1794575656
  0
LINE
  5
536
100
AcDbEntity
  8
RACCORDO
100
AcDbLine
 62
7
  6
CONTINUOUS
 10
2.4072658667
 20
-20.0309326872
 11
2.262161803
 21
-20.1794575656
  0
LWPOLYLINE
  5
537
100
AcDbEntity
  8
RACCORDO
100
AcDbPolyline
 62
7
  6
CONTINUOUS
 90
9
 70
0
 10
2.262161803
 20
-20.1794575656
 10
2.115027469
 20
-20.324861763
 10
1.9658857017
 20
-20.4671285268
 10
1.814762136
 20
-20.6062392871
 10
1.6616777773
 20
-20.7421805355
 10
1.5066487564
 20
-20.8749432418
 10
1.3496963461
 20
-21.0045139707
 10
1.1908472041
 20
-21.1308754709
 10
1.0301257718
 20
-21.2540131457
  0
LINE
  5
538
100
AcDbEntity
  8
ASSI
100
AcDbLine
 62
7
  6
CONTINUOUS
 10
2.262161803
 20
-20.1794575656
 11
2.115027469
 21
-20.324861763
  0
LWPOLYLINE
  5
539
100
AcDbEntity
  8
ASSI
100
AcDbPolyline
 62
7
  6
CONTINUOUS
 90
7
 70
0
 10
2.115027469
 20
-20.324861763
 10
1.9658857017
 20
-20.4671285268
 10
1.814762136
 20
-20.6062392871
 10
1.6616777773
 20
-20.7421805355
 10
1.5066487564
 20
-20.8749432418
 10
1.3496963461
 20
-21.0045139707
 10
1.1908472041
 20
-21.1308754709
  0
LWPOLYLINE
  5
53A
100
AcDbEntity
  8
RACCORDO
100
AcDbPolyline
 62
250
  6
CONTINUOUS
 90
9
 70
0
 10
1.1451732821
 20
-21.1603582082
 10
1.2999599824
 20
-21.0372131863
 10
1.4528600212
 20
-20.9109654262
 10
1.6038533163
 20
-20.7816315095
 10
1.7529200358
 20
-20.6492284235
 10
1.9000406008
 20
-20.5137735583
 10
2.0451956878
 20
-20.375284705
 10
2.1883662321
 20
-20.2337800532
 10
2.329533429
 20
-20.0892781883
  0
LWPOLYLINE
  5
53B
100
AcDbEntity
  8
ASSI
100
AcDbPolyline
 62
250
  6
CONTINUOUS
 90
8
 70
0
 10
1.1451732821
 20
-21.1603582082
 10
1.2999599824
 20
-21.0372131863
 10
1.4528600212
 20
-20.9109654262
 10
1.6038533163
 20
-20.7816315095
 10
1.7529200358
 20
-20.6492284235
 10
1.9000406008
 20
-20.5137735583
 10
2.0451956878
 20
-20.375284705
 10
2.1883662321
 20
-20.2337800532
  0
LINE
  5
53C
100
AcDbEntity
  8
RACCORDO
100
AcDbLine
 62
250
  6
CONTINUOUS
 10
0.9885202505
 20
-21.2803843177
 11
1.1451732821
 21
-21.1603582082
  0
LINE
  5
53D
100
AcDbEntity
  8
ASSI
100
AcDbLine
 62
250
  6
CONTINUOUS
 10
0.9885202505
 20
-21.2803843177
 11
1.1451732821
 21
-21.1603582082
  0
LINE
  5
53E
100
AcDbEntity
  8
ASSI
100
AcDbLine
 62
7
  6
CONTINUOUS
 10
1.1908472041
 20
-21.1308754709
 11
1.0301257718
 21
-21.2540131457
  0
LINE
  5
53F
100
AcDbEntity
  8
RACCORDO
100
AcDbLine
 62
7
  6
CONTINUOUS
 10
1.0229134244
 20
-21.2593345595
 11
1.0301259435
 21
-21.2540130166
  0
LWPOLYLINE
  5
540
100
AcDbEntity
  8
RACCORDO
100
AcDbPolyline
 62
250
  6
CONTINUOUS
 90
7
 70
0
 10
-8.3846347209
 20
-26.317568482
 10
-8.013196952
 20
-26.0700658597
 10
-7.6548441259
 20
-25.8027670988
 10
-7.3097684818
 20
-25.5158290561
 10
-6.9782597919
 20
-25.2094772408
 10
-6.6607017062
 20
-24.8840117774
 10
-6.3574151455
 20
-24.5397218494
  0
LWPOLYLINE
  5
541
100
AcDbEntity
  8
0
100
AcDbPolyline
 62
7
  6
CONTINUOUS
 90
7
 70
0
 10
-8.1602026531
 20
-26.2076367222
 10
-7.7449608292
 20
-25.9385391943
 10
-7.3407226528
 20
-25.6491005139
 10
-6.9485086878
 20
-25.3400466849
 10
-6.5686591219
 20
-25.0116197087
 10
-6.2008337673
 20
-24.663577584
 10
-5.845032624
 20
-24.2959203107
  0
LWPOLYLINE
  5
542
100
AcDbEntity
  8
RACCORDO
100
AcDbPolyline
 62
250
  6
CONTINUOUS
 90
13
 70
0
 10
-8.504215614
 20
-23.5591361707
 10
-8.4747408648
 20
-23.5430269888
 10
-8.4424002416
 20
-23.5289766247
 10
-8.4077229669
 20
-23.5172150172
 10
-8.3712765215
 20
-23.5079346558
 10
-8.3336573139
 20
-23.5012874186
 10
-8.2954809163
 20
-23.4973820968
 10
-8.2573720629
 20
-23.4962826257
 10
-8.2199544127
 20
-23.4980070254
 10
-8.1838402972
 20
-23.5025271047
 10
-8.1496207379
 20
-23.5097689224
 10
-8.1178557722
 20
-23.5196139927
 10
-8.0890652717
 20
-23.5319012246
  0
LINE
  5
543
100
AcDbEntity
  8
0
100
AcDbLine
 62
7
  6
CONTINUOUS
 10
-5.7091536845
 20
15.1423696418
 11
-6.5677422804
 21
14.9859962775
  0
LINE
  5
544
100
AcDbEntity
  8
ASSI
100
AcDbLine
 62
7
  6
CONTINUOUS
 10
-5.7091536845
 20
15.1423696418
 11
-6.5677422804
 21
14.9859962775
  0
LINE
  5
545
100
AcDbEntity
  8
0
100
AcDbLine
 62
7
  6
CONTINUOUS
 10
-9.5512370747
 20
17.0634113368
 11
-10.8060973301
 21
17.1051738024
  0
LINE
  5
546
100
AcDbEntity
  8
ASSI
100
AcDbLine
 62
7
  6
CONTINUOUS
 10
-9.5512370747
 20
17.0634113368
 11
-10.8060973301
 21
17.1051738024
  0
LWPOLYLINE
  5
547
100
AcDbEntity
  8
0
100
AcDbPolyline
 62
7
  6
CONTINUOUS
 90
4
 70
0
 10
-4.3463646436
 20
17.2453687253
 10
-4.3234928692
 20
17.2408589965
 10
-4.1781671878
 20
17.208319967
 10
-4.0566166948
 20
17.177691603
  0
LWPOLYLINE
  5
548
100
AcDbEntity
  8
ASSI
100
AcDbPolyline
 62
7
  6
CONTINUOUS
 90
5
 70
0
 10
-11.9977876758
 20
18.1697479883
 10
-12.0568147887
 20
18.1829808621
 10
-12.1126129024
 20
18.1896745268
 10
-12.1659307568
 20
18.1911937164
 10
-12.2141976318
 20
18.188966759
  0
LWPOLYLINE
  5
549
100
AcDbEntity
  8
RACCORDO
100
AcDbPolyline
 62
7
  6
CONTINUOUS
 90
8
 70
0
 10
-12.0020320965
 20
18.1709086371
 10
-12.0447104548
 20
18.1807795864
 10
-12.0869555133
 20
18.1873020003
 10
-12.1291953326
 20
18.1906149124
 10
-12.171116466
 20
18.1911160221
 10
-12.2136514031
 20
18.1890113833
 10
-12.2566000409
 20
18.1840718596
 10
-12.2996507835
 20
18.1758109104
  0
LWPOLYLINE
  5
54A
100
AcDbEntity
  8
RACCORDO
100
AcDbPolyline
 62
7
  6
CONTINUOUS
 90
19
 70
0
 10
-4.4167736381
 20
17.44943512
 10
-4.5130762181
 20
17.4787265713
 10
-4.6279041193
 20
17.5097273997
 10
-4.7454982211
 20
17.5373970047
 10
-4.8655215772
 20
17.5616907748
 10
-4.9876463568
 20
17.5825729365
 10
-5.1115453285
 20
17.6000136368
 10
-5.2368496982
 20
17.6139845265
 10
-5.3632375968
 20
17.6244705644
 10
-5.4904413585
 20
17.631463507
 10
-5.6181171697
 20
17.6349527063
 10
-5.7459134068
 20
17.6349347023
 10
-5.8735485555
 20
17.6314110545
 10
-6.0006743251
 20
17.6243881632
 10
-6.1269454018
 20
17.6138798061
 10
-6.2520878396
 20
17.599898272
 10
-6.3757584366
 20
17.5824659941
 10
-6.4976168562
 20
17.5616124199
 10
-6.6174020804
 20
17.5373572462
  0
LWPOLYLINE
  5
54B
100
AcDbEntity
  8
RACCORDO
100
AcDbPolyline
 62
7
  6
CONTINUOUS
 90
9
 70
0
 10
-4.4167718507
 20
17.4494392756
 10
-4.4192155465
 20
17.4501823714
 10
-4.4294586999
 20
17.4523934835
 10
-4.4403171703
 20
17.4532976033
 10
-4.4517142448
 20
17.4529270722
 10
-4.4632927212
 20
17.451292752
 10
-4.4749335325
 20
17.4483982632
 10
-4.4867557459
 20
17.4442399853
 10
-4.4987593614
 20
17.4388179183
  0
LWPOLYLINE
  5
54C
100
AcDbEntity
  8
RACCORDO
100
AcDbPolyline
 62
250
  6
CONTINUOUS
 90
8
 70
0
 10
0.7001350185
 20
19.1094276846
 10
0.6879514284
 20
19.1149801728
 10
0.6574263201
 20
19.1246872535
 10
0.6249397267
 20
19.1294095904
 10
0.590854068
 20
19.1290919167
 10
0.5555419409
 20
19.1237392553
 10
0.5193797785
 20
19.1134101625
 10
0.4827575566
 20
19.0982165436
  0
LWPOLYLINE
  5
54D
100
AcDbEntity
  8
ASSI
100
AcDbPolyline
 62
250
  6
CONTINUOUS
 90
3
 70
0
 10
0.7001939969
 20
19.1093982084
 10
0.6879514284
 20
19.1149801728
 10
0.6574263201
 20
19.1246872535
  0
LINE
  5
54E
100
AcDbEntity
  8
RACCORDO
100
AcDbLine
 62
250
  6
CONTINUOUS
 10
-4.1605821907
 20
21.5397845976
 11
-4.165437815
 21
21.542101871
  0
LWPOLYLINE
  5
54F
100
AcDbEntity
  8
ASSI
100
AcDbPolyline
 62
250
  6
CONTINUOUS
 90
7
 70
0
 10
1.1946808637
 20
17.8190237084
 10
1.1895607434
 20
17.8214721586
 10
1.1518138458
 20
17.8342236499
 10
1.1110495878
 20
17.8392342786
 10
1.0679500649
 20
17.8364202035
 10
1.0232364481
 20
17.8258285116
 10
0.9776569164
 20
17.8076364305
  0
LWPOLYLINE
  5
550
100
AcDbEntity
  8
RACCORDO
100
AcDbPolyline
 62
250
  6
CONTINUOUS
 90
7
 70
0
 10
1.1950442152
 20
17.818842657
 10
1.1895607434
 20
17.8214721586
 10
1.1518138458
 20
17.8342236499
 10
1.1110495878
 20
17.8392342786
 10
1.0679500649
 20
17.8364202035
 10
1.0232364481
 20
17.8258285116
 10
0.9776569164
 20
17.8076364305
  0
LINE
  5
551
100
AcDbEntity
  8
ASSI
100
AcDbLine
 62
250
  6
CONTINUOUS
 10
-4.1599052021
 20
21.5394478078
 11
-4.1620394392
 21
21.540498058
  0
LINE
  5
552
100
AcDbEntity
  8
RACCORDO
100
AcDbLine
 62
7
  6
CONTINUOUS
 10
-4.1599052021
 20
21.5394478078
 11
-4.1605821907
 21
21.5397845976
  0
LINE
  5
553
100
AcDbEntity
  8
RACCORDO
100
AcDbLine
 62
250
  6
CONTINUOUS
 10
0.7001939969
 20
19.1093982084
 11
0.7001350185
 21
19.1094276846
  0
LINE
  5
554
100
AcDbEntity
  8
DRAFT
100
AcDbLine
 62
7
  6
CONTINUOUS
 10
6.3359922353
 20
14.1013076412
 11
3.4366825254
 21
15.5509624962
  0
LINE
  5
555
100
AcDbEntity
  8
ASSI
100
AcDbLine
 62
7
  6
CONTINUOUS
 10
6.3359922353
 20
14.1013076412
 11
3.4366825254
 21
15.5509624962
  0
LINE
  5
556
100
AcDbEntity
  8
DRAFT
100
AcDbLine
 62
7
  6
CONTINUOUS
 10
-1.099868075
 20
18.5120581194
 11
-3.6338036849
 21
19.7790259244
  0
LINE
  5
557
100
AcDbEntity
  8
ASSI
100
AcDbLine
 62
7
  6
CONTINUOUS
 10
-1.099868075
 20
18.5120581194
 11
-3.6338036849
 21
19.7790259244
  0
LINE
  5
558
100
AcDbEntity
  8
RACCORDO
100
AcDbLine
 62
250
  6
CONTINUOUS
 10
0.9776569164
 20
17.8076364305
 11
2.7417558554
 21
16.925586961
  0
LINE
  5
559
100
AcDbEntity
  8
ASSI
100
AcDbLine
 62
250
  6
CONTINUOUS
 10
0.9776569164
 20
17.8076364305
 11
2.7417558554
 21
16.925586961
  0
LINE
  5
55A
100
AcDbEntity
  8
RACCORDO
100
AcDbLine
 62
250
  6
CONTINUOUS
 10
7.4039125307
 20
14.5945086233
 11
8.2131325035
 21
14.189898637
  0
LINE
  5
55B
100
AcDbEntity
  8
ASSI
100
AcDbLine
 62
250
  6
CONTINUOUS
 10
7.4039125307
 20
14.5945086233
 11
8.2131325035
 21
14.189898637
  0
LINE
  5
55C
100
AcDbEntity
  8
RACCORDO
100
AcDbLine
 62
7
  6
CONTINUOUS
 10
1.1950442152
 20
17.818842657
 11
2.9591922957
 21
16.9367686258
  0
LINE
  5
55D
100
AcDbEntity
  8
ASSI
100
AcDbLine
 62
7
  6
CONTINUOUS
 10
1.1946808637
 20
17.8190237084
 11
2.9591922957
 21
16.9367686258
  0
LINE
  5
55E
100
AcDbEntity
  8
RACCORDO
100
AcDbLine
 62
7
  6
CONTINUOUS
 10
7.5493245457
 20
14.6417025008
 11
8.4302420297
 21
14.2012437588
  0
LINE
  5
55F
100
AcDbEntity
  8
ASSI
100
AcDbLine
 62
7
  6
CONTINUOUS
 10
7.5493245457
 20
14.6417025008
 11
8.4302420402
 21
14.2012437535
  0
LINE
  5
560
100
AcDbEntity
  8
RACCORDO
100
AcDbLine
 62
250
  6
CONTINUOUS
 10
-4.3773416413
 20
21.5282661425
 11
-4.3287303549
 21
21.5039604993
  0
LINE
  5
561
100
AcDbEntity
  8
ASSI
100
AcDbLine
 62
250
  6
CONTINUOUS
 10
-4.3773416413
 20
21.5282661425
 11
-4.3287303549
 21
21.5039604993
  0
LINE
  5
562
100
AcDbEntity
  8
RACCORDO
100
AcDbLine
 62
250
  6
CONTINUOUS
 10
0.3322631173
 20
19.1734637632
 11
0.4827575566
 21
19.0982165436
  0
LINE
  5
563
100
AcDbEntity
  8
ASSI
100
AcDbLine
 62
250
  6
CONTINUOUS
 10
0.3322631173
 20
19.1734637632
 11
0.4827575566
 21
19.0982165436
  0
LINE
  5
564
100
AcDbEntity
  8
ASSI
100
AcDbLine
 62
7
  6
CONTINUOUS
 10
0.7002368475
 20
19.1093767762
 11
0.7001939969
 21
19.1093982084
  0
LINE
  5
565
100
AcDbEntity
  8
RACCORDO
100
AcDbLine
 62
7
  6
CONTINUOUS
 10
0.4776751323
 20
19.2206576407
 11
0.7001939969
 21
19.1093982084
  0
LINE
  5
566
100
AcDbEntity
  8
ASSI
100
AcDbLine
 62
7
  6
CONTINUOUS
 10
0.4776751323
 20
19.2206576407
 11
0.7001939969
 21
19.1093982084
  0
LWPOLYLINE
  5
567
100
AcDbEntity
  8
RACCORDO
100
AcDbPolyline
 62
7
  6
CONTINUOUS
 90
21
 70
0
 10
1.1950431221
 20
17.8188404829
 10
1.1931919091
 20
17.8198021667
 10
1.1865681623
 20
17.823653265
 10
1.1773503539
 20
17.8297987215
 10
1.1658870752
 20
17.8384676137
 10
1.15258291
 20
17.8497819442
 10
1.1377775848
 20
17.8638459618
 10
1.1218495808
 20
17.8806749704
 10
1.1052000042
 20
17.9002203826
 10
1.0881383853
 20
17.9224827243
 10
1.0711357864
 20
17.9471728607
 10
1.0547886452
 20
17.9736700682
 10
1.0394296591
 20
18.0016144166
 10
1.0253597183
 20
18.0305598431
 10
1.0129843881
 20
18.0596073494
 10
1.0024605943
 20
18.0881907328
 10
0.9938177257
 20
18.115911923
 10
0.9870917587
 20
18.1421085092
 10
0.9821941861
 20
18.1662789153
 10
0.9789571256
 20
18.1881475051
 10
0.9771771376
 20
18.2073875156
  0
LINE
  5
568
100
AcDbEntity
  8
RACCORDO
100
AcDbLine
 62
7
  6
CONTINUOUS
 10
0.7278500859
 20
19.0944657043
 11
0.7001350185
 21
19.1094276846
  0
LINE
  5
569
100
AcDbEntity
  8
ASSI
100
AcDbLine
 62
7
  6
CONTINUOUS
 10
0.72766592
 20
19.0945651262
 11
0.7002368475
 21
19.1093767762
  0
LWPOLYLINE
  5
56A
100
AcDbEntity
  8
ASSI
100
AcDbPolyline
 62
7
  6
CONTINUOUS
 90
9
 70
0
 10
1.1946797813
 20
17.8190215518
 10
1.1865055468
 20
17.8236921769
 10
1.1716452585
 20
17.8339808671
 10
1.1520854802
 20
17.850229666
 10
1.1291953951
 20
17.8726925299
 10
1.1039795803
 20
17.9017353115
 10
1.0780794981
 20
17.9367659585
 10
1.053360178
 20
17.9761334386
 10
1.0309122128
 20
18.0186924465
  0
LINE
  5
56B
100
AcDbEntity
  8
ASSI
100
AcDbLine
 62
7
  6
CONTINUOUS
 10
8.4939013654
 20
14.1642981543
 11
8.4296701733
 21
14.2015098481
  0
LWPOLYLINE
  5
56C
100
AcDbEntity
  8
RACCORDO
100
AcDbPolyline
 62
250
  6
CONTINUOUS
 90
8
 70
0
 10
6.4444420069
 20
14.2170700388
 10
6.4418218805
 20
14.2187313819
 10
6.4347994138
 20
14.2187147715
 10
6.4238122838
 20
14.2162128825
 10
6.4090361756
 20
14.2112657204
 10
6.3907073607
 20
14.2039523909
 10
6.3691189187
 20
14.1943898347
 10
6.344616051
 20
14.1827309581
  0
LWPOLYLINE
  5
56D
100
AcDbEntity
  8
ASSI
100
AcDbPolyline
 62
250
  6
CONTINUOUS
 90
8
 70
0
 10
6.4444420069
 20
14.2170700388
 10
6.4418218805
 20
14.2187313819
 10
6.4347994138
 20
14.2187147715
 10
6.4238122838
 20
14.2162128825
 10
6.4090361756
 20
14.2112657204
 10
6.3907073607
 20
14.2039523909
 10
6.3691189187
 20
14.1943898347
 10
6.344616051
 20
14.1827309581
  0
LWPOLYLINE
  5
56E
100
AcDbEntity
  8
RACCORDO
100
AcDbPolyline
 62
7
  6
CONTINUOUS
 90
3
 70
0
 10
8.5246823963
 20
14.1423383353
 10
8.4788513066
 20
14.1740080885
 10
8.4300607012
 20
14.2013156945
  0
LINE
  5
56F
100
AcDbEntity
  8
ASSI
100
AcDbLine
 62
7
  6
CONTINUOUS
 10
8.5510708613
 20
14.1210533709
 11
8.4939013654
 21
14.1642981543
  0
LINE
  5
570
100
AcDbEntity
  8
RACCORDO
100
AcDbLine
 62
7
  6
CONTINUOUS
 10
8.567381128
 20
14.1066353769
 11
8.5246823963
 21
14.1423383353
  0
LINE
  5
571
100
AcDbEntity
  8
RACCORDO
100
AcDbLine
 62
7
  6
CONTINUOUS
 10
8.9272528785
 20
13.485449256
 11
8.9534390424
 21
13.4627481751
  0
LINE
  5
572
100
AcDbEntity
  8
ASSI
100
AcDbLine
 62
7
  6
CONTINUOUS
 10
8.9290506812
 20
13.4818317793
 11
9.0170042581
 21
13.4028830161
  0
LINE
  5
573
100
AcDbEntity
  8
ASSI
100
AcDbLine
 62
7
  6
CONTINUOUS
 10
8.6037659713
 20
14.0704710245
 11
8.5510708613
 21
14.1210533709
  0
LINE
  5
574
100
AcDbEntity
  8
RACCORDO
100
AcDbLine
 62
7
  6
CONTINUOUS
 10
8.9534390424
 20
13.4627481751
 11
9.0794939496
 21
13.34080867
  0
LINE
  5
575
100
AcDbEntity
  8
RACCORDO
100
AcDbLine
 62
7
  6
CONTINUOUS
 10
8.6073191118
 20
14.0666079351
 11
8.567381128
 21
14.1066353769
  0
LINE
  5
576
100
AcDbEntity
  8
ASSI
100
AcDbLine
 62
7
  6
CONTINUOUS
 10
9.0170042581
 20
13.4028830161
 11
9.1858075787
 21
13.2274046223
  0
LINE
  5
577
100
AcDbEntity
  8
RACCORDO
100
AcDbLine
 62
250
  6
CONTINUOUS
 10
9.0459048988
 20
13.2417775466
 11
9.0530645613
 21
13.2342390014
  0
LWPOLYLINE
  5
578
100
AcDbEntity
  8
ASSI
100
AcDbPolyline
 62
250
  6
CONTINUOUS
 90
3
 70
0
 10
9.0459048988
 20
13.2417775466
 10
9.0530645613
 20
13.2342390014
 10
9.1600788156
 20
13.1110858341
  0
LINE
  5
579
100
AcDbEntity
  8
RACCORDO
100
AcDbLine
 62
7
  6
CONTINUOUS
 10
9.0794939496
 20
13.34080867
 11
9.2008879207
 21
13.2104800698
  0
LINE
  5
57A
100
AcDbEntity
  8
RACCORDO
100
AcDbLine
 62
250
  6
CONTINUOUS
 10
9.0530645613
 20
13.2342390014
 11
9.1600788156
 21
13.1110858341
  0
LWPOLYLINE
  5
57B
100
AcDbEntity
  8
RACCORDO
100
AcDbPolyline
 62
7
  6
CONTINUOUS
 90
16
 70
0
 10
9.2008879207
 20
13.2104800698
 10
9.3170735938
 20
13.072531807
 10
9.4276575707
 20
12.9275951034
 10
9.5322150557
 20
12.7763564887
 10
9.6302960372
 20
12.61957793
 10
9.7215031553
 20
12.4579885447
 10
9.8054908112
 20
12.2922581097
 10
9.8818825539
 20
12.1231485237
 10
9.9503197688
 20
11.9514456468
 10
10.0104990023
 20
11.7778554023
 10
10.0621168126
 20
11.6031258707
 10
10.1048716728
 20
11.428082413
 10
10.138501602
 20
11.2535149043
 10
10.1627731711
 20
11.0801891637
 10
10.1774730653
 20
10.9088812984
 10
10.1824110838
 20
10.7403756148
  0
LWPOLYLINE
  5
57C
100
AcDbEntity
  8
ASSI
100
AcDbPolyline
 62
7
  6
CONTINUOUS
 90
11
 70
0
 10
9.1858075787
 20
13.2274046223
 10
9.3451452081
 20
13.0370749498
 10
9.4937168735
 20
12.8337973399
 10
9.6302807026
 20
12.6196037023
 10
9.7538448223
 20
12.396324004
 10
9.863502393
 20
12.1657327637
 10
9.958311063
 20
11.9298050366
 10
10.0373866832
 20
11.6906187732
 10
10.0999929836
 20
11.4500784759
 10
10.1454398092
 20
11.2101388535
 10
10.1730909944
 20
10.9728833179
  0
LINE
  5
57D
100
AcDbEntity
  8
ASSI
100
AcDbLine
 62
7
  6
CONTINUOUS
 10
8.6510433215
 20
14.0131620559
 11
8.6037659713
 21
14.0704710245
  0
LWPOLYLINE
  5
57E
100
AcDbEntity
  8
ASSI
100
AcDbPolyline
 62
250
  6
CONTINUOUS
 90
7
 70
0
 10
8.4464376884
 20
13.9886054965
 10
8.4111521943
 20
14.0318207134
 10
8.3739646092
 20
14.0716166374
 10
8.3352078012
 20
14.107632651
 10
8.295239182
 20
14.1395525394
 10
8.2544206587
 20
14.167060459
 10
8.2131321901
 20
14.1898761637
  0
LWPOLYLINE
  5
57F
100
AcDbEntity
  8
RACCORDO
100
AcDbPolyline
 62
250
  6
CONTINUOUS
 90
26
 70
0
 10
9.1600788156
 20
13.1110858341
 10
9.2614443209
 20
12.9838920122
 10
9.3568638436
 20
12.853625016
 10
9.4463065128
 20
12.7209354658
 10
9.5282591526
 20
12.588953896
 10
9.6025849249
 20
12.459162817
 10
9.6699165493
 20
12.3317400544
 10
9.7302619924
 20
12.2079743804
 10
9.7837805883
 20
12.0890058469
 10
9.8311623627
 20
11.9747935507
 10
9.8732176799
 20
11.8647186292
 10
9.9103058155
 20
11.7590845106
 10
9.942786613
 20
11.6581521457
 10
9.9713067053
 20
11.5611166836
 10
9.9961503532
 20
11.4681318982
 10
10.0176019077
 20
11.3793158585
 10
10.0361473525
 20
11.2937575629
 10
10.0519922856
 20
11.2115230107
 10
10.0653386547
 20
11.132669672
 10
10.0765175506
 20
11.0562661255
 10
10.0856570144
 20
10.9823739886
 10
10.0928910962
 20
10.9109957967
 10
10.0984180352
 20
10.8411348845
 10
10.1023125077
 20
10.772492358
 10
10.1046042826
 20
10.7054404854
 10
10.1053545315
 20
10.6400060239
  0
LWPOLYLINE
  5
580
100
AcDbEntity
  8
ASSI
100
AcDbPolyline
 62
250
  6
CONTINUOUS
 90
22
 70
0
 10
9.1600788156
 20
13.1110858341
 10
9.2614443209
 20
12.9838920122
 10
9.3568638436
 20
12.853625016
 10
9.4463065128
 20
12.7209354658
 10
9.5282591526
 20
12.588953896
 10
9.6025849249
 20
12.459162817
 10
9.6699165493
 20
12.3317400544
 10
9.7302619924
 20
12.2079743804
 10
9.7837805883
 20
12.0890058469
 10
9.8311623627
 20
11.9747935507
 10
9.8732176799
 20
11.8647186292
 10
9.9103058155
 20
11.7590845106
 10
9.942786613
 20
11.6581521457
 10
9.9713067053
 20
11.5611166836
 10
9.9961503532
 20
11.4681318982
 10
10.0176019077
 20
11.3793158585
 10
10.0361473525
 20
11.2937575629
 10
10.0519922856
 20
11.2115230107
 10
10.0653386547
 20
11.132669672
 10
10.0765175506
 20
11.0562661255
 10
10.0856570144
 20
10.9823739886
 10
10.0928910962
 20
10.9109957967
  0
LWPOLYLINE
  5
581
100
AcDbEntity
  8
RACCORDO
100
AcDbPolyline
 62
7
  6
CONTINUOUS
 90
3
 70
0
 10
8.6763469612
 20
13.9760302468
 10
8.6440885489
 20
14.022476751
 10
8.6073191118
 20
14.0666079351
  0
LINE
  5
582
100
AcDbEntity
  8
ASSI
100
AcDbLine
 62
7
  6
CONTINUOUS
 10
8.6902135814
 20
13.9530741746
 11
8.6510433215
 21
14.0131620559
  0
LINE
  5
583
100
AcDbEntity
  8
RACCORDO
100
AcDbLine
 62
250
  6
CONTINUOUS
 10
0.9643764516
 20
-21.2958158259
 11
0.9885202496
 21
-21.2803843184
  0
LINE
  5
584
100
AcDbEntity
  8
ASSI
100
AcDbLine
 62
250
  6
CONTINUOUS
 10
0.9643764516
 20
-21.2958158259
 11
0.9885202496
 21
-21.2803843184
  0
LWPOLYLINE
  5
585
100
AcDbEntity
  8
RACCORDO
100
AcDbPolyline
 62
250
  6
CONTINUOUS
 90
3
 70
0
 10
2.329533429
 20
-20.0892781883
 10
2.3721740569
 20
-20.0621584994
 10
2.4072658667
 20
-20.0309326872
  0
LWPOLYLINE
  5
586
100
AcDbEntity
  8
ASSI
100
AcDbPolyline
 62
250
  6
CONTINUOUS
 90
3
 70
0
 10
2.329533429
 20
-20.0892781883
 10
2.3721740569
 20
-20.0621584994
 10
2.4072658667
 20
-20.0309326872
  0
LINE
  5
587
100
AcDbEntity
  8
RACCORDO
100
AcDbLine
 62
250
  6
CONTINUOUS
 10
0.9885202496
 20
-21.2803843184
 11
1.0300101486
 21
-21.2540999981
  0
LINE
  5
588
100
AcDbEntity
  8
ASSI
100
AcDbLine
 62
250
  6
CONTINUOUS
 10
0.9885202496
 20
-21.2803843184
 11
1.0300101486
 21
-21.2540999981
  0
LINE
  5
589
100
AcDbEntity
  8
ASSI
100
AcDbLine
 62
7
  6
CONTINUOUS
 10
-0.8292282003
 20
-22.3017783653
 11
-0.6583859833
 21
-22.1968189185
  0
LINE
  5
58A
100
AcDbEntity
  8
RACCORDO
100
AcDbLine
 62
250
  6
CONTINUOUS
 10
-0.6561603005
 20
-22.1941742075
 11
-0.7784025344
 21
-22.2693610119
  0
LINE
  5
58B
100
AcDbEntity
  8
ASSI
100
AcDbLine
 62
250
  6
CONTINUOUS
 10
-0.6229026197
 20
-22.1737788558
 11
-0.7784025344
 21
-22.2693610119
  0
LWPOLYLINE
  5
58C
100
AcDbEntity
  8
RACCORDO
100
AcDbPolyline
 62
7
  6
CONTINUOUS
 90
11
 70
0
 10
-0.8756993911
 20
-22.3302282737
 10
-0.5737317178
 20
-22.1450392902
 10
-0.4784499409
 20
-22.0870801385
 10
-0.3854209261
 20
-22.0309053305
 10
-0.2947288644
 20
-21.9766275974
 10
-0.2069446093
 20
-21.9246433473
 10
-0.1226929942
 20
-21.8753573736
 10
-0.0420749668
 20
-21.8288577898
 10
0.0342640518
 20
-21.7855295022
 10
0.1057602445
 20
-21.7456646849
 10
0.1723400236
 20
-21.7093156738
  0
LWPOLYLINE
  5
58D
100
AcDbEntity
  8
ASSI
100
AcDbPolyline
 62
7
  6
CONTINUOUS
 90
7
 70
0
 10
-0.6583859833
 20
-22.1968189185
 10
-0.5266213275
 20
-22.1163347692
 10
-0.3982407136
 20
-22.0386185026
 10
-0.2742991495
 20
-21.9644770155
 10
-0.1552301201
 20
-21.8943149141
 10
-0.0426603106
 20
-21.8291927201
 10
0.0617160043
 20
-21.7701316387
  0
LWPOLYLINE
  5
58E
100
AcDbEntity
  8
RACCORDO
100
AcDbPolyline
 62
250
  6
CONTINUOUS
 90
6
 70
0
 10
-0.7784025344
 20
-22.2693610119
 10
-1.0640977171
 20
-22.4437744715
 10
-1.3446574188
 20
-22.6117691298
 10
-1.6199851216
 20
-22.7734745875
 10
-1.8899873247
 20
-22.9290192485
 10
-2.1532190322
 20
-23.0777648446
  0
LWPOLYLINE
  5
58F
100
AcDbEntity
  8
ASSI
100
AcDbPolyline
 62
250
  6
CONTINUOUS
 90
6
 70
0
 10
-0.7784025344
 20
-22.2693610119
 10
-1.0640977171
 20
-22.4437744715
 10
-1.3446574188
 20
-22.6117691298
 10
-1.6199851216
 20
-22.7734745875
 10
-1.8899873247
 20
-22.9290192485
 10
-2.1532190322
 20
-23.0777648446
  0
LINE
  5
590
100
AcDbEntity
  8
RACCORDO
100
AcDbLine
 62
250
  6
CONTINUOUS
 10
-0.5149337418
 20
-22.1078445299
 11
-0.6561603005
 21
-22.1941742075
  0
LINE
  5
591
100
AcDbEntity
  8
ASSI
100
AcDbLine
 62
250
  6
CONTINUOUS
 10
-0.5149337418
 20
-22.1078445299
 11
-0.6229026197
 21
-22.1737788558
  0
LINE
  5
592
100
AcDbEntity
  8
ASSI
100
AcDbLine
 62
7
  6
CONTINUOUS
 10
-1.046641107
 20
-22.4341239932
 11
-0.8292282003
 21
-22.3017783653
  0
LWPOLYLINE
  5
593
100
AcDbEntity
  8
RACCORDO
100
AcDbPolyline
 62
250
  6
CONTINUOUS
 90
7
 70
0
 10
2.6363923887
 20
-19.1654656386
 10
2.6782179266
 20
-19.1407988757
 10
2.713325366
 20
-19.1136389784
 10
2.741127265
 20
-19.0844404049
 10
2.7611584232
 20
-19.0536917259
 10
2.7730836653
 20
-19.0219074494
 10
2.7767224886
 20
-18.9918010458
  0
LWPOLYLINE
  5
594
100
AcDbEntity
  8
ASSI
100
AcDbPolyline
 62
250
  6
CONTINUOUS
 90
7
 70
0
 10
2.6363923887
 20
-19.1654656386
 10
2.6782179266
 20
-19.1407988757
 10
2.713325366
 20
-19.1136389784
 10
2.741127265
 20
-19.0844404049
 10
2.7611584232
 20
-19.0536917259
 10
2.7730836653
 20
-19.0219074494
 10
2.7767224883
 20
-18.9918084549
  0
LINE
  5
595
100
AcDbEntity
  8
0
100
AcDbLine
 62
7
  6
CONTINUOUS
 10
-8.5861079368
 20
-26.4561510964
 11
-8.1602026531
 21
-26.2076367222
  0
LWPOLYLINE
  5
596
100
AcDbEntity
  8
ASSI
100
AcDbPolyline
 62
250
  6
CONTINUOUS
 90
12
 70
0
 10
0.061053212
 20
-21.7683968061
 10
0.0043774039
 20
-21.8004596396
 10
-0.0509768183
 20
-21.8320986492
 10
-0.1046846101
 20
-21.8631164396
 10
-0.1570774451
 20
-21.893699402
 10
-0.2077936392
 20
-21.9235024711
 10
-0.2567214302
 20
-21.9524442416
 10
-0.3039762769
 20
-21.980599569
 10
-0.3495339446
 20
-22.0078633126
 10
-0.3933460922
 20
-22.0341963491
 10
-0.4354621502
 20
-22.0596355131
 10
-0.5149337418
 20
-22.1078445299
  0
LWPOLYLINE
  5
597
100
AcDbEntity
  8
RACCORDO
100
AcDbPolyline
 62
250
  6
CONTINUOUS
 90
13
 70
0
 10
0.1177080693
 20
-21.7368365078
 10
0.061053212
 20
-21.7683968061
 10
0.0043774039
 20
-21.8004596396
 10
-0.0509768183
 20
-21.8320986492
 10
-0.1046846101
 20
-21.8631164396
 10
-0.1570774451
 20
-21.893699402
 10
-0.2077936392
 20
-21.9235024711
 10
-0.2567214302
 20
-21.9524442416
 10
-0.3039762769
 20
-21.980599569
 10
-0.3495339446
 20
-22.0078633126
 10
-0.3933460922
 20
-22.0341963491
 10
-0.4354621502
 20
-22.0596355131
 10
-0.5149337418
 20
-22.1078445299
  0
LINE
  5
598
100
AcDbEntity
  8
ASSI
100
AcDbLine
 62
250
  6
CONTINUOUS
 10
0.1177080693
 20
-21.7368365078
 11
0.061053212
 21
-21.7683968061
  0
LWPOLYLINE
  5
599
100
AcDbEntity
  8
ASSI
100
AcDbPolyline
 62
7
  6
CONTINUOUS
 90
7
 70
0
 10
-2.3448514427
 20
-23.1843545728
 10
-2.1293009362
 20
-23.0645410825
 10
-1.9134047385
 20
-22.9426366316
 10
-1.697177217
 20
-22.8186421552
 10
-1.4806316968
 20
-22.6925581697
 10
-1.2637812705
 20
-22.5643849155
 10
-1.046641107
 20
-22.4341239932
  0
LINE
  5
59A
100
AcDbEntity
  8
RACCORDO
100
AcDbLine
 62
250
  6
CONTINUOUS
 10
-2.1532190322
 20
-23.0777648446
 11
-2.4136560278
 21
-23.2221332068
  0
LINE
  5
59B
100
AcDbEntity
  8
ASSI
100
AcDbLine
 62
250
  6
CONTINUOUS
 10
-2.1532190322
 20
-23.0777648446
 11
-2.4136560278
 21
-23.2221332068
  0
LWPOLYLINE
  5
59C
100
AcDbEntity
  8
ASSI
100
AcDbPolyline
 62
7
  6
CONTINUOUS
 90
3
 70
0
 10
0.0617160043
 20
-21.7701316387
 10
0.1573971496
 20
-21.7174023506
 10
0.2414410215
 20
-21.6725090203
  0
LWPOLYLINE
  5
59D
100
AcDbEntity
  8
RACCORDO
100
AcDbPolyline
 62
7
  6
CONTINUOUS
 90
9
 70
0
 10
-2.4114895272
 20
-23.2210116457
 10
-2.3017547203
 20
-23.1605509067
 10
-2.0988874495
 20
-23.047483248
 10
-1.89571575
 20
-22.9325644811
 10
-1.6922516152
 20
-22.8157954237
 10
-1.4885061713
 20
-22.697176524
 10
-1.2844903229
 20
-22.5767079741
 10
-1.080216685
 20
-22.4543910818
 10
-0.8756993911
 20
-22.3302282737
  0
LINE
  5
59E
100
AcDbEntity
  8
ASSI
100
AcDbLine
 62
7
  6
CONTINUOUS
 10
-2.411489561
 20
-23.2210116642
 11
-2.3448514427
 21
-23.1843545728
  0
LINE
  5
59F
100
AcDbEntity
  8
RACCORDO
100
AcDbLine
 62
250
  6
CONTINUOUS
 10
-2.4185318707
 20
-23.2248027956
 11
-2.4136559225
 21
-23.2221331516
  0
LINE
  5
5A0
100
AcDbEntity
  8
RACCORDO
100
AcDbLine
 62
250
  6
CONTINUOUS
 10
0.1738975424
 20
-21.7060921775
 11
0.1177080693
 21
-21.7368365078
  0
LINE
  5
5A1
100
AcDbEntity
  8
ASSI
100
AcDbLine
 62
250
  6
CONTINUOUS
 10
0.1738975424
 20
-21.7060921775
 11
0.1177080693
 21
-21.7368365078
  0
LINE
  5
5A2
100
AcDbEntity
  8
RACCORDO
100
AcDbLine
 62
7
  6
CONTINUOUS
 10
-5.1510291525
 20
-24.6693108955
 11
-5.0653276132
 21
-24.6224731582
  0
LINE
  5
5A3
100
AcDbEntity
  8
ASSI
100
AcDbLine
 62
7
  6
CONTINUOUS
 10
-5.1510291525
 20
-24.6693108955
 11
-5.0653276132
 21
-24.6224731582
  0
LINE
  5
5A4
100
AcDbEntity
  8
RACCORDO
100
AcDbLine
 62
250
  6
CONTINUOUS
 10
0.2300729712
 20
-21.6758607242
 11
0.1738975424
 21
-21.7060921775
  0
LINE
  5
5A5
100
AcDbEntity
  8
ASSI
100
AcDbLine
 62
250
  6
CONTINUOUS
 10
0.2300729712
 20
-21.6758607242
 11
0.1738975424
 21
-21.7060921775
  0
LINE
  5
5A6
100
AcDbEntity
  8
RACCORDO
100
AcDbLine
 62
7
  6
CONTINUOUS
 10
-2.4185318707
 20
-23.2248027956
 11
-2.4114894814
 21
-23.2210113796
  0
LWPOLYLINE
  5
5A7
100
AcDbEntity
  8
RACCORDO
100
AcDbPolyline
 62
250
  6
CONTINUOUS
 90
3
 70
0
 10
0.2579846868
 20
-21.6638354392
 10
0.2620697148
 20
-21.661648525
 10
0.2862245381
 20
-21.6461253667
  0
LWPOLYLINE
  5
5A8
100
AcDbEntity
  8
ASSI
100
AcDbPolyline
 62
250
  6
CONTINUOUS
 90
3
 70
0
 10
0.2579846868
 20
-21.6638354392
 10
0.2620697148
 20
-21.661648525
 10
0.2862245381
 20
-21.6461253667
  0
LINE
  5
5A9
100
AcDbEntity
  8
RACCORDO
100
AcDbLine
 62
7
  6
CONTINUOUS
 10
0.1723400236
 20
-21.7093156738
 11
0.2336138984
 21
-21.6766131153
  0
LWPOLYLINE
  5
5AA
100
AcDbEntity
  8
RACCORDO
100
AcDbPolyline
 62
7
  6
CONTINUOUS
 90
9
 70
0
 10
0.960699076
 20
-21.2977786756
 10
0.9687622309
 20
-21.2934837289
 10
0.9767507647
 20
-21.2890392267
 10
0.984661199
 20
-21.2844467528
 10
0.9924907164
 20
-21.2797076124
 10
1.0002352561
 20
-21.2748239794
 10
1.0078896758
 20
-21.2697989543
 10
1.0154502293
 20
-21.2646349952
 10
1.0229134244
 20
-21.2593345595
  0
LWPOLYLINE
  5
5AB
100
AcDbEntity
  8
ASSI
100
AcDbPolyline
 62
7
  6
CONTINUOUS
 90
10
 70
0
 10
0.960699076
 20
-21.2977786756
 10
0.9687552504
 20
-21.2934875294
 10
0.9767392919
 20
-21.2890457476
 10
0.9846476408
 20
-21.2844547906
 10
0.9924781622
 20
-21.2797153689
 10
1.0002259119
 20
-21.2748299919
 10
1.0078834066
 20
-21.2698031525
 10
1.015446163
 20
-21.2646378274
 10
1.0229124321
 20
-21.2593352916
 10
1.0301259435
 20
-21.2540130166
  0
LINE
  5
5AC
100
AcDbEntity
  8
RACCORDO
100
AcDbLine
 62
250
  6
CONTINUOUS
 10
0.2862359447
 20
-21.6461440882
 11
0.2300729712
 21
-21.6758607242
  0
LINE
  5
5AD
100
AcDbEntity
  8
ASSI
100
AcDbLine
 62
250
  6
CONTINUOUS
 10
0.2862359447
 20
-21.6461440882
 11
0.2300729712
 21
-21.6758607242
  0
LINE
  5
5AE
100
AcDbEntity
  8
ASSI
100
AcDbLine
 62
7
  6
CONTINUOUS
 10
-2.4136560278
 20
-23.2221332068
 11
-5.0653276132
 21
-24.6224731582
  0
LINE
  5
5AF
100
AcDbEntity
  8
RACCORDO
100
AcDbLine
 62
250
  6
CONTINUOUS
 10
-2.4136560278
 20
-23.2221332068
 11
-2.4185318709
 21
-23.2248027957
  0
LINE
  5
5B0
100
AcDbEntity
  8
RACCORDO
100
AcDbLine
 62
7
  6
CONTINUOUS
 10
-5.070021285
 20
-24.6250374607
 11
-2.4185318709
 21
-23.2248027957
  0
LINE
  5
5B1
100
AcDbEntity
  8
RACCORDO
100
AcDbLine
 62
250
  6
CONTINUOUS
 10
2.6363923887
 20
-19.1654656386
 11
-5.0465765721
 21
-23.2016368406
  0
LINE
  5
5B2
100
AcDbEntity
  8
ASSI
100
AcDbLine
 62
250
  6
CONTINUOUS
 10
2.6363923887
 20
-19.1654656386
 11
-5.0465765721
 21
-23.2016368406
  0
LINE
  5
5B3
100
AcDbEntity
  8
RACCORDO
100
AcDbLine
 62
250
  6
CONTINUOUS
 10
2.329533429
 20
-20.0892781883
 11
-5.1510291525
 21
-24.0179651625
  0
LINE
  5
5B4
100
AcDbEntity
  8
ASSI
100
AcDbLine
 62
250
  6
CONTINUOUS
 10
2.329533429
 20
-20.0892781883
 11
-5.1510291525
 21
-24.0179651625
  0
LWPOLYLINE
  5
5B5
100
AcDbEntity
  8
RACCORDO
100
AcDbPolyline
 62
250
  6
CONTINUOUS
 90
9
 70
0
 10
-9.0644324175
 20
-26.4919321679
 10
-8.998235897
 20
-26.4573307098
 10
-8.6175750801
 20
-26.2318817115
 10
-8.2492317932
 20
-25.9863363928
 10
-7.893513711
 20
-25.7209158686
 10
-7.5513438573
 20
-25.4362834835
 10
-7.223029907
 20
-25.1326603525
 10
-6.9082641854
 20
-24.8098253606
 10
-6.6070466924
 20
-24.467778508
  0
LWPOLYLINE
  5
5B6
100
AcDbEntity
  8
RACCORDO
100
AcDbPolyline
 62
250
  6
CONTINUOUS
 90
3
 70
0
 10
-9.0792885312
 20
-26.7073294447
 10
-8.768852861
 20
-26.5450759108
 10
-8.3846347209
 20
-26.317568482
  0
LINE
  5
5B7
100
AcDbEntity
  8
RACCORDO
100
AcDbLine
 62
250
  6
CONTINUOUS
 10
0.9885202505
 20
-21.2803843177
 11
0.8714619427
 21
-21.3413547901
  0
LINE
  5
5B8
100
AcDbEntity
  8
RACCORDO
100
AcDbLine
 62
250
  6
CONTINUOUS
 10
0.8714619427
 20
-21.3413547901
 11
0.4032724045
 21
-21.5851946278
  0
LINE
  5
5B9
100
AcDbEntity
  8
RACCORDO
100
AcDbLine
 62
250
  6
CONTINUOUS
 10
0.4032724045
 20
-21.5851946278
 11
0.2862359447
 21
-21.6461440882
  0
LINE
  5
5BA
100
AcDbEntity
  8
ASSI
100
AcDbLine
 62
250
  6
CONTINUOUS
 10
0.9885202505
 20
-21.2803843177
 11
0.2862359447
 21
-21.6461440882
  0
LINE
  5
5BB
100
AcDbEntity
  8
RACCORDO
100
AcDbLine
 62
7
  6
CONTINUOUS
 10
0.2336138984
 20
-21.6766131153
 11
0.960699076
 21
-21.2977786756
  0
LINE
  5
5BC
100
AcDbEntity
  8
ASSI
100
AcDbLine
 62
7
  6
CONTINUOUS
 10
0.2414410215
 20
-21.6725090203
 11
0.960699076
 21
-21.2977786756
  0
LINE
  5
5BD
100
AcDbEntity
  8
RACCORDO
100
AcDbLine
 62
250
  6
CONTINUOUS
 10
-2.4136559225
 20
-23.2221331516
 11
-2.411643619
 21
-23.2210959212
  0
LINE
  5
5BE
100
AcDbEntity
  8
ASSI
100
AcDbLine
 62
250
  6
CONTINUOUS
 10
-2.4136559225
 20
-23.2221331516
 11
-2.4116436506
 21
-23.2210959385
  0
LWPOLYLINE
  5
5BF
100
AcDbEntity
  8
0
100
AcDbPolyline
 62
7
  6
CONTINUOUS
 90
3
 70
0
 10
-9.0795851765
 20
-26.7116304749
 10
-9.0230168681
 20
-26.684324318
 10
-8.5861079368
 20
-26.4561510964
  0
LINE
  5
5C0
100
AcDbEntity
  8
RACCORDO
100
AcDbLine
 62
250
  6
CONTINUOUS
 10
-6.1582481138
 20
-23.6730872844
 11
-5.0449631354
 21
-23.1435499592
  0
LINE
  5
5C1
100
AcDbEntity
  8
0
100
AcDbLine
 62
7
  6
CONTINUOUS
 10
-5.1510291525
 20
-23.7485893075
 11
-5.5485330248
 21
-23.9376637472
  0
LINE
  5
5C2
100
AcDbEntity
  8
0
100
AcDbLine
 62
250
  6
CONTINUOUS
 10
-6.3574151455
 20
-24.5397218494
 11
-5.845032624
 21
-24.2959203107
  0
LINE
  5
5C3
100
AcDbEntity
  8
ASSI
100
AcDbLine
 62
250
  6
CONTINUOUS
 10
-0.7700430099
 20
-22.2654177222
 11
-0.7784025407
 21
-22.2693610013
  0
LINE
  5
5C4
100
AcDbEntity
  8
RACCORDO
100
AcDbLine
 62
250
  6
CONTINUOUS
 10
-0.7700430395
 20
-22.2654177404
 11
-0.7784025407
 21
-22.2693610013
  0
LINE
  5
5C5
100
AcDbEntity
  8
RACCORDO
100
AcDbLine
 62
250
  6
CONTINUOUS
 10
-8.504215614
 20
-23.5591361707
 11
-8.87296243
 21
-23.7158283607
  0
LINE
  5
5C6
100
AcDbEntity
  8
RACCORDO
100
AcDbLine
 62
7
  6
CONTINUOUS
 10
-8.6870894776
 20
-24.0679011919
 11
-8.9035905707
 21
-24.1599026479
  0
LWPOLYLINE
  5
5C7
100
AcDbEntity
  8
RACCORDO
100
AcDbPolyline
 62
7
  6
CONTINUOUS
 90
9
 70
0
 10
-6.7347852364
 20
17.5097347526
 10
-6.8494281757
 20
17.4787882432
 10
-6.961072031
 20
17.4445434298
 10
-7.0694259948
 20
17.4070339942
 10
-7.1741357162
 20
17.3663203444
 10
-7.2748818267
 20
17.3224592065
 10
-7.371461875
 20
17.2754545927
 10
-7.4634723947
 20
17.2254068387
 10
-7.5434507292
 20
17.1767447266
  0
LINE
  5
5C8
100
AcDbEntity
  8
RACCORDO
100
AcDbLine
 62
250
  6
CONTINUOUS
 10
-6.7535698121
 20
17.4711925832
 11
-6.6535867052
 21
17.4969861141
  0
LINE
  5
5C9
100
AcDbEntity
  8
0
100
AcDbLine
 62
7
  6
CONTINUOUS
 10
-15.9854626061
 20
16.3576434767
 11
-16.0245936877
 21
16.3475904131
  0
LWPOLYLINE
  5
5CA
100
AcDbEntity
  8
0
100
AcDbPolyline
 62
7
  6
CONTINUOUS
 90
10
 70
0
 10
-13.1817306943
 20
17.6937456339
 10
-13.1422586905
 20
17.7038471218
 10
-13.1016464559
 20
17.7099899142
 10
-13.0598939903
 20
17.7121740112
 10
-13.0168150443
 20
17.7103751621
 10
-12.9725958675
 20
17.7046176175
 10
-12.9277952082
 20
17.6949741291
 10
-12.8825993159
 20
17.6814689475
 10
-12.8368219413
 20
17.6640778221
 10
-12.7904630842
 20
17.6428007529
  0
LWPOLYLINE
  5
5CB
100
AcDbEntity
  8
ASSI
100
AcDbPolyline
 62
7
  6
CONTINUOUS
 90
10
 70
0
 10
-13.1817306943
 20
17.6937456339
 10
-13.1422586905
 20
17.7038471218
 10
-13.1016464559
 20
17.7099899142
 10
-13.0598939903
 20
17.7121740112
 10
-13.0168150443
 20
17.7103751621
 10
-12.9725958675
 20
17.7046176175
 10
-12.9277952082
 20
17.6949741291
 10
-12.8825993159
 20
17.6814689475
 10
-12.8368219413
 20
17.6640778221
 10
-12.7904630842
 20
17.6428007529
  0
LWPOLYLINE
  5
5CC
100
AcDbEntity
  8
ASSI
100
AcDbPolyline
 62
250
  6
CONTINUOUS
 90
33
 70
0
 10
-16.4723808495
 20
16.1016074275
 10
-16.4819772888
 20
16.0992933543
 10
-16.4905243467
 20
16.0973778182
 10
-16.4980227956
 20
16.0958626671
 10
-16.5044156976
 20
16.0947786132
 10
-16.5097614325
 20
16.0940983813
 10
-16.5142337
 20
16.0937367147
 10
-16.5178333365
 20
16.0936928565
 10
-16.5205607505
 20
16.0939705152
 10
-16.5225889154
 20
16.0944909299
 10
-16.5239234414
 20
16.0952513894
 10
-16.5245596909
 20
16.0962569014
 10
-16.5246551405
 20
16.0974399846
 10
-16.5242207914
 20
16.0987950031
 10
-16.5232463511
 20
16.1003292608
 10
-16.5218572233
 20
16.1019943732
 10
-16.5200691201
 20
16.1037833294
 10
-16.5178668042
 20
16.105704255
 10
-16.5153291408
 20
16.1077312031
 10
-16.5124719649
 20
16.1098577363
 10
-16.5092797476
 20
16.1120910088
 10
-16.5057842296
 20
16.1144252767
 10
-16.5020003537
 20
16.1168547363
 10
-16.4979133753
 20
16.1193856546
 10
-16.4935104591
 20
16.1220302874
 10
-16.4888058045
 20
16.1247834078
 10
-16.4837853442
 20
16.1276505513
 10
-16.4783938225
 20
16.1306600677
 10
-16.4726453249
 20
16.1338070931
 10
-16.4665258567
 20
16.1370967033
 10
-16.4599380353
 20
16.1405721428
 10
-16.4528494205
 20
16.1442478744
 10
-16.4452925092
 20
16.1481095672
  0
LINE
  5
5CD
100
AcDbEntity
  8
RACCORDO
100
AcDbLine
 62
7
  6
CONTINUOUS
 10
-6.6174020804
 20
17.5373572462
 11
-6.7347852364
 21
17.5097347526
  0
LINE
  5
5CE
100
AcDbEntity
  8
RACCORDO
100
AcDbLine
 62
250
  6
CONTINUOUS
 10
-6.6535867052
 20
17.4969861141
 11
-6.5508682773
 21
17.5202918843
  0
LINE
  5
5CF
100
AcDbEntity
  8
ASSI
100
AcDbLine
 62
250
  6
CONTINUOUS
 10
-16.4651112286
 20
16.1032539676
 11
-16.4723820628
 21
16.10160684
  0
LWPOLYLINE
  5
5D0
100
AcDbEntity
  8
ASSI
100
AcDbPolyline
 62
7
  6
CONTINUOUS
 90
7
 70
0
 10
-15.8802327709
 20
16.3915814608
 10
-15.8681925749
 20
16.3941006365
 10
-15.855807986
 20
16.394908115
 10
-15.8430790043
 20
16.3940038961
 10
-15.8300056297
 20
16.39138798
 10
-15.8165878623
 20
16.3870603665
 10
-15.8028257021
 20
16.3810210557
  0
LWPOLYLINE
  5
5D1
100
AcDbEntity
  8
RACCORDO
100
AcDbPolyline
 62
250
  6
CONTINUOUS
 90
20
 70
0
 10
-6.5508682773
 20
17.5202918843
 10
-6.4461984135
 20
17.5409310117
 10
-6.3395612249
 20
17.5588829767
 10
-6.2309726003
 20
17.574168299
 10
-6.1212640907
 20
17.5866696551
 10
-6.0104282
 20
17.5963654268
 10
-5.8984724243
 20
17.6032772324
 10
-5.7862508032
 20
17.6073526036
 10
-5.6737619795
 20
17.6085698937
 10
-5.5610073104
 20
17.6069507493
 10
-5.4488449075
 20
17.6025076431
 10
-5.3372789967
 20
17.5952190777
 10
-5.226305352
 20
17.5851065504
 10
-5.1167694071
 20
17.572247025
 10
-5.0086809316
 20
17.5566198579
 10
-4.9020301559
 20
17.5382456926
 10
-4.7976332041
 20
17.5172634238
 10
-4.6957621176
 20
17.4937193497
 10
-4.596144855
 20
17.467567172
 10
-4.4987814163
 20
17.4388068909
  0
LWPOLYLINE
  5
5D2
100
AcDbEntity
  8
ASSI
100
AcDbPolyline
 62
7
  6
CONTINUOUS
 90
3
 70
0
 10
-12.2141976318
 20
18.188966759
 10
-12.2590833199
 20
18.1836903951
 10
-12.3056922294
 20
18.1743691013
  0
LWPOLYLINE
  5
5D3
100
AcDbEntity
  8
RACCORDO
100
AcDbPolyline
 62
7
  6
CONTINUOUS
 90
10
 70
0
 10
-2.46337829
 20
19.1938132269
 10
-2.4489609192
 20
19.1922733239
 10
-2.3081802687
 20
19.1641841461
 10
-2.1658068362
 20
19.1227890793
 10
-2.0222979467
 20
19.0680860717
 10
-1.8783656338
 20
19.0001876121
 10
-1.7358273908
 20
18.9199487887
 10
-1.5954912009
 20
18.8279922888
 10
-1.4576916062
 20
18.724674792
 10
-1.3606961103
 20
18.6424721371
  0
LWPOLYLINE
  5
5D4
100
AcDbEntity
  8
ASSI
100
AcDbPolyline
 62
7
  6
CONTINUOUS
 90
8
 70
0
 10
-2.4588591732
 20
19.1915536685
 10
-2.4136006399
 20
19.1864388548
 10
-2.2197899384
 20
19.1400027807
 10
-2.0227434692
 20
19.068275905
 10
-1.8246221622
 20
18.9714661753
 10
-1.6299091109
 20
18.8517597019
 10
-1.4408024047
 20
18.7110904729
 10
-1.365383022
 20
18.6448155929
  0
LWPOLYLINE
  5
5D5
100
AcDbEntity
  8
ASSI
100
AcDbPolyline
 62
250
  6
CONTINUOUS
 90
5
 70
0
 10
0.6574263201
 20
19.1246872535
 10
0.6249397267
 20
19.1294095904
 10
0.590854068
 20
19.1290919167
 10
0.5555419409
 20
19.1237392553
 10
0.5193797785
 20
19.1134101625
  0
LWPOLYLINE
  5
5D6
100
AcDbEntity
  8
RACCORDO
100
AcDbPolyline
 62
250
  6
CONTINUOUS
 90
9
 70
0
 10
-2.3488474531
 20
19.1365478085
 10
-2.3293321882
 20
19.1314267259
 10
-2.2155532322
 20
19.0927602108
 10
-2.1051628767
 20
19.0470588358
 10
-1.9990889599
 20
18.9956435515
 10
-1.8971861363
 20
18.9393426311
 10
-1.8002169057
 20
18.8794395048
 10
-1.7087920214
 20
18.8172257198
 10
-1.7058631936
 20
18.8150556787
  0
LWPOLYLINE
  5
5D7
100
AcDbEntity
  8
ASSI
100
AcDbPolyline
 62
250
  6
CONTINUOUS
 90
9
 70
0
 10
-2.3488474531
 20
19.1365478085
 10
-2.3293321882
 20
19.1314267259
 10
-2.2155532322
 20
19.0927602108
 10
-2.1051628767
 20
19.0470588358
 10
-1.9990889599
 20
18.9956435515
 10
-1.8971861363
 20
18.9393426311
 10
-1.8002169057
 20
18.8794395048
 10
-1.7087920214
 20
18.8172257198
 10
-1.7058631936
 20
18.8150556787
  0
LWPOLYLINE
  5
5D8
100
AcDbEntity
  8
RACCORDO
100
AcDbPolyline
 62
250
  6
CONTINUOUS
 90
6
 70
0
 10
-4.165437815
 20
21.542101871
 10
-4.2031847129
 20
21.5548533625
 10
-4.2439489712
 20
21.5598639914
 10
-4.2870484939
 20
21.5570499162
 10
-4.3317621103
 20
21.5464582241
 10
-4.3773416413
 20
21.5282661425
  0
LWPOLYLINE
  5
5D9
100
AcDbEntity
  8
ASSI
100
AcDbPolyline
 62
250
  6
CONTINUOUS
 90
6
 70
0
 10
-4.1620394392
 20
21.540498058
 10
-4.2031847129
 20
21.5548533625
 10
-4.2439489712
 20
21.5598639914
 10
-4.2870484939
 20
21.5570499162
 10
-4.3317621103
 20
21.5464582241
 10
-4.3773416413
 20
21.5282661425
  0
LWPOLYLINE
  5
5DA
100
AcDbEntity
  8
RACCORDO
100
AcDbPolyline
 62
7
  6
CONTINUOUS
 90
6
 70
0
 10
-4.1991027348
 20
21.5572431488
 10
-4.2505523672
 20
21.5755091896
 10
-4.3031633307
 20
21.5886202384
 10
-4.3564904925
 20
21.5965181106
 10
-4.4100881701
 20
21.5991683392
 10
-4.4632785237
 20
21.5965826182
  0
LWPOLYLINE
  5
5DB
100
AcDbEntity
  8
ASSI
100
AcDbPolyline
 62
7
  6
CONTINUOUS
 90
4
 70
0
 10
-4.1620476908
 20
21.5404812985
 10
-4.2158170832
 20
21.5637872672
 10
-4.2944975307
 20
21.5868312755
 10
-4.374670665
 20
21.5980061437
  0
LINE
  5
5DC
100
AcDbEntity
  8
RACCORDO
100
AcDbLine
 62
7
  6
CONTINUOUS
 10
-4.1605904364
 20
21.5397679904
 11
-4.1991027348
 21
21.5572431488
  0
LINE
  5
5DD
100
AcDbEntity
  8
0
100
AcDbLine
 62
250
  6
CONTINUOUS
 10
-5.5485330248
 20
-28.4460769618
 11
-5.1510291525
 21
-28.2624965008
  0
LWPOLYLINE
  5
5DE
100
AcDbEntity
  8
RACCORDO
100
AcDbPolyline
 62
7
  6
CONTINUOUS
 90
3
 70
0
 10
-12.2996507835
 20
18.1758109104
 10
-12.3441008551
 20
18.1635435415
 10
-12.3901156673
 20
18.1467095118
  0
LWPOLYLINE
  5
5DF
100
AcDbEntity
  8
RACCORDO
100
AcDbPolyline
 62
7
  6
CONTINUOUS
 90
3
 70
0
 10
-4.4632785237
 20
21.5965826182
 10
-4.5155304799
 20
21.5888709257
 10
-4.5665247042
 20
21.576170696
  0
LWPOLYLINE
  5
5E0
100
AcDbEntity
  8
ASSI
100
AcDbPolyline
 62
7
  6
CONTINUOUS
 90
4
 70
0
 10
-4.374670665
 20
21.5980061437
 10
-4.4548063221
 20
21.5973456656
 10
-4.5336287558
 20
21.5849652736
 10
-4.609321587
 20
21.5612760493
  0
LINE
  5
5E1
100
AcDbEntity
  8
0
100
AcDbLine
 62
7
  6
CONTINUOUS
 10
-5.6844448737
 20
-28.7193496649
 11
-5.2861833209
 21
-28.5354192819
  0
LWPOLYLINE
  5
5E2
100
AcDbEntity
  8
0
100
AcDbPolyline
 62
250
  6
CONTINUOUS
 90
10
 70
0
 10
-5.5485330248
 20
-28.4460769618
 10
-5.5686135955
 20
-28.4542234278
 10
-5.5911936889
 20
-28.460524306
 10
-5.6156021413
 20
-28.4647924495
 10
-5.6411135915
 20
-28.4669011367
 10
-5.6669698223
 20
-28.4667878095
 10
-5.6924022942
 20
-28.4644559873
 10
-5.7166553091
 20
-28.4599751487
 10
-5.7390084579
 20
-28.4534785915
 10
-5.7587977976
 20
-28.4451594854
  0
LWPOLYLINE
  5
5E3
100
AcDbEntity
  8
RACCORDO
100
AcDbPolyline
 62
250
  6
CONTINUOUS
 90
11
 70
0
 10
-13.8465987455
 20
-31.8064646601
 10
-13.8381764817
 20
-31.8033546715
 10
-13.8072881559
 20
-31.7882672646
 10
-13.7786187585
 20
-31.7682045374
 10
-13.7524822092
 20
-31.7433862332
 10
-13.7291646724
 20
-31.7140841605
 10
-13.7089214341
 20
-31.6806192123
 10
-13.6919741202
 20
-31.643357869
 10
-13.6785082592
 20
-31.60270817
 10
-13.6686712536
 20
-31.5591152415
 10
-13.6625707713
 20
-31.5130564306
  0
LINE
  5
5E4
100
AcDbEntity
  8
RACCORDO
100
AcDbLine
 62
250
  6
CONTINUOUS
 10
-9.3069183298
 20
-30.0077106613
 11
-13.6625707713
 21
-31.5130564306
  0
LINE
  5
5E5
100
AcDbEntity
  8
RACCORDO
100
AcDbLine
 62
7
  6
CONTINUOUS
 10
-13.8469886453
 20
-31.806598992
 11
-9.4859404246
 21
-30.2993888218
  0
LWPOLYLINE
  5
5E6
100
AcDbEntity
  8
RACCORDO
100
AcDbPolyline
 62
250
  6
CONTINUOUS
 90
19
 70
0
 10
-13.6625707713
 20
-31.5130564306
 10
-13.6924846262
 20
-31.5218140529
 10
-13.7215459213
 20
-31.52733678
 10
-13.7497546564
 20
-31.529624612
 10
-13.7773068834
 20
-31.5286510987
 10
-13.8040065504
 20
-31.5244426903
 10
-13.8292655023
 20
-31.5170787371
 10
-13.8530409147
 20
-31.5064914951
 10
-13.8753756119
 20
-31.4927487085
 10
-13.8958099121
 20
-31.4761329594
 10
-13.9143047352
 20
-31.456584025
 10
-13.9308991614
 20
-31.4341621283
 10
-13.9452507492
 20
-31.4093305202
 10
-13.9573134834
 20
-31.3820227047
 10
-13.9671333792
 20
-31.3523051778
 10
-13.9745060415
 20
-31.3208406795
 10
-13.9793633385
 20
-31.2878501229
 10
-13.9817734019
 20
-31.2531125949
 10
-13.9817362317
 20
-31.2166280953
  0
ELLIPSE
  5
5E7
100
AcDbEntity
  8
0
100
AcDbEllipse
 62
7
  6
CONTINUOUS
 10
-20.5659031263
 20
17.3768531618
 30
0.0
 11
-0.2237009107
 21
0.4473351135
 31
0.0
 40
0.6121897086
 41
-0.6846338794
 42
0.019016077
  0
ELLIPSE
  5
5E8
100
AcDbEntity
  8
0
100
AcDbEllipse
 62
7
  6
CONTINUOUS
 10
-5.5046363992
 20
-28.0855609675
 30
0.0
 11
-0.2237009107
 21
0.4473351135
 31
0.0
 40
0.6121897086
 41
-3.1606090686
 42
-2.2557347926
  0
ELLIPSE
  5
5E9
100
AcDbEntity
  8
0
100
AcDbEllipse
 62
7
  6
CONTINUOUS
 10
-5.5046363992
 20
9.8462197983
 30
0.0
 11
-0.2235807756
 21
0.4472283268
 31
0.0
 40
0.6125552124
 41
-2.255296188
 42
-0.6848044477
  0
ELLIPSE
  5
5EA
100
AcDbEntity
  8
RACCORDO
100
AcDbEllipse
 62
7
  6
CONTINUOUS
 10
-6.7724576215
 20
-0.9180102105
 30
0.0
 11
0.2005561681
 21
-0.0021295538
 31
0.0
 40
0.4891526878
 41
3.9294042501
 42
5.4828773916
  0
ELLIPSE
  5
5EB
100
AcDbEntity
  8
RACCORDO
100
AcDbEllipse
 62
7
  6
CONTINUOUS
 10
-6.7724576215
 20
-19.1711935382
 30
0.0
 11
0.2005502732
 21
0.0036386004
 31
0.0
 40
0.5104433251
 41
-2.3682357028
 42
-0.8147625613
  0
ELLIPSE
  5
5EC
100
AcDbEntity
  8
RACCORDO
100
AcDbEllipse
 62
7
  6
CONTINUOUS
 10
-6.8785236386
 20
-19.1181605296
 30
0.0
 11
0.2005502732
 21
0.0036386004
 31
0.0
 40
0.5104433251
 41
-2.3682357028
 42
-0.8147625613
  0
ELLIPSE
  5
5ED
100
AcDbEntity
  8
DRAFT
100
AcDbEllipse
 62
7
  6
CONTINUOUS
 10
-9.9213154107
 20
10.6786616823
 30
0.0
 11
-0.1874317891
 21
0.5510210025
 31
0.0
 40
0.6669031534
 41
-2.8632939338
 42
0.1660758833
  0
ELLIPSE
  5
5EE
100
AcDbEntity
  8
DRAFT
100
AcDbEllipse
 62
7
  6
CONTINUOUS
 10
-17.6994900037
 20
14.5677489789
 30
0.0
 11
-0.1874317891
 21
0.5510210025
 31
0.0
 40
0.6669031534
 41
-2.8632939338
 42
0.1660758833
  0
ELLIPSE
  5
5EF
100
AcDbEntity
  8
RACCORDO
100
AcDbEllipse
 62
7
  6
CONTINUOUS
 10
-21.9426817553
 20
15.8726020334
 30
0.0
 11
-0.1828920694
 21
0.4656153856
 31
0.0
 40
0.6532976604
 41
-0.6278386123
 42
0.0271369703
  0
ELLIPSE
  5
5F0
100
AcDbEntity
  8
RACCORDO
100
AcDbEllipse
 62
7
  6
CONTINUOUS
 10
-7.0228363844
 20
8.412679348
 30
0.0
 11
-0.1826623061
 21
0.4654722043
 31
0.0
 40
0.6538654528
 41
-2.1982822863
 42
-0.6279428103
  0
ELLIPSE
  5
5F1
100
AcDbEntity
  8
RACCORDO
100
AcDbEllipse
 62
7
  6
CONTINUOUS
 10
-9.6605114941
 20
-29.8307028599
 30
0.0
 11
-0.1828920694
 21
0.4656153856
 31
0.0
 40
0.6532976604
 41
-3.1687296359
 42
-2.1990917899
  0
ELLIPSE
  5
5F2
100
AcDbEntity
  8
DRAFT
100
AcDbEllipse
 62
7
  6
CONTINUOUS
 10
1.1775765391
 20
12.7101936115
 30
0.0
 11
2.6995028143
 21
-0.1108788769
 31
0.0
 40
0.4672909446
 41
2.3928388478
 42
2.8885731487
  0
ELLIPSE
  5
5F3
100
AcDbEntity
  8
DRAFT
100
AcDbEllipse
 62
7
  6
CONTINUOUS
 10
1.8846833203
 20
12.1368928342
 30
0.0
 11
2.7999338239
 21
-0.0393479794
 31
0.0
 40
0.4892375088
 41
0.7268246302
 42
2.1371003781
  0
ELLIPSE
  5
5F4
100
AcDbEntity
  8
DRAFT
100
AcDbEllipse
 62
7
  6
CONTINUOUS
 10
-5.1863844916
 20
16.3652470631
 30
0.0
 11
2.7999338239
 21
-0.0393479794
 31
0.0
 40
0.4892375088
 41
7.194789037
 42
8.4190700833
  0
ELLIPSE
  5
5F5
100
AcDbEntity
  8
DRAFT
100
AcDbEllipse
 62
7
  6
CONTINUOUS
 10
-5.8601713425
 20
16.9530691273
 30
0.0
 11
2.6995028143
 21
-0.1108788769
 31
0.0
 40
0.4672909446
 41
2.3928388478
 42
2.7418921552
  0
ELLIPSE
  5
5F6
100
AcDbEntity
  8
RACCORDO
100
AcDbEllipse
 62
7
  6
CONTINUOUS
 10
7.044134943
 20
14.3352803078
 30
0.0
 11
0.5078963414
 21
0.3040339819
 31
0.0
 40
0.0955345833
 41
0.0608564282
 42
0.7281223435
  0
ELLIPSE
  5
5F7
100
AcDbEntity
  8
RACCORDO
100
AcDbEllipse
 62
7
  6
CONTINUOUS
 10
-0.0275144704
 20
18.9142354477
 30
0.0
 11
0.5078963414
 21
0.3040339819
 31
0.0
 40
0.0955345833
 41
0.0608564282
 42
0.7281223435
  0
ELLIPSE
  5
5F8
100
AcDbEntity
  8
RACCORDO
100
AcDbEllipse
 62
7
  6
CONTINUOUS
 10
3.0891927282
 20
16.3127514151
 30
0.0
 11
-0.3622213317
 21
0.604758663
 31
0.0
 40
0.5487841728
 41
4.6863149424
 42
6.2396579766
  0
ELLIPSE
  5
5F9
100
AcDbEntity
  8
RACCORDO
100
AcDbEllipse
 62
7
  6
CONTINUOUS
 10
-3.9812934821
 20
20.8911249535
 30
0.0
 11
-0.3622213317
 21
0.604758663
 31
0.0
 40
0.5487841728
 41
4.6863149424
 42
6.2396579766
  0
ELLIPSE
  5
5FA
100
AcDbEntity
  8
DRAFT
100
AcDbEllipse
 62
7
  6
CONTINUOUS
 10
1.8846833203
 20
13.0183605339
 30
0.0
 11
2.7994844001
 21
-0.114985502
 31
0.0
 40
0.4672909446
 41
0.295419578
 42
2.1494162078
  0
ELLIPSE
  5
5FB
100
AcDbEntity
  8
DRAFT
100
AcDbEllipse
 62
7
  6
CONTINUOUS
 10
-5.1863844916
 20
17.2467147629
 30
0.0
 11
2.7994844001
 21
-0.114985502
 31
0.0
 40
0.4672909446
 41
0.4989599013
 42
2.1482006058
  0
ELLIPSE
  5
5FC
100
AcDbEntity
  8
RACCORDO
100
AcDbEllipse
 62
7
  6
CONTINUOUS
 10
-5.5263405842
 20
14.3880228938
 30
0.0
 11
0.1677841941
 21
0.4740861062
 31
0.0
 40
0.4918293396
 41
-0.0609724642
 42
0.6062934277
  0
ELLIPSE
  5
5FD
100
AcDbEntity
  8
ASSI
100
AcDbEllipse
 62
7
  6
CONTINUOUS
 10
1.1775765391
 20
12.7101936115
 30
0.0
 11
2.6995028143
 21
-0.1108788769
 31
0.0
 40
0.4672909446
 41
8.676024155
 42
9.1717584558
  0
ELLIPSE
  5
5FE
100
AcDbEntity
  8
ASSI
100
AcDbEllipse
 62
7
  6
CONTINUOUS
 10
-5.8601713425
 20
16.9530691273
 30
0.0
 11
2.6995028143
 21
-0.1108788769
 31
0.0
 40
0.4672909446
 41
8.676024155
 42
9.0250774624
  0
ELLIPSE
  5
5FF
100
AcDbEntity
  8
ASSI
100
AcDbEllipse
 62
7
  6
CONTINUOUS
 10
7.044134943
 20
14.3352803078
 30
0.0
 11
0.5078963414
 21
0.3040339819
 31
0.0
 40
0.0955345833
 41
0.0608564282
 42
0.7281223435
  0
ELLIPSE
  5
600
100
AcDbEntity
  8
ASSI
100
AcDbEllipse
 62
7
  6
CONTINUOUS
 10
-0.0275144704
 20
18.9142354477
 30
0.0
 11
0.5078963414
 21
0.3040339819
 31
0.0
 40
0.0955345833
 41
0.0608564282
 42
0.7281223435
  0
ELLIPSE
  5
601
100
AcDbEntity
  8
ASSI
100
AcDbEllipse
 62
7
  6
CONTINUOUS
 10
1.8846833203
 20
12.1368928342
 30
0.0
 11
2.7999338239
 21
-0.0393479794
 31
0.0
 40
0.4892375088
 41
0.7268246302
 42
2.1371003781
  0
ELLIPSE
  5
602
100
AcDbEntity
  8
ASSI
100
AcDbEllipse
 62
7
  6
CONTINUOUS
 10
-5.1863844916
 20
16.3652470631
 30
0.0
 11
2.7999338239
 21
-0.0393479794
 31
0.0
 40
0.4892375088
 41
7.194789037
 42
8.4190700833
  0
ELLIPSE
  5
603
100
AcDbEntity
  8
ASSI
100
AcDbEllipse
 62
7
  6
CONTINUOUS
 10
-5.5263405842
 20
14.3880228938
 30
0.0
 11
0.1677841941
 21
0.4740861062
 31
0.0
 40
0.4918293396
 41
-0.0609724642
 42
0.6062934277
  0
ELLIPSE
  5
604
100
AcDbEntity
  8
ASSI
100
AcDbEllipse
 62
7
  6
CONTINUOUS
 10
3.0891927282
 20
16.3127514151
 30
0.0
 11
-0.3622213317
 21
0.604758663
 31
0.0
 40
0.5487841728
 41
4.6863149424
 42
6.2396579766
  0
ELLIPSE
  5
605
100
AcDbEntity
  8
ASSI
100
AcDbEllipse
 62
7
  6
CONTINUOUS
 10
-3.9812934821
 20
20.8911249535
 30
0.0
 11
-0.3622213317
 21
0.604758663
 31
0.0
 40
0.5487841728
 41
4.6863149424
 42
6.2396579766
  0
ELLIPSE
  5
606
100
AcDbEntity
  8
ASSI
100
AcDbEllipse
 62
7
  6
CONTINUOUS
 10
-10.0654212818
 20
12.8196040987
 30
0.0
 11
-0.0893707736
 21
0.1790031855
 31
0.0
 40
0.6122975693
 41
-3.162544158
 42
-2.2548589362
  0
ELLIPSE
  5
607
100
AcDbEntity
  8
ASSI
100
AcDbEllipse
 62
7
  6
CONTINUOUS
 10
1.8846833203
 20
13.0183605339
 30
0.0
 11
2.7994844001
 21
-0.114985502
 31
0.0
 40
0.4672909446
 41
0.295419578
 42
2.1494162078
  0
ELLIPSE
  5
608
100
AcDbEntity
  8
ASSI
100
AcDbEllipse
 62
7
  6
CONTINUOUS
 10
-5.1863844916
 20
17.2467147629
 30
0.0
 11
2.7994844001
 21
-0.114985502
 31
0.0
 40
0.4672909446
 41
0.4989599013
 42
2.1482006058
  0
ENDSEC
  0
SECTION
  2
OBJECTS
  0
DICTIONARY
  5
C
100
AcDbDictionary
280
0
281
1
  3
ACAD_GROUP
350
D
  3
ACAD_MLINESTYLE
350
17
  3
ACAD_LAYOUT
350
1A
  3
ACAD_PLOTSETTINGS
350
19
  3
ACAD_PLOTSTYLENAME
350
E
  0
DICTIONARY
  5
D
102
{ACAD_REACTORS
330
C
102
}
100
AcDbDictionary
280
0
281
1
  0
ACDBDICTIONARYWDFLT
  5
E
102
{ACAD_REACTORS
330
C
102
}
100
AcDbDictionary
281
1
  3
Normal
350
F
100
AcDbDictionaryWithDefault
340
F
  0
DICTIONARY
  5
17
102
{ACAD_REACTORS
330
C
102
}
100
AcDbDictionary
280
0
281
1
  3
Standard
350
18
  0
DICTIONARY
  5
19
102
{ACAD_REACTORS
330
C
102
}
100
AcDbDictionary
281
1
  0
DICTIONARY
  5
1A
102
{ACAD_REACTORS
330
C
102
}
100
AcDbDictionary
281
1
  3
Model
350
609
  3
Layout1
350
60A
  0
ACDBPLACEHOLDER
  5
F
102
{ACAD_REACTORS
330
E
102
}
  0
MLINESTYLE
  5
18
102
{ACAD_REACTORS
330
17
102
}
100
AcDbMlineStyle
  2
STANDARD
 70
0
  3

 62
256
 51
90.0
 52
90.0
 71
2
 49
0.5
 62
256
  6
BYLAYER
 49
-0.5
 62
256
  6
BYLAYER
  0
LAYOUT
  5
609
102
{ACAD_REACTORS
330
1A
102
}
100
AcDbPlotSettings
  1

  2
none_device
  4
ANSI_A_(11.00_x_8.50_Inches)
  6

 40
0.0
 41
0.0
 42
0.0
 43
0.0
 44
279.4
 45
215.9
 46
0.0
 47
0.0
 48
0.0
 49
0.0
140
0.0
141
0.0
142
1.0
143
1.0
 70
1024
 72
1
 73
0
 74
0
  7

 75
0
147
1.0
148
0.0
149
0.0
100
AcDbLayout
  1
Model
 70
0
 71
0
 10
0.0
 20
0.0
 11
279.4
 21
215.9
 12
0.0
 22
0.0
 32
0.0
 14
0.0
 24
0.0
 34
0.0
 15
0.0
 25
0.0
 35
0.0
146
0.0
 13
0.0
 23
0.0
 33
0.0
 16
1.0
 26
0.0
 36
0.0
 17
0.0
 27
1.0
 37
0.0
 76
0
330
21F
345
0
346
0
  0
LAYOUT
  5
60A
102
{ACAD_REACTORS
330
1A
102
}
100
AcDbPlotSettings
  1

  2
none_device
  4
ANSI_A_(11.00_x_8.50_Inches)
  6

 40
0.0
 41
0.0
 42
0.0
 43
0.0
 44
279.4
 45
215.9
 46
0.0
 47
0.0
 48
0.0
 49
0.0
140
0.0
141
0.0
142
1.0
143
1.0
 70
0
 72
1
 73
0
 74
0
  7

 75
0
147
1.0
148
0.0
149
0.0
100
AcDbLayout
  1
Layout1
 70
0
 71
1
 10
0.0
 20
0.0
 11
279.4
 21
215.9
 12
0.0
 22
0.0
 32
0.0
 14
0.0
 24
0.0
 34
0.0
 15
0.0
 25
0.0
 35
0.0
146
0.0
 13
0.0
 23
0.0
 33
0.0
 16
1.0
 26
0.0
 36
0.0
 17
0.0
 27
1.0
 37
0.0
 76
0
330
220
345
0
346
0
  0
ENDSEC
  0
EOF
