  0
SECTION
  2
HEADER
  9
$ACADVER
  1
AC1024
  9
$DWGCODEPAGE
  3
ANSI_1252
  9
$EXTMAX
 10
279.4
 20
215.9
 30
0.0
  9
$EXTMIN
 10
0.0
 20
0.0
 30
0.0
  9
$LIMMIN
 10
0.0
 20
0.0
  9
$LIMMAX
 10
279.4
 20
215.9
  9
$VIEWCTR
 10
139.7
 20
107.95
  9
$VIEWSIZE
 40
215.9
  9
$CLAYER
  8
0
  9
$LTSCALE
 40
15.367
  9
$CELTYPE
  6
BYLAYER
  9
$DIMSCALE
 40
1.0
  9
$DIMASZ
 40
3.0
  9
$DIMEXO
 40
0.5
  9
$DIMDLI
 40
10.6172
  9
$DIMEXE
 40
1.5
  9
$DIMCEN
 40
2.5146
  9
$DIMLFAC
 40
1.0
  9
$DIMBLK
  1
_FILLED
  9
$DIMALT
 70
0
  9
$DIMALTF
 40
0.0393700787
  9
$DIMTXT
 40
3.0
  9
$DIMTOL
 70
1
  9
$DIMLIM
 70
0
  9
$DIMTFAC
 40
1.0
  9
$DIMTP
 40
0.01
  9
$DIMTM
 40
0.01
  9
$DIMGAP
 40
0.625
  9
$DIMDSEP
 70
44
  9
$AUNITS
 70
0
  9
$PDMODE
 70
3
  9
$PDSIZE
 40
3.0
  9
$HANDSEED
  5
5F8
  9
$TILEMODE
 70
1
  9
$MEASUREMENT
 70
1
  9
$INSUNITS
 70
4
  0
ENDSEC
  0
SECTION
  2
CLASSES
  0
CLASS
  1
ACDBDICTIONARYWDFLT
  2
AcDbDictionaryWithDefault
  3
AutoCAD 2000
 90
0
 91
1
280
0
281
0
  0
CLASS
  1
ACDBPLACEHOLDER
  2
AcDbPlaceHolder
  3
AutoCAD 2000
 90
0
 91
1
280
0
281
0
  0
CLASS
  1
LAYOUT
  2
AcDbLayout
  3
AutoCAD 2000
 90
0
 91
0
280
0
281
0
  0
ENDSEC
  0
SECTION
  2
TABLES
  0
TABLE
  2
VPORT
  5
8
100
AcDbSymbolTable
 70
2
  0
VPORT
  5
1F4
100
AcDbSymbolTableRecord
100
AcDbViewportTableRecord
  2
*ACTIVE
 70
0
 10
0.0
 20
0.0
 11
1.0
 21
1.0
 12
139.7
 22
107.95
 13
0.0
 23
0.0
 14
1.0
 24
1.0
 15
0.0
 25
0.0
 16
0.0
 26
0.0
 36
1.0
 17
0.0
 27
0.0
 37
0.0
 40
215.9
 41
1.2941176471
 42
50.0
 43
0.0
 44
0.0
 50
0.0
 51
0.0
 71
0
 72
100
 73
1
 74
1
 75
0
 76
0
 77
0
 78
0
  0
ENDTAB
  0
TABLE
  2
LTYPE
  5
5
100
AcDbSymbolTable
 70
6
  0
LTYPE
  5
14
100
AcDbSymbolTableRecord
100
AcDbLinetypeTableRecord
  2
BYBLOCK
 70
0
  3

 72
65
 73
0
 40
0.0
  0
LTYPE
  5
15
100
AcDbSymbolTableRecord
100
AcDbLinetypeTableRecord
  2
BYLAYER
 70
0
  3

 72
65
 73
0
 40
0.0
  0
LTYPE
  5
16
100
AcDbSymbolTableRecord
100
AcDbLinetypeTableRecord
  2
CONTINUOUS
 70
64
  3
Solid line
 72
65
 73
0
 40
0.0
  0
LTYPE
  5
1F5
100
AcDbSymbolTableRecord
100
AcDbLinetypeTableRecord
  2
CENTER
 70
64
  3
____ _ ____ _ ____ _ ____ _ ____ _ ____ _ ____
 72
65
 73
4
 40
0.6
 49
0.375
 74
0
 49
-0.075
 74
0
 49
0.075
 74
0
 49
-0.075
 74
0
  0
LTYPE
  5
1F6
100
AcDbSymbolTableRecord
100
AcDbLinetypeTableRecord
  2
HIDDEN
 70
64
  3
- - - - - - - - - - - - - - - - - - - -
 72
65
 73
2
 40
0.2
 49
0.1
 74
0
 49
-0.1
 74
0
  0
LTYPE
  5
1F7
100
AcDbSymbolTableRecord
100
AcDbLinetypeTableRecord
  2
PHANTOM
 70
64
  3
_____ _ _ _____ _ _ _____ _ _ _____
 72
65
 73
6
 40
0.8
 49
0.45
 74
0
 49
-0.05
 74
0
 49
0.1
 74
0
 49
-0.05
 74
0
 49
0.1
 74
0
 49
-0.05
 74
0
  0
LTYPE
  5
1F8
100
AcDbSymbolTableRecord
100
AcDbLinetypeTableRecord
  2
DOT
 70
64
  3
. . . . . . . . . . . . . . . . . . . .
 72
65
 73
2
 40
0.2
 49
0.1
 74
0
 49
-0.1
 74
0
  0
LTYPE
  5
1F9
100
AcDbSymbolTableRecord
100
AcDbLinetypeTableRecord
  2
DASHED
 70
64
  3
- - - - - - - - - - - - - - - - - - - -
 72
65
 73
2
 40
0.2
 49
0.1
 74
0
 49
-0.1
 74
0
  0
ENDTAB
  0
TABLE
  2
LAYER
  5
2
100
AcDbSymbolTable
 70
36
  0
LAYER
  5
10
100
AcDbSymbolTableRecord
100
AcDbLayerTableRecord
  2
0
 70
0
 62
7
  6
CONTINUOUS
370
-3
390
F
  0
LAYER
  5
1FA
100
AcDbSymbolTableRecord
100
AcDbLayerTableRecord
  2
DEFAULT_1
 70
0
 62
7
  6
CENTER
370
-3
390
F
  0
LAYER
  5
1FB
100
AcDbSymbolTableRecord
100
AcDbLayerTableRecord
  2
DEFAULT_2
 70
0
 62
7
  6
HIDDEN
370
-3
390
F
  0
LAYER
  5
1FC
100
AcDbSymbolTableRecord
100
AcDbLayerTableRecord
  2
DEFAULT_3
 70
0
 62
7
  6
PHANTOM
370
-3
390
F
  0
LAYER
  5
1FD
100
AcDbSymbolTableRecord
100
AcDbLayerTableRecord
  2
ASSI
 70
0
 62
7
  6
CONTINUOUS
370
-3
390
F
  0
LAYER
  5
1FE
100
AcDbSymbolTableRecord
100
AcDbLayerTableRecord
  2
COORDINATE
 70
0
 62
7
  6
CONTINUOUS
370
-3
390
F
  0
LAYER
  5
1FF
100
AcDbSymbolTableRecord
100
AcDbLayerTableRecord
  2
COORD_ORIGINE
 70
0
 62
7
  6
CONTINUOUS
370
-3
390
F
  0
LAYER
  5
200
100
AcDbSymbolTableRecord
100
AcDbLayerTableRecord
  2
COPY_PUBLISH
 70
0
 62
7
  6
CONTINUOUS
370
-3
390
F
  0
LAYER
  5
201
100
AcDbSymbolTableRecord
100
AcDbLayerTableRecord
  2
COSMETIC
 70
0
 62
7
  6
CONTINUOUS
370
-3
390
F
  0
LAYER
  5
202
100
AcDbSymbolTableRecord
100
AcDbLayerTableRecord
  2
COSMETICHE
 70
0
 62
7
  6
CONTINUOUS
370
-3
390
F
  0
LAYER
  5
203
100
AcDbSymbolTableRecord
100
AcDbLayerTableRecord
  2
COSMETICI
 70
0
 62
7
  6
CONTINUOUS
370
-3
390
F
  0
LAYER
  5
204
100
AcDbSymbolTableRecord
100
AcDbLayerTableRecord
  2
CURVE
 70
0
 62
7
  6
CONTINUOUS
370
-3
390
F
  0
LAYER
  5
205
100
AcDbSymbolTableRecord
100
AcDbLayerTableRecord
  2
DRAFT
 70
0
 62
7
  6
CONTINUOUS
370
-3
390
F
  0
LAYER
  5
206
100
AcDbSymbolTableRecord
100
AcDbLayerTableRecord
  2
ESTENSIONE
 70
0
 62
7
  6
CONTINUOUS
370
-3
390
F
  0
LAYER
  5
207
100
AcDbSymbolTableRecord
100
AcDbLayerTableRecord
  2
IMPORT_FEATURES
 70
0
 62
7
  6
CONTINUOUS
370
-3
390
F
  0
LAYER
  5
208
100
AcDbSymbolTableRecord
100
AcDbLayerTableRecord
  2
IMPORT_IGES
 70
0
 62
7
  6
CONTINUOUS
370
-3
390
F
  0
LAYER
  5
209
100
AcDbSymbolTableRecord
100
AcDbLayerTableRecord
  2
INTFCLR_1
 70
0
 62
7
  6
CONTINUOUS
370
-3
390
F
  0
LAYER
  5
20A
100
AcDbSymbolTableRecord
100
AcDbLayerTableRecord
  2
INTF_1
 70
0
 62
7
  6
CONTINUOUS
370
-3
390
F
  0
LAYER
  5
20B
100
AcDbSymbolTableRecord
100
AcDbLayerTableRecord
  2
INTF_11
 70
0
 62
7
  6
CONTINUOUS
370
-3
390
F
  0
LAYER
  5
20C
100
AcDbSymbolTableRecord
100
AcDbLayerTableRecord
  2
INTF_12
 70
0
 62
7
  6
CONTINUOUS
370
-3
390
F
  0
LAYER
  5
20D
100
AcDbSymbolTableRecord
100
AcDbLayerTableRecord
  2
INTF_2
 70
0
 62
7
  6
CONTINUOUS
370
-3
390
F
  0
LAYER
  5
20E
100
AcDbSymbolTableRecord
100
AcDbLayerTableRecord
  2
INTF_6
 70
0
 62
7
  6
CONTINUOUS
370
-3
390
F
  0
LAYER
  5
20F
100
AcDbSymbolTableRecord
100
AcDbLayerTableRecord
  2
INTF_7
 70
0
 62
7
  6
CONTINUOUS
370
-3
390
F
  0
LAYER
  5
210
100
AcDbSymbolTableRecord
100
AcDbLayerTableRecord
  2
INTF_8
 70
0
 62
7
  6
CONTINUOUS
370
-3
390
F
  0
LAYER
  5
211
100
AcDbSymbolTableRecord
100
AcDbLayerTableRecord
  2
NOTE
 70
0
 62
7
  6
CONTINUOUS
370
-3
390
F
  0
LAYER
  5
212
100
AcDbSymbolTableRecord
100
AcDbLayerTableRecord
  2
PIANI
 70
0
 62
7
  6
CONTINUOUS
370
-3
390
F
  0
LAYER
  5
213
100
AcDbSymbolTableRecord
100
AcDbLayerTableRecord
  2
PIANI_ORIGINE
 70
0
 62
7
  6
CONTINUOUS
370
-3
390
F
  0
LAYER
  5
214
100
AcDbSymbolTableRecord
100
AcDbLayerTableRecord
  2
PUNTI
 70
0
 62
7
  6
CONTINUOUS
370
-3
390
F
  0
LAYER
  5
215
100
AcDbSymbolTableRecord
100
AcDbLayerTableRecord
  2
RACCORDO
 70
0
 62
7
  6
CONTINUOUS
370
-3
390
F
  0
LAYER
  5
216
100
AcDbSymbolTableRecord
100
AcDbLayerTableRecord
  2
RGB__255__255__255__
 70
0
 62
7
  6
CONTINUOUS
370
-3
390
F
  0
LAYER
  5
217
100
AcDbSymbolTableRecord
100
AcDbLayerTableRecord
  2
RGB____0____0____0__
 70
0
 62
7
  6
CONTINUOUS
370
-3
390
F
  0
LAYER
  5
218
100
AcDbSymbolTableRecord
100
AcDbLayerTableRecord
  2
SMUSSO
 70
0
 62
7
  6
CONTINUOUS
370
-3
390
F
  0
LAYER
  5
219
100
AcDbSymbolTableRecord
100
AcDbLayerTableRecord
  2
SNAPLINE
 70
0
 62
7
  6
CONTINUOUS
370
-3
390
F
  0
LAYER
  5
21A
100
AcDbSymbolTableRecord
100
AcDbLayerTableRecord
  2
SUPERFICI
 70
0
 62
7
  6
CONTINUOUS
370
-3
390
F
  0
LAYER
  5
21B
100
AcDbSymbolTableRecord
100
AcDbLayerTableRecord
  2
TRASH
 70
0
 62
7
  6
CONTINUOUS
370
-3
390
F
  0
LAYER
  5
21C
100
AcDbSymbolTableRecord
100
AcDbLayerTableRecord
  2
XSEC_DATUMS
 70
0
 62
7
  6
CONTINUOUS
370
-3
390
F
  0
ENDTAB
  0
TABLE
  2
STYLE
  5
3
100
AcDbSymbolTable
 70
1
  0
STYLE
  5
11
100
AcDbSymbolTableRecord
100
AcDbTextStyleTableRecord
  2
STANDARD
 70
0
 40
0.0
 41
0.8
 50
0.0
 71
0
 42
0.2
  3
txt
  4

  0
STYLE
  5
21D
100
AcDbSymbolTableRecord
100
AcDbTextStyleTableRecord
  2
TEXTSTYLE_1
 70
0
 40
0.0
 41
0.8
 50
0.0
 71
0
 42
0.2
  3
gdt
  4

  0
ENDTAB
  0
TABLE
  2
VIEW
  5
6
100
AcDbSymbolTable
 70
0
  0
ENDTAB
  0
TABLE
  2
UCS
  5
7
100
AcDbSymbolTable
 70
0
  0
ENDTAB
  0
TABLE
  2
APPID
  5
9
100
AcDbSymbolTable
 70
1
  0
APPID
  5
21E
100
AcDbSymbolTableRecord
100
AcDbRegAppTableRecord
  2
ACAD
 70
0
  0
ENDTAB
  0
TABLE
  2
BLOCK_RECORD
  5
1
100
AcDbSymbolTable
 70
0
  0
BLOCK_RECORD
  5
21F
100
AcDbSymbolTableRecord
100
AcDbBlockTableRecord
  2
*Model_Space
  0
BLOCK_RECORD
  5
220
100
AcDbSymbolTableRecord
100
AcDbBlockTableRecord
  2
*Paper_Space
  0
BLOCK_RECORD
  5
221
100
AcDbSymbolTableRecord
100
AcDbBlockTableRecord
  2
_FILLED
  0
ENDTAB
  0
TABLE
  2
DIMSTYLE
  5
A
100
AcDbSymbolTable
 70
1
100
AcDbDimStyleTable
 71
0
  0
DIMSTYLE
105
222
100
AcDbSymbolTableRecord
100
AcDbDimStyleTableRecord
  2
STANDARD
 70
0
  3

  4

 40
1.0
 41
3.0
 42
0.5
 43
0.38
 44
1.5
 45
0.0
 46
0.0
 47
0.01
 48
0.01
140
3.0
141
0.09
142
0.0
143
25.4
144
1.0
145
0.0
146
1.0
147
0.625
 71
1
 72
0
 73
0
 74
0
 75
0
 76
0
 77
1
 78
8
 79
2
170
0
171
1
172
0
173
0
174
0
175
0
176
0
177
0
178
0
270
2
179
2
271
2
272
2
273
2
274
2
275
0
280
0
281
0
282
0
283
1
284
8
285
0
286
0
287
3
288
0
340
11
278
44
341
221
342
221
343
221
344
221
  0
ENDTAB
  0
ENDSEC
  0
SECTION
  2
BLOCKS
  0
BLOCK
  5
20
100
AcDbEntity
  8
0
100
AcDbBlockBegin
  2
*Model_Space
 70
0
 10
0.0
 20
0.0
 30
0.0
  3
*Model_Space
  1

  0
ENDBLK
  5
21
100
AcDbEntity
  8
0
100
AcDbBlockEnd
  0
BLOCK
  5
1C
100
AcDbEntity
  8
0
100
AcDbBlockBegin
  2
*Paper_Space
 70
0
 10
0.0
 20
0.0
 30
0.0
  3
*Paper_Space
  1

  0
ENDBLK
  5
1D
100
AcDbEntity
  8
0
100
AcDbBlockEnd
  0
BLOCK
  5
223
100
AcDbEntity
  8
0
100
AcDbBlockBegin
  2
_FILLED
 70
64
 10
0.0
 20
0.0
  3
_FILLED
  1

  0
SOLID
  5
224
100
AcDbEntity
  8
0
  6
BYBLOCK
 62
0
100
AcDbTrace
 10
0.0
 20
0.0
 11
-1.0
 21
0.3166666667
 12
-1.0
 22
-0.3166666667
 13
-1.0
 23
-0.3166666667
  0
ENDBLK
  5
225
100
AcDbEntity
  8
0
  6
BYBLOCK
 62
0
100
AcDbBlockEnd
  0
ENDSEC
  0
SECTION
  2
ENTITIES
  0
LWPOLYLINE
  5
226
100
AcDbEntity
  8
RACCORDO
100
AcDbPolyline
 62
250
  6
CONTINUOUS
 90
13
 70
0
 10
1.0693048332
 20
-35.1230673913
 10
1.1178997833
 20
-35.1445338671
 10
1.1715914055
 20
-35.1630179003
 10
1.2294812773
 20
-35.1782101975
 10
1.2906007267
 20
-35.1898565457
 10
1.3539270413
 20
-35.1977620665
 10
1.418400581
 20
-35.2017944767
 10
1.4829425094
 20
-35.2018863021
 10
1.5464728456
 20
-35.1980360061
 10
1.6079285357
 20
-35.1903080157
 10
1.666281241
 20
-35.1788316435
 10
1.7205545449
 20
-35.1637989238
 10
1.7698402916
 20
-35.1454613992
  0
LWPOLYLINE
  5
227
100
AcDbEntity
  8
RACCORDO
100
AcDbPolyline
 62
7
  6
CONTINUOUS
 90
9
 70
0
 10
1.3301432844
 20
-35.7047891178
 10
1.3888401549
 20
-35.730924002
 10
1.4574922784
 20
-35.753750068
 10
1.5291876433
 20
-35.7695833017
 10
1.6030948189
 20
-35.7780098337
 10
1.6785842951
 20
-35.7787995841
 10
1.7548667956
 20
-35.7718288506
 10
1.83103053
 20
-35.7571217716
 10
1.904696869
 20
-35.7354204314
  0
LINE
  5
228
100
AcDbEntity
  8
RACCORDO
100
AcDbLine
 62
250
  6
CONTINUOUS
 10
1.0693048273
 20
-35.123067394
 11
-29.3861189479
 21
-19.8953555064
  0
LINE
  5
229
100
AcDbEntity
  8
RACCORDO
100
AcDbLine
 62
7
  6
CONTINUOUS
 10
1.3311503965
 20
-35.7053002504
 11
-29.1300911431
 21
-20.4746791324
  0
LWPOLYLINE
  5
22A
100
AcDbEntity
  8
RACCORDO
100
AcDbPolyline
 62
250
  6
CONTINUOUS
 90
13
 70
0
 10
-29.1300911431
 20
-20.4746791324
 10
-29.1368590262
 20
-20.4711961358
 10
-29.180048917
 20
-20.4444618572
 10
-29.219793045
 20
-20.4116966277
 10
-29.2558091376
 20
-20.3731373708
 10
-29.2878502021
 20
-20.3290521298
 10
-29.3157074546
 20
-20.2797302677
 10
-29.3391875965
 20
-20.2254997538
 10
-29.3581146682
 20
-20.1667475664
 10
-29.3723524139
 20
-20.1039020922
 10
-29.3818029717
 20
-20.0374110117
 10
-29.3864020334
 20
-19.9677331509
 10
-29.3861189479
 20
-19.8953555064
  0
LWPOLYLINE
  5
22B
100
AcDbEntity
  8
RACCORDO
100
AcDbPolyline
 62
250
  6
CONTINUOUS
 90
13
 70
0
 10
1.3302401831
 20
-35.7048436188
 10
1.3238286475
 20
-35.7015401842
 10
1.2798258542
 20
-35.6744029356
 10
1.2393220356
 20
-35.6412627775
 10
1.2025966625
 20
-35.6023481913
 10
1.1699038138
 20
-35.5579292146
 10
1.1414742274
 20
-35.5083139913
 10
1.1175045271
 20
-35.4538430902
 10
1.0981622298
 20
-35.394896621
 10
1.0835876445
 20
-35.3318934209
 10
1.0738824509
 20
-35.2652758488
 10
1.0691107937
 20
-35.1955050794
 10
1.0693048273
 20
-35.123067394
  0
LWPOLYLINE
  5
22C
100
AcDbEntity
  8
RACCORDO
100
AcDbPolyline
 62
250
  6
CONTINUOUS
 90
7
 70
0
 10
-29.5326445359
 20
-19.7262719165
 10
-29.5278685292
 20
-19.7568642794
 10
-29.5148108129
 20
-19.787150774
 10
-29.4936898821
 20
-19.8166246157
 10
-29.4648591534
 20
-19.8447926183
 10
-29.4288010518
 20
-19.8711834464
 10
-29.386118938
 20
-19.895355502
  0
LWPOLYLINE
  5
22D
100
AcDbEntity
  8
RACCORDO
100
AcDbPolyline
 62
7
  6
CONTINUOUS
 90
12
 70
0
 10
-29.5325842575
 20
-19.7200618039
 10
-29.5330522975
 20
-19.7830410379
 10
-29.5263080121
 20
-19.8778599218
 10
-29.5106123953
 20
-19.9691534052
 10
-29.4860541987
 20
-20.0563438677
 10
-29.4530586472
 20
-20.1382490566
 10
-29.4122751075
 20
-20.2138937388
 10
-29.3641041433
 20
-20.2829953985
 10
-29.3090695519
 20
-20.3451185897
 10
-29.2480591393
 20
-20.3995518678
 10
-29.1819806622
 20
-20.4457889746
 10
-29.1301794
 20
-20.4746211588
  0
LWPOLYLINE
  5
22E
100
AcDbEntity
  8
RACCORDO
100
AcDbPolyline
 62
250
  6
CONTINUOUS
 90
8
 70
0
 10
-26.9776549995
 20
17.3239716331
 10
-26.9780204811
 20
17.3128349482
 10
-26.9730233159
 20
17.2854373857
 10
-26.9597783373
 20
17.2578576432
 10
-26.9385071691
 20
17.2305572031
 10
-26.9095657349
 20
17.2039928748
 10
-26.8734383025
 20
17.1786091504
 10
-26.8307293802
 20
17.1548307675
  0
LWPOLYLINE
  5
22F
100
AcDbEntity
  8
RACCORDO
100
AcDbPolyline
 62
250
  6
CONTINUOUS
 90
10
 70
0
 10
-29.3861189479
 20
-19.8953555064
 10
-29.2198611962
 20
-15.8283544287
 10
-29.0241377354
 20
-11.7481193199
 10
-28.7989650603
 20
-7.6549968682
 10
-28.5443622149
 20
-3.5493348764
 10
-28.2603507827
 20
0.5685178934
 10
-27.9469548821
 20
4.6982117505
 10
-27.6042011758
 20
8.8393959375
 10
-27.2321188719
 20
12.9917186587
 10
-26.8307397113
 20
17.1548272362
  0
LWPOLYLINE
  5
230
100
AcDbEntity
  8
RACCORDO
100
AcDbPolyline
 62
7
  6
CONTINUOUS
 90
10
 70
0
 10
-26.9776406133
 20
17.3242020511
 10
-27.3697273717
 20
13.2608479523
 10
-27.7450136121
 20
9.0791798367
 10
-28.0905583666
 20
4.9087636175
 10
-28.4063257325
 20
0.7500066199
 10
-28.692290718
 20
-3.3967533304
 10
-28.9484313627
 20
-7.5312048785
 10
-29.17472514
 20
-11.6530116554
 10
-29.3711512046
 20
-15.7617729112
 10
-29.5325928503
 20
-19.7200614865
  0
LWPOLYLINE
  5
231
100
AcDbEntity
  8
RACCORDO
100
AcDbPolyline
 62
250
  6
CONTINUOUS
 90
16
 70
0
 10
-26.8307397113
 20
17.1548272362
 10
-26.8207710316
 20
17.2310888893
 10
-26.8060258586
 20
17.3085184624
 10
-26.7866055982
 20
17.3865770804
 10
-26.7626430042
 20
17.4647311905
 10
-26.7343050531
 20
17.5424263822
 10
-26.7017969001
 20
17.6190920791
 10
-26.665359091
 20
17.6941788306
 10
-26.6252422733
 20
17.7671831125
 10
-26.5817087032
 20
17.8376189943
 10
-26.5350570464
 20
17.9050053203
 10
-26.4856189781
 20
17.9688627294
 10
-26.4337361923
 20
18.0287379983
 10
-26.3797735667
 20
18.0842148204
 10
-26.3241096456
 20
18.1349073314
 10
-26.2671294668
 20
18.180455464
  0
LWPOLYLINE
  5
232
100
AcDbEntity
  8
0
100
AcDbPolyline
 62
250
  6
CONTINUOUS
 90
5
 70
0
 10
-21.3347721484
 20
21.2812174518
 10
-21.3238989048
 20
21.3022796088
 10
-21.3117978599
 20
21.3204393621
 10
-21.2985396548
 20
21.3354480281
 10
-21.2840536483
 20
21.3475542904
  0
LWPOLYLINE
  5
233
100
AcDbEntity
  8
RACCORDO
100
AcDbPolyline
 62
250
  6
CONTINUOUS
 90
4
 70
0
 10
-26.2671294668
 20
18.180455464
 10
-26.2092316876
 20
18.2205412484
 10
-26.1508254659
 20
18.2548899478
 10
-26.0923214797
 20
18.2832642207
  0
LWPOLYLINE
  5
234
100
AcDbEntity
  8
0
100
AcDbPolyline
 62
250
  6
CONTINUOUS
 90
11
 70
0
 10
-21.2840536483
 20
21.3475542904
 10
-21.2690907304
 20
21.3572782823
 10
-21.2539334287
 20
21.3646280086
 10
-21.2382992154
 20
21.3695954645
 10
-21.222091398
 20
21.3726767689
 10
-21.2054502988
 20
21.3741402535
 10
-21.1882355954
 20
21.3737175867
 10
-21.1699296279
 20
21.3710998916
 10
-21.1503598429
 20
21.3661842095
 10
-21.1296987937
 20
21.3590734991
 10
-21.1079464804
 20
21.3497677606
  0
LWPOLYLINE
  5
235
100
AcDbEntity
  8
0
100
AcDbPolyline
 62
250
  6
CONTINUOUS
 90
10
 70
0
 10
-21.0037315704
 20
21.5317592411
 10
-21.0219168693
 20
21.5203475083
 10
-21.039506791
 20
21.5054429086
 10
-21.0559786565
 20
21.487488328
 10
-21.0708430086
 20
21.4670172815
 10
-21.0836581582
 20
21.4446380606
 10
-21.0940433083
 20
21.4210156575
 10
-21.1016898677
 20
21.3968520047
 10
-21.1063706208
 20
21.3728651181
 10
-21.1079464804
 20
21.3497677606
  0
LWPOLYLINE
  5
236
100
AcDbEntity
  8
0
100
AcDbPolyline
 62
7
  6
CONTINUOUS
 90
9
 70
0
 10
-21.2335043672
 20
21.5427303112
 10
-21.2580136411
 20
21.5278070602
 10
-21.2899138106
 20
21.5025882482
 10
-21.3183602636
 20
21.4727437545
 10
-21.3429792286
 20
21.4385716329
 10
-21.3633765079
 20
21.4005834825
 10
-21.3793588234
 20
21.3591145322
 10
-21.3907609271
 20
21.3144073511
 10
-21.3974495733
 20
21.2668541641
  0
LINE
  5
237
100
AcDbEntity
  8
0
100
AcDbLine
 62
7
  6
CONTINUOUS
 10
-21.2335086567
 20
21.5427279257
 11
-20.8486266896
 21
21.7503808678
  0
LINE
  5
238
100
AcDbEntity
  8
0
100
AcDbLine
 62
250
  6
CONTINUOUS
 10
-21.0037315704
 20
21.5317592411
 11
-20.619866543
 21
21.7388632299
  0
LWPOLYLINE
  5
239
100
AcDbEntity
  8
0
100
AcDbPolyline
 62
250
  6
CONTINUOUS
 90
10
 70
0
 10
-21.2332356671
 20
21.5428755008
 10
-21.212803626
 20
21.5523659696
 10
-21.1905951488
 20
21.5595779357
 10
-21.1674293262
 20
21.5641445608
 10
-21.1435062957
 20
21.5660809246
 10
-21.1189261451
 20
21.565426978
 10
-21.0926762187
 20
21.562019364
 10
-21.0644446236
 20
21.5554473137
 10
-21.0347383302
 20
21.5454501196
 10
-21.003731596
 20
21.5317592273
  0
LWPOLYLINE
  5
23A
100
AcDbEntity
  8
RACCORDO
100
AcDbPolyline
 62
7
  6
CONTINUOUS
 90
15
 70
0
 10
-26.31627905
 20
18.2974601515
 10
-26.330206584
 20
18.2911556974
 10
-26.4102488316
 20
18.2490316986
 10
-26.4898639816
 20
18.1964197363
 10
-26.5672354309
 20
18.1337881621
 10
-26.638796818
 20
18.0640850306
 10
-26.7039624302
 20
17.9887449361
 10
-26.7634519388
 20
17.9074875864
 10
-26.8164040677
 20
17.821846591
 10
-26.8626478378
 20
17.7324847122
 10
-26.9020902156
 20
17.6396476757
 10
-26.9341628096
 20
17.5445280479
 10
-26.9585316564
 20
17.4476845964
 10
-26.9748706206
 20
17.3491243522
 10
-26.9776549995
 20
17.3239716331
  0
LINE
  5
23B
100
AcDbEntity
  8
0
100
AcDbLine
 62
250
  6
CONTINUOUS
 10
9.8922748468
 20
-32.6502815301
 11
9.8716202158
 21
-32.6431764307
  0
LWPOLYLINE
  5
23C
100
AcDbEntity
  8
ASSI
100
AcDbPolyline
 62
250
  6
CONTINUOUS
 90
5
 70
0
 10
-16.6034794165
 20
19.9534018028
 10
-16.5918121603
 20
19.9731563522
 10
-16.57810804
 20
19.9909991472
 10
-16.5625650948
 20
20.0066416744
 10
-16.5452116562
 20
20.0198600625
  0
LWPOLYLINE
  5
23D
100
AcDbEntity
  8
ASSI
100
AcDbPolyline
 62
7
  6
CONTINUOUS
 90
4
 70
0
 10
-16.6434227066
 20
19.9841700043
 10
-16.6607775242
 20
19.9632041863
 10
-16.6769937544
 20
19.9370999295
 10
-16.6902305653
 20
19.9057908905
  0
LWPOLYLINE
  5
23E
100
AcDbEntity
  8
ASSI
100
AcDbPolyline
 62
7
  6
CONTINUOUS
 90
3
 70
0
 10
-16.6080780829
 20
20.0152846654
 10
-16.6255320256
 20
20.0013497731
 10
-16.6434227066
 20
19.9841700043
  0
LWPOLYLINE
  5
23F
100
AcDbEntity
  8
RACCORDO
100
AcDbPolyline
 62
7
  6
CONTINUOUS
 90
8
 70
0
 10
-18.3912799276
 20
18.7656448711
 10
-18.4238154104
 20
18.7425019866
 10
-18.4623186591
 20
18.7087970387
 10
-18.498349165
 20
18.6690590385
 10
-18.5303888938
 20
18.6239823089
 10
-18.5573384769
 20
18.5744291916
 10
-18.5786427534
 20
18.5207995701
 10
-18.5814837548
 20
18.5100724122
  0
LINE
  5
240
100
AcDbEntity
  8
ASSI
100
AcDbLine
 62
7
  6
CONTINUOUS
 10
-16.5921959086
 20
20.0263338809
 11
-16.6080780829
 21
20.0152846654
  0
LWPOLYLINE
  5
241
100
AcDbEntity
  8
ASSI
100
AcDbPolyline
 62
250
  6
CONTINUOUS
 90
10
 70
0
 10
-16.4174628812
 20
19.9952634773
 10
-16.4413937626
 20
19.9797569976
 10
-16.4644860077
 20
19.9597437676
 10
-16.4860687331
 20
19.9358052178
 10
-16.5055149108
 20
19.9086368188
 10
-16.522259584
 20
19.8790278756
 10
-16.5358162812
 20
19.8478385966
 10
-16.5457911489
 20
19.8159751027
 10
-16.5518943941
 20
19.7843631023
 10
-16.5539487033
 20
19.7539209973
  0
LINE
  5
242
100
AcDbEntity
  8
DRAFT
100
AcDbLine
 62
7
  6
CONTINUOUS
 10
-17.9989477303
 20
19.0194020328
 11
-18.3913262172
 21
18.7656149403
  0
LINE
  5
243
100
AcDbEntity
  8
RACCORDO
100
AcDbLine
 62
250
  6
CONTINUOUS
 10
-18.3912817454
 20
18.7656436953
 11
-18.3913280345
 21
18.7656137649
  0
LWPOLYLINE
  5
244
100
AcDbEntity
  8
ASSI
100
AcDbPolyline
 62
7
  6
CONTINUOUS
 90
3
 70
0
 10
-16.5599527776
 20
20.0459458947
 10
-16.5769193627
 20
20.0359862763
 10
-16.5921959086
 20
20.0263338809
  0
LINE
  5
245
100
AcDbEntity
  8
ASSI
100
AcDbLine
 62
250
  6
CONTINUOUS
 10
-16.5452116562
 20
20.0198600625
 11
-16.5262377755
 21
20.0304843943
  0
LWPOLYLINE
  5
246
100
AcDbEntity
  8
RACCORDO
100
AcDbPolyline
 62
7
  6
CONTINUOUS
 90
3
 70
0
 10
-18.5393916052
 20
19.1883556435
 10
-18.7235280574
 20
19.0890982866
 10
-19.1949943923
 20
18.816827731
  0
LINE
  5
247
100
AcDbEntity
  8
RACCORDO
100
AcDbLine
 62
7
  6
CONTINUOUS
 10
-18.5332983113
 20
19.1915865839
 11
-18.5393773738
 21
19.1883752886
  0
LINE
  5
248
100
AcDbEntity
  8
DRAFT
100
AcDbLine
 62
7
  6
CONTINUOUS
 10
-18.397515424
 20
19.2632676656
 11
-18.5332444096
 21
19.1916150391
  0
LINE
  5
249
100
AcDbEntity
  8
0
100
AcDbLine
 62
250
  6
CONTINUOUS
 10
-17.6016011621
 20
19.6420700363
 11
-17.6668321096
 21
19.6076683772
  0
LINE
  5
24A
100
AcDbEntity
  8
0
100
AcDbLine
 62
250
  6
CONTINUOUS
 10
-17.2900842178
 20
19.6749355648
 11
-17.4484793765
 21
19.5913993746
  0
LWPOLYLINE
  5
24B
100
AcDbEntity
  8
SMUSSO
100
AcDbPolyline
 62
7
  6
CONTINUOUS
 90
25
 70
0
 10
-8.2098498995
 20
23.534486978
 10
-8.3355161156
 20
23.4685734061
 10
-8.4522415877
 20
23.3997622574
 10
-8.5600263157
 20
23.3280535321
 10
-8.6590930817
 20
23.2532347467
 10
-8.7492191037
 20
23.1755183846
 10
-8.8297360353
 20
23.0955418961
 10
-8.9006324562
 20
23.0132412943
 10
-8.9619197869
 20
22.9286805661
 10
-9.0129639421
 20
22.8426891229
 10
-9.0536654572
 20
22.7552554864
 10
-9.0841237968
 20
22.666391135
 10
-9.1040032709
 20
22.5769599143
 10
-9.1131854693
 20
22.4869186796
 10
-9.1117888021
 20
22.3963105756
 10
-9.0998328099
 20
22.3061288832
 10
-9.0772023559
 20
22.2164174801
 10
-9.0440125769
 20
22.1271324885
 10
-9.0006284235
 20
22.0391355561
 10
-8.9469670005
 20
21.9524458971
 10
-8.883111203
 20
21.8670442973
 10
-8.8096746667
 20
21.7837347614
 10
-8.7265794293
 20
21.7025338001
 10
-8.633903453
 20
21.6234249028
 10
-8.5539230166
 20
21.5625055009
  0
LWPOLYLINE
  5
24C
100
AcDbEntity
  8
ASSI
100
AcDbPolyline
 62
7
  6
CONTINUOUS
 90
22
 70
0
 10
-8.2098498995
 20
23.534486978
 10
-8.3355161156
 20
23.4685734061
 10
-8.4522415877
 20
23.3997622574
 10
-8.5600263157
 20
23.3280535321
 10
-8.6590930817
 20
23.2532347467
 10
-8.7492191037
 20
23.1755183846
 10
-8.8297360353
 20
23.0955418961
 10
-8.9006324562
 20
23.0132412943
 10
-8.9619197869
 20
22.9286805661
 10
-9.0129639421
 20
22.8426891229
 10
-9.0536654572
 20
22.7552554864
 10
-9.0841237968
 20
22.666391135
 10
-9.1040032709
 20
22.5769599143
 10
-9.1131854693
 20
22.4869186796
 10
-9.1117888021
 20
22.3963105756
 10
-9.0998328099
 20
22.3061288832
 10
-9.0772023559
 20
22.2164174801
 10
-9.0440125769
 20
22.1271324885
 10
-9.0006284235
 20
22.0391355561
 10
-8.9469670005
 20
21.9524458971
 10
-8.883111203
 20
21.8670442973
 10
-8.8096746667
 20
21.7837347614
  0
LWPOLYLINE
  5
24D
100
AcDbEntity
  8
ASSI
100
AcDbPolyline
 62
7
  6
CONTINUOUS
 90
4
 70
0
 10
-16.5019842867
 20
20.0766219682
 10
-16.5193141343
 20
20.0678341491
 10
-16.5407770835
 20
20.0565451423
 10
-16.5599527776
 20
20.0459458947
  0
LINE
  5
24E
100
AcDbEntity
  8
ASSI
100
AcDbLine
 62
7
  6
CONTINUOUS
 10
-16.501970066
 20
20.0766290804
 11
-16.1484166756
 21
20.2534057756
  0
LINE
  5
24F
100
AcDbEntity
  8
ASSI
100
AcDbLine
 62
250
  6
CONTINUOUS
 10
-16.4991482219
 20
20.0769871214
 11
-16.1375656147
 21
20.2578127877
  0
LINE
  5
250
100
AcDbEntity
  8
0
100
AcDbLine
 62
7
  6
CONTINUOUS
 10
-12.6648614068
 20
21.4819496121
 11
-14.1238661982
 21
20.7582724796
  0
LINE
  5
251
100
AcDbEntity
  8
ASSI
100
AcDbLine
 62
7
  6
CONTINUOUS
 10
-12.6648614068
 20
21.4819496121
 11
-14.1238661982
 21
20.7582724796
  0
LINE
  5
252
100
AcDbEntity
  8
RACCORDO
100
AcDbLine
 62
7
  6
CONTINUOUS
 10
-4.3825860676
 20
25.4328380536
 11
-8.2098498995
 21
23.534486978
  0
LINE
  5
253
100
AcDbEntity
  8
ASSI
100
AcDbLine
 62
7
  6
CONTINUOUS
 10
-4.3825860676
 20
25.4328380536
 11
-8.2098498995
 21
23.534486978
  0
LINE
  5
254
100
AcDbEntity
  8
ASSI
100
AcDbLine
 62
250
  6
CONTINUOUS
 10
-16.3165256802
 20
20.1331937804
 11
-16.5262365622
 21
20.0304849817
  0
LINE
  5
255
100
AcDbEntity
  8
ASSI
100
AcDbLine
 62
250
  6
CONTINUOUS
 10
-15.9340885376
 20
20.320458999
 11
-16.3165256802
 21
20.1331937804
  0
LINE
  5
256
100
AcDbEntity
  8
ASSI
100
AcDbLine
 62
250
  6
CONTINUOUS
 10
-16.1089795499
 20
20.1863459416
 11
-16.4538145749
 21
20.0174422121
  0
LINE
  5
257
100
AcDbEntity
  8
ASSI
100
AcDbLine
 62
250
  6
CONTINUOUS
 10
-15.8566814995
 20
20.3098986523
 11
-16.1089795499
 21
20.1863459416
  0
LINE
  5
258
100
AcDbEntity
  8
0
100
AcDbLine
 62
7
  6
CONTINUOUS
 10
-13.4073235355
 20
21.567141782
 11
-13.8601052159
 21
21.3524657468
  0
LINE
  5
259
100
AcDbEntity
  8
ASSI
100
AcDbLine
 62
7
  6
CONTINUOUS
 10
-13.4073235355
 20
21.567141782
 11
-14.0294332068
 21
21.2721923063
  0
LINE
  5
25A
100
AcDbEntity
  8
0
100
AcDbLine
 62
7
  6
CONTINUOUS
 10
-13.8601052159
 20
21.3524657468
 11
-14.655821538
 21
20.9752909162
  0
LINE
  5
25B
100
AcDbEntity
  8
0
100
AcDbLine
 62
7
  6
CONTINUOUS
 10
-14.655821538
 20
20.9752909162
 11
-15.7886155259
 21
20.4384955979
  0
LINE
  5
25C
100
AcDbEntity
  8
ASSI
100
AcDbLine
 62
7
  6
CONTINUOUS
 10
-14.0294332068
 20
21.2721923063
 11
-15.7886155259
 21
20.4384955979
  0
LINE
  5
25D
100
AcDbEntity
  8
0
100
AcDbLine
 62
7
  6
CONTINUOUS
 10
-15.7886155259
 20
20.4384955979
 11
-16.1540743522
 21
20.2653474263
  0
LINE
  5
25E
100
AcDbEntity
  8
ASSI
100
AcDbLine
 62
7
  6
CONTINUOUS
 10
-15.7886155259
 20
20.4384955979
 11
-16.1540743522
 21
20.2653474263
  0
LINE
  5
25F
100
AcDbEntity
  8
0
100
AcDbLine
 62
250
  6
CONTINUOUS
 10
-13.235586407
 20
21.6226231882
 11
-16.078449565
 21
20.2764679152
  0
LINE
  5
260
100
AcDbEntity
  8
ASSI
100
AcDbLine
 62
250
  6
CONTINUOUS
 10
-13.235586407
 20
21.6226231882
 11
-16.078449565
 21
20.2764679152
  0
LINE
  5
261
100
AcDbEntity
  8
0
100
AcDbLine
 62
250
  6
CONTINUOUS
 10
-12.8443187969
 20
21.5716783072
 11
-15.6876421182
 21
20.2253789617
  0
LINE
  5
262
100
AcDbEntity
  8
ASSI
100
AcDbLine
 62
250
  6
CONTINUOUS
 10
-12.8443187969
 20
21.5716783072
 11
-15.6876421182
 21
20.2253789617
  0
LINE
  5
263
100
AcDbEntity
  8
0
100
AcDbLine
 62
7
  6
CONTINUOUS
 10
-14.5885228781
 20
21.0939095368
 11
-16.7983144585
 21
20.0493410493
  0
LINE
  5
264
100
AcDbEntity
  8
ASSI
100
AcDbLine
 62
7
  6
CONTINUOUS
 10
-14.5885228781
 20
21.0939095368
 11
-16.7983144585
 21
20.0493410493
  0
LINE
  5
265
100
AcDbEntity
  8
RACCORDO
100
AcDbLine
 62
7
  6
CONTINUOUS
 10
-12.4723085824
 20
22.0630387835
 11
-13.8814693564
 21
21.3975328935
  0
LINE
  5
266
100
AcDbEntity
  8
RACCORDO
100
AcDbLine
 62
250
  6
CONTINUOUS
 10
-12.2526186226
 20
22.0469542631
 11
-13.112227912
 21
21.6409880199
  0
LINE
  5
267
100
AcDbEntity
  8
ASSI
100
AcDbLine
 62
250
  6
CONTINUOUS
 10
-12.2526186226
 20
22.0469542631
 11
-13.112227912
 21
21.6409880199
  0
LINE
  5
268
100
AcDbEntity
  8
0
100
AcDbLine
 62
7
  6
CONTINUOUS
 10
-13.8812400945
 20
21.3970474478
 11
-16.7613165417
 21
20.0374972093
  0
LINE
  5
269
100
AcDbEntity
  8
ASSI
100
AcDbLine
 62
7
  6
CONTINUOUS
 10
-13.8812400945
 20
21.3970474478
 11
-16.7613165417
 21
20.0374972093
  0
LINE
  5
26A
100
AcDbEntity
  8
ASSI
100
AcDbLine
 62
7
  6
CONTINUOUS
 10
-12.4720256194
 20
22.0631721333
 11
-13.8814693564
 21
21.3975328935
  0
LINE
  5
26B
100
AcDbEntity
  8
ASSI
100
AcDbLine
 62
7
  6
CONTINUOUS
 10
-4.6944751874
 20
25.4766104617
 11
-11.9419512572
 21
22.06050105
  0
LINE
  5
26C
100
AcDbEntity
  8
RACCORDO
100
AcDbLine
 62
7
  6
CONTINUOUS
 10
-4.6944725111
 20
25.4766068154
 11
-11.9419512521
 21
22.0605010399
  0
LINE
  5
26D
100
AcDbEntity
  8
RACCORDO
100
AcDbLine
 62
250
  6
CONTINUOUS
 10
-4.4311973541
 20
25.4571436968
 11
-11.7979677089
 21
21.9848031484
  0
LINE
  5
26E
100
AcDbEntity
  8
ASSI
100
AcDbLine
 62
250
  6
CONTINUOUS
 10
-4.4311973541
 20
25.4571436968
 11
-11.7979677089
 21
21.9848031484
  0
LINE
  5
26F
100
AcDbEntity
  8
RACCORDO
100
AcDbLine
 62
7
  6
CONTINUOUS
 10
-13.857466002
 20
20.6250723815
 11
-13.5967120051
 21
20.7466508994
  0
LINE
  5
270
100
AcDbEntity
  8
RACCORDO
100
AcDbLine
 62
250
  6
CONTINUOUS
 10
-13.8083421761
 20
20.6005104685
 11
-13.5121958144
 21
20.7385909435
  0
LINE
  5
271
100
AcDbEntity
  8
RACCORDO
100
AcDbLine
 62
250
  6
CONTINUOUS
 10
-13.5967120051
 20
20.7466508994
 11
-13.5966430531
 21
20.7466830031
  0
LWPOLYLINE
  5
272
100
AcDbEntity
  8
RACCORDO
100
AcDbPolyline
 62
250
  6
CONTINUOUS
 90
3
 70
0
 10
-17.6668321096
 20
19.6076683772
 10
-18.160091029
 20
19.3807959756
 10
-18.5332983113
 20
19.1915865839
  0
LWPOLYLINE
  5
273
100
AcDbEntity
  8
RACCORDO
100
AcDbPolyline
 62
250
  6
CONTINUOUS
 90
4
 70
0
 10
-17.7194880377
 20
19.3790344888
 10
-18.2100870236
 20
19.1533124542
 10
-18.6912100921
 20
18.9063730873
 10
-19.010742493
 20
18.7247017813
  0
LWPOLYLINE
  5
274
100
AcDbEntity
  8
0
100
AcDbPolyline
 62
7
  6
CONTINUOUS
 90
3
 70
0
 10
-17.6500475413
 20
19.620818291
 10
-18.0962913849
 20
19.4160816911
 10
-18.3975040253
 20
19.2632453313
  0
LINE
  5
275
100
AcDbEntity
  8
RACCORDO
100
AcDbLine
 62
7
  6
CONTINUOUS
 10
-12.44397138
 20
22.0755870661
 11
-12.4724910569
 21
22.0629551159
  0
LINE
  5
276
100
AcDbEntity
  8
RACCORDO
100
AcDbLine
 62
7
  6
CONTINUOUS
 10
-26.3162868247
 20
18.2974777539
 11
-22.0846312646
 21
20.1659713168
  0
LINE
  5
277
100
AcDbEntity
  8
RACCORDO
100
AcDbLine
 62
250
  6
CONTINUOUS
 10
-26.0923214797
 20
18.2832642207
 11
-21.8628896462
 21
20.1507753579
  0
LWPOLYLINE
  5
278
100
AcDbEntity
  8
ASSI
100
AcDbPolyline
 62
250
  6
CONTINUOUS
 90
13
 70
0
 10
-16.453814579
 20
20.017441886
 10
-16.4749512068
 20
20.0081239504
 10
-16.4956403124
 20
19.9961697165
 10
-16.5155444878
 20
19.9817824014
 10
-16.5343290261
 20
19.9652153853
 10
-16.5517042915
 20
19.9467362214
 10
-16.5674205869
 20
19.9266103662
 10
-16.581228295
 20
19.9051420342
 10
-16.5928798351
 20
19.8826966035
 10
-16.6021699735
 20
19.859657314
 10
-16.6089432382
 20
19.8364078731
 10
-16.6130904277
 20
19.8133241631
 10
-16.6145422771
 20
19.7907854524
  0
LWPOLYLINE
  5
279
100
AcDbEntity
  8
0
100
AcDbPolyline
 62
7
  6
CONTINUOUS
 90
4
 70
0
 10
-17.6016011621
 20
19.6420700363
 10
-17.6343910759
 20
19.6275840793
 10
-17.6422921391
 20
19.6241411916
 10
-17.6500475413
 20
19.620818291
  0
LINE
  5
27A
100
AcDbEntity
  8
ASSI
100
AcDbLine
 62
7
  6
CONTINUOUS
 10
-4.6631772997
 20
25.4901536036
 11
-4.6964402826
 21
25.4756693046
  0
LINE
  5
27B
100
AcDbEntity
  8
RACCORDO
100
AcDbLine
 62
250
  6
CONTINUOUS
 10
-4.6944725111
 20
25.4766068154
 11
-4.6811346821
 21
25.4823762223
  0
LWPOLYLINE
  5
27C
100
AcDbEntity
  8
RACCORDO
100
AcDbPolyline
 62
250
  6
CONTINUOUS
 90
9
 70
0
 10
-12.1571100478
 20
22.0444744329
 10
-12.1269962474
 20
22.0573048373
 10
-12.0971487703
 20
22.0668692814
 10
-12.0677847682
 20
22.0730983304
 10
-12.0391177267
 20
22.0759468399
 10
-12.0113563414
 20
22.0753942281
 10
-11.9847029506
 20
22.0714447924
 10
-11.9593514995
 20
22.0641276648
 10
-11.9396656392
 20
22.0556521136
  0
LWPOLYLINE
  5
27D
100
AcDbEntity
  8
ASSI
100
AcDbPolyline
 62
250
  6
CONTINUOUS
 90
9
 70
0
 10
-12.1571100478
 20
22.0444744329
 10
-12.1269962474
 20
22.0573048373
 10
-12.0971487703
 20
22.0668692814
 10
-12.0677847682
 20
22.0730983304
 10
-12.0391177267
 20
22.0759468399
 10
-12.0113563414
 20
22.0753942281
 10
-11.9847029506
 20
22.0714447924
 10
-11.9593514995
 20
22.0641276648
 10
-11.9396656392
 20
22.0556521136
  0
LINE
  5
27E
100
AcDbEntity
  8
0
100
AcDbLine
 62
7
  6
CONTINUOUS
 10
-16.7613165417
 20
20.0374972093
 11
-17.009720279
 21
19.9337900979
  0
LINE
  5
27F
100
AcDbEntity
  8
ASSI
100
AcDbLine
 62
7
  6
CONTINUOUS
 10
-16.7613165417
 20
20.0374972093
 11
-17.009720279
 21
19.9337900979
  0
LINE
  5
280
100
AcDbEntity
  8
ASSI
100
AcDbLine
 62
7
  6
CONTINUOUS
 10
-16.1483852185
 20
20.2533428736
 11
-16.1375696383
 21
20.2578115053
  0
LINE
  5
281
100
AcDbEntity
  8
RACCORDO
100
AcDbLine
 62
7
  6
CONTINUOUS
 10
-13.5790807435
 20
20.7538703615
 11
-13.5966430531
 21
20.7466830031
  0
LINE
  5
282
100
AcDbEntity
  8
ASSI
100
AcDbLine
 62
250
  6
CONTINUOUS
 10
-16.501970066
 20
20.0766290804
 11
-16.4911230289
 21
20.08103481
  0
LWPOLYLINE
  5
283
100
AcDbEntity
  8
ASSI
100
AcDbPolyline
 62
7
  6
CONTINUOUS
 90
3
 70
0
 10
-12.4093011996
 20
22.0886669659
 10
-12.4603563099
 20
22.06854035
 10
-12.4720268502
 20
22.0631741671
  0
LWPOLYLINE
  5
284
100
AcDbEntity
  8
RACCORDO
100
AcDbPolyline
 62
7
  6
CONTINUOUS
 90
7
 70
0
 10
-13.8812400945
 20
21.3970474478
 10
-14.008615393
 20
21.3469328324
 10
-14.1352265513
 20
21.2952118592
 10
-14.2610735694
 20
21.2418845283
 10
-14.3861641767
 20
21.1869472191
 10
-14.5104906439
 20
21.1304035522
 10
-14.5885228475
 20
21.0939094744
  0
LWPOLYLINE
  5
285
100
AcDbEntity
  8
ASSI
100
AcDbPolyline
 62
7
  6
CONTINUOUS
 90
7
 70
0
 10
-13.8812400945
 20
21.3970474478
 10
-14.008615393
 20
21.3469328324
 10
-14.1352265513
 20
21.2952118592
 10
-14.2610735694
 20
21.2418845283
 10
-14.3861641767
 20
21.1869472191
 10
-14.5104906439
 20
21.1304035522
 10
-14.5885228475
 20
21.0939094744
  0
LWPOLYLINE
  5
286
100
AcDbEntity
  8
RACCORDO
100
AcDbPolyline
 62
7
  6
CONTINUOUS
 90
3
 70
0
 10
-4.6203804169
 20
25.5050482503
 10
-4.6696378645
 20
25.4875510111
 10
-4.6951066607
 20
25.4763071729
  0
LINE
  5
287
100
AcDbEntity
  8
0
100
AcDbLine
 62
7
  6
CONTINUOUS
 10
-13.3502119547
 20
21.5859476828
 11
-13.4073235355
 21
21.567141782
  0
LINE
  5
288
100
AcDbEntity
  8
ASSI
100
AcDbLine
 62
7
  6
CONTINUOUS
 10
-13.3502119547
 20
21.5859476828
 11
-13.4073235355
 21
21.567141782
  0
LWPOLYLINE
  5
289
100
AcDbEntity
  8
RACCORDO
100
AcDbPolyline
 62
250
  6
CONTINUOUS
 90
6
 70
0
 10
-26.3158690052
 20
18.297662779
 10
-26.2749922589
 20
18.3109909425
 10
-26.231560078
 20
18.3161817324
 10
-26.186115962
 20
18.3132342221
 10
-26.1394370206
 20
18.3021988152
 10
-26.0923214797
 20
18.2832642207
  0
LINE
  5
28A
100
AcDbEntity
  8
0
100
AcDbLine
 62
7
  6
CONTINUOUS
 10
-13.2929662452
 20
21.6044414848
 11
-13.3502119547
 21
21.5859476828
  0
LINE
  5
28B
100
AcDbEntity
  8
ASSI
100
AcDbLine
 62
7
  6
CONTINUOUS
 10
-13.2929662452
 20
21.6044414848
 11
-13.3502119547
 21
21.5859476828
  0
LINE
  5
28C
100
AcDbEntity
  8
0
100
AcDbLine
 62
7
  6
CONTINUOUS
 10
-13.235586407
 20
21.6226231882
 11
-13.2929662452
 21
21.6044414848
  0
LINE
  5
28D
100
AcDbEntity
  8
ASSI
100
AcDbLine
 62
7
  6
CONTINUOUS
 10
-13.235586407
 20
21.6226231882
 11
-13.2929662452
 21
21.6044414848
  0
LWPOLYLINE
  5
28E
100
AcDbEntity
  8
RACCORDO
100
AcDbPolyline
 62
250
  6
CONTINUOUS
 90
8
 70
0
 10
-4.6811346821
 20
25.4823762223
 10
-4.6491812887
 20
25.4924004654
 10
-4.6155202637
 20
25.4979018968
 10
-4.5804101141
 20
25.4988188751
 10
-4.544130508
 20
25.4951612174
 10
-4.5069699905
 20
25.4869587667
 10
-4.4692202195
 20
25.474243614
 10
-4.4311977165
 20
25.4571183521
  0
LWPOLYLINE
  5
28F
100
AcDbEntity
  8
ASSI
100
AcDbPolyline
 62
250
  6
CONTINUOUS
 90
8
 70
0
 10
-4.6811346821
 20
25.4823762223
 10
-4.6491812887
 20
25.4924004654
 10
-4.6155202637
 20
25.4979018968
 10
-4.5804101141
 20
25.4988188751
 10
-4.544130508
 20
25.4951612174
 10
-4.5069699905
 20
25.4869587667
 10
-4.4692202195
 20
25.474243614
 10
-4.4311977165
 20
25.4571183521
  0
LINE
  5
290
100
AcDbEntity
  8
ASSI
100
AcDbLine
 62
7
  6
CONTINUOUS
 10
-12.3595479421
 20
22.1032466556
 11
-12.4093011996
 21
22.0886669659
  0
LINE
  5
291
100
AcDbEntity
  8
0
100
AcDbLine
 62
250
  6
CONTINUOUS
 10
9.8716202158
 20
-32.6431764307
 11
9.8498733773
 21
-32.6338749256
  0
LWPOLYLINE
  5
292
100
AcDbEntity
  8
0
100
AcDbPolyline
 62
7
  6
CONTINUOUS
 90
8
 70
0
 10
9.8888912606
 20
-32.7150229341
 10
9.928031676
 20
-32.7321394687
 10
9.9692971279
 20
-32.7450341214
 10
10.010574959
 20
-32.7527115882
 10
10.0514263069
 20
-32.755089773
 10
10.0911649885
 20
-32.7522102585
 10
10.129199444
 20
-32.7442672035
 10
10.1636337522
 20
-32.7321837236
  0
LINE
  5
293
100
AcDbEntity
  8
0
100
AcDbLine
 62
7
  6
CONTINUOUS
 10
9.8888912597
 20
-32.7150229336
 11
6.6423200107
 21
-31.0917373234
  0
LINE
  5
294
100
AcDbEntity
  8
0
100
AcDbLine
 62
250
  6
CONTINUOUS
 10
9.8498733773
 20
-32.6338749256
 11
6.6464295847
 21
-31.0321530292
  0
LINE
  5
295
100
AcDbEntity
  8
0
100
AcDbLine
 62
7
  6
CONTINUOUS
 10
-21.3993301431
 20
19.9189956063
 11
-21.3993301431
 21
21.2234628503
  0
LINE
  5
296
100
AcDbEntity
  8
0
100
AcDbLine
 62
250
  6
CONTINUOUS
 10
-21.3553961603
 20
19.8970286149
 11
-21.3553961603
 21
21.1704298741
  0
LINE
  5
297
100
AcDbEntity
  8
0
100
AcDbLine
 62
7
  6
CONTINUOUS
 10
-21.3974495733
 20
21.2668541641
 11
-21.3993301428
 21
21.2234676293
  0
LWPOLYLINE
  5
298
100
AcDbEntity
  8
0
100
AcDbPolyline
 62
250
  6
CONTINUOUS
 90
5
 70
0
 10
-21.3553961603
 20
21.1704298741
 10
-21.3536063141
 20
21.2021226721
 10
-21.349625853
 20
21.2311389834
 10
-21.343454777
 20
21.2574788081
 10
-21.3347721484
 20
21.2812174518
  0
LWPOLYLINE
  5
299
100
AcDbEntity
  8
RACCORDO
100
AcDbPolyline
 62
250
  6
CONTINUOUS
 90
10
 70
0
 10
-7.5275016288
 20
21.085048553
 10
-7.4897651223
 20
21.1104046502
 10
-7.4178973922
 20
21.1539364316
 10
-7.3419473942
 20
21.1954909284
 10
-7.2618937183
 20
21.235045454
 10
-7.1777577744
 20
21.272622695
 10
-7.0901790358
 20
21.3079418628
 10
-6.9991348356
 20
21.3409859234
 10
-6.9046478406
 20
21.3717719108
 10
-6.8074255248
 20
21.4000701374
  0
LWPOLYLINE
  5
29A
100
AcDbEntity
  8
SMUSSO
100
AcDbPolyline
 62
7
  6
CONTINUOUS
 90
15
 70
0
 10
-7.8562445161
 20
22.9244718348
 10
-7.961504562
 20
22.86908941
 10
-8.0597383715
 20
22.8108387938
 10
-8.150655
 20
22.7499372653
 10
-8.2339391556
 20
22.6866581508
 10
-8.3094161905
 20
22.6211853264
 10
-8.3770020891
 20
22.5535983071
 10
-8.43650503
 20
22.4840812176
 10
-8.4876783753
 20
22.4129130129
 10
-8.5303496806
 20
22.340312073
 10
-8.5643712705
 20
22.2665274453
 10
-8.58962754
 20
22.1918065096
 10
-8.6060316156
 20
22.1163705611
 10
-8.6135205706
 20
22.0404432244
 10
-8.6140270551
 20
22.0148569986
  0
LWPOLYLINE
  5
29B
100
AcDbEntity
  8
ASSI
100
AcDbPolyline
 62
7
  6
CONTINUOUS
 90
15
 70
0
 10
-7.8562445161
 20
22.9244718348
 10
-7.961504562
 20
22.86908941
 10
-8.0597383715
 20
22.8108387938
 10
-8.150655
 20
22.7499372653
 10
-8.2339391556
 20
22.6866581508
 10
-8.3094161905
 20
22.6211853264
 10
-8.3770020891
 20
22.5535983071
 10
-8.43650503
 20
22.4840812176
 10
-8.4876783753
 20
22.4129130129
 10
-8.5303496806
 20
22.340312073
 10
-8.5643712705
 20
22.2665274453
 10
-8.58962754
 20
22.1918065096
 10
-8.6060316156
 20
22.1163705611
 10
-8.6135205706
 20
22.0404432244
 10
-8.6140270551
 20
22.0148569986
  0
LINE
  5
29C
100
AcDbEntity
  8
0
100
AcDbLine
 62
7
  6
CONTINUOUS
 10
-6.9655807504
 20
21.2855124165
 11
-7.4255502146
 21
21.0555276844
  0
LINE
  5
29D
100
AcDbEntity
  8
SMUSSO
100
AcDbLine
 62
7
  6
CONTINUOUS
 10
-3.6876593976
 20
24.9921207848
 11
-7.8562445161
 21
22.9244718348
  0
LINE
  5
29E
100
AcDbEntity
  8
ASSI
100
AcDbLine
 62
7
  6
CONTINUOUS
 10
-3.6876593976
 20
24.9921207848
 11
-7.8562445161
 21
22.9244718348
  0
LINE
  5
29F
100
AcDbEntity
  8
DRAFT
100
AcDbLine
 62
7
  6
CONTINUOUS
 10
-6.7233203684
 20
21.472075251
 11
-6.8058156358
 21
21.4339762027
  0
LINE
  5
2A0
100
AcDbEntity
  8
ASSI
100
AcDbLine
 62
7
  6
CONTINUOUS
 10
-6.7233203684
 20
21.472075251
 11
-6.8058156358
 21
21.4339762027
  0
LINE
  5
2A1
100
AcDbEntity
  8
DRAFT
100
AcDbLine
 62
7
  6
CONTINUOUS
 10
-7.8562445161
 20
21.82187416
 11
-3.6876593976
 21
23.7079034786
  0
LINE
  5
2A2
100
AcDbEntity
  8
ASSI
100
AcDbLine
 62
7
  6
CONTINUOUS
 10
-7.8562445161
 20
21.82187416
 11
-3.6876593976
 21
23.7079034786
  0
LINE
  5
2A3
100
AcDbEntity
  8
0
100
AcDbLine
 62
7
  6
CONTINUOUS
 10
-12.6648614068
 20
20.5289319474
 11
-12.8433352361
 21
20.4545623714
  0
LINE
  5
2A4
100
AcDbEntity
  8
ASSI
100
AcDbLine
 62
7
  6
CONTINUOUS
 10
-12.6648614068
 20
20.5289319474
 11
-12.8433352361
 21
20.4545623714
  0
LINE
  5
2A5
100
AcDbEntity
  8
0
100
AcDbLine
 62
7
  6
CONTINUOUS
 10
-10.8599530428
 20
21.0340513566
 11
-11.3213585225
 21
20.8762021136
  0
LINE
  5
2A6
100
AcDbEntity
  8
ASSI
100
AcDbLine
 62
7
  6
CONTINUOUS
 10
-10.8599530428
 20
21.0340513566
 11
-11.3213585225
 21
20.8762021136
  0
LINE
  5
2A7
100
AcDbEntity
  8
0
100
AcDbLine
 62
7
  6
CONTINUOUS
 10
-16.1864827449
 20
20.2420918025
 11
-16.2402950011
 21
20.2244980861
  0
LWPOLYLINE
  5
2A8
100
AcDbEntity
  8
RACCORDO
100
AcDbPolyline
 62
250
  6
CONTINUOUS
 90
6
 70
0
 10
-13.5966430531
 20
20.7466830031
 10
-13.5804933528
 20
20.7519342364
 10
-13.5644552208
 20
20.7533947914
 10
-13.5475319519
 20
20.7516244699
 10
-13.5300117242
 20
20.7466597252
 10
-13.5121958144
 20
20.7385909435
  0
LINE
  5
2A9
100
AcDbEntity
  8
0
100
AcDbLine
 62
7
  6
CONTINUOUS
 10
-16.1325342113
 20
20.2594150962
 11
-16.1864827449
 21
20.2420918025
  0
LINE
  5
2AA
100
AcDbEntity
  8
ASSI
100
AcDbLine
 62
7
  6
CONTINUOUS
 10
-16.0981747558
 20
20.2702849376
 11
-16.1486895625
 21
20.2542602595
  0
LINE
  5
2AB
100
AcDbEntity
  8
0
100
AcDbLine
 62
7
  6
CONTINUOUS
 10
-16.0784494004
 20
20.2764679673
 11
-16.1325342113
 21
20.2594150962
  0
LINE
  5
2AC
100
AcDbEntity
  8
ASSI
100
AcDbLine
 62
7
  6
CONTINUOUS
 10
-16.0544481106
 20
20.2839352369
 11
-16.0981747558
 21
20.2702849376
  0
LINE
  5
2AD
100
AcDbEntity
  8
ASSI
100
AcDbLine
 62
7
  6
CONTINUOUS
 10
-16.0063747308
 20
20.2987073142
 11
-16.0544481106
 21
20.2839352369
  0
LWPOLYLINE
  5
2AE
100
AcDbEntity
  8
ASSI
100
AcDbPolyline
 62
7
  6
CONTINUOUS
 90
3
 70
0
 10
-15.9340884836
 20
20.320459015
 10
-15.9582073897
 20
20.3132626368
 10
-16.0063747308
 20
20.2987073142
  0
LWPOLYLINE
  5
2AF
100
AcDbEntity
  8
RACCORDO
100
AcDbPolyline
 62
250
  6
CONTINUOUS
 90
13
 70
0
 10
9.3293656076
 20
-27.8233033356
 10
9.3487921532
 20
-27.8316229446
 10
9.3702427001
 20
-27.8382755047
 10
9.3933582629
 20
-27.8431496819
 10
9.4177519915
 20
-27.8461639045
 10
9.4430156448
 20
-27.8472677281
 10
9.4687264233
 20
-27.8464426797
 10
9.4944540445
 20
-27.8437025668
 10
9.5197679441
 20
-27.8390932465
 10
9.5442444816
 20
-27.8326918581
 10
9.5674740303
 20
-27.8246055321
 10
9.5890678322
 20
-27.8149695969
 10
9.6086645046
 20
-27.8039453147
  0
LWPOLYLINE
  5
2B0
100
AcDbEntity
  8
0
100
AcDbPolyline
 62
250
  6
CONTINUOUS
 90
7
 70
0
 10
9.8888573598
 20
-32.7150059979
 10
9.8854271472
 20
-32.7131394462
 10
9.8731236832
 20
-32.7034121821
 10
9.8631719662
 20
-32.6902042477
 10
9.8558545988
 20
-32.6738907136
 10
9.8513793743
 20
-32.6549348407
 10
9.8498733773
 20
-32.6338749256
  0
LWPOLYLINE
  5
2B1
100
AcDbEntity
  8
0
100
AcDbPolyline
 62
250
  6
CONTINUOUS
 90
6
 70
0
 10
-21.3993301431
 20
21.2234628503
 10
-21.3986528746
 20
21.2163438287
 10
-21.3939892262
 20
21.2036275948
 10
-21.3850275361
 20
21.1915010937
 10
-21.372034401
 20
21.1803245297
 10
-21.3553961603
 20
21.1704298741
  0
LWPOLYLINE
  5
2B2
100
AcDbEntity
  8
RACCORDO
100
AcDbPolyline
 62
250
  6
CONTINUOUS
 90
17
 70
0
 10
-17.7587079031
 20
18.0986844864
 10
-17.758094356
 20
18.1126883018
 10
-17.7601538945
 20
18.1618949453
 10
-17.7663158869
 20
18.2126250247
 10
-17.7765121352
 20
18.2643195881
 10
-17.7906296452
 20
18.3164098438
 10
-17.808513438
 20
18.3683264748
 10
-17.8299683476
 20
18.4195031785
 10
-17.8547614538
 20
18.4693826514
 10
-17.882619311
 20
18.5174139428
 10
-17.9132305427
 20
18.5630625471
 10
-17.9462562301
 20
18.6058272962
 10
-17.9813351903
 20
18.6452436891
 10
-18.0180820038
 20
18.6808811398
 10
-18.0560934249
 20
18.7123514585
 10
-18.0949529202
 20
18.7393128714
 10
-18.1342349886
 20
18.7614729897
  0
LWPOLYLINE
  5
2B3
100
AcDbEntity
  8
RACCORDO
100
AcDbPolyline
 62
250
  6
CONTINUOUS
 90
10
 70
0
 10
-17.5863784564
 20
19.3703795233
 10
-17.5818785147
 20
19.3995848733
 10
-17.573950262
 20
19.4292918236
 10
-17.5627936685
 20
19.4587507932
 10
-17.5486901665
 20
19.4872184425
 10
-17.5319955742
 20
19.5139763861
 10
-17.5131311336
 20
19.5383493328
 10
-17.4925728469
 20
19.5597221879
 10
-17.4708394548
 20
19.5775555675
 10
-17.4484793783
 20
19.5913993754
  0
LINE
  5
2B4
100
AcDbEntity
  8
ASSI
100
AcDbLine
 62
7
  6
CONTINUOUS
 10
-16.6902305653
 20
19.9057908905
 11
-16.6982590461
 21
19.8716994563
  0
LWPOLYLINE
  5
2B5
100
AcDbEntity
  8
ASSI
100
AcDbPolyline
 62
250
  6
CONTINUOUS
 90
3
 70
0
 10
-10.9651233015
 20
16.9660728849
 10
-10.9541846705
 20
16.9809342832
 10
-10.9410050463
 20
16.9963656244
  0
LINE
  5
2B6
100
AcDbEntity
  8
ASSI
100
AcDbLine
 62
250
  6
CONTINUOUS
 10
-10.9410050463
 20
16.9963656244
 11
-10.8940857721
 21
17.0467604764
  0
LWPOLYLINE
  5
2B7
100
AcDbEntity
  8
ASSI
100
AcDbPolyline
 62
250
  6
CONTINUOUS
 90
8
 70
0
 10
-10.8940857721
 20
17.0467604764
 10
-10.876944697
 20
17.0641771026
 10
-10.8593714468
 20
17.0813441357
 10
-10.841900495
 20
17.0981977003
 10
-10.8243520203
 20
17.1141191665
 10
-10.8070165787
 20
17.1288662418
 10
-10.7906304327
 20
17.1425689903
 10
-10.7757065074
 20
17.1552189
  0
LINE
  5
2B8
100
AcDbEntity
  8
0
100
AcDbLine
 62
7
  6
CONTINUOUS
 10
-6.6215979931
 20
18.9148738317
 11
-6.9372964792
 21
18.6841710919
  0
LINE
  5
2B9
100
AcDbEntity
  8
ASSI
100
AcDbLine
 62
7
  6
CONTINUOUS
 10
-6.6215979931
 20
18.9148738317
 11
-6.9372964792
 21
18.6841710919
  0
LWPOLYLINE
  5
2BA
100
AcDbEntity
  8
RACCORDO
100
AcDbPolyline
 62
7
  6
CONTINUOUS
 90
8
 70
0
 10
-10.6131053345
 20
14.8765575745
 10
-10.6456408173
 20
14.8534146901
 10
-10.684144066
 20
14.8197097422
 10
-10.720174572
 20
14.779971742
 10
-10.7522143007
 20
14.7348950124
 10
-10.7791638839
 20
14.6853418951
 10
-10.8004681603
 20
14.6317122735
 10
-10.8033091617
 20
14.6209851157
  0
LINE
  5
2BB
100
AcDbEntity
  8
RACCORDO
100
AcDbLine
 62
7
  6
CONTINUOUS
 10
-5.5751828815
 20
18.7535108498
 11
-6.840137293
 21
17.8624037916
  0
LINE
  5
2BC
100
AcDbEntity
  8
ASSI
100
AcDbLine
 62
7
  6
CONTINUOUS
 10
-5.5751828815
 20
18.7535108498
 11
-6.840137293
 21
17.8624037916
  0
LWPOLYLINE
  5
2BD
100
AcDbEntity
  8
ASSI
100
AcDbPolyline
 62
250
  6
CONTINUOUS
 90
10
 70
0
 10
-10.902029988
 20
17.2375470306
 10
-10.9259609192
 20
17.2220405099
 10
-10.9490531961
 20
17.2020272335
 10
-10.9706359343
 20
17.1780886429
 10
-10.9900821061
 20
17.1509202191
 10
-11.0068267602
 20
17.1213112722
 10
-11.0203834333
 20
17.0901220086
 10
-11.0303582777
 20
17.0582585472
 10
-11.0364615058
 20
17.0266465956
 10
-11.0385158101
 20
16.9962045507
  0
LINE
  5
2BE
100
AcDbEntity
  8
DRAFT
100
AcDbLine
 62
7
  6
CONTINUOUS
 10
-10.2207731372
 20
15.1303147363
 11
-10.6131516241
 21
14.8765276438
  0
LINE
  5
2BF
100
AcDbEntity
  8
RACCORDO
100
AcDbLine
 62
250
  6
CONTINUOUS
 10
-10.6131071524
 20
14.8765563987
 11
-10.6131534415
 21
14.8765264683
  0
LINE
  5
2C0
100
AcDbEntity
  8
ASSI
100
AcDbLine
 62
250
  6
CONTINUOUS
 10
-10.7757056015
 20
17.1552194972
 11
-10.2441625063
 21
17.4754960574
  0
LINE
  5
2C1
100
AcDbEntity
  8
ASSI
100
AcDbLine
 62
250
  6
CONTINUOUS
 10
-10.858000783
 20
17.2195354165
 11
-10.3215695985
 21
17.5423427018
  0
LINE
  5
2C2
100
AcDbEntity
  8
RACCORDO
100
AcDbLine
 62
250
  6
CONTINUOUS
 10
-9.2476785182
 20
18.6063322954
 11
-9.5238394681
 21
18.4582591145
  0
LINE
  5
2C3
100
AcDbEntity
  8
0
100
AcDbLine
 62
250
  6
CONTINUOUS
 10
-9.5620021701
 20
15.6213955538
 11
-9.6278498056
 21
15.5874462482
  0
LINE
  5
2C4
100
AcDbEntity
  8
0
100
AcDbLine
 62
250
  6
CONTINUOUS
 10
-9.8363512369
 20
15.7853353048
 11
-9.6760869949
 21
15.8679369534
  0
LWPOLYLINE
  5
2C5
100
AcDbEntity
  8
0
100
AcDbPolyline
 62
7
  6
CONTINUOUS
 90
10
 70
0
 10
-6.640156607
 20
17.776505704
 10
-6.9445204995
 20
17.6210086278
 10
-7.249928199
 20
17.465193058
 10
-7.556380694
 20
17.3090553678
 10
-7.8638843816
 20
17.1525905632
 10
-8.1724344954
 20
16.9957961588
 10
-8.4820153611
 20
16.838672985
 10
-8.7926223934
 20
16.6812196426
 10
-9.1042618446
 20
16.5234317027
 10
-9.4169344093
 20
16.3653061431
  0
LWPOLYLINE
  5
2C6
100
AcDbEntity
  8
ASSI
100
AcDbPolyline
 62
7
  6
CONTINUOUS
 90
10
 70
0
 10
-6.640156607
 20
17.776505704
 10
-6.9445204995
 20
17.6210086278
 10
-7.249928199
 20
17.465193058
 10
-7.556380694
 20
17.3090553678
 10
-7.8638843816
 20
17.1525905632
 10
-8.1724344954
 20
16.9957961588
 10
-8.4820153611
 20
16.838672985
 10
-8.7926223934
 20
16.6812196426
 10
-9.1042618446
 20
16.5234317027
 10
-9.4169344093
 20
16.3653061431
  0
LINE
  5
2C7
100
AcDbEntity
  8
RACCORDO
100
AcDbLine
 62
7
  6
CONTINUOUS
 10
-5.5690032261
 20
20.8595013965
 11
-4.552637129
 21
21.3676844451
  0
LINE
  5
2C8
100
AcDbEntity
  8
ASSI
100
AcDbLine
 62
250
  6
CONTINUOUS
 10
-10.0406853363
 20
17.2093726485
 11
-10.3942347033
 21
17.0325906472
  0
LINE
  5
2C9
100
AcDbEntity
  8
ASSI
100
AcDbLine
 62
250
  6
CONTINUOUS
 10
-9.9778556383
 20
17.0339611783
 11
-10.3314090289
 21
16.857184483
  0
LINE
  5
2CA
100
AcDbEntity
  8
RACCORDO
100
AcDbLine
 62
250
  6
CONTINUOUS
 10
0.4289018439
 20
23.0270940978
 11
-6.6511687659
 21
19.5153268804
  0
LINE
  5
2CB
100
AcDbEntity
  8
ASSI
100
AcDbLine
 62
250
  6
CONTINUOUS
 10
0.4289018439
 20
23.0270940978
 11
-6.6511687659
 21
19.5153268804
  0
LINE
  5
2CC
100
AcDbEntity
  8
RACCORDO
100
AcDbLine
 62
250
  6
CONTINUOUS
 10
0.7824013866
 20
22.4173975745
 11
-5.8629869466
 21
19.1212359707
  0
LINE
  5
2CD
100
AcDbEntity
  8
ASSI
100
AcDbLine
 62
250
  6
CONTINUOUS
 10
0.7824013866
 20
22.4173975745
 11
-5.8629869466
 21
19.1212359707
  0
LINE
  5
2CE
100
AcDbEntity
  8
RACCORDO
100
AcDbLine
 62
250
  6
CONTINUOUS
 10
0.7824013866
 20
21.9803925941
 11
-5.4978654054
 21
18.8653339665
  0
LINE
  5
2CF
100
AcDbEntity
  8
ASSI
100
AcDbLine
 62
250
  6
CONTINUOUS
 10
0.7824013866
 20
21.9803925941
 11
-5.4978654054
 21
18.8653339665
  0
LINE
  5
2D0
100
AcDbEntity
  8
RACCORDO
100
AcDbLine
 62
250
  6
CONTINUOUS
 10
0.9238012037
 20
21.7365139847
 11
-5.2132972394
 21
18.6924679137
  0
LINE
  5
2D1
100
AcDbEntity
  8
ASSI
100
AcDbLine
 62
250
  6
CONTINUOUS
 10
0.9238012037
 20
21.7365139847
 11
-5.2132972394
 21
18.6924679137
  0
LINE
  5
2D2
100
AcDbEntity
  8
0
100
AcDbLine
 62
250
  6
CONTINUOUS
 10
-10.4906088328
 20
17.626862319
 11
-7.6770779046
 21
18.988057861
  0
LINE
  5
2D3
100
AcDbEntity
  8
ASSI
100
AcDbLine
 62
250
  6
CONTINUOUS
 10
-10.4906088328
 20
17.626862319
 11
-7.6770779046
 21
18.988057861
  0
LINE
  5
2D4
100
AcDbEntity
  8
0
100
AcDbLine
 62
250
  6
CONTINUOUS
 10
-10.0998013859
 20
17.2871438256
 11
-7.2858102945
 21
18.6477351319
  0
LINE
  5
2D5
100
AcDbEntity
  8
ASSI
100
AcDbLine
 62
250
  6
CONTINUOUS
 10
-10.0998013859
 20
17.2871438256
 11
-7.2858102945
 21
18.6477351319
  0
LWPOLYLINE
  5
2D6
100
AcDbEntity
  8
0
100
AcDbPolyline
 62
7
  6
CONTINUOUS
 90
5
 70
0
 10
-8.6744794882
 20
17.6780311179
 10
-8.9890857739
 20
17.5277370475
 10
-9.3045310333
 20
17.37685843
 10
-9.6208203086
 20
17.2253891918
 10
-9.9379559499
 20
17.0733285605
  0
LWPOLYLINE
  5
2D7
100
AcDbEntity
  8
ASSI
100
AcDbPolyline
 62
7
  6
CONTINUOUS
 90
5
 70
0
 10
-8.6744794882
 20
17.6780311179
 10
-8.9890857739
 20
17.5277370475
 10
-9.3045310333
 20
17.37685843
 10
-9.6208203086
 20
17.2253891918
 10
-9.9379559499
 20
17.0733285605
  0
LINE
  5
2D8
100
AcDbEntity
  8
0
100
AcDbLine
 62
7
  6
CONTINUOUS
 10
-8.2251758849
 20
17.8923174315
 11
-8.6744794882
 21
17.6780311179
  0
LINE
  5
2D9
100
AcDbEntity
  8
ASSI
100
AcDbLine
 62
7
  6
CONTINUOUS
 10
-8.2251758849
 20
17.8923174315
 11
-8.6744794882
 21
17.6780311179
  0
LWPOLYLINE
  5
2DA
100
AcDbEntity
  8
0
100
AcDbPolyline
 62
7
  6
CONTINUOUS
 90
5
 70
0
 10
-7.114073166
 20
18.4205165972
 10
-7.4244751589
 20
18.2732247679
 10
-7.7357134137
 20
18.1253324098
 10
-8.0477907575
 20
17.9768383939
 10
-8.2251758849
 20
17.8923174315
  0
LWPOLYLINE
  5
2DB
100
AcDbEntity
  8
ASSI
100
AcDbPolyline
 62
7
  6
CONTINUOUS
 90
5
 70
0
 10
-7.114073166
 20
18.4205165972
 10
-7.4244751589
 20
18.2732247679
 10
-7.7357134137
 20
18.1253324098
 10
-8.0477907575
 20
17.9768383939
 10
-8.2251758849
 20
17.8923174315
  0
LINE
  5
2DC
100
AcDbEntity
  8
RACCORDO
100
AcDbLine
 62
7
  6
CONTINUOUS
 10
0.2784074046
 20
23.1023413175
 11
-3.6848403121
 21
21.2719821844
  0
LINE
  5
2DD
100
AcDbEntity
  8
ASSI
100
AcDbLine
 62
7
  6
CONTINUOUS
 10
0.2784074046
 20
23.1023413175
 11
-3.6848403121
 21
21.2719821844
  0
LINE
  5
2DE
100
AcDbEntity
  8
0
100
AcDbLine
 62
7
  6
CONTINUOUS
 10
-7.8565352947
 20
19.0777865561
 11
-9.3673789842
 21
18.3800288726
  0
LINE
  5
2DF
100
AcDbEntity
  8
ASSI
100
AcDbLine
 62
7
  6
CONTINUOUS
 10
-7.8565352947
 20
19.0777865561
 11
-9.3673789842
 21
18.3800288726
  0
LINE
  5
2E0
100
AcDbEntity
  8
ASSI
100
AcDbLine
 62
7
  6
CONTINUOUS
 10
-10.3896651807
 20
16.4049372581
 11
-10.0322221819
 21
16.568371266
  0
LINE
  5
2E1
100
AcDbEntity
  8
ASSI
100
AcDbLine
 62
250
  6
CONTINUOUS
 10
-10.3448911673
 20
16.5099623532
 11
-9.9778556383
 21
16.6777709748
  0
LWPOLYLINE
  5
2E2
100
AcDbEntity
  8
RACCORDO
100
AcDbPolyline
 62
250
  6
CONTINUOUS
 90
9
 70
0
 10
-9.2476785182
 20
18.6063322954
 10
-9.2353528348
 20
18.6118360394
 10
-9.2231209574
 20
18.6159797014
 10
-9.2110759778
 20
18.6187317456
 10
-9.1993095656
 20
18.6200712272
 10
-9.1879112704
 20
18.6199879519
 10
-9.17696784
 20
18.6184825537
 10
-9.1665625606
 20
18.6155664894
 10
-9.1583326588
 20
18.6120609953
  0
LWPOLYLINE
  5
2E3
100
AcDbEntity
  8
ASSI
100
AcDbPolyline
 62
250
  6
CONTINUOUS
 90
8
 70
0
 10
-10.3314090289
 20
16.857184483
 10
-10.3643581136
 20
16.8428529664
 10
-10.3999284827
 20
16.8313699231
 10
-10.4378483079
 20
16.8228522432
 10
-10.477838676
 20
16.817451065
 10
-10.5195738114
 20
16.8152130251
 10
-10.5626781194
 20
16.8160727792
 10
-10.6066582354
 20
16.8200903897
  0
LWPOLYLINE
  5
2E4
100
AcDbEntity
  8
ASSI
100
AcDbPolyline
 62
250
  6
CONTINUOUS
 90
16
 70
0
 10
-10.3942347033
 20
17.0325906472
 10
-10.4143044832
 20
17.0241841585
 10
-10.4356105251
 20
17.0181696754
 10
-10.4581533431
 20
17.0145465124
 10
-10.4821411715
 20
17.0133163353
 10
-10.5073678393
 20
17.0144747226
 10
-10.53321259
 20
17.0180114031
 10
-10.5596118393
 20
17.0239337657
 10
-10.5866326728
 20
17.0322297119
 10
-10.6138503723
 20
17.0428596841
 10
-10.6413048058
 20
17.0558154085
 10
-10.6689606482
 20
17.0710989787
 10
-10.6962801991
 20
17.0886866227
 10
-10.7230857605
 20
17.1085682918
 10
-10.7495599789
 20
17.1307471929
 10
-10.7757056015
 20
17.1552194972
  0
LINE
  5
2E5
100
AcDbEntity
  8
ASSI
100
AcDbLine
 62
250
  6
CONTINUOUS
 10
0.4655240658
 20
23.0422877167
 11
0.4289018439
 21
23.0270940978
  0
LWPOLYLINE
  5
2E6
100
AcDbEntity
  8
ASSI
100
AcDbPolyline
 62
250
  6
CONTINUOUS
 90
7
 70
0
 10
-16.5539487033
 20
19.282904545
 10
-16.5518943941
 20
19.2545167492
 10
-16.5457911489
 20
19.229007994
 10
-16.5358162812
 20
19.2071193678
 10
-16.522259584
 20
19.189486786
 10
-16.5055149108
 20
19.176622516
 10
-16.5019700662
 20
19.1747297849
  0
LWPOLYLINE
  5
2E7
100
AcDbEntity
  8
ASSI
100
AcDbPolyline
 62
250
  6
CONTINUOUS
 90
6
 70
0
 10
-16.6239065398
 20
19.8378221974
 10
-16.625231711
 20
19.8619586262
 10
-16.6237604857
 20
19.8859603762
 10
-16.6194587359
 20
19.9094524727
 10
-16.6126949537
 20
19.9320567475
 10
-16.6034794165
 20
19.9534018028
  0
LWPOLYLINE
  5
2E8
100
AcDbEntity
  8
ASSI
100
AcDbPolyline
 62
7
  6
CONTINUOUS
 90
7
 70
0
 10
-16.7003860896
 20
19.4560477885
 10
-16.7001141289
 20
19.4448490225
 10
-16.6907108304
 20
19.3853518941
 10
-16.6688201165
 20
19.3296249463
 10
-16.6361084864
 20
19.2795362381
 10
-16.5939879087
 20
19.2356594692
 10
-16.5440731158
 20
19.1984765714
  0
LINE
  5
2E9
100
AcDbEntity
  8
ASSI
100
AcDbLine
 62
250
  6
CONTINUOUS
 10
-16.7003953127
 20
19.4570222394
 11
-16.7003916022
 21
19.4560838231
  0
LINE
  5
2EA
100
AcDbEntity
  8
ASSI
100
AcDbLine
 62
7
  6
CONTINUOUS
 10
-16.7003953127
 20
19.4570243846
 11
-16.7003953127
 21
19.8423396981
  0
LINE
  5
2EB
100
AcDbEntity
  8
ASSI
100
AcDbLine
 62
250
  6
CONTINUOUS
 10
-16.5539487033
 20
19.282904545
 11
-16.5539487033
 21
19.7539209973
  0
LINE
  5
2EC
100
AcDbEntity
  8
ASSI
100
AcDbLine
 62
7
  6
CONTINUOUS
 10
-16.6982590461
 20
19.8716994563
 11
-16.7003950832
 21
19.8421919598
  0
LWPOLYLINE
  5
2ED
100
AcDbEntity
  8
RACCORDO
100
AcDbPolyline
 62
250
  6
CONTINUOUS
 90
10
 70
0
 10
-9.8512888574
 20
15.4444793542
 10
-9.8333819544
 20
15.4612555404
 10
-9.8122761782
 20
15.4788754171
 10
-9.7885228515
 20
15.4968787201
 10
-9.7627424555
 20
15.5147951691
 10
-9.7356084226
 20
15.532156753
 10
-9.7078295447
 20
15.5485099546
 10
-9.680131458
 20
15.5634275976
 10
-9.6532376886
 20
15.5765200051
 10
-9.6278507523
 20
15.587445179
  0
LWPOLYLINE
  5
2EE
100
AcDbEntity
  8
RACCORDO
100
AcDbPolyline
 62
250
  6
CONTINUOUS
 90
13
 70
0
 10
-2.7456683301
 20
17.2934791241
 10
-2.7391286297
 20
17.2970368757
 10
-2.7338259521
 20
17.3007097086
 10
-2.7297602973
 20
17.3044976227
 10
-2.7269229459
 20
17.3084335388
 10
-2.7253226173
 20
17.3124845361
 10
-2.7249854696
 20
17.3165518527
 10
-2.7259532492
 20
17.3206342915
 10
-2.7281842095
 20
17.3247330496
 10
-2.7315792696
 20
17.3287529558
 10
-2.7361054023
 20
17.3326622865
 10
-2.7417956346
 20
17.3364927653
 10
-2.7486499666
 20
17.3402443923
  0
LWPOLYLINE
  5
2EF
100
AcDbEntity
  8
ASSI
100
AcDbPolyline
 62
250
  6
CONTINUOUS
 90
13
 70
0
 10
-2.7456683301
 20
17.2934791241
 10
-2.7391286297
 20
17.2970368757
 10
-2.7338259521
 20
17.3007097086
 10
-2.7297602973
 20
17.3044976227
 10
-2.7269229459
 20
17.3084335388
 10
-2.7253226173
 20
17.3124845361
 10
-2.7249854696
 20
17.3165518527
 10
-2.7259532492
 20
17.3206342915
 10
-2.7281842095
 20
17.3247330496
 10
-2.7315792696
 20
17.3287529558
 10
-2.7361054023
 20
17.3326622865
 10
-2.7417956346
 20
17.3364927653
 10
-2.7486499666
 20
17.3402443923
  0
LWPOLYLINE
  5
2F0
100
AcDbEntity
  8
SMUSSO
100
AcDbPolyline
 62
7
  6
CONTINUOUS
 90
15
 70
0
 10
-0.8184966346
 20
18.3298598441
 10
-0.9237566804
 20
18.2744774193
 10
-1.0219904899
 20
18.216226803
 10
-1.1129071185
 20
18.1553252745
 10
-1.1961912741
 20
18.0920461601
 10
-1.271668309
 20
18.0265733357
 10
-1.3392542076
 20
17.9589863163
 10
-1.3987571484
 20
17.8894692268
 10
-1.4499304938
 20
17.8183010221
 10
-1.4926017991
 20
17.7457000823
 10
-1.5266233889
 20
17.6719154545
 10
-1.5518796585
 20
17.5971945188
 10
-1.5682837341
 20
17.5217585703
 10
-1.575772689
 20
17.4458312337
 10
-1.5762791736
 20
17.4202450078
  0
LWPOLYLINE
  5
2F1
100
AcDbEntity
  8
ASSI
100
AcDbPolyline
 62
7
  6
CONTINUOUS
 90
15
 70
0
 10
-0.8184966346
 20
18.3298598441
 10
-0.9237566804
 20
18.2744774193
 10
-1.0219904899
 20
18.216226803
 10
-1.1129071185
 20
18.1553252745
 10
-1.1961912741
 20
18.0920461601
 10
-1.271668309
 20
18.0265733357
 10
-1.3392542076
 20
17.9589863163
 10
-1.3987571484
 20
17.8894692268
 10
-1.4499304938
 20
17.8183010221
 10
-1.4926017991
 20
17.7457000823
 10
-1.5266233889
 20
17.6719154545
 10
-1.5518796585
 20
17.5971945188
 10
-1.5682837341
 20
17.5217585703
 10
-1.575772689
 20
17.4458312337
 10
-1.5762791736
 20
17.4202450078
  0
LWPOLYLINE
  5
2F2
100
AcDbEntity
  8
SMUSSO
100
AcDbPolyline
 62
7
  6
CONTINUOUS
 90
25
 70
0
 10
-1.172102018
 20
18.9398749873
 10
-1.2977682341
 20
18.8739614153
 10
-1.4144937062
 20
18.8051502667
 10
-1.5222784342
 20
18.7334415413
 10
-1.6213452002
 20
18.6586227559
 10
-1.7114712221
 20
18.5809063938
 10
-1.7919881538
 20
18.5009299053
 10
-1.8628845747
 20
18.4186293035
 10
-1.9241719053
 20
18.3340685753
 10
-1.9752160606
 20
18.2480771321
 10
-2.0159175756
 20
18.1606434956
 10
-2.0463759153
 20
18.0717791442
 10
-2.0662553894
 20
17.9823479235
 10
-2.0754375878
 20
17.8923066888
 10
-2.0740409206
 20
17.8016985848
 10
-2.0620849283
 20
17.7115168925
 10
-2.0394544744
 20
17.6218054893
 10
-2.0062646954
 20
17.5325204978
 10
-1.9628805419
 20
17.4445235653
 10
-1.909219119
 20
17.3578339064
 10
-1.8453633215
 20
17.2724323065
 10
-1.7719267852
 20
17.1891227706
 10
-1.6888315477
 20
17.1079218093
 10
-1.5961555715
 20
17.028812912
 10
-1.5161751351
 20
16.9678935102
  0
LWPOLYLINE
  5
2F3
100
AcDbEntity
  8
ASSI
100
AcDbPolyline
 62
7
  6
CONTINUOUS
 90
22
 70
0
 10
-1.172102018
 20
18.9398749873
 10
-1.2977682341
 20
18.8739614153
 10
-1.4144937062
 20
18.8051502667
 10
-1.5222784342
 20
18.7334415413
 10
-1.6213452002
 20
18.6586227559
 10
-1.7114712221
 20
18.5809063938
 10
-1.7919881538
 20
18.5009299053
 10
-1.8628845747
 20
18.4186293035
 10
-1.9241719053
 20
18.3340685753
 10
-1.9752160606
 20
18.2480771321
 10
-2.0159175756
 20
18.1606434956
 10
-2.0463759153
 20
18.0717791442
 10
-2.0662553894
 20
17.9823479235
 10
-2.0754375878
 20
17.8923066888
 10
-2.0740409206
 20
17.8016985848
 10
-2.0620849283
 20
17.7115168925
 10
-2.0394544744
 20
17.6218054893
 10
-2.0062646954
 20
17.5325204978
 10
-1.9628805419
 20
17.4445235653
 10
-1.909219119
 20
17.3578339064
 10
-1.8453633215
 20
17.2724323065
 10
-1.7719267852
 20
17.1891227706
  0
LINE
  5
2F4
100
AcDbEntity
  8
0
100
AcDbLine
 62
250
  6
CONTINUOUS
 10
-5.558384408
 20
14.2081221624
 11
-5.9558882802
 21
14.007837596
  0
LINE
  5
2F5
100
AcDbEntity
  8
0
100
AcDbLine
 62
7
  6
CONTINUOUS
 10
-0.2480663291
 20
16.8154295869
 11
0.2469084177
 21
17.0629169604
  0
LINE
  5
2F6
100
AcDbEntity
  8
RACCORDO
100
AcDbLine
 62
7
  6
CONTINUOUS
 10
2.6879001427
 20
20.8544645152
 11
-1.172102018
 21
18.9398749873
  0
LINE
  5
2F7
100
AcDbEntity
  8
ASSI
100
AcDbLine
 62
7
  6
CONTINUOUS
 10
2.6879001427
 20
20.8544645152
 11
-1.172102018
 21
18.9398749873
  0
LINE
  5
2F8
100
AcDbEntity
  8
SMUSSO
100
AcDbLine
 62
7
  6
CONTINUOUS
 10
3.3828268127
 20
20.4137472465
 11
-0.8184966346
 21
18.3298598441
  0
LINE
  5
2F9
100
AcDbEntity
  8
ASSI
100
AcDbLine
 62
7
  6
CONTINUOUS
 10
3.3828268127
 20
20.4137472465
 11
-0.8184966346
 21
18.3298598441
  0
LINE
  5
2FA
100
AcDbEntity
  8
RACCORDO
100
AcDbLine
 62
250
  6
CONTINUOUS
 10
-5.3511391605
 20
16.0296788501
 11
-2.7456683301
 21
17.2934791241
  0
LINE
  5
2FB
100
AcDbEntity
  8
ASSI
100
AcDbLine
 62
250
  6
CONTINUOUS
 10
-5.3511391605
 20
16.0296788501
 11
-2.7456683301
 21
17.2934791241
  0
LINE
  5
2FC
100
AcDbEntity
  8
RACCORDO
100
AcDbLine
 62
250
  6
CONTINUOUS
 10
-5.1191833241
 20
15.8074616335
 11
-2.513476981
 21
17.0708926288
  0
LINE
  5
2FD
100
AcDbEntity
  8
ASSI
100
AcDbLine
 62
250
  6
CONTINUOUS
 10
-5.1191833241
 20
15.8074616335
 11
-2.513476981
 21
17.0708926288
  0
LWPOLYLINE
  5
2FE
100
AcDbEntity
  8
0
100
AcDbPolyline
 62
7
  6
CONTINUOUS
 90
5
 70
0
 10
-0.8824642306
 20
16.6266281954
 10
-0.8819613083
 20
16.6268683099
 10
-0.7619458514
 20
16.6791923359
 10
-0.6375531464
 20
16.7286302285
 10
-0.5579471092
 20
16.757402984
  0
LINE
  5
2FF
100
AcDbEntity
  8
DRAFT
100
AcDbLine
 62
7
  6
CONTINUOUS
 10
0.344861524
 20
17.2428688642
 11
-0.9383897399
 21
16.650220905
  0
LINE
  5
300
100
AcDbEntity
  8
ASSI
100
AcDbLine
 62
7
  6
CONTINUOUS
 10
0.344861524
 20
17.2428688642
 11
-0.9383897399
 21
16.650220905
  0
LINE
  5
301
100
AcDbEntity
  8
DRAFT
100
AcDbLine
 62
7
  6
CONTINUOUS
 10
-0.8184966346
 20
17.5789986442
 11
3.3828268127
 21
19.4798400504
  0
LINE
  5
302
100
AcDbEntity
  8
ASSI
100
AcDbLine
 62
7
  6
CONTINUOUS
 10
-0.8184966346
 20
17.5789986442
 11
3.3828268127
 21
19.4798400504
  0
LWPOLYLINE
  5
303
100
AcDbEntity
  8
RACCORDO
100
AcDbPolyline
 62
250
  6
CONTINUOUS
 90
6
 70
0
 10
-2.7486499666
 20
17.3402443923
 10
-2.7185458752
 20
17.3530772649
 10
-2.6887057276
 20
17.3626440544
 10
-2.65934665
 20
17.3688751501
 10
-2.6306822677
 20
17.371725212
 10
-2.6029211523
 20
17.3711735034
  0
LWPOLYLINE
  5
304
100
AcDbEntity
  8
ASSI
100
AcDbPolyline
 62
250
  6
CONTINUOUS
 90
9
 70
0
 10
-2.7486499666
 20
17.3402443923
 10
-2.7185458752
 20
17.3530772649
 10
-2.6887057276
 20
17.3626440544
 10
-2.65934665
 20
17.3688751501
 10
-2.6306822677
 20
17.371725212
 10
-2.6029211523
 20
17.3711735034
 10
-2.5762653043
 20
17.3672240405
 10
-2.5509086813
 20
17.3599055608
 10
-2.5312135174
 20
17.3514260527
  0
LINE
  5
305
100
AcDbEntity
  8
DRAFT
100
AcDbLine
 62
7
  6
CONTINUOUS
 10
3.5703917326
 20
19.3860575905
 11
3.8590561088
 21
19.5072188161
  0
LINE
  5
306
100
AcDbEntity
  8
ASSI
100
AcDbLine
 62
7
  6
CONTINUOUS
 10
3.5703917326
 20
19.3860575905
 11
3.8590561088
 21
19.5072188161
  0
LINE
  5
307
100
AcDbEntity
  8
ASSI
100
AcDbLine
 62
250
  6
CONTINUOUS
 10
3.8590562021
 20
19.5072188552
 11
3.8607606448
 21
19.5079324135
  0
LWPOLYLINE
  5
308
100
AcDbEntity
  8
RACCORDO
100
AcDbPolyline
 62
250
  6
CONTINUOUS
 90
5
 70
0
 10
-5.3511391605
 20
16.0296788501
 10
-5.3671741912
 20
16.0231238487
 10
-5.3829700246
 20
16.0189082914
 10
-5.3983224614
 20
16.017086675
 10
-5.408479752
 20
16.0174981111
  0
LWPOLYLINE
  5
309
100
AcDbEntity
  8
ASSI
100
AcDbPolyline
 62
250
  6
CONTINUOUS
 90
5
 70
0
 10
-5.3511391605
 20
16.0296788501
 10
-5.3671741912
 20
16.0231238487
 10
-5.3829700246
 20
16.0189082914
 10
-5.3983224614
 20
16.017086675
 10
-5.408479752
 20
16.0174981111
  0
LINE
  5
30A
100
AcDbEntity
  8
RACCORDO
100
AcDbLine
 62
250
  6
CONTINUOUS
 10
3.8590562021
 20
19.5072188552
 11
3.8803548455
 21
19.5158727148
  0
LINE
  5
30B
100
AcDbEntity
  8
ASSI
100
AcDbLine
 62
250
  6
CONTINUOUS
 10
3.8607606448
 20
19.5079324135
 11
3.8803548455
 21
19.5158727148
  0
LWPOLYLINE
  5
30C
100
AcDbEntity
  8
RACCORDO
100
AcDbPolyline
 62
7
  6
CONTINUOUS
 90
19
 70
0
 10
3.8582373175
 20
19.5068747174
 10
3.9359266029
 20
19.536408094
 10
4.0621871479
 20
19.571938184
 10
4.1937306453
 20
19.5941578179
 10
4.3305664099
 20
19.6027523178
 10
4.4725650476
 20
19.5972092795
 10
4.6184720285
 20
19.5770844333
 10
4.7667556511
 20
19.5423012486
 10
4.9169172207
 20
19.4927695884
 10
5.068100933
 20
19.4285398876
 10
5.2182647161
 20
19.350436596
 10
5.3665479191
 20
19.2590510395
 10
5.5124783625
 20
19.1547808447
 10
5.6545946126
 20
19.0388311108
 10
5.7920183681
 20
18.9122059002
 10
5.9243882699
 20
18.7754959735
 10
6.0510144703
 20
18.6296176348
 10
6.1712729305
 20
18.4754912323
 10
6.2846391465
 20
18.3139685782
  0
LINE
  5
30D
100
AcDbEntity
  8
RACCORDO
100
AcDbLine
 62
250
  6
CONTINUOUS
 10
3.8803548455
 20
19.5158727148
 11
3.951100911
 21
19.5406781891
  0
LWPOLYLINE
  5
30E
100
AcDbEntity
  8
ASSI
100
AcDbPolyline
 62
250
  6
CONTINUOUS
 90
29
 70
0
 10
3.8803548455
 20
19.5158727148
 10
3.9513478943
 20
19.5407647881
 10
4.027136072
 20
19.561101745
 10
4.1078309747
 20
19.5762820576
 10
4.1934053663
 20
19.5856661417
 10
4.2838241126
 20
19.5886205022
 10
4.3794443267
 20
19.5844777106
 10
4.4797555732
 20
19.5725740393
 10
4.5832815974
 20
19.5525846041
 10
4.6902354987
 20
19.5240578625
 10
4.7998471849
 20
19.4867870649
 10
4.9089828656
 20
19.4417797614
 10
5.0169338506
 20
19.3896043443
 10
5.12366552
 20
19.3305498973
 10
5.2270372003
 20
19.2662238049
 10
5.326224727
 20
19.1977960557
 10
5.4215822246
 20
19.125664049
 10
5.5128311266
 20
19.0506227351
 10
5.5997663278
 20
18.9734343838
 10
5.6824130992
 20
18.8946589441
 10
5.7608967986
 20
18.8147243683
 10
5.8352195256
 20
18.7341508018
 10
5.9053916928
 20
18.653441748
 10
5.9715781327
 20
18.5729043315
 10
6.0338332887
 20
18.4929512805
 10
6.0922419474
 20
18.4139469445
 10
6.1470243216
 20
18.3360472562
 10
6.1983188894
 20
18.2594864765
 10
6.246191623
 20
18.1845928599
  0
LWPOLYLINE
  5
30F
100
AcDbEntity
  8
ASSI
100
AcDbPolyline
 62
7
  6
CONTINUOUS
 90
14
 70
0
 10
3.8607605511
 20
19.5079323741
 10
4.0191999762
 20
19.5614824829
 10
4.1932355613
 20
19.5941006195
 10
4.3779030741
 20
19.6024915845
 10
4.5700481396
 20
19.5853403594
 10
4.7667556511
 20
19.5423012486
 10
4.9670322454
 20
19.4730724334
 10
5.1686679906
 20
19.3778217129
 10
5.3670648172
 20
19.2587071752
 10
5.5599591861
 20
19.1176681452
 10
5.7465360982
 20
18.9557674144
 10
5.9243854114
 20
18.7754990932
 10
6.091747836
 20
18.5792256073
 10
6.2475722659
 20
18.3686875338
  0
LWPOLYLINE
  5
310
100
AcDbEntity
  8
RACCORDO
100
AcDbPolyline
 62
7
  6
CONTINUOUS
 90
14
 70
0
 10
0.3092052797
 20
17.1850703413
 10
0.1975614244
 20
17.1508255279
 10
0.0892074606
 20
17.1133160923
 10
-0.0155022608
 20
17.0726024425
 10
-0.1162483714
 20
17.0287413046
 10
-0.2128284196
 20
16.9817366908
 10
-0.3048389393
 20
16.9316889368
 10
-0.3917548886
 20
16.8788056942
 10
-0.4734844571
 20
16.823058919
 10
-0.5496393558
 20
16.7646118632
 10
-0.6194769656
 20
16.7040117384
 10
-0.6829324153
 20
16.6413619505
 10
-0.7399109752
 20
16.5767927841
 10
-0.7426706107
 20
16.573162689
  0
LINE
  5
311
100
AcDbEntity
  8
RACCORDO
100
AcDbLine
 62
250
  6
CONTINUOUS
 10
0.285916599
 20
17.1423299015
 11
0.3827825679
 21
17.1712616066
  0
LINE
  5
312
100
AcDbEntity
  8
RACCORDO
100
AcDbLine
 62
7
  6
CONTINUOUS
 10
13.3279945736
 20
-26.358151713
 11
13.6488552127
 21
-26.5185820326
  0
LWPOLYLINE
  5
313
100
AcDbEntity
  8
ASSI
100
AcDbPolyline
 62
250
  6
CONTINUOUS
 90
11
 70
0
 10
-16.7003916022
 20
19.4560838231
 10
-16.698824573
 20
19.4377112279
 10
-16.6941725628
 20
19.418636583
 10
-16.6868384595
 20
19.4005152275
 10
-16.6768003656
 20
19.3827770034
 10
-16.664198473
 20
19.3655693157
 10
-16.6491241343
 20
19.3489265484
 10
-16.6308516635
 20
19.3322071498
 10
-16.6088703165
 20
19.3153624719
 10
-16.583272929
 20
19.2988518693
 10
-16.5539487033
 20
19.282904545
  0
LINE
  5
314
100
AcDbEntity
  8
0
100
AcDbLine
 62
7
  6
CONTINUOUS
 10
-16.2389662272
 20
20.2081309998
 11
-16.2402950011
 21
20.2244980861
  0
LINE
  5
315
100
AcDbEntity
  8
ASSI
100
AcDbLine
 62
7
  6
CONTINUOUS
 10
-16.2389662272
 20
20.2081309998
 11
-16.2402950011
 21
20.2244980861
  0
LINE
  5
316
100
AcDbEntity
  8
0
100
AcDbLine
 62
7
  6
CONTINUOUS
 10
-12.6648614068
 20
21.4819496121
 11
-12.6648614068
 21
20.5289319474
  0
LINE
  5
317
100
AcDbEntity
  8
RACCORDO
100
AcDbLine
 62
7
  6
CONTINUOUS
 10
-12.6648614068
 20
20.5289319474
 11
-12.6648614068
 21
20.3653254567
  0
LINE
  5
318
100
AcDbEntity
  8
ASSI
100
AcDbLine
 62
7
  6
CONTINUOUS
 10
-12.6648614068
 20
21.4819496121
 11
-12.6648614068
 21
20.3653254567
  0
LWPOLYLINE
  5
319
100
AcDbEntity
  8
RACCORDO
100
AcDbPolyline
 62
250
  6
CONTINUOUS
 90
10
 70
0
 10
-9.9742503168
 20
15.5643154536
 10
-9.969750177
 20
15.5935217115
 10
-9.961821599
 20
15.6232293381
 10
-9.9506646508
 20
15.6526886983
 10
-9.9365608641
 20
15.6811564213
 10
-9.9198661306
 20
15.7079141594
 10
-9.9010017214
 20
15.7322867142
 10
-9.8804436567
 20
15.7536590743
 10
-9.8587106937
 20
15.7714919346
 10
-9.8363512369
 20
15.7853353048
  0
LWPOLYLINE
  5
31A
100
AcDbEntity
  8
0
100
AcDbPolyline
 62
250
  6
CONTINUOUS
 90
7
 70
0
 10
-5.3773612289
 20
13.3736889989
 10
-5.3935037272
 20
13.358581701
 10
-5.4081024153
 20
13.3400139059
 10
-5.4209838911
 20
13.3181016309
 10
-5.4312599712
 20
13.2929756978
 10
-5.4386345947
 20
13.264679714
 10
-5.4434038225
 20
13.2331700722
  0
LWPOLYLINE
  5
31B
100
AcDbEntity
  8
0
100
AcDbPolyline
 62
7
  6
CONTINUOUS
 90
9
 70
0
 10
-5.3313646762
 20
13.5666265872
 10
-5.3607702566
 20
13.5469362378
 10
-5.3901523003
 20
13.5211703609
 10
-5.4161202728
 20
13.4914076242
 10
-5.4383765845
 20
13.4580722442
 10
-5.4567464275
 20
13.4215466653
 10
-5.4712062926
 20
13.3818059023
 10
-5.4816046382
 20
13.3389359496
 10
-5.4877497016
 20
13.2933665992
  0
LINE
  5
31C
100
AcDbEntity
  8
0
100
AcDbLine
 62
7
  6
CONTINUOUS
 10
-5.3314922152
 20
13.5665713857
 11
-4.9440820182
 21
13.7924670146
  0
LINE
  5
31D
100
AcDbEntity
  8
0
100
AcDbLine
 62
250
  6
CONTINUOUS
 10
-5.0977537178
 20
13.5580281621
 11
-4.7101792431
 21
13.7840195799
  0
LINE
  5
31E
100
AcDbEntity
  8
0
100
AcDbLine
 62
250
  6
CONTINUOUS
 10
-5.4152081049
 20
13.4924530894
 11
-5.6023887375
 21
13.3981410727
  0
LINE
  5
31F
100
AcDbEntity
  8
RACCORDO
100
AcDbLine
 62
7
  6
CONTINUOUS
 10
2.6604109913
 20
17.1453684651
 11
1.5380979133
 21
16.5842119261
  0
LINE
  5
320
100
AcDbEntity
  8
RACCORDO
100
AcDbLine
 62
7
  6
CONTINUOUS
 10
3.3675418488
 20
16.7918271126
 11
2.648150733
 21
16.4321315547
  0
LWPOLYLINE
  5
321
100
AcDbEntity
  8
RACCORDO
100
AcDbPolyline
 62
250
  6
CONTINUOUS
 90
8
 70
0
 10
8.48387053
 20
17.7714220949
 10
8.5265785967
 20
17.792688563
 10
8.5639422624
 20
17.8111464656
 10
8.5953363805
 20
17.826486977
 10
8.6202357123
 20
17.838453444
 10
8.638223694
 20
17.8468456719
 10
8.6489994199
 20
17.8515232809
 10
8.6523824094
 20
17.8524863097
  0
LWPOLYLINE
  5
322
100
AcDbEntity
  8
ASSI
100
AcDbPolyline
 62
250
  6
CONTINUOUS
 90
8
 70
0
 10
8.48387053
 20
17.7714220949
 10
8.5265785967
 20
17.792688563
 10
8.5639422624
 20
17.8111464656
 10
8.5953363805
 20
17.826486977
 10
8.6202357123
 20
17.838453444
 10
8.638223694
 20
17.8468456719
 10
8.6489994199
 20
17.8515232809
 10
8.6523826398
 20
17.8524858632
  0
LINE
  5
323
100
AcDbEntity
  8
RACCORDO
100
AcDbLine
 62
250
  6
CONTINUOUS
 10
6.2041230142
 20
18.0691919497
 11
6.2907603383
 21
18.1116085124
  0
LINE
  5
324
100
AcDbEntity
  8
ASSI
100
AcDbLine
 62
250
  6
CONTINUOUS
 10
6.2041230142
 20
18.0691919497
 11
6.2907603383
 21
18.1116085124
  0
LINE
  5
325
100
AcDbEntity
  8
RACCORDO
100
AcDbLine
 62
250
  6
CONTINUOUS
 10
1.1308624639
 20
14.6985885651
 11
8.1592767908
 21
18.1187761912
  0
LINE
  5
326
100
AcDbEntity
  8
ASSI
100
AcDbLine
 62
250
  6
CONTINUOUS
 10
1.1308624639
 20
14.6985885651
 11
8.1592767908
 21
18.1187761912
  0
LINE
  5
327
100
AcDbEntity
  8
RACCORDO
100
AcDbLine
 62
250
  6
CONTINUOUS
 10
1.4546366434
 20
14.352833636
 11
8.4838705301
 21
17.7714220949
  0
LINE
  5
328
100
AcDbEntity
  8
ASSI
100
AcDbLine
 62
250
  6
CONTINUOUS
 10
1.4546366434
 20
14.352833636
 11
8.4838705301
 21
17.7714220949
  0
LINE
  5
329
100
AcDbEntity
  8
RACCORDO
100
AcDbLine
 62
7
  6
CONTINUOUS
 10
7.350056818
 20
18.5233861776
 11
3.3529075694
 21
16.6773701936
  0
LINE
  5
32A
100
AcDbEntity
  8
ASSI
100
AcDbLine
 62
7
  6
CONTINUOUS
 10
7.350056818
 20
18.5233861776
 11
3.3529075694
 21
16.6773701936
  0
LWPOLYLINE
  5
32B
100
AcDbEntity
  8
RACCORDO
100
AcDbPolyline
 62
7
  6
CONTINUOUS
 90
11
 70
0
 10
3.3669808752
 20
16.7915466258
 10
3.3789844907
 20
16.7969686928
 10
3.390806704
 20
16.8011269707
 10
3.4024475153
 20
16.8040214595
 10
3.4140259918
 20
16.8056557797
 10
3.4254230662
 20
16.8060263108
 10
3.4362815367
 20
16.8051221911
 10
3.4465246901
 20
16.802911079
 10
3.4562292395
 20
16.7994253161
 10
3.4652681223
 20
16.7947510654
 10
3.4725707829
 20
16.7897296989
  0
LWPOLYLINE
  5
32C
100
AcDbEntity
  8
ASSI
100
AcDbPolyline
 62
250
  6
CONTINUOUS
 90
8
 70
0
 10
8.1592767908
 20
18.1187761912
 10
8.1957199743
 20
18.1339632253
 10
8.2317113999
 20
18.1443131915
 10
8.2668647792
 20
18.1497155058
 10
8.3008018345
 20
18.1501131028
 10
8.3331594149
 20
18.1455014308
 10
8.3635934254
 20
18.135928572
 10
8.3758223809
 20
18.1304020955
  0
LWPOLYLINE
  5
32D
100
AcDbEntity
  8
RACCORDO
100
AcDbPolyline
 62
250
  6
CONTINUOUS
 90
8
 70
0
 10
8.1592767908
 20
18.1187761912
 10
8.1957199722
 20
18.1339632264
 10
8.2317113958
 20
18.1443131935
 10
8.2668647733
 20
18.1497155088
 10
8.300801827
 20
18.1501131066
 10
8.333159406
 20
18.1455014353
 10
8.3635934153
 20
18.1359285771
 10
8.3762129153
 20
18.1302079017
  0
LWPOLYLINE
  5
32E
100
AcDbEntity
  8
DRAFT
100
AcDbPolyline
 62
7
  6
CONTINUOUS
 90
10
 70
0
 10
2.9847020982
 20
13.6571678596
 10
2.9292191378
 20
13.6411925748
 10
2.8738573922
 20
13.6249301196
 10
2.8186168613
 20
13.6083804942
 10
2.7634969272
 20
13.5915435059
 10
2.7084982079
 20
13.5744193474
 10
2.6536225576
 20
13.5570085959
 10
2.5988705946
 20
13.5393114438
 10
2.5442417006
 20
13.5213276988
 10
2.4897358758
 20
13.5030573608
  0
LWPOLYLINE
  5
32F
100
AcDbEntity
  8
RACCORDO
100
AcDbPolyline
 62
250
  6
CONTINUOUS
 90
10
 70
0
 10
9.1536953294
 20
-28.6059029259
 10
9.1755281827
 20
-28.6302215748
 10
9.2005491685
 20
-28.6514302945
 10
9.2280852753
 20
-28.6689586151
 10
9.2573958398
 20
-28.6823350617
 10
9.2876924699
 20
-28.6911998358
 10
9.3181602502
 20
-28.6953144937
 10
9.3479796619
 20
-28.6945683596
 10
9.3763486256
 20
-28.6889815028
 10
9.4025040763
 20
-28.6787041978
  0
LWPOLYLINE
  5
330
100
AcDbEntity
  8
ASSI
100
AcDbPolyline
 62
250
  6
CONTINUOUS
 90
7
 70
0
 10
-11.0385158101
 20
16.5251880984
 10
-11.036461235
 20
16.4967984504
 10
-11.0303573006
 20
16.4712886641
 10
-11.0203815452
 20
16.4493997839
 10
-11.0068239553
 20
16.4317675656
 10
-10.990078603
 20
16.4189041243
 10
-10.9870601983
 20
16.4172774093
  0
LWPOLYLINE
  5
331
100
AcDbEntity
  8
ASSI
100
AcDbPolyline
 62
250
  6
CONTINUOUS
 90
10
 70
0
 10
-10.3314090289
 20
16.857184483
 10
-10.3322504138
 20
16.8764584198
 10
-10.3347622107
 20
16.8963431689
 10
-10.3389144254
 20
16.9166023695
 10
-10.3446575589
 20
16.9369952138
 10
-10.3519232355
 20
16.9572794166
 10
-10.3606250456
 20
16.9772140909
 10
-10.3706595143
 20
16.99656246
 10
-10.3819073069
 20
17.0150946746
 10
-10.3942347033
 20
17.0325906472
  0
LINE
  5
332
100
AcDbEntity
  8
0
100
AcDbLine
 62
7
  6
CONTINUOUS
 10
-11.3213585225
 20
20.8762021136
 11
-11.3213585225
 21
19.9859902623
  0
LINE
  5
333
100
AcDbEntity
  8
ASSI
100
AcDbLine
 62
7
  6
CONTINUOUS
 10
-11.3213585225
 20
20.8762021136
 11
-11.3213585225
 21
19.9859902623
  0
LINE
  5
334
100
AcDbEntity
  8
ASSI
100
AcDbLine
 62
250
  6
CONTINUOUS
 10
-11.0385158101
 20
16.9962045507
 11
-11.0385158101
 21
16.5251880984
  0
LINE
  5
335
100
AcDbEntity
  8
ASSI
100
AcDbLine
 62
250
  6
CONTINUOUS
 10
-10.3314090289
 20
16.857184483
 11
-10.3314090289
 21
16.5161154163
  0
LINE
  5
336
100
AcDbEntity
  8
ASSI
100
AcDbLine
 62
7
  6
CONTINUOUS
 10
-9.9778556383
 20
16.6777709748
 11
-9.9778556383
 21
17.0339611783
  0
LWPOLYLINE
  5
337
100
AcDbEntity
  8
ASSI
100
AcDbPolyline
 62
250
  6
CONTINUOUS
 90
13
 70
0
 10
-10.9651233015
 20
16.9660728849
 10
-10.9643333445
 20
16.9890665304
 10
-10.9616984453
 20
17.0130510636
 10
-10.9572628377
 20
17.0376286275
 10
-10.9510946424
 20
17.0624133726
 10
-10.9432996192
 20
17.0869723111
 10
-10.9340331071
 20
17.1108358571
 10
-10.9234684021
 20
17.1335986002
 10
-10.91178212
 20
17.1549164999
 10
-10.8991761741
 20
17.1744502941
 10
-10.8858634607
 20
17.1918985285
 10
-10.8720633773
 20
17.2070006077
 10
-10.8580007833
 20
17.2195359297
  0
LWPOLYLINE
  5
338
100
AcDbEntity
  8
RACCORDO
100
AcDbPolyline
 62
250
  6
CONTINUOUS
 90
17
 70
0
 10
-9.9805333101
 20
14.2095971898
 10
-9.979919763
 20
14.2236010053
 10
-9.9819793015
 20
14.2728076488
 10
-9.9881412939
 20
14.3235377282
 10
-9.9983375421
 20
14.3752322916
 10
-10.0124550522
 20
14.4273225472
 10
-10.0303388449
 20
14.4792391783
 10
-10.0517937545
 20
14.5304158819
 10
-10.0765868607
 20
14.5802953548
 10
-10.104444718
 20
14.6283266463
 10
-10.1350559497
 20
14.6739752505
 10
-10.1680816371
 20
14.7167399997
 10
-10.2031605973
 20
14.7561563925
 10
-10.2399074107
 20
14.7917938432
 10
-10.2779188319
 20
14.8232641619
 10
-10.3167783271
 20
14.8502255749
 10
-10.3560603956
 20
14.8723856932
  0
LWPOLYLINE
  5
339
100
AcDbEntity
  8
ASSI
100
AcDbPolyline
 62
250
  6
CONTINUOUS
 90
8
 70
0
 10
-10.3314090289
 20
16.5161154163
 10
-10.3332631288
 20
16.4938042177
 10
-10.3375052621
 20
16.4730846499
 10
-10.3440628445
 20
16.4543112305
 10
-10.3528236736
 20
16.4378051781
 10
-10.3636378496
 20
16.4238489156
 10
-10.3763203403
 20
16.4126812378
 10
-10.3891380812
 20
16.4051806028
  0
LWPOLYLINE
  5
33A
100
AcDbEntity
  8
0
100
AcDbPolyline
 62
7
  6
CONTINUOUS
 90
22
 70
0
 10
-9.9379559499
 20
17.0733285605
 10
-9.9419123215
 20
17.0285525801
 10
-9.9419328787
 20
16.9825836844
 10
-9.9380176216
 20
16.9354218732
 10
-9.9300336515
 20
16.886508491
 10
-9.918113867
 20
16.8364021934
 10
-9.9026569638
 20
16.7867789474
 10
-9.8835432976
 20
16.7376550922
 10
-9.8608925127
 20
16.6890142885
 10
-9.8354622378
 20
16.6424834851
 10
-9.8071584555
 20
16.5981340535
 10
-9.7760751832
 20
16.5558946221
 10
-9.7432521012
 20
16.5171780251
 10
-9.7086303599
 20
16.4821034237
 10
-9.6722688089
 20
16.4505516567
 10
-9.6353836777
 20
16.4235780749
 10
-9.5979572561
 20
16.401337537
 10
-9.5600072543
 20
16.3836751842
 10
-9.5228030327
 20
16.371181791
 10
-9.4867677114
 20
16.3640542821
 10
-9.4514781703
 20
16.3620957328
 10
-9.4169344093
 20
16.3653061431
  0
LWPOLYLINE
  5
33B
100
AcDbEntity
  8
ASSI
100
AcDbPolyline
 62
7
  6
CONTINUOUS
 90
22
 70
0
 10
-9.9379559499
 20
17.0733285605
 10
-9.9419123215
 20
17.0285525801
 10
-9.9419328787
 20
16.9825836844
 10
-9.9380176216
 20
16.9354218732
 10
-9.9300336515
 20
16.886508491
 10
-9.918113867
 20
16.8364021934
 10
-9.9026569638
 20
16.7867789474
 10
-9.8835432976
 20
16.7376550922
 10
-9.8608925127
 20
16.6890142885
 10
-9.8354622378
 20
16.6424834851
 10
-9.8071584555
 20
16.5981340535
 10
-9.7760751832
 20
16.5558946221
 10
-9.7432521012
 20
16.5171780251
 10
-9.7086303599
 20
16.4821034237
 10
-9.6722688089
 20
16.4505516567
 10
-9.6353836777
 20
16.4235780749
 10
-9.5979572561
 20
16.401337537
 10
-9.5600072543
 20
16.3836751842
 10
-9.5228030327
 20
16.371181791
 10
-9.4867677114
 20
16.3640542821
 10
-9.4514781703
 20
16.3620957328
 10
-9.4169344093
 20
16.3653061431
  0
LWPOLYLINE
  5
33C
100
AcDbEntity
  8
RACCORDO
100
AcDbPolyline
 62
250
  6
CONTINUOUS
 90
12
 70
0
 10
-2.5134761825
 20
17.0708935549
 10
-2.4961753164
 20
17.1057480594
 10
-2.4813391053
 20
17.1380548538
 10
-2.4695752598
 20
17.1681997988
 10
-2.4615646038
 20
17.196874932
 10
-2.4570182963
 20
17.2238774094
 10
-2.4549056903
 20
17.2483821033
 10
-2.4546716405
 20
17.2697700223
 10
-2.4576296054
 20
17.2881741266
 10
-2.4648455965
 20
17.3042187048
 10
-2.4759197023
 20
17.3178748673
 10
-2.4894492701
 20
17.3284590713
  0
LWPOLYLINE
  5
33D
100
AcDbEntity
  8
ASSI
100
AcDbPolyline
 62
250
  6
CONTINUOUS
 90
12
 70
0
 10
-2.5134761825
 20
17.0708935549
 10
-2.4961753164
 20
17.1057480594
 10
-2.4813391053
 20
17.1380548538
 10
-2.4695752598
 20
17.1681997988
 10
-2.4615646038
 20
17.196874932
 10
-2.4570182963
 20
17.2238774094
 10
-2.4549056903
 20
17.2483821033
 10
-2.4546716405
 20
17.2697700223
 10
-2.4576296054
 20
17.2881741266
 10
-2.4648455965
 20
17.3042187048
 10
-2.4759197023
 20
17.3178748673
 10
-2.4894492674
 20
17.3284590696
  0
LWPOLYLINE
  5
33E
100
AcDbEntity
  8
RACCORDO
100
AcDbPolyline
 62
250
  6
CONTINUOUS
 90
15
 70
0
 10
-0.6456335472
 20
16.5396354495
 10
-0.6166931398
 20
16.5826190295
 10
-0.5754212763
 20
16.634952704
 10
-0.5288163431
 20
16.6863111845
 10
-0.4772367837
 20
16.7363018318
 10
-0.4206489007
 20
16.7849116006
 10
-0.3590863915
 20
16.8321535363
 10
-0.2930087924
 20
16.8776741355
 10
-0.2223824481
 20
16.9214619355
 10
-0.1472410138
 20
16.9635283989
 10
-0.0681449913
 20
17.0035544108
 10
0.0149504903
 20
17.0415293071
 10
0.1020005603
 20
17.0774637517
 10
0.1923101043
 20
17.111070621
 10
0.285916599
 20
17.1423299015
  0
LWPOLYLINE
  5
33F
100
AcDbEntity
  8
RACCORDO
100
AcDbPolyline
 62
250
  6
CONTINUOUS
 90
10
 70
0
 10
-1.7799521069
 20
11.6363901778
 10
-1.7999287008
 20
11.6227684087
 10
-1.8170796408
 20
11.6048174743
 10
-1.8309568874
 20
11.5830063134
 10
-1.8411979207
 20
11.5579047066
 10
-1.8475352107
 20
11.5301683922
 10
-1.8498032061
 20
11.5005219358
 10
-1.8479426583
 20
11.4697398028
 10
-1.8420021698
 20
11.4386261266
 10
-1.8321369243
 20
11.4079937017
  0
LWPOLYLINE
  5
340
100
AcDbEntity
  8
RACCORDO
100
AcDbPolyline
 62
250
  6
CONTINUOUS
 90
10
 70
0
 10
-1.5646848808
 20
11.6181676097
 10
-1.5864182987
 20
11.6038228421
 10
-1.6074518889
 20
11.5857567959
 10
-1.6272804179
 20
11.5644034229
 10
-1.6454275987
 20
11.540275638
 10
-1.6614575305
 20
11.5139529977
 10
-1.6749851698
 20
11.4860677796
 10
-1.6856855787
 20
11.4572897949
 10
-1.6933017301
 20
11.4283102994
 10
-1.6976506817
 20
11.3998253895
  0
LWPOLYLINE
  5
341
100
AcDbEntity
  8
RACCORDO
100
AcDbPolyline
 62
250
  6
CONTINUOUS
 90
7
 70
0
 10
9.1133200283
 20
15.8972555315
 10
9.1551460792
 20
15.9219226377
 10
9.1902537845
 20
15.9490828855
 10
9.2180557246
 20
15.9782817875
 10
9.2380867385
 20
16.0090307606
 10
9.250011681
 20
16.040815265
 10
9.2536499805
 20
16.0707280328
  0
LWPOLYLINE
  5
342
100
AcDbEntity
  8
ASSI
100
AcDbPolyline
 62
250
  6
CONTINUOUS
 90
7
 70
0
 10
9.1133200283
 20
15.8972555315
 10
9.1551460792
 20
15.9219226377
 10
9.1902537845
 20
15.9490828855
 10
9.2180557246
 20
15.9782817875
 10
9.2380867385
 20
16.0090307606
 10
9.250011681
 20
16.040815265
 10
9.253649727
 20
16.0706034749
  0
LWPOLYLINE
  5
343
100
AcDbEntity
  8
RACCORDO
100
AcDbPolyline
 62
250
  6
CONTINUOUS
 90
4
 70
0
 10
-3.0888628957
 20
10.7637619827
 10
-2.7660459775
 20
10.948245891
 10
-2.3034768875
 20
11.1879409286
 10
-1.8321369251
 20
11.4079937014
  0
LWPOLYLINE
  5
344
100
AcDbEntity
  8
RACCORDO
100
AcDbPolyline
 62
7
  6
CONTINUOUS
 90
3
 70
0
 10
-2.5788287154
 20
11.249414887
 10
-2.9241601073
 20
11.060126293
 10
-3.2702470019
 20
10.8544540358
  0
LWPOLYLINE
  5
345
100
AcDbEntity
  8
RACCORDO
100
AcDbPolyline
 62
7
  6
CONTINUOUS
 90
9
 70
0
 10
-2.4233840427
 20
10.8053346077
 10
-2.4520216238
 20
10.7896445136
 10
-2.4912240657
 20
10.7632529828
 10
-2.5286845793
 20
10.7315502225
 10
-2.5638807489
 20
10.6941038543
 10
-2.5953603268
 20
10.651547969
 10
-2.6220507983
 20
10.6046920344
 10
-2.6433803825
 20
10.5539788655
 10
-2.6466251285
 20
10.5426430991
  0
LINE
  5
346
100
AcDbEntity
  8
RACCORDO
100
AcDbLine
 62
7
  6
CONTINUOUS
 10
0.5596275488
 20
11.149116184
 11
-0.0074325155
 21
10.8395414271
  0
LINE
  5
347
100
AcDbEntity
  8
RACCORDO
100
AcDbLine
 62
7
  6
CONTINUOUS
 10
-2.5788235463
 20
11.2494281553
 11
-2.5739789912
 21
11.251986973
  0
LINE
  5
348
100
AcDbEntity
  8
DRAFT
100
AcDbLine
 62
7
  6
CONTINUOUS
 10
-2.4418837295
 20
11.321721322
 11
-2.5739292034
 21
11.2520132565
  0
LINE
  5
349
100
AcDbEntity
  8
0
100
AcDbLine
 62
250
  6
CONTINUOUS
 10
-1.7105880901
 20
11.672718699
 11
-1.779966331
 21
11.6364191097
  0
LINE
  5
34A
100
AcDbEntity
  8
0
100
AcDbLine
 62
250
  6
CONTINUOUS
 10
-1.3953005923
 20
11.7068015993
 11
-1.5646848807
 21
11.6181676097
  0
LINE
  5
34B
100
AcDbEntity
  8
RACCORDO
100
AcDbLine
 62
250
  6
CONTINUOUS
 10
8.8044974356
 20
17.1319291348
 11
-0.7485856396
 21
12.2509545593
  0
LINE
  5
34C
100
AcDbEntity
  8
ASSI
100
AcDbLine
 62
250
  6
CONTINUOUS
 10
8.8044974356
 20
17.1319291348
 11
-0.7485856396
 21
12.2509545593
  0
LINE
  5
34D
100
AcDbEntity
  8
RACCORDO
100
AcDbLine
 62
250
  6
CONTINUOUS
 10
-0.7485856396
 20
12.2509545593
 11
-1.191468012
 21
12.0246639644
  0
LINE
  5
34E
100
AcDbEntity
  8
ASSI
100
AcDbLine
 62
250
  6
CONTINUOUS
 10
-0.7485856396
 20
12.2509545593
 11
-1.191468012
 21
12.0246639644
  0
LINE
  5
34F
100
AcDbEntity
  8
RACCORDO
100
AcDbLine
 62
250
  6
CONTINUOUS
 10
9.1133200283
 20
15.8972555315
 11
4.1104471864
 21
13.3450006207
  0
LINE
  5
350
100
AcDbEntity
  8
ASSI
100
AcDbLine
 62
250
  6
CONTINUOUS
 10
9.1133200283
 20
15.8972555315
 11
4.1104471864
 21
13.3450006207
  0
LWPOLYLINE
  5
351
100
AcDbEntity
  8
RACCORDO
100
AcDbPolyline
 62
250
  6
CONTINUOUS
 90
3
 70
0
 10
-2.5739789912
 20
11.251986973
 10
-2.2539354331
 20
11.4151970517
 10
-1.779966331
 20
11.6364191097
  0
LWPOLYLINE
  5
352
100
AcDbEntity
  8
RACCORDO
100
AcDbPolyline
 62
250
  6
CONTINUOUS
 90
8
 70
0
 10
8.8044974356
 20
17.1319291348
 10
8.8471428642
 20
17.1533179911
 10
8.8843483319
 20
17.1720899767
 10
8.9154912912
 20
17.1879309858
 10
8.940050637
 20
17.2005759557
 10
8.9576154255
 20
17.2098133024
 10
8.9678917507
 20
17.2154884601
 10
8.9707622775
 20
17.2174750947
  0
LWPOLYLINE
  5
353
100
AcDbEntity
  8
ASSI
100
AcDbPolyline
 62
250
  6
CONTINUOUS
 90
8
 70
0
 10
8.8044974356
 20
17.1319291348
 10
8.8471428642
 20
17.1533179911
 10
8.8843483319
 20
17.1720899767
 10
8.9154912912
 20
17.1879309858
 10
8.940050637
 20
17.2005759557
 10
8.9576154255
 20
17.2098133024
 10
8.9678917507
 20
17.2154884601
 10
8.9707622775
 20
17.2174750947
  0
LINE
  5
354
100
AcDbEntity
  8
ASSI
100
AcDbLine
 62
7
  6
CONTINUOUS
 10
-2.033964079
 20
11.000044624
 11
-2.423287843
 21
10.8053827421
  0
LINE
  5
355
100
AcDbEntity
  8
ASSI
100
AcDbLine
 62
7
  6
CONTINUOUS
 10
-1.6540023573
 20
10.0719914962
 11
-1.67966214
 21
10.0591616048
  0
LINE
  5
356
100
AcDbEntity
  8
DRAFT
100
AcDbLine
 62
7
  6
CONTINUOUS
 10
2.4897358758
 20
13.5030573608
 11
1.2535089005
 21
12.9159847199
  0
LINE
  5
357
100
AcDbEntity
  8
DRAFT
100
AcDbLine
 62
7
  6
CONTINUOUS
 10
0.3098505587
 20
12.4681216509
 11
-0.3268476499
 21
12.166033735
  0
LINE
  5
358
100
AcDbEntity
  8
DRAFT
100
AcDbLine
 62
7
  6
CONTINUOUS
 10
1.2535089005
 20
12.9159847199
 11
0.3098505587
 21
12.4681216509
  0
LINE
  5
359
100
AcDbEntity
  8
DRAFT
100
AcDbLine
 62
7
  6
CONTINUOUS
 10
2.9847020982
 20
13.6571678596
 11
0.1418203591
 21
12.310647723
  0
LINE
  5
35A
100
AcDbEntity
  8
DRAFT
100
AcDbLine
 62
7
  6
CONTINUOUS
 10
3.0995892319
 20
13.850429598
 11
1.9091065814
 21
13.287217911
  0
LINE
  5
35B
100
AcDbEntity
  8
DRAFT
100
AcDbLine
 62
7
  6
CONTINUOUS
 10
3.4374250526
 20
11.4691833155
 11
4.5885440542
 21
12.0129023619
  0
LINE
  5
35C
100
AcDbEntity
  8
DRAFT
100
AcDbLine
 62
7
  6
CONTINUOUS
 10
0.846637891
 20
12.7699538372
 11
-0.7745188477
 21
12.0053591755
  0
LINE
  5
35D
100
AcDbEntity
  8
DRAFT
100
AcDbLine
 62
7
  6
CONTINUOUS
 10
2.1217445973
 20
13.3709808796
 11
0.846637891
 21
12.7699538372
  0
LWPOLYLINE
  5
35E
100
AcDbEntity
  8
0
100
AcDbPolyline
 62
7
  6
CONTINUOUS
 90
3
 70
0
 10
-1.7513785209
 20
11.654599831
 10
-2.1808695419
 20
11.4548497056
 10
-2.441873768
 20
11.3217018039
  0
LINE
  5
35F
100
AcDbEntity
  8
DRAFT
100
AcDbLine
 62
7
  6
CONTINUOUS
 10
3.4374250526
 20
13.4308063824
 11
0.5596275488
 21
12.1017441282
  0
LWPOLYLINE
  5
360
100
AcDbEntity
  8
0
100
AcDbPolyline
 62
7
  6
CONTINUOUS
 90
4
 70
0
 10
-1.71058808
 20
11.6727187036
 10
-1.7381935171
 20
11.6603885747
 10
-1.7448441352
 20
11.6574501917
 10
-1.7513785209
 20
11.654599831
  0
LWPOLYLINE
  5
361
100
AcDbEntity
  8
DRAFT
100
AcDbPolyline
 62
7
  6
CONTINUOUS
 90
14
 70
0
 10
-0.4558054388
 20
11.9276564016
 10
-0.4766791771
 20
11.9187261274
 10
-0.4985023147
 20
11.9123801064
 10
-0.5214111717
 20
11.9085011859
 10
-0.54503536
 20
11.9071424823
 10
-0.5693794291
 20
11.9083405525
 10
-0.5944388295
 20
11.9120588395
 10
-0.6198295244
 20
11.9182407891
 10
-0.6455658705
 20
11.9269267022
 10
-0.671633511
 20
11.9380762778
 10
-0.6976053397
 20
11.9515120587
 10
-0.7233389876
 20
11.9671748924
 10
-0.7489768236
 20
11.9851239313
 10
-0.7745188477
 20
12.0053591755
  0
LINE
  5
362
100
AcDbEntity
  8
DRAFT
100
AcDbLine
 62
7
  6
CONTINUOUS
 10
-0.938743035
 20
11.9406348273
 11
-0.9854365187
 21
11.9216482178
  0
LINE
  5
363
100
AcDbEntity
  8
DRAFT
100
AcDbLine
 62
7
  6
CONTINUOUS
 10
-0.8919481207
 20
11.9594019978
 11
-0.938743035
 21
11.9406348273
  0
LINE
  5
364
100
AcDbEntity
  8
DRAFT
100
AcDbLine
 62
7
  6
CONTINUOUS
 10
-0.8450519282
 20
11.9779496689
 11
-0.8919481207
 21
11.9594019978
  0
LWPOLYLINE
  5
365
100
AcDbEntity
  8
DRAFT
100
AcDbPolyline
 62
7
  6
CONTINUOUS
 90
7
 70
0
 10
2.1217445973
 20
13.3709808796
 10
1.9736227938
 20
13.3134186204
 10
1.8265317829
 20
13.2536834207
 10
1.6804715646
 20
13.1917752805
 10
1.5354296903
 20
13.1276884723
 10
1.3914186086
 20
13.0614287236
 10
-1.0021789696
 20
11.9300194432
  0
LWPOLYLINE
  5
366
100
AcDbEntity
  8
DRAFT
100
AcDbPolyline
 62
7
  6
CONTINUOUS
 90
3
 70
0
 10
-0.7745188477
 20
12.0053591755
 10
-0.7980550671
 20
11.9962775986
 10
-0.8450519282
 20
11.9779496689
  0
LINE
  5
367
100
AcDbEntity
  8
0
100
AcDbLine
 62
7
  6
CONTINUOUS
 10
5.0044384466
 20
13.0668570196
 11
4.5885440542
 21
12.9212508252
  0
LWPOLYLINE
  5
368
100
AcDbEntity
  8
RACCORDO
100
AcDbPolyline
 62
250
  6
CONTINUOUS
 90
7
 70
0
 10
-1.8321369251
 20
11.4079937014
 10
-1.8109191483
 20
11.4152258314
 10
-1.7892227327
 20
11.4190205553
 10
-1.7670476782
 20
11.419377873
 10
-1.7443939849
 20
11.4162977846
 10
-1.7212616527
 20
11.4097802901
 10
-1.6976506817
 20
11.3998253895
  0
LWPOLYLINE
  5
369
100
AcDbEntity
  8
RACCORDO
100
AcDbPolyline
 62
250
  6
CONTINUOUS
 90
7
 70
0
 10
-1.779966331
 20
11.6364191097
 10
-1.747386416
 20
11.6473938668
 10
-1.7129646573
 20
11.6527460159
 10
-1.6770781395
 20
11.6524394451
 10
-1.6401248019
 20
11.6465024206
 10
-1.6025186631
 20
11.6350269854
 10
-1.5646848808
 20
11.6181676097
  0
LWPOLYLINE
  5
36A
100
AcDbEntity
  8
DRAFT
100
AcDbPolyline
 62
7
  6
CONTINUOUS
 90
10
 70
0
 10
0.1418203591
 20
12.310647723
 10
0.0893127272
 20
12.2956044037
 10
0.0369130567
 20
12.2803047384
 10
-0.0153786523
 20
12.2647487271
 10
-0.067562921
 20
12.2489362091
 10
-0.1196392282
 20
12.2328673452
 10
-0.171606011
 20
12.2165426176
 10
-0.2234627483
 20
12.1999621871
 10
-0.2752099613
 20
12.1831258929
 10
-0.3268476499
 20
12.166033735
  0
LWPOLYLINE
  5
36B
100
AcDbEntity
  8
RACCORDO
100
AcDbPolyline
 62
250
  6
CONTINUOUS
 90
13
 70
0
 10
7.9148278465
 20
-14.6387091321
 10
7.9342543923
 20
-14.6470287412
 10
7.9557049394
 20
-14.6536813013
 10
7.9788205025
 20
-14.6585554785
 10
8.0032142312
 20
-14.6615697011
 10
8.0284778847
 20
-14.6626735247
 10
8.0541886632
 20
-14.6618484763
 10
8.0799162844
 20
-14.6591083633
 10
8.1052301839
 20
-14.654499043
 10
8.1297067213
 20
-14.6480976547
 10
8.1529362697
 20
-14.6400113286
 10
8.1745300714
 20
-14.6303753934
 10
8.1941267435
 20
-14.6193511112
  0
LWPOLYLINE
  5
36C
100
AcDbEntity
  8
RACCORDO
100
AcDbPolyline
 62
250
  6
CONTINUOUS
 90
13
 70
0
 10
7.9148278465
 20
-14.4276252374
 10
7.9342543921
 20
-14.4363925259
 10
7.955704939
 20
-14.4441917917
 10
7.9788205019
 20
-14.4508925103
 10
8.0032142305
 20
-14.4563825418
 10
8.0284778838
 20
-14.4605700081
 10
8.0541886623
 20
-14.4633848296
 10
8.0799162835
 20
-14.4647798991
 10
8.1052301831
 20
-14.4647318694
 10
8.1297067206
 20
-14.4632415442
 10
8.1529362692
 20
-14.4603338649
 10
8.1745300711
 20
-14.456057493
 10
8.1941267435
 20
-14.4504839955
  0
LINE
  5
36D
100
AcDbEntity
  8
RACCORDO
100
AcDbLine
 62
250
  6
CONTINUOUS
 10
7.9148278465
 20
-14.6387091321
 11
7.781689195
 21
-14.5721398064
  0
LINE
  5
36E
100
AcDbEntity
  8
RACCORDO
100
AcDbLine
 62
250
  6
CONTINUOUS
 10
7.9148278465
 20
-14.4276252374
 11
7.7957624886
 21
-14.3680925585
  0
LWPOLYLINE
  5
36F
100
AcDbEntity
  8
RACCORDO
100
AcDbPolyline
 62
250
  6
CONTINUOUS
 90
10
 70
0
 10
-17.7194880377
 20
19.3790344888
 10
-17.7292698233
 20
19.4097004163
 10
-17.7351304529
 20
19.4408470966
 10
-17.7369168756
 20
19.4716611319
 10
-17.7345824389
 20
19.5013378111
 10
-17.7281881067
 20
19.5291021254
 10
-17.7179008676
 20
19.5542290076
 10
-17.7039893736
 20
19.576062267
 10
-17.6868169245
 20
19.5940317265
 10
-17.6668319801
 20
19.6076681122
  0
LWPOLYLINE
  5
370
100
AcDbEntity
  8
ASSI
100
AcDbPolyline
 62
250
  6
CONTINUOUS
 90
3
 70
0
 10
-16.6145422771
 20
19.7907854524
 10
-16.6202187993
 20
19.8139559598
 10
-16.6239065398
 20
19.8378221974
  0
LWPOLYLINE
  5
371
100
AcDbEntity
  8
0
100
AcDbPolyline
 62
7
  6
CONTINUOUS
 90
19
 70
0
 10
-7.114073166
 20
18.4205165972
 10
-7.1118746759
 20
18.372525264
 10
-7.1058946759
 20
18.3241729428
 10
-7.0961331658
 20
18.2754596336
 10
-7.0823914723
 20
18.2258220603
 10
-7.0648682688
 20
18.175823499
 10
-7.0441595757
 20
18.1271537779
 10
-7.0201635125
 20
18.0798710361
 10
-6.9929819598
 20
18.0339171346
 10
-6.9635165796
 20
17.9908074846
 10
-6.9316914925
 20
17.9506330029
 10
-6.8975825779
 20
17.9133027728
 10
-6.8623191354
 20
17.8800594547
 10
-6.8258552053
 20
17.8510359473
 10
-6.7882367472
 20
17.826099352
 10
-6.7507309405
 20
17.8060936336
 10
-6.713760178
 20
17.7913001136
 10
-6.6769020669
 20
17.7814374704
 10
-6.640156607
 20
17.776505704
  0
LWPOLYLINE
  5
372
100
AcDbEntity
  8
ASSI
100
AcDbPolyline
 62
7
  6
CONTINUOUS
 90
19
 70
0
 10
-7.114073166
 20
18.4205165972
 10
-7.1118746759
 20
18.372525264
 10
-7.1058946759
 20
18.3241729428
 10
-7.0961331658
 20
18.2754596336
 10
-7.0823914723
 20
18.2258220603
 10
-7.0648682688
 20
18.175823499
 10
-7.0441595757
 20
18.1271537779
 10
-7.0201635125
 20
18.0798710361
 10
-6.9929819598
 20
18.0339171346
 10
-6.9635165796
 20
17.9908074846
 10
-6.9316914925
 20
17.9506330029
 10
-6.8975825779
 20
17.9133027728
 10
-6.8623191354
 20
17.8800594547
 10
-6.8258552053
 20
17.8510359473
 10
-6.7882367472
 20
17.826099352
 10
-6.7507309405
 20
17.8060936336
 10
-6.713760178
 20
17.7913001136
 10
-6.6769020669
 20
17.7814374704
 10
-6.640156607
 20
17.776505704
  0
LWPOLYLINE
  5
373
100
AcDbEntity
  8
SMUSSO
100
AcDbPolyline
 62
7
  6
CONTINUOUS
 90
6
 70
0
 10
-8.6140270551
 20
22.0148569986
 10
-8.6120512463
 20
21.9643134657
 10
-8.6016342423
 20
21.8883026432
 10
-8.5823325357
 20
21.8126985494
 10
-8.5542254984
 20
21.7377233311
 10
-8.5174137944
 20
21.6635966639
  0
LWPOLYLINE
  5
374
100
AcDbEntity
  8
ASSI
100
AcDbPolyline
 62
7
  6
CONTINUOUS
 90
5
 70
0
 10
-8.6140270551
 20
22.0148569986
 10
-8.6120512463
 20
21.9643134657
 10
-8.6016342423
 20
21.8883026432
 10
-8.5823325357
 20
21.8126985494
 10
-8.5542254984
 20
21.7377233311
  0
LINE
  5
375
100
AcDbEntity
  8
SMUSSO
100
AcDbLine
 62
250
  6
CONTINUOUS
 10
-7.8562445161
 20
22.9244718348
 11
-7.8562445161
 21
21.82187416
  0
LINE
  5
376
100
AcDbEntity
  8
ASSI
100
AcDbLine
 62
250
  6
CONTINUOUS
 10
-7.8562445161
 20
22.9244718348
 11
-7.8562445161
 21
21.82187416
  0
LINE
  5
377
100
AcDbEntity
  8
0
100
AcDbLine
 62
7
  6
CONTINUOUS
 10
-6.9372964792
 20
18.6841710919
 11
-6.9372964792
 21
17.9577084725
  0
LINE
  5
378
100
AcDbEntity
  8
ASSI
100
AcDbLine
 62
7
  6
CONTINUOUS
 10
-6.9372964792
 20
18.6841710919
 11
-6.9372964792
 21
17.9577084725
  0
LINE
  5
379
100
AcDbEntity
  8
DRAFT
100
AcDbLine
 62
7
  6
CONTINUOUS
 10
-6.7233203684
 20
22.3344529122
 11
-6.7233203684
 21
21.472075251
  0
LINE
  5
37A
100
AcDbEntity
  8
ASSI
100
AcDbLine
 62
7
  6
CONTINUOUS
 10
-6.7233203684
 20
22.3344529122
 11
-6.7233203684
 21
21.472075251
  0
LINE
  5
37B
100
AcDbEntity
  8
0
100
AcDbLine
 62
7
  6
CONTINUOUS
 10
-6.2586118103
 20
20.9320279464
 11
-6.2586118103
 21
20.8666762258
  0
LINE
  5
37C
100
AcDbEntity
  8
0
100
AcDbLine
 62
250
  6
CONTINUOUS
 10
-5.8126535103
 20
12.12565729
 11
-5.8126535103
 21
13.3990585492
  0
LINE
  5
37D
100
AcDbEntity
  8
0
100
AcDbLine
 62
7
  6
CONTINUOUS
 10
-5.4877497016
 20
13.2933665992
 11
-5.4895016374
 21
13.2514827748
  0
LINE
  5
37E
100
AcDbEntity
  8
0
100
AcDbLine
 62
250
  6
CONTINUOUS
 10
-5.4434038225
 20
13.2331700722
 11
-5.4455676547
 21
13.1984467724
  0
LWPOLYLINE
  5
37F
100
AcDbEntity
  8
0
100
AcDbPolyline
 62
250
  6
CONTINUOUS
 90
10
 70
0
 10
-5.1982686686
 20
13.3780449048
 10
-5.1967626638
 20
13.4006108836
 10
-5.1922874194
 20
13.4240420319
 10
-5.1849700276
 20
13.4476729633
 10
-5.1750182908
 20
13.4708326186
 10
-5.1627148174
 20
13.4928633282
 10
-5.1484089947
 20
13.5131394866
 10
-5.1325070709
 20
13.5310853101
 10
-5.1154606207
 20
13.5461911887
 10
-5.0977537177
 20
13.558028162
  0
LWPOLYLINE
  5
380
100
AcDbEntity
  8
0
100
AcDbPolyline
 62
250
  6
CONTINUOUS
 90
10
 70
0
 10
-6.0601031902
 20
13.8258461155
 10
-6.0585273301
 20
13.8489434738
 10
-6.0538465762
 20
13.8729303611
 10
-6.0462000157
 20
13.8970940141
 10
-6.0358148637
 20
13.920716417
 10
-6.0229997121
 20
13.9430956373
 10
-6.0081353592
 20
13.963566683
 10
-5.9916634947
 20
13.9815212632
 10
-5.9740735754
 20
13.9964258628
 10
-5.9558882802
 20
14.007837596
  0
LINE
  5
381
100
AcDbEntity
  8
RACCORDO
100
AcDbLine
 62
250
  6
CONTINUOUS
 10
9.2536501281
 20
14.1258332077
 11
10.0514988188
 21
14.5688835781
  0
LINE
  5
382
100
AcDbEntity
  8
ASSI
100
AcDbLine
 62
250
  6
CONTINUOUS
 10
9.2536501281
 20
14.1258332077
 11
10.0514988188
 21
14.5688835781
  0
LINE
  5
383
100
AcDbEntity
  8
RACCORDO
100
AcDbLine
 62
250
  6
CONTINUOUS
 10
9.2536501281
 20
12.3071798598
 11
10.0514988188
 21
12.7502302302
  0
LINE
  5
384
100
AcDbEntity
  8
ASSI
100
AcDbLine
 62
250
  6
CONTINUOUS
 10
9.2536501281
 20
12.3071798598
 11
10.0514988188
 21
12.7502302302
  0
LINE
  5
385
100
AcDbEntity
  8
DRAFT
100
AcDbLine
 62
7
  6
CONTINUOUS
 10
4.5885440542
 20
11.968622881
 11
-0.2487860509
 21
9.5313068447
  0
LINE
  5
386
100
AcDbEntity
  8
DRAFT
100
AcDbLine
 62
7
  6
CONTINUOUS
 10
7.8609833993
 20
11.2190272091
 11
5.0819266536
 21
9.8405945758
  0
LINE
  5
387
100
AcDbEntity
  8
DRAFT
100
AcDbLine
 62
7
  6
CONTINUOUS
 10
8.3137063537
 20
10.9926657318
 11
5.4997338433
 21
9.6316909809
  0
LINE
  5
388
100
AcDbEntity
  8
RACCORDO
100
AcDbLine
 62
7
  6
CONTINUOUS
 10
-4.3890597177
 20
21.026885195
 11
-4.4083614358
 21
21.2817130284
  0
LWPOLYLINE
  5
389
100
AcDbEntity
  8
0
100
AcDbPolyline
 62
250
  6
CONTINUOUS
 90
19
 70
0
 10
-5.6023887752
 20
13.3981410538
 10
-5.6038283782
 20
13.4356531537
 10
-5.6078145875
 20
13.4741045942
 10
-5.6143007045
 20
13.5132118461
 10
-5.6232201974
 20
13.5526852534
 10
-5.6344942114
 20
13.5922435221
 10
-5.6480351506
 20
13.6316158446
 10
-5.6637290569
 20
13.6705095785
 10
-5.6814560102
 20
13.708664475
 10
-5.7011087437
 20
13.7458634345
 10
-5.7224134825
 20
13.781635769
 10
-5.7453310589
 20
13.8159549207
 10
-5.7701826372
 20
13.8491910809
 10
-5.7969420905
 20
13.8810895148
 10
-5.8254059576
 20
13.9111897636
 10
-5.8557031453
 20
13.9393720125
 10
-5.8877559948
 20
13.9652447191
 10
-5.9212428631
 20
13.9882311593
 10
-5.9558883263
 20
14.0078375728
  0
LWPOLYLINE
  5
38A
100
AcDbEntity
  8
0
100
AcDbPolyline
 62
250
  6
CONTINUOUS
 90
19
 70
0
 10
-5.8126535103
 20
13.3990585492
 10
-5.8136271487
 20
13.4257038224
 10
-5.8163097938
 20
13.4526024499
 10
-5.8207014456
 20
13.4797544316
 10
-5.8268661159
 20
13.5073541301
 10
-5.8347397928
 20
13.5352071828
 10
-5.8441304411
 20
13.5627305021
 10
-5.8550605005
 20
13.5899051327
 10
-5.8675075312
 20
13.6167500299
 10
-5.8812121791
 20
13.6427389728
 10
-5.8960760765
 20
13.6677544594
 10
-5.912197591
 20
13.6919139917
 10
-5.9296124713
 20
13.7150438546
 10
-5.9483782169
 20
13.7373086035
 10
-5.9684373283
 20
13.7585436829
 10
-5.9896530563
 20
13.7780817119
 10
-6.0119798177
 20
13.7957002301
 10
-6.0354631957
 20
13.811621698
 10
-6.0601031902
 20
13.8258461155
  0
LINE
  5
38B
100
AcDbEntity
  8
0
100
AcDbLine
 62
250
  6
CONTINUOUS
 10
-5.6023887375
 20
12.0205249036
 11
-5.6023887375
 21
13.3981410727
  0
LINE
  5
38C
100
AcDbEntity
  8
DRAFT
100
AcDbLine
 62
7
  6
CONTINUOUS
 10
-5.5937935949
 20
21.6563376271
 11
-5.5937935949
 21
21.5616937312
  0
LINE
  5
38D
100
AcDbEntity
  8
ASSI
100
AcDbLine
 62
7
  6
CONTINUOUS
 10
-5.5937935949
 20
21.6563376271
 11
-5.5937935949
 21
21.5616937312
  0
LINE
  5
38E
100
AcDbEntity
  8
0
100
AcDbLine
 62
7
  6
CONTINUOUS
 10
-5.4895016375
 20
13.2514797837
 11
-5.4895016375
 21
11.9640813536
  0
LINE
  5
38F
100
AcDbEntity
  8
0
100
AcDbLine
 62
250
  6
CONTINUOUS
 10
-5.4455676547
 20
13.1984467724
 11
-5.4455676547
 21
11.9421143622
  0
LINE
  5
390
100
AcDbEntity
  8
SMUSSO
100
AcDbLine
 62
7
  6
CONTINUOUS
 10
-3.6876593976
 20
24.9921207848
 11
-3.6876593976
 21
23.7079034786
  0
LINE
  5
391
100
AcDbEntity
  8
ASSI
100
AcDbLine
 62
7
  6
CONTINUOUS
 10
-3.6876593976
 20
24.9921207848
 11
-3.6876593976
 21
23.7079034786
  0
LINE
  5
392
100
AcDbEntity
  8
RACCORDO
100
AcDbLine
 62
250
  6
CONTINUOUS
 10
9.5696801971
 20
11.4514558233
 11
9.4987000785
 21
11.395371495
  0
LINE
  5
393
100
AcDbEntity
  8
ASSI
100
AcDbLine
 62
250
  6
CONTINUOUS
 10
9.5696801971
 20
11.4514558233
 11
9.4987000785
 21
11.395371495
  0
LINE
  5
394
100
AcDbEntity
  8
0
100
AcDbLine
 62
7
  6
CONTINUOUS
 10
8.9726060975
 20
10.7292198035
 11
9.2638184862
 21
10.9371669998
  0
LINE
  5
395
100
AcDbEntity
  8
DRAFT
100
AcDbLine
 62
7
  6
CONTINUOUS
 10
9.0820669366
 20
9.8976140886
 11
9.8826484495
 21
10.4588999892
  0
LINE
  5
396
100
AcDbEntity
  8
ASSI
100
AcDbLine
 62
250
  6
CONTINUOUS
 10
9.4987000785
 20
11.395371495
 11
9.4191184431
 21
11.3434591326
  0
LINE
  5
397
100
AcDbEntity
  8
RACCORDO
100
AcDbLine
 62
250
  6
CONTINUOUS
 10
9.4987000785
 20
11.395371495
 11
9.4183270587
 21
11.3429950702
  0
LINE
  5
398
100
AcDbEntity
  8
0
100
AcDbLine
 62
250
  6
CONTINUOUS
 10
6.3059578985
 20
7.5934569949
 11
6.3698862564
 21
7.6324815257
  0
LINE
  5
399
100
AcDbEntity
  8
0
100
AcDbLine
 62
250
  6
CONTINUOUS
 10
6.0915754802
 20
7.7900374293
 11
6.2479352025
 21
7.8851837019
  0
LINE
  5
39A
100
AcDbEntity
  8
ASSI
100
AcDbLine
 62
250
  6
CONTINUOUS
 10
9.4191184431
 20
11.3434591326
 11
9.4183270587
 21
11.3429950702
  0
LINE
  5
39B
100
AcDbEntity
  8
DRAFT
100
AcDbLine
 62
7
  6
CONTINUOUS
 10
9.2536501281
 20
11.2465309736
 11
9.4183267768
 21
11.3429949051
  0
LINE
  5
39C
100
AcDbEntity
  8
ASSI
100
AcDbLine
 62
7
  6
CONTINUOUS
 10
9.2536501281
 20
11.2465309736
 11
9.4183267768
 21
11.3429949051
  0
LINE
  5
39D
100
AcDbEntity
  8
RACCORDO
100
AcDbLine
 62
7
  6
CONTINUOUS
 10
5.0819266536
 20
8.8879666316
 11
4.5343231149
 21
8.5686636119
  0
LWPOLYLINE
  5
39E
100
AcDbEntity
  8
RACCORDO
100
AcDbPolyline
 62
7
  6
CONTINUOUS
 90
9
 70
0
 10
5.3547905503
 20
6.9162473112
 10
5.3261529692
 20
6.9005572171
 10
5.2869505274
 20
6.8741656862
 10
5.2494900137
 20
6.842462926
 10
5.2142938441
 20
6.8050165578
 10
5.1828142662
 20
6.7624606725
 10
5.1561237948
 20
6.7156047379
 10
5.1347942106
 20
6.6648915689
 10
5.1315494645
 20
6.6535558025
  0
LWPOLYLINE
  5
39F
100
AcDbEntity
  8
DRAFT
100
AcDbPolyline
 62
7
  6
CONTINUOUS
 90
10
 70
0
 10
9.1766638546
 20
9.8435212509
 10
8.8760910161
 20
9.6859384189
 10
8.5739681241
 20
9.5279573251
 10
8.2702921236
 20
9.3695665801
 10
7.9650390018
 20
9.2107532818
 10
7.6582280504
 20
9.0515068069
 10
7.3499213928
 20
8.8918221315
 10
7.0401383843
 20
8.731693223
 10
6.728856052
 20
8.571109762
 10
6.4160730501
 20
8.4100632266
  0
LINE
  5
3A0
100
AcDbEntity
  8
ASSI
100
AcDbLine
 62
7
  6
CONTINUOUS
 10
5.744210514
 20
7.1109573275
 11
5.3548867501
 21
6.9162954456
  0
LINE
  5
3A1
100
AcDbEntity
  8
ASSI
100
AcDbLine
 62
7
  6
CONTINUOUS
 10
6.1241722358
 20
6.1829041997
 11
6.098512453
 21
6.1700743083
  0
LWPOLYLINE
  5
3A2
100
AcDbEntity
  8
DRAFT
100
AcDbPolyline
 62
7
  6
CONTINUOUS
 90
10
 70
0
 10
8.8086725761
 20
10.3435890107
 10
8.4978057231
 20
10.1999948383
 10
8.1857732013
 20
10.0554800593
 10
7.8725661356
 20
9.910041193
 10
7.5581679923
 20
9.7636551741
 10
7.2425770415
 20
9.6163399455
 10
6.9258088858
 20
9.4681537014
 10
6.607865322
 20
9.3191142693
 10
6.2887318442
 20
9.169199824
 10
5.9684018523
 20
9.0184089839
  0
LWPOLYLINE
  5
3A3
100
AcDbEntity
  8
RACCORDO
100
AcDbPolyline
 62
250
  6
CONTINUOUS
 90
6
 70
0
 10
-9.0777231508
 20
18.5138015353
 10
-9.0812532355
 20
18.5272749407
 10
-9.0896946275
 20
18.5473272582
 10
-9.1007664288
 20
18.565467302
 10
-9.1142780018
 20
18.5813923467
 10
-9.1294536484
 20
18.5944433024
  0
LWPOLYLINE
  5
3A4
100
AcDbEntity
  8
SMUSSO
100
AcDbPolyline
 62
7
  6
CONTINUOUS
 90
6
 70
0
 10
-1.5762791736
 20
17.4202450078
 10
-1.5743033648
 20
17.3697014749
 10
-1.5638863607
 20
17.2936906524
 10
-1.5445846541
 20
17.2180865586
 10
-1.5164776168
 20
17.1431113403
 10
-1.4796659128
 20
17.0689846731
  0
LWPOLYLINE
  5
3A5
100
AcDbEntity
  8
ASSI
100
AcDbPolyline
 62
7
  6
CONTINUOUS
 90
5
 70
0
 10
-1.5762791736
 20
17.4202450078
 10
-1.5743033648
 20
17.3697014749
 10
-1.5638863607
 20
17.2936906524
 10
-1.5445846541
 20
17.2180865586
 10
-1.5164776168
 20
17.1431113403
  0
LINE
  5
3A6
100
AcDbEntity
  8
SMUSSO
100
AcDbLine
 62
250
  6
CONTINUOUS
 10
-0.8184966346
 20
18.3298598441
 11
-0.8184966346
 21
17.5789986442
  0
LINE
  5
3A7
100
AcDbEntity
  8
ASSI
100
AcDbLine
 62
250
  6
CONTINUOUS
 10
-0.8184966346
 20
18.3298598441
 11
-0.8184966346
 21
17.5789986442
  0
LINE
  5
3A8
100
AcDbEntity
  8
DRAFT
100
AcDbLine
 62
7
  6
CONTINUOUS
 10
0.344861524
 20
18.1053469214
 11
0.344861524
 21
17.2428688642
  0
LINE
  5
3A9
100
AcDbEntity
  8
ASSI
100
AcDbLine
 62
7
  6
CONTINUOUS
 10
0.344861524
 20
18.1053469214
 11
0.344861524
 21
17.2428688642
  0
LWPOLYLINE
  5
3AA
100
AcDbEntity
  8
RACCORDO
100
AcDbPolyline
 62
250
  6
CONTINUOUS
 90
9
 70
0
 10
0.9227314865
 20
22.5910621671
 10
0.9222682011
 20
22.5803026278
 10
0.9173676529
 20
22.55454141
 10
0.9071674211
 20
22.5291714868
 10
0.8917767939
 20
22.5044646793
 10
0.8713606713
 20
22.4806857039
 10
0.8461377979
 20
22.4580893358
 10
0.8163784193
 20
22.4369176795
 10
0.7824013866
 20
22.4173975745
  0
LWPOLYLINE
  5
3AB
100
AcDbEntity
  8
ASSI
100
AcDbPolyline
 62
250
  6
CONTINUOUS
 90
9
 70
0
 10
0.9227314865
 20
22.5910621671
 10
0.9222682011
 20
22.5803026278
 10
0.9173676529
 20
22.55454141
 10
0.9071674211
 20
22.5291714868
 10
0.8917767939
 20
22.5044646793
 10
0.8713606713
 20
22.4806857039
 10
0.8461377979
 20
22.4580893358
 10
0.8163784193
 20
22.4369176795
 10
0.7824013866
 20
22.4173975745
  0
LWPOLYLINE
  5
3AC
100
AcDbEntity
  8
RACCORDO
100
AcDbPolyline
 62
250
  6
CONTINUOUS
 90
17
 70
0
 10
-1.8477977875
 20
10.1432294286
 10
-1.8461276554
 20
10.1813646907
 10
-1.8480632849
 20
10.227608757
 10
-1.8538537139
 20
10.2752842839
 10
-1.8634351084
 20
10.3238669724
 10
-1.8767017678
 20
10.3728231411
 10
-1.8935081029
 20
10.4216171855
 10
-1.9136702462
 20
10.4697157738
 10
-1.936968066
 20
10.5165933254
 10
-1.9631455379
 20
10.5617343165
 10
-1.9919134965
 20
10.604640861
 10
-2.0229562072
 20
10.644843389
 10
-2.055932947
 20
10.68190188
 10
-2.090479083
 20
10.7154084223
 10
-2.1262145718
 20
10.7449970223
 10
-2.1627486148
 20
10.7703466279
 10
-2.1996810452
 20
10.7911818485
  0
LINE
  5
3AD
100
AcDbEntity
  8
RACCORDO
100
AcDbLine
 62
7
  6
CONTINUOUS
 10
-0.1427192431
 20
10.6223596702
 11
-0.2487860509
 21
9.5313068447
  0
LWPOLYLINE
  5
3AE
100
AcDbEntity
  8
DRAFT
100
AcDbPolyline
 62
7
  6
CONTINUOUS
 90
12
 70
0
 10
-0.3268476499
 20
12.166033735
 10
-0.3298230863
 20
12.1355158972
 10
-0.3346315714
 20
12.106597351
 10
-0.3412731054
 20
12.0792780964
 10
-0.3498040535
 20
12.0534260598
 10
-0.3601680505
 20
12.0291733147
 10
-0.3721960001
 20
12.0069160818
 10
-0.3859163271
 20
11.9866880921
 10
-0.4013006069
 20
11.9684556146
 10
-0.4180944688
 20
11.9525136767
 10
-0.436321077
 20
11.9389017671
 10
-0.4558054388
 20
11.9276564016
  0
LWPOLYLINE
  5
3AF
100
AcDbEntity
  8
ASSI
100
AcDbPolyline
 62
250
  6
CONTINUOUS
 90
7
 70
0
 10
0.9227314613
 20
22.1539778723
 10
0.9190927024
 20
22.1239509435
 10
0.9071674917
 20
22.0921666439
 10
0.8871363489
 20
22.0614179346
 10
0.8593344458
 20
22.0322193269
 10
0.8242269786
 20
22.005059393
 10
0.7824013866
 20
21.9803925941
  0
LWPOLYLINE
  5
3B0
100
AcDbEntity
  8
RACCORDO
100
AcDbPolyline
 62
250
  6
CONTINUOUS
 90
7
 70
0
 10
0.9227314758
 20
22.1540055573
 10
0.9190927024
 20
22.1239509435
 10
0.9071674917
 20
22.0921666439
 10
0.8871363489
 20
22.0614179346
 10
0.8593344458
 20
22.0322193269
 10
0.8242269786
 20
22.005059393
 10
0.7824013866
 20
21.9803925941
  0
LWPOLYLINE
  5
3B1
100
AcDbEntity
  8
RACCORDO
100
AcDbPolyline
 62
250
  6
CONTINUOUS
 90
10
 70
0
 10
6.0823303328
 20
7.4507600725
 10
6.1002664476
 20
7.4674927344
 10
6.1214012107
 20
7.485070364
 10
6.1451824492
 20
7.5030337231
 10
6.1709888473
 20
7.5209134956
 10
6.1981461793
 20
7.5382425491
 10
6.2259449249
 20
7.5545681397
 10
6.2536588056
 20
7.5694637402
 10
6.2805637604
 20
7.5825401836
 10
6.3059568625
 20
7.5934558309
  0
LINE
  5
3B2
100
AcDbEntity
  8
0
100
AcDbLine
 62
250
  6
CONTINUOUS
 10
10.3517334455
 20
6.2530632357
 11
9.9503883281
 21
6.0339571391
  0
LINE
  5
3B3
100
AcDbEntity
  8
0
100
AcDbLine
 62
250
  6
CONTINUOUS
 10
10.7050177114
 20
5.6432102091
 11
10.3074371362
 21
5.4261592868
  0
LINE
  5
3B4
100
AcDbEntity
  8
DRAFT
100
AcDbLine
 62
7
  6
CONTINUOUS
 10
13.6488552127
 20
8.2433571461
 11
11.1259518325
 21
6.9096413774
  0
LINE
  5
3B5
100
AcDbEntity
  8
DRAFT
100
AcDbLine
 62
7
  6
CONTINUOUS
 10
13.4101900312
 20
8.6166275212
 11
10.8697984671
 21
7.3259098222
  0
LINE
  5
3B6
100
AcDbEntity
  8
DRAFT
100
AcDbLine
 62
7
  6
CONTINUOUS
 10
12.6712784429
 20
9.0645849925
 11
10.4723154398
 21
7.9517381219
  0
LINE
  5
3B7
100
AcDbEntity
  8
RACCORDO
100
AcDbLine
 62
250
  6
CONTINUOUS
 10
4.375111184
 20
3.0495478889
 11
8.7550493585
 21
4.8418058556
  0
LINE
  5
3B8
100
AcDbEntity
  8
RACCORDO
100
AcDbLine
 62
250
  6
CONTINUOUS
 10
4.7008799311
 20
2.4273863197
 11
9.0776843705
 21
4.2183619711
  0
LWPOLYLINE
  5
3B9
100
AcDbEntity
  8
RACCORDO
100
AcDbPolyline
 62
250
  6
CONTINUOUS
 90
10
 70
0
 10
-9.8512888574
 20
15.4444793542
 10
-9.862862912
 20
15.4622816099
 10
-9.8750169223
 20
15.4790148817
 10
-9.8877508885
 20
15.4946791696
 10
-9.901141975
 20
15.509344873
 10
-9.9151130173
 20
15.5229415924
 10
-9.9294325219
 20
15.53525813
 10
-9.9440233245
 20
15.5462240864
 10
-9.9589625895
 20
15.5559098609
 10
-9.9742503168
 20
15.5643154536
  0
LWPOLYLINE
  5
3BA
100
AcDbEntity
  8
0
100
AcDbPolyline
 62
7
  6
CONTINUOUS
 90
4
 70
0
 10
-8.0079864246
 20
13.2233237471
 10
-8.2140583659
 20
13.5629406416
 10
-8.6399636495
 20
14.2373602993
 10
-9.0768725808
 20
14.9024424522
  0
LWPOLYLINE
  5
3BB
100
AcDbEntity
  8
RACCORDO
100
AcDbPolyline
 62
250
  6
CONTINUOUS
 90
4
 70
0
 10
-8.8032324686
 20
13.6209467691
 10
-9.052140055
 20
14.0778557866
 10
-9.4454056152
 20
14.7663099892
 10
-9.8512888574
 20
15.4444793542
  0
LWPOLYLINE
  5
3BC
100
AcDbEntity
  8
RACCORDO
100
AcDbPolyline
 62
250
  6
CONTINUOUS
 90
5
 70
0
 10
-8.3900662941
 20
13.4143636819
 10
-8.4384928707
 20
13.5075422443
 10
-8.8227105066
 20
14.2119200409
 10
-9.2192882702
 20
14.9054100033
 10
-9.6278498056
 20
15.5874462482
  0
LWPOLYLINE
  5
3BD
100
AcDbEntity
  8
ASSI
100
AcDbPolyline
 62
7
  6
CONTINUOUS
 90
8
 70
0
 10
-10.0169491125
 20
17.1730284971
 10
-10.007067108
 20
17.1539870824
 10
-9.9984225296
 20
17.1341261741
 10
-9.9911006815
 20
17.1136839377
 10
-9.985357477
 20
17.0933748703
 10
-9.9812782205
 20
17.0734371374
 10
-9.9787776076
 20
17.0536325734
 10
-9.9778556383
 20
17.0339611783
  0
LWPOLYLINE
  5
3BE
100
AcDbEntity
  8
0
100
AcDbPolyline
 62
7
  6
CONTINUOUS
 90
4
 70
0
 10
-9.5620021701
 20
15.6213955538
 10
-9.5721518912
 20
15.6426518757
 10
-9.5820342979
 20
15.6642409615
 10
-9.5916997502
 20
15.6860153472
  0
LWPOLYLINE
  5
3BF
100
AcDbEntity
  8
0
100
AcDbPolyline
 62
7
  6
CONTINUOUS
 90
6
 70
0
 10
-9.6294146541
 20
15.7723698858
 10
-9.6388294769
 20
15.7932851494
 10
-9.648119725
 20
15.8134460503
 10
-9.6573052166
 20
15.8326628498
 10
-9.6665869696
 20
15.8508650829
 10
-9.6760869949
 20
15.8679369534
  0
LINE
  5
3C0
100
AcDbEntity
  8
0
100
AcDbLine
 62
7
  6
CONTINUOUS
 10
-9.5916997502
 20
15.6860153472
 11
-9.6294146541
 21
15.7723698858
  0
LINE
  5
3C1
100
AcDbEntity
  8
0
100
AcDbLine
 62
7
  6
CONTINUOUS
 10
-6.9655807504
 20
21.2855124165
 11
-6.845987452
 21
20.9319398307
  0
LWPOLYLINE
  5
3C2
100
AcDbEntity
  8
RACCORDO
100
AcDbPolyline
 62
7
  6
CONTINUOUS
 90
12
 70
0
 10
-4.4083614358
 20
21.2817130284
 10
-4.4098194094
 20
21.2948750905
 10
-4.4122255806
 20
21.3073136189
 10
-4.4155799494
 20
21.3190286137
 10
-4.4199303116
 20
21.3301394996
 10
-4.4252288713
 20
21.3405268518
 10
-4.4313322414
 20
21.3498323965
 10
-4.4382390074
 20
21.3579722693
 10
-4.4459505839
 20
21.3650303346
 10
-4.454327827
 20
21.3708999121
 10
-4.4633667098
 20
21.3755741628
 10
-4.4706275634
 20
21.3783168299
  0
LWPOLYLINE
  5
3C3
100
AcDbEntity
  8
ASSI
100
AcDbPolyline
 62
7
  6
CONTINUOUS
 90
3
 70
0
 10
0.9261612691
 20
22.1089097719
 10
0.9232047765
 20
22.1381919079
 10
0.9227316431
 20
22.1539778722
  0
LWPOLYLINE
  5
3C4
100
AcDbEntity
  8
RACCORDO
100
AcDbPolyline
 62
250
  6
CONTINUOUS
 90
19
 70
0
 10
0.7824013866
 20
21.9803925941
 10
0.783478472
 20
21.9650227482
 10
0.7855959048
 20
21.9492402963
 10
0.7887316775
 20
21.9331744817
 10
0.7928580803
 20
21.9169532373
 10
0.7979346078
 20
21.900705796
 10
0.8039070474
 20
21.8845616689
 10
0.8107140607
 20
21.868655789
 10
0.8183020662
 20
21.8530934653
 10
0.8266234528
 20
21.8379559028
 10
0.8356077774
 20
21.8233595396
 10
0.8451887538
 20
21.8094042951
 10
0.8553294395
 20
21.7961485603
 10
0.8659607698
 20
21.7836878311
 10
0.8769993376
 20
21.7721272455
 10
0.8883881256
 20
21.7615439397
 10
0.9000499831
 20
21.7520239602
 10
0.9118857225
 20
21.7436555959
 10
0.9238012037
 20
21.7365139847
  0
LWPOLYLINE
  5
3C5
100
AcDbEntity
  8
ASSI
100
AcDbPolyline
 62
250
  6
CONTINUOUS
 90
19
 70
0
 10
0.7824013866
 20
21.9803925941
 10
0.783478472
 20
21.9650227482
 10
0.7855959048
 20
21.9492402963
 10
0.7887316775
 20
21.9331744817
 10
0.7928580803
 20
21.9169532373
 10
0.7979346078
 20
21.900705796
 10
0.8039070474
 20
21.8845616689
 10
0.8107140607
 20
21.868655789
 10
0.8183020662
 20
21.8530934653
 10
0.8266234528
 20
21.8379559028
 10
0.8356077774
 20
21.8233595396
 10
0.8451887538
 20
21.8094042951
 10
0.8553294395
 20
21.7961485603
 10
0.8659607698
 20
21.7836878311
 10
0.8769993376
 20
21.7721272455
 10
0.8883881256
 20
21.7615439397
 10
0.9000499831
 20
21.7520239602
 10
0.9118857225
 20
21.7436555959
 10
0.9238012037
 20
21.7365139847
  0
LWPOLYLINE
  5
3C6
100
AcDbEntity
  8
ASSI
100
AcDbPolyline
 62
7
  6
CONTINUOUS
 90
9
 70
0
 10
0.9227314865
 20
22.5910621671
 10
0.9186474864
 20
22.654829377
 10
0.9062906352
 20
22.7182229453
 10
0.8856727451
 20
22.7799679401
 10
0.8570146945
 20
22.8388484446
 10
0.8208157368
 20
22.8935996132
 10
0.7777942956
 20
22.9430996674
 10
0.7284166794
 20
22.9867343288
 10
0.6738102073
 20
23.0234426805
  0
LINE
  5
3C7
100
AcDbEntity
  8
RACCORDO
100
AcDbLine
 62
7
  6
CONTINUOUS
 10
0.9227314865
 20
22.5910621671
 11
0.9201062753
 21
22.6422290626
  0
LINE
  5
3C8
100
AcDbEntity
  8
RACCORDO
100
AcDbLine
 62
7
  6
CONTINUOUS
 10
0.9233214249
 20
22.1362650699
 11
0.9227316577
 21
22.1540055572
  0
LWPOLYLINE
  5
3C9
100
AcDbEntity
  8
RACCORDO
100
AcDbPolyline
 62
250
  6
CONTINUOUS
 90
16
 70
0
 10
0.7824013866
 20
22.4173975745
 10
0.7810652451
 20
22.4639230311
 10
0.7758046449
 20
22.511840911
 10
0.7666772
 20
22.5606264193
 10
0.7537828738
 20
22.6097452588
 10
0.7372628845
 20
22.6586594818
 10
0.7172981584
 20
22.7068333814
 10
0.6941073486
 20
22.7537393587
 10
0.66794444
 20
22.7988637012
 10
0.6390959678
 20
22.8417122087
 10
0.6078778794
 20
22.8818156057
 10
0.5746320743
 20
22.9187346814
 10
0.5397226593
 20
22.9520650993
 10
0.5035319612
 20
22.9814418259
 10
0.4664563391
 20
23.0065431282
 10
0.4289018439
 20
23.0270940978
  0
LWPOLYLINE
  5
3CA
100
AcDbEntity
  8
ASSI
100
AcDbPolyline
 62
250
  6
CONTINUOUS
 90
16
 70
0
 10
0.7824013866
 20
22.4173975745
 10
0.7810652451
 20
22.4639230311
 10
0.7758046449
 20
22.511840911
 10
0.7666772
 20
22.5606264193
 10
0.7537828738
 20
22.6097452588
 10
0.7372628845
 20
22.6586594818
 10
0.7172981584
 20
22.7068333814
 10
0.6941073486
 20
22.7537393587
 10
0.66794444
 20
22.7988637012
 10
0.6390959678
 20
22.8417122087
 10
0.6078778794
 20
22.8818156057
 10
0.5746320743
 20
22.9187346814
 10
0.5397226593
 20
22.9520650993
 10
0.5035319612
 20
22.9814418259
 10
0.4664563391
 20
23.0065431282
 10
0.4289018439
 20
23.0270940978
  0
LINE
  5
3CB
100
AcDbEntity
  8
DRAFT
100
AcDbLine
 62
7
  6
CONTINUOUS
 10
0.5596275488
 20
12.1017441282
 11
0.5596275488
 21
11.149116184
  0
LINE
  5
3CC
100
AcDbEntity
  8
RACCORDO
100
AcDbLine
 62
250
  6
CONTINUOUS
 10
0.7824013866
 20
22.4173975745
 11
0.7824013866
 21
21.9803925941
  0
LINE
  5
3CD
100
AcDbEntity
  8
ASSI
100
AcDbLine
 62
250
  6
CONTINUOUS
 10
0.7824013866
 20
22.4173975745
 11
0.7824013866
 21
21.9803925941
  0
LINE
  5
3CE
100
AcDbEntity
  8
RACCORDO
100
AcDbLine
 62
7
  6
CONTINUOUS
 10
0.9227314865
 20
22.5910621671
 11
0.9227314865
 21
22.1540571859
  0
LINE
  5
3CF
100
AcDbEntity
  8
ASSI
100
AcDbLine
 62
7
  6
CONTINUOUS
 10
0.9227314865
 20
22.5910621671
 11
0.9227314865
 21
22.1540571859
  0
LINE
  5
3D0
100
AcDbEntity
  8
0
100
AcDbLine
 62
7
  6
CONTINUOUS
 10
0.9538773578
 20
16.7094324903
 11
0.9538773578
 21
16.2633773988
  0
LINE
  5
3D1
100
AcDbEntity
  8
DRAFT
100
AcDbLine
 62
7
  6
CONTINUOUS
 10
1.477274217
 20
17.4280072416
 11
1.477274217
 21
17.3412258948
  0
LINE
  5
3D2
100
AcDbEntity
  8
ASSI
100
AcDbLine
 62
7
  6
CONTINUOUS
 10
1.477274217
 20
17.4280072416
 11
1.477274217
 21
17.3412258948
  0
LINE
  5
3D3
100
AcDbEntity
  8
0
100
AcDbLine
 62
7
  6
CONTINUOUS
 10
1.477274217
 20
16.5677466873
 11
1.477274217
 21
16.2652511118
  0
LINE
  5
3D4
100
AcDbEntity
  8
0
100
AcDbLine
 62
7
  6
CONTINUOUS
 10
1.5380979133
 20
16.5842119261
 11
1.5380979133
 21
16.2678304118
  0
LINE
  5
3D5
100
AcDbEntity
  8
SMUSSO
100
AcDbLine
 62
7
  6
CONTINUOUS
 10
3.3828268127
 20
19.4798400504
 11
3.3828268127
 21
20.4137472465
  0
LINE
  5
3D6
100
AcDbEntity
  8
ASSI
100
AcDbLine
 62
7
  6
CONTINUOUS
 10
3.3828268127
 20
19.4798400504
 11
3.3828268127
 21
20.4137472465
  0
LINE
  5
3D7
100
AcDbEntity
  8
DRAFT
100
AcDbLine
 62
7
  6
CONTINUOUS
 10
3.4374250526
 20
13.4308063824
 11
3.4374250526
 21
11.4691833155
  0
LWPOLYLINE
  5
3D8
100
AcDbEntity
  8
RACCORDO
100
AcDbPolyline
 62
250
  6
CONTINUOUS
 90
10
 70
0
 10
1.0693048273
 20
-35.123067394
 10
1.2313733362
 20
-31.0539716963
 10
1.423954865
 20
-26.9721656224
 10
1.6470329186
 20
-22.8779958606
 10
1.9005884534
 20
-18.7718102135
 10
2.1845998857
 20
-14.6539574434
 10
2.499043097
 20
-10.5247872411
 10
2.8438914247
 20
-6.3846503642
 10
3.2191156606
 20
-2.2338986084
 10
3.6246840639
 20
1.9271153486
  0
LWPOLYLINE
  5
3D9
100
AcDbEntity
  8
RACCORDO
100
AcDbPolyline
 62
250
  6
CONTINUOUS
 90
10
 70
0
 10
1.7698402916
 20
-35.1454613992
 10
1.9317756902
 20
-31.0798650698
 10
2.1241572852
 20
-27.0022603768
 10
2.3469850767
 20
-22.9126473202
 10
2.6002834277
 20
-18.8106727336
 10
2.8840279753
 20
-14.6966897835
 10
3.1981456301
 20
-10.571757969
 10
3.5426120291
 20
-6.4362304568
 10
3.9174515354
 20
-2.2897540802
 10
4.322664149
 20
1.8676711606
  0
LWPOLYLINE
  5
3DA
100
AcDbEntity
  8
RACCORDO
100
AcDbPolyline
 62
250
  6
CONTINUOUS
 90
19
 70
0
 10
3.6246840639
 20
1.9271153486
 10
3.6347440577
 20
2.0033497599
 10
3.6496630105
 20
2.0807035942
 10
3.6693380305
 20
2.1586375175
 10
3.6936358264
 20
2.2366101558
 10
3.722386523
 20
2.3140751069
 10
3.7553831726
 20
2.3904850242
 10
3.792394945
 20
2.4653020383
 10
3.8331660673
 20
2.5380091265
 10
3.877410091
 20
2.6081066872
 10
3.9248204192
 20
2.6751033072
 10
3.9750696991
 20
2.7385332301
 10
4.0278095142
 20
2.7979654932
 10
4.0826823896
 20
2.8529881572
 10
4.1393039038
 20
2.9032083288
 10
4.1972632925
 20
2.9482700822
 10
4.2561530418
 20
2.9878579128
 10
4.3155725547
 20
3.0216960848
 10
4.375111184
 20
3.0495478889
  0
LINE
  5
3DB
100
AcDbEntity
  8
RACCORDO
100
AcDbLine
 62
250
  6
CONTINUOUS
 10
13.1449040694
 20
3.2125983127
 11
10.7050177114
 21
1.9658704108
  0
LINE
  5
3DC
100
AcDbEntity
  8
0
100
AcDbLine
 62
250
  6
CONTINUOUS
 10
9.8967100771
 20
1.6168834885
 11
9.4025108589
 21
1.3750104567
  0
LWPOLYLINE
  5
3DD
100
AcDbEntity
  8
RACCORDO
100
AcDbPolyline
 62
250
  6
CONTINUOUS
 90
10
 70
0
 10
9.1536953291
 20
1.2752162928
 10
9.1755278718
 20
1.2849512827
 10
9.2005489642
 20
1.2957445134
 10
9.228085545
 20
1.3073056494
 10
9.2573968867
 20
1.319323699
 10
9.2876945213
 20
1.3314753796
 10
9.3181634499
 20
1.3434338138
 10
9.3479840654
 20
1.3548773225
 10
9.3763542006
 20
1.3654980782
 10
9.4025107056
 20
1.375010385
  0
LWPOLYLINE
  5
3DE
100
AcDbEntity
  8
RACCORDO
100
AcDbPolyline
 62
250
  6
CONTINUOUS
 90
13
 70
0
 10
3.6247005396
 20
1.9271209751
 10
3.6732674055
 20
1.9052614002
 10
3.7268883702
 20
1.8857707651
 10
3.7846662227
 20
1.8689751962
 10
3.8456341972
 20
1.8551557247
 10
3.9087721492
 20
1.8445435847
 10
3.9730236249
 20
1.8373163435
 10
4.0373135388
 20
1.8335949307
 10
4.1005661622
 20
1.8334416147
 10
4.1617231227
 20
1.8368589609
 10
4.2197611135
 20
1.8437897887
 10
4.2737090161
 20
1.8541181282
 10
4.3226641488
 20
1.8676711607
  0
LINE
  5
3DF
100
AcDbEntity
  8
RACCORDO
100
AcDbLine
 62
250
  6
CONTINUOUS
 10
-26.8307397113
 20
17.1548272362
 11
3.6246840639
 21
1.9271153486
  0
LWPOLYLINE
  5
3E0
100
AcDbEntity
  8
0
100
AcDbPolyline
 62
7
  6
CONTINUOUS
 90
3
 70
0
 10
-16.7267727807
 20
19.999743038
 10
-16.6914832396
 20
19.9664120462
 10
-16.6696601024
 20
19.9489053574
  0
LWPOLYLINE
  5
3E1
100
AcDbEntity
  8
ASSI
100
AcDbPolyline
 62
7
  6
CONTINUOUS
 90
3
 70
0
 10
-16.7267727807
 20
19.999743038
 10
-16.6914832396
 20
19.9664120462
 10
-16.6696601024
 20
19.9489053574
  0
LINE
  5
3E2
100
AcDbEntity
  8
0
100
AcDbLine
 62
7
  6
CONTINUOUS
 10
-16.7613165417
 20
20.0374972093
 11
-16.7267727807
 21
19.999743038
  0
LINE
  5
3E3
100
AcDbEntity
  8
ASSI
100
AcDbLine
 62
7
  6
CONTINUOUS
 10
-16.7613165417
 20
20.0374972093
 11
-16.7267727807
 21
19.999743038
  0
LWPOLYLINE
  5
3E4
100
AcDbEntity
  8
0
100
AcDbPolyline
 62
7
  6
CONTINUOUS
 90
3
 70
0
 10
-10.0998015506
 20
17.2871440424
 10
-10.1389326322
 20
17.3363281876
 10
-10.1793468409
 20
17.3828369244
  0
LINE
  5
3E5
100
AcDbEntity
  8
ASSI
100
AcDbLine
 62
7
  6
CONTINUOUS
 10
-10.1718762202
 20
17.3814580589
 11
-10.2441624673
 21
17.4754960069
  0
LINE
  5
3E6
100
AcDbEntity
  8
ASSI
100
AcDbLine
 62
7
  6
CONTINUOUS
 10
-10.050525605
 20
17.222344219
 11
-10.1718762202
 21
17.3814580589
  0
LINE
  5
3E7
100
AcDbEntity
  8
0
100
AcDbLine
 62
7
  6
CONTINUOUS
 10
-10.0187254382
 20
17.1803872149
 11
-10.0998015506
 21
17.2871440424
  0
LINE
  5
3E8
100
AcDbEntity
  8
ASSI
100
AcDbLine
 62
7
  6
CONTINUOUS
 10
-10.050525605
 20
17.222344219
 11
-9.9949722251
 21
17.1489761266
  0
LINE
  5
3E9
100
AcDbEntity
  8
0
100
AcDbLine
 62
7
  6
CONTINUOUS
 10
-9.9379559499
 20
17.0733285605
 11
-10.0187254382
 21
17.1803872149
  0
LINE
  5
3EA
100
AcDbEntity
  8
ASSI
100
AcDbLine
 62
7
  6
CONTINUOUS
 10
-9.9949722251
 20
17.1489761266
 11
-9.9379559499
 21
17.0733285605
  0
LINE
  5
3EB
100
AcDbEntity
  8
0
100
AcDbLine
 62
7
  6
CONTINUOUS
 10
-9.1685306719
 20
16.0131952944
 11
-9.4169344093
 21
16.3653061431
  0
LINE
  5
3EC
100
AcDbEntity
  8
ASSI
100
AcDbLine
 62
7
  6
CONTINUOUS
 10
-9.1685306719
 20
16.0131952944
 11
-9.4169344093
 21
16.3653061431
  0
LWPOLYLINE
  5
3ED
100
AcDbEntity
  8
ASSI
100
AcDbPolyline
 62
7
  6
CONTINUOUS
 90
3
 70
0
 10
-10.0406813127
 20
17.2093673425
 10
-10.0281538474
 20
17.1914885838
 10
-10.0169491125
 20
17.1730284971
  0
LWPOLYLINE
  5
3EE
100
AcDbEntity
  8
RACCORDO
100
AcDbPolyline
 62
250
  6
CONTINUOUS
 90
10
 70
0
 10
-9.6278507523
 20
15.587445179
 10
-9.64769636
 20
15.6164277845
 10
-9.6686366878
 20
15.6439555962
 10
-9.6905615696
 20
15.6698933355
 10
-9.7133619661
 20
15.6941033936
 10
-9.7369261991
 20
15.7164601451
 10
-9.7611318437
 20
15.7368634993
 10
-9.7858551377
 20
15.7552110457
 10
-9.8109728259
 20
15.7713945066
 10
-9.8363510769
 20
15.7853242761
  0
LWPOLYLINE
  5
3EF
100
AcDbEntity
  8
0
100
AcDbPolyline
 62
7
  6
CONTINUOUS
 90
7
 70
0
 10
-9.0768725808
 20
14.9024424522
 10
-9.5320763287
 20
15.5689214068
 10
-9.5389135843
 20
15.5796071742
 10
-9.545310533
 20
15.5902198711
 10
-9.5512812622
 20
15.6007363768
 10
-9.5568402314
 20
15.6111350112
 10
-9.5620021701
 20
15.6213955538
  0
LWPOLYLINE
  5
3F0
100
AcDbEntity
  8
RACCORDO
100
AcDbPolyline
 62
250
  6
CONTINUOUS
 90
7
 70
0
 10
-9.1335839907
 20
18.4880031483
 10
-9.1442494858
 20
18.5073771352
 10
-9.1586345333
 20
18.5290226144
 10
-9.174543148
 20
18.5490272966
 10
-9.1917031292
 20
18.5670488963
 10
-9.2098208648
 20
18.5827790589
 10
-9.2285863554
 20
18.595948637
  0
LWPOLYLINE
  5
3F1
100
AcDbEntity
  8
ASSI
100
AcDbPolyline
 62
7
  6
CONTINUOUS
 90
4
 70
0
 10
-8.5542254984
 20
21.7377233311
 10
-8.5174137944
 20
21.6635966639
 10
-8.472034249
 20
21.5905706953
 10
-8.4182450046
 20
21.5188831465
  0
LINE
  5
3F2
100
AcDbEntity
  8
RACCORDO
100
AcDbLine
 62
7
  6
CONTINUOUS
 10
7.5025653375
 20
-18.6191281279
 11
8.5540616019
 21
-28.2633640866
  0
LINE
  5
3F3
100
AcDbEntity
  8
RACCORDO
100
AcDbLine
 62
250
  6
CONTINUOUS
 10
9.3293656076
 20
-27.8233033356
 11
7.9148278465
 21
-14.6387091321
  0
LINE
  5
3F4
100
AcDbEntity
  8
RACCORDO
100
AcDbLine
 62
250
  6
CONTINUOUS
 10
9.6086645046
 20
-27.8039453147
 11
8.1941267435
 21
-14.6193511112
  0
LWPOLYLINE
  5
3F5
100
AcDbEntity
  8
RACCORDO
100
AcDbPolyline
 62
250
  6
CONTINUOUS
 90
16
 70
0
 10
7.9148278465
 20
-14.6387091321
 10
7.913496689
 20
-14.6253149631
 10
7.9123560946
 20
-14.611812944
 10
7.911405996
 20
-14.5982068911
 10
7.910646375
 20
-14.5845026726
 10
7.9100769084
 20
-14.5707021312
 10
7.9096972464
 20
-14.5568029286
 10
7.9095073684
 20
-14.5428089573
 10
7.9095072038
 20
-14.5287238339
 10
7.9096967693
 20
-14.5145445652
 10
7.9100761646
 20
-14.5002747548
 10
7.9106454426
 20
-14.4859181901
 10
7.9114050005
 20
-14.4714719502
 10
7.9123552083
 20
-14.4569374669
 10
7.9134961209
 20
-14.4423206499
 10
7.9148278465
 20
-14.4276252374
  0
LINE
  5
3F6
100
AcDbEntity
  8
RACCORDO
100
AcDbLine
 62
7
  6
CONTINUOUS
 10
2.8441837604
 20
16.5301480684
 11
2.8041277323
 21
17.0591175723
  0
LINE
  5
3F7
100
AcDbEntity
  8
DRAFT
100
AcDbLine
 62
7
  6
CONTINUOUS
 10
4.5885440542
 20
11.968622881
 11
4.5885440542
 21
12.9212508252
  0
LINE
  5
3F8
100
AcDbEntity
  8
DRAFT
100
AcDbLine
 62
7
  6
CONTINUOUS
 10
5.0819266536
 20
9.8405945758
 11
5.0819266536
 21
8.8879666316
  0
LWPOLYLINE
  5
3F9
100
AcDbEntity
  8
RACCORDO
100
AcDbPolyline
 62
250
  6
CONTINUOUS
 90
17
 70
0
 10
5.9303768055
 20
6.254142132
 10
5.9320469377
 20
6.2922773942
 10
5.9301113082
 20
6.3385214604
 10
5.9243208792
 20
6.3861969873
 10
5.9147394846
 20
6.4347796759
 10
5.9014728253
 20
6.4837358446
 10
5.8846664902
 20
6.532529889
 10
5.8645043468
 20
6.5806284772
 10
5.8412065271
 20
6.6275060288
 10
5.8150290551
 20
6.67264702
 10
5.7862610966
 20
6.7155535645
 10
5.7552183859
 20
6.7557560925
 10
5.7222416461
 20
6.7928145834
 10
5.68769551
 20
6.8263211258
 10
5.6519600212
 20
6.8559097257
 10
5.6154259782
 20
6.8812593314
 10
5.5784935478
 20
6.9020945519
  0
LINE
  5
3FA
100
AcDbEntity
  8
RACCORDO
100
AcDbLine
 62
7
  6
CONTINUOUS
 10
4.4036782407
 20
8.3491609283
 11
4.3012507151
 21
7.2562884617
  0
LWPOLYLINE
  5
3FB
100
AcDbEntity
  8
RACCORDO
100
AcDbPolyline
 62
250
  6
CONTINUOUS
 90
19
 70
0
 10
4.322664149
 20
1.8676711606
 10
4.3277896891
 20
1.9060791531
 10
4.335246258
 20
1.9445439816
 10
4.3450338558
 20
1.9830656461
 10
4.3572555498
 20
2.021929741
 10
4.3718082727
 20
2.060850672
 10
4.3883828222
 20
2.098971656
 10
4.4070182698
 20
2.1362583057
 10
4.427675544
 20
2.1727450084
 10
4.4499282276
 20
2.2076781433
 10
4.4738089717
 20
2.2410245542
 10
4.4992851253
 20
2.2728173973
 10
4.5258323187
 20
2.3024025203
 10
4.5534860823
 20
2.3297417437
 10
4.5822108858
 20
2.354873247
 10
4.6113757685
 20
2.3772574176
 10
4.6407704102
 20
2.3967143844
 10
4.670605131
 20
2.4134240184
 10
4.7008799311
 20
2.4273863197
  0
LWPOLYLINE
  5
3FC
100
AcDbEntity
  8
RACCORDO
100
AcDbPolyline
 62
250
  6
CONTINUOUS
 90
10
 70
0
 10
5.9586096792
 20
7.571695209
 10
5.962958631
 20
7.6001801192
 10
5.9705747825
 20
7.629159615
 10
5.9812751917
 20
7.6579375999
 10
5.9948028314
 20
7.6858228183
 10
6.0108327638
 20
7.7121454587
 10
6.0289799447
 20
7.7362732435
 10
6.0488084736
 20
7.7576266161
 10
6.0698420631
 20
7.775692662
 10
6.0915754802
 20
7.7900374293
  0
LINE
  5
3FD
100
AcDbEntity
  8
RACCORDO
100
AcDbLine
 62
250
  6
CONTINUOUS
 10
13.448719118
 20
1.9881580878
 11
10.7050177114
 21
0.588260375
  0
LINE
  5
3FE
100
AcDbEntity
  8
0
100
AcDbLine
 62
250
  6
CONTINUOUS
 10
10.3074371362
 20
0.4426144663
 11
9.6086645046
 21
0.1001134455
  0
LWPOLYLINE
  5
3FF
100
AcDbEntity
  8
RACCORDO
100
AcDbPolyline
 62
250
  6
CONTINUOUS
 90
13
 70
0
 10
9.3293656076
 20
0.1229722035
 10
9.3487916748
 20
0.1142051102
 10
9.3702417665
 20
0.1064059552
 10
9.3933569452
 20
0.0997052717
 10
9.417750408
 20
0.094215211
 10
9.443013933
 20
0.0900276716
 10
9.4687247078
 20
0.0872127552
 10
9.4944524571
 20
0.0858175869
 10
9.5197666035
 20
0.0858655328
 10
9.544243449
 20
0.0873558035
 10
9.5674733339
 20
0.0902634656
 10
9.5890674895
 20
0.0945398663
 10
9.6086645045
 20
0.1001134446
  0
LINE
  5
400
100
AcDbEntity
  8
RACCORDO
100
AcDbLine
 62
250
  6
CONTINUOUS
 10
-26.0923214797
 20
18.2832642207
 11
4.375111184
 21
3.0495478889
  0
LWPOLYLINE
  5
401
100
AcDbEntity
  8
RACCORDO
100
AcDbPolyline
 62
250
  6
CONTINUOUS
 90
13
 70
0
 10
4.375111184
 20
3.0495478889
 10
4.4202508654
 20
3.0223548721
 10
4.4642495506
 20
2.9880514656
 10
4.5063548472
 20
2.9472242695
 10
4.5458467403
 20
2.9005714427
 10
4.5820499051
 20
2.8488907643
 10
4.6143452549
 20
2.7930659916
 10
4.6421805284
 20
2.734051747
 10
4.6650797328
 20
2.6728571944
 10
4.6826512841
 20
2.6105287813
 10
4.6945947027
 20
2.5481323447
 10
4.700705752
 20
2.4867348851
 10
4.7008799311
 20
2.4273863197
  0
LWPOLYLINE
  5
402
100
AcDbEntity
  8
ASSI
100
AcDbPolyline
 62
250
  6
CONTINUOUS
 90
7
 70
0
 10
-16.6145367664
 20
19.7907842675
 10
-16.6055740482
 20
19.7843280091
 10
-16.5961541089
 20
19.7779845235
 10
-16.5862787375
 20
19.771762872
 10
-16.5759504336
 20
19.7656722185
 10
-16.5651724281
 20
19.7597218167
 10
-16.5539487033
 20
19.7539209973
  0
LWPOLYLINE
  5
403
100
AcDbEntity
  8
ASSI
100
AcDbPolyline
 62
250
  6
CONTINUOUS
 90
7
 70
0
 10
-16.4538145749
 20
20.0174422121
 10
-16.4485138644
 20
20.0135868918
 10
-16.4429099919
 20
20.0097951173
 10
-16.4370029573
 20
20.0060668886
 10
-16.4307927606
 20
20.0024022057
 10
-16.4242794019
 20
19.9988010686
 10
-16.4174628812
 20
19.9952634773
  0
LINE
  5
404
100
AcDbEntity
  8
RACCORDO
100
AcDbLine
 62
7
  6
CONTINUOUS
 10
-5.4693619834
 20
16.0804556985
 11
-5.4875946711
 21
16.1022210362
  0
LINE
  5
405
100
AcDbEntity
  8
ASSI
100
AcDbLine
 62
7
  6
CONTINUOUS
 10
-5.4693619834
 20
16.0804556985
 11
-5.4875946711
 21
16.1022210362
  0
LWPOLYLINE
  5
406
100
AcDbEntity
  8
RACCORDO
100
AcDbPolyline
 62
7
  6
CONTINUOUS
 90
7
 70
0
 10
-5.4875946711
 20
16.1022210362
 10
-5.4934339417
 20
16.1096537598
 10
-5.4992019755
 20
16.1172417999
 10
-5.5048954464
 20
16.1249821605
 10
-5.5105111206
 20
16.1328715728
 10
-5.5160458653
 20
16.1409064907
 10
-5.5214966587
 20
16.1490830868
  0
LWPOLYLINE
  5
407
100
AcDbEntity
  8
ASSI
100
AcDbPolyline
 62
7
  6
CONTINUOUS
 90
7
 70
0
 10
-5.4875946711
 20
16.1022210362
 10
-5.4934339417
 20
16.1096537598
 10
-5.4992019755
 20
16.1172417999
 10
-5.5048954464
 20
16.1249821605
 10
-5.5105111206
 20
16.1328715728
 10
-5.5160458653
 20
16.1409064907
 10
-5.5214966587
 20
16.1490830868
  0
LINE
  5
408
100
AcDbEntity
  8
0
100
AcDbLine
 62
7
  6
CONTINUOUS
 10
-7.2284304562
 20
18.5721735903
 11
-7.2858102945
 21
18.6477351319
  0
LINE
  5
409
100
AcDbEntity
  8
ASSI
100
AcDbLine
 62
7
  6
CONTINUOUS
 10
-7.2284304562
 20
18.5721735903
 11
-7.2858102945
 21
18.6477351319
  0
LINE
  5
40A
100
AcDbEntity
  8
0
100
AcDbLine
 62
7
  6
CONTINUOUS
 10
-7.1711847467
 20
18.4964340788
 11
-7.2284304562
 21
18.5721735903
  0
LINE
  5
40B
100
AcDbEntity
  8
ASSI
100
AcDbLine
 62
7
  6
CONTINUOUS
 10
-7.1711847467
 20
18.4964340788
 11
-7.2284304562
 21
18.5721735903
  0
LINE
  5
40C
100
AcDbEntity
  8
0
100
AcDbLine
 62
7
  6
CONTINUOUS
 10
-7.114073166
 20
18.4205165972
 11
-7.1711847467
 21
18.4964340788
  0
LINE
  5
40D
100
AcDbEntity
  8
ASSI
100
AcDbLine
 62
7
  6
CONTINUOUS
 10
-7.114073166
 20
18.4205165972
 11
-7.1711847467
 21
18.4964340788
  0
LWPOLYLINE
  5
40E
100
AcDbEntity
  8
RACCORDO
100
AcDbPolyline
 62
250
  6
CONTINUOUS
 90
15
 70
0
 10
-5.1191862293
 20
15.8074593645
 10
-5.1354404071
 20
15.8317901099
 10
-5.1519086714
 20
15.854589822
 10
-5.1684697326
 20
15.8758522696
 10
-5.1849936465
 20
15.8955726214
 10
-5.2014053973
 20
15.9138097969
 10
-5.217689106
 20
15.9306727939
 10
-5.2337733059
 20
15.9462020189
 10
-5.2495868526
 20
15.9604362719
 10
-5.2651321949
 20
15.9734726455
 10
-5.2803567643
 20
15.9853539554
 10
-5.2952188862
 20
15.9961322036
 10
-5.3097510087
 20
16.005904813
 10
-5.3239447821
 20
16.0147298939
 10
-5.3377487931
 20
16.0226384748
  0
LWPOLYLINE
  5
40F
100
AcDbEntity
  8
ASSI
100
AcDbPolyline
 62
250
  6
CONTINUOUS
 90
15
 70
0
 10
-5.1191862293
 20
15.8074593645
 10
-5.1354404071
 20
15.8317901099
 10
-5.1519086714
 20
15.854589822
 10
-5.1684697326
 20
15.8758522696
 10
-5.1849936465
 20
15.8955726214
 10
-5.2014053973
 20
15.9138097969
 10
-5.217689106
 20
15.9306727939
 10
-5.2337733059
 20
15.9462020189
 10
-5.2495868526
 20
15.9604362719
 10
-5.2651321949
 20
15.9734726455
 10
-5.2803567643
 20
15.9853539554
 10
-5.2952188862
 20
15.9961322036
 10
-5.3097510087
 20
16.005904813
 10
-5.3239447821
 20
16.0147298939
 10
-5.3377487931
 20
16.0226384748
  0
LWPOLYLINE
  5
410
100
AcDbEntity
  8
RACCORDO
100
AcDbPolyline
 62
7
  6
CONTINUOUS
 90
10
 70
0
 10
-5.5214966587
 20
16.1490830868
 10
-5.6426660839
 20
16.3331745452
 10
-5.7646228372
 20
16.5164578351
 10
-5.8873669186
 20
16.6989329564
 10
-6.0109060576
 20
16.880611259
 10
-6.1352325247
 20
17.0614813931
 10
-6.2603231321
 20
17.2415093096
 10
-6.3861701502
 20
17.4206836587
 10
-6.5127813085
 20
17.5990157902
 10
-6.640156607
 20
17.776505704
  0
LWPOLYLINE
  5
411
100
AcDbEntity
  8
ASSI
100
AcDbPolyline
 62
7
  6
CONTINUOUS
 90
10
 70
0
 10
-5.5214966587
 20
16.1490830868
 10
-5.6426660839
 20
16.3331745452
 10
-5.7646228372
 20
16.5164578351
 10
-5.8873669186
 20
16.6989329564
 10
-6.0109060576
 20
16.880611259
 10
-6.1352325247
 20
17.0614813931
 10
-6.2603231321
 20
17.2415093096
 10
-6.3861701502
 20
17.4206836587
 10
-6.5127813085
 20
17.5990157902
 10
-6.640156607
 20
17.776505704
  0
LWPOLYLINE
  5
412
100
AcDbEntity
  8
SMUSSO
100
AcDbPolyline
 62
7
  6
CONTINUOUS
 90
3
 70
0
 10
-8.5174137944
 20
21.6635966639
 10
-8.472034249
 20
21.5905706953
 10
-8.4182450046
 20
21.5188831465
  0
LINE
  5
413
100
AcDbEntity
  8
SMUSSO
100
AcDbLine
 62
250
  6
CONTINUOUS
 10
-8.2098498995
 20
23.534486978
 11
-7.8562445161
 21
22.9244718348
  0
LINE
  5
414
100
AcDbEntity
  8
ASSI
100
AcDbLine
 62
250
  6
CONTINUOUS
 10
-8.2098498995
 20
23.534486978
 11
-7.8562445161
 21
22.9244718348
  0
LWPOLYLINE
  5
415
100
AcDbEntity
  8
ASSI
100
AcDbPolyline
 62
7
  6
CONTINUOUS
 90
4
 70
0
 10
-1.5164776168
 20
17.1431113403
 10
-1.4796659128
 20
17.0689846731
 10
-1.4342863675
 20
16.9959587045
 10
-1.3804971231
 20
16.9242711558
  0
LINE
  5
416
100
AcDbEntity
  8
0
100
AcDbLine
 62
7
  6
CONTINUOUS
 10
0.4484077756
 20
16.4671925346
 11
0.2469084177
 21
17.0629169604
  0
LWPOLYLINE
  5
417
100
AcDbEntity
  8
RACCORDO
100
AcDbPolyline
 62
7
  6
CONTINUOUS
 90
10
 70
0
 10
0.9201062753
 20
22.6422290626
 10
0.9121815478
 20
22.6932309718
 10
0.8989549048
 20
22.7434145739
 10
0.8805472176
 20
22.792071487
 10
0.8571389589
 20
22.8386306127
 10
0.8288842861
 20
22.8826781875
 10
0.7959263089
 20
22.9238167355
 10
0.7587291017
 20
22.9613399025
 10
0.7179731756
 20
22.9945870672
 10
0.6739943731
 20
23.0233432585
  0
LWPOLYLINE
  5
418
100
AcDbEntity
  8
RACCORDO
100
AcDbPolyline
 62
7
  6
CONTINUOUS
 90
12
 70
0
 10
2.8041277323
 20
17.0591175723
 10
2.8026697587
 20
17.0722796343
 10
2.8002635875
 20
17.0847181628
 10
2.7969092187
 20
17.0964331576
 10
2.7925588566
 20
17.1075440434
 10
2.7872602968
 20
17.1179313957
 10
2.7811569267
 20
17.1272369404
 10
2.7742501607
 20
17.1353768132
 10
2.7665385842
 20
17.1424348785
 10
2.7581613411
 20
17.148304456
 10
2.7491224583
 20
17.1529787067
 10
2.7418616047
 20
17.1557213737
  0
LWPOLYLINE
  5
419
100
AcDbEntity
  8
RACCORDO
100
AcDbPolyline
 62
250
  6
CONTINUOUS
 90
16
 70
0
 10
8.1941267435
 20
-14.6193511112
 10
8.1930583824
 20
-14.6086296386
 10
8.1921427952
 20
-14.597828123
 10
8.191379982
 20
-14.5869465646
 10
8.1907700767
 20
-14.5759836147
 10
8.1903129453
 20
-14.5649406219
 10
8.1900081863
 20
-14.5538216321
 10
8.1898556485
 20
-14.5426266719
 10
8.1898554831
 20
-14.5313557147
 10
8.190007742
 20
-14.5200127266
 10
8.1903122783
 20
-14.5085977734
 10
8.1907692389
 20
-14.4971107894
 10
8.1913791164
 20
-14.4855555428
 10
8.1921420752
 20
-14.4739332896
 10
8.1930579508
 20
-14.4622427739
 10
8.1941267435
 20
-14.4504839955
  0
LWPOLYLINE
  5
41A
100
AcDbEntity
  8
RACCORDO
100
AcDbPolyline
 62
250
  6
CONTINUOUS
 90
13
 70
0
 10
9.1133107062
 20
15.8972600315
 10
9.1111908855
 20
15.9955949176
 10
9.104612056
 20
16.095858601
 10
9.0935819311
 20
16.1977029527
 10
9.0781370347
 20
16.3007937164
 10
9.0583378088
 20
16.4048113855
 10
9.0342445729
 20
16.5094390338
 10
9.0059252738
 20
16.6143560771
 10
8.9734732603
 20
16.719240251
 10
8.9369862661
 20
16.8237721565
 10
8.8965639944
 20
16.9276291259
 10
8.8523424577
 20
17.0304672308
 10
8.8044907082
 20
17.1319259209
  0
LWPOLYLINE
  5
41B
100
AcDbEntity
  8
ASSI
100
AcDbPolyline
 62
250
  6
CONTINUOUS
 90
12
 70
0
 10
9.1133107062
 20
15.8972600315
 10
9.1111908855
 20
15.9955949176
 10
9.104612056
 20
16.095858601
 10
9.0935819311
 20
16.1977029527
 10
9.0781370347
 20
16.3007937164
 10
9.0583378088
 20
16.4048113855
 10
9.0342445729
 20
16.5094390338
 10
9.0059252738
 20
16.6143560771
 10
8.9734732603
 20
16.719240251
 10
8.9369862661
 20
16.8237721565
 10
8.8965639944
 20
16.9276291259
 10
8.8523424577
 20
17.0304672308
  0
LINE
  5
41C
100
AcDbEntity
  8
RACCORDO
100
AcDbLine
 62
7
  6
CONTINUOUS
 10
9.2536412889
 20
16.0707280351
 11
9.2532683453
 21
16.1104283665
  0
LINE
  5
41D
100
AcDbEntity
  8
DRAFT
100
AcDbLine
 62
7
  6
CONTINUOUS
 10
8.9726060975
 20
10.0024859906
 11
8.9726060975
 21
10.7292198035
  0
LINE
  5
41E
100
AcDbEntity
  8
RACCORDO
100
AcDbLine
 62
250
  6
CONTINUOUS
 10
9.1133200283
 20
11.0124162288
 11
9.1133200283
 21
15.8972555315
  0
LINE
  5
41F
100
AcDbEntity
  8
ASSI
100
AcDbLine
 62
250
  6
CONTINUOUS
 10
9.1133200283
 20
11.0124162288
 11
9.1133200283
 21
15.8972555315
  0
LINE
  5
420
100
AcDbEntity
  8
RACCORDO
100
AcDbLine
 62
7
  6
CONTINUOUS
 10
9.2536501281
 20
10.9371669998
 11
9.2536501281
 21
16.0709201186
  0
LINE
  5
421
100
AcDbEntity
  8
ASSI
100
AcDbLine
 62
7
  6
CONTINUOUS
 10
9.2536501281
 20
10.9371669998
 11
9.2536501281
 21
16.0709201186
  0
LWPOLYLINE
  5
422
100
AcDbEntity
  8
ASSI
100
AcDbPolyline
 62
250
  6
CONTINUOUS
 90
20
 70
0
 10
10.050742975
 20
12.6853067512
 10
10.0484480804
 20
12.6206029802
 10
10.0445737847
 20
12.5561952115
 10
10.0391160379
 20
12.4925187709
 10
10.032019298
 20
12.4292862919
 10
10.0230872347
 20
12.3655466367
 10
10.0121873678
 20
12.3013646292
 10
9.9992122001
 20
12.2369785884
 10
9.9838570968
 20
12.1718160045
 10
9.9659435672
 20
12.1061312689
 10
9.9452813828
 20
12.0401546728
 10
9.9214058163
 20
11.9734249702
 10
9.8940523118
 20
11.9063108635
 10
9.8629578804
 20
11.8392174288
 10
9.8275024218
 20
11.7719414598
 10
9.7873470602
 20
11.7050570589
 10
9.7421528005
 20
11.6391768232
 10
9.6911371142
 20
11.5744277209
 10
9.6337226064
 20
11.5114788693
 10
9.5696801971
 20
11.4514558233
  0
LINE
  5
423
100
AcDbEntity
  8
ASSI
100
AcDbLine
 62
7
  6
CONTINUOUS
 10
10.1285553711
 20
12.8505998212
 11
10.1184647507
 21
12.6175240477
  0
LWPOLYLINE
  5
424
100
AcDbEntity
  8
RACCORDO
100
AcDbPolyline
 62
250
  6
CONTINUOUS
 90
13
 70
0
 10
9.6086645046
 20
0.1001134455
 10
9.6153443078
 20
0.2022717242
 10
9.6175430186
 20
0.3062528431
 10
9.6152873493
 20
0.4117446652
 10
9.608644122
 20
0.5184435487
 10
9.5976397773
 20
0.6260168077
 10
9.5822600665
 20
0.7341037375
 10
9.5625820729
 20
0.8423767491
 10
9.5386989734
 20
0.9505160591
 10
9.5106381484
 20
1.0581721324
 10
9.4784883172
 20
1.1650144366
 10
9.4424003275
 20
1.2707324776
 10
9.4025108589
 20
1.3750104567
  0
LWPOLYLINE
  5
425
100
AcDbEntity
  8
0
100
AcDbPolyline
 62
250
  6
CONTINUOUS
 90
10
 70
0
 10
9.8498733773
 20
5.8539738819
 10
9.8513793742
 20
5.8765397945
 10
9.8558545984
 20
5.899970892
 10
9.8631719656
 20
5.9236017931
 10
9.8731236818
 20
5.946761443
 10
9.8854271447
 20
5.968792169
 10
9.8997329686
 20
5.9890683568
 10
9.9156349061
 20
6.0070142166
 10
9.9326813841
 20
6.0221201333
 10
9.9503883281
 20
6.0339571391
  0
LINE
  5
426
100
AcDbEntity
  8
RACCORDO
100
AcDbLine
 62
7
  6
CONTINUOUS
 10
6.4461439379
 20
-33.9360741806
 11
9.0776843705
 21
4.2183619711
  0
LWPOLYLINE
  5
427
100
AcDbEntity
  8
RACCORDO
100
AcDbPolyline
 62
250
  6
CONTINUOUS
 90
13
 70
0
 10
9.3293656076
 20
0.1229722035
 10
9.3362615128
 20
0.2155884303
 10
9.339170683
 20
0.3093828344
 10
9.338093118
 20
0.4043554159
 10
9.3329985906
 20
0.5008492259
 10
9.323917328
 20
0.5985212133
 10
9.3109400129
 20
0.6963422246
 10
9.2940133562
 20
0.7943071048
 10
9.273190647
 20
0.892421009
 10
9.2487224347
 20
0.9896702487
 10
9.2206922359
 20
1.0857169278
 10
9.189016534
 20
1.1808989425
 10
9.1536953291
 20
1.2752162928
  0
LWPOLYLINE
  5
428
100
AcDbEntity
  8
RACCORDO
100
AcDbPolyline
 62
7
  6
CONTINUOUS
 90
13
 70
0
 10
10.1232397494
 20
12.6804377822
 10
10.1073934389
 20
12.5164446577
 10
10.0811767108
 20
12.3592288774
 10
10.0446816259
 20
12.2090830395
 10
9.9981455882
 20
12.0669004465
 10
9.9421603009
 20
11.9340263681
 10
9.877301932
 20
11.8111052439
 10
9.8039159709
 20
11.6982068933
 10
9.7225073766
 20
11.5956878102
 10
9.6338862316
 20
11.5041169305
 10
9.5384934642
 20
11.4235301657
 10
9.4362729938
 20
11.3537203322
 10
9.4179984109
 20
11.3428026394
  0
LINE
  5
429
100
AcDbEntity
  8
RACCORDO
100
AcDbLine
 62
250
  6
CONTINUOUS
 10
7.9148278465
 20
-14.4276252374
 11
9.3293656076
 21
0.1229722035
  0
LINE
  5
42A
100
AcDbEntity
  8
RACCORDO
100
AcDbLine
 62
250
  6
CONTINUOUS
 10
8.1941267435
 20
-14.4504839955
 11
9.6086645046
 21
0.1001134455
  0
LWPOLYLINE
  5
42B
100
AcDbEntity
  8
RACCORDO
100
AcDbPolyline
 62
250
  6
CONTINUOUS
 90
7
 70
0
 10
10.1285553711
 20
14.6692531691
 10
10.1270459266
 20
14.6542249598
 10
10.1208663906
 20
14.6355105109
 10
10.1100127719
 20
14.6173356105
 10
10.0946586211
 20
14.5999908771
 10
10.0750494525
 20
14.5837536547
 10
10.0514988188
 20
14.5688835781
  0
LWPOLYLINE
  5
42C
100
AcDbEntity
  8
ASSI
100
AcDbPolyline
 62
250
  6
CONTINUOUS
 90
7
 70
0
 10
10.1285553711
 20
14.6692531691
 10
10.1270459266
 20
14.6542249598
 10
10.1208663906
 20
14.6355105109
 10
10.1100127719
 20
14.6173356105
 10
10.0946586211
 20
14.5999908771
 10
10.0750494525
 20
14.5837536547
 10
10.0514988188
 20
14.5688835781
  0
LWPOLYLINE
  5
42D
100
AcDbEntity
  8
RACCORDO
100
AcDbPolyline
 62
250
  6
CONTINUOUS
 90
7
 70
0
 10
10.1285553711
 20
12.8505998212
 10
10.1270459435
 20
12.8355716957
 10
10.1208664236
 20
12.8168572345
 10
10.1100128129
 20
12.7986823182
 10
10.0946586605
 20
12.781337567
 10
10.0750494786
 20
12.7651003256
 10
10.0514988188
 20
12.7502302302
  0
LWPOLYLINE
  5
42E
100
AcDbEntity
  8
ASSI
100
AcDbPolyline
 62
250
  6
CONTINUOUS
 90
7
 70
0
 10
10.1285553711
 20
12.8505998212
 10
10.1270459435
 20
12.8355716957
 10
10.1208664236
 20
12.8168572345
 10
10.1100128129
 20
12.7986823182
 10
10.0946586605
 20
12.781337567
 10
10.0750494786
 20
12.7651003256
 10
10.0514988188
 20
12.7502302302
  0
LWPOLYLINE
  5
42F
100
AcDbEntity
  8
ASSI
100
AcDbPolyline
 62
7
  6
CONTINUOUS
 90
9
 70
0
 10
10.1184647507
 20
12.6175240477
 10
10.0885788154
 20
12.3972447367
 10
10.0395096726
 20
12.1912031994
 10
9.9717924481
 20
12.0004257988
 10
9.8862358052
 20
11.8265439884
 10
9.7843471077
 20
11.6716593399
 10
9.6682359686
 20
11.5374743236
 10
9.5388969664
 20
11.4238378214
 10
9.4191181616
 20
11.3434589677
  0
LWPOLYLINE
  5
430
100
AcDbEntity
  8
DRAFT
100
AcDbPolyline
 62
7
  6
CONTINUOUS
 90
25
 70
0
 10
6.4160730501
 20
8.4100632266
 10
6.3905151119
 20
8.4153693831
 10
6.3648510619
 20
8.4230696355
 10
6.3390808998
 20
8.4331639839
 10
6.3130581271
 20
8.4457365727
 10
6.2869292424
 20
8.4607032575
 10
6.2611337422
 20
8.4778116047
 10
6.2356857514
 20
8.4970920401
 10
6.210571145
 20
8.518514138
 10
6.1861870449
 20
8.5417341875
 10
6.1625422202
 20
8.5667835196
 10
6.1396279018
 20
8.5936308033
 10
6.1178149042
 20
8.6218383349
 10
6.0971224802
 20
8.651426698
 10
6.077531377
 20
8.6823753089
 10
6.0593546498
 20
8.7141847131
 10
6.0426158554
 20
8.7468656383
 10
6.0272914371
 20
8.7804073568
 10
6.0136237792
 20
8.8142782306
 10
6.0016378512
 20
8.8484841384
 10
5.9913086836
 20
8.8830192016
 10
5.9828037524
 20
8.9173341451
 10
5.9761788827
 20
8.9512458776
 10
5.9713782494
 20
8.9849374905
 10
5.9684018523
 20
9.0184089839
  0
LWPOLYLINE
  5
431
100
AcDbEntity
  8
0
100
AcDbPolyline
 62
250
  6
CONTINUOUS
 90
10
 70
0
 10
10.0971723635
 20
5.4270767633
 10
10.1169626252
 20
5.4187573117
 10
10.1393166143
 20
5.4122606481
 10
10.1635702422
 20
5.4077798892
 10
10.1890029661
 20
5.4054482642
 10
10.2148590714
 20
5.4053351621
 10
10.2403701229
 20
5.4074440277
 10
10.2647779823
 20
5.411712253
 10
10.2873573374
 20
5.418013068
 10
10.3074371362
 20
5.426159292
  0
LWPOLYLINE
  5
432
100
AcDbEntity
  8
RACCORDO
100
AcDbPolyline
 62
250
  6
CONTINUOUS
 90
8
 70
0
 10
5.5784935478
 20
6.9020945519
 10
5.5415326626
 20
6.9182023273
 10
5.5049859272
 20
6.9293860642
 10
5.4692531968
 20
6.9355270109
 10
5.4347323945
 20
6.9365620933
 10
5.4017920443
 20
6.9324857553
 10
5.3707710594
 20
6.9233386589
 10
5.3548867501
 20
6.9162954456
  0
LWPOLYLINE
  5
433
100
AcDbEntity
  8
RACCORDO
100
AcDbPolyline
 62
250
  6
CONTINUOUS
 90
8
 70
0
 10
-2.1996810452
 20
10.7911818485
 10
-2.2366419305
 20
10.8072896239
 10
-2.2731886658
 20
10.8184733607
 10
-2.3089213963
 20
10.8246143074
 10
-2.3434421985
 20
10.8256493898
 10
-2.3763825488
 20
10.8215730519
 10
-2.4074035336
 20
10.8124259554
 10
-2.423287843
 20
10.8053827421
  0
LWPOLYLINE
  5
434
100
AcDbEntity
  8
RACCORDO
100
AcDbPolyline
 62
250
  6
CONTINUOUS
 90
9
 70
0
 10
-10.3560603956
 20
14.8723856932
 10
-10.3953954162
 20
14.8895273081
 10
-10.4342807956
 20
14.9014246682
 10
-10.4722914454
 20
14.9079550225
 10
-10.5089991607
 20
14.9090551688
 10
-10.5440196564
 20
14.9047245012
 10
-10.5770097109
 20
14.8950040005
 10
-10.6076227957
 20
14.8799779535
 10
-10.6131071524
 20
14.8765563987
  0
LINE
  5
435
100
AcDbEntity
  8
RACCORDO
100
AcDbLine
 62
7
  6
CONTINUOUS
 10
-21.8628896462
 20
20.1507753579
 11
8.7550493585
 21
4.8418058556
  0
LINE
  5
436
100
AcDbEntity
  8
DRAFT
100
AcDbLine
 62
7
  6
CONTINUOUS
 10
4.3012507151
 20
7.2562884617
 11
-0.2487860509
 21
9.5313068447
  0
LINE
  5
437
100
AcDbEntity
  8
RACCORDO
100
AcDbLine
 62
250
  6
CONTINUOUS
 10
-1.6976506817
 20
11.3998253895
 11
-0.1427192431
 21
10.6223596702
  0
LINE
  5
438
100
AcDbEntity
  8
RACCORDO
100
AcDbLine
 62
250
  6
CONTINUOUS
 10
5.9586096792
 20
7.571695209
 11
4.4036782407
 21
8.3491609283
  0
LINE
  5
439
100
AcDbEntity
  8
RACCORDO
100
AcDbLine
 62
250
  6
CONTINUOUS
 10
-9.9742503168
 20
15.5643154536
 11
-17.5863784564
 21
19.3703795233
  0
LINE
  5
43A
100
AcDbEntity
  8
0
100
AcDbLine
 62
250
  6
CONTINUOUS
 10
9.8498733773
 20
5.8539738819
 11
6.4029832297
 21
7.5774189557
  0
LINE
  5
43B
100
AcDbEntity
  8
0
100
AcDbLine
 62
250
  6
CONTINUOUS
 10
-1.7513785209
 20
11.654599831
 11
-5.1982686686
 21
13.3780449048
  0
LINE
  5
43C
100
AcDbEntity
  8
0
100
AcDbLine
 62
250
  6
CONTINUOUS
 10
-21.1079464804
 20
21.3497677606
 11
-17.6500475413
 21
19.620818291
  0
LINE
  5
43D
100
AcDbEntity
  8
0
100
AcDbLine
 62
250
  6
CONTINUOUS
 10
-6.0601031902
 20
13.8258461155
 11
-9.5247851596
 21
15.5581871002
  0
LINE
  5
43E
100
AcDbEntity
  8
RACCORDO
100
AcDbLine
 62
250
  6
CONTINUOUS
 10
-1.5646848807
 20
11.6181676097
 11
-0.0074325155
 21
10.8395414271
  0
LINE
  5
43F
100
AcDbEntity
  8
RACCORDO
100
AcDbLine
 62
250
  6
CONTINUOUS
 10
6.0915754802
 20
7.7900374293
 11
4.5343231149
 21
8.5686636119
  0
LINE
  5
440
100
AcDbEntity
  8
ASSI
100
AcDbLine
 62
7
  6
CONTINUOUS
 10
-16.5440731158
 20
19.1984765714
 11
-16.5015395945
 21
19.17451627
  0
LWPOLYLINE
  5
441
100
AcDbEntity
  8
0
100
AcDbPolyline
 62
250
  6
CONTINUOUS
 90
6
 70
0
 10
-5.4455676547
 20
13.1984467724
 10
-5.4622073665
 20
13.2083424885
 10
-5.4752009142
 20
13.2195200165
 10
-5.4841621984
 20
13.2316472196
 10
-5.4888249372
 20
13.2443637419
 10
-5.4895016375
 20
13.2514797837
  0
LINE
  5
442
100
AcDbEntity
  8
0
100
AcDbLine
 62
7
  6
CONTINUOUS
 10
-10.3989836441
 20
17.5737773945
 11
-10.4445748958
 21
17.6020255499
  0
LINE
  5
443
100
AcDbEntity
  8
RACCORDO
100
AcDbLine
 62
7
  6
CONTINUOUS
 10
-9.0419574338
 20
18.5303193287
 11
-9.1294536484
 21
18.5944433024
  0
LINE
  5
444
100
AcDbEntity
  8
ASSI
100
AcDbLine
 62
7
  6
CONTINUOUS
 10
-5.3526171295
 20
15.9689987937
 11
-5.3631403804
 21
15.9776680808
  0
LWPOLYLINE
  5
445
100
AcDbEntity
  8
RACCORDO
100
AcDbPolyline
 62
7
  6
CONTINUOUS
 90
4
 70
0
 10
-5.3525952923
 20
15.9689810447
 10
-5.3631403804
 20
15.9776680808
 10
-5.3863101061
 20
15.9974814078
 10
-5.4085990914
 20
16.0176058612
  0
LWPOLYLINE
  5
446
100
AcDbEntity
  8
ASSI
100
AcDbPolyline
 62
7
  6
CONTINUOUS
 90
6
 70
0
 10
-5.3631403804
 20
15.9776680808
 10
-5.3863101061
 20
15.9974814078
 10
-5.4085990914
 20
16.0176058612
 10
-5.4298844716
 20
16.0381328966
 10
-5.4501251945
 20
16.059092992
 10
-5.4693619834
 20
16.0804556985
  0
LWPOLYLINE
  5
447
100
AcDbEntity
  8
RACCORDO
100
AcDbPolyline
 62
7
  6
CONTINUOUS
 90
4
 70
0
 10
-5.4085990914
 20
16.0176058612
 10
-5.4298844716
 20
16.0381328966
 10
-5.4501251945
 20
16.059092992
 10
-5.4693619834
 20
16.0804556985
  0
LINE
  5
448
100
AcDbEntity
  8
ASSI
100
AcDbLine
 62
7
  6
CONTINUOUS
 10
-8.356201913
 20
21.4487281154
 11
-8.3192778839
 21
21.4127019879
  0
LWPOLYLINE
  5
449
100
AcDbEntity
  8
ASSI
100
AcDbPolyline
 62
7
  6
CONTINUOUS
 90
4
 70
0
 10
-8.8096746667
 20
21.7837347614
 10
-8.7265794293
 20
21.7025338001
 10
-8.633903453
 20
21.6234249028
 10
-8.5539229843
 20
21.5625054775
  0
LWPOLYLINE
  5
44A
100
AcDbEntity
  8
SMUSSO
100
AcDbPolyline
 62
7
  6
CONTINUOUS
 90
3
 70
0
 10
-8.4182450046
 20
21.5188831465
 10
-8.356201913
 20
21.4487281154
 10
-8.3192778839
 20
21.4127019879
  0
LINE
  5
44B
100
AcDbEntity
  8
ASSI
100
AcDbLine
 62
7
  6
CONTINUOUS
 10
-8.4182450046
 20
21.5188831465
 11
-8.356201913
 21
21.4487281154
  0
LWPOLYLINE
  5
44C
100
AcDbEntity
  8
RACCORDO
100
AcDbPolyline
 62
7
  6
CONTINUOUS
 90
3
 70
0
 10
-0.2320201723
 20
15.836469396
 10
-0.2838433527
 20
15.90824569
 10
-0.3409078532
 20
15.9749284236
  0
LWPOLYLINE
  5
44D
100
AcDbEntity
  8
RACCORDO
100
AcDbPolyline
 62
250
  6
CONTINUOUS
 90
10
 70
0
 10
6.3059578985
 20
7.5934569949
 10
6.2854210864
 20
7.6223922368
 10
6.2637677766
 20
7.6498415845
 10
6.2411230864
 20
7.6756691232
 10
6.2176266488
 20
7.6997482709
 10
6.1934006457
 20
7.7219601942
 10
6.1685483417
 20
7.7421917608
 10
6.1431957705
 20
7.7603399893
 10
6.1174917753
 20
7.7763152023
 10
6.0915754802
 20
7.7900374293
  0
LINE
  5
44E
100
AcDbEntity
  8
ASSI
100
AcDbLine
 62
7
  6
CONTINUOUS
 10
-0.2170803365
 20
15.813277171
 11
-0.2785485061
 21
15.9014566926
  0
LWPOLYLINE
  5
44F
100
AcDbEntity
  8
0
100
AcDbPolyline
 62
7
  6
CONTINUOUS
 90
7
 70
0
 10
6.8324742507
 20
6.9481778093
 10
6.3966539863
 20
7.5867231013
 10
6.3906618637
 20
7.5959971944
 10
6.384998149
 20
7.6052250691
 10
6.3796538364
 20
7.6143913407
 10
6.3746196809
 20
7.6234814227
 10
6.3698862491
 20
7.632481539
  0
LWPOLYLINE
  5
450
100
AcDbEntity
  8
ASSI
100
AcDbPolyline
 62
250
  6
CONTINUOUS
 90
8
 70
0
 10
-0.192383439
 20
15.3272919159
 10
-0.1082456662
 20
15.1985565004
 10
-0.0225018765
 20
15.0784608231
 10
0.0653126113
 20
14.9671742136
 10
0.154840166
 20
14.8646090295
 10
0.2449027048
 20
14.7704214307
 10
0.3354987267
 20
14.6845402964
 10
0.4267263707
 20
14.6071026721
  0
LWPOLYLINE
  5
451
100
AcDbEntity
  8
RACCORDO
100
AcDbPolyline
 62
250
  6
CONTINUOUS
 90
10
 70
0
 10
6.0823303328
 20
7.4507600725
 10
6.0706529609
 20
7.4687685077
 10
6.0583990368
 20
7.4856875209
 10
6.0455685607
 20
7.5015171122
 10
6.0320825854
 20
7.5163284515
 10
6.0180200581
 20
7.5300503688
 10
6.0036178196
 20
7.5424693542
 10
5.9889548172
 20
7.5535142377
 10
5.9739521038
 20
7.5632561893
 10
5.9586096792
 20
7.571695209
  0
LWPOLYLINE
  5
452
100
AcDbEntity
  8
SMUSSO
100
AcDbPolyline
 62
7
  6
CONTINUOUS
 90
3
 70
0
 10
-1.4796659128
 20
17.0689846731
 10
-1.4342863675
 20
16.9959587045
 10
-1.3804971231
 20
16.9242711558
  0
LINE
  5
453
100
AcDbEntity
  8
RACCORDO
100
AcDbLine
 62
7
  6
CONTINUOUS
 10
-0.1944027264
 20
15.7754069077
 11
-0.2320201723
 21
15.836469396
  0
LWPOLYLINE
  5
454
100
AcDbEntity
  8
0
100
AcDbPolyline
 62
7
  6
CONTINUOUS
 90
4
 70
0
 10
7.9021268941
 20
5.2682670877
 10
7.6611661873
 20
5.6637521435
 10
7.2518685699
 20
6.3102888719
 10
6.8324742507
 20
6.9481778093
  0
LWPOLYLINE
  5
455
100
AcDbEntity
  8
RACCORDO
100
AcDbPolyline
 62
250
  6
CONTINUOUS
 90
22
 70
0
 10
-0.2749720583
 20
15.4646216284
 10
-0.192383439
 20
15.3272919159
 10
-0.1082456662
 20
15.1985565004
 10
-0.0225018765
 20
15.0784608231
 10
0.0653126113
 20
14.9671742136
 10
0.154840166
 20
14.8646090295
 10
0.2449027048
 20
14.7704214307
 10
0.3354987267
 20
14.6845402964
 10
0.4267263707
 20
14.6071026721
 10
0.5175577525
 20
14.538074804
 10
0.6081838387
 20
14.4774297988
 10
0.6984990456
 20
14.4252471481
 10
0.7870328537
 20
14.3816518938
 10
0.8738526327
 20
14.3468806908
 10
0.9589643182
 20
14.3207375722
 10
1.0408042758
 20
14.302696567
 10
1.1191095577
 20
14.293007693
 10
1.194193427
 20
14.2914459285
 10
1.2653494108
 20
14.2967681955
 10
1.3323488363
 20
14.3085628711
 10
1.3954426301
 20
14.3272507723
 10
1.4546366434
 20
14.352833636
  0
LINE
  5
456
100
AcDbEntity
  8
ASSI
100
AcDbLine
 62
250
  6
CONTINUOUS
 10
-0.2749720583
 20
15.4646216284
 11
-0.192383439
 21
15.3272919159
  0
LINE
  5
457
100
AcDbEntity
  8
ASSI
100
AcDbLine
 62
7
  6
CONTINUOUS
 10
-0.1944069642
 20
15.7754142973
 11
-0.2170803365
 21
15.813277171
  0
LINE
  5
458
100
AcDbEntity
  8
SMUSSO
100
AcDbLine
 62
250
  6
CONTINUOUS
 10
-1.172102018
 20
18.9398749873
 11
-0.8184966346
 21
18.3298598441
  0
LINE
  5
459
100
AcDbEntity
  8
ASSI
100
AcDbLine
 62
250
  6
CONTINUOUS
 10
-1.172102018
 20
18.9398749873
 11
-0.8184966346
 21
18.3298598441
  0
LINE
  5
45A
100
AcDbEntity
  8
RACCORDO
100
AcDbLine
 62
7
  6
CONTINUOUS
 10
-3.693936519
 20
25.0029495605
 11
-3.6876593976
 21
24.9921207848
  0
LINE
  5
45B
100
AcDbEntity
  8
ASSI
100
AcDbLine
 62
7
  6
CONTINUOUS
 10
-3.693936519
 20
25.0029495605
 11
-3.6876593976
 21
24.9921207848
  0
LINE
  5
45C
100
AcDbEntity
  8
RACCORDO
100
AcDbLine
 62
250
  6
CONTINUOUS
 10
-0.4049859297
 20
15.6935882625
 11
-0.3615069841
 21
15.6173633354
  0
LINE
  5
45D
100
AcDbEntity
  8
ASSI
100
AcDbLine
 62
250
  6
CONTINUOUS
 10
-0.4049859297
 20
15.6935882625
 11
-0.3615069841
 21
15.6173633354
  0
LINE
  5
45E
100
AcDbEntity
  8
RACCORDO
100
AcDbLine
 62
250
  6
CONTINUOUS
 10
-0.3615069841
 20
15.6173633354
 11
-0.3181688828
 21
15.5410408699
  0
LINE
  5
45F
100
AcDbEntity
  8
ASSI
100
AcDbLine
 62
250
  6
CONTINUOUS
 10
-0.3615069841
 20
15.6173633354
 11
-0.3181688828
 21
15.5410408699
  0
LINE
  5
460
100
AcDbEntity
  8
RACCORDO
100
AcDbLine
 62
7
  6
CONTINUOUS
 10
-0.1083069634
 20
15.6241172826
 11
-0.1944072898
 21
15.775405315
  0
LINE
  5
461
100
AcDbEntity
  8
ASSI
100
AcDbLine
 62
7
  6
CONTINUOUS
 10
-0.1083069634
 20
15.6241172826
 11
-0.1944072898
 21
15.775405315
  0
LINE
  5
462
100
AcDbEntity
  8
RACCORDO
100
AcDbLine
 62
250
  6
CONTINUOUS
 10
-0.3181688828
 20
15.5410408699
 11
-0.2749720583
 21
15.4646216284
  0
LINE
  5
463
100
AcDbEntity
  8
ASSI
100
AcDbLine
 62
250
  6
CONTINUOUS
 10
-0.3181688828
 20
15.5410408699
 11
-0.2749720583
 21
15.4646216284
  0
LINE
  5
464
100
AcDbEntity
  8
RACCORDO
100
AcDbLine
 62
7
  6
CONTINUOUS
 10
-0.0654672934
 20
15.5483298811
 11
-0.1083069634
 21
15.6241172826
  0
LINE
  5
465
100
AcDbEntity
  8
ASSI
100
AcDbLine
 62
7
  6
CONTINUOUS
 10
-0.0654672611
 20
15.5483298239
 11
-0.1083069634
 21
15.6241172826
  0
LWPOLYLINE
  5
466
100
AcDbEntity
  8
RACCORDO
100
AcDbPolyline
 62
250
  6
CONTINUOUS
 90
4
 70
0
 10
7.1071439799
 20
5.6657585449
 10
6.8473361646
 20
6.1415878532
 10
6.4706063517
 20
6.8009191061
 10
6.0823303328
 20
7.4507600725
  0
LWPOLYLINE
  5
467
100
AcDbEntity
  8
RACCORDO
100
AcDbPolyline
 62
250
  6
CONTINUOUS
 90
5
 70
0
 10
7.5193743712
 20
5.4596433492
 10
7.4453457289
 20
5.6014614267
 10
7.0767698186
 20
6.275633092
 10
6.696863573
 20
6.9397972871
 10
6.3059578985
 20
7.5934569949
  0
LWPOLYLINE
  5
468
100
AcDbEntity
  8
0
100
AcDbPolyline
 62
7
  6
CONTINUOUS
 90
4
 70
0
 10
6.3698862491
 20
7.632481539
 10
6.3591096733
 20
7.6539176598
 10
6.3486049313
 20
7.6757234328
 10
6.3383193588
 20
7.6977496444
  0
LWPOLYLINE
  5
469
100
AcDbEntity
  8
0
100
AcDbPolyline
 62
7
  6
CONTINUOUS
 90
4
 70
0
 10
9.8967100771
 20
1.6168834885
 10
9.5516420378
 20
2.3091045956
 10
9.1955649548
 20
2.9942285036
 10
9.0161154727
 20
3.3256808058
  0
LWPOLYLINE
  5
46A
100
AcDbEntity
  8
0
100
AcDbPolyline
 62
7
  6
CONTINUOUS
 90
10
 70
0
 10
9.8967100771
 20
1.6168834885
 10
9.9237106432
 20
1.5601638767
 10
9.949547233
 20
1.503091121
 10
9.9742198463
 20
1.4456652215
 10
9.9977521742
 20
1.3878254983
 10
10.0201205257
 20
1.3296326312
 10
10.0412538277
 20
1.2712686602
 10
10.0611283892
 20
1.2127942652
 10
10.0797679011
 20
1.1541487663
 10
10.0971723635
 20
1.0953321634
  0
LWPOLYLINE
  5
46B
100
AcDbEntity
  8
0
100
AcDbPolyline
 62
7
  6
CONTINUOUS
 90
6
 70
0
 10
6.29811131
 20
7.7855100098
 10
6.2880639572
 20
7.806943015
 10
6.2781032505
 20
7.8277882075
 10
6.2682065676
 20
7.8478643236
 10
6.2581910336
 20
7.8670441071
 10
6.2479352025
 20
7.8851837019
  0
LINE
  5
46C
100
AcDbEntity
  8
0
100
AcDbLine
 62
7
  6
CONTINUOUS
 10
6.3383193588
 20
7.6977496444
 11
6.29811131
 21
7.7855100098
  0
LWPOLYLINE
  5
46D
100
AcDbEntity
  8
ASSI
100
AcDbPolyline
 62
7
  6
CONTINUOUS
 90
5
 70
0
 10
0.9770565001
 20
21.9475700007
 10
0.9578683252
 20
21.9916874267
 10
0.9430057502
 20
22.034445928
 10
0.9325857031
 20
22.073860665
 10
0.9261612691
 20
22.1089097719
  0
LWPOLYLINE
  5
46E
100
AcDbEntity
  8
RACCORDO
100
AcDbPolyline
 62
250
  6
CONTINUOUS
 90
3
 70
0
 10
9.4025108589
 20
1.3750104567
 10
9.1078990106
 20
2.0983963528
 10
8.9558876504
 20
2.4524437563
  0
LINE
  5
46F
100
AcDbEntity
  8
RACCORDO
100
AcDbLine
 62
250
  6
CONTINUOUS
 10
9.1536953291
 20
1.2752162928
 11
8.9151386291
 21
1.8616278561
  0
LINE
  5
470
100
AcDbEntity
  8
ASSI
100
AcDbLine
 62
7
  6
CONTINUOUS
 10
9.2482084393
 20
16.2236187032
 11
9.2302682108
 21
16.3914254258
  0
LWPOLYLINE
  5
471
100
AcDbEntity
  8
ASSI
100
AcDbPolyline
 62
250
  6
CONTINUOUS
 90
4
 70
0
 10
10.0390353835
 20
14.839873351
 10
10.0445623224
 20
14.7700124387
 10
10.048456795
 20
14.7013699123
 10
10.0507485699
 20
14.6343180396
  0
LINE
  5
472
100
AcDbEntity
  8
RACCORDO
100
AcDbLine
 62
7
  6
CONTINUOUS
 10
9.2532683453
 20
16.1104283665
 11
9.2451104852
 21
16.2628658687
  0
LWPOLYLINE
  5
473
100
AcDbEntity
  8
0
100
AcDbPolyline
 62
250
  6
CONTINUOUS
 90
19
 70
0
 10
10.3074370234
 20
5.4261592252
 10
10.3056841234
 20
5.4635512363
 10
10.3013758027
 20
5.5018749013
 10
10.2945668803
 20
5.540850301
 10
10.2853364918
 20
5.5801943814
 10
10.273766394
 20
5.6196264116
 10
10.2599375605
 20
5.6588701009
 10
10.2439708441
 20
5.6976352579
 10
10.2259931379
 20
5.7356661154
 10
10.206104814
 20
5.7727431174
 10
10.1845875917
 20
5.808399976
 10
10.1614829134
 20
5.8426117313
 10
10.1364573462
 20
5.8757436975
 10
10.1095438163
 20
5.9075520583
 10
10.0809560242
 20
5.9375749247
 10
10.0505654423
 20
5.9656754794
 10
10.0184589594
 20
5.9914655135
 10
9.9849717145
 20
6.0143869119
 10
9.9503882805
 20
6.0339571132
  0
LINE
  5
474
100
AcDbEntity
  8
ASSI
100
AcDbLine
 62
7
  6
CONTINUOUS
 10
10.1192352817
 20
14.9017608722
 11
10.1285553711
 21
14.6692531691
  0
LWPOLYLINE
  5
475
100
AcDbEntity
  8
0
100
AcDbPolyline
 62
250
  6
CONTINUOUS
 90
19
 70
0
 10
10.0971723635
 20
5.4270767633
 10
10.0961975453
 20
5.4537624599
 10
10.0935134404
 20
5.4806978258
 10
10.0891200486
 20
5.5078828608
 10
10.0829529111
 20
5.5355123568
 10
10.0750764869
 20
5.5633915221
 10
10.0656841523
 20
5.590935981
 10
10.0547537551
 20
5.6181259905
 10
10.0423074475
 20
5.6449812937
 10
10.028605063
 20
5.6709767452
 10
10.0137452433
 20
5.6959947247
 10
9.9976293467
 20
5.7201528524
 10
9.9802212816
 20
5.743278843
 10
9.9614605651
 20
5.7655390257
 10
9.94140768
 20
5.7867670712
 10
9.920207983
 20
5.8062917068
 10
9.8979099264
 20
5.823889175
 10
9.8744650578
 20
5.8397832334
 10
9.8498733773
 20
5.8539738819
  0
LINE
  5
476
100
AcDbEntity
  8
ASSI
100
AcDbLine
 62
7
  6
CONTINUOUS
 10
9.2536410305
 20
16.0706034794
 11
9.2482084393
 21
16.2236187032
  0
LINE
  5
477
100
AcDbEntity
  8
ASSI
100
AcDbLine
 62
250
  6
CONTINUOUS
 10
10.0507485699
 20
14.6343180396
 11
10.0514988188
 21
14.5688835781
  0
LINE
  5
478
100
AcDbEntity
  8
RACCORDO
100
AcDbLine
 62
250
  6
CONTINUOUS
 10
10.0514988188
 20
14.5688835781
 11
10.0514988188
 21
12.7502302302
  0
LINE
  5
479
100
AcDbEntity
  8
ASSI
100
AcDbLine
 62
250
  6
CONTINUOUS
 10
10.0514988188
 20
14.5688835781
 11
10.0514988188
 21
12.7502302302
  0
LINE
  5
47A
100
AcDbEntity
  8
0
100
AcDbLine
 62
250
  6
CONTINUOUS
 10
10.0971723635
 20
1.0953321634
 11
10.0971723635
 21
5.4270767633
  0
LINE
  5
47B
100
AcDbEntity
  8
0
100
AcDbLine
 62
250
  6
CONTINUOUS
 10
10.0971723635
 20
-28.1225321933
 11
10.0971723635
 21
-32.4542767931
  0
LINE
  5
47C
100
AcDbEntity
  8
RACCORDO
100
AcDbLine
 62
7
  6
CONTINUOUS
 10
10.1285553711
 20
14.6692531691
 11
10.1285553711
 21
12.8505998212
  0
LINE
  5
47D
100
AcDbEntity
  8
ASSI
100
AcDbLine
 62
7
  6
CONTINUOUS
 10
10.1285553711
 20
14.6692531691
 11
10.1285553711
 21
12.8505998212
  0
LINE
  5
47E
100
AcDbEntity
  8
0
100
AcDbLine
 62
250
  6
CONTINUOUS
 10
10.3074371362
 20
0.4426144663
 11
10.3074371362
 21
5.4261592868
  0
LINE
  5
47F
100
AcDbEntity
  8
0
100
AcDbLine
 62
250
  6
CONTINUOUS
 10
10.3074371362
 20
-27.471649449
 11
10.3074371362
 21
-32.4551942696
  0
LINE
  5
480
100
AcDbEntity
  8
0
100
AcDbLine
 62
7
  6
CONTINUOUS
 10
10.7050177114
 20
5.6432102091
 11
10.7050177114
 21
-32.2883060933
  0
LWPOLYLINE
  5
481
100
AcDbEntity
  8
RACCORDO
100
AcDbPolyline
 62
250
  6
CONTINUOUS
 90
21
 70
0
 10
10.0514988188
 20
12.7502302302
 10
10.050742975
 20
12.6853067512
 10
10.0484480804
 20
12.6206029802
 10
10.0445737847
 20
12.5561952115
 10
10.0391160379
 20
12.4925187709
 10
10.032019298
 20
12.4292862919
 10
10.0230872347
 20
12.3655466367
 10
10.0121873678
 20
12.3013646292
 10
9.9992122001
 20
12.2369785884
 10
9.9838570968
 20
12.1718160045
 10
9.9659435672
 20
12.1061312689
 10
9.9452813828
 20
12.0401546728
 10
9.9214058163
 20
11.9734249702
 10
9.8940523118
 20
11.9063108635
 10
9.8629578804
 20
11.8392174288
 10
9.8275024218
 20
11.7719414598
 10
9.7873470602
 20
11.7050570589
 10
9.7421528005
 20
11.6391768232
 10
9.6911371142
 20
11.5744277209
 10
9.6337226064
 20
11.5114788693
 10
9.5696801971
 20
11.4514558233
  0
LINE
  5
482
100
AcDbEntity
  8
ASSI
100
AcDbLine
 62
250
  6
CONTINUOUS
 10
10.0514988188
 20
12.7502302302
 11
10.050742975
 21
12.6853067512
  0
LINE
  5
483
100
AcDbEntity
  8
RACCORDO
100
AcDbLine
 62
7
  6
CONTINUOUS
 10
10.1285553711
 20
12.8505998212
 11
10.1232397494
 21
12.6804377822
  0
LWPOLYLINE
  5
484
100
AcDbEntity
  8
0
100
AcDbPolyline
 62
250
  6
CONTINUOUS
 90
17
 70
0
 10
10.0971723635
 20
-32.4542767931
 10
10.0953844501
 20
-32.4859939565
 10
10.0914074205
 20
-32.515033773
 10
10.0852412745
 20
-32.5413962426
 10
10.0765649331
 20
-32.5651571804
 10
10.0656994754
 20
-32.5862407712
 10
10.0536081392
 20
-32.6044195699
 10
10.0403628135
 20
-32.6194436489
 10
10.0258916093
 20
-32.6315629357
 10
10.0109420982
 20
-32.6412997676
 10
9.9957952653
 20
-32.6486632071
 10
9.9801701254
 20
-32.6536441917
 10
9.9639712944
 20
-32.6567378708
 10
9.9473398162
 20
-32.6582123274
 10
9.930134647
 20
-32.6577994785
 10
9.9118372701
 20
-32.6551902239
 10
9.8922748468
 20
-32.6502815301
  0
LWPOLYLINE
  5
485
100
AcDbEntity
  8
0
100
AcDbPolyline
 62
250
  6
CONTINUOUS
 90
11
 70
0
 10
10.3074369374
 20
-32.455194353
 10
10.304865653
 20
-32.5004274755
 10
10.2985273148
 20
-32.5422347665
 10
10.288752107
 20
-32.5803392784
 10
10.2758309572
 20
-32.6146787984
 10
10.2601569064
 20
-32.6449795964
 10
10.2423348362
 20
-32.670887693
 10
10.2229201301
 20
-32.6924464864
 10
10.2022450658
 20
-32.7100149111
 10
10.1806243128
 20
-32.7238923013
 10
10.1636089725
 20
-32.7321963684
  0
LWPOLYLINE
  5
486
100
AcDbEntity
  8
0
100
AcDbPolyline
 62
7
  6
CONTINUOUS
 90
13
 70
0
 10
-1.3953005923
 20
11.7068015993
 10
-1.4280238394
 20
11.7103746154
 10
-1.4600388036
 20
11.7123957703
 10
-1.4912240961
 20
11.7129839858
 10
-1.5215828202
 20
11.7123093921
 10
-1.5508922396
 20
11.7104674132
 10
-1.5787111398
 20
11.7074870886
 10
-1.6048168319
 20
11.7035352742
 10
-1.6292982112
 20
11.6987626508
 10
-1.6521781519
 20
11.6931666762
 10
-1.6734070707
 20
11.6868365863
 10
-1.6928945845
 20
11.6799703567
 10
-1.71058808
 20
11.6727187036
  0
LWPOLYLINE
  5
487
100
AcDbEntity
  8
ASSI
100
AcDbPolyline
 62
7
  6
CONTINUOUS
 90
4
 70
0
 10
-10.9761644061
 20
16.4119744687
 10
-10.9243705325
 20
16.3906319547
 10
-10.8696021839
 20
16.3738093407
 10
-10.812003157
 20
16.3612871533
  0
LWPOLYLINE
  5
488
100
AcDbEntity
  8
0
100
AcDbPolyline
 62
250
  6
CONTINUOUS
 90
9
 70
0
 10
-5.1982686686
 20
13.3780449048
 10
-5.2250824746
 20
13.3892640259
 10
-5.2506390184
 20
13.3970649973
 10
-5.2749383001
 20
13.4014478188
 10
-5.2980109774
 20
13.402315524
 10
-5.3198263925
 20
13.3997650795
 10
-5.3402925723
 20
13.3940873849
 10
-5.3595015182
 20
13.3854518169
 10
-5.3773612289
 20
13.3736889989
  0
LWPOLYLINE
  5
489
100
AcDbEntity
  8
0
100
AcDbPolyline
 62
250
  6
CONTINUOUS
 90
10
 70
0
 10
-5.8126535103
 20
13.3990585492
 10
-5.7928632583
 20
13.3907391012
 10
-5.7705092781
 20
13.3842424387
 10
-5.7462556569
 20
13.3797616791
 10
-5.7208229363
 20
13.377430052
 10
-5.6949668303
 20
13.3773169475
 10
-5.6694557749
 20
13.3794258111
 10
-5.6450479089
 20
13.3836940354
 10
-5.6224685454
 20
13.3899948511
 10
-5.6023887376
 20
13.398141078
  0
LWPOLYLINE
  5
48A
100
AcDbEntity
  8
0
100
AcDbPolyline
 62
250
  6
CONTINUOUS
 90
9
 70
0
 10
-5.0977537672
 20
13.5580281333
 10
-5.1357123865
 20
13.5743350504
 10
-5.1724389953
 20
13.5853658711
 10
-5.207575347
 20
13.59128971
 10
-5.2405814728
 20
13.5923400576
 10
-5.2714750752
 20
13.5888520146
 10
-5.3006981627
 20
13.5809149975
 10
-5.3279654375
 20
13.5685763803
 10
-5.3314192149
 20
13.5666139315
  0
LWPOLYLINE
  5
48B
100
AcDbEntity
  8
RACCORDO
100
AcDbPolyline
 62
250
  6
CONTINUOUS
 90
9
 70
0
 10
-18.1342349886
 20
18.7614729897
 10
-18.1735700093
 20
18.7786146046
 10
-18.2124553886
 20
18.7905119647
 10
-18.2504660384
 20
18.797042319
 10
-18.2871737538
 20
18.7981424654
 10
-18.3221942494
 20
18.7938117977
 10
-18.355184304
 20
18.784091297
 10
-18.3857973888
 20
18.7690652501
 10
-18.3912817454
 20
18.7656436953
  0
LWPOLYLINE
  5
48C
100
AcDbEntity
  8
RACCORDO
100
AcDbPolyline
 62
250
  6
CONTINUOUS
 90
10
 70
0
 10
-17.5863784564
 20
19.3703795233
 10
-17.6017416259
 20
19.3773056689
 10
-17.6170229174
 20
19.3827479744
 10
-17.6322223307
 20
19.3867064399
 10
-17.6474217672
 20
19.3891907729
 10
-17.6625393255
 20
19.3901912658
 10
-17.6773293021
 20
19.3896787962
 10
-17.6917097957
 20
19.3876436563
 10
-17.7057627076
 20
19.3840955539
 10
-17.7194880377
 20
19.3790344888
  0
LWPOLYLINE
  5
48D
100
AcDbEntity
  8
RACCORDO
100
AcDbPolyline
 62
250
  6
CONTINUOUS
 90
10
 70
0
 10
-17.4484792221
 20
19.5913884923
 10
-17.4739921086
 20
19.6029143088
 10
-17.4994950782
 20
19.6120703963
 10
-17.5248518266
 20
19.6188110493
 10
-17.5499281963
 20
19.6231150989
 10
-17.5745983308
 20
19.6249594892
 10
-17.5987456973
 20
19.6243241665
 10
-17.6222509954
 20
19.6212181623
 10
-17.6449873499
 20
19.615659865
 10
-17.6668311528
 20
19.6076664191
  0
LWPOLYLINE
  5
48E
100
AcDbEntity
  8
0
100
AcDbPolyline
 62
7
  6
CONTINUOUS
 90
3
 70
0
 10
-15.6876422496
 20
20.2253790274
 10
-15.7336760552
 20
20.2465761296
 10
-15.7792673069
 20
20.2639192259
  0
LWPOLYLINE
  5
48F
100
AcDbEntity
  8
ASSI
100
AcDbPolyline
 62
250
  6
CONTINUOUS
 90
7
 70
0
 10
-11.0385158101
 20
16.5251880984
 10
-11.0131037601
 20
16.5133066782
 10
-10.9870339495
 20
16.5026552371
 10
-10.9605717823
 20
16.4931908542
 10
-10.9340087701
 20
16.4848713981
 10
-10.907517328
 20
16.4776227331
 10
-10.8811348487
 20
16.4713555817
  0
LWPOLYLINE
  5
490
100
AcDbEntity
  8
ASSI
100
AcDbPolyline
 62
250
  6
CONTINUOUS
 90
7
 70
0
 10
-10.902029988
 20
17.2375470306
 10
-10.8950686453
 20
17.2341863375
 10
-10.8879565594
 20
17.2309691473
 10
-10.8806937302
 20
17.2278954601
 10
-10.8732801577
 20
17.2249652759
 10
-10.865715842
 20
17.2221785947
 10
-10.858000783
 20
17.2195354165
  0
LWPOLYLINE
  5
491
100
AcDbEntity
  8
ASSI
100
AcDbPolyline
 62
250
  6
CONTINUOUS
 90
7
 70
0
 10
-11.0385158101
 20
16.9962045507
 10
-11.0270973525
 20
16.9906784934
 10
-11.015336753
 20
16.9853475264
 10
-11.0032462114
 20
16.980216874
 10
-10.9908382416
 20
16.9752915594
 10
-10.9781256588
 20
16.9705763999
 10
-10.9651215655
 20
16.9660760022
  0
LINE
  5
492
100
AcDbEntity
  8
ASSI
100
AcDbLine
 62
7
  6
CONTINUOUS
 10
-10.9870601995
 20
16.4172774099
 11
-10.9761644061
 21
16.4119744687
  0
LWPOLYLINE
  5
493
100
AcDbEntity
  8
ASSI
100
AcDbPolyline
 62
250
  6
CONTINUOUS
 90
10
 70
0
 10
-10.8580007833
 20
17.2195359297
 10
-10.848412687
 20
17.2148565472
 10
-10.838874232
 20
17.2095555543
 10
-10.8294027795
 20
17.2036249341
 10
-10.8200156173
 20
17.1970137688
 10
-10.8107305871
 20
17.1897373127
 10
-10.8015953207
 20
17.1819023425
 10
-10.7926744244
 20
17.1735551215
 10
-10.7840237135
 20
17.1646590354
 10
-10.7757065074
 20
17.1552189
  0
LINE
  5
494
100
AcDbEntity
  8
RACCORDO
100
AcDbLine
 62
250
  6
CONTINUOUS
 10
-9.8363512369
 20
15.7853353048
 11
-17.4484793765
 21
19.5913993746
  0
LINE
  5
495
100
AcDbEntity
  8
ASSI
100
AcDbLine
 62
7
  6
CONTINUOUS
 10
-16.5019700662
 20
19.1747297849
 11
-10.9865372152
 21
16.4170133594
  0
LINE
  5
496
100
AcDbEntity
  8
ASSI
100
AcDbLine
 62
250
  6
CONTINUOUS
 10
-16.5539487033
 20
19.282904545
 11
-11.0385158101
 21
16.5251880984
  0
LINE
  5
497
100
AcDbEntity
  8
0
100
AcDbLine
 62
250
  6
CONTINUOUS
 10
9.9503883281
 20
6.0339571391
 11
6.2479352025
 21
7.8851837019
  0
LINE
  5
498
100
AcDbEntity
  8
0
100
AcDbLine
 62
250
  6
CONTINUOUS
 10
-1.3953005923
 20
11.7068015993
 11
-5.0977537178
 21
13.5580281621
  0
LINE
  5
499
100
AcDbEntity
  8
0
100
AcDbLine
 62
250
  6
CONTINUOUS
 10
-21.0037315704
 20
21.5317592411
 11
-17.2900842178
 21
19.6749355648
  0
LINE
  5
49A
100
AcDbEntity
  8
0
100
AcDbLine
 62
250
  6
CONTINUOUS
 10
-5.9558882802
 20
14.007837596
 11
-9.6760869949
 21
15.8679369534
  0
LINE
  5
49B
100
AcDbEntity
  8
0
100
AcDbLine
 62
7
  6
CONTINUOUS
 10
-0.9850309284
 20
11.9214454226
 11
0.5596275488
 21
11.149116184
  0
LINE
  5
49C
100
AcDbEntity
  8
0
100
AcDbLine
 62
7
  6
CONTINUOUS
 10
5.0819266536
 20
8.8879666316
 11
6.6265851309
 21
8.115637393
  0
LINE
  5
49D
100
AcDbEntity
  8
0
100
AcDbLine
 62
7
  6
CONTINUOUS
 10
10.3517334455
 20
6.2530632357
 11
6.6269907485
 21
8.1154345842
  0
LINE
  5
49E
100
AcDbEntity
  8
0
100
AcDbLine
 62
7
  6
CONTINUOUS
 10
-0.9854365461
 20
11.9216482315
 11
-4.7101792431
 21
13.7840195799
  0
LINE
  5
49F
100
AcDbEntity
  8
0
100
AcDbLine
 62
7
  6
CONTINUOUS
 10
-5.558384408
 20
14.2081221624
 11
-10.1610627866
 21
16.5094613517
  0
LINE
  5
4A0
100
AcDbEntity
  8
0
100
AcDbLine
 62
7
  6
CONTINUOUS
 10
-16.7003953127
 20
19.7791276148
 11
-20.619866543
 21
21.7388632299
  0
LINE
  5
4A1
100
AcDbEntity
  8
ASSI
100
AcDbLine
 62
250
  6
CONTINUOUS
 10
-16.5539487033
 20
19.7539209973
 11
-11.0385158101
 21
16.9962045507
  0
LINE
  5
4A2
100
AcDbEntity
  8
ASSI
100
AcDbLine
 62
250
  6
CONTINUOUS
 10
-16.4174628812
 20
19.9952634773
 11
-10.902029988
 21
17.2375470306
  0
LINE
  5
4A3
100
AcDbEntity
  8
ASSI
100
AcDbLine
 62
7
  6
CONTINUOUS
 10
-15.8566814995
 20
20.3098986523
 11
-10.3215695985
 21
17.5423427018
  0
LINE
  5
4A4
100
AcDbEntity
  8
DRAFT
100
AcDbLine
 62
7
  6
CONTINUOUS
 10
5.4997338433
 20
9.6316909809
 11
5.0819266536
 21
9.8405945758
  0
LINE
  5
4A5
100
AcDbEntity
  8
DRAFT
100
AcDbLine
 62
7
  6
CONTINUOUS
 10
0.5596275488
 20
12.1017441282
 11
0.1418203591
 21
12.310647723
  0
LINE
  5
4A6
100
AcDbEntity
  8
0
100
AcDbLine
 62
7
  6
CONTINUOUS
 10
-10.4906087014
 20
17.6268622533
 11
-15.6876422496
 21
20.2253790274
  0
LINE
  5
4A7
100
AcDbEntity
  8
RACCORDO
100
AcDbLine
 62
250
  6
CONTINUOUS
 10
-5.3511391605
 20
16.0296788501
 11
-5.4813757047
 21
16.0947971222
  0
LINE
  5
4A8
100
AcDbEntity
  8
ASSI
100
AcDbLine
 62
250
  6
CONTINUOUS
 10
-5.3511391605
 20
16.0296788501
 11
-5.4893204434
 21
16.0987694916
  0
LINE
  5
4A9
100
AcDbEntity
  8
0
100
AcDbLine
 62
7
  6
CONTINUOUS
 10
-14.1238661982
 20
20.7582724796
 11
-9.3673789842
 21
18.3800288726
  0
LINE
  5
4AA
100
AcDbEntity
  8
ASSI
100
AcDbLine
 62
7
  6
CONTINUOUS
 10
-14.1238661982
 20
20.7582724796
 11
-9.3673789842
 21
18.3800288726
  0
LINE
  5
4AB
100
AcDbEntity
  8
RACCORDO
100
AcDbLine
 62
250
  6
CONTINUOUS
 10
-9.2476785182
 20
18.6063322954
 11
-13.5121958144
 21
20.7385909435
  0
LINE
  5
4AC
100
AcDbEntity
  8
RACCORDO
100
AcDbLine
 62
7
  6
CONTINUOUS
 10
-9.1582357991
 20
18.6120126528
 11
-13.4227530953
 21
20.744271301
  0
LINE
  5
4AD
100
AcDbEntity
  8
DRAFT
100
AcDbLine
 62
7
  6
CONTINUOUS
 10
6.9708052486
 20
10.7774922838
 11
4.5885440542
 21
11.968622881
  0
LWPOLYLINE
  5
4AE
100
AcDbEntity
  8
RACCORDO
100
AcDbPolyline
 62
7
  6
CONTINUOUS
 90
4
 70
0
 10
-9.1583326588
 20
18.6120609953
 10
-9.154524736
 20
18.6101084492
 10
-9.1334226257
 20
18.5972783372
 10
-9.1294782721
 20
18.5944613441
  0
LWPOLYLINE
  5
4AF
100
AcDbEntity
  8
ASSI
100
AcDbPolyline
 62
250
  6
CONTINUOUS
 90
9
 70
0
 10
-16.453814579
 20
20.017441886
 10
-16.4624864476
 20
20.0218936315
 10
-16.4709832168
 20
20.0256111351
 10
-16.4793406378
 20
20.0285955798
 10
-16.4876415419
 20
20.0308288068
 10
-16.495849034
 20
20.0322987009
 10
-16.5038131907
 20
20.0330132778
 10
-16.5114963421
 20
20.0329676595
 10
-16.5189669414
 20
20.0321315219
  0
LINE
  5
4B0
100
AcDbEntity
  8
RACCORDO
100
AcDbLine
 62
250
  6
CONTINUOUS
 10
-5.3377487931
 20
16.0226384748
 11
-5.3511391613
 21
16.0296787907
  0
LINE
  5
4B1
100
AcDbEntity
  8
ASSI
100
AcDbLine
 62
250
  6
CONTINUOUS
 10
-5.3377487931
 20
16.0226384748
 11
-5.3511391613
 21
16.0296787907
  0
LINE
  5
4B2
100
AcDbEntity
  8
0
100
AcDbLine
 62
7
  6
CONTINUOUS
 10
-10.4445748958
 20
17.6020255499
 11
-10.4906087014
 21
17.6268622533
  0
LINE
  5
4B3
100
AcDbEntity
  8
RACCORDO
100
AcDbLine
 62
250
  6
CONTINUOUS
 10
-9.2285863554
 20
18.595948637
 11
-9.2476785182
 21
18.6063322954
  0
LWPOLYLINE
  5
4B4
100
AcDbEntity
  8
ASSI
100
AcDbPolyline
 62
7
  6
CONTINUOUS
 90
7
 70
0
 10
-10.3215695362
 20
17.5423426707
 10
-10.3080782687
 20
17.5348528124
 10
-10.294823037
 20
17.5259024532
 10
-10.281803841
 20
17.5154915931
 10
-10.2690206807
 20
17.503620232
 10
-10.2564735562
 20
17.4902883699
 10
-10.2441624673
 20
17.4754960069
  0
LWPOLYLINE
  5
4B5
100
AcDbEntity
  8
DRAFT
100
AcDbPolyline
 62
7
  6
CONTINUOUS
 90
4
 70
0
 10
2.1217445973
 20
13.3709808796
 10
2.1421202739
 20
13.3595963225
 10
2.1623858085
 20
13.3496832133
 10
2.1647918422
 20
13.3486754968
  0
LWPOLYLINE
  5
4B6
100
AcDbEntity
  8
RACCORDO
100
AcDbPolyline
 62
7
  6
CONTINUOUS
 90
10
 70
0
 10
-5.1191833241
 20
15.8074616335
 10
-5.1490737562
 20
15.8263179266
 10
-5.178294621
 20
15.8451339334
 10
-5.2068453696
 20
15.863910038
 10
-5.234759175
 20
15.8825754665
 10
-5.262001741
 20
15.9012018004
 10
-5.2884715367
 20
15.9200027464
 10
-5.3141701813
 20
15.9390042329
 10
-5.339095454
 20
15.9581806497
 10
-5.3525952923
 20
15.9689810447
  0
LWPOLYLINE
  5
4B7
100
AcDbEntity
  8
ASSI
100
AcDbPolyline
 62
7
  6
CONTINUOUS
 90
10
 70
0
 10
-5.1191833241
 20
15.8074616335
 10
-5.1490737562
 20
15.8263179266
 10
-5.178294621
 20
15.8451339334
 10
-5.2068453696
 20
15.863910038
 10
-5.234759175
 20
15.8825754665
 10
-5.262001741
 20
15.9012018004
 10
-5.2884715367
 20
15.9200027464
 10
-5.3141701813
 20
15.9390042329
 10
-5.339095454
 20
15.9581806497
 10
-5.3526171295
 20
15.9689987937
  0
LWPOLYLINE
  5
4B8
100
AcDbEntity
  8
SMUSSO
100
AcDbPolyline
 62
7
  6
CONTINUOUS
 90
32
 70
0
 10
-8.5539230166
 20
21.5625055009
 10
-8.5324942604
 20
21.5471625419
 10
-8.4222259528
 20
21.4737492229
 10
-8.303224429
 20
21.4031824404
 10
-8.1767149071
 20
21.336209151
 10
-8.0426058656
 20
21.2728731587
 10
-7.9009888261
 20
21.2131306595
 10
-7.7533635712
 20
21.1575971974
 10
-7.5997222306
 20
21.1063342916
 10
-7.4400726746
 20
21.0592804228
 10
-7.2759382972
 20
21.0168665767
 10
-7.1072836526
 20
20.9791305221
 10
-6.9341441865
 20
20.9460344902
 10
-6.7581496307
 20
20.9178961597
 10
-6.5792589062
 20
20.8947556532
 10
-6.397513092
 20
20.8765728481
 10
-6.2146651562
 20
20.8635450564
 10
-6.0306229113
 20
20.8557276302
 10
-5.8454785449
 20
20.8530652173
 10
-5.661261588
 20
20.8555890728
 10
-5.4780576288
 20
20.8633580509
 10
-5.2957810791
 20
20.8763132974
 10
-5.1162047053
 20
20.8943095044
 10
-4.9393497923
 20
20.9173955688
 10
-4.7651950551
 20
20.9455225937
 10
-4.5954494049
 20
20.9783985809
 10
-4.4302433619
 20
21.0160305137
 10
-4.269446406
 20
21.0584114088
 10
-4.1143758879
 20
21.1052283182
 10
-3.9654709247
 20
21.1563769259
 10
-3.8222923995
 20
21.211961548
 10
-3.6848403121
 20
21.2719821844
  0
LWPOLYLINE
  5
4B9
100
AcDbEntity
  8
ASSI
100
AcDbPolyline
 62
7
  6
CONTINUOUS
 90
32
 70
0
 10
-8.5539229843
 20
21.5625054775
 10
-8.5324942604
 20
21.5471625419
 10
-8.4222259528
 20
21.4737492229
 10
-8.303224429
 20
21.4031824404
 10
-8.1767149071
 20
21.336209151
 10
-8.0426058656
 20
21.2728731587
 10
-7.9009888261
 20
21.2131306595
 10
-7.7533635712
 20
21.1575971974
 10
-7.5997222306
 20
21.1063342916
 10
-7.4400726746
 20
21.0592804228
 10
-7.2759382972
 20
21.0168665767
 10
-7.1072836526
 20
20.9791305221
 10
-6.9341441865
 20
20.9460344902
 10
-6.7581496307
 20
20.9178961597
 10
-6.5792589062
 20
20.8947556532
 10
-6.397513092
 20
20.8765728481
 10
-6.2146651562
 20
20.8635450564
 10
-6.0306229113
 20
20.8557276302
 10
-5.8454785449
 20
20.8530652173
 10
-5.661261588
 20
20.8555890728
 10
-5.4780576288
 20
20.8633580509
 10
-5.2957810791
 20
20.8763132974
 10
-5.1162047053
 20
20.8943095044
 10
-4.9393497923
 20
20.9173955688
 10
-4.7651950551
 20
20.9455225937
 10
-4.5954494049
 20
20.9783985809
 10
-4.4302433619
 20
21.0160305137
 10
-4.269446406
 20
21.0584114088
 10
-4.1143758879
 20
21.1052283182
 10
-3.9654709247
 20
21.1563769259
 10
-3.8222923995
 20
21.211961548
 10
-3.6848403121
 20
21.2719821844
  0
LWPOLYLINE
  5
4BA
100
AcDbEntity
  8
ASSI
100
AcDbPolyline
 62
250
  6
CONTINUOUS
 90
10
 70
0
 10
-0.1944110886
 20
15.7754119407
 10
-0.196829988
 20
15.7771807237
 10
-0.2052444817
 20
15.7774641253
 10
-0.2191238009
 20
15.7745348853
 10
-0.2383192385
 20
15.7684243883
 10
-0.2626251285
 20
15.7591981043
 10
-0.2917810502
 20
15.7469548863
 10
-0.3254746181
 20
15.731825912
 10
-0.363344829
 20
15.7139732779
 10
-0.4049859297
 20
15.6935882625
  0
LWPOLYLINE
  5
4BB
100
AcDbEntity
  8
RACCORDO
100
AcDbPolyline
 62
250
  6
CONTINUOUS
 90
10
 70
0
 10
-0.1944072898
 20
15.775405315
 10
-0.196829988
 20
15.7771807237
 10
-0.2052444817
 20
15.7774641253
 10
-0.2191238009
 20
15.7745348853
 10
-0.2383192385
 20
15.7684243883
 10
-0.2626251285
 20
15.7591981043
 10
-0.2917810502
 20
15.7469548863
 10
-0.3254746181
 20
15.731825912
 10
-0.363344829
 20
15.7139732779
 10
-0.4049859297
 20
15.6935882625
  0
LWPOLYLINE
  5
4BC
100
AcDbEntity
  8
ASSI
100
AcDbPolyline
 62
7
  6
CONTINUOUS
 90
3
 70
0
 10
-0.4263093964
 20
16.0566247526
 10
-0.5104398096
 20
16.1202610246
 10
-0.5404788444
 20
16.1395571666
  0
LWPOLYLINE
  5
4BD
100
AcDbEntity
  8
ASSI
100
AcDbPolyline
 62
250
  6
CONTINUOUS
 90
14
 70
0
 10
0.4267263707
 20
14.6071026721
 10
0.5175577525
 20
14.538074804
 10
0.6081838387
 20
14.4774297988
 10
0.6984990456
 20
14.4252471481
 10
0.7870328537
 20
14.3816518938
 10
0.8738526327
 20
14.3468806908
 10
0.9589643182
 20
14.3207375722
 10
1.0408042758
 20
14.302696567
 10
1.1191095577
 20
14.293007693
 10
1.194193427
 20
14.2914459285
 10
1.2653494108
 20
14.2967681955
 10
1.3323488363
 20
14.3085628711
 10
1.3954426301
 20
14.3272507723
 10
1.4546366434
 20
14.352833636
  0
LINE
  5
4BE
100
AcDbEntity
  8
RACCORDO
100
AcDbLine
 62
7
  6
CONTINUOUS
 10
-5.7630093972
 20
19.071247196
 11
-5.3970135584
 21
18.7870115071
  0
LINE
  5
4BF
100
AcDbEntity
  8
ASSI
100
AcDbLine
 62
7
  6
CONTINUOUS
 10
-5.7630093972
 20
19.071247196
 11
-5.3873051497
 21
18.7794718688
  0
LINE
  5
4C0
100
AcDbEntity
  8
RACCORDO
100
AcDbLine
 62
7
  6
CONTINUOUS
 10
-0.4030433392
 20
16.0362520617
 11
-0.4689338508
 21
16.0907145951
  0
LINE
  5
4C1
100
AcDbEntity
  8
0
100
AcDbLine
 62
7
  6
CONTINUOUS
 10
0.458902611
 20
16.4619451169
 11
0.6549261311
 21
16.2809141092
  0
LINE
  5
4C2
100
AcDbEntity
  8
ASSI
100
AcDbLine
 62
7
  6
CONTINUOUS
 10
-0.3482911024
 20
15.98278222
 11
-0.4263093964
 21
16.0566247526
  0
LINE
  5
4C3
100
AcDbEntity
  8
ASSI
100
AcDbLine
 62
7
  6
CONTINUOUS
 10
-1.3184540315
 20
16.8541161247
 11
-1.2815300023
 21
16.8180899971
  0
LWPOLYLINE
  5
4C4
100
AcDbEntity
  8
ASSI
100
AcDbPolyline
 62
7
  6
CONTINUOUS
 90
4
 70
0
 10
-1.7719267852
 20
17.1891227706
 10
-1.6888315477
 20
17.1079218093
 10
-1.5961555715
 20
17.028812912
 10
-1.5161751028
 20
16.9678934867
  0
LINE
  5
4C5
100
AcDbEntity
  8
RACCORDO
100
AcDbLine
 62
7
  6
CONTINUOUS
 10
-0.3409078532
 20
15.9749284236
 11
-0.4030433392
 21
16.0362520617
  0
LWPOLYLINE
  5
4C6
100
AcDbEntity
  8
RACCORDO
100
AcDbPolyline
 62
250
  6
CONTINUOUS
 90
9
 70
0
 10
-0.5357723878
 20
16.1363172333
 10
-0.5213001112
 20
16.1202410931
 10
-0.5112238765
 20
16.0976716199
 10
-0.5056766173
 20
16.0689066388
 10
-0.5047315058
 20
16.034325743
 10
-0.5084009879
 20
15.9943852844
 10
-0.5166366199
 20
15.9496123515
 10
-0.529329708
 20
15.9005978139
 10
-0.546312743
 20
15.8479885243
  0
LWPOLYLINE
  5
4C7
100
AcDbEntity
  8
SMUSSO
100
AcDbPolyline
 62
7
  6
CONTINUOUS
 90
3
 70
0
 10
-1.3804971231
 20
16.9242711558
 10
-1.3184540315
 20
16.8541161247
 10
-1.2815300023
 20
16.8180899971
  0
LINE
  5
4C8
100
AcDbEntity
  8
ASSI
100
AcDbLine
 62
7
  6
CONTINUOUS
 10
-1.3804971231
 20
16.9242711558
 11
-1.3184540315
 21
16.8541161247
  0
LINE
  5
4C9
100
AcDbEntity
  8
ASSI
100
AcDbLine
 62
7
  6
CONTINUOUS
 10
-0.2785485061
 20
15.9014566926
 11
-0.3482911024
 21
15.98278222
  0
LWPOLYLINE
  5
4CA
100
AcDbEntity
  8
DRAFT
100
AcDbPolyline
 62
7
  6
CONTINUOUS
 90
10
 70
0
 10
5.9684018523
 20
9.0184089839
 10
5.9167641637
 20
9.0871388303
 10
5.8650169508
 20
9.1557223375
 10
5.8131602134
 20
9.2241595054
 10
5.7611934306
 20
9.2924510158
 10
5.7091171234
 20
9.360596187
 10
5.6569328547
 20
9.4285929736
 10
5.6046411457
 20
9.4964406939
 10
5.5522414752
 20
9.5641400297
 10
5.4997338433
 20
9.6316909809
  0
LINE
  5
4CB
100
AcDbEntity
  8
DRAFT
100
AcDbLine
 62
7
  6
CONTINUOUS
 10
6.4866061306
 20
8.3121206396
 11
6.4160730501
 21
8.4100632266
  0
LINE
  5
4CC
100
AcDbEntity
  8
DRAFT
100
AcDbLine
 62
7
  6
CONTINUOUS
 10
6.5569124782
 20
8.2139104579
 11
6.4866061306
 21
8.3121206396
  0
LINE
  5
4CD
100
AcDbEntity
  8
DRAFT
100
AcDbLine
 62
7
  6
CONTINUOUS
 10
6.6269907211
 20
8.1154345978
 11
6.5569124782
 21
8.2139104579
  0
LWPOLYLINE
  5
4CE
100
AcDbEntity
  8
0
100
AcDbPolyline
 62
7
  6
CONTINUOUS
 90
7
 70
0
 10
10.1778562351
 20
0.8475115178
 10
10.163163977
 20
0.889958197
 10
10.1488683866
 20
0.9319063506
 10
10.1349671879
 20
0.9734200635
 10
10.1215791079
 20
1.014522547
 10
10.1089244451
 20
1.0551692868
 10
10.0971723635
 20
1.0953321634
  0
LWPOLYLINE
  5
4CF
100
AcDbEntity
  8
0
100
AcDbPolyline
 62
7
  6
CONTINUOUS
 90
9
 70
0
 10
10.3074371362
 20
0.4426144663
 10
10.2949415709
 20
0.4896067984
 10
10.2815482727
 20
0.5360962439
 10
10.2674609907
 20
0.5821036147
 10
10.2529134967
 20
0.627654682
 10
10.2380640946
 20
0.6727248492
 10
10.2229825443
 20
0.7172586285
 10
10.2078464106
 20
0.761206965
 10
10.1778562351
 20
0.8475115178
  0
LWPOLYLINE
  5
4D0
100
AcDbEntity
  8
DRAFT
100
AcDbPolyline
 62
7
  6
CONTINUOUS
 90
25
 70
0
 10
8.8086725761
 20
10.3435890107
 10
8.8147020961
 20
10.3166797217
 10
8.821782287
 20
10.2898575233
 10
8.829913149
 20
10.2631224154
 10
8.8391286113
 20
10.2363870583
 10
8.8493947447
 20
10.2097387917
 10
8.8606097611
 20
10.1834396343
 10
8.8727829899
 20
10.1574931241
 10
8.8859051016
 20
10.1318957231
 10
8.8998463202
 20
10.1068988358
 10
8.9146146518
 20
10.0825085215
 10
8.9302020902
 20
10.058718721
 10
8.9464548408
 20
10.0357626609
 10
8.9633790899
 20
10.0136489087
 10
8.9809686512
 20
9.9923688969
 10
8.9990511712
 20
9.9721301491
 10
9.0176313934
 20
9.9529427721
 10
9.0367045744
 20
9.9347966591
 10
9.0560841309
 20
9.9178690127
 10
9.0757729918
 20
9.9021716445
 10
9.0957682283
 20
9.8876927429
 10
9.1158744698
 20
9.8745740759
 10
9.136026593
 20
9.8628628996
 10
9.1562897212
 20
9.852511958
 10
9.1766638546
 20
9.8435212509
  0
LWPOLYLINE
  5
4D1
100
AcDbEntity
  8
RACCORDO
100
AcDbPolyline
 62
7
  6
CONTINUOUS
 90
3
 70
0
 10
9.2265897105
 20
16.4162522468
 10
9.1981475498
 20
16.5697950682
 10
9.1601879617
 20
16.7227973814
  0
LINE
  5
4D2
100
AcDbEntity
  8
ASSI
100
AcDbLine
 62
7
  6
CONTINUOUS
 10
9.2302682108
 20
16.3914254258
 11
9.2002995708
 21
16.559775835
  0
LINE
  5
4D3
100
AcDbEntity
  8
RACCORDO
100
AcDbLine
 62
7
  6
CONTINUOUS
 10
9.2451104852
 20
16.2628658687
 11
9.2265897105
 21
16.4162522468
  0
LINE
  5
4D4
100
AcDbEntity
  8
RACCORDO
100
AcDbLine
 62
7
  6
CONTINUOUS
 10
13.448719118
 20
1.988158088
 11
13.448719118
 21
-25.7201011293
  0
LINE
  5
4D5
100
AcDbEntity
  8
DRAFT
100
AcDbLine
 62
7
  6
CONTINUOUS
 10
13.6488552127
 20
-26.7179281401
 11
13.6488552127
 21
-26.5185820326
  0
LINE
  5
4D6
100
AcDbEntity
  8
DRAFT
100
AcDbLine
 62
7
  6
CONTINUOUS
 10
13.6488552127
 20
8.2433571461
 11
13.6488552127
 21
8.4427032536
  0
LWPOLYLINE
  5
4D7
100
AcDbEntity
  8
RACCORDO
100
AcDbPolyline
 62
7
  6
CONTINUOUS
 90
13
 70
0
 10
13.448719118
 20
-25.7201011293
 10
13.446522681
 20
-25.815465971
 10
13.439998556
 20
-25.9079193625
 10
13.4291467431
 20
-25.9974613037
 10
13.4139073289
 20
-26.0843984755
 10
13.3943402267
 20
-26.168424197
 10
13.3706251769
 20
-26.2486184258
 10
13.3426992555
 20
-26.3249247056
 10
13.3106253864
 20
-26.3973994926
 10
13.2747720821
 20
-26.4652921134
 10
13.23526218
 20
-26.5283523435
 10
13.1919728425
 20
-26.5868304073
 10
13.1449040698
 20
-26.6407263049
  0
LINE
  5
4D8
100
AcDbEntity
  8
0
100
AcDbLine
 62
7
  6
CONTINUOUS
 10
1.5380979133
 20
16.5842119261
 11
1.477274217
 21
16.5677466873
  0
LWPOLYLINE
  5
4D9
100
AcDbEntity
  8
ASSI
100
AcDbPolyline
 62
250
  6
CONTINUOUS
 90
7
 70
0
 10
-10.7550609632
 20
16.4526121277
 10
-10.7315417513
 20
16.4509643946
 10
-10.7087412519
 20
16.4498891544
 10
-10.6867031077
 20
16.4493309841
 10
-10.6653766998
 20
16.4492431106
 10
-10.6448247134
 20
16.4495793628
 10
-10.6250512558
 20
16.4502935883
  0
LWPOLYLINE
  5
4DA
100
AcDbEntity
  8
ASSI
100
AcDbPolyline
 62
7
  6
CONTINUOUS
 90
5
 70
0
 10
-10.812003157
 20
16.3612871533
 10
-10.7521485966
 20
16.353105861
 10
-10.6915114308
 20
16.3494050525
 10
-10.6307282573
 20
16.3501811567
 10
-10.5704718267
 20
16.3554995269
  0
LWPOLYLINE
  5
4DB
100
AcDbEntity
  8
ASSI
100
AcDbPolyline
 62
250
  6
CONTINUOUS
 90
9
 70
0
 10
-10.6066582354
 20
16.8200903897
 10
-10.6513012956
 20
16.8272899989
 10
-10.6966455359
 20
16.8375763628
 10
-10.7423174148
 20
16.8510167024
 10
-10.787928809
 20
16.8676513263
 10
-10.8334594174
 20
16.8874280573
 10
-10.8785717089
 20
16.9103880955
 10
-10.9226345273
 20
16.9366009226
 10
-10.9651215655
 20
16.9660760022
  0
LWPOLYLINE
  5
4DC
100
AcDbEntity
  8
ASSI
100
AcDbPolyline
 62
250
  6
CONTINUOUS
 90
6
 70
0
 10
-10.8811348487
 20
16.4713555817
 10
-10.8550067711
 20
16.4660100451
 10
-10.8292921837
 20
16.4615277004
 10
-10.8040013205
 20
16.4578388094
 10
-10.7792205474
 20
16.4548854595
 10
-10.7550609632
 20
16.4526121277
  0
LWPOLYLINE
  5
4DD
100
AcDbEntity
  8
RACCORDO
100
AcDbPolyline
 62
7
  6
CONTINUOUS
 90
7
 70
0
 10
-13.422728023
 20
20.7442587589
 10
-13.4463430849
 20
20.7542311405
 10
-13.472060927
 20
20.7613160434
 10
-13.4987851272
 20
20.7649357399
 10
-13.5257866999
 20
20.764923353
 10
-13.5526157252
 20
20.7612588561
 10
-13.5790807435
 20
20.7538703615
  0
LWPOLYLINE
  5
4DE
100
AcDbEntity
  8
ASSI
100
AcDbPolyline
 62
7
  6
CONTINUOUS
 90
3
 70
0
 10
-11.939421797
 20
22.0556348784
 10
-11.9894005675
 20
22.0778249469
 10
-12.0516433885
 20
22.0986255425
  0
LWPOLYLINE
  5
4DF
100
AcDbEntity
  8
RACCORDO
100
AcDbPolyline
 62
250
  6
CONTINUOUS
 90
9
 70
0
 10
-12.2526186226
 20
22.0469542631
 10
-12.2805709711
 20
22.0597193995
 10
-12.3083853386
 20
22.0696415796
 10
-12.3358855319
 20
22.0766579501
 10
-12.3628973481
 20
22.0807240652
 10
-12.3892496776
 20
22.0818141674
 10
-12.4147755885
 20
22.0799213514
 10
-12.4393133841
 20
22.0750576076
 10
-12.462707627
 20
22.0672537459
  0
LWPOLYLINE
  5
4E0
100
AcDbEntity
  8
ASSI
100
AcDbPolyline
 62
250
  6
CONTINUOUS
 90
10
 70
0
 10
-12.2526186226
 20
22.0469542631
 10
-12.2805709711
 20
22.0597193995
 10
-12.3083853386
 20
22.0696415796
 10
-12.3358855319
 20
22.0766579501
 10
-12.3628973481
 20
22.0807240652
 10
-12.3892496776
 20
22.0818141674
 10
-12.4147755885
 20
22.0799213514
 10
-12.4393133841
 20
22.0750576076
 10
-12.462707627
 20
22.0672537459
 10
-12.4720256194
 20
22.0631721333
  0
LWPOLYLINE
  5
4E1
100
AcDbEntity
  8
RACCORDO
100
AcDbPolyline
 62
250
  6
CONTINUOUS
 90
13
 70
0
 10
-12.1571100478
 20
22.0444744329
 10
-12.1646183027
 20
22.0479058875
 10
-12.1723155942
 20
22.0507708131
 10
-12.1802019221
 20
22.0530692097
 10
-12.1883418244
 20
22.0548183925
 10
-12.1966707633
 20
22.0560010463
 10
-12.2049951245
 20
22.0565652259
 10
-12.2133184925
 20
22.0564900677
 10
-12.2216372829
 20
22.0557964352
 10
-12.2297471279
 20
22.0544949739
 10
-12.2375799049
 20
22.0525892324
 10
-12.2452037365
 20
22.0500756621
 10
-12.2526186226
 20
22.0469542631
  0
LWPOLYLINE
  5
4E2
100
AcDbEntity
  8
ASSI
100
AcDbPolyline
 62
250
  6
CONTINUOUS
 90
13
 70
0
 10
-12.1571100478
 20
22.0444744329
 10
-12.1646183027
 20
22.0479058875
 10
-12.1723155942
 20
22.0507708131
 10
-12.1802019221
 20
22.0530692097
 10
-12.1883418244
 20
22.0548183925
 10
-12.1966707633
 20
22.0560010463
 10
-12.2049951245
 20
22.0565652259
 10
-12.2133184925
 20
22.0564900677
 10
-12.2216372829
 20
22.0557964352
 10
-12.2297471279
 20
22.0544949739
 10
-12.2375799049
 20
22.0525892324
 10
-12.2452037365
 20
22.0500756621
 10
-12.2526186226
 20
22.0469542631
  0
LINE
  5
4E3
100
AcDbEntity
  8
RACCORDO
100
AcDbLine
 62
7
  6
CONTINUOUS
 10
-11.9394783008
 20
22.0556631478
 11
-11.9665788086
 21
22.0683530141
  0
LWPOLYLINE
  5
4E4
100
AcDbEntity
  8
ASSI
100
AcDbPolyline
 62
250
  6
CONTINUOUS
 90
11
 70
0
 10
0.6617298945
 20
14.765295011
 10
0.7090371418
 20
14.7428174926
 10
0.7697553197
 20
14.7176313366
 10
0.827556126
 20
14.697884465
 10
0.8820223326
 20
14.683516249
 10
0.932733632
 20
14.6744411156
 10
0.9796943872
 20
14.6704125127
 10
1.0231147451
 20
14.671031916
 10
1.0629527217
 20
14.6760310559
 10
1.0989167428
 20
14.6852839431
 10
1.1308624639
 20
14.6985885651
  0
LWPOLYLINE
  5
4E5
100
AcDbEntity
  8
RACCORDO
100
AcDbPolyline
 62
250
  6
CONTINUOUS
 90
11
 70
0
 10
0.6617489382
 20
14.7652854895
 10
0.7090371418
 20
14.7428174926
 10
0.7697553197
 20
14.7176313366
 10
0.827556126
 20
14.697884465
 10
0.8820223326
 20
14.683516249
 10
0.932733632
 20
14.6744411156
 10
0.9796943872
 20
14.6704125127
 10
1.0231147451
 20
14.671031916
 10
1.0629527217
 20
14.6760310559
 10
1.0989167428
 20
14.6852839431
 10
1.1308624639
 20
14.6985885651
  0
LINE
  5
4E6
100
AcDbEntity
  8
0
100
AcDbLine
 62
7
  6
CONTINUOUS
 10
-11.3213585225
 20
19.9859902623
 11
-8.7134489051
 21
18.6820354536
  0
LINE
  5
4E7
100
AcDbEntity
  8
ASSI
100
AcDbLine
 62
7
  6
CONTINUOUS
 10
-11.3213585225
 20
19.9859902623
 11
-8.7134489051
 21
18.6820354536
  0
LINE
  5
4E8
100
AcDbEntity
  8
ASSI
100
AcDbLine
 62
7
  6
CONTINUOUS
 10
0.6616275387
 20
14.7653461931
 11
0.6617298945
 21
14.765295011
  0
LINE
  5
4E9
100
AcDbEntity
  8
0
100
AcDbLine
 62
7
  6
CONTINUOUS
 10
-12.8443187969
 20
21.5716783072
 11
-12.6648614068
 21
21.4819496121
  0
LINE
  5
4EA
100
AcDbEntity
  8
ASSI
100
AcDbLine
 62
7
  6
CONTINUOUS
 10
-12.8443187969
 20
21.5716783072
 11
-12.6648614068
 21
21.4819496121
  0
LINE
  5
4EB
100
AcDbEntity
  8
0
100
AcDbLine
 62
7
  6
CONTINUOUS
 10
-7.8565352947
 20
19.0777865561
 11
-7.6770779046
 21
18.988057861
  0
LINE
  5
4EC
100
AcDbEntity
  8
ASSI
100
AcDbLine
 62
7
  6
CONTINUOUS
 10
-7.8565352947
 20
19.0777865561
 11
-7.6770779046
 21
18.988057861
  0
LINE
  5
4ED
100
AcDbEntity
  8
DRAFT
100
AcDbLine
 62
7
  6
CONTINUOUS
 10
8.3137063537
 20
10.9926657318
 11
7.8609833993
 21
11.2190272091
  0
LINE
  5
4EE
100
AcDbEntity
  8
DRAFT
100
AcDbLine
 62
7
  6
CONTINUOUS
 10
3.4374250526
 20
13.4308063824
 11
2.9847020982
 21
13.6571678596
  0
LINE
  5
4EF
100
AcDbEntity
  8
0
100
AcDbLine
 62
7
  6
CONTINUOUS
 10
-11.3213585225
 20
20.8762021136
 11
-6.9372964792
 21
18.6841710919
  0
LINE
  5
4F0
100
AcDbEntity
  8
ASSI
100
AcDbLine
 62
7
  6
CONTINUOUS
 10
-11.3213585225
 20
20.8762021136
 11
-6.9372964792
 21
18.6841710919
  0
LINE
  5
4F1
100
AcDbEntity
  8
0
100
AcDbLine
 62
7
  6
CONTINUOUS
 10
4.5885440542
 20
12.9212508252
 11
8.9726060975
 21
10.7292198035
  0
LINE
  5
4F2
100
AcDbEntity
  8
RACCORDO
100
AcDbLine
 62
250
  6
CONTINUOUS
 10
0.1954310145
 20
15.1663042899
 11
1.1308624639
 21
14.6985885651
  0
LINE
  5
4F3
100
AcDbEntity
  8
ASSI
100
AcDbLine
 62
250
  6
CONTINUOUS
 10
0.1954310145
 20
15.1663042899
 11
1.1308624639
 21
14.6985885651
  0
LINE
  5
4F4
100
AcDbEntity
  8
DRAFT
100
AcDbLine
 62
7
  6
CONTINUOUS
 10
3.0995892319
 20
13.850429598
 11
4.8058132492
 21
12.9973175893
  0
LINE
  5
4F5
100
AcDbEntity
  8
DRAFT
100
AcDbLine
 62
7
  6
CONTINUOUS
 10
9.8826484495
 20
10.4588999892
 11
12.6712784429
 21
9.0645849925
  0
LINE
  5
4F6
100
AcDbEntity
  8
0
100
AcDbLine
 62
7
  6
CONTINUOUS
 10
5.0044384466
 20
13.0668570196
 11
9.2638184862
 21
10.9371669998
  0
LINE
  5
4F7
100
AcDbEntity
  8
0
100
AcDbLine
 62
7
  6
CONTINUOUS
 10
-10.8599530428
 20
21.0340513566
 11
-6.6215979931
 21
18.9148738317
  0
LINE
  5
4F8
100
AcDbEntity
  8
ASSI
100
AcDbLine
 62
7
  6
CONTINUOUS
 10
-10.8599530428
 20
21.0340513566
 11
-6.6215979931
 21
18.9148738317
  0
LINE
  5
4F9
100
AcDbEntity
  8
RACCORDO
100
AcDbLine
 62
250
  6
CONTINUOUS
 10
-2.7486499666
 20
17.3402443923
 11
-5.5751828815
 21
18.7535108498
  0
LINE
  5
4FA
100
AcDbEntity
  8
ASSI
100
AcDbLine
 62
250
  6
CONTINUOUS
 10
-2.7486499666
 20
17.3402443923
 11
-5.5751828815
 21
18.7535108498
  0
LINE
  5
4FB
100
AcDbEntity
  8
RACCORDO
100
AcDbLine
 62
250
  6
CONTINUOUS
 10
-10.0846594699
 20
21.008249144
 11
-12.1571100478
 21
22.0444744329
  0
LINE
  5
4FC
100
AcDbEntity
  8
ASSI
100
AcDbLine
 62
250
  6
CONTINUOUS
 10
-10.0846594699
 20
21.008249144
 11
-12.1571100478
 21
22.0444744329
  0
LINE
  5
4FD
100
AcDbEntity
  8
RACCORDO
100
AcDbLine
 62
7
  6
CONTINUOUS
 10
-9.8277601908
 20
20.9996993894
 11
-11.9396656392
 21
22.0556521136
  0
LINE
  5
4FE
100
AcDbEntity
  8
ASSI
100
AcDbLine
 62
7
  6
CONTINUOUS
 10
-9.8277601908
 20
20.9996993894
 11
-11.9396656392
 21
22.0556521136
  0
LINE
  5
4FF
100
AcDbEntity
  8
0
100
AcDbLine
 62
7
  6
CONTINUOUS
 10
-9.6050927874
 20
20.9922888911
 11
-5.7630093972
 21
19.071247196
  0
LINE
  5
500
100
AcDbEntity
  8
ASSI
100
AcDbLine
 62
7
  6
CONTINUOUS
 10
-9.6050927874
 20
20.9922888911
 11
-5.7630093972
 21
19.071247196
  0
LINE
  5
501
100
AcDbEntity
  8
0
100
AcDbLine
 62
7
  6
CONTINUOUS
 10
0.458902611
 20
16.4619451169
 11
-0.2480663291
 21
16.8154295869
  0
LINE
  5
502
100
AcDbEntity
  8
0
100
AcDbLine
 62
7
  6
CONTINUOUS
 10
0.9538773578
 20
16.7094324903
 11
0.2469084177
 21
17.0629169604
  0
LINE
  5
503
100
AcDbEntity
  8
RACCORDO
100
AcDbLine
 62
7
  6
CONTINUOUS
 10
-5.3985157738
 20
18.7850771809
 11
-2.5309429068
 21
17.3512904743
  0
LINE
  5
504
100
AcDbEntity
  8
ASSI
100
AcDbLine
 62
7
  6
CONTINUOUS
 10
-5.3985157738
 20
18.7850771809
 11
-2.530787188
 21
17.3512122098
  0
LINE
  5
505
100
AcDbEntity
  8
ASSI
100
AcDbLine
 62
7
  6
CONTINUOUS
 10
0.6616265654
 20
14.7653485692
 11
0.6212973578
 21
14.7869175807
  0
LINE
  5
506
100
AcDbEntity
  8
RACCORDO
100
AcDbLine
 62
7
  6
CONTINUOUS
 10
-2.5021094094
 20
17.3359261252
 11
-2.530900078
 21
17.3513740942
  0
LWPOLYLINE
  5
507
100
AcDbEntity
  8
RACCORDO
100
AcDbPolyline
 62
7
  6
CONTINUOUS
 90
15
 70
0
 10
0.6617480702
 20
14.765287818
 10
0.6153761645
 20
14.790313611
 10
0.5675380115
 20
14.8198112262
 10
0.5183403595
 20
14.8538314706
 10
0.468352948
 20
14.8920762063
 10
0.4179923223
 20
14.9342725162
 10
0.3665548444
 20
14.981163997
 10
0.3143383624
 20
15.0327349089
 10
0.2617200037
 20
15.0888427965
 10
0.2081206914
 20
15.1504303764
 10
0.1538048111
 20
15.2176687366
 10
0.0993104774
 20
15.2903798156
 10
0.0446061039
 20
15.3691582504
 10
-0.0099262883
 20
15.4541439125
 10
-0.0654635236
 20
15.5483278425
  0
LWPOLYLINE
  5
508
100
AcDbEntity
  8
0
100
AcDbPolyline
 62
7
  6
CONTINUOUS
 90
10
 70
0
 10
-7.6770779046
 20
18.988057861
 10
-7.6307190475
 20
18.9629760731
 10
-7.5849416729
 20
18.9345898239
 10
-7.5397457806
 20
18.9028991133
 10
-7.4949451213
 20
18.8677419423
 10
-7.4507259444
 20
18.82928031
 10
-7.4076469985
 20
18.7880002131
 10
-7.3658945329
 20
18.7440636506
 10
-7.3252822982
 20
18.6973086236
 10
-7.2858102945
 20
18.6477351319
  0
LWPOLYLINE
  5
509
100
AcDbEntity
  8
ASSI
100
AcDbPolyline
 62
7
  6
CONTINUOUS
 90
10
 70
0
 10
-7.6770779046
 20
18.988057861
 10
-7.6307190475
 20
18.9629760731
 10
-7.5849416729
 20
18.9345898239
 10
-7.5397457806
 20
18.9028991133
 10
-7.4949451213
 20
18.8677419423
 10
-7.4507259444
 20
18.82928031
 10
-7.4076469985
 20
18.7880002131
 10
-7.3658945329
 20
18.7440636506
 10
-7.3252822982
 20
18.6973086236
 10
-7.2858102945
 20
18.6477351319
  0
LWPOLYLINE
  5
50A
100
AcDbEntity
  8
RACCORDO
100
AcDbPolyline
 62
250
  6
CONTINUOUS
 90
10
 70
0
 10
-2.7456683301
 20
17.2934791241
 10
-2.717381912
 20
17.2781304761
 10
-2.6893151459
 20
17.2601163228
 10
-2.661645819
 20
17.2395507769
 10
-2.6345491924
 20
17.2165641172
 10
-2.6081968909
 20
17.1913019632
 10
-2.5827558159
 20
17.1639243528
 10
-2.5583870887
 20
17.1346047281
 10
-2.5352450299
 20
17.1035288367
 10
-2.5134761825
 20
17.0708935549
  0
LWPOLYLINE
  5
50B
100
AcDbEntity
  8
ASSI
100
AcDbPolyline
 62
250
  6
CONTINUOUS
 90
10
 70
0
 10
-2.7456683301
 20
17.2934791241
 10
-2.717381912
 20
17.2781304761
 10
-2.6893151459
 20
17.2601163228
 10
-2.661645819
 20
17.2395507769
 10
-2.6345491924
 20
17.2165641172
 10
-2.6081968909
 20
17.1913019632
 10
-2.5827558159
 20
17.1639243528
 10
-2.5583870887
 20
17.1346047281
 10
-2.5352450299
 20
17.1035288367
 10
-2.5134761825
 20
17.0708935549
  0
LWPOLYLINE
  5
50C
100
AcDbEntity
  8
RACCORDO
100
AcDbPolyline
 62
250
  6
CONTINUOUS
 90
10
 70
0
 10
1.1308624639
 20
14.6985885651
 10
1.1720212919
 20
14.6758827918
 10
1.2127285476
 20
14.6485227477
 10
1.2526057091
 20
14.6167628438
 10
1.2912819731
 20
14.5808984042
 10
1.3283977031
 20
14.5412629191
 10
1.3636077734
 20
14.4982249447
 10
1.3965847784
 20
14.4521846755
 10
1.4270220769
 20
14.4035702231
 10
1.4546366434
 20
14.352833636
  0
LWPOLYLINE
  5
50D
100
AcDbEntity
  8
ASSI
100
AcDbPolyline
 62
250
  6
CONTINUOUS
 90
10
 70
0
 10
1.1308624639
 20
14.6985885651
 10
1.1720212919
 20
14.6758827918
 10
1.2127285476
 20
14.6485227477
 10
1.2526057091
 20
14.6167628438
 10
1.2912819731
 20
14.5808984042
 10
1.3283977031
 20
14.5412629191
 10
1.3636077734
 20
14.4982249447
 10
1.3965847784
 20
14.4521846755
 10
1.4270220769
 20
14.4035702231
 10
1.4546366434
 20
14.352833636
  0
LWPOLYLINE
  5
50E
100
AcDbEntity
  8
ASSI
100
AcDbPolyline
 62
7
  6
CONTINUOUS
 90
3
 70
0
 10
-2.4900157802
 20
17.3288035087
 10
-2.5263572617
 20
17.3490719998
 10
-2.5307442689
 20
17.3512959382
  0
LINE
  5
50F
100
AcDbEntity
  8
RACCORDO
100
AcDbLine
 62
7
  6
CONTINUOUS
 10
-2.4899866995
 20
17.3287858097
 11
-2.5021094094
 21
17.3359261252
  0
LINE
  5
510
100
AcDbEntity
  8
ASSI
100
AcDbLine
 62
7
  6
CONTINUOUS
 10
-2.155532151
 20
17.1258673836
 11
-2.4897339712
 21
17.3286329751
  0
LINE
  5
511
100
AcDbEntity
  8
RACCORDO
100
AcDbLine
 62
7
  6
CONTINUOUS
 10
-2.4894492701
 20
17.3284590713
 11
-2.4897025175
 21
17.3286138502
  0
LWPOLYLINE
  5
512
100
AcDbEntity
  8
ASSI
100
AcDbPolyline
 62
7
  6
CONTINUOUS
 90
6
 70
0
 10
-0.9018318349
 20
16.3611687206
 10
-1.1534379639
 20
16.5151626349
 10
-1.4046346428
 20
16.6686426146
 10
-1.6553970078
 20
16.8215947206
 10
-1.9057033848
 20
16.974006964
 10
-2.155532151
 20
17.1258673836
  0
LINE
  5
513
100
AcDbEntity
  8
ASSI
100
AcDbLine
 62
7
  6
CONTINUOUS
 10
-0.5404865148
 20
16.1395478708
 11
-0.9018318349
 21
16.3611687206
  0
LWPOLYLINE
  5
514
100
AcDbEntity
  8
RACCORDO
100
AcDbPolyline
 62
7
  6
CONTINUOUS
 90
9
 70
0
 10
-0.5404801827
 20
16.1395579887
 10
-0.6906604362
 20
16.2317188846
 10
-0.9299084978
 20
16.3783659457
 10
-1.1688088414
 20
16.5245617262
 10
-1.4073383468
 20
16.6702931334
 10
-1.6454757447
 20
16.8155482468
 10
-1.8832024791
 20
16.9603168037
 10
-2.1205000154
 20
17.1045885483
 10
-2.4893809435
 20
17.3283924773
  0
LWPOLYLINE
  5
515
100
AcDbEntity
  8
ASSI
100
AcDbPolyline
 62
7
  6
CONTINUOUS
 90
13
 70
0
 10
0.6212973578
 20
14.7869175807
 10
0.5648251209
 20
14.821591473
 10
0.5076113472
 20
14.8617313903
 10
0.4497271288
 20
14.9072556904
 10
0.3907444844
 20
14.9586326674
 10
0.3313121231
 20
15.015527603
 10
0.2717870658
 20
15.0777803877
 10
0.211181732
 20
15.1467886662
 10
0.1495273524
 20
15.2231803394
 10
0.0879387219
 20
15.3062592419
 10
0.0271562485
 20
15.3956119558
 10
-0.0321690079
 20
15.4908700794
 10
-0.0654640974
 20
15.5483288648
  0
LWPOLYLINE
  5
516
100
AcDbEntity
  8
RACCORDO
100
AcDbPolyline
 62
250
  6
CONTINUOUS
 90
6
 70
0
 10
-2.513476981
 20
17.0708926288
 10
-2.200668298
 20
16.8774774396
 10
-1.8816690371
 20
16.6799545205
 10
-1.5566034014
 20
16.4782817013
 10
-1.2255997334
 20
16.2724198138
 10
-0.8887905742
 20
16.062332919
  0
LWPOLYLINE
  5
517
100
AcDbEntity
  8
ASSI
100
AcDbPolyline
 62
250
  6
CONTINUOUS
 90
6
 70
0
 10
-2.513476981
 20
17.0708926288
 10
-2.200668298
 20
16.8774774396
 10
-1.8816690371
 20
16.6799545205
 10
-1.5566034014
 20
16.4782817013
 10
-1.2255997334
 20
16.2724198138
 10
-0.8887905742
 20
16.062332919
  0
LINE
  5
518
100
AcDbEntity
  8
RACCORDO
100
AcDbLine
 62
250
  6
CONTINUOUS
 10
-0.8887905742
 20
16.062332919
 11
-0.5463127215
 21
15.8479885397
  0
LINE
  5
519
100
AcDbEntity
  8
ASSI
100
AcDbLine
 62
250
  6
CONTINUOUS
 10
-0.8887905742
 20
16.062332919
 11
-0.5463127215
 21
15.8479885397
  0
LWPOLYLINE
  5
51A
100
AcDbEntity
  8
RACCORDO
100
AcDbPolyline
 62
250
  6
CONTINUOUS
 90
10
 70
0
 10
-0.0654672934
 20
15.5483298811
 10
-0.0677605744
 20
15.5498764163
 10
-0.0759688629
 20
15.5497950884
 10
-0.089664035
 20
15.5465400896
 10
-0.1086992763
 20
15.540146341
 10
-0.1328705667
 20
15.5306823905
 10
-0.1619188528
 20
15.5182496833
 10
-0.1955328372
 20
15.5029814685
 10
-0.2333523212
 20
15.485041368
 10
-0.2749720563
 20
15.4646216261
  0
LWPOLYLINE
  5
51B
100
AcDbEntity
  8
ASSI
100
AcDbPolyline
 62
250
  6
CONTINUOUS
 90
10
 70
0
 10
-0.0654672934
 20
15.5483298811
 10
-0.0677605744
 20
15.5498764163
 10
-0.0759688629
 20
15.5497950884
 10
-0.089664035
 20
15.5465400896
 10
-0.1086992763
 20
15.540146341
 10
-0.1328705667
 20
15.5306823905
 10
-0.1619188528
 20
15.5182496833
 10
-0.1955328372
 20
15.5029814685
 10
-0.2333523212
 20
15.485041368
 10
-0.2749720563
 20
15.4646216261
  0
LWPOLYLINE
  5
51C
100
AcDbEntity
  8
RACCORDO
100
AcDbPolyline
 62
250
  6
CONTINUOUS
 90
10
 70
0
 10
-0.5463127215
 20
15.8479885397
 10
-0.5288938242
 20
15.8362140053
 10
-0.5117930789
 20
15.8229843669
 10
-0.4950117115
 20
15.8082987298
 10
-0.4784069528
 20
15.7920069641
 10
-0.4621244092
 20
15.7742571328
 10
-0.4465972235
 20
15.755496067
 10
-0.4319699191
 20
15.7358725665
 10
-0.4180992399
 20
15.7152368251
 10
-0.4049859297
 20
15.6935882625
  0
LWPOLYLINE
  5
51D
100
AcDbEntity
  8
ASSI
100
AcDbPolyline
 62
250
  6
CONTINUOUS
 90
10
 70
0
 10
-0.5463127215
 20
15.8479885397
 10
-0.5288938242
 20
15.8362140053
 10
-0.5117930789
 20
15.8229843669
 10
-0.4950117115
 20
15.8082987298
 10
-0.4784069528
 20
15.7920069641
 10
-0.4621244092
 20
15.7742571328
 10
-0.4465972235
 20
15.755496067
 10
-0.4319699191
 20
15.7358725665
 10
-0.4180992399
 20
15.7152368251
 10
-0.4049859297
 20
15.6935882625
  0
LINE
  5
51E
100
AcDbEntity
  8
RACCORDO
100
AcDbLine
 62
7
  6
CONTINUOUS
 10
-0.4689338508
 20
16.0907145951
 11
-0.5405538935
 21
16.1396031845
  0
LWPOLYLINE
  5
51F
100
AcDbEntity
  8
ASSI
100
AcDbPolyline
 62
250
  6
CONTINUOUS
 90
10
 70
0
 10
-0.5404788444
 20
16.1395571666
 10
-0.5357723878
 20
16.1363172333
 10
-0.5213001112
 20
16.1202410931
 10
-0.5112238765
 20
16.0976716199
 10
-0.5056766173
 20
16.0689066388
 10
-0.5047315058
 20
16.034325743
 10
-0.5084009879
 20
15.9943852844
 10
-0.5166366199
 20
15.9496123515
 10
-0.529329708
 20
15.9005978139
 10
-0.546312743
 20
15.8479885243
  0
LWPOLYLINE
  5
520
100
AcDbEntity
  8
SMUSSO
100
AcDbPolyline
 62
7
  6
CONTINUOUS
 90
32
 70
0
 10
-1.5161751351
 20
16.9678935102
 10
-1.4947463788
 20
16.9525505511
 10
-1.3844780713
 20
16.8791372321
 10
-1.2654765475
 20
16.8085704496
 10
-1.1389670255
 20
16.7415971602
 10
-1.0048579841
 20
16.678261168
 10
-0.8632409446
 20
16.6185186688
 10
-0.7156156897
 20
16.5629852066
 10
-0.5619743491
 20
16.5117223008
 10
-0.4023247931
 20
16.464668432
 10
-0.2381904157
 20
16.4222545859
 10
-0.0695357711
 20
16.3845185313
 10
0.103603695
 20
16.3514224994
 10
0.2795982508
 20
16.323284169
 10
0.4584889753
 20
16.3001436624
 10
0.6402347896
 20
16.2819608574
 10
0.8230827253
 20
16.2689330656
 10
1.0071249702
 20
16.2611156394
 10
1.1922693367
 20
16.2584532266
 10
1.3764862936
 20
16.2609770821
 10
1.5596902527
 20
16.2687460602
 10
1.7419668024
 20
16.2817013066
 10
1.9215431762
 20
16.2996975136
 10
2.0983980893
 20
16.322783578
 10
2.2725528264
 20
16.3509106029
 10
2.4422984766
 20
16.3837865901
 10
2.6075045196
 20
16.4214185229
 10
2.7683014756
 20
16.463799418
 10
2.9233719936
 20
16.5106163274
 10
3.0722769568
 20
16.5617649352
 10
3.2154554821
 20
16.6173495572
 10
3.3529075694
 20
16.6773701936
  0
LWPOLYLINE
  5
521
100
AcDbEntity
  8
ASSI
100
AcDbPolyline
 62
7
  6
CONTINUOUS
 90
32
 70
0
 10
-1.5161751028
 20
16.9678934867
 10
-1.4947463788
 20
16.9525505511
 10
-1.3844780713
 20
16.8791372321
 10
-1.2654765475
 20
16.8085704496
 10
-1.1389670255
 20
16.7415971602
 10
-1.0048579841
 20
16.678261168
 10
-0.8632409446
 20
16.6185186688
 10
-0.7156156897
 20
16.5629852066
 10
-0.5619743491
 20
16.5117223008
 10
-0.4023247931
 20
16.464668432
 10
-0.2381904157
 20
16.4222545859
 10
-0.0695357711
 20
16.3845185313
 10
0.103603695
 20
16.3514224994
 10
0.2795982508
 20
16.323284169
 10
0.4584889753
 20
16.3001436624
 10
0.6402347896
 20
16.2819608574
 10
0.8230827253
 20
16.2689330656
 10
1.0071249702
 20
16.2611156394
 10
1.1922693367
 20
16.2584532266
 10
1.3764862936
 20
16.2609770821
 10
1.5596902527
 20
16.2687460602
 10
1.7419668024
 20
16.2817013066
 10
1.9215431762
 20
16.2996975136
 10
2.0983980893
 20
16.322783578
 10
2.2725528264
 20
16.3509106029
 10
2.4422984766
 20
16.3837865901
 10
2.6075045196
 20
16.4214185229
 10
2.7683014756
 20
16.463799418
 10
2.9233719936
 20
16.5106163274
 10
3.0722769568
 20
16.5617649352
 10
3.2154554821
 20
16.6173495572
 10
3.3529075694
 20
16.6773701936
  0
LINE
  5
522
100
AcDbEntity
  8
DRAFT
100
AcDbLine
 62
7
  6
CONTINUOUS
 10
13.4101900312
 20
8.6166275212
 11
13.6488552127
 21
8.4427032536
  0
LINE
  5
523
100
AcDbEntity
  8
DRAFT
100
AcDbLine
 62
7
  6
CONTINUOUS
 10
9.8826484495
 20
10.4588999892
 11
9.2638184862
 21
10.9371669998
  0
LINE
  5
524
100
AcDbEntity
  8
RACCORDO
100
AcDbLine
 62
7
  6
CONTINUOUS
 10
3.5173700314
 20
16.7533244086
 11
3.472573423
 21
16.789734124
  0
LINE
  5
525
100
AcDbEntity
  8
RACCORDO
100
AcDbLine
 62
250
  6
CONTINUOUS
 10
3.3675418488
 20
16.7918271126
 11
3.4142237563
 21
16.7531743007
  0
LINE
  5
526
100
AcDbEntity
  8
RACCORDO
100
AcDbLine
 62
250
  6
CONTINUOUS
 10
3.4142237563
 20
16.7531743007
 11
3.4483615745
 21
16.7214540164
  0
LWPOLYLINE
  5
527
100
AcDbEntity
  8
DRAFT
100
AcDbPolyline
 62
7
  6
CONTINUOUS
 90
10
 70
0
 10
8.8086725761
 20
10.3435890107
 10
8.7541667513
 20
10.4163651735
 10
8.6995378573
 20
10.4889778125
 10
8.6447858943
 20
10.5614269275
 10
8.589910244
 20
10.6337133293
 10
8.5349115247
 20
10.7058362072
 10
8.4797915906
 20
10.7777931296
 10
8.4245510597
 20
10.8495832859
 10
8.3691893141
 20
10.9212074866
 10
8.3137063537
 20
10.9926657318
  0
LWPOLYLINE
  5
528
100
AcDbEntity
  8
RACCORDO
100
AcDbPolyline
 62
250
  6
CONTINUOUS
 90
3
 70
0
 10
6.3042225372
 20
18.0897385457
 10
6.3187013287
 20
18.0676172977
 10
6.329531563
 20
18.0520737957
  0
LWPOLYLINE
  5
529
100
AcDbEntity
  8
ASSI
100
AcDbPolyline
 62
250
  6
CONTINUOUS
 90
3
 70
0
 10
6.3042225372
 20
18.0897385457
 10
6.3187013287
 20
18.0676172977
 10
6.329531563
 20
18.0520737957
  0
LWPOLYLINE
  5
52A
100
AcDbEntity
  8
DRAFT
100
AcDbPolyline
 62
7
  6
CONTINUOUS
 90
10
 70
0
 10
10.4723154398
 20
7.9517381219
 10
10.3325893605
 20
8.1663412527
 10
10.1917951427
 20
8.3798567643
 10
10.0499327865
 20
8.5922846568
 10
9.9069898433
 20
8.8036431063
 10
9.7629787616
 20
9.0139139367
 10
9.6179368873
 20
9.2230426192
 10
9.471876669
 20
9.4310109776
 10
9.3247856581
 20
9.6378371882
 10
9.1766638546
 20
9.8435212509
  0
LINE
  5
52B
100
AcDbEntity
  8
ASSI
100
AcDbLine
 62
7
  6
CONTINUOUS
 10
6.4233390684
 20
18.0953972104
 11
6.3905862942
 21
18.1459475931
  0
LINE
  5
52C
100
AcDbEntity
  8
ASSI
100
AcDbLine
 62
7
  6
CONTINUOUS
 10
6.2475722659
 20
18.3686875338
 11
6.3905862942
 21
18.1459475931
  0
LINE
  5
52D
100
AcDbEntity
  8
RACCORDO
100
AcDbLine
 62
7
  6
CONTINUOUS
 10
6.4229203898
 20
18.0952038508
 11
6.3905862942
 21
18.1459475931
  0
LINE
  5
52E
100
AcDbEntity
  8
RACCORDO
100
AcDbLine
 62
7
  6
CONTINUOUS
 10
6.2846391465
 20
18.3139685782
 11
6.3905862942
 21
18.1459475931
  0
LINE
  5
52F
100
AcDbEntity
  8
ASSI
100
AcDbLine
 62
250
  6
CONTINUOUS
 10
6.246191623
 20
18.1845928599
 11
6.3042225372
 21
18.0897385457
  0
LINE
  5
530
100
AcDbEntity
  8
RACCORDO
100
AcDbLine
 62
7
  6
CONTINUOUS
 10
3.3765496913
 20
20.4245760221
 11
3.3828268127
 21
20.4137472465
  0
LINE
  5
531
100
AcDbEntity
  8
ASSI
100
AcDbLine
 62
7
  6
CONTINUOUS
 10
3.3765496913
 20
20.4245760221
 11
3.3828268127
 21
20.4137472465
  0
LWPOLYLINE
  5
532
100
AcDbEntity
  8
RACCORDO
100
AcDbPolyline
 62
7
  6
CONTINUOUS
 90
10
 70
0
 10
13.1449040698
 20
3.2125983119
 10
12.912810017
 20
3.6821118976
 10
12.6754711461
 20
4.1486362993
 10
12.432887457
 20
4.6121715168
 10
12.1849643449
 20
5.0728916291
 10
11.9317964147
 20
5.5306225574
 10
11.6736674804
 20
5.9848420645
 10
11.4106721467
 20
6.4353760715
 10
11.142715809
 20
6.8823986574
 10
10.8697984671
 20
7.3259098222
  0
LWPOLYLINE
  5
533
100
AcDbEntity
  8
RACCORDO
100
AcDbPolyline
 62
250
  6
CONTINUOUS
 90
7
 70
0
 10
8.8044974356
 20
17.1319291348
 10
8.7517503781
 20
17.2388907289
 10
8.6987255751
 20
17.3457031372
 10
8.6454241043
 20
17.4523644158
 10
8.5918470478
 20
17.558872625
 10
8.5379954926
 20
17.6652258286
 10
8.4838705301
 20
17.7714220949
  0
LWPOLYLINE
  5
534
100
AcDbEntity
  8
ASSI
100
AcDbPolyline
 62
250
  6
CONTINUOUS
 90
7
 70
0
 10
8.8044974356
 20
17.1319291348
 10
8.7517503781
 20
17.2388907289
 10
8.6987255751
 20
17.3457031372
 10
8.6454241043
 20
17.4523644158
 10
8.5918470478
 20
17.558872625
 10
8.5379954926
 20
17.6652258286
 10
8.4838705301
 20
17.7714220949
  0
LWPOLYLINE
  5
535
100
AcDbEntity
  8
RACCORDO
100
AcDbPolyline
 62
7
  6
CONTINUOUS
 90
10
 70
0
 10
8.9707622775
 20
17.2174750947
 10
8.9358846634
 20
17.2882792885
 10
8.9008819072
 20
17.3590229601
 10
8.8657542927
 20
17.4297055363
 10
8.8305021062
 20
17.5003264414
 10
8.7951256313
 20
17.570885107
 10
8.7596251489
 20
17.6413809731
 10
8.7240009445
 20
17.7118134726
 10
8.6882533082
 20
17.7821820313
 10
8.6523826398
 20
17.8524858632
  0
LWPOLYLINE
  5
536
100
AcDbEntity
  8
ASSI
100
AcDbPolyline
 62
7
  6
CONTINUOUS
 90
10
 70
0
 10
8.9707622775
 20
17.2174750947
 10
8.9358846634
 20
17.2882792885
 10
8.9008819072
 20
17.3590229601
 10
8.8657542927
 20
17.4297055363
 10
8.8305021062
 20
17.5003264414
 10
8.7951256313
 20
17.570885107
 10
8.7596251489
 20
17.6413809731
 10
8.7240009445
 20
17.7118134726
 10
8.6882533082
 20
17.7821820313
 10
8.6523826398
 20
17.8524858632
  0
LINE
  5
537
100
AcDbEntity
  8
ASSI
100
AcDbLine
 62
250
  6
CONTINUOUS
 10
8.8523424577
 20
17.0304672308
 11
8.8044907082
 21
17.1319259209
  0
LWPOLYLINE
  5
538
100
AcDbEntity
  8
RACCORDO
100
AcDbPolyline
 62
7
  6
CONTINUOUS
 90
13
 70
0
 10
13.1449040698
 20
3.2125983119
 10
13.1919728425
 20
3.1116336415
 10
13.23526218
 20
3.0098662403
 10
13.2747720821
 20
2.907296108
 10
13.3106253864
 20
2.8035501829
 10
13.3426992555
 20
2.6990015269
 10
13.3706251769
 20
2.5947693257
 10
13.3943402267
 20
2.4908600471
 10
13.4139073289
 20
2.3872672234
 10
13.4291467431
 20
2.2850906373
 10
13.439998556
 20
2.1846968832
 10
13.446522681
 20
2.0857193668
 10
13.448719118
 20
1.988158088
  0
LINE
  5
539
100
AcDbEntity
  8
ASSI
100
AcDbLine
 62
7
  6
CONTINUOUS
 10
9.0438151883
 20
17.0568375544
 11
8.9707554003
 21
17.2174735986
  0
LWPOLYLINE
  5
53A
100
AcDbEntity
  8
RACCORDO
100
AcDbPolyline
 62
7
  6
CONTINUOUS
 90
3
 70
0
 10
9.0573317533
 20
17.0240270222
 10
8.993229177
 20
17.1707076419
 10
8.9707556846
 20
17.2174730662
  0
LINE
  5
53B
100
AcDbEntity
  8
ASSI
100
AcDbLine
 62
7
  6
CONTINUOUS
 10
9.1064602023
 20
16.8937288508
 11
9.0438151883
 21
17.0568375544
  0
LINE
  5
53C
100
AcDbEntity
  8
RACCORDO
100
AcDbLine
 62
7
  6
CONTINUOUS
 10
9.1131141392
 20
16.8744740215
 11
9.0573317533
 21
17.0240270222
  0
LINE
  5
53D
100
AcDbEntity
  8
ASSI
100
AcDbLine
 62
7
  6
CONTINUOUS
 10
9.1588256666
 20
16.7276573316
 11
9.1064602023
 21
16.8937288508
  0
LINE
  5
53E
100
AcDbEntity
  8
RACCORDO
100
AcDbLine
 62
7
  6
CONTINUOUS
 10
9.1601879617
 20
16.7227973814
 11
9.1131141392
 21
16.8744740215
  0
LINE
  5
53F
100
AcDbEntity
  8
ASSI
100
AcDbLine
 62
7
  6
CONTINUOUS
 10
9.2002995708
 20
16.559775835
 11
9.1588256666
 21
16.7276573316
  0
LINE
  5
540
100
AcDbEntity
  8
RACCORDO
100
AcDbLine
 62
7
  6
CONTINUOUS
 10
0.423848219
 20
17.2160168507
 11
0.3092052797
 21
17.1850703413
  0
LWPOLYLINE
  5
541
100
AcDbEntity
  8
RACCORDO
100
AcDbPolyline
 62
250
  6
CONTINUOUS
 90
29
 70
0
 10
3.951100911
 20
19.5406781891
 10
4.027136072
 20
19.561101745
 10
4.1078309748
 20
19.5762820576
 10
4.1934053663
 20
19.5856661417
 10
4.2838241126
 20
19.5886205022
 10
4.3794443267
 20
19.5844777106
 10
4.4797555732
 20
19.5725740393
 10
4.5832815974
 20
19.5525846041
 10
4.6902354987
 20
19.5240578625
 10
4.7998471849
 20
19.4867870649
 10
4.9089828656
 20
19.4417797614
 10
5.0169338506
 20
19.3896043443
 10
5.12366552
 20
19.3305498973
 10
5.2270372003
 20
19.2662238049
 10
5.326224727
 20
19.1977960557
 10
5.4215822246
 20
19.125664049
 10
5.5128311266
 20
19.0506227351
 10
5.5997663278
 20
18.9734343838
 10
5.6824130992
 20
18.8946589441
 10
5.7608967986
 20
18.8147243683
 10
5.8352195256
 20
18.7341508018
 10
5.9053916928
 20
18.653441748
 10
5.9715781327
 20
18.5729043315
 10
6.0338332887
 20
18.4929512805
 10
6.0922419474
 20
18.4139469445
 10
6.1470243216
 20
18.3360472562
 10
6.1983188894
 20
18.2594864765
 10
6.246191623
 20
18.1845928599
 10
6.3042225372
 20
18.0897385457
  0
LWPOLYLINE
  5
542
100
AcDbEntity
  8
RACCORDO
100
AcDbPolyline
 62
250
  6
CONTINUOUS
 90
23
 70
0
 10
0.3827825679
 20
17.1712616066
 10
0.4821004666
 20
17.1976386526
 10
0.5838283453
 20
17.2214296434
 10
0.6880081539
 20
17.2426659751
 10
0.7939581978
 20
17.2612147525
 10
0.9016348701
 20
17.2770674277
 10
1.0110817778
 20
17.2902325487
 10
1.1217480468
 20
17.3006028644
 10
1.2338340897
 20
17.3081716417
 10
1.347139494
 20
17.3129456137
 10
1.460512148
 20
17.3148377285
 10
1.574196904
 20
17.3137594885
 10
1.6879489096
 20
17.3097993913
 10
1.799881496
 20
17.3031358779
 10
1.909952592
 20
17.2936420699
 10
2.0182042688
 20
17.2814448457
 10
2.122876071
 20
17.2671032814
 10
2.2238181286
 20
17.2504990115
 10
2.3211803115
 20
17.2317504014
 10
2.4136517739
 20
17.2117716245
 10
2.500795567
 20
17.190867405
 10
2.5830486395
 20
17.1687330185
 10
2.6604109913
 20
17.1453684651
  0
LWPOLYLINE
  5
543
100
AcDbEntity
  8
ASSI
100
AcDbPolyline
 62
7
  6
CONTINUOUS
 90
5
 70
0
 10
-10.5704718267
 20
16.3554995269
 10
-10.5122430446
 20
16.3653179384
 10
-10.4566259725
 20
16.3796482666
 10
-10.4037491973
 20
16.3987593041
 10
-10.3891380811
 20
16.4051806028
  0
LWPOLYLINE
  5
544
100
AcDbEntity
  8
ASSI
100
AcDbPolyline
 62
250
  6
CONTINUOUS
 90
19
 70
0
 10
-10.6250512558
 20
16.4502935883
 10
-10.6059083243
 20
16.4513570013
 10
-10.5874182784
 20
16.4527367522
 10
-10.569593962
 20
16.4543999946
 10
-10.5522724945
 20
16.4563389448
 10
-10.535466438
 20
16.4585323042
 10
-10.5191856563
 20
16.4609584178
 10
-10.5032693367
 20
16.463627998
 10
-10.4877297848
 20
16.4665291303
 10
-10.4725771959
 20
16.4696495839
 10
-10.4576589032
 20
16.4730167288
 10
-10.4429921087
 20
16.4766264723
 10
-10.4285922449
 20
16.48047456
 10
-10.414320182
 20
16.4846039666
 10
-10.4002031741
 20
16.4890171826
 10
-10.3862665166
 20
16.493716943
 10
-10.3723899389
 20
16.498761693
 10
-10.3585667487
 20
16.5041801422
 10
-10.3448911673
 20
16.5099623532
  0
LWPOLYLINE
  5
545
100
AcDbEntity
  8
0
100
AcDbPolyline
 62
7
  6
CONTINUOUS
 90
13
 70
0
 10
-17.2900842178
 20
19.6749355648
 10
-17.3222535122
 20
19.6786963831
 10
-17.3537145474
 20
19.6808877405
 10
-17.3843469943
 20
19.6816319053
 10
-17.4141198045
 20
19.6810992213
 10
-17.4428508045
 20
19.6793900246
 10
-17.4702079826
 20
19.676533542
 10
-17.4960093654
 20
19.672683099
 10
-17.5202948744
 20
19.6679866291
 10
-17.5430603493
 20
19.6624522157
 10
-17.5642497041
 20
19.6561698108
 10
-17.5837809082
 20
19.6493272328
 10
-17.6016011621
 20
19.6420700363
  0
LWPOLYLINE
  5
546
100
AcDbEntity
  8
RACCORDO
100
AcDbPolyline
 62
250
  6
CONTINUOUS
 90
4
 70
0
 10
-2.6029211523
 20
17.3711735034
 10
-2.5762653043
 20
17.3672240405
 10
-2.5509086813
 20
17.3599055608
 10
-2.5312135174
 20
17.3514260527
  0
LWPOLYLINE
  5
547
100
AcDbEntity
  8
ASSI
100
AcDbPolyline
 62
250
  6
CONTINUOUS
 90
13
 70
0
 10
-16.6145367664
 20
19.7907842675
 10
-16.6305176838
 20
19.7934645654
 10
-16.6445947805
 20
19.7966701873
 10
-16.6568436073
 20
19.8003241159
 10
-16.6673422167
 20
19.8043464171
 10
-16.6761895914
 20
19.8086828028
 10
-16.6834954966
 20
19.813306022
 10
-16.6893526089
 20
19.8181748002
 10
-16.6938573301
 20
19.8232366107
 10
-16.6971138854
 20
19.8284579568
 10
-16.6992132032
 20
19.8338103358
 10
-16.700247369
 20
19.8392607763
 10
-16.7003949874
 20
19.8421974931
  0
LWPOLYLINE
  5
548
100
AcDbEntity
  8
0
100
AcDbPolyline
 62
7
  6
CONTINUOUS
 90
5
 70
0
 10
2.8122688118
 20
16.9516508234
 10
2.8351405862
 20
16.9471410946
 10
2.9804662676
 20
16.9146020651
 10
3.1226613382
 20
16.8787716684
 10
3.2617451174
 20
16.8396702158
  0
LWPOLYLINE
  5
549
100
AcDbEntity
  8
RACCORDO
100
AcDbPolyline
 62
7
  6
CONTINUOUS
 90
8
 70
0
 10
2.7394179089
 20
17.1564644696
 10
2.7291747555
 20
17.1586755817
 10
2.718316285
 20
17.1595797014
 10
2.7069192106
 20
17.1592091703
 10
2.6953407341
 20
17.1575748501
 10
2.6836999228
 20
17.1546803613
 10
2.6718777095
 20
17.1505220834
 10
2.659874094
 20
17.1451000164
  0
LWPOLYLINE
  5
54A
100
AcDbEntity
  8
ASSI
100
AcDbPolyline
 62
7
  6
CONTINUOUS
 90
5
 70
0
 10
-12.0516433885
 20
22.0986255425
 10
-12.1106705014
 20
22.1118584164
 10
-12.1664686151
 20
22.118552081
 10
-12.2197864696
 20
22.1200712707
 10
-12.2680533445
 20
22.1178443133
  0
LWPOLYLINE
  5
54B
100
AcDbEntity
  8
RACCORDO
100
AcDbPolyline
 62
7
  6
CONTINUOUS
 90
8
 70
0
 10
-12.0558878092
 20
22.0997861913
 10
-12.0985661675
 20
22.1096571407
 10
-12.140811226
 20
22.1161795546
 10
-12.1830510453
 20
22.1194924667
 10
-12.2249721787
 20
22.1199935763
 10
-12.2675071158
 20
22.1178889376
 10
-12.3104557536
 20
22.1129494139
 10
-12.3535064962
 20
22.1046884647
  0
LINE
  5
54C
100
AcDbEntity
  8
0
100
AcDbLine
 62
7
  6
CONTINUOUS
 10
1.477274217
 20
16.5677466873
 11
0.9538773578
 21
16.7094324903
  0
LINE
  5
54D
100
AcDbEntity
  8
0
100
AcDbLine
 62
7
  6
CONTINUOUS
 10
-5.9737311538
 20
20.8549095154
 11
-6.2586118103
 21
20.9320279464
  0
LWPOLYLINE
  5
54E
100
AcDbEntity
  8
RACCORDO
100
AcDbPolyline
 62
250
  6
CONTINUOUS
 90
8
 70
0
 10
-13.4310798569
 20
20.7478251375
 10
-13.4414851363
 20
20.7507412018
 10
-13.4524285667
 20
20.7522466001
 10
-13.4638268619
 20
20.7523298753
 10
-13.475593274
 20
20.7509903937
 10
-13.4876382536
 20
20.7482383495
 10
-13.4998701311
 20
20.7440946876
 10
-13.5121958144
 20
20.7385909435
  0
LWPOLYLINE
  5
54F
100
AcDbEntity
  8
RACCORDO
100
AcDbPolyline
 62
7
  6
CONTINUOUS
 90
20
 70
0
 10
2.7418598173
 20
17.1557172181
 10
2.6455572372
 20
17.1850086695
 10
2.5307293361
 20
17.2160094978
 10
2.4131352343
 20
17.2436791029
 10
2.2931118782
 20
17.2679728729
 10
2.1709870986
 20
17.2888550347
 10
2.0470881269
 20
17.3062957349
 10
1.9217837572
 20
17.3202666246
 10
1.7953958586
 20
17.3307526626
 10
1.6681920969
 20
17.3377456051
 10
1.5405162857
 20
17.3412348044
 10
1.4127200486
 20
17.3412168004
 10
1.2850848999
 20
17.3376931527
 10
1.1579591303
 20
17.3306702613
 10
1.0316880535
 20
17.3201619043
 10
0.9065456158
 20
17.3061803702
 10
0.7828750188
 20
17.2887480923
 10
0.6610165991
 20
17.267894518
 10
0.541231375
 20
17.2436393444
 10
0.423848219
 20
17.2160168507
  0
LINE
  5
550
100
AcDbEntity
  8
0
100
AcDbLine
 62
7
  6
CONTINUOUS
 10
3.2617451174
 20
16.8396702158
 11
3.3882436125
 21
16.8002254436
  0
LINE
  5
551
100
AcDbEntity
  8
0
100
AcDbLine
 62
7
  6
CONTINUOUS
 10
3.5116251725
 20
16.7579937057
 11
3.5207055531
 21
16.7548648631
  0
LWPOLYLINE
  5
552
100
AcDbEntity
  8
RACCORDO
100
AcDbPolyline
 62
7
  6
CONTINUOUS
 90
3
 70
0
 10
-11.9665788086
 20
22.0683530141
 10
-12.0117357184
 20
22.0861129136
 10
-12.0558878092
 20
22.0997861913
  0
LINE
  5
553
100
AcDbEntity
  8
0
100
AcDbLine
 62
7
  6
CONTINUOUS
 10
-6.9655807504
 20
21.2855124165
 11
-6.2586118103
 21
20.9320279464
  0
LINE
  5
554
100
AcDbEntity
  8
DRAFT
100
AcDbLine
 62
7
  6
CONTINUOUS
 10
6.2821365226
 20
18.0301851955
 11
3.3828268127
 21
19.4798400504
  0
LINE
  5
555
100
AcDbEntity
  8
ASSI
100
AcDbLine
 62
7
  6
CONTINUOUS
 10
6.2821365226
 20
18.0301851955
 11
3.3828268127
 21
19.4798400504
  0
LWPOLYLINE
  5
556
100
AcDbEntity
  8
RACCORDO
100
AcDbPolyline
 62
250
  6
CONTINUOUS
 90
8
 70
0
 10
6.3905862942
 20
18.1459475931
 10
6.3879661678
 20
18.1476089362
 10
6.3809437011
 20
18.1475923257
 10
6.369956571
 20
18.1450904367
 10
6.3551804628
 20
18.1401432747
 10
6.336851648
 20
18.1328299451
 10
6.315263206
 20
18.1232673889
 10
6.2907603383
 20
18.1116085124
  0
LWPOLYLINE
  5
557
100
AcDbEntity
  8
ASSI
100
AcDbPolyline
 62
250
  6
CONTINUOUS
 90
8
 70
0
 10
6.3905862942
 20
18.1459475931
 10
6.3879661678
 20
18.1476089362
 10
6.3809437011
 20
18.1475923257
 10
6.369956571
 20
18.1450904367
 10
6.3551804628
 20
18.1401432747
 10
6.336851648
 20
18.1328299451
 10
6.315263206
 20
18.1232673889
 10
6.2907603383
 20
18.1116085124
  0
LINE
  5
558
100
AcDbEntity
  8
RACCORDO
100
AcDbLine
 62
7
  6
CONTINUOUS
 10
8.8733971658
 20
17.4143268103
 11
8.8995833296
 21
17.3916257294
  0
LINE
  5
559
100
AcDbEntity
  8
ASSI
100
AcDbLine
 62
7
  6
CONTINUOUS
 10
8.8751949685
 20
17.4107093335
 11
8.9631485454
 21
17.3317605704
  0
LINE
  5
55A
100
AcDbEntity
  8
ASSI
100
AcDbLine
 62
7
  6
CONTINUOUS
 10
8.5499102586
 20
17.9993485788
 11
8.4972151486
 21
18.0499309251
  0
LINE
  5
55B
100
AcDbEntity
  8
RACCORDO
100
AcDbLine
 62
7
  6
CONTINUOUS
 10
8.8995833296
 20
17.3916257294
 11
9.0256382369
 21
17.2696862243
  0
LINE
  5
55C
100
AcDbEntity
  8
RACCORDO
100
AcDbLine
 62
7
  6
CONTINUOUS
 10
8.5534633991
 20
17.9954854893
 11
8.5135254153
 21
18.0355129312
  0
LINE
  5
55D
100
AcDbEntity
  8
ASSI
100
AcDbLine
 62
7
  6
CONTINUOUS
 10
8.9631485454
 20
17.3317605704
 11
9.1319518659
 21
17.1562821766
  0
LINE
  5
55E
100
AcDbEntity
  8
RACCORDO
100
AcDbLine
 62
250
  6
CONTINUOUS
 10
8.9920491861
 20
17.1706551009
 11
8.9992088486
 21
17.1631165556
  0
LWPOLYLINE
  5
55F
100
AcDbEntity
  8
ASSI
100
AcDbPolyline
 62
250
  6
CONTINUOUS
 90
3
 70
0
 10
8.9920491861
 20
17.1706551009
 10
8.9992088486
 20
17.1631165556
 10
9.1062231029
 20
17.0399633884
  0
LINE
  5
560
100
AcDbEntity
  8
RACCORDO
100
AcDbLine
 62
7
  6
CONTINUOUS
 10
9.0256382369
 20
17.2696862243
 11
9.147032208
 21
17.1393576241
  0
LINE
  5
561
100
AcDbEntity
  8
RACCORDO
100
AcDbLine
 62
250
  6
CONTINUOUS
 10
8.9992088486
 20
17.1631165556
 11
9.1062231029
 21
17.0399633884
  0
LWPOLYLINE
  5
562
100
AcDbEntity
  8
RACCORDO
100
AcDbPolyline
 62
7
  6
CONTINUOUS
 90
16
 70
0
 10
9.147032208
 20
17.1393576241
 10
9.2632178811
 20
17.0014093613
 10
9.373801858
 20
16.8564726577
 10
9.478359343
 20
16.7052340429
 10
9.5764403245
 20
16.5484554842
 10
9.6676474426
 20
16.386866099
 10
9.7516350985
 20
16.221135664
 10
9.8280268412
 20
16.052026078
 10
9.8964640561
 20
15.880323201
 10
9.9566432896
 20
15.7067329566
 10
10.0082610999
 20
15.532003425
 10
10.0510159601
 20
15.3569599673
 10
10.0846458893
 20
15.1823924586
 10
10.1089174584
 20
15.009066718
 10
10.1236173526
 20
14.8377588527
 10
10.1285553711
 20
14.6692531691
  0
LWPOLYLINE
  5
563
100
AcDbEntity
  8
ASSI
100
AcDbPolyline
 62
7
  6
CONTINUOUS
 90
11
 70
0
 10
9.1319518659
 20
17.1562821766
 10
9.2912894954
 20
16.9659525041
 10
9.4398611608
 20
16.7626748942
 10
9.5764249899
 20
16.5484812566
 10
9.6999891096
 20
16.3252015582
 10
9.8096466803
 20
16.094610318
 10
9.9044553503
 20
15.8586825909
 10
9.9835309705
 20
15.6194963275
 10
10.0461372709
 20
15.3789560302
 10
10.0915840965
 20
15.1390164077
 10
10.1192352817
 20
14.9017608722
  0
LINE
  5
564
100
AcDbEntity
  8
ASSI
100
AcDbLine
 62
7
  6
CONTINUOUS
 10
8.5971876088
 20
17.9420396102
 11
8.5499102586
 21
17.9993485788
  0
LWPOLYLINE
  5
565
100
AcDbEntity
  8
ASSI
100
AcDbPolyline
 62
250
  6
CONTINUOUS
 90
7
 70
0
 10
8.3925819757
 20
17.9174830508
 10
8.3572964816
 20
17.9606982677
 10
8.3201088965
 20
18.0004941916
 10
8.2813520884
 20
18.0365102053
 10
8.2413834693
 20
18.0684300936
 10
8.200564946
 20
18.0959380132
 10
8.1592764774
 20
18.1187537179
  0
LWPOLYLINE
  5
566
100
AcDbEntity
  8
RACCORDO
100
AcDbPolyline
 62
250
  6
CONTINUOUS
 90
26
 70
0
 10
9.1062231029
 20
17.0399633884
 10
9.2075886082
 20
16.9127695665
 10
9.3030081309
 20
16.7825025702
 10
9.3924508001
 20
16.6498130201
 10
9.4744034399
 20
16.5178314503
 10
9.5487292122
 20
16.3880403712
 10
9.6160608365
 20
16.2606176086
 10
9.6764062797
 20
16.1368519346
 10
9.7299248756
 20
16.0178834012
 10
9.77730665
 20
15.903671105
 10
9.8193619672
 20
15.7935961835
 10
9.8564501028
 20
15.6879620648
 10
9.8889309003
 20
15.5870296999
 10
9.9174509926
 20
15.4899942379
 10
9.9422946405
 20
15.3970094524
 10
9.963746195
 20
15.3081934128
 10
9.9822916398
 20
15.2226351171
 10
9.9981365729
 20
15.140400565
 10
10.011482942
 20
15.0615472262
 10
10.0226618379
 20
14.9851436798
 10
10.0318013017
 20
14.9112515429
 10
10.0390353835
 20
14.839873351
 10
10.0445623224
 20
14.7700124387
 10
10.048456795
 20
14.7013699123
 10
10.0507485699
 20
14.6343180396
 10
10.0514988188
 20
14.5688835781
  0
LWPOLYLINE
  5
567
100
AcDbEntity
  8
ASSI
100
AcDbPolyline
 62
250
  6
CONTINUOUS
 90
22
 70
0
 10
9.1062231029
 20
17.0399633884
 10
9.2075886082
 20
16.9127695665
 10
9.3030081309
 20
16.7825025702
 10
9.3924508001
 20
16.6498130201
 10
9.4744034399
 20
16.5178314503
 10
9.5487292122
 20
16.3880403712
 10
9.6160608365
 20
16.2606176086
 10
9.6764062797
 20
16.1368519346
 10
9.7299248756
 20
16.0178834012
 10
9.77730665
 20
15.903671105
 10
9.8193619672
 20
15.7935961835
 10
9.8564501028
 20
15.6879620648
 10
9.8889309003
 20
15.5870296999
 10
9.9174509926
 20
15.4899942379
 10
9.9422946405
 20
15.3970094524
 10
9.963746195
 20
15.3081934128
 10
9.9822916398
 20
15.2226351171
 10
9.9981365729
 20
15.140400565
 10
10.011482942
 20
15.0615472262
 10
10.0226618379
 20
14.9851436798
 10
10.0318013017
 20
14.9112515429
 10
10.0390353835
 20
14.839873351
  0
LWPOLYLINE
  5
568
100
AcDbEntity
  8
RACCORDO
100
AcDbPolyline
 62
7
  6
CONTINUOUS
 90
3
 70
0
 10
8.6224912485
 20
17.9049078011
 10
8.5902328362
 20
17.9513543052
 10
8.5534633991
 20
17.9954854893
  0
LINE
  5
569
100
AcDbEntity
  8
ASSI
100
AcDbLine
 62
7
  6
CONTINUOUS
 10
8.6363578686
 20
17.8819517289
 11
8.5971876088
 21
17.9420396102
  0
LINE
  5
56A
100
AcDbEntity
  8
RACCORDO
100
AcDbLine
 62
7
  6
CONTINUOUS
 10
8.6523719386
 20
17.852480956
 11
8.6224912485
 21
17.9049078011
  0
LINE
  5
56B
100
AcDbEntity
  8
ASSI
100
AcDbLine
 62
7
  6
CONTINUOUS
 10
8.6523725852
 20
17.8524796958
 11
8.6363578686
 21
17.8819517289
  0
LWPOLYLINE
  5
56C
100
AcDbEntity
  8
RACCORDO
100
AcDbPolyline
 62
250
  6
CONTINUOUS
 90
10
 70
0
 10
8.4838551697
 20
17.7714139619
 10
8.4561708239
 20
17.8224063656
 10
8.4256468866
 20
17.8712500697
 10
8.3925819757
 20
17.9174830508
 10
8.3572964816
 20
17.9606982677
 10
8.3201088965
 20
18.0004941916
 10
8.2813520884
 20
18.0365102053
 10
8.2413834693
 20
18.0684300936
 10
8.200564946
 20
18.0959380132
 10
8.1592764774
 20
18.1187537179
  0
LWPOLYLINE
  5
56D
100
AcDbEntity
  8
ASSI
100
AcDbPolyline
 62
250
  6
CONTINUOUS
 90
4
 70
0
 10
8.4838551697
 20
17.7714139619
 10
8.4561708239
 20
17.8224063656
 10
8.4256468866
 20
17.8712500697
 10
8.3925819757
 20
17.9174830508
  0
LINE
  5
56E
100
AcDbEntity
  8
0
100
AcDbLine
 62
7
  6
CONTINUOUS
 10
10.0971723635
 20
-28.1225321933
 11
10.1073174519
 21
-28.0968242296
  0
LWPOLYLINE
  5
56F
100
AcDbEntity
  8
0
100
AcDbPolyline
 62
7
  6
CONTINUOUS
 90
23
 70
0
 10
10.1073174519
 20
-28.0968242296
 10
10.1282393226
 20
-28.0450257833
 10
10.1386029478
 20
-28.019046194
 10
10.1487567934
 20
-27.993064521
 10
10.1588191173
 20
-27.9670312271
 10
10.1687362199
 20
-27.9409945977
 10
10.1784148506
 20
-27.9149703097
 10
10.1879584817
 20
-27.8888226035
 10
10.1973356489
 20
-27.8625747772
 10
10.2064922535
 20
-27.8362447438
 10
10.2155129752
 20
-27.8096633989
 10
10.2243890507
 20
-27.7827930321
 10
10.2330684474
 20
-27.7556947913
 10
10.2415738185
 20
-27.7283335624
 10
10.2498882967
 20
-27.7006957723
 10
10.2579783825
 20
-27.6728143013
 10
10.2658417499
 20
-27.6447184224
 10
10.2734504576
 20
-27.6164436438
 10
10.280790217
 20
-27.5879742241
 10
10.2878767174
 20
-27.5592584233
 10
10.2946995641
 20
-27.5302831002
 10
10.3012262132
 20
-27.5010771042
 10
10.3074371362
 20
-27.471649449
  0
LWPOLYLINE
  5
570
100
AcDbEntity
  8
0
100
AcDbPolyline
 62
7
  6
CONTINUOUS
 90
10
 70
0
 10
10.0971723635
 20
-28.1225321933
 10
10.0797679007
 20
-28.1639443345
 10
10.0611283886
 20
-28.2039503218
 10
10.0412538272
 20
-28.2425501554
 10
10.0201205256
 20
-28.2797808237
 10
9.9977521747
 20
-28.3156053382
 10
9.9742198472
 20
-28.3499127329
 10
9.9495472339
 20
-28.3826660191
 10
9.9237106438
 20
-28.4139021855
 10
9.8967100771
 20
-28.443621232
  0
LINE
  5
571
100
AcDbEntity
  8
0
100
AcDbLine
 62
7
  6
CONTINUOUS
 10
-5.7630093972
 20
19.071247196
 11
-6.6215979931
 21
18.9148738317
  0
LINE
  5
572
100
AcDbEntity
  8
ASSI
100
AcDbLine
 62
7
  6
CONTINUOUS
 10
-5.7630093972
 20
19.071247196
 11
-6.6215979931
 21
18.9148738317
  0
LINE
  5
573
100
AcDbEntity
  8
0
100
AcDbLine
 62
7
  6
CONTINUOUS
 10
-9.6050927874
 20
20.9922888911
 11
-10.8599530428
 21
21.0340513566
  0
LINE
  5
574
100
AcDbEntity
  8
ASSI
100
AcDbLine
 62
7
  6
CONTINUOUS
 10
-9.6050927874
 20
20.9922888911
 11
-10.8599530428
 21
21.0340513566
  0
LWPOLYLINE
  5
575
100
AcDbEntity
  8
0
100
AcDbPolyline
 62
7
  6
CONTINUOUS
 90
4
 70
0
 10
-4.4002203563
 20
21.1742462795
 10
-4.3773485819
 20
21.1697365507
 10
-4.2320229005
 20
21.1371975212
 10
-4.1104724075
 20
21.1065691572
  0
LWPOLYLINE
  5
576
100
AcDbEntity
  8
RACCORDO
100
AcDbPolyline
 62
250
  6
CONTINUOUS
 90
9
 70
0
 10
-2.4027031659
 20
23.0654253627
 10
-2.3831879009
 20
23.0603042802
 10
-2.2694089449
 20
23.0216377651
 10
-2.1590185894
 20
22.97593639
 10
-2.0529446726
 20
22.9245211058
 10
-1.951041849
 20
22.8682201854
 10
-1.8540726185
 20
22.8083170591
 10
-1.7626477341
 20
22.7461032741
 10
-1.7597189063
 20
22.743933233
  0
LWPOLYLINE
  5
577
100
AcDbEntity
  8
ASSI
100
AcDbPolyline
 62
250
  6
CONTINUOUS
 90
9
 70
0
 10
-2.4027031659
 20
23.0654253627
 10
-2.3831879009
 20
23.0603042802
 10
-2.2694089449
 20
23.0216377651
 10
-2.1590185894
 20
22.97593639
 10
-2.0529446726
 20
22.9245211058
 10
-1.951041849
 20
22.8682201854
 10
-1.8540726185
 20
22.8083170591
 10
-1.7626477341
 20
22.7461032741
 10
-1.7597189063
 20
22.743933233
  0
LWPOLYLINE
  5
578
100
AcDbEntity
  8
RACCORDO
100
AcDbPolyline
 62
7
  6
CONTINUOUS
 90
19
 70
0
 10
-4.4706293508
 20
21.3783126742
 10
-4.5669319309
 20
21.4076041256
 10
-4.681759832
 20
21.438604954
 10
-4.7993539339
 20
21.466274559
 10
-4.9193772899
 20
21.4905683291
 10
-5.0415020695
 20
21.5114504908
 10
-5.1654010412
 20
21.5288911911
 10
-5.2907054109
 20
21.5428620807
 10
-5.4170933095
 20
21.5533481187
 10
-5.5442970712
 20
21.5603410613
 10
-5.6719728824
 20
21.5638302605
 10
-5.7997691195
 20
21.5638122566
 10
-5.9274042682
 20
21.5602886088
 10
-6.0545300378
 20
21.5532657174
 10
-6.1808011146
 20
21.5427573604
 10
-6.3059435523
 20
21.5287758263
 10
-6.4296141493
 20
21.5113435484
 10
-6.551472569
 20
21.4904899741
 10
-6.6712577931
 20
21.4662348005
  0
LWPOLYLINE
  5
579
100
AcDbEntity
  8
RACCORDO
100
AcDbPolyline
 62
7
  6
CONTINUOUS
 90
9
 70
0
 10
-4.4706275634
 20
21.3783168299
 10
-4.4730712592
 20
21.3790599257
 10
-4.4833144126
 20
21.3812710378
 10
-4.4941728831
 20
21.3821751575
 10
-4.5055699575
 20
21.3818046264
 10
-4.517148434
 20
21.3801703062
 10
-4.5287892453
 20
21.3772758175
 10
-4.5406114586
 20
21.3731175396
 10
-4.5526150741
 20
21.3676954726
  0
LWPOLYLINE
  5
57A
100
AcDbEntity
  8
ASSI
100
AcDbPolyline
 62
7
  6
CONTINUOUS
 90
4
 70
0
 10
-4.2159034036
 20
25.4693588527
 10
-4.269672796
 20
25.4926648215
 10
-4.3483532435
 20
25.5157088298
 10
-4.4285263777
 20
25.526883698
  0
LINE
  5
57B
100
AcDbEntity
  8
RACCORDO
100
AcDbLine
 62
7
  6
CONTINUOUS
 10
-4.2144461491
 20
25.4686455447
 11
-4.2529584475
 21
25.4861207031
  0
LWPOLYLINE
  5
57C
100
AcDbEntity
  8
RACCORDO
100
AcDbPolyline
 62
250
  6
CONTINUOUS
 90
8
 70
0
 10
0.6462793058
 20
23.0383052389
 10
0.6340957156
 20
23.043857727
 10
0.6035706074
 20
23.0535648077
 10
0.571084014
 20
23.0582871446
 10
0.5369983553
 20
23.0579694709
 10
0.5016862282
 20
23.0526168095
 10
0.4655240658
 20
23.0422877167
 10
0.4289018439
 20
23.0270940978
  0
LWPOLYLINE
  5
57D
100
AcDbEntity
  8
ASSI
100
AcDbPolyline
 62
250
  6
CONTINUOUS
 90
3
 70
0
 10
0.6463382842
 20
23.0382757626
 10
0.6340957156
 20
23.043857727
 10
0.6035706074
 20
23.0535648077
  0
LINE
  5
57E
100
AcDbEntity
  8
RACCORDO
100
AcDbLine
 62
250
  6
CONTINUOUS
 10
-4.2144379034
 20
25.4686621518
 11
-4.2192935277
 21
25.4709794252
  0
LWPOLYLINE
  5
57F
100
AcDbEntity
  8
ASSI
100
AcDbPolyline
 62
250
  6
CONTINUOUS
 90
7
 70
0
 10
1.140825151
 20
21.7479012627
 10
1.1357050307
 20
21.7503497128
 10
1.0979581331
 20
21.7631012041
 10
1.0571938751
 20
21.7681118329
 10
1.0140943522
 20
21.7652977578
 10
0.9693807354
 20
21.7547060659
 10
0.9238012037
 20
21.7365139847
  0
LWPOLYLINE
  5
580
100
AcDbEntity
  8
RACCORDO
100
AcDbPolyline
 62
250
  6
CONTINUOUS
 90
7
 70
0
 10
1.1411885025
 20
21.7477202113
 10
1.1357050307
 20
21.7503497128
 10
1.0979581331
 20
21.7631012041
 10
1.0571938751
 20
21.7681118329
 10
1.0140943522
 20
21.7652977578
 10
0.9693807354
 20
21.7547060659
 10
0.9238012037
 20
21.7365139847
  0
LINE
  5
581
100
AcDbEntity
  8
ASSI
100
AcDbLine
 62
250
  6
CONTINUOUS
 10
-4.2137609148
 20
25.4683253621
 11
-4.215895152
 21
25.4693756122
  0
LINE
  5
582
100
AcDbEntity
  8
RACCORDO
100
AcDbLine
 62
7
  6
CONTINUOUS
 10
-4.2137609148
 20
25.4683253621
 11
-4.2144379034
 21
25.4686621518
  0
LINE
  5
583
100
AcDbEntity
  8
RACCORDO
100
AcDbLine
 62
250
  6
CONTINUOUS
 10
0.6463382842
 20
23.0382757626
 11
0.6462793058
 21
23.0383052389
  0
LINE
  5
584
100
AcDbEntity
  8
DRAFT
100
AcDbLine
 62
7
  6
CONTINUOUS
 10
-1.1537237877
 20
22.4409356737
 11
-3.6876593976
 21
23.7079034786
  0
LINE
  5
585
100
AcDbEntity
  8
ASSI
100
AcDbLine
 62
7
  6
CONTINUOUS
 10
-1.1537237877
 20
22.4409356737
 11
-3.6876593976
 21
23.7079034786
  0
LINE
  5
586
100
AcDbEntity
  8
RACCORDO
100
AcDbLine
 62
250
  6
CONTINUOUS
 10
0.9238012037
 20
21.7365139847
 11
2.6879001427
 21
20.8544645152
  0
LINE
  5
587
100
AcDbEntity
  8
ASSI
100
AcDbLine
 62
250
  6
CONTINUOUS
 10
0.9238012037
 20
21.7365139847
 11
2.6879001427
 21
20.8544645152
  0
LINE
  5
588
100
AcDbEntity
  8
RACCORDO
100
AcDbLine
 62
250
  6
CONTINUOUS
 10
7.350056818
 20
18.5233861776
 11
8.1592767908
 21
18.1187761912
  0
LINE
  5
589
100
AcDbEntity
  8
ASSI
100
AcDbLine
 62
250
  6
CONTINUOUS
 10
7.350056818
 20
18.5233861776
 11
8.1592767908
 21
18.1187761912
  0
LINE
  5
58A
100
AcDbEntity
  8
RACCORDO
100
AcDbLine
 62
7
  6
CONTINUOUS
 10
1.1411885025
 20
21.7477202113
 11
2.905336583
 21
20.86564618
  0
LINE
  5
58B
100
AcDbEntity
  8
ASSI
100
AcDbLine
 62
7
  6
CONTINUOUS
 10
1.140825151
 20
21.7479012627
 11
2.905336583
 21
20.86564618
  0
LINE
  5
58C
100
AcDbEntity
  8
RACCORDO
100
AcDbLine
 62
7
  6
CONTINUOUS
 10
7.495468833
 20
18.570580055
 11
8.376386317
 21
18.1301213131
  0
LINE
  5
58D
100
AcDbEntity
  8
ASSI
100
AcDbLine
 62
7
  6
CONTINUOUS
 10
7.495468833
 20
18.570580055
 11
8.3763863275
 21
18.1301213078
  0
LINE
  5
58E
100
AcDbEntity
  8
RACCORDO
100
AcDbLine
 62
250
  6
CONTINUOUS
 10
-4.4311973541
 20
25.4571436968
 11
-4.3825860676
 21
25.4328380536
  0
LINE
  5
58F
100
AcDbEntity
  8
ASSI
100
AcDbLine
 62
250
  6
CONTINUOUS
 10
-4.4311973541
 20
25.4571436968
 11
-4.3825860676
 21
25.4328380536
  0
LINE
  5
590
100
AcDbEntity
  8
RACCORDO
100
AcDbLine
 62
250
  6
CONTINUOUS
 10
0.2784074046
 20
23.1023413175
 11
0.4289018439
 21
23.0270940978
  0
LINE
  5
591
100
AcDbEntity
  8
ASSI
100
AcDbLine
 62
250
  6
CONTINUOUS
 10
0.2784074046
 20
23.1023413175
 11
0.4289018439
 21
23.0270940978
  0
LINE
  5
592
100
AcDbEntity
  8
ASSI
100
AcDbLine
 62
7
  6
CONTINUOUS
 10
0.6463811348
 20
23.0382543305
 11
0.6463382842
 21
23.0382757626
  0
LINE
  5
593
100
AcDbEntity
  8
RACCORDO
100
AcDbLine
 62
7
  6
CONTINUOUS
 10
0.4238194196
 20
23.1495351949
 11
0.6463382842
 21
23.0382757626
  0
LINE
  5
594
100
AcDbEntity
  8
ASSI
100
AcDbLine
 62
7
  6
CONTINUOUS
 10
0.4238194196
 20
23.1495351949
 11
0.6463382842
 21
23.0382757626
  0
LWPOLYLINE
  5
595
100
AcDbEntity
  8
RACCORDO
100
AcDbPolyline
 62
7
  6
CONTINUOUS
 90
21
 70
0
 10
1.1411874094
 20
21.7477180371
 10
1.1393361964
 20
21.748679721
 10
1.1327124496
 20
21.7525308193
 10
1.1234946411
 20
21.7586762758
 10
1.1120313624
 20
21.767345168
 10
1.0987271972
 20
21.7786594985
 10
1.0839218721
 20
21.7927235161
 10
1.0679938681
 20
21.8095525247
 10
1.0513442915
 20
21.8290979369
 10
1.0342826726
 20
21.8513602786
 10
1.0172800737
 20
21.876050415
 10
1.0009329325
 20
21.9025476225
 10
0.9855739463
 20
21.9304919708
 10
0.9715040056
 20
21.9594373974
 10
0.9591286753
 20
21.9884849037
 10
0.9486048816
 20
22.017068287
 10
0.939962013
 20
22.0447894773
 10
0.9332360459
 20
22.0709860635
 10
0.9283384734
 20
22.0951564695
 10
0.9251014129
 20
22.1170250594
 10
0.9233214249
 20
22.1362650699
  0
LINE
  5
596
100
AcDbEntity
  8
RACCORDO
100
AcDbLine
 62
7
  6
CONTINUOUS
 10
0.6739943731
 20
23.0233432585
 11
0.6462793058
 21
23.0383052389
  0
LINE
  5
597
100
AcDbEntity
  8
ASSI
100
AcDbLine
 62
7
  6
CONTINUOUS
 10
0.6738102073
 20
23.0234426805
 11
0.6463811348
 21
23.0382543305
  0
LWPOLYLINE
  5
598
100
AcDbEntity
  8
ASSI
100
AcDbPolyline
 62
7
  6
CONTINUOUS
 90
9
 70
0
 10
1.1408240686
 20
21.747899106
 10
1.1326498341
 20
21.7525697312
 10
1.1177895458
 20
21.7628584214
 10
1.0982297675
 20
21.7791072202
 10
1.0753396824
 20
21.8015700841
 10
1.0501238676
 20
21.8306128658
 10
1.0242237853
 20
21.8656435128
 10
0.9995044653
 20
21.9050109928
 10
0.9770565001
 20
21.9475700007
  0
LINE
  5
599
100
AcDbEntity
  8
ASSI
100
AcDbLine
 62
7
  6
CONTINUOUS
 10
8.4400456527
 20
18.0931757085
 11
8.3758144606
 21
18.1303874024
  0
LWPOLYLINE
  5
59A
100
AcDbEntity
  8
RACCORDO
100
AcDbPolyline
 62
7
  6
CONTINUOUS
 90
3
 70
0
 10
8.4708266836
 20
18.0712158896
 10
8.4249955939
 20
18.1028856427
 10
8.3762049884
 20
18.1301932487
  0
LINE
  5
59B
100
AcDbEntity
  8
ASSI
100
AcDbLine
 62
7
  6
CONTINUOUS
 10
8.4972151486
 20
18.0499309251
 11
8.4400456527
 21
18.0931757085
  0
LINE
  5
59C
100
AcDbEntity
  8
RACCORDO
100
AcDbLine
 62
7
  6
CONTINUOUS
 10
8.5135254153
 20
18.0355129312
 11
8.4708266836
 21
18.0712158896
  0
LINE
  5
59D
100
AcDbEntity
  8
DRAFT
100
AcDbLine
 62
7
  6
CONTINUOUS
 10
13.4101900312
 20
-27.138997438
 11
13.6488552127
 21
-26.7179281401
  0
LWPOLYLINE
  5
59E
100
AcDbEntity
  8
RACCORDO
100
AcDbPolyline
 62
250
  6
CONTINUOUS
 90
13
 70
0
 10
9.1536953291
 20
-28.605902926
 10
9.1890165343
 20
-28.5608764427
 10
9.2206922364
 20
-28.5118295371
 10
9.2487224352
 20
-28.4587622093
 10
9.2731906474
 20
-28.4014740468
 10
9.2940133564
 20
-28.3401654622
 10
9.3109400129
 20
-28.2754376929
 10
9.323917328
 20
-28.2072380902
 10
9.3329985906
 20
-28.135619303
 10
9.3380931181
 20
-28.0613405155
 10
9.339170683
 20
-27.9846547891
 10
9.3362615128
 20
-27.9053090625
 10
9.3293656076
 20
-27.8233033356
  0
LWPOLYLINE
  5
59F
100
AcDbEntity
  8
RACCORDO
100
AcDbPolyline
 62
7
  6
CONTINUOUS
 90
3
 70
0
 10
-12.3535064962
 20
22.1046884647
 10
-12.3979565679
 20
22.0924210958
 10
-12.44397138
 20
22.0755870661
  0
LWPOLYLINE
  5
5A0
100
AcDbEntity
  8
RACCORDO
100
AcDbPolyline
 62
7
  6
CONTINUOUS
 90
9
 70
0
 10
-6.7886409491
 20
21.4386123069
 10
-6.9032838884
 20
21.4076657974
 10
-7.0149277437
 20
21.373420984
 10
-7.1232817075
 20
21.3359115485
 10
-7.2279914289
 20
21.2951978986
 10
-7.3287375395
 20
21.2513367607
 10
-7.4253175877
 20
21.2043321469
 10
-7.5173281074
 20
21.1542843929
 10
-7.5973064419
 20
21.1056222808
  0
LINE
  5
5A1
100
AcDbEntity
  8
RACCORDO
100
AcDbLine
 62
250
  6
CONTINUOUS
 10
-6.8074255248
 20
21.4000701374
 11
-6.7074424179
 21
21.4258636683
  0
LINE
  5
5A2
100
AcDbEntity
  8
0
100
AcDbLine
 62
7
  6
CONTINUOUS
 10
-16.0393183188
 20
20.2865210309
 11
-16.0784494004
 21
20.2764679673
  0
LWPOLYLINE
  5
5A3
100
AcDbEntity
  8
0
100
AcDbPolyline
 62
7
  6
CONTINUOUS
 90
10
 70
0
 10
-13.235586407
 20
21.6226231882
 10
-13.1961144033
 20
21.6327246761
 10
-13.1555021686
 20
21.6388674685
 10
-13.113749703
 20
21.6410515654
 10
-13.0706707571
 20
21.6392527163
 10
-13.0264515802
 20
21.6334951717
 10
-12.9816509209
 20
21.6238516834
 10
-12.9364550286
 20
21.6103465018
 10
-12.890677654
 20
21.5929553764
 10
-12.8443187969
 20
21.5716783072
  0
LWPOLYLINE
  5
5A4
100
AcDbEntity
  8
ASSI
100
AcDbPolyline
 62
7
  6
CONTINUOUS
 90
10
 70
0
 10
-13.235586407
 20
21.6226231882
 10
-13.1961144033
 20
21.6327246761
 10
-13.1555021686
 20
21.6388674685
 10
-13.113749703
 20
21.6410515654
 10
-13.0706707571
 20
21.6392527163
 10
-13.0264515802
 20
21.6334951717
 10
-12.9816509209
 20
21.6238516834
 10
-12.9364550286
 20
21.6103465018
 10
-12.890677654
 20
21.5929553764
 10
-12.8443187969
 20
21.5716783072
  0
LWPOLYLINE
  5
5A5
100
AcDbEntity
  8
ASSI
100
AcDbPolyline
 62
250
  6
CONTINUOUS
 90
33
 70
0
 10
-16.5262365622
 20
20.0304849817
 10
-16.5358330016
 20
20.0281709085
 10
-16.5443800594
 20
20.0262553725
 10
-16.5518785083
 20
20.0247402214
 10
-16.5582714104
 20
20.0236561674
 10
-16.5636171452
 20
20.0229759355
 10
-16.5680894127
 20
20.0226142689
 10
-16.5716890492
 20
20.0225704108
 10
-16.5744164632
 20
20.0228480695
 10
-16.5764446281
 20
20.0233684842
 10
-16.5777791541
 20
20.0241289437
 10
-16.5784154036
 20
20.0251344556
 10
-16.5785108532
 20
20.0263175389
 10
-16.5780765041
 20
20.0276725574
 10
-16.5771020639
 20
20.029206815
 10
-16.575712936
 20
20.0308719275
 10
-16.5739248328
 20
20.0326608836
 10
-16.5717225169
 20
20.0345818093
 10
-16.5691848535
 20
20.0366087574
 10
-16.5663276776
 20
20.0387352905
 10
-16.5631354603
 20
20.0409685631
 10
-16.5596399424
 20
20.043302831
 10
-16.5558560664
 20
20.0457322906
 10
-16.551769088
 20
20.0482632089
 10
-16.5473661718
 20
20.0509078416
 10
-16.5426615172
 20
20.0536609621
 10
-16.5376410569
 20
20.0565281056
 10
-16.5322495353
 20
20.0595376219
 10
-16.5265010377
 20
20.0626846474
 10
-16.5203815694
 20
20.0659742576
 10
-16.513793748
 20
20.069449697
 10
-16.5067051333
 20
20.0731254287
 10
-16.4991482219
 20
20.0769871214
  0
LINE
  5
5A6
100
AcDbEntity
  8
RACCORDO
100
AcDbLine
 62
7
  6
CONTINUOUS
 10
-6.6712577931
 20
21.4662348005
 11
-6.7886409491
 21
21.4386123069
  0
LINE
  5
5A7
100
AcDbEntity
  8
RACCORDO
100
AcDbLine
 62
250
  6
CONTINUOUS
 10
-6.7074424179
 20
21.4258636683
 11
-6.60472399
 21
21.4491694386
  0
LINE
  5
5A8
100
AcDbEntity
  8
ASSI
100
AcDbLine
 62
250
  6
CONTINUOUS
 10
-16.5189669414
 20
20.0321315219
 11
-16.5262377755
 21
20.0304843943
  0
LWPOLYLINE
  5
5A9
100
AcDbEntity
  8
ASSI
100
AcDbPolyline
 62
7
  6
CONTINUOUS
 90
7
 70
0
 10
-15.9340884836
 20
20.320459015
 10
-15.9220482876
 20
20.3229781908
 10
-15.9096636987
 20
20.3237856693
 10
-15.896934717
 20
20.3228814504
 10
-15.8838613424
 20
20.3202655342
 10
-15.870443575
 20
20.3159379207
 10
-15.8566814148
 20
20.30989861
  0
LWPOLYLINE
  5
5AA
100
AcDbEntity
  8
RACCORDO
100
AcDbPolyline
 62
250
  6
CONTINUOUS
 90
20
 70
0
 10
-6.60472399
 20
21.4491694386
 10
-6.5000541262
 20
21.469808566
 10
-6.3934169376
 20
21.487760531
 10
-6.284828313
 20
21.5030458532
 10
-6.1751198034
 20
21.5155472094
 10
-6.0642839127
 20
21.525242981
 10
-5.952328137
 20
21.5321547866
 10
-5.8401065159
 20
21.5362301579
 10
-5.7276176922
 20
21.5374474479
 10
-5.6148630231
 20
21.5358283036
 10
-5.5027006202
 20
21.5313851973
 10
-5.3911347094
 20
21.524096632
 10
-5.2801610647
 20
21.5139841047
 10
-5.1706251198
 20
21.5011245793
 10
-5.0625366443
 20
21.4854974121
 10
-4.9558858686
 20
21.4671232468
 10
-4.8514889168
 20
21.446140978
 10
-4.7496178303
 20
21.4225969039
 10
-4.6500005677
 20
21.3964447263
 10
-4.552637129
 20
21.3676844451
  0
LWPOLYLINE
  5
5AB
100
AcDbEntity
  8
ASSI
100
AcDbPolyline
 62
7
  6
CONTINUOUS
 90
3
 70
0
 10
-12.2680533445
 20
22.1178443133
 10
-12.3129390326
 20
22.1125679494
 10
-12.3595479421
 20
22.1032466556
  0
LWPOLYLINE
  5
5AC
100
AcDbEntity
  8
RACCORDO
100
AcDbPolyline
 62
7
  6
CONTINUOUS
 90
10
 70
0
 10
-2.5172340027
 20
23.1226907812
 10
-2.5028166319
 20
23.1211508781
 10
-2.3620359815
 20
23.0930617004
 10
-2.2196625489
 20
23.0516666336
 10
-2.0761536594
 20
22.996963626
 10
-1.9322213465
 20
22.9290651663
 10
-1.7896831035
 20
22.848826343
 10
-1.6493469136
 20
22.756869843
 10
-1.5115473189
 20
22.6535523462
 10
-1.414551823
 20
22.5713496913
  0
LWPOLYLINE
  5
5AD
100
AcDbEntity
  8
ASSI
100
AcDbPolyline
 62
7
  6
CONTINUOUS
 90
8
 70
0
 10
-2.512714886
 20
23.1204312228
 10
-2.4674563526
 20
23.1153164091
 10
-2.2736456511
 20
23.0688803349
 10
-2.076599182
 20
22.9971534593
 10
-1.8784778749
 20
22.9003437296
 10
-1.6837648236
 20
22.7806372561
 10
-1.4946581175
 20
22.6399680272
 10
-1.4192387347
 20
22.5736931472
  0
LWPOLYLINE
  5
5AE
100
AcDbEntity
  8
ASSI
100
AcDbPolyline
 62
250
  6
CONTINUOUS
 90
5
 70
0
 10
0.6035706074
 20
23.0535648077
 10
0.571084014
 20
23.0582871446
 10
0.5369983553
 20
23.0579694709
 10
0.5016862282
 20
23.0526168095
 10
0.4655240658
 20
23.0422877167
  0
LWPOLYLINE
  5
5AF
100
AcDbEntity
  8
RACCORDO
100
AcDbPolyline
 62
250
  6
CONTINUOUS
 90
6
 70
0
 10
-4.2192935277
 20
25.4709794252
 10
-4.2570404257
 20
25.4837309168
 10
-4.2978046839
 20
25.4887415457
 10
-4.3409042066
 20
25.4859274705
 10
-4.385617823
 20
25.4753357784
 10
-4.4311973541
 20
25.4571436968
  0
LWPOLYLINE
  5
5B0
100
AcDbEntity
  8
ASSI
100
AcDbPolyline
 62
250
  6
CONTINUOUS
 90
6
 70
0
 10
-4.215895152
 20
25.4693756122
 10
-4.2570404257
 20
25.4837309168
 10
-4.2978046839
 20
25.4887415457
 10
-4.3409042066
 20
25.4859274705
 10
-4.385617823
 20
25.4753357784
 10
-4.4311973541
 20
25.4571436968
  0
LWPOLYLINE
  5
5B1
100
AcDbEntity
  8
RACCORDO
100
AcDbPolyline
 62
7
  6
CONTINUOUS
 90
6
 70
0
 10
-4.2529584475
 20
25.4861207031
 10
-4.3044080799
 20
25.5043867439
 10
-4.3570190434
 20
25.5174977927
 10
-4.4103462052
 20
25.5253956648
 10
-4.4639438828
 20
25.5280458935
 10
-4.5171342365
 20
25.5254601725
  0
LWPOLYLINE
  5
5B2
100
AcDbEntity
  8
RACCORDO
100
AcDbPolyline
 62
250
  6
CONTINUOUS
 90
13
 70
0
 10
9.4025108589
 20
-28.6787144599
 10
9.4424003379
 20
-28.6284340077
 10
9.4784883326
 20
-28.5733700718
 10
9.5106381643
 20
-28.5136993991
 10
9.5386989854
 20
-28.4496273342
 10
9.5625820791
 20
-28.3813467216
 10
9.5822600686
 20
-28.3090360358
 10
9.5976397773
 20
-28.2329264074
 10
9.6086441211
 20
-28.1532634347
 10
9.6152873486
 20
-28.0702649507
 10
9.6175430186
 20
-27.984185708
 10
9.6153443082
 20
-27.8953166632
 10
9.6086645046
 20
-27.8039453147
  0
LWPOLYLINE
  5
5B3
100
AcDbEntity
  8
RACCORDO
100
AcDbPolyline
 62
7
  6
CONTINUOUS
 90
3
 70
0
 10
-4.5171342365
 20
25.5254601725
 10
-4.5693861927
 20
25.51774848
 10
-4.6203804169
 20
25.5050482503
  0
LWPOLYLINE
  5
5B4
100
AcDbEntity
  8
ASSI
100
AcDbPolyline
 62
7
  6
CONTINUOUS
 90
4
 70
0
 10
-4.4285263777
 20
25.526883698
 10
-4.5086620348
 20
25.5262232198
 10
-4.5874844685
 20
25.5138428278
 10
-4.6631772997
 20
25.4901536036
  0
LWPOLYLINE
  5
5B5
100
AcDbEntity
  8
RACCORDO
100
AcDbPolyline
 62
250
  6
CONTINUOUS
 90
7
 70
0
 10
7.2125727198
 20
-30.274173578
 10
7.5664912783
 20
-30.0406891401
 10
7.9088574593
 20
-29.7889523969
 10
8.2388437101
 20
-29.5195470352
 10
8.5561741799
 20
-29.2326676173
 10
8.8611247196
 20
-28.9281195809
 10
9.1536953291
 20
-28.605902926
  0
LWPOLYLINE
  5
5B6
100
AcDbEntity
  8
RACCORDO
100
AcDbPolyline
 62
250
  6
CONTINUOUS
 90
7
 70
0
 10
7.4453477818
 20
-30.3599602367
 10
7.8022249019
 20
-30.1246171633
 10
8.1471332258
 20
-29.8710888939
 10
8.4798998972
 20
-29.599513441
 10
8.8002680926
 20
-29.3100874917
 10
9.1078998183
 20
-29.0030709932
 10
9.4025108589
 20
-28.6787144599
  0
LWPOLYLINE
  5
5B7
100
AcDbEntity
  8
0
100
AcDbPolyline
 62
7
  6
CONTINUOUS
 90
7
 70
0
 10
7.6611661873
 20
-30.2549459971
 10
8.0606712167
 20
-29.9987496432
 10
8.4500795443
 20
-29.7238087965
 10
8.8284788283
 20
-29.430761707
 10
9.1955649548
 20
-29.1198211248
 10
9.5516420378
 20
-28.7907742998
 10
9.8967100771
 20
-28.443621232
  0
LWPOLYLINE
  5
5B8
100
AcDbEntity
  8
RACCORDO
100
AcDbPolyline
 62
7
  6
CONTINUOUS
 90
10
 70
0
 10
10.8697984671
 20
-28.4789322125
 10
11.142715809
 20
-28.3083383896
 10
11.4106721467
 20
-28.1292721415
 10
11.6736674804
 20
-27.9417334681
 10
11.9317964147
 20
-27.7456428953
 10
12.1849643449
 20
-27.5410798973
 10
12.432887457
 20
-27.328282897
 10
12.6754711461
 20
-27.1073313686
 10
12.912810017
 20
-26.8781458379
 10
13.1449040698
 20
-26.6407263049
  0
LINE
  5
5B9
100
AcDbEntity
  8
0
100
AcDbLine
 62
7
  6
CONTINUOUS
 10
7.2518685699
 20
-30.4921851081
 11
7.6611661873
 21
-30.2549459971
  0
LINE
  5
5BA
100
AcDbEntity
  8
DRAFT
100
AcDbLine
 62
7
  6
CONTINUOUS
 10
12.6712784429
 20
-27.5466281358
 11
10.7050177114
 21
-28.5844533448
  0
LINE
  5
5BB
100
AcDbEntity
  8
DRAFT
100
AcDbLine
 62
7
  6
CONTINUOUS
 10
13.4101900312
 20
-27.138997438
 11
10.8697984671
 21
-28.4789322125
  0
LINE
  5
5BC
100
AcDbEntity
  8
RACCORDO
100
AcDbLine
 62
250
  6
CONTINUOUS
 10
10.7050177114
 20
-27.1613893948
 11
13.448719118
 21
-25.7201011291
  0
LINE
  5
5BD
100
AcDbEntity
  8
RACCORDO
100
AcDbLine
 62
250
  6
CONTINUOUS
 10
10.7050177114
 20
-27.9220392451
 11
13.1449040694
 21
-26.6407263053
  0
LWPOLYLINE
  5
5BE
100
AcDbEntity
  8
RACCORDO
100
AcDbPolyline
 62
250
  6
CONTINUOUS
 90
3
 70
0
 10
6.6777664082
 20
-30.5778036233
 10
6.8473776349
 20
-30.4892111482
 10
7.2125727198
 20
-30.274173578
  0
LINE
  5
5BF
100
AcDbEntity
  8
DRAFT
100
AcDbLine
 62
7
  6
CONTINUOUS
 10
13.6488552127
 20
-26.5185820326
 11
12.8833218061
 21
-26.9066210357
  0
LWPOLYLINE
  5
5C0
100
AcDbEntity
  8
0
100
AcDbPolyline
 62
7
  6
CONTINUOUS
 90
3
 70
0
 10
6.6789431873
 20
-30.7847857446
 10
6.8324742507
 20
-30.7106797264
 10
7.2518685699
 20
-30.4921851081
  0
LWPOLYLINE
  5
5C1
100
AcDbEntity
  8
RACCORDO
100
AcDbPolyline
 62
250
  6
CONTINUOUS
 90
4
 70
0
 10
6.6630161871
 20
-30.7916655731
 10
6.6968645277
 20
-30.7753648905
 10
7.0767714522
 20
-30.5769443533
 10
7.4453477818
 20
-30.3599602367
  0
LINE
  5
5C2
100
AcDbEntity
  8
0
100
AcDbLine
 62
250
  6
CONTINUOUS
 10
9.4025108589
 20
-28.6787144599
 11
9.8967100771
 21
-28.443621232
  0
LINE
  5
5C3
100
AcDbEntity
  8
0
100
AcDbLine
 62
250
  6
CONTINUOUS
 10
9.6086645046
 20
-27.8039453147
 11
10.3074371362
 21
-27.471649449
  0
LINE
  5
5C4
100
AcDbEntity
  8
DRAFT
100
AcDbLine
 62
7
  6
CONTINUOUS
 10
6.678958224
 20
-30.7848164499
 11
6.6629672303
 21
-30.7923753926
  0
LINE
  5
5C5
100
AcDbEntity
  8
RACCORDO
100
AcDbLine
 62
250
  6
CONTINUOUS
 10
8.5540616019
 20
-28.2633640866
 11
6.7855641894
 21
-29.014854596
  0
LINE
  5
5C6
100
AcDbEntity
  8
RACCORDO
100
AcDbLine
 62
7
  6
CONTINUOUS
 10
8.3870782505
 20
-28.6791681332
 11
6.7610616768
 21
-29.3701140257
  0
LINE
  5
5C7
100
AcDbEntity
  8
0
100
AcDbLine
 62
250
  6
CONTINUOUS
 10
10.3074371362
 20
-32.4551942696
 11
10.7050177114
 21
-32.2883060933
  0
LINE
  5
5C8
100
AcDbEntity
  8
0
100
AcDbLine
 62
7
  6
CONTINUOUS
 10
10.1624086136
 20
-32.7327050167
 11
10.5637519577
 21
-32.5642373828
  0
LWPOLYLINE
  5
5C9
100
AcDbEntity
  8
0
100
AcDbPolyline
 62
250
  6
CONTINUOUS
 90
10
 70
0
 10
10.3074371362
 20
-32.4551942696
 10
10.2873565826
 20
-32.4633407297
 10
10.2647765053
 20
-32.4696416062
 10
10.2403680653
 20
-32.4739097513
 10
10.2148566226
 20
-32.4760184423
 10
10.1890003929
 20
-32.4759051198
 10
10.1635679149
 20
-32.4735733017
 10
10.1393148873
 20
-32.4690924648
 10
10.1169617215
 20
-32.4625959057
 10
10.0971723635
 20
-32.4542767931
  0
LWPOLYLINE
  5
5CA
100
AcDbEntity
  8
RACCORDO
100
AcDbPolyline
 62
250
  6
CONTINUOUS
 90
9
 70
0
 10
1.9049761804
 20
-35.7353422157
 10
1.9213104391
 20
-35.7289367976
 10
1.958919069
 20
-35.7077228875
 10
1.9928121827
 20
-35.6789002053
 10
2.0224102544
 20
-35.6429617151
 10
2.0472071954
 20
-35.6005220807
 10
2.0667790443
 20
-35.5523071159
 10
2.0807912056
 20
-35.4991413573
 10
2.0890041549
 20
-35.4419339862
  0
LINE
  5
5CB
100
AcDbEntity
  8
RACCORDO
100
AcDbLine
 62
250
  6
CONTINUOUS
 10
6.4461439379
 20
-33.9360741806
 11
2.0890041549
 21
-35.4419339862
  0
LINE
  5
5CC
100
AcDbEntity
  8
RACCORDO
100
AcDbLine
 62
7
  6
CONTINUOUS
 10
1.9047024263
 20
-35.7354366198
 11
6.267121843
 21
-34.2277523411
  0
LWPOLYLINE
  5
5CD
100
AcDbEntity
  8
RACCORDO
100
AcDbPolyline
 62
250
  6
CONTINUOUS
 90
19
 70
0
 10
2.0890041549
 20
-35.4419339862
 10
2.0590882926
 20
-35.4506920852
 10
2.030025138
 20
-35.4562148582
 10
2.0018146911
 20
-35.4585023053
 10
1.9742608627
 20
-35.4575279645
 10
1.9475597419
 20
-35.4533182977
 10
1.9222995968
 20
-35.4459526908
 10
1.8985232644
 20
-35.4353633822
 10
1.8761879077
 20
-35.4216181334
 10
1.8557532827
 20
-35.4049996149
 10
1.837258482
 20
-35.3854475893
 10
1.8206644131
 20
-35.3630222941
 10
1.8063135555
 20
-35.3381871117
 10
1.7942519396
 20
-35.310875531
 10
1.784433535
 20
-35.2811540631
 10
1.7770627291
 20
-35.2496856244
 10
1.7722076512
 20
-35.2166911869
 10
1.769800172
 20
-35.1819497785
 10
1.7698402916
 20
-35.1454613992
  0
ELLIPSE
  5
5CE
100
AcDbEntity
  8
0
100
AcDbEllipse
 62
7
  6
CONTINUOUS
 10
-20.619758839
 20
21.3057307161
 30
0.0
 11
-0.2237009107
 21
0.4473351135
 31
0.0
 40
0.6121897086
 41
-0.6846338794
 42
0.019016077
  0
ELLIPSE
  5
5CF
100
AcDbEntity
  8
0
100
AcDbEllipse
 62
7
  6
CONTINUOUS
 10
-5.558492112
 20
13.7750973525
 30
0.0
 11
-0.2235807756
 21
0.4472283268
 31
0.0
 40
0.6125552124
 41
-2.1627530796
 42
-0.6848044477
  0
ELLIPSE
  5
5D0
100
AcDbEntity
  8
DRAFT
100
AcDbEllipse
 62
7
  6
CONTINUOUS
 10
-9.9751711234
 20
14.6075392366
 30
0.0
 11
-0.1874317891
 21
0.5510210025
 31
0.0
 40
0.6669031534
 41
-2.9785891508
 42
0.1660758833
  0
ELLIPSE
  5
5D1
100
AcDbEntity
  8
DRAFT
100
AcDbEllipse
 62
7
  6
CONTINUOUS
 10
-17.7533457164
 20
18.4966265331
 30
0.0
 11
-0.1874317891
 21
0.5510210025
 31
0.0
 40
0.6669031534
 41
-2.9785891508
 42
0.1660758833
  0
ELLIPSE
  5
5D2
100
AcDbEntity
  8
0
100
AcDbEllipse
 62
7
  6
CONTINUOUS
 10
-4.7098562623
 20
13.3502511444
 30
0.0
 11
-0.2234618187
 21
0.4480306886
 31
0.0
 40
0.6116748051
 41
-0.6831523243
 42
0.039937946
  0
ELLIPSE
  5
5D3
100
AcDbEntity
  8
0
100
AcDbEllipse
 62
7
  6
CONTINUOUS
 10
10.3514104647
 20
5.8196177809
 30
0.0
 11
-0.2230998035
 21
0.4477110033
 31
0.0
 40
0.6127700112
 41
-2.2535417632
 42
-0.6836588249
  0
ELLIPSE
  5
5D4
100
AcDbEntity
  8
0
100
AcDbEllipse
 62
7
  6
CONTINUOUS
 10
10.3514104647
 20
-32.1111064184
 30
0.0
 11
-0.2234618187
 21
0.4480306886
 31
0.0
 40
0.6116748051
 41
-3.1815309129
 42
-2.2548620396
  0
ELLIPSE
  5
5D5
100
AcDbEntity
  8
RACCORDO
100
AcDbEllipse
 62
7
  6
CONTINUOUS
 10
4.5415953446
 20
8.3994612098
 30
0.0
 11
0.0869927845
 21
0.180102834
 31
0.0
 40
0.6016116119
 41
0.7288497708
 42
2.1251131724
  0
ELLIPSE
  5
5D6
100
AcDbEntity
  8
DRAFT
100
AcDbEllipse
 62
7
  6
CONTINUOUS
 10
14.538583208
 20
4.8478369061
 30
0.0
 11
27.3775602615
 21
-16.9207334468
 31
0.0
 40
0.0815186111
 41
1.6623118437
 42
1.6893084912
  0
ELLIPSE
  5
5D7
100
AcDbEntity
  8
DRAFT
100
AcDbEllipse
 62
7
  6
CONTINUOUS
 10
14.538583208
 20
4.0190165034
 30
0.0
 11
20.3353299935
 21
32.9041701428
 31
0.0
 40
0.5586607408
 41
-2.3739654893
 42
-2.3469688418
  0
ELLIPSE
  5
5D8
100
AcDbEntity
  8
RACCORDO
100
AcDbEllipse
 62
7
  6
CONTINUOUS
 10
0.0000980987
 20
10.6702098327
 30
0.0
 11
0.0919907694
 21
0.1776025845
 31
0.0
 40
0.6229838795
 41
0.7459652997
 42
2.1422287013
  0
ELLIPSE
  5
5D9
100
AcDbEntity
  8
ASSI
100
AcDbEllipse
 62
7
  6
CONTINUOUS
 10
5.9341913749
 20
6.6469307636
 30
0.0
 11
-0.1618715941
 21
0.4757775884
 31
0.0
 40
0.6669175362
 41
3.2324071325
 42
6.3739997861
  0
ELLIPSE
  5
5DA
100
AcDbEntity
  8
ASSI
100
AcDbEllipse
 62
7
  6
CONTINUOUS
 10
-1.8439832182
 20
10.5360180601
 30
0.0
 11
-0.1618715941
 21
0.4757775884
 31
0.0
 40
0.6669175362
 41
3.2324071325
 42
6.3739997861
  0
ELLIPSE
  5
5DB
100
AcDbEntity
  8
RACCORDO
100
AcDbEllipse
 62
7
  6
CONTINUOUS
 10
7.9879433844
 20
-27.9795420033
 30
0.0
 11
-0.434489478
 21
0.681019808
 31
0.0
 40
0.5433560875
 41
-3.2324210886
 42
-2.3092233253
  0
ELLIPSE
  5
5DC
100
AcDbEntity
  8
DRAFT
100
AcDbEllipse
 62
7
  6
CONTINUOUS
 10
1.1237208264
 20
16.6390711658
 30
0.0
 11
2.6995028143
 21
-0.1108788769
 31
0.0
 40
0.4672909446
 41
2.3928388478
 42
2.8885731487
  0
ELLIPSE
  5
5DD
100
AcDbEntity
  8
DRAFT
100
AcDbEllipse
 62
7
  6
CONTINUOUS
 10
1.8308276075
 20
16.0657703884
 30
0.0
 11
2.7999338239
 21
-0.0393479794
 31
0.0
 40
0.4892375088
 41
0.7268246302
 42
2.1371003781
  0
ELLIPSE
  5
5DE
100
AcDbEntity
  8
DRAFT
100
AcDbEllipse
 62
7
  6
CONTINUOUS
 10
-5.2402402043
 20
20.2941246174
 30
0.0
 11
2.7999338239
 21
-0.0393479794
 31
0.0
 40
0.4892375088
 41
7.194789037
 42
8.4190700833
  0
ELLIPSE
  5
5DF
100
AcDbEntity
  8
DRAFT
100
AcDbEllipse
 62
7
  6
CONTINUOUS
 10
-5.9140270552
 20
20.8819466816
 30
0.0
 11
2.6995028143
 21
-0.1108788769
 31
0.0
 40
0.4672909446
 41
2.3928388478
 42
2.7418921552
  0
ELLIPSE
  5
5E0
100
AcDbEntity
  8
RACCORDO
100
AcDbEllipse
 62
7
  6
CONTINUOUS
 10
6.9902792303
 20
18.264157862
 30
0.0
 11
0.5078963414
 21
0.3040339819
 31
0.0
 40
0.0955345833
 41
0.0608564282
 42
0.7281223435
  0
ELLIPSE
  5
5E1
100
AcDbEntity
  8
RACCORDO
100
AcDbEllipse
 62
7
  6
CONTINUOUS
 10
-0.0813701831
 20
22.8431130019
 30
0.0
 11
0.5078963414
 21
0.3040339819
 31
0.0
 40
0.0955345833
 41
0.0608564282
 42
0.7281223435
  0
ELLIPSE
  5
5E2
100
AcDbEntity
  8
RACCORDO
100
AcDbEllipse
 62
7
  6
CONTINUOUS
 10
3.0353370155
 20
20.2416289694
 30
0.0
 11
-0.3622213317
 21
0.604758663
 31
0.0
 40
0.5487841728
 41
4.6863149424
 42
6.2396579766
  0
ELLIPSE
  5
5E3
100
AcDbEntity
  8
RACCORDO
100
AcDbEllipse
 62
7
  6
CONTINUOUS
 10
-4.0351491948
 20
24.8200025078
 30
0.0
 11
-0.3622213317
 21
0.604758663
 31
0.0
 40
0.5487841728
 41
4.6863149424
 42
6.2396579766
  0
ELLIPSE
  5
5E4
100
AcDbEntity
  8
DRAFT
100
AcDbEllipse
 62
7
  6
CONTINUOUS
 10
1.8308276075
 20
16.9472380882
 30
0.0
 11
2.7994844001
 21
-0.114985502
 31
0.0
 40
0.4672909446
 41
0.295419578
 42
2.1494162078
  0
ELLIPSE
  5
5E5
100
AcDbEntity
  8
DRAFT
100
AcDbEllipse
 62
7
  6
CONTINUOUS
 10
-5.2402402043
 20
21.1755923171
 30
0.0
 11
2.7994844001
 21
-0.114985502
 31
0.0
 40
0.4672909446
 41
0.4989599013
 42
2.1482006058
  0
ELLIPSE
  5
5E6
100
AcDbEntity
  8
RACCORDO
100
AcDbEllipse
 62
7
  6
CONTINUOUS
 10
-5.5801962969
 20
18.3169004481
 30
0.0
 11
0.1677841941
 21
0.4740861062
 31
0.0
 40
0.4918293396
 41
-0.0609724642
 42
0.6062934277
  0
ELLIPSE
  5
5E7
100
AcDbEntity
  8
ASSI
100
AcDbEllipse
 62
7
  6
CONTINUOUS
 10
1.1237208264
 20
16.6390711658
 30
0.0
 11
2.6995028143
 21
-0.1108788769
 31
0.0
 40
0.4672909446
 41
8.676024155
 42
9.1717584558
  0
ELLIPSE
  5
5E8
100
AcDbEntity
  8
ASSI
100
AcDbEllipse
 62
7
  6
CONTINUOUS
 10
-5.9140270552
 20
20.8819466816
 30
0.0
 11
2.6995028143
 21
-0.1108788769
 31
0.0
 40
0.4672909446
 41
8.676024155
 42
9.0250774624
  0
ELLIPSE
  5
5E9
100
AcDbEntity
  8
ASSI
100
AcDbEllipse
 62
7
  6
CONTINUOUS
 10
6.9902792303
 20
18.264157862
 30
0.0
 11
0.5078963414
 21
0.3040339819
 31
0.0
 40
0.0955345833
 41
0.0608564282
 42
0.7281223435
  0
ELLIPSE
  5
5EA
100
AcDbEntity
  8
ASSI
100
AcDbEllipse
 62
7
  6
CONTINUOUS
 10
-0.0813701831
 20
22.8431130019
 30
0.0
 11
0.5078963414
 21
0.3040339819
 31
0.0
 40
0.0955345833
 41
0.0608564282
 42
0.7281223435
  0
ELLIPSE
  5
5EB
100
AcDbEntity
  8
ASSI
100
AcDbEllipse
 62
7
  6
CONTINUOUS
 10
1.8308276075
 20
16.0657703884
 30
0.0
 11
2.7999338239
 21
-0.0393479794
 31
0.0
 40
0.4892375088
 41
0.7268246302
 42
2.1371003781
  0
ELLIPSE
  5
5EC
100
AcDbEntity
  8
ASSI
100
AcDbEllipse
 62
7
  6
CONTINUOUS
 10
-5.2402402043
 20
20.2941246174
 30
0.0
 11
2.7999338239
 21
-0.0393479794
 31
0.0
 40
0.4892375088
 41
7.194789037
 42
8.4190700833
  0
ELLIPSE
  5
5ED
100
AcDbEntity
  8
ASSI
100
AcDbEllipse
 62
7
  6
CONTINUOUS
 10
-5.5801962969
 20
18.3169004481
 30
0.0
 11
0.1677841941
 21
0.4740861062
 31
0.0
 40
0.4918293396
 41
-0.0609724642
 42
0.6062934277
  0
ELLIPSE
  5
5EE
100
AcDbEntity
  8
ASSI
100
AcDbEllipse
 62
7
  6
CONTINUOUS
 10
3.0353370155
 20
20.2416289694
 30
0.0
 11
-0.3622213317
 21
0.604758663
 31
0.0
 40
0.5487841728
 41
4.6863149424
 42
6.2396579766
  0
ELLIPSE
  5
5EF
100
AcDbEntity
  8
ASSI
100
AcDbEllipse
 62
7
  6
CONTINUOUS
 10
-4.0351491948
 20
24.8200025078
 30
0.0
 11
-0.3622213317
 21
0.604758663
 31
0.0
 40
0.5487841728
 41
4.6863149424
 42
6.2396579766
  0
ELLIPSE
  5
5F0
100
AcDbEntity
  8
ASSI
100
AcDbEllipse
 62
7
  6
CONTINUOUS
 10
-10.1192769945
 20
16.748481653
 30
0.0
 11
-0.0893707736
 21
0.1790031855
 31
0.0
 40
0.6122975693
 41
-3.162544158
 42
-2.2548589362
  0
ELLIPSE
  5
5F1
100
AcDbEntity
  8
ASSI
100
AcDbEllipse
 62
7
  6
CONTINUOUS
 10
1.8308276075
 20
16.9472380882
 30
0.0
 11
2.7994844001
 21
-0.114985502
 31
0.0
 40
0.4672909446
 41
0.295419578
 42
2.1494162078
  0
ELLIPSE
  5
5F2
100
AcDbEntity
  8
ASSI
100
AcDbEllipse
 62
7
  6
CONTINUOUS
 10
-5.2402402043
 20
21.1755923171
 30
0.0
 11
2.7994844001
 21
-0.114985502
 31
0.0
 40
0.4672909446
 41
0.4989599013
 42
2.1482006058
  0
ELLIPSE
  5
5F3
100
AcDbEntity
  8
RACCORDO
100
AcDbEllipse
 62
7
  6
CONTINUOUS
 10
-21.8935528717
 20
19.7037693729
 30
0.0
 11
-0.1828920694
 21
0.4656153856
 31
0.0
 40
0.6532976604
 41
-0.6278386123
 42
0.0271369703
  0
ELLIPSE
  5
5F4
100
AcDbEntity
  8
RACCORDO
100
AcDbEllipse
 62
7
  6
CONTINUOUS
 10
8.7240630415
 20
4.3949614163
 30
0.0
 11
-0.1826623061
 21
0.4654722043
 31
0.0
 40
0.6538654528
 41
-2.1982822863
 42
-0.6279428103
  0
ELLIPSE
  5
5F5
100
AcDbEntity
  8
RACCORDO
100
AcDbEllipse
 62
7
  6
CONTINUOUS
 10
6.0925507735
 20
-33.7590663792
 30
0.0
 11
-0.1828920694
 21
0.4656153856
 31
0.0
 40
0.6532976604
 41
-3.1687296359
 42
-2.1990917899
  0
ENDSEC
  0
SECTION
  2
OBJECTS
  0
DICTIONARY
  5
C
100
AcDbDictionary
280
0
281
1
  3
ACAD_GROUP
350
D
  3
ACAD_MLINESTYLE
350
17
  3
ACAD_LAYOUT
350
1A
  3
ACAD_PLOTSETTINGS
350
19
  3
ACAD_PLOTSTYLENAME
350
E
  0
DICTIONARY
  5
D
102
{ACAD_REACTORS
330
C
102
}
100
AcDbDictionary
280
0
281
1
  0
ACDBDICTIONARYWDFLT
  5
E
102
{ACAD_REACTORS
330
C
102
}
100
AcDbDictionary
281
1
  3
Normal
350
F
100
AcDbDictionaryWithDefault
340
F
  0
DICTIONARY
  5
17
102
{ACAD_REACTORS
330
C
102
}
100
AcDbDictionary
280
0
281
1
  3
Standard
350
18
  0
DICTIONARY
  5
19
102
{ACAD_REACTORS
330
C
102
}
100
AcDbDictionary
281
1
  0
DICTIONARY
  5
1A
102
{ACAD_REACTORS
330
C
102
}
100
AcDbDictionary
281
1
  3
Model
350
5F6
  3
Layout1
350
5F7
  0
ACDBPLACEHOLDER
  5
F
102
{ACAD_REACTORS
330
E
102
}
  0
MLINESTYLE
  5
18
102
{ACAD_REACTORS
330
17
102
}
100
AcDbMlineStyle
  2
STANDARD
 70
0
  3

 62
256
 51
90.0
 52
90.0
 71
2
 49
0.5
 62
256
  6
BYLAYER
 49
-0.5
 62
256
  6
BYLAYER
  0
LAYOUT
  5
5F6
102
{ACAD_REACTORS
330
1A
102
}
100
AcDbPlotSettings
  1

  2
none_device
  4
ANSI_A_(11.00_x_8.50_Inches)
  6

 40
0.0
 41
0.0
 42
0.0
 43
0.0
 44
279.4
 45
215.9
 46
0.0
 47
0.0
 48
0.0
 49
0.0
140
0.0
141
0.0
142
1.0
143
1.0
 70
1024
 72
1
 73
0
 74
0
  7

 75
0
147
1.0
148
0.0
149
0.0
100
AcDbLayout
  1
Model
 70
0
 71
0
 10
0.0
 20
0.0
 11
279.4
 21
215.9
 12
0.0
 22
0.0
 32
0.0
 14
0.0
 24
0.0
 34
0.0
 15
0.0
 25
0.0
 35
0.0
146
0.0
 13
0.0
 23
0.0
 33
0.0
 16
1.0
 26
0.0
 36
0.0
 17
0.0
 27
1.0
 37
0.0
 76
0
330
21F
345
0
346
0
  0
LAYOUT
  5
5F7
102
{ACAD_REACTORS
330
1A
102
}
100
AcDbPlotSettings
  1

  2
none_device
  4
ANSI_A_(11.00_x_8.50_Inches)
  6

 40
0.0
 41
0.0
 42
0.0
 43
0.0
 44
279.4
 45
215.9
 46
0.0
 47
0.0
 48
0.0
 49
0.0
140
0.0
141
0.0
142
1.0
143
1.0
 70
0
 72
1
 73
0
 74
0
  7

 75
0
147
1.0
148
0.0
149
0.0
100
AcDbLayout
  1
Layout1
 70
0
 71
1
 10
0.0
 20
0.0
 11
279.4
 21
215.9
 12
0.0
 22
0.0
 32
0.0
 14
0.0
 24
0.0
 34
0.0
 15
0.0
 25
0.0
 35
0.0
146
0.0
 13
0.0
 23
0.0
 33
0.0
 16
1.0
 26
0.0
 36
0.0
 17
0.0
 27
1.0
 37
0.0
 76
0
330
220
345
0
346
0
  0
ENDSEC
  0
EOF
