  0
SECTION
  2
HEADER
  9
$ACADVER
  1
AC1024
  9
$DWGCODEPAGE
  3
ANSI_1252
  9
$EXTMAX
 10
279.4
 20
215.9
 30
0.0
  9
$EXTMIN
 10
0.0
 20
0.0
 30
0.0
  9
$LIMMIN
 10
0.0
 20
0.0
  9
$LIMMAX
 10
279.4
 20
215.9
  9
$VIEWCTR
 10
139.7
 20
107.95
  9
$VIEWSIZE
 40
215.9
  9
$CLAYER
  8
0
  9
$LTSCALE
 40
15.367
  9
$CELTYPE
  6
BYLAYER
  9
$DIMSCALE
 40
1.0
  9
$DIMASZ
 40
3.0
  9
$DIMEXO
 40
0.5
  9
$DIMDLI
 40
10.6172
  9
$DIMEXE
 40
1.5
  9
$DIMCEN
 40
2.5146
  9
$DIMLFAC
 40
1.0
  9
$DIMBLK
  1
_FILLED
  9
$DIMALT
 70
0
  9
$DIMALTF
 40
0.0393700787
  9
$DIMTXT
 40
3.0
  9
$DIMTOL
 70
1
  9
$DIMLIM
 70
0
  9
$DIMTFAC
 40
1.0
  9
$DIMTP
 40
0.01
  9
$DIMTM
 40
0.01
  9
$DIMGAP
 40
0.625
  9
$DIMDSEP
 70
44
  9
$AUNITS
 70
0
  9
$PDMODE
 70
3
  9
$PDSIZE
 40
3.0
  9
$HANDSEED
  5
3B9
  9
$TILEMODE
 70
1
  9
$MEASUREMENT
 70
1
  9
$INSUNITS
 70
4
  0
ENDSEC
  0
SECTION
  2
CLASSES
  0
CLASS
  1
ACDBDICTIONARYWDFLT
  2
AcDbDictionaryWithDefault
  3
AutoCAD 2000
 90
0
 91
1
280
0
281
0
  0
CLASS
  1
ACDBPLACEHOLDER
  2
AcDbPlaceHolder
  3
AutoCAD 2000
 90
0
 91
1
280
0
281
0
  0
CLASS
  1
LAYOUT
  2
AcDbLayout
  3
AutoCAD 2000
 90
0
 91
0
280
0
281
0
  0
ENDSEC
  0
SECTION
  2
TABLES
  0
TABLE
  2
VPORT
  5
8
100
AcDbSymbolTable
 70
2
  0
VPORT
  5
1F4
100
AcDbSymbolTableRecord
100
AcDbViewportTableRecord
  2
*ACTIVE
 70
0
 10
0.0
 20
0.0
 11
1.0
 21
1.0
 12
139.7
 22
107.95
 13
0.0
 23
0.0
 14
1.0
 24
1.0
 15
0.0
 25
0.0
 16
0.0
 26
0.0
 36
1.0
 17
0.0
 27
0.0
 37
0.0
 40
215.9
 41
1.2941176471
 42
50.0
 43
0.0
 44
0.0
 50
0.0
 51
0.0
 71
0
 72
100
 73
1
 74
1
 75
0
 76
0
 77
0
 78
0
  0
ENDTAB
  0
TABLE
  2
LTYPE
  5
5
100
AcDbSymbolTable
 70
6
  0
LTYPE
  5
14
100
AcDbSymbolTableRecord
100
AcDbLinetypeTableRecord
  2
BYBLOCK
 70
0
  3

 72
65
 73
0
 40
0.0
  0
LTYPE
  5
15
100
AcDbSymbolTableRecord
100
AcDbLinetypeTableRecord
  2
BYLAYER
 70
0
  3

 72
65
 73
0
 40
0.0
  0
LTYPE
  5
16
100
AcDbSymbolTableRecord
100
AcDbLinetypeTableRecord
  2
CONTINUOUS
 70
64
  3
Solid line
 72
65
 73
0
 40
0.0
  0
LTYPE
  5
1F5
100
AcDbSymbolTableRecord
100
AcDbLinetypeTableRecord
  2
CENTER
 70
64
  3
____ _ ____ _ ____ _ ____ _ ____ _ ____ _ ____
 72
65
 73
4
 40
0.6
 49
0.375
 74
0
 49
-0.075
 74
0
 49
0.075
 74
0
 49
-0.075
 74
0
  0
LTYPE
  5
1F6
100
AcDbSymbolTableRecord
100
AcDbLinetypeTableRecord
  2
HIDDEN
 70
64
  3
- - - - - - - - - - - - - - - - - - - -
 72
65
 73
2
 40
0.2
 49
0.1
 74
0
 49
-0.1
 74
0
  0
LTYPE
  5
1F7
100
AcDbSymbolTableRecord
100
AcDbLinetypeTableRecord
  2
PHANTOM
 70
64
  3
_____ _ _ _____ _ _ _____ _ _ _____
 72
65
 73
6
 40
0.8
 49
0.45
 74
0
 49
-0.05
 74
0
 49
0.1
 74
0
 49
-0.05
 74
0
 49
0.1
 74
0
 49
-0.05
 74
0
  0
LTYPE
  5
1F8
100
AcDbSymbolTableRecord
100
AcDbLinetypeTableRecord
  2
DOT
 70
64
  3
. . . . . . . . . . . . . . . . . . . .
 72
65
 73
2
 40
0.2
 49
0.1
 74
0
 49
-0.1
 74
0
  0
LTYPE
  5
1F9
100
AcDbSymbolTableRecord
100
AcDbLinetypeTableRecord
  2
DASHED
 70
64
  3
- - - - - - - - - - - - - - - - - - - -
 72
65
 73
2
 40
0.2
 49
0.1
 74
0
 49
-0.1
 74
0
  0
ENDTAB
  0
TABLE
  2
LAYER
  5
2
100
AcDbSymbolTable
 70
36
  0
LAYER
  5
10
100
AcDbSymbolTableRecord
100
AcDbLayerTableRecord
  2
0
 70
0
 62
7
  6
CONTINUOUS
370
-3
390
F
  0
LAYER
  5
1FA
100
AcDbSymbolTableRecord
100
AcDbLayerTableRecord
  2
DEFAULT_1
 70
0
 62
7
  6
CENTER
370
-3
390
F
  0
LAYER
  5
1FB
100
AcDbSymbolTableRecord
100
AcDbLayerTableRecord
  2
DEFAULT_2
 70
0
 62
7
  6
HIDDEN
370
-3
390
F
  0
LAYER
  5
1FC
100
AcDbSymbolTableRecord
100
AcDbLayerTableRecord
  2
DEFAULT_3
 70
0
 62
7
  6
PHANTOM
370
-3
390
F
  0
LAYER
  5
1FD
100
AcDbSymbolTableRecord
100
AcDbLayerTableRecord
  2
ASSI
 70
0
 62
7
  6
CONTINUOUS
370
-3
390
F
  0
LAYER
  5
1FE
100
AcDbSymbolTableRecord
100
AcDbLayerTableRecord
  2
COORDINATE
 70
0
 62
7
  6
CONTINUOUS
370
-3
390
F
  0
LAYER
  5
1FF
100
AcDbSymbolTableRecord
100
AcDbLayerTableRecord
  2
COORD_ORIGINE
 70
0
 62
7
  6
CONTINUOUS
370
-3
390
F
  0
LAYER
  5
200
100
AcDbSymbolTableRecord
100
AcDbLayerTableRecord
  2
COPY_PUBLISH
 70
0
 62
7
  6
CONTINUOUS
370
-3
390
F
  0
LAYER
  5
201
100
AcDbSymbolTableRecord
100
AcDbLayerTableRecord
  2
COSMETIC
 70
0
 62
7
  6
CONTINUOUS
370
-3
390
F
  0
LAYER
  5
202
100
AcDbSymbolTableRecord
100
AcDbLayerTableRecord
  2
COSMETICHE
 70
0
 62
7
  6
CONTINUOUS
370
-3
390
F
  0
LAYER
  5
203
100
AcDbSymbolTableRecord
100
AcDbLayerTableRecord
  2
COSMETICI
 70
0
 62
7
  6
CONTINUOUS
370
-3
390
F
  0
LAYER
  5
204
100
AcDbSymbolTableRecord
100
AcDbLayerTableRecord
  2
CURVE
 70
0
 62
7
  6
CONTINUOUS
370
-3
390
F
  0
LAYER
  5
205
100
AcDbSymbolTableRecord
100
AcDbLayerTableRecord
  2
DRAFT
 70
0
 62
7
  6
CONTINUOUS
370
-3
390
F
  0
LAYER
  5
206
100
AcDbSymbolTableRecord
100
AcDbLayerTableRecord
  2
ESTENSIONE
 70
0
 62
7
  6
CONTINUOUS
370
-3
390
F
  0
LAYER
  5
207
100
AcDbSymbolTableRecord
100
AcDbLayerTableRecord
  2
IMPORT_FEATURES
 70
0
 62
7
  6
CONTINUOUS
370
-3
390
F
  0
LAYER
  5
208
100
AcDbSymbolTableRecord
100
AcDbLayerTableRecord
  2
IMPORT_IGES
 70
0
 62
7
  6
CONTINUOUS
370
-3
390
F
  0
LAYER
  5
209
100
AcDbSymbolTableRecord
100
AcDbLayerTableRecord
  2
INTFCLR_1
 70
0
 62
7
  6
CONTINUOUS
370
-3
390
F
  0
LAYER
  5
20A
100
AcDbSymbolTableRecord
100
AcDbLayerTableRecord
  2
INTF_1
 70
0
 62
7
  6
CONTINUOUS
370
-3
390
F
  0
LAYER
  5
20B
100
AcDbSymbolTableRecord
100
AcDbLayerTableRecord
  2
INTF_11
 70
0
 62
7
  6
CONTINUOUS
370
-3
390
F
  0
LAYER
  5
20C
100
AcDbSymbolTableRecord
100
AcDbLayerTableRecord
  2
INTF_12
 70
0
 62
7
  6
CONTINUOUS
370
-3
390
F
  0
LAYER
  5
20D
100
AcDbSymbolTableRecord
100
AcDbLayerTableRecord
  2
INTF_2
 70
0
 62
7
  6
CONTINUOUS
370
-3
390
F
  0
LAYER
  5
20E
100
AcDbSymbolTableRecord
100
AcDbLayerTableRecord
  2
INTF_6
 70
0
 62
7
  6
CONTINUOUS
370
-3
390
F
  0
LAYER
  5
20F
100
AcDbSymbolTableRecord
100
AcDbLayerTableRecord
  2
INTF_7
 70
0
 62
7
  6
CONTINUOUS
370
-3
390
F
  0
LAYER
  5
210
100
AcDbSymbolTableRecord
100
AcDbLayerTableRecord
  2
NOTE
 70
0
 62
7
  6
CONTINUOUS
370
-3
390
F
  0
LAYER
  5
211
100
AcDbSymbolTableRecord
100
AcDbLayerTableRecord
  2
PIANI
 70
0
 62
7
  6
CONTINUOUS
370
-3
390
F
  0
LAYER
  5
212
100
AcDbSymbolTableRecord
100
AcDbLayerTableRecord
  2
PIANI_ORIGINE
 70
0
 62
7
  6
CONTINUOUS
370
-3
390
F
  0
LAYER
  5
213
100
AcDbSymbolTableRecord
100
AcDbLayerTableRecord
  2
PUNTI
 70
0
 62
7
  6
CONTINUOUS
370
-3
390
F
  0
LAYER
  5
214
100
AcDbSymbolTableRecord
100
AcDbLayerTableRecord
  2
RACCORDO
 70
0
 62
7
  6
CONTINUOUS
370
-3
390
F
  0
LAYER
  5
215
100
AcDbSymbolTableRecord
100
AcDbLayerTableRecord
  2
RGB__255__255__255__
 70
0
 62
7
  6
CONTINUOUS
370
-3
390
F
  0
LAYER
  5
216
100
AcDbSymbolTableRecord
100
AcDbLayerTableRecord
  2
RGB____0____0____0__
 70
0
 62
7
  6
CONTINUOUS
370
-3
390
F
  0
LAYER
  5
217
100
AcDbSymbolTableRecord
100
AcDbLayerTableRecord
  2
SMUSSO
 70
0
 62
7
  6
CONTINUOUS
370
-3
390
F
  0
LAYER
  5
218
100
AcDbSymbolTableRecord
100
AcDbLayerTableRecord
  2
SNAPLINE
 70
0
 62
7
  6
CONTINUOUS
370
-3
390
F
  0
LAYER
  5
219
100
AcDbSymbolTableRecord
100
AcDbLayerTableRecord
  2
SUPERFICI
 70
0
 62
7
  6
CONTINUOUS
370
-3
390
F
  0
LAYER
  5
21A
100
AcDbSymbolTableRecord
100
AcDbLayerTableRecord
  2
TRASH
 70
0
 62
7
  6
CONTINUOUS
370
-3
390
F
  0
LAYER
  5
21B
100
AcDbSymbolTableRecord
100
AcDbLayerTableRecord
  2
XSEC_DATUMS
 70
0
 62
7
  6
CONTINUOUS
370
-3
390
F
  0
ENDTAB
  0
TABLE
  2
STYLE
  5
3
100
AcDbSymbolTable
 70
1
  0
STYLE
  5
11
100
AcDbSymbolTableRecord
100
AcDbTextStyleTableRecord
  2
STANDARD
 70
0
 40
0.0
 41
0.8
 50
0.0
 71
0
 42
0.2
  3
txt
  4

  0
STYLE
  5
21C
100
AcDbSymbolTableRecord
100
AcDbTextStyleTableRecord
  2
TEXTSTYLE_1
 70
0
 40
0.0
 41
0.8
 50
0.0
 71
0
 42
0.2
  3
gdt
  4

  0
ENDTAB
  0
TABLE
  2
VIEW
  5
6
100
AcDbSymbolTable
 70
0
  0
ENDTAB
  0
TABLE
  2
UCS
  5
7
100
AcDbSymbolTable
 70
0
  0
ENDTAB
  0
TABLE
  2
APPID
  5
9
100
AcDbSymbolTable
 70
1
  0
APPID
  5
21D
100
AcDbSymbolTableRecord
100
AcDbRegAppTableRecord
  2
ACAD
 70
0
  0
ENDTAB
  0
TABLE
  2
BLOCK_RECORD
  5
1
100
AcDbSymbolTable
 70
0
  0
BLOCK_RECORD
  5
21E
100
AcDbSymbolTableRecord
100
AcDbBlockTableRecord
  2
*Model_Space
  0
BLOCK_RECORD
  5
21F
100
AcDbSymbolTableRecord
100
AcDbBlockTableRecord
  2
*Paper_Space
  0
BLOCK_RECORD
  5
220
100
AcDbSymbolTableRecord
100
AcDbBlockTableRecord
  2
_FILLED
  0
ENDTAB
  0
TABLE
  2
DIMSTYLE
  5
A
100
AcDbSymbolTable
 70
1
100
AcDbDimStyleTable
 71
0
  0
DIMSTYLE
105
221
100
AcDbSymbolTableRecord
100
AcDbDimStyleTableRecord
  2
STANDARD
 70
0
  3

  4

 40
1.0
 41
3.0
 42
0.5
 43
0.38
 44
1.5
 45
0.0
 46
0.0
 47
0.01
 48
0.01
140
3.0
141
0.09
142
0.0
143
25.4
144
1.0
145
0.0
146
1.0
147
0.625
 71
1
 72
0
 73
0
 74
0
 75
0
 76
0
 77
1
 78
8
 79
2
170
0
171
1
172
0
173
0
174
0
175
0
176
0
177
0
178
0
270
2
179
2
271
2
272
2
273
2
274
2
275
0
280
0
281
0
282
0
283
1
284
8
285
0
286
0
287
3
288
0
340
11
278
44
341
220
342
220
343
220
344
220
  0
ENDTAB
  0
ENDSEC
  0
SECTION
  2
BLOCKS
  0
BLOCK
  5
20
100
AcDbEntity
  8
0
100
AcDbBlockBegin
  2
*Model_Space
 70
0
 10
0.0
 20
0.0
 30
0.0
  3
*Model_Space
  1

  0
ENDBLK
  5
21
100
AcDbEntity
  8
0
100
AcDbBlockEnd
  0
BLOCK
  5
1C
100
AcDbEntity
  8
0
100
AcDbBlockBegin
  2
*Paper_Space
 70
0
 10
0.0
 20
0.0
 30
0.0
  3
*Paper_Space
  1

  0
ENDBLK
  5
1D
100
AcDbEntity
  8
0
100
AcDbBlockEnd
  0
BLOCK
  5
222
100
AcDbEntity
  8
0
100
AcDbBlockBegin
  2
_FILLED
 70
64
 10
0.0
 20
0.0
  3
_FILLED
  1

  0
SOLID
  5
223
100
AcDbEntity
  8
0
  6
BYBLOCK
 62
0
100
AcDbTrace
 10
0.0
 20
0.0
 11
-1.0
 21
0.3166666667
 12
-1.0
 22
-0.3166666667
 13
-1.0
 23
-0.3166666667
  0
ENDBLK
  5
224
100
AcDbEntity
  8
0
  6
BYBLOCK
 62
0
100
AcDbBlockEnd
  0
ENDSEC
  0
SECTION
  2
ENTITIES
  0
LWPOLYLINE
  5
225
100
AcDbEntity
  8
RACCORDO
100
AcDbPolyline
 62
7
  6
CONTINUOUS
 90
13
 70
0
 10
-11.8645372696
 20
-30.9927255385
 10
-11.8551241472
 20
-30.9973392478
 10
-11.792184491
 20
-31.0238739673
 10
-11.7266643731
 20
-31.0441814903
 10
-11.6591602776
 20
-31.0580523841
 10
-11.5903131409
 20
-31.0653756191
 10
-11.5199090167
 20
-31.0660929237
 10
-11.4484100351
 20
-31.0599963661
 10
-11.3764681539
 20
-31.046977809
 10
-11.3039691132
 20
-31.0268060062
 10
-11.2311329304
 20
-30.9991765261
 10
-11.1586600495
 20
-30.9639719691
 10
-11.1491248695
 20
-30.9587426093
  0
LINE
  5
226
100
AcDbEntity
  8
RACCORDO
100
AcDbLine
 62
7
  6
CONTINUOUS
 10
-11.8645907648
 20
-30.9927083267
 11
-26.6262503604
 21
-23.6118786281
  0
LINE
  5
227
100
AcDbEntity
  8
RACCORDO
100
AcDbLine
 62
250
  6
CONTINUOUS
 10
-12.1207166367
 20
-30.5591301157
 11
-26.8784212607
 21
-23.1802778037
  0
LINE
  5
228
100
AcDbEntity
  8
RACCORDO
100
AcDbLine
 62
7
  6
CONTINUOUS
 10
-26.6263910928
 20
-23.6118082242
 11
-26.6262500863
 21
-23.6118787651
  0
LWPOLYLINE
  5
229
100
AcDbEntity
  8
RACCORDO
100
AcDbPolyline
 62
250
  6
CONTINUOUS
 90
8
 70
0
 10
-26.8784047892
 20
-23.1802669551
 10
-26.9130769553
 20
-23.1607257978
 10
-26.9436210867
 20
-23.1389196452
 10
-26.9697099285
 20
-23.1150821319
 10
-26.9910639605
 20
-23.089468657
 10
-27.0074543921
 20
-23.0623536476
 10
-27.0187056136
 20
-23.0340276185
 10
-27.0246900343
 20
-23.0048564214
  0
LINE
  5
22A
100
AcDbEntity
  8
RACCORDO
100
AcDbLine
 62
250
  6
CONTINUOUS
 10
-27.2810561663
 20
-19.4138336921
 11
-26.8784212607
 21
-23.1802778037
  0
LWPOLYLINE
  5
22B
100
AcDbEntity
  8
RACCORDO
100
AcDbPolyline
 62
7
  6
CONTINUOUS
 90
10
 70
0
 10
-29.5864252536
 20
11.5750416897
 10
-29.4248451294
 20
7.7641375991
 10
-29.228134623
 20
3.8385156103
 10
-29.0014036569
 20
-0.0692121136
 10
-28.7446721011
 20
-3.9586615067
 10
-28.4579615019
 20
-7.8295155742
 10
-28.1412928154
 20
-11.6814827682
 10
-27.7946900182
 20
-15.514247874
 10
-27.4181881147
 20
-19.3274365233
 10
-27.024740972
 20
-23.0045392842
  0
LWPOLYLINE
  5
22C
100
AcDbEntity
  8
RACCORDO
100
AcDbPolyline
 62
250
  6
CONTINUOUS
 90
9
 70
0
 10
-29.4399824155
 20
11.3979747849
 10
-29.273608288
 20
7.4834240342
 10
-29.0776255022
 20
3.5862332051
 10
-28.8520506544
 20
-0.2932650945
 10
-28.5969029145
 20
-4.1547397056
 10
-28.3122040171
 20
-7.9978610641
 10
-27.9979782563
 20
-11.8223012278
 10
-27.654252495
 20
-15.6277337465
 10
-27.2810561663
 20
-19.4138336921
  0
LWPOLYLINE
  5
22D
100
AcDbEntity
  8
RACCORDO
100
AcDbPolyline
 62
250
  6
CONTINUOUS
 90
17
 70
0
 10
-28.9343086248
 20
12.5275337534
 10
-28.9898063897
 20
12.4763943697
 10
-29.0435639749
 20
12.4204896167
 10
-29.095203007
 20
12.3602112099
 10
-29.1443614723
 20
12.2959932914
 10
-29.190690359
 20
12.228290566
 10
-29.2338696888
 20
12.1575677545
 10
-29.2736107275
 20
12.084311043
 10
-29.3096352947
 20
12.0090276486
 10
-29.3416880965
 20
11.9322421993
 10
-29.3695515441
 20
11.8544869021
 10
-29.3930304515
 20
11.7762981272
 10
-29.4119558877
 20
11.6982241014
 10
-29.4261964
 20
11.6208194333
 10
-29.4356532494
 20
11.544626583
 10
-29.4402593164
 20
11.4701722512
 10
-29.4399824155
 20
11.3979747849
  0
LWPOLYLINE
  5
22E
100
AcDbEntity
  8
RACCORDO
100
AcDbPolyline
 62
250
  6
CONTINUOUS
 90
10
 70
0
 10
-26.8784212607
 20
-23.1802778037
 10
-26.8684449025
 20
-23.2464880365
 10
-26.8536923746
 20
-23.3089997448
 10
-26.8342665848
 20
-23.3673766037
 10
-26.8103037837
 20
-23.4212121195
 10
-26.7819708905
 20
-23.4701283962
 10
-26.7494659806
 20
-23.5137807068
 10
-26.7130212839
 20
-23.5518628161
 10
-26.6728911206
 20
-23.5841128457
 10
-26.6263910928
 20
-23.6118082242
  0
LWPOLYLINE
  5
22F
100
AcDbEntity
  8
RACCORDO
100
AcDbPolyline
 62
7
  6
CONTINUOUS
 90
12
 70
0
 10
-27.0246900343
 20
-23.0048564214
 10
-27.0187389201
 20
-23.0488612586
 10
-27.0025180461
 20
-23.1277387429
 10
-26.9800181785
 20
-23.2020055755
 10
-26.9518408903
 20
-23.2711767502
 10
-26.918396846
 20
-23.3353179619
 10
-26.8797910163
 20
-23.3947858011
 10
-26.8365651089
 20
-23.449140063
 10
-26.7891825838
 20
-23.4981651419
 10
-26.7374507577
 20
-23.5421797659
 10
-26.6818492447
 20
-23.5807443525
 10
-26.6263886879
 20
-23.6117993862
  0
LINE
  5
230
100
AcDbEntity
  8
RACCORDO
100
AcDbLine
 62
7
  6
CONTINUOUS
 10
-27.0246900343
 20
-23.0048564214
 11
-27.0247257912
 21
-23.0045375859
  0
LWPOLYLINE
  5
231
100
AcDbEntity
  8
RACCORDO
100
AcDbPolyline
 62
7
  6
CONTINUOUS
 90
16
 70
0
 10
-29.0549550937
 20
12.6212920575
 10
-29.1212135357
 20
12.5735586911
 10
-29.1844855883
 20
12.5198134416
 10
-29.2446037105
 20
12.4602971363
 10
-29.300814736
 20
12.3958661827
 10
-29.3530905157
 20
12.326673886
 10
-29.4012165106
 20
12.2529834119
 10
-29.4443178064
 20
12.1761288596
 10
-29.4823096448
 20
12.0964019508
 10
-29.5149938146
 20
12.0140557446
 10
-29.5417559425
 20
11.930624701
 10
-29.5625109155
 20
11.8464440093
 10
-29.5771238951
 20
11.761676448
 10
-29.5853123432
 20
11.6775526889
 10
-29.5869787468
 20
11.5945795119
 10
-29.5864055445
 20
11.5749091484
  0
LWPOLYLINE
  5
232
100
AcDbEntity
  8
RACCORDO
100
AcDbPolyline
 62
250
  6
CONTINUOUS
 90
3
 70
0
 10
-28.8196647501
 20
12.6141513301
 10
-28.8774614518
 20
12.5735587919
 10
-28.9343086248
 20
12.5275337534
  0
LINE
  5
233
100
AcDbEntity
  8
RACCORDO
100
AcDbLine
 62
7
  6
CONTINUOUS
 10
-24.8450478956
 20
15.3994793318
 11
-29.0550369815
 21
12.6212553137
  0
LINE
  5
234
100
AcDbEntity
  8
RACCORDO
100
AcDbLine
 62
250
  6
CONTINUOUS
 10
-24.6113476544
 20
15.3912719811
 11
-28.8196647501
 21
12.6141513301
  0
LINE
  5
235
100
AcDbEntity
  8
RACCORDO
100
AcDbLine
 62
250
  6
CONTINUOUS
 10
-20.470656641
 20
13.6901075576
 11
-20.7498270084
 21
13.4605116582
  0
LWPOLYLINE
  5
236
100
AcDbEntity
  8
RACCORDO
100
AcDbPolyline
 62
250
  6
CONTINUOUS
 90
13
 70
0
 10
-6.4340809414
 20
-23.7865333292
 10
-6.4146543959
 20
-23.7948529382
 10
-6.393203849
 20
-23.8015054982
 10
-6.3700882862
 20
-23.8063796753
 10
-6.3456945576
 20
-23.8093938979
 10
-6.3204309044
 20
-23.8104977214
 10
-6.2947201259
 20
-23.8096726729
 10
-6.2689925047
 20
-23.8069325599
 10
-6.2436786051
 20
-23.8023232395
 10
-6.2192020676
 20
-23.7959218511
 10
-6.1959725189
 20
-23.7878355251
 10
-6.1743787169
 20
-23.7781995902
 10
-6.1547820444
 20
-23.7671753083
  0
LWPOLYLINE
  5
237
100
AcDbEntity
  8
RACCORDO
100
AcDbPolyline
 62
7
  6
CONTINUOUS
 90
21
 70
0
 10
-18.3374286873
 20
14.7750274468
 10
-18.3699641701
 20
14.7518845624
 10
-18.4084674188
 20
14.7181796145
 10
-18.4444979247
 20
14.6784416143
 10
-18.4765376535
 20
14.6333648847
 10
-18.5034872366
 20
14.5838117674
 10
-18.5247915131
 20
14.5301821459
 10
-18.5398262629
 20
14.4734133829
 10
-18.5481831451
 20
14.4150639449
 10
-18.5499063405
 20
14.3548941613
 10
-18.5448822565
 20
14.2939480238
 10
-18.5336635322
 20
14.2350686407
 10
-18.5166609909
 20
14.1779155567
 10
-18.4939509215
 20
14.1222709671
 10
-18.4668270238
 20
14.0706202654
 10
-18.4357013886
 20
14.0228431333
 10
-18.4003222106
 20
13.9783420471
 10
-18.3621099152
 20
13.938702105
 10
-18.3219171745
 20
13.9042694887
 10
-18.2793793248
 20
13.8744036355
 10
-18.2346178891
 20
13.849145897
  0
LINE
  5
238
100
AcDbEntity
  8
DRAFT
100
AcDbLine
 62
7
  6
CONTINUOUS
 10
-17.94509649
 20
15.0287846086
 11
-18.3374749769
 21
14.7749975161
  0
LINE
  5
239
100
AcDbEntity
  8
RACCORDO
100
AcDbLine
 62
250
  6
CONTINUOUS
 10
-18.3374305051
 20
14.7750262711
 11
-18.3374767942
 21
14.7749963407
  0
LWPOLYLINE
  5
23A
100
AcDbEntity
  8
RACCORDO
100
AcDbPolyline
 62
7
  6
CONTINUOUS
 90
7
 70
0
 10
-18.4327409979
 20
15.2148767754
 10
-18.7058745761
 20
15.0663653601
 10
-19.1751324045
 20
14.790806702
 10
-19.6349054079
 20
14.4944568988
 10
-20.0848324009
 20
14.1775453481
 10
-20.5245596935
 20
13.8403037229
 10
-20.8940874003
 20
13.5326418541
  0
LINE
  5
23B
100
AcDbEntity
  8
0
100
AcDbLine
 62
7
  6
CONTINUOUS
 10
-17.8071874218
 20
15.5419644418
 11
-17.6622174636
 21
15.6202045176
  0
LINE
  5
23C
100
AcDbEntity
  8
RACCORDO
100
AcDbLine
 62
7
  6
CONTINUOUS
 10
-18.4300377885
 20
15.2163168985
 11
-18.4327610391
 21
15.2148788487
  0
LINE
  5
23D
100
AcDbEntity
  8
DRAFT
100
AcDbLine
 62
7
  6
CONTINUOUS
 10
-17.8085146043
 20
15.5444249173
 11
-18.4299806747
 21
15.2163470494
  0
LINE
  5
23E
100
AcDbEntity
  8
RACCORDO
100
AcDbLine
 62
250
  6
CONTINUOUS
 10
-17.0550960858
 20
15.9046227392
 11
-17.6072086114
 21
15.613433847
  0
LINE
  5
23F
100
AcDbEntity
  8
RACCORDO
100
AcDbLine
 62
250
  6
CONTINUOUS
 10
-16.8412934193
 20
15.885884864
 11
-17.3880726986
 21
15.5975042316
  0
LINE
  5
240
100
AcDbEntity
  8
RACCORDO
100
AcDbLine
 62
7
  6
CONTINUOUS
 10
-17.8085018617
 20
15.5443999495
 11
-17.5094695583
 21
15.6961870239
  0
LINE
  5
241
100
AcDbEntity
  8
0
100
AcDbLine
 62
7
  6
CONTINUOUS
 10
-12.6110101665
 20
17.4913321879
 11
-14.0700149579
 21
16.7676550554
  0
LINE
  5
242
100
AcDbEntity
  8
0
100
AcDbLine
 62
7
  6
CONTINUOUS
 10
-17.6622174636
 20
15.6202045176
 11
-17.3938002321
 21
15.7517739996
  0
LINE
  5
243
100
AcDbEntity
  8
DRAFT
100
AcDbLine
 62
7
  6
CONTINUOUS
 10
-15.3687266131
 20
15.1496014609
 11
-15.2809757827
 21
15.1923285861
  0
LINE
  5
244
100
AcDbEntity
  8
RACCORDO
100
AcDbLine
 62
7
  6
CONTINUOUS
 10
-11.1776436115
 20
18.454140439
 11
-11.9346059578
 21
18.090250748
  0
LWPOLYLINE
  5
245
100
AcDbEntity
  8
RACCORDO
100
AcDbPolyline
 62
250
  6
CONTINUOUS
 90
3
 70
0
 10
-10.9671990422
 20
18.4333602781
 10
-11.7686935949
 20
18.0481342143
 10
-11.8031249397
 20
18.0318095586
  0
LWPOLYLINE
  5
246
100
AcDbEntity
  8
0
100
AcDbPolyline
 62
7
  6
CONTINUOUS
 90
13
 70
0
 10
-16.3118801527
 20
15.892037269
 10
-16.3172412552
 20
15.8894836492
 10
-16.3483245275
 20
15.8783274902
 10
-16.3811476095
 20
15.8724339752
 10
-16.4157693508
 20
15.8719811151
 10
-16.4521309018
 20
15.8767908991
 10
-16.489016033
 20
15.8867024484
 10
-16.5264424546
 20
15.9018883321
 10
-16.5643924563
 20
15.9221759811
 10
-16.601596678
 20
15.9468868095
 10
-16.6376319993
 20
15.975794622
 10
-16.6729215404
 20
16.0091256138
 10
-16.7074653014
 20
16.0468797851
  0
LINE
  5
247
100
AcDbEntity
  8
0
100
AcDbLine
 62
7
  6
CONTINUOUS
 10
-13.3534722952
 20
17.5765243578
 11
-13.8062539756
 21
17.3618483226
  0
LINE
  5
248
100
AcDbEntity
  8
0
100
AcDbLine
 62
7
  6
CONTINUOUS
 10
-13.8062539756
 20
17.3618483226
 11
-15.2326080876
 21
16.6858064003
  0
LINE
  5
249
100
AcDbEntity
  8
0
100
AcDbLine
 62
7
  6
CONTINUOUS
 10
-15.2326080876
 20
16.6858064003
 11
-16.1864437608
 21
16.2338806619
  0
LINE
  5
24A
100
AcDbEntity
  8
0
100
AcDbLine
 62
250
  6
CONTINUOUS
 10
-16.0245983248
 20
16.285850491
 11
-13.1817351667
 21
17.632005764
  0
LINE
  5
24B
100
AcDbEntity
  8
0
100
AcDbLine
 62
250
  6
CONTINUOUS
 10
-15.6337908779
 20
16.2347615375
 11
-12.7904675566
 21
17.5810608829
  0
LINE
  5
24C
100
AcDbEntity
  8
0
100
AcDbLine
 62
7
  6
CONTINUOUS
 10
-17.3938034198
 20
15.7517805096
 11
-14.5346716378
 21
17.1032921126
  0
LINE
  5
24D
100
AcDbEntity
  8
RACCORDO
100
AcDbLine
 62
7
  6
CONTINUOUS
 10
-12.3718913407
 20
18.0944129339
 11
-13.8276180805
 21
17.4069153938
  0
LINE
  5
24E
100
AcDbEntity
  8
RACCORDO
100
AcDbLine
 62
250
  6
CONTINUOUS
 10
-12.1522013919
 20
18.0783283009
 11
-13.058376635
 21
17.6503705942
  0
LINE
  5
24F
100
AcDbEntity
  8
0
100
AcDbLine
 62
7
  6
CONTINUOUS
 10
-16.0614129003
 20
16.351923092
 11
-16.7074653014
 21
16.0468797851
  0
LINE
  5
250
100
AcDbEntity
  8
0
100
AcDbLine
 62
7
  6
CONTINUOUS
 10
-13.8273888542
 20
17.4064300236
 11
-16.0614129003
 21
16.351923092
  0
LINE
  5
251
100
AcDbEntity
  8
RACCORDO
100
AcDbLine
 62
7
  6
CONTINUOUS
 10
-13.8036147617
 20
16.6344549573
 11
-13.5428607648
 21
16.7560334752
  0
LINE
  5
252
100
AcDbEntity
  8
RACCORDO
100
AcDbLine
 62
250
  6
CONTINUOUS
 10
-13.7544909358
 20
16.6098930443
 11
-13.4583445741
 21
16.7479735193
  0
LINE
  5
253
100
AcDbEntity
  8
RACCORDO
100
AcDbLine
 62
250
  6
CONTINUOUS
 10
-13.5428607648
 20
16.7560334752
 11
-13.5427918128
 21
16.7560655789
  0
LWPOLYLINE
  5
254
100
AcDbEntity
  8
RACCORDO
100
AcDbPolyline
 62
250
  6
CONTINUOUS
 90
3
 70
0
 10
-17.6072086114
 20
15.613433847
 10
-18.1023891875
 20
15.3832672471
 10
-18.4300377885
 20
15.2163168985
  0
LWPOLYLINE
  5
255
100
AcDbEntity
  8
RACCORDO
100
AcDbPolyline
 62
250
  6
CONTINUOUS
 90
7
 70
0
 10
-17.6595677194
 20
15.3849269811
 10
-18.1520895701
 20
15.1559230816
 10
-18.6350086086
 20
14.9055327803
 10
-19.1083248349
 20
14.6337560773
 10
-19.572429481
 20
14.340330079
 10
-20.0269313148
 20
14.025517679
 10
-20.470656641
 20
13.6901075576
  0
LINE
  5
256
100
AcDbEntity
  8
0
100
AcDbLine
 62
7
  6
CONTINUOUS
 10
-17.3938002321
 20
15.7517739996
 11
-17.1908254289
 21
15.8450797514
  0
LINE
  5
257
100
AcDbEntity
  8
RACCORDO
100
AcDbLine
 62
7
  6
CONTINUOUS
 10
-17.5094695583
 20
15.6961870239
 11
-17.0550960858
 21
15.9046227392
  0
LWPOLYLINE
  5
258
100
AcDbEntity
  8
RACCORDO
100
AcDbPolyline
 62
250
  6
CONTINUOUS
 90
8
 70
0
 10
-10.9671990411
 20
18.4333602776
 10
-10.9298815422
 20
18.4504013645
 10
-10.8928892644
 20
18.4624631413
 10
-10.8566363521
 20
18.4694017249
 10
-10.8215229825
 20
18.4711299773
 10
-10.7879523059
 20
18.4676171512
 10
-10.7563224144
 20
18.4589000156
 10
-10.7374218859
 20
18.4507122999
  0
LWPOLYLINE
  5
259
100
AcDbEntity
  8
RACCORDO
100
AcDbPolyline
 62
250
  6
CONTINUOUS
 90
8
 70
0
 10
-12.1522013953
 20
18.0783283026
 10
-12.1221174327
 20
18.0911536521
 10
-12.0922902879
 20
18.1007191209
 10
-12.0629370481
 20
18.1069529593
 10
-12.0342694895
 20
18.1098076649
 10
-12.0064989813
 20
18.1092596007
 10
-11.979834206
 20
18.1053117394
 10
-11.9544711375
 20
18.0979934939
  0
LWPOLYLINE
  5
25A
100
AcDbEntity
  8
RACCORDO
100
AcDbPolyline
 62
7
  6
CONTINUOUS
 90
8
 70
0
 10
-11.1776436115
 20
18.454140439
 10
-11.1348913399
 20
18.4722967041
 10
-11.0904043621
 20
18.4864705425
 10
-11.0446476379
 20
18.4964569891
 10
-10.9982713161
 20
18.5021097535
 10
-10.9516125672
 20
18.5034100229
 10
-10.9046852691
 20
18.5003139815
 10
-10.8579127165
 20
18.4927502663
  0
LINE
  5
25B
100
AcDbEntity
  8
0
100
AcDbLine
 62
7
  6
CONTINUOUS
 10
-17.1908254289
 20
15.8450797514
 11
-16.7074653014
 21
16.0468797851
  0
LINE
  5
25C
100
AcDbEntity
  8
0
100
AcDbLine
 62
7
  6
CONTINUOUS
 10
-12.6110101665
 20
16.5383145232
 11
-12.7894839958
 21
16.4639449472
  0
LINE
  5
25D
100
AcDbEntity
  8
RACCORDO
100
AcDbLine
 62
7
  6
CONTINUOUS
 10
-13.5252295032
 20
16.7632529373
 11
-13.5427918128
 21
16.7560655789
  0
LWPOLYLINE
  5
25E
100
AcDbEntity
  8
RACCORDO
100
AcDbPolyline
 62
7
  6
CONTINUOUS
 90
7
 70
0
 10
-12.3718913402
 20
18.0944129341
 10
-12.3202083659
 20
18.1153800559
 10
-12.265948739
 20
18.1305859474
 10
-12.2099343234
 20
18.1396305667
 10
-12.1532498026
 20
18.142270113
 10
-12.0965881221
 20
18.1384644247
 10
-12.0402435531
 20
18.128141747
  0
LWPOLYLINE
  5
25F
100
AcDbEntity
  8
RACCORDO
100
AcDbPolyline
 62
7
  6
CONTINUOUS
 90
7
 70
0
 10
-13.8273888542
 20
17.4064300236
 10
-13.9547641527
 20
17.3563154082
 10
-14.081375311
 20
17.304594435
 10
-14.2072223291
 20
17.2512671041
 10
-14.3323129364
 20
17.1963297949
 10
-14.4566394036
 20
17.139786128
 10
-14.5346716072
 20
17.1032920502
  0
LWPOLYLINE
  5
260
100
AcDbEntity
  8
RACCORDO
100
AcDbPolyline
 62
7
  6
CONTINUOUS
 90
10
 70
0
 10
-17.0550960858
 20
15.9046227392
 10
-17.0340428141
 20
15.9122028409
 10
-17.0122200617
 20
15.9173591969
 10
-16.9896278284
 20
15.920091807
 10
-16.966141
 20
15.9203897061
 10
-16.9418846909
 20
15.9182638594
 10
-16.9172342439
 20
15.9137471623
 10
-16.8923147735
 20
15.9068505799
 10
-16.8670011653
 20
15.8975631472
 10
-16.8412934193
 20
15.885884864
  0
LINE
  5
261
100
AcDbEntity
  8
0
100
AcDbLine
 62
7
  6
CONTINUOUS
 10
-13.3534722952
 20
17.5765243578
 11
-13.2963607145
 21
17.5953302586
  0
LINE
  5
262
100
AcDbEntity
  8
0
100
AcDbLine
 62
7
  6
CONTINUOUS
 10
-16.1864437608
 20
16.2338806619
 11
-16.1326314985
 21
16.2514743802
  0
LWPOLYLINE
  5
263
100
AcDbEntity
  8
RACCORDO
100
AcDbPolyline
 62
250
  6
CONTINUOUS
 90
6
 70
0
 10
-13.5427918128
 20
16.7560655789
 10
-13.5266421125
 20
16.7613168122
 10
-13.5106039805
 20
16.7627773672
 10
-13.4936807116
 20
16.7610070457
 10
-13.4761604839
 20
16.756042301
 10
-13.4583445741
 20
16.7479735193
  0
LINE
  5
264
100
AcDbEntity
  8
0
100
AcDbLine
 62
7
  6
CONTINUOUS
 10
-13.2963607145
 20
17.5953302586
 11
-13.239115005
 21
17.6138240606
  0
LINE
  5
265
100
AcDbEntity
  8
0
100
AcDbLine
 62
7
  6
CONTINUOUS
 10
-16.1326314985
 20
16.2514743802
 11
-16.0786829833
 21
16.2687976681
  0
LINE
  5
266
100
AcDbEntity
  8
0
100
AcDbLine
 62
7
  6
CONTINUOUS
 10
-13.239115005
 20
17.6138240606
 11
-13.1817351667
 21
17.632005764
  0
LINE
  5
267
100
AcDbEntity
  8
0
100
AcDbLine
 62
7
  6
CONTINUOUS
 10
-16.0786829833
 20
16.2687976681
 11
-16.0245982151
 21
16.2858505257
  0
LINE
  5
268
100
AcDbEntity
  8
RACCORDO
100
AcDbLine
 62
7
  6
CONTINUOUS
 10
-6.9146723999
 20
-19.3070464381
 11
-7.0207384171
 21
-19.2540134295
  0
LWPOLYLINE
  5
269
100
AcDbEntity
  8
RACCORDO
100
AcDbPolyline
 62
250
  6
CONTINUOUS
 90
10
 70
0
 10
-6.605916204
 20
-24.5646448199
 10
-6.5840050837
 20
-24.5888910344
 10
-6.5589055359
 20
-24.6100269263
 10
-6.5312931943
 20
-24.6274835562
 10
-6.5019113322
 20
-24.6407910237
 10
-6.4715508553
 20
-24.649591116
 10
-6.4410290115
 20
-24.6536469507
 10
-6.4111673926
 20
-24.6528493521
 10
-6.3827698186
 20
-24.6472197899
 10
-6.3566006997
 20
-24.6369098015
  0
LWPOLYLINE
  5
26A
100
AcDbEntity
  8
RACCORDO
100
AcDbPolyline
 62
250
  6
CONTINUOUS
 90
10
 70
0
 10
-17.5259717785
 20
15.3764843803
 10
-17.5214718395
 20
15.4056897182
 10
-17.513543591
 20
15.4353966595
 10
-17.5023870022
 20
15.464855624
 10
-17.488283504
 20
15.4933232722
 10
-17.4715889135
 20
15.5200812186
 10
-17.4527244726
 20
15.5444541705
 10
-17.4321661829
 20
15.5658270322
 10
-17.4104327852
 20
15.5836604187
 10
-17.3880727005
 20
15.5975042324
  0
LINE
  5
26B
100
AcDbEntity
  8
RACCORDO
100
AcDbLine
 62
250
  6
CONTINUOUS
 10
-9.1938272779
 20
14.6157148712
 11
-9.4699882278
 21
14.4676416903
  0
LWPOLYLINE
  5
26C
100
AcDbEntity
  8
RACCORDO
100
AcDbPolyline
 62
250
  6
CONTINUOUS
 90
9
 70
0
 10
-9.1938272779
 20
14.6157148712
 10
-9.1815015945
 20
14.6212186152
 10
-9.1692697171
 20
14.6253622772
 10
-9.1572247375
 20
14.6281143214
 10
-9.1454583253
 20
14.629453803
 10
-9.1340600301
 20
14.6293705277
 10
-9.1231165997
 20
14.6278651295
 10
-9.1127113203
 20
14.6249490652
 10
-9.1044814185
 20
14.6214435711
  0
LWPOLYLINE
  5
26D
100
AcDbEntity
  8
RACCORDO
100
AcDbPolyline
 62
250
  6
CONTINUOUS
 90
26
 70
0
 10
-17.8627845081
 20
13.82561143
 10
-17.8594386108
 20
13.826878693
 10
-17.828825333
 20
13.8419048364
 10
-17.8009508993
 20
13.8620782819
 10
-17.7761454126
 20
13.887166397
 10
-17.7546864238
 20
13.9168824301
 10
-17.7367997208
 20
13.9509064256
 10
-17.7226781074
 20
13.9888708135
 10
-17.7124764415
 20
14.0303633981
 10
-17.7063086183
 20
14.0749271195
 10
-17.7042431157
 20
14.1220708776
 10
-17.7063026542
 20
14.1712775211
 10
-17.7124646466
 20
14.2220076005
 10
-17.7226608949
 20
14.2737021639
 10
-17.7367784049
 20
14.3257924196
 10
-17.7546621977
 20
14.3777090506
 10
-17.7761171073
 20
14.4288857543
 10
-17.8009102135
 20
14.4787652272
 10
-17.8287680707
 20
14.5267965186
 10
-17.8593793024
 20
14.5724451229
 10
-17.8924049898
 20
14.615209872
 10
-17.92748395
 20
14.6546262649
 10
-17.9642307635
 20
14.6902637156
 10
-18.0022421846
 20
14.7217340343
 10
-18.0411016799
 20
14.7486954472
 10
-18.0803837483
 20
14.7708555655
  0
LINE
  5
26E
100
AcDbEntity
  8
DRAFT
100
AcDbLine
 62
7
  6
CONTINUOUS
 10
-17.505887979
 20
13.9571760016
 11
-17.8627823345
 21
13.8256122313
  0
LINE
  5
26F
100
AcDbEntity
  8
0
100
AcDbLine
 62
7
  6
CONTINUOUS
 10
-10.8061018025
 20
17.0434339324
 11
-11.2675072822
 21
16.8855846894
  0
LINE
  5
270
100
AcDbEntity
  8
DRAFT
100
AcDbLine
 62
7
  6
CONTINUOUS
 10
-5.0449676078
 20
-18.5045138263
 11
-5.151033625
 21
-18.4514808177
  0
LWPOLYLINE
  5
271
100
AcDbEntity
  8
0
100
AcDbPolyline
 62
7
  6
CONTINUOUS
 90
11
 70
0
 10
-16.1864437608
 20
16.2338806619
 10
-16.1824873892
 20
16.1851483099
 10
-16.182466832
 20
16.1391588569
 10
-16.1863820891
 20
16.0959123029
 10
-16.1943660592
 20
16.0549828908
 10
-16.2062858437
 20
16.0167963777
 10
-16.2217427469
 20
15.9826300348
 10
-16.240856413
 20
15.9526198458
 10
-16.2635071979
 20
15.9266298271
 10
-16.2889374729
 20
15.9055292986
 10
-16.3118801527
 20
15.892037269
  0
LWPOLYLINE
  5
272
100
AcDbEntity
  8
RACCORDO
100
AcDbPolyline
 62
250
  6
CONTINUOUS
 90
10
 70
0
 10
-14.6822777915
 20
4.0191224729
 10
-14.5201132087
 20
0.1066764933
 10
-14.3272875814
 20
-3.7889357574
 10
-14.1038175059
 20
-7.6673816713
 10
-13.8497221521
 20
-11.5283300893
 10
-13.5650232546
 20
-15.3714514475
 10
-13.2497451076
 20
-19.1964178038
 10
-12.903914574
 20
-23.0029027082
 10
-12.5275610869
 20
-26.7905812325
 10
-12.1207166367
 20
-30.5591301157
  0
LINE
  5
273
100
AcDbEntity
  8
0
100
AcDbLine
 62
7
  6
CONTINUOUS
 10
-15.4888076703
 20
15.2962445299
 11
-15.4888076703
 21
15.2096419895
  0
LWPOLYLINE
  5
274
100
AcDbEntity
  8
RACCORDO
100
AcDbPolyline
 62
250
  6
CONTINUOUS
 90
14
 70
0
 10
-11.9771548111
 20
9.2399212376
 10
-11.9175482039
 20
9.3408120568
 10
-11.8350533172
 20
9.4582922339
 10
-11.7459318241
 20
9.5652667023
 10
-11.6501007222
 20
9.6615942919
 10
-11.5476430139
 20
9.7474161728
 10
-11.4399514596
 20
9.8216495537
 10
-11.3269620144
 20
9.8841370128
 10
-11.2087387231
 20
9.9350359719
 10
-11.0868664808
 20
9.9737359036
 10
-10.9613076295
 20
10.0000765792
 10
-10.8320998271
 20
10.0142182275
 10
-10.700940942
 20
10.0160310081
 10
-10.5678138016
 20
10.0053613454
  0
LWPOLYLINE
  5
275
100
AcDbEntity
  8
RACCORDO
100
AcDbPolyline
 62
250
  6
CONTINUOUS
 90
10
 70
0
 10
-9.7912855223
 20
11.4512414271
 10
-9.7734245988
 20
11.468085929
 10
-9.7523644545
 20
11.4857721129
 10
-9.728655073
 20
11.5038381058
 10
-9.7029156225
 20
11.521812116
 10
-9.6758182862
 20
11.5392247539
 10
-9.6480707083
 20
11.5556212903
 10
-9.6203975143
 20
11.5705735312
 10
-9.5935213867
 20
11.5836910002
 10
-9.5681441932
 20
11.5946311359
  0
LINE
  5
276
100
AcDbEntity
  8
0
100
AcDbLine
 62
7
  6
CONTINUOUS
 10
-6.5677467528
 20
14.9242564075
 11
-6.8834452389
 21
14.6935536677
  0
LWPOLYLINE
  5
277
100
AcDbEntity
  8
RACCORDO
100
AcDbPolyline
 62
7
  6
CONTINUOUS
 90
21
 70
0
 10
-10.5592540942
 20
10.8859401503
 10
-10.591789577
 20
10.8627972659
 10
-10.6302928257
 20
10.829092318
 10
-10.6663233317
 20
10.7893543178
 10
-10.6983630604
 20
10.7442775882
 10
-10.7253126436
 20
10.6947244709
 10
-10.74661692
 20
10.6410948493
 10
-10.7616516699
 20
10.5843260863
 10
-10.7700085521
 20
10.5259766483
 10
-10.7717317475
 20
10.4658068648
 10
-10.7667076634
 20
10.4048607272
 10
-10.7554889392
 20
10.3459813442
 10
-10.7384863978
 20
10.2888282602
 10
-10.7157763285
 20
10.2331836706
 10
-10.6886524307
 20
10.1815329689
 10
-10.6575267956
 20
10.1337558367
 10
-10.6221476176
 20
10.0892547506
 10
-10.5839353222
 20
10.0496148084
 10
-10.5437425814
 20
10.0151821922
 10
-10.5012047318
 20
9.9853163389
 10
-10.456443296
 20
9.9600586005
  0
LINE
  5
278
100
AcDbEntity
  8
RACCORDO
100
AcDbLine
 62
7
  6
CONTINUOUS
 10
-6.7862860527
 20
13.8717863674
 11
-5.5213316412
 21
14.7628934256
  0
LINE
  5
279
100
AcDbEntity
  8
DRAFT
100
AcDbLine
 62
7
  6
CONTINUOUS
 10
-10.1669218969
 20
11.1396973121
 11
-10.5593003838
 21
10.8859102196
  0
LINE
  5
27A
100
AcDbEntity
  8
RACCORDO
100
AcDbLine
 62
250
  6
CONTINUOUS
 10
-10.5592559121
 20
10.8859389745
 11
-10.5593022012
 21
10.8859090441
  0
LINE
  5
27B
100
AcDbEntity
  8
DRAFT
100
AcDbLine
 62
7
  6
CONTINUOUS
 10
-10.7018218573
 20
12.816149083
 11
-10.6199928841
 21
12.8618371368
  0
LINE
  5
27C
100
AcDbEntity
  8
RACCORDO
100
AcDbLine
 62
250
  6
CONTINUOUS
 10
-9.775944559
 20
11.7914401618
 11
-9.2227136817
 21
12.0765949952
  0
LINE
  5
27D
100
AcDbEntity
  8
RACCORDO
100
AcDbLine
 62
250
  6
CONTINUOUS
 10
-9.5681432906
 20
11.5946321637
 11
-9.0096530444
 21
11.8825895403
  0
LWPOLYLINE
  5
27E
100
AcDbEntity
  8
0
100
AcDbPolyline
 62
7
  6
CONTINUOUS
 90
10
 70
0
 10
-6.5863053667
 20
13.7858882798
 10
-6.8906692592
 20
13.6303912036
 10
-7.1960769587
 20
13.4745756338
 10
-7.5025294537
 20
13.3184379436
 10
-7.8100331413
 20
13.161973139
 10
-8.1185832551
 20
13.0051787346
 10
-8.4281641208
 20
12.8480555608
 10
-8.7387711531
 20
12.6906022184
 10
-9.0504106043
 20
12.5328142785
 10
-9.363083169
 20
12.3746887189
  0
LINE
  5
27F
100
AcDbEntity
  8
0
100
AcDbLine
 62
250
  6
CONTINUOUS
 10
-7.6232266643
 20
14.9974404368
 11
-10.4367575925
 21
13.6362448948
  0
LINE
  5
280
100
AcDbEntity
  8
0
100
AcDbLine
 62
250
  6
CONTINUOUS
 10
-7.2319590542
 20
14.6571177077
 11
-10.0459501456
 21
13.2965264014
  0
LWPOLYLINE
  5
281
100
AcDbEntity
  8
0
100
AcDbPolyline
 62
7
  6
CONTINUOUS
 90
5
 70
0
 10
-8.6206282479
 20
13.6874136936
 10
-8.9352345336
 20
13.5371196233
 10
-9.250679793
 20
13.3862410058
 10
-9.5669690683
 20
13.2347717676
 10
-9.8841047096
 20
13.0827111362
  0
LINE
  5
282
100
AcDbEntity
  8
0
100
AcDbLine
 62
7
  6
CONTINUOUS
 10
-8.1713246446
 20
13.9017000073
 11
-8.6206282479
 21
13.6874136936
  0
LWPOLYLINE
  5
283
100
AcDbEntity
  8
0
100
AcDbPolyline
 62
7
  6
CONTINUOUS
 90
5
 70
0
 10
-7.0602219257
 20
14.429899173
 10
-7.3706239186
 20
14.2826073437
 10
-7.6818621734
 20
14.1347149856
 10
-7.9939395172
 20
13.9862209697
 10
-8.1713246446
 20
13.9017000073
  0
LINE
  5
284
100
AcDbEntity
  8
0
100
AcDbLine
 62
7
  6
CONTINUOUS
 10
-7.8026840544
 20
15.0871691319
 11
-9.3135277439
 21
14.3894114484
  0
LWPOLYLINE
  5
285
100
AcDbEntity
  8
RACCORDO
100
AcDbPolyline
 62
250
  6
CONTINUOUS
 90
19
 70
0
 10
-11.4227411106
 20
-30.5086640948
 10
-11.4175846541
 20
-30.5421210084
 10
-11.4101009104
 20
-30.5733590874
 10
-11.4002898794
 20
-30.6023783319
 10
-11.3880480756
 20
-30.6293561968
 10
-11.3734789846
 20
-30.654115227
 10
-11.3568930627
 20
-30.6761230582
 10
-11.3382534384
 20
-30.6953136832
 10
-11.3175969832
 20
-30.711753109
 10
-11.2953447682
 20
-30.7251069927
 10
-11.2714608808
 20
-30.7353131299
 10
-11.2459812336
 20
-30.7424337249
 10
-11.2194346343
 20
-30.746321047
 10
-11.1917853799
 20
-30.7469006406
 10
-11.1630691734
 20
-30.7442469613
 10
-11.1339219318
 20
-30.7384356453
 10
-11.1045556274
 20
-30.7294919048
 10
-11.0747582878
 20
-30.7173905277
 10
-11.044529913
 20
-30.702131514
  0
LWPOLYLINE
  5
286
100
AcDbEntity
  8
RACCORDO
100
AcDbPolyline
 62
250
  6
CONTINUOUS
 90
10
 70
0
 10
-12.1207166367
 20
-30.5591301157
 10
-12.1106543805
 20
-30.6253703978
 10
-12.0957342599
 20
-30.6879610229
 10
-12.0760576975
 20
-30.7464646396
 10
-12.0517544422
 20
-30.8004790541
 10
-12.0229944798
 20
-30.8496184477
 10
-11.9899919859
 20
-30.8935220223
 10
-11.9529861935
 20
-30.9318803226
 10
-11.9122290082
 20
-30.9644411962
 10
-11.8648233478
 20
-30.9925921344
  0
LWPOLYLINE
  5
287
100
AcDbEntity
  8
RACCORDO
100
AcDbPolyline
 62
250
  6
CONTINUOUS
 90
6
 70
0
 10
-13.1500278485
 20
-11.4967608851
 10
-12.8655963081
 20
-15.3362746029
 10
-12.5506444952
 20
-19.1573213588
 10
-12.2051969728
 20
-22.9595692327
 10
-11.8292291779
 20
-26.7433501447
 10
-11.4227411106
 20
-30.5086640948
  0
LWPOLYLINE
  5
288
100
AcDbEntity
  8
RACCORDO
100
AcDbPolyline
 62
250
  6
CONTINUOUS
 90
5
 70
0
 10
-13.9817407042
 20
4.0350102413
 10
-13.8197095735
 20
0.1259436374
 10
-13.6270844812
 20
-3.765651765
 10
-13.4038654272
 20
-7.6397759658
 10
-13.1500278485
 20
-11.4967608851
  0
LWPOLYLINE
  5
289
100
AcDbEntity
  8
RACCORDO
100
AcDbPolyline
 62
250
  6
CONTINUOUS
 90
10
 70
0
 10
-11.044529913
 20
-30.702131514
 10
-11.044192744
 20
-30.7451716762
 10
-11.0476627241
 20
-30.7857643074
 10
-11.0549018575
 20
-30.8234649246
 10
-11.0658308769
 20
-30.857860712
 10
-11.0803301113
 20
-30.8885750412
 10
-11.0982407962
 20
-30.9152715951
 10
-11.1193668126
 20
-30.9376580506
 10
-11.1434768338
 20
-30.9554892795
 10
-11.1487657988
 20
-30.9585641023
  0
LINE
  5
28A
100
AcDbEntity
  8
RACCORDO
100
AcDbLine
 62
7
  6
CONTINUOUS
 10
-12.6110101665
 20
16.3747080325
 11
-12.6110101665
 21
16.5383145232
  0
LINE
  5
28B
100
AcDbEntity
  8
0
100
AcDbLine
 62
7
  6
CONTINUOUS
 10
-12.6110101665
 20
16.5383145232
 11
-12.6110101665
 21
17.4913321879
  0
LINE
  5
28C
100
AcDbEntity
  8
0
100
AcDbLine
 62
7
  6
CONTINUOUS
 10
-11.2675072822
 20
16.8855846894
 11
-11.2675072822
 21
15.9953728381
  0
LWPOLYLINE
  5
28D
100
AcDbEntity
  8
RACCORDO
100
AcDbPolyline
 62
250
  6
CONTINUOUS
 90
10
 70
0
 10
-9.9138436389
 20
11.5704203106
 10
-9.9093434991
 20
11.5996265685
 10
-9.9014149211
 20
11.6293341951
 10
-9.8902579729
 20
11.6587935553
 10
-9.8761541862
 20
11.6872612783
 10
-9.8594594527
 20
11.7140190164
 10
-9.8405950436
 20
11.7383915712
 10
-9.8200369788
 20
11.7597639313
 10
-9.7983040158
 20
11.7775967916
 10
-9.775944559
 20
11.7914401618
  0
LWPOLYLINE
  5
28E
100
AcDbEntity
  8
RACCORDO
100
AcDbPolyline
 62
250
  6
CONTINUOUS
 90
19
 70
0
 10
-14.049951289
 20
5.2292945996
 10
-14.1087924855
 20
5.1892181955
 10
-14.1666586675
 20
5.1436983345
 10
-14.2231500126
 20
5.0930537567
 10
-14.2778805752
 20
5.0376393162
 10
-14.3304676757
 20
4.9778421165
 10
-14.3805350315
 20
4.9140796997
 10
-14.4277368717
 20
4.8467982351
 10
-14.4717479898
 20
4.7764689253
 10
-14.5122537897
 20
4.703584591
 10
-14.5489706426
 20
4.6286650144
 10
-14.581652986
 20
4.5522244216
 10
-14.6100791582
 20
4.4747673045
 10
-14.6340545884
 20
4.3968154672
 10
-14.6534046144
 20
4.3189310887
 10
-14.6679839435
 20
4.2416832167
 10
-14.6776916894
 20
4.165618796
 10
-14.6824665329
 20
4.0912593616
 10
-14.6822777915
 20
4.0191224729
  0
LWPOLYLINE
  5
28F
100
AcDbEntity
  8
RACCORDO
100
AcDbPolyline
 62
250
  6
CONTINUOUS
 90
19
 70
0
 10
-13.6625752437
 20
4.6385952
 10
-13.6924461431
 20
4.618510664
 10
-13.7214736905
 20
4.596017941
 10
-13.7496578859
 20
4.5711170308
 10
-13.7771965827
 20
4.5435921327
 10
-13.8038919275
 20
4.5136590475
 10
-13.8291503599
 20
4.4819651774
 10
-13.8529285868
 20
4.448482523
 10
-13.8752699011
 20
4.4132390836
 10
-13.8957106213
 20
4.3769662595
 10
-13.9142090019
 20
4.3396475157
 10
-13.9308067884
 20
4.3012993871
 10
-13.9451655347
 20
4.262702878
 10
-13.9572420768
 20
4.2238390494
 10
-13.9670795787
 20
4.1847268404
 10
-13.9744690878
 20
4.1462040729
 10
-13.9793409529
 20
4.1085500208
 10
-13.981764825
 20
4.0714854103
 10
-13.9817407042
 20
4.0350102413
  0
LINE
  5
290
100
AcDbEntity
  8
RACCORDO
100
AcDbLine
 62
250
  6
CONTINUOUS
 10
-9.6911791921
 20
7.93118775
 11
-14.049951289
 21
5.2292945996
  0
LINE
  5
291
100
AcDbEntity
  8
RACCORDO
100
AcDbLine
 62
7
  6
CONTINUOUS
 10
-11.4317058497
 20
9.527868924
 11
-11.4315028661
 21
9.5279761054
  0
LINE
  5
292
100
AcDbEntity
  8
DRAFT
100
AcDbLine
 62
7
  6
CONTINUOUS
 10
-11.4314813835
 20
9.5279874463
 11
-12.1384002043
 21
9.1547982561
  0
LWPOLYLINE
  5
293
100
AcDbEntity
  8
RACCORDO
100
AcDbPolyline
 62
250
  6
CONTINUOUS
 90
37
 70
0
 10
-11.4315028661
 20
9.5279761054
 10
-11.3836820581
 20
9.5518666455
 10
-11.2746671872
 20
9.5967757407
 10
-11.1619817991
 20
9.6304111221
 10
-11.046129595
 20
9.6526505752
 10
-10.9275928525
 20
9.6634395064
 10
-10.8069554182
 20
9.6627156147
 10
-10.6847623593
 20
9.6505028523
 10
-10.5615368704
 20
9.6268897015
 10
-10.4378433755
 20
9.5919708134
 10
-10.3142524714
 20
9.5459115846
 10
-10.1913048437
 20
9.4889385801
 10
-10.0695248703
 20
9.4212918937
 10
-9.9494817721
 20
9.3432645953
 10
-9.8317227418
 20
9.2552152349
 10
-9.7167361646
 20
9.1575332982
 10
-9.6050839342
 20
9.0506417892
 10
-9.4972869278
 20
8.935015729
 10
-9.3937610705
 20
8.8111704207
 10
-9.2950287025
 20
8.6796303207
 10
-9.20157932
 20
8.5409812127
 10
-9.1137592345
 20
8.3958730334
 10
-9.0320395231
 20
8.2449277191
 10
-8.956848047
 20
8.0888148591
 10
-8.8884342101
 20
7.9282925632
 10
-8.8271918393
 20
7.7640465929
 10
-8.7734741374
 20
7.5968163612
 10
-8.7274229544
 20
7.4274665644
 10
-8.6893393298
 20
7.2567441276
 10
-8.6594720809
 20
7.085404396
 10
-8.6378267512
 20
6.914334551
 10
-8.6245915644
 20
6.7442907673
 10
-8.6199081393
 20
6.5760262167
 10
-8.6236506749
 20
6.410414763
 10
-8.6358080955
 20
6.2482310585
 10
-8.6564864552
 20
6.0901490485
 10
-8.6856748466
 20
5.9368675915
  0
LINE
  5
294
100
AcDbEntity
  8
RACCORDO
100
AcDbLine
 62
250
  6
CONTINUOUS
 10
-5.2972879202
 20
12.0390614259
 11
-2.6458561196
 21
13.3251556648
  0
LINE
  5
295
100
AcDbEntity
  8
RACCORDO
100
AcDbLine
 62
250
  6
CONTINUOUS
 10
-5.06533216
 20
11.8168441724
 11
-2.4136604997
 21
13.1025625244
  0
LWPOLYLINE
  5
296
100
AcDbEntity
  8
RACCORDO
100
AcDbPolyline
 62
250
  6
CONTINUOUS
 90
9
 70
0
 10
-2.6458561161
 20
13.325155663
 10
-2.6157520242
 20
13.3379885351
 10
-2.5859118766
 20
13.347555325
 10
-2.5565527997
 20
13.3537864217
 10
-2.5278884195
 20
13.3566364858
 10
-2.5001273069
 20
13.3560847794
 10
-2.4734714608
 20
13.3521353168
 10
-2.4481148373
 20
13.3448168356
 10
-2.4284196758
 20
13.3363373279
  0
LWPOLYLINE
  5
297
100
AcDbEntity
  8
RACCORDO
100
AcDbPolyline
 62
250
  6
CONTINUOUS
 90
5
 70
0
 10
-5.2972879202
 20
12.0390614259
 10
-5.3133229545
 20
12.0325064233
 10
-5.3291187908
 20
12.028290866
 10
-5.3444712298
 20
12.0264692504
 10
-5.3545203071
 20
12.0268763042
  0
LWPOLYLINE
  5
298
100
AcDbEntity
  8
RACCORDO
100
AcDbPolyline
 62
250
  6
CONTINUOUS
 90
26
 70
0
 10
-10.084609915
 20
9.9365241335
 10
-10.0812640178
 20
9.9377913965
 10
-10.05065074
 20
9.9528175399
 10
-10.0227763062
 20
9.9729909854
 10
-9.9979708196
 20
9.9980791005
 10
-9.9765118308
 20
10.0277951336
 10
-9.9586251278
 20
10.0618191291
 10
-9.9445035143
 20
10.099783517
 10
-9.9343018484
 20
10.1412761016
 10
-9.9281340252
 20
10.185839823
 10
-9.9260685227
 20
10.2329835811
 10
-9.9281280612
 20
10.2821902246
 10
-9.9342900536
 20
10.332920304
 10
-9.9444863018
 20
10.3846148674
 10
-9.9586038119
 20
10.436705123
 10
-9.9764876046
 20
10.4886217541
 10
-9.9979425142
 20
10.5397984577
 10
-10.0227356204
 20
10.5896779306
 10
-10.0505934777
 20
10.6377092221
 10
-10.0812047094
 20
10.6833578263
 10
-10.1142303968
 20
10.7261225755
 10
-10.149309357
 20
10.7655389683
 10
-10.1860561704
 20
10.801176419
 10
-10.2240675916
 20
10.8326467377
 10
-10.2629270868
 20
10.8596081507
 10
-10.3022091553
 20
10.881768269
  0
LINE
  5
299
100
AcDbEntity
  8
DRAFT
100
AcDbLine
 62
7
  6
CONTINUOUS
 10
-9.727713386
 20
10.068088705
 11
-10.0846077414
 21
9.9365249348
  0
LINE
  5
29A
100
AcDbEntity
  8
RACCORDO
100
AcDbLine
 62
250
  6
CONTINUOUS
 10
-7.9737266921
 20
-10.6581236669
 11
-7.9412234899
 21
-10.6743752679
  0
LINE
  5
29B
100
AcDbEntity
  8
RACCORDO
100
AcDbLine
 62
250
  6
CONTINUOUS
 10
-7.9899652913
 20
-10.4389204726
 11
-7.9412234899
 21
-10.4632913733
  0
LWPOLYLINE
  5
29C
100
AcDbEntity
  8
RACCORDO
100
AcDbPolyline
 62
250
  6
CONTINUOUS
 90
10
 70
0
 10
-17.6595677194
 20
15.3849269811
 10
-17.6694028391
 20
15.4155742526
 10
-17.6753143611
 20
15.4467028928
 10
-17.6771478642
 20
15.4774997576
 10
-17.6748554535
 20
15.5071603692
 10
-17.6684970114
 20
15.5349099314
 10
-17.6582386338
 20
15.5600235683
 10
-17.6443482904
 20
15.58184526
 10
-17.6271888258
 20
15.5998049789
 10
-17.6072084805
 20
15.6134335801
  0
LWPOLYLINE
  5
29D
100
AcDbEntity
  8
RACCORDO
100
AcDbPolyline
 62
250
  6
CONTINUOUS
 90
16
 70
0
 10
-13.6625752437
 20
4.6385952
 10
-13.6686756892
 20
4.6824576535
 10
-13.6785126325
 20
4.7278161883
 10
-13.6919784155
 20
4.7741741765
 10
-13.708925645
 20
4.8210240395
 10
-13.7291688018
 20
4.8678527933
 10
-13.7524862674
 20
4.9141476647
 10
-13.7786227634
 20
4.959401735
 10
-13.8072921312
 20
5.0031194583
 10
-13.8381804526
 20
5.0448220802
 10
-13.8709495271
 20
5.0840529386
 10
-13.9052405461
 20
5.1203824204
 10
-13.9406779957
 20
5.1534126481
 10
-13.976873824
 20
5.1827818992
 10
-14.0134316947
 20
5.2081685569
 10
-14.04995129
 20
5.229294599
  0
LINE
  5
29E
100
AcDbEntity
  8
RACCORDO
100
AcDbLine
 62
250
  6
CONTINUOUS
 10
-7.9412234899
 20
-10.6743752679
 11
-7.0207384171
 21
-19.2540134295
  0
LINE
  5
29F
100
AcDbEntity
  8
RACCORDO
100
AcDbLine
 62
250
  6
CONTINUOUS
 10
-6.4340809414
 20
-23.7865333292
 11
-6.9146723999
 21
-19.3070464381
  0
LINE
  5
2A0
100
AcDbEntity
  8
RACCORDO
100
AcDbLine
 62
250
  6
CONTINUOUS
 10
-7.6619245929
 20
-10.6550172471
 11
-6.7395910664
 21
-19.2518844376
  0
LINE
  5
2A1
100
AcDbEntity
  8
RACCORDO
100
AcDbLine
 62
250
  6
CONTINUOUS
 10
-6.1547820444
 20
-23.7671753083
 11
-6.6335250492
 21
-19.3049174461
  0
LINE
  5
2A2
100
AcDbEntity
  8
RACCORDO
100
AcDbLine
 62
7
  6
CONTINUOUS
 10
-9.3069228022
 20
7.3385545544
 11
-6.6692195279
 21
-28.2675327354
  0
LINE
  5
2A3
100
AcDbEntity
  8
0
100
AcDbLine
 62
7
  6
CONTINUOUS
 10
-10.5817408001
 20
12.7561085544
 11
-10.5817408001
 21
12.8427110948
  0
LINE
  5
2A4
100
AcDbEntity
  8
RACCORDO
100
AcDbLine
 62
250
  6
CONTINUOUS
 10
-8.537396452
 20
5.2001824046
 11
-8.8868973785
 21
1.6686742291
  0
LINE
  5
2A5
100
AcDbEntity
  8
RACCORDO
100
AcDbLine
 62
250
  6
CONTINUOUS
 10
-8.1222462876
 20
5.1640922575
 11
-8.5623132142
 21
0.7174655776
  0
LINE
  5
2A6
100
AcDbEntity
  8
RACCORDO
100
AcDbLine
 62
250
  6
CONTINUOUS
 10
-9.3069228022
 20
7.3385545544
 11
-13.6625752437
 21
4.6385952
  0
LINE
  5
2A7
100
AcDbEntity
  8
RACCORDO
100
AcDbLine
 62
250
  6
CONTINUOUS
 10
0.2862314723
 20
11.939602186
 11
0.9885157781
 21
12.3376792422
  0
LINE
  5
2A8
100
AcDbEntity
  8
RACCORDO
100
AcDbLine
 62
250
  6
CONTINUOUS
 10
0.0208287893
 20
12.1906144264
 11
0.7235017554
 21
12.5880098793
  0
LINE
  5
2A9
100
AcDbEntity
  8
RACCORDO
100
AcDbLine
 62
7
  6
CONTINUOUS
 10
-9.1845551148
 20
5.6867256316
 11
-8.6856748466
 21
5.9368675915
  0
LWPOLYLINE
  5
2AA
100
AcDbEntity
  8
RACCORDO
100
AcDbPolyline
 62
250
  6
CONTINUOUS
 90
16
 70
0
 10
-13.9817407042
 20
4.0350102413
 10
-14.0207427801
 20
4.0160002546
 10
-14.0630486827
 20
3.9991277262
 10
-14.1082051249
 20
3.9845734371
 10
-14.1557282773
 20
3.9724933294
 10
-14.2051089524
 20
3.9630168357
 10
-14.2558180602
 20
3.9562454919
 10
-14.3073122772
 20
3.9522518496
 10
-14.359039868
 20
3.9510786989
 10
-14.4104465965
 20
3.9527386095
 10
-14.4609816646
 20
3.9572137962
 10
-14.5101036135
 20
3.9644563097
 10
-14.5572861254
 20
3.9743885495
 10
-14.6020236626
 20
3.9869040966
 10
-14.6438368841
 20
4.0018688529
 10
-14.6822777815
 20
4.0191224784
  0
LWPOLYLINE
  5
2AB
100
AcDbEntity
  8
RACCORDO
100
AcDbPolyline
 62
250
  6
CONTINUOUS
 90
3
 70
0
 10
1.1014245185
 20
12.390071328
 10
1.0319266469
 20
12.3571084061
 10
0.9885157772
 20
12.3376792439
  0
LINE
  5
2AC
100
AcDbEntity
  8
RACCORDO
100
AcDbLine
 62
250
  6
CONTINUOUS
 10
-9.1280084083
 20
4.9234074118
 11
-8.537396452
 21
5.2001824046
  0
LWPOLYLINE
  5
2AD
100
AcDbEntity
  8
RACCORDO
100
AcDbPolyline
 62
250
  6
CONTINUOUS
 90
8
 70
0
 10
0.7235017544
 20
12.5880098798
 10
0.7608961119
 20
12.6050810605
 10
0.7979407355
 20
12.6171462348
 10
0.8342206956
 20
12.6240702631
 10
0.8693296274
 20
12.6257755907
 10
0.9028742827
 20
12.6222431165
 10
0.9344789344
 20
12.6135124071
 10
0.9532789096
 20
12.6053619021
  0
LINE
  5
2AE
100
AcDbEntity
  8
0
100
AcDbLine
 62
7
  6
CONTINUOUS
 10
-6.8834452389
 20
14.6935536677
 11
-6.8834452389
 21
13.9670910482
  0
LWPOLYLINE
  5
2AF
100
AcDbEntity
  8
RACCORDO
100
AcDbPolyline
 62
250
  6
CONTINUOUS
 90
13
 70
0
 10
-6.1547904887
 20
3.8729501628
 10
-6.1482030615
 20
3.9741723389
 10
-6.1459470669
 20
4.0772402673
 10
-6.1480437867
 20
4.1818086856
 10
-6.1544875313
 20
4.2875536023
 10
-6.1652451033
 20
4.3941534201
 10
-6.1802742244
 20
4.5012779663
 10
-6.1995322233
 20
4.6086088806
 10
-6.2229552828
 20
4.7158294505
 10
-6.2504648212
 20
4.8226138573
 10
-6.2819848087
 20
4.9286409815
 10
-6.317407572
 20
5.0335708026
 10
-6.356598613
 20
5.1370469473
  0
LWPOLYLINE
  5
2B0
100
AcDbEntity
  8
RACCORDO
100
AcDbPolyline
 62
250
  6
CONTINUOUS
 90
13
 70
0
 10
-6.4340809414
 20
3.8958045497
 10
-6.427229307
 20
3.9875262178
 10
-6.4242921353
 20
4.0804237416
 10
-6.4252694264
 20
4.1744971212
 10
-6.4301875745
 20
4.2700760824
 10
-6.4390201853
 20
4.3668308994
 10
-6.4516880766
 20
4.4637723945
 10
-6.4682449187
 20
4.5609065903
 10
-6.4886370413
 20
4.6582274642
 10
-6.5126242504
 20
4.7547277717
 10
-6.5401264817
 20
4.8500717643
 10
-6.5712237997
 20
4.9445951905
 10
-6.6059162043
 20
5.0382980502
  0
LWPOLYLINE
  5
2B1
100
AcDbEntity
  8
RACCORDO
100
AcDbPolyline
 62
250
  6
CONTINUOUS
 90
16
 70
0
 10
-7.9412234899
 20
-10.4632913733
 10
-7.9425563272
 20
-10.4779999849
 10
-7.9436978862
 20
-10.4926281322
 10
-7.9446483417
 20
-10.5071720936
 10
-7.945407817
 20
-10.5216260261
 10
-7.945976747
 20
-10.5359884722
 10
-7.9463555963
 20
-10.5502622368
 10
-7.9465444906
 20
-10.5644436116
 10
-7.9465436013
 20
-10.5785289767
 10
-7.9463530266
 20
-10.5925210783
 10
-7.9459727849
 20
-10.6064161999
 10
-7.9454029391
 20
-10.6202106445
 10
-7.9446432164
 20
-10.6339069539
 10
-7.9436933687
 20
-10.6475033865
 10
-7.9425534566
 20
-10.6609940776
 10
-7.9412234899
 20
-10.6743752679
  0
LWPOLYLINE
  5
2B2
100
AcDbEntity
  8
RACCORDO
100
AcDbPolyline
 62
250
  6
CONTINUOUS
 90
16
 70
0
 10
-7.6619245929
 20
-10.4861501313
 10
-7.662994228
 20
-10.4979201014
 10
-7.6639106634
 20
-10.5096200599
 10
-7.664673899
 20
-10.5212500071
 10
-7.6652837045
 20
-10.53281115
 10
-7.6657403103
 20
-10.5443022816
 10
-7.6660444078
 20
-10.5557197799
 10
-7.6661961501
 20
-10.5670636721
 10
-7.6661953841
 20
-10.578333931
 10
-7.6660423415
 20
-10.5895268536
 10
-7.6657371789
 20
-10.6006425264
 10
-7.6652797396
 20
-10.6116808628
 10
-7.6646697852
 20
-10.6226378994
 10
-7.6639072362
 20
-10.6335123151
 10
-7.6629921721
 20
-10.644305431
 10
-7.6619245929
 20
-10.6550172471
  0
LINE
  5
2B3
100
AcDbEntity
  8
RACCORDO
100
AcDbLine
 62
250
  6
CONTINUOUS
 10
-7.0207384171
 20
-0.9947511095
 11
-7.9412234899
 21
-10.4632913733
  0
LINE
  5
2B4
100
AcDbEntity
  8
RACCORDO
100
AcDbLine
 62
250
  6
CONTINUOUS
 10
-6.9146723999
 20
-1.0477841181
 11
-6.4340809414
 21
3.8958045497
  0
LINE
  5
2B5
100
AcDbEntity
  8
RACCORDO
100
AcDbLine
 62
250
  6
CONTINUOUS
 10
-6.7472305691
 20
-1.0771793076
 11
-7.6619245929
 21
-10.4861501313
  0
LINE
  5
2B6
100
AcDbEntity
  8
RACCORDO
100
AcDbLine
 62
250
  6
CONTINUOUS
 10
-6.6335250492
 20
-1.0516288162
 11
-6.1547820444
 21
3.8729457917
  0
LINE
  5
2B7
100
AcDbEntity
  8
RACCORDO
100
AcDbLine
 62
250
  6
CONTINUOUS
 10
-8.1120625021
 20
-0.2500648004
 11
-8.4739045833
 21
-3.9062733627
  0
LINE
  5
2B8
100
AcDbEntity
  8
RACCORDO
100
AcDbLine
 62
250
  6
CONTINUOUS
 10
-7.6969121597
 20
-0.2861550227
 11
-8.2946523954
 21
-6.3259803526
  0
LWPOLYLINE
  5
2B9
100
AcDbEntity
  8
RACCORDO
100
AcDbPolyline
 62
250
  6
CONTINUOUS
 90
8
 70
0
 10
2.4956035949
 20
9.8914935495
 10
2.4927767693
 20
9.889418571
 10
2.4825430438
 20
9.8836572815
 10
2.4650142902
 20
9.874346932
 10
2.4404837881
 20
9.8616432992
 10
2.4093619838
 20
9.845758942
 10
2.3721696018
 20
9.8269596355
 10
2.3295289559
 20
9.8055599358
  0
LINE
  5
2BA
100
AcDbEntity
  8
RACCORDO
100
AcDbLine
 62
250
  6
CONTINUOUS
 10
-5.4439988871
 20
5.8336871216
 11
2.3295289566
 21
9.8055599344
  0
LINE
  5
2BB
100
AcDbEntity
  8
RACCORDO
100
AcDbLine
 62
250
  6
CONTINUOUS
 10
-5.0578092748
 20
4.6493836818
 11
2.6363879163
 21
8.574888425
  0
LINE
  5
2BC
100
AcDbEntity
  8
RACCORDO
100
AcDbLine
 62
250
  6
CONTINUOUS
 10
-6.1547820444
 20
3.8729457917
 11
-5.0449676078
 21
4.4168409758
  0
LINE
  5
2BD
100
AcDbEntity
  8
RACCORDO
100
AcDbLine
 62
250
  6
CONTINUOUS
 10
-6.3565938733
 20
5.1370491072
 11
-5.3444496319
 21
5.6323525441
  0
LWPOLYLINE
  5
2BE
100
AcDbEntity
  8
RACCORDO
100
AcDbPolyline
 62
250
  6
CONTINUOUS
 90
10
 70
0
 10
-6.6059162043
 20
5.0382980502
 10
-6.58400539
 20
5.0478606836
 10
-6.558905731
 20
5.0584869948
 10
-6.5312929109
 20
5.069890923
 10
-6.5019102676
 20
5.0817654743
 10
-6.4715487826
 20
5.0937909853
 10
-6.441025788
 20
5.105643729
 10
-6.4111629637
 20
5.1170046291
 10
-6.3827642177
 20
5.1275678497
 10
-6.3565940451
 20
5.1370490289
  0
LWPOLYLINE
  5
2BF
100
AcDbEntity
  8
RACCORDO
100
AcDbPolyline
 62
7
  6
CONTINUOUS
 90
10
 70
0
 10
-8.660588493
 20
5.946874831
 10
-8.6634445968
 20
5.9459862619
 10
-8.6662846217
 20
5.9450421276
 10
-8.6691080191
 20
5.9440424362
 10
-8.671914163
 20
5.9429871042
 10
-8.67470259
 20
5.9418762375
 10
-8.6774729881
 20
5.9407101227
 10
-8.6802248817
 20
5.9394888573
 10
-8.6829576428
 20
5.9382123575
 10
-8.6856707238
 20
5.9368806336
  0
LWPOLYLINE
  5
2C0
100
AcDbEntity
  8
RACCORDO
100
AcDbPolyline
 62
250
  6
CONTINUOUS
 90
13
 70
0
 10
-7.6619245929
 20
-10.4861501313
 10
-7.6815212651
 20
-10.4917236288
 10
-7.7031150669
 20
-10.4960000008
 10
-7.7263446154
 20
-10.4989076801
 10
-7.7508211529
 20
-10.5003980052
 10
-7.7761350524
 20
-10.500446035
 10
-7.8018626736
 20
-10.4990509655
 10
-7.8275734521
 20
-10.496236144
 10
-7.8528371055
 20
-10.4920486778
 10
-7.8772308342
 20
-10.4865586462
 10
-7.9003463972
 20
-10.4798579276
 10
-7.9217969442
 20
-10.4720586618
 10
-7.9412234899
 20
-10.4632913733
  0
LWPOLYLINE
  5
2C1
100
AcDbEntity
  8
RACCORDO
100
AcDbPolyline
 62
250
  6
CONTINUOUS
 90
13
 70
0
 10
-8.6605885601
 20
5.9468748178
 10
-8.6348706522
 20
5.8879225738
 10
-8.6116984603
 20
5.8274994986
 10
-8.5911852305
 20
5.7658510919
 10
-8.5734115534
 20
5.7032258946
 10
-8.5584592334
 20
5.6398943365
 10
-8.5464120107
 20
5.5761479596
 10
-8.5373356021
 20
5.5122506895
 10
-8.5312626774
 20
5.4484697721
 10
-8.5282191346
 20
5.3851047659
 10
-8.5282253606
 20
5.3224336533
 10
-8.5312939089
 20
5.260710268
 10
-8.5374049238
 20
5.2001869641
  0
LWPOLYLINE
  5
2C2
100
AcDbEntity
  8
RACCORDO
100
AcDbPolyline
 62
250
  6
CONTINUOUS
 90
10
 70
0
 10
-8.2460284955
 20
5.990062477
 10
-8.2129720978
 20
5.8990832732
 10
-8.1846770255
 20
5.8075198592
 10
-8.1611432786
 20
5.7153722348
 10
-8.1422850179
 20
5.6221265415
 10
-8.1281880825
 20
5.5282966379
 10
-8.1191099901
 20
5.4354241001
 10
-8.1151365797
 20
5.3440227868
 10
-8.1161820122
 20
5.2535788393
 10
-8.1222462876
 20
5.1640922575
  0
LINE
  5
2C3
100
AcDbEntity
  8
DRAFT
100
AcDbLine
 62
7
  6
CONTINUOUS
 10
-5.151033625
 20
-0.3669651484
 11
-5.151033625
 21
-18.4514808177
  0
LINE
  5
2C4
100
AcDbEntity
  8
0
100
AcDbLine
 62
7
  6
CONTINUOUS
 10
-5.151033625
 20
-18.4514808177
 11
-5.151033625
 21
-0.3669651484
  0
LINE
  5
2C5
100
AcDbEntity
  8
RACCORDO
100
AcDbLine
 62
7
  6
CONTINUOUS
 10
-5.0449676078
 20
-23.2393351488
 11
-5.0449676078
 21
-18.5045138263
  0
LINE
  5
2C6
100
AcDbEntity
  8
RACCORDO
100
AcDbLine
 62
7
  6
CONTINUOUS
 10
-5.0449676078
 20
-0.3179803468
 11
-5.0449676078
 21
4.4168409758
  0
LWPOLYLINE
  5
2C7
100
AcDbEntity
  8
RACCORDO
100
AcDbPolyline
 62
7
  6
CONTINUOUS
 90
10
 70
0
 10
-5.0449676078
 20
-23.2393351488
 10
-5.0489735971
 20
-23.3659075491
 10
-5.0604340114
 20
-23.4867010882
 10
-5.0793488506
 20
-23.6017157661
 10
-5.1059007509
 20
-23.7115102145
 10
-5.1399070761
 20
-23.8155258017
 10
-5.1808199177
 20
-23.9120866327
 10
-5.2284566394
 20
-24.0006340757
 10
-5.2829998775
 20
-24.0817267625
 10
-5.3444496319
 20
-24.155364693
  0
LWPOLYLINE
  5
2C8
100
AcDbEntity
  8
RACCORDO
100
AcDbPolyline
 62
250
  6
CONTINUOUS
 90
6
 70
0
 10
-2.3738338885
 20
13.2677116668
 10
-2.3754650218
 20
13.2427299696
 10
-2.3800550157
 20
13.2131094491
 10
-2.387568384
 20
13.1791666141
 10
-2.3987062605
 20
13.1420283508
 10
-2.4136603949
 20
13.1025625945
  0
LWPOLYLINE
  5
2C9
100
AcDbEntity
  8
RACCORDO
100
AcDbPolyline
 62
250
  6
CONTINUOUS
 90
13
 70
0
 10
-8.7765661481
 20
0.3822335288
 10
-8.7506900981
 20
0.3965552372
 10
-8.7251446089
 20
0.414563581
 10
-8.7003105049
 20
0.4359900972
 10
-8.6765580054
 20
0.4605153659
 10
-8.6542412054
 20
0.4877737718
 10
-8.6336927972
 20
0.5173589548
 10
-8.61521911
 20
0.548829868
 10
-8.5990955441
 20
0.5817173525
 10
-8.5855624646
 20
0.6155311318
 10
-8.5748216185
 20
0.6497671203
 10
-8.5670331273
 20
0.6839149382
 10
-8.5623130993
 20
0.7174655202
  0
LWPOLYLINE
  5
2CA
100
AcDbEntity
  8
RACCORDO
100
AcDbPolyline
 62
250
  6
CONTINUOUS
 90
13
 70
0
 10
-8.2821085774
 20
0.1350047434
 10
-8.2562327693
 20
0.1493262986
 10
-8.2306874773
 20
0.1673344496
 10
-8.2058535191
 20
0.1887607554
 10
-8.1821011155
 20
0.213285811
 10
-8.1597843561
 20
0.240544025
 10
-8.1392359229
 20
0.2701290742
 10
-8.1207621546
 20
0.3015999314
 10
-8.1046384684
 20
0.3344874461
 10
-8.0911052428
 20
0.3683013598
 10
-8.0803642475
 20
0.4025375899
 10
-8.0725756312
 20
0.4366857424
 10
-8.0678555286
 20
0.4702367348
  0
LINE
  5
2CB
100
AcDbEntity
  8
RACCORDO
100
AcDbLine
 62
250
  6
CONTINUOUS
 10
-8.7911173572
 20
0.3757494971
 11
-8.7765661481
 21
0.3822335288
  0
LINE
  5
2CC
100
AcDbEntity
  8
RACCORDO
100
AcDbLine
 62
250
  6
CONTINUOUS
 10
-8.2821085774
 20
0.1350047434
 11
-8.7575873233
 21
-0.076869008
  0
LINE
  5
2CD
100
AcDbEntity
  8
RACCORDO
100
AcDbLine
 62
250
  6
CONTINUOUS
 10
-8.1120625021
 20
-0.2500648004
 11
-8.7245390057
 21
-0.5229848744
  0
LINE
  5
2CE
100
AcDbEntity
  8
RACCORDO
100
AcDbLine
 62
7
  6
CONTINUOUS
 10
-7.0207384171
 20
-0.9947511095
 11
-6.9146723999
 21
-1.0477841181
  0
LINE
  5
2CF
100
AcDbEntity
  8
RACCORDO
100
AcDbLine
 62
250
  6
CONTINUOUS
 10
-8.7765661481
 20
0.3822335288
 11
-8.2821085774
 21
0.1350047434
  0
LINE
  5
2D0
100
AcDbEntity
  8
RACCORDO
100
AcDbLine
 62
250
  6
CONTINUOUS
 10
-8.5623132142
 20
0.7174655776
 11
-8.0678555286
 21
0.4702367348
  0
LINE
  5
2D1
100
AcDbEntity
  8
RACCORDO
100
AcDbLine
 62
250
  6
CONTINUOUS
 10
-29.4399824155
 20
11.3979747849
 11
-14.6822777915
 21
4.0191224729
  0
LWPOLYLINE
  5
2D2
100
AcDbEntity
  8
RACCORDO
100
AcDbPolyline
 62
250
  6
CONTINUOUS
 90
19
 70
0
 10
-8.2821085774
 20
0.1350047434
 10
-8.2631477036
 20
0.1249951856
 10
-8.2447103875
 20
0.1129102175
 10
-8.2269309375
 20
0.0988420859
 10
-8.2099340572
 20
0.0828844624
 10
-8.1938576608
 20
0.0651674893
 10
-8.1788477598
 20
0.0458669811
 10
-8.1650453975
 20
0.0251579667
 10
-8.1525311956
 20
0.0031786562
 10
-8.1413516364
 20
-0.0199347203
 10
-8.1316105147
 20
-0.0440145184
 10
-8.1233920545
 20
-0.0688864938
 10
-8.1167146237
 20
-0.0944044772
 10
-8.1116600293
 20
-0.1204220264
 10
-8.108301845
 20
-0.1467170076
 10
-8.1066331797
 20
-0.1730260658
 10
-8.1066736922
 20
-0.199134159
 10
-8.1084769013
 20
-0.2248760069
 10
-8.1120625021
 20
-0.2500648004
  0
LWPOLYLINE
  5
2D3
100
AcDbEntity
  8
RACCORDO
100
AcDbPolyline
 62
250
  6
CONTINUOUS
 90
9
 70
0
 10
-29.4399824095
 20
11.3979747882
 10
-29.4746366855
 20
11.4172687488
 10
-29.5051354581
 20
11.4384599892
 10
-29.5311519477
 20
11.4613214555
 10
-29.5524074002
 20
11.4856081981
 10
-29.5686740739
 20
11.5110599964
 10
-29.5797776791
 20
11.5374041468
 10
-29.5855992462
 20
11.5643583846
 10
-29.5864200468
 20
11.5749085732
  0
LWPOLYLINE
  5
2D4
100
AcDbEntity
  8
RACCORDO
100
AcDbPolyline
 62
250
  6
CONTINUOUS
 90
19
 70
0
 10
-8.0678555286
 20
0.4702367348
 10
-8.0306224396
 20
0.4493136864
 10
-7.9946133189
 20
0.4248302131
 10
-7.9598281667
 20
0.396786315
 10
-7.9260099479
 20
0.3648886792
 10
-7.8934156975
 20
0.3294306186
 10
-7.8628165205
 20
0.2912920719
 10
-7.8342928632
 20
0.2504665201
 10
-7.8077642793
 20
0.2069604822
 10
-7.7837605346
 20
0.1616734538
 10
-7.7623189669
 20
0.114582028
 10
-7.7434022385
 20
0.0657096117
 10
-7.7274281018
 20
0.0160259209
 10
-7.7144358467
 20
-0.0345538995
 10
-7.7043861833
 20
-0.0859449945
 10
-7.6975789946
 20
-0.1369230824
 10
-7.6941142416
 20
-0.1870800695
 10
-7.6938919633
 20
-0.2368240496
 10
-7.6969121597
 20
-0.2861550227
  0
LINE
  5
2D5
100
AcDbEntity
  8
RACCORDO
100
AcDbLine
 62
250
  6
CONTINUOUS
 10
-8.7765661481
 20
0.3822335288
 11
-8.7923212966
 21
0.3920013516
  0
LWPOLYLINE
  5
2D6
100
AcDbEntity
  8
DRAFT
100
AcDbPolyline
 62
7
  6
CONTINUOUS
 90
25
 70
0
 10
-14.4494877976
 20
14.6899820531
 10
-14.4650321403
 20
14.7112359913
 10
-14.4810473216
 20
14.7316247592
 10
-14.4975333416
 20
14.7511483567
 10
-14.5145402081
 20
14.7698578409
 10
-14.5320179132
 20
14.7877021548
 10
-14.5498164331
 20
14.8045281275
 10
-14.5679385293
 20
14.8203269929
 10
-14.5863814402
 20
14.8351075171
 10
-14.6049868568
 20
14.8487428283
 10
-14.623756178
 20
14.8612230678
 10
-14.642688005
 20
14.8725580942
 10
-14.6616198319
 20
14.8826506107
 10
-14.6805516589
 20
14.8914899212
 10
-14.6994834858
 20
14.8990867217
 10
-14.7182528071
 20
14.9053758034
 10
-14.7368582237
 20
14.9103459089
 10
-14.7553011346
 20
14.9140082955
 10
-14.7734232308
 20
14.9163315264
 10
-14.7912217506
 20
14.9173040735
 10
-14.8086994558
 20
14.9169374648
 10
-14.8257063223
 20
14.9152348471
 10
-14.8421923422
 20
14.9121972695
 10
-14.8582075236
 20
14.907823683
 10
-14.8737518663
 20
14.9021140875
  0
LWPOLYLINE
  5
2D7
100
AcDbEntity
  8
RACCORDO
100
AcDbPolyline
 62
7
  6
CONTINUOUS
 90
10
 70
0
 10
-5.3444496319
 20
5.6323525441
 10
-5.2829998775
 20
5.4972648592
 10
-5.2284566394
 20
5.3616289343
 10
-5.1808199177
 20
5.2254447696
 10
-5.1399070761
 20
5.087971097
 10
-5.1059007509
 20
4.9499491846
 10
-5.0793488506
 20
4.8136028358
 10
-5.0604340114
 20
4.6796733187
 10
-5.0489735971
 20
4.5474193654
 10
-5.0449676078
 20
4.4168409758
  0
LWPOLYLINE
  5
2D8
100
AcDbEntity
  8
RACCORDO
100
AcDbPolyline
 62
250
  6
CONTINUOUS
 90
10
 70
0
 10
-6.3565938733
 20
5.1370491072
 10
-6.6599381223
 20
5.8894392893
 10
-6.9773932615
 20
6.6344891381
 10
-7.3086411434
 20
7.3715968979
 10
-7.6533019095
 20
8.1001669686
 10
-8.0110881525
 20
8.8196124273
 10
-8.3818084755
 20
9.5293527538
 10
-8.7651609244
 20
10.2288126041
 10
-9.1607300331
 20
10.9174250536
 10
-9.5681432906
 20
11.5946321637
  0
LWPOLYLINE
  5
2D9
100
AcDbEntity
  8
RACCORDO
100
AcDbPolyline
 62
250
  6
CONTINUOUS
 90
10
 70
0
 10
-6.6059162043
 20
5.0382980502
 10
-6.9072071563
 20
5.7864224907
 10
-7.2218872399
 20
6.5261059295
 10
-7.5499564549
 20
7.2573483664
 10
-7.8917206526
 20
7.9807535245
 10
-8.2468739819
 20
8.6957176808
 10
-8.6144988889
 20
9.4004296661
 10
-8.9942895223
 20
10.0942857574
 10
-9.3865517334
 20
10.7778896777
 10
-9.7912855223
 20
11.4512414271
  0
LWPOLYLINE
  5
2DA
100
AcDbEntity
  8
RACCORDO
100
AcDbPolyline
 62
250
  6
CONTINUOUS
 90
6
 70
0
 10
-9.0238719106
 20
14.5231841111
 10
-9.0274019952
 20
14.5366575165
 10
-9.0358433872
 20
14.556709834
 10
-9.0469151885
 20
14.5748498778
 10
-9.0604267615
 20
14.5907749225
 10
-9.0756024081
 20
14.6038258782
  0
LINE
  5
2DB
100
AcDbEntity
  8
RACCORDO
100
AcDbLine
 62
250
  6
CONTINUOUS
 10
2.9655272531
 20
3.2939490265
 11
8.8136717259
 21
6.1946717981
  0
LINE
  5
2DC
100
AcDbEntity
  8
RACCORDO
100
AcDbLine
 62
250
  6
CONTINUOUS
 10
3.3190267958
 20
2.6842525032
 11
9.1671712686
 21
5.5849752748
  0
LINE
  5
2DD
100
AcDbEntity
  8
RACCORDO
100
AcDbLine
 62
7
  6
CONTINUOUS
 10
-5.0449676078
 20
-0.3179803468
 11
-6.6335250492
 21
-1.0516288162
  0
LWPOLYLINE
  5
2DE
100
AcDbEntity
  8
RACCORDO
100
AcDbPolyline
 62
250
  6
CONTINUOUS
 90
7
 70
0
 10
8.8136717259
 20
6.1946717981
 10
8.8592512575
 20
6.2128638793
 10
8.9039648743
 20
6.2234555712
 10
8.9470643972
 20
6.2262696462
 10
8.9878286553
 20
6.2212590175
 10
9.025575553
 20
6.2085075262
 10
9.0310491877
 20
6.2058829392
  0
LWPOLYLINE
  5
2DF
100
AcDbEntity
  8
RACCORDO
100
AcDbPolyline
 62
250
  6
CONTINUOUS
 90
9
 70
0
 10
-28.8196647501
 20
12.6141513301
 10
-28.8570268113
 20
12.629966133
 10
-28.8935414065
 20
12.6411157521
 10
-28.9288086996
 20
12.6474781265
 10
-28.9624425264
 20
12.6489836176
 10
-28.9940745931
 20
12.6456157681
 10
-29.0233585161
 20
12.6374114959
 10
-29.049973656
 20
12.624460682
 10
-29.0549630184
 20
12.6213040932
  0
LINE
  5
2E0
100
AcDbEntity
  8
RACCORDO
100
AcDbLine
 62
250
  6
CONTINUOUS
 10
-28.8196647501
 20
12.6141513301
 11
-14.049951289
 21
5.2292945996
  0
LINE
  5
2E1
100
AcDbEntity
  8
0
100
AcDbLine
 62
7
  6
CONTINUOUS
 10
-10.0459502553
 20
13.2965265458
 11
-9.9918654871
 21
13.2253889201
  0
LINE
  5
2E2
100
AcDbEntity
  8
0
100
AcDbLine
 62
7
  6
CONTINUOUS
 10
-9.9918654871
 20
13.2253889201
 11
-9.9379169719
 21
13.1541171169
  0
LINE
  5
2E3
100
AcDbEntity
  8
0
100
AcDbLine
 62
7
  6
CONTINUOUS
 10
-9.9379169719
 20
13.1541171169
 11
-9.8841047096
 21
13.0827111362
  0
LWPOLYLINE
  5
2E4
100
AcDbEntity
  8
DRAFT
100
AcDbPolyline
 62
7
  6
CONTINUOUS
 90
25
 70
0
 10
-11.1967966041
 20
13.0636364564
 10
-11.2123409468
 20
13.0848903946
 10
-11.2283561282
 20
13.1052791625
 10
-11.2448421481
 20
13.12480276
 10
-11.2618490146
 20
13.1435122442
 10
-11.2793267198
 20
13.161356558
 10
-11.2971252396
 20
13.1781825308
 10
-11.3152473358
 20
13.1939813961
 10
-11.3336902467
 20
13.2087619204
 10
-11.3522956633
 20
13.2223972315
 10
-11.3710649846
 20
13.2348774711
 10
-11.3899968115
 20
13.2462124975
 10
-11.4089286385
 20
13.256305014
 10
-11.4278604654
 20
13.2651443245
 10
-11.4467922924
 20
13.272741125
 10
-11.4655616136
 20
13.2790302067
 10
-11.4841670302
 20
13.2840003122
 10
-11.5026099411
 20
13.2876626988
 10
-11.5207320373
 20
13.2899859296
 10
-11.5385305572
 20
13.2909584767
 10
-11.5560082623
 20
13.290591868
 10
-11.5730151288
 20
13.2888892504
 10
-11.5895011488
 20
13.2858516728
 10
-11.6055163301
 20
13.2814780862
 10
-11.6210606728
 20
13.2757684908
  0
LWPOLYLINE
  5
2E5
100
AcDbEntity
  8
0
100
AcDbPolyline
 62
7
  6
CONTINUOUS
 90
10
 70
0
 10
-9.363083169
 20
12.3746887189
 10
-8.8797230415
 20
11.6895285577
 10
-8.4083310068
 20
10.9932612892
 10
-7.9489070648
 20
10.2858869133
 10
-7.5010108398
 20
9.5666877833
 10
-7.0650827074
 20
8.836381546
 10
-6.6424437955
 20
8.0971211416
 10
-6.2335344797
 20
7.3496242169
 10
-5.8379143842
 20
6.593173125
 10
-5.4555835091
 20
5.8277678661
  0
LWPOLYLINE
  5
2E6
100
AcDbEntity
  8
RACCORDO
100
AcDbPolyline
 62
7
  6
CONTINUOUS
 90
10
 70
0
 10
-9.0096530444
 20
11.8825895403
 10
-8.5568259202
 20
11.224432861
 10
-8.1151113022
 20
10.5567081364
 10
-7.6845091903
 20
9.8794153667
 10
-7.2646421594
 20
9.1919018574
 10
-6.8558876346
 20
8.4948203029
 10
-6.4593778919
 20
7.7901287861
 10
-6.0754903565
 20
7.0784800011
 10
-5.7038476032
 20
6.3592212538
 10
-5.3444496319
 20
5.6323525441
  0
LWPOLYLINE
  5
2E7
100
AcDbEntity
  8
RACCORDO
100
AcDbPolyline
 62
250
  6
CONTINUOUS
 90
10
 70
0
 10
-9.5681441932
 20
11.5946311359
 10
-9.5879492063
 20
11.6234489806
 10
-9.6088366655
 20
11.6508191841
 10
-9.6306976233
 20
11.6766083203
 10
-9.6534242367
 20
11.7006806376
 10
-9.6769060712
 20
11.7229122339
 10
-9.7010221466
 20
11.7432044069
 10
-9.7256501631
 20
11.7614561355
 10
-9.750668302
 20
11.7775606014
 10
-9.7759444011
 20
11.7914292777
  0
LWPOLYLINE
  5
2E8
100
AcDbEntity
  8
RACCORDO
100
AcDbPolyline
 62
250
  6
CONTINUOUS
 90
10
 70
0
 10
-9.7912855223
 20
11.4512414271
 10
-9.8028379131
 20
11.4689413521
 10
-9.814963754
 20
11.4855788307
 10
-9.827663045
 20
11.5011538627
 10
-9.8410119935
 20
11.5157357953
 10
-9.8549343921
 20
11.5292552815
 10
-9.8692016183
 20
11.5415042801
 10
-9.8837374643
 20
11.5524134444
 10
-9.8986181379
 20
11.5620521212
 10
-9.9138436389
 20
11.5704203106
  0
LWPOLYLINE
  5
2E9
100
AcDbEntity
  8
RACCORDO
100
AcDbPolyline
 62
250
  6
CONTINUOUS
 90
6
 70
0
 10
-9.0797327504
 20
14.4973857241
 10
-9.0903982455
 20
14.516759711
 10
-9.104783293
 20
14.5384051902
 10
-9.1206919077
 20
14.5584098724
 10
-9.1378518889
 20
14.5764314721
 10
-9.1559696245
 20
14.5921616347
  0
LWPOLYLINE
  5
2EA
100
AcDbEntity
  8
RACCORDO
100
AcDbPolyline
 62
250
  6
CONTINUOUS
 90
22
 70
0
 10
2.6363879163
 20
3.1966993806
 10
2.6371966544
 20
3.1418510792
 10
2.6417108011
 20
3.0874776811
 10
2.6499303565
 20
3.0335791865
 10
2.6617068477
 20
2.9793237713
 10
2.6771887476
 20
2.9255432595
 10
2.696821474
 20
2.874733123
 10
2.720904374
 20
2.8270761475
 10
2.7491381005
 20
2.7823895473
 10
2.7810700297
 20
2.7426204374
 10
2.8169618725
 20
2.7081102331
 10
2.856551918
 20
2.678517519
 10
2.8986024098
 20
2.6547651644
 10
2.9432973795
 20
2.6372676547
 10
2.9904527956
 20
2.6256105044
 10
3.0382788071
 20
2.6194731268
 10
3.0867977188
 20
2.6192549711
 10
3.1359872259
 20
2.624556588
 10
3.1839905637
 20
2.6338590431
 10
3.2301888104
 20
2.6466560249
 10
3.2752008878
 20
2.663453845
 10
3.3190267958
 20
2.6842525032
  0
LWPOLYLINE
  5
2EB
100
AcDbEntity
  8
RACCORDO
100
AcDbPolyline
 62
7
  6
CONTINUOUS
 90
10
 70
0
 10
2.776705892
 20
8.7483840536
 10
2.7761527028
 20
8.7968285553
 10
2.7674282413
 20
8.9489090372
 10
2.748402633
 20
9.1019720867
 10
2.7194852193
 20
9.2553499385
 10
2.6810572722
 20
9.4082546346
 10
2.6336065028
 20
9.5596137298
 10
2.5776019046
 20
9.7085422109
 10
2.5134448702
 20
9.8543917784
 10
2.4955960538
 20
9.8914914858
  0
LINE
  5
2EC
100
AcDbEntity
  8
RACCORDO
100
AcDbLine
 62
250
  6
CONTINUOUS
 10
2.6363879163
 20
8.574888425
 11
2.6363879163
 21
3.1966993806
  0
LINE
  5
2ED
100
AcDbEntity
  8
RACCORDO
100
AcDbLine
 62
7
  6
CONTINUOUS
 10
2.7767180161
 20
8.7485530173
 11
2.7767180161
 21
3.3703639731
  0
LWPOLYLINE
  5
2EE
100
AcDbEntity
  8
RACCORDO
100
AcDbPolyline
 62
250
  6
CONTINUOUS
 90
7
 70
0
 10
2.7767180104
 20
3.3703260626
 10
2.7730792653
 20
3.3402578676
 10
2.7611540903
 20
3.3084735658
 10
2.7411229725
 20
3.2777248392
 10
2.7133210711
 20
3.2485261995
 10
2.6782135749
 20
3.2213662246
 10
2.6363879163
 20
3.1966993806
  0
LWPOLYLINE
  5
2EF
100
AcDbEntity
  8
RACCORDO
100
AcDbPolyline
 62
250
  6
CONTINUOUS
 90
7
 70
0
 10
2.7767179019
 20
8.7483840508
 10
2.7730791929
 20
8.7184466136
 10
2.7611539508
 20
8.6866623369
 10
2.7411227926
 20
8.6559136578
 10
2.7133208936
 20
8.6267150845
 10
2.6782134542
 20
8.5995551875
 10
2.6363879163
 20
8.574888425
  0
LWPOLYLINE
  5
2F0
100
AcDbEntity
  8
RACCORDO
100
AcDbPolyline
 62
250
  6
CONTINUOUS
 90
13
 70
0
 10
-8.1120625021
 20
-0.2500648004
 10
-8.0825873404
 20
-0.2420445634
 10
-8.0502462978
 20
-0.2359508486
 10
-8.0155686299
 20
-0.2318833787
 10
-7.9791218313
 20
-0.2299087171
 10
-7.9415023476
 20
-0.2300591789
 10
-7.9033258155
 20
-0.2323323017
 10
-7.8652169876
 20
-0.2366908863
 10
-7.8277995086
 20
-0.2430636051
 10
-7.7916857095
 20
-0.2513461697
 10
-7.7574665864
 20
-0.2614030373
 10
-7.7257021298
 20
-0.273069629
 10
-7.6969121597
 20
-0.2861550227
  0
LWPOLYLINE
  5
2F1
100
AcDbEntity
  8
RACCORDO
100
AcDbPolyline
 62
250
  6
CONTINUOUS
 90
6
 70
0
 10
2.8515524478
 20
3.2604001409
 10
2.8755923769
 20
3.2631141412
 10
2.8992122183
 20
3.2681509992
 10
2.9221074712
 20
3.2751539849
 10
2.9442526155
 20
3.2838491966
 10
2.9655272531
 20
3.2939490265
  0
LWPOLYLINE
  5
2F2
100
AcDbEntity
  8
RACCORDO
100
AcDbPolyline
 62
250
  6
CONTINUOUS
 90
9
 70
0
 10
-8.8205908273
 20
0.7736088623
 10
-8.8061030896
 20
0.7735353105
 10
-8.7677692853
 20
0.7712043494
 10
-8.7294484546
 20
0.7667624805
 10
-8.6918460828
 20
0.7602855355
 10
-8.6557778003
 20
0.7519315208
 10
-8.6218681328
 20
0.7418873728
 10
-8.590561394
 20
0.7303290802
 10
-8.5623132141
 20
0.7174655782
  0
LWPOLYLINE
  5
2F3
100
AcDbEntity
  8
RACCORDO
100
AcDbPolyline
 62
250
  6
CONTINUOUS
 90
13
 70
0
 10
-6.4340809414
 20
3.8958045497
 10
-6.4146551307
 20
3.8870375599
 10
-6.3932052861
 20
3.8792384646
 10
-6.37009032
 20
3.8725378008
 10
-6.3456970134
 20
3.8670477263
 10
-6.320433575
 20
3.8628601486
 10
-6.2947228142
 20
3.8600451802
 10
-6.2689949981
 20
3.8586499563
 10
-6.2436807148
 20
3.8586978547
 10
-6.2192036952
 20
3.8601880944
 10
-6.195973618
 20
3.8630957469
 10
-6.1743792585
 20
3.8673721647
 10
-6.1547820445
 20
3.8729457907
  0
LINE
  5
2F4
100
AcDbEntity
  8
RACCORDO
100
AcDbLine
 62
7
  6
CONTINUOUS
 10
-9.6911791921
 20
7.93118775
 11
-24.6113476544
 21
15.3912719811
  0
LWPOLYLINE
  5
2F5
100
AcDbEntity
  8
RACCORDO
100
AcDbPolyline
 62
7
  6
CONTINUOUS
 90
16
 70
0
 10
9.3075013684
 20
-8.0222654983
 10
9.3170691214
 20
-8.0336253749
 10
9.4276530983
 20
-8.1785620785
 10
9.5322105833
 20
-8.3298006932
 10
9.6302915648
 20
-8.4865792519
 10
9.7214986829
 20
-8.6481686372
 10
9.8054863388
 20
-8.8138990722
 10
9.8818780815
 20
-8.9830086582
 10
9.9503152964
 20
-9.1547115351
 10
10.0104945299
 20
-9.3283017796
 10
10.0621123402
 20
-9.5030313112
 10
10.1048672004
 20
-9.6780747689
 10
10.1384971296
 20
-9.8526422776
 10
10.1627686987
 20
-10.0259680182
 10
10.1774685929
 20
-10.1972758835
 10
10.1824066114
 20
-10.3657815671
  0
LWPOLYLINE
  5
2F6
100
AcDbEntity
  8
0
100
AcDbPolyline
 62
7
  6
CONTINUOUS
 90
10
 70
0
 10
-10.0459502553
 20
13.2965265458
 10
-10.0851301571
 20
13.3457634752
 10
-10.1255821099
 20
13.3923101508
 10
-10.1673061137
 20
13.4361665725
 10
-10.2105838656
 20
13.4775758876
 10
-10.2551336684
 20
13.516294949
 10
-10.3001104312
 20
13.5515943144
 10
-10.345232457
 20
13.5832308364
 10
-10.3907814428
 20
13.6114476626
 10
-10.4367573885
 20
13.6362447928
  0
LWPOLYLINE
  5
2F7
100
AcDbEntity
  8
RACCORDO
100
AcDbPolyline
 62
7
  6
CONTINUOUS
 90
7
 70
0
 10
-5.4337434309
 20
12.111603612
 10
-5.4395827676
 20
12.1190364208
 10
-5.4453508387
 20
12.1266245136
 10
-5.4510443198
 20
12.1343648932
 10
-5.4566599788
 20
12.1422542896
 10
-5.4621946851
 20
12.1502891555
 10
-5.4676454184
 20
12.1584656626
  0
LINE
  5
2F8
100
AcDbEntity
  8
0
100
AcDbLine
 62
7
  6
CONTINUOUS
 10
-7.2319590542
 20
14.6571177077
 11
-7.1745792159
 21
14.5815561661
  0
LINE
  5
2F9
100
AcDbEntity
  8
0
100
AcDbLine
 62
7
  6
CONTINUOUS
 10
-7.1745792159
 20
14.5815561661
 11
-7.1173335064
 21
14.5058166546
  0
LINE
  5
2FA
100
AcDbEntity
  8
0
100
AcDbLine
 62
7
  6
CONTINUOUS
 10
-7.1173335064
 20
14.5058166546
 11
-7.0602219257
 21
14.429899173
  0
LWPOLYLINE
  5
2FB
100
AcDbEntity
  8
RACCORDO
100
AcDbPolyline
 62
250
  6
CONTINUOUS
 90
25
 70
0
 10
9.3075013684
 20
-8.185148484
 10
9.3568593712
 20
-8.2525321659
 10
9.4463020404
 20
-8.3852217161
 10
9.5282546802
 20
-8.5172032859
 10
9.6025804525
 20
-8.6469943649
 10
9.6699120768
 20
-8.7744171275
 10
9.73025752
 20
-8.8981828015
 10
9.7837761159
 20
-9.017151335
 10
9.8311578903
 20
-9.1313636312
 10
9.8732132075
 20
-9.2414385527
 10
9.9103013431
 20
-9.3470726713
 10
9.9427821406
 20
-9.4480050362
 10
9.9713022329
 20
-9.5450404983
 10
9.9961458808
 20
-9.6380252837
 10
10.0175974353
 20
-9.7268413234
 10
10.0361428801
 20
-9.812399619
 10
10.0519878132
 20
-9.8946341712
 10
10.0653341823
 20
-9.9734875099
 10
10.0765130782
 20
-10.0498910564
 10
10.085652542
 20
-10.1237831933
 10
10.0928866238
 20
-10.1951613852
 10
10.0984135627
 20
-10.2650222974
 10
10.1023080353
 20
-10.3336648239
 10
10.1045998102
 20
-10.4007166965
 10
10.1053500591
 20
-10.466151158
  0
LWPOLYLINE
  5
2FC
100
AcDbEntity
  8
RACCORDO
100
AcDbPolyline
 62
250
  6
CONTINUOUS
 90
15
 70
0
 10
-5.0653329034
 20
11.8168435881
 10
-5.0813792908
 20
11.8408675538
 10
-5.0976744356
 20
11.8634550095
 10
-5.114098851
 20
11.8845893077
 10
-5.1305284703
 20
11.9042482487
 10
-5.1468847319
 20
11.922473839
 10
-5.1631371693
 20
11.9393550604
 10
-5.1792157551
 20
11.9549266492
 10
-5.1950558761
 20
11.9692268205
 10
-5.2106511089
 20
11.9823435607
 10
-5.2259496414
 20
11.994317482
 10
-5.2409084808
 20
12.0051939503
 10
-5.2555465336
 20
12.0150583849
 10
-5.2698502488
 20
12.023966985
 10
-5.2837721265
 20
12.0319524136
  0
LWPOLYLINE
  5
2FD
100
AcDbEntity
  8
RACCORDO
100
AcDbPolyline
 62
7
  6
CONTINUOUS
 90
10
 70
0
 10
-5.4676454184
 20
12.1584656626
 10
-5.5888148436
 20
12.342557121
 10
-5.7107715969
 20
12.5258404109
 10
-5.8335156783
 20
12.7083155322
 10
-5.9570548173
 20
12.8899938348
 10
-6.0813812845
 20
13.0708639689
 10
-6.2064718918
 20
13.2508918854
 10
-6.3323189099
 20
13.4300662345
 10
-6.4589300682
 20
13.608398366
 10
-6.5863053667
 20
13.7858882798
  0
LWPOLYLINE
  5
2FE
100
AcDbEntity
  8
RACCORDO
100
AcDbPolyline
 62
250
  6
CONTINUOUS
 90
13
 70
0
 10
-7.6619245929
 20
-10.6550172471
 10
-7.6815212653
 20
-10.6660415294
 10
-7.7031150672
 20
-10.6756774646
 10
-7.7263446158
 20
-10.6837637907
 10
-7.7508211533
 20
-10.6901651791
 10
-7.7761350529
 20
-10.6947744993
 10
-7.8018626741
 20
-10.6975146122
 10
-7.8275734526
 20
-10.6983396606
 10
-7.8528371059
 20
-10.6972358369
 10
-7.8772308345
 20
-10.6942216143
 10
-7.9003463974
 20
-10.689347437
 10
-7.9217969443
 20
-10.682694877
 10
-7.9412234899
 20
-10.6743752679
  0
LWPOLYLINE
  5
2FF
100
AcDbEntity
  8
RACCORDO
100
AcDbPolyline
 62
250
  6
CONTINUOUS
 90
4
 70
0
 10
2.7888927827
 20
3.2667540209
 10
2.8040663014
 20
3.2630178896
 10
2.8276449399
 20
3.2603088584
 10
2.8515524478
 20
3.2604001409
  0
LINE
  5
300
100
AcDbEntity
  8
RACCORDO
100
AcDbLine
 62
250
  6
CONTINUOUS
 10
-10.194226855
 20
9.9114483594
 11
-10.1619753419
 21
9.9002266074
  0
LWPOLYLINE
  5
301
100
AcDbEntity
  8
RACCORDO
100
AcDbPolyline
 62
250
  6
CONTINUOUS
 90
31
 70
0
 10
-10.560400501
 20
10.1764080861
 10
-10.5504342533
 20
10.1720942884
 10
-10.5407662968
 20
10.1691250721
 10
-10.5313966315
 20
10.1675004369
 10
-10.5222256734
 20
10.1672279126
 10
-10.5133530065
 20
10.1682999696
 10
-10.5050773828
 20
10.170694019
 10
-10.4974199277
 20
10.1744572205
 10
-10.4903595157
 20
10.1795424145
 10
-10.4841315225
 20
10.1857855329
 10
-10.4787658139
 20
10.193224341
 10
-10.4742325241
 20
10.2018210734
 10
-10.4706774305
 20
10.2112983665
 10
-10.468132059
 20
10.221685433
 10
-10.4665648837
 20
10.23295306
 10
-10.4660271052
 20
10.2447362459
 10
-10.4665526655
 20
10.2570519762
 10
-10.4681076225
 20
10.2698832653
 10
-10.4706413505
 20
10.2828141545
 10
-10.4741856996
 20
10.2958474772
 10
-10.4787088198
 20
10.3089803999
 10
-10.4840645348
 20
10.3217884633
 10
-10.4902807462
 20
10.3342615988
 10
-10.4973295524
 20
10.346409875
 10
-10.5049810736
 20
10.357839038
 10
-10.5132581996
 20
10.3685266883
 10
-10.5221380405
 20
10.3784952254
 10
-10.5313220461
 20
10.3874175937
 10
-10.5407106997
 20
10.3951847746
 10
-10.550403518
 20
10.4019057866
 10
-10.560400501
 20
10.4075806299
  0
LWPOLYLINE
  5
302
100
AcDbEntity
  8
RACCORDO
100
AcDbPolyline
 62
250
  6
CONTINUOUS
 90
31
 70
0
 10
-10.560400501
 20
10.4075806299
 10
-10.5703667487
 20
10.4118944275
 10
-10.5800347052
 20
10.4148636439
 10
-10.5894043706
 20
10.416488279
 10
-10.5985753287
 20
10.4167608033
 10
-10.6074479956
 20
10.4156887463
 10
-10.6157236193
 20
10.413294697
 10
-10.6233810744
 20
10.4095314954
 10
-10.6304414864
 20
10.4044463014
 10
-10.6366694796
 20
10.398203183
 10
-10.6420351882
 20
10.3907643749
 10
-10.646568478
 20
10.3821676425
 10
-10.6501235716
 20
10.3726903494
 10
-10.6526689431
 20
10.362303283
 10
-10.6542361183
 20
10.3510356559
 10
-10.6547738969
 20
10.33925247
 10
-10.6542483366
 20
10.3269367397
 10
-10.6526933796
 20
10.3141054506
 10
-10.6501596516
 20
10.3011745615
 10
-10.6466153025
 20
10.2881412388
 10
-10.6420921823
 20
10.275008316
 10
-10.6367364673
 20
10.2622002526
 10
-10.6305202559
 20
10.2497271171
 10
-10.6234714497
 20
10.2375788409
 10
-10.6158199285
 20
10.2261496779
 10
-10.6075428025
 20
10.2154620276
 10
-10.5986629616
 20
10.2054934905
 10
-10.589478956
 20
10.1965711222
 10
-10.5800903024
 20
10.1888039414
 10
-10.5703974841
 20
10.1820829293
 10
-10.560400501
 20
10.1764080861
  0
LWPOLYLINE
  5
303
100
AcDbEntity
  8
RACCORDO
100
AcDbPolyline
 62
250
  6
CONTINUOUS
 90
31
 70
0
 10
-18.3385750941
 20
14.0654953826
 10
-18.3286088464
 20
14.061181585
 10
-18.3189408899
 20
14.0582123686
 10
-18.3095712246
 20
14.0565877334
 10
-18.3004002665
 20
14.0563152091
 10
-18.2915275996
 20
14.0573872661
 10
-18.2832519758
 20
14.0597813155
 10
-18.2755945207
 20
14.0635445171
 10
-18.2685341088
 20
14.0686297111
 10
-18.2623061155
 20
14.0748728295
 10
-18.256940407
 20
14.0823116375
 10
-18.2524071171
 20
14.09090837
 10
-18.2488520236
 20
14.1003856631
 10
-18.246306652
 20
14.1107727295
 10
-18.2447394768
 20
14.1220403565
 10
-18.2442016983
 20
14.1338235424
 10
-18.2447272585
 20
14.1461392727
 10
-18.2462822155
 20
14.1589705618
 10
-18.2488159435
 20
14.171901451
 10
-18.2523602927
 20
14.1849347737
 10
-18.2568834128
 20
14.1980676964
 10
-18.2622391279
 20
14.2108757598
 10
-18.2684553392
 20
14.2233488954
 10
-18.2755041455
 20
14.2354971716
 10
-18.2831556666
 20
14.2469263345
 10
-18.2914327927
 20
14.2576139849
 10
-18.3003126336
 20
14.2675825219
 10
-18.3094966392
 20
14.2765048902
 10
-18.3188852928
 20
14.2842720711
 10
-18.3285781111
 20
14.2909930832
 10
-18.3385750941
 20
14.2966679264
  0
LWPOLYLINE
  5
304
100
AcDbEntity
  8
RACCORDO
100
AcDbPolyline
 62
250
  6
CONTINUOUS
 90
31
 70
0
 10
-18.3385750941
 20
14.2966679264
 10
-18.3485413418
 20
14.300981724
 10
-18.3582092983
 20
14.3039509404
 10
-18.3675789636
 20
14.3055755755
 10
-18.3767499217
 20
14.3058480998
 10
-18.3856225886
 20
14.3047760429
 10
-18.3938982124
 20
14.3023819935
 10
-18.4015556675
 20
14.2986187919
 10
-18.4086160794
 20
14.2935335979
 10
-18.4148440727
 20
14.2872904795
 10
-18.4202097812
 20
14.2798516715
 10
-18.4247430711
 20
14.271254939
 10
-18.4282981646
 20
14.2617776459
 10
-18.4308435361
 20
14.2513905795
 10
-18.4324107114
 20
14.2401229524
 10
-18.4329484899
 20
14.2283397666
 10
-18.4324229297
 20
14.2160240362
 10
-18.4308679727
 20
14.2031927471
 10
-18.4283342447
 20
14.190261858
 10
-18.4247898955
 20
14.1772285353
 10
-18.4202667754
 20
14.1640956125
 10
-18.4149110603
 20
14.1512875492
 10
-18.408694849
 20
14.1388144136
 10
-18.4016460427
 20
14.1266661374
 10
-18.3939945216
 20
14.1152369744
 10
-18.3857173955
 20
14.1045493241
 10
-18.3768375546
 20
14.094580787
 10
-18.367653549
 20
14.0856584188
 10
-18.3582648954
 20
14.0778912379
 10
-18.3485720771
 20
14.0711702258
 10
-18.3385750941
 20
14.0654953826
  0
LWPOLYLINE
  5
305
100
AcDbEntity
  8
RACCORDO
100
AcDbPolyline
 62
250
  6
CONTINUOUS
 90
27
 70
0
 10
-10.1619753419
 20
9.9002266074
 10
-10.0262933284
 20
9.8410889303
 10
-9.8921551168
 20
9.7707197693
 10
-9.7595762511
 20
9.6889800047
 10
-9.6285411873
 20
9.5960087563
 10
-9.5007487919
 20
9.4929898808
 10
-9.3762362892
 20
9.3797966444
 10
-9.2549664548
 20
9.2565557808
 10
-9.1385264819
 20
9.1248313476
 10
-9.0269706502
 20
8.9845092485
 10
-8.9202446799
 20
8.8357035798
 10
-8.8197729247
 20
8.680320687
 10
-8.7256285536
 20
8.5182620394
 10
-8.6377383975
 20
8.3496261678
 10
-8.5573073032
 20
8.1766150099
 10
-8.4844298163
 20
7.9991542509
 10
-8.4190113911
 20
7.8173182056
 10
-8.361973237
 20
7.6335317557
 10
-8.3134296807
 20
7.4477558421
 10
-8.2732663955
 20
7.2600295238
 10
-8.2420616114
 20
7.0728948592
 10
-8.2199373085
 20
6.8863670987
 10
-8.2067715068
 20
6.7004309919
 10
-8.2027764957
 20
6.5175828456
 10
-8.2080230383
 20
6.3386547622
 10
-8.2224403716
 20
6.1628146393
 10
-8.2460284955
 20
5.990062477
  0
LWPOLYLINE
  5
306
100
AcDbEntity
  8
RACCORDO
100
AcDbPolyline
 62
250
  6
CONTINUOUS
 90
9
 70
0
 10
-10.3022091553
 20
10.881768269
 10
-10.3415441759
 20
10.8989098839
 10
-10.3804295553
 20
10.910807244
 10
-10.4184402051
 20
10.9173375983
 10
-10.4551479204
 20
10.9184377446
 10
-10.4901684161
 20
10.914107077
 10
-10.5231584706
 20
10.9043865763
 10
-10.5537715555
 20
10.8893605293
 10
-10.5592559121
 20
10.8859389745
  0
LWPOLYLINE
  5
307
100
AcDbEntity
  8
RACCORDO
100
AcDbPolyline
 62
7
  6
CONTINUOUS
 90
10
 70
0
 10
-10.4564432944
 20
9.9600585997
 10
-10.4118678869
 20
9.9404107509
 10
-10.3662652685
 20
9.9254410144
 10
-10.320172348
 20
9.9152128305
 10
-10.2746765976
 20
9.9097322774
 10
-10.2296966227
 20
9.9087295856
 10
-10.183996198
 20
9.9122325439
 10
-10.1375519179
 20
9.9206174946
 10
-10.0915243844
 20
9.9340391341
 10
-10.084788509
 20
9.9364583955
  0
LWPOLYLINE
  5
308
100
AcDbEntity
  8
RACCORDO
100
AcDbPolyline
 62
7
  6
CONTINUOUS
 90
10
 70
0
 10
-18.2346178874
 20
13.8491458962
 10
-18.1900424799
 20
13.8294980474
 10
-18.1444398616
 20
13.8145283109
 10
-18.0983469411
 20
13.804300127
 10
-18.0528511906
 20
13.7988195739
 10
-18.0078712157
 20
13.7978168821
 10
-17.962170791
 20
13.8013198404
 10
-17.915726511
 20
13.8097047912
 10
-17.8696989775
 20
13.8231264306
 10
-17.862963102
 20
13.825545692
  0
LINE
  5
309
100
AcDbEntity
  8
RACCORDO
100
AcDbLine
 62
250
  6
CONTINUOUS
 10
2.7839138849
 20
3.3847557106
 11
2.9655272531
 21
3.2939490265
  0
LINE
  5
30A
100
AcDbEntity
  8
RACCORDO
100
AcDbLine
 62
250
  6
CONTINUOUS
 10
-9.9138436389
 20
11.5704203106
 11
-17.5259717785
 21
15.3764843803
  0
LINE
  5
30B
100
AcDbEntity
  8
RACCORDO
100
AcDbLine
 62
250
  6
CONTINUOUS
 10
-9.775944559
 20
11.7914401618
 11
-17.3880726986
 21
15.5975042316
  0
LWPOLYLINE
  5
30C
100
AcDbEntity
  8
RACCORDO
100
AcDbPolyline
 62
250
  6
CONTINUOUS
 90
16
 70
0
 10
2.9655272531
 20
3.2939490265
 10
3.0030817482
 20
3.273398057
 10
3.0401573703
 20
3.2482967546
 10
3.0763480685
 20
3.218920028
 10
3.1112574834
 20
3.1855896101
 10
3.1445032885
 20
3.1486705344
 10
3.1757213769
 20
3.1085671374
 10
3.2045698491
 20
3.0657186299
 10
3.2307327578
 20
3.0205942874
 10
3.2539235676
 20
2.9736883101
 10
3.2738882936
 20
2.9255144105
 10
3.2904082829
 20
2.8766001876
 10
3.3033026091
 20
2.827481348
 10
3.312430054
 20
2.7786958397
 10
3.3176906542
 20
2.7307779598
 10
3.3190267958
 20
2.6842525032
  0
LWPOLYLINE
  5
30D
100
AcDbEntity
  8
RACCORDO
100
AcDbPolyline
 62
7
  6
CONTINUOUS
 90
6
 70
0
 10
-5.2987345334
 20
11.9783722583
 10
-5.3009482624
 20
11.9801818904
 10
-5.3161135893
 20
11.9927719178
 10
-5.3312052269
 20
12.0057121604
 10
-5.346211913
 20
12.0191413701
 10
-5.3611570439
 20
12.0330549619
  0
LWPOLYLINE
  5
30E
100
AcDbEntity
  8
RACCORDO
100
AcDbPolyline
 62
7
  6
CONTINUOUS
 90
5
 70
0
 10
-5.3611570439
 20
12.0330549619
 10
-5.3760179807
 20
12.0474567554
 10
-5.3907146257
 20
12.06249789
 10
-5.4052206563
 20
12.0782283572
 10
-5.4195634187
 20
12.0945971107
  0
LINE
  5
30F
100
AcDbEntity
  8
RACCORDO
100
AcDbLine
 62
7
  6
CONTINUOUS
 10
-5.4195634187
 20
12.0945971107
 11
-5.4337434309
 21
12.111603612
  0
LWPOLYLINE
  5
310
100
AcDbEntity
  8
0
100
AcDbPolyline
 62
7
  6
CONTINUOUS
 90
10
 70
0
 10
-7.2319590542
 20
14.6571177077
 10
-7.2714310579
 20
14.7066911994
 10
-7.3120432926
 20
14.7534462264
 10
-7.3537957582
 20
14.7973827889
 10
-7.3968747041
 20
14.8386628858
 10
-7.441093881
 20
14.8771245181
 10
-7.4858945403
 20
14.912281689
 10
-7.5310904326
 20
14.9439723997
 10
-7.5768678072
 20
14.9723586489
 10
-7.6232266643
 20
14.9974404368
  0
LWPOLYLINE
  5
311
100
AcDbEntity
  8
RACCORDO
100
AcDbPolyline
 62
7
  6
CONTINUOUS
 90
10
 70
0
 10
2.7967063499
 20
3.245835279
 10
2.7966647272
 20
3.2459167023
 10
2.7951974286
 20
3.2488886837
 10
2.7921423533
 20
3.256471588
 10
2.7882705211
 20
3.2687230082
 10
2.7842882936
 20
3.285429606
 10
2.7807305722
 20
3.3065530487
 10
2.7780898933
 20
3.3319079194
 10
2.7767953912
 20
3.3609647199
 10
2.7767178681
 20
3.3703260628
  0
LWPOLYLINE
  5
312
100
AcDbEntity
  8
RACCORDO
100
AcDbPolyline
 62
250
  6
CONTINUOUS
 90
9
 70
0
 10
9.3075013684
 20
5.7586398674
 10
9.307038083
 20
5.7478803281
 10
9.3021375349
 20
5.7221191103
 10
9.291937303
 20
5.6967491871
 10
9.2765466758
 20
5.6720423796
 10
9.2561305532
 20
5.6482634042
 10
9.2309076798
 20
5.6256670362
 10
9.2011483012
 20
5.6044953798
 10
9.1671712686
 20
5.5849752748
  0
LWPOLYLINE
  5
313
100
AcDbEntity
  8
RACCORDO
100
AcDbPolyline
 62
250
  6
CONTINUOUS
 90
13
 70
0
 10
-8.537396452
 20
5.2001824046
 10
-8.5079213055
 20
5.2082026367
 10
-8.4755802812
 20
5.2142963487
 10
-8.4409026339
 20
5.2183638179
 10
-8.404455857
 20
5.2203384811
 10
-8.3668363955
 20
5.2201880232
 10
-8.3286598848
 20
5.2179149066
 10
-8.2905510767
 20
5.2135563303
 10
-8.2531336147
 20
5.2071836217
 10
-8.2170198287
 20
5.198901069
 10
-8.1828007141
 20
5.1888442145
 10
-8.1510362606
 20
5.1771776369
 10
-8.1222462876
 20
5.1640922576
  0
LWPOLYLINE
  5
314
100
AcDbEntity
  8
RACCORDO
100
AcDbPolyline
 62
7
  6
CONTINUOUS
 90
13
 70
0
 10
-8.6605885601
 20
5.9468748178
 10
-8.6288408986
 20
5.9552466935
 10
-8.5948815596
 20
5.9635137924
 10
-8.559225375
 20
5.9713124898
 10
-8.5222875977
 20
5.9779362885
 10
-8.4846224006
 20
5.9832532445
 10
-8.4469264116
 20
5.9877956149
 10
-8.4096495288
 20
5.9912772082
 10
-8.3731968474
 20
5.9932788228
 10
-8.3381938136
 20
5.9942874019
 10
-8.3051135151
 20
5.994347711
 10
-8.2742499227
 20
5.9929945696
 10
-8.2459411191
 20
5.9900614278
  0
LINE
  5
315
100
AcDbEntity
  8
RACCORDO
100
AcDbLine
 62
250
  6
CONTINUOUS
 10
-10.5678138016
 20
10.0053613454
 11
-10.5175707317
 21
9.9968069186
  0
LWPOLYLINE
  5
316
100
AcDbEntity
  8
RACCORDO
100
AcDbPolyline
 62
250
  6
CONTINUOUS
 90
9
 70
0
 10
-18.0803837483
 20
14.7708555655
 10
-18.119718769
 20
14.7879971804
 10
-18.1586041483
 20
14.7998945405
 10
-18.1966147981
 20
14.8064248948
 10
-18.2333225135
 20
14.8075250412
 10
-18.2683430091
 20
14.8031943735
 10
-18.3013330637
 20
14.7934738728
 10
-18.3319461485
 20
14.7784478259
 10
-18.3374305051
 20
14.7750262711
  0
LWPOLYLINE
  5
317
100
AcDbEntity
  8
RACCORDO
100
AcDbPolyline
 62
250
  6
CONTINUOUS
 90
10
 70
0
 10
-17.5259717785
 20
15.3764843803
 10
-17.5413983206
 20
15.383435922
 10
-17.5567414477
 20
15.3888913433
 10
-17.5720011596
 20
15.3928506442
 10
-17.5872604191
 20
15.3953234891
 10
-17.6024362635
 20
15.3963002137
 10
-17.6172798046
 20
15.3957518245
 10
-17.6317080795
 20
15.3936686571
 10
-17.6458040512
 20
15.390060376
 10
-17.6595677194
 20
15.3849269811
  0
LWPOLYLINE
  5
318
100
AcDbEntity
  8
RACCORDO
100
AcDbPolyline
 62
250
  6
CONTINUOUS
 90
10
 70
0
 10
-17.3880725422
 20
15.5974932047
 10
-17.4136895186
 20
15.609061049
 10
-17.4392960116
 20
15.6182396779
 10
-17.4647540024
 20
15.624982773
 10
-17.4899276991
 20
15.6292690895
 10
-17.5146897216
 20
15.6310754679
 10
-17.5389221511
 20
15.6303818275
 10
-17.5625043009
 20
15.6271976081
 10
-17.5853078056
 20
15.6215417119
 10
-17.6072076081
 20
15.6134318023
  0
LWPOLYLINE
  5
319
100
AcDbEntity
  8
0
100
AcDbPolyline
 62
7
  6
CONTINUOUS
 90
10
 70
0
 10
-15.6337910819
 20
16.2347616394
 10
-15.6797670276
 20
16.255940455
 10
-15.7253160134
 20
16.2732726146
 10
-15.7704380392
 20
16.2867581183
 10
-15.815414802
 20
16.2964355158
 10
-15.8599646048
 20
16.3022662573
 10
-15.9032423567
 20
16.3041346939
 10
-15.9449663605
 20
16.3020022761
 10
-15.9854183133
 20
16.2959075533
 10
-16.0245982151
 20
16.2858505257
  0
LINE
  5
31A
100
AcDbEntity
  8
DRAFT
100
AcDbLine
 62
7
  6
CONTINUOUS
 10
-14.8737518663
 20
14.9021140875
 11
-14.4494877976
 21
14.6899820531
  0
LINE
  5
31B
100
AcDbEntity
  8
DRAFT
100
AcDbLine
 62
7
  6
CONTINUOUS
 10
-11.6210606728
 20
13.2757684908
 11
-11.1967966041
 21
13.0636364564
  0
LINE
  5
31C
100
AcDbEntity
  8
RACCORDO
100
AcDbLine
 62
7
  6
CONTINUOUS
 10
-9.2227136817
 20
12.0765949952
 11
-10.7018218573
 21
12.816149083
  0
LINE
  5
31D
100
AcDbEntity
  8
RACCORDO
100
AcDbLine
 62
7
  6
CONTINUOUS
 10
-15.3687266131
 20
15.1496014609
 11
-16.8412934193
 21
15.885884864
  0
LINE
  5
31E
100
AcDbEntity
  8
0
100
AcDbLine
 62
7
  6
CONTINUOUS
 10
-15.4888076703
 20
15.2962445299
 11
-10.5817408001
 21
12.8427110948
  0
LINE
  5
31F
100
AcDbEntity
  8
0
100
AcDbLine
 62
7
  6
CONTINUOUS
 10
-15.6337910819
 20
16.2347616394
 11
-10.4367573885
 21
13.6362447928
  0
LINE
  5
320
100
AcDbEntity
  8
RACCORDO
100
AcDbLine
 62
250
  6
CONTINUOUS
 10
-5.2972879202
 20
12.0390614259
 11
-5.4275740455
 21
12.1042044886
  0
LINE
  5
321
100
AcDbEntity
  8
0
100
AcDbLine
 62
7
  6
CONTINUOUS
 10
-9.3135277439
 20
14.3894114484
 11
-14.0700149579
 21
16.7676550554
  0
LINE
  5
322
100
AcDbEntity
  8
RACCORDO
100
AcDbLine
 62
250
  6
CONTINUOUS
 10
-13.4583445741
 20
16.7479735193
 11
-9.1938272779
 21
14.6157148712
  0
LINE
  5
323
100
AcDbEntity
  8
RACCORDO
100
AcDbLine
 62
7
  6
CONTINUOUS
 10
-13.368901855
 20
16.7536538768
 11
-9.1043845588
 21
14.6213952286
  0
LWPOLYLINE
  5
324
100
AcDbEntity
  8
RACCORDO
100
AcDbPolyline
 62
7
  6
CONTINUOUS
 90
4
 70
0
 10
-9.1044814185
 20
14.6214435711
 10
-9.1006734957
 20
14.619491025
 10
-9.0795713854
 20
14.606660913
 10
-9.0756270318
 20
14.6038439199
  0
LINE
  5
325
100
AcDbEntity
  8
RACCORDO
100
AcDbLine
 62
250
  6
CONTINUOUS
 10
-5.2837721265
 20
12.0319524136
 11
-5.2972879204
 21
12.039061415
  0
LINE
  5
326
100
AcDbEntity
  8
RACCORDO
100
AcDbLine
 62
250
  6
CONTINUOUS
 10
-9.1747351151
 20
14.6053312128
 11
-9.1938272779
 21
14.6157148712
  0
LWPOLYLINE
  5
327
100
AcDbEntity
  8
RACCORDO
100
AcDbPolyline
 62
7
  6
CONTINUOUS
 90
10
 70
0
 10
-9.2227136817
 20
12.0765949952
 10
-9.1971116965
 20
12.0626283076
 10
-9.171899112
 20
12.0466798016
 10
-9.1470759282
 20
12.0287494772
 10
-9.1225184858
 20
12.0087247346
 10
-9.098350444
 20
11.9867181735
 10
-9.0749427812
 20
11.9630675935
 10
-9.0524191567
 20
11.9378855946
 10
-9.0306559111
 20
11.9110595769
 10
-9.0096530444
 20
11.8825895403
  0
LINE
  5
328
100
AcDbEntity
  8
RACCORDO
100
AcDbLine
 62
7
  6
CONTINUOUS
 10
-5.06533216
 20
11.8168441724
 11
-5.0975542179
 21
11.8373213454
  0
LWPOLYLINE
  5
329
100
AcDbEntity
  8
RACCORDO
100
AcDbPolyline
 62
7
  6
CONTINUOUS
 90
13
 70
0
 10
-5.0975542179
 20
11.8373213454
 10
-5.1295177006
 20
11.8579317969
 10
-5.145402031
 20
11.8682842978
 10
-5.161233144
 20
11.8787397619
 10
-5.1770186168
 20
11.8892966938
 10
-5.192750982
 20
11.8999564643
 10
-5.20841833
 20
11.9107875782
 10
-5.2240201742
 20
11.921787616
 10
-5.2395572048
 20
11.9329587814
 10
-5.2550193784
 20
11.9443764164
 10
-5.2704034304
 20
11.9560305712
 10
-5.2857129387
 20
11.9679308719
 10
-5.2987345334
 20
11.9783722583
  0
LINE
  5
32A
100
AcDbEntity
  8
RACCORDO
100
AcDbLine
 62
250
  6
CONTINUOUS
 10
-9.1559696245
 20
14.5921616347
 11
-9.1747351151
 21
14.6053312128
  0
LINE
  5
32B
100
AcDbEntity
  8
RACCORDO
100
AcDbLine
 62
7
  6
CONTINUOUS
 10
-8.9881061935
 20
14.5397019045
 11
-9.0756024081
 21
14.6038258782
  0
LINE
  5
32C
100
AcDbEntity
  8
RACCORDO
100
AcDbLine
 62
7
  6
CONTINUOUS
 10
-5.7091581569
 20
15.0806297718
 11
-5.3431623181
 21
14.7963940829
  0
LWPOLYLINE
  5
32D
100
AcDbEntity
  8
RACCORDO
100
AcDbPolyline
 62
250
  6
CONTINUOUS
 90
10
 70
0
 10
0.9885157781
 20
12.3376792422
 10
1.1451688097
 20
12.0610001011
 10
1.29995551
 20
11.7830683789
 10
1.4528555488
 20
11.50392058
 10
1.6038488439
 20
11.2235933683
 10
1.7529155634
 20
10.9421235627
 10
1.9000361283
 20
10.6595481326
 10
2.0451912154
 20
10.3759041922
 10
2.1883617596
 20
10.0912289962
 10
2.3295289566
 20
9.8055599344
  0
LWPOLYLINE
  5
32E
100
AcDbEntity
  8
RACCORDO
100
AcDbPolyline
 62
7
  6
CONTINUOUS
 90
10
 70
0
 10
1.1639008408
 20
12.4060301554
 10
1.3194761134
 20
12.1312545162
 10
1.4731943284
 20
11.855241258
 10
1.6250358067
 20
11.5780259336
 10
1.7749809857
 20
11.2996444589
 10
1.9230107716
 20
11.0201324597
 10
2.0691065255
 20
10.7395252617
 10
2.2132496057
 20
10.4578587547
 10
2.3554213859
 20
10.1751693944
 10
2.4956035949
 20
9.8914935495
  0
LWPOLYLINE
  5
32F
100
AcDbEntity
  8
RACCORDO
100
AcDbPolyline
 62
250
  6
CONTINUOUS
 90
13
 70
0
 10
2.3295213577
 20
9.8055563374
 10
2.3770798084
 20
9.7043744619
 10
2.4210275975
 20
9.6018333811
 10
2.4611974908
 20
9.4982905914
 10
2.49745248
 20
9.3940889151
 10
2.52969517
 20
9.2895480518
 10
2.5578309839
 20
9.1849835175
 10
2.5817670542
 20
9.0807145488
 10
2.6014348727
 20
8.9770585227
 10
2.6167777805
 20
8.8743280211
 10
2.627738192
 20
8.7728382428
 10
2.6342727122
 20
8.6729136838
 10
2.6363749834
 20
8.5748946686
  0
LWPOLYLINE
  5
330
100
AcDbEntity
  8
RACCORDO
100
AcDbPolyline
 62
7
  6
CONTINUOUS
 90
12
 70
0
 10
9.3075013684
 20
5.7586398674
 10
9.3048761572
 20
5.8098067629
 10
9.2969514297
 20
5.8608086721
 10
9.2837247867
 20
5.9109922743
 10
9.2653170995
 20
5.9596491873
 10
9.2419088408
 20
6.006208313
 10
9.213654168
 20
6.0502558878
 10
9.1806961908
 20
6.0913944358
 10
9.1434989837
 20
6.1289176028
 10
9.1027430575
 20
6.1621647675
 10
9.0587642551
 20
6.1909209588
 10
9.0310491877
 20
6.2058829392
  0
LINE
  5
331
100
AcDbEntity
  8
RACCORDO
100
AcDbLine
 62
250
  6
CONTINUOUS
 10
9.1671712686
 20
5.5849752748
 11
9.1671712686
 21
-15.7961310569
  0
LINE
  5
332
100
AcDbEntity
  8
RACCORDO
100
AcDbLine
 62
7
  6
CONTINUOUS
 10
9.3075013684
 20
5.7586398674
 11
9.3075013684
 21
-15.6224664593
  0
LINE
  5
333
100
AcDbEntity
  8
RACCORDO
100
AcDbLine
 62
250
  6
CONTINUOUS
 10
10.1053500591
 20
-10.466151158
 11
10.1053500591
 21
-12.284804506
  0
LINE
  5
334
100
AcDbEntity
  8
RACCORDO
100
AcDbLine
 62
7
  6
CONTINUOUS
 10
10.1824066114
 20
-10.3657815671
 11
10.1824066114
 21
-12.184434915
  0
LWPOLYLINE
  5
335
100
AcDbEntity
  8
RACCORDO
100
AcDbPolyline
 62
250
  6
CONTINUOUS
 90
21
 70
0
 10
10.1053500591
 20
-12.284804506
 10
10.1045942153
 20
-12.3497279849
 10
10.1022993207
 20
-12.414431756
 10
10.098425025
 20
-12.4788395247
 10
10.0929672782
 20
-12.5425159653
 10
10.0858705383
 20
-12.6057484443
 10
10.076938475
 20
-12.6694880995
 10
10.0660386081
 20
-12.7336701069
 10
10.0530634404
 20
-12.7980561477
 10
10.037708337
 20
-12.8632187317
 10
10.0197948075
 20
-12.9289034672
 10
9.9991326231
 20
-12.9948800634
 10
9.9752570566
 20
-13.0616097659
 10
9.9479035521
 20
-13.1287238727
 10
9.9168091207
 20
-13.1958173074
 10
9.8813536621
 20
-13.2630932763
 10
9.8411983005
 20
-13.3299776773
 10
9.7960040408
 20
-13.395857913
 10
9.7449883545
 20
-13.4606070153
 10
9.6875738467
 20
-13.5235558668
 10
9.6235314374
 20
-13.5835789129
  0
LWPOLYLINE
  5
336
100
AcDbEntity
  8
RACCORDO
100
AcDbPolyline
 62
250
  6
CONTINUOUS
 90
10
 70
0
 10
9.1671615512
 20
-15.7961263635
 10
9.165040369
 20
-15.8921143899
 10
9.1584613554
 20
-15.9856177948
 10
9.1474328396
 20
-16.0762954613
 10
9.1319871863
 20
-16.1638410165
 10
9.1121866149
 20
-16.2479964436
 10
9.0880942293
 20
-16.3285087428
 10
9.059776803
 20
-16.4051243453
 10
9.0273256098
 20
-16.4776122502
 10
8.9908419014
 20
-16.5457546527
  0
LINE
  5
337
100
AcDbEntity
  8
RACCORDO
100
AcDbLine
 62
7
  6
CONTINUOUS
 10
10.1824066114
 20
-12.184434915
 11
10.1770909897
 21
-12.3545969539
  0
LWPOLYLINE
  5
338
100
AcDbEntity
  8
RACCORDO
100
AcDbPolyline
 62
7
  6
CONTINUOUS
 90
3
 70
0
 10
9.2964214848
 20
-15.8331330573
 10
9.3053767611
 20
-15.7155987352
 10
9.3074923056
 20
-15.6224599992
  0
LWPOLYLINE
  5
339
100
AcDbEntity
  8
RACCORDO
100
AcDbPolyline
 62
7
  6
CONTINUOUS
 90
13
 70
0
 10
10.1770909897
 20
-12.3545969539
 10
10.1612446792
 20
-12.5185900785
 10
10.1350279511
 20
-12.6758058588
 10
10.0985328661
 20
-12.8259516966
 10
10.0519968285
 20
-12.9681342896
 10
9.9960115412
 20
-13.101008368
 10
9.9311531723
 20
-13.2239294923
 10
9.8577672112
 20
-13.3368278429
 10
9.7763586169
 20
-13.439346926
 10
9.6877374719
 20
-13.5309178056
 10
9.5923447045
 20
-13.6115045705
 10
9.4901242341
 20
-13.681314404
 10
9.4718496512
 20
-13.6922320968
  0
LWPOLYLINE
  5
33A
100
AcDbEntity
  8
RACCORDO
100
AcDbPolyline
 62
250
  6
CONTINUOUS
 90
7
 70
0
 10
10.1824066114
 20
-10.3657815671
 10
10.1808971669
 20
-10.3808097763
 10
10.1747176309
 20
-10.3995242252
 10
10.1638640122
 20
-10.4176991256
 10
10.1485098614
 20
-10.4350438591
 10
10.1289006928
 20
-10.4512810815
 10
10.1053500591
 20
-10.466151158
  0
LWPOLYLINE
  5
33B
100
AcDbEntity
  8
RACCORDO
100
AcDbPolyline
 62
250
  6
CONTINUOUS
 90
7
 70
0
 10
10.1824066114
 20
-12.184434915
 10
10.1808971838
 20
-12.1994630404
 10
10.1747176638
 20
-12.2181775017
 10
10.1638640532
 20
-12.236352418
 10
10.1485099008
 20
-12.2536971691
 10
10.1289007189
 20
-12.2699344106
 10
10.1053500591
 20
-12.284804506
  0
LWPOLYLINE
  5
33C
100
AcDbEntity
  8
RACCORDO
100
AcDbPolyline
 62
250
  6
CONTINUOUS
 90
7
 70
0
 10
9.3075013684
 20
-15.6224664593
 10
9.3038629355
 20
-15.6525712541
 10
9.2919380041
 20
-15.6843557675
 10
9.2719069955
 20
-15.7151047529
 10
9.2441050538
 20
-15.7443036692
 10
9.2089973385
 20
-15.7714639329
 10
9.1671712686
 20
-15.7961310555
  0
LWPOLYLINE
  5
33D
100
AcDbEntity
  8
RACCORDO
100
AcDbPolyline
 62
250
  6
CONTINUOUS
 90
13
 70
0
 10
-6.6059162043
 20
-24.5646448201
 10
-6.5712458659
 20
-24.5195842326
 10
-6.5401647511
 20
-24.4705845456
 10
-6.5126728598
 20
-24.4176457592
 10
-6.4886894638
 20
-24.3605715591
 10
-6.4682952913
 20
-24.2995582595
 10
-6.4517325271
 20
-24.2351948032
 10
-6.4390529714
 20
-24.1674295537
 10
-6.4302048239
 20
-24.0963141474
 10
-6.4252748688
 20
-24.0225924366
 10
-6.424292034
 20
-23.946512372
 10
-6.4272273915
 20
-23.8678260029
 10
-6.4340809414
 20
-23.7865333292
  0
LWPOLYLINE
  5
33E
100
AcDbEntity
  8
RACCORDO
100
AcDbPolyline
 62
250
  6
CONTINUOUS
 90
13
 70
0
 10
-6.3566006997
 20
-24.6369098015
 10
-6.3174011797
 20
-24.5865772908
 10
-6.281976476
 20
-24.5315753994
 10
-6.2504629694
 20
-24.4720693238
 10
-6.2229562803
 20
-24.408236716
 10
-6.1995331557
 20
-24.3402733632
 10
-6.1802759752
 20
-24.2683844458
 10
-6.1652469477
 20
-24.1927713618
 10
-6.154487277
 20
-24.1136574283
 10
-6.148043367
 20
-24.0312863915
 10
-6.1459500503
 20
-23.9458966591
 10
-6.1482044366
 20
-23.8577578918
 10
-6.1547879368
 20
-23.7671722567
  0
LWPOLYLINE
  5
33F
100
AcDbEntity
  8
RACCORDO
100
AcDbPolyline
 62
7
  6
CONTINUOUS
 90
6
 70
0
 10
-13.3688767827
 20
16.7536413347
 10
-13.3924918446
 20
16.7636137163
 10
-13.4182096867
 20
16.7706986192
 10
-13.4449338869
 20
16.7743183157
 10
-13.4719354596
 20
16.7743059288
 10
-13.4987644849
 20
16.7706414319
  0
LWPOLYLINE
  5
340
100
AcDbEntity
  8
RACCORDO
100
AcDbPolyline
 62
250
  6
CONTINUOUS
 90
10
 70
0
 10
-12.1522013953
 20
18.0783283026
 10
-12.1801543537
 20
18.0910937094
 10
-12.2079693218
 20
18.1010160315
 10
-12.2354700949
 20
18.1080324122
 10
-12.2624824584
 20
18.1120984034
 10
-12.2888352918
 20
18.1131882473
 10
-12.3143616528
 20
18.1112950401
 10
-12.3388998343
 20
18.1064307749
 10
-12.3622943896
 20
18.0986262664
 10
-12.3718913402
 20
18.0944129341
  0
LWPOLYLINE
  5
341
100
AcDbEntity
  8
0
100
AcDbPolyline
 62
7
  6
CONTINUOUS
 90
10
 70
0
 10
-12.7904675566
 20
17.5810608829
 10
-12.8368264137
 20
17.6023379522
 10
-12.8826037883
 20
17.6197290776
 10
-12.9277996806
 20
17.6332342592
 10
-12.9726003399
 20
17.6428777475
 10
-13.0168195168
 20
17.6486352921
 10
-13.0598984627
 20
17.6504341412
 10
-13.1016509283
 20
17.6482500443
 10
-13.142263163
 20
17.6421072519
 10
-13.1817351667
 20
17.632005764
  0
LWPOLYLINE
  5
342
100
AcDbEntity
  8
RACCORDO
100
AcDbPolyline
 62
250
  6
CONTINUOUS
 90
4
 70
0
 10
-11.7306474225
 20
18.0663670368
 10
-11.760631202
 20
18.0810011913
 10
-11.7903303019
 20
18.0921374204
 10
-11.819510999
 20
18.0996880922
  0
LWPOLYLINE
  5
343
100
AcDbEntity
  8
RACCORDO
100
AcDbPolyline
 62
250
  6
CONTINUOUS
 90
8
 70
0
 10
-10.9671990411
 20
18.4333602776
 10
-10.9971211959
 20
18.4479727533
 10
-11.0267604744
 20
18.4591016497
 10
-11.055884578
 20
18.4666597436
 10
-11.0842652455
 20
18.4705877982
 10
-11.1116800425
 20
18.4708550274
 10
-11.1379141048
 20
18.4674593366
 10
-11.162761822
 20
18.4604273397
  0
LWPOLYLINE
  5
344
100
AcDbEntity
  8
RACCORDO
100
AcDbPolyline
 62
250
  6
CONTINUOUS
 90
21
 70
0
 10
-0.6587461175
 20
12.2659206803
 10
-0.6551973661
 20
12.264151081
 10
-0.6273365778
 20
12.2506003955
 10
-0.598504532
 20
12.2372282838
 10
-0.5687036544
 20
12.2241193896
 10
-0.537881848
 20
12.211362614
 10
-0.5059695275
 20
12.1990345773
 10
-0.4729790722
 20
12.1872581516
 10
-0.4389676386
 20
12.1762379549
 10
-0.4038545302
 20
12.1660821237
 10
-0.3676620041
 20
12.1569597675
 10
-0.3305896059
 20
12.1492265876
 10
-0.2925247054
 20
12.1430278638
 10
-0.2535349942
 20
12.1385976473
 10
-0.2140850933
 20
12.136494744
 10
-0.1739674461
 20
12.136942019
 10
-0.133389779
 20
12.1402159012
 10
-0.0934578805
 20
12.1469642596
 10
-0.0545783676
 20
12.157536265
 10
-0.0164549697
 20
12.1720148962
 10
0.0208287893
 20
12.1906144264
  0
LINE
  5
345
100
AcDbEntity
  8
0
100
AcDbLine
 62
7
  6
CONTINUOUS
 10
-8.6595976648
 20
14.6914180294
 11
-11.2675072822
 21
15.9953728381
  0
LINE
  5
346
100
AcDbEntity
  8
RACCORDO
100
AcDbLine
 62
250
  6
CONTINUOUS
 10
2.7223130498
 20
9.2403511362
 11
8.8136717259
 21
6.1946717981
  0
LINE
  5
347
100
AcDbEntity
  8
RACCORDO
100
AcDbLine
 62
7
  6
CONTINUOUS
 10
2.6889261272
 20
9.3769444824
 11
9.0311081661
 21
6.2058534629
  0
LINE
  5
348
100
AcDbEntity
  8
0
100
AcDbLine
 62
7
  6
CONTINUOUS
 10
-7.6232266643
 20
14.9974404368
 11
-7.8026840544
 21
15.0871691319
  0
LINE
  5
349
100
AcDbEntity
  8
0
100
AcDbLine
 62
7
  6
CONTINUOUS
 10
-12.6110101665
 20
17.4913321879
 11
-12.7904675566
 21
17.5810608829
  0
LINE
  5
34A
100
AcDbEntity
  8
0
100
AcDbLine
 62
7
  6
CONTINUOUS
 10
-6.8834452389
 20
14.6935536677
 11
-11.2675072822
 21
16.8855846894
  0
LINE
  5
34B
100
AcDbEntity
  8
0
100
AcDbLine
 62
7
  6
CONTINUOUS
 10
-6.5677467528
 20
14.9242564075
 11
-10.8061018025
 21
17.0434339324
  0
LINE
  5
34C
100
AcDbEntity
  8
RACCORDO
100
AcDbLine
 62
7
  6
CONTINUOUS
 10
-0.6588342212
 20
12.2659647371
 11
-0.6587461175
 21
12.2659206803
  0
LINE
  5
34D
100
AcDbEntity
  8
RACCORDO
100
AcDbLine
 62
250
  6
CONTINUOUS
 10
-2.6458561196
 20
13.3251556648
 11
-5.5213316412
 21
14.7628934256
  0
LINE
  5
34E
100
AcDbEntity
  8
RACCORDO
100
AcDbLine
 62
250
  6
CONTINUOUS
 10
-10.0308082296
 20
17.0176317198
 11
-12.1522013919
 21
18.0783283009
  0
LINE
  5
34F
100
AcDbEntity
  8
RACCORDO
100
AcDbLine
 62
7
  6
CONTINUOUS
 10
-2.4284196758
 20
13.3363373279
 11
-5.3446645335
 21
14.7944597567
  0
LINE
  5
350
100
AcDbEntity
  8
RACCORDO
100
AcDbLine
 62
7
  6
CONTINUOUS
 10
-9.7739089505
 20
17.0090819652
 11
-11.934764955
 21
18.0895099674
  0
LINE
  5
351
100
AcDbEntity
  8
RACCORDO
100
AcDbLine
 62
250
  6
CONTINUOUS
 10
0.0208287893
 20
12.1906144264
 11
-5.6186988236
 21
15.0103782328
  0
LINE
  5
352
100
AcDbEntity
  8
RACCORDO
100
AcDbLine
 62
250
  6
CONTINUOUS
 10
-9.6048537833
 20
17.0034557127
 11
-11.7306472086
 21
18.0663524253
  0
LINE
  5
353
100
AcDbEntity
  8
0
100
AcDbLine
 62
7
  6
CONTINUOUS
 10
-5.7091581569
 20
15.0806297718
 11
-9.5512415471
 21
17.0016714669
  0
LINE
  5
354
100
AcDbEntity
  8
RACCORDO
100
AcDbLine
 62
250
  6
CONTINUOUS
 10
0.7235017554
 20
12.5880098793
 11
-10.9671990422
 21
18.4333602781
  0
LINE
  5
355
100
AcDbEntity
  8
RACCORDO
100
AcDbLine
 62
7
  6
CONTINUOUS
 10
0.9532789096
 20
12.6053619021
 11
-10.7374218859
 21
18.4507122999
  0
LWPOLYLINE
  5
356
100
AcDbEntity
  8
RACCORDO
100
AcDbPolyline
 62
250
  6
CONTINUOUS
 90
10
 70
0
 10
0.7235017544
 20
12.5880098798
 10
0.7565560395
 20
12.5713631182
 10
0.7885532553
 20
12.5516338742
 10
0.8197880537
 20
12.5289664682
 10
0.8508336665
 20
12.5033320991
 10
0.8814275911
 20
12.4746837366
 10
0.9105307618
 20
12.4433891456
 10
0.9378606966
 20
12.4099386499
 10
0.963836137
 20
12.3745758962
 10
0.9885157772
 20
12.3376792439
  0
LWPOLYLINE
  5
357
100
AcDbEntity
  8
RACCORDO
100
AcDbPolyline
 62
250
  6
CONTINUOUS
 90
10
 70
0
 10
0.020828786
 20
12.1906144245
 10
0.0534529206
 20
12.1739468527
 10
0.0858689044
 20
12.1540280828
 10
0.1178216737
 20
12.1310148448
 10
0.1490598096
 20
12.1050882177
 10
0.1793375164
 20
12.0764522038
 10
0.2084165555
 20
12.0453321237
 10
0.23606812
 20
12.011972844
 10
0.2620746347
 20
11.9766368509
 10
0.2862314684
 20
11.9396021839
  0
LWPOLYLINE
  5
358
100
AcDbEntity
  8
RACCORDO
100
AcDbPolyline
 62
7
  6
CONTINUOUS
 90
5
 70
0
 10
-2.4284196758
 20
13.3363373279
 10
-2.4200580777
 20
13.3320578847
 10
-2.4117732989
 20
13.3276193561
 10
-2.403569063
 20
13.3230233926
 10
-2.3954484436
 20
13.3182713929
  0
LWPOLYLINE
  5
359
100
AcDbEntity
  8
RACCORDO
100
AcDbPolyline
 62
7
  6
CONTINUOUS
 90
4
 70
0
 10
-0.6588388319
 20
12.2659669291
 10
-0.6908212371
 20
12.2824965315
 10
-0.7445041766
 20
12.3125824296
 10
-0.7709062911
 20
12.3284214816
  0
LWPOLYLINE
  5
35A
100
AcDbEntity
  8
RACCORDO
100
AcDbPolyline
 62
250
  6
CONTINUOUS
 90
10
 70
0
 10
-2.6458561161
 20
13.325155663
 10
-2.6174759315
 20
13.3097800467
 10
-2.5894485755
 20
13.2917744239
 10
-2.56187926
 20
13.271247213
 10
-2.5348021778
 20
13.2482828784
 10
-2.5083958023
 20
13.2230010066
 10
-2.4829688168
 20
13.1956086889
 10
-2.4586782942
 20
13.1663037274
 10
-2.4355460025
 20
13.1352284251
 10
-2.4136603949
 20
13.1025625945
  0
LWPOLYLINE
  5
35B
100
AcDbEntity
  8
RACCORDO
100
AcDbPolyline
 62
250
  6
CONTINUOUS
 90
16
 70
0
 10
8.8136717259
 20
6.1946717981
 10
8.8513412442
 20
6.1740504443
 10
8.8885276757
 20
6.1488515122
 10
8.9248212479
 20
6.1193526781
 10
8.9598262976
 20
6.0858745909
 10
8.9931524004
 20
6.0487896693
 10
9.0244209492
 20
6.0085222902
 10
9.0532831048
 20
5.9655304142
 10
9.0794323692
 20
5.9202800339
 10
9.1025927131
 20
5.8732526495
 10
9.1225361746
 20
5.8248937997
 10
9.139006667
 20
5.7758042663
 10
9.151778704
 20
5.7267222938
 10
9.1607475186
 20
5.6782485792
 10
9.1658812848
 20
5.6308344643
 10
9.1671712686
 20
5.5849752748
  0
LWPOLYLINE
  5
35C
100
AcDbEntity
  8
RACCORDO
100
AcDbPolyline
 62
7
  6
CONTINUOUS
 90
8
 70
0
 10
0.9532789096
 20
12.6053619021
 10
0.9923869265
 20
12.5835666273
 10
1.0296676003
 20
12.558151545
 10
1.0646999237
 20
12.5293037529
 10
1.0970358427
 20
12.4973295034
 10
1.1263839305
 20
12.4624831887
 10
1.1525684007
 20
12.4249042415
 10
1.1638967314
 20
12.4060373267
  0
LWPOLYLINE
  5
35D
100
AcDbEntity
  8
RACCORDO
100
AcDbPolyline
 62
7
  6
CONTINUOUS
 90
7
 70
0
 10
-1.0856729811
 20
12.5210713879
 10
-1.2875917381
 20
12.6444370048
 10
-1.4892319643
 20
12.7674633047
 10
-1.6905808807
 20
12.8901431379
 10
-1.8916275011
 20
13.012470458
 10
-2.0923606046
 20
13.1344390651
 10
-2.3954484436
 20
13.3182713929
  0
LINE
  5
35E
100
AcDbEntity
  8
RACCORDO
100
AcDbLine
 62
7
  6
CONTINUOUS
 10
-0.7709333687
 20
12.3284380893
 11
-1.0856729811
 21
12.5210713879
  0
LWPOLYLINE
  5
35F
100
AcDbEntity
  8
RACCORDO
100
AcDbPolyline
 62
250
  6
CONTINUOUS
 90
7
 70
0
 10
-2.4136604997
 20
13.1025625244
 10
-2.1537077396
 20
12.9423662388
 10
-1.8886058987
 20
12.7788173454
 10
-1.6184379532
 20
12.6118816598
 10
-1.3432895135
 20
12.4415265083
 10
-1.0632488647
 20
12.2677208572
 10
-0.7784070068
 20
12.090435444
  0
LWPOLYLINE
  5
360
100
AcDbEntity
  8
RACCORDO
100
AcDbPolyline
 62
250
  6
CONTINUOUS
 90
25
 70
0
 10
-0.7784070068
 20
12.090435444
 10
-0.7494832396
 20
12.0725934987
 10
-0.7194535027
 20
12.0548929257
 10
-0.6883184306
 20
12.0373334032
 10
-0.6561647729
 20
12.0198538574
 10
-0.6229070921
 20
12.0025146971
 10
-0.5882876863
 20
11.9854978983
 10
-0.5522931734
 20
11.9687428317
 10
-0.5149382143
 20
11.9523095781
 10
-0.476006732
 20
11.9365615513
 10
-0.4354666228
 20
11.9214159679
 10
-0.3933505647
 20
11.9069556377
 10
-0.3495384169
 20
11.8937932735
 10
-0.3039807482
 20
11.8818218917
 10
-0.2567259004
 20
11.8711496753
 10
-0.2077981101
 20
11.8627136498
 10
-0.1570819226
 20
11.8563809793
 10
-0.104689096
 20
11.8522873529
 10
-0.0509813034
 20
11.8517747351
 10
0.0043729396
 20
11.854814781
 10
0.0610487774
 20
11.8614402103
 10
0.117703651
 20
11.8730865742
 10
0.1738931195
 20
11.8902339577
 10
0.2300685303
 20
11.9124057112
 10
0.2862314723
 20
11.939602186
  0
LWPOLYLINE
  5
361
100
AcDbEntity
  8
RACCORDO
100
AcDbPolyline
 62
250
  6
CONTINUOUS
 90
10
 70
0
 10
-0.7709062911
 20
12.3284214816
 10
-0.7672095354
 20
12.3258746745
 10
-0.755718657
 20
12.3129483345
 10
-0.7478265632
 20
12.2946732347
 10
-0.7436359989
 20
12.271287294
 10
-0.7432015202
 20
12.2430949681
 10
-0.7465287835
 20
12.2104632858
 10
-0.7535744718
 20
12.1738170705
 10
-0.7642468592
 20
12.1336334102
 10
-0.7784070046
 20
12.0904354457
  0
LWPOLYLINE
  5
362
100
AcDbEntity
  8
RACCORDO
100
AcDbPolyline
 62
250
  6
CONTINUOUS
 90
5
 70
0
 10
-2.3935520205
 20
13.3171318243
 10
-2.3909148316
 20
13.3153046592
 10
-2.3820461931
 20
13.3045577872
 10
-2.3760311637
 20
13.2884221722
 10
-2.3738338885
 20
13.2677116668
  0
LWPOLYLINE
  5
363
100
AcDbEntity
  8
RACCORDO
100
AcDbPolyline
 62
7
  6
CONTINUOUS
 90
6
 70
0
 10
-5.3444496319
 20
-24.155364693
 10
-5.7038476032
 20
-24.5228354314
 10
-6.0754903565
 20
-24.8704514254
 10
-6.4593778919
 20
-25.198212675
 10
-6.8558876346
 20
-25.5063944491
 10
-6.8728772046
 20
-25.5183785422
  0
LWPOLYLINE
  5
364
100
AcDbEntity
  8
RACCORDO
100
AcDbPolyline
 62
250
  6
CONTINUOUS
 90
3
 70
0
 10
-6.9177061593
 20
-24.9132370589
 10
-6.9071834594
 20
-24.9025738526
 10
-6.6059162043
 20
-24.5646448201
  0
LWPOLYLINE
  5
365
100
AcDbEntity
  8
RACCORDO
100
AcDbPolyline
 62
250
  6
CONTINUOUS
 90
3
 70
0
 10
-6.8953195604
 20
-25.2154314717
 10
-6.6599371487
 20
-24.9770742634
 10
-6.3565938733
 20
-24.6369200482
  0
LINE
  5
366
100
AcDbEntity
  8
RACCORDO
100
AcDbLine
 62
250
  6
CONTINUOUS
 10
9.3075013684
 20
-10.9092015284
 11
10.1053500591
 21
-10.466151158
  0
LINE
  5
367
100
AcDbEntity
  8
RACCORDO
100
AcDbLine
 62
7
  6
CONTINUOUS
 10
-5.151033625
 20
-18.4514808177
 11
-6.7395910664
 21
-19.2518844376
  0
LINE
  5
368
100
AcDbEntity
  8
RACCORDO
100
AcDbLine
 62
7
  6
CONTINUOUS
 10
-5.0449676078
 20
-18.5045138263
 11
-6.6335250492
 21
-19.3049174461
  0
LWPOLYLINE
  5
369
100
AcDbEntity
  8
0
100
AcDbPolyline
 62
7
  6
CONTINUOUS
 90
22
 70
0
 10
-9.363083169
 20
12.3746887189
 10
-9.39762693
 20
12.3714783086
 10
-9.4329164711
 20
12.3734368579
 10
-9.4689517924
 20
12.3805643668
 10
-9.506156014
 20
12.39305776
 10
-9.5441060158
 20
12.4107201128
 10
-9.5815324374
 20
12.4329606507
 10
-9.6184175686
 20
12.4599342325
 10
-9.6547791196
 20
12.4914859995
 10
-9.6894008609
 20
12.5265606009
 10
-9.7222239429
 20
12.5652771979
 10
-9.7533072152
 20
12.6075166293
 10
-9.7816109975
 20
12.6518660609
 10
-9.8070412725
 20
12.6983968643
 10
-9.8296920573
 20
12.747037668
 10
-9.8488057235
 20
12.7961615232
 10
-9.8642626267
 20
12.8457847692
 10
-9.8761824112
 20
12.8958910668
 10
-9.8841663813
 20
12.944804449
 10
-9.8880816384
 20
12.9919662602
 10
-9.8880610812
 20
13.0379351559
 10
-9.8841047096
 20
13.0827111362
  0
LWPOLYLINE
  5
36A
100
AcDbEntity
  8
0
100
AcDbPolyline
 62
7
  6
CONTINUOUS
 90
19
 70
0
 10
-6.5863053667
 20
13.7858882798
 10
-6.6230508266
 20
13.7908200462
 10
-6.6599089377
 20
13.8006826894
 10
-6.6968797002
 20
13.8154762094
 10
-6.7343855069
 20
13.8354819278
 10
-6.772003965
 20
13.8604185231
 10
-6.8084678951
 20
13.8894420305
 10
-6.8437313376
 20
13.9226853486
 10
-6.8778402522
 20
13.9600155787
 10
-6.9096653393
 20
14.0001900604
 10
-6.9391307195
 20
14.0432997104
 10
-6.9663122722
 20
14.0892536119
 10
-6.9903083354
 20
14.1365363537
 10
-7.0110170285
 20
14.1852060748
 10
-7.028540232
 20
14.2352046361
 10
-7.0422819255
 20
14.2848422094
 10
-7.0520434356
 20
14.3335555186
 10
-7.0580234356
 20
14.3819078398
 10
-7.0602219257
 20
14.429899173
  0
LWPOLYLINE
  5
36B
100
AcDbEntity
  8
RACCORDO
100
AcDbPolyline
 62
250
  6
CONTINUOUS
 90
8
 70
0
 10
-13.3772286166
 20
16.7572077133
 10
-13.387633896
 20
16.7601237776
 10
-13.3985773264
 20
16.7616291759
 10
-13.4099756216
 20
16.7617124511
 10
-13.4217420337
 20
16.7603729695
 10
-13.4337870133
 20
16.7576209253
 10
-13.4460188908
 20
16.7534772634
 10
-13.4583445741
 20
16.7479735193
  0
LWPOLYLINE
  5
36C
100
AcDbEntity
  8
RACCORDO
100
AcDbPolyline
 62
7
  6
CONTINUOUS
 90
3
 70
0
 10
-12.0402435531
 20
18.128141747
 10
-11.9849574788
 20
18.1112600062
 10
-11.9340857084
 20
18.0891686212
  0
LWPOLYLINE
  5
36D
100
AcDbEntity
  8
RACCORDO
100
AcDbPolyline
 62
250
  6
CONTINUOUS
 90
5
 70
0
 10
1.1638529248
 20
12.4061140498
 10
1.1589722663
 20
12.4079256695
 10
1.14679521
 20
12.405814464
 10
1.1272394443
 20
12.4003883238
 10
1.1014245185
 20
12.390071328
  0
LWPOLYLINE
  5
36E
100
AcDbEntity
  8
RACCORDO
100
AcDbPolyline
 62
250
  6
CONTINUOUS
 90
3
 70
0
 10
8.9908419014
 20
-16.5457546527
 10
8.9504273535
 20
-16.6093316905
 10
8.9062033948
 20
-16.6681315541
  0
LINE
  5
36F
100
AcDbEntity
  8
RACCORDO
100
AcDbLine
 62
250
  6
CONTINUOUS
 10
8.9062033948
 20
-16.6681315541
 11
8.8583384144
 21
-16.7219673511
  0
LINE
  5
370
100
AcDbEntity
  8
RACCORDO
100
AcDbLine
 62
250
  6
CONTINUOUS
 10
9.6235314374
 20
-13.5835789129
 11
9.5525513188
 21
-13.6396632412
  0
LINE
  5
371
100
AcDbEntity
  8
RACCORDO
100
AcDbLine
 62
250
  6
CONTINUOUS
 10
9.5525513188
 20
-13.6396632412
 11
9.472178299
 21
-13.6920396659
  0
LINE
  5
372
100
AcDbEntity
  8
DRAFT
100
AcDbLine
 62
7
  6
CONTINUOUS
 10
9.3075013684
 20
-13.7885037626
 11
9.4721780171
 21
-13.6920398311
  0
LINE
  5
373
100
AcDbEntity
  8
RACCORDO
100
AcDbLine
 62
250
  6
CONTINUOUS
 10
9.3075013684
 20
-12.7278548764
 11
10.1053500591
 21
-12.284804506
  0
LINE
  5
374
100
AcDbEntity
  8
0
100
AcDbLine
 62
7
  6
CONTINUOUS
 10
-5.7091581569
 20
15.0806297718
 11
-6.5677467528
 21
14.9242564075
  0
LINE
  5
375
100
AcDbEntity
  8
0
100
AcDbLine
 62
7
  6
CONTINUOUS
 10
-9.5512415471
 20
17.0016714669
 11
-10.8061018025
 21
17.0434339324
  0
LWPOLYLINE
  5
376
100
AcDbEntity
  8
RACCORDO
100
AcDbPolyline
 62
250
  6
CONTINUOUS
 90
6
 70
0
 10
-11.819510999
 20
18.0996880922
 10
-11.8479436498
 20
18.1035937907
 10
-11.8754044981
 20
18.1038237837
 10
-11.9016774357
 20
18.1003762644
 10
-11.926555703
 20
18.093278366
 10
-11.9344156846
 20
18.0899472124
  0
LWPOLYLINE
  5
377
100
AcDbEntity
  8
RACCORDO
100
AcDbPolyline
 62
7
  6
CONTINUOUS
 90
4
 70
0
 10
-10.8579127165
 20
18.4927502663
 10
-10.8119227737
 20
18.4807485463
 10
-10.7670451599
 20
18.4643353267
 10
-10.7372016195
 20
18.4506019857
  0
LWPOLYLINE
  5
378
100
AcDbEntity
  8
RACCORDO
100
AcDbPolyline
 62
7
  6
CONTINUOUS
 90
10
 70
0
 10
8.935718397
 20
-16.6639886342
 10
8.9895695856
 20
-16.6041212301
 10
9.0478579489
 20
-16.5285224937
 10
9.1014705085
 20
-16.4460156061
 10
9.1497789661
 20
-16.3569503824
 10
9.1920825023
 20
-16.2622070005
 10
9.228129842
 20
-16.1620377719
 10
9.2577145202
 20
-16.0566206866
 10
9.2805190891
 20
-15.9468286101
 10
9.2964214848
 20
-15.8331330573
  0
LINE
  5
379
100
AcDbEntity
  8
RACCORDO
100
AcDbLine
 62
7
  6
CONTINUOUS
 10
8.9357309607
 20
-16.6640006771
 11
8.9353971771
 21
-16.6643465641
  0
LWPOLYLINE
  5
37A
100
AcDbEntity
  8
RACCORDO
100
AcDbPolyline
 62
250
  6
CONTINUOUS
 90
9
 70
0
 10
8.8583486759
 20
-16.7219820675
 10
8.741588574
 20
-16.8410422223
 10
8.623478776
 20
-16.9580222008
 10
8.5040308224
 20
-17.0729126694
 10
8.3832654245
 20
-17.185696157
 10
8.2611854799
 20
-17.2963723792
 10
8.1377750765
 20
-17.40495668
 10
8.0130359476
 20
-17.5114469817
 10
7.8869884664
 20
-17.6158253446
  0
LINE
  5
37B
100
AcDbEntity
  8
RACCORDO
100
AcDbLine
 62
7
  6
CONTINUOUS
 10
8.8154756404
 20
-16.7866275044
 11
8.9353971771
 21
-16.6643465641
  0
LWPOLYLINE
  5
37C
100
AcDbEntity
  8
RACCORDO
100
AcDbPolyline
 62
250
  6
CONTINUOUS
 90
3
 70
0
 10
8.9353971771
 20
-16.6643465641
 10
8.900994105
 20
-16.694857279
 10
8.8583486759
 20
-16.7219820675
  0
LINE
  5
37D
100
AcDbEntity
  8
RACCORDO
100
AcDbLine
 62
250
  6
CONTINUOUS
 10
7.8869884664
 20
-17.6158253446
 11
7.7596439657
 21
-17.7180822008
  0
LWPOLYLINE
  5
37E
100
AcDbEntity
  8
RACCORDO
100
AcDbPolyline
 62
7
  6
CONTINUOUS
 90
9
 70
0
 10
7.807154857
 20
-17.6871580121
 10
7.9378357095
 20
-17.5822252474
 10
8.0672172538
 20
-17.4750946024
 10
8.1952856876
 20
-17.3657745541
 10
8.3220262393
 20
-17.2542747895
 10
8.4474265748
 20
-17.1406032211
 10
8.5714767133
 20
-17.0247657559
 10
8.6941644896
 20
-16.9067704034
 10
8.8154756404
 20
-16.7866275044
  0
LINE
  5
37F
100
AcDbEntity
  8
RACCORDO
100
AcDbLine
 62
7
  6
CONTINUOUS
 10
7.8073331222
 20
-17.687016962
 11
7.807154857
 21
-17.6871580121
  0
LINE
  5
380
100
AcDbEntity
  8
RACCORDO
100
AcDbLine
 62
250
  6
CONTINUOUS
 10
7.807154857
 20
-17.6871580121
 11
7.8025008308
 21
-17.6907657803
  0
LINE
  5
381
100
AcDbEntity
  8
RACCORDO
100
AcDbLine
 62
7
  6
CONTINUOUS
 10
7.7712066457
 20
-17.713246111
 11
7.8073267378
 21
-17.6870090237
  0
LINE
  5
382
100
AcDbEntity
  8
RACCORDO
100
AcDbLine
 62
250
  6
CONTINUOUS
 10
7.7596384858
 20
-17.7180733762
 11
7.7322951723
 21
-17.7366918536
  0
LINE
  5
383
100
AcDbEntity
  8
RACCORDO
100
AcDbLine
 62
250
  6
CONTINUOUS
 10
7.8025008308
 20
-17.6907657803
 11
7.7596439633
 21
-17.7180822027
  0
LINE
  5
384
100
AcDbEntity
  8
RACCORDO
100
AcDbLine
 62
250
  6
CONTINUOUS
 10
-0.3421611175
 20
-22.0534559953
 11
-0.4441510094
 21
-22.1177191404
  0
LWPOLYLINE
  5
385
100
AcDbEntity
  8
RACCORDO
100
AcDbPolyline
 62
7
  6
CONTINUOUS
 90
11
 70
0
 10
-0.5821170019
 20
-22.206357358
 10
-0.2847911544
 20
-22.0196572899
 10
-0.2040409243
 20
-21.9694936429
 10
-0.1250959641
 20
-21.9208956466
 10
-0.0480131576
 20
-21.873942651
 10
0.0267083918
 20
-21.8289723855
 10
0.0985310881
 20
-21.7863364633
 10
0.1673705449
 20
-21.7460902131
 10
0.2326642165
 20
-21.7085866347
 10
0.2938422841
 20
-21.6741087183
 10
0.3508052012
 20
-21.6427030615
  0
LWPOLYLINE
  5
386
100
AcDbEntity
  8
RACCORDO
100
AcDbPolyline
 62
250
  6
CONTINUOUS
 90
5
 70
0
 10
-0.4441510094
 20
-22.1177191404
 10
-0.7997275668
 20
-22.3399637227
 10
-1.1476753837
 20
-22.5523539418
 10
-1.4878116351
 20
-22.7551306228
 10
-1.8199604149
 20
-22.9485320207
  0
LINE
  5
387
100
AcDbEntity
  8
RACCORDO
100
AcDbLine
 62
250
  6
CONTINUOUS
 10
-0.2553015318
 20
-21.9991440461
 11
-0.3421611175
 21
-22.0534559953
  0
LINE
  5
388
100
AcDbEntity
  8
RACCORDO
100
AcDbLine
 62
250
  6
CONTINUOUS
 10
-0.1916177615
 20
-21.9596147326
 11
-0.2553015318
 21
-21.9991440461
  0
LINE
  5
389
100
AcDbEntity
  8
RACCORDO
100
AcDbLine
 62
250
  6
CONTINUOUS
 10
-0.1228197187
 20
-21.9172264991
 11
-0.1916177615
 21
-21.9596147326
  0
LINE
  5
38A
100
AcDbEntity
  8
RACCORDO
100
AcDbLine
 62
7
  6
CONTINUOUS
 10
7.7252224644
 20
-17.7406043374
 11
7.7712066457
 21
-17.713246111
  0
LWPOLYLINE
  5
38B
100
AcDbEntity
  8
RACCORDO
100
AcDbPolyline
 62
250
  6
CONTINUOUS
 90
16
 70
0
 10
-11.4227411106
 20
-30.5086640947
 10
-11.4614780053
 20
-30.5312481964
 10
-11.5035214397
 20
-30.5516565502
 10
-11.5484209477
 20
-30.5696704949
 10
-11.5956954627
 20
-30.5850970238
 10
-11.6448384714
 20
-30.5977708524
 10
-11.6953234408
 20
-30.6075561896
 10
-11.74660946
 20
-30.6143481924
 10
-11.7981470351
 20
-30.6180740891
 10
-11.8493839773
 20
-30.6186939594
 10
-11.8997713186
 20
-30.6162011618
 10
-11.948769194
 20
-30.6106224049
 10
-11.9958526256
 20
-30.6020174607
 10
-12.0405171475
 20
-30.5904785252
 10
-12.0822842107
 20
-30.57612923
 10
-12.1207063103
 20
-30.5591233177
  0
LINE
  5
38C
100
AcDbEntity
  8
RACCORDO
100
AcDbLine
 62
250
  6
CONTINUOUS
 10
-1.8199604149
 20
-22.9485320207
 11
-2.1439526059
 21
-23.1327935283
  0
LWPOLYLINE
  5
38D
100
AcDbEntity
  8
RACCORDO
100
AcDbPolyline
 62
250
  6
CONTINUOUS
 90
10
 70
0
 10
0.299724108
 20
-21.6676109966
 10
0.2526849886
 20
-21.6941837231
 10
0.2059276532
 20
-21.7210098322
 10
0.1602874849
 20
-21.7474700215
 10
0.1159651208
 20
-21.7734369966
 10
0.0727556485
 20
-21.799031014
 10
0.0308885323
 20
-21.8240078108
 10
-0.0095634897
 20
-21.8483121232
 10
-0.0486755304
 20
-21.8719950592
 10
-0.1228197187
 20
-21.9172264991
  0
LINE
  5
38E
100
AcDbEntity
  8
RACCORDO
100
AcDbLine
 62
250
  6
CONTINUOUS
 10
-2.1558881944
 20
-23.1394236511
 11
-2.4596257441
 21
-23.3081474012
  0
LINE
  5
38F
100
AcDbEntity
  8
RACCORDO
100
AcDbLine
 62
250
  6
CONTINUOUS
 10
0.3467687514
 20
-21.6415014404
 11
0.299724108
 21
-21.6676109966
  0
LINE
  5
390
100
AcDbEntity
  8
RACCORDO
100
AcDbLine
 62
250
  6
CONTINUOUS
 10
7.7322951723
 20
-17.7366918536
 11
7.7251649659
 21
-17.7406347674
  0
LWPOLYLINE
  5
391
100
AcDbEntity
  8
RACCORDO
100
AcDbPolyline
 62
7
  6
CONTINUOUS
 90
9
 70
0
 10
-2.45575198
 20
-23.3061022976
 10
-2.3101767712
 20
-23.225782806
 10
-2.0645029175
 20
-23.0882730382
 10
-1.8183977313
 20
-22.9480535506
 10
-1.5718819703
 20
-22.8051256758
 10
-1.3249751444
 20
-22.6594904189
 10
-1.0776967791
 20
-22.5111485834
 10
-0.8300692209
 20
-22.3601027695
 10
-0.5821170019
 20
-22.206357358
  0
LWPOLYLINE
  5
392
100
AcDbEntity
  8
RACCORDO
100
AcDbPolyline
 62
250
  6
CONTINUOUS
 90
3
 70
0
 10
0.4080393222
 20
-21.6119820524
 10
0.414452208
 20
-21.6084526441
 10
0.4417199815
 20
-21.5900674534
  0
LINE
  5
393
100
AcDbEntity
  8
RACCORDO
100
AcDbLine
 62
250
  6
CONTINUOUS
 10
-2.46436627
 20
-23.3107452992
 11
-2.4596257209
 21
-23.308147389
  0
LINE
  5
394
100
AcDbEntity
  8
RACCORDO
100
AcDbLine
 62
7
  6
CONTINUOUS
 10
-2.4562019193
 20
-23.3063630503
 11
-2.4563382474
 21
-23.3064374549
  0
LINE
  5
395
100
AcDbEntity
  8
RACCORDO
100
AcDbLine
 62
7
  6
CONTINUOUS
 10
-5.1810798789
 20
-24.7474080339
 11
-5.0653321608
 21
-24.6842130678
  0
LINE
  5
396
100
AcDbEntity
  8
RACCORDO
100
AcDbLine
 62
7
  6
CONTINUOUS
 10
-5.3094289871
 20
-24.8168940138
 11
-5.1810798789
 21
-24.7474080339
  0
LINE
  5
397
100
AcDbEntity
  8
RACCORDO
100
AcDbLine
 62
7
  6
CONTINUOUS
 10
-2.4643653057
 20
-23.3107476518
 11
-2.4552710275
 21
-23.3058525439
  0
LWPOLYLINE
  5
398
100
AcDbEntity
  8
RACCORDO
100
AcDbPolyline
 62
250
  6
CONTINUOUS
 90
3
 70
0
 10
0.4417199565
 20
-21.5900674129
 10
0.394100213
 20
-21.6156529079
 10
0.3467687514
 20
-21.6415014404
  0
LINE
  5
399
100
AcDbEntity
  8
RACCORDO
100
AcDbLine
 62
7
  6
CONTINUOUS
 10
0.3508052012
 20
-21.6427030615
 11
0.4078407372
 21
-21.612086988
  0
LINE
  5
39A
100
AcDbEntity
  8
RACCORDO
100
AcDbLine
 62
7
  6
CONTINUOUS
 10
-5.3964991571
 20
-24.8636254228
 11
-5.3094289871
 21
-24.8168940138
  0
LINE
  5
39B
100
AcDbEntity
  8
RACCORDO
100
AcDbLine
 62
7
  6
CONTINUOUS
 10
-5.4653305011
 20
-24.9002111044
 11
-5.3964991571
 21
-24.8636254228
  0
LINE
  5
39C
100
AcDbEntity
  8
RACCORDO
100
AcDbLine
 62
250
  6
CONTINUOUS
 10
7.7596439657
 20
-17.7180822008
 11
0.4417199565
 21
-21.5900674129
  0
LINE
  5
39D
100
AcDbEntity
  8
RACCORDO
100
AcDbLine
 62
7
  6
CONTINUOUS
 10
0.4078407372
 20
-21.612086988
 11
7.7250839126
 21
-17.7406789643
  0
LINE
  5
39E
100
AcDbEntity
  8
RACCORDO
100
AcDbLine
 62
250
  6
CONTINUOUS
 10
-2.4596257441
 20
-23.3081474012
 11
-2.46436627
 21
-23.3107452992
  0
LINE
  5
39F
100
AcDbEntity
  8
RACCORDO
100
AcDbLine
 62
7
  6
CONTINUOUS
 10
-5.0700259996
 20
-24.6867774586
 11
-2.46436627
 21
-23.3107452992
  0
LINE
  5
3A0
100
AcDbEntity
  8
0
100
AcDbLine
 62
7
  6
CONTINUOUS
 10
-5.46533249
 20
-24.9002071234
 11
-6.8639739053
 21
-25.6385632709
  0
LWPOLYLINE
  5
3A1
100
AcDbEntity
  8
RACCORDO
100
AcDbPolyline
 62
250
  6
CONTINUOUS
 90
3
 70
0
 10
-5.0457140967
 20
-23.2629210546
 10
-2.7712151137
 20
-22.0680616655
 10
9.1671712686
 20
-15.7961310569
  0
LWPOLYLINE
  5
3A2
100
AcDbEntity
  8
RACCORDO
100
AcDbPolyline
 62
250
  6
CONTINUOUS
 90
3
 70
0
 10
-5.3965659128
 20
-24.2086516055
 10
-3.0764663934
 20
-22.9901946641
 10
8.8583486759
 20
-16.7219820675
  0
LINE
  5
3A3
100
AcDbEntity
  8
RACCORDO
100
AcDbLine
 62
250
  6
CONTINUOUS
 10
-2.4563382474
 20
-23.3064374549
 11
-2.4596245602
 21
-23.3081497576
  0
LINE
  5
3A4
100
AcDbEntity
  8
RACCORDO
100
AcDbLine
 62
250
  6
CONTINUOUS
 10
-6.3565938733
 20
-24.6369200482
 11
-5.3444496319
 21
-24.155364693
  0
LINE
  5
3A5
100
AcDbEntity
  8
RACCORDO
100
AcDbLine
 62
250
  6
CONTINUOUS
 10
-6.1547820444
 20
-23.7671753083
 11
-5.0449676078
 21
-23.2393351488
  0
LINE
  5
3A6
100
AcDbEntity
  8
RACCORDO
100
AcDbLine
 62
250
  6
CONTINUOUS
 10
-0.4325602708
 20
-22.1124124963
 11
-0.4441510195
 21
-22.1177191235
  0
LINE
  5
3A7
100
AcDbEntity
  8
RACCORDO
100
AcDbLine
 62
7
  6
CONTINUOUS
 10
-13.4987644849
 20
16.7706414319
 11
-13.5252295032
 21
16.7632529373
  0
LINE
  5
3A8
100
AcDbEntity
  8
RACCORDO
100
AcDbLine
 62
250
  6
CONTINUOUS
 10
-11.044529913
 20
-30.702131514
 11
-6.6692195279
 21
-28.2675327354
  0
LINE
  5
3A9
100
AcDbEntity
  8
RACCORDO
100
AcDbLine
 62
7
  6
CONTINUOUS
 10
-6.7685122119
 20
-28.5212147272
 11
-11.1491160858
 21
-30.9587584507
  0
ELLIPSE
  5
3AA
100
AcDbEntity
  8
RACCORDO
100
AcDbEllipse
 62
7
  6
CONTINUOUS
 10
-6.7724620939
 20
-0.9797500805
 30
0.0
 11
0.2005561681
 21
-0.0021295538
 31
0.0
 40
0.4891526878
 41
3.9294042501
 42
5.4828773916
  0
ELLIPSE
  5
3AB
100
AcDbEntity
  8
DRAFT
100
AcDbEllipse
 62
7
  6
CONTINUOUS
 10
-30.8656679771
 20
6.3476138362
 30
0.0
 11
20.2576050634
 21
10.5582050739
 31
0.0
 40
0.0140162705
 41
0.6466396127
 42
0.6536492917
  0
ELLIPSE
  5
3AC
100
AcDbEntity
  8
DRAFT
100
AcDbEllipse
 62
7
  6
CONTINUOUS
 10
-30.8656679771
 20
6.3476138362
 30
0.0
 11
20.2576050634
 21
10.5582050739
 31
0.0
 40
0.0140162705
 41
-0.6333529259
 42
-0.6263432469
  0
ELLIPSE
  5
3AD
100
AcDbEntity
  8
DRAFT
100
AcDbEllipse
 62
7
  6
CONTINUOUS
 10
-27.6129767837
 20
4.7212682395
 30
0.0
 11
20.2576050634
 21
10.5582050739
 31
0.0
 40
0.0140162705
 41
0.6466396127
 42
0.6536492917
  0
ELLIPSE
  5
3AE
100
AcDbEntity
  8
DRAFT
100
AcDbEllipse
 62
7
  6
CONTINUOUS
 10
-27.6129767837
 20
4.7212682395
 30
0.0
 11
20.2576050634
 21
10.5582050739
 31
0.0
 40
0.0140162705
 41
-0.6333529259
 42
-0.6263432469
  0
ELLIPSE
  5
3AF
100
AcDbEntity
  8
RACCORDO
100
AcDbEllipse
 62
7
  6
CONTINUOUS
 10
-6.7724620939
 20
-19.2329334081
 30
0.0
 11
0.2005502732
 21
0.0036386004
 31
0.0
 40
0.5104433251
 41
-2.3682357028
 42
-0.8147625613
  0
ELLIPSE
  5
3B0
100
AcDbEntity
  8
RACCORDO
100
AcDbEllipse
 62
7
  6
CONTINUOUS
 10
-6.8785281111
 20
-19.1799003996
 30
0.0
 11
0.2005502732
 21
0.0036386004
 31
0.0
 40
0.5104433251
 41
-2.3682357028
 42
-0.8147625613
  0
ELLIPSE
  5
3B1
100
AcDbEntity
  8
DRAFT
100
AcDbEllipse
 62
7
  6
CONTINUOUS
 10
-17.6994944761
 20
14.5060091089
 30
0.0
 11
-0.1874317891
 21
0.5510210025
 31
0.0
 40
0.6669031534
 41
-3.1247162721
 42
0.1660758833
  0
ELLIPSE
  5
3B2
100
AcDbEntity
  8
DRAFT
100
AcDbEllipse
 62
7
  6
CONTINUOUS
 10
-9.9213198831
 20
10.6169218124
 30
0.0
 11
-0.1874317891
 21
0.5510210025
 31
0.0
 40
0.6669031534
 41
-3.1247162721
 42
0.1660758833
  0
ELLIPSE
  5
3B3
100
AcDbEntity
  8
RACCORDO
100
AcDbEllipse
 62
7
  6
CONTINUOUS
 10
-24.5803613374
 20
14.9750907674
 30
0.0
 11
-0.2595669876
 21
0.4276299747
 31
0.0
 40
0.5661957206
 41
-0.7327502043
 42
0.0213914774
  0
ELLIPSE
  5
3B4
100
AcDbEntity
  8
RACCORDO
100
AcDbEllipse
 62
7
  6
CONTINUOUS
 10
-7.0228408569
 20
-28.0905390162
 30
0.0
 11
-0.2595669876
 21
0.4276299747
 31
0.0
 40
0.5661957206
 41
-3.1629841157
 42
-2.3040033818
  0
ELLIPSE
  5
3B5
100
AcDbEntity
  8
RACCORDO
100
AcDbEllipse
 62
7
  6
CONTINUOUS
 10
-9.6605159666
 20
7.515168082
 30
0.0
 11
-0.2594149634
 21
0.4274564388
 31
0.0
 40
0.5667104428
 41
-2.3034534649
 42
-0.7331139889
  0
ELLIPSE
  5
3B6
100
AcDbEntity
  8
RACCORDO
100
AcDbEllipse
 62
7
  6
CONTINUOUS
 10
-5.5263450566
 20
14.3262830239
 30
0.0
 11
0.1677841941
 21
0.4740861062
 31
0.0
 40
0.4918293396
 41
-0.0609724642
 42
0.6062934277
  0
ENDSEC
  0
SECTION
  2
OBJECTS
  0
DICTIONARY
  5
C
100
AcDbDictionary
280
0
281
1
  3
ACAD_GROUP
350
D
  3
ACAD_MLINESTYLE
350
17
  3
ACAD_LAYOUT
350
1A
  3
ACAD_PLOTSETTINGS
350
19
  3
ACAD_PLOTSTYLENAME
350
E
  0
DICTIONARY
  5
D
102
{ACAD_REACTORS
330
C
102
}
100
AcDbDictionary
280
0
281
1
  0
ACDBDICTIONARYWDFLT
  5
E
102
{ACAD_REACTORS
330
C
102
}
100
AcDbDictionary
281
1
  3
Normal
350
F
100
AcDbDictionaryWithDefault
340
F
  0
DICTIONARY
  5
17
102
{ACAD_REACTORS
330
C
102
}
100
AcDbDictionary
280
0
281
1
  3
Standard
350
18
  0
DICTIONARY
  5
19
102
{ACAD_REACTORS
330
C
102
}
100
AcDbDictionary
281
1
  0
DICTIONARY
  5
1A
102
{ACAD_REACTORS
330
C
102
}
100
AcDbDictionary
281
1
  3
Model
350
3B7
  3
Layout1
350
3B8
  0
ACDBPLACEHOLDER
  5
F
102
{ACAD_REACTORS
330
E
102
}
  0
MLINESTYLE
  5
18
102
{ACAD_REACTORS
330
17
102
}
100
AcDbMlineStyle
  2
STANDARD
 70
0
  3

 62
256
 51
90.0
 52
90.0
 71
2
 49
0.5
 62
256
  6
BYLAYER
 49
-0.5
 62
256
  6
BYLAYER
  0
LAYOUT
  5
3B7
102
{ACAD_REACTORS
330
1A
102
}
100
AcDbPlotSettings
  1

  2
none_device
  4
ANSI_A_(11.00_x_8.50_Inches)
  6

 40
0.0
 41
0.0
 42
0.0
 43
0.0
 44
279.4
 45
215.9
 46
0.0
 47
0.0
 48
0.0
 49
0.0
140
0.0
141
0.0
142
1.0
143
1.0
 70
1024
 72
1
 73
0
 74
0
  7

 75
0
147
1.0
148
0.0
149
0.0
100
AcDbLayout
  1
Model
 70
0
 71
0
 10
0.0
 20
0.0
 11
279.4
 21
215.9
 12
0.0
 22
0.0
 32
0.0
 14
0.0
 24
0.0
 34
0.0
 15
0.0
 25
0.0
 35
0.0
146
0.0
 13
0.0
 23
0.0
 33
0.0
 16
1.0
 26
0.0
 36
0.0
 17
0.0
 27
1.0
 37
0.0
 76
0
330
21E
345
0
346
0
  0
LAYOUT
  5
3B8
102
{ACAD_REACTORS
330
1A
102
}
100
AcDbPlotSettings
  1

  2
none_device
  4
ANSI_A_(11.00_x_8.50_Inches)
  6

 40
0.0
 41
0.0
 42
0.0
 43
0.0
 44
279.4
 45
215.9
 46
0.0
 47
0.0
 48
0.0
 49
0.0
140
0.0
141
0.0
142
1.0
143
1.0
 70
0
 72
1
 73
0
 74
0
  7

 75
0
147
1.0
148
0.0
149
0.0
100
AcDbLayout
  1
Layout1
 70
0
 71
1
 10
0.0
 20
0.0
 11
279.4
 21
215.9
 12
0.0
 22
0.0
 32
0.0
 14
0.0
 24
0.0
 34
0.0
 15
0.0
 25
0.0
 35
0.0
146
0.0
 13
0.0
 23
0.0
 33
0.0
 16
1.0
 26
0.0
 36
0.0
 17
0.0
 27
1.0
 37
0.0
 76
0
330
21F
345
0
346
0
  0
ENDSEC
  0
EOF
