  0
SECTION
  2
HEADER
  9
$ACADVER
  1
AC1024
  9
$DWGCODEPAGE
  3
ANSI_1252
  9
$EXTMAX
 10
297.0
 20
210.0
 30
0.0
  9
$EXTMIN
 10
0.0
 20
0.0
 30
0.0
  9
$LIMMIN
 10
0.0
 20
0.0
  9
$LIMMAX
 10
297.0
 20
210.0
  9
$VIEWCTR
 10
148.5
 20
105.0
  9
$VIEWSIZE
 40
210.0
  9
$CLAYER
  8
0
  9
$LTSCALE
 40
16.335
  9
$CELTYPE
  6
BYLAYER
  9
$DIMSCALE
 40
1.0
  9
$DIMASZ
 40
3.0
  9
$DIMEXO
 40
0.5
  9
$DIMDLI
 40
11.286
  9
$DIMEXE
 40
1.5
  9
$DIMCEN
 40
2.673
  9
$DIMLFAC
 40
1.0
  9
$DIMBLK
  1
_FILLED
  9
$DIMALT
 70
0
  9
$DIMALTF
 40
0.0393700787
  9
$DIMTXT
 40
3.0
  9
$DIMTOL
 70
1
  9
$DIMLIM
 70
0
  9
$DIMTFAC
 40
1.0
  9
$DIMTP
 40
0.01
  9
$DIMTM
 40
0.01
  9
$DIMGAP
 40
0.625
  9
$DIMDSEP
 70
44
  9
$AUNITS
 70
0
  9
$PDMODE
 70
3
  9
$PDSIZE
 40
3.0
  9
$HANDSEED
  5
44A
  9
$TILEMODE
 70
1
  9
$MEASUREMENT
 70
1
  9
$INSUNITS
 70
4
  0
ENDSEC
  0
SECTION
  2
CLASSES
  0
CLASS
  1
ACDBDICTIONARYWDFLT
  2
AcDbDictionaryWithDefault
  3
AutoCAD 2000
 90
0
 91
1
280
0
281
0
  0
CLASS
  1
ACDBPLACEHOLDER
  2
AcDbPlaceHolder
  3
AutoCAD 2000
 90
0
 91
1
280
0
281
0
  0
CLASS
  1
LAYOUT
  2
AcDbLayout
  3
AutoCAD 2000
 90
0
 91
0
280
0
281
0
  0
ENDSEC
  0
SECTION
  2
TABLES
  0
TABLE
  2
VPORT
  5
8
100
AcDbSymbolTable
 70
2
  0
VPORT
  5
1F4
100
AcDbSymbolTableRecord
100
AcDbViewportTableRecord
  2
*ACTIVE
 70
0
 10
0.0
 20
0.0
 11
1.0
 21
1.0
 12
148.5
 22
105.0
 13
0.0
 23
0.0
 14
1.0
 24
1.0
 15
0.0
 25
0.0
 16
0.0
 26
0.0
 36
1.0
 17
0.0
 27
0.0
 37
0.0
 40
210.0
 41
1.4142857143
 42
50.0
 43
0.0
 44
0.0
 50
0.0
 51
0.0
 71
0
 72
100
 73
1
 74
1
 75
0
 76
0
 77
0
 78
0
  0
ENDTAB
  0
TABLE
  2
LTYPE
  5
5
100
AcDbSymbolTable
 70
6
  0
LTYPE
  5
14
100
AcDbSymbolTableRecord
100
AcDbLinetypeTableRecord
  2
BYBLOCK
 70
0
  3

 72
65
 73
0
 40
0.0
  0
LTYPE
  5
15
100
AcDbSymbolTableRecord
100
AcDbLinetypeTableRecord
  2
BYLAYER
 70
0
  3

 72
65
 73
0
 40
0.0
  0
LTYPE
  5
16
100
AcDbSymbolTableRecord
100
AcDbLinetypeTableRecord
  2
CONTINUOUS
 70
64
  3
Solid line
 72
65
 73
0
 40
0.0
  0
LTYPE
  5
1F5
100
AcDbSymbolTableRecord
100
AcDbLinetypeTableRecord
  2
CENTER
 70
64
  3
____ _ ____ _ ____ _ ____ _ ____ _ ____ _ ____
 72
65
 73
4
 40
0.6
 49
0.375
 74
0
 49
-0.075
 74
0
 49
0.075
 74
0
 49
-0.075
 74
0
  0
LTYPE
  5
1F6
100
AcDbSymbolTableRecord
100
AcDbLinetypeTableRecord
  2
HIDDEN
 70
64
  3
- - - - - - - - - - - - - - - - - - - -
 72
65
 73
2
 40
0.2
 49
0.1
 74
0
 49
-0.1
 74
0
  0
LTYPE
  5
1F7
100
AcDbSymbolTableRecord
100
AcDbLinetypeTableRecord
  2
PHANTOM
 70
64
  3
_____ _ _ _____ _ _ _____ _ _ _____
 72
65
 73
6
 40
0.8
 49
0.45
 74
0
 49
-0.05
 74
0
 49
0.1
 74
0
 49
-0.05
 74
0
 49
0.1
 74
0
 49
-0.05
 74
0
  0
LTYPE
  5
1F8
100
AcDbSymbolTableRecord
100
AcDbLinetypeTableRecord
  2
DOT
 70
64
  3
. . . . . . . . . . . . . . . . . . . .
 72
65
 73
2
 40
0.2
 49
0.1
 74
0
 49
-0.1
 74
0
  0
LTYPE
  5
1F9
100
AcDbSymbolTableRecord
100
AcDbLinetypeTableRecord
  2
DASHED
 70
64
  3
- - - - - - - - - - - - - - - - - - - -
 72
65
 73
2
 40
0.2
 49
0.1
 74
0
 49
-0.1
 74
0
  0
ENDTAB
  0
TABLE
  2
LAYER
  5
2
100
AcDbSymbolTable
 70
36
  0
LAYER
  5
10
100
AcDbSymbolTableRecord
100
AcDbLayerTableRecord
  2
0
 70
0
 62
7
  6
CONTINUOUS
370
-3
390
F
  0
LAYER
  5
1FA
100
AcDbSymbolTableRecord
100
AcDbLayerTableRecord
  2
DEFAULT_1
 70
0
 62
7
  6
CENTER
370
-3
390
F
  0
LAYER
  5
1FB
100
AcDbSymbolTableRecord
100
AcDbLayerTableRecord
  2
DEFAULT_2
 70
0
 62
7
  6
HIDDEN
370
-3
390
F
  0
LAYER
  5
1FC
100
AcDbSymbolTableRecord
100
AcDbLayerTableRecord
  2
DEFAULT_3
 70
0
 62
7
  6
PHANTOM
370
-3
390
F
  0
LAYER
  5
1FD
100
AcDbSymbolTableRecord
100
AcDbLayerTableRecord
  2
ASSI
 70
0
 62
7
  6
CONTINUOUS
370
-3
390
F
  0
LAYER
  5
1FE
100
AcDbSymbolTableRecord
100
AcDbLayerTableRecord
  2
COORDINATE
 70
0
 62
7
  6
CONTINUOUS
370
-3
390
F
  0
LAYER
  5
1FF
100
AcDbSymbolTableRecord
100
AcDbLayerTableRecord
  2
COORD_ORIGINE
 70
0
 62
7
  6
CONTINUOUS
370
-3
390
F
  0
LAYER
  5
200
100
AcDbSymbolTableRecord
100
AcDbLayerTableRecord
  2
COPY_PUBLISH
 70
0
 62
7
  6
CONTINUOUS
370
-3
390
F
  0
LAYER
  5
201
100
AcDbSymbolTableRecord
100
AcDbLayerTableRecord
  2
COSMETIC
 70
0
 62
7
  6
CONTINUOUS
370
-3
390
F
  0
LAYER
  5
202
100
AcDbSymbolTableRecord
100
AcDbLayerTableRecord
  2
COSMETICHE
 70
0
 62
7
  6
CONTINUOUS
370
-3
390
F
  0
LAYER
  5
203
100
AcDbSymbolTableRecord
100
AcDbLayerTableRecord
  2
COSMETICI
 70
0
 62
7
  6
CONTINUOUS
370
-3
390
F
  0
LAYER
  5
204
100
AcDbSymbolTableRecord
100
AcDbLayerTableRecord
  2
CURVE
 70
0
 62
7
  6
CONTINUOUS
370
-3
390
F
  0
LAYER
  5
205
100
AcDbSymbolTableRecord
100
AcDbLayerTableRecord
  2
DRAFT
 70
0
 62
7
  6
CONTINUOUS
370
-3
390
F
  0
LAYER
  5
206
100
AcDbSymbolTableRecord
100
AcDbLayerTableRecord
  2
ESTENSIONE
 70
0
 62
7
  6
CONTINUOUS
370
-3
390
F
  0
LAYER
  5
207
100
AcDbSymbolTableRecord
100
AcDbLayerTableRecord
  2
ESTETICA
 70
0
 62
7
  6
CONTINUOUS
370
-3
390
F
  0
LAYER
  5
208
100
AcDbSymbolTableRecord
100
AcDbLayerTableRecord
  2
IMPORT_IGES
 70
0
 62
7
  6
CONTINUOUS
370
-3
390
F
  0
LAYER
  5
209
100
AcDbSymbolTableRecord
100
AcDbLayerTableRecord
  2
INTFCLR_1
 70
0
 62
7
  6
CONTINUOUS
370
-3
390
F
  0
LAYER
  5
20A
100
AcDbSymbolTableRecord
100
AcDbLayerTableRecord
  2
INTF_1
 70
0
 62
7
  6
CONTINUOUS
370
-3
390
F
  0
LAYER
  5
20B
100
AcDbSymbolTableRecord
100
AcDbLayerTableRecord
  2
INTF_11
 70
0
 62
7
  6
CONTINUOUS
370
-3
390
F
  0
LAYER
  5
20C
100
AcDbSymbolTableRecord
100
AcDbLayerTableRecord
  2
INTF_13
 70
0
 62
7
  6
CONTINUOUS
370
-3
390
F
  0
LAYER
  5
20D
100
AcDbSymbolTableRecord
100
AcDbLayerTableRecord
  2
INTF_2
 70
0
 62
7
  6
CONTINUOUS
370
-3
390
F
  0
LAYER
  5
20E
100
AcDbSymbolTableRecord
100
AcDbLayerTableRecord
  2
INTF_YELLOW
 70
0
 62
7
  6
CONTINUOUS
370
-3
390
F
  0
LAYER
  5
20F
100
AcDbSymbolTableRecord
100
AcDbLayerTableRecord
  2
NOTE
 70
0
 62
7
  6
CONTINUOUS
370
-3
390
F
  0
LAYER
  5
210
100
AcDbSymbolTableRecord
100
AcDbLayerTableRecord
  2
PIANI
 70
0
 62
7
  6
CONTINUOUS
370
-3
390
F
  0
LAYER
  5
211
100
AcDbSymbolTableRecord
100
AcDbLayerTableRecord
  2
PIANI_ORIGINE
 70
0
 62
7
  6
CONTINUOUS
370
-3
390
F
  0
LAYER
  5
212
100
AcDbSymbolTableRecord
100
AcDbLayerTableRecord
  2
PUNTI
 70
0
 62
7
  6
CONTINUOUS
370
-3
390
F
  0
LAYER
  5
213
100
AcDbSymbolTableRecord
100
AcDbLayerTableRecord
  2
RACCORDO
 70
0
 62
7
  6
CONTINUOUS
370
-3
390
F
  0
LAYER
  5
214
100
AcDbSymbolTableRecord
100
AcDbLayerTableRecord
  2
RGB__255__255__255__
 70
0
 62
7
  6
CONTINUOUS
370
-3
390
F
  0
LAYER
  5
215
100
AcDbSymbolTableRecord
100
AcDbLayerTableRecord
  2
RGB____0____0____0__
 70
0
 62
7
  6
CONTINUOUS
370
-3
390
F
  0
LAYER
  5
216
100
AcDbSymbolTableRecord
100
AcDbLayerTableRecord
  2
SMUSSO
 70
0
 62
7
  6
CONTINUOUS
370
-3
390
F
  0
LAYER
  5
217
100
AcDbSymbolTableRecord
100
AcDbLayerTableRecord
  2
SNAPLINE
 70
0
 62
7
  6
CONTINUOUS
370
-3
390
F
  0
LAYER
  5
218
100
AcDbSymbolTableRecord
100
AcDbLayerTableRecord
  2
SUPERFICI
 70
0
 62
7
  6
CONTINUOUS
370
-3
390
F
  0
LAYER
  5
219
100
AcDbSymbolTableRecord
100
AcDbLayerTableRecord
  2
SUP_ASS_ANCORINA
 70
0
 62
7
  6
CONTINUOUS
370
-3
390
F
  0
LAYER
  5
21A
100
AcDbSymbolTableRecord
100
AcDbLayerTableRecord
  2
TRASH
 70
0
 62
7
  6
CONTINUOUS
370
-3
390
F
  0
LAYER
  5
21B
100
AcDbSymbolTableRecord
100
AcDbLayerTableRecord
  2
XSEC_DATUMS
 70
0
 62
7
  6
CONTINUOUS
370
-3
390
F
  0
ENDTAB
  0
TABLE
  2
STYLE
  5
3
100
AcDbSymbolTable
 70
1
  0
STYLE
  5
11
100
AcDbSymbolTableRecord
100
AcDbTextStyleTableRecord
  2
STANDARD
 70
0
 40
0.0
 41
0.8
 50
0.0
 71
0
 42
0.2
  3
txt
  4

  0
STYLE
  5
21C
100
AcDbSymbolTableRecord
100
AcDbTextStyleTableRecord
  2
TEXTSTYLE_1
 70
0
 40
0.0
 41
0.8
 50
0.0
 71
0
 42
0.2
  3
gdt
  4

  0
ENDTAB
  0
TABLE
  2
VIEW
  5
6
100
AcDbSymbolTable
 70
0
  0
ENDTAB
  0
TABLE
  2
UCS
  5
7
100
AcDbSymbolTable
 70
0
  0
ENDTAB
  0
TABLE
  2
APPID
  5
9
100
AcDbSymbolTable
 70
1
  0
APPID
  5
21D
100
AcDbSymbolTableRecord
100
AcDbRegAppTableRecord
  2
ACAD
 70
0
  0
ENDTAB
  0
TABLE
  2
BLOCK_RECORD
  5
1
100
AcDbSymbolTable
 70
0
  0
BLOCK_RECORD
  5
21E
100
AcDbSymbolTableRecord
100
AcDbBlockTableRecord
  2
*Model_Space
  0
BLOCK_RECORD
  5
21F
100
AcDbSymbolTableRecord
100
AcDbBlockTableRecord
  2
*Paper_Space
  0
BLOCK_RECORD
  5
220
100
AcDbSymbolTableRecord
100
AcDbBlockTableRecord
  2
_FILLED
  0
ENDTAB
  0
TABLE
  2
DIMSTYLE
  5
A
100
AcDbSymbolTable
 70
1
100
AcDbDimStyleTable
 71
0
  0
DIMSTYLE
105
221
100
AcDbSymbolTableRecord
100
AcDbDimStyleTableRecord
  2
STANDARD
 70
0
  3

  4

 40
1.0
 41
3.0
 42
0.5
 43
0.38
 44
1.5
 45
0.0
 46
0.0
 47
0.01
 48
0.01
140
3.0
141
0.09
142
0.0
143
25.4
144
1.0
145
0.0
146
1.0
147
0.625
 71
1
 72
0
 73
0
 74
0
 75
0
 76
0
 77
1
 78
8
 79
2
170
0
171
1
172
0
173
0
174
0
175
0
176
0
177
0
178
0
270
2
179
2
271
2
272
2
273
2
274
2
275
0
280
0
281
0
282
0
283
1
284
8
285
0
286
0
287
3
288
0
340
11
278
44
341
220
342
220
343
220
344
220
  0
ENDTAB
  0
ENDSEC
  0
SECTION
  2
BLOCKS
  0
BLOCK
  5
20
100
AcDbEntity
  8
0
100
AcDbBlockBegin
  2
*Model_Space
 70
0
 10
0.0
 20
0.0
 30
0.0
  3
*Model_Space
  1

  0
ENDBLK
  5
21
100
AcDbEntity
  8
0
100
AcDbBlockEnd
  0
BLOCK
  5
1C
100
AcDbEntity
  8
0
100
AcDbBlockBegin
  2
*Paper_Space
 70
0
 10
0.0
 20
0.0
 30
0.0
  3
*Paper_Space
  1

  0
ENDBLK
  5
1D
100
AcDbEntity
  8
0
100
AcDbBlockEnd
  0
BLOCK
  5
222
100
AcDbEntity
  8
0
100
AcDbBlockBegin
  2
_FILLED
 70
64
 10
0.0
 20
0.0
  3
_FILLED
  1

  0
SOLID
  5
223
100
AcDbEntity
  8
0
  6
BYBLOCK
 62
0
100
AcDbTrace
 10
0.0
 20
0.0
 11
-1.0
 21
0.3166666667
 12
-1.0
 22
-0.3166666667
 13
-1.0
 23
-0.3166666667
  0
ENDBLK
  5
224
100
AcDbEntity
  8
0
  6
BYBLOCK
 62
0
100
AcDbBlockEnd
  0
ENDSEC
  0
SECTION
  2
ENTITIES
  0
LWPOLYLINE
  5
225
100
AcDbEntity
  8
RACCORDO
100
AcDbPolyline
 62
250
  6
CONTINUOUS
 90
16
 70
0
 10
113.2213546177
 20
105.6332455723
 10
113.1643749526
 20
105.5877000113
 10
113.1087095242
 20
105.5370083083
 10
113.0547491796
 20
105.4815362263
 10
113.0028772781
 20
105.4216770631
 10
112.9534522204
 20
105.3578421679
 10
112.9068054943
 20
105.2904708382
 10
112.8632631503
 20
105.2200293485
 10
112.8231329869
 20
105.1470083767
 10
112.7866882902
 20
105.0719139743
 10
112.7541833804
 20
104.9952637613
 10
112.7258504871
 20
104.9175947812
 10
112.7018876861
 20
104.8394586955
 10
112.6824618963
 20
104.7614032723
 10
112.6677093683
 20
104.6839683027
 10
112.6577330101
 20
104.6076930197
  0
LWPOLYLINE
  5
226
100
AcDbEntity
  8
0
100
AcDbPolyline
 62
7
  6
CONTINUOUS
 90
7
 70
0
 10
118.3471544699
 20
108.8750887142
 10
118.3321420516
 20
108.8655624057
 10
118.2830762153
 20
108.8234157099
 10
118.2432137528
 20
108.7699795559
 10
118.2137623311
 20
108.70619132
 10
118.1960115198
 20
108.6337966066
 10
118.1906013665
 20
108.5609310353
  0
LINE
  5
227
100
AcDbEntity
  8
0
100
AcDbLine
 62
7
  6
CONTINUOUS
 10
118.3486111565
 20
108.875950668
 11
118.7360209162
 21
109.1018460419
  0
LINE
  5
228
100
AcDbEntity
  8
0
100
AcDbLine
 62
250
  6
CONTINUOUS
 10
118.5823492166
 20
108.8674071894
 11
118.9699236914
 21
109.0933986072
  0
LWPOLYLINE
  5
229
100
AcDbEntity
  8
RACCORDO
100
AcDbPolyline
 62
250
  6
CONTINUOUS
 90
4
 70
0
 10
113.3961421496
 20
105.736039207
 10
113.337647064
 20
105.7076696828
 10
113.2792476983
 20
105.673326252
 10
113.2213546177
 20
105.6332455723
  0
LWPOLYLINE
  5
22A
100
AcDbEntity
  8
RACCORDO
100
AcDbPolyline
 62
7
  6
CONTINUOUS
 90
16
 70
0
 10
113.1725124828
 20
105.7503837867
 10
113.1171973644
 20
105.7236066675
 10
113.0476253272
 20
105.6829173412
 10
112.9802180044
 20
105.6354013799
 10
112.9158445722
 20
105.5817382721
 10
112.8545159744
 20
105.521983505
 10
112.7964936587
 20
105.4563583468
 10
112.7428297805
 20
105.3860528286
 10
112.6936164692
 20
105.3112815145
 10
112.6490846898
 20
105.2322951704
 10
112.6101738588
 20
105.1507377147
 10
112.576979164
 20
105.0669690496
 10
112.5496871257
 20
104.9812335181
 10
112.5288345389
 20
104.8951636218
 10
112.5145450082
 20
104.8094300031
 10
112.5108325354
 20
104.7769386434
  0
LINE
  5
22B
100
AcDbEntity
  8
RACCORDO
100
AcDbLine
 62
7
  6
CONTINUOUS
 10
117.4023896503
 20
107.6181092705
 11
113.172505951
 21
105.7503985874
  0
LINE
  5
22C
100
AcDbEntity
  8
RACCORDO
100
AcDbLine
 62
250
  6
CONTINUOUS
 10
117.6241312687
 20
107.6029133116
 11
113.3961421496
 21
105.736039207
  0
LINE
  5
22D
100
AcDbEntity
  8
RACCORDO
100
AcDbLine
 62
250
  6
CONTINUOUS
 10
121.8951782242
 20
106.9553938303
 11
121.9207800337
 21
106.9720426484
  0
LINE
  5
22E
100
AcDbEntity
  8
RACCORDO
100
AcDbLine
 62
250
  6
CONTINUOUS
 10
120.9258956234
 20
106.2305515689
 11
120.6653117766
 21
106.0823230577
  0
LWPOLYLINE
  5
22F
100
AcDbEntity
  8
RACCORDO
100
AcDbPolyline
 62
7
  6
CONTINUOUS
 90
3
 70
0
 10
121.3086071138
 20
106.682645385
 10
120.8325317419
 20
106.4292206754
 10
120.4364480966
 20
106.1967548976
  0
LINE
  5
230
100
AcDbEntity
  8
SUPERFICI
100
AcDbLine
 62
7
  6
CONTINUOUS
 10
124.2516486063
 20
106.5391386902
 11
124.1674276577
 21
106.4946466241
  0
LINE
  5
231
100
AcDbEntity
  8
DRAFT
100
AcDbLine
 62
7
  6
CONTINUOUS
 10
121.245077981
 20
106.1165113208
 11
121.6356360746
 21
106.3226906647
  0
LINE
  5
232
100
AcDbEntity
  8
RACCORDO
100
AcDbLine
 62
250
  6
CONTINUOUS
 10
121.3849734507
 20
106.4674559234
 11
120.9258956234
 21
106.2305515689
  0
LINE
  5
233
100
AcDbEntity
  8
RACCORDO
100
AcDbLine
 62
7
  6
CONTINUOUS
 10
121.3618468225
 20
106.7094351804
 11
121.3086071138
 21
106.682645385
  0
LINE
  5
234
100
AcDbEntity
  8
ASSI
100
AcDbLine
 62
7
  6
CONTINUOUS
 10
121.3618983432
 20
106.7094609408
 11
121.4388759032
 21
106.7479497207
  0
LINE
  5
235
100
AcDbEntity
  8
0
100
AcDbLine
 62
7
  6
CONTINUOUS
 10
121.4388902361
 20
106.747921054
 11
121.4870731183
 21
106.7718567795
  0
LINE
  5
236
100
AcDbEntity
  8
SUPERFICI
100
AcDbLine
 62
7
  6
CONTINUOUS
 10
126.9251441044
 20
108.836377351
 11
125.4661393129
 21
108.1127002186
  0
LINE
  5
237
100
AcDbEntity
  8
0
100
AcDbLine
 62
250
  6
CONTINUOUS
 10
121.9547173018
 20
106.9888731423
 11
121.9207749745
 21
106.9720471725
  0
LINE
  5
238
100
AcDbEntity
  8
0
100
AcDbLine
 62
250
  6
CONTINUOUS
 10
122.2738846169
 20
107.0216394893
 11
122.1314822094
 21
106.9510421329
  0
LINE
  5
239
100
AcDbEntity
  8
0
100
AcDbLine
 62
7
  6
CONTINUOUS
 10
135.2814398767
 20
111.2027277403
 11
131.3455503751
 21
109.3189346815
  0
LINE
  5
23A
100
AcDbEntity
  8
SUPERFICI
100
AcDbLine
 62
7
  6
CONTINUOUS
 10
125.2479123582
 20
108.4784173306
 11
124.3035461833
 21
108.0308515635
  0
LINE
  5
23B
100
AcDbEntity
  8
SUPERFICI
100
AcDbLine
 62
7
  6
CONTINUOUS
 10
125.5605723044
 20
108.6266200452
 11
125.2479123582
 21
108.4784173306
  0
LINE
  5
23C
100
AcDbEntity
  8
SUPERFICI
100
AcDbLine
 62
7
  6
CONTINUOUS
 10
125.7499597348
 20
108.7164030785
 11
125.5605723044
 21
108.6266200452
  0
LINE
  5
23D
100
AcDbEntity
  8
SUPERFICI
100
AcDbLine
 62
7
  6
CONTINUOUS
 10
126.1826819756
 20
108.9215695209
 11
125.7499597348
 21
108.7164030785
  0
LINE
  5
23E
100
AcDbEntity
  8
SUPERFICI
100
AcDbLine
 62
7
  6
CONTINUOUS
 10
124.3035461833
 20
108.0308515635
 11
123.34971051
 21
107.578925825
  0
LINE
  5
23F
100
AcDbEntity
  8
SUPERFICI
100
AcDbLine
 62
250
  6
CONTINUOUS
 10
126.3544191041
 20
108.9770509271
 11
123.5115559461
 21
107.6308956541
  0
LINE
  5
240
100
AcDbEntity
  8
SUPERFICI
100
AcDbLine
 62
250
  6
CONTINUOUS
 10
126.7456867143
 20
108.9261060461
 11
123.902363393
 21
107.5798067006
  0
LWPOLYLINE
  5
241
100
AcDbEntity
  8
SUPERFICI
100
AcDbPolyline
 62
7
  6
CONTINUOUS
 90
8
 70
0
 10
123.2242117542
 20
107.2372083089
 10
123.2190478862
 20
107.2347674272
 10
123.1875309115
 20
107.2234572409
 10
123.1544907168
 20
107.2174312219
 10
123.120136878
 20
107.2169039313
 10
123.0842598193
 20
107.221660808
 10
123.0476606256
 20
107.2315716695
 10
123.0100809117
 20
107.2468555366
  0
LINE
  5
242
100
AcDbEntity
  8
RACCORDO
100
AcDbLine
 62
7
  6
CONTINUOUS
 10
127.1518401068
 20
109.4330152897
 11
125.7083484895
 21
108.7513110318
  0
LINE
  5
243
100
AcDbEntity
  8
RACCORDO
100
AcDbLine
 62
250
  6
CONTINUOUS
 10
127.3839528447
 20
109.4233734812
 11
126.4765729463
 21
108.9948468339
  0
LWPOLYLINE
  5
244
100
AcDbEntity
  8
RACCORDO
100
AcDbPolyline
 62
7
  6
CONTINUOUS
 90
3
 70
0
 10
121.7880948361
 20
106.9127113006
 10
121.4497781293
 20
106.7529764636
 10
121.3618468225
 20
106.7094351804
  0
LINE
  5
245
100
AcDbEntity
  8
SUPERFICI
100
AcDbLine
 62
7
  6
CONTINUOUS
 10
124.4373556824
 20
108.1514010257
 11
122.8286889695
 21
107.3919249482
  0
LINE
  5
246
100
AcDbEntity
  8
SUPERFICI
100
AcDbLine
 62
7
  6
CONTINUOUS
 10
125.7087654167
 20
108.7514751867
 11
124.4373556824
 21
108.1514010257
  0
LINE
  5
247
100
AcDbEntity
  8
RACCORDO
100
AcDbLine
 62
7
  6
CONTINUOUS
 10
130.1757538186
 20
110.1120032553
 11
128.1510142191
 21
109.1597426789
  0
LINE
  5
248
100
AcDbEntity
  8
RACCORDO
100
AcDbLine
 62
250
  6
CONTINUOUS
 10
128.2740891956
 20
109.0982051907
 11
130.0152644729
 21
109.9171824315
  0
LINE
  5
249
100
AcDbEntity
  8
RACCORDO
100
AcDbLine
 62
250
  6
CONTINUOUS
 10
130.0152644729
 20
109.9171824315
 11
131.166062775
 21
110.4581067926
  0
LINE
  5
24A
100
AcDbEntity
  8
RACCORDO
100
AcDbLine
 62
7
  6
CONTINUOUS
 10
131.4908869254
 20
110.7300305813
 11
130.1757538186
 21
110.1120032553
  0
LINE
  5
24B
100
AcDbEntity
  8
RACCORDO
100
AcDbLine
 62
250
  6
CONTINUOUS
 10
131.166062775
 20
110.4581067926
 11
132.8979251299
 21
111.2715900216
  0
LWPOLYLINE
  5
24C
100
AcDbEntity
  8
RACCORDO
100
AcDbPolyline
 62
7
  6
CONTINUOUS
 90
4
 70
0
 10
133.837680921
 20
111.8319207477
 10
133.5134754653
 20
111.6797667869
 10
132.8326261077
 20
111.360162711
 10
131.4908869254
 20
110.7300305813
  0
LINE
  5
24D
100
AcDbEntity
  8
RACCORDO
100
AcDbLine
 62
250
  6
CONTINUOUS
 10
132.8979251299
 20
111.2715900216
 11
134.0562646635
 21
111.8153153469
  0
LINE
  5
24E
100
AcDbEntity
  8
SUPERFICI
100
AcDbLine
 62
7
  6
CONTINUOUS
 10
125.996926393
 20
108.1920389781
 11
125.6310266459
 21
108.021435461
  0
LINE
  5
24F
100
AcDbEntity
  8
0
100
AcDbLine
 62
7
  6
CONTINUOUS
 10
121.4870731183
 20
106.7718567795
 11
121.9145189997
 21
106.9710815652
  0
LINE
  5
250
100
AcDbEntity
  8
RACCORDO
100
AcDbLine
 62
250
  6
CONTINUOUS
 10
121.8525691551
 20
106.6849715758
 11
121.3849734507
 21
106.4674559234
  0
LINE
  5
251
100
AcDbEntity
  8
RACCORDO
100
AcDbLine
 62
250
  6
CONTINUOUS
 10
121.9207749745
 20
106.9720471725
 11
121.7880948361
 21
106.9127113006
  0
LWPOLYLINE
  5
252
100
AcDbEntity
  8
0
100
AcDbPolyline
 62
7
  6
CONTINUOUS
 90
3
 70
0
 10
121.9547173018
 20
106.9888731423
 10
121.9208749036
 20
106.9738762234
 10
121.9145189997
 20
106.9710815652
  0
LINE
  5
253
100
AcDbEntity
  8
SUPERFICI
100
AcDbLine
 62
7
  6
CONTINUOUS
 10
122.8286889695
 20
107.3919249482
 11
122.5803246327
 21
107.2881981366
  0
LINE
  5
254
100
AcDbEntity
  8
SUPERFICI
100
AcDbLine
 62
7
  6
CONTINUOUS
 10
126.9251441044
 20
107.8833596863
 11
126.75559026
 21
107.8127070446
  0
LWPOLYLINE
  5
255
100
AcDbEntity
  8
RACCORDO
100
AcDbPolyline
 62
250
  6
CONTINUOUS
 90
8
 70
0
 10
128.6484757364
 20
109.3937749562
 10
128.6687109394
 20
109.4019113422
 10
128.6988796546
 20
109.4094624514
 10
128.7306670471
 20
109.4123489471
 10
128.7637563699
 20
109.4105420667
 10
128.7978179027
 20
109.4040598149
 10
128.8325122378
 20
109.3929667844
 10
128.8674936617
 20
109.3773735124
  0
LWPOLYLINE
  5
256
100
AcDbEntity
  8
RACCORDO
100
AcDbPolyline
 62
250
  6
CONTINUOUS
 90
3
 70
0
 10
134.0562646635
 20
111.8153153469
 10
134.1161975317
 20
111.837711974
 10
134.1744276036
 20
111.846804042
  0
LINE
  5
257
100
AcDbEntity
  8
SUPERFICI
100
AcDbLine
 62
7
  6
CONTINUOUS
 10
128.7300524683
 20
108.3884790956
 11
128.2686469886
 21
108.2306298525
  0
LINE
  5
258
100
AcDbEntity
  8
SUPERFICI
100
AcDbLine
 62
7
  6
CONTINUOUS
 10
126.2397935564
 20
108.9403754217
 11
126.1826819756
 21
108.9215695209
  0
LINE
  5
259
100
AcDbEntity
  8
SUPERFICI
100
AcDbLine
 62
7
  6
CONTINUOUS
 10
123.4035405607
 20
107.5965252553
 11
123.34971051
 21
107.578925825
  0
LINE
  5
25A
100
AcDbEntity
  8
SUPERFICI
100
AcDbLine
 62
7
  6
CONTINUOUS
 10
126.2970392659
 20
108.9588692238
 11
126.2397935564
 21
108.9403754217
  0
LINE
  5
25B
100
AcDbEntity
  8
SUPERFICI
100
AcDbLine
 62
7
  6
CONTINUOUS
 10
123.4574890393
 20
107.6138485316
 11
123.4035405607
 21
107.5965252553
  0
LWPOLYLINE
  5
25C
100
AcDbEntity
  8
ASSI
100
AcDbPolyline
 62
7
  6
CONTINUOUS
 90
14
 70
0
 10
132.7254425304
 20
108.3950125738
 10
133.1093562533
 20
108.5166657465
 10
133.5083912587
 20
108.6044532362
 10
133.9225475464
 20
108.658375043
 10
134.3638494585
 20
108.6784344007
 10
134.8202726529
 20
108.6646280756
 10
135.255744104
 20
108.6169463656
 10
135.6679969107
 20
108.5324649195
 10
136.0592979741
 20
108.4141080886
 10
136.4003749723
 20
108.2706392251
 10
136.6873126993
 20
108.100100726
 10
136.9240263611
 20
107.9044501943
 10
137.0929892532
 20
107.698323791
 10
137.1594045664
 20
107.5466829795
  0
LINE
  5
25D
100
AcDbEntity
  8
SUPERFICI
100
AcDbLine
 62
7
  6
CONTINUOUS
 10
126.3544191041
 20
108.9770509271
 11
126.2970392659
 21
108.9588692238
  0
LINE
  5
25E
100
AcDbEntity
  8
SUPERFICI
100
AcDbLine
 62
7
  6
CONTINUOUS
 10
123.5115559461
 20
107.6308956541
 11
123.4574890393
 21
107.6138485316
  0
LWPOLYLINE
  5
25F
100
AcDbEntity
  8
RACCORDO
100
AcDbPolyline
 62
7
  6
CONTINUOUS
 90
10
 70
0
 10
125.1147805095
 20
59.5073699967
 10
125.1804736145
 20
59.4785460441
 10
125.2468305096
 20
59.4571328114
 10
125.3155149943
 20
59.4423063645
 10
125.3863192467
 20
59.4342593184
 10
125.4586731219
 20
59.4332150679
 10
125.5318980263
 20
59.4393184966
 10
125.6057823866
 20
59.452729527
 10
125.6799497612
 20
59.4736078774
 10
125.6891623093
 20
59.4767282438
  0
LINE
  5
260
100
AcDbEntity
  8
RACCORDO
100
AcDbLine
 62
250
  6
CONTINUOUS
 10
124.8538764794
 20
60.0890269643
 11
110.0961718554
 21
67.4678792763
  0
LINE
  5
261
100
AcDbEntity
  8
RACCORDO
100
AcDbLine
 62
7
  6
CONTINUOUS
 10
110.3523776116
 20
66.8885565493
 11
125.115725352
 21
59.5068825568
  0
LWPOLYLINE
  5
262
100
AcDbEntity
  8
RACCORDO
100
AcDbPolyline
 62
250
  6
CONTINUOUS
 90
9
 70
0
 10
110.0961884471
 20
67.4678866422
 10
110.0615346218
 20
67.4870332246
 10
110.031036079
 20
67.5076547723
 10
110.0050195852
 20
67.5295303426
 10
109.9837638854
 20
67.5524255571
 10
109.9674967167
 20
67.5760951125
 10
109.9563923681
 20
67.6002854094
 10
109.9505698136
 20
67.6247372688
 10
109.949714991
 20
67.6432633388
  0
LWPOLYLINE
  5
263
100
AcDbEntity
  8
RACCORDO
100
AcDbPolyline
 62
250
  6
CONTINUOUS
 90
13
 70
0
 10
110.0961718554
 20
67.4678792763
 10
110.0958949544
 20
67.3954936011
 10
110.1005010214
 20
67.3258160696
 10
110.1099578708
 20
67.2593328432
 10
110.1241983831
 20
67.1965064563
 10
110.1431238193
 20
67.1377776768
 10
110.1666027268
 20
67.0835608019
 10
110.1944661743
 20
67.0342365486
 10
110.2265189761
 20
66.9901446799
 10
110.2625435433
 20
66.951586691
 10
110.3022845821
 20
66.9188331641
 10
110.3454639119
 20
66.8921118879
 10
110.3523776116
 20
66.8885565493
  0
LWPOLYLINE
  5
264
100
AcDbEntity
  8
RACCORDO
100
AcDbPolyline
 62
7
  6
CONTINUOUS
 90
14
 70
0
 10
109.949714991
 20
67.6432633388
 10
109.9490982573
 20
67.6197189753
 10
109.9511540413
 20
67.5373166961
 10
109.9597774315
 20
67.4575560803
 10
109.9748382308
 20
67.3806732959
 10
109.9961727245
 20
67.3071530808
 10
110.0235674152
 20
67.2374339939
 10
110.0568174194
 20
67.1717662307
 10
110.0956212555
 20
67.1105982879
 10
110.1394929235
 20
67.0545150501
 10
110.1880388849
 20
67.0037704758
 10
110.2409802678
 20
66.9585057864
 10
110.297713951
 20
66.9191383766
 10
110.3522883464
 20
66.888607455
  0
LWPOLYLINE
  5
265
100
AcDbEntity
  8
RACCORDO
100
AcDbPolyline
 62
250
  6
CONTINUOUS
 90
10
 70
0
 10
112.6577330101
 20
104.6076930197
 10
112.2550981046
 20
100.4344044582
 10
111.8819017759
 20
96.2719510256
 10
111.5381760146
 20
92.1206879735
 10
111.2239502538
 20
87.9809696629
 10
110.9392513564
 20
83.853149407
 10
110.6841036166
 20
79.7375794422
 10
110.4585287687
 20
75.6346110668
 10
110.2625459829
 20
71.5445946102
 10
110.0961718554
 20
67.4678792763
  0
LWPOLYLINE
  5
266
100
AcDbEntity
  8
RACCORDO
100
AcDbPolyline
 62
7
  6
CONTINUOUS
 90
10
 70
0
 10
112.5108311799
 20
104.7770588096
 10
112.1185779694
 20
100.7151449936
 10
111.7420922393
 20
96.5233154825
 10
111.3954908724
 20
92.3427891087
 10
111.0788100474
 20
88.1739761846
 10
110.7920749363
 20
84.0172169096
 10
110.5353076546
 20
79.8728247306
 10
110.3085308895
 20
75.7411385841
 10
110.1117656371
 20
71.6225623625
 10
109.9497026384
 20
67.6433014566
  0
LWPOLYLINE
  5
267
100
AcDbEntity
  8
0
100
AcDbPolyline
 62
250
  6
CONTINUOUS
 90
7
 70
0
 10
118.2606278683
 20
108.6303941733
 10
118.2531937686
 20
108.6143210086
 10
118.2469179298
 20
108.5969289681
 10
118.2419038151
 20
108.5776411202
 10
118.2381859125
 20
108.5562651541
 10
118.235729734
 20
108.5329933806
 10
118.2345352797
 20
108.5078257997
  0
LWPOLYLINE
  5
268
100
AcDbEntity
  8
RACCORDO
100
AcDbPolyline
 62
7
  6
CONTINUOUS
 90
5
 70
0
 10
121.0431320119
 20
105.89341294
 10
121.0802199456
 20
105.9656083467
 10
121.137644415
 20
106.0368563356
 10
121.2087786823
 20
106.0950616151
 10
121.2435431303
 20
106.1156920598
  0
LWPOLYLINE
  5
269
100
AcDbEntity
  8
RACCORDO
100
AcDbPolyline
 62
250
  6
CONTINUOUS
 90
5
 70
0
 10
122.0305537913
 20
106.8536771337
 10
122.0532377674
 20
106.8838368717
 10
122.0780234321
 20
106.9105285969
 10
122.1043154266
 20
106.9331111646
 10
122.1314822094
 20
106.9510421329
  0
LWPOLYLINE
  5
26A
100
AcDbEntity
  8
0
100
AcDbPolyline
 62
7
  6
CONTINUOUS
 90
3
 70
0
 10
131.4752153344
 20
108.5054908749
 10
131.2641397265
 20
108.3318141458
 10
131.1065690018
 20
108.1444783484
  0
LINE
  5
26B
100
AcDbEntity
  8
SUPERFICI
100
AcDbLine
 62
7
  6
CONTINUOUS
 10
128.9128697187
 20
104.208528134
 11
128.8343324136
 21
104.1611942461
  0
LINE
  5
26C
100
AcDbEntity
  8
0
100
AcDbLine
 62
7
  6
CONTINUOUS
 10
131.7351847528
 20
108.6617144637
 11
131.4752153344
 21
108.5054908749
  0
LINE
  5
26D
100
AcDbEntity
  8
SUPERFICI
100
AcDbLine
 62
7
  6
CONTINUOUS
 10
130.5403675843
 20
105.9203183825
 11
130.1991605501
 21
105.7373685089
  0
LINE
  5
26E
100
AcDbEntity
  8
DRAFT
100
AcDbLine
 62
7
  6
CONTINUOUS
 10
132.45212999
 20
108.2915107067
 11
131.7351847528
 21
107.9166639263
  0
LINE
  5
26F
100
AcDbEntity
  8
0
100
AcDbLine
 62
7
  6
CONTINUOUS
 10
135.9349735049
 20
110.8362187458
 11
131.7351847528
 21
108.6617144637
  0
LINE
  5
270
100
AcDbEntity
  8
ASSI
100
AcDbLine
 62
7
  6
CONTINUOUS
 10
132.7254425304
 20
108.3950125738
 11
135.9371144654
 21
110.0579043972
  0
LINE
  5
271
100
AcDbEntity
  8
DRAFT
100
AcDbLine
 62
7
  6
CONTINUOUS
 10
132.7657330668
 20
108.4390345645
 11
132.4636829972
 21
108.285932402
  0
LINE
  5
272
100
AcDbEntity
  8
0
100
AcDbLine
 62
7
  6
CONTINUOUS
 10
132.3415820483
 20
107.3207242501
 11
132.8365567951
 21
107.5682116235
  0
LINE
  5
273
100
AcDbEntity
  8
RACCORDO
100
AcDbLine
 62
7
  6
CONTINUOUS
 10
135.2500593687
 20
107.6506631282
 11
134.1277462907
 21
107.0895065892
  0
LINE
  5
274
100
AcDbEntity
  8
RACCORDO
100
AcDbLine
 62
7
  6
CONTINUOUS
 10
135.9571902262
 20
107.2971217757
 11
134.8348530719
 21
106.7359531986
  0
LINE
  5
275
100
AcDbEntity
  8
SUPERFICI
100
AcDbLine
 62
250
  6
CONTINUOUS
 10
129.0993966784
 20
104.9812900579
 11
131.9129276065
 21
106.3424856
  0
LINE
  5
276
100
AcDbEntity
  8
SUPERFICI
100
AcDbLine
 62
250
  6
CONTINUOUS
 10
129.4902041252
 20
104.6415715646
 11
132.3041952167
 21
106.0021628709
  0
LINE
  5
277
100
AcDbEntity
  8
SUPERFICI
100
AcDbLine
 62
7
  6
CONTINUOUS
 10
129.9691852025
 20
104.5798169308
 11
129.6520495613
 21
104.4277562994
  0
LINE
  5
278
100
AcDbEntity
  8
SUPERFICI
100
AcDbLine
 62
7
  6
CONTINUOUS
 10
130.2854744778
 20
104.731286169
 11
129.9691852025
 21
104.5798169308
  0
LINE
  5
279
100
AcDbEntity
  8
0
100
AcDbLine
 62
7
  6
CONTINUOUS
 10
139.9358138388
 20
108.8755407592
 11
135.9999452674
 21
106.9917372353
  0
LWPOLYLINE
  5
27A
100
AcDbEntity
  8
SUPERFICI
100
AcDbPolyline
 62
7
  6
CONTINUOUS
 90
3
 70
0
 10
130.915526023
 20
105.0324588568
 10
130.6009197373
 20
104.8821647865
 10
130.2854744778
 20
104.731286169
  0
LWPOLYLINE
  5
27B
100
AcDbEntity
  8
SUPERFICI
100
AcDbPolyline
 62
7
  6
CONTINUOUS
 90
6
 70
0
 10
132.4759323452
 20
105.7749443361
 10
132.1655303523
 20
105.6276525069
 10
131.8542920974
 20
105.4797601487
 10
131.5422147536
 20
105.3312661329
 10
131.2292928388
 20
105.1821642223
 10
130.915526023
 20
105.0324588568
  0
LINE
  5
27C
100
AcDbEntity
  8
SUPERFICI
100
AcDbLine
 62
7
  6
CONTINUOUS
 10
131.7334702164
 20
106.432214295
 11
130.2226265269
 21
105.7344566116
  0
LWPOLYLINE
  5
27D
100
AcDbEntity
  8
RACCORDO
100
AcDbPolyline
 62
7
  6
CONTINUOUS
 90
11
 70
0
 10
135.9566292526
 20
107.2968412889
 10
135.9686328681
 20
107.302263356
 10
135.9804550814
 20
107.3064216338
 10
135.9920958927
 20
107.3093161226
 10
136.0036743692
 20
107.3109504428
 10
136.0150714436
 20
107.3113209739
 10
136.0259299141
 20
107.3104168542
 10
136.0361730675
 20
107.3082057421
 10
136.0458776169
 20
107.3047199792
 10
136.0549164997
 20
107.3000457285
 10
136.0622191603
 20
107.2950243621
  0
LWPOLYLINE
  5
27E
100
AcDbEntity
  8
RACCORDO
100
AcDbPolyline
 62
7
  6
CONTINUOUS
 90
8
 70
0
 10
132.7872098018
 20
107.656120191
 10
132.678855838
 20
107.6186107554
 10
132.5741461166
 20
107.5778971056
 10
132.4734000061
 20
107.5340359677
 10
132.3768199578
 20
107.4870313539
 10
132.2848094381
 20
107.4369835999
 10
132.1978934888
 20
107.3841003573
 10
132.1161639203
 20
107.3283535821
  0
LWPOLYLINE
  5
27F
100
AcDbEntity
  8
RACCORDO
100
AcDbPolyline
 62
250
  6
CONTINUOUS
 90
25
 70
0
 10
132.7819584817
 20
107.6163652841
 10
132.8755649764
 20
107.6476245646
 10
132.9724309453
 20
107.6765562697
 10
133.071748844
 20
107.7029333158
 10
133.1734767227
 20
107.7267243065
 10
133.2776565313
 20
107.7479606382
 10
133.3836065752
 20
107.7665094156
 10
133.4912832475
 20
107.7823620908
 10
133.6007301552
 20
107.7955272118
 10
133.7113964242
 20
107.8058975275
 10
133.8234824671
 20
107.8134663048
 10
133.9367878714
 20
107.8182402768
 10
134.0501605254
 20
107.8201323916
 10
134.1638452814
 20
107.8190541516
 10
134.277597287
 20
107.8150940544
 10
134.3895298734
 20
107.808430541
 10
134.4996009694
 20
107.798936733
 10
134.6078526462
 20
107.7867395088
 10
134.7125244484
 20
107.7723979445
 10
134.813466506
 20
107.7557936746
 10
134.9108286889
 20
107.7370450646
 10
135.0033001513
 20
107.7170662876
 10
135.0904439444
 20
107.6961620681
 10
135.1726970169
 20
107.6740276816
 10
135.2500593687
 20
107.6506631282
  0
LWPOLYLINE
  5
280
100
AcDbEntity
  8
0
100
AcDbPolyline
 62
250
  6
CONTINUOUS
 90
5
 70
0
 10
133.6014381647
 20
62.6526041941
 10
133.5846857698
 20
62.6556577307
 10
133.5671540021
 20
62.6605247783
 10
133.548917516
 20
62.6671402353
 10
133.5299763118
 20
62.6755041017
  0
LWPOLYLINE
  5
281
100
AcDbEntity
  8
0
100
AcDbPolyline
 62
7
  6
CONTINUOUS
 90
8
 70
0
 10
133.5690049997
 20
62.5943507015
 10
133.6066076622
 20
62.577813673
 10
133.6480742016
 20
62.5646733633
 10
133.689578741
 20
62.5568049484
 10
133.7306865013
 20
62.5542854083
 10
133.7706797241
 20
62.5570889906
 10
133.808948052
 20
62.5650109058
 10
133.8436415542
 20
62.57715288
  0
LINE
  5
282
100
AcDbEntity
  8
0
100
AcDbLine
 62
7
  6
CONTINUOUS
 10
133.5690049997
 20
62.5943507014
 11
130.4284889623
 21
64.1646086953
  0
LINE
  5
283
100
AcDbEntity
  8
0
100
AcDbLine
 62
250
  6
CONTINUOUS
 10
133.5299763118
 20
62.6755041017
 11
130.4325985363
 21
64.2241929895
  0
LWPOLYLINE
  5
284
100
AcDbEntity
  8
0
100
AcDbPolyline
 62
250
  6
CONTINUOUS
 90
7
 70
0
 10
133.5689602897
 20
62.5943730316
 10
133.5655300793
 20
62.5962395821
 10
133.5532266163
 20
62.6059668452
 10
133.5432749001
 20
62.6191747788
 10
133.5359575329
 20
62.6354883128
 10
133.5314823086
 20
62.6544441859
 10
133.5299763118
 20
62.6755041017
  0
LWPOLYLINE
  5
285
100
AcDbEntity
  8
0
100
AcDbPolyline
 62
250
  6
CONTINUOUS
 90
10
 70
0
 10
118.4818342659
 20
108.6874239321
 10
118.4833402549
 20
108.7099897861
 10
118.4878154605
 20
108.7334208383
 10
118.4951328053
 20
108.7570517124
 10
118.5050845026
 20
108.7802113571
 10
118.5173879558
 20
108.8022420971
 10
118.5316937807
 20
108.822518311
 10
118.5475957308
 20
108.8404642033
 10
118.5646422347
 20
108.8555701544
 10
118.5823492167
 20
108.8674071894
  0
LWPOLYLINE
  5
286
100
AcDbEntity
  8
RACCORDO
100
AcDbPolyline
 62
250
  6
CONTINUOUS
 90
10
 70
0
 10
129.7523448777
 20
102.7350837144
 10
129.7750429503
 20
102.7562840234
 10
129.801828107
 20
102.7785583652
 10
129.8319837168
 20
102.8013107948
 10
129.8647029732
 20
102.8239325757
 10
129.8991104794
 20
102.8458184672
 10
129.9342856702
 20
102.8663829172
 10
129.969287441
 20
102.8850757281
 10
130.0031793271
 20
102.9013967782
 10
130.0350545585
 20
102.9149094012
  0
LINE
  5
287
100
AcDbEntity
  8
0
100
AcDbLine
 62
7
  6
CONTINUOUS
 10
133.3319225944
 20
106.7055413504
 11
133.3092114775
 21
106.6845672532
  0
LINE
  5
288
100
AcDbEntity
  8
0
100
AcDbLine
 62
7
  6
CONTINUOUS
 10
134.8019225944
 20
106.7055413504
 11
134.8348530719
 21
106.7359531986
  0
LINE
  5
289
100
AcDbEntity
  8
RACCORDO
100
AcDbLine
 62
250
  6
CONTINUOUS
 10
132.1428533023
 20
107.2677463408
 11
132.1689994767
 21
107.2902062637
  0
LINE
  5
28A
100
AcDbEntity
  8
RACCORDO
100
AcDbLine
 62
7
  6
CONTINUOUS
 10
132.1161639203
 20
107.3283535821
 11
132.0788752056
 21
107.2997353891
  0
LWPOLYLINE
  5
28B
100
AcDbEntity
  8
RACCORDO
100
AcDbPolyline
 62
250
  6
CONTINUOUS
 90
9
 70
0
 10
132.1689994767
 20
107.2902062637
 10
132.2305619859
 20
107.3374481994
 10
132.296639585
 20
107.3829687986
 10
132.3672659293
 20
107.4267565986
 10
132.4424073636
 20
107.4688230621
 10
132.5215033861
 20
107.5088490739
 10
132.6045988678
 20
107.5468239702
 10
132.6916489377
 20
107.5827584148
 10
132.7819584817
 20
107.6163652841
  0
LINE
  5
28C
100
AcDbEntity
  8
SUPERFICI
100
AcDbLine
 62
7
  6
CONTINUOUS
 10
132.9684075181
 20
106.2693015707
 11
132.652709032
 21
106.0385988308
  0
LINE
  5
28D
100
AcDbEntity
  8
RACCORDO
100
AcDbLine
 62
7
  6
CONTINUOUS
 10
134.0148226296
 20
106.1079385887
 11
132.7498682182
 21
105.2168315305
  0
LINE
  5
28E
100
AcDbEntity
  8
0
100
AcDbLine
 62
250
  6
CONTINUOUS
 10
130.0350565729
 20
102.9149065038
 11
130.0645583178
 21
102.9339526343
  0
LINE
  5
28F
100
AcDbEntity
  8
0
100
AcDbLine
 62
250
  6
CONTINUOUS
 10
129.8148662487
 20
103.1093501132
 11
129.9389558623
 21
103.1891038666
  0
LINE
  5
290
100
AcDbEntity
  8
0
100
AcDbLine
 62
7
  6
CONTINUOUS
 10
138.8062525647
 20
105.1261805577
 11
138.5462831463
 21
104.969956969
  0
LINE
  5
291
100
AcDbEntity
  8
0
100
AcDbLine
 62
250
  6
CONTINUOUS
 10
134.0318363799
 20
101.562442263
 11
133.6304912625
 21
101.3433361664
  0
LINE
  5
292
100
AcDbEntity
  8
DRAFT
100
AcDbLine
 62
7
  6
CONTINUOUS
 10
129.0232525741
 20
102.2274240243
 11
129.4138106676
 21
102.4336033682
  0
LINE
  5
293
100
AcDbEntity
  8
DRAFT
100
AcDbLine
 62
7
  6
CONTINUOUS
 10
139.5231978019
 20
104.7559768008
 11
138.8062525647
 21
104.3811300204
  0
LINE
  5
294
100
AcDbEntity
  8
0
100
AcDbLine
 62
7
  6
CONTINUOUS
 10
143.0060413168
 20
107.3006848399
 11
138.8062525647
 21
105.1261805577
  0
LINE
  5
295
100
AcDbEntity
  8
ASSI
100
AcDbLine
 62
7
  6
CONTINUOUS
 10
139.7965103422
 20
104.8594786679
 11
143.0081822773
 21
106.5223704912
  0
LWPOLYLINE
  5
296
100
AcDbEntity
  8
SUPERFICI
100
AcDbPolyline
 62
7
  6
CONTINUOUS
 90
7
 70
0
 10
132.9498489041
 20
105.130933443
 10
132.6454850116
 20
104.9754363667
 10
132.3400773121
 20
104.8196207969
 10
132.0336248171
 20
104.6634831067
 10
131.7261211296
 20
104.5070183021
 10
131.4175710157
 20
104.3502238977
 10
131.10799015
 20
104.1931007239
  0
LINE
  5
297
100
AcDbEntity
  8
SUPERFICI
100
AcDbLine
 62
7
  6
CONTINUOUS
 10
131.10799015
 20
104.1931007239
 11
130.7973831178
 21
104.0356473816
  0
LINE
  5
298
100
AcDbEntity
  8
DRAFT
100
AcDbLine
 62
7
  6
CONTINUOUS
 10
139.8368008787
 20
104.9035006585
 11
139.5347508091
 21
104.7503984961
  0
LINE
  5
299
100
AcDbEntity
  8
SUPERFICI
100
AcDbLine
 62
7
  6
CONTINUOUS
 10
130.7973831178
 20
104.0356473816
 11
130.3698237625
 21
103.8192361348
  0
LINE
  5
29A
100
AcDbEntity
  8
SUPERFICI
100
AcDbLine
 62
7
  6
CONTINUOUS
 10
130.3698237625
 20
103.8192361348
 11
130.1730711018
 21
103.7197338821
  0
LINE
  5
29B
100
AcDbEntity
  8
0
100
AcDbLine
 62
7
  6
CONTINUOUS
 10
139.4126498601
 20
103.7851903441
 11
139.907624607
 21
104.0326777175
  0
LINE
  5
29C
100
AcDbEntity
  8
SMUSSO
100
AcDbLine
 62
7
  6
CONTINUOUS
 10
138.8949792921
 20
103.593790105
 11
139.0051418377
 21
103.64769394
  0
LINE
  5
29D
100
AcDbEntity
  8
RACCORDO
100
AcDbLine
 62
250
  6
CONTINUOUS
 10
134.2043548045
 20
103.3673666943
 11
136.8902981855
 21
104.6702008108
  0
LINE
  5
29E
100
AcDbEntity
  8
RACCORDO
100
AcDbLine
 62
250
  6
CONTINUOUS
 10
134.436307421
 20
103.1451543098
 11
137.1225759234
 21
104.4476474596
  0
LINE
  5
29F
100
AcDbEntity
  8
0
100
AcDbLine
 62
7
  6
CONTINUOUS
 10
142.3525076885
 20
107.6671938343
 11
138.4166181869
 21
105.7834007756
  0
LWPOLYLINE
  5
2A0
100
AcDbEntity
  8
RACCORDO
100
AcDbPolyline
 62
250
  6
CONTINUOUS
 90
19
 70
0
 10
128.1658556107
 20
98.3511824764
 10
128.1063159347
 20
98.3233301017
 10
128.0468973869
 20
98.2894923814
 10
127.9880105631
 20
98.2499066052
 10
127.9300579832
 20
98.2048507266
 10
127.8734447834
 20
98.1546393646
 10
127.8185755991
 20
98.0996226689
 10
127.7658297622
 20
98.0401859858
 10
127.7155712258
 20
97.9767459546
 10
127.6681587196
 20
97.9097471472
 10
127.6239252627
 20
97.8396681157
 10
127.5831680773
 20
97.7669906067
 10
127.5461622849
 20
97.6921939929
 10
127.5131597911
 20
97.6157810435
 10
127.4843998286
 20
97.5383017355
 10
127.4600965733
 20
97.4603220086
 10
127.4404200109
 20
97.3823946556
 10
127.4254998903
 20
97.3050546306
 10
127.4154376341
 20
97.2288407077
  0
LWPOLYLINE
  5
2A1
100
AcDbEntity
  8
RACCORDO
100
AcDbPolyline
 62
250
  6
CONTINUOUS
 90
9
 70
0
 10
136.8902981547
 20
104.6702008262
 10
136.9203821039
 20
104.6830261707
 10
136.9502092386
 20
104.6925916382
 10
136.979562472
 20
104.6988254782
 10
137.0082300272
 20
104.701680187
 10
137.0360005354
 20
104.701132127
 10
137.0626653145
 20
104.6971842694
 10
137.0880283906
 20
104.6898660255
 10
137.1077225575
 20
104.6813885092
  0
LINE
  5
2A2
100
AcDbEntity
  8
RACCORDO
100
AcDbLine
 62
250
  6
CONTINUOUS
 10
132.544299731
 20
100.1428290805
 11
128.1658556107
 21
98.3511824764
  0
LWPOLYLINE
  5
2A3
100
AcDbEntity
  8
RACCORDO
100
AcDbPolyline
 62
7
  6
CONTINUOUS
 90
8
 70
0
 10
139.8582776137
 20
104.1205862851
 10
139.7499236499
 20
104.0830768495
 10
139.6452139285
 20
104.0423631997
 10
139.5444678179
 20
103.9985020618
 10
139.4478877696
 20
103.951497448
 10
139.35587725
 20
103.901449694
 10
139.2689613007
 20
103.8485664514
 10
139.1872317322
 20
103.7928196761
  0
LWPOLYLINE
  5
2A4
100
AcDbEntity
  8
RACCORDO
100
AcDbPolyline
 62
250
  6
CONTINUOUS
 90
25
 70
0
 10
139.8530262935
 20
104.0808313781
 10
139.9466327883
 20
104.1120906587
 10
140.0434987572
 20
104.1410223638
 10
140.1428166559
 20
104.1673994098
 10
140.2445445346
 20
104.1911904006
 10
140.3487243432
 20
104.2124267322
 10
140.4546743871
 20
104.2309755097
 10
140.5623510594
 20
104.2468281849
 10
140.671797967
 20
104.2599933059
 10
140.782464236
 20
104.2703636216
 10
140.894550279
 20
104.2779323989
 10
141.0078556833
 20
104.2827063709
 10
141.1212283373
 20
104.2845984857
 10
141.2349130932
 20
104.2835202457
 10
141.3486650988
 20
104.2795601485
 10
141.4605976852
 20
104.2728966351
 10
141.5706687813
 20
104.2634028271
 10
141.6789204581
 20
104.2512056028
 10
141.7835922602
 20
104.2368640386
 10
141.8845343179
 20
104.2202597686
 10
141.9818965008
 20
104.2015111586
 10
142.0743679631
 20
104.1815323817
 10
142.1615117562
 20
104.1606281622
 10
142.2437648287
 20
104.1384937757
 10
142.3211271806
 20
104.1151292223
  0
LWPOLYLINE
  5
2A5
100
AcDbEntity
  8
ASSI
100
AcDbPolyline
 62
7
  6
CONTINUOUS
 90
14
 70
0
 10
139.7965103422
 20
104.8594786679
 10
140.1804240652
 20
104.9811318405
 10
140.5794590705
 20
105.0689193303
 10
140.9936153583
 20
105.122841137
 10
141.4349172703
 20
105.1429004948
 10
141.8913404648
 20
105.1290941696
 10
142.3268119159
 20
105.0814124597
 10
142.7390647226
 20
104.9969310136
 10
143.130365786
 20
104.8785741827
 10
143.4714427841
 20
104.7351053192
 10
143.7583805112
 20
104.5645668201
 10
143.9950941729
 20
104.3689162884
 10
144.1640570651
 20
104.1627898851
 10
144.2304723782
 20
104.0111490735
  0
LWPOLYLINE
  5
2A6
100
AcDbEntity
  8
RACCORDO
100
AcDbPolyline
 62
250
  6
CONTINUOUS
 90
10
 70
0
 10
132.9788943972
 20
67.4645443893
 10
133.0118555535
 20
67.4511338285
 10
133.0490516991
 20
67.4415132848
 10
133.089377377
 20
67.4359686777
 10
133.1316341216
 20
67.4346647911
 10
133.1745660763
 20
67.4376403759
 10
133.2168973178
 20
67.4448069992
 10
133.2573697757
 20
67.4559516713
 10
133.2947806219
 20
67.4707431763
 10
133.3280180185
 20
67.4887419154
  0
LINE
  5
2A7
100
AcDbEntity
  8
0
100
AcDbLine
 62
7
  6
CONTINUOUS
 10
118.1906012969
 20
108.5608588083
 11
118.1906012969
 21
107.3196782975
  0
LINE
  5
2A8
100
AcDbEntity
  8
0
100
AcDbLine
 62
250
  6
CONTINUOUS
 10
118.2345352797
 20
108.5078257997
 11
118.2345352797
 21
107.2977113061
  0
LWPOLYLINE
  5
2A9
100
AcDbEntity
  8
RACCORDO
100
AcDbPolyline
 62
250
  6
CONTINUOUS
 90
6
 70
0
 10
121.9652749582
 20
106.6781143576
 10
121.9707111452
 20
106.7137204786
 10
121.9802313295
 20
106.7499448355
 10
121.9936068348
 20
106.7859173092
 10
122.0105163792
 20
106.8207738301
 10
122.0305537913
 20
106.8536771337
  0
LWPOLYLINE
  5
2AA
100
AcDbEntity
  8
0
100
AcDbPolyline
 62
7
  6
CONTINUOUS
 90
3
 70
0
 10
131.1065690018
 20
108.1444783484
 10
131.0059453872
 20
107.9475759452
 10
130.9852206872
 20
107.8465626483
  0
LWPOLYLINE
  5
2AB
100
AcDbEntity
  8
RACCORDO
100
AcDbPolyline
 62
7
  6
CONTINUOUS
 90
5
 70
0
 10
128.821306605
 20
102.0043256435
 10
128.8583945386
 20
102.0765210502
 10
128.915819008
 20
102.1477690391
 10
128.9869532754
 20
102.2059743186
 10
129.0217177234
 20
102.2266047633
  0
LINE
  5
2AC
100
AcDbEntity
  8
RACCORDO
100
AcDbLine
 62
250
  6
CONTINUOUS
 10
139.1834794056
 20
103.706062589
 11
139.2400672886
 21
103.7546723578
  0
LWPOLYLINE
  5
2AD
100
AcDbEntity
  8
0
100
AcDbPolyline
 62
7
  6
CONTINUOUS
 90
3
 70
0
 10
138.5462831463
 20
104.969956969
 10
138.3352075383
 20
104.7962802398
 10
138.1776368137
 20
104.6089444424
  0
LWPOLYLINE
  5
2AE
100
AcDbEntity
  8
RACCORDO
100
AcDbPolyline
 62
7
  6
CONTINUOUS
 90
3
 70
0
 10
139.1872317322
 20
103.7928196761
 10
139.1110768334
 20
103.7343726203
 10
139.0412392237
 20
103.6737724956
  0
LWPOLYLINE
  5
2AF
100
AcDbEntity
  8
RACCORDO
100
AcDbPolyline
 62
250
  6
CONTINUOUS
 90
9
 70
0
 10
139.2400672886
 20
103.7546723578
 10
139.3016297977
 20
103.8019142935
 10
139.3677073969
 20
103.8474348927
 10
139.4383337412
 20
103.8912226926
 10
139.5134751754
 20
103.9332891561
 10
139.592571198
 20
103.9733151679
 10
139.6756666796
 20
104.0112900642
 10
139.7627167495
 20
104.0472245089
 10
139.8530262935
 20
104.0808313781
  0
LINE
  5
2B0
100
AcDbEntity
  8
0
100
AcDbLine
 62
250
  6
CONTINUOUS
 10
134.3851206459
 20
100.9525892364
 11
133.9875400707
 21
100.7355383141
  0
LINE
  5
2B1
100
AcDbEntity
  8
RACCORDO
100
AcDbLine
 62
250
  6
CONTINUOUS
 10
148.6235391525
 20
104.4489230851
 11
148.5232752166
 21
104.3946564972
  0
LINE
  5
2B2
100
AcDbEntity
  8
RACCORDO
100
AcDbLine
 62
250
  6
CONTINUOUS
 10
142.4119138463
 20
101.4418899484
 11
140.9910900745
 21
100.7104342381
  0
LWPOLYLINE
  5
2B3
100
AcDbEntity
  8
RACCORDO
100
AcDbPolyline
 62
250
  6
CONTINUOUS
 90
6
 70
0
 10
140.9910900745
 20
100.7104342381
 10
139.6333865266
 20
100.0127518891
 10
138.2446541689
 20
99.3004678623
 10
136.8562747859
 20
98.5897135624
 10
135.4682473532
 20
97.880493723
 10
134.3851206459
 20
97.3281259276
  0
LINE
  5
2B4
100
AcDbEntity
  8
RACCORDO
100
AcDbLine
 62
7
  6
CONTINUOUS
 10
142.3211271806
 20
104.1151292223
 11
141.1988141026
 21
103.5539726833
  0
LINE
  5
2B5
100
AcDbEntity
  8
RACCORDO
100
AcDbLine
 62
7
  6
CONTINUOUS
 10
140.3700599287
 20
103.1395955963
 11
140.175158856
 21
103.04214506
  0
LINE
  5
2B6
100
AcDbEntity
  8
RACCORDO
100
AcDbLine
 62
7
  6
CONTINUOUS
 10
143.028258038
 20
103.7615878698
 11
141.9059208838
 21
103.2004192927
  0
LINE
  5
2B7
100
AcDbEntity
  8
RACCORDO
100
AcDbLine
 62
250
  6
CONTINUOUS
 10
143.4129798013
 20
101.9411725874
 11
142.4118986608
 21
101.4418820599
  0
LINE
  5
2B8
100
AcDbEntity
  8
RACCORDO
100
AcDbLine
 62
250
  6
CONTINUOUS
 10
148.2320568639
 20
104.7274192466
 11
146.5281765094
 21
103.8960024548
  0
LINE
  5
2B9
100
AcDbEntity
  8
RACCORDO
100
AcDbLine
 62
250
  6
CONTINUOUS
 10
146.5281765094
 20
103.8960024548
 11
145.3952068323
 21
103.343534764
  0
LWPOLYLINE
  5
2BA
100
AcDbEntity
  8
RACCORDO
100
AcDbPolyline
 62
250
  6
CONTINUOUS
 90
3
 70
0
 10
145.3952068323
 20
103.343534764
 10
143.7001550067
 20
102.517561361
 10
143.1363107757
 20
102.2429649554
  0
LINE
  5
2BB
100
AcDbEntity
  8
RACCORDO
100
AcDbLine
 62
250
  6
CONTINUOUS
 10
143.1363107757
 20
102.2429649554
 11
142.1305101132
 21
101.7532107497
  0
LINE
  5
2BC
100
AcDbEntity
  8
RACCORDO
100
AcDbLine
 62
250
  6
CONTINUOUS
 10
148.5232829759
 20
104.3946389065
 11
147.3837016733
 21
103.8468307589
  0
LINE
  5
2BD
100
AcDbEntity
  8
RACCORDO
100
AcDbLine
 62
250
  6
CONTINUOUS
 10
147.3837016733
 20
103.8468307589
 11
146.2463906819
 21
103.3005008528
  0
LINE
  5
2BE
100
AcDbEntity
  8
RACCORDO
100
AcDbLine
 62
250
  6
CONTINUOUS
 10
146.2463906819
 20
103.3005008528
 11
144.5446606395
 21
102.4837845573
  0
LINE
  5
2BF
100
AcDbEntity
  8
RACCORDO
100
AcDbLine
 62
250
  6
CONTINUOUS
 10
144.5446606395
 20
102.4837845573
 11
143.4129798013
 21
101.9411725874
  0
LINE
  5
2C0
100
AcDbEntity
  8
0
100
AcDbLine
 62
7
  6
CONTINUOUS
 10
147.0068816507
 20
105.3400068533
 11
143.0710130793
 21
103.4562033294
  0
LWPOLYLINE
  5
2C1
100
AcDbEntity
  8
RACCORDO
100
AcDbPolyline
 62
250
  6
CONTINUOUS
 90
19
 70
0
 10
128.4916243578
 20
97.7290209073
 10
128.4613959831
 20
97.7150864566
 10
128.4315986435
 20
97.6984034595
 10
128.4022323391
 20
97.678971916
 10
128.3730850974
 20
97.6566121232
 10
128.3443688909
 20
97.6315037841
 10
128.3167196365
 20
97.6041860074
 10
128.2901730372
 20
97.5746186802
 10
128.26469339
 20
97.5428419156
 10
128.2408095027
 20
97.5095151614
 10
128.2185572877
 20
97.4746107886
 10
128.1979008326
 20
97.4381564262
 10
128.1792612083
 20
97.4008944094
 10
128.1626752863
 20
97.3627942244
 10
128.1481061951
 20
97.323886385
 10
128.1358643913
 20
97.285004768
 10
128.1260533603
 20
97.2464273322
 10
128.1185696166
 20
97.2078761187
 10
128.1134131603
 20
97.1693511275
  0
LINE
  5
2C2
100
AcDbEntity
  8
0
100
AcDbLine
 62
250
  6
CONTINUOUS
 10
133.9875400707
 20
95.7650362129
 11
133.3280180185
 21
95.4640881139
  0
LINE
  5
2C3
100
AcDbEntity
  8
0
100
AcDbLine
 62
250
  6
CONTINUOUS
 10
133.5760096418
 20
96.9449656249
 11
133.1208499433
 21
96.738863198
  0
LWPOLYLINE
  5
2C4
100
AcDbEntity
  8
RACCORDO
100
AcDbPolyline
 62
7
  6
CONTINUOUS
 90
11
 70
0
 10
143.0276970644
 20
103.761307383
 10
143.0397006799
 20
103.76672945
 10
143.0515228933
 20
103.7708877279
 10
143.0631637046
 20
103.7737822167
 10
143.0747421811
 20
103.7754165369
 10
143.0861392555
 20
103.775787068
 10
143.0969977259
 20
103.7748829482
 10
143.1072408793
 20
103.7726718361
 10
143.1169454288
 20
103.7691860732
 10
143.1259843116
 20
103.7645118226
 10
143.1332869721
 20
103.7594904561
  0
LWPOLYLINE
  5
2C5
100
AcDbEntity
  8
RACCORDO
100
AcDbPolyline
 62
250
  6
CONTINUOUS
 90
10
 70
0
 10
132.8068807241
 20
96.612233791
 10
132.8344725472
 20
96.6246613744
 10
132.8661350197
 20
96.6384355705
 10
132.900996482
 20
96.6531771792
 10
132.9380972071
 20
96.6684803678
 10
132.9764158217
 20
96.6839238435
 10
133.0148974242
 20
96.6990824514
 10
133.052482626
 20
96.713538879
 10
133.0881367165
 20
96.7268951445
 10
133.1208781476
 20
96.7387835535
  0
LINE
  5
2C6
100
AcDbEntity
  8
RACCORDO
100
AcDbLine
 62
250
  6
CONTINUOUS
 10
132.866934743
 20
99.519385196
 11
128.4916243578
 21
97.7290209073
  0
LWPOLYLINE
  5
2C7
100
AcDbEntity
  8
RACCORDO
100
AcDbPolyline
 62
250
  6
CONTINUOUS
 90
16
 70
0
 10
128.1134131603
 20
97.1693511275
 10
128.0746759189
 20
97.1582610091
 10
128.0326320132
 20
97.1492093774
 10
127.9877319232
 20
97.1422932161
 10
127.9404567316
 20
97.1375866285
 10
127.891312969
 20
97.1351400436
 10
127.8408271872
 20
97.1349796752
 10
127.7895403167
 20
97.1371072416
 10
127.7380018713
 20
97.1414999469
 10
127.6867640606
 20
97.1481107255
 10
127.6363758728
 20
97.1568687462
 10
127.5873771929
 20
97.1676801708
 10
127.5402930179
 20
97.1804291601
 10
127.4956278319
 20
97.1949791147
 10
127.4538602006
 20
97.2111741389
 10
127.415437644
 20
97.2288407111
  0
LWPOLYLINE
  5
2C8
100
AcDbEntity
  8
RACCORDO
100
AcDbPolyline
 62
250
  6
CONTINUOUS
 90
10
 70
0
 10
132.80688073
 20
66.7053392338
 10
132.8344738033
 20
66.6745667616
 10
132.8661353026
 20
66.6477832537
 10
132.9009938504
 20
66.6257258388
 10
132.9380900811
 20
66.609001576
 10
132.9764030436
 20
66.5980707456
 10
133.0148782994
 20
66.5932341823
 10
133.0524569442
 20
66.5946249969
 10
133.0881047502
 20
66.602204913
 10
133.1208406293
 20
66.6157653194
  0
LWPOLYLINE
  5
2C9
100
AcDbEntity
  8
SUPERFICI
100
AcDbPolyline
 62
7
  6
CONTINUOUS
 90
11
 70
0
 10
123.34971051
 20
107.578925825
 10
123.3537150018
 20
107.5303865686
 10
123.3537473723
 20
107.4844813819
 10
123.3498076215
 20
107.4412102649
 10
123.341715851
 20
107.4000565786
 10
123.3296519591
 20
107.361536962
 10
123.3141556413
 20
107.3272013321
 10
123.2952469985
 20
107.2973707681
 10
123.2729059297
 20
107.2717241908
 10
123.2476118278
 20
107.2508482795
 10
123.2242117542
 20
107.2372083089
  0
LWPOLYLINE
  5
2CA
100
AcDbEntity
  8
RACCORDO
100
AcDbPolyline
 62
250
  6
CONTINUOUS
 90
4
 70
0
 10
121.8338898686
 20
105.4858778982
 10
121.8323243039
 20
105.5276440734
 10
121.8273575433
 20
105.5725684672
 10
121.8186006815
 20
105.6203628938
  0
LINE
  5
2CB
100
AcDbEntity
  8
RACCORDO
100
AcDbLine
 62
7
  6
CONTINUOUS
 10
124.0473466005
 20
106.4946466241
 11
124.0473466005
 21
106.6412896931
  0
LWPOLYLINE
  5
2CC
100
AcDbEntity
  8
RACCORDO
100
AcDbPolyline
 62
250
  6
CONTINUOUS
 90
19
 70
0
 10
125.5544135667
 20
60.0666771979
 10
125.554389446
 20
60.0300895292
 10
125.5568133182
 20
59.9952781815
 10
125.5616851832
 20
59.9622431549
 10
125.5690746922
 20
59.9307718448
 10
125.5789121941
 20
59.9010768557
 10
125.590988736
 20
59.873796001
 10
125.6053474824
 20
59.8489900059
 10
125.6219452688
 20
59.8265981451
 10
125.6404436495
 20
59.8070760561
 10
125.6608843697
 20
59.7904806818
 10
125.6832256842
 20
59.7767550792
 10
125.7070039111
 20
59.7661840575
 10
125.7322623434
 20
59.7588375483
 10
125.7589576881
 20
59.75464562
 10
125.7864963849
 20
59.7536832859
 10
125.8146805803
 20
59.7559755505
 10
125.8437081277
 20
59.7614974094
 10
125.8735790272
 20
59.7702488626
  0
LWPOLYLINE
  5
2CD
100
AcDbEntity
  8
RACCORDO
100
AcDbPolyline
 62
250
  6
CONTINUOUS
 90
13
 70
0
 10
124.8538764794
 20
60.0890269643
 10
124.853687738
 20
60.0166127188
 10
124.8584625815
 20
59.9468574072
 10
124.8681703274
 20
59.8802479063
 10
124.8827496565
 20
59.8172414207
 10
124.9020996825
 20
59.7582870201
 10
124.9260751126
 20
59.7038174938
 10
124.9545012848
 20
59.6542190699
 10
124.9871836282
 20
59.6098202708
 10
125.0239004811
 20
59.5709168271
 10
125.0644062811
 20
59.5377760048
 10
125.1084173991
 20
59.5106353551
 10
125.1148750712
 20
59.5073090289
  0
LWPOLYLINE
  5
2CE
100
AcDbEntity
  8
RACCORDO
100
AcDbPolyline
 62
250
  6
CONTINUOUS
 90
3
 70
0
 10
125.2088666895
 20
68.259442105
 10
125.0160410622
 20
64.1678470698
 10
124.8538764794
 20
60.0890269643
  0
LWPOLYLINE
  5
2CF
100
AcDbEntity
  8
RACCORDO
100
AcDbPolyline
 62
250
  6
CONTINUOUS
 90
4
 70
0
 10
139.0440230495
 20
103.5523797866
 10
139.085294913
 20
103.6047134611
 10
139.1318998462
 20
103.6560719416
 10
139.1834794056
 20
103.706062589
  0
LINE
  5
2D0
100
AcDbEntity
  8
RACCORDO
100
AcDbLine
 62
7
  6
CONTINUOUS
 10
138.977783774
 20
103.6111227076
 11
138.920805214
 21
103.5465535413
  0
LINE
  5
2D1
100
AcDbEntity
  8
RACCORDO
100
AcDbLine
 62
7
  6
CONTINUOUS
 10
139.0412392237
 20
103.6737724956
 11
138.977783774
 21
103.6111227076
  0
LINE
  5
2D2
100
AcDbEntity
  8
0
100
AcDbLine
 62
7
  6
CONTINUOUS
 10
140.4029904062
 20
103.1700074445
 11
140.3700599287
 21
103.1395955963
  0
LINE
  5
2D3
100
AcDbEntity
  8
0
100
AcDbLine
 62
7
  6
CONTINUOUS
 10
141.8729904062
 20
103.1700074445
 11
141.9059208838
 21
103.2004192927
  0
LINE
  5
2D4
100
AcDbEntity
  8
RACCORDO
100
AcDbLine
 62
250
  6
CONTINUOUS
 10
148.9131320579
 20
99.9069428113
 11
149.8509675447
 21
100.3925213492
  0
LINE
  5
2D5
100
AcDbEntity
  8
RACCORDO
100
AcDbLine
 62
250
  6
CONTINUOUS
 10
148.772801958
 20
103.2873191418
 11
134.3851206459
 21
95.9468654233
  0
LWPOLYLINE
  5
2D6
100
AcDbEntity
  8
RACCORDO
100
AcDbPolyline
 62
250
  6
CONTINUOUS
 90
5
 70
0
 10
152.2405054406
 20
98.2707903038
 10
152.2990636271
 20
98.2928165766
 10
152.3564787251
 20
98.3021815151
 10
152.4110296784
 20
98.2981637062
 10
152.4571876187
 20
98.2823469842
  0
LINE
  5
2D7
100
AcDbEntity
  8
RACCORDO
100
AcDbLine
 62
7
  6
CONTINUOUS
 10
130.9683011417
 20
71.9912903896
 11
131.4616875091
 21
67.3925449771
  0
LWPOLYLINE
  5
2D8
100
AcDbEntity
  8
RACCORDO
100
AcDbPolyline
 62
250
  6
CONTINUOUS
 90
4
 70
0
 10
129.6120644616
 20
101.5967906017
 10
129.6104988969
 20
101.6385567769
 10
129.6055321364
 20
101.6834811707
 10
129.5967752746
 20
101.7312755973
  0
LINE
  5
2D9
100
AcDbEntity
  8
SUPERFICI
100
AcDbLine
 62
7
  6
CONTINUOUS
 10
126.9251441044
 20
108.836377351
 11
126.9251441044
 21
107.8833596863
  0
LINE
  5
2DA
100
AcDbEntity
  8
RACCORDO
100
AcDbLine
 62
7
  6
CONTINUOUS
 10
126.9251441044
 20
107.8833596863
 11
126.9251441044
 21
107.7279301224
  0
LINE
  5
2DB
100
AcDbEntity
  8
SUPERFICI
100
AcDbLine
 62
7
  6
CONTINUOUS
 10
128.2686469886
 20
108.2306298525
 11
128.2686469886
 21
107.3404180013
  0
LINE
  5
2DC
100
AcDbEntity
  8
RACCORDO
100
AcDbLine
 62
7
  6
CONTINUOUS
 10
128.9544134708
 20
104.1877562579
 11
128.9544134708
 21
104.1011537175
  0
LWPOLYLINE
  5
2DD
100
AcDbEntity
  8
RACCORDO
100
AcDbPolyline
 62
250
  6
CONTINUOUS
 90
16
 70
0
 10
128.4916243578
 20
97.7290209073
 10
128.4919615795
 20
97.7763013811
 10
128.4884918442
 20
97.8250261034
 10
128.4812530923
 20
97.8746615879
 10
128.4703245326
 20
97.9246643682
 10
128.4558257792
 20
97.9744869351
 10
128.4379155459
 20
98.0235837314
 10
128.4167898997
 20
98.0714171556
 10
128.392680125
 20
98.1174634152
 10
128.3658502045
 20
98.1612182537
 10
128.3365938943
 20
98.2022025348
 10
128.3052315313
 20
98.2399674415
 10
128.2721065519
 20
98.274099374
 10
128.237581681
 20
98.304224543
 10
128.2020349534
 20
98.330013052
 10
128.1658556096
 20
98.351182476
  0
LWPOLYLINE
  5
2DE
100
AcDbEntity
  8
RACCORDO
100
AcDbPolyline
 62
250
  6
CONTINUOUS
 90
3
 70
0
 10
125.9090706966
 20
68.2293783914
 10
125.7164451946
 20
64.1419937609
 10
125.5544135667
 20
60.0666771979
  0
LWPOLYLINE
  5
2DF
100
AcDbEntity
  8
RACCORDO
100
AcDbPolyline
 62
250
  6
CONTINUOUS
 90
3
 70
0
 10
126.3861279355
 20
76.4407083577
 10
126.1322900729
 20
72.3288310895
 10
125.9090706966
 20
68.2293783914
  0
LWPOLYLINE
  5
2E0
100
AcDbEntity
  8
RACCORDO
100
AcDbPolyline
 62
250
  6
CONTINUOUS
 90
4
 70
0
 10
125.9711310158
 20
80.6073792789
 10
125.6864321186
 20
76.4795590234
 10
125.432336765
 20
72.363462866
 10
125.2088666895
 20
68.259442105
  0
LINE
  5
2E1
100
AcDbEntity
  8
RACCORDO
100
AcDbLine
 62
250
  6
CONTINUOUS
 10
126.6705596724
 20
80.5646536934
 11
126.3861279355
 21
76.4407083577
  0
LINE
  5
2E2
100
AcDbEntity
  8
RACCORDO
100
AcDbLine
 62
250
  6
CONTINUOUS
 10
126.2864091628
 20
84.7465713965
 11
125.9711310158
 21
80.6073792789
  0
LINE
  5
2E3
100
AcDbEntity
  8
RACCORDO
100
AcDbLine
 62
250
  6
CONTINUOUS
 10
126.9855114469
 20
84.699597589
 11
126.6705596724
 21
80.5646536934
  0
LINE
  5
2E4
100
AcDbEntity
  8
RACCORDO
100
AcDbLine
 62
250
  6
CONTINUOUS
 10
126.6322396964
 20
88.896782063
 11
126.2864091628
 21
84.7465713965
  0
LINE
  5
2E5
100
AcDbEntity
  8
RACCORDO
100
AcDbLine
 62
250
  6
CONTINUOUS
 10
127.330958647
 20
88.845183542
 11
126.9855114469
 21
84.699597589
  0
LINE
  5
2E6
100
AcDbEntity
  8
RACCORDO
100
AcDbLine
 62
250
  6
CONTINUOUS
 10
127.7069258848
 20
93.0017680548
 11
127.330958647
 21
88.845183542
  0
LWPOLYLINE
  5
2E7
100
AcDbEntity
  8
RACCORDO
100
AcDbPolyline
 62
250
  6
CONTINUOUS
 90
3
 70
0
 10
127.4154376341
 20
97.2288407077
 10
127.0085931837
 20
93.0576569172
 10
126.6322396964
 20
88.896782063
  0
LINE
  5
2E8
100
AcDbEntity
  8
RACCORDO
100
AcDbLine
 62
250
  6
CONTINUOUS
 10
128.1134131603
 20
97.1693511275
 11
127.7069258848
 21
93.0017680548
  0
LWPOLYLINE
  5
2E9
100
AcDbEntity
  8
RACCORDO
100
AcDbPolyline
 62
250
  6
CONTINUOUS
 90
11
 70
0
 10
125.8735790272
 20
59.7702488626
 10
125.8674783454
 20
59.7241889689
 10
125.857641008
 20
59.6805952476
 10
125.8441747323
 20
59.6399450432
 10
125.8272269718
 20
59.602683469
 10
125.8069833019
 20
59.5692185334
 10
125.7836653876
 20
59.5399166721
 10
125.7575285563
 20
59.515098736
 10
125.7288590024
 20
59.4950364776
 10
125.6979706528
 20
59.4799495754
 10
125.6895510252
 20
59.4768406236
  0
LWPOLYLINE
  5
2EA
100
AcDbEntity
  8
RACCORDO
100
AcDbPolyline
 62
250
  6
CONTINUOUS
 90
10
 70
0
 10
129.6486589975
 20
102.8364223379
 10
129.6540951871
 20
102.8720284758
 10
129.6636153765
 20
102.9082528455
 10
129.6769908879
 20
102.9442253268
 10
129.6939004374
 20
102.9790818499
 10
129.7139378527
 20
103.0119851505
 10
129.7366218288
 20
103.0421448816
 10
129.76140749
 20
103.0688365972
 10
129.7876994771
 20
103.0914191544
 10
129.8148662487
 20
103.1093501132
  0
LWPOLYLINE
  5
2EB
100
AcDbEntity
  8
0
100
AcDbPolyline
 62
7
  6
CONTINUOUS
 90
4
 70
0
 10
138.1776368137
 20
104.6089444424
 10
138.0770131991
 20
104.4120420393
 10
138.0355348777
 20
104.2098744813
 10
138.0344370156
 20
104.1710252983
  0
LINE
  5
2EC
100
AcDbEntity
  8
RACCORDO
100
AcDbLine
 62
250
  6
CONTINUOUS
 10
139.020232784
 20
103.5170454266
 11
139.0440230495
 21
103.5523797866
  0
LINE
  5
2ED
100
AcDbEntity
  8
RACCORDO
100
AcDbLine
 62
7
  6
CONTINUOUS
 10
148.9131320579
 20
96.782394063
 11
149.8509675447
 21
97.2475673783
  0
LINE
  5
2EE
100
AcDbEntity
  8
RACCORDO
100
AcDbLine
 62
250
  6
CONTINUOUS
 10
148.9131320579
 20
96.6203885762
 11
152.2405054406
 21
98.2707903038
  0
LINE
  5
2EF
100
AcDbEntity
  8
RACCORDO
100
AcDbLine
 62
250
  6
CONTINUOUS
 10
148.772801958
 20
95.7657489096
 11
152.5940049833
 21
97.6610937805
  0
LWPOLYLINE
  5
2F0
100
AcDbEntity
  8
RACCORDO
100
AcDbPolyline
 62
250
  6
CONTINUOUS
 90
10
 70
0
 10
131.5655653889
 20
80.6378720752
 10
131.5985265661
 20
80.6244615075
 10
131.635722732
 20
80.6148409627
 10
131.6760484265
 20
80.6092963591
 10
131.7183051825
 20
80.6079924789
 10
131.7612371414
 20
80.6109680715
 10
131.8035683764
 20
80.6181347009
 10
131.8440408172
 20
80.6292793747
 10
131.8814516397
 20
80.6440708748
 10
131.9146890101
 20
80.6620696013
  0
LWPOLYLINE
  5
2F1
100
AcDbEntity
  8
RACCORDO
100
AcDbPolyline
 62
250
  6
CONTINUOUS
 90
10
 70
0
 10
131.5655653889
 20
80.9544979172
 10
131.5985265452
 20
80.9401461634
 10
131.6357226909
 20
80.9280440631
 10
131.6760483689
 20
80.9185512866
 10
131.7183051135
 20
80.9119499562
 10
131.7612370682
 20
80.9084362611
 10
131.8035683097
 20
80.9081146272
 10
131.8440407675
 20
80.9109946134
 10
131.8814516136
 20
80.9169906273
 10
131.9146890101
 20
80.9259244696
  0
LWPOLYLINE
  5
2F2
100
AcDbEntity
  8
RACCORDO
100
AcDbPolyline
 62
250
  6
CONTINUOUS
 90
9
 70
0
 10
121.8525691551
 20
106.6849715758
 10
121.8401346004
 20
106.7237382287
 10
121.8327270096
 20
106.7631087628
 10
121.8305445654
 20
106.802029859
 10
121.8336456569
 20
106.8394602224
 10
121.8419473175
 20
106.8743984413
 10
121.8552274446
 20
106.9059097787
 10
121.8731307417
 20
106.9331511805
 10
121.8951782242
 20
106.9553938303
  0
LWPOLYLINE
  5
2F3
100
AcDbEntity
  8
RACCORDO
100
AcDbPolyline
 62
250
  6
CONTINUOUS
 90
16
 70
0
 10
121.8186006815
 20
105.6203628938
 10
121.8057245904
 20
105.6705294013
 10
121.7884118517
 20
105.7226172833
 10
121.7663090382
 20
105.7762087711
 10
121.7391314555
 20
105.8306065719
 10
121.706855366
 20
105.8846300731
 10
121.6696794314
 20
105.9369187863
 10
121.6276714501
 20
105.9864032255
 10
121.5814535267
 20
106.0314247481
 10
121.5324866126
 20
106.0699461731
 10
121.4817249105
 20
106.1008475139
 10
121.4301106749
 20
106.1231891136
 10
121.3793494706
 20
106.1360158027
 10
121.3306622665
 20
106.1390133911
 10
121.2849102091
 20
106.1321229309
 10
121.2450778563
 20
106.116511255
  0
LINE
  5
2F4
100
AcDbEntity
  8
RACCORDO
100
AcDbLine
 62
250
  6
CONTINUOUS
 10
132.9788943972
 20
67.4645443893
 11
131.5655653889
 21
80.6378720752
  0
LINE
  5
2F5
100
AcDbEntity
  8
RACCORDO
100
AcDbLine
 62
250
  6
CONTINUOUS
 10
133.3280180185
 20
67.4887419154
 11
131.9146890101
 21
80.6620696013
  0
LWPOLYLINE
  5
2F6
100
AcDbEntity
  8
RACCORDO
100
AcDbPolyline
 62
250
  6
CONTINUOUS
 90
10
 70
0
 10
131.9146890101
 20
80.6620696013
 10
131.9120393965
 20
80.6901020119
 10
131.9100523963
 20
80.7184612605
 10
131.9087280096
 20
80.7471473473
 10
131.9080665165
 20
80.7761677905
 10
131.9080676369
 20
80.8055150717
 10
131.9087305304
 20
80.8351666358
 10
131.9100549171
 20
80.8651149643
 10
131.912041077
 20
80.8953675755
 10
131.9146890101
 20
80.9259244696
  0
LWPOLYLINE
  5
2F7
100
AcDbEntity
  8
SUPERFICI
100
AcDbPolyline
 62
7
  6
CONTINUOUS
 90
19
 70
0
 10
132.4759323452
 20
105.7749443361
 10
132.4781308352
 20
105.726953003
 10
132.4841108353
 20
105.6786006818
 10
132.4938723453
 20
105.6298873726
 10
132.5076140388
 20
105.5802497993
 10
132.5251372424
 20
105.5302512379
 10
132.5458459355
 20
105.4815815169
 10
132.5698419986
 20
105.4342987751
 10
132.5970235513
 20
105.3883448735
 10
132.6264889316
 20
105.3452352235
 10
132.6583140186
 20
105.3050607419
 10
132.6924229332
 20
105.2677305117
 10
132.7276863757
 20
105.2344871937
 10
132.7641503059
 20
105.2054636863
 10
132.8017687639
 20
105.180527091
 10
132.8392745707
 20
105.1605213725
 10
132.8762453331
 20
105.1457278525
 10
132.9131034443
 20
105.1358652093
 10
132.9498489041
 20
105.130933443
  0
LWPOLYLINE
  5
2F8
100
AcDbEntity
  8
0
100
AcDbPolyline
 62
250
  6
CONTINUOUS
 90
11
 70
0
 10
133.9875400707
 20
100.7355383141
 10
133.986848179
 20
100.7568226385
 10
133.9852371692
 20
100.7792640652
 10
133.9826203528
 20
100.8028453462
 10
133.9789222916
 20
100.8275038666
 10
133.9740512091
 20
100.8532296426
 10
133.9678855449
 20
100.8800674605
 10
133.9603498514
 20
100.9079025591
 10
133.9513474106
 20
100.9366878377
 10
133.9406897967
 20
100.9665435675
 10
133.9280700696
 20
100.9978134953
  0
LWPOLYLINE
  5
2F9
100
AcDbEntity
  8
0
100
AcDbPolyline
 62
250
  6
CONTINUOUS
 90
25
 70
0
 10
133.7772752979
 20
100.7364557906
 10
133.7770843247
 20
100.7514952652
 10
133.7761309989
 20
100.7673064821
 10
133.7744153207
 20
100.7838894415
 10
133.7720069439
 20
100.8012618598
 10
133.7688362146
 20
100.8194060206
 10
133.7646941711
 20
100.8382687737
 10
133.759598513
 20
100.857860559
 10
133.7535315408
 20
100.8781709367
 10
133.7462311944
 20
100.8991154376
 10
133.7374911861
 20
100.9210589627
 10
133.7275178035
 20
100.943636611
 10
133.7166678501
 20
100.9656692104
 10
133.7049653071
 20
100.9868918397
 10
133.6923861933
 20
101.00756942
 10
133.6792153687
 20
101.0273175432
 10
133.6655866771
 20
101.0459735794
 10
133.6513662748
 20
101.0637001584
 10
133.6364374911
 20
101.0806007614
 10
133.6208273291
 20
101.0967659169
 10
133.6045087857
 20
101.1121050965
 10
133.5872841803
 20
101.1264501959
 10
133.5690876194
 20
101.1397451805
 10
133.5499849966
 20
101.1520460849
 10
133.5299763118
 20
101.1633529092
  0
LINE
  5
2FA
100
AcDbEntity
  8
0
100
AcDbLine
 62
250
  6
CONTINUOUS
 10
131.7351847528
 20
108.6617144637
 11
131.7351847528
 21
107.9166639263
  0
LINE
  5
2FB
100
AcDbEntity
  8
DRAFT
100
AcDbLine
 62
250
  6
CONTINUOUS
 10
132.4405769976
 20
108.2970911373
 11
132.4405769976
 21
107.5180613139
  0
LINE
  5
2FC
100
AcDbEntity
  8
SUPERFICI
100
AcDbLine
 62
7
  6
CONTINUOUS
 10
132.652709032
 20
106.0385988308
 11
132.652709032
 21
105.3121362114
  0
LINE
  5
2FD
100
AcDbEntity
  8
0
100
AcDbLine
 62
7
  6
CONTINUOUS
 10
133.3319225944
 20
106.7055413504
 11
133.3319225944
 21
106.6732116948
  0
LINE
  5
2FE
100
AcDbEntity
  8
0
100
AcDbLine
 62
7
  6
CONTINUOUS
 10
133.5435257352
 20
107.2147271534
 11
133.5435257352
 21
106.5674101243
  0
LINE
  5
2FF
100
AcDbEntity
  8
0
100
AcDbLine
 62
250
  6
CONTINUOUS
 10
133.7772752979
 20
67.1700049514
 11
133.7772752979
 21
62.8551022342
  0
LINE
  5
300
100
AcDbEntity
  8
0
100
AcDbLine
 62
250
  6
CONTINUOUS
 10
133.7772752979
 20
96.4215530734
 11
133.7772752979
 21
100.7364557906
  0
LINE
  5
301
100
AcDbEntity
  8
0
100
AcDbLine
 62
250
  6
CONTINUOUS
 10
133.9875400707
 20
67.824686859
 11
133.9875400707
 21
62.8541847577
  0
LINE
  5
302
100
AcDbEntity
  8
0
100
AcDbLine
 62
250
  6
CONTINUOUS
 10
133.9875400707
 20
95.7650362129
 11
133.9875400707
 21
100.7355383141
  0
LINE
  5
303
100
AcDbEntity
  8
0
100
AcDbLine
 62
7
  6
CONTINUOUS
 10
134.0669225944
 20
107.0730413504
 11
134.0669225944
 21
106.5564667681
  0
LINE
  5
304
100
AcDbEntity
  8
0
100
AcDbLine
 62
7
  6
CONTINUOUS
 10
134.1277462907
 20
107.0895065892
 11
134.1277462907
 21
106.5603645257
  0
LINE
  5
305
100
AcDbEntity
  8
0
100
AcDbLine
 62
7
  6
CONTINUOUS
 10
134.3851206459
 20
100.9525892364
 11
134.3851206459
 21
63.021072934
  0
LINE
  5
306
100
AcDbEntity
  8
SUPERFICI
100
AcDbLine
 62
7
  6
CONTINUOUS
 10
134.3851206459
 20
68.0267967471
 11
134.3851206459
 21
95.9468654233
  0
LWPOLYLINE
  5
307
100
AcDbEntity
  8
0
100
AcDbPolyline
 62
250
  6
CONTINUOUS
 90
21
 70
0
 10
133.7772752979
 20
62.8551022342
 10
133.7769985729
 20
62.8395055086
 10
133.7759769123
 20
62.8241450466
 10
133.774210316
 20
62.8090208484
 10
133.7717745701
 20
62.7941432581
 10
133.7685938886
 20
62.7795019314
 10
133.7644409132
 20
62.7650658359
 10
133.7593134769
 20
62.750684098
 10
133.7532137468
 20
62.7365075912
 10
133.7459208653
 20
62.7229579037
 10
133.7373453877
 20
62.7099626708
 10
133.7275767586
 20
62.697594257
 10
133.7166624543
 20
62.6864913446
 10
133.7044019903
 20
62.6767253354
 10
133.6909958511
 20
62.6682248276
 10
133.6770929658
 20
62.6614142969
 10
133.6629043139
 20
62.6564808597
 10
133.6482189159
 20
62.6532373997
 10
133.6330527634
 20
62.6515470441
 10
133.6174858413
 20
62.6512990669
 10
133.6014381647
 20
62.6526041941
  0
LWPOLYLINE
  5
308
100
AcDbEntity
  8
0
100
AcDbPolyline
 62
250
  6
CONTINUOUS
 90
3
 70
0
 10
133.9875400707
 20
62.8541847577
 10
133.9867858963
 20
62.831945549
 10
133.9850535256
 20
62.8098503687
  0
LWPOLYLINE
  5
309
100
AcDbEntity
  8
RACCORDO
100
AcDbPolyline
 62
250
  6
CONTINUOUS
 90
10
 70
0
 10
132.9788943972
 20
95.4926615614
 10
132.986277121
 20
95.6280782529
 10
132.9865451215
 20
95.7611803465
 10
132.9796983986
 20
95.8919678421
 10
132.9650824393
 20
96.0210278683
 10
132.9433517567
 20
96.1477732965
 10
132.9164698899
 20
96.2704427414
 10
132.8850913521
 20
96.3884490746
 10
132.8485616301
 20
96.5023794244
 10
132.806880724
 20
96.6122337909
  0
LWPOLYLINE
  5
30A
100
AcDbEntity
  8
RACCORDO
100
AcDbPolyline
 62
250
  6
CONTINUOUS
 90
10
 70
0
 10
133.3280180185
 20
95.4640881139
 10
133.3363453048
 20
95.6169711068
 10
133.3349060068
 20
95.7692829675
 10
133.3245552925
 20
95.9197700003
 10
133.3062161789
 20
96.0671072347
 10
133.280734706
 20
96.2105687368
 10
133.2487508255
 20
96.3500287675
 10
133.2109273671
 20
96.4850350519
 10
133.1680582519
 20
96.6147983822
 10
133.1208500617
 20
96.7388632516
  0
LWPOLYLINE
  5
30B
100
AcDbEntity
  8
0
100
AcDbPolyline
 62
250
  6
CONTINUOUS
 90
10
 70
0
 10
133.5299763118
 20
101.1633529092
 10
133.5314823086
 20
101.1859188218
 10
133.5359575328
 20
101.2093499193
 10
133.5432748999
 20
101.2329808204
 10
133.5532266159
 20
101.2561404704
 10
133.5655300787
 20
101.2781711965
 10
133.5798359025
 20
101.2984473844
 10
133.59573784
 20
101.3163932441
 10
133.6127843183
 20
101.3314991608
 10
133.6304912625
 20
101.3433361664
  0
LINE
  5
30C
100
AcDbEntity
  8
RACCORDO
100
AcDbLine
 62
7
  6
CONTINUOUS
 10
132.866934743
 20
99.519385196
 11
130.2292314687
 21
61.2755946319
  0
LINE
  5
30D
100
AcDbEntity
  8
RACCORDO
100
AcDbLine
 62
250
  6
CONTINUOUS
 10
131.6376221759
 20
81.695707752
 11
132.9788943972
 21
95.4926615614
  0
LINE
  5
30E
100
AcDbEntity
  8
RACCORDO
100
AcDbLine
 62
250
  6
CONTINUOUS
 10
131.9146890101
 20
80.9259244696
 11
133.3280180185
 21
95.4640881139
  0
LINE
  5
30F
100
AcDbEntity
  8
RACCORDO
100
AcDbLine
 62
250
  6
CONTINUOUS
 10
137.136104502
 20
104.4879048926
 11
137.1224938757
 21
104.4476077581
  0
LWPOLYLINE
  5
310
100
AcDbEntity
  8
RACCORDO
100
AcDbPolyline
 62
250
  6
CONTINUOUS
 90
16
 70
0
 10
129.5967752746
 20
101.7312755973
 10
129.5838991835
 20
101.7814421047
 10
129.5665864448
 20
101.8335299868
 10
129.5444836313
 20
101.8871214745
 10
129.5173060485
 20
101.9415192753
 10
129.485029959
 20
101.9955427765
 10
129.4478540245
 20
102.0478314898
 10
129.4058460432
 20
102.097315929
 10
129.3596281198
 20
102.1423374516
 10
129.3106612057
 20
102.1808588766
 10
129.2598995035
 20
102.2117602174
 10
129.208285268
 20
102.234101817
 10
129.1575240636
 20
102.2469285062
 10
129.1088368596
 20
102.2499260946
 10
129.0630848022
 20
102.2430356344
 10
129.0232524494
 20
102.2274239585
  0
LINE
  5
311
100
AcDbEntity
  8
RACCORDO
100
AcDbLine
 62
7
  6
CONTINUOUS
 10
135.4338321378
 20
107.0354427316
 11
135.3937761097
 21
107.5644122354
  0
LINE
  5
312
100
AcDbEntity
  8
0
100
AcDbLine
 62
7
  6
CONTINUOUS
 10
134.8019225944
 20
106.7055413504
 11
134.8019225944
 21
106.6319839308
  0
LINE
  5
313
100
AcDbEntity
  8
RACCORDO
100
AcDbLine
 62
7
  6
CONTINUOUS
 10
135.9371144654
 20
110.7893267271
 11
135.9371144654
 21
110.0579043972
  0
LINE
  5
314
100
AcDbEntity
  8
0
100
AcDbLine
 62
250
  6
CONTINUOUS
 10
138.8062525647
 20
105.1261805577
 11
138.8062525647
 21
104.3811300204
  0
LWPOLYLINE
  5
315
100
AcDbEntity
  8
0
100
AcDbPolyline
 62
250
  6
CONTINUOUS
 90
13
 70
0
 10
133.9850535256
 20
62.8098503687
 10
133.982299112
 20
62.7879922026
 10
133.9785182651
 20
62.7666309158
 10
133.9736512849
 20
62.7456959075
 10
133.9675083264
 20
62.7248490371
 10
133.9599439613
 20
62.7041490458
 10
133.9508971659
 20
62.6839289025
 10
133.940236129
 20
62.6643527512
 10
133.9278019558
 20
62.6455631539
 10
133.9135780674
 20
62.6279387471
 10
133.8977099074
 20
62.6119518755
 10
133.8800630865
 20
62.5977005117
 10
133.8607853016
 20
62.5855193883
  0
LWPOLYLINE
  5
316
100
AcDbEntity
  8
RACCORDO
100
AcDbPolyline
 62
250
  6
CONTINUOUS
 90
10
 70
0
 10
141.7603212912
 20
101.5453831509
 10
141.7748078372
 20
101.59435344
 10
141.7849618916
 20
101.640534691
 10
141.7906339517
 20
101.6832469398
 10
141.7917405073
 20
101.7218612929
 10
141.7882652718
 20
101.7558092109
 10
141.780259412
 20
101.78459087
 10
141.7678407979
 20
101.8077824914
 10
141.7511922768
 20
101.8250425917
 10
141.7456077679
 20
101.8288991548
  0
LWPOLYLINE
  5
317
100
AcDbEntity
  8
RACCORDO
100
AcDbPolyline
 62
250
  6
CONTINUOUS
 90
9
 70
0
 10
112.657733016
 20
104.6076930217
 10
112.6230603991
 20
104.6265740357
 10
112.5925160362
 20
104.6465350081
 10
112.5664271955
 20
104.6673620668
 10
112.545073406
 20
104.68883206
 10
112.5286834634
 20
104.710714947
 10
112.5174329779
 20
104.7327762635
 10
112.511442493
 20
104.7547796331
 10
112.5108193909
 20
104.7769399468
  0
LWPOLYLINE
  5
318
100
AcDbEntity
  8
RACCORDO
100
AcDbPolyline
 62
250
  6
CONTINUOUS
 90
4
 70
0
 10
130.7215943625
 20
101.0541817647
 10
130.5118215147
 20
101.4375179855
 10
130.1377244419
 20
102.0910408049
 10
129.7523448777
 20
102.7350837144
  0
LWPOLYLINE
  5
319
100
AcDbEntity
  8
0
100
AcDbPolyline
 62
7
  6
CONTINUOUS
 90
4
 70
0
 10
132.7945125298
 20
98.4693429188
 10
132.8775181103
 20
98.3160920275
 10
133.232218779
 20
97.6340444145
 10
133.5760096418
 20
96.9449656249
  0
LWPOLYLINE
  5
31A
100
AcDbEntity
  8
RACCORDO
100
AcDbPolyline
 62
250
  6
CONTINUOUS
 90
5
 70
0
 10
131.2441901497
 20
100.7928838711
 10
131.1686668959
 20
100.9371366434
 10
130.8017689064
 20
101.6065533399
 10
130.4237895496
 20
102.2659698334
 10
130.0350565729
 20
102.9149065038
  0
LWPOLYLINE
  5
31B
100
AcDbEntity
  8
0
100
AcDbPolyline
 62
7
  6
CONTINUOUS
 90
4
 70
0
 10
130.0645583063
 20
102.9339526549
 10
130.0485689376
 20
102.9652256131
 10
130.0336053074
 20
102.9964924444
 10
130.0055387852
 20
103.0573555133
  0
LWPOLYLINE
  5
31C
100
AcDbEntity
  8
0
100
AcDbPolyline
 62
7
  6
CONTINUOUS
 90
6
 70
0
 10
130.0055387852
 20
103.0573555133
 10
129.9918508082
 20
103.0863317679
 10
129.978532138
 20
103.1142478532
 10
129.9655194482
 20
103.1408801286
 10
129.9524137948
 20
103.1659031805
 10
129.9389558623
 20
103.1891038666
  0
LWPOLYLINE
  5
31D
100
AcDbEntity
  8
0
100
AcDbPolyline
 62
7
  6
CONTINUOUS
 90
7
 70
0
 10
133.5760096418
 20
96.9449656249
 10
133.6171323385
 20
96.8571641496
 10
133.655223667
 20
96.7695890944
 10
133.6902836272
 20
96.6822404591
 10
133.7223122191
 20
96.5951182439
 10
133.7513094426
 20
96.5082224486
 10
133.7772752979
 20
96.4215530734
  0
LWPOLYLINE
  5
31E
100
AcDbEntity
  8
RACCORDO
100
AcDbPolyline
 62
250
  6
CONTINUOUS
 90
3
 70
0
 10
133.1208499433
 20
96.738863198
 10
132.8264938903
 20
97.4576044336
 10
132.7387563514
 20
97.6609397786
  0
LINE
  5
31F
100
AcDbEntity
  8
RACCORDO
100
AcDbLine
 62
250
  6
CONTINUOUS
 10
132.806880724
 20
96.6122337909
 11
132.6866965117
 21
96.9061294765
  0
LWPOLYLINE
  5
320
100
AcDbEntity
  8
0
100
AcDbPolyline
 62
7
  6
CONTINUOUS
 90
10
 70
0
 10
133.9875400707
 20
95.7650362129
 10
133.9679979586
 20
95.838365249
 10
133.946076094
 20
95.9113816396
 10
133.9223961947
 20
95.9842579186
 10
133.8978601671
 20
96.0571869624
 10
133.8729354223
 20
96.1301149829
 10
133.8476302255
 20
96.2029347709
 10
133.8225235687
 20
96.2757443054
 10
133.7987508474
 20
96.3486359395
 10
133.7772752979
 20
96.4215530734
  0
LWPOLYLINE
  5
321
100
AcDbEntity
  8
RACCORDO
100
AcDbPolyline
 62
7
  6
CONTINUOUS
 90
12
 70
0
 10
135.3937761097
 20
107.5644122354
 10
135.3923181361
 20
107.5775742974
 10
135.3899119649
 20
107.5900128259
 10
135.3865575961
 20
107.6017278207
 10
135.382207234
 20
107.6128387066
 10
135.3769086742
 20
107.6232260588
 10
135.3708053041
 20
107.6325316035
 10
135.3638985381
 20
107.6406714763
 10
135.3561869616
 20
107.6477295416
 10
135.3478097185
 20
107.6535991191
 10
135.3387708357
 20
107.6582733698
 10
135.3315099821
 20
107.6610160368
  0
LINE
  5
322
100
AcDbEntity
  8
DRAFT
100
AcDbLine
 62
250
  6
CONTINUOUS
 10
139.5116448095
 20
104.7615572314
 11
139.5116448095
 21
103.982527408
  0
LINE
  5
323
100
AcDbEntity
  8
0
100
AcDbLine
 62
7
  6
CONTINUOUS
 10
140.3700599287
 20
103.1395955963
 11
140.3700599287
 21
103.0275488353
  0
LINE
  5
324
100
AcDbEntity
  8
0
100
AcDbLine
 62
7
  6
CONTINUOUS
 10
140.4029904062
 20
103.1700074445
 11
140.4029904062
 21
103.0250826577
  0
LINE
  5
325
100
AcDbEntity
  8
0
100
AcDbLine
 62
7
  6
CONTINUOUS
 10
140.6145935471
 20
103.6791932475
 11
140.6145935471
 21
103.0139614145
  0
LINE
  5
326
100
AcDbEntity
  8
0
100
AcDbLine
 62
7
  6
CONTINUOUS
 10
141.1379904062
 20
103.5375074445
 11
141.1379904062
 21
103.0209301957
  0
LINE
  5
327
100
AcDbEntity
  8
0
100
AcDbLine
 62
7
  6
CONTINUOUS
 10
141.1988141026
 20
103.5539726833
 11
141.1988141026
 21
103.0248280412
  0
LINE
  5
328
100
AcDbEntity
  8
0
100
AcDbLine
 62
7
  6
CONTINUOUS
 10
141.8729904062
 20
103.1700074445
 11
141.8729904062
 21
103.0964493376
  0
LINE
  5
329
100
AcDbEntity
  8
RACCORDO
100
AcDbLine
 62
7
  6
CONTINUOUS
 10
143.0081822773
 20
107.2537928211
 11
143.0081822773
 21
106.5223704912
  0
LWPOLYLINE
  5
32A
100
AcDbEntity
  8
0
100
AcDbPolyline
 62
7
  6
CONTINUOUS
 90
10
 70
0
 10
133.7772752979
 20
67.1700049514
 10
133.7988541109
 20
67.2254085805
 10
133.8227220758
 20
67.2852960408
 10
133.8478985815
 20
67.3497173052
 10
133.8732349436
 20
67.4187029474
 10
133.8981500527
 20
67.4920141786
 10
133.9226434203
 20
67.5693564113
 10
133.9462549517
 20
67.650645816
 10
133.9680900575
 20
67.7358148859
 10
133.9875400707
 20
67.824686859
  0
LWPOLYLINE
  5
32B
100
AcDbEntity
  8
0
100
AcDbPolyline
 62
7
  6
CONTINUOUS
 90
7
 70
0
 10
133.7772752979
 20
67.1700049514
 10
133.7512592805
 20
67.1092206804
 10
133.7222319596
 20
67.051273658
 10
133.6901933353
 20
66.9961638845
 10
133.6551434076
 20
66.9438913596
 10
133.6170821764
 20
66.8944560834
 10
133.5760096418
 20
66.847858056
  0
LWPOLYLINE
  5
32C
100
AcDbEntity
  8
RACCORDO
100
AcDbPolyline
 62
7
  6
CONTINUOUS
 90
6
 70
0
 10
148.772801958
 20
95.7657489096
 10
148.8275564133
 20
95.8690255484
 10
148.8682405364
 20
95.9732596899
 10
148.8950992235
 20
96.0763457478
 10
148.9102474004
 20
96.1757755115
 10
148.9137016258
 20
96.2348498239
  0
LWPOLYLINE
  5
32D
100
AcDbEntity
  8
RACCORDO
100
AcDbPolyline
 62
250
  6
CONTINUOUS
 90
10
 70
0
 10
132.806880724
 20
66.7053392298
 10
132.8563024322
 20
66.7735749972
 10
132.8977821758
 20
66.846421887
 10
132.9313199548
 20
66.9238798993
 10
132.9564295093
 20
67.0067237436
 10
132.9735970992
 20
67.0941787104
 10
132.9842815049
 20
67.1839206713
 10
132.9889689865
 20
67.2751749166
 10
132.987173284
 20
67.368716156
 10
132.9788943972
 20
67.4645443893
  0
LWPOLYLINE
  5
32E
100
AcDbEntity
  8
RACCORDO
100
AcDbPolyline
 62
250
  6
CONTINUOUS
 90
10
 70
0
 10
133.1208758771
 20
66.6156991488
 10
133.1790952375
 20
66.6920561219
 10
133.2275394823
 20
66.7764079707
 10
133.2665003488
 20
66.8673500323
 10
133.2962381202
 20
66.9633316054
 10
133.3173466085
 20
67.063269908
 10
133.3306098325
 20
67.166676498
 10
133.3365435496
 20
67.2727825579
 10
133.3355137659
 20
67.3804265786
 10
133.3280180185
 20
67.4887419154
  0
LWPOLYLINE
  5
32F
100
AcDbEntity
  8
RACCORDO
100
AcDbPolyline
 62
250
  6
CONTINUOUS
 90
6
 70
0
 10
152.4717469934
 20
84.9020442588
 10
152.5117927612
 20
84.9309153284
 10
152.5477867749
 20
84.9750624867
 10
152.5739057251
 20
85.0304873706
 10
152.5894759584
 20
85.095612541
 10
152.5940049833
 20
85.1684201017
  0
LWPOLYLINE
  5
330
100
AcDbEntity
  8
RACCORDO
100
AcDbPolyline
 62
250
  6
CONTINUOUS
 90
3
 70
0
 10
152.5940049833
 20
85.1684201017
 10
152.6489022013
 20
85.2023223026
 10
152.6911683194
 20
85.2404685117
  0
LINE
  5
331
100
AcDbEntity
  8
RACCORDO
100
AcDbLine
 62
250
  6
CONTINUOUS
 10
152.5940049833
 20
85.1684201017
 11
148.772801958
 21
83.1067934047
  0
LINE
  5
332
100
AcDbEntity
  8
RACCORDO
100
AcDbLine
 62
7
  6
CONTINUOUS
 10
152.4717469934
 20
84.9020442588
 11
148.9106889133
 21
82.9807717279
  0
LINE
  5
333
100
AcDbEntity
  8
RACCORDO
100
AcDbLine
 62
250
  6
CONTINUOUS
 10
148.9131320579
 20
80.2481661454
 11
149.8509675447
 21
80.7337446833
  0
LWPOLYLINE
  5
334
100
AcDbEntity
  8
RACCORDO
100
AcDbPolyline
 62
250
  6
CONTINUOUS
 90
8
 70
0
 10
113.3961421496
 20
105.736039207
 10
113.3584398393
 20
105.751810629
 10
113.3209141077
 20
105.7625584
 10
113.2839758672
 20
105.7681648616
 10
113.2480295828
 20
105.7685686544
 10
113.2134688739
 20
105.7637653872
 10
113.1806722005
 20
105.7538076996
 10
113.172594652
 20
105.7504377776
  0
LWPOLYLINE
  5
335
100
AcDbEntity
  8
RACCORDO
100
AcDbPolyline
 62
250
  6
CONTINUOUS
 90
10
 70
0
 10
132.9788943972
 20
95.4926615614
 10
133.0118455455
 20
95.4783135712
 10
133.0490326358
 20
95.4662130012
 10
133.0893517946
 20
95.4567198969
 10
133.1316060691
 20
95.4501169123
 10
133.1745396934
 20
95.4466010767
 10
133.2168753687
 20
95.4462775833
 10
133.2573541054
 20
95.4491564684
 10
133.2947726498
 20
95.4551525919
 10
133.3280180189
 20
95.464088129
  0
LINE
  5
336
100
AcDbEntity
  8
RACCORDO
100
AcDbLine
 62
250
  6
CONTINUOUS
 10
112.6577330101
 20
104.6076930197
 11
127.4154376341
 21
97.2288407077
  0
LINE
  5
337
100
AcDbEntity
  8
RACCORDO
100
AcDbLine
 62
250
  6
CONTINUOUS
 10
113.3961421496
 20
105.736039207
 11
128.1658556107
 21
98.3511824764
  0
LWPOLYLINE
  5
338
100
AcDbEntity
  8
SUPERFICI
100
AcDbPolyline
 62
7
  6
CONTINUOUS
 90
10
 70
0
 10
129.4902041252
 20
104.6415715646
 10
129.4507675549
 20
104.6910516044
 10
129.410195217
 20
104.7377192166
 10
129.3684871114
 20
104.7815744011
 10
129.3254577078
 20
104.8227784345
 10
129.2812925366
 20
104.8611700402
 10
129.236548189
 20
104.8962653884
 10
129.1914101952
 20
104.9279032025
 10
129.145693025
 20
104.956244759
 10
129.0993966784
 20
104.9812900579
  0
LWPOLYLINE
  5
339
100
AcDbEntity
  8
ASSI
100
AcDbPolyline
 62
7
  6
CONTINUOUS
 90
10
 70
0
 10
125.0866664733
 20
106.0350272163
 10
125.0426060451
 20
106.0911283123
 10
124.997005605
 20
106.1394816938
 10
124.9498651529
 20
106.1800873609
 10
124.9001580143
 20
106.2134586507
 10
124.8489108636
 20
106.239082226
 10
124.7992037249
 20
106.2554180749
 10
124.7520632728
 20
106.2619528599
 10
124.7064628327
 20
106.2591999185
 10
124.6624024046
 20
106.2471592506
  0
LWPOLYLINE
  5
33A
100
AcDbEntity
  8
ASSI
100
AcDbPolyline
 62
7
  6
CONTINUOUS
 90
10
 70
0
 10
128.3393576667
 20
104.4086816196
 10
128.2952972386
 20
104.4647827156
 10
128.2496967985
 20
104.5131360971
 10
128.2025563464
 20
104.5537417641
 10
128.1528492077
 20
104.587113054
 10
128.1016020571
 20
104.6127366293
 10
128.0518949184
 20
104.6290724781
 10
128.0047544663
 20
104.6356072632
 10
127.9591540262
 20
104.6328543218
 10
127.915093598
 20
104.6208136539
  0
LINE
  5
33B
100
AcDbEntity
  8
SUPERFICI
100
AcDbLine
 62
7
  6
CONTINUOUS
 10
129.5712600748
 20
104.5348413735
 11
129.4902041252
 21
104.6415715646
  0
LINE
  5
33C
100
AcDbEntity
  8
SUPERFICI
100
AcDbLine
 62
7
  6
CONTINUOUS
 10
129.6520495613
 20
104.4277562994
 11
129.5712600748
 21
104.5348413735
  0
LWPOLYLINE
  5
33D
100
AcDbEntity
  8
RACCORDO
100
AcDbPolyline
 62
250
  6
CONTINUOUS
 90
13
 70
0
 10
130.0350567827
 20
102.9149066392
 10
130.021699808
 20
102.933305921
 10
130.0074358052
 20
102.9516625008
 10
129.9922612205
 20
102.9698833517
 10
129.9762031765
 20
102.9878561368
 10
129.9592481272
 20
103.0054869256
 10
129.9413388998
 20
103.0226922182
 10
129.9225061448
 20
103.0393394416
 10
129.9027765367
 20
103.0552942774
 10
129.882096001
 20
103.0704400158
 10
129.8604861867
 20
103.0846195596
 10
129.838048427
 20
103.0976493465
 10
129.8148662487
 20
103.1093501132
  0
LINE
  5
33E
100
AcDbEntity
  8
SUPERFICI
100
AcDbLine
 62
7
  6
CONTINUOUS
 10
130.4214354386
 20
103.3676427336
 11
130.1730711018
 21
103.7197338821
  0
LWPOLYLINE
  5
33F
100
AcDbEntity
  8
0
100
AcDbPolyline
 62
7
  6
CONTINUOUS
 90
7
 70
0
 10
130.5247374594
 20
102.2530246089
 10
130.0911556086
 20
102.8887470212
 10
130.085291723
 20
102.8977951333
 10
130.0796999869
 20
102.9068396821
 10
130.0743804648
 20
102.9158807366
 10
130.0693332208
 20
102.9249183648
 10
130.0645583178
 20
102.9339526343
  0
LWPOLYLINE
  5
340
100
AcDbEntity
  8
0
100
AcDbPolyline
 62
7
  6
CONTINUOUS
 90
4
 70
0
 10
130.5247374594
 20
102.2530246089
 10
130.9421793921
 20
101.6177830878
 10
131.3496173761
 20
100.9739707128
 10
131.5544302079
 20
100.637763842
  0
LWPOLYLINE
  5
341
100
AcDbEntity
  8
RACCORDO
100
AcDbPolyline
 62
250
  6
CONTINUOUS
 90
13
 70
0
 10
129.7523448777
 20
102.7350837144
 10
129.7462712916
 20
102.7447647794
 10
129.7397374077
 20
102.7543206444
 10
129.7327432259
 20
102.7637513093
 10
129.725294228
 20
102.7731141204
 10
129.7173849322
 20
102.7823517314
 10
129.7089988938
 20
102.7912921041
 10
129.7001298599
 20
102.7999492229
 10
129.6907840834
 20
102.8083091035
 10
129.6809638776
 20
102.8161577544
 10
129.6706700135
 20
102.8234238452
 10
129.6599017201
 20
102.8301787064
 10
129.6486589975
 20
102.8364223379
  0
LWPOLYLINE
  5
342
100
AcDbEntity
  8
0
100
AcDbPolyline
 62
250
  6
CONTINUOUS
 90
14
 70
0
 10
133.9280700696
 20
100.9978134953
 10
133.9135684551
 20
101.0298329534
 10
133.8977177508
 20
101.0612171076
 10
133.8807872802
 20
101.0914930683
 10
133.8627115525
 20
101.1208573408
 10
133.8436999269
 20
101.1490053952
 10
133.8240541537
 20
101.1755874405
 10
133.8037148899
 20
101.2007703961
 10
133.7823199969
 20
101.2249775998
 10
133.7599598926
 20
101.248032284
 10
133.7367005995
 20
101.2697763729
 10
133.7120782522
 20
101.2904643836
 10
133.6859927769
 20
101.3099185827
 10
133.6587468922
 20
101.3276565789
  0
LINE
  5
343
100
AcDbEntity
  8
0
100
AcDbLine
 62
7
  6
CONTINUOUS
 10
133.038056153
 20
106.9724871977
 11
132.8365567951
 21
107.5682116235
  0
LINE
  5
344
100
AcDbEntity
  8
0
100
AcDbLine
 62
7
  6
CONTINUOUS
 10
138.0344370156
 20
104.1710252983
 11
138.0410369894
 21
104.1159441687
  0
LINE
  5
345
100
AcDbEntity
  8
RACCORDO
100
AcDbLine
 62
7
  6
CONTINUOUS
 10
142.5048999497
 20
103.4999088256
 11
142.4648439215
 21
104.0288783294
  0
LWPOLYLINE
  5
346
100
AcDbEntity
  8
RACCORDO
100
AcDbPolyline
 62
250
  6
CONTINUOUS
 90
6
 70
0
 10
148.9131313738
 20
103.4603774974
 10
148.9116285285
 20
103.4414179466
 10
148.8975679925
 20
103.3989003715
 10
148.8691125872
 20
103.3582218594
 10
148.8271078563
 20
103.3205911602
 10
148.772801958
 20
103.2871264588
  0
LWPOLYLINE
  5
347
100
AcDbEntity
  8
0
100
AcDbPolyline
 62
7
  6
CONTINUOUS
 90
6
 70
0
 10
133.5760096418
 20
66.847858056
 10
133.232218779
 20
66.5025701292
 10
132.8775181103
 20
66.1752231849
 10
132.5119076356
 20
65.8658172232
 10
132.1350854026
 20
65.5741409708
 10
131.7473533637
 20
65.300405701
  0
LWPOLYLINE
  5
348
100
AcDbEntity
  8
RACCORDO
100
AcDbPolyline
 62
250
  6
CONTINUOUS
 90
5
 70
0
 10
131.5669147251
 20
65.5369483061
 10
131.8953180979
 20
65.8030162077
 10
132.2113041017
 20
66.0863434881
 10
132.5151583104
 20
66.3871178289
 10
132.806880724
 20
66.7053392298
  0
LWPOLYLINE
  5
349
100
AcDbEntity
  8
RACCORDO
100
AcDbPolyline
 62
250
  6
CONTINUOUS
 90
7
 70
0
 10
131.2838057354
 20
65.0246577341
 10
131.5241246929
 20
65.1849129251
 10
131.8678688425
 20
65.4358019047
 10
132.1996998842
 20
65.7045358239
 10
132.5193551873
 20
65.9909239761
 10
132.8265079856
 20
66.2947243132
 10
133.1208758447
 20
66.6156991323
  0
LWPOLYLINE
  5
34A
100
AcDbEntity
  8
RACCORDO
100
AcDbPolyline
 62
250
  6
CONTINUOUS
 90
3
 70
0
 10
139.9070337464
 20
69.7114979252
 10
139.8835626901
 20
69.6958729392
 10
139.8779133019
 20
69.6927889878
  0
LWPOLYLINE
  5
34B
100
AcDbEntity
  8
RACCORDO
100
AcDbPolyline
 62
250
  6
CONTINUOUS
 90
3
 70
0
 10
130.8745693165
 20
65.0577167277
 10
131.2263795573
 20
65.2883274648
 10
131.5669147251
 20
65.5369483061
  0
LWPOLYLINE
  5
34C
100
AcDbEntity
  8
0
100
AcDbPolyline
 62
7
  6
CONTINUOUS
 90
3
 70
0
 10
131.7473533637
 20
65.300405701
 10
131.3496173761
 20
65.0452452338
 10
130.9421793921
 20
64.8088708428
  0
LINE
  5
34D
100
AcDbEntity
  8
RACCORDO
100
AcDbLine
 62
7
  6
CONTINUOUS
 10
139.2245049127
 20
69.3043313483
 11
139.224172116
 21
69.3041178975
  0
LWPOLYLINE
  5
34E
100
AcDbEntity
  8
RACCORDO
100
AcDbPolyline
 62
7
  6
CONTINUOUS
 90
7
 70
0
 10
149.1591249171
 20
77.6918409143
 10
149.3070425073
 20
77.7862132893
 10
149.5127058252
 20
77.9808886648
 10
149.6798670399
 20
78.2285357359
 10
149.8041540542
 20
78.5258634052
 10
149.8809364191
 20
78.8665961217
 10
149.9070995846
 20
79.2443647936
  0
LINE
  5
34F
100
AcDbEntity
  8
RACCORDO
100
AcDbLine
 62
250
  6
CONTINUOUS
 10
139.2630988026
 20
69.3305298499
 11
139.2171886739
 21
69.3014467629
  0
LWPOLYLINE
  5
350
100
AcDbEntity
  8
RACCORDO
100
AcDbPolyline
 62
7
  6
CONTINUOUS
 90
8
 70
0
 10
139.2245721355
 20
69.3043718985
 10
139.2504942377
 20
69.3207840699
 10
139.37690678
 20
69.4000621315
 10
139.5014943786
 20
69.4766657219
 10
139.6212879724
 20
69.5484647829
 10
139.7320679706
 20
69.6127238533
 10
139.8288579177
 20
69.6665838136
 10
139.8770904047
 20
69.6923595833
  0
LINE
  5
351
100
AcDbEntity
  8
RACCORDO
100
AcDbLine
 62
7
  6
CONTINUOUS
 10
131.1686652153
 20
64.9520089397
 11
131.2838057354
 21
65.0246577341
  0
LWPOLYLINE
  5
352
100
AcDbEntity
  8
RACCORDO
100
AcDbPolyline
 62
250
  6
CONTINUOUS
 90
4
 70
0
 10
139.2171886739
 20
69.3014467629
 10
138.8649167751
 20
69.0802260539
 10
138.5138392686
 20
68.8648373941
 10
138.1640100516
 20
68.6552613467
  0
LWPOLYLINE
  5
353
100
AcDbEntity
  8
RACCORDO
100
AcDbPolyline
 62
250
  6
CONTINUOUS
 90
6
 70
0
 10
148.772801958
 20
75.5854158555
 10
148.8271078639
 20
75.6188805406
 10
148.8691125967
 20
75.6565112309
 10
148.8975679997
 20
75.6971897403
 10
148.9116285308
 20
75.7397073214
 10
148.9131320579
 20
75.7590804169
  0
LWPOLYLINE
  5
354
100
AcDbEntity
  8
RACCORDO
100
AcDbPolyline
 62
250
  6
CONTINUOUS
 90
8
 70
0
 10
139.5701632025
 20
69.5200911825
 10
139.528775352
 20
69.4951601544
 10
139.4864092726
 20
69.4694057399
 10
139.4429520566
 20
69.4427644172
 10
139.3985066463
 20
69.4153161742
 10
139.3536542736
 20
69.3874165835
 10
139.3085853628
 20
69.3591898277
 10
139.2630988026
 20
69.3305298499
  0
LINE
  5
355
100
AcDbEntity
  8
RACCORDO
100
AcDbLine
 62
250
  6
CONTINUOUS
 10
130.5117695766
 20
64.8453037761
 11
130.8745693165
 21
65.0577167277
  0
LINE
  5
356
100
AcDbEntity
  8
RACCORDO
100
AcDbLine
 62
7
  6
CONTINUOUS
 10
130.8017676429
 20
64.7372529139
 11
131.1686652153
 21
64.9520089397
  0
LINE
  5
357
100
AcDbEntity
  8
RACCORDO
100
AcDbLine
 62
250
  6
CONTINUOUS
 10
138.1640100516
 20
68.6552613467
 11
137.815482711
 21
68.4514774893
  0
LINE
  5
358
100
AcDbEntity
  8
RACCORDO
100
AcDbLine
 62
250
  6
CONTINUOUS
 10
137.815482711
 20
68.4514774893
 11
137.4683105102
 21
68.2534644375
  0
LINE
  5
359
100
AcDbEntity
  8
RACCORDO
100
AcDbLine
 62
250
  6
CONTINUOUS
 10
137.4683105102
 20
68.2534644375
 11
137.1225463759
 21
68.0611998684
  0
LWPOLYLINE
  5
35A
100
AcDbEntity
  8
RACCORDO
100
AcDbPolyline
 62
7
  6
CONTINUOUS
 90
8
 70
0
 10
137.1246718784
 20
68.062254276
 10
137.3486813306
 20
68.1861954815
 10
137.6765747781
 20
68.3713082125
 10
138.0060625499
 20
68.5617372939
 10
138.3370862177
 20
68.7575071677
 10
138.669582402
 20
68.9586372979
 10
139.0034895312
 20
69.165146107
 10
139.224172116
 20
69.3041178975
  0
LINE
  5
35B
100
AcDbEntity
  8
RACCORDO
100
AcDbLine
 62
7
  6
CONTINUOUS
 10
134.3923386747
 20
66.6185017276
 11
134.436307421
 21
66.6426051549
  0
LINE
  5
35C
100
AcDbEntity
  8
RACCORDO
100
AcDbLine
 62
250
  6
CONTINUOUS
 10
149.1591251298
 20
77.6918410266
 11
149.1518375449
 21
77.6879567228
  0
LINE
  5
35D
100
AcDbEntity
  8
0
100
AcDbLine
 62
7
  6
CONTINUOUS
 10
147.2352216268
 20
73.5623307832
 11
146.2233606432
 21
73.0261952923
  0
LWPOLYLINE
  5
35E
100
AcDbEntity
  8
RACCORDO
100
AcDbPolyline
 62
250
  6
CONTINUOUS
 90
11
 70
0
 10
139.9070365512
 20
69.7114918129
 10
139.8803816277
 20
69.697405592
 10
139.8521291437
 20
69.6821859657
 10
139.8222786847
 20
69.6658334172
 10
139.7908012514
 20
69.6483477066
 10
139.7577241229
 20
69.6297315185
 10
139.7231306496
 20
69.6099907835
 10
139.6869488441
 20
69.5890836548
 10
139.649246409
 20
69.5670586458
 10
139.6103153079
 20
69.5440587606
 10
139.5701632025
 20
69.5200911825
  0
LINE
  5
35F
100
AcDbEntity
  8
RACCORDO
100
AcDbLine
 62
7
  6
CONTINUOUS
 10
137.1225463759
 20
68.0611998684
 11
134.436307421
 21
66.6426051549
  0
LINE
  5
360
100
AcDbEntity
  8
DRAFT
100
AcDbLine
 62
7
  6
CONTINUOUS
 10
149.1518373315
 20
77.6879566101
 11
148.9131320579
 21
77.5619418187
  0
LINE
  5
361
100
AcDbEntity
  8
RACCORDO
100
AcDbLine
 62
7
  6
CONTINUOUS
 10
130.4958990608
 20
64.5764605063
 11
130.8017676429
 21
64.7372529139
  0
LWPOLYLINE
  5
362
100
AcDbEntity
  8
0
100
AcDbPolyline
 62
7
  6
CONTINUOUS
 90
4
 70
0
 10
144.9760862396
 20
72.3684262906
 10
145.2458763182
 20
72.5101778042
 10
145.7341370729
 20
72.7674571016
 10
146.2233606432
 20
73.0261952923
  0
LINE
  5
363
100
AcDbEntity
  8
RACCORDO
100
AcDbLine
 62
250
  6
CONTINUOUS
 10
148.772801958
 20
75.5854158555
 11
134.3851206459
 21
68.0267967471
  0
LINE
  5
364
100
AcDbEntity
  8
RACCORDO
100
AcDbLine
 62
250
  6
CONTINUOUS
 10
148.4639583404
 20
74.6595430935
 11
136.4712006451
 21
68.3608967699
  0
LINE
  5
365
100
AcDbEntity
  8
RACCORDO
100
AcDbLine
 62
250
  6
CONTINUOUS
 10
136.4712006451
 20
68.3608967699
 11
134.3851206459
 21
67.2653408444
  0
LINE
  5
366
100
AcDbEntity
  8
0
100
AcDbLine
 62
7
  6
CONTINUOUS
 10
130.9421793921
 20
64.8088708428
 11
130.5729203415
 21
64.6150069798
  0
LINE
  5
367
100
AcDbEntity
  8
0
100
AcDbLine
 62
250
  6
CONTINUOUS
 10
146.2233612519
 20
73.0261956148
 11
140.9585632679
 21
70.2632545924
  0
LINE
  5
368
100
AcDbEntity
  8
RACCORDO
100
AcDbLine
 62
7
  6
CONTINUOUS
 10
142.6774417854
 20
71.1619734726
 11
144.976085307
 21
72.3684278569
  0
LINE
  5
369
100
AcDbEntity
  8
0
100
AcDbLine
 62
250
  6
CONTINUOUS
 10
140.9585632679
 20
70.2632545924
 11
139.9070365512
 21
69.7114918129
  0
LINE
  5
36A
100
AcDbEntity
  8
RACCORDO
100
AcDbLine
 62
7
  6
CONTINUOUS
 10
142.6774417854
 20
71.1619734726
 11
139.8770904047
 21
69.6923595833
  0
LINE
  5
36B
100
AcDbEntity
  8
RACCORDO
100
AcDbLine
 62
250
  6
CONTINUOUS
 10
130.4740863231
 20
64.8257201754
 11
130.5117695766
 21
64.8453037761
  0
LINE
  5
36C
100
AcDbEntity
  8
RACCORDO
100
AcDbLine
 62
250
  6
CONTINUOUS
 10
137.1224938786
 20
68.0611721432
 11
137.1248014334
 21
68.062371398
  0
LINE
  5
36D
100
AcDbEntity
  8
RACCORDO
100
AcDbLine
 62
250
  6
CONTINUOUS
 10
148.9131320579
 20
78.6893204186
 11
149.8509675447
 21
79.1748989565
  0
LINE
  5
36E
100
AcDbEntity
  8
0
100
AcDbLine
 62
250
  6
CONTINUOUS
 10
133.1208758447
 20
66.6156991323
 11
133.5760096418
 21
66.847858056
  0
LINE
  5
36F
100
AcDbEntity
  8
0
100
AcDbLine
 62
250
  6
CONTINUOUS
 10
133.3280180185
 20
67.4887419154
 11
133.9875400707
 21
67.824686859
  0
LINE
  5
370
100
AcDbEntity
  8
RACCORDO
100
AcDbLine
 62
250
  6
CONTINUOUS
 10
131.4616875091
 20
67.3925449771
 11
130.6244533527
 21
67.0058763911
  0
LINE
  5
371
100
AcDbEntity
  8
RACCORDO
100
AcDbLine
 62
7
  6
CONTINUOUS
 10
131.2609924519
 20
66.8788491343
 11
130.5944611775
 21
66.5710229037
  0
LINE
  5
372
100
AcDbEntity
  8
RACCORDO
100
AcDbLine
 62
250
  6
CONTINUOUS
 10
139.224172116
 20
69.3041178975
 11
139.2142620391
 21
69.2996068602
  0
LINE
  5
373
100
AcDbEntity
  8
0
100
AcDbLine
 62
7
  6
CONTINUOUS
 10
141.1988141026
 20
103.5539726833
 11
141.1379904062
 21
103.5375074445
  0
LWPOLYLINE
  5
374
100
AcDbEntity
  8
RACCORDO
100
AcDbPolyline
 62
250
  6
CONTINUOUS
 90
4
 70
0
 10
142.0740527638
 20
101.7358057464
 10
142.0934468701
 20
101.739821448
 10
142.1122774534
 20
101.7455996764
 10
142.1305101929
 20
101.7532107099
  0
LWPOLYLINE
  5
375
100
AcDbEntity
  8
RACCORDO
100
AcDbPolyline
 62
250
  6
CONTINUOUS
 90
3
 70
0
 10
148.3502270053
 20
104.758908229
 10
148.2919942731
 20
104.7498170857
 10
148.2320568639
 20
104.7274192466
  0
LWPOLYLINE
  5
376
100
AcDbEntity
  8
0
100
AcDbPolyline
 62
250
  6
CONTINUOUS
 90
10
 70
0
 10
133.7772752979
 20
100.7364557906
 10
133.7970667301
 20
100.7281359345
 10
133.8194217859
 20
100.7216391606
 10
133.8436761914
 20
100.7171585185
 10
133.8691092341
 20
100.7148271492
 10
133.8949651788
 20
100.7147143286
 10
133.9204757238
 20
100.716823409
 10
133.9448828309
 20
100.7210917198
 10
133.9674612502
 20
100.7273924294
 10
133.9875400707
 20
100.7355383141
  0
LWPOLYLINE
  5
377
100
AcDbEntity
  8
0
100
AcDbPolyline
 62
250
  6
CONTINUOUS
 90
5
 70
0
 10
118.5823492166
 20
108.8674071894
 10
118.5593337001
 20
108.8778967021
 10
118.5359111798
 20
108.8867006198
 10
118.5122013286
 20
108.8936522652
 10
118.4885151594
 20
108.8985624655
  0
LWPOLYLINE
  5
378
100
AcDbEntity
  8
0
100
AcDbPolyline
 62
250
  6
CONTINUOUS
 90
16
 70
0
 10
118.4818342659
 20
108.6874239321
 10
118.4656450174
 20
108.6950030517
 10
118.4493357236
 20
108.7011610409
 10
118.4329063844
 20
108.7058978995
 10
118.416349834
 20
108.7093655834
 10
118.3996732383
 20
108.7114121368
 10
118.382898095
 20
108.7115816923
 10
118.3656776615
 20
108.7097590712
 10
118.3483586806
 20
108.7060594521
 10
118.3320028782
 20
108.7003725032
 10
118.3168008445
 20
108.6924355968
 10
118.3025619894
 20
108.6825113605
 10
118.2897762686
 20
108.671277345
 10
118.278705292
 20
108.6589624325
 10
118.2690874497
 20
108.6453377408
 10
118.2606278683
 20
108.6303941733
  0
LWPOLYLINE
  5
379
100
AcDbEntity
  8
RACCORDO
100
AcDbPolyline
 62
250
  6
CONTINUOUS
 90
13
 70
0
 10
121.9652749582
 20
106.6781143576
 10
121.957113753
 20
106.6820248195
 10
121.9486911062
 20
106.6854337449
 10
121.9400070177
 20
106.6883411338
 10
121.9310425165
 20
106.6908090421
 10
121.9218165736
 20
106.6927754139
 10
121.912386102
 20
106.6940540815
 10
121.9027349926
 20
106.6946548553
 10
121.8928793544
 20
106.694567925
 10
121.8829244276
 20
106.6935776917
 10
121.8729052921
 20
106.6916122893
 10
121.8627868679
 20
106.688743584
 10
121.8525691551
 20
106.6849715758
  0
LINE
  5
37A
100
AcDbEntity
  8
RACCORDO
100
AcDbLine
 62
7
  6
CONTINUOUS
 10
132.544299731
 20
100.1428290805
 11
117.6241312687
 21
107.6029133116
  0
LINE
  5
37B
100
AcDbEntity
  8
RACCORDO
100
AcDbLine
 62
250
  6
CONTINUOUS
 10
129.6486589975
 20
102.8364223379
 11
121.9652749582
 21
106.6781143576
  0
LINE
  5
37C
100
AcDbEntity
  8
0
100
AcDbLine
 62
250
  6
CONTINUOUS
 10
133.5299763118
 20
101.1633529092
 11
130.0972915779
 21
102.8796952761
  0
LINE
  5
37D
100
AcDbEntity
  8
0
100
AcDbLine
 62
250
  6
CONTINUOUS
 10
121.9145189997
 20
106.9710815652
 11
118.4818342659
 21
108.6874239321
  0
LINE
  5
37E
100
AcDbEntity
  8
RACCORDO
100
AcDbLine
 62
250
  6
CONTINUOUS
 10
129.8148662487
 20
103.1093501132
 11
122.1314822094
 21
106.9510421329
  0
LINE
  5
37F
100
AcDbEntity
  8
0
100
AcDbLine
 62
250
  6
CONTINUOUS
 10
133.6304912625
 20
101.3433361664
 11
129.9389558623
 21
103.1891038666
  0
LINE
  5
380
100
AcDbEntity
  8
0
100
AcDbLine
 62
250
  6
CONTINUOUS
 10
122.2738846169
 20
107.0216394893
 11
118.5823492166
 21
108.8674071894
  0
LINE
  5
381
100
AcDbEntity
  8
0
100
AcDbLine
 62
7
  6
CONTINUOUS
 10
118.9699236914
 20
109.0933986072
 11
124.1674276577
 21
106.4946466241
  0
LINE
  5
382
100
AcDbEntity
  8
ASSI
100
AcDbLine
 62
7
  6
CONTINUOUS
 10
124.6624024046
 20
106.2471592506
 11
125.0866664733
 21
106.0350272163
  0
LINE
  5
383
100
AcDbEntity
  8
ASSI
100
AcDbLine
 62
7
  6
CONTINUOUS
 10
127.915093598
 20
104.6208136539
 11
128.3393576667
 21
104.4086816196
  0
LINE
  5
384
100
AcDbEntity
  8
0
100
AcDbLine
 62
7
  6
CONTINUOUS
 10
128.8343324136
 20
104.1611942461
 11
134.0318363799
 21
101.562442263
  0
LINE
  5
385
100
AcDbEntity
  8
SUPERFICI
100
AcDbLine
 62
7
  6
CONTINUOUS
 10
128.9544134708
 20
104.1877562579
 11
124.0473466005
 21
106.6412896931
  0
LINE
  5
386
100
AcDbEntity
  8
SUPERFICI
100
AcDbLine
 62
7
  6
CONTINUOUS
 10
123.902363393
 20
107.5798067006
 11
129.0993966784
 21
104.9812900579
  0
LWPOLYLINE
  5
387
100
AcDbEntity
  8
RACCORDO
100
AcDbPolyline
 62
250
  6
CONTINUOUS
 90
13
 70
0
 10
122.1314822094
 20
106.9510421329
 10
122.1158776944
 20
106.9589729815
 10
122.0997501384
 20
106.966179266
 10
122.0831427043
 20
106.9725512402
 10
122.0661278989
 20
106.977972486
 10
122.0487399225
 20
106.9823316845
 10
122.030977424
 20
106.985510813
 10
122.0129164232
 20
106.9873763781
 10
121.9946407966
 20
106.9877947869
 10
121.9761807688
 20
106.9866207596
 10
121.9576242571
 20
106.9837008857
 10
121.9391123806
 20
106.9788905982
 10
121.9207752343
 20
106.9720473013
  0
LWPOLYLINE
  5
388
100
AcDbEntity
  8
SUPERFICI
100
AcDbPolyline
 62
7
  6
CONTINUOUS
 90
6
 70
0
 10
123.0100809117
 20
107.2468555366
 10
122.9717790627
 20
107.2672933886
 10
122.93433132
 20
107.2920979803
 10
122.898263097
 20
107.3210068966
 10
122.8630489802
 20
107.3542825526
 10
122.8286889695
 20
107.3919249482
  0
LINE
  5
389
100
AcDbEntity
  8
0
100
AcDbLine
 62
250
  6
CONTINUOUS
 10
133.6587468922
 20
101.3276565789
 11
133.6304912625
 21
101.3433361664
  0
LWPOLYLINE
  5
38A
100
AcDbEntity
  8
0
100
AcDbPolyline
 62
250
  6
CONTINUOUS
 90
6
 70
0
 10
118.2345352797
 20
108.5078257997
 10
118.2178955678
 20
108.5177215157
 10
118.2049020201
 20
108.5288990434
 10
118.1959407359
 20
108.5410262461
 10
118.1912779971
 20
108.5537427674
 10
118.1906012969
 20
108.5608588083
  0
LWPOLYLINE
  5
38B
100
AcDbEntity
  8
RACCORDO
100
AcDbPolyline
 62
7
  6
CONTINUOUS
 90
6
 70
0
 10
134.436307421
 20
103.1451543098
 10
134.3922259092
 20
103.1756091532
 10
134.3496120567
 20
103.2067706257
 10
134.3084660514
 20
103.2386384624
 10
134.2683350831
 20
103.2710822016
 10
134.2411856206
 20
103.294059254
  0
LINE
  5
38C
100
AcDbEntity
  8
SUPERFICI
100
AcDbLine
 62
7
  6
CONTINUOUS
 10
130.5403675843
 20
105.9203183825
 11
130.5731106036
 21
105.8963217728
  0
LWPOLYLINE
  5
38D
100
AcDbEntity
  8
SUPERFICI
100
AcDbPolyline
 62
7
  6
CONTINUOUS
 90
3
 70
0
 10
125.7087654167
 20
108.7514751867
 10
125.7455108765
 20
108.7196614932
 10
125.7499597348
 20
108.7164030785
  0
LWPOLYLINE
  5
38E
100
AcDbEntity
  8
RACCORDO
100
AcDbPolyline
 62
7
  6
CONTINUOUS
 90
6
 70
0
 10
134.2411856206
 20
103.294059254
 10
134.2296721851
 20
103.3042316828
 10
134.1938370043
 20
103.3384775199
 10
134.1612836444
 20
103.3739502186
 10
134.1315598962
 20
103.4105197047
 10
134.104666619
 20
103.448186153
  0
LWPOLYLINE
  5
38F
100
AcDbEntity
  8
RACCORDO
100
AcDbPolyline
 62
250
  6
CONTINUOUS
 90
7
 70
0
 10
149.0554483254
 20
83.0588727518
 10
149.0752640269
 20
83.0329013101
 10
149.2672063707
 20
82.7336177719
 10
149.4402336177
 20
82.4085251818
 10
149.5885160346
 20
82.0641598852
 10
149.7043857132
 20
81.7173377021
 10
149.7861399498
 20
81.3780691098
  0
LINE
  5
390
100
AcDbEntity
  8
SUPERFICI
100
AcDbLine
 62
7
  6
CONTINUOUS
 10
132.3615750549
 20
105.9266013293
 11
132.3041952167
 21
106.0021628709
  0
LINE
  5
391
100
AcDbEntity
  8
SUPERFICI
100
AcDbLine
 62
7
  6
CONTINUOUS
 10
132.4188207644
 20
105.8508618177
 11
132.3615750549
 21
105.9266013293
  0
LINE
  5
392
100
AcDbEntity
  8
SUPERFICI
100
AcDbLine
 62
7
  6
CONTINUOUS
 10
132.4759323452
 20
105.7749443361
 11
132.4188207644
 21
105.8508618177
  0
LWPOLYLINE
  5
393
100
AcDbEntity
  8
RACCORDO
100
AcDbPolyline
 62
250
  6
CONTINUOUS
 90
9
 70
0
 10
137.1224938757
 20
104.4476077581
 10
137.1007195135
 20
104.4802415949
 10
137.0775730689
 20
104.5113165886
 10
137.0532011727
 20
104.5406358826
 10
137.0277582186
 20
104.5680137422
 10
137.0014053851
 20
104.5932767317
 10
136.9743096148
 20
104.6162648126
 10
136.9466425565
 20
104.6368323577
 10
136.9185794777
 20
104.6548490736
  0
LWPOLYLINE
  5
394
100
AcDbEntity
  8
RACCORDO
100
AcDbPolyline
 62
250
  6
CONTINUOUS
 90
16
 70
0
 10
134.436307421
 20
103.1451543098
 10
134.4258348382
 20
103.1610615707
 10
134.4146932597
 20
103.1771210392
 10
134.402867948
 20
103.19327281
 10
134.3903567073
 20
103.2094371336
 10
134.3771421542
 20
103.2255591971
 10
134.3631891644
 20
103.2416044897
 10
134.3484946146
 20
103.2574871096
 10
134.33306089
 20
103.2731152286
 10
134.3168637097
 20
103.2884270255
 10
134.2999186901
 20
103.3033091901
 10
134.2822410227
 20
103.3176492814
 10
134.2638120374
 20
103.3313633612
 10
134.2446499578
 20
103.3443252245
 10
134.224812961
 20
103.3563764281
 10
134.2043548045
 20
103.3673666943
  0
LWPOLYLINE
  5
395
100
AcDbEntity
  8
RACCORDO
100
AcDbPolyline
 62
7
  6
CONTINUOUS
 90
10
 70
0
 10
134.1098035991
 20
103.4403114127
 10
133.9842962432
 20
103.6316663854
 10
133.8579379082
 20
103.8221544145
 10
133.7307285941
 20
104.0117755001
 10
133.6026591619
 20
104.2005430776
 10
133.4737387505
 20
104.3884437115
 10
133.3439947773
 20
104.5754370957
 10
133.2134363814
 20
104.7615097946
 10
133.0820544237
 20
104.9466752437
 10
132.9498489041
 20
105.130933443
  0
LINE
  5
396
100
AcDbEntity
  8
0
100
AcDbLine
 62
250
  6
CONTINUOUS
 10
131.3455503751
 20
109.3189346815
 11
131.7351847528
 21
108.6617144637
  0
LWPOLYLINE
  5
397
100
AcDbEntity
  8
RACCORDO
100
AcDbPolyline
 62
7
  6
CONTINUOUS
 90
6
 70
0
 10
148.9136812179
 20
82.985204976
 10
148.910287647
 20
82.9920657802
 10
148.8952039872
 20
83.010351083
 10
148.8683650689
 20
83.0372184425
 10
148.8276509875
 20
83.0699699165
 10
148.772801958
 20
83.1067934047
  0
LINE
  5
398
100
AcDbEntity
  8
0
100
AcDbLine
 62
7
  6
CONTINUOUS
 10
140.1091239649
 20
103.4369532917
 11
139.907624607
 21
104.0326777175
  0
LWPOLYLINE
  5
399
100
AcDbEntity
  8
RACCORDO
100
AcDbPolyline
 62
7
  6
CONTINUOUS
 90
12
 70
0
 10
142.4648439215
 20
104.0288783294
 10
142.4633859479
 20
104.0420403915
 10
142.4609797767
 20
104.05447892
 10
142.4576254079
 20
104.0661939148
 10
142.4532750458
 20
104.0773048006
 10
142.4479764861
 20
104.0876921528
 10
142.441873116
 20
104.0969976976
 10
142.4349663499
 20
104.1051375703
 10
142.4272547735
 20
104.1121956356
 10
142.4188775304
 20
104.1180652132
 10
142.4098386476
 20
104.1227394638
 10
142.402577794
 20
104.1254821309
  0
LWPOLYLINE
  5
39A
100
AcDbEntity
  8
RACCORDO
100
AcDbPolyline
 62
7
  6
CONTINUOUS
 90
7
 70
0
 10
149.9070995846
 20
80.8032105203
 10
149.8826532361
 20
81.191600795
 10
149.8104610221
 20
81.5911547931
 10
149.6928887384
 20
81.9926292603
 10
149.5331268718
 20
82.3868227115
 10
149.3350549883
 20
82.7648616393
 10
149.1194524827
 20
83.093404463
  0
LWPOLYLINE
  5
39B
100
AcDbEntity
  8
RACCORDO
100
AcDbPolyline
 62
7
  6
CONTINUOUS
 90
7
 70
0
 10
149.9070995846
 20
100.4619871862
 10
149.8826532361
 20
100.8503774609
 10
149.8104610221
 20
101.249931459
 10
149.6928887384
 20
101.6514059262
 10
149.5331268718
 20
102.0455993774
 10
149.3350549883
 20
102.4236383052
 10
149.1031014037
 20
102.777097489
  0
LINE
  5
39C
100
AcDbEntity
  8
RACCORDO
100
AcDbLine
 62
250
  6
CONTINUOUS
 10
149.8348887366
 20
81.0484558413
 11
149.8509675447
 21
80.7337446833
  0
LINE
  5
39D
100
AcDbEntity
  8
RACCORDO
100
AcDbLine
 62
250
  6
CONTINUOUS
 10
149.8348887366
 20
100.7072325072
 11
149.8509675447
 21
100.3925213492
  0
LWPOLYLINE
  5
39E
100
AcDbEntity
  8
RACCORDO
100
AcDbPolyline
 62
7
  6
CONTINUOUS
 90
6
 70
0
 10
148.9131276958
 20
103.4603775092
 10
148.9050958513
 20
103.6467487299
 10
148.8746125602
 20
103.8743747776
 10
148.8220291572
 20
104.1041722989
 10
148.7488968196
 20
104.3310146634
 10
148.6837050527
 20
104.4924337953
  0
LINE
  5
39F
100
AcDbEntity
  8
RACCORDO
100
AcDbLine
 62
250
  6
CONTINUOUS
 10
148.7668484256
 20
103.4508322403
 11
148.7728024841
 21
103.287319419
  0
LINE
  5
3A0
100
AcDbEntity
  8
RACCORDO
100
AcDbLine
 62
250
  6
CONTINUOUS
 10
148.772801958
 20
75.5854158555
 11
148.772801958
 21
83.1067934047
  0
LINE
  5
3A1
100
AcDbEntity
  8
RACCORDO
100
AcDbLine
 62
250
  6
CONTINUOUS
 10
148.772801958
 20
95.7657489096
 11
148.772801958
 21
103.2873191418
  0
LINE
  5
3A2
100
AcDbEntity
  8
RACCORDO
100
AcDbLine
 62
7
  6
CONTINUOUS
 10
148.9131320579
 20
103.4607910518
 11
148.9131320579
 21
96.2350055936
  0
LINE
  5
3A3
100
AcDbEntity
  8
RACCORDO
100
AcDbLine
 62
7
  6
CONTINUOUS
 10
148.9131320579
 20
75.7590804169
 11
148.9131320579
 21
82.984865906
  0
LINE
  5
3A4
100
AcDbEntity
  8
RACCORDO
100
AcDbLine
 62
250
  6
CONTINUOUS
 10
149.8509675447
 20
100.3925213492
 11
149.8509675447
 21
97.2475673783
  0
LINE
  5
3A5
100
AcDbEntity
  8
RACCORDO
100
AcDbLine
 62
250
  6
CONTINUOUS
 10
149.8509675447
 20
80.7337446833
 11
149.8509675447
 21
79.1748989565
  0
LINE
  5
3A6
100
AcDbEntity
  8
RACCORDO
100
AcDbLine
 62
7
  6
CONTINUOUS
 10
149.9070995846
 20
100.4619871863
 11
149.9070995846
 21
97.3149481792
  0
LINE
  5
3A7
100
AcDbEntity
  8
RACCORDO
100
AcDbLine
 62
7
  6
CONTINUOUS
 10
149.9070995846
 20
80.8032105204
 11
149.9070995846
 21
79.2443647936
  0
LINE
  5
3A8
100
AcDbEntity
  8
RACCORDO
100
AcDbLine
 62
250
  6
CONTINUOUS
 10
149.8509675447
 20
79.1748989565
 11
149.8449565
 21
78.9901591153
  0
LINE
  5
3A9
100
AcDbEntity
  8
RACCORDO
100
AcDbLine
 62
250
  6
CONTINUOUS
 10
148.7643206584
 20
75.3983678858
 11
148.772801958
 21
75.5854158555
  0
LWPOLYLINE
  5
3AA
100
AcDbEntity
  8
RACCORDO
100
AcDbPolyline
 62
250
  6
CONTINUOUS
 90
6
 70
0
 10
149.9070995846
 20
100.4619871863
 10
149.9064981716
 20
100.4542379363
 10
149.9008739505
 20
100.4372308986
 10
149.8894917834
 20
100.4209594949
 10
149.8726898923
 20
100.4059072211
 10
149.8509675447
 20
100.3925213492
  0
LWPOLYLINE
  5
3AB
100
AcDbEntity
  8
RACCORDO
100
AcDbPolyline
 62
250
  6
CONTINUOUS
 90
6
 70
0
 10
149.9070995846
 20
80.8032105203
 10
149.9064981716
 20
80.7954612704
 10
149.9008739505
 20
80.7784542327
 10
149.8894917834
 20
80.762182829
 10
149.8726898923
 20
80.7471305552
 10
149.8509675447
 20
80.7337446833
  0
LWPOLYLINE
  5
3AC
100
AcDbEntity
  8
RACCORDO
100
AcDbPolyline
 62
250
  6
CONTINUOUS
 90
6
 70
0
 10
149.9070995846
 20
79.2443647936
 10
149.9064981728
 20
79.2366155511
 10
149.900873958
 20
79.2196085206
 10
149.8894917956
 20
79.2033371158
 10
149.8726899033
 20
79.1882848365
 10
149.8509675447
 20
79.1748989565
  0
LWPOLYLINE
  5
3AD
100
AcDbEntity
  8
RACCORDO
100
AcDbPolyline
 62
250
  6
CONTINUOUS
 90
6
 70
0
 10
152.7343350831
 20
97.8347583731
 10
152.7323613586
 20
97.8125669955
 10
152.7172632821
 20
97.7699888689
 10
152.6882631894
 20
97.7299379619
 10
152.6466412668
 20
97.6933338252
 10
152.5940049833
 20
97.6610937805
  0
LWPOLYLINE
  5
3AE
100
AcDbEntity
  8
RACCORDO
100
AcDbPolyline
 62
250
  6
CONTINUOUS
 90
10
 70
0
 10
149.8449565
 20
78.9901591153
 10
149.826084311
 20
78.8062780552
 10
149.7931336729
 20
78.6253380073
 10
149.7450712989
 20
78.4499659495
 10
149.6808245272
 20
78.2823135733
 10
149.5990525384
 20
78.124300314
 10
149.4988560156
 20
77.9791135017
 10
149.379567169
 20
77.850096572
 10
149.2400942092
 20
77.7402610377
 10
149.1591251298
 20
77.6918410266
  0
LWPOLYLINE
  5
3AF
100
AcDbEntity
  8
RACCORDO
100
AcDbPolyline
 62
250
  6
CONTINUOUS
 90
3
 70
0
 10
148.6949538957
 20
75.0567408309
 10
148.738358243
 20
75.2213491887
 10
148.7643206584
 20
75.3983678858
  0
LWPOLYLINE
  5
3B0
100
AcDbEntity
  8
RACCORDO
100
AcDbPolyline
 62
250
  6
CONTINUOUS
 90
4
 70
0
 10
152.6911683194
 20
85.2404685117
 10
152.7195281786
 20
85.2816950012
 10
152.7331531988
 20
85.3249055826
 10
152.7343336909
 20
85.3414947307
  0
LWPOLYLINE
  5
3B1
100
AcDbEntity
  8
RACCORDO
100
AcDbPolyline
 62
250
  6
CONTINUOUS
 90
4
 70
0
 10
148.4639583407
 20
74.6595430932
 10
148.557131431
 20
74.7737652018
 10
148.634376894
 20
74.9068279074
 10
148.6949538957
 20
75.0567408309
  0
LWPOLYLINE
  5
3B2
100
AcDbEntity
  8
RACCORDO
100
AcDbPolyline
 62
7
  6
CONTINUOUS
 90
9
 70
0
 10
148.5415875349
 20
74.7181480284
 10
148.5531523352
 20
74.7302906549
 10
148.6451694963
 20
74.8415225185
 10
148.7258102075
 20
74.9679988162
 10
148.7934241265
 20
75.1087215742
 10
148.8466580753
 20
75.2619348688
 10
148.884759312
 20
75.4266379962
 10
148.9070290518
 20
75.6024971512
 10
148.912971677
 20
75.7591960566
  0
LWPOLYLINE
  5
3B3
100
AcDbEntity
  8
RACCORDO
100
AcDbPolyline
 62
7
  6
CONTINUOUS
 90
10
 70
0
 10
148.5409995744
 20
74.7171710785
 10
148.4074906325
 20
74.5812680513
 10
148.2722630358
 20
74.4480125238
 10
148.1353347329
 20
74.3174176007
 10
147.9967257879
 20
74.1894977867
 10
147.8564526665
 20
74.0642636874
 10
147.7145280613
 20
73.9417224271
 10
147.5709686356
 20
73.8218845545
 10
147.4257951959
 20
73.7047636204
 10
147.2794846036
 20
73.5907217979
  0
LWPOLYLINE
  5
3B4
100
AcDbEntity
  8
0
100
AcDbPolyline
 62
250
  6
CONTINUOUS
 90
4
 70
0
 10
147.8663785337
 20
74.0848244263
 10
148.0693687575
 20
74.2706601699
 10
148.2685781563
 20
74.4622500582
 10
148.4639583404
 20
74.6595430935
  0
LWPOLYLINE
  5
3B5
100
AcDbEntity
  8
0
100
AcDbPolyline
 62
250
  6
CONTINUOUS
 90
4
 70
0
 10
147.2352216268
 20
73.5623307832
 10
147.4492541205
 20
73.7306122922
 10
147.6596568669
 20
73.9047924135
 10
147.8663785337
 20
74.0848244263
  0
LWPOLYLINE
  5
3B6
100
AcDbEntity
  8
RACCORDO
100
AcDbPolyline
 62
250
  6
CONTINUOUS
 90
3
 70
0
 10
148.4639583405
 20
74.6595430936
 10
148.5196542441
 20
74.6971503705
 10
148.5409995744
 20
74.7171710785
  0
LINE
  5
3B7
100
AcDbEntity
  8
0
100
AcDbLine
 62
7
  6
CONTINUOUS
 10
147.2352216268
 20
73.5623307832
 11
147.2788219343
 21
73.5915969181
  0
LINE
  5
3B8
100
AcDbEntity
  8
ASSI
100
AcDbLine
 62
7
  6
CONTINUOUS
 10
130.4959571145
 20
64.5764895331
 11
130.5729346745
 21
64.6149783131
  0
LINE
  5
3B9
100
AcDbEntity
  8
RACCORDO
100
AcDbLine
 62
7
  6
CONTINUOUS
 10
130.4555185473
 20
64.5565078898
 11
130.4958990608
 21
64.5764605063
  0
LINE
  5
3BA
100
AcDbEntity
  8
0
100
AcDbLine
 62
250
  6
CONTINUOUS
 10
133.8607853016
 20
62.5855193883
 11
133.8436540087
 21
62.5771579515
  0
LINE
  5
3BB
100
AcDbEntity
  8
0
100
AcDbLine
 62
250
  6
CONTINUOUS
 10
133.9875400707
 20
62.8541847577
 11
134.3851206459
 21
63.021072934
  0
LINE
  5
3BC
100
AcDbEntity
  8
0
100
AcDbLine
 62
7
  6
CONTINUOUS
 10
133.8425119272
 20
62.5766741698
 11
134.2438548922
 21
62.7451416445
  0
LWPOLYLINE
  5
3BD
100
AcDbEntity
  8
0
100
AcDbPolyline
 62
250
  6
CONTINUOUS
 90
10
 70
0
 10
133.9875400707
 20
62.8541847577
 10
133.967461221
 20
62.8460388629
 10
133.9448827739
 20
62.8397381502
 10
133.9204756444
 20
62.8354698419
 10
133.8949650846
 20
62.8333607679
 10
133.8691091354
 20
62.8334735969
 10
133.8436761023
 20
62.8358049738
 10
133.8194217198
 20
62.8402856194
 10
133.7970666956
 20
62.84678239
 10
133.7772752979
 20
62.8551022342
  0
LWPOLYLINE
  5
3BE
100
AcDbEntity
  8
RACCORDO
100
AcDbPolyline
 62
250
  6
CONTINUOUS
 90
16
 70
0
 10
125.5544135666
 20
60.0666771979
 10
125.5154118451
 20
60.0517479437
 10
125.4731064216
 20
60.0388982943
 10
125.4279505692
 20
60.0282659246
 10
125.3804281012
 20
60.0199647529
 10
125.3310481874
 20
60.0140837206
 10
125.2803398991
 20
60.0106858387
 10
125.22884654
 20
60.0098075132
 10
125.1771198252
 20
60.0114581546
 10
125.1257139704
 20
60.0156200777
 10
125.0751797532
 20
60.0222486902
 10
125.0260586122
 20
60.0312729714
 10
124.9788768462
 20
60.0425962326
 10
124.9341399746
 20
60.0560971533
 10
124.8923273217
 20
60.0716310803
 10
124.8538868807
 20
60.0890315788
  0
LINE
  5
3BF
100
AcDbEntity
  8
RACCORDO
100
AcDbLine
 62
250
  6
CONTINUOUS
 10
125.8735790272
 20
59.7702488626
 11
130.2292314687
 21
61.2755946319
  0
LINE
  5
3C0
100
AcDbEntity
  8
RACCORDO
100
AcDbLine
 62
7
  6
CONTINUOUS
 10
130.0502093738
 20
60.9839164714
 11
125.689168955
 21
59.4767089809
  0
LINE
  5
3C1
100
AcDbEntity
  8
0
100
AcDbLine
 62
7
  6
CONTINUOUS
 10
134.1277462907
 20
107.0895065892
 11
134.0669225944
 21
107.0730413504
  0
LINE
  5
3C2
100
AcDbEntity
  8
SUPERFICI
100
AcDbLine
 62
7
  6
CONTINUOUS
 10
133.8269961139
 20
106.425674935
 11
132.9684075181
 21
106.2693015707
  0
LWPOLYLINE
  5
3C3
100
AcDbEntity
  8
SUPERFICI
100
AcDbPolyline
 62
7
  6
CONTINUOUS
 90
22
 70
0
 10
130.1730711018
 20
103.7197338821
 10
130.1387110911
 20
103.7164514971
 10
130.1034969743
 20
103.7183899579
 10
130.0674287514
 20
103.7255492646
 10
130.0299810086
 20
103.7381924157
 10
129.9916791597
 20
103.7560564126
 10
129.9540994457
 20
103.7783522595
 10
129.917500252
 20
103.8050405917
 10
129.8816231933
 20
103.8361607737
 10
129.8472693545
 20
103.871041903
 10
129.8142291598
 20
103.9101081167
 10
129.7827121851
 20
103.9529352777
 10
129.7541482435
 20
103.9975800717
 10
129.7288541416
 20
104.0437500848
 10
129.7065130728
 20
104.0917377309
 10
129.68760443
 20
104.1404769378
 10
129.6721081122
 20
104.1903088855
 10
129.6600442204
 20
104.2408923939
 10
129.6519524498
 20
104.2901378508
 10
129.648012699
 20
104.3373487186
 10
129.6480450695
 20
104.3832215348
 10
129.6520495613
 20
104.4277562994
  0
LWPOLYLINE
  5
3C4
100
AcDbEntity
  8
0
100
AcDbPolyline
 62
7
  6
CONTINUOUS
 90
10
 70
0
 10
122.2738846169
 20
107.0216394893
 10
122.2320212605
 20
107.0262218717
 10
122.1911253025
 20
107.0282909889
 10
122.1514573327
 20
107.0280389321
 10
122.1132252044
 20
107.0258376492
 10
122.0767031098
 20
107.0218301924
 10
122.0422916214
 20
107.0158572798
 10
122.0103376787
 20
107.0080555205
 10
121.9810616048
 20
106.9989251603
 10
121.9547173175
 20
106.9888731493
  0
LWPOLYLINE
  5
3C5
100
AcDbEntity
  8
RACCORDO
100
AcDbPolyline
 62
7
  6
CONTINUOUS
 90
16
 70
0
 10
141.7078043162
 20
104.2760564921
 10
141.5824999464
 20
104.2900273818
 10
141.4561120479
 20
104.3005134197
 10
141.3289082861
 20
104.3075063623
 10
141.201232475
 20
104.3109955616
 10
141.0734362378
 20
104.3109775576
 10
140.9458010891
 20
104.3074539099
 10
140.8186753196
 20
104.3004310185
 10
140.6924042428
 20
104.2899226614
 10
140.5672618051
 20
104.2759411273
 10
140.443591208
 20
104.2585088494
 10
140.3217327884
 20
104.2376552752
 10
140.2019475643
 20
104.2134001015
 10
140.0845644083
 20
104.1857776079
 10
139.9699214689
 20
104.1548310985
 10
139.8582776137
 20
104.1205862851
  0
LWPOLYLINE
  5
3C6
100
AcDbEntity
  8
0
100
AcDbPolyline
 62
7
  6
CONTINUOUS
 90
5
 70
0
 10
142.472985001
 20
103.9214115806
 10
142.4958567754
 20
103.9169018518
 10
142.6411824568
 20
103.8843628223
 10
142.7833775275
 20
103.8485324256
 10
142.9224613067
 20
103.8094309729
  0
LINE
  5
3C7
100
AcDbEntity
  8
0
100
AcDbLine
 62
7
  6
CONTINUOUS
 10
141.1379904062
 20
103.5375074445
 11
140.6145935471
 21
103.6791932475
  0
LWPOLYLINE
  5
3C8
100
AcDbEntity
  8
RACCORDO
100
AcDbPolyline
 62
7
  6
CONTINUOUS
 90
9
 70
0
 10
142.402577794
 20
104.1254821309
 10
142.4001340982
 20
104.1262252267
 10
142.3898909447
 20
104.1284363388
 10
142.3790324743
 20
104.1293404586
 10
142.3676353999
 20
104.1289699275
 10
142.3560569234
 20
104.1273356073
 10
142.3444161121
 20
104.1244411185
 10
142.3325938987
 20
104.1202828406
 10
142.3205902833
 20
104.1148607736
  0
LWPOLYLINE
  5
3C9
100
AcDbEntity
  8
RACCORDO
100
AcDbPolyline
 62
7
  6
CONTINUOUS
 90
7
 70
0
 10
142.4025760066
 20
104.1254779753
 10
142.3062734265
 20
104.1547694266
 10
142.1914455254
 20
104.185770255
 10
142.0738514235
 20
104.21343986
 10
141.9538280674
 20
104.2377336301
 10
141.8317032879
 20
104.2586157918
 10
141.7078043162
 20
104.2760564921
  0
LINE
  5
3CA
100
AcDbEntity
  8
0
100
AcDbLine
 62
7
  6
CONTINUOUS
 10
142.9224613067
 20
103.8094309729
 11
143.0489598018
 21
103.7699862007
  0
LWPOLYLINE
  5
3CB
100
AcDbEntity
  8
0
100
AcDbPolyline
 62
7
  6
CONTINUOUS
 90
4
 70
0
 10
143.1723413618
 20
103.7277544629
 10
143.1886848036
 20
103.7221229746
 10
143.3158245214
 20
103.6739164289
 10
143.4281794747
 20
103.6271519528
  0
LWPOLYLINE
  5
3CC
100
AcDbEntity
  8
RACCORDO
100
AcDbPolyline
 62
250
  6
CONTINUOUS
 90
15
 70
0
 10
141.9107871374
 20
101.4651286227
 10
141.9465358072
 20
101.4507407455
 10
141.9819114274
 20
101.4382826462
 10
142.0169251809
 20
101.4276348328
 10
142.0515716854
 20
101.4189194894
 10
142.0863002864
 20
101.4121090276
 10
142.1211964547
 20
101.407074601
 10
142.1561787788
 20
101.4039468991
 10
142.191445971
 20
101.4030875022
 10
142.2269766671
 20
101.4047817024
 10
142.2627959872
 20
101.4087457845
 10
142.2991718747
 20
101.4144876054
 10
142.3361940406
 20
101.4218432688
 10
142.3737744532
 20
101.4309773018
 10
142.4119138463
 20
101.4418899484
  0
LWPOLYLINE
  5
3CD
100
AcDbEntity
  8
RACCORDO
100
AcDbPolyline
 62
250
  6
CONTINUOUS
 90
9
 70
0
 10
127.6013893158
 20
109.4345551306
 10
127.5816941544
 20
109.4430346383
 10
127.5563375309
 20
109.4503531196
 10
127.5296816847
 20
109.4543025821
 10
127.5019205722
 20
109.4548542886
 10
127.4732561919
 20
109.4520042244
 10
127.443897115
 20
109.4457731277
 10
127.4140569675
 20
109.4362063378
 10
127.3839528755
 20
109.4233734658
  0
LWPOLYLINE
  5
3CE
100
AcDbEntity
  8
RACCORDO
100
AcDbPolyline
 62
250
  6
CONTINUOUS
 90
5
 70
0
 10
127.3839528755
 20
109.4233734658
 10
127.3559499249
 20
109.4361886887
 10
127.3281465961
 20
109.4460942046
 10
127.300684132
 20
109.4530775546
 10
127.2736971636
 20
109.4571421062
  0
LWPOLYLINE
  5
3CF
100
AcDbEntity
  8
SUPERFICI
100
AcDbPolyline
 62
7
  6
CONTINUOUS
 90
10
 70
0
 10
123.902363393
 20
107.5798067006
 10
123.8560670463
 20
107.6010577483
 10
123.8103498761
 20
107.618433362
 10
123.7652118823
 20
107.6319335417
 10
123.7204675347
 20
107.6415825412
 10
123.6763023635
 20
107.6473561067
 10
123.6332729599
 20
107.6491814768
 10
123.5915648543
 20
107.6470343979
 10
123.5509925164
 20
107.6409391237
 10
123.5115559461
 20
107.6308956541
  0
LWPOLYLINE
  5
3D0
100
AcDbEntity
  8
RACCORDO
100
AcDbPolyline
 62
250
  6
CONTINUOUS
 90
14
 70
0
 10
141.7946842956
 20
101.8012237738
 10
141.8102798302
 20
101.7936017849
 10
141.8350871395
 20
101.7822213985
 10
141.859003419
 20
101.772159449
 10
141.8823381852
 20
101.7632562659
 10
141.9050771504
 20
101.755498613
 10
141.9271901889
 20
101.7488907823
 10
141.9489892577
 20
101.7433655089
 10
141.9705493142
 20
101.7389232655
 10
141.9917743082
 20
101.7356328669
 10
142.0127390964
 20
101.7336004232
 10
142.0335364179
 20
101.7328693736
 10
142.0540516324
 20
101.7335309332
 10
142.0740527638
 20
101.7358057464
  0
LINE
  5
3D1
100
AcDbEntity
  8
SUPERFICI
100
AcDbLine
 62
7
  6
CONTINUOUS
 10
125.4661393129
 20
108.1127002186
 11
130.2226265269
 21
105.7344566116
  0
LINE
  5
3D2
100
AcDbEntity
  8
SUPERFICI
100
AcDbLine
 62
7
  6
CONTINUOUS
 10
125.996926393
 20
108.1920389781
 11
130.5403675843
 21
105.9203183825
  0
LINE
  5
3D3
100
AcDbEntity
  8
SUPERFICI
100
AcDbLine
 62
7
  6
CONTINUOUS
 10
128.2686469886
 20
107.3404180013
 11
130.876556606
 21
106.0364631926
  0
LINE
  5
3D4
100
AcDbEntity
  8
SUPERFICI
100
AcDbLine
 62
7
  6
CONTINUOUS
 10
126.7456867143
 20
108.9261060461
 11
126.9251441044
 21
108.836377351
  0
LINE
  5
3D5
100
AcDbEntity
  8
SUPERFICI
100
AcDbLine
 62
7
  6
CONTINUOUS
 10
131.7334702164
 20
106.432214295
 11
131.9129276065
 21
106.3424856
  0
LINE
  5
3D6
100
AcDbEntity
  8
SUPERFICI
100
AcDbLine
 62
7
  6
CONTINUOUS
 10
128.2686469886
 20
108.2306298525
 11
132.652709032
 21
106.0385988308
  0
LINE
  5
3D7
100
AcDbEntity
  8
RACCORDO
100
AcDbLine
 62
7
  6
CONTINUOUS
 10
141.7946330201
 20
101.8012494121
 11
141.7946842956
 21
101.8012237738
  0
LINE
  5
3D8
100
AcDbEntity
  8
SUPERFICI
100
AcDbLine
 62
7
  6
CONTINUOUS
 10
128.7300524683
 20
108.3884790956
 11
132.9684075181
 21
106.2693015707
  0
LINE
  5
3D9
100
AcDbEntity
  8
0
100
AcDbLine
 62
250
  6
CONTINUOUS
 10
142.1305101132
 20
101.7532107497
 11
140.7966088923
 21
102.4201613602
  0
LINE
  5
3DA
100
AcDbEntity
  8
RACCORDO
100
AcDbLine
 62
250
  6
CONTINUOUS
 10
136.8902981855
 20
104.6702008108
 11
134.0148226296
 21
106.1079385887
  0
LINE
  5
3DB
100
AcDbEntity
  8
RACCORDO
100
AcDbLine
 62
250
  6
CONTINUOUS
 10
129.5053460412
 20
108.362676883
 11
127.3839528447
 21
109.4233734812
  0
LINE
  5
3DC
100
AcDbEntity
  8
RACCORDO
100
AcDbLine
 62
7
  6
CONTINUOUS
 10
137.107734595
 20
104.681382491
 11
134.1914897374
 21
106.1395049198
  0
LINE
  5
3DD
100
AcDbEntity
  8
RACCORDO
100
AcDbLine
 62
7
  6
CONTINUOUS
 10
129.7622453204
 20
108.3541271283
 11
127.6013893158
 21
109.4345551306
  0
LINE
  5
3DE
100
AcDbEntity
  8
SUPERFICI
100
AcDbLine
 62
7
  6
CONTINUOUS
 10
129.9849127238
 20
108.3467166301
 11
133.8269961139
 21
106.425674935
  0
LINE
  5
3DF
100
AcDbEntity
  8
0
100
AcDbLine
 62
7
  6
CONTINUOUS
 10
140.1196188002
 20
103.4317058741
 11
139.4126498601
 21
103.7851903441
  0
LINE
  5
3E0
100
AcDbEntity
  8
0
100
AcDbLine
 62
7
  6
CONTINUOUS
 10
133.0485509884
 20
106.96723978
 11
132.3415820483
 21
107.3207242501
  0
LINE
  5
3E1
100
AcDbEntity
  8
0
100
AcDbLine
 62
7
  6
CONTINUOUS
 10
140.6145935471
 20
103.6791932475
 11
139.907624607
 21
104.0326777175
  0
LINE
  5
3E2
100
AcDbEntity
  8
0
100
AcDbLine
 62
7
  6
CONTINUOUS
 10
133.5435257352
 20
107.2147271534
 11
132.8365567951
 21
107.5682116235
  0
LINE
  5
3E3
100
AcDbEntity
  8
RACCORDO
100
AcDbLine
 62
250
  6
CONTINUOUS
 10
152.2405054406
 20
98.2707903038
 11
149.9070995846
 21
99.4374932318
  0
LINE
  5
3E4
100
AcDbEntity
  8
RACCORDO
100
AcDbLine
 62
7
  6
CONTINUOUS
 10
152.4579418809
 20
98.2819719686
 11
149.9070995846
 21
99.5573931167
  0
LWPOLYLINE
  5
3E5
100
AcDbEntity
  8
RACCORDO
100
AcDbPolyline
 62
250
  6
CONTINUOUS
 90
3
 70
0
 10
141.8365809555
 20
101.500989944
 10
141.8741896001
 20
101.48183566
 10
141.9107871374
 20
101.4651286227
  0
LWPOLYLINE
  5
3E6
100
AcDbEntity
  8
RACCORDO
100
AcDbPolyline
 62
7
  6
CONTINUOUS
 90
4
 70
0
 10
141.7946345317
 20
101.8012487234
 10
141.7853703882
 20
101.805998146
 10
141.7578206959
 20
101.8214448137
 10
141.7456067452
 20
101.8288997942
  0
LWPOLYLINE
  5
3E7
100
AcDbEntity
  8
SUPERFICI
100
AcDbPolyline
 62
7
  6
CONTINUOUS
 90
4
 70
0
 10
131.9129276065
 20
106.3424856
 10
131.9592864636
 20
106.3174038121
 10
132.0050638383
 20
106.2890175628
 10
132.0502597305
 20
106.2573268522
  0
LINE
  5
3E8
100
AcDbEntity
  8
RACCORDO
100
AcDbLine
 62
250
  6
CONTINUOUS
 10
136.9185794777
 20
104.6548490736
 11
136.8902981547
 21
104.6702008262
  0
LWPOLYLINE
  5
3E9
100
AcDbEntity
  8
RACCORDO
100
AcDbPolyline
 62
250
  6
CONTINUOUS
 90
10
 70
0
 10
142.130510193
 20
101.7532107099
 10
142.1660059236
 20
101.7335672467
 10
142.2010868849
 20
101.7097787435
 10
142.2354038548
 20
101.6820820067
 10
142.2686152164
 20
101.6507527484
 10
142.3003903585
 20
101.6161028417
 10
142.3304129673
 20
101.5784772158
 10
142.3583841743
 20
101.5382504227
 10
142.384025532
 20
101.4958229092
 10
142.4070817858
 20
101.4516170298
  0
LWPOLYLINE
  5
3EA
100
AcDbEntity
  8
RACCORDO
100
AcDbPolyline
 62
250
  6
CONTINUOUS
 90
3
 70
0
 10
141.7587823435
 20
101.5462394576
 10
141.7981136397
 20
101.5224587361
 10
141.8365809555
 20
101.500989944
  0
LINE
  5
3EB
100
AcDbEntity
  8
RACCORDO
100
AcDbLine
 62
7
  6
CONTINUOUS
 10
137.2739198376
 20
104.5825706886
 11
137.1432461978
 21
104.6617871565
  0
LINE
  5
3EC
100
AcDbEntity
  8
RACCORDO
100
AcDbLine
 62
250
  6
CONTINUOUS
 10
137.1225759234
 20
104.4476474596
 11
137.6300449006
 21
104.1348669717
  0
LWPOLYLINE
  5
3ED
100
AcDbEntity
  8
RACCORDO
100
AcDbPolyline
 62
250
  6
CONTINUOUS
 90
8
 70
0
 10
137.6300449006
 20
104.1348669717
 10
138.1398338738
 20
103.8194221583
 10
138.6517907493
 20
103.5014232026
 10
139.1658253565
 20
103.1809990165
 10
139.6817210785
 20
102.8582560182
 10
140.199136576
 20
102.533278936
 10
140.7178564406
 20
102.2061853952
 10
141.2377896477
 20
101.8771251641
  0
LWPOLYLINE
  5
3EE
100
AcDbEntity
  8
RACCORDO
100
AcDbPolyline
 62
7
  6
CONTINUOUS
 90
8
 70
0
 10
141.5213227126
 20
101.9690072468
 10
140.9045394099
 20
102.3532090042
 10
140.2904832831
 20
102.734125406
 10
139.6795384202
 20
103.1115490056
 10
139.0720694392
 20
103.4852843366
 10
138.4684231801
 20
103.8551473824
 10
137.8689310424
 20
104.2209655261
 10
137.2739198376
 20
104.5825706886
  0
LINE
  5
3EF
100
AcDbEntity
  8
RACCORDO
100
AcDbLine
 62
7
  6
CONTINUOUS
 10
141.7456083657
 20
101.8288990462
 11
141.5213227126
 21
101.9690072468
  0
LINE
  5
3F0
100
AcDbEntity
  8
RACCORDO
100
AcDbLine
 62
250
  6
CONTINUOUS
 10
141.2377896477
 20
101.8771251641
 11
141.7587823435
 21
101.5462394576
  0
LWPOLYLINE
  5
3F1
100
AcDbEntity
  8
RACCORDO
100
AcDbPolyline
 62
250
  6
CONTINUOUS
 90
9
 70
0
 10
137.1438469563
 20
104.6614228697
 10
137.1466142125
 20
104.6595162692
 10
137.1552161589
 20
104.6489293614
 10
137.1601348443
 20
104.6334603258
 10
137.1620545564
 20
104.6129175302
 10
137.1609735094
 20
104.5875985007
 10
137.1561110547
 20
104.5581476764
 10
137.1475097343
 20
104.5248764226
 10
137.136104502
 20
104.4879048926
  0
LINE
  5
3F2
100
AcDbEntity
  8
RACCORDO
100
AcDbLine
 62
7
  6
CONTINUOUS
 10
133.8269961139
 20
106.425674935
 11
134.2129342142
 21
106.1259519049
  0
LWPOLYLINE
  5
3F3
100
AcDbEntity
  8
SUPERFICI
100
AcDbPolyline
 62
7
  6
CONTINUOUS
 90
7
 70
0
 10
132.0502597305
 20
106.2573268522
 10
132.0950603898
 20
106.2221696813
 10
132.1392795667
 20
106.183708049
 10
132.1823585127
 20
106.1424279521
 10
132.2241109782
 20
106.0984913896
 10
132.2647232129
 20
106.0517363625
 10
132.3041952167
 20
106.0021628709
  0
LWPOLYLINE
  5
3F4
100
AcDbEntity
  8
RACCORDO
100
AcDbPolyline
 62
250
  6
CONTINUOUS
 90
7
 70
0
 10
135.9571902262
 20
107.2971217757
 10
136.0038721337
 20
107.2584689639
 10
136.0481049931
 20
107.2173685376
 10
136.0898888044
 20
107.173820497
 10
136.1298350721
 20
107.1276069434
 10
136.1673322918
 20
107.0789457755
 10
136.1708828157
 20
107.0735521512
  0
LINE
  5
3F5
100
AcDbEntity
  8
0
100
AcDbLine
 62
7
  6
CONTINUOUS
 10
133.0485509884
 20
106.96723978
 11
133.3319225944
 21
106.7055413504
  0
LINE
  5
3F6
100
AcDbEntity
  8
0
100
AcDbLine
 62
7
  6
CONTINUOUS
 10
134.8692055644
 20
106.6434043994
 11
134.8019225944
 21
106.7055413504
  0
LINE
  5
3F7
100
AcDbEntity
  8
0
100
AcDbLine
 62
7
  6
CONTINUOUS
 10
140.1196188002
 20
103.4317058741
 11
140.4029904062
 21
103.1700074445
  0
LINE
  5
3F8
100
AcDbEntity
  8
0
100
AcDbLine
 62
7
  6
CONTINUOUS
 10
141.9402728341
 20
103.1078709942
 11
141.8729904062
 21
103.1700074445
  0
LWPOLYLINE
  5
3F9
100
AcDbEntity
  8
RACCORDO
100
AcDbPolyline
 62
7
  6
CONTINUOUS
 90
5
 70
0
 10
136.2559594433
 20
107.1142719181
 10
136.2346081673
 20
107.1386871832
 10
136.1800588355
 20
107.1939083529
 10
136.1204107123
 20
107.2477340968
 10
136.0622218004
 20
107.2950287871
  0
LINE
  5
3FA
100
AcDbEntity
  8
0
100
AcDbLine
 62
250
  6
CONTINUOUS
 10
138.4166181869
 20
105.7834007756
 11
138.8062525647
 21
105.1261805577
  0
LWPOLYLINE
  5
3FB
100
AcDbEntity
  8
RACCORDO
100
AcDbPolyline
 62
250
  6
CONTINUOUS
 90
10
 70
0
 10
143.4129798012
 20
101.9411725873
 10
143.3899234359
 20
101.9854066823
 10
143.36427845
 20
102.0278623679
 10
143.3363003844
 20
102.0681165922
 10
143.3062680277
 20
102.1057682402
 10
143.2744806389
 20
102.1404421302
 10
143.241254965
 20
102.1717927524
 10
143.2069220847
 20
102.1995077121
 10
143.1718241098
 20
102.2233108423
 10
143.1363107757
 20
102.2429649554
  0
LWPOLYLINE
  5
3FC
100
AcDbEntity
  8
RACCORDO
100
AcDbPolyline
 62
250
  6
CONTINUOUS
 90
5
 70
0
 10
148.6834510507
 20
104.492967735
 10
148.683645772
 20
104.4919489416
 10
148.6769124551
 20
104.4822526403
 10
148.6566660352
 20
104.4677039138
 10
148.6235391525
 20
104.4489230851
  0
LWPOLYLINE
  5
3FD
100
AcDbEntity
  8
RACCORDO
100
AcDbPolyline
 62
250
  6
CONTINUOUS
 90
3
 70
0
 10
148.7150346497
 20
103.8077762905
 10
148.7479598118
 20
103.6247192377
 10
148.7668484256
 20
103.4508322403
  0
LINE
  5
3FE
100
AcDbEntity
  8
RACCORDO
100
AcDbLine
 62
250
  6
CONTINUOUS
 10
149.7861399498
 20
81.3780691098
 11
149.8348887366
 21
81.0484558413
  0
LINE
  5
3FF
100
AcDbEntity
  8
RACCORDO
100
AcDbLine
 62
250
  6
CONTINUOUS
 10
149.7861399498
 20
101.0368457757
 11
149.8348887366
 21
100.7072325072
  0
LWPOLYLINE
  5
400
100
AcDbEntity
  8
RACCORDO
100
AcDbPolyline
 62
250
  6
CONTINUOUS
 90
7
 70
0
 10
152.5940049833
 20
97.6610937805
 10
152.589595149
 20
97.7394419201
 10
152.5743950924
 20
97.8206850817
 10
152.5488664811
 20
97.9023556878
 10
152.513784689
 20
97.9819731781
 10
152.4702152461
 20
98.0571193511
 10
152.4194814761
 20
98.1255118117
  0
LINE
  5
401
100
AcDbEntity
  8
RACCORDO
100
AcDbLine
 62
250
  6
CONTINUOUS
 10
152.5940049833
 20
85.1684201017
 11
152.5940049833
 21
97.6610937805
  0
LINE
  5
402
100
AcDbEntity
  8
RACCORDO
100
AcDbLine
 62
7
  6
CONTINUOUS
 10
152.7343350831
 20
85.3420846943
 11
152.7343332631
 21
97.8354329222
  0
LINE
  5
403
100
AcDbEntity
  8
RACCORDO
100
AcDbLine
 62
7
  6
CONTINUOUS
 10
152.7343336909
 20
85.3414947307
 11
152.7343350831
 21
85.3420846943
  0
LWPOLYLINE
  5
404
100
AcDbEntity
  8
SUPERFICI
100
AcDbPolyline
 62
7
  6
CONTINUOUS
 90
5
 70
0
 10
126.3544191041
 20
108.9770509271
 10
126.3938911079
 20
108.987152415
 10
126.4345033426
 20
108.9932952074
 10
126.4762558081
 20
108.9954793044
 10
126.5193347541
 20
108.9936804553
  0
LINE
  5
405
100
AcDbEntity
  8
SUPERFICI
100
AcDbLine
 62
7
  6
CONTINUOUS
 10
129.9849127238
 20
108.3467166301
 11
128.7300524683
 21
108.3884790956
  0
LWPOLYLINE
  5
406
100
AcDbEntity
  8
RACCORDO
100
AcDbPolyline
 62
250
  6
CONTINUOUS
 90
6
 70
0
 10
127.2736971636
 20
109.4571421062
 10
127.2473384534
 20
109.4582435918
 10
127.2217925741
 20
109.4563401825
 10
127.1972373071
 20
109.4514604627
 10
127.173833844
 20
109.4436564318
 10
127.1634034762
 20
109.4390498597
  0
LWPOLYLINE
  5
407
100
AcDbEntity
  8
RACCORDO
100
AcDbPolyline
 62
7
  6
CONTINUOUS
 90
16
 70
0
 10
134.6367365043
 20
107.8115903981
 10
134.5114321346
 20
107.8255612877
 10
134.385044236
 20
107.8360473257
 10
134.2578404743
 20
107.8430402682
 10
134.1301646631
 20
107.8465294675
 10
134.002368426
 20
107.8465114636
 10
133.8747332773
 20
107.8429878158
 10
133.7476075077
 20
107.8359649244
 10
133.621336431
 20
107.8254565674
 10
133.4961939932
 20
107.8114750333
 10
133.3725233962
 20
107.7940427554
 10
133.2506649765
 20
107.7731891811
 10
133.1308797524
 20
107.7489340075
 10
133.0134965964
 20
107.7213115139
 10
132.8988536571
 20
107.6903650044
 10
132.7872098018
 20
107.656120191
  0
LWPOLYLINE
  5
408
100
AcDbEntity
  8
0
100
AcDbPolyline
 62
250
  6
CONTINUOUS
 90
7
 70
0
 10
118.4885151594
 20
108.8985624655
 10
118.4648116004
 20
108.9013256584
 10
118.4407415309
 20
108.9017606664
 10
118.4160532701
 20
108.8994928255
 10
118.3915309092
 20
108.8941862331
 10
118.3683196
 20
108.8859140244
 10
118.3486088319
 20
108.8759493125
  0
LWPOLYLINE
  5
409
100
AcDbEntity
  8
SUPERFICI
100
AcDbPolyline
 62
7
  6
CONTINUOUS
 90
6
 70
0
 10
126.5193347541
 20
108.9936804553
 10
126.563553931
 20
108.9879229107
 10
126.6083545903
 20
108.9782794223
 10
126.6535504825
 20
108.9647742407
 10
126.6993278572
 20
108.9473831153
 10
126.7456867143
 20
108.9261060461
  0
LWPOLYLINE
  5
40A
100
AcDbEntity
  8
0
100
AcDbPolyline
 62
7
  6
CONTINUOUS
 90
5
 70
0
 10
135.4019171892
 20
107.4569454865
 10
135.4247889636
 20
107.4524357577
 10
135.570114645
 20
107.4198967282
 10
135.7123097156
 20
107.3840663315
 10
135.8513934948
 20
107.3449648789
  0
LWPOLYLINE
  5
40B
100
AcDbEntity
  8
RACCORDO
100
AcDbPolyline
 62
7
  6
CONTINUOUS
 90
8
 70
0
 10
135.3290662863
 20
107.6617591327
 10
135.3188231329
 20
107.6639702448
 10
135.3079646624
 20
107.6648743645
 10
135.296567588
 20
107.6645038334
 10
135.2849891115
 20
107.6628695132
 10
135.2733483002
 20
107.6599750244
 10
135.2615260869
 20
107.6558167465
 10
135.2495224714
 20
107.6503946795
  0
LINE
  5
40C
100
AcDbEntity
  8
0
100
AcDbLine
 62
7
  6
CONTINUOUS
 10
134.0669225944
 20
107.0730413504
 11
133.5435257352
 21
107.2147271534
  0
LWPOLYLINE
  5
40D
100
AcDbEntity
  8
RACCORDO
100
AcDbPolyline
 62
7
  6
CONTINUOUS
 90
7
 70
0
 10
135.3315081947
 20
107.6610118812
 10
135.2352056146
 20
107.6903033326
 10
135.1203777135
 20
107.7213041609
 10
135.0027836117
 20
107.748973766
 10
134.8827602556
 20
107.773267536
 10
134.760635476
 20
107.7941496978
 10
134.6367365043
 20
107.8115903981
  0
LINE
  5
40E
100
AcDbEntity
  8
0
100
AcDbLine
 62
7
  6
CONTINUOUS
 10
135.8513934948
 20
107.3449648789
 11
135.9778919899
 21
107.3055201067
  0
LWPOLYLINE
  5
40F
100
AcDbEntity
  8
0
100
AcDbPolyline
 62
7
  6
CONTINUOUS
 90
4
 70
0
 10
136.1012735499
 20
107.2632883689
 10
136.1176169917
 20
107.2576568805
 10
136.2447567095
 20
107.2094503348
 10
136.3571116628
 20
107.1626858588
  0
LWPOLYLINE
  5
410
100
AcDbEntity
  8
RACCORDO
100
AcDbPolyline
 62
250
  6
CONTINUOUS
 90
3
 70
0
 10
148.4489530604
 20
104.7388699474
 10
148.405019101
 20
104.7542728739
 10
148.3502270053
 20
104.758908229
  0
LWPOLYLINE
  5
411
100
AcDbEntity
  8
RACCORDO
100
AcDbPolyline
 62
250
  6
CONTINUOUS
 90
6
 70
0
 10
134.056264664
 20
111.8153153466
 10
134.0320177466
 20
111.826616732
 10
134.0071398713
 20
111.8360123356
 10
133.9817711769
 20
111.8432548659
 10
133.9560737661
 20
111.8480962489
 10
133.9302318267
 20
111.8502913223
  0
LINE
  5
412
100
AcDbEntity
  8
ASSI
100
AcDbLine
 62
7
  6
CONTINUOUS
 10
135.9371144654
 20
110.0579043972
 11
139.1009829465
 21
108.4759701566
  0
LINE
  5
413
100
AcDbEntity
  8
ASSI
100
AcDbLine
 62
7
  6
CONTINUOUS
 10
143.0081822773
 20
106.5223704912
 11
146.1720507584
 21
104.9404362507
  0
LINE
  5
414
100
AcDbEntity
  8
0
100
AcDbLine
 62
250
  6
CONTINUOUS
 10
135.2814398767
 20
111.2027277403
 11
134.0562646635
 21
111.8153153469
  0
LINE
  5
415
100
AcDbEntity
  8
0
100
AcDbLine
 62
250
  6
CONTINUOUS
 10
139.9358138388
 20
108.8755407592
 11
142.3525076885
 21
107.6671938343
  0
LINE
  5
416
100
AcDbEntity
  8
0
100
AcDbLine
 62
250
  6
CONTINUOUS
 10
147.0068816507
 20
105.3400068533
 11
148.2320568639
 21
104.7274192466
  0
LINE
  5
417
100
AcDbEntity
  8
RACCORDO
100
AcDbLine
 62
7
  6
CONTINUOUS
 10
135.5747313449
 20
111.1759818911
 11
134.2737011038
 21
111.8264970117
  0
LINE
  5
418
100
AcDbEntity
  8
RACCORDO
100
AcDbLine
 62
7
  6
CONTINUOUS
 10
140.0773952512
 20
108.9246499379
 11
142.6457991567
 21
107.6404479852
  0
LINE
  5
419
100
AcDbEntity
  8
RACCORDO
100
AcDbLine
 62
7
  6
CONTINUOUS
 10
147.1484630631
 20
105.389116032
 11
148.4494933042
 21
104.7386009115
  0
LWPOLYLINE
  5
41A
100
AcDbEntity
  8
RACCORDO
100
AcDbPolyline
 62
250
  6
CONTINUOUS
 90
9
 70
0
 10
148.2320568639
 20
104.7274192466
 10
148.2653158703
 20
104.7091869903
 10
148.2994190374
 20
104.6864512822
 10
148.333990961
 20
104.6590252026
 10
148.368538232
 20
104.626849735
 10
148.4026164167
 20
104.5898577937
 10
148.4358048196
 20
104.5479336698
 10
148.467490292
 20
104.5011651402
 10
148.4969030814
 20
104.4499168463
  0
LINE
  5
41B
100
AcDbEntity
  8
RACCORDO
100
AcDbLine
 62
250
  6
CONTINUOUS
 10
152.3028554472
 20
98.2339947501
 11
152.2405054406
 21
98.2707903038
  0
LWPOLYLINE
  5
41C
100
AcDbEntity
  8
RACCORDO
100
AcDbPolyline
 62
250
  6
CONTINUOUS
 90
7
 70
0
 10
143.028258038
 20
103.7615878698
 10
143.0749399455
 20
103.7229350579
 10
143.1191728049
 20
103.6818346317
 10
143.1609566162
 20
103.6382865911
 10
143.200902884
 20
103.5920730375
 10
143.2384001036
 20
103.5434118695
 10
143.2419506276
 20
103.5380182452
  0
LWPOLYLINE
  5
41D
100
AcDbEntity
  8
RACCORDO
100
AcDbPolyline
 62
250
  6
CONTINUOUS
 90
3
 70
0
 10
152.4194814761
 20
98.1255118117
 10
152.3631243025
 20
98.1850732932
 10
152.3028554472
 20
98.2339947501
  0
LWPOLYLINE
  5
41E
100
AcDbEntity
  8
RACCORDO
100
AcDbPolyline
 62
7
  6
CONTINUOUS
 90
5
 70
0
 10
143.3270272552
 20
103.5787380122
 10
143.3056759792
 20
103.6031532772
 10
143.2511266473
 20
103.6583744469
 10
143.1914785242
 20
103.7122001908
 10
143.1332896123
 20
103.7594948812
  0
LINE
  5
41F
100
AcDbEntity
  8
RACCORDO
100
AcDbLine
 62
7
  6
CONTINUOUS
 10
149.1031014037
 20
102.777097489
 11
148.9131320579
 21
103.0106905398
  0
LWPOLYLINE
  5
420
100
AcDbEntity
  8
RACCORDO
100
AcDbPolyline
 62
250
  6
CONTINUOUS
 90
7
 70
0
 10
148.9131320579
 20
102.9041761805
 10
149.0752640269
 20
102.691677976
 10
149.2672063707
 20
102.3923944378
 10
149.4402336177
 20
102.0673018477
 10
149.5885160346
 20
101.7229365511
 10
149.7043857132
 20
101.3761143681
 10
149.7861399498
 20
101.0368457757
  0
LINE
  5
421
100
AcDbEntity
  8
RACCORDO
100
AcDbLine
 62
250
  6
CONTINUOUS
 10
148.4969030814
 20
104.4499168463
 11
148.5232752166
 21
104.3946564972
  0
LINE
  5
422
100
AcDbEntity
  8
RACCORDO
100
AcDbLine
 62
7
  6
CONTINUOUS
 10
148.6834269403
 20
104.4930211366
 11
148.6834510507
 21
104.492967735
  0
LINE
  5
423
100
AcDbEntity
  8
RACCORDO
100
AcDbLine
 62
250
  6
CONTINUOUS
 10
148.5232829759
 20
104.3946389065
 11
148.6033763523
 21
104.1948357865
  0
LINE
  5
424
100
AcDbEntity
  8
RACCORDO
100
AcDbLine
 62
250
  6
CONTINUOUS
 10
148.6033763523
 20
104.1948357865
 11
148.6671041266
 21
103.9984529706
  0
LINE
  5
425
100
AcDbEntity
  8
RACCORDO
100
AcDbLine
 62
250
  6
CONTINUOUS
 10
148.6671041266
 20
103.9984529706
 11
148.7150346497
 21
103.8077762905
  0
LWPOLYLINE
  5
426
100
AcDbEntity
  8
RACCORDO
100
AcDbPolyline
 62
250
  6
CONTINUOUS
 90
5
 70
0
 10
133.9302318267
 20
111.8502913223
 10
133.9044517562
 20
111.8496016528
 10
133.8789601089
 20
111.8457993833
 10
133.8540093643
 20
111.8386730375
 10
133.8376817177
 20
111.8319211215
  0
LINE
  5
427
100
AcDbEntity
  8
RACCORDO
100
AcDbLine
 62
250
  6
CONTINUOUS
 10
134.1744276036
 20
111.846804042
 11
134.2292189597
 21
111.842170719
  0
LINE
  5
428
100
AcDbEntity
  8
RACCORDO
100
AcDbLine
 62
250
  6
CONTINUOUS
 10
134.2292189597
 20
111.842170719
 11
134.2737011038
 21
111.8264970117
  0
ARC
  5
429
100
AcDbEntity
  8
RACCORDO
100
AcDbCircle
 62
7
  6
CONTINUOUS
 10
152.2343350831
 20
97.8347583731
 40
0.5
100
AcDbArc
 50
0.0772978744
 51
63.53147469
  0
ARC
  5
42A
100
AcDbEntity
  8
RACCORDO
100
AcDbCircle
 62
7
  6
CONTINUOUS
 10
152.2343350831
 20
85.3420846943
 40
0.5
100
AcDbArc
 50
298.2630717279
 51
359.9323949927
  0
ARC
  5
42B
100
AcDbEntity
  8
RACCORDO
100
AcDbCircle
 62
7
  6
CONTINUOUS
 10
148.2258865064
 20
104.291387316
 40
0.5
100
AcDbArc
 50
23.7826420632
 51
63.504107821
  0
ARC
  5
42C
100
AcDbEntity
  8
RACCORDO
100
AcDbCircle
 62
7
  6
CONTINUOUS
 10
134.050094306
 20
111.3792834162
 40
0.5
100
AcDbArc
 50
63.3429221
 51
115.1396988135
  0
ARC
  5
42D
100
AcDbEntity
  8
RACCORDO
100
AcDbCircle
 62
7
  6
CONTINUOUS
 10
127.3777825181
 20
108.9873415351
 40
0.5
100
AcDbArc
 50
63.4349488229
 51
115.3888369333
  0
ARC
  5
42E
100
AcDbEntity
  8
RACCORDO
100
AcDbCircle
 62
7
  6
CONTINUOUS
 10
136.8841277973
 20
104.2341688955
 40
0.5
100
AcDbArc
 50
58.705417479
 51
63.4364910074
  0
ELLIPSE
  5
42F
100
AcDbEntity
  8
RACCORDO
100
AcDbEllipse
 62
7
  6
CONTINUOUS
 10
117.5934680431
 20
107.1559073266
 30
0.0
 11
-0.1828920694
 21
0.4656153856
 31
0.0
 40
0.6532976604
 41
-0.6278386123
 42
0.0271369703
  0
ELLIPSE
  5
430
100
AcDbEntity
  8
RACCORDO
100
AcDbEllipse
 62
7
  6
CONTINUOUS
 10
129.8756383043
 20
61.4526024333
 30
0.0
 11
-0.1828920694
 21
0.4656153856
 31
0.0
 40
0.6532976604
 41
-3.1687296359
 42
-2.1990917899
  0
ELLIPSE
  5
431
100
AcDbEntity
  8
RACCORDO
100
AcDbEllipse
 62
7
  6
CONTINUOUS
 10
132.513313414
 20
99.6959846412
 30
0.0
 11
-0.1826623061
 21
0.4654722043
 31
0.0
 40
0.6538654528
 41
-2.1982822863
 42
-0.6279428103
  0
ELLIPSE
  5
432
100
AcDbEntity
  8
0
100
AcDbEllipse
 62
7
  6
CONTINUOUS
 10
118.9702466721
 20
108.6596301717
 30
0.0
 11
-0.2234618187
 21
0.4480306886
 31
0.0
 40
0.6116748051
 41
-0.6831523243
 42
0.0399296533
  0
ELLIPSE
  5
433
100
AcDbEntity
  8
0
100
AcDbEllipse
 62
7
  6
CONTINUOUS
 10
134.0315133992
 20
63.1982726089
 30
0.0
 11
-0.2234618187
 21
0.4480306886
 31
0.0
 40
0.6116748051
 41
-3.1815396529
 42
-2.2548620396
  0
ELLIPSE
  5
434
100
AcDbEntity
  8
0
100
AcDbEllipse
 62
7
  6
CONTINUOUS
 10
134.0315133992
 20
101.1289968082
 30
0.0
 11
-0.2230998035
 21
0.4477110033
 31
0.0
 40
0.6127700112
 41
-2.2535417632
 42
-0.6836588249
  0
ELLIPSE
  5
435
100
AcDbEntity
  8
RACCORDO
100
AcDbEllipse
 62
7
  6
CONTINUOUS
 10
130.7544460475
 20
67.7464035888
 30
0.0
 11
-0.542618321
 21
0.8478124368
 31
0.0
 40
0.5451249042
 41
-3.21643688
 42
-2.3115524019
  0
ELLIPSE
  5
436
100
AcDbEntity
  8
DRAFT
100
AcDbEllipse
 62
7
  6
CONTINUOUS
 10
121.8362156886
 20
105.8464023726
 30
0.0
 11
-0.1669739853
 21
0.4907788
 31
0.0
 40
0.6669169639
 41
-2.9614812296
 42
0.1057473785
  0
ELLIPSE
  5
437
100
AcDbEntity
  8
DRAFT
100
AcDbEllipse
 62
7
  6
CONTINUOUS
 10
129.6143902816
 20
101.957315076
 30
0.0
 11
-0.1669739853
 21
0.4907788
 31
0.0
 40
0.6669169639
 41
-2.9614812296
 42
0.1057473785
  0
ELLIPSE
  5
438
100
AcDbEntity
  8
0
100
AcDbEllipse
 62
7
  6
CONTINUOUS
 10
146.6470501986
 20
105.0808054699
 30
0.0
 11
0.5036919259
 21
0.306310147
 31
0.0
 40
0.0884706031
 41
0.0555063591
 42
0.7227707278
  0
ELLIPSE
  5
439
100
AcDbEntity
  8
0
100
AcDbEllipse
 62
7
  6
CONTINUOUS
 10
139.5759823868
 20
108.6163393758
 30
0.0
 11
0.5036919259
 21
0.306310147
 31
0.0
 40
0.0884706031
 41
0.0555063591
 42
0.7227707278
  0
ELLIPSE
  5
43A
100
AcDbEntity
  8
0
100
AcDbEllipse
 62
7
  6
CONTINUOUS
 10
142.6608001841
 20
107.0739304771
 30
0.0
 11
0.2174819613
 21
0.4502570851
 31
0.0
 40
0.6016116119
 41
-0.8943064336
 42
-0.7832256542
  0
ELLIPSE
  5
43B
100
AcDbEntity
  8
0
100
AcDbEllipse
 62
7
  6
CONTINUOUS
 10
135.5897323722
 20
110.6094643831
 30
0.0
 11
0.2174819613
 21
0.4502570851
 31
0.0
 40
0.6016116119
 41
-0.8943064336
 42
-0.7832256542
  0
ELLIPSE
  5
43C
100
AcDbEntity
  8
DRAFT
100
AcDbEllipse
 62
7
  6
CONTINUOUS
 10
141.4915437968
 20
102.905582334
 30
0.0
 11
2.7999828534
 21
-0.0198105105
 31
0.0
 40
0.4946372042
 41
0.671511892
 42
1.5215429372
  0
ELLIPSE
  5
43D
100
AcDbEntity
  8
DRAFT
100
AcDbEllipse
 62
7
  6
CONTINUOUS
 10
134.4204759849
 20
106.4411162399
 30
0.0
 11
2.7999828534
 21
-0.0198105105
 31
0.0
 40
0.4946372042
 41
0.671511892
 42
1.5215429357
  0
ELLIPSE
  5
43E
100
AcDbEntity
  8
DRAFT
100
AcDbEllipse
 62
7
  6
CONTINUOUS
 10
140.7844370156
 20
103.4256120363
 30
0.0
 11
2.7499831596
 21
-0.0194567514
 31
0.0
 40
0.4946372042
 41
8.6603327454
 42
9.018798278
  0
ELLIPSE
  5
43F
100
AcDbEntity
  8
DRAFT
100
AcDbEllipse
 62
7
  6
CONTINUOUS
 10
133.7133692038
 20
106.9611459423
 30
0.0
 11
2.7499831596
 21
-0.0194567514
 31
0.0
 40
0.4946372042
 41
8.6603327454
 42
8.8945313964
  0
ELLIPSE
  5
440
100
AcDbEntity
  8
0
100
AcDbEllipse
 62
7
  6
CONTINUOUS
 10
140.7438094434
 20
104.61979909
 30
0.0
 11
3.2913282349
 21
-0.045931058
 31
0.0
 40
0.4892385245
 41
-1.8922459233
 42
-0.7786443829
  0
ELLIPSE
  5
441
100
AcDbEntity
  8
0
100
AcDbEllipse
 62
7
  6
CONTINUOUS
 10
133.6727416316
 20
108.1553329959
 30
0.0
 11
3.2913282349
 21
-0.045931058
 31
0.0
 40
0.4892385245
 41
4.6908651711
 42
5.5045409243
  0
ELLIPSE
  5
442
100
AcDbEntity
  8
0
100
AcDbEllipse
 62
7
  6
CONTINUOUS
 10
133.6727416316
 20
108.1553329959
 30
0.0
 11
3.2913282349
 21
-0.045931058
 31
0.0
 40
0.4892385245
 41
8.6461282593
 42
9.4598032674
  0
ELLIPSE
  5
443
100
AcDbEntity
  8
0
100
AcDbEllipse
 62
7
  6
CONTINUOUS
 10
140.7438094434
 20
104.61979909
 30
0.0
 11
3.2913282349
 21
-0.045931058
 31
0.0
 40
0.4892385245
 41
2.3629429521
 42
3.2738634677
  0
ELLIPSE
  5
444
100
AcDbEntity
  8
0
100
AcDbEllipse
 62
7
  6
CONTINUOUS
 10
142.6999984257
 20
107.0543313563
 30
0.0
 11
-0.3666079879
 21
0.6025072791
 31
0.0
 40
0.5537410481
 41
4.7852939187
 42
6.2275561736
  0
ELLIPSE
  5
445
100
AcDbEntity
  8
RACCORDO
100
AcDbEllipse
 62
7
  6
CONTINUOUS
 10
134.0098092142
 20
105.671328187
 30
0.0
 11
0.1677841941
 21
0.4740861062
 31
0.0
 40
0.4918293396
 41
-0.0609724347
 42
0.6062934277
  0
ELLIPSE
  5
446
100
AcDbEntity
  8
0
100
AcDbEllipse
 62
7
  6
CONTINUOUS
 10
135.6289306138
 20
110.5898652623
 30
0.0
 11
-0.3666079879
 21
0.6025072791
 31
0.0
 40
0.5537410481
 41
4.7852939187
 42
6.2275561736
  0
ELLIPSE
  5
447
100
AcDbEntity
  8
RACCORDO
100
AcDbEllipse
 62
7
  6
CONTINUOUS
 10
149.7070995846
 20
97.3170859793
 30
0.0
 11
0.1999952731
 21
-0.00281057
 31
0.0
 40
0.4892375088
 41
-0.7610696355
 42
0.006873852
  0
ENDSEC
  0
SECTION
  2
OBJECTS
  0
DICTIONARY
  5
C
100
AcDbDictionary
280
0
281
1
  3
ACAD_GROUP
350
D
  3
ACAD_MLINESTYLE
350
17
  3
ACAD_LAYOUT
350
1A
  3
ACAD_PLOTSETTINGS
350
19
  3
ACAD_PLOTSTYLENAME
350
E
  0
DICTIONARY
  5
D
102
{ACAD_REACTORS
330
C
102
}
100
AcDbDictionary
280
0
281
1
  0
ACDBDICTIONARYWDFLT
  5
E
102
{ACAD_REACTORS
330
C
102
}
100
AcDbDictionary
281
1
  3
Normal
350
F
100
AcDbDictionaryWithDefault
340
F
  0
DICTIONARY
  5
17
102
{ACAD_REACTORS
330
C
102
}
100
AcDbDictionary
280
0
281
1
  3
Standard
350
18
  0
DICTIONARY
  5
19
102
{ACAD_REACTORS
330
C
102
}
100
AcDbDictionary
281
1
  0
DICTIONARY
  5
1A
102
{ACAD_REACTORS
330
C
102
}
100
AcDbDictionary
281
1
  3
Model
350
448
  3
Layout1
350
449
  0
ACDBPLACEHOLDER
  5
F
102
{ACAD_REACTORS
330
E
102
}
  0
MLINESTYLE
  5
18
102
{ACAD_REACTORS
330
17
102
}
100
AcDbMlineStyle
  2
STANDARD
 70
0
  3

 62
256
 51
90.0
 52
90.0
 71
2
 49
0.5
 62
256
  6
BYLAYER
 49
-0.5
 62
256
  6
BYLAYER
  0
LAYOUT
  5
448
102
{ACAD_REACTORS
330
1A
102
}
100
AcDbPlotSettings
  1

  2
none_device
  4
ISO_A4_(297.00_x_210.00_MM)
  6

 40
0.0
 41
0.0
 42
0.0
 43
0.0
 44
297.0
 45
210.0
 46
0.0
 47
0.0
 48
0.0
 49
0.0
140
0.0
141
0.0
142
1.0
143
1.0
 70
1024
 72
1
 73
0
 74
0
  7

 75
0
147
1.0
148
0.0
149
0.0
100
AcDbLayout
  1
Model
 70
0
 71
0
 10
0.0
 20
0.0
 11
297.0
 21
210.0
 12
0.0
 22
0.0
 32
0.0
 14
0.0
 24
0.0
 34
0.0
 15
0.0
 25
0.0
 35
0.0
146
0.0
 13
0.0
 23
0.0
 33
0.0
 16
1.0
 26
0.0
 36
0.0
 17
0.0
 27
1.0
 37
0.0
 76
0
330
21E
345
0
346
0
  0
LAYOUT
  5
449
102
{ACAD_REACTORS
330
1A
102
}
100
AcDbPlotSettings
  1

  2
none_device
  4
ISO_A4_(297.00_x_210.00_MM)
  6

 40
0.0
 41
0.0
 42
0.0
 43
0.0
 44
297.0
 45
210.0
 46
0.0
 47
0.0
 48
0.0
 49
0.0
140
0.0
141
0.0
142
1.0
143
1.0
 70
0
 72
1
 73
0
 74
0
  7

 75
0
147
1.0
148
0.0
149
0.0
100
AcDbLayout
  1
Layout1
 70
0
 71
1
 10
0.0
 20
0.0
 11
297.0
 21
210.0
 12
0.0
 22
0.0
 32
0.0
 14
0.0
 24
0.0
 34
0.0
 15
0.0
 25
0.0
 35
0.0
146
0.0
 13
0.0
 23
0.0
 33
0.0
 16
1.0
 26
0.0
 36
0.0
 17
0.0
 27
1.0
 37
0.0
 76
0
330
21F
345
0
346
0
  0
ENDSEC
  0
EOF
