  0
SECTION
  2
HEADER
  9
$ACADVER
  1
AC1024
  9
$DWGCODEPAGE
  3
ANSI_1252
  9
$EXTMAX
 10
297.0
 20
210.0
 30
0.0
  9
$EXTMIN
 10
0.0
 20
0.0
 30
0.0
  9
$LIMMIN
 10
0.0
 20
0.0
  9
$LIMMAX
 10
297.0
 20
210.0
  9
$VIEWCTR
 10
148.5
 20
105.0
  9
$VIEWSIZE
 40
210.0
  9
$CLAYER
  8
0
  9
$LTSCALE
 40
16.335
  9
$CELTYPE
  6
BYLAYER
  9
$DIMSCALE
 40
1.0
  9
$DIMASZ
 40
3.0
  9
$DIMEXO
 40
0.5
  9
$DIMDLI
 40
11.286
  9
$DIMEXE
 40
1.5
  9
$DIMCEN
 40
2.673
  9
$DIMLFAC
 40
1.0
  9
$DIMBLK
  1
_FILLED
  9
$DIMALT
 70
0
  9
$DIMALTF
 40
0.0393700787
  9
$DIMTXT
 40
3.0
  9
$DIMTOL
 70
1
  9
$DIMLIM
 70
0
  9
$DIMTFAC
 40
1.0
  9
$DIMTP
 40
0.01
  9
$DIMTM
 40
0.01
  9
$DIMGAP
 40
0.625
  9
$DIMDSEP
 70
44
  9
$AUNITS
 70
0
  9
$PDMODE
 70
3
  9
$PDSIZE
 40
3.0
  9
$HANDSEED
  5
484
  9
$TILEMODE
 70
1
  9
$MEASUREMENT
 70
1
  9
$INSUNITS
 70
4
  0
ENDSEC
  0
SECTION
  2
CLASSES
  0
CLASS
  1
ACDBDICTIONARYWDFLT
  2
AcDbDictionaryWithDefault
  3
AutoCAD 2000
 90
0
 91
1
280
0
281
0
  0
CLASS
  1
ACDBPLACEHOLDER
  2
AcDbPlaceHolder
  3
AutoCAD 2000
 90
0
 91
1
280
0
281
0
  0
CLASS
  1
LAYOUT
  2
AcDbLayout
  3
AutoCAD 2000
 90
0
 91
0
280
0
281
0
  0
ENDSEC
  0
SECTION
  2
TABLES
  0
TABLE
  2
VPORT
  5
8
100
AcDbSymbolTable
 70
2
  0
VPORT
  5
1F4
100
AcDbSymbolTableRecord
100
AcDbViewportTableRecord
  2
*ACTIVE
 70
0
 10
0.0
 20
0.0
 11
1.0
 21
1.0
 12
148.5
 22
105.0
 13
0.0
 23
0.0
 14
1.0
 24
1.0
 15
0.0
 25
0.0
 16
0.0
 26
0.0
 36
1.0
 17
0.0
 27
0.0
 37
0.0
 40
210.0
 41
1.4142857143
 42
50.0
 43
0.0
 44
0.0
 50
0.0
 51
0.0
 71
0
 72
100
 73
1
 74
1
 75
0
 76
0
 77
0
 78
0
  0
ENDTAB
  0
TABLE
  2
LTYPE
  5
5
100
AcDbSymbolTable
 70
6
  0
LTYPE
  5
14
100
AcDbSymbolTableRecord
100
AcDbLinetypeTableRecord
  2
BYBLOCK
 70
0
  3

 72
65
 73
0
 40
0.0
  0
LTYPE
  5
15
100
AcDbSymbolTableRecord
100
AcDbLinetypeTableRecord
  2
BYLAYER
 70
0
  3

 72
65
 73
0
 40
0.0
  0
LTYPE
  5
16
100
AcDbSymbolTableRecord
100
AcDbLinetypeTableRecord
  2
CONTINUOUS
 70
64
  3
Solid line
 72
65
 73
0
 40
0.0
  0
LTYPE
  5
1F5
100
AcDbSymbolTableRecord
100
AcDbLinetypeTableRecord
  2
CENTER
 70
64
  3
____ _ ____ _ ____ _ ____ _ ____ _ ____ _ ____
 72
65
 73
4
 40
0.6
 49
0.375
 74
0
 49
-0.075
 74
0
 49
0.075
 74
0
 49
-0.075
 74
0
  0
LTYPE
  5
1F6
100
AcDbSymbolTableRecord
100
AcDbLinetypeTableRecord
  2
HIDDEN
 70
64
  3
- - - - - - - - - - - - - - - - - - - -
 72
65
 73
2
 40
0.2
 49
0.1
 74
0
 49
-0.1
 74
0
  0
LTYPE
  5
1F7
100
AcDbSymbolTableRecord
100
AcDbLinetypeTableRecord
  2
PHANTOM
 70
64
  3
_____ _ _ _____ _ _ _____ _ _ _____
 72
65
 73
6
 40
0.8
 49
0.45
 74
0
 49
-0.05
 74
0
 49
0.1
 74
0
 49
-0.05
 74
0
 49
0.1
 74
0
 49
-0.05
 74
0
  0
LTYPE
  5
1F8
100
AcDbSymbolTableRecord
100
AcDbLinetypeTableRecord
  2
DOT
 70
64
  3
. . . . . . . . . . . . . . . . . . . .
 72
65
 73
2
 40
0.2
 49
0.1
 74
0
 49
-0.1
 74
0
  0
LTYPE
  5
1F9
100
AcDbSymbolTableRecord
100
AcDbLinetypeTableRecord
  2
DASHED
 70
64
  3
- - - - - - - - - - - - - - - - - - - -
 72
65
 73
2
 40
0.2
 49
0.1
 74
0
 49
-0.1
 74
0
  0
ENDTAB
  0
TABLE
  2
LAYER
  5
2
100
AcDbSymbolTable
 70
36
  0
LAYER
  5
10
100
AcDbSymbolTableRecord
100
AcDbLayerTableRecord
  2
0
 70
0
 62
7
  6
CONTINUOUS
370
-3
390
F
  0
LAYER
  5
1FA
100
AcDbSymbolTableRecord
100
AcDbLayerTableRecord
  2
DEFAULT_1
 70
0
 62
7
  6
CENTER
370
-3
390
F
  0
LAYER
  5
1FB
100
AcDbSymbolTableRecord
100
AcDbLayerTableRecord
  2
DEFAULT_2
 70
0
 62
7
  6
HIDDEN
370
-3
390
F
  0
LAYER
  5
1FC
100
AcDbSymbolTableRecord
100
AcDbLayerTableRecord
  2
DEFAULT_3
 70
0
 62
7
  6
PHANTOM
370
-3
390
F
  0
LAYER
  5
1FD
100
AcDbSymbolTableRecord
100
AcDbLayerTableRecord
  2
ASSI
 70
0
 62
7
  6
CONTINUOUS
370
-3
390
F
  0
LAYER
  5
1FE
100
AcDbSymbolTableRecord
100
AcDbLayerTableRecord
  2
COORDINATE
 70
0
 62
7
  6
CONTINUOUS
370
-3
390
F
  0
LAYER
  5
1FF
100
AcDbSymbolTableRecord
100
AcDbLayerTableRecord
  2
COORD_ORIGINE
 70
0
 62
7
  6
CONTINUOUS
370
-3
390
F
  0
LAYER
  5
200
100
AcDbSymbolTableRecord
100
AcDbLayerTableRecord
  2
COPY_PUBLISH
 70
0
 62
7
  6
CONTINUOUS
370
-3
390
F
  0
LAYER
  5
201
100
AcDbSymbolTableRecord
100
AcDbLayerTableRecord
  2
COSMETIC
 70
0
 62
7
  6
CONTINUOUS
370
-3
390
F
  0
LAYER
  5
202
100
AcDbSymbolTableRecord
100
AcDbLayerTableRecord
  2
COSMETICHE
 70
0
 62
7
  6
CONTINUOUS
370
-3
390
F
  0
LAYER
  5
203
100
AcDbSymbolTableRecord
100
AcDbLayerTableRecord
  2
CURVE
 70
0
 62
7
  6
CONTINUOUS
370
-3
390
F
  0
LAYER
  5
204
100
AcDbSymbolTableRecord
100
AcDbLayerTableRecord
  2
DRAFT
 70
0
 62
7
  6
CONTINUOUS
370
-3
390
F
  0
LAYER
  5
205
100
AcDbSymbolTableRecord
100
AcDbLayerTableRecord
  2
ESTENSIONE
 70
0
 62
7
  6
CONTINUOUS
370
-3
390
F
  0
LAYER
  5
206
100
AcDbSymbolTableRecord
100
AcDbLayerTableRecord
  2
IMPORT_IGES
 70
0
 62
7
  6
CONTINUOUS
370
-3
390
F
  0
LAYER
  5
207
100
AcDbSymbolTableRecord
100
AcDbLayerTableRecord
  2
INTFCLR_1
 70
0
 62
7
  6
CONTINUOUS
370
-3
390
F
  0
LAYER
  5
208
100
AcDbSymbolTableRecord
100
AcDbLayerTableRecord
  2
INTF_1
 70
0
 62
7
  6
CONTINUOUS
370
-3
390
F
  0
LAYER
  5
209
100
AcDbSymbolTableRecord
100
AcDbLayerTableRecord
  2
INTF_11
 70
0
 62
7
  6
CONTINUOUS
370
-3
390
F
  0
LAYER
  5
20A
100
AcDbSymbolTableRecord
100
AcDbLayerTableRecord
  2
INTF_13
 70
0
 62
7
  6
CONTINUOUS
370
-3
390
F
  0
LAYER
  5
20B
100
AcDbSymbolTableRecord
100
AcDbLayerTableRecord
  2
INTF_2
 70
0
 62
7
  6
CONTINUOUS
370
-3
390
F
  0
LAYER
  5
20C
100
AcDbSymbolTableRecord
100
AcDbLayerTableRecord
  2
INTF_YELLOW
 70
0
 62
7
  6
CONTINUOUS
370
-3
390
F
  0
LAYER
  5
20D
100
AcDbSymbolTableRecord
100
AcDbLayerTableRecord
  2
NOTE
 70
0
 62
7
  6
CONTINUOUS
370
-3
390
F
  0
LAYER
  5
20E
100
AcDbSymbolTableRecord
100
AcDbLayerTableRecord
  2
PIANI
 70
0
 62
7
  6
CONTINUOUS
370
-3
390
F
  0
LAYER
  5
20F
100
AcDbSymbolTableRecord
100
AcDbLayerTableRecord
  2
PIANI_ORIGINE
 70
0
 62
7
  6
CONTINUOUS
370
-3
390
F
  0
LAYER
  5
210
100
AcDbSymbolTableRecord
100
AcDbLayerTableRecord
  2
PUNTI
 70
0
 62
7
  6
CONTINUOUS
370
-3
390
F
  0
LAYER
  5
211
100
AcDbSymbolTableRecord
100
AcDbLayerTableRecord
  2
RACCORDO
 70
0
 62
7
  6
CONTINUOUS
370
-3
390
F
  0
LAYER
  5
212
100
AcDbSymbolTableRecord
100
AcDbLayerTableRecord
  2
RGB__255__255__255__
 70
0
 62
7
  6
CONTINUOUS
370
-3
390
F
  0
LAYER
  5
213
100
AcDbSymbolTableRecord
100
AcDbLayerTableRecord
  2
RGB____0____0____0__
 70
0
 62
7
  6
CONTINUOUS
370
-3
390
F
  0
LAYER
  5
214
100
AcDbSymbolTableRecord
100
AcDbLayerTableRecord
  2
SMUSSO
 70
0
 62
7
  6
CONTINUOUS
370
-3
390
F
  0
LAYER
  5
215
100
AcDbSymbolTableRecord
100
AcDbLayerTableRecord
  2
SNAPLINE
 70
0
 62
7
  6
CONTINUOUS
370
-3
390
F
  0
LAYER
  5
216
100
AcDbSymbolTableRecord
100
AcDbLayerTableRecord
  2
SUPERFICI
 70
0
 62
7
  6
CONTINUOUS
370
-3
390
F
  0
LAYER
  5
217
100
AcDbSymbolTableRecord
100
AcDbLayerTableRecord
  2
SUP_ASS_ANCORINA
 70
0
 62
7
  6
CONTINUOUS
370
-3
390
F
  0
LAYER
  5
218
100
AcDbSymbolTableRecord
100
AcDbLayerTableRecord
  2
TRASH
 70
0
 62
7
  6
CONTINUOUS
370
-3
390
F
  0
LAYER
  5
219
100
AcDbSymbolTableRecord
100
AcDbLayerTableRecord
  2
XSEC_DATUMS
 70
0
 62
7
  6
CONTINUOUS
370
-3
390
F
  0
ENDTAB
  0
TABLE
  2
STYLE
  5
3
100
AcDbSymbolTable
 70
1
  0
STYLE
  5
11
100
AcDbSymbolTableRecord
100
AcDbTextStyleTableRecord
  2
STANDARD
 70
0
 40
0.0
 41
0.8
 50
0.0
 71
0
 42
0.2
  3
txt
  4

  0
STYLE
  5
21A
100
AcDbSymbolTableRecord
100
AcDbTextStyleTableRecord
  2
TEXTSTYLE_1
 70
0
 40
0.0
 41
0.8
 50
0.0
 71
0
 42
0.2
  3
gdt
  4

  0
ENDTAB
  0
TABLE
  2
VIEW
  5
6
100
AcDbSymbolTable
 70
0
  0
ENDTAB
  0
TABLE
  2
UCS
  5
7
100
AcDbSymbolTable
 70
0
  0
ENDTAB
  0
TABLE
  2
APPID
  5
9
100
AcDbSymbolTable
 70
1
  0
APPID
  5
21B
100
AcDbSymbolTableRecord
100
AcDbRegAppTableRecord
  2
ACAD
 70
0
  0
ENDTAB
  0
TABLE
  2
BLOCK_RECORD
  5
1
100
AcDbSymbolTable
 70
0
  0
BLOCK_RECORD
  5
21C
100
AcDbSymbolTableRecord
100
AcDbBlockTableRecord
  2
*Model_Space
  0
BLOCK_RECORD
  5
21D
100
AcDbSymbolTableRecord
100
AcDbBlockTableRecord
  2
*Paper_Space
  0
BLOCK_RECORD
  5
21E
100
AcDbSymbolTableRecord
100
AcDbBlockTableRecord
  2
_FILLED
  0
ENDTAB
  0
TABLE
  2
DIMSTYLE
  5
A
100
AcDbSymbolTable
 70
1
100
AcDbDimStyleTable
 71
0
  0
DIMSTYLE
105
21F
100
AcDbSymbolTableRecord
100
AcDbDimStyleTableRecord
  2
STANDARD
 70
0
  3

  4

 40
1.0
 41
3.0
 42
0.5
 43
0.38
 44
1.5
 45
0.0
 46
0.0
 47
0.01
 48
0.01
140
3.0
141
0.09
142
0.0
143
25.4
144
1.0
145
0.0
146
1.0
147
0.625
 71
1
 72
0
 73
0
 74
0
 75
0
 76
0
 77
1
 78
8
 79
2
170
0
171
1
172
0
173
0
174
0
175
0
176
0
177
0
178
0
270
2
179
2
271
2
272
2
273
2
274
2
275
0
280
0
281
0
282
0
283
1
284
8
285
0
286
0
287
3
288
0
340
11
278
44
341
21E
342
21E
343
21E
344
21E
  0
ENDTAB
  0
ENDSEC
  0
SECTION
  2
BLOCKS
  0
BLOCK
  5
20
100
AcDbEntity
  8
0
100
AcDbBlockBegin
  2
*Model_Space
 70
0
 10
0.0
 20
0.0
 30
0.0
  3
*Model_Space
  1

  0
ENDBLK
  5
21
100
AcDbEntity
  8
0
100
AcDbBlockEnd
  0
BLOCK
  5
1C
100
AcDbEntity
  8
0
100
AcDbBlockBegin
  2
*Paper_Space
 70
0
 10
0.0
 20
0.0
 30
0.0
  3
*Paper_Space
  1

  0
ENDBLK
  5
1D
100
AcDbEntity
  8
0
100
AcDbBlockEnd
  0
BLOCK
  5
220
100
AcDbEntity
  8
0
100
AcDbBlockBegin
  2
_FILLED
 70
64
 10
0.0
 20
0.0
  3
_FILLED
  1

  0
SOLID
  5
221
100
AcDbEntity
  8
0
  6
BYBLOCK
 62
0
100
AcDbTrace
 10
0.0
 20
0.0
 11
-1.0
 21
0.3166666667
 12
-1.0
 22
-0.3166666667
 13
-1.0
 23
-0.3166666667
  0
ENDBLK
  5
222
100
AcDbEntity
  8
0
  6
BYBLOCK
 62
0
100
AcDbBlockEnd
  0
ENDSEC
  0
SECTION
  2
ENTITIES
  0
LWPOLYLINE
  5
223
100
AcDbEntity
  8
RACCORDO
100
AcDbPolyline
 62
250
  6
CONTINUOUS
 90
14
 70
0
 10
-45.6520970206
 20
-49.4872453311
 10
-45.6523198014
 20
-49.5596719873
 10
-45.6491105667
 20
-49.6288433122
 10
-45.6424920534
 20
-49.6942766378
 10
-45.6325124709
 20
-49.7555169031
 10
-45.6192408653
 20
-49.8121342695
 10
-45.6027678927
 20
-49.8637289498
 10
-45.5832133788
 20
-49.9099391318
 10
-45.5607149844
 20
-49.9504468686
 10
-45.535423188
 20
-49.9849748087
 10
-45.5075188571
 20
-50.0132810033
 10
-45.477198401
 20
-50.0351688386
 10
-45.444661652
 20
-50.0504898375
 10
-45.4339827904
 20
-50.0539390461
  0
LWPOLYLINE
  5
224
100
AcDbEntity
  8
RACCORDO
100
AcDbPolyline
 62
7
  6
CONTINUOUS
 90
15
 70
0
 10
-45.9021637413
 20
-49.2771376983
 10
-45.9025551072
 20
-49.3266354935
 10
-45.8986406273
 20
-49.4105532857
 10
-45.8886831887
 20
-49.4919892739
 10
-45.8724161322
 20
-49.5705193041
 10
-45.8499756617
 20
-49.6445826171
 10
-45.8214423104
 20
-49.713970781
 10
-45.7866348861
 20
-49.7789091876
 10
-45.7460824493
 20
-49.8383490432
 10
-45.7004453908
 20
-49.8916618424
 10
-45.6500613836
 20
-49.9387723334
 10
-45.5956207936
 20
-49.9792763037
 10
-45.5380465151
 20
-50.0128016276
 10
-45.4780546099
 20
-50.0392846712
 10
-45.4339660721
 20
-50.0539276993
  0
LWPOLYLINE
  5
225
100
AcDbEntity
  8
RACCORDO
100
AcDbPolyline
 62
7
  6
CONTINUOUS
 90
10
 70
0
 10
-44.0960368014
 20
-11.9561208296
 10
-44.3713851621
 20
-16.050629099
 10
-44.63591461
 20
-20.2733278835
 10
-44.8796947497
 20
-24.4814593124
 10
-45.1027001817
 20
-28.6746120338
 10
-45.3049131629
 20
-32.8524455014
 10
-45.4863180822
 20
-37.0146460665
 10
-45.6468989145
 20
-41.1608747233
 10
-45.7866407524
 20
-45.2907281665
 10
-45.902182577
 20
-49.27750309
  0
LWPOLYLINE
  5
226
100
AcDbEntity
  8
RACCORDO
100
AcDbPolyline
 62
250
  6
CONTINUOUS
 90
10
 70
0
 10
-43.845171034
 20
-12.1499083996
 10
-44.1279047045
 20
-16.358049559
 10
-44.3901934329
 20
-20.5521305459
 10
-44.632014775
 20
-24.7317951159
 10
-44.8533480776
 20
-28.896688191
 10
-45.0541744873
 20
-33.0464560175
 10
-45.2344769498
 20
-37.1807461943
 10
-45.3942402031
 20
-41.2992075339
 10
-45.5334507813
 20
-45.4014900934
 10
-45.6520970206
 20
-49.4872453311
  0
LWPOLYLINE
  5
227
100
AcDbEntity
  8
RACCORDO
100
AcDbPolyline
 62
7
  6
CONTINUOUS
 90
15
 70
0
 10
-43.6516861222
 20
-10.9920622223
 10
-43.6972543321
 20
-11.0310041727
 10
-43.7526289653
 20
-11.0867688672
 10
-43.8030058815
 20
-11.1468061913
 10
-43.8490117731
 20
-11.2107909924
 10
-43.8911658209
 20
-11.2786357168
 10
-43.929564798
 20
-11.3498246448
 10
-43.964334668
 20
-11.4241021401
 10
-43.9955786401
 20
-11.5013437427
 10
-44.0230047852
 20
-11.5806410786
 10
-44.0465599246
 20
-11.6616665752
 10
-44.0661073148
 20
-11.7441053301
 10
-44.0813274736
 20
-11.8269107859
 10
-44.0920508046
 20
-11.9096891401
 10
-44.0960472208
 20
-11.9563957132
  0
LWPOLYLINE
  5
228
100
AcDbEntity
  8
RACCORDO
100
AcDbPolyline
 62
250
  6
CONTINUOUS
 90
19
 70
0
 10
-43.3261386241
 20
-10.9386981563
 10
-43.3672345817
 20
-10.9736257402
 10
-43.4082688723
 20
-11.0145176508
 10
-43.4489511244
 20
-11.0610910334
 10
-43.4889916843
 20
-11.1130275873
 10
-43.5281087851
 20
-11.1699635633
 10
-43.5660311387
 20
-11.2314895238
 10
-43.6024878749
 20
-11.2971690098
 10
-43.6372252641
 20
-11.3665502789
 10
-43.6700132347
 20
-11.4391569637
 10
-43.7006215199
 20
-11.5144860595
 10
-43.7288321164
 20
-11.5920121629
 10
-43.7544551521
 20
-11.6711986195
 10
-43.7773111418
 20
-11.7514991378
 10
-43.7972354904
 20
-11.8323504365
 10
-43.814090421
 20
-11.9131786305
 10
-43.8277586662
 20
-11.9934171339
 10
-43.8381431223
 20
-12.072510689
 10
-43.845171034
 20
-12.1499083996
  0
LINE
  5
229
100
AcDbEntity
  8
RACCORDO
100
AcDbLine
 62
7
  6
CONTINUOUS
 10
-40.6992846724
 20
-8.6512752444
 11
-43.652033742
 21
-10.9923207138
  0
LINE
  5
22A
100
AcDbEntity
  8
RACCORDO
100
AcDbLine
 62
250
  6
CONTINUOUS
 10
-40.3744326014
 20
-8.598479652
 11
-43.3261386241
 21
-10.9386981563
  0
LWPOLYLINE
  5
22B
100
AcDbEntity
  8
RACCORDO
100
AcDbPolyline
 62
7
  6
CONTINUOUS
 90
10
 70
0
 10
-8.1256854988
 20
-60.8239008567
 10
-8.0803525181
 20
-60.8350828628
 10
-8.0165548681
 20
-60.8446796218
 10
-7.951340061
 20
-60.8474092257
 10
-7.8853503243
 20
-60.8430694396
 10
-7.8193858249
 20
-60.8315743038
 10
-7.7546734651
 20
-60.81313076
 10
-7.6918498045
 20
-60.7880422046
 10
-7.631138889
 20
-60.756538592
 10
-7.604505045
 20
-60.7402981441
  0
LWPOLYLINE
  5
22C
100
AcDbEntity
  8
RACCORDO
100
AcDbPolyline
 62
250
  6
CONTINUOUS
 90
10
 70
0
 10
-45.6520852858
 20
-49.4872361006
 10
-45.7058895828
 20
-49.4694158043
 10
-45.7546149596
 20
-49.4486065175
 10
-45.7974461205
 20
-49.4251564308
 10
-45.8336663947
 20
-49.3994579223
 10
-45.8626697275
 20
-49.3719409913
 10
-45.8839708218
 20
-49.343066064
 10
-45.8972132578
 20
-49.3133162893
 10
-45.9021754568
 20
-49.2831894543
 10
-45.9021740436
 20
-49.2775032976
  0
LINE
  5
22D
100
AcDbEntity
  8
RACCORDO
100
AcDbLine
 62
7
  6
CONTINUOUS
 10
-33.5390635702
 20
-9.1134420387
 11
-33.133055834
 21
-8.7398138787
  0
LWPOLYLINE
  5
22E
100
AcDbEntity
  8
RACCORDO
100
AcDbPolyline
 62
7
  6
CONTINUOUS
 90
8
 70
0
 10
-36.2543018775
 20
-9.5184333147
 10
-36.2616261616
 20
-9.5249192335
 10
-36.2957339672
 20
-9.5592409932
 10
-36.3266757483
 20
-9.5978898073
 10
-36.3539518564
 20
-9.6408662501
 10
-36.3766774461
 20
-9.6874303797
 10
-36.3942387128
 20
-9.7367919665
 10
-36.3965751728
 20
-9.7467881806
  0
LINE
  5
22F
100
AcDbEntity
  8
RACCORDO
100
AcDbLine
 62
250
  6
CONTINUOUS
 10
-35.0248683805
 20
-8.1936946372
 11
-35.4463004179
 21
-8.562870185
  0
LINE
  5
230
100
AcDbEntity
  8
RACCORDO
100
AcDbLine
 62
250
  6
CONTINUOUS
 10
-35.2873348214
 20
-8.2063595021
 11
-35.7097325835
 21
-8.5761306066
  0
LINE
  5
231
100
AcDbEntity
  8
ASSI
100
AcDbLine
 62
7
  6
CONTINUOUS
 10
-35.9827829073
 20
-9.2832909383
 11
-36.2541910724
 21
-9.5183373041
  0
LWPOLYLINE
  5
232
100
AcDbEntity
  8
DRAFT
100
AcDbPolyline
 62
7
  6
CONTINUOUS
 90
17
 70
0
 10
-34.3232696231
 20
-8.0735302461
 10
-34.3305158607
 20
-8.0796004604
 10
-34.3528388056
 20
-8.095881595
 10
-34.376888129
 20
-8.1100786186
 10
-34.4022671817
 20
-8.1219675416
 10
-34.4289949576
 20
-8.1315094871
 10
-34.4570524627
 20
-8.138743332
 10
-34.4859860661
 20
-8.1435617179
 10
-34.5158013399
 20
-8.1459287541
 10
-34.546492712
 20
-8.1458803313
 10
-34.5775898354
 20
-8.1434167629
 10
-34.6091102933
 20
-8.1384998505
 10
-34.6410365024
 20
-8.1311677924
 10
-34.6728453663
 20
-8.1215354977
 10
-34.7043625196
 20
-8.1096412695
 10
-34.7357623278
 20
-8.0954468047
 10
-34.7670447908
 20
-8.0789521034
  0
LINE
  5
233
100
AcDbEntity
  8
DRAFT
100
AcDbLine
 62
7
  6
CONTINUOUS
 10
-32.2332671744
 20
-6.1995911988
 11
-32.6660167559
 21
-6.5606536843
  0
LINE
  5
234
100
AcDbEntity
  8
DRAFT
100
AcDbLine
 62
7
  6
CONTINUOUS
 10
-32.6660167559
 20
-6.5606536843
 11
-33.1037163347
 21
-6.9253384271
  0
LINE
  5
235
100
AcDbEntity
  8
DRAFT
100
AcDbLine
 62
7
  6
CONTINUOUS
 10
-33.1037163347
 20
-6.9253384271
 11
-33.5462504835
 21
-7.2936688062
  0
LWPOLYLINE
  5
236
100
AcDbEntity
  8
DRAFT
100
AcDbPolyline
 62
7
  6
CONTINUOUS
 90
3
 70
0
 10
-33.5462504835
 20
-7.2936688062
 10
-33.9934369976
 20
-7.6654767468
 10
-34.2187617872
 20
-7.8527176149
  0
LINE
  5
237
100
AcDbEntity
  8
DRAFT
100
AcDbLine
 62
7
  6
CONTINUOUS
 10
-31.627059832
 20
-5.9729945749
 11
-33.6447630468
 21
-7.639468786
  0
LINE
  5
238
100
AcDbEntity
  8
DRAFT
100
AcDbLine
 62
7
  6
CONTINUOUS
 10
-36.5242136067
 20
-8.7147044546
 11
-37.2141210115
 21
-9.2810265746
  0
LINE
  5
239
100
AcDbEntity
  8
DRAFT
100
AcDbLine
 62
7
  6
CONTINUOUS
 10
-32.8741070934
 20
-5.9152515414
 11
-34.7576205387
 21
-7.4579893945
  0
LINE
  5
23A
100
AcDbEntity
  8
DRAFT
100
AcDbLine
 62
7
  6
CONTINUOUS
 10
-32.6439100296
 20
-5.8391056816
 11
-34.2708052396
 21
-7.1714340805
  0
LINE
  5
23B
100
AcDbEntity
  8
DRAFT
100
AcDbLine
 62
7
  6
CONTINUOUS
 10
-34.2986880846
 20
-7.6975823907
 11
-34.7670447908
 21
-8.0789521034
  0
LINE
  5
23C
100
AcDbEntity
  8
DRAFT
100
AcDbLine
 62
7
  6
CONTINUOUS
 10
-33.8334621958
 20
-7.319120556
 11
-34.2986880846
 21
-7.6975823907
  0
LINE
  5
23D
100
AcDbEntity
  8
DRAFT
100
AcDbLine
 62
7
  6
CONTINUOUS
 10
-33.3713625417
 20
-6.9435249097
 11
-33.8334621958
 21
-7.319120556
  0
LWPOLYLINE
  5
23E
100
AcDbEntity
  8
DRAFT
100
AcDbPolyline
 62
7
  6
CONTINUOUS
 90
3
 70
0
 10
-32.6839626055
 20
-6.385558755
 10
-32.9123219374
 20
-6.5708472733
 10
-33.3713625417
 20
-6.9435249097
  0
LINE
  5
23F
100
AcDbEntity
  8
DRAFT
100
AcDbLine
 62
7
  6
CONTINUOUS
 10
-31.0725897154
 20
-6.1330563105
 11
-33.133055834
 21
-7.7871859345
  0
LWPOLYLINE
  5
240
100
AcDbEntity
  8
RACCORDO
100
AcDbPolyline
 62
7
  6
CONTINUOUS
 90
7
 70
0
 10
-34.7576205387
 20
-7.4579893945
 10
-35.0918746535
 20
-7.6685510368
 10
-35.4200528039
 20
-7.8868585821
 10
-35.74215499
 20
-8.1129120303
 10
-36.0582970785
 20
-8.3468047104
 10
-36.3683632026
 20
-8.5884432934
 10
-36.5242753951
 20
-8.714760121
  0
LWPOLYLINE
  5
241
100
AcDbEntity
  8
RACCORDO
100
AcDbPolyline
 62
7
  6
CONTINUOUS
 90
4
 70
0
 10
-36.3480201442
 20
-8.7537718298
 10
-36.8592132517
 20
-9.0542905364
 10
-37.3580609912
 20
-9.3729839348
 10
-37.4561636219
 20
-9.4409113425
  0
LINE
  5
242
100
AcDbEntity
  8
RACCORDO
100
AcDbLine
 62
7
  6
CONTINUOUS
 10
-35.824060683
 20
-8.4711281556
 11
-36.3480201442
 21
-8.7537718298
  0
LINE
  5
243
100
AcDbEntity
  8
RACCORDO
100
AcDbLine
 62
7
  6
CONTINUOUS
 10
-8.1257478366
 20
-60.8238987266
 11
-45.4339039191
 21
-50.0539618392
  0
LINE
  5
244
100
AcDbEntity
  8
RACCORDO
100
AcDbLine
 62
250
  6
CONTINUOUS
 10
-8.3519729459
 20
-60.2548636688
 11
-45.6520970206
 21
-49.4872453311
  0
LINE
  5
245
100
AcDbEntity
  8
RACCORDO
100
AcDbLine
 62
7
  6
CONTINUOUS
 10
-45.4339827904
 20
-50.0539390461
 11
-45.4338946916
 21
-50.053964503
  0
LWPOLYLINE
  5
246
100
AcDbEntity
  8
RACCORDO
100
AcDbPolyline
 62
250
  6
CONTINUOUS
 90
10
 70
0
 10
-35.5403214375
 20
-8.7961540961
 10
-35.53724638
 20
-8.7671814379
 10
-35.5318611591
 20
-8.7373468309
 10
-35.5242950668
 20
-8.7073668647
 10
-35.5147297803
 20
-8.6779616378
 10
-35.5033950133
 20
-8.6498374997
 10
-35.4905630081
 20
-8.6236700769
 10
-35.4765419771
 20
-8.6000879872
 10
-35.4616686934
 20
-8.579657745
 10
-35.4463004202
 20
-8.5628701843
  0
LINE
  5
247
100
AcDbEntity
  8
DRAFT
100
AcDbLine
 62
7
  6
CONTINUOUS
 10
-30.248403268
 20
-7.4652128639
 11
-33.7118696073
 21
-10.4489391922
  0
LINE
  5
248
100
AcDbEntity
  8
DRAFT
100
AcDbLine
 62
7
  6
CONTINUOUS
 10
-31.0725897154
 20
-8.0946793774
 11
-30.248403268
 21
-7.420933383
  0
LINE
  5
249
100
AcDbEntity
  8
0
100
AcDbLine
 62
7
  6
CONTINUOUS
 10
-30.248403268
 20
-6.5125849197
 11
-29.9220514456
 21
-6.3181194414
  0
LWPOLYLINE
  5
24A
100
AcDbEntity
  8
RACCORDO
100
AcDbPolyline
 62
250
  6
CONTINUOUS
 90
4
 70
0
 10
-35.7022464347
 20
-8.8074974242
 10
-36.2580362176
 20
-9.0951689556
 10
-36.8023628216
 20
-9.4011509152
 10
-37.057023199
 20
-9.5561332578
  0
LWPOLYLINE
  5
24B
100
AcDbEntity
  8
RACCORDO
100
AcDbPolyline
 62
7
  6
CONTINUOUS
 90
4
 70
0
 10
-35.7097325835
 20
-8.5761306066
 10
-36.2687270784
 20
-8.8653496029
 10
-36.816929313
 20
-9.1734334993
 10
-37.3207774548
 20
-9.4799939625
  0
LINE
  5
24C
100
AcDbEntity
  8
RACCORDO
100
AcDbLine
 62
7
  6
CONTINUOUS
 10
-35.2873348683
 20
-8.2063595139
 11
-35.824060683
 21
-8.4711281556
  0
LINE
  5
24D
100
AcDbEntity
  8
DRAFT
100
AcDbLine
 62
7
  6
CONTINUOUS
 10
-34.968177522
 20
-8.167726527
 11
-35.0253651267
 21
-8.1935512389
  0
LINE
  5
24E
100
AcDbEntity
  8
DRAFT
100
AcDbLine
 62
7
  6
CONTINUOUS
 10
-34.9108656907
 20
-8.1421063999
 11
-34.968177522
 21
-8.167726527
  0
LINE
  5
24F
100
AcDbEntity
  8
DRAFT
100
AcDbLine
 62
7
  6
CONTINUOUS
 10
-34.8534298194
 20
-8.1166909405
 11
-34.9108656907
 21
-8.1421063999
  0
LWPOLYLINE
  5
250
100
AcDbEntity
  8
DRAFT
100
AcDbPolyline
 62
7
  6
CONTINUOUS
 90
10
 70
0
 10
-32.6839626055
 20
-6.385558755
 10
-32.8653740247
 20
-6.4648129501
 10
-33.0455229859
 20
-6.5460891296
 10
-33.2244094891
 20
-6.6293872935
 10
-33.4020487808
 20
-6.7147149925
 10
-33.5784256145
 20
-6.8020646758
 10
-33.7534942512
 20
-6.8914136915
 10
-33.9272394444
 20
-6.9827544888
 10
-34.0996764405
 20
-7.0760946185
 10
-34.2708052396
 20
-7.1714340805
  0
LWPOLYLINE
  5
251
100
AcDbEntity
  8
DRAFT
100
AcDbPolyline
 62
7
  6
CONTINUOUS
 90
3
 70
0
 10
-34.7670447908
 20
-8.0789521034
 10
-34.7958706547
 20
-8.0914804798
 10
-34.8534298194
 20
-8.1166909405
  0
LWPOLYLINE
  5
252
100
AcDbEntity
  8
RACCORDO
100
AcDbPolyline
 62
7
  6
CONTINUOUS
 90
7
 70
0
 10
-35.2873348683
 20
-8.2063595139
 10
-35.2475151539
 20
-8.1911501519
 10
-35.2061670395
 20
-8.1811750372
 10
-35.163290525
 20
-8.1764341698
 10
-35.1188856104
 20
-8.1769275499
 10
-35.0729522958
 20
-8.1826551773
 10
-35.025490581
 20
-8.193617052
  0
LWPOLYLINE
  5
253
100
AcDbEntity
  8
DRAFT
100
AcDbPolyline
 62
7
  6
CONTINUOUS
 90
10
 70
0
 10
-31.627059832
 20
-5.9729945749
 10
-31.6950123032
 20
-5.9970951512
 10
-31.7628163172
 20
-6.0214651463
 10
-31.8304718741
 20
-6.0461045602
 10
-31.8979797307
 20
-6.0710136759
 10
-31.9653391301
 20
-6.0961922104
 10
-32.0325478013
 20
-6.1216393148
 10
-32.0996049873
 20
-6.1473547062
 10
-32.166511445
 20
-6.1733386675
 10
-32.2332671744
 20
-6.1995911988
  0
LWPOLYLINE
  5
254
100
AcDbEntity
  8
DRAFT
100
AcDbPolyline
 62
7
  6
CONTINUOUS
 90
10
 70
0
 10
-33.6447630468
 20
-7.639468786
 10
-33.7090714997
 20
-7.66220167
 10
-33.7732477273
 20
-7.6851750894
 10
-33.8372917298
 20
-7.7083890441
 10
-33.9012041452
 20
-7.7318437713
 10
-33.9649843354
 20
-7.7555390338
 10
-34.0286303861
 20
-7.7794741206
 10
-34.0921416592
 20
-7.8036487945
 10
-34.1555187929
 20
-7.8280632926
 10
-34.2187617872
 20
-7.8527176149
  0
LWPOLYLINE
  5
255
100
AcDbEntity
  8
RACCORDO
100
AcDbPolyline
 62
250
  6
CONTINUOUS
 90
16
 70
0
 10
-35.4945818228
 20
-10.0071712323
 10
-35.4962221883
 20
-9.975368938
 10
-35.5033139866
 20
-9.9285413997
 10
-35.5150487504
 20
-9.8813618739
 10
-35.5312970234
 20
-9.8343485625
 10
-35.5518804962
 20
-9.7880157489
 10
-35.5765739778
 20
-9.7428698382
 10
-35.605107863
 20
-9.6994041733
 10
-35.6371685876
 20
-9.6580967842
 10
-35.6724019973
 20
-9.6194032097
 10
-35.710421398
 20
-9.5837467814
 10
-35.7508094909
 20
-9.5515176221
 10
-35.7931196939
 20
-9.5230702443
 10
-35.8368865505
 20
-9.4987149855
 10
-35.8816314323
 20
-9.4787156666
 10
-35.926864237
 20
-9.4632890752
  0
LINE
  5
256
100
AcDbEntity
  8
RACCORDO
100
AcDbLine
 62
7
  6
CONTINUOUS
 10
-33.6359271328
 20
-9.3459053784
 11
-33.7118696073
 21
-10.4489391922
  0
LWPOLYLINE
  5
257
100
AcDbEntity
  8
DRAFT
100
AcDbPolyline
 62
7
  6
CONTINUOUS
 90
10
 70
0
 10
-34.2187617872
 20
-7.8527176149
 10
-34.2224059376
 20
-7.8836711952
 10
-34.2282951052
 20
-7.9132939277
 10
-34.2364292898
 20
-7.9415858125
 10
-34.2468775248
 20
-7.9686871776
 10
-34.2595707769
 20
-7.9944576949
 10
-34.2743019465
 20
-8.0184763802
 10
-34.2911058467
 20
-8.0407136652
 10
-34.3099476644
 20
-8.0611991184
 10
-34.3232696231
 20
-8.0735302461
  0
LINE
  5
258
100
AcDbEntity
  8
0
100
AcDbLine
 62
7
  6
CONTINUOUS
 10
-24.7053975868
 20
-7.8240376962
 11
-24.8790457645
 21
-8.0625849197
  0
LINE
  5
259
100
AcDbEntity
  8
RACCORDO
100
AcDbLine
 62
7
  6
CONTINUOUS
 10
-27.9765716547
 20
-10.7191951411
 11
-27.5943931984
 21
-10.3386880605
  0
LWPOLYLINE
  5
25A
100
AcDbEntity
  8
DRAFT
100
AcDbPolyline
 62
7
  6
CONTINUOUS
 90
10
 70
0
 10
-24.043486427
 20
-8.8798493788
 10
-24.251783963
 20
-9.0709292388
 10
-24.4612635174
 20
-9.2625872025
 10
-24.6719288319
 20
-9.4548351068
 10
-24.883804264
 20
-9.647689038
 10
-25.0968712382
 20
-9.8411571266
 10
-25.311068825
 20
-10.0352362963
 10
-25.5263783712
 20
-10.229930078
 10
-25.7428229607
 20
-10.4252518226
 10
-25.9604042417
 20
-10.6212102492
  0
LINE
  5
25B
100
AcDbEntity
  8
DRAFT
100
AcDbLine
 62
7
  6
CONTINUOUS
 10
-25.6548593171
 20
-7.6970203624
 11
-27.5943931984
 21
-9.3860601163
  0
LINE
  5
25C
100
AcDbEntity
  8
DRAFT
100
AcDbLine
 62
7
  6
CONTINUOUS
 10
-25.1003892004
 20
-7.857082098
 11
-27.0826859857
 21
-9.5337772648
  0
LWPOLYLINE
  5
25D
100
AcDbEntity
  8
DRAFT
100
AcDbPolyline
 62
7
  6
CONTINUOUS
 90
10
 70
0
 10
-24.494181858
 20
-8.4336726941
 10
-24.7150869356
 20
-8.6122714178
 10
-24.9367032582
 20
-8.7919142985
 10
-25.1590416959
 20
-8.9726061163
 10
-25.3821174462
 20
-9.1543720255
 10
-25.6059376796
 20
-9.3371946688
 10
-25.8304984429
 20
-9.521014565
 10
-26.0558025873
 20
-9.705813956
 10
-26.2818628269
 20
-9.8916164585
 10
-26.5086872453
 20
-10.078424421
  0
LWPOLYLINE
  5
25E
100
AcDbEntity
  8
RACCORDO
100
AcDbPolyline
 62
250
  6
CONTINUOUS
 90
10
 70
0
 10
-2.3172017019
 20
-52.0376683248
 10
-2.2781782541
 20
-52.0463404092
 10
-2.2366273025
 20
-52.0507773268
 10
-2.1937837275
 20
-52.050847214
 10
-2.1509208259
 20
-52.0465479936
 10
-2.109312469
 20
-52.0380074372
 10
-2.0701952432
 20
-52.0254793668
 10
-2.0347316995
 20
-52.0093361126
 10
-2.0039758027
 20
-51.9900574466
 10
-1.2219696789
 20
-51.3103288511
  0
LINE
  5
25F
100
AcDbEntity
  8
DRAFT
100
AcDbLine
 62
7
  6
CONTINUOUS
 10
-33.133055834
 20
-7.7871859345
 11
-33.133055834
 21
-8.7398138787
  0
LINE
  5
260
100
AcDbEntity
  8
DRAFT
100
AcDbLine
 62
7
  6
CONTINUOUS
 10
-31.0725897154
 20
-6.1330563105
 11
-31.0725897154
 21
-8.0946793774
  0
LINE
  5
261
100
AcDbEntity
  8
DRAFT
100
AcDbLine
 62
7
  6
CONTINUOUS
 10
-30.248403268
 20
-7.4652128639
 11
-30.248403268
 21
-6.5125849197
  0
LINE
  5
262
100
AcDbEntity
  8
DRAFT
100
AcDbLine
 62
7
  6
CONTINUOUS
 10
-24.3363930404
 20
-8.2372792666
 11
-24.4860860569
 21
-8.4396608136
  0
LWPOLYLINE
  5
263
100
AcDbEntity
  8
RACCORDO
100
AcDbPolyline
 62
250
  6
CONTINUOUS
 90
10
 70
0
 10
-26.0693348068
 20
-11.2697669948
 10
-26.0847039562
 20
-11.2865555522
 10
-26.099577841
 20
-11.3069868775
 10
-26.1135991816
 20
-11.3305699385
 10
-26.1264312277
 20
-11.3567380743
 10
-26.1377657977
 20
-11.3848625253
 10
-26.1473306963
 20
-11.414267524
 10
-26.1548963053
 20
-11.444246679
 10
-26.1602810715
 20
-11.4740799639
 10
-26.1633558264
 20
-11.503050906
  0
LINE
  5
264
100
AcDbEntity
  8
RACCORDO
100
AcDbLine
 62
250
  6
CONTINUOUS
 10
-25.806538353
 20
-11.434936534
 11
-25.4401142109
 21
-11.0490072374
  0
LINE
  5
265
100
AcDbEntity
  8
RACCORDO
100
AcDbLine
 62
250
  6
CONTINUOUS
 10
-26.069334807
 20
-11.2697669948
 11
-25.7025806517
 21
-10.884807302
  0
LINE
  5
266
100
AcDbEntity
  8
DRAFT
100
AcDbLine
 62
7
  6
CONTINUOUS
 10
-20.0302946124
 20
-9.9214525398
 11
-21.7102018093
 21
-11.4629530008
  0
LINE
  5
267
100
AcDbEntity
  8
DRAFT
100
AcDbLine
 62
7
  6
CONTINUOUS
 10
-20.1968616343
 20
-9.5748570806
 11
-21.9698284938
 21
-11.1495069843
  0
LWPOLYLINE
  5
268
100
AcDbEntity
  8
RACCORDO
100
AcDbPolyline
 62
7
  6
CONTINUOUS
 90
8
 70
0
 10
-26.7280224359
 20
-12.2684333147
 10
-26.7353467199
 20
-12.2749192335
 10
-26.7694545256
 20
-12.3092409932
 10
-26.8003963067
 20
-12.3478898073
 10
-26.8276724148
 20
-12.3908662501
 10
-26.8503980045
 20
-12.4374303797
 10
-26.8679592712
 20
-12.4867919665
 10
-26.8702957312
 20
-12.4967881806
  0
LINE
  5
269
100
AcDbEntity
  8
DRAFT
100
AcDbLine
 62
7
  6
CONTINUOUS
 10
-20.9210327578
 20
-9.2232088559
 11
-22.4566437929
 21
-10.5818887262
  0
LINE
  5
26A
100
AcDbEntity
  8
ASSI
100
AcDbLine
 62
7
  6
CONTINUOUS
 10
-26.4565034656
 20
-12.0332909383
 11
-26.7279116308
 21
-12.2683373041
  0
LWPOLYLINE
  5
26B
100
AcDbEntity
  8
RACCORDO
100
AcDbPolyline
 62
250
  6
CONTINUOUS
 90
10
 70
0
 10
-25.8065386038
 20
-11.4349367913
 10
-25.825896031
 20
-11.4487982802
 10
-25.8474452848
 20
-11.4650643861
 10
-25.8706233587
 20
-11.483310133
 10
-25.8948246911
 20
-11.5030588233
 10
-25.9194169862
 20
-11.5237944933
 10
-25.9437577335
 20
-11.544975393
 10
-25.967210995
 20
-11.56604814
 10
-25.9891640192
 20
-11.5864621774
 10
-26.0090432508
 20
-11.605684158
  0
LINE
  5
26C
100
AcDbEntity
  8
DRAFT
100
AcDbLine
 62
7
  6
CONTINUOUS
 10
-27.5943931984
 20
-9.3860601163
 11
-27.5943931984
 21
-10.3386880605
  0
LINE
  5
26D
100
AcDbEntity
  8
RACCORDO
100
AcDbLine
 62
7
  6
CONTINUOUS
 10
-28.0677501312
 20
-10.9532996237
 11
-28.1392354136
 21
-12.0576201181
  0
LINE
  5
26E
100
AcDbEntity
  8
RACCORDO
100
AcDbLine
 62
7
  6
CONTINUOUS
 10
-13.111834574
 20
-11.1782911682
 11
-13.2893269686
 21
-11.2539802204
  0
LINE
  5
26F
100
AcDbEntity
  8
RACCORDO
100
AcDbLine
 62
7
  6
CONTINUOUS
 10
-12.9224131483
 20
-11.1090640489
 11
-13.111834574
 21
-11.1782911682
  0
LINE
  5
270
100
AcDbEntity
  8
RACCORDO
100
AcDbLine
 62
7
  6
CONTINUOUS
 10
-12.8725320522
 20
-11.0925659541
 11
-12.9224131483
 21
-11.1090640489
  0
LWPOLYLINE
  5
271
100
AcDbEntity
  8
RACCORDO
100
AcDbPolyline
 62
250
  6
CONTINUOUS
 90
16
 70
0
 10
-25.9683023812
 20
-12.7571712323
 10
-25.9699427467
 20
-12.725368938
 10
-25.977034545
 20
-12.6785413997
 10
-25.9887693088
 20
-12.6313618739
 10
-26.0050175818
 20
-12.5843485625
 10
-26.0256010545
 20
-12.5380157489
 10
-26.0502945362
 20
-12.4928698382
 10
-26.0788284214
 20
-12.4494041733
 10
-26.110889146
 20
-12.4080967842
 10
-26.1461225556
 20
-12.3694032097
 10
-26.1841419564
 20
-12.3337467814
 10
-26.2245300493
 20
-12.3015176221
 10
-26.2668402523
 20
-12.2730702443
 10
-26.3106071089
 20
-12.2487149855
 10
-26.3553519907
 20
-12.2287156666
 10
-26.4005847954
 20
-12.2132890752
  0
LINE
  5
272
100
AcDbEntity
  8
DRAFT
100
AcDbLine
 62
7
  6
CONTINUOUS
 10
-16.7822236906
 20
-15.1461750842
 11
-16.5136900369
 21
-14.9009241667
  0
LINE
  5
273
100
AcDbEntity
  8
RACCORDO
100
AcDbLine
 62
250
  6
CONTINUOUS
 10
-16.7819547313
 20
-15.1459297592
 11
-16.7822397495
 21
-15.1461897519
  0
LINE
  5
274
100
AcDbEntity
  8
SUPERFICI
100
AcDbLine
 62
7
  6
CONTINUOUS
 10
-12.7319659883
 20
-11.713577228
 11
-13.1719854512
 21
-12.0784426803
  0
LINE
  5
275
100
AcDbEntity
  8
SUPERFICI
100
AcDbLine
 62
7
  6
CONTINUOUS
 10
-13.1719854512
 20
-12.0784426803
 11
-13.8381250159
 21
-12.6303408115
  0
LINE
  5
276
100
AcDbEntity
  8
SUPERFICI
100
AcDbLine
 62
7
  6
CONTINUOUS
 10
-13.8381250159
 20
-12.6303408115
 11
-14.2955747764
 21
-13.0090432587
  0
LINE
  5
277
100
AcDbEntity
  8
SUPERFICI
100
AcDbLine
 62
7
  6
CONTINUOUS
 10
-14.2955747764
 20
-13.0090432587
 11
-14.5826898735
 21
-13.2466204677
  0
LINE
  5
278
100
AcDbEntity
  8
SUPERFICI
100
AcDbLine
 62
250
  6
CONTINUOUS
 10
-12.5216318209
 20
-11.6329455016
 11
-14.5393122787
 21
-13.2990521279
  0
LINE
  5
279
100
AcDbEntity
  8
SUPERFICI
100
AcDbLine
 62
250
  6
CONTINUOUS
 10
-12.0424288221
 20
-11.6265905677
 11
-14.0606728625
 21
-13.2929086559
  0
LINE
  5
27A
100
AcDbEntity
  8
RACCORDO
100
AcDbLine
 62
250
  6
CONTINUOUS
 10
-15.5387518017
 20
-13.8188519633
 11
-15.9563898839
 21
-14.1630316293
  0
LINE
  5
27B
100
AcDbEntity
  8
RACCORDO
100
AcDbLine
 62
250
  6
CONTINUOUS
 10
-15.8022237627
 20
-13.8315763392
 11
-16.2169069229
 21
-14.1730455159
  0
LINE
  5
27C
100
AcDbEntity
  8
RACCORDO
100
AcDbLine
 62
250
  6
CONTINUOUS
 10
-12.998470953
 20
-11.155878437
 11
-14.7818020554
 21
-12.6240043596
  0
LINE
  5
27D
100
AcDbEntity
  8
RACCORDO
100
AcDbLine
 62
250
  6
CONTINUOUS
 10
-12.714149383
 20
-11.1315253123
 11
-14.2510976755
 21
-12.3967579281
  0
LINE
  5
27E
100
AcDbEntity
  8
RACCORDO
100
AcDbLine
 62
7
  6
CONTINUOUS
 10
-13.8772543991
 20
-11.6152698464
 11
-13.8762778144
 21
-11.6144679593
  0
LINE
  5
27F
100
AcDbEntity
  8
SUPERFICI
100
AcDbLine
 62
7
  6
CONTINUOUS
 10
-13.8745658931
 20
-11.6130626584
 11
-18.052208232
 21
-15.0423507763
  0
LINE
  5
280
100
AcDbEntity
  8
RACCORDO
100
AcDbLine
 62
7
  6
CONTINUOUS
 10
-12.5930611483
 20
-10.6290179472
 11
-13.0491552914
 21
-11.0027242812
  0
LINE
  5
281
100
AcDbEntity
  8
RACCORDO
100
AcDbLine
 62
7
  6
CONTINUOUS
 10
-13.0491552914
 20
-11.0027242812
 11
-13.4577643999
 21
-11.3376234026
  0
LINE
  5
282
100
AcDbEntity
  8
RACCORDO
100
AcDbLine
 62
250
  6
CONTINUOUS
 10
-12.9160543523
 20
-11.106960887
 11
-12.081103636
 21
-10.4228359612
  0
LINE
  5
283
100
AcDbEntity
  8
RACCORDO
100
AcDbLine
 62
250
  6
CONTINUOUS
 10
-12.081103636
 20
-10.4228359612
 11
-11.2621440581
 21
-9.7522498279
  0
LINE
  5
284
100
AcDbEntity
  8
RACCORDO
100
AcDbLine
 62
250
  6
CONTINUOUS
 10
-11.2621440581
 20
-9.7522498279
 11
-10.4408713077
 21
-9.0801954051
  0
LWPOLYLINE
  5
285
100
AcDbEntity
  8
RACCORDO
100
AcDbPolyline
 62
7
  6
CONTINUOUS
 90
6
 70
0
 10
-10.2409928708
 20
-8.7039296596
 10
-10.7209569599
 20
-9.0964869981
 10
-11.1961446513
 20
-9.4852748416
 10
-11.6665571208
 20
-9.8702928433
 10
-12.1321955313
 20
-10.2515406692
 10
-12.5930611483
 20
-10.6290179472
  0
LINE
  5
286
100
AcDbEntity
  8
RACCORDO
100
AcDbLine
 62
250
  6
CONTINUOUS
 10
-10.4408713077
 20
-9.0801954051
 11
-9.6173015192
 21
-8.4066685876
  0
LINE
  5
287
100
AcDbEntity
  8
RACCORDO
100
AcDbLine
 62
7
  6
CONTINUOUS
 10
-9.5254381705
 20
-8.1189379876
 11
-10.2409928708
 21
-8.7039296596
  0
LINE
  5
288
100
AcDbEntity
  8
RACCORDO
100
AcDbLine
 62
250
  6
CONTINUOUS
 10
-9.6173015192
 20
-8.4066685876
 11
-9.2046542272
 21
-8.0693532875
  0
LINE
  5
289
100
AcDbEntity
  8
SUPERFICI
100
AcDbLine
 62
7
  6
CONTINUOUS
 10
-14.682814696
 20
-13.0717808909
 11
-15.3756501062
 21
-13.6380263872
  0
LINE
  5
28A
100
AcDbEntity
  8
SUPERFICI
100
AcDbLine
 62
7
  6
CONTINUOUS
 10
-13.9950721629
 20
-12.5101279808
 11
-14.682814696
 21
-13.0717808909
  0
LINE
  5
28B
100
AcDbEntity
  8
SUPERFICI
100
AcDbLine
 62
7
  6
CONTINUOUS
 10
-13.3123928634
 20
-11.9530750354
 11
-13.9950721629
 21
-12.5101279808
  0
LINE
  5
28C
100
AcDbEntity
  8
SUPERFICI
100
AcDbLine
 62
7
  6
CONTINUOUS
 10
-12.4104310798
 20
-12.4341699271
 11
-12.6555339456
 21
-12.6302932167
  0
LINE
  5
28D
100
AcDbEntity
  8
RACCORDO
100
AcDbLine
 62
250
  6
CONTINUOUS
 10
-13.8762778144
 20
-11.6144679593
 11
-13.8240883965
 21
-11.5731196514
  0
LWPOLYLINE
  5
28E
100
AcDbEntity
  8
RACCORDO
100
AcDbPolyline
 62
250
  6
CONTINUOUS
 90
10
 70
0
 10
-13.2190630643
 20
-11.1419758021
 10
-13.2078430583
 20
-11.1332382394
 10
-13.1760445998
 20
-11.1128215074
 10
-13.1415164979
 20
-11.0965486193
 10
-13.1046028099
 20
-11.0845817271
 10
-13.0656713639
 20
-11.0770400756
 10
-13.0251100943
 20
-11.0739988138
 10
-12.9833231759
 20
-11.0754882465
 10
-12.9407269965
 20
-11.0814935324
 10
-12.8977460078
 20
-11.0919548313
  0
LINE
  5
28F
100
AcDbEntity
  8
SUPERFICI
100
AcDbLine
 62
7
  6
CONTINUOUS
 10
-14.8376704945
 20
-13.6985850035
 11
-14.8625764839
 21
-13.7177532237
  0
LINE
  5
290
100
AcDbEntity
  8
RACCORDO
100
AcDbLine
 62
7
  6
CONTINUOUS
 10
-13.7530357759
 20
-11.5200859998
 11
-13.8772288285
 21
-11.6152495994
  0
LINE
  5
291
100
AcDbEntity
  8
RACCORDO
100
AcDbLine
 62
7
  6
CONTINUOUS
 10
-9.4754272995
 20
-8.0829661881
 11
-9.5254381686
 21
-8.118937986
  0
LWPOLYLINE
  5
292
100
AcDbEntity
  8
RACCORDO
100
AcDbPolyline
 62
250
  6
CONTINUOUS
 90
3
 70
0
 10
-13.8240883965
 20
-11.5731196514
 10
-13.7087032644
 20
-11.4909175887
 10
-13.5842522307
 20
-11.4138532507
  0
LWPOLYLINE
  5
293
100
AcDbEntity
  8
RACCORDO
100
AcDbPolyline
 62
7
  6
CONTINUOUS
 90
4
 70
0
 10
-17.9704502507
 20
-15.0659522726
 10
-17.8712552303
 20
-14.9972763617
 10
-17.3717768941
 20
-14.6781475906
 10
-16.8608141381
 20
-14.3777424106
  0
LWPOLYLINE
  5
294
100
AcDbEntity
  8
RACCORDO
100
AcDbPolyline
 62
250
  6
CONTINUOUS
 90
5
 70
0
 10
-9.2046542272
 20
-8.0693532875
 10
-9.1622752896
 20
-8.040221858
 10
-9.1211004109
 20
-8.024586335
 10
-9.0823570715
 20
-8.0230626199
 10
-9.0703954734
 20
-8.0256787962
  0
LINE
  5
295
100
AcDbEntity
  8
RACCORDO
100
AcDbLine
 62
7
  6
CONTINUOUS
 10
-13.6097591354
 20
-11.4248743989
 11
-13.7530357759
 21
-11.5200859998
  0
LWPOLYLINE
  5
296
100
AcDbEntity
  8
RACCORDO
100
AcDbPolyline
 62
250
  6
CONTINUOUS
 90
4
 70
0
 10
-12.9985298637
 20
-11.1559269464
 10
-12.953959189
 20
-11.1278250904
 10
-12.9059820665
 20
-11.1048214871
 10
-12.8726772887
 20
-11.0926109272
  0
LINE
  5
297
100
AcDbEntity
  8
SUPERFICI
100
AcDbLine
 62
7
  6
CONTINUOUS
 10
-10.3988569943
 20
-11.9254039964
 11
-10.7628316828
 21
-12.1375849197
  0
LINE
  5
298
100
AcDbEntity
  8
SUPERFICI
100
AcDbLine
 62
7
  6
CONTINUOUS
 10
-14.8625764839
 20
-13.7177532237
 11
-14.8975600249
 21
-13.7380171684
  0
LWPOLYLINE
  5
299
100
AcDbEntity
  8
SUPERFICI
100
AcDbPolyline
 62
7
  6
CONTINUOUS
 90
4
 70
0
 10
-16.5464071442
 20
-14.2053271488
 10
-17.1094764353
 20
-14.5208222514
 10
-17.6581996751
 20
-14.8579149951
 10
-17.9688390379
 20
-15.0664173896
  0
LWPOLYLINE
  5
29A
100
AcDbEntity
  8
RACCORDO
100
AcDbPolyline
 62
250
  6
CONTINUOUS
 90
3
 70
0
 10
-16.7610161415
 20
-14.7487232382
 10
-17.301268957
 20
-15.0514097803
 10
-17.5333712931
 20
-15.1921260995
  0
LWPOLYLINE
  5
29B
100
AcDbEntity
  8
RACCORDO
100
AcDbPolyline
 62
7
  6
CONTINUOUS
 90
4
 70
0
 10
-16.7724662349
 20
-14.4596905659
 10
-17.317510456
 20
-14.7649756657
 10
-17.8516381652
 20
-15.0887009703
 10
-17.8638890482
 20
-15.096713842
  0
LINE
  5
29C
100
AcDbEntity
  8
RACCORDO
100
AcDbLine
 62
7
  6
CONTINUOUS
 10
-14.5793269366
 20
-12.5693860593
 11
-14.7330414271
 21
-12.6536138028
  0
LWPOLYLINE
  5
29D
100
AcDbEntity
  8
RACCORDO
100
AcDbPolyline
 62
7
  6
CONTINUOUS
 90
8
 70
0
 10
-14.7267527848
 20
-12.6501253282
 10
-14.756400902
 20
-12.6662541065
 10
-14.7841521889
 20
-12.6808897963
 10
-14.8100057397
 20
-12.6940330848
 10
-14.8337251854
 20
-12.7054715155
 10
-14.8555448126
 20
-12.7154192355
 10
-14.8761708251
 20
-12.7245154194
 10
-14.8958392705
 20
-12.7329720114
  0
LINE
  5
29E
100
AcDbEntity
  8
ASSI
100
AcDbLine
 62
7
  6
CONTINUOUS
 10
-9.3223724882
 20
-11.585008041
 11
-9.0145126241
 21
-11.417818008
  0
LINE
  5
29F
100
AcDbEntity
  8
RACCORDO
100
AcDbLine
 62
250
  6
CONTINUOUS
 10
-13.5842522307
 20
-11.4138532507
 11
-13.4508253896
 21
-11.341838717
  0
LINE
  5
2A0
100
AcDbEntity
  8
RACCORDO
100
AcDbLine
 62
7
  6
CONTINUOUS
 10
-16.8608141381
 20
-14.3777424106
 11
-16.337629761
 21
-14.0955519935
  0
LWPOLYLINE
  5
2A1
100
AcDbEntity
  8
RACCORDO
100
AcDbPolyline
 62
7
  6
CONTINUOUS
 90
3
 70
0
 10
-14.2687712589
 20
-12.4057104712
 10
-14.4245702139
 20
-12.4867516154
 10
-14.5793269366
 20
-12.5693860593
  0
LINE
  5
2A2
100
AcDbEntity
  8
RACCORDO
100
AcDbLine
 62
250
  6
CONTINUOUS
 10
-16.2096174849
 20
-14.4641310096
 11
-16.7610161415
 21
-14.7487232382
  0
LINE
  5
2A3
100
AcDbEntity
  8
RACCORDO
100
AcDbLine
 62
7
  6
CONTINUOUS
 10
-16.2169069229
 20
-14.1730455159
 11
-16.7724662349
 21
-14.4596905659
  0
LINE
  5
2A4
100
AcDbEntity
  8
RACCORDO
100
AcDbLine
 62
250
  6
CONTINUOUS
 10
-12.9715422457
 20
-11.1420169139
 11
-12.9985298637
 21
-11.1559269464
  0
LINE
  5
2A5
100
AcDbEntity
  8
SUPERFICI
100
AcDbLine
 62
7
  6
CONTINUOUS
 10
-15.9684650345
 20
-13.9110618607
 11
-16.5464071442
 21
-14.2053271488
  0
LINE
  5
2A6
100
AcDbEntity
  8
RACCORDO
100
AcDbLine
 62
7
  6
CONTINUOUS
 10
-14.1119188785
 20
-12.3262569919
 11
-14.2687712589
 21
-12.4057104712
  0
LWPOLYLINE
  5
2A7
100
AcDbEntity
  8
RACCORDO
100
AcDbPolyline
 62
7
  6
CONTINUOUS
 90
3
 70
0
 10
-13.2893269686
 20
-11.2539802204
 10
-13.4552273005
 20
-11.3361670071
 10
-13.6097591354
 20
-11.4248743989
  0
LINE
  5
2A8
100
AcDbEntity
  8
RACCORDO
100
AcDbLine
 62
7
  6
CONTINUOUS
 10
-13.9540242659
 20
-12.2483968121
 11
-14.1119188785
 21
-12.3262569919
  0
LINE
  5
2A9
100
AcDbEntity
  8
RACCORDO
100
AcDbLine
 62
7
  6
CONTINUOUS
 10
-16.337629761
 20
-14.0955519935
 11
-15.8022237627
 21
-13.8315763392
  0
LWPOLYLINE
  5
2AA
100
AcDbEntity
  8
RACCORDO
100
AcDbPolyline
 62
250
  6
CONTINUOUS
 90
4
 70
0
 10
-13.4508253896
 20
-11.341838717
 10
-13.3085783505
 20
-11.2748355186
 10
-13.1577313848
 20
-11.2128553906
 10
-12.998470953
 20
-11.155878437
  0
LINE
  5
2AB
100
AcDbEntity
  8
SUPERFICI
100
AcDbLine
 62
7
  6
CONTINUOUS
 10
-15.3756501062
 20
-13.6380263872
 11
-15.9684650345
 21
-13.9110618607
  0
LWPOLYLINE
  5
2AC
100
AcDbEntity
  8
RACCORDO
100
AcDbPolyline
 62
7
  6
CONTINUOUS
 90
5
 70
0
 10
-13.3123928634
 20
-11.9530750354
 10
-13.4743108954
 20
-12.0244887652
 10
-13.6352202744
 20
-12.0975126988
 10
-13.7951210002
 20
-12.1721468362
 10
-13.9540242659
 20
-12.2483968121
  0
LINE
  5
2AD
100
AcDbEntity
  8
RACCORDO
100
AcDbLine
 62
7
  6
CONTINUOUS
 10
-14.8958392705
 20
-12.7329720114
 11
-14.9111824572
 21
-12.7393123439
  0
LWPOLYLINE
  5
2AE
100
AcDbEntity
  8
SUPERFICI
100
AcDbPolyline
 62
7
  6
CONTINUOUS
 90
12
 70
0
 10
-14.8975600249
 20
-13.7380171684
 10
-14.936160278
 20
-13.7539429088
 10
-14.9766260871
 20
-13.7648075523
 10
-15.0187007749
 20
-13.7703658461
 10
-15.0626410185
 20
-13.770863043
 10
-15.1074656933
 20
-13.7663120093
 10
-15.1534912553
 20
-13.7565315639
 10
-15.2004012483
 20
-13.7417028878
 10
-15.2462651792
 20
-13.7223823911
 10
-15.2904395503
 20
-13.6987555438
 10
-15.3335678593
 20
-13.6706368758
 10
-15.3756501062
 20
-13.6380263872
  0
LWPOLYLINE
  5
2AF
100
AcDbEntity
  8
RACCORDO
100
AcDbPolyline
 62
7
  6
CONTINUOUS
 90
3
 70
0
 10
-14.9111824572
 20
-12.7393123439
 10
-14.9143147781
 20
-12.7405753013
 10
-14.9315975625
 20
-12.7473245679
  0
LWPOLYLINE
  5
2B0
100
AcDbEntity
  8
ASSI
100
AcDbPolyline
 62
7
  6
CONTINUOUS
 90
14
 70
0
 10
-9.0145126241
 20
-11.417818008
 10
-8.6745165553
 20
-11.281382875
 10
-8.3023842819
 20
-11.1757026417
 10
-7.8865028556
 20
-11.0992181203
 10
-7.4384852246
 20
-11.0534884987
 10
-6.993170234
 20
-11.0431913412
 10
-6.5512337867
 20
-11.0714447129
 10
-6.1119999798
 20
-11.1351305488
 10
-5.70827995
 20
-11.2295722178
 10
-5.342842166
 20
-11.3571672842
 10
-5.0129181591
 20
-11.5155181838
 10
-4.74301366
 20
-11.692755593
 10
-4.5381913647
 20
-11.890731219
 10
-4.4009125021
 20
-12.09632524
  0
LWPOLYLINE
  5
2B1
100
AcDbEntity
  8
RACCORDO
100
AcDbPolyline
 62
7
  6
CONTINUOUS
 90
7
 70
0
 10
-15.8022237627
 20
-13.8315763392
 10
-15.7628559492
 20
-13.8163255997
 10
-15.7216704636
 20
-13.8063268643
 10
-15.6786673061
 20
-13.801580133
 10
-15.6338464766
 20
-13.8020854057
 10
-15.5872079751
 20
-13.8078426825
 10
-15.5387518017
 20
-13.8188519633
  0
LINE
  5
2B2
100
AcDbEntity
  8
SUPERFICI
100
AcDbLine
 62
7
  6
CONTINUOUS
 10
-12.6620188727
 20
-11.6864075298
 11
-12.7319659883
 21
-11.713577228
  0
LINE
  5
2B3
100
AcDbEntity
  8
SUPERFICI
100
AcDbLine
 62
7
  6
CONTINUOUS
 10
-14.671603568
 20
-13.3492410137
 11
-14.7375316465
 21
-13.3747236723
  0
LINE
  5
2B4
100
AcDbEntity
  8
SUPERFICI
100
AcDbLine
 62
7
  6
CONTINUOUS
 10
-12.5919074836
 20
-11.6595302877
 11
-12.6620188727
 21
-11.6864075298
  0
LINE
  5
2B5
100
AcDbEntity
  8
SUPERFICI
100
AcDbLine
 62
7
  6
CONTINUOUS
 10
-14.6055304454
 20
-13.3240171655
 11
-14.671603568
 21
-13.3492410137
  0
LINE
  5
2B6
100
AcDbEntity
  8
SUPERFICI
100
AcDbLine
 62
7
  6
CONTINUOUS
 10
-12.5216318209
 20
-11.6329455016
 11
-12.5919074836
 21
-11.6595302877
  0
LINE
  5
2B7
100
AcDbEntity
  8
SUPERFICI
100
AcDbLine
 62
7
  6
CONTINUOUS
 10
-14.5393122787
 20
-13.2990521279
 11
-14.6055304454
 21
-13.3240171655
  0
LWPOLYLINE
  5
2B8
100
AcDbEntity
  8
SUPERFICI
100
AcDbPolyline
 62
7
  6
CONTINUOUS
 90
3
 70
0
 10
-12.5216318209
 20
-11.6329455016
 10
-12.4732886868
 20
-11.6170634726
 10
-12.4235490607
 20
-11.6049731561
  0
LWPOLYLINE
  5
2B9
100
AcDbEntity
  8
RACCORDO
100
AcDbPolyline
 62
250
  6
CONTINUOUS
 90
10
 70
0
 10
-2.576624008
 20
-52.825273292
 10
-2.5452231207
 20
-52.8521624131
 10
-2.5112731625
 20
-52.8746269649
 10
-2.4757084932
 20
-52.8920486835
 10
-2.4395079117
 20
-52.9039480922
 10
-2.4036677193
 20
-52.9099976985
 10
-2.3691742998
 20
-52.9100310077
 10
-2.3369769708
 20
-52.9040471025
 10
-2.3079618567
 20
-52.8922106688
 10
-2.2829275027
 20
-52.8748474647
  0
LWPOLYLINE
  5
2BA
100
AcDbEntity
  8
RACCORDO
100
AcDbPolyline
 62
250
  6
CONTINUOUS
 90
10
 70
0
 10
-35.7022464347
 20
-8.8074974242
 10
-35.7164213475
 20
-8.7784448589
 10
-35.7276327391
 20
-8.7484570801
 10
-35.7355876954
 20
-8.718317563
 10
-35.7400783812
 20
-8.6888137472
 10
-35.7409874708
 20
-8.6607164636
 10
-35.7382912128
 20
-8.6347597955
 10
-35.7320600511
 20
-8.6116218993
 10
-35.7224567839
 20
-8.591907287
 10
-35.7097323108
 20
-8.576131032
  0
LWPOLYLINE
  5
2BB
100
AcDbEntity
  8
SUPERFICI
100
AcDbPolyline
 62
7
  6
CONTINUOUS
 90
4
 70
0
 10
-14.7810772896
 20
-13.6316550552
 10
-14.8042355529
 20
-13.6642547259
 10
-14.8315976623
 20
-13.693173077
 10
-14.8376704945
 20
-13.6985850035
  0
LWPOLYLINE
  5
2BC
100
AcDbEntity
  8
RACCORDO
100
AcDbPolyline
 62
250
  6
CONTINUOUS
 90
3
 70
0
 10
-15.9941909472
 20
-14.2095524582
 10
-15.9755996998
 20
-14.1840153951
 10
-15.9563898839
 20
-14.1630316293
  0
LINE
  5
2BD
100
AcDbEntity
  8
0
100
AcDbLine
 62
7
  6
CONTINUOUS
 10
-10.0134841446
 20
-11.4289843938
 11
-10.1837280398
 21
-11.6135273112
  0
LINE
  5
2BE
100
AcDbEntity
  8
DRAFT
100
AcDbLine
 62
7
  6
CONTINUOUS
 10
-9.5191041999
 20
-11.7194511579
 11
-9.6566507815
 21
-11.8459256331
  0
LINE
  5
2BF
100
AcDbEntity
  8
0
100
AcDbLine
 62
7
  6
CONTINUOUS
 10
-7.0824059678
 20
-8.7850818911
 11
-10.0134841446
 21
-11.4289843938
  0
LINE
  5
2C0
100
AcDbEntity
  8
ASSI
100
AcDbLine
 62
7
  6
CONTINUOUS
 10
-9.3223724882
 20
-11.585008041
 11
-7.0809117682
 21
-9.5631569508
  0
LINE
  5
2C1
100
AcDbEntity
  8
DRAFT
100
AcDbLine
 62
7
  6
CONTINUOUS
 10
-9.2942532853
 20
-11.5364828938
 11
-9.5050573089
 21
-11.7233443173
  0
LINE
  5
2C2
100
AcDbEntity
  8
SUPERFICI
100
AcDbLine
 62
7
  6
CONTINUOUS
 10
-13.6622972118
 20
-14.2739352042
 11
-13.7360367636
 21
-14.3392509696
  0
LINE
  5
2C3
100
AcDbEntity
  8
SUPERFICI
100
AcDbLine
 62
7
  6
CONTINUOUS
 10
-11.8226393039
 20
-11.6900383364
 11
-12.8408945917
 21
-12.5767842072
  0
LINE
  5
2C4
100
AcDbEntity
  8
0
100
AcDbLine
 62
7
  6
CONTINUOUS
 10
-7.7041271682
 20
-8.5025181382
 11
-10.487226742
 21
-10.8285970435
  0
LINE
  5
2C5
100
AcDbEntity
  8
SUPERFICI
100
AcDbLine
 62
7
  6
CONTINUOUS
 10
-4.7034022181
 20
-13.1777850534
 11
-5.207953384
 21
-13.4238887948
  0
LWPOLYLINE
  5
2C6
100
AcDbEntity
  8
RACCORDO
100
AcDbPolyline
 62
250
  6
CONTINUOUS
 90
10
 70
0
 10
-3.3291271526
 20
-39.0239860423
 10
-3.2901036807
 20
-39.0326581306
 10
-3.2485527083
 20
-39.0370950466
 10
-3.2057091182
 20
-39.0371649283
 10
-3.1628462079
 20
-39.0328657002
 10
-3.1212378501
 20
-39.0243251356
 10
-3.0821206337
 20
-39.0117970601
 10
-3.0466571078
 20
-38.9956538065
 10
-3.0159012327
 20
-38.9763751484
 10
-2.9907670585
 20
-38.9545340422
  0
LINE
  5
2C7
100
AcDbEntity
  8
DRAFT
100
AcDbLine
 62
7
  6
CONTINUOUS
 10
-20.0302946124
 20
-9.9214525398
 11
-20.0302946124
 21
-9.7221064323
  0
LWPOLYLINE
  5
2C8
100
AcDbEntity
  8
RACCORDO
100
AcDbPolyline
 62
250
  6
CONTINUOUS
 90
8
 70
0
 10
-16.0739161584
 20
-14.4546365182
 10
-16.0700721933
 20
-14.4184195196
 10
-16.0633404061
 20
-14.3811253563
 10
-16.0538824953
 20
-14.3436498446
 10
-16.0419256418
 20
-14.306893157
 10
-16.0277570518
 20
-14.2717382006
 10
-16.0117170586
 20
-14.239029409
 10
-15.9941909472
 20
-14.2095524582
  0
LWPOLYLINE
  5
2C9
100
AcDbEntity
  8
RACCORDO
100
AcDbPolyline
 62
7
  6
CONTINUOUS
 90
4
 70
0
 10
-16.9155217505
 20
-15.3704838994
 10
-16.897529127
 20
-15.3106833422
 10
-16.8511797682
 20
-15.2253579289
 10
-16.7819545788
 20
-15.1459296199
  0
LINE
  5
2CA
100
AcDbEntity
  8
0
100
AcDbLine
 62
7
  6
CONTINUOUS
 10
-10.1837280398
 20
-11.6135273112
 11
-10.2667408468
 21
-11.7555996287
  0
LINE
  5
2CB
100
AcDbEntity
  8
SUPERFICI
100
AcDbLine
 62
7
  6
CONTINUOUS
 10
-6.8458747823
 20
-14.0405189652
 11
-7.0446118227
 21
-14.227403971
  0
LINE
  5
2CC
100
AcDbEntity
  8
RACCORDO
100
AcDbLine
 62
7
  6
CONTINUOUS
 10
-6.7046886156
 20
-11.9908591206
 11
-7.2322750265
 21
-12.447762355
  0
LINE
  5
2CD
100
AcDbEntity
  8
RACCORDO
100
AcDbLine
 62
7
  6
CONTINUOUS
 10
-5.8386461874
 20
-12.240844377
 11
-6.3662496227
 21
-12.697762355
  0
LINE
  5
2CE
100
AcDbEntity
  8
SUPERFICI
100
AcDbLine
 62
250
  6
CONTINUOUS
 10
-7.6956329997
 20
-15.1303373949
 11
-5.71387704
 21
-13.4534861052
  0
LINE
  5
2CF
100
AcDbEntity
  8
SUPERFICI
100
AcDbLine
 62
250
  6
CONTINUOUS
 10
-7.2169935835
 20
-15.4128234628
 11
-5.2346740412
 21
-13.7365090194
  0
LINE
  5
2D0
100
AcDbEntity
  8
0
100
AcDbLine
 62
7
  6
CONTINUOUS
 10
-2.0037065285
 20
-10.1480878336
 11
-4.7867804681
 21
-12.4741741388
  0
LWPOLYLINE
  5
2D1
100
AcDbEntity
  8
SUPERFICI
100
AcDbPolyline
 62
7
  6
CONTINUOUS
 90
5
 70
0
 10
-6.1269674908
 20
-14.8563602479
 10
-6.349106845
 20
-15.0419862703
 10
-6.5717848031
 20
-15.2282875206
 10
-6.7950063006
 20
-15.4152707291
 10
-7.0187742157
 20
-15.6029370126
  0
LINE
  5
2D2
100
AcDbEntity
  8
0
100
AcDbLine
 62
7
  6
CONTINUOUS
 10
-5.1268792561
 20
-12.7004310268
 11
-2.1372354965
 21
-10.2126296425
  0
LWPOLYLINE
  5
2D3
100
AcDbEntity
  8
SUPERFICI
100
AcDbPolyline
 62
7
  6
CONTINUOUS
 90
6
 70
0
 10
-5.0243398738
 20
-13.9385772339
 10
-5.2437969814
 20
-14.1207477002
 10
-5.4637844128
 20
-14.3036086525
 10
-5.6843056302
 20
-14.4871616338
 10
-5.9053661083
 20
-14.6714136022
 10
-6.1269674908
 20
-14.8563602479
  0
LINE
  5
2D4
100
AcDbEntity
  8
SUPERFICI
100
AcDbLine
 62
7
  6
CONTINUOUS
 10
-5.9336665582
 20
-13.3900383364
 11
-7.0154112705
 21
-14.2584563891
  0
LWPOLYLINE
  5
2D5
100
AcDbEntity
  8
RACCORDO
100
AcDbPolyline
 62
7
  6
CONTINUOUS
 90
9
 70
0
 10
-5.8390428556
 20
-12.2411879017
 10
-5.8305550177
 20
-12.2344169592
 10
-5.8221954505
 20
-12.2289301904
 10
-5.8139641539
 20
-12.2247275953
 10
-5.8057769346
 20
-12.2217921735
 10
-5.797717986
 20
-12.2201409254
 10
-5.7900398879
 20
-12.2198248524
 10
-5.7827968847
 20
-12.2208849164
 10
-5.7760177356
 20
-12.2232422935
  0
LINE
  5
2D6
100
AcDbEntity
  8
0
100
AcDbLine
 62
7
  6
CONTINUOUS
 10
-4.9259511888
 20
-12.5779593495
 11
-4.7867804681
 21
-12.4741741388
  0
LWPOLYLINE
  5
2D7
100
AcDbEntity
  8
ASSI
100
AcDbPolyline
 62
7
  6
CONTINUOUS
 90
15
 70
0
 10
-0.6621184503
 20
-14.085008041
 10
-0.3542585862
 20
-13.917818008
 10
-0.0142625175
 20
-13.781382875
 10
0.3578697559
 20
-13.6757026417
 10
0.7737511823
 20
-13.5992181203
 10
1.2217688133
 20
-13.5534884987
 10
1.6670838038
 20
-13.5431913412
 10
2.1090202512
 20
-13.5714447129
 10
2.5482540581
 20
-13.6351305488
 10
2.9519740878
 20
-13.7295722178
 10
3.3174118719
 20
-13.8571672842
 10
3.6473358788
 20
-14.0155181838
 10
3.9172403778
 20
-14.192755593
 10
4.1220626731
 20
-14.390731219
 10
4.2593415357
 20
-14.59632524
  0
LWPOLYLINE
  5
2D8
100
AcDbEntity
  8
RACCORDO
100
AcDbPolyline
 62
250
  6
CONTINUOUS
 90
24
 70
0
 10
-0.2693764225
 20
-14.7665282231
 10
-0.257857971
 20
-14.7605950733
 10
-0.1755780113
 20
-14.7222641215
 10
-0.0896315491
 20
-14.6861192328
 10
0.0000056845
 20
-14.6521246524
 10
0.0927440144
 20
-14.6204969646
 10
0.1885457446
 20
-14.5912500694
 10
0.2874485712
 20
-14.564370067
 10
0.3889759081
 20
-14.5400318422
 10
0.4933248243
 20
-14.5182159634
 10
0.6002982509
 20
-14.4989418623
 10
0.7088283946
 20
-14.4824427187
 10
0.8191975746
 20
-14.4687723286
 10
0.9311234717
 20
-14.457876896
 10
1.0426913361
 20
-14.4498282132
 10
1.1539262071
 20
-14.4447542795
 10
1.2648030453
 20
-14.4425270956
 10
1.3733319822
 20
-14.442834455
 10
1.4794295253
 20
-14.4458100847
 10
1.5831791669
 20
-14.4513202576
 10
1.6828415166
 20
-14.4586515865
 10
1.7778367772
 20
-14.4675662753
 10
1.8687447457
 20
-14.47830212
 10
1.9555654222
 20
-14.4908591206
  0
LWPOLYLINE
  5
2D9
100
AcDbEntity
  8
RACCORDO
100
AcDbPolyline
 62
250
  6
CONTINUOUS
 90
10
 70
0
 10
-3.3291271526
 20
-38.7073602003
 10
-3.2901037047
 20
-38.7169734776
 10
-3.248552753
 20
-38.7238919519
 10
-3.205709178
 20
-38.7279100084
 10
-3.1628462764
 20
-38.7289082319
 10
-3.1212379195
 20
-38.7268569554
 10
-3.0821206937
 20
-38.7218171422
 10
-3.0466571501
 20
-38.7139385739
 10
-3.0159012534
 20
-38.703455399
 10
-2.9907670585
 20
-38.6906791738
  0
LINE
  5
2DA
100
AcDbEntity
  8
RACCORDO
100
AcDbLine
 62
250
  6
CONTINUOUS
 10
-3.3841274123
 20
-39.008108835
 11
-3.3291271526
 21
-39.0239860423
  0
LINE
  5
2DB
100
AcDbEntity
  8
RACCORDO
100
AcDbLine
 62
250
  6
CONTINUOUS
 10
-3.3690155447
 20
-38.6958454134
 11
-3.3291271526
 21
-38.7073602003
  0
LWPOLYLINE
  5
2DC
100
AcDbEntity
  8
DRAFT
100
AcDbPolyline
 62
7
  6
CONTINUOUS
 90
25
 70
0
 10
-24.494181858
 20
-8.4336726941
 10
-24.4867972344
 20
-8.4596989803
 10
-24.4781258069
 20
-8.4854843087
 10
-24.4681675754
 20
-8.5110286795
 10
-24.4568809851
 20
-8.5364144634
 10
-24.4443075909
 20
-8.5615592895
 10
-24.4305720571
 20
-8.5862160458
 10
-24.4156629576
 20
-8.6103798279
 10
-24.3995917186
 20
-8.6340555402
 10
-24.3825172826
 20
-8.6570107833
 10
-24.3644298442
 20
-8.6792383255
 10
-24.345339209
 20
-8.7007453985
 10
-24.325433736
 20
-8.7213212984
 10
-24.3047058487
 20
-8.7409565517
 10
-24.2831631238
 20
-8.7596606318
 10
-24.2610166501
 20
-8.7772512559
 10
-24.2382606182
 20
-8.7937176223
 10
-24.2149008376
 20
-8.8090705327
 10
-24.1911658252
 20
-8.8231601087
 10
-24.1670519937
 20
-8.83597411
 10
-24.1425629305
 20
-8.8475247771
 10
-24.1179379143
 20
-8.8576989531
 10
-24.0932567048
 20
-8.8664589193
 10
-24.0684395423
 20
-8.8738423945
 10
-24.043486427
 20
-8.8798493788
  0
LWPOLYLINE
  5
2DD
100
AcDbEntity
  8
RACCORDO
100
AcDbPolyline
 62
250
  6
CONTINUOUS
 90
21
 70
0
 10
-16.006669151
 20
-15.6328470458
 10
-16.0077467646
 20
-15.6095027622
 10
-16.0138297787
 20
-15.5653057337
 10
-16.0245546995
 20
-15.5187937197
 10
-16.0403246251
 20
-15.4705128721
 10
-16.0615283117
 20
-15.4209603819
 10
-16.0885986175
 20
-15.3706057761
 10
-16.1218842214
 20
-15.3201880401
 10
-16.1614141949
 20
-15.2708912626
 10
-16.2069452251
 20
-15.2240468386
 10
-16.2583942744
 20
-15.1807143251
 10
-16.3149994254
 20
-15.1424612599
 10
-16.3749713889
 20
-15.1111108725
 10
-16.4371415092
 20
-15.08764341
 10
-16.5003557656
 20
-15.0728605392
 10
-16.5625252826
 20
-15.0674676558
 10
-16.6221546936
 20
-15.0716001439
 10
-16.6781893048
 20
-15.0851908386
 10
-16.729308623
 20
-15.1079353163
 10
-16.7744075015
 20
-15.139294089
 10
-16.7819547313
 20
-15.1459297592
  0
LINE
  5
2DE
100
AcDbEntity
  8
SUPERFICI
100
AcDbLine
 62
7
  6
CONTINUOUS
 10
-5.207953384
 20
-13.4238887948
 11
-5.3639210342
 21
-13.6455785784
  0
LINE
  5
2DF
100
AcDbEntity
  8
RACCORDO
100
AcDbLine
 62
250
  6
CONTINUOUS
 10
-6.2789821566
 20
-17.0418771573
 11
-5.9540820994
 21
-16.6744899593
  0
LINE
  5
2E0
100
AcDbEntity
  8
RACCORDO
100
AcDbLine
 62
250
  6
CONTINUOUS
 10
-6.5462046869
 20
-16.8795181076
 11
-6.2175540604
 21
-16.5096499758
  0
LINE
  5
2E1
100
AcDbEntity
  8
SUPERFICI
100
AcDbLine
 62
7
  6
CONTINUOUS
 10
-7.9549409912
 20
-15.9215070294
 11
-8.0202690986
 21
-15.9892509696
  0
LWPOLYLINE
  5
2E2
100
AcDbEntity
  8
RACCORDO
100
AcDbPolyline
 62
250
  6
CONTINUOUS
 90
10
 70
0
 10
-6.5344076834
 20
-17.2571235012
 10
-6.5092645095
 20
-17.2327739825
 10
-6.4814746183
 20
-17.2069071699
 10
-6.4517815222
 20
-17.1802151246
 10
-6.4209796536
 20
-17.1534119863
 10
-6.3898931096
 20
-17.1272148671
 10
-6.359353604
 20
-17.1023246653
 10
-6.3301782146
 20
-17.0794073126
 10
-6.3031475226
 20
-17.0590759578
 10
-6.2789847283
 20
-17.0418745617
  0
LINE
  5
2E3
100
AcDbEntity
  8
DRAFT
100
AcDbLine
 62
7
  6
CONTINUOUS
 10
-7.255944249
 20
-17.8961750842
 11
-6.9874105953
 21
-17.6509241667
  0
LINE
  5
2E4
100
AcDbEntity
  8
RACCORDO
100
AcDbLine
 62
250
  6
CONTINUOUS
 10
-7.2556752897
 20
-17.8959297592
 11
-7.2559603079
 21
-17.8961897519
  0
LINE
  5
2E5
100
AcDbEntity
  8
0
100
AcDbLine
 62
7
  6
CONTINUOUS
 10
1.57784807
 20
-11.2850818911
 11
-1.3532301068
 21
-13.9289843938
  0
LWPOLYLINE
  5
2E6
100
AcDbEntity
  8
SUPERFICI
100
AcDbPolyline
 62
7
  6
CONTINUOUS
 90
9
 70
0
 10
-4.4439129988
 20
-14.5131846539
 10
-4.6559749738
 20
-14.7026761078
 10
-4.8688214624
 20
-14.8926064067
 10
-5.0824536752
 20
-15.0829793223
 10
-5.2968782072
 20
-15.2738007037
 10
-5.5120904607
 20
-15.46507242
 10
-5.7280749576
 20
-15.6567915901
 10
-5.9448273217
 20
-15.8489590233
 10
-6.162353971
 20
-16.0415799826
  0
LINE
  5
2E7
100
AcDbEntity
  8
DRAFT
100
AcDbLine
 62
7
  6
CONTINUOUS
 10
-0.6339992474
 20
-14.0364828938
 11
-0.844803271
 21
-14.2233443173
  0
LINE
  5
2E8
100
AcDbEntity
  8
SUPERFICI
100
AcDbLine
 62
7
  6
CONTINUOUS
 10
-6.162353971
 20
-16.0415799826
 11
-6.380655756
 21
-16.2346575919
  0
LINE
  5
2E9
100
AcDbEntity
  8
RACCORDO
100
AcDbLine
 62
250
  6
CONTINUOUS
 10
-2.9614089381
 20
-16.0965843039
 11
-1.0713016812
 21
-14.4925259397
  0
LINE
  5
2EA
100
AcDbEntity
  8
RACCORDO
100
AcDbLine
 62
250
  6
CONTINUOUS
 10
-2.6773261606
 20
-16.2848280142
 11
-0.7868634389
 21
-14.6810658162
  0
LINE
  5
2EB
100
AcDbEntity
  8
0
100
AcDbLine
 62
7
  6
CONTINUOUS
 10
0.9561268696
 20
-11.0025181382
 11
-1.8269727041
 21
-13.3285970435
  0
LWPOLYLINE
  5
2EC
100
AcDbEntity
  8
RACCORDO
100
AcDbPolyline
 62
250
  6
CONTINUOUS
 90
8
 70
0
 10
-1.0713017189
 20
-14.4925259288
 10
-1.0500291545
 20
-14.4763199776
 10
-1.0289381852
 20
-14.4634027623
 10
-1.0081823149
 20
-14.453870428
 10
-0.9879112922
 20
-14.4477942762
 10
-0.9682745775
 20
-14.4452216966
 10
-0.9494197314
 20
-14.446173168
 10
-0.9370794397
 20
-14.4488409395
  0
LINE
  5
2ED
100
AcDbEntity
  8
0
100
AcDbLine
 62
7
  6
CONTINUOUS
 10
1.1619702341
 20
-15.1781327138
 11
1.1117420897
 21
-15.2019080787
  0
LWPOLYLINE
  5
2EE
100
AcDbEntity
  8
SUPERFICI
100
AcDbPolyline
 62
7
  6
CONTINUOUS
 90
7
 70
0
 10
-14.7375316465
 20
-13.3747236723
 10
-14.7326271657
 20
-13.4226764845
 10
-14.7325875201
 20
-13.4685769307
 10
-14.7374127097
 20
-13.5124250108
 10
-14.7473230642
 20
-13.5547637095
 10
-14.7620982538
 20
-13.5950500421
 10
-14.7810772896
 20
-13.6316550552
  0
LINE
  5
2EF
100
AcDbEntity
  8
RACCORDO
100
AcDbLine
 62
7
  6
CONTINUOUS
 10
-13.8831054226
 20
-14.3392509696
 11
-13.8831054226
 21
-14.2101933643
  0
LINE
  5
2F0
100
AcDbEntity
  8
SUPERFICI
100
AcDbLine
 62
7
  6
CONTINUOUS
 10
-11.8226393039
 20
-11.6900383364
 11
-11.8226393039
 21
-12.6038507971
  0
LINE
  5
2F1
100
AcDbEntity
  8
RACCORDO
100
AcDbLine
 62
7
  6
CONTINUOUS
 10
-4.5930256211
 20
-13.4758918073
 11
-5.0101724332
 21
-14.0501400062
  0
LINE
  5
2F2
100
AcDbEntity
  8
0
100
AcDbLine
 62
7
  6
CONTINUOUS
 10
-1.3532301068
 20
-13.9289843938
 11
-1.5234740019
 21
-14.1135273112
  0
LINE
  5
2F3
100
AcDbEntity
  8
DRAFT
100
AcDbLine
 62
7
  6
CONTINUOUS
 10
-0.8588501621
 20
-14.2194511579
 11
-1.0155318788
 21
-14.3635204446
  0
LINE
  5
2F4
100
AcDbEntity
  8
ASSI
100
AcDbLine
 62
7
  6
CONTINUOUS
 10
-0.6621184503
 20
-14.085008041
 11
1.5793422696
 21
-12.0631569508
  0
LINE
  5
2F5
100
AcDbEntity
  8
RACCORDO
100
AcDbLine
 62
7
  6
CONTINUOUS
 10
1.9555654222
 20
-14.4908591206
 11
1.1619702341
 21
-15.1781327138
  0
LINE
  5
2F6
100
AcDbEntity
  8
0
100
AcDbLine
 62
7
  6
CONTINUOUS
 10
2.0937062573
 20
-15.2372510518
 11
1.5180609758
 21
-15.7357744893
  0
LINE
  5
2F7
100
AcDbEntity
  8
RACCORDO
100
AcDbLine
 62
7
  6
CONTINUOUS
 10
2.8216078504
 20
-14.740844377
 11
2.0279956379
 21
-15.4281327138
  0
LINE
  5
2F8
100
AcDbEntity
  8
0
100
AcDbLine
 62
7
  6
CONTINUOUS
 10
1.7945743925
 20
-15.6463068459
 11
1.7052769937
 21
-15.7236406617
  0
LINE
  5
2F9
100
AcDbEntity
  8
0
100
AcDbLine
 62
7
  6
CONTINUOUS
 10
6.6565475093
 20
-12.6480878336
 11
3.8734735697
 21
-14.9741741388
  0
LINE
  5
2FA
100
AcDbEntity
  8
0
100
AcDbLine
 62
7
  6
CONTINUOUS
 10
3.5333840647
 20
-15.200423302
 11
6.5230185413
 21
-12.7126296425
  0
LWPOLYLINE
  5
2FB
100
AcDbEntity
  8
RACCORDO
100
AcDbPolyline
 62
250
  6
CONTINUOUS
 90
19
 70
0
 10
-6.0113067247
 20
-21.7105622772
 10
-6.0536795342
 20
-21.7451254938
 10
-6.0959606031
 20
-21.7856608256
 10
-6.137859538
 20
-21.8318847825
 10
-6.1790933554
 20
-21.8834742192
 10
-6.2193738272
 20
-21.9400687981
 10
-6.2584096866
 20
-22.0012724755
 10
-6.2959324327
 20
-22.0666571674
 10
-6.3316848876
 20
-22.1357652468
 10
-6.3654089216
 20
-22.2081114297
 10
-6.396868654
 20
-22.2831796022
 10
-6.4258542472
 20
-22.3604545286
 10
-6.452167795
 20
-22.4394255895
 10
-6.4756308176
 20
-22.5195615728
 10
-6.4960744689
 20
-22.6002855191
 10
-6.5133449553
 20
-22.6810071467
 10
-6.5273212977
 20
-22.7611543972
 10
-6.537912534
 20
-22.8401776842
 10
-6.5450469592
 20
-22.9175267373
  0
LWPOLYLINE
  5
2FC
100
AcDbEntity
  8
RACCORDO
100
AcDbPolyline
 62
250
  6
CONTINUOUS
 90
19
 70
0
 10
-5.5979686064
 20
-22.284071214
 10
-5.6196126132
 20
-22.3014214149
 10
-5.640946085
 20
-22.3214716807
 10
-5.6619690218
 20
-22.3442220115
 10
-5.6828331666
 20
-22.3698760963
 10
-5.7033867764
 20
-22.3982302459
 10
-5.7231746215
 20
-22.4286733932
 10
-5.7421710964
 20
-22.4612416241
 10
-5.7604018067
 20
-22.4958988526
 10
-5.7774883397
 20
-22.5319257535
 10
-5.7934049473
 20
-22.5693459008
 10
-5.8081773775
 20
-22.6081357206
 10
-5.821504462
 20
-22.6475051658
 10
-5.8333597628
 20
-22.6874805867
 10
-5.8437697178
 20
-22.7280356331
 10
-5.8525124725
 20
-22.7683012072
 10
-5.8595140752
 20
-22.8079876098
 10
-5.8648484777
 20
-22.8473845402
 10
-5.8685156797
 20
-22.8864919982
  0
LWPOLYLINE
  5
2FD
100
AcDbEntity
  8
RACCORDO
100
AcDbPolyline
 62
7
  6
CONTINUOUS
 90
9
 70
0
 10
2.8212111822
 20
-14.7411879017
 10
2.8296990201
 20
-14.7344169592
 10
2.8380585874
 20
-14.7289301904
 10
2.846289884
 20
-14.7247275953
 10
2.8544771032
 20
-14.7217921735
 10
2.8625360518
 20
-14.7201409254
 10
2.8702141499
 20
-14.7198248524
 10
2.8774571531
 20
-14.7208849164
 10
2.8842363022
 20
-14.7232422935
  0
LINE
  5
2FE
100
AcDbEntity
  8
0
100
AcDbLine
 62
7
  6
CONTINUOUS
 10
3.8734735697
 20
-14.9741741388
 11
3.7342984635
 21
-15.077959805
  0
LINE
  5
2FF
100
AcDbEntity
  8
RACCORDO
100
AcDbLine
 62
250
  6
CONTINUOUS
 10
-2.8752688329
 20
-19.4235558001
 11
-6.0113067247
 21
-21.7105622772
  0
LINE
  5
300
100
AcDbEntity
  8
RACCORDO
100
AcDbLine
 62
250
  6
CONTINUOUS
 10
-2.4641744704
 20
-19.9987010322
 11
-5.5979686064
 21
-22.284071214
  0
LWPOLYLINE
  5
301
100
AcDbEntity
  8
RACCORDO
100
AcDbPolyline
 62
250
  6
CONTINUOUS
 90
13
 70
0
 10
-5.8685156797
 20
-22.8864919982
 10
-5.9050755721
 20
-22.9056753408
 10
-5.9481954803
 20
-22.9223944155
 10
-5.9971538784
 20
-22.9363694616
 10
-6.0511315449
 20
-22.9473666345
 10
-6.109225271
 20
-22.9552019186
 10
-6.1704629736
 20
-22.9597442058
 10
-6.2338199616
 20
-22.9609174899
 10
-6.2982360817
 20
-22.9587021386
 10
-6.3626334582
 20
-22.9531352214
 10
-6.4259345291
 20
-22.9443098898
 10
-6.4870800769
 20
-22.9323738182
 10
-6.5450469523
 20
-22.9175267328
  0
LWPOLYLINE
  5
302
100
AcDbEntity
  8
RACCORDO
100
AcDbPolyline
 62
250
  6
CONTINUOUS
 90
10
 70
0
 10
-2.5766240123
 20
-22.9183787355
 10
-2.5452216522
 20
-22.9020677863
 10
-2.5112683373
 20
-22.883974349
 10
-2.4756987937
 20
-22.8645965314
 10
-2.4394922415
 20
-22.8444677997
 10
-2.4036454378
 20
-22.8241422928
 10
-2.3691452357
 20
-22.8041795665
 10
-2.3369414169
 20
-22.7851291894
 10
-2.3079205442
 20
-22.7675156137
 10
-2.2828815546
 20
-22.7518237364
  0
LWPOLYLINE
  5
303
100
AcDbEntity
  8
RACCORDO
100
AcDbPolyline
 62
250
  6
CONTINUOUS
 90
4
 70
0
 10
-25.806538353
 20
-11.434936534
 10
-25.306280202
 20
-12.0299342369
 10
-24.818775344
 20
-12.6370002361
 10
-24.3737146479
 20
-13.2174890609
  0
LWPOLYLINE
  5
304
100
AcDbEntity
  8
RACCORDO
100
AcDbPolyline
 62
250
  6
CONTINUOUS
 90
4
 70
0
 10
-26.0090432508
 20
-11.605684158
 10
-25.5119851744
 20
-12.1972817226
 10
-25.0283564355
 20
-12.8000028643
 10
-24.8036297546
 20
-13.0933832596
  0
LWPOLYLINE
  5
305
100
AcDbEntity
  8
RACCORDO
100
AcDbPolyline
 62
7
  6
CONTINUOUS
 90
6
 70
0
 10
-23.2712854139
 20
-13.5357329684
 10
-23.3693881508
 20
-13.4111658467
 10
-23.868235902
 20
-12.8044625621
 10
-24.3794289998
 20
-12.2088063935
 10
-24.9033884356
 20
-11.6236546192
 10
-25.4401142092
 20
-11.0490072392
  0
LWPOLYLINE
  5
306
100
AcDbEntity
  8
RACCORDO
100
AcDbPolyline
 62
7
  6
CONTINUOUS
 90
9
 70
0
 10
-19.3553691657
 20
-14.6661606184
 10
-19.4676605758
 20
-14.4941127944
 10
-19.7583401407
 20
-14.0623458656
 10
-20.0554432699
 20
-13.6343362069
 10
-20.3590858299
 20
-13.2099235937
 10
-20.669151954
 20
-12.7892682505
 10
-20.9852940424
 20
-12.3728508506
 10
-21.3073962286
 20
-11.9608316185
 10
-21.635574379
 20
-11.5530503297
  0
LINE
  5
307
100
AcDbEntity
  8
SUPERFICI
100
AcDbLine
 62
7
  6
CONTINUOUS
 10
-10.7628316828
 20
-12.1375849197
 11
-10.7628316828
 21
-12.9097909048
  0
LINE
  5
308
100
AcDbEntity
  8
0
100
AcDbLine
 62
250
  6
CONTINUOUS
 10
-10.0134841446
 20
-11.4289843938
 11
-10.0134841446
 21
-11.8287085413
  0
LINE
  5
309
100
AcDbEntity
  8
DRAFT
100
AcDbLine
 62
250
  6
CONTINUOUS
 10
-9.5331510806
 20
-11.7155558709
 11
-9.5331510806
 21
-11.8194034438
  0
LINE
  5
30A
100
AcDbEntity
  8
RACCORDO
100
AcDbLine
 62
7
  6
CONTINUOUS
 10
-7.8732004396
 20
-15.9451034941
 11
-7.8732004396
 21
-16.0317060345
  0
LWPOLYLINE
  5
30B
100
AcDbEntity
  8
RACCORDO
100
AcDbPolyline
 62
250
  6
CONTINUOUS
 90
14
 70
0
 10
-8.3519729459
 20
-60.2548636688
 10
-8.3520876133
 20
-60.3273059291
 10
-8.3486707612
 20
-60.3965302193
 10
-8.3417440631
 20
-60.462052987
 10
-8.3313500829
 20
-60.5234237487
 10
-8.3175609283
 20
-60.5802047049
 10
-8.3004816735
 20
-60.6319794321
 10
-8.2802354954
 20
-60.6783812028
 10
-8.2569603221
 20
-60.7191032914
 10
-8.230816249
 20
-60.7538750147
 10
-8.2019765755
 20
-60.7824566032
 10
-8.1706422493
 20
-60.8046423344
 10
-8.1370401847
 20
-60.8202724765
 10
-8.125925389
 20
-60.8238475629
  0
LWPOLYLINE
  5
30C
100
AcDbEntity
  8
RACCORDO
100
AcDbPolyline
 62
7
  6
CONTINUOUS
 90
4
 70
0
 10
-7.3892423088
 20
-18.1204838994
 10
-7.3712496854
 20
-18.0606833422
 10
-7.3249003265
 20
-17.9753579289
 10
-7.2556751372
 20
-17.8959296199
  0
LINE
  5
30D
100
AcDbEntity
  8
0
100
AcDbLine
 62
7
  6
CONTINUOUS
 10
-1.5234740019
 20
-14.1135273112
 11
-1.606486809
 21
-14.2555996287
  0
LINE
  5
30E
100
AcDbEntity
  8
RACCORDO
100
AcDbLine
 62
250
  6
CONTINUOUS
 10
4.2157475769
 20
-17.009342936
 11
3.2473790479
 21
-17.8798777829
  0
LWPOLYLINE
  5
30F
100
AcDbEntity
  8
RACCORDO
100
AcDbPolyline
 62
250
  6
CONTINUOUS
 90
6
 70
0
 10
3.2473790479
 20
-17.8798777829
 10
2.2789785559
 20
-18.7488712653
 10
1.31054505
 20
-19.6163186788
 10
0.3420773777
 20
-20.4822153793
 10
-0.6264257154
 20
-21.3465567834
 10
-1.5949655876
 20
-22.2093383681
  0
LINE
  5
310
100
AcDbEntity
  8
RACCORDO
100
AcDbLine
 62
250
  6
CONTINUOUS
 10
4.9167635436
 20
-16.3980186289
 11
4.2157291393
 21
-17.0093530378
  0
LINE
  5
311
100
AcDbEntity
  8
RACCORDO
100
AcDbLine
 62
250
  6
CONTINUOUS
 10
8.1570745682
 20
-13.0812526843
 11
7.3590905919
 21
-13.7632332818
  0
LINE
  5
312
100
AcDbEntity
  8
RACCORDO
100
AcDbLine
 62
250
  6
CONTINUOUS
 10
7.3590905919
 20
-13.7632332818
 11
6.5626065436
 21
-14.4435113327
  0
LINE
  5
313
100
AcDbEntity
  8
RACCORDO
100
AcDbLine
 62
250
  6
CONTINUOUS
 10
6.5626065436
 20
-14.4435113327
 11
5.7676186354
 21
-15.1220856055
  0
LINE
  5
314
100
AcDbEntity
  8
RACCORDO
100
AcDbLine
 62
250
  6
CONTINUOUS
 10
5.7676186354
 20
-15.1220856055
 11
4.9741117156
 21
-15.7989511738
  0
LINE
  5
315
100
AcDbEntity
  8
RACCORDO
100
AcDbLine
 62
250
  6
CONTINUOUS
 10
4.9741117156
 20
-15.7989511738
 11
3.871125914
 21
-16.7392310381
  0
LWPOLYLINE
  5
316
100
AcDbEntity
  8
RACCORDO
100
AcDbPolyline
 62
250
  6
CONTINUOUS
 90
8
 70
0
 10
8.5136816372
 20
-13.3713885963
 10
8.1126418755
 20
-13.7094031273
 10
7.7119501761
 20
-14.0469860809
 10
7.3116059117
 20
-14.3841386161
 10
6.9116098444
 20
-14.7208643051
 10
6.5119600208
 20
-15.0571619363
 10
6.1126516231
 20
-15.3930255824
 10
5.7136825135
 20
-15.7284541682
  0
LWPOLYLINE
  5
317
100
AcDbEntity
  8
RACCORDO
100
AcDbPolyline
 62
250
  6
CONTINUOUS
 90
3
 70
0
 10
5.7136825135
 20
-15.7284541682
 10
5.3150533832
 20
-16.0634514026
 10
4.9167635436
 20
-16.3980186289
  0
LINE
  5
318
100
AcDbEntity
  8
RACCORDO
100
AcDbLine
 62
250
  6
CONTINUOUS
 10
-1.2219696789
 20
-23.3911111776
 11
-1.9788416078
 21
-23.9928701261
  0
LINE
  5
319
100
AcDbEntity
  8
RACCORDO
100
AcDbLine
 62
250
  6
CONTINUOUS
 10
-1.5953109112
 20
-22.2088016663
 11
-2.2829189282
 21
-22.7517484086
  0
LWPOLYLINE
  5
31A
100
AcDbEntity
  8
DRAFT
100
AcDbPolyline
 62
7
  6
CONTINUOUS
 90
10
 70
0
 10
-26.5086872453
 20
-10.078424421
 10
-26.5719302395
 20
-10.017256739
 10
-26.6353073732
 20
-9.9562514357
 10
-26.6988186464
 20
-9.8954085111
 10
-26.7624646971
 20
-9.8347273599
 10
-26.8262448873
 20
-9.7742085873
 10
-26.8901573026
 20
-9.7138540099
 10
-26.9542013051
 20
-9.6536642331
 10
-27.0183775328
 20
-9.5936386514
 10
-27.0826859857
 20
-9.5337772648
  0
LINE
  5
31B
100
AcDbEntity
  8
DRAFT
100
AcDbLine
 62
7
  6
CONTINUOUS
 10
-25.8740192131
 20
-10.7088235058
 11
-25.9604042417
 21
-10.6212102492
  0
LINE
  5
31C
100
AcDbEntity
  8
DRAFT
100
AcDbLine
 62
7
  6
CONTINUOUS
 10
-25.7879118745
 20
-10.7967375612
 11
-25.8740192131
 21
-10.7088235058
  0
LINE
  5
31D
100
AcDbEntity
  8
DRAFT
100
AcDbLine
 62
7
  6
CONTINUOUS
 10
-25.7020839058
 20
-10.8849507002
 11
-25.7879118745
 21
-10.7967375612
  0
LINE
  5
31E
100
AcDbEntity
  8
DRAFT
100
AcDbLine
 62
7
  6
CONTINUOUS
 10
-24.3363930404
 20
-8.2372792666
 11
-24.7053975868
 21
-7.8240376962
  0
LWPOLYLINE
  5
31F
100
AcDbEntity
  8
DRAFT
100
AcDbPolyline
 62
7
  6
CONTINUOUS
 90
10
 70
0
 10
-22.4566437929
 20
-10.5818887262
 10
-22.6277725919
 20
-10.387748006
 10
-22.8002095881
 20
-10.1948513302
 10
-22.9739547813
 20
-10.0031986988
 10
-23.1490234179
 20
-9.8127737586
 10
-23.3254002516
 20
-9.6235928629
 10
-23.5030395433
 20
-9.4357050711
 10
-23.6819260466
 20
-9.2491267364
 10
-23.8620750078
 20
-9.0638415056
 10
-24.043486427
 20
-8.8798493788
  0
LINE
  5
320
100
AcDbEntity
  8
RACCORDO
100
AcDbLine
 62
7
  6
CONTINUOUS
 10
-21.635574379
 20
-11.5530503297
 11
-21.9698284938
 21
-11.1495069843
  0
LWPOLYLINE
  5
321
100
AcDbEntity
  8
RACCORDO
100
AcDbPolyline
 62
250
  6
CONTINUOUS
 90
10
 70
0
 10
-16.2096174848
 20
-14.4641310095
 10
-16.2275031118
 20
-14.4273602204
 10
-16.2415908258
 20
-14.3894046416
 10
-16.251503724
 20
-14.3512797365
 10
-16.2569765969
 20
-14.3140054985
 10
-16.2578630233
 20
-14.2785791626
 10
-16.2541392877
 20
-14.2459485246
 10
-16.2459050149
 20
-14.2169865847
 10
-16.2333805046
 20
-14.1924681903
 10
-16.2169008375
 20
-14.1730493064
  0
LWPOLYLINE
  5
322
100
AcDbEntity
  8
RACCORDO
100
AcDbPolyline
 62
7
  6
CONTINUOUS
 90
13
 70
0
 10
-6.6030655336
 20
-12.0609602132
 10
-6.6040964766
 20
-12.0479619872
 10
-6.6057978966
 20
-12.035793846
 10
-6.6081697935
 20
-12.0244557898
 10
-6.611245964
 20
-12.0138337648
 10
-6.6149926115
 20
-12.0040418246
 10
-6.6193083459
 20
-11.9954221304
 10
-6.624192167
 20
-11.9880583878
 10
-6.629645075
 20
-11.9818668911
 10
-6.6355686805
 20
-11.9769386848
 10
-6.6419601358
 20
-11.9732801554
 10
-6.6488222885
 20
-11.9708849164
 10
-6.651959029
 20
-11.9702511033
  0
LINE
  5
323
100
AcDbEntity
  8
RACCORDO
100
AcDbLine
 62
7
  6
CONTINUOUS
 10
-6.5718824991
 20
-12.6384012568
 11
-6.6030655336
 21
-12.0609602132
  0
LWPOLYLINE
  5
324
100
AcDbEntity
  8
RACCORDO
100
AcDbPolyline
 62
250
  6
CONTINUOUS
 90
21
 70
0
 10
-6.4803897094
 20
-18.3828470458
 10
-6.481467323
 20
-18.3595027622
 10
-6.4875503371
 20
-18.3153057337
 10
-6.4982752579
 20
-18.2687937197
 10
-6.5140451835
 20
-18.2205128721
 10
-6.5352488701
 20
-18.1709603819
 10
-6.5623191759
 20
-18.1206057761
 10
-6.5956047798
 20
-18.0701880401
 10
-6.6351347532
 20
-18.0208912626
 10
-6.6806657835
 20
-17.9740468386
 10
-6.7321148328
 20
-17.9307143251
 10
-6.7887199838
 20
-17.8924612599
 10
-6.8486919473
 20
-17.8611108725
 10
-6.9108620676
 20
-17.83764341
 10
-6.9740763239
 20
-17.8228605392
 10
-7.036245841
 20
-17.8174676558
 10
-7.0958752519
 20
-17.8216001439
 10
-7.1519098632
 20
-17.8351908386
 10
-7.2030291813
 20
-17.8579353163
 10
-7.2481280599
 20
-17.889294089
 10
-7.2556752897
 20
-17.8959297592
  0
LWPOLYLINE
  5
325
100
AcDbEntity
  8
RACCORDO
100
AcDbPolyline
 62
250
  6
CONTINUOUS
 90
13
 70
0
 10
-5.5979686064
 20
-22.284071214
 10
-5.5996670723
 20
-22.2248476037
 10
-5.6086653669
 20
-22.164446144
 10
-5.6248097431
 20
-22.1038996632
 10
-5.6478242583
 20
-22.0442434846
 10
-5.6773154734
 20
-21.9864977634
 10
-5.7127791621
 20
-21.9316500359
 10
-5.7536089778
 20
-21.8806382528
 10
-5.7991067757
 20
-21.8343348171
 10
-5.8484945036
 20
-21.7935316765
 10
-5.9009276037
 20
-21.7589266717
 10
-5.9555094733
 20
-21.7311116261
 10
-6.0113067255
 20
-21.7105622777
  0
LWPOLYLINE
  5
326
100
AcDbEntity
  8
RACCORDO
100
AcDbPolyline
 62
250
  6
CONTINUOUS
 90
19
 70
0
 10
-7.6736347404
 20
-60.1864915928
 10
-7.6736310374
 20
-60.2230846911
 10
-7.671874796
 20
-60.2576249366
 10
-7.6683660162
 20
-60.2901123293
 10
-7.6630546767
 20
-60.3207516542
 10
-7.6559907989
 20
-60.3493381262
 10
-7.6473244459
 20
-60.3752573901
 10
-7.6370247293
 20
-60.3984438302
 10
-7.6251225377
 20
-60.4189630621
 10
-7.6118606003
 20
-60.4363975777
 10
-7.5972090436
 20
-60.4506857054
 10
-7.5811977412
 20
-60.4618891169
 10
-7.5641590429
 20
-60.4697753186
 10
-7.5460619749
 20
-60.474269471
 10
-7.526937511
 20
-60.4754464136
 10
-7.5072109224
 20
-60.4732981715
 10
-7.4870239661
 20
-60.4678220865
 10
-7.4662348851
 20
-60.4590208169
 10
-7.4448436794
 20
-60.4468943626
  0
LINE
  5
327
100
AcDbEntity
  8
RACCORDO
100
AcDbLine
 62
7
  6
CONTINUOUS
 10
-7.0809117682
 20
-8.8317346209
 11
-7.0809117682
 21
-9.5631569508
  0
LWPOLYLINE
  5
328
100
AcDbEntity
  8
RACCORDO
100
AcDbPolyline
 62
250
  6
CONTINUOUS
 90
10
 70
0
 10
-6.5450469592
 20
-22.9175267373
 10
-6.8329113833
 20
-27.1241867771
 10
-7.0990481769
 20
-31.3171569242
 10
-7.3434348958
 20
-35.4960809342
 10
-7.5660508868
 20
-39.6606037291
 10
-7.7668772963
 20
-43.8103715553
 10
-7.9458970703
 20
-47.9450320119
 10
-8.1030949469
 20
-52.0642339113
 10
-8.2384574599
 20
-56.1676273109
 10
-8.3519729459
 20
-60.2548636688
  0
LWPOLYLINE
  5
329
100
AcDbEntity
  8
RACCORDO
100
AcDbPolyline
 62
250
  6
CONTINUOUS
 90
10
 70
0
 10
-5.8685156797
 20
-22.8864919982
 10
-6.1561281769
 20
-27.0895172779
 10
-6.4219927048
 20
-31.27816485
 10
-6.6661092632
 20
-35.4524347143
 10
-6.8884951308
 20
-39.6126835541
 10
-7.089133029
 20
-43.7585546861
 10
-7.2679711226
 20
-47.888978061
 10
-7.4249921331
 20
-52.0035969955
 10
-7.5602133391
 20
-56.1027681727
 10
-7.6736347404
 20
-60.1864915928
  0
LWPOLYLINE
  5
32A
100
AcDbEntity
  8
RACCORDO
100
AcDbPolyline
 62
250
  6
CONTINUOUS
 90
10
 70
0
 10
-6.6637309613
 20
-17.1711229966
 10
-6.6598869947
 20
-17.1349059808
 10
-6.6531552042
 20
-17.0976118042
 10
-6.6436972894
 20
-17.0601362841
 10
-6.6317404323
 20
-17.0233795938
 10
-6.6175718401
 20
-16.98822464
 10
-6.6015318468
 20
-16.9555158553
 10
-6.5840057377
 20
-16.9260389146
 10
-6.5654144953
 20
-16.9005018628
 10
-6.5462046869
 20
-16.8795181076
  0
LINE
  5
32B
100
AcDbEntity
  8
RACCORDO
100
AcDbLine
 62
250
  6
CONTINUOUS
 10
8.549907291
 20
-13.335315537
 11
8.5136721576
 21
-13.3713721404
  0
LINE
  5
32C
100
AcDbEntity
  8
RACCORDO
100
AcDbLine
 62
250
  6
CONTINUOUS
 10
8.8820394954
 20
-17.6112635468
 11
9.2998851003
 21
-17.2343568341
  0
LINE
  5
32D
100
AcDbEntity
  8
RACCORDO
100
AcDbLine
 62
250
  6
CONTINUOUS
 10
8.819349349
 20
-14.4421625036
 11
-1.2219696789
 21
-23.3906856762
  0
LWPOLYLINE
  5
32E
100
AcDbEntity
  8
RACCORDO
100
AcDbPolyline
 62
250
  6
CONTINUOUS
 90
5
 70
0
 10
11.053261684
 20
-19.0833753603
 10
11.0946685747
 20
-19.0547687614
 10
11.1352671799
 20
-19.0389519485
 10
11.1738405289
 20
-19.0368397339
 10
11.1873988391
 20
-19.0396659331
  0
LWPOLYLINE
  5
32F
100
AcDbEntity
  8
RACCORDO
100
AcDbPolyline
 62
250
  6
CONTINUOUS
 90
10
 70
0
 10
-2.3172017019
 20
-24.0095511527
 10
-2.2781897477
 20
-24.0191620818
 10
-2.2366480555
 20
-24.0260802314
 10
-2.1938102774
 20
-24.0300994264
 10
-2.1509486421
 20
-24.0310995501
 10
-2.1093374478
 20
-24.0290501173
 10
-2.0702150127
 20
-24.0240115289
 10
-2.0347450231
 20
-24.016133224
 10
-2.0039821095
 20
-24.005648971
 10
-1.9788416074
 20
-23.992870111
  0
LINE
  5
330
100
AcDbEntity
  8
RACCORDO
100
AcDbLine
 62
250
  6
CONTINUOUS
 10
-43.845171034
 20
-12.1499083996
 11
-6.5450469592
 21
-22.9175267373
  0
LWPOLYLINE
  5
331
100
AcDbEntity
  8
RACCORDO
100
AcDbPolyline
 62
250
  6
CONTINUOUS
 90
10
 70
0
 10
-43.8451710298
 20
-12.1499083969
 10
-43.8989952702
 20
-12.1324841675
 10
-43.9477702361
 20
-12.1126889204
 10
-43.9906797754
 20
-12.0908538898
 10
-44.0270058822
 20
-12.0673444416
 10
-44.0561407115
 20
-12.0425539596
 10
-44.0775967496
 20
-12.0168972632
 10
-44.0910149726
 20
-11.9908036661
 10
-44.0961708531
 20
-11.9647097929
 10
-44.0960553923
 20
-11.9563951652
  0
LWPOLYLINE
  5
332
100
AcDbEntity
  8
DRAFT
100
AcDbPolyline
 62
7
  6
CONTINUOUS
 90
10
 70
0
 10
-24.494181858
 20
-8.4336726941
 10
-24.5609375875
 20
-8.3688787245
 10
-24.6278440452
 20
-8.3042663018
 10
-24.6949012311
 20
-8.2398354261
 10
-24.7621099023
 20
-8.1755853773
 10
-24.8294693018
 20
-8.1115168753
 10
-24.8969771584
 20
-8.0476320804
 10
-24.9646327152
 20
-7.9839317126
 10
-25.0324367292
 20
-7.9204150518
 10
-25.1003892004
 20
-7.857082098
  0
LINE
  5
333
100
AcDbEntity
  8
RACCORDO
100
AcDbLine
 62
250
  6
CONTINUOUS
 10
-2.3172017019
 20
-52.0376683248
 11
-3.3291271526
 21
-39.0239860423
  0
LINE
  5
334
100
AcDbEntity
  8
RACCORDO
100
AcDbLine
 62
250
  6
CONTINUOUS
 10
-1.9788416078
 20
-51.9682163246
 11
-2.9907670585
 21
-38.9545340422
  0
LWPOLYLINE
  5
335
100
AcDbEntity
  8
RACCORDO
100
AcDbPolyline
 62
250
  6
CONTINUOUS
 90
10
 70
0
 10
-2.9907670585
 20
-38.9545340422
 10
-2.9926641479
 20
-38.926800924
 10
-2.9940868145
 20
-38.8986661209
 10
-2.9950350584
 20
-38.8701296329
 10
-2.995508679
 20
-38.8411839099
 10
-2.9955078769
 20
-38.8118365021
 10
-2.9950332536
 20
-38.7821100596
 10
-2.9940850097
 20
-38.7520121324
 10
-2.9926629446
 20
-38.7215351705
 10
-2.9907670585
 20
-38.6906791738
  0
LWPOLYLINE
  5
336
100
AcDbEntity
  8
RACCORDO
100
AcDbPolyline
 62
250
  6
CONTINUOUS
 90
10
 70
0
 10
-3.3291271526
 20
-39.0239860423
 10
-3.3313937222
 20
-38.9907522744
 10
-3.3330925825
 20
-38.9569823494
 10
-3.3342239471
 20
-38.9227026575
 10
-3.3347883064
 20
-38.8879562067
 10
-3.3347873452
 20
-38.8527540005
 10
-3.3342213639
 20
-38.8170727858
 10
-3.3330892523
 20
-38.7809210932
 10
-3.3313910672
 20
-38.7443414499
 10
-3.3291271526
 20
-38.7073602003
  0
LWPOLYLINE
  5
337
100
AcDbEntity
  8
SUPERFICI
100
AcDbPolyline
 62
7
  6
CONTINUOUS
 90
8
 70
0
 10
-5.0243398738
 20
-13.9385772339
 10
-5.0216472844
 20
-13.9862466057
 10
-5.0143233101
 20
-14.0337231762
 10
-5.0023679507
 20
-14.0810069453
 10
-4.985537882
 20
-14.1286320942
 10
-4.9640764283
 20
-14.1760644418
 10
-4.9387135627
 20
-14.221701445
 10
-4.9093245074
 20
-14.2654700447
  0
LWPOLYLINE
  5
338
100
AcDbEntity
  8
RACCORDO
100
AcDbPolyline
 62
250
  6
CONTINUOUS
 90
10
 70
0
 10
-2.3172017019
 20
-24.0095511527
 10
-2.3147209597
 20
-23.8734851862
 10
-2.3206769799
 20
-23.7407575136
 10
-2.3350697625
 20
-23.611368135
 10
-2.3587131762
 20
-23.4848265798
 10
-2.3907933522
 20
-23.3616233186
 10
-2.4288686845
 20
-23.2432297624
 10
-2.4721253042
 20
-23.1301363817
 10
-2.5213770801
 20
-23.0218527061
 10
-2.5766240123
 20
-22.9183787355
  0
LWPOLYLINE
  5
339
100
AcDbEntity
  8
RACCORDO
100
AcDbPolyline
 62
250
  6
CONTINUOUS
 90
10
 70
0
 10
-1.9788416078
 20
-23.9928701261
 10
-1.9753824484
 20
-23.8392112757
 10
-1.9836287895
 20
-23.6875369843
 10
-2.0025178499
 20
-23.5389746962
 10
-2.0309040371
 20
-23.3947132131
 10
-2.0677394513
 20
-23.2553537979
 10
-2.1122325899
 20
-23.1209279625
 10
-2.163563288
 20
-22.9917903618
 10
-2.2207496137
 20
-22.8686133058
 10
-2.2829188438
 20
-22.7517483417
  0
LINE
  5
33A
100
AcDbEntity
  8
RACCORDO
100
AcDbLine
 62
7
  6
CONTINUOUS
 10
-2.4641744704
 20
-19.9987010322
 11
-4.3249545553
 21
-58.448849792
  0
LINE
  5
33B
100
AcDbEntity
  8
RACCORDO
100
AcDbLine
 62
250
  6
CONTINUOUS
 10
-3.3291271526
 20
-38.7073602003
 11
-2.3172017019
 21
-24.0095511527
  0
LINE
  5
33C
100
AcDbEntity
  8
RACCORDO
100
AcDbLine
 62
250
  6
CONTINUOUS
 10
-2.9907670585
 20
-38.6906791738
 11
-1.9788416078
 21
-23.9928701261
  0
LWPOLYLINE
  5
33D
100
AcDbEntity
  8
RACCORDO
100
AcDbPolyline
 62
250
  6
CONTINUOUS
 90
8
 70
0
 10
-7.4448436794
 20
-60.4468943626
 10
-7.4522267632
 20
-60.5051296856
 10
-7.4668128039
 20
-60.5601788422
 10
-7.4883523752
 20
-60.611100473
 10
-7.5164771432
 20
-60.6570238008
 10
-7.5507061647
 20
-60.6971635212
 10
-7.5904541118
 20
-60.7308332312
 10
-7.6037911447
 20
-60.7398629406
  0
LINE
  5
33E
100
AcDbEntity
  8
0
100
AcDbLine
 62
7
  6
CONTINUOUS
 10
2.0119295702
 20
-15.4617698207
 11
2.0279956379
 21
-15.4281327138
  0
LINE
  5
33F
100
AcDbEntity
  8
RACCORDO
100
AcDbLine
 62
7
  6
CONTINUOUS
 10
8.8820394954
 20
-20.7431909333
 11
9.2998851003
 21
-20.379310805
  0
LINE
  5
340
100
AcDbEntity
  8
RACCORDO
100
AcDbLine
 62
250
  6
CONTINUOUS
 10
8.8820394954
 20
-20.9741804791
 11
11.053261684
 21
-19.0833753603
  0
LINE
  5
341
100
AcDbEntity
  8
RACCORDO
100
AcDbLine
 62
250
  6
CONTINUOUS
 10
8.819349349
 20
-21.9637327357
 11
11.4862084359
 21
-19.6413030742
  0
LWPOLYLINE
  5
342
100
AcDbEntity
  8
RACCORDO
100
AcDbPolyline
 62
250
  6
CONTINUOUS
 90
8
 70
0
 10
-43.3261386241
 20
-10.9386981563
 10
-43.383332838
 20
-10.9266296488
 10
-43.4398098093
 20
-10.9223846933
 10
-43.4946037416
 20
-10.9260358134
 10
-43.5467776538
 20
-10.9375205092
 10
-43.5954393397
 20
-10.9566423168
 10
-43.6397566399
 20
-10.9830741409
 10
-43.6516942503
 20
-10.9920519393
  0
LINE
  5
343
100
AcDbEntity
  8
RACCORDO
100
AcDbLine
 62
250
  6
CONTINUOUS
 10
-43.3261386241
 20
-10.9386981563
 11
-6.0113067247
 21
-21.7105622772
  0
LINE
  5
344
100
AcDbEntity
  8
DRAFT
100
AcDbLine
 62
7
  6
CONTINUOUS
 10
-20.1968616343
 20
-9.5748570806
 11
-20.0302946124
 21
-9.7221064323
  0
LWPOLYLINE
  5
345
100
AcDbEntity
  8
ASSI
100
AcDbPolyline
 62
7
  6
CONTINUOUS
 90
10
 70
0
 10
-12.6102037386
 20
-14.6642509696
 10
-12.6641665221
 20
-14.6146023739
 10
-12.7200154272
 20
-14.5729270222
 10
-12.7777504541
 20
-14.5392249145
 10
-12.8386290173
 20
-14.5131330666
 10
-12.9013937022
 20
-14.4950144627
 10
-12.9622722654
 20
-14.4859580558
 10
-13.0200072923
 20
-14.4863268301
 10
-13.0758561975
 20
-14.4957578014
 10
-13.1298189809
 20
-14.5142509696
  0
LINE
  5
346
100
AcDbEntity
  8
RACCORDO
100
AcDbLine
 62
250
  6
CONTINUOUS
 10
-2.5766240123
 20
-22.9183787355
 11
-2.603228721
 21
-22.8720425209
  0
LWPOLYLINE
  5
347
100
AcDbEntity
  8
SUPERFICI
100
AcDbPolyline
 62
7
  6
CONTINUOUS
 90
4
 70
0
 10
-1.2269659533
 20
-23.2595249742
 10
-1.2412477948
 20
-23.1277893004
 10
-1.2648152032
 20
-22.9954786548
 10
-1.2978996962
 20
-22.8618597784
  0
LINE
  5
348
100
AcDbEntity
  8
SUPERFICI
100
AcDbLine
 62
7
  6
CONTINUOUS
 10
-1.2219696789
 20
-23.3906856762
 11
-1.2269659533
 21
-23.2595249742
  0
LINE
  5
349
100
AcDbEntity
  8
0
100
AcDbLine
 62
250
  6
CONTINUOUS
 10
-1.3532301068
 20
-13.9289843938
 11
-1.3532301068
 21
-14.3287085413
  0
LINE
  5
34A
100
AcDbEntity
  8
SUPERFICI
100
AcDbLine
 62
7
  6
CONTINUOUS
 10
-1.2219696789
 20
-51.3107543525
 11
-1.2219696789
 21
-23.3906856762
  0
LINE
  5
34B
100
AcDbEntity
  8
RACCORDO
100
AcDbLine
 62
7
  6
CONTINUOUS
 10
-1.2219696789
 20
-23.3911111776
 11
-1.2219696789
 21
-51.3103288511
  0
LINE
  5
34C
100
AcDbEntity
  8
DRAFT
100
AcDbLine
 62
250
  6
CONTINUOUS
 10
-0.8728970428
 20
-14.2155558709
 11
-0.8728970428
 21
-14.4488409395
  0
LINE
  5
34D
100
AcDbEntity
  8
0
100
AcDbLine
 62
7
  6
CONTINUOUS
 10
0.5328375776
 20
-15.13278264
 11
0.5328375776
 21
-15.1633810003
  0
LINE
  5
34E
100
AcDbEntity
  8
0
100
AcDbLine
 62
7
  6
CONTINUOUS
 10
1.1117420897
 20
-15.2019080787
 11
1.1117420897
 21
-15.4538572011
  0
LINE
  5
34F
100
AcDbEntity
  8
0
100
AcDbLine
 62
7
  6
CONTINUOUS
 10
1.1619702341
 20
-15.1781327138
 11
1.1619702341
 21
-15.4793164786
  0
LINE
  5
350
100
AcDbEntity
  8
RACCORDO
100
AcDbLine
 62
7
  6
CONTINUOUS
 10
1.5793422696
 20
-11.3317346209
 11
1.5793422696
 21
-12.0631569508
  0
LINE
  5
351
100
AcDbEntity
  8
RACCORDO
100
AcDbLine
 62
250
  6
CONTINUOUS
 10
-0.7867794319
 20
-14.6399123178
 11
-0.7869212006
 21
-14.6811147208
  0
LINE
  5
352
100
AcDbEntity
  8
SUPERFICI
100
AcDbLine
 62
7
  6
CONTINUOUS
 10
-1.2219696789
 20
-51.3107543525
 11
-1.2269659533
 21
-51.4390304541
  0
LWPOLYLINE
  5
353
100
AcDbEntity
  8
RACCORDO
100
AcDbPolyline
 62
7
  6
CONTINUOUS
 90
7
 70
0
 10
-1.2219696789
 20
-51.3103288511
 10
-1.2338913455
 20
-51.5036765986
 10
-1.265933761
 20
-51.6841359706
 10
-1.3180969253
 20
-51.8517069668
 10
-1.3903808385
 20
-52.0063895874
 10
-1.4827855004
 20
-52.1481838322
 10
-1.5953109112
 20
-52.2770897014
  0
LWPOLYLINE
  5
354
100
AcDbEntity
  8
SUPERFICI
100
AcDbPolyline
 62
7
  6
CONTINUOUS
 90
4
 70
0
 10
-1.2269659533
 20
-51.4390304541
 10
-1.2412477948
 20
-51.5625205029
 10
-1.2648152032
 20
-51.6812244989
 10
-1.2978996962
 20
-51.7957420343
  0
LINE
  5
355
100
AcDbEntity
  8
0
100
AcDbLine
 62
7
  6
CONTINUOUS
 10
1.7945743925
 20
-15.6463068459
 11
1.7789729736
 21
-15.7140167211
  0
LWPOLYLINE
  5
356
100
AcDbEntity
  8
SUPERFICI
100
AcDbPolyline
 62
7
  6
CONTINUOUS
 90
12
 70
0
 10
-6.380655756
 20
-16.2346575919
 10
-6.4227380029
 20
-16.2429718839
 10
-6.4658663119
 20
-16.2461904111
 10
-6.510040683
 20
-16.2443131734
 10
-6.5559046139
 20
-16.2371541172
 10
-6.6028146069
 20
-16.2248992962
 10
-6.6488401688
 20
-16.2081068711
 10
-6.6936648436
 20
-16.1867783667
 10
-6.7376050873
 20
-16.1609122582
 10
-6.7796797751
 20
-16.1310621322
 10
-6.8201455841
 20
-16.0968345429
 10
-6.8587458373
 20
-16.058622936
  0
LWPOLYLINE
  5
357
100
AcDbEntity
  8
RACCORDO
100
AcDbPolyline
 62
7
  6
CONTINUOUS
 90
15
 70
0
 10
1.186509428
 20
-14.4169001467
 10
1.065240572
 20
-14.4214985773
 10
0.9445102931
 20
-14.4292621671
 10
0.8246165339
 20
-14.4401794598
 10
0.7058560116
 20
-14.4542329783
 10
0.5884590661
 20
-14.4714096529
 10
0.4727130106
 20
-14.4916868357
 10
0.3589152841
 20
-14.5150342949
 10
0.2473017619
 20
-14.5414304232
 10
0.1381557103
 20
-14.5708408616
 10
0.0317610477
 20
-14.6032255388
 10
-0.0716619019
 20
-14.6385612359
 10
-0.1718766786
 20
-14.6768219643
 10
-0.2685713221
 20
-14.7179499339
 10
-0.3194741623
 20
-14.7420279536
  0
LWPOLYLINE
  5
358
100
AcDbEntity
  8
RACCORDO
100
AcDbPolyline
 62
250
  6
CONTINUOUS
 90
10
 70
0
 10
3.9602573535
 20
-17.077375739
 10
3.9893527277
 20
-17.0781978424
 10
4.0181178177
 20
-17.0771292912
 10
4.0466383465
 20
-17.0737897817
 10
4.0748390498
 20
-17.0679003825
 10
4.102799792
 20
-17.0597378982
 10
4.1308383823
 20
-17.0497559139
 10
4.1590612428
 20
-17.0381054151
 10
4.187364008
 20
-17.0246345396
 10
4.2157475769
 20
-17.009342936
  0
LWPOLYLINE
  5
359
100
AcDbEntity
  8
RACCORDO
100
AcDbPolyline
 62
250
  6
CONTINUOUS
 90
10
 70
0
 10
-26.4005847954
 20
-12.2132890752
 10
-26.4458524501
 20
-12.2025940962
 10
-26.4906128767
 20
-12.1967625048
 10
-26.5343763551
 20
-12.1958544953
 10
-26.5766555306
 20
-12.1998748674
 10
-26.6169990556
 20
-12.2087752079
 10
-26.6549918477
 20
-12.2224652224
 10
-26.6902278402
 20
-12.2408087647
 10
-26.7223023175
 20
-12.2636061266
 10
-26.7279099028
 20
-12.2683358077
  0
LWPOLYLINE
  5
35A
100
AcDbEntity
  8
RACCORDO
100
AcDbPolyline
 62
250
  6
CONTINUOUS
 90
10
 70
0
 10
-35.926864237
 20
-9.4632890752
 10
-35.9721318917
 20
-9.4525940962
 10
-36.0168923184
 20
-9.4467625048
 10
-36.0606557967
 20
-9.4458544953
 10
-36.1029349723
 20
-9.4498748674
 10
-36.1432784973
 20
-9.4587752079
 10
-36.1812712894
 20
-9.4724652224
 10
-36.2165072819
 20
-9.4908087647
 10
-36.2485817592
 20
-9.5136061266
 10
-36.2541893445
 20
-9.5183358077
  0
LWPOLYLINE
  5
35B
100
AcDbEntity
  8
RACCORDO
100
AcDbPolyline
 62
250
  6
CONTINUOUS
 90
10
 70
0
 10
-35.5403214375
 20
-8.7961540961
 10
-35.5592471481
 20
-8.7914456834
 10
-35.5780160497
 20
-8.7882306991
 10
-35.5966281422
 20
-8.7865091433
 10
-35.6151856953
 20
-8.7862826597
 10
-35.6335864394
 20
-8.7875496046
 10
-35.6515235662
 20
-8.7903050466
 10
-35.6688948063
 20
-8.794547342
 10
-35.6858024291
 20
-8.8002781346
 10
-35.7022464347
 20
-8.8074974242
  0
LWPOLYLINE
  5
35C
100
AcDbEntity
  8
SUPERFICI
100
AcDbPolyline
 62
7
  6
CONTINUOUS
 90
10
 70
0
 10
-14.0606728625
 20
-13.2929086559
 10
-14.1173740756
 20
-13.2784375511
 10
-14.1733659454
 20
-13.267757062
 10
-14.2286484717
 20
-13.2608671884
 10
-14.283448882
 20
-13.257770847
 10
-14.3375399489
 20
-13.2584651211
 10
-14.3902399903
 20
-13.2629412612
 10
-14.4413217787
 20
-13.2711963508
 10
-14.4910125415
 20
-13.2832333063
 10
-14.5393122787
 20
-13.2990521279
  0
LWPOLYLINE
  5
35D
100
AcDbEntity
  8
RACCORDO
100
AcDbPolyline
 62
250
  6
CONTINUOUS
 90
10
 70
0
 10
-35.446300418
 20
-8.5628701849
 10
-35.4773686854
 20
-8.5547295183
 10
-35.5083498356
 20
-8.5489567136
 10
-35.5390851182
 20
-8.5455860824
 10
-35.5694188192
 20
-8.544644792
 10
-35.5991958708
 20
-8.5461377089
 10
-35.6282615406
 20
-8.5500506893
 10
-35.6564666494
 20
-8.5563690147
 10
-35.6836694865
 20
-8.5650740436
 10
-35.7097325835
 20
-8.5761306066
  0
LWPOLYLINE
  5
35E
100
AcDbEntity
  8
RACCORDO
100
AcDbPolyline
 62
250
  6
CONTINUOUS
 90
13
 70
0
 10
-16.0739161584
 20
-14.4546365182
 10
-16.0839035276
 20
-14.4519207089
 10
-16.094181275
 20
-14.4497427602
 10
-16.1047494005
 20
-14.4481026724
 10
-16.1156336183
 20
-14.4469413308
 10
-16.1268082142
 20
-14.44631785
 10
-16.1381960458
 20
-14.4464095732
 10
-16.1498169253
 20
-14.4472090546
 10
-16.1616510404
 20
-14.44872374
 10
-16.1735618119
 20
-14.4511533102
 10
-16.1855037132
 20
-14.4545643253
 10
-16.1975222709
 20
-14.4588902251
 10
-16.2096174849
 20
-14.4641310096
  0
LINE
  5
35F
100
AcDbEntity
  8
RACCORDO
100
AcDbLine
 62
7
  6
CONTINUOUS
 10
-2.8752688329
 20
-19.4235558001
 11
-40.3744326014
 21
-8.598479652
  0
LINE
  5
360
100
AcDbEntity
  8
DRAFT
100
AcDbLine
 62
7
  6
CONTINUOUS
 10
-28.1392354136
 20
-12.0576201181
 11
-33.7118696073
 21
-10.4489391922
  0
LINE
  5
361
100
AcDbEntity
  8
RACCORDO
100
AcDbLine
 62
250
  6
CONTINUOUS
 10
-6.6637309613
 20
-17.1711229966
 11
-16.0739161584
 21
-14.4546365182
  0
LINE
  5
362
100
AcDbEntity
  8
RACCORDO
100
AcDbLine
 62
250
  6
CONTINUOUS
 10
-28.0677501312
 20
-10.9532996237
 11
-26.1633558264
 21
-11.503050906
  0
LINE
  5
363
100
AcDbEntity
  8
RACCORDO
100
AcDbLine
 62
250
  6
CONTINUOUS
 10
-33.6359271328
 20
-9.3459053784
 11
-35.5403214375
 21
-8.7961540961
  0
LINE
  5
364
100
AcDbEntity
  8
RACCORDO
100
AcDbLine
 62
250
  6
CONTINUOUS
 10
-27.9765716547
 20
-10.7191951411
 11
-26.069334807
 21
-11.2697669948
  0
LINE
  5
365
100
AcDbEntity
  8
RACCORDO
100
AcDbLine
 62
250
  6
CONTINUOUS
 10
-33.5390635702
 20
-9.1134420387
 11
-35.4463004179
 21
-8.562870185
  0
LINE
  5
366
100
AcDbEntity
  8
RACCORDO
100
AcDbLine
 62
7
  6
CONTINUOUS
 10
-15.5387518017
 20
-13.8188519633
 11
-13.7360367636
 21
-14.3392509696
  0
LINE
  5
367
100
AcDbEntity
  8
ASSI
100
AcDbLine
 62
7
  6
CONTINUOUS
 10
-13.1298189809
 20
-14.5142509696
 11
-12.6102037386
 21
-14.6642509696
  0
LINE
  5
368
100
AcDbEntity
  8
ASSI
100
AcDbLine
 62
7
  6
CONTINUOUS
 10
-9.1461021235
 20
-15.6642509696
 11
-8.6264868812
 21
-15.8142509696
  0
LINE
  5
369
100
AcDbEntity
  8
RACCORDO
100
AcDbLine
 62
7
  6
CONTINUOUS
 10
-8.0202690986
 20
-15.9892509696
 11
-6.2175540604
 21
-16.5096499758
  0
LINE
  5
36A
100
AcDbEntity
  8
RACCORDO
100
AcDbLine
 62
7
  6
CONTINUOUS
 10
-25.7025806517
 20
-10.884807302
 11
-27.5943931984
 21
-10.3386880605
  0
LINE
  5
36B
100
AcDbEntity
  8
RACCORDO
100
AcDbLine
 62
7
  6
CONTINUOUS
 10
-33.133055834
 20
-8.7398138787
 11
-35.0248683805
 21
-8.1936946372
  0
LINE
  5
36C
100
AcDbEntity
  8
SUPERFICI
100
AcDbLine
 62
7
  6
CONTINUOUS
 10
-7.8732004396
 20
-15.9451034941
 11
-13.8831054226
 21
-14.2101933643
  0
LINE
  5
36D
100
AcDbEntity
  8
SUPERFICI
100
AcDbLine
 62
7
  6
CONTINUOUS
 10
-14.0606728625
 20
-13.2929086559
 11
-7.6956329997
 21
-15.1303373949
  0
LINE
  5
36E
100
AcDbEntity
  8
DRAFT
100
AcDbLine
 62
7
  6
CONTINUOUS
 10
-27.0826859857
 20
-9.5337772648
 11
-27.5943931984
 21
-9.3860601163
  0
LINE
  5
36F
100
AcDbEntity
  8
DRAFT
100
AcDbLine
 62
7
  6
CONTINUOUS
 10
-33.133055834
 20
-7.7871859345
 11
-33.6447630468
 21
-7.639468786
  0
LWPOLYLINE
  5
370
100
AcDbEntity
  8
RACCORDO
100
AcDbPolyline
 62
250
  6
CONTINUOUS
 90
13
 70
0
 10
-6.5462046869
 20
-16.8795181076
 10
-15.9757841102
 20
-14.1574046165
 10
-15.9958083394
 20
-14.1525780685
 10
-16.0164101768
 20
-14.148655441
 10
-16.0375029472
 20
-14.145742674
 10
-16.0590427107
 20
-14.1439459425
 10
-16.0810250369
 20
-14.1433830668
 10
-16.1033556651
 20
-14.1441763311
 10
-16.1259312871
 20
-14.1464470067
 10
-16.1487092991
 20
-14.1503355795
 10
-16.171578694
 20
-14.1559823654
 10
-16.1943653732
 20
-14.1635111819
 10
-16.2169067304
 20
-14.1730453574
  0
LWPOLYLINE
  5
371
100
AcDbEntity
  8
RACCORDO
100
AcDbPolyline
 62
250
  6
CONTINUOUS
 90
7
 70
0
 10
-26.0693348068
 20
-11.2697669948
 10
-26.0221059875
 20
-11.2855430311
 10
-25.9755120037
 20
-11.3063721032
 10
-25.9301146088
 20
-11.3320300428
 10
-25.8864660971
 20
-11.362238157
 10
-25.8451027359
 20
-11.396666294
 10
-25.8065383529
 20
-11.434936534
  0
LWPOLYLINE
  5
372
100
AcDbEntity
  8
RACCORDO
100
AcDbPolyline
 62
7
  6
CONTINUOUS
 90
7
 70
0
 10
-25.7019584515
 20
-10.8850889444
 10
-25.6544967317
 20
-10.9015291075
 10
-25.608563417
 20
-10.9223210918
 10
-25.5641585074
 20
-10.947464897
 10
-25.5212820029
 20
-10.9769605234
 10
-25.4799339035
 20
-11.0108079707
 10
-25.4401142092
 20
-11.0490072392
  0
LWPOLYLINE
  5
373
100
AcDbEntity
  8
RACCORDO
100
AcDbPolyline
 62
7
  6
CONTINUOUS
 90
7
 70
0
 10
-6.2175540604
 20
-16.5096499758
 10
-6.169097887
 20
-16.5266168798
 10
-6.1224593855
 20
-16.5477863544
 10
-6.0776385561
 20
-16.5731583996
 10
-6.0346353985
 20
-16.6027330155
 10
-5.993449913
 20
-16.6365102021
 10
-5.9540820994
 20
-16.6744899593
  0
LWPOLYLINE
  5
374
100
AcDbEntity
  8
RACCORDO
100
AcDbPolyline
 62
250
  6
CONTINUOUS
 90
7
 70
0
 10
-26.1633558264
 20
-11.503050906
 10
-26.1347641608
 20
-11.5131242437
 10
-26.1073216565
 20
-11.5260104631
 10
-26.0810283133
 20
-11.5417095642
 10
-26.0558841313
 20
-11.5602215471
 10
-26.0318891104
 20
-11.5815464117
 10
-26.0090432508
 20
-11.605684158
  0
LWPOLYLINE
  5
375
100
AcDbEntity
  8
SUPERFICI
100
AcDbPolyline
 62
7
  6
CONTINUOUS
 90
3
 70
0
 10
-13.3123928634
 20
-11.9530750354
 10
-13.2673890498
 20
-11.9795074809
 10
-13.2222472672
 20
-12.0011052034
  0
LINE
  5
376
100
AcDbEntity
  8
SUPERFICI
100
AcDbLine
 62
7
  6
CONTINUOUS
 10
-6.8458747823
 20
-14.0405189652
 11
-6.8308379079
 21
-14.0541001848
  0
LWPOLYLINE
  5
377
100
AcDbEntity
  8
SUPERFICI
100
AcDbPolyline
 62
7
  6
CONTINUOUS
 90
10
 70
0
 10
-7.2169935835
 20
-15.4128234628
 10
-7.2652933207
 20
-15.3691187749
 10
-7.3149840835
 20
-15.3283928441
 10
-7.3660658719
 20
-15.2906456703
 10
-7.4187659132
 20
-15.2557431471
 10
-7.4728569801
 20
-15.2238193809
 10
-7.5276573905
 20
-15.1952766907
 10
-7.5829399168
 20
-15.1702491828
 10
-7.6389317865
 20
-15.1486027509
 10
-7.6956329997
 20
-15.1303373949
  0
LWPOLYLINE
  5
378
100
AcDbEntity
  8
ASSI
100
AcDbPolyline
 62
7
  6
CONTINUOUS
 90
10
 70
0
 10
-8.6264868812
 20
-15.8142509696
 10
-8.6804496646
 20
-15.7646023739
 10
-8.7362985698
 20
-15.7229270222
 10
-8.7940335967
 20
-15.6892249145
 10
-8.8549121599
 20
-15.6631330666
 10
-8.9176768448
 20
-15.6450144627
 10
-8.978555408
 20
-15.6359580558
 10
-9.0362904349
 20
-15.6363268301
 10
-9.0921393401
 20
-15.6457578014
 10
-9.1461021235
 20
-15.6642509696
  0
LINE
  5
379
100
AcDbEntity
  8
SUPERFICI
100
AcDbLine
 62
7
  6
CONTINUOUS
 10
-7.1507754167
 20
-15.4760195768
 11
-7.2169935835
 21
-15.4128234628
  0
LINE
  5
37A
100
AcDbEntity
  8
SUPERFICI
100
AcDbLine
 62
7
  6
CONTINUOUS
 10
-7.0847022941
 20
-15.5393907601
 11
-7.1507754167
 21
-15.4760195768
  0
LINE
  5
37B
100
AcDbEntity
  8
SUPERFICI
100
AcDbLine
 62
7
  6
CONTINUOUS
 10
-7.0187742157
 20
-15.6029370126
 11
-7.0847022941
 21
-15.5393907601
  0
LWPOLYLINE
  5
37C
100
AcDbEntity
  8
RACCORDO
100
AcDbPolyline
 62
250
  6
CONTINUOUS
 90
13
 70
0
 10
-6.2789820164
 20
-17.0418769988
 10
-6.2952920844
 20
-17.0254305871
 10
-6.3126837935
 20
-17.0091577841
 10
-6.3311634189
 20
-16.9931522636
 10
-6.3507046815
 20
-16.9775228473
 10
-6.3713220084
 20
-16.962365307
 10
-6.3930742586
 20
-16.9477707808
 10
-6.4159285347
 20
-16.9338676583
 10
-6.4398546549
 20
-16.9207865152
 10
-6.4649053295
 20
-16.9086510909
 10
-6.4910530374
 20
-16.8976152456
 10
-6.5181849683
 20
-16.8878484455
 10
-6.5462046869
 20
-16.8795181076
  0
LINE
  5
37D
100
AcDbEntity
  8
SUPERFICI
100
AcDbLine
 62
7
  6
CONTINUOUS
 10
-5.7878408277
 20
-16.8499549239
 11
-6.380655756
 21
-16.2346575919
  0
LWPOLYLINE
  5
37E
100
AcDbEntity
  8
RACCORDO
100
AcDbPolyline
 62
7
  6
CONTINUOUS
 90
6
 70
0
 10
-5.9540820994
 20
-16.6744899593
 10
-5.4186761011
 20
-17.2475824109
 10
-4.895491724
 20
-17.831833469
 10
-4.384528968
 20
-18.4272431337
 10
-3.8850506318
 20
-19.0347458566
 10
-3.7858556114
 20
-19.1606920392
  0
LWPOLYLINE
  5
37F
100
AcDbEntity
  8
RACCORDO
100
AcDbPolyline
 62
250
  6
CONTINUOUS
 90
13
 70
0
 10
-6.5344076834
 20
-17.2571235012
 10
-6.5421596625
 20
-17.2483525214
 10
-6.5504586285
 20
-17.2397730473
 10
-6.5593045814
 20
-17.2313850789
 10
-6.5686936417
 20
-17.2231306541
 10
-6.5786296889
 20
-17.2150677351
 10
-6.5891243615
 20
-17.2073702088
 10
-6.6001858297
 20
-17.2000250401
 10
-6.6118059234
 20
-17.1930452641
 10
-6.6239717705
 20
-17.1866438726
 10
-6.6366790806
 20
-17.1808918628
 10
-6.6499321442
 20
-17.1757182374
 10
-6.6637309613
 20
-17.1711229966
  0
LWPOLYLINE
  5
380
100
AcDbEntity
  8
SUPERFICI
100
AcDbPolyline
 62
7
  6
CONTINUOUS
 90
11
 70
0
 10
-6.8587458373
 20
-16.058622936
 10
-6.8937293783
 20
-16.0181612344
 10
-6.9247081998
 20
-15.9756954568
 10
-6.9520703092
 20
-15.9309795845
 10
-6.9752285726
 20
-15.8850094842
 10
-6.9942076083
 20
-15.8374469197
 10
-7.008982798
 20
-15.7886301273
 10
-7.0188931525
 20
-15.7405696829
 10
-7.0237183421
 20
-15.6939357782
 10
-7.0236786965
 20
-15.6480582214
 10
-7.0187742157
 20
-15.6029370126
  0
LWPOLYLINE
  5
381
100
AcDbEntity
  8
SUPERFICI
100
AcDbPolyline
 62
7
  6
CONTINUOUS
 90
5
 70
0
 10
-3.7874668242
 20
-19.1602269222
 10
-4.0981061871
 20
-18.7723768079
 10
-4.6468294269
 20
-18.118478554
 10
-5.209898718
 20
-17.4778952446
 10
-5.7878408277
 20
-16.8499549239
  0
LINE
  5
382
100
AcDbEntity
  8
0
100
AcDbLine
 62
250
  6
CONTINUOUS
 10
-10.487226742
 20
-10.8285970435
 11
-10.0134841446
 21
-11.4289843938
  0
LWPOLYLINE
  5
383
100
AcDbEntity
  8
RACCORDO
100
AcDbPolyline
 62
250
  6
CONTINUOUS
 90
4
 70
0
 10
-5.3561412343
 20
-18.7073896257
 10
-5.5609520523
 20
-18.4406167995
 10
-6.0411273856
 20
-17.8433275281
 10
-6.5344076834
 20
-17.2571235012
  0
LWPOLYLINE
  5
384
100
AcDbEntity
  8
RACCORDO
100
AcDbPolyline
 62
250
  6
CONTINUOUS
 90
5
 70
0
 10
-4.8138414251
 20
-18.8639380961
 10
-4.8245892846
 20
-18.8492884754
 10
-5.2966602786
 20
-18.23509796
 10
-5.7815917049
 20
-17.6324836464
 10
-6.2789821566
 20
-17.0418771573
  0
LWPOLYLINE
  5
385
100
AcDbEntity
  8
RACCORDO
100
AcDbPolyline
 62
7
  6
CONTINUOUS
 90
4
 70
0
 10
-2.5059217657
 20
-20.8613444611
 10
-2.4673173632
 20
-20.9148611486
 10
-2.0240975247
 20
-21.5576537816
 10
-1.5953109112
 20
-22.2088016663
  0
LWPOLYLINE
  5
386
100
AcDbEntity
  8
SUPERFICI
100
AcDbPolyline
 62
7
  6
CONTINUOUS
 90
3
 70
0
 10
-1.5949655876
 20
-22.2093383681
 10
-2.0624767596
 20
-21.5009605954
 10
-2.5059346023
 20
-20.8616097108
  0
LWPOLYLINE
  5
387
100
AcDbEntity
  8
RACCORDO
100
AcDbPolyline
 62
7
  6
CONTINUOUS
 90
7
 70
0
 10
-1.5953109112
 20
-22.2088016663
 10
-1.4827855004
 20
-22.4026741117
 10
-1.3903808385
 20
-22.597818213
 10
-1.3180969253
 20
-22.7942339703
 10
-1.265933761
 20
-22.9919213835
 10
-1.2338913455
 20
-23.1908804526
 10
-1.2219696789
 20
-23.3911111776
  0
LINE
  5
388
100
AcDbEntity
  8
RACCORDO
100
AcDbLine
 62
250
  6
CONTINUOUS
 10
-2.2829189282
 20
-22.7517484086
 11
-2.5729817277
 21
-22.2470350842
  0
LWPOLYLINE
  5
389
100
AcDbEntity
  8
SUPERFICI
100
AcDbPolyline
 62
7
  6
CONTINUOUS
 90
3
 70
0
 10
-1.4505514019
 20
-22.464885909
 10
-1.5184629875
 20
-22.3362997359
 10
-1.5949655876
 20
-22.2093383681
  0
LWPOLYLINE
  5
38A
100
AcDbEntity
  8
SUPERFICI
100
AcDbPolyline
 62
7
  6
CONTINUOUS
 90
4
 70
0
 10
-1.2978996962
 20
-22.8618597784
 10
-1.3402697562
 20
-22.7276659303
 10
-1.3912308306
 20
-22.5950968875
 10
-1.4505514019
 20
-22.464885909
  0
LWPOLYLINE
  5
38B
100
AcDbEntity
  8
RACCORDO
100
AcDbPolyline
 62
7
  6
CONTINUOUS
 90
13
 70
0
 10
2.0571885043
 20
-14.5609602132
 10
2.0561575612
 20
-14.5479619872
 10
2.0544561413
 20
-14.535793846
 10
2.0520842444
 20
-14.5244557898
 10
2.0490080738
 20
-14.5138337648
 10
2.0452614263
 20
-14.5040418246
 10
2.0409456919
 20
-14.4954221304
 10
2.0360618708
 20
-14.4880583878
 10
2.0306089628
 20
-14.4818668911
 10
2.0246853574
 20
-14.4769386848
 10
2.0182939021
 20
-14.4732801554
 10
2.0114317494
 20
-14.4708849164
 10
2.0082950088
 20
-14.4702511033
  0
LINE
  5
38C
100
AcDbEntity
  8
RACCORDO
100
AcDbLine
 62
7
  6
CONTINUOUS
 10
2.0937062573
 20
-15.2372510518
 11
2.0571885043
 21
-14.5609602132
  0
LINE
  5
38D
100
AcDbEntity
  8
0
100
AcDbLine
 62
7
  6
CONTINUOUS
 10
2.0119295702
 20
-15.4617698207
 11
2.0119295702
 21
-15.6835949744
  0
LWPOLYLINE
  5
38E
100
AcDbEntity
  8
RACCORDO
100
AcDbPolyline
 62
250
  6
CONTINUOUS
 90
9
 70
0
 10
3.6701700637
 20
-16.9846549483
 10
3.6704834774
 20
-16.9347104333
 10
3.665794352
 20
-16.8881694465
 10
3.6561717337
 20
-16.8457172481
 10
3.6417573124
 20
-16.807978902
 10
3.6227633265
 20
-16.7755100485
 10
3.5994694286
 20
-16.748788735
 10
3.5722185845
 20
-16.7282084052
 10
3.5653760998
 20
-16.7243474642
  0
LWPOLYLINE
  5
38F
100
AcDbEntity
  8
RACCORDO
100
AcDbPolyline
 62
250
  6
CONTINUOUS
 90
5
 70
0
 10
-14.8619299948
 20
-12.7182351357
 10
-14.8728161277
 20
-12.7213305486
 10
-14.8926600489
 20
-12.7284382799
 10
-14.9122962791
 20
-12.7370752172
 10
-14.9315975625
 20
-12.7473245679
  0
LWPOLYLINE
  5
390
100
AcDbEntity
  8
RACCORDO
100
AcDbPolyline
 62
250
  6
CONTINUOUS
 90
3
 70
0
 10
-12.9129465722
 20
-11.1223190866
 10
-12.9429505201
 20
-11.1307902348
 10
-12.9715422457
 20
-11.1420169139
  0
LWPOLYLINE
  5
391
100
AcDbEntity
  8
RACCORDO
100
AcDbPolyline
 62
250
  6
CONTINUOUS
 90
18
 70
0
 10
-8.4694221601
 20
-12.0906287397
 10
-8.3728054667
 20
-12.064370067
 10
-8.2712781298
 20
-12.0400318422
 10
-8.1669292135
 20
-12.0182159634
 10
-8.059955787
 20
-11.9989418623
 10
-7.9514256432
 20
-11.9824427187
 10
-7.8410564633
 20
-11.9687723286
 10
-7.7291305661
 20
-11.957876896
 10
-7.6175627018
 20
-11.9498282132
 10
-7.5063278307
 20
-11.9447542795
 10
-7.3954509925
 20
-11.9425270956
 10
-7.2869220556
 20
-11.942834455
 10
-7.1808245126
 20
-11.9458100847
 10
-7.0770748709
 20
-11.9513202576
 10
-6.9774125213
 20
-11.9586515865
 10
-6.8824172607
 20
-11.9675662753
 10
-6.7915092921
 20
-11.97830212
 10
-6.7046886156
 20
-11.9908591206
  0
LINE
  5
392
100
AcDbEntity
  8
RACCORDO
100
AcDbLine
 62
7
  6
CONTINUOUS
 10
-12.800342079
 20
-11.074992169
 11
-12.8726772887
 21
-11.0926109272
  0
LWPOLYLINE
  5
393
100
AcDbEntity
  8
SUPERFICI
100
AcDbPolyline
 62
7
  6
CONTINUOUS
 90
8
 70
0
 10
-12.4235490607
 20
-11.6049731561
 10
-12.3724129426
 20
-11.5966745521
 10
-12.3196522245
 20
-11.5921646356
 10
-12.2654950144
 20
-11.5914464317
 10
-12.2106256366
 20
-11.5945290154
 10
-12.1552721994
 20
-11.6014154118
 10
-12.0992065946
 20
-11.6121025959
 10
-12.0424288221
 20
-11.6265905677
  0
LINE
  5
394
100
AcDbEntity
  8
SUPERFICI
100
AcDbLine
 62
7
  6
CONTINUOUS
 10
-9.4089741457
 20
-11.8194034438
 11
-10.3988569943
 21
-11.9254039964
  0
LWPOLYLINE
  5
395
100
AcDbEntity
  8
RACCORDO
100
AcDbPolyline
 62
7
  6
CONTINUOUS
 90
11
 70
0
 10
-7.4737446098
 20
-11.9169001467
 10
-7.5950134659
 20
-11.9214985773
 10
-7.7157437448
 20
-11.9292621671
 10
-7.835637504
 20
-11.9401794598
 10
-7.9543980263
 20
-11.9542329783
 10
-8.0717949718
 20
-11.9714096529
 10
-8.1875410272
 20
-11.9916868357
 10
-8.3013387537
 20
-12.0150342949
 10
-8.4129522759
 20
-12.0414304232
 10
-8.5220983275
 20
-12.0708408616
 10
-8.5298236781
 20
-12.0731923234
  0
LWPOLYLINE
  5
396
100
AcDbEntity
  8
DRAFT
100
AcDbPolyline
 62
7
  6
CONTINUOUS
 90
25
 70
0
 10
-25.9604042417
 20
-10.6212102492
 10
-25.9917061954
 20
-10.6196469661
 10
-26.0231381091
 20
-10.6157051268
 10
-26.0546999828
 20
-10.6093847313
 10
-26.0865712403
 20
-10.6006230893
 10
-26.1185724578
 20
-10.5894828911
 10
-26.1501653644
 20
-10.5761522075
 10
-26.1813326607
 20
-10.560598544
 10
-26.212091646
 20
-10.5428543951
 10
-26.2419559475
 20
-10.5232053144
 10
-26.2709148253
 20
-10.5016186867
 10
-26.2989790192
 20
-10.4781271272
 10
-26.3256943763
 20
-10.4531140351
 10
-26.3510373164
 20
-10.4265560074
 10
-26.3750314195
 20
-10.3984764471
 10
-26.397293273
 20
-10.369328963
 10
-26.4177940255
 20
-10.3390993774
 10
-26.4365625283
 20
-10.307801868
 10
-26.4533019223
 20
-10.2759325765
 10
-26.4679816261
 20
-10.2434819671
 10
-26.480632221
 20
-10.2104595756
 10
-26.491048592
 20
-10.1773901503
 10
-26.4991623671
 20
-10.1444486076
 10
-26.5050419182
 20
-10.1114600311
 10
-26.5086872453
 20
-10.078424421
  0
LWPOLYLINE
  5
397
100
AcDbEntity
  8
RACCORDO
100
AcDbPolyline
 62
7
  6
CONTINUOUS
 90
8
 70
0
 10
2.0082950088
 20
-14.4702511033
 10
2.0041887461
 20
-14.4698248524
 10
1.996510648
 20
-14.4701409254
 10
1.9884516994
 20
-14.4717921735
 10
1.9802644802
 20
-14.4747275953
 10
1.9720331836
 20
-14.4789301904
 10
1.9636736163
 20
-14.4844169592
 10
1.9551857784
 20
-14.4911879017
  0
LWPOLYLINE
  5
398
100
AcDbEntity
  8
RACCORDO
100
AcDbPolyline
 62
7
  6
CONTINUOUS
 90
8
 70
0
 10
-6.651959029
 20
-11.9702511033
 10
-6.6560652917
 20
-11.9698248524
 10
-6.6637433898
 20
-11.9701409254
 10
-6.6718023384
 20
-11.9717921735
 10
-6.6799895577
 20
-11.9747275953
 10
-6.6882208543
 20
-11.9789301904
 10
-6.6965804215
 20
-11.9844169592
 10
-6.7050682594
 20
-11.9911879017
  0
LWPOLYLINE
  5
399
100
AcDbEntity
  8
0
100
AcDbPolyline
 62
7
  6
CONTINUOUS
 90
7
 70
0
 10
2.065528359
 20
-14.7153322769
 10
2.0917778911
 20
-14.7180613551
 10
2.2463629067
 20
-14.7378316926
 10
2.3986779758
 20
-14.7610417505
 10
2.5487090035
 20
-14.7877128874
 10
2.6964700847
 20
-14.8178237447
 10
2.7250926125
 20
-14.8244290249
  0
LWPOLYLINE
  5
39A
100
AcDbEntity
  8
0
100
AcDbPolyline
 62
7
  6
CONTINUOUS
 90
7
 70
0
 10
-6.5947256788
 20
-12.2153322769
 10
-6.5684761467
 20
-12.2180613551
 10
-6.4138911312
 20
-12.2378316926
 10
-6.2615760621
 20
-12.2610417505
 10
-6.1115450344
 20
-12.2877128874
 10
-5.9637839532
 20
-12.3178237447
 10
-5.9351614254
 20
-12.3244290249
  0
LINE
  5
39B
100
AcDbEntity
  8
0
100
AcDbLine
 62
7
  6
CONTINUOUS
 10
1.1117420897
 20
-15.2019080787
 11
0.5328375776
 21
-15.13278264
  0
LWPOLYLINE
  5
39C
100
AcDbEntity
  8
RACCORDO
100
AcDbPolyline
 62
7
  6
CONTINUOUS
 90
8
 70
0
 10
2.0082926184
 20
-14.4702601716
 10
1.9102602771
 20
-14.455859372
 10
1.7915460953
 20
-14.4414743592
 10
1.6716735509
 20
-14.4302285862
 10
1.5509505746
 20
-14.4221402098
 10
1.429664007
 20
-14.417219624
 10
1.3080804117
 20
-14.4154723518
 10
1.186509428
 20
-14.4169001467
  0
LWPOLYLINE
  5
39D
100
AcDbEntity
  8
RACCORDO
100
AcDbPolyline
 62
7
  6
CONTINUOUS
 90
8
 70
0
 10
-6.6519614194
 20
-11.9702601716
 10
-6.7499937607
 20
-11.955859372
 10
-6.8687079425
 20
-11.9414743592
 10
-6.988580487
 20
-11.9302285862
 10
-7.1093034632
 20
-11.9221402098
 10
-7.2305900308
 20
-11.917219624
 10
-7.3521736261
 20
-11.9154723518
 10
-7.4737446098
 20
-11.9169001467
  0
LWPOLYLINE
  5
39E
100
AcDbEntity
  8
RACCORDO
100
AcDbPolyline
 62
250
  6
CONTINUOUS
 90
4
 70
0
 10
3.8708810497
 20
-17.0639569542
 10
3.9012539472
 20
-17.0703006097
 10
3.9309232783
 20
-17.0747822828
 10
3.9602573535
 20
-17.077375739
  0
LWPOLYLINE
  5
39F
100
AcDbEntity
  8
RACCORDO
100
AcDbPolyline
 62
7
  6
CONTINUOUS
 90
4
 70
0
 10
-12.5798373979
 20
-11.0878661705
 10
-12.6517042607
 20
-11.0727359477
 10
-12.7258369062
 20
-11.0683055028
 10
-12.800342079
 20
-11.074992169
  0
LWPOLYLINE
  5
3A0
100
AcDbEntity
  8
RACCORDO
100
AcDbPolyline
 62
250
  6
CONTINUOUS
 90
8
 70
0
 10
-12.5798373979
 20
-11.0878661705
 10
-12.5922549865
 20
-11.0851743858
 10
-12.6111035161
 20
-11.0842203056
 10
-12.630733587
 20
-11.086788183
 10
-12.6510023647
 20
-11.0928593333
 10
-12.671762367
 20
-11.102389581
 10
-12.6928625377
 20
-11.115309581
 10
-12.7141493453
 20
-11.1315253232
  0
LWPOLYLINE
  5
3A1
100
AcDbEntity
  8
RACCORDO
100
AcDbPolyline
 62
250
  6
CONTINUOUS
 90
7
 70
0
 10
-12.7141493453
 20
-11.1315253232
 10
-12.7485482842
 20
-11.1228177826
 10
-12.782661193
 20
-11.1169879803
 10
-12.8163245413
 20
-11.1140283133
 10
-12.8493991891
 20
-11.1139173926
 10
-12.8816921221
 20
-11.1166767246
 10
-12.9129465722
 20
-11.1223190866
  0
LWPOLYLINE
  5
3A2
100
AcDbEntity
  8
RACCORDO
100
AcDbPolyline
 62
250
  6
CONTINUOUS
 90
15
 70
0
 10
3.6308852761
 20
-16.7523111749
 10
3.6356147928
 20
-16.7536574197
 10
3.6580474344
 20
-16.759547906
 10
3.6796357584
 20
-16.7643876598
 10
3.7003438591
 20
-16.7681767355
 10
3.7204449442
 20
-16.770943879
 10
3.740026853
 20
-16.7726779012
 10
3.7589868313
 20
-16.7733230737
 10
3.7773259226
 20
-16.7727682905
 10
3.7951400588
 20
-16.7709576927
 10
3.8123178216
 20
-16.7678149458
 10
3.8285522243
 20
-16.7631548833
 10
3.8437298955
 20
-16.7568634512
 10
3.8579292474
 20
-16.7489109862
 10
3.8711260116
 20
-16.7392310663
  0
LINE
  5
3A3
100
AcDbEntity
  8
RACCORDO
100
AcDbLine
 62
250
  6
CONTINUOUS
 10
-0.9370794397
 20
-14.4488409395
 11
-0.9369897734
 21
-14.4488667756
  0
LINE
  5
3A4
100
AcDbEntity
  8
SUPERFICI
100
AcDbLine
 62
7
  6
CONTINUOUS
 10
-12.8408945917
 20
-12.5767842072
 11
-7.0154112705
 21
-14.2584563891
  0
LINE
  5
3A5
100
AcDbEntity
  8
DRAFT
100
AcDbLine
 62
7
  6
CONTINUOUS
 10
-26.5985525633
 20
-8.5188340073
 11
-30.248403268
 21
-7.4652128639
  0
LINE
  5
3A6
100
AcDbEntity
  8
SUPERFICI
100
AcDbLine
 62
7
  6
CONTINUOUS
 10
-12.4104310798
 20
-12.4341699271
 11
-6.8458747823
 21
-14.0405189652
  0
LINE
  5
3A7
100
AcDbEntity
  8
RACCORDO
100
AcDbLine
 62
250
  6
CONTINUOUS
 10
11.053261684
 20
-19.0833753603
 11
9.3249611588
 21
-18.5844579736
  0
LINE
  5
3A8
100
AcDbEntity
  8
RACCORDO
100
AcDbLine
 62
7
  6
CONTINUOUS
 10
3.6304389818
 20
-16.7521823375
 11
3.6308852761
 21
-16.7523111749
  0
LINE
  5
3A9
100
AcDbEntity
  8
0
100
AcDbLine
 62
250
  6
CONTINUOUS
 10
3.871125914
 20
-16.7392310381
 11
3.2598733019
 21
-16.562777608
  0
LINE
  5
3AA
100
AcDbEntity
  8
DRAFT
100
AcDbLine
 62
7
  6
CONTINUOUS
 10
-20.9210327578
 20
-9.2232088559
 11
-24.3363930404
 21
-8.2372792666
  0
LINE
  5
3AB
100
AcDbEntity
  8
DRAFT
100
AcDbLine
 62
7
  6
CONTINUOUS
 10
-30.2532114407
 20
-6.5292409185
 11
-31.0725897154
 21
-6.2927067848
  0
LINE
  5
3AC
100
AcDbEntity
  8
DRAFT
100
AcDbLine
 62
7
  6
CONTINUOUS
 10
-31.8727743623
 20
-6.0617133741
 11
-32.6439100296
 21
-5.8391056816
  0
LINE
  5
3AD
100
AcDbEntity
  8
SUPERFICI
100
AcDbLine
 62
7
  6
CONTINUOUS
 10
-10.7628316828
 20
-12.1375849197
 11
-6.0634059018
 21
-13.4941922896
  0
LINE
  5
3AE
100
AcDbEntity
  8
0
100
AcDbLine
 62
7
  6
CONTINUOUS
 10
-25.7769840394
 20
-7.8033724674
 11
-30.248403268
 21
-6.5125849197
  0
LINE
  5
3AF
100
AcDbEntity
  8
0
100
AcDbLine
 62
7
  6
CONTINUOUS
 10
1.9512116165
 20
-15.6915241176
 11
1.7945743925
 21
-15.6463068459
  0
LINE
  5
3B0
100
AcDbEntity
  8
SUPERFICI
100
AcDbLine
 62
7
  6
CONTINUOUS
 10
-12.0424288221
 20
-11.6265905677
 11
-11.8226393039
 21
-11.6900383364
  0
LINE
  5
3B1
100
AcDbEntity
  8
SUPERFICI
100
AcDbLine
 62
7
  6
CONTINUOUS
 10
-5.9336665582
 20
-13.3900383364
 11
-5.71387704
 21
-13.4534861052
  0
LINE
  5
3B2
100
AcDbEntity
  8
DRAFT
100
AcDbLine
 62
7
  6
CONTINUOUS
 10
-25.1003892004
 20
-7.857082098
 11
-25.6548593171
 21
-7.6970203624
  0
LINE
  5
3B3
100
AcDbEntity
  8
DRAFT
100
AcDbLine
 62
7
  6
CONTINUOUS
 10
-31.0725897154
 20
-6.1330563105
 11
-31.627059832
 21
-5.9729945749
  0
LINE
  5
3B4
100
AcDbEntity
  8
0
100
AcDbLine
 62
7
  6
CONTINUOUS
 10
0.5328375776
 20
-15.13278264
 11
0.3872101546
 21
-15.0907436241
  0
LINE
  5
3B5
100
AcDbEntity
  8
0
100
AcDbLine
 62
7
  6
CONTINUOUS
 10
-29.9220514456
 20
-6.3181194414
 11
-24.7053975868
 21
-7.8240376962
  0
LINE
  5
3B6
100
AcDbEntity
  8
SUPERFICI
100
AcDbLine
 62
7
  6
CONTINUOUS
 10
-10.3988569943
 20
-11.9254039964
 11
-5.207953384
 21
-13.4238887948
  0
LINE
  5
3B7
100
AcDbEntity
  8
RACCORDO
100
AcDbLine
 62
250
  6
CONTINUOUS
 10
-1.0713016812
 20
-14.4925259397
 11
-4.5930256211
 21
-13.4758918073
  0
LINE
  5
3B8
100
AcDbEntity
  8
RACCORDO
100
AcDbLine
 62
250
  6
CONTINUOUS
 10
-10.0817162104
 20
-11.8914433127
 11
-12.714149383
 21
-11.1315253123
  0
LINE
  5
3B9
100
AcDbEntity
  8
RACCORDO
100
AcDbLine
 62
7
  6
CONTINUOUS
 10
-0.9369897715
 20
-14.4488667762
 11
-4.5020595547
 21
-13.4197197766
  0
LINE
  5
3BA
100
AcDbEntity
  8
RACCORDO
100
AcDbLine
 62
7
  6
CONTINUOUS
 10
-9.873428699
 20
-11.8691390659
 11
-12.5798373979
 21
-11.0878661705
  0
LINE
  5
3BB
100
AcDbEntity
  8
SUPERFICI
100
AcDbLine
 62
7
  6
CONTINUOUS
 10
-9.4089741457
 20
-11.8194034438
 11
-4.7034022181
 21
-13.1777850534
  0
LINE
  5
3BC
100
AcDbEntity
  8
RACCORDO
100
AcDbLine
 62
7
  6
CONTINUOUS
 10
9.3249611588
 20
-18.5020263015
 11
11.1878803135
 21
-19.0398053054
  0
LWPOLYLINE
  5
3BD
100
AcDbEntity
  8
RACCORDO
100
AcDbPolyline
 62
7
  6
CONTINUOUS
 90
3
 70
0
 10
-0.9370794397
 20
-14.4488409395
 10
-0.9287049145
 20
-14.4513362449
 10
-0.8902614571
 20
-14.46489624
  0
LWPOLYLINE
  5
3BE
100
AcDbEntity
  8
RACCORDO
100
AcDbPolyline
 62
7
  6
CONTINUOUS
 90
4
 70
0
 10
3.6304311334
 20
-16.7521801658
 10
3.627794631
 20
-16.7513936564
 10
3.6115061958
 20
-16.7457264644
 10
3.5898129609
 20
-16.7365085442
  0
LWPOLYLINE
  5
3BF
100
AcDbEntity
  8
SUPERFICI
100
AcDbPolyline
 62
7
  6
CONTINUOUS
 90
3
 70
0
 10
-5.71387704
 20
-13.4534861052
 10
-5.6570992676
 20
-13.4717787956
 10
-5.6010336627
 20
-13.4934611036
  0
LINE
  5
3C0
100
AcDbEntity
  8
RACCORDO
100
AcDbLine
 62
250
  6
CONTINUOUS
 10
-1.0367492957
 20
-14.5037415715
 11
-1.0713017189
 21
-14.4925259288
  0
LWPOLYLINE
  5
3C1
100
AcDbEntity
  8
RACCORDO
100
AcDbPolyline
 62
250
  6
CONTINUOUS
 90
3
 70
0
 10
3.8711260117
 20
-16.7392310663
 10
3.9144617033
 20
-16.7536853527
 10
3.9573225729
 20
-16.7723432375
  0
LWPOLYLINE
  5
3C2
100
AcDbEntity
  8
DRAFT
100
AcDbPolyline
 62
7
  6
CONTINUOUS
 90
10
 70
0
 10
-32.6839626055
 20
-6.385558755
 10
-32.6590076001
 20
-6.3939593634
 10
-32.6341874905
 20
-6.4009046537
 10
-32.6095022767
 20
-6.406394626
 10
-32.5848717662
 20
-6.4104377572
 10
-32.5603761514
 20
-6.4130255703
 10
-32.5362560099
 20
-6.4141326347
 10
-32.512514946
 20
-6.413744342
 10
-32.4891493554
 20
-6.4118753006
 10
-32.4873009971
 20
-6.4116047594
  0
LINE
  5
3C3
100
AcDbEntity
  8
0
100
AcDbLine
 62
7
  6
CONTINUOUS
 10
-5.3238450441
 20
-12.4994426365
 11
-5.2754348844
 21
-12.5165330048
  0
LINE
  5
3C4
100
AcDbEntity
  8
RACCORDO
100
AcDbLine
 62
250
  6
CONTINUOUS
 10
11.1291186812
 20
-19.1110732653
 11
11.053261684
 21
-19.0833753603
  0
LWPOLYLINE
  5
3C5
100
AcDbEntity
  8
SUPERFICI
100
AcDbPolyline
 62
7
  6
CONTINUOUS
 90
4
 70
0
 10
-13.2222472672
 20
-12.0011052034
 10
-13.1769675156
 20
-12.017868203
 10
-13.1310324711
 20
-12.0298756931
 10
-13.1161903809
 20
-12.0321863485
  0
LWPOLYLINE
  5
3C6
100
AcDbEntity
  8
0
100
AcDbPolyline
 62
7
  6
CONTINUOUS
 90
3
 70
0
 10
-5.2754348844
 20
-12.5165330048
 10
-5.1494008091
 20
-12.5654600011
 10
-5.0281895311
 20
-12.6170897734
  0
LINE
  5
3C7
100
AcDbEntity
  8
RACCORDO
100
AcDbLine
 62
7
  6
CONTINUOUS
 10
-0.8902614571
 20
-14.46489624
 11
-0.856786484
 21
-14.4797044954
  0
LWPOLYLINE
  5
3C8
100
AcDbEntity
  8
SUPERFICI
100
AcDbPolyline
 62
7
  6
CONTINUOUS
 90
8
 70
0
 10
-5.6010336627
 20
-13.4934611036
 10
-5.5456802255
 20
-13.518533029
 10
-5.4908108478
 20
-13.5471292953
 10
-5.4366536377
 20
-13.5791151791
 10
-5.3838929196
 20
-13.6140865104
 10
-5.3327568015
 20
-13.6519085659
 10
-5.2830171754
 20
-13.6927160689
 10
-5.2346740412
 20
-13.7365090194
  0
LWPOLYLINE
  5
3C9
100
AcDbEntity
  8
RACCORDO
100
AcDbPolyline
 62
250
  6
CONTINUOUS
 90
7
 70
0
 10
-5.8386461874
 20
-12.240844377
 10
-5.7735467596
 20
-12.2721390429
 10
-5.7095459522
 20
-12.3061148528
 10
-5.6466437651
 20
-12.3427718069
 10
-5.5841367378
 20
-12.3822412444
 10
-5.5227283309
 20
-12.4243918259
 10
-5.4645289264
 20
-12.4688295334
  0
LINE
  5
3CA
100
AcDbEntity
  8
RACCORDO
100
AcDbLine
 62
7
  6
CONTINUOUS
 10
-0.7290027079
 20
-14.5417482649
 11
-0.8575006511
 21
-14.4793582058
  0
LINE
  5
3CB
100
AcDbEntity
  8
RACCORDO
100
AcDbLine
 62
7
  6
CONTINUOUS
 10
-0.1464608111
 20
-14.8266400289
 11
-0.7290027079
 21
-14.5417482649
  0
LINE
  5
3CC
100
AcDbEntity
  8
RACCORDO
100
AcDbLine
 62
250
  6
CONTINUOUS
 10
-0.7868634389
 20
-14.6810658162
 11
-0.2892041457
 21
-14.9276824805
  0
LINE
  5
3CD
100
AcDbEntity
  8
RACCORDO
100
AcDbLine
 62
7
  6
CONTINUOUS
 10
3.5898129609
 20
-16.7365085442
 11
3.5653064845
 21
-16.7243104886
  0
LWPOLYLINE
  5
3CE
100
AcDbEntity
  8
RACCORDO
100
AcDbPolyline
 62
250
  6
CONTINUOUS
 90
8
 70
0
 10
-0.2892041457
 20
-14.9276824805
 10
0.2082802713
 20
-15.1768222651
 10
0.7054035362
 20
-15.4283972605
 10
1.2020264455
 20
-15.6822936534
 10
1.697912466
 20
-15.938434855
 10
2.1927298466
 20
-16.196780444
 10
2.6862435339
 20
-16.4572424471
 10
3.1783132789
 20
-16.7196863201
  0
LWPOLYLINE
  5
3CF
100
AcDbEntity
  8
RACCORDO
100
AcDbPolyline
 62
7
  6
CONTINUOUS
 90
3
 70
0
 10
1.021038672
 20
-15.4078821107
 10
0.4370155246
 20
-15.1153913529
 10
-0.1464608111
 20
-14.8266400289
  0
LWPOLYLINE
  5
3D0
100
AcDbEntity
  8
RACCORDO
100
AcDbPolyline
 62
250
  6
CONTINUOUS
 90
7
 70
0
 10
3.66875065
 20
-16.9839933794
 10
3.7054063162
 20
-17.0027721642
 10
3.7408668282
 20
-17.0193745647
 10
3.7751386887
 20
-17.0337972247
 10
3.8080741291
 20
-17.0459271669
 10
3.8398329247
 20
-17.0558712809
 10
3.8708810497
 20
-17.0639569542
  0
LWPOLYLINE
  5
3D1
100
AcDbEntity
  8
RACCORDO
100
AcDbPolyline
 62
7
  6
CONTINUOUS
 90
5
 70
0
 10
-2.6773261606
 20
-16.2848280142
 10
-2.7215334974
 20
-16.2601848945
 10
-2.7647303261
 20
-16.2346720173
 10
-2.8069164162
 20
-16.2082896198
 10
-2.8451875584
 20
-16.1833762171
  0
LWPOLYLINE
  5
3D2
100
AcDbEntity
  8
RACCORDO
100
AcDbPolyline
 62
7
  6
CONTINUOUS
 90
5
 70
0
 10
-2.8451875584
 20
-16.1833762171
 10
-2.8889390537
 20
-16.1532823466
 10
-2.927407947
 20
-16.123927668
 10
-2.9634968637
 20
-16.0929734328
 10
-2.9975465406
 20
-16.0606019121
  0
LWPOLYLINE
  5
3D3
100
AcDbEntity
  8
RACCORDO
100
AcDbPolyline
 62
7
  6
CONTINUOUS
 90
6
 70
0
 10
-5.3432248599
 20
-12.482944432
 10
-5.4216637071
 20
-12.4239540131
 10
-5.5057304866
 20
-12.3678321033
 10
-5.5949154702
 20
-12.3147850981
 10
-5.6891675064
 20
-12.2647293265
 10
-5.7760172577
 20
-12.223240794
  0
LINE
  5
3D4
100
AcDbEntity
  8
RACCORDO
100
AcDbLine
 62
7
  6
CONTINUOUS
 10
-5.2712004382
 20
-12.5442594439
 11
-5.3432248599
 21
-12.482944432
  0
LINE
  5
3D5
100
AcDbEntity
  8
RACCORDO
100
AcDbLine
 62
250
  6
CONTINUOUS
 10
-5.4645289264
 20
-12.4688295334
 11
-5.4097284314
 21
-12.5156589117
  0
LWPOLYLINE
  5
3D6
100
AcDbEntity
  8
RACCORDO
100
AcDbPolyline
 62
250
  6
CONTINUOUS
 90
6
 70
0
 10
-5.4097284314
 20
-12.5156589117
 10
-5.3581369387
 20
-12.5647754159
 10
-5.3112951086
 20
-12.6154713937
 10
-5.269438633
 20
-12.6677984256
 10
-5.2323318198
 20
-12.7217049312
 10
-5.2169868778
 20
-12.7482944274
  0
LINE
  5
3D7
100
AcDbEntity
  8
SUPERFICI
100
AcDbLine
 62
7
  6
CONTINUOUS
 10
-5.1643983786
 20
-13.8036674782
 11
-5.2346740412
 21
-13.7365090194
  0
LINE
  5
3D8
100
AcDbEntity
  8
SUPERFICI
100
AcDbLine
 62
7
  6
CONTINUOUS
 10
-5.0942869895
 20
-13.8710235497
 11
-5.1643983786
 21
-13.8036674782
  0
LINE
  5
3D9
100
AcDbEntity
  8
SUPERFICI
100
AcDbLine
 62
7
  6
CONTINUOUS
 10
-5.0243398738
 20
-13.9385772339
 11
-5.0942869895
 21
-13.8710235497
  0
LINE
  5
3DA
100
AcDbEntity
  8
RACCORDO
100
AcDbLine
 62
7
  6
CONTINUOUS
 10
-2.9975465406
 20
-16.0606019121
 11
-3.0295559251
 21
-16.0268128051
  0
LWPOLYLINE
  5
3DB
100
AcDbEntity
  8
RACCORDO
100
AcDbPolyline
 62
7
  6
CONTINUOUS
 90
7
 70
0
 10
-3.4875346033
 20
-15.5179854139
 10
-3.6443869836
 20
-15.3479731705
 10
-3.8022815962
 20
-15.1789524937
 10
-3.961184862
 20
-15.0109596745
 10
-4.1210855878
 20
-14.84400681
 10
-4.2819949667
 20
-14.6780818031
 10
-4.4439129988
 20
-14.5131846539
  0
LWPOLYLINE
  5
3DC
100
AcDbEntity
  8
RACCORDO
100
AcDbPolyline
 62
7
  6
CONTINUOUS
 90
3
 70
0
 10
-3.1769789255
 20
-15.8609604061
 10
-3.3317356483
 20
-15.6889771267
 10
-3.4875346033
 20
-15.5179854139
  0
LWPOLYLINE
  5
3DD
100
AcDbEntity
  8
RACCORDO
100
AcDbPolyline
 62
250
  6
CONTINUOUS
 90
16
 70
0
 10
-2.6773261606
 20
-16.2848280142
 10
-2.6901381268
 20
-16.2704534878
 10
-2.7037719641
 20
-16.256024892
 10
-2.7182451871
 20
-16.2416042551
 10
-2.733559154
 20
-16.2272715605
 10
-2.7497353783
 20
-16.2130841816
 10
-2.7668186039
 20
-16.1990818867
 10
-2.784811894
 20
-16.1853509847
 10
-2.8037118001
 20
-16.1719829198
 10
-2.8235500232
 20
-16.1590431983
 10
-2.8443066272
 20
-16.1466427902
 10
-2.8659623984
 20
-16.1348918716
 10
-2.888542344
 20
-16.1238772559
 10
-2.9120243181
 20
-16.1137224907
 10
-2.9363353672
 20
-16.1045773873
 10
-2.9614089381
 20
-16.0965843039
  0
LINE
  5
3DE
100
AcDbEntity
  8
RACCORDO
100
AcDbLine
 62
7
  6
CONTINUOUS
 10
-3.023264435
 20
-16.0339352521
 11
-3.1769789255
 21
-15.8609604061
  0
LINE
  5
3DF
100
AcDbEntity
  8
RACCORDO
100
AcDbLine
 62
7
  6
CONTINUOUS
 10
-4.7034022181
 20
-13.1777850534
 11
-4.4962825787
 21
-13.4146686666
  0
LWPOLYLINE
  5
3E0
100
AcDbEntity
  8
SUPERFICI
100
AcDbPolyline
 62
7
  6
CONTINUOUS
 90
12
 70
0
 10
-4.9093245074
 20
-14.2654700447
 10
-4.8760340401
 20
-14.3074433
 10
-4.8399464668
 20
-14.346237845
 10
-4.8009688546
 20
-14.3817516505
 10
-4.7591941364
 20
-14.4140867458
 10
-4.7160054161
 20
-14.4421658522
 10
-4.6713464046
 20
-14.4658493407
 10
-4.6252733911
 20
-14.4852768403
 10
-4.5793383466
 20
-14.4997899606
 10
-4.5340585949
 20
-14.5091692378
 10
-4.4889168123
 20
-14.5136341356
 10
-4.4439129988
 20
-14.5131846539
  0
LINE
  5
3E1
100
AcDbEntity
  8
0
100
AcDbLine
 62
250
  6
CONTINUOUS
 10
-1.8269727041
 20
-13.3285970435
 11
-1.3532301068
 21
-13.9289843938
  0
LWPOLYLINE
  5
3E2
100
AcDbEntity
  8
RACCORDO
100
AcDbPolyline
 62
7
  6
CONTINUOUS
 90
4
 70
0
 10
-5.1263253991
 20
-12.6999701404
 10
-5.1467228097
 20
-12.6735309045
 10
-5.2056399668
 20
-12.6078451499
 10
-5.2712004382
 20
-12.5442594439
  0
LWPOLYLINE
  5
3E3
100
AcDbEntity
  8
RACCORDO
100
AcDbPolyline
 62
250
  6
CONTINUOUS
 90
4
 70
0
 10
8.8820394954
 20
-35.4298726134
 10
8.9784475286
 20
-35.6011535261
 10
9.1203585787
 20
-35.9310069708
 10
9.2204869671
 20
-36.2583029122
  0
LWPOLYLINE
  5
3E4
100
AcDbEntity
  8
RACCORDO
100
AcDbPolyline
 62
250
  6
CONTINUOUS
 90
4
 70
0
 10
8.8820394954
 20
-14.3211527811
 10
8.8755765858
 20
-14.3612187905
 10
8.8544822147
 20
-14.4030030669
 10
8.819349349
 20
-14.4423551865
  0
LWPOLYLINE
  5
3E5
100
AcDbEntity
  8
RACCORDO
100
AcDbPolyline
 62
250
  6
CONTINUOUS
 90
4
 70
0
 10
9.3249611588
 20
-17.1858758726
 10
9.3223759899
 20
-17.2019022914
 10
9.3139382397
 20
-17.2186159962
 10
9.2998851003
 20
-17.2343568341
  0
LWPOLYLINE
  5
3E6
100
AcDbEntity
  8
RACCORDO
100
AcDbPolyline
 62
7
  6
CONTINUOUS
 90
4
 70
0
 10
8.819349349
 20
-21.9637327357
 10
8.855020148
 20
-21.8545037417
 10
8.875808076
 20
-21.7462231257
 10
8.8819749957
 20
-21.6363251386
  0
LWPOLYLINE
  5
3E7
100
AcDbEntity
  8
SUPERFICI
100
AcDbPolyline
 62
7
  6
CONTINUOUS
 90
4
 70
0
 10
-1.2978996962
 20
-51.7957420343
 10
-1.3402697562
 20
-51.9054735169
 10
-1.3912308306
 20
-52.0086201697
 10
-1.4505514019
 20
-52.1045824003
  0
LINE
  5
3E8
100
AcDbEntity
  8
RACCORDO
100
AcDbLine
 62
250
  6
CONTINUOUS
 10
11.4862084359
 20
-32.1339767529
 11
8.819349349
 21
-34.6226882407
  0
LINE
  5
3E9
100
AcDbEntity
  8
RACCORDO
100
AcDbLine
 62
7
  6
CONTINUOUS
 10
11.3900315544
 20
-32.3783263899
 11
8.8964636899
 21
-34.7053226006
  0
LWPOLYLINE
  5
3EA
100
AcDbEntity
  8
RACCORDO
100
AcDbPolyline
 62
250
  6
CONTINUOUS
 90
6
 70
0
 10
-9.3910346191
 20
-8.0573289778
 10
-9.4222606018
 20
-8.0648647561
 10
-9.4527990695
 20
-8.0756437487
 10
-9.482310433
 20
-8.0898123059
 10
-9.5104396235
 20
-8.1074868825
 10
-9.5254377589
 20
-8.1189376512
  0
LWPOLYLINE
  5
3EB
100
AcDbEntity
  8
RACCORDO
100
AcDbPolyline
 62
250
  6
CONTINUOUS
 90
5
 70
0
 10
8.2912318267
 20
-13.0375490207
 10
8.279377339
 20
-13.0349628693
 10
8.2406334765
 20
-13.0364846353
 10
8.1994567167
 20
-13.0521195326
 10
8.1570745683
 20
-13.0812526843
  0
LWPOLYLINE
  5
3EC
100
AcDbEntity
  8
RACCORDO
100
AcDbPolyline
 62
7
  6
CONTINUOUS
 90
8
 70
0
 10
-9.0697889451
 20
-8.0258557134
 10
-9.127026753
 20
-8.0128478065
 10
-9.1863413346
 20
-8.0065930617
 10
-9.2461339792
 20
-8.0074582059
 10
-9.3055838099
 20
-8.0154923639
 10
-9.3642934238
 20
-8.0308004311
 10
-9.4213552799
 20
-8.0534069978
 10
-9.4754272995
 20
-8.0829661881
  0
LWPOLYLINE
  5
3ED
100
AcDbEntity
  8
RACCORDO
100
AcDbPolyline
 62
250
  6
CONTINUOUS
 90
7
 70
0
 10
-9.2046542265
 20
-8.0693532877
 10
-9.2344649662
 20
-8.0616103151
 10
-9.2650352647
 20
-8.0558646568
 10
-9.2961914876
 20
-8.0523429497
 10
-9.3277330346
 20
-8.0512693926
 10
-9.3594323136
 20
-8.0528620418
 10
-9.3910346191
 20
-8.0573289778
  0
LINE
  5
3EE
100
AcDbEntity
  8
ASSI
100
AcDbLine
 62
7
  6
CONTINUOUS
 10
-7.0809117682
 20
-9.5631569508
 11
-2.8310554468
 21
-10.7899847963
  0
LINE
  5
3EF
100
AcDbEntity
  8
ASSI
100
AcDbLine
 62
7
  6
CONTINUOUS
 10
1.5793422696
 20
-12.0631569508
 11
5.829198591
 21
-13.2899847963
  0
LINE
  5
3F0
100
AcDbEntity
  8
0
100
AcDbLine
 62
250
  6
CONTINUOUS
 10
-2.0037065285
 20
-10.1480878336
 11
0.9561268696
 21
-11.0025181382
  0
LINE
  5
3F1
100
AcDbEntity
  8
0
100
AcDbLine
 62
250
  6
CONTINUOUS
 10
6.6565475093
 20
-12.6480878336
 11
8.1570745682
 21
-13.0812526843
  0
LINE
  5
3F2
100
AcDbEntity
  8
0
100
AcDbLine
 62
250
  6
CONTINUOUS
 10
-7.7041271682
 20
-8.5025181382
 11
-9.2046542272
 21
-8.0693532875
  0
LINE
  5
3F3
100
AcDbEntity
  8
RACCORDO
100
AcDbLine
 62
7
  6
CONTINUOUS
 10
-1.9426551987
 20
-10.0832801624
 11
1.1636994347
 21
-10.9800075043
  0
LINE
  5
3F4
100
AcDbEntity
  8
RACCORDO
100
AcDbLine
 62
7
  6
CONTINUOUS
 10
6.7175988391
 20
-12.5832801624
 11
8.2913865157
 21
-13.0375935317
  0
LINE
  5
3F5
100
AcDbEntity
  8
RACCORDO
100
AcDbLine
 62
7
  6
CONTINUOUS
 10
-7.6821616537
 20
-8.426427364
 11
-9.0703422797
 21
-8.0256941349
  0
LWPOLYLINE
  5
3F6
100
AcDbEntity
  8
RACCORDO
100
AcDbPolyline
 62
7
  6
CONTINUOUS
 90
6
 70
0
 10
8.2912318267
 20
-13.0375490207
 10
8.3010078159
 20
-13.0404760969
 10
8.3516842213
 20
-13.0592735567
 10
8.4001468742
 20
-13.0834947149
 10
8.445780754
 20
-13.1128725896
 10
8.4880331628
 20
-13.1470880444
  0
LINE
  5
3F7
100
AcDbEntity
  8
0
100
AcDbLine
 62
7
  6
CONTINUOUS
 10
3.3364089938
 20
-14.9994426365
 11
3.3848191535
 21
-15.0165330048
  0
LWPOLYLINE
  5
3F8
100
AcDbEntity
  8
0
100
AcDbPolyline
 62
7
  6
CONTINUOUS
 90
3
 70
0
 10
3.3848191535
 20
-15.0165330048
 10
3.5108532288
 20
-15.0654600011
 10
3.6320645068
 20
-15.1170897734
  0
LWPOLYLINE
  5
3F9
100
AcDbEntity
  8
RACCORDO
100
AcDbPolyline
 62
250
  6
CONTINUOUS
 90
7
 70
0
 10
2.8216078504
 20
-14.740844377
 10
2.8867072783
 20
-14.7721390429
 10
2.9507080857
 20
-14.8061148528
 10
3.0136102727
 20
-14.8427718069
 10
3.0761173
 20
-14.8822412444
 10
3.1375257069
 20
-14.9243918259
 10
3.1957251115
 20
-14.9688295334
  0
LWPOLYLINE
  5
3FA
100
AcDbEntity
  8
RACCORDO
100
AcDbPolyline
 62
250
  6
CONTINUOUS
 90
8
 70
0
 10
-0.856786484
 20
-14.4797044954
 10
-0.8524768186
 20
-14.4819544128
 10
-0.8338499798
 20
-14.4958735348
 10
-0.8178505645
 20
-14.5152367816
 10
-0.8046555108
 20
-14.5397583914
 10
-0.7951236921
 20
-14.568901849
 10
-0.7893862279
 20
-14.6023616197
 10
-0.7867794319
 20
-14.6399123178
  0
LWPOLYLINE
  5
3FB
100
AcDbEntity
  8
RACCORDO
100
AcDbPolyline
 62
7
  6
CONTINUOUS
 90
5
 70
0
 10
3.354665224
 20
-16.6126174335
 10
2.7724574126
 20
-16.3065034204
 10
2.1891650568
 20
-16.0035762028
 10
1.6052209701
 20
-15.7039881965
 10
1.021038672
 20
-15.4078821107
  0
LINE
  5
3FC
100
AcDbEntity
  8
0
100
AcDbLine
 62
7
  6
CONTINUOUS
 10
2.3258599263
 20
-15.627573157
 11
2.0119295702
 21
-15.4617698207
  0
LINE
  5
3FD
100
AcDbEntity
  8
RACCORDO
100
AcDbLine
 62
7
  6
CONTINUOUS
 10
3.5653764746
 20
-16.7243473603
 11
3.354665224
 21
-16.6126174335
  0
LINE
  5
3FE
100
AcDbEntity
  8
RACCORDO
100
AcDbLine
 62
250
  6
CONTINUOUS
 10
3.1783132789
 20
-16.7196863201
 11
3.66875065
 21
-16.9839933794
  0
LWPOLYLINE
  5
3FF
100
AcDbEntity
  8
RACCORDO
100
AcDbPolyline
 62
250
  6
CONTINUOUS
 90
8
 70
0
 10
3.9573225729
 20
-16.7723432375
 10
3.9992819513
 20
-16.7950189884
 10
4.0399221433
 20
-16.8214868759
 10
4.0788385857
 20
-16.8514834208
 10
4.1156438746
 20
-16.884710017
 10
4.1499716215
 20
-16.9208359036
 10
4.181480101
 20
-16.9595014577
 10
4.2098556522
 20
-17.0003217743
  0
LWPOLYLINE
  5
400
100
AcDbEntity
  8
RACCORDO
100
AcDbPolyline
 62
7
  6
CONTINUOUS
 90
6
 70
0
 10
3.317029178
 20
-14.982944432
 10
3.2385903308
 20
-14.9239540131
 10
3.1545235512
 20
-14.8678321033
 10
3.0653385676
 20
-14.8147850981
 10
2.9710865315
 20
-14.7647293265
 10
2.8842367801
 20
-14.723240794
  0
LINE
  5
401
100
AcDbEntity
  8
RACCORDO
100
AcDbLine
 62
7
  6
CONTINUOUS
 10
3.3890535996
 20
-15.0442594439
 11
3.317029178
 21
-14.982944432
  0
LINE
  5
402
100
AcDbEntity
  8
RACCORDO
100
AcDbLine
 62
250
  6
CONTINUOUS
 10
3.1957251115
 20
-14.9688295334
 11
3.2505256065
 21
-15.0156589117
  0
LWPOLYLINE
  5
403
100
AcDbEntity
  8
RACCORDO
100
AcDbPolyline
 62
250
  6
CONTINUOUS
 90
6
 70
0
 10
3.2505256065
 20
-15.0156589117
 10
3.3021170991
 20
-15.0647754159
 10
3.3489589292
 20
-15.1154713937
 10
3.3908154049
 20
-15.1677984256
 10
3.427922218
 20
-15.2217049312
 10
3.4432658304
 20
-15.2482921234
  0
LWPOLYLINE
  5
404
100
AcDbEntity
  8
RACCORDO
100
AcDbPolyline
 62
250
  6
CONTINUOUS
 90
9
 70
0
 10
-0.7869212006
 20
-14.6811147208
 10
-0.813674221
 20
-14.6516752596
 10
-0.8420869222
 20
-14.623994211
 10
-0.8719793121
 20
-14.5982469315
 10
-0.9031620256
 20
-14.5745965271
 10
-0.9354375232
 20
-14.5531928208
 10
-0.968601343
 20
-14.5341714026
 10
-1.0024433958
 20
-14.5176527716
 10
-1.0367492957
 20
-14.5037415715
  0
LWPOLYLINE
  5
405
100
AcDbEntity
  8
RACCORDO
100
AcDbPolyline
 62
7
  6
CONTINUOUS
 90
4
 70
0
 10
3.5340183276
 20
-15.2000863956
 10
3.5135312281
 20
-15.1735309045
 10
3.454614071
 20
-15.1078451499
 10
3.3890535996
 20
-15.0442594439
  0
LWPOLYLINE
  5
406
100
AcDbEntity
  8
RACCORDO
100
AcDbPolyline
 62
7
  6
CONTINUOUS
 90
4
 70
0
 10
8.8819814516
 20
-34.7078312665
 10
8.8758586832
 20
-34.6822528443
 10
8.8550758568
 20
-34.6535494811
 10
8.819349349
 20
-34.6226882407
  0
LWPOLYLINE
  5
407
100
AcDbEntity
  8
RACCORDO
100
AcDbPolyline
 62
7
  6
CONTINUOUS
 90
4
 70
0
 10
9.2956331634
 20
-36.4608978854
 10
9.2087549295
 20
-36.0720749468
 10
9.0668227304
 20
-35.6870553894
 10
8.8731833566
 20
-35.3142157125
  0
LINE
  5
408
100
AcDbEntity
  8
RACCORDO
100
AcDbLine
 62
250
  6
CONTINUOUS
 10
9.2204869671
 20
-36.2583029122
 11
9.2801921854
 21
-36.5807770604
  0
LINE
  5
409
100
AcDbEntity
  8
RACCORDO
100
AcDbLine
 62
7
  6
CONTINUOUS
 10
9.3249611588
 20
-36.844652538
 11
9.2956331634
 21
-36.4608978854
  0
LINE
  5
40A
100
AcDbEntity
  8
RACCORDO
100
AcDbLine
 62
7
  6
CONTINUOUS
 10
9.3249611588
 20
-17.1858758721
 11
9.2956331634
 21
-16.8021212195
  0
LINE
  5
40B
100
AcDbEntity
  8
RACCORDO
100
AcDbLine
 62
250
  6
CONTINUOUS
 10
9.2801921854
 20
-36.5807770604
 11
9.2998851003
 21
-36.8931335
  0
LINE
  5
40C
100
AcDbEntity
  8
RACCORDO
100
AcDbLine
 62
250
  6
CONTINUOUS
 10
9.2801921854
 20
-16.9220003945
 11
9.2998851003
 21
-17.2343568341
  0
LINE
  5
40D
100
AcDbEntity
  8
RACCORDO
100
AcDbLine
 62
7
  6
CONTINUOUS
 10
8.8820348714
 20
-14.32111841
 11
8.8732700323
 21
-14.1420968438
  0
LINE
  5
40E
100
AcDbEntity
  8
RACCORDO
100
AcDbLine
 62
250
  6
CONTINUOUS
 10
8.8119846575
 20
-14.2795260938
 11
8.8193497115
 21
-14.4421621679
  0
LWPOLYLINE
  5
40F
100
AcDbEntity
  8
RACCORDO
100
AcDbPolyline
 62
250
  6
CONTINUOUS
 90
4
 70
0
 10
8.5862985166
 20
-13.2689758816
 10
8.5869233614
 20
-13.2847222546
 10
8.574469746
 20
-13.3065034766
 10
8.549907291
 20
-13.335315537
  0
LINE
  5
410
100
AcDbEntity
  8
RACCORDO
100
AcDbLine
 62
250
  6
CONTINUOUS
 10
8.819349349
 20
-42.1440657899
 11
8.819349349
 21
-34.6226882407
  0
LINE
  5
411
100
AcDbEntity
  8
RACCORDO
100
AcDbLine
 62
250
  6
CONTINUOUS
 10
8.819349349
 20
-21.9637327357
 11
8.819349349
 21
-14.4421625036
  0
LINE
  5
412
100
AcDbEntity
  8
RACCORDO
100
AcDbLine
 62
7
  6
CONTINUOUS
 10
8.8820394954
 20
-42.022863426
 11
8.8820394954
 21
-34.7073378284
  0
LINE
  5
413
100
AcDbEntity
  8
RACCORDO
100
AcDbLine
 62
7
  6
CONTINUOUS
 10
8.8820394907
 20
-14.3211184087
 11
8.8820394954
 21
-21.6367286643
  0
LINE
  5
414
100
AcDbEntity
  8
RACCORDO
100
AcDbLine
 62
250
  6
CONTINUOUS
 10
9.2998851003
 20
-17.2343568341
 11
9.2998851003
 21
-20.379310805
  0
LINE
  5
415
100
AcDbEntity
  8
RACCORDO
100
AcDbLine
 62
250
  6
CONTINUOUS
 10
9.2998851003
 20
-36.8931335
 11
9.2998851003
 21
-38.4519792268
  0
LINE
  5
416
100
AcDbEntity
  8
RACCORDO
100
AcDbLine
 62
7
  6
CONTINUOUS
 10
9.3249611588
 20
-17.1858758721
 11
9.3249611588
 21
-20.3322856185
  0
LINE
  5
417
100
AcDbEntity
  8
RACCORDO
100
AcDbLine
 62
7
  6
CONTINUOUS
 10
9.3249611588
 20
-36.844652538
 11
9.3249611588
 21
-38.4034982648
  0
LINE
  5
418
100
AcDbEntity
  8
RACCORDO
100
AcDbLine
 62
7
  6
CONTINUOUS
 10
8.8785241441
 20
-42.1325770741
 11
8.8818356985
 21
-42.0227378017
  0
LINE
  5
419
100
AcDbEntity
  8
RACCORDO
100
AcDbLine
 62
250
  6
CONTINUOUS
 10
9.2998851003
 20
-38.4519792268
 11
9.2925230897
 21
-38.6375993661
  0
LINE
  5
41A
100
AcDbEntity
  8
RACCORDO
100
AcDbLine
 62
7
  6
CONTINUOUS
 10
9.2950455857
 20
-38.7752607891
 11
9.3249611588
 21
-38.4034982648
  0
LWPOLYLINE
  5
41B
100
AcDbEntity
  8
RACCORDO
100
AcDbPolyline
 62
250
  6
CONTINUOUS
 90
3
 70
0
 10
9.2925230897
 20
-38.6375993661
 10
9.2694094642
 20
-38.8242441948
 10
9.2290533357
 20
-39.0100097522
  0
LWPOLYLINE
  5
41C
100
AcDbEntity
  8
RACCORDO
100
AcDbPolyline
 62
250
  6
CONTINUOUS
 90
4
 70
0
 10
9.3249611588
 20
-36.8446525385
 10
9.3223759899
 20
-36.8606789573
 10
9.3139382397
 20
-36.8773926621
 10
9.2998851003
 20
-36.8931335
  0
LWPOLYLINE
  5
41D
100
AcDbEntity
  8
RACCORDO
100
AcDbPolyline
 62
250
  6
CONTINUOUS
 90
4
 70
0
 10
9.3249611588
 20
-38.4034982648
 10
9.3223759947
 20
-38.4195246694
 10
9.3139382462
 20
-38.4362383796
 10
9.2998851003
 20
-38.4519792268
  0
LWPOLYLINE
  5
41E
100
AcDbEntity
  8
RACCORDO
100
AcDbPolyline
 62
250
  6
CONTINUOUS
 90
4
 70
0
 10
11.5488981755
 20
-19.5204196054
 10
11.5416185009
 20
-19.5626067918
 10
11.5203625063
 20
-19.603349946
 10
11.4862084359
 20
-19.6413030742
  0
LWPOLYLINE
  5
41F
100
AcDbEntity
  8
RACCORDO
100
AcDbPolyline
 62
250
  6
CONTINUOUS
 90
8
 70
0
 10
-2.4545342055
 20
-52.6701702239
 10
-2.4080242404
 20
-52.5874429689
 10
-2.3717691187
 20
-52.5005597181
 10
-2.3452039559
 20
-52.4102259883
 10
-2.3266340982
 20
-52.318558329
 10
-2.315494661
 20
-52.226262257
 10
-2.3123505289
 20
-52.1326322556
 10
-2.3172017019
 20
-52.0376683248
  0
LWPOLYLINE
  5
420
100
AcDbEntity
  8
RACCORDO
100
AcDbPolyline
 62
250
  6
CONTINUOUS
 90
5
 70
0
 10
11.389875259
 20
-32.3784721331
 10
11.428427331
 20
-32.3341802526
 10
11.4606847614
 20
-32.2749126705
 10
11.48015026
 20
-32.2074812293
 10
11.4862084359
 20
-32.1339767529
  0
LWPOLYLINE
  5
421
100
AcDbEntity
  8
RACCORDO
100
AcDbPolyline
 62
250
  6
CONTINUOUS
 90
3
 70
0
 10
11.4862084359
 20
-32.1339767529
 10
11.521686006
 20
-32.0941255187
 10
11.5427660102
 20
-32.051809472
  0
LWPOLYLINE
  5
422
100
AcDbEntity
  8
RACCORDO
100
AcDbPolyline
 62
7
  6
CONTINUOUS
 90
5
 70
0
 10
11.3885349031
 20
-32.3797129049
 10
11.4511814987
 20
-32.3097060828
 10
11.4967063525
 20
-32.2351884756
 10
11.5286745319
 20
-32.1535393613
 10
11.5459545428
 20
-32.0669534226
  0
LINE
  5
423
100
AcDbEntity
  8
RACCORDO
100
AcDbLine
 62
250
  6
CONTINUOUS
 10
8.8820394954
 20
-37.2700402127
 11
9.2998851003
 21
-36.8931335
  0
LINE
  5
424
100
AcDbEntity
  8
RACCORDO
100
AcDbLine
 62
250
  6
CONTINUOUS
 10
8.8820394954
 20
-38.8288859395
 11
9.2998851003
 21
-38.4519792268
  0
LWPOLYLINE
  5
425
100
AcDbEntity
  8
RACCORDO
100
AcDbPolyline
 62
250
  6
CONTINUOUS
 90
9
 70
0
 10
8.1570745683
 20
-13.0812526844
 10
8.1976579279
 20
-13.0946241747
 10
8.2393004101
 20
-13.1123738309
 10
8.2815467628
 20
-13.1347432515
 10
8.3237972376
 20
-13.1618634116
 10
8.365511818
 20
-13.1938661995
 10
8.4061798188
 20
-13.2309286334
 10
8.4450549061
 20
-13.273052426
 10
8.4811981674
 20
-13.319985411
  0
LWPOLYLINE
  5
426
100
AcDbEntity
  8
RACCORDO
100
AcDbPolyline
 62
250
  6
CONTINUOUS
 90
3
 70
0
 10
11.271293181
 20
-19.2025203358
 10
11.2025391741
 20
-19.151194454
 10
11.1291186812
 20
-19.1110732653
  0
LWPOLYLINE
  5
427
100
AcDbEntity
  8
RACCORDO
100
AcDbPolyline
 62
250
  6
CONTINUOUS
 90
10
 70
0
 10
4.9167635434
 20
-16.398018629
 10
4.8883877092
 20
-16.3571701228
 10
4.8568746739
 20
-16.3184769354
 10
4.8225384508
 20
-16.2823246269
 10
4.7857211848
 20
-16.2490734388
 10
4.7467897434
 20
-16.2190547041
 10
4.7061320608
 20
-16.1925675461
 10
4.6641532724
 20
-16.1698758973
 10
4.621271678
 20
-16.1512058697
 10
4.5779145733
 20
-16.1367435017
  0
LWPOLYLINE
  5
428
100
AcDbEntity
  8
RACCORDO
100
AcDbPolyline
 62
250
  6
CONTINUOUS
 90
3
 70
0
 10
8.7484130353
 20
-13.9301774316
 10
8.7887842613
 20
-14.1084096581
 10
8.8119846575
 20
-14.2795260938
  0
LWPOLYLINE
  5
429
100
AcDbEntity
  8
RACCORDO
100
AcDbPolyline
 62
7
  6
CONTINUOUS
 90
4
 70
0
 10
9.2956331634
 20
-16.8021212195
 10
9.2087549295
 20
-16.4132982809
 10
9.0668227304
 20
-16.0282787235
 10
8.8820394954
 20
-15.6724909503
  0
LINE
  5
42A
100
AcDbEntity
  8
RACCORDO
100
AcDbLine
 62
250
  6
CONTINUOUS
 10
9.2204869671
 20
-16.5995262463
 11
9.2801921854
 21
-16.9220003945
  0
LINE
  5
42B
100
AcDbEntity
  8
RACCORDO
100
AcDbLine
 62
7
  6
CONTINUOUS
 10
8.8732700323
 20
-14.1420968438
 11
8.8366446215
 21
-13.9101032672
  0
LWPOLYLINE
  5
42C
100
AcDbEntity
  8
RACCORDO
100
AcDbPolyline
 62
250
  6
CONTINUOUS
 90
7
 70
0
 10
11.4862084359
 20
-19.6413030742
 10
11.4803016603
 20
-19.5636340383
 10
11.4612919905
 20
-19.4846427746
 10
11.4297568023
 20
-19.4067284644
 10
11.3866539058
 20
-19.3322575789
 10
11.3332924542
 20
-19.263492003
 10
11.271293181
 20
-19.2025203358
  0
LWPOLYLINE
  5
42D
100
AcDbEntity
  8
RACCORDO
100
AcDbPolyline
 62
7
  6
CONTINUOUS
 90
4
 70
0
 10
11.5488981755
 20
-19.5204196054
 10
11.5484056064
 20
-19.4979119202
 10
11.5372547923
 20
-19.4128254508
 10
11.5115345326
 20
-19.3304484148
  0
LINE
  5
42E
100
AcDbEntity
  8
RACCORDO
100
AcDbLine
 62
250
  6
CONTINUOUS
 10
11.4862084359
 20
-32.1339767529
 11
11.4862084359
 21
-19.6413030742
  0
LINE
  5
42F
100
AcDbEntity
  8
RACCORDO
100
AcDbLine
 62
7
  6
CONTINUOUS
 10
11.5488985824
 20
-32.0127743479
 11
11.5488985824
 21
-19.5201006691
  0
LINE
  5
430
100
AcDbEntity
  8
RACCORDO
100
AcDbLine
 62
250
  6
CONTINUOUS
 10
11.5488966817
 20
-32.0134636678
 11
11.5488985823
 21
-32.0127725678
  0
LINE
  5
431
100
AcDbEntity
  8
RACCORDO
100
AcDbLine
 62
7
  6
CONTINUOUS
 10
11.5459545428
 20
-32.0669534226
 11
11.5488966817
 21
-32.0134636678
  0
LINE
  5
432
100
AcDbEntity
  8
RACCORDO
100
AcDbLine
 62
250
  6
CONTINUOUS
 10
11.5427660102
 20
-32.051809472
 11
11.5488966817
 21
-32.0134636678
  0
LINE
  5
433
100
AcDbEntity
  8
RACCORDO
100
AcDbLine
 62
7
  6
CONTINUOUS
 10
9.2063702564
 20
-39.1212956335
 11
9.2950455857
 21
-38.7752607891
  0
LWPOLYLINE
  5
434
100
AcDbEntity
  8
RACCORDO
100
AcDbPolyline
 62
250
  6
CONTINUOUS
 90
4
 70
0
 10
8.7238154489
 20
-42.6841538987
 10
8.7770000774
 20
-42.5131874509
 10
8.8088626324
 20
-42.3323623529
 10
8.819349349
 20
-42.1440657899
  0
LINE
  5
435
100
AcDbEntity
  8
RACCORDO
100
AcDbLine
 62
250
  6
CONTINUOUS
 10
9.2290533357
 20
-39.0100097522
 11
9.1701891981
 21
-39.1924203812
  0
LINE
  5
436
100
AcDbEntity
  8
RACCORDO
100
AcDbLine
 62
250
  6
CONTINUOUS
 10
9.1701891981
 20
-39.1924203812
 11
9.0915033078
 21
-39.3694814784
  0
LINE
  5
437
100
AcDbEntity
  8
RACCORDO
100
AcDbLine
 62
7
  6
CONTINUOUS
 10
9.0616497409
 20
-39.4333739711
 11
9.2063702564
 21
-39.1212956335
  0
LINE
  5
438
100
AcDbEntity
  8
RACCORDO
100
AcDbLine
 62
250
  6
CONTINUOUS
 10
8.6496423134
 20
-42.8429369182
 11
8.7238154489
 21
-42.6841538987
  0
LWPOLYLINE
  5
439
100
AcDbEntity
  8
RACCORDO
100
AcDbPolyline
 62
7
  6
CONTINUOUS
 90
5
 70
0
 10
8.6597970443
 20
-42.844512023
 10
8.7454340983
 20
-42.6829429053
 10
8.8110120165
 20
-42.5089802069
 10
8.8556121614
 20
-42.324787333
 10
8.8785241441
 20
-42.1325770741
  0
LWPOLYLINE
  5
43A
100
AcDbEntity
  8
RACCORDO
100
AcDbPolyline
 62
250
  6
CONTINUOUS
 90
3
 70
0
 10
9.0915033078
 20
-39.3694814784
 10
8.9913534846
 20
-39.5394699681
 10
8.8692520969
 20
-39.6985306168
  0
LINE
  5
43B
100
AcDbEntity
  8
RACCORDO
100
AcDbLine
 62
7
  6
CONTINUOUS
 10
8.8820394954
 20
-39.6809074087
 11
9.0616497409
 21
-39.4333739711
  0
LWPOLYLINE
  5
43C
100
AcDbEntity
  8
SUPERFICI
100
AcDbPolyline
 62
7
  6
CONTINUOUS
 90
3
 70
0
 10
-1.4505514019
 20
-52.1045824003
 10
-1.5184629875
 20
-52.1939598012
 10
-1.5949655876
 20
-52.2767523723
  0
LWPOLYLINE
  5
43D
100
AcDbEntity
  8
RACCORDO
100
AcDbPolyline
 62
250
  6
CONTINUOUS
 90
3
 70
0
 10
-2.5766240123
 20
-52.8252732967
 10
-2.5107341295
 20
-52.7494469998
 10
-2.4545342055
 20
-52.6701702239
  0
LWPOLYLINE
  5
43E
100
AcDbEntity
  8
RACCORDO
100
AcDbPolyline
 62
250
  6
CONTINUOUS
 90
3
 70
0
 10
8.4410947126
 20
-43.1151676528
 10
8.5550998198
 20
-42.9873077806
 10
8.6496423134
 20
-42.8429369182
  0
LWPOLYLINE
  5
43F
100
AcDbEntity
  8
RACCORDO
100
AcDbPolyline
 62
250
  6
CONTINUOUS
 90
4
 70
0
 10
8.819349349
 20
-42.1440657899
 10
8.8544822191
 20
-42.1047136857
 10
8.8755765895
 20
-42.0629294182
 10
8.8820394954
 20
-42.022863426
  0
LWPOLYLINE
  5
440
100
AcDbEntity
  8
RACCORDO
100
AcDbPolyline
 62
250
  6
CONTINUOUS
 90
10
 70
0
 10
-2.2828848475
 20
-52.8749085073
 10
-2.2060142777
 20
-52.7896590708
 10
-2.1410717198
 20
-52.6978433942
 10
-2.0877092882
 20
-52.6008240362
 10
-2.04558795
 20
-52.5001122475
 10
-2.0140139863
 20
-52.3967060566
 10
-1.9921153378
 20
-52.2909848925
 10
-1.9792919568
 20
-52.1836441231
 10
-1.9750700656
 20
-52.075789978
 10
-1.9788416078
 20
-51.9682163246
  0
LWPOLYLINE
  5
441
100
AcDbEntity
  8
RACCORDO
100
AcDbPolyline
 62
7
  6
CONTINUOUS
 90
3
 70
0
 10
8.4452071045
 20
-43.1109447675
 10
8.5550971858
 20
-42.9917118384
 10
8.6597970443
 20
-42.844512023
  0
LINE
  5
442
100
AcDbEntity
  8
RACCORDO
100
AcDbLine
 62
7
  6
CONTINUOUS
 10
-2.670179904
 20
-53.2407546577
 11
-2.2828848706
 21
-52.8749085275
  0
LINE
  5
443
100
AcDbEntity
  8
RACCORDO
100
AcDbLine
 62
250
  6
CONTINUOUS
 10
-2.9606765194
 20
-53.1879784257
 11
-2.5766240123
 21
-52.8252732967
  0
LINE
  5
444
100
AcDbEntity
  8
SUPERFICI
100
AcDbLine
 62
7
  6
CONTINUOUS
 10
-1.5949655876
 20
-52.2767523723
 11
-1.9806242544
 21
-52.6409848209
  0
LINE
  5
445
100
AcDbEntity
  8
RACCORDO
100
AcDbLine
 62
7
  6
CONTINUOUS
 10
-1.5953109112
 20
-52.2770897014
 11
-2.0240975247
 21
-52.6806775194
  0
LINE
  5
446
100
AcDbEntity
  8
RACCORDO
100
AcDbLine
 62
250
  6
CONTINUOUS
 10
8.4410947124
 20
-43.1151676524
 11
8.4453915426
 21
-43.1111358028
  0
LWPOLYLINE
  5
447
100
AcDbEntity
  8
0
100
AcDbPolyline
 62
7
  6
CONTINUOUS
 90
3
 70
0
 10
8.1337212169
 20
-43.4036256673
 10
8.2018038338
 20
-43.3410734533
 10
8.4410947123
 20
-43.1151676526
  0
LINE
  5
448
100
AcDbEntity
  8
SUPERFICI
100
AcDbLine
 62
7
  6
CONTINUOUS
 10
-1.5889645385
 20
-52.2833231271
 11
8.1336788625
 21
-43.4036643495
  0
LINE
  5
449
100
AcDbEntity
  8
RACCORDO
100
AcDbLine
 62
250
  6
CONTINUOUS
 10
8.819349349
 20
-42.1440657899
 11
2.1177531454
 21
-48.2620271351
  0
LINE
  5
44A
100
AcDbEntity
  8
RACCORDO
100
AcDbLine
 62
250
  6
CONTINUOUS
 10
2.1177531454
 20
-48.2620271351
 11
-1.2219696789
 21
-51.3107543525
  0
LINE
  5
44B
100
AcDbEntity
  8
RACCORDO
100
AcDbLine
 62
250
  6
CONTINUOUS
 10
8.4410947123
 20
-43.1151676526
 11
3.4147807976
 21
-47.7036363735
  0
LINE
  5
44C
100
AcDbEntity
  8
RACCORDO
100
AcDbLine
 62
250
  6
CONTINUOUS
 10
3.4147807976
 20
-47.7036363735
 11
-1.5949655876
 21
-52.2767523723
  0
LINE
  5
44D
100
AcDbEntity
  8
SUPERFICI
100
AcDbLine
 62
7
  6
CONTINUOUS
 10
-1.9806242544
 20
-52.6409848209
 11
-2.0624767596
 21
-52.7152124439
  0
LINE
  5
44E
100
AcDbEntity
  8
0
100
AcDbLine
 62
7
  6
CONTINUOUS
 10
7.9578231443
 20
-43.5618368827
 11
8.1337212169
 21
-43.4036256673
  0
LINE
  5
44F
100
AcDbEntity
  8
RACCORDO
100
AcDbLine
 62
7
  6
CONTINUOUS
 10
-2.8994808732
 20
-53.4440056775
 11
-2.670179904
 21
-53.2407546577
  0
LINE
  5
450
100
AcDbEntity
  8
RACCORDO
100
AcDbLine
 62
7
  6
CONTINUOUS
 10
-2.0240975247
 20
-52.6806775194
 11
-2.290618838
 21
-52.9168305646
  0
LINE
  5
451
100
AcDbEntity
  8
RACCORDO
100
AcDbLine
 62
250
  6
CONTINUOUS
 10
-3.3589309469
 20
-53.5349699442
 11
-2.9606765194
 21
-53.1879784257
  0
LINE
  5
452
100
AcDbEntity
  8
RACCORDO
100
AcDbLine
 62
250
  6
CONTINUOUS
 10
-2.2828848706
 20
-52.8749085275
 11
-1.5953109112
 21
-52.2770897014
  0
LINE
  5
453
100
AcDbEntity
  8
ASSI
100
AcDbLine
 62
7
  6
CONTINUOUS
 10
-2.9003614087
 20
-53.4447682447
 11
-2.2906359438
 21
-52.9167305029
  0
LINE
  5
454
100
AcDbEntity
  8
RACCORDO
100
AcDbLine
 62
7
  6
CONTINUOUS
 10
-2.9077205166
 20
-53.4511353445
 11
-2.8994808732
 21
-53.4440056775
  0
LINE
  5
455
100
AcDbEntity
  8
SUPERFICI
100
AcDbLine
 62
7
  6
CONTINUOUS
 10
-2.0624767596
 20
-52.7152124439
 11
-2.2928028374
 21
-52.914303927
  0
LWPOLYLINE
  5
456
100
AcDbEntity
  8
RACCORDO
100
AcDbPolyline
 62
250
  6
CONTINUOUS
 90
3
 70
0
 10
-4.1154965577
 20
-54.1207235227
 10
-3.7713872947
 20
-53.8662478521
 10
-3.3589309469
 20
-53.5349699442
  0
LWPOLYLINE
  5
457
100
AcDbEntity
  8
RACCORDO
100
AcDbPolyline
 62
7
  6
CONTINUOUS
 90
3
 70
0
 10
8.4880331628
 20
-13.1470880444
 10
8.5264089179
 20
-13.1857879649
 10
8.5604222707
 20
-13.2285443903
  0
LINE
  5
458
100
AcDbEntity
  8
RACCORDO
100
AcDbLine
 62
7
  6
CONTINUOUS
 10
8.5604222707
 20
-13.2285443903
 11
8.5862233765
 21
-13.2688449529
  0
LINE
  5
459
100
AcDbEntity
  8
RACCORDO
100
AcDbLine
 62
250
  6
CONTINUOUS
 10
8.4811981674
 20
-13.319985411
 11
8.5136721576
 21
-13.3713721404
  0
LINE
  5
45A
100
AcDbEntity
  8
RACCORDO
100
AcDbLine
 62
7
  6
CONTINUOUS
 10
8.5862233765
 20
-13.2688449529
 11
8.5862985166
 21
-13.2689758816
  0
LWPOLYLINE
  5
45B
100
AcDbEntity
  8
RACCORDO
100
AcDbPolyline
 62
250
  6
CONTINUOUS
 90
4
 70
0
 10
8.8820394954
 20
-15.7710959475
 10
8.9784475286
 20
-15.9423768602
 10
9.1203585787
 20
-16.2722303049
 10
9.2204869671
 20
-16.5995262463
  0
LINE
  5
45C
100
AcDbEntity
  8
RACCORDO
100
AcDbLine
 62
250
  6
CONTINUOUS
 10
8.5136816372
 20
-13.3713885963
 11
8.6116825235
 21
-13.5594684391
  0
LINE
  5
45D
100
AcDbEntity
  8
RACCORDO
100
AcDbLine
 62
7
  6
CONTINUOUS
 10
8.6800789442
 20
-13.4495395746
 11
8.5862232423
 21
-13.2687994116
  0
LWPOLYLINE
  5
45E
100
AcDbEntity
  8
RACCORDO
100
AcDbPolyline
 62
7
  6
CONTINUOUS
 90
7
 70
0
 10
11.5115345326
 20
-19.3304484148
 10
11.4717860445
 20
-19.2533307655
 10
11.4189889861
 20
-19.1838967541
 10
11.3545240181
 20
-19.1243822174
 10
11.2801876385
 20
-19.0768117279
 10
11.1981741986
 20
-19.0429043686
 10
11.1878803135
 20
-19.0398053054
  0
LINE
  5
45F
100
AcDbEntity
  8
RACCORDO
100
AcDbLine
 62
250
  6
CONTINUOUS
 10
8.6116825235
 20
-13.5594684391
 11
8.689698133
 21
-13.7465208198
  0
LINE
  5
460
100
AcDbEntity
  8
RACCORDO
100
AcDbLine
 62
250
  6
CONTINUOUS
 10
8.689698133
 20
-13.7465208198
 11
8.7484130353
 21
-13.9301774316
  0
LWPOLYLINE
  5
461
100
AcDbEntity
  8
RACCORDO
100
AcDbPolyline
 62
7
  6
CONTINUOUS
 90
3
 70
0
 10
8.8366446215
 20
-13.9101032672
 10
8.7719564177
 20
-13.6779973861
 10
8.6800789442
 20
-13.4495395746
  0
LWPOLYLINE
  5
462
100
AcDbEntity
  8
RACCORDO
100
AcDbPolyline
 62
7
  6
CONTINUOUS
 90
5
 70
0
 10
-4.1283532992
 20
-54.3863882446
 10
-3.9206464528
 20
-54.245094207
 10
-3.489424851
 20
-53.9261313947
 10
-3.0724752009
 20
-53.5912553016
 10
-2.9077205166
 20
-53.4511353445
  0
LWPOLYLINE
  5
463
100
AcDbEntity
  8
RACCORDO
100
AcDbPolyline
 62
7
  6
CONTINUOUS
 90
5
 70
0
 10
-4.1284939209
 20
-54.3892939741
 10
-4.0806945715
 20
-54.3577484928
 10
-3.6279958632
 20
-54.0318673876
 10
-3.1905299719
 20
-53.6889221114
 10
-2.9078699605
 20
-53.451247293
  0
LWPOLYLINE
  5
464
100
AcDbEntity
  8
RACCORDO
100
AcDbPolyline
 62
250
  6
CONTINUOUS
 90
13
 70
0
 10
-7.6736347405
 20
-60.1864915928
 10
-7.7104279294
 20
-60.210494502
 10
-7.7537770289
 20
-60.2319524978
 10
-7.8029566926
 20
-60.2505065304
 10
-7.8571440132
 20
-60.2658461414
 10
-7.9154322918
 20
-60.277714658
 10
-7.9768462098
 20
-60.2859134881
 10
-8.0403581478
 20
-60.2903054434
 10
-8.1049053813
 20
-60.2908170347
 10
-8.1694078625
 20
-60.2874397013
 10
-8.2327862922
 20
-60.280229955
 10
-8.2939801798
 20
-60.2693084339
 10
-8.3519655878
 20
-60.2548578842
  0
LINE
  5
465
100
AcDbEntity
  8
RACCORDO
100
AcDbLine
 62
250
  6
CONTINUOUS
 10
-7.4448436794
 20
-60.4468943626
 11
-4.3249545553
 21
-58.448849792
  0
LINE
  5
466
100
AcDbEntity
  8
RACCORDO
100
AcDbLine
 62
7
  6
CONTINUOUS
 10
-4.4804410858
 20
-58.7396019123
 11
-7.6044956763
 21
-60.7403128221
  0
ELLIPSE
  5
467
100
AcDbEntity
  8
RACCORDO
100
AcDbEllipse
 62
7
  6
CONTINUOUS
 10
-27.9714962867
 20
-10.8875847472
 30
0.0
 11
0.0534334772
 21
0.1927396236
 31
0.0
 40
0.4198825747
 41
0.6359135394
 42
2.032176941
  0
ELLIPSE
  5
468
100
AcDbEntity
  8
DRAFT
100
AcDbEllipse
 62
7
  6
CONTINUOUS
 10
-26.1957701501
 20
-13.6642554501
 30
0.0
 11
27.2874455778
 21
-12.4673126593
 31
0.0
 40
0.2087225594
 41
1.4452375125
 42
1.4722341599
  0
ELLIPSE
  5
469
100
AcDbEntity
  8
DRAFT
100
AcDbEllipse
 62
7
  6
CONTINUOUS
 10
-6.7101985649
 20
-19.2892554501
 30
0.0
 11
27.2874455778
 21
-12.4673126593
 31
0.0
 40
0.2087225594
 41
2.9068387366
 42
2.9338353841
  0
ELLIPSE
  5
46A
100
AcDbEntity
  8
RACCORDO
100
AcDbEllipse
 62
7
  6
CONTINUOUS
 10
-33.5336717469
 20
-9.2819229975
 30
0.0
 11
0.0575629817
 21
0.19154714
 31
0.0
 40
0.4460615836
 41
0.6452225772
 42
2.0414859788
  0
ELLIPSE
  5
46B
100
AcDbEntity
  8
ASSI
100
AcDbEllipse
 62
7
  6
CONTINUOUS
 10
-35.6753478915
 20
-9.6784822324
 30
0.0
 11
-0.2673831985
 21
0.4249035332
 31
0.0
 40
0.804835168
 41
3.3466302254
 42
6.4063023707
  0
ELLIPSE
  5
46C
100
AcDbEntity
  8
ASSI
100
AcDbEllipse
 62
7
  6
CONTINUOUS
 10
-26.1490684498
 20
-12.4284822324
 30
0.0
 11
-0.2673831985
 21
0.4249035332
 31
0.0
 40
0.804835168
 41
3.3466302254
 42
6.4063023707
  0
ELLIPSE
  5
46D
100
AcDbEntity
  8
ASSI
100
AcDbEllipse
 62
7
  6
CONTINUOUS
 10
-16.6862386973
 20
-18.240610952
 30
0.0
 11
4.7823564293
 21
4.5571986982
 31
0.0
 40
0.0589528289
 41
-0.6090945526
 42
-0.5843909626
  0
ELLIPSE
  5
46E
100
AcDbEntity
  8
ASSI
100
AcDbEllipse
 62
7
  6
CONTINUOUS
 10
-12.7025218399
 20
-19.390610952
 30
0.0
 11
4.7823564293
 21
4.5571986982
 31
0.0
 40
0.0589528289
 41
-0.6090945526
 42
-0.5843909626
  0
ELLIPSE
  5
46F
100
AcDbEntity
  8
DRAFT
100
AcDbEllipse
 62
7
  6
CONTINUOUS
 10
-6.6634290021
 20
-18.0524661626
 30
0.0
 11
-0.2758111451
 21
0.4383016133
 31
0.0
 40
0.8048349797
 41
3.3642436312
 42
6.42947152
  0
ELLIPSE
  5
470
100
AcDbEntity
  8
DRAFT
100
AcDbEllipse
 62
7
  6
CONTINUOUS
 10
-16.1897084437
 20
-15.3024661626
 30
0.0
 11
-0.2758111451
 21
0.4383016133
 31
0.0
 40
0.8048349797
 41
3.3642436312
 42
6.42947152
  0
ELLIPSE
  5
471
100
AcDbEntity
  8
0
100
AcDbEllipse
 62
7
  6
CONTINUOUS
 10
1.0232460561
 20
-14.1513892492
 30
0.0
 11
3.291241924
 21
-0.0323300131
 31
0.0
 40
0.4869099485
 41
-1.3735667923
 42
-0.5968151728
  0
ELLIPSE
  5
472
100
AcDbEntity
  8
0
100
AcDbEllipse
 62
7
  6
CONTINUOUS
 10
1.3369005345
 20
-11.5504228549
 30
0.0
 11
0.1335836931
 21
0.481849059
 31
0.0
 40
0.4198825747
 41
-0.987242665
 42
-0.8761618856
  0
ELLIPSE
  5
473
100
AcDbEntity
  8
0
100
AcDbEllipse
 62
7
  6
CONTINUOUS
 10
-7.3233535034
 20
-9.0504228549
 30
0.0
 11
0.1335836931
 21
0.481849059
 31
0.0
 40
0.4198825747
 41
-0.987242665
 42
-0.8761618856
  0
ELLIPSE
  5
474
100
AcDbEntity
  8
DRAFT
100
AcDbEllipse
 62
7
  6
CONTINUOUS
 10
1.5519740878
 20
-15.7815812747
 30
0.0
 11
2.7999914946
 21
-0.0139863002
 31
0.0
 40
0.493445535
 41
0.6350099355
 42
1.7467726442
  0
ELLIPSE
  5
475
100
AcDbEntity
  8
DRAFT
100
AcDbEllipse
 62
7
  6
CONTINUOUS
 10
-7.10827995
 20
-13.2815812747
 30
0.0
 11
2.7999914946
 21
-0.0139863002
 31
0.0
 40
0.493445535
 41
0.6350099358
 42
1.7467726394
  0
ELLIPSE
  5
476
100
AcDbEntity
  8
0
100
AcDbEllipse
 62
7
  6
CONTINUOUS
 10
-7.6370079818
 20
-11.6513892492
 30
0.0
 11
3.291241924
 21
-0.0323300131
 31
0.0
 40
0.4869099485
 41
5.3874427756
 42
5.6863711405
  0
ELLIPSE
  5
477
100
AcDbEntity
  8
0
100
AcDbEllipse
 62
7
  6
CONTINUOUS
 10
6.2190397959
 20
-12.9597750633
 30
0.0
 11
0.5037149982
 21
0.3748304141
 31
0.0
 40
0.0342266086
 41
-0.5445345332
 42
0.1173522727
  0
ELLIPSE
  5
478
100
AcDbEntity
  8
0
100
AcDbEllipse
 62
7
  6
CONTINUOUS
 10
1.3849083798
 20
-11.5642815261
 30
0.0
 11
-0.4221735986
 21
0.5669784363
 31
0.0
 40
0.4602794669
 41
4.8667877397
 42
6.3090499946
  0
ELLIPSE
  5
479
100
AcDbEntity
  8
0
100
AcDbEllipse
 62
7
  6
CONTINUOUS
 10
-2.441214242
 20
-10.4597750633
 30
0.0
 11
0.5037149982
 21
0.3748304141
 31
0.0
 40
0.0342266086
 41
-0.5445345332
 42
0.1173522727
  0
ELLIPSE
  5
47A
100
AcDbEntity
  8
RACCORDO
100
AcDbEllipse
 62
7
  6
CONTINUOUS
 10
9.1249611588
 20
-20.3307770791
 30
0.0
 11
0.1999976736
 21
-0.0019813354
 31
0.0
 40
0.4868722452
 41
-0.5013221784
 42
0.0053378691
  0
ELLIPSE
  5
47B
100
AcDbEntity
  8
0
100
AcDbEllipse
 62
7
  6
CONTINUOUS
 10
-7.6370079818
 20
-11.6513892492
 30
0.0
 11
3.291241924
 21
-0.0323300131
 31
0.0
 40
0.4869099485
 41
2.6227081423
 42
3.1094610619
  0
ELLIPSE
  5
47C
100
AcDbEntity
  8
0
100
AcDbEllipse
 62
7
  6
CONTINUOUS
 10
-7.275345658
 20
-9.0642815261
 30
0.0
 11
-0.4221735986
 21
0.5669784363
 31
0.0
 40
0.4602794669
 41
4.8667877397
 42
6.3090499946
  0
ELLIPSE
  5
47D
100
AcDbEntity
  8
0
100
AcDbEllipse
 62
7
  6
CONTINUOUS
 10
1.0232460561
 20
-14.1513892492
 30
0.0
 11
3.291241924
 21
-0.0323300131
 31
0.0
 40
0.4869099485
 41
2.6227081423
 42
3.1094614651
  0
ELLIPSE
  5
47E
100
AcDbEntity
  8
RACCORDO
100
AcDbEllipse
 62
7
  6
CONTINUOUS
 10
-4.5959717639
 20
-13.9130261569
 30
0.0
 11
0.0894333368
 21
0.4943705243
 31
0.0
 40
0.2896068539
 41
-0.0291592399
 42
0.5408956279
  0
ELLIPSE
  5
47F
100
AcDbEntity
  8
RACCORDO
100
AcDbEllipse
 62
7
  6
CONTINUOUS
 10
-40.3960311539
 20
-9.0489258338
 30
0.0
 11
-0.290649704
 21
0.4071374002
 31
0.0
 40
0.7903625748
 41
-0.7844323812
 42
0.0397047245
  0
ELLIPSE
  5
480
100
AcDbEntity
  8
RACCORDO
100
AcDbEllipse
 62
7
  6
CONTINUOUS
 10
-4.7580232595
 20
-58.3236249904
 30
0.0
 11
-0.290649704
 21
0.4071374002
 31
0.0
 40
0.7903625748
 41
-3.1812957879
 42
-2.3556855588
  0
ELLIPSE
  5
481
100
AcDbEntity
  8
RACCORDO
100
AcDbEllipse
 62
7
  6
CONTINUOUS
 10
-2.89726309
 20
-19.8738877518
 30
0.0
 11
-0.2905157916
 21
0.4069522694
 31
0.0
 40
0.7910850595
 41
-2.3552257804
 42
-0.7848863044
  0
ENDSEC
  0
SECTION
  2
OBJECTS
  0
DICTIONARY
  5
C
100
AcDbDictionary
280
0
281
1
  3
ACAD_GROUP
350
D
  3
ACAD_MLINESTYLE
350
17
  3
ACAD_LAYOUT
350
1A
  3
ACAD_PLOTSETTINGS
350
19
  3
ACAD_PLOTSTYLENAME
350
E
  0
DICTIONARY
  5
D
102
{ACAD_REACTORS
330
C
102
}
100
AcDbDictionary
280
0
281
1
  0
ACDBDICTIONARYWDFLT
  5
E
102
{ACAD_REACTORS
330
C
102
}
100
AcDbDictionary
281
1
  3
Normal
350
F
100
AcDbDictionaryWithDefault
340
F
  0
DICTIONARY
  5
17
102
{ACAD_REACTORS
330
C
102
}
100
AcDbDictionary
280
0
281
1
  3
Standard
350
18
  0
DICTIONARY
  5
19
102
{ACAD_REACTORS
330
C
102
}
100
AcDbDictionary
281
1
  0
DICTIONARY
  5
1A
102
{ACAD_REACTORS
330
C
102
}
100
AcDbDictionary
281
1
  3
Model
350
482
  3
Layout1
350
483
  0
ACDBPLACEHOLDER
  5
F
102
{ACAD_REACTORS
330
E
102
}
  0
MLINESTYLE
  5
18
102
{ACAD_REACTORS
330
17
102
}
100
AcDbMlineStyle
  2
STANDARD
 70
0
  3

 62
256
 51
90.0
 52
90.0
 71
2
 49
0.5
 62
256
  6
BYLAYER
 49
-0.5
 62
256
  6
BYLAYER
  0
LAYOUT
  5
482
102
{ACAD_REACTORS
330
1A
102
}
100
AcDbPlotSettings
  1

  2
none_device
  4
ISO_A4_(297.00_x_210.00_MM)
  6

 40
0.0
 41
0.0
 42
0.0
 43
0.0
 44
297.0
 45
210.0
 46
0.0
 47
0.0
 48
0.0
 49
0.0
140
0.0
141
0.0
142
1.0
143
1.0
 70
1024
 72
1
 73
0
 74
0
  7

 75
0
147
1.0
148
0.0
149
0.0
100
AcDbLayout
  1
Model
 70
0
 71
0
 10
0.0
 20
0.0
 11
297.0
 21
210.0
 12
0.0
 22
0.0
 32
0.0
 14
0.0
 24
0.0
 34
0.0
 15
0.0
 25
0.0
 35
0.0
146
0.0
 13
0.0
 23
0.0
 33
0.0
 16
1.0
 26
0.0
 36
0.0
 17
0.0
 27
1.0
 37
0.0
 76
0
330
21C
345
0
346
0
  0
LAYOUT
  5
483
102
{ACAD_REACTORS
330
1A
102
}
100
AcDbPlotSettings
  1

  2
none_device
  4
ISO_A4_(297.00_x_210.00_MM)
  6

 40
0.0
 41
0.0
 42
0.0
 43
0.0
 44
297.0
 45
210.0
 46
0.0
 47
0.0
 48
0.0
 49
0.0
140
0.0
141
0.0
142
1.0
143
1.0
 70
0
 72
1
 73
0
 74
0
  7

 75
0
147
1.0
148
0.0
149
0.0
100
AcDbLayout
  1
Layout1
 70
0
 71
1
 10
0.0
 20
0.0
 11
297.0
 21
210.0
 12
0.0
 22
0.0
 32
0.0
 14
0.0
 24
0.0
 34
0.0
 15
0.0
 25
0.0
 35
0.0
146
0.0
 13
0.0
 23
0.0
 33
0.0
 16
1.0
 26
0.0
 36
0.0
 17
0.0
 27
1.0
 37
0.0
 76
0
330
21D
345
0
346
0
  0
ENDSEC
  0
EOF
