  0
SECTION
  2
HEADER
  9
$ACADVER
  1
AC1015
  9
$DWGCODEPAGE
  3
ANSI_1252
  9
$EXTMAX
 10
558.8
 20
431.8
 30
0.0
  9
$EXTMIN
 10
0.0
 20
0.0
 30
0.0
  9
$LIMMIN
 10
0.0
 20
0.0
  9
$LIMMAX
 10
558.8
 20
431.8
  9
$VIEWCTR
 10
279.4
 20
215.9
  9
$VIEWSIZE
 40
431.8
  9
$CLAYER
  8
0
  9
$LTSCALE
 40
30.734
  9
$CELTYPE
  6
BYLAYER
  9
$DIMSCALE
 40
1.0
  9
$DIMASZ
 40
3.0
  9
$DIMEXO
 40
0.5
  9
$DIMDLI
 40
21.2344
  9
$DIMEXE
 40
1.5
  9
$DIMCEN
 40
5.0292
  9
$DIMLFAC
 40
1.0
  9
$DIMBLK
  1
_FILLED
  9
$DIMTXT
 40
3.0
  9
$DIMTOL
 70
1
  9
$DIMLIM
 70
0
  9
$DIMTFAC
 40
1.0
  9
$DIMTP
 40
0.01
  9
$DIMTM
 40
0.01
  9
$DIMGAP
 40
0.625
  9
$DIMDSEP
 70
44
  9
$PDMODE
 70
3
  9
$PDSIZE
 40
3.0
  9
$HANDSEED
  5
53A
  9
$TILEMODE
 70
1
  9
$MEASUREMENT
 70
1
  9
$INSUNITS
 70
4
  0
ENDSEC
  0
SECTION
  2
CLASSES
  0
CLASS
  1
ACDBDICTIONARYWDFLT
  2
AcDbDictionaryWithDefault
  3
AutoCAD 2000
 90
0
280
0
281
0
  0
CLASS
  1
ACDBPLACEHOLDER
  2
AcDbPlaceHolder
  3
AutoCAD 2000
 90
0
280
0
281
0
  0
CLASS
  1
LAYOUT
  2
AcDbLayout
  3
AutoCAD 2000
 90
0
280
0
281
0
  0
ENDSEC
  0
SECTION
  2
TABLES
  0
TABLE
  2
VPORT
  5
8
100
AcDbSymbolTable
 70
2
  0
VPORT
  5
1F4
100
AcDbSymbolTableRecord
100
AcDbViewportTableRecord
  2
*ACTIVE
 70
0
 10
0.0
 20
0.0
 11
1.0
 21
1.0
 12
279.4
 22
215.9
 13
0.0
 23
0.0
 14
1.0
 24
1.0
 15
0.0
 25
0.0
 16
0.0
 26
0.0
 36
1.0
 17
0.0
 27
0.0
 37
0.0
 40
431.8
 41
1.2941176471
 42
50.0
 43
0.0
 44
0.0
 50
0.0
 51
0.0
 71
0
 72
100
 73
1
 74
1
 75
0
 76
0
 77
0
 78
0
  0
ENDTAB
  0
TABLE
  2
LTYPE
  5
5
100
AcDbSymbolTable
 70
6
  0
LTYPE
  5
14
100
AcDbSymbolTableRecord
100
AcDbLinetypeTableRecord
  2
BYBLOCK
 70
0
  3

 72
65
 73
0
 40
0.0
  0
LTYPE
  5
15
100
AcDbSymbolTableRecord
100
AcDbLinetypeTableRecord
  2
BYLAYER
 70
0
  3

 72
65
 73
0
 40
0.0
  0
LTYPE
  5
16
100
AcDbSymbolTableRecord
100
AcDbLinetypeTableRecord
  2
CONTINUOUS
 70
64
  3
Solid line
 72
65
 73
0
 40
0.0
  0
LTYPE
  5
1F5
100
AcDbSymbolTableRecord
100
AcDbLinetypeTableRecord
  2
CENTER
 70
64
  3
____ _ ____ _ ____ _ ____ _ ____ _ ____ _ ____
 72
65
 73
4
 40
0.6
 49
0.375
 74
0
 49
-0.075
 74
0
 49
0.075
 74
0
 49
-0.075
 74
0
  0
LTYPE
  5
1F6
100
AcDbSymbolTableRecord
100
AcDbLinetypeTableRecord
  2
HIDDEN
 70
64
  3
- - - - - - - - - - - - - - - - - - - -
 72
65
 73
2
 40
0.2
 49
0.1
 74
0
 49
-0.1
 74
0
  0
LTYPE
  5
1F7
100
AcDbSymbolTableRecord
100
AcDbLinetypeTableRecord
  2
PHANTOM
 70
64
  3
_____ _ _ _____ _ _ _____ _ _ _____
 72
65
 73
6
 40
0.8
 49
0.45
 74
0
 49
-0.05
 74
0
 49
0.1
 74
0
 49
-0.05
 74
0
 49
0.1
 74
0
 49
-0.05
 74
0
  0
LTYPE
  5
1F8
100
AcDbSymbolTableRecord
100
AcDbLinetypeTableRecord
  2
DOT
 70
64
  3
. . . . . . . . . . . . . . . . . . . .
 72
65
 73
2
 40
0.2
 49
0.1
 74
0
 49
-0.1
 74
0
  0
LTYPE
  5
1F9
100
AcDbSymbolTableRecord
100
AcDbLinetypeTableRecord
  2
DASHED
 70
64
  3
- - - - - - - - - - - - - - - - - - - -
 72
65
 73
2
 40
0.2
 49
0.1
 74
0
 49
-0.1
 74
0
  0
ENDTAB
  0
TABLE
  2
LAYER
  5
2
100
AcDbSymbolTable
 70
36
  0
LAYER
  5
10
100
AcDbSymbolTableRecord
100
AcDbLayerTableRecord
  2
0
 70
0
 62
7
  6
CONTINUOUS
370
-3
390
F
  0
LAYER
  5
1FA
100
AcDbSymbolTableRecord
100
AcDbLayerTableRecord
  2
DEFAULT_1
 70
0
 62
7
  6
CENTER
370
-3
390
F
  0
LAYER
  5
1FB
100
AcDbSymbolTableRecord
100
AcDbLayerTableRecord
  2
DEFAULT_2
 70
0
 62
7
  6
HIDDEN
370
-3
390
F
  0
LAYER
  5
1FC
100
AcDbSymbolTableRecord
100
AcDbLayerTableRecord
  2
DEFAULT_3
 70
0
 62
7
  6
PHANTOM
370
-3
390
F
  0
LAYER
  5
1FD
100
AcDbSymbolTableRecord
100
AcDbLayerTableRecord
  2
ASSI
 70
0
 62
7
  6
CONTINUOUS
370
-3
390
F
  0
LAYER
  5
1FE
100
AcDbSymbolTableRecord
100
AcDbLayerTableRecord
  2
COORDINATE
 70
0
 62
7
  6
CONTINUOUS
370
-3
390
F
  0
LAYER
  5
1FF
100
AcDbSymbolTableRecord
100
AcDbLayerTableRecord
  2
COORD_ORIGINE
 70
0
 62
7
  6
CONTINUOUS
370
-3
390
F
  0
LAYER
  5
200
100
AcDbSymbolTableRecord
100
AcDbLayerTableRecord
  2
COPY_PUBLISH
 70
0
 62
7
  6
CONTINUOUS
370
-3
390
F
  0
LAYER
  5
201
100
AcDbSymbolTableRecord
100
AcDbLayerTableRecord
  2
COSMETIC
 70
0
 62
7
  6
CONTINUOUS
370
-3
390
F
  0
LAYER
  5
202
100
AcDbSymbolTableRecord
100
AcDbLayerTableRecord
  2
COSMETICHE
 70
0
 62
7
  6
CONTINUOUS
370
-3
390
F
  0
LAYER
  5
203
100
AcDbSymbolTableRecord
100
AcDbLayerTableRecord
  2
COSMETICI
 70
0
 62
7
  6
CONTINUOUS
370
-3
390
F
  0
LAYER
  5
204
100
AcDbSymbolTableRecord
100
AcDbLayerTableRecord
  2
CURVE
 70
0
 62
7
  6
CONTINUOUS
370
-3
390
F
  0
LAYER
  5
205
100
AcDbSymbolTableRecord
100
AcDbLayerTableRecord
  2
DRAFT
 70
0
 62
7
  6
CONTINUOUS
370
-3
390
F
  0
LAYER
  5
206
100
AcDbSymbolTableRecord
100
AcDbLayerTableRecord
  2
ESTENSIONE
 70
0
 62
7
  6
CONTINUOUS
370
-3
390
F
  0
LAYER
  5
207
100
AcDbSymbolTableRecord
100
AcDbLayerTableRecord
  2
IMPORT_IGES
 70
0
 62
7
  6
CONTINUOUS
370
-3
390
F
  0
LAYER
  5
208
100
AcDbSymbolTableRecord
100
AcDbLayerTableRecord
  2
INTFCLR_1
 70
0
 62
7
  6
CONTINUOUS
370
-3
390
F
  0
LAYER
  5
209
100
AcDbSymbolTableRecord
100
AcDbLayerTableRecord
  2
INTF_2
 70
0
 62
7
  6
CONTINUOUS
370
-3
390
F
  0
LAYER
  5
20A
100
AcDbSymbolTableRecord
100
AcDbLayerTableRecord
  2
NOTE
 70
0
 62
7
  6
CONTINUOUS
370
-3
390
F
  0
LAYER
  5
20B
100
AcDbSymbolTableRecord
100
AcDbLayerTableRecord
  2
PIANI
 70
0
 62
7
  6
CONTINUOUS
370
-3
390
F
  0
LAYER
  5
20C
100
AcDbSymbolTableRecord
100
AcDbLayerTableRecord
  2
PIANI_ORIGINE
 70
0
 62
7
  6
CONTINUOUS
370
-3
390
F
  0
LAYER
  5
20D
100
AcDbSymbolTableRecord
100
AcDbLayerTableRecord
  2
PUNTI
 70
0
 62
7
  6
CONTINUOUS
370
-3
390
F
  0
LAYER
  5
20E
100
AcDbSymbolTableRecord
100
AcDbLayerTableRecord
  2
RACCORDO
 70
0
 62
7
  6
CONTINUOUS
370
-3
390
F
  0
LAYER
  5
20F
100
AcDbSymbolTableRecord
100
AcDbLayerTableRecord
  2
RIFERIMENTI
 70
0
 62
7
  6
CONTINUOUS
370
-3
390
F
  0
LAYER
  5
210
100
AcDbSymbolTableRecord
100
AcDbLayerTableRecord
  2
SIMBOLI
 70
0
 62
7
  6
CONTINUOUS
370
-3
390
F
  0
LAYER
  5
211
100
AcDbSymbolTableRecord
100
AcDbLayerTableRecord
  2
SMUSSO
 70
0
 62
7
  6
CONTINUOUS
370
-3
390
F
  0
LAYER
  5
212
100
AcDbSymbolTableRecord
100
AcDbLayerTableRecord
  2
SNAPLINE
 70
0
 62
7
  6
CONTINUOUS
370
-3
390
F
  0
LAYER
  5
213
100
AcDbSymbolTableRecord
100
AcDbLayerTableRecord
  2
SUPERFICI
 70
0
 62
7
  6
CONTINUOUS
370
-3
390
F
  0
LAYER
  5
214
100
AcDbSymbolTableRecord
100
AcDbLayerTableRecord
  2
SUP_ASS_ANCORINA
 70
0
 62
7
  6
CONTINUOUS
370
-3
390
F
  0
LAYER
  5
215
100
AcDbSymbolTableRecord
100
AcDbLayerTableRecord
  2
TRASH
 70
0
 62
7
  6
CONTINUOUS
370
-3
390
F
  0
LAYER
  5
216
100
AcDbSymbolTableRecord
100
AcDbLayerTableRecord
  2
XSEC_DATUMS
 70
0
 62
7
  6
CONTINUOUS
370
-3
390
F
  0
ENDTAB
  0
TABLE
  2
STYLE
  5
3
100
AcDbSymbolTable
 70
1
  0
STYLE
  5
11
100
AcDbSymbolTableRecord
100
AcDbTextStyleTableRecord
  2
STANDARD
 70
0
 40
0.0
 41
0.8
 50
0.0
 71
0
 42
0.2
  3
txt
  4

  0
STYLE
  5
217
100
AcDbSymbolTableRecord
100
AcDbTextStyleTableRecord
  2
TEXTSTYLE_1
 70
0
 40
0.0
 41
0.8
 50
0.0
 71
0
 42
0.2
  3
gdt
  4

  0
ENDTAB
  0
TABLE
  2
VIEW
  5
6
100
AcDbSymbolTable
 70
0
  0
ENDTAB
  0
TABLE
  2
UCS
  5
7
100
AcDbSymbolTable
 70
0
  0
ENDTAB
  0
TABLE
  2
APPID
  5
9
100
AcDbSymbolTable
 70
1
  0
APPID
  5
218
100
AcDbSymbolTableRecord
100
AcDbRegAppTableRecord
  2
ACAD
 70
0
  0
ENDTAB
  0
TABLE
  2
BLOCK_RECORD
  5
1
100
AcDbSymbolTable
 70
0
  0
BLOCK_RECORD
  5
219
100
AcDbSymbolTableRecord
100
AcDbBlockTableRecord
  2
*Model_Space
  0
BLOCK_RECORD
  5
21A
100
AcDbSymbolTableRecord
100
AcDbBlockTableRecord
  2
*Paper_Space
  0
ENDTAB
  0
TABLE
  2
DIMSTYLE
  5
A
100
AcDbSymbolTable
 70
1
100
AcDbDimStyleTable
 71
0
  0
DIMSTYLE
105
21B
100
AcDbSymbolTableRecord
100
AcDbDimStyleTableRecord
  2
STANDARD
 70
0
  3

  4

 40
1.0
 41
3.0
 42
0.5
 43
0.38
 44
1.5
 45
0.0
 46
0.0
 47
0.01
 48
0.01
140
3.0
141
0.09
142
0.0
143
25.4
144
1.0
145
0.0
146
1.0
147
0.625
 71
1.0
 72
0.0
 73
0
 74
0
 75
0
 76
0
 77
1
 78
8
170
0
171
2
172
0
173
0
174
0
175
0
176
0
177
0
178
0
270
2
271
2
272
2
273
2
274
2
275
0
280
0
281
0
282
0
283
1
284
8
285
0
286
0
287
3
288
0
340
11
278
44
  0
ENDTAB
  0
ENDSEC
  0
SECTION
  2
BLOCKS
  0
BLOCK
  5
20
100
AcDbEntity
  8
0
100
AcDbBlockBegin
  2
*Model_Space
 70
0
 10
0.0
 20
0.0
 30
0.0
  3
*Model_Space
  1

  0
ENDBLK
  5
21
100
AcDbEntity
  8
0
100
AcDbBlockEnd
  0
BLOCK
  5
1C
100
AcDbEntity
  8
0
100
AcDbBlockBegin
  2
*Paper_Space
 70
0
 10
0.0
 20
0.0
 30
0.0
  3
*Paper_Space
  1

  0
ENDBLK
  5
1D
100
AcDbEntity
  8
0
100
AcDbBlockEnd
  0
ENDSEC
  0
SECTION
  2
ENTITIES
  0
LWPOLYLINE
  5
21C
100
AcDbEntity
  8
RACCORDO
100
AcDbPolyline
 62
7
  6
CONTINUOUS
 90
10
 70
0
 10
-3.9518890274
 20
-23.3969721984
 10
-3.8921713374
 20
-23.4174619078
 10
-3.829945552
 20
-23.432589787
 10
-3.7659221565
 20
-23.4420464484
 10
-3.7004953436
 20
-23.4456703136
 10
-3.6337805729
 20
-23.4432969737
 10
-3.5661822619
 20
-23.4347332984
 10
-3.4982380378
 20
-23.419881818
 10
-3.4301063804
 20
-23.3985925983
 10
-3.3620393409
 20
-23.3706781103
  0
LINE
  5
21D
100
AcDbEntity
  8
RACCORDO
100
AcDbLine
 62
7
  6
CONTINUOUS
 10
-3.9983779777
 20
-23.3765952171
 11
-3.9518890274
 21
-23.3969721984
  0
LWPOLYLINE
  5
21E
100
AcDbEntity
  8
ASSI
100
AcDbPolyline
 62
7
  6
CONTINUOUS
 90
10
 70
0
 10
-3.9983788073
 20
-23.3765948159
 10
-3.951747752
 20
-23.3970341223
 10
-3.8916311254
 20
-23.417619713
 10
-3.82917496
 20
-23.4327395905
 10
-3.765005638
 20
-23.4421387251
 10
-3.6995001533
 20
-23.4456795643
 10
-3.6327044451
 20
-23.4432091006
 10
-3.5650181012
 20
-23.4345316766
 10
-3.4969863123
 20
-23.4195489904
 10
-3.4287163056
 20
-23.39809007
  0
LINE
  5
21F
100
AcDbEntity
  8
ASSI
100
AcDbLine
 62
7
  6
CONTINUOUS
 10
-3.9982795307
 20
-23.3766514445
 11
-19.0151760581
 21
-16.1244409348
  0
LINE
  5
220
100
AcDbEntity
  8
ASSI
100
AcDbLine
 62
253
  6
CONTINUOUS
 10
-4.2542542132
 20
-22.9431813562
 11
-19.2672589492
 21
-15.6928503355
  0
LINE
  5
221
100
AcDbEntity
  8
RACCORDO
100
AcDbLine
 62
253
  6
CONTINUOUS
 10
-4.2542542132
 20
-22.9431813562
 11
-19.2672589492
 21
-15.6928503355
  0
LINE
  5
222
100
AcDbEntity
  8
RACCORDO
100
AcDbLine
 62
7
  6
CONTINUOUS
 10
-19.0153146731
 20
-16.1243739468
 11
-3.9982874486
 21
-23.3766476206
  0
LINE
  5
223
100
AcDbEntity
  8
RACCORDO
100
AcDbLine
 62
7
  6
CONTINUOUS
 10
-3.9984364142
 20
-23.3765756423
 11
-3.9982958564
 21
-23.3766435602
  0
LWPOLYLINE
  5
224
100
AcDbEntity
  8
ASSI
100
AcDbPolyline
 62
253
  6
CONTINUOUS
 90
12
 70
0
 10
-19.2672427675
 20
-15.6928393445
 10
-19.2897855327
 20
-15.6810964579
 10
-19.3107916295
 20
-15.6684230045
 10
-19.3301730929
 20
-15.6548720484
 10
-19.347848752
 20
-15.6405003354
 10
-19.3637445959
 20
-15.6253680355
 10
-19.3777940746
 20
-15.6095384873
 10
-19.3899383444
 20
-15.5930779669
 10
-19.4001265347
 20
-15.5760553984
 10
-19.4083159742
 20
-15.5585420412
 10
-19.4144723507
 20
-15.5406112175
 10
-19.4185698576
 20
-15.5223380166
  0
LWPOLYLINE
  5
225
100
AcDbEntity
  8
RACCORDO
100
AcDbPolyline
 62
253
  6
CONTINUOUS
 90
8
 70
0
 10
-19.2672427675
 20
-15.6928393445
 10
-19.3025801601
 20
-15.6736002581
 10
-19.3338484838
 20
-15.652060462
 10
-19.3607127246
 20
-15.6284507373
 10
-19.3828850545
 20
-15.6030240424
 10
-19.4001279156
 20
-15.5760528031
 10
-19.4122565649
 20
-15.547825994
 10
-19.4190051458
 20
-15.5192220904
  0
LWPOLYLINE
  5
226
100
AcDbEntity
  8
RACCORDO
100
AcDbPolyline
 62
253
  6
CONTINUOUS
 90
3
 70
0
 10
-19.0654306857
 20
-16.0948918593
 10
-19.0226701239
 20
-16.1207120334
 10
-19.0153146731
 20
-16.1243739468
  0
LWPOLYLINE
  5
227
100
AcDbEntity
  8
ASSI
100
AcDbPolyline
 62
253
  6
CONTINUOUS
 90
3
 70
0
 10
-19.0654390927
 20
-16.0948856303
 10
-19.0372834417
 20
-16.1127897911
 10
-19.0151615947
 20
-16.1244479197
  0
LINE
  5
228
100
AcDbEntity
  8
ASSI
100
AcDbLine
 62
7
  6
CONTINUOUS
 10
-19.4198226579
 20
-15.513262747
 11
-19.4198373904
 21
-15.513128378
  0
LINE
  5
229
100
AcDbEntity
  8
RACCORDO
100
AcDbLine
 62
253
  6
CONTINUOUS
 10
-19.6624834176
 20
-11.9300114547
 11
-19.2672589492
 21
-15.6928503355
  0
LWPOLYLINE
  5
22A
100
AcDbEntity
  8
RACCORDO
100
AcDbPolyline
 62
7
  6
CONTINUOUS
 90
3
 70
0
 10
-20.1756137205
 20
-8.0298523751
 10
-19.8060523936
 20
-11.839603396
 10
-19.4198522207
 20
-15.5131300131
  0
LWPOLYLINE
  5
22B
100
AcDbEntity
  8
RACCORDO
100
AcDbPolyline
 62
7
  6
CONTINUOUS
 90
7
 70
0
 10
-21.7755893913
 20
15.2332977752
 10
-21.5825416215
 20
11.3095721342
 10
-21.3600208298
 20
7.4039981753
 10
-21.1080464755
 20
3.5169597788
 10
-20.8266396627
 20
-0.3512262717
 10
-20.515820915
 20
-4.2002686496
 10
-20.1756137205
 20
-8.0298523751
  0
LINE
  5
22C
100
AcDbEntity
  8
RACCORDO
100
AcDbLine
 62
7
  6
CONTINUOUS
 10
-21.9341499658
 20
19.042613537
 11
-21.7755893913
 21
15.2332977752
  0
LWPOLYLINE
  5
22D
100
AcDbEntity
  8
ASSI
100
AcDbPolyline
 62
7
  6
CONTINUOUS
 90
10
 70
0
 10
-21.9341499652
 20
19.0426135218
 10
-21.7733229601
 20
15.1833635711
 10
-21.5806161721
 20
11.2733212434
 10
-21.3586387901
 20
7.381309499
 10
-21.1074100724
 20
3.5077079179
 10
-20.8269509195
 20
-0.3471700906
 10
-20.5172816712
 20
-4.1830358429
 10
-20.1784255592
 20
-7.9995776417
 10
-19.8104165094
 20
-11.7964255607
 10
-19.4198522225
 20
-15.5131299968
  0
LINE
  5
22E
100
AcDbEntity
  8
RACCORDO
100
AcDbLine
 62
7
  6
CONTINUOUS
 10
-21.9342679383
 20
19.1180408567
 11
-21.9341325999
 21
19.0425299259
  0
LWPOLYLINE
  5
22F
100
AcDbEntity
  8
ASSI
100
AcDbPolyline
 62
7
  6
CONTINUOUS
 90
3
 70
0
 10
-21.9285662149
 20
19.1986964802
 10
-21.9344650089
 20
19.1116533378
 10
-21.9341326872
 20
19.04253219
  0
LWPOLYLINE
  5
230
100
AcDbEntity
  8
RACCORDO
100
AcDbPolyline
 62
7
  6
CONTINUOUS
 90
11
 70
0
 10
-19.4137689793
 20
-15.5585610886
 10
-19.3974988553
 20
-15.6380207102
 10
-19.3749096461
 20
-15.7126994005
 10
-19.3466209167
 20
-15.7821280562
 10
-19.3130529654
 20
-15.8463994196
 10
-19.2743175158
 20
-15.9058945254
 10
-19.2309772853
 20
-15.9601712092
 10
-19.183501412
 20
-16.0090315762
 10
-19.1316770677
 20
-16.0528236685
 10
-19.075995389
 20
-16.0911061939
 10
-19.0153018052
 20
-16.1243702599
  0
LWPOLYLINE
  5
231
100
AcDbEntity
  8
RACCORDO
100
AcDbPolyline
 62
253
  6
CONTINUOUS
 90
9
 70
0
 10
-19.2672589492
 20
-15.6928503355
 10
-19.257464231
 20
-15.7589720744
 10
-19.2429787752
 20
-15.8213540139
 10
-19.2239036473
 20
-15.8795607343
 10
-19.2003727212
 20
-15.9331869353
 10
-19.1725498971
 20
-15.9818561789
 10
-19.1406295808
 20
-16.025225465
 10
-19.1048399124
 20
-16.0629905806
 10
-19.0654306857
 20
-16.0948918593
  0
LWPOLYLINE
  5
232
100
AcDbEntity
  8
ASSI
100
AcDbPolyline
 62
7
  6
CONTINUOUS
 90
14
 70
0
 10
-19.4198226579
 20
-15.513262747
 10
-19.4127220309
 20
-15.5650235428
 10
-19.3986194753
 20
-15.6335436321
 10
-19.3797910071
 20
-15.698510279
 10
-19.356620555
 20
-15.7596445667
 10
-19.3293816877
 20
-15.816987565
 10
-19.2981845243
 20
-15.8707423246
 10
-19.2633869225
 20
-15.9206300143
 10
-19.2252984978
 20
-15.9665354342
 10
-19.1838676654
 20
-16.0086895854
 10
-19.1394216581
 20
-16.0468231157
 10
-19.0922946653
 20
-16.0807332927
 10
-19.0423399149
 20
-16.1105465053
 10
-19.0149081537
 20
-16.1245603202
  0
LWPOLYLINE
  5
233
100
AcDbEntity
  8
ASSI
100
AcDbPolyline
 62
253
  6
CONTINUOUS
 90
13
 70
0
 10
-19.2672589492
 20
-15.6928503355
 10
-19.2612531204
 20
-15.7373273111
 10
-19.2531507621
 20
-15.7802065628
 10
-19.2429772398
 20
-15.8213552818
 10
-19.2307649081
 20
-15.8606452619
 10
-19.2165515241
 20
-15.8979555874
 10
-19.200379819
 20
-15.9331726951
 10
-19.1822998302
 20
-15.9661878398
 10
-19.162368029
 20
-15.9968975524
 10
-19.1406456148
 20
-16.0252062509
 10
-19.1172006425
 20
-16.0510258055
 10
-19.092106153
 20
-16.0742761615
 10
-19.0654390927
 20
-16.0948856303
  0
LINE
  5
234
100
AcDbEntity
  8
RACCORDO
100
AcDbLine
 62
7
  6
CONTINUOUS
 10
-19.4198010549
 20
-15.5134579797
 11
-19.4137689793
 21
-15.5585610886
  0
LINE
  5
235
100
AcDbEntity
  8
RACCORDO
100
AcDbLine
 62
7
  6
CONTINUOUS
 10
-19.4198010549
 20
-15.5134579797
 11
-19.41983739
 21
-15.5131283821
  0
LWPOLYLINE
  5
236
100
AcDbEntity
  8
RACCORDO
100
AcDbPolyline
 62
7
  6
CONTINUOUS
 90
3
 70
0
 10
-19.0014380006
 20
11.5099318767
 10
-18.9990194939
 20
11.4804686097
 10
-18.9925485588
 20
11.4389999417
  0
LWPOLYLINE
  5
237
100
AcDbEntity
  8
RACCORDO
100
AcDbPolyline
 62
253
  6
CONTINUOUS
 90
99
 70
0
 10
-18.9708989604
 20
11.4737280791
 10
-18.9711775478
 20
11.4799720736
 10
-18.9713094876
 20
11.4864069663
 10
-18.9712947695
 20
11.4930327632
 10
-18.9711508189
 20
11.499857065
 10
-18.9708601887
 20
11.506872284
 10
-18.9703705593
 20
11.5140556438
 10
-18.9696832162
 20
11.5214097165
 10
-18.9687968493
 20
11.5289319448
 10
-18.9676552442
 20
11.5365918585
 10
-18.9662583701
 20
11.5443925371
 10
-18.964606231
 20
11.5523309171
 10
-18.9626426655
 20
11.560367314
 10
-18.9603656189
 20
11.5685050172
 10
-18.957777118
 20
11.576740754
 10
-18.9548271257
 20
11.5850249957
 10
-18.9515126406
 20
11.5933581365
 10
-18.947836637
 20
11.6017397982
 10
-18.9437580442
 20
11.6101192927
 10
-18.9392799656
 20
11.6184880665
 10
-18.9343992736
 20
11.6268546874
 10
-18.9290655525
 20
11.6351941481
 10
-18.9232821952
 20
11.6435047668
 10
-18.9170457832
 20
11.6517882406
 10
-18.9102956825
 20
11.6600246309
 10
-18.9030314115
 20
11.6682177149
 10
-18.8952534231
 20
11.6763637325
 10
-18.8869024841
 20
11.6844314396
 10
-18.8779764696
 20
11.6924236741
 10
-18.8684774745
 20
11.7003376157
 10
-18.8583525971
 20
11.708133532
 10
-18.8476007387
 20
11.7158118922
 10
-18.836222969
 20
11.7233722442
 10
-18.8241696402
 20
11.7307734714
 10
-18.8114479661
 20
11.7380125744
 10
-18.798050706
 20
11.7450925685
 10
-18.7839065321
 20
11.7519813597
 10
-18.7690189804
 20
11.7586803515
 10
-18.7533844861
 20
11.7651881572
 10
-18.736921069
 20
11.771468499
 10
-18.7196305316
 20
11.7775237207
 10
-18.701511041
 20
11.7833514963
 10
-18.682475163
 20
11.7889085427
 10
-18.6625222446
 20
11.7941973628
 10
-18.6416529073
 20
11.7992154722
 10
-18.6197816295
 20
11.8039121069
 10
-18.5968957325
 20
11.8082899199
 10
-18.5730078637
 20
11.8123462765
 10
-18.5480704949
 20
11.8160224784
 10
-18.5220786854
 20
11.8193173492
 10
-18.4950373512
 20
11.8222320797
 10
-18.4669137558
 20
11.8247115186
 10
-18.4377093539
 20
11.8267539478
 10
-18.4074226738
 20
11.8283610954
 10
-18.3760165953
 20
11.8294829753
 10
-18.3435047871
 20
11.8301194699
 10
-18.3098735701
 20
11.830270703
 10
-18.2750448071
 20
11.829887048
 10
-18.2390364703
 20
11.8289717248
 10
-18.2018305793
 20
11.8275215184
 10
-18.1632950692
 20
11.82547715
 10
-18.1234338447
 20
11.8228429231
 10
-18.0822429912
 20
11.8196145399
 10
-18.0395787147
 20
11.8157198192
 10
-17.9954407923
 20
11.8111624643
 10
-17.9498294375
 20
11.8059387774
 10
-17.9026015116
 20
11.7999654746
 10
-17.8537497157
 20
11.7932444174
 10
-17.8032813422
 20
11.7857737483
 10
-17.7510751441
 20
11.777464602
 10
-17.6971332032
 20
11.7683196341
 10
-17.6414534377
 20
11.758336189
 10
-17.583908362
 20
11.7474174309
 10
-17.5245113069
 20
11.7355690968
 10
-17.4632489489
 20
11.7227854453
 10
-17.3999538287
 20
11.7089524182
 10
-17.3346412632
 20
11.6940780736
 10
-17.2672959494
 20
11.6781543452
 10
-17.1977045048
 20
11.6610429838
 10
-17.1258724713
 20
11.6427510352
 10
-17.0517943277
 20
11.6232714414
 10
-16.9752401053
 20
11.6024447928
 10
-16.8962163622
 20
11.5802792112
 10
-16.81471657
 20
11.5567665572
 10
-16.7304911417
 20
11.5317230239
 10
-16.6435472621
 20
11.505158027
 10
-16.5538777869
 20
11.4770621268
 10
-16.4612116493
 20
11.4472232253
 10
-16.3655764474
 20
11.4156598185
 10
-16.2669446363
 20
11.382353379
 10
-16.1649624498
 20
11.3470362649
 10
-16.0596437862
 20
11.3097258764
 10
-15.9509748128
 20
11.2704047747
 10
-15.8385601841
 20
11.2287530488
 10
-15.7223673351
 20
11.1847719033
 10
-15.602428909
 20
11.1384600875
 10
-15.4784473941
 20
11.0894939953
 10
-15.3504868913
 20
11.0379170936
 10
-15.2184833898
 20
10.9836858624
  0
LWPOLYLINE
  5
238
100
AcDbEntity
  8
RACCORDO
100
AcDbPolyline
 62
253
  6
CONTINUOUS
 90
9
 70
0
 10
-21.7814773554
 20
18.8621382543
 10
-21.6182092103
 20
14.9491499907
 10
-21.4258718773
 20
11.0537776864
 10
-21.2044816394
 20
7.1763537951
 10
-20.9540573076
 20
3.3172092996
 10
-20.6746202125
 20
-0.5233264346
 10
-20.3661941991
 20
-4.3449256859
 10
-20.0288056363
 20
-8.1472622469
 10
-19.6624834176
 20
-11.9300114547
  0
LWPOLYLINE
  5
239
100
AcDbEntity
  8
ASSI
100
AcDbPolyline
 62
253
  6
CONTINUOUS
 90
16
 70
0
 10
-21.7814773554
 20
18.8621382543
 10
-21.6870058285
 20
16.5122534606
 10
-21.5820671569
 20
14.1686604623
 10
-21.466664504
 20
11.8314312776
 10
-21.3408012362
 20
9.5006358737
 10
-21.2044812795
 20
7.1763477511
 10
-21.0577092037
 20
4.858643891
 10
-20.90048988
 20
2.5475997749
 10
-20.7328279013
 20
0.2432820714
 10
-20.5547278856
 20
-2.0542457443
 10
-20.3661949216
 20
-4.3449172583
 10
-20.167235063
 20
-6.6286577864
 10
-19.9578548389
 20
-8.9053917434
 10
-19.7380608893
 20
-11.1750473858
 10
-19.5078598814
 20
-13.4375567598
 10
-19.2672589492
 20
-15.6928503355
  0
LWPOLYLINE
  5
23A
100
AcDbEntity
  8
0
100
AcDbPolyline
 62
253
  6
CONTINUOUS
 90
58
 70
0
 10
-19.2074244224
 20
11.5901780501
 10
-19.2084886739
 20
11.6235485856
 10
-19.2074226864
 20
11.6567308828
 10
-19.2042262862
 20
11.6897250445
 10
-19.1990095886
 20
11.7227647662
 10
-19.1916620913
 20
11.7556165813
 10
-19.1818528087
 20
11.7875797809
 10
-19.1694902194
 20
11.8185904282
 10
-19.1546657132
 20
11.8487125375
 10
-19.1373229013
 20
11.87743719
 10
-19.1174084044
 20
11.9046642307
 10
-19.0949756966
 20
11.9304937579
 10
-19.0701288373
 20
11.9547171338
 10
-19.0428473145
 20
11.9772729717
 10
-19.0131518435
 20
11.9982225375
 10
-18.9812084034
 20
12.017541125
 10
-18.947038432
 20
12.0351952108
 10
-18.9106207294
 20
12.0512181771
 10
-18.8720573321
 20
12.0656856676
 10
-18.8313849646
 20
12.0785995781
 10
-18.7885671147
 20
12.089957887
 10
-18.743595941
 20
12.0998303744
 10
-18.6964842564
 20
12.1082337837
 10
-18.647219419
 20
12.1151512702
 10
-18.5957553817
 20
12.120602246
 10
-18.5421204556
 20
12.1245979643
 10
-18.4862864797
 20
12.1271270828
 10
-18.4281226802
 20
12.1281751309
 10
-18.367658365
 20
12.1277571582
 10
-18.304864353
 20
12.1258580399
 10
-18.2395221192
 20
12.1224180541
 10
-18.1716221557
 20
12.117449242
 10
-18.1011740753
 20
12.1109395002
 10
-18.0279880259
 20
12.1027928943
 10
-17.9520242569
 20
12.0930092573
 10
-17.8733226214
 20
12.0815886955
 10
-17.7918126828
 20
12.0684356786
 10
-17.7074926981
 20
12.0535538683
 10
-17.62036453
 20
12.0369395321
 10
-17.5303631699
 20
12.0184860356
 10
-17.4375368873
 20
11.9982108705
 10
-17.3418375506
 20
11.9760964637
 10
-17.2430555685
 20
11.951983573
 10
-17.1412276006
 20
11.9258914126
 10
-17.0363171329
 20
11.8978006823
 10
-16.9280048286
 20
11.8674943594
 10
-16.8162779601
 20
11.834979891
 10
-16.7011494062
 20
11.800249741
 10
-16.5823382576
 20
11.7630644003
 10
-16.4598187511
 20
11.7234248371
 10
-16.3336168135
 20
11.681329987
 10
-16.203529096
 20
11.6365372773
 10
-16.0696514272
 20
11.589099414
 10
-15.9318881552
 20
11.5389635871
 10
-15.7897487369
 20
11.4857289343
 10
-15.6433666747
 20
11.4294816016
 10
-15.4926086447
 20
11.370135338
 10
-15.3365838912
 20
11.3070306696
  0
LWPOLYLINE
  5
23B
100
AcDbEntity
  8
ASSI
100
AcDbPolyline
 62
253
  6
CONTINUOUS
 90
54
 70
0
 10
-19.2074244224
 20
11.5901780501
 10
-19.2083526798
 20
11.623682552
 10
-19.2073159006
 20
11.6566218295
 10
-19.2043140066
 20
11.688995929
 10
-19.1994414944
 20
11.7208748789
 10
-19.1926037044
 20
11.7521887469
 10
-19.1835168378
 20
11.782727629
 10
-19.1722212064
 20
11.8124719669
 10
-19.1586763711
 20
11.8414413938
 10
-19.1424774113
 20
11.8694847899
 10
-19.123550055
 20
11.8966920901
 10
-19.1019683991
 20
11.9229734626
 10
-19.0775501408
 20
11.9479081
 10
-19.0502456773
 20
11.9714400431
 10
-19.0201046071
 20
11.9936252531
 10
-18.9870935565
 20
12.0142107269
 10
-18.9512009027
 20
12.0331468034
 10
-18.9124383719
 20
12.050483082
 10
-18.8708076903
 20
12.0661154057
 10
-18.8263193379
 20
12.0800280324
 10
-18.778962978
 20
12.0922366189
 10
-18.7287091432
 20
12.1026840872
 10
-18.6755748476
 20
12.1113720611
 10
-18.6195432325
 20
12.1182988247
 10
-18.5605340339
 20
12.1234022832
 10
-18.4985621424
 20
12.1266867622
 10
-18.4336128267
 20
12.1281478417
 10
-18.3655613966
 20
12.1277103055
 10
-18.2944221565
 20
12.1253823817
 10
-18.2201809609
 20
12.1211557481
 10
-18.1426704503
 20
12.11493036
 10
-18.0619056867
 20
12.1067170714
 10
-17.9778717678
 20
12.0965049337
 10
-17.8903563958
 20
12.0841611942
 10
-17.7993768372
 20
12.0697021605
 10
-17.7049159888
 20
12.0531114283
 10
-17.606710011
 20
12.0342071683
 10
-17.5047766745
 20
12.0130107777
 10
-17.3990983824
 20
11.9895007566
 10
-17.2893582659
 20
11.9634309162
 10
-17.1755722628
 20
11.9348188559
 10
-17.0577246296
 20
11.9036468616
 10
-16.9354510072
 20
11.869615756
 10
-16.8087694743
 20
11.8327460634
 10
-16.677662169
 20
11.7930171315
 10
-16.541710858
 20
11.7500679963
 10
-16.4009389168
 20
11.7039268032
 10
-16.2553232085
 20
11.6545652662
 10
-16.1043757745
 20
11.6015377488
 10
-15.9481293452
 20
11.5448911435
 10
-15.7865514458
 20
11.4845784073
 10
-15.6190563578
 20
11.4200129721
 10
-15.4456700868
 20
11.3512462905
 10
-15.2663668916
 20
11.2782267544
  0
LWPOLYLINE
  5
23C
100
AcDbEntity
  8
RACCORDO
100
AcDbPolyline
 62
253
  6
CONTINUOUS
 90
17
 70
0
 10
-21.2848244898
 20
19.9960444178
 10
-21.3393293788
 20
19.944425683
 10
-21.3921253683
 20
19.8880568058
 10
-21.4428408488
 20
19.8273327686
 10
-21.4911205105
 20
19.762690837
 10
-21.5366214853
 20
19.6945887262
 10
-21.5790293914
 20
19.6234939158
 10
-21.618060851
 20
19.5498950787
 10
-21.6534425794
 20
19.474301827
 10
-21.6849237303
 20
19.397240985
 10
-21.7122907482
 20
19.3192466286
 10
-21.7353518805
 20
19.2408568032
 10
-21.7539411161
 20
19.1626211824
 10
-21.7679294406
 20
19.0850954969
 10
-21.777219874
 20
19.0088230456
 10
-21.7817463958
 20
18.9343310948
 10
-21.7814773554
 20
18.8621382543
  0
LWPOLYLINE
  5
23D
100
AcDbEntity
  8
RACCORDO
100
AcDbPolyline
 62
7
  6
CONTINUOUS
 90
13
 70
0
 10
-21.4266635368
 20
20.0785453873
 10
-21.4967392004
 20
20.0244641146
 10
-21.5631805043
 20
19.9634885718
 10
-21.6256678488
 20
19.8960636927
 10
-21.6833822136
 20
19.8232328328
 10
-21.7362804682
 20
19.7452449474
 10
-21.7840821975
 20
19.6624071614
 10
-21.8258558117
 20
19.5763364394
 10
-21.8614389273
 20
19.4873711722
 10
-21.8905644627
 20
19.3958369452
 10
-21.9125597925
 20
19.3034665042
 10
-21.9271897925
 20
19.2109438849
 10
-21.9342679383
 20
19.1180408567
  0
LWPOLYLINE
  5
23E
100
AcDbEntity
  8
ASSI
100
AcDbPolyline
 62
7
  6
CONTINUOUS
 90
13
 70
0
 10
-21.4141638539
 20
20.0871945551
 10
-21.4851564548
 20
20.0340887504
 10
-21.5489871307
 20
19.9773792641
 10
-21.6089096109
 20
19.9152114883
 10
-21.6647720948
 20
19.8479674218
 10
-21.7160481969
 20
19.7765369994
 10
-21.7626856726
 20
19.7012052088
 10
-21.804519966
 20
19.622236361
 10
-21.8409599998
 20
19.5408025218
 10
-21.8718638273
 20
19.4571777161
 10
-21.8970422131
 20
19.3716316541
 10
-21.9160137739
 20
19.2853220636
 10
-21.9285662149
 20
19.1986964802
  0
LWPOLYLINE
  5
23F
100
AcDbEntity
  8
RACCORDO
100
AcDbPolyline
 62
253
  6
CONTINUOUS
 90
3
 70
0
 10
-21.1722329139
 20
20.0836527947
 10
-21.2289947191
 20
20.0425606585
 10
-21.2848244898
 20
19.9960444178
  0
LWPOLYLINE
  5
240
100
AcDbEntity
  8
ASSI
100
AcDbPolyline
 62
253
  6
CONTINUOUS
 90
28
 70
0
 10
-21.1722329139
 20
20.0836527947
 10
-21.210165898
 20
20.0568737031
 10
-21.247739321
 20
20.0276397413
 10
-21.2848357259
 20
19.9960411847
 10
-21.3213374014
 20
19.9621757842
 10
-21.3571320533
 20
19.9261480712
 10
-21.3921130103
 20
19.8880686269
 10
-21.4261719484
 20
19.8480535213
 10
-21.4592010585
 20
19.8062272093
 10
-21.4910987178
 20
19.7627216853
 10
-21.5217650207
 20
19.7176718238
 10
-21.5511042413
 20
19.6712163328
 10
-21.5790269394
 20
19.6235003573
 10
-21.6054455295
 20
19.5746719746
 10
-21.630277764
 20
19.5248815443
 10
-21.6534491461
 20
19.4742827633
 10
-21.6748876235
 20
19.4230314824
 10
-21.6945254684
 20
19.3712866449
 10
-21.7123026896
 20
19.319209594
 10
-21.7281637693
 20
19.2669611119
 10
-21.7420588452
 20
19.2147030992
 10
-21.7539455944
 20
19.1625994173
 10
-21.7637869031
 20
19.1108126394
 10
-21.7715522026
 20
19.059501595
 10
-21.7772184381
 20
19.0088231468
 10
-21.7807680222
 20
18.9589335898
 10
-21.7821892179
 20
18.9099880804
 10
-21.7814773554
 20
18.8621382543
  0
LINE
  5
241
100
AcDbEntity
  8
RACCORDO
100
AcDbLine
 62
7
  6
CONTINUOUS
 10
-21.4142230722
 20
20.0871543418
 11
-21.4266635368
 21
20.0785453873
  0
LINE
  5
242
100
AcDbEntity
  8
ASSI
100
AcDbLine
 62
7
  6
CONTINUOUS
 10
-17.2811193285
 20
22.9016667088
 11
-21.4143684535
 21
20.087072653
  0
LINE
  5
243
100
AcDbEntity
  8
RACCORDO
100
AcDbLine
 62
7
  6
CONTINUOUS
 10
-17.2811194204
 20
22.9016666462
 11
-21.4143684544
 21
20.0870726524
  0
LINE
  5
244
100
AcDbEntity
  8
ASSI
100
AcDbLine
 62
253
  6
CONTINUOUS
 10
-17.0405873947
 20
22.8971548526
 11
-21.1722329139
 21
20.0836527947
  0
LINE
  5
245
100
AcDbEntity
  8
RACCORDO
100
AcDbLine
 62
253
  6
CONTINUOUS
 10
-17.0405873947
 20
22.8971548526
 11
-21.1722329139
 21
20.0836527947
  0
LWPOLYLINE
  5
246
100
AcDbEntity
  8
0
100
AcDbPolyline
 62
253
  6
CONTINUOUS
 90
4
 70
0
 10
-18.8725018638
 20
11.8101207537
 10
-18.8718789006
 20
11.8111390281
 10
-18.8559575184
 20
11.8327937759
 10
-18.8376433907
 20
11.8537319519
  0
LWPOLYLINE
  5
247
100
AcDbEntity
  8
ASSI
100
AcDbPolyline
 62
253
  6
CONTINUOUS
 90
4
 70
0
 10
-18.8718621832
 20
11.8106634847
 10
-18.8649053643
 20
11.8211016565
 10
-18.8481388816
 20
11.8421704767
 10
-18.8291776163
 20
11.862327376
  0
LINE
  5
248
100
AcDbEntity
  8
RACCORDO
100
AcDbLine
 62
7
  6
CONTINUOUS
 10
-13.2095360721
 20
21.2219502796
 11
-13.3392777791
 21
21.1096565872
  0
LINE
  5
249
100
AcDbEntity
  8
RACCORDO
100
AcDbLine
 62
7
  6
CONTINUOUS
 10
-12.9779712143
 20
21.4144035306
 11
-13.3440043826
 21
21.1119392375
  0
LWPOLYLINE
  5
24A
100
AcDbEntity
  8
RACCORDO
100
AcDbPolyline
 62
253
  6
CONTINUOUS
 90
10
 70
0
 10
1.2223647781
 20
-16.2165367066
 10
1.2558054447
 20
-16.2296603825
 10
1.2933751013
 20
-16.2389574826
 10
1.3339571902
 20
-16.2441517
 10
1.3763456252
 20
-16.2450886645
 10
1.4192806361
 20
-16.2417405297
 10
1.4614862086
 20
-16.2342068008
 10
1.5017080072
 20
-16.2227113776
 10
1.5387506533
 20
-16.2075959003
 10
1.5715132519
 20
-16.1893095959
  0
LWPOLYLINE
  5
24B
100
AcDbEntity
  8
RACCORDO
100
AcDbPolyline
 62
7
  6
CONTINUOUS
 90
77
 70
0
 10
-18.9925485588
 20
11.4389999417
 10
-18.9825769355
 20
11.3966593789
 10
-18.9693748995
 20
11.353815163
 10
-18.9532308528
 20
11.310659435
 10
-18.9344162182
 20
11.2673023485
 10
-18.9132099687
 20
11.2238820501
 10
-18.8898623047
 20
11.1804923615
 10
-18.8645869696
 20
11.1371888137
 10
-18.8375785809
 20
11.0940245851
 10
-18.8089730801
 20
11.0509878591
 10
-18.778866958
 20
11.0080398778
 10
-18.7473653658
 20
10.9651836588
 10
-18.7145466534
 20
10.9224023825
 10
-18.680440063
 20
10.8796326239
 10
-18.6451072202
 20
10.8368720171
 10
-18.6085922234
 20
10.7941019223
 10
-18.5708749607
 20
10.7512446345
 10
-18.5320026014
 20
10.708306072
 10
-18.4919913199
 20
10.6652658523
 10
-18.4507687091
 20
10.6220143553
 10
-18.4083578204
 20
10.5785547434
 10
-18.3647740544
 20
10.5348809956
 10
-18.3199204402
 20
10.4908843737
 10
-18.2738240036
 20
10.4465801547
 10
-18.2264821479
 20
10.4019602391
 10
-18.1777528108
 20
10.3568868108
 10
-18.1276516648
 20
10.3113773262
 10
-18.0761777922
 20
10.2654330847
 10
-18.0231584984
 20
10.2189057657
 10
-17.9686182149
 20
10.1718282871
 10
-17.9125421758
 20
10.1241957728
 10
-17.8546917304
 20
10.0758215276
 10
-17.7950899603
 20
10.0267424534
 10
-17.7337196892
 20
9.9769614944
 10
-17.6702783173
 20
9.9262569819
 10
-17.6048006338
 20
9.8746815213
 10
-17.537254744
 20
9.8222366102
 10
-17.4672364996
 20
9.76863977
 10
-17.394794757
 20
9.7139638666
 10
-17.3198811388
 20
9.658208789
 10
-17.2419433714
 20
9.6010052196
 10
-17.1610526477
 20
9.5424553148
 10
-17.077136566
 20
9.4825547758
 10
-16.9894231618
 20
9.4208103037
 10
-16.8980282682
 20
9.3573722765
 10
-16.8028340183
 20
9.2922236529
 10
-16.7027117558
 20
9.2246750011
 10
-16.597863928
 20
9.1549586362
 10
-16.4880860562
 20
9.0830309737
 10
-16.3716326247
 20
9.0078715216
 10
-16.2488845872
 20
8.929866078
 10
-16.1194600636
 20
8.8489137049
 10
-15.9804644093
 20
8.7633957762
 10
-15.8327446553
 20
8.674057593
 10
-15.6754574942
 20
8.5806201869
 10
-15.5031690129
 20
8.4801909763
 10
-15.3232458179
 20
8.377381072
 10
-15.1283427291
 20
8.2683162796
 10
-14.8909564179
 20
8.1386184959
 10
-14.5887064781
 20
7.978320075
 10
-14.2441316377
 20
7.8020198632
 10
-13.8971048375
 20
7.6312885138
 10
-13.5479693209
 20
7.4664050094
 10
-13.1965938898
 20
7.3075157448
 10
-12.881911139
 20
7.1713728976
 10
-12.622651242
 20
7.0637316952
 10
-12.3998300395
 20
6.974620915
 10
-12.1956851736
 20
6.8958607856
 10
-12.0066703656
 20
6.825509557
 10
-11.8362366026
 20
6.7643002999
 10
-11.677225589
 20
6.7091938452
 10
-11.5284519217
 20
6.6594786106
 10
-11.3910399576
 20
6.6152286196
 10
-11.2613500448
 20
6.5750196156
 10
-11.138857215
 20
6.5385066449
 10
-11.0240454768
 20
6.505652944
 10
-10.9148158677
 20
6.4757002679
  0
LWPOLYLINE
  5
24C
100
AcDbEntity
  8
0
100
AcDbPolyline
 62
253
  6
CONTINUOUS
 90
4
 70
0
 10
-12.2375212308
 20
-14.7643211286
 10
-12.3776618458
 20
-13.3356223861
 10
-12.513597881
 20
-11.904145574
 10
-12.6278842487
 20
-10.6626496238
  0
LWPOLYLINE
  5
24D
100
AcDbEntity
  8
RACCORDO
100
AcDbPolyline
 62
7
  6
CONTINUOUS
 90
6
 70
0
 10
-10.9445520876
 20
22.0124030926
 10
-10.9194104659
 20
22.1006263298
 10
-10.8770069339
 20
22.1829748662
 10
-10.8193127404
 20
22.2543874752
 10
-10.7478193786
 20
22.3127167736
 10
-10.7191792779
 20
22.3299658482
  0
LWPOLYLINE
  5
24E
100
AcDbEntity
  8
0
100
AcDbPolyline
 62
253
  6
CONTINUOUS
 90
4
 70
0
 10
-18.8376433907
 20
11.8537319519
 10
-18.8169770297
 20
11.8737435701
 10
-18.7938970227
 20
11.8927754638
 10
-18.7683334907
 20
11.9107829941
  0
LWPOLYLINE
  5
24F
100
AcDbEntity
  8
ASSI
100
AcDbPolyline
 62
253
  6
CONTINUOUS
 90
3
 70
0
 10
-18.8291776163
 20
11.862327376
 10
-18.8080939832
 20
11.8814299226
 10
-18.7849024515
 20
11.899437179
  0
LINE
  5
250
100
AcDbEntity
  8
RACCORDO
100
AcDbLine
 62
253
  6
CONTINUOUS
 10
-9.8611582883
 20
23.1562592059
 11
-9.834469478
 21
23.1744250475
  0
LINE
  5
251
100
AcDbEntity
  8
RACCORDO
100
AcDbLine
 62
253
  6
CONTINUOUS
 10
-10.0740294639
 20
23.1767229952
 11
-10.0489877779
 21
23.1935930782
  0
LWPOLYLINE
  5
252
100
AcDbEntity
  8
RACCORDO
100
AcDbPolyline
 62
253
  6
CONTINUOUS
 90
6
 70
0
 10
-11.0521016754
 20
22.4434830717
 10
-11.5089519451
 20
22.1832822406
 10
-11.9574538979
 20
21.9035397733
 10
-12.3972433637
 20
21.6044832879
 10
-12.8272278321
 20
21.2867956392
 10
-13.1703086949
 20
21.012135672
  0
LINE
  5
253
100
AcDbEntity
  8
DRAFT
100
AcDbLine
 62
7
  6
CONTINUOUS
 10
-10.7175598205
 20
22.3308606224
 11
-10.3358745046
 21
22.5394114642
  0
LINE
  5
254
100
AcDbEntity
  8
SUPERFICI
100
AcDbLine
 62
7
  6
CONTINUOUS
 10
-7.6975442453
 20
22.781679288
 11
-7.7817199469
 21
22.7357283295
  0
LWPOLYLINE
  5
255
100
AcDbEntity
  8
RACCORDO
100
AcDbPolyline
 62
7
  6
CONTINUOUS
 90
6
 70
0
 10
-10.7771792468
 20
22.8438340793
 10
-11.1526867838
 20
22.6412360774
 10
-11.6233916121
 20
22.3647075472
 10
-12.084746478
 20
22.0679193167
 10
-12.5363936889
 20
21.7510797385
 10
-12.9779712143
 20
21.4144035306
  0
LINE
  5
256
100
AcDbEntity
  8
ASSI
100
AcDbLine
 62
7
  6
CONTINUOUS
 10
-10.1161165437
 20
23.1857342594
 11
-10.1349311514
 21
23.1755911301
  0
LINE
  5
257
100
AcDbEntity
  8
SUPERFICI
100
AcDbLine
 62
7
  6
CONTINUOUS
 10
-10.1161165437
 20
23.1857342594
 11
-10.1349311514
 21
23.1755911301
  0
LWPOLYLINE
  5
258
100
AcDbEntity
  8
RACCORDO
100
AcDbPolyline
 62
7
  6
CONTINUOUS
 90
7
 70
0
 10
-10.7770905426
 20
22.8438939734
 10
-10.9962729231
 20
22.7274939187
 10
-11.4572941943
 20
22.4649134425
 10
-11.9094975068
 20
22.1828518043
 10
-12.3525320322
 20
21.8815093649
 10
-12.7859902121
 20
21.5611328652
 10
-13.2095360721
 20
21.2219502796
  0
LWPOLYLINE
  5
259
100
AcDbEntity
  8
RACCORDO
100
AcDbPolyline
 62
253
  6
CONTINUOUS
 90
7
 70
0
 10
-10.2500322611
 20
21.4314655458
 10
-10.244309315
 20
21.4344464846
 10
-10.206850443
 20
21.4607332704
 10
-10.1751021576
 20
21.4957573299
 10
-10.1496847097
 20
21.538822854
 10
-10.1311257821
 20
21.58906182
 10
-10.1198274009
 20
21.6454217666
  0
LINE
  5
25A
100
AcDbEntity
  8
RACCORDO
100
AcDbLine
 62
7
  6
CONTINUOUS
 10
-10.765706081
 20
22.8497953614
 11
-10.7770905426
 21
22.8438939734
  0
LINE
  5
25B
100
AcDbEntity
  8
ASSI
100
AcDbLine
 62
7
  6
CONTINUOUS
 10
-10.7673440023
 20
22.8489473035
 11
-10.190667324
 21
23.147530475
  0
LINE
  5
25C
100
AcDbEntity
  8
RACCORDO
100
AcDbLine
 62
253
  6
CONTINUOUS
 10
-10.5865389186
 20
22.6843698847
 11
-11.0521016754
 21
22.4434830717
  0
LINE
  5
25D
100
AcDbEntity
  8
ASSI
100
AcDbLine
 62
7
  6
CONTINUOUS
 10
-5.0749625338
 20
25.1012831762
 11
-6.5073762836
 21
24.3649853977
  0
LINE
  5
25E
100
AcDbEntity
  8
SUPERFICI
100
AcDbLine
 62
7
  6
CONTINUOUS
 10
-5.0749625338
 20
25.1012831762
 11
-6.5073762836
 21
24.3649853977
  0
LINE
  5
25F
100
AcDbEntity
  8
RACCORDO
100
AcDbLine
 62
253
  6
CONTINUOUS
 10
-9.7727383854
 20
23.2060499671
 11
-9.834469478
 21
23.1744250475
  0
LINE
  5
260
100
AcDbEntity
  8
RACCORDO
100
AcDbLine
 62
253
  6
CONTINUOUS
 10
-9.2790938508
 20
23.4588651469
 11
-9.7727383854
 21
23.2060499671
  0
LINE
  5
261
100
AcDbEntity
  8
RACCORDO
100
AcDbLine
 62
253
  6
CONTINUOUS
 10
-9.4979448994
 20
23.4757742184
 11
-10.0489929171
 21
23.1935975582
  0
LINE
  5
262
100
AcDbEntity
  8
RACCORDO
100
AcDbLine
 62
7
  6
CONTINUOUS
 10
-10.5267280145
 20
22.9704401875
 11
-10.765706081
 21
22.8497953614
  0
LINE
  5
263
100
AcDbEntity
  8
RACCORDO
100
AcDbLine
 62
7
  6
CONTINUOUS
 10
-10.1907338975
 20
23.1475988162
 11
-9.942690892
 21
23.2720245511
  0
LINE
  5
264
100
AcDbEntity
  8
ASSI
100
AcDbLine
 62
7
  6
CONTINUOUS
 10
-9.9748073559
 20
23.2562209656
 11
-10.1161165437
 21
23.1857342594
  0
LINE
  5
265
100
AcDbEntity
  8
SUPERFICI
100
AcDbLine
 62
7
  6
CONTINUOUS
 10
-9.9748073559
 20
23.2562209656
 11
-10.1161165437
 21
23.1857342594
  0
LINE
  5
266
100
AcDbEntity
  8
RACCORDO
100
AcDbLine
 62
253
  6
CONTINUOUS
 10
-10.2514998722
 20
21.4307390695
 11
-10.2500322611
 21
21.4314655458
  0
LINE
  5
267
100
AcDbEntity
  8
ASSI
100
AcDbLine
 62
7
  6
CONTINUOUS
 10
-5.8302867851
 20
25.1800182376
 11
-7.1210664
 21
24.5458156596
  0
LINE
  5
268
100
AcDbEntity
  8
SUPERFICI
100
AcDbLine
 62
7
  6
CONTINUOUS
 10
-5.8302867851
 20
25.1800182376
 11
-7.1210664
 21
24.5458156596
  0
LINE
  5
269
100
AcDbEntity
  8
ASSI
100
AcDbLine
 62
7
  6
CONTINUOUS
 10
-7.1210664
 20
24.5458156596
 11
-8.459756637
 21
23.8883769673
  0
LINE
  5
26A
100
AcDbEntity
  8
SUPERFICI
100
AcDbLine
 62
7
  6
CONTINUOUS
 10
-7.1210664
 20
24.5458156596
 11
-8.459756637
 21
23.8883769673
  0
LINE
  5
26B
100
AcDbEntity
  8
ASSI
100
AcDbLine
 62
7
  6
CONTINUOUS
 10
-8.459756637
 20
23.8883769673
 11
-8.6135407885
 21
23.8128654136
  0
LINE
  5
26C
100
AcDbEntity
  8
SUPERFICI
100
AcDbLine
 62
7
  6
CONTINUOUS
 10
-8.459756637
 20
23.8883769673
 11
-8.6135407885
 21
23.8128654136
  0
LINE
  5
26D
100
AcDbEntity
  8
ASSI
100
AcDbLine
 62
253
  6
CONTINUOUS
 10
-5.6555698346
 20
25.2369909049
 11
-8.4488871816
 21
23.8662406201
  0
LINE
  5
26E
100
AcDbEntity
  8
SUPERFICI
100
AcDbLine
 62
253
  6
CONTINUOUS
 10
-5.6555698346
 20
25.2369909049
 11
-8.4488871816
 21
23.8662406201
  0
LINE
  5
26F
100
AcDbEntity
  8
ASSI
100
AcDbLine
 62
253
  6
CONTINUOUS
 10
-5.2575244373
 20
25.1894490201
 11
-8.0513099316
 21
23.8185506669
  0
LINE
  5
270
100
AcDbEntity
  8
SUPERFICI
100
AcDbLine
 62
253
  6
CONTINUOUS
 10
-5.2575244373
 20
25.1894490201
 11
-8.0513099316
 21
23.8185506669
  0
LINE
  5
271
100
AcDbEntity
  8
ASSI
100
AcDbLine
 62
7
  6
CONTINUOUS
 10
-7.1639029035
 20
24.6330211671
 11
-9.9448624631
 21
23.2709352265
  0
LINE
  5
272
100
AcDbEntity
  8
SUPERFICI
100
AcDbLine
 62
7
  6
CONTINUOUS
 10
-7.1639029035
 20
24.6330211671
 11
-9.9448624631
 21
23.2709352265
  0
LINE
  5
273
100
AcDbEntity
  8
DRAFT
100
AcDbLine
 62
7
  6
CONTINUOUS
 10
-10.251506451
 20
21.4307358471
 11
-9.9260893683
 21
21.5901218517
  0
LINE
  5
274
100
AcDbEntity
  8
ASSI
100
AcDbLine
 62
7
  6
CONTINUOUS
 10
-4.9089950257
 20
25.7173008847
 11
-6.6048947902
 21
24.8872708145
  0
LINE
  5
275
100
AcDbEntity
  8
RACCORDO
100
AcDbLine
 62
7
  6
CONTINUOUS
 10
-4.9089950257
 20
25.7173008847
 11
-6.6048947902
 21
24.8872708145
  0
LINE
  5
276
100
AcDbEntity
  8
ASSI
100
AcDbLine
 62
253
  6
CONTINUOUS
 10
-4.7056783267
 20
25.7055866977
 11
-5.6771445584
 21
25.2301197981
  0
LINE
  5
277
100
AcDbEntity
  8
RACCORDO
100
AcDbLine
 62
253
  6
CONTINUOUS
 10
-4.7056783267
 20
25.7055866977
 11
-5.6771445584
 21
25.2301197981
  0
LINE
  5
278
100
AcDbEntity
  8
ASSI
100
AcDbLine
 62
7
  6
CONTINUOUS
 10
-8.6402825877
 20
23.8675397527
 11
-9.1436037791
 21
23.6213408774
  0
LINE
  5
279
100
AcDbEntity
  8
SUPERFICI
100
AcDbLine
 62
7
  6
CONTINUOUS
 10
-8.6402825877
 20
23.8675397527
 11
-9.1436037791
 21
23.6213408774
  0
LINE
  5
27A
100
AcDbEntity
  8
ASSI
100
AcDbLine
 62
7
  6
CONTINUOUS
 10
-7.1467470759
 20
24.597914919
 11
-8.6402825877
 21
23.8675397527
  0
LINE
  5
27B
100
AcDbEntity
  8
SUPERFICI
100
AcDbLine
 62
7
  6
CONTINUOUS
 10
-7.1467405329
 20
24.597918118
 11
-8.6402825877
 21
23.8675397527
  0
LINE
  5
27C
100
AcDbEntity
  8
ASSI
100
AcDbLine
 62
7
  6
CONTINUOUS
 10
-6.3124273667
 20
25.0058092231
 11
-7.1467470759
 21
24.597914919
  0
LINE
  5
27D
100
AcDbEntity
  8
SUPERFICI
100
AcDbLine
 62
7
  6
CONTINUOUS
 10
-6.3124273667
 20
25.0058092231
 11
-7.1467405329
 21
24.597918118
  0
LINE
  5
27E
100
AcDbEntity
  8
ASSI
100
AcDbLine
 62
7
  6
CONTINUOUS
 10
2.5143804701
 20
29.0469835832
 11
-4.4082016012
 21
25.6665415756
  0
LINE
  5
27F
100
AcDbEntity
  8
RACCORDO
100
AcDbLine
 62
7
  6
CONTINUOUS
 10
2.5143804701
 20
29.0469835832
 11
-4.4082016012
 21
25.6665415756
  0
LINE
  5
280
100
AcDbEntity
  8
ASSI
100
AcDbLine
 62
253
  6
CONTINUOUS
 10
-4.2939172005
 20
25.6113494439
 11
2.7173149097
 21
29.0350825358
  0
LINE
  5
281
100
AcDbEntity
  8
RACCORDO
100
AcDbLine
 62
253
  6
CONTINUOUS
 10
-4.2939172005
 20
25.6113494439
 11
2.7173149097
 21
29.0350825358
  0
LINE
  5
282
100
AcDbEntity
  8
SUPERFICI
100
AcDbLine
 62
7
  6
CONTINUOUS
 10
-5.982220162
 20
24.4489244041
 11
-6.3421095278
 21
24.2751549384
  0
LWPOLYLINE
  5
283
100
AcDbEntity
  8
ASSI
100
AcDbPolyline
 62
7
  6
CONTINUOUS
 90
13
 70
0
 10
-8.7385599066
 20
23.4714053336
 10
-8.7464894849
 20
23.4675817263
 10
-8.7785533834
 20
23.4559979005
 10
-8.8121665692
 20
23.4496848372
 10
-8.8471158206
 20
23.448858913
 10
-8.8836143593
 20
23.4533037512
 10
-8.9208472249
 20
23.4628961377
 10
-8.9590772669
 20
23.4778528402
 10
-8.9980416359
 20
23.497957091
 10
-9.0361368225
 20
23.5224353718
 10
-9.0728283237
 20
23.5510298436
 10
-9.1086506426
 20
23.5839983454
 10
-9.1436037791
 20
23.6213408774
  0
LWPOLYLINE
  5
284
100
AcDbEntity
  8
SUPERFICI
100
AcDbPolyline
 62
7
  6
CONTINUOUS
 90
13
 70
0
 10
-8.7385599066
 20
23.4714053336
 10
-8.7464894849
 20
23.4675817263
 10
-8.7785533834
 20
23.4559979005
 10
-8.8121665692
 20
23.4496848372
 10
-8.8471158206
 20
23.448858913
 10
-8.8836143593
 20
23.4533037512
 10
-8.9208472249
 20
23.4628961377
 10
-8.9590772669
 20
23.4778528402
 10
-8.9980416359
 20
23.497957091
 10
-9.0361368225
 20
23.5224353718
 10
-9.0728283237
 20
23.5510298436
 10
-9.1086506426
 20
23.5839983454
 10
-9.1436037791
 20
23.6213408774
  0
LINE
  5
285
100
AcDbEntity
  8
ASSI
100
AcDbLine
 62
7
  6
CONTINUOUS
 10
-9.6360364719
 20
23.4149885318
 11
-9.9748073559
 21
23.2562209656
  0
LINE
  5
286
100
AcDbEntity
  8
SUPERFICI
100
AcDbLine
 62
7
  6
CONTINUOUS
 10
-9.6360364719
 20
23.4149885318
 11
-9.9748073559
 21
23.2562209656
  0
LINE
  5
287
100
AcDbEntity
  8
RACCORDO
100
AcDbLine
 62
7
  6
CONTINUOUS
 10
-10.0489929171
 20
23.1935975582
 11
-10.5267280145
 21
22.9704401875
  0
LINE
  5
288
100
AcDbEntity
  8
RACCORDO
100
AcDbLine
 62
253
  6
CONTINUOUS
 10
-10.1122636749
 20
22.9059426796
 11
-10.5865389186
 21
22.6843698847
  0
LINE
  5
289
100
AcDbEntity
  8
RACCORDO
100
AcDbLine
 62
7
  6
CONTINUOUS
 10
-9.942690892
 20
23.2720245511
 11
-9.4979448994
 21
23.4757742184
  0
LWPOLYLINE
  5
28A
100
AcDbEntity
  8
ASSI
100
AcDbPolyline
 62
253
  6
CONTINUOUS
 90
9
 70
0
 10
2.5140842121
 20
29.0468385419
 10
2.5233851008
 20
29.0510521023
 10
2.5482981441
 20
29.0594629789
 10
2.5745672251
 20
29.0643156336
 10
2.6017811372
 20
29.0654703987
 10
2.6297098774
 20
29.0631288517
 10
2.6583250543
 20
29.057441063
 10
2.6875520907
 20
29.0481877582
 10
2.7173149485
 20
29.035082517
  0
LWPOLYLINE
  5
28B
100
AcDbEntity
  8
RACCORDO
100
AcDbPolyline
 62
253
  6
CONTINUOUS
 90
9
 70
0
 10
2.5140842121
 20
29.0468385419
 10
2.5233851008
 20
29.0510521023
 10
2.5482981441
 20
29.0594629789
 10
2.5745672251
 20
29.0643156336
 10
2.6017811372
 20
29.0654703987
 10
2.6297098774
 20
29.0631288517
 10
2.6583250543
 20
29.057441063
 10
2.6875520907
 20
29.0481877582
 10
2.7173149485
 20
29.035082517
  0
LWPOLYLINE
  5
28C
100
AcDbEntity
  8
ASSI
100
AcDbPolyline
 62
253
  6
CONTINUOUS
 90
10
 70
0
 10
-4.9089950257
 20
25.7173008847
 10
-4.8979079121
 20
25.7222606507
 10
-4.8764959018
 20
25.7294418529
 10
-4.8540323554
 20
25.7340049718
 10
-4.8306621991
 20
25.7359021852
 10
-4.8065474187
 20
25.7351065482
 10
-4.7818585051
 20
25.7316542342
 10
-4.7567353123
 20
25.7255838215
 10
-4.7312991286
 20
25.71689127
 10
-4.7056783173
 20
25.7055866931
  0
LWPOLYLINE
  5
28D
100
AcDbEntity
  8
RACCORDO
100
AcDbPolyline
 62
253
  6
CONTINUOUS
 90
10
 70
0
 10
-4.9089950257
 20
25.7173008847
 10
-4.8979079121
 20
25.7222606507
 10
-4.8764959018
 20
25.7294418529
 10
-4.8540323554
 20
25.7340049718
 10
-4.8306621991
 20
25.7359021852
 10
-4.8065474187
 20
25.7351065482
 10
-4.7818585051
 20
25.7316542342
 10
-4.7567353123
 20
25.7255838215
 10
-4.7312991286
 20
25.71689127
 10
-4.7056783173
 20
25.7055866931
  0
LWPOLYLINE
  5
28E
100
AcDbEntity
  8
ASSI
100
AcDbPolyline
 62
253
  6
CONTINUOUS
 90
9
 70
0
 10
-4.7056783173
 20
25.7055866931
 10
-4.6790617179
 20
25.7173707145
 10
-4.6526786636
 20
25.7262132938
 10
-4.6267211257
 20
25.7320500898
 10
-4.6013779794
 20
25.7348386321
 10
-4.5768336296
 20
25.7345586303
 10
-4.5532666686
 20
25.7312121219
 10
-4.5308485772
 20
25.7248234571
 10
-4.5154627144
 20
25.7183419041
  0
LWPOLYLINE
  5
28F
100
AcDbEntity
  8
RACCORDO
100
AcDbPolyline
 62
253
  6
CONTINUOUS
 90
9
 70
0
 10
-4.7056783173
 20
25.7055866931
 10
-4.6790617179
 20
25.7173707145
 10
-4.6526786636
 20
25.7262132938
 10
-4.6267211257
 20
25.7320500898
 10
-4.6013779794
 20
25.7348386321
 10
-4.5768336296
 20
25.7345586303
 10
-4.5532666686
 20
25.7312121219
 10
-4.5308485772
 20
25.7248234571
 10
-4.5154627144
 20
25.7183419041
  0
LINE
  5
290
100
AcDbEntity
  8
ASSI
100
AcDbLine
 62
7
  6
CONTINUOUS
 10
-5.0750223033
 20
24.1482948819
 11
-5.2250898342
 21
24.0832783793
  0
LINE
  5
291
100
AcDbEntity
  8
SUPERFICI
100
AcDbLine
 62
7
  6
CONTINUOUS
 10
-5.0750223033
 20
24.1482948819
 11
-5.2250898342
 21
24.0832783793
  0
LWPOLYLINE
  5
292
100
AcDbEntity
  8
ASSI
100
AcDbPolyline
 62
253
  6
CONTINUOUS
 90
6
 70
0
 10
2.7173149485
 20
29.035082517
 10
2.7495941036
 20
29.0490052247
 10
2.7814686955
 20
29.0585737722
 10
2.81259721
 20
29.0636856392
 10
2.8426461268
 20
29.0642860556
 10
2.8712934924
 20
29.0603685883
  0
LWPOLYLINE
  5
293
100
AcDbEntity
  8
RACCORDO
100
AcDbPolyline
 62
253
  6
CONTINUOUS
 90
6
 70
0
 10
2.7173149485
 20
29.035082517
 10
2.7495941036
 20
29.0490052247
 10
2.7814686955
 20
29.0585737722
 10
2.81259721
 20
29.0636856392
 10
2.8426461268
 20
29.0642860556
 10
2.8712934924
 20
29.0603685883
  0
LINE
  5
294
100
AcDbEntity
  8
ASSI
100
AcDbLine
 62
7
  6
CONTINUOUS
 10
-9.1436037791
 20
23.6213408774
 11
-9.6360364719
 21
23.4149885318
  0
LINE
  5
295
100
AcDbEntity
  8
SUPERFICI
100
AcDbLine
 62
7
  6
CONTINUOUS
 10
-9.1436037791
 20
23.6213408774
 11
-9.6360364719
 21
23.4149885318
  0
LWPOLYLINE
  5
296
100
AcDbEntity
  8
ASSI
100
AcDbPolyline
 62
7
  6
CONTINUOUS
 90
7
 70
0
 10
-6.3124273667
 20
25.0058092231
 10
-6.4724156068
 20
24.9422943477
 10
-6.6312126123
 20
24.8763400439
 10
-6.7888183833
 20
24.8079463115
 10
-6.9452480767
 20
24.7371059926
 10
-7.1004865354
 20
24.6638262452
 10
-7.1639093539
 20
24.6330177787
  0
LWPOLYLINE
  5
297
100
AcDbEntity
  8
RACCORDO
100
AcDbPolyline
 62
7
  6
CONTINUOUS
 90
7
 70
0
 10
-6.3124273667
 20
25.0058092231
 10
-6.4724156068
 20
24.9422943477
 10
-6.6312126123
 20
24.8763400439
 10
-6.7888183833
 20
24.8079463115
 10
-6.9452480767
 20
24.7371059926
 10
-7.1004865354
 20
24.6638262452
 10
-7.1639093539
 20
24.6330177787
  0
LWPOLYLINE
  5
298
100
AcDbEntity
  8
RACCORDO
100
AcDbPolyline
 62
7
  6
CONTINUOUS
 90
7
 70
0
 10
-9.4979448994
 20
23.4757742184
 10
-9.4652434771
 20
23.4865967355
 10
-9.4310325538
 20
23.4919629743
 10
-9.3953121295
 20
23.4918729349
 10
-9.3580822043
 20
23.4863266172
 10
-9.319342778
 20
23.4753240212
 10
-9.2790938508
 20
23.4588651469
  0
LWPOLYLINE
  5
299
100
AcDbEntity
  8
ASSI
100
AcDbPolyline
 62
7
  6
CONTINUOUS
 90
7
 70
0
 10
-5.6555698346
 20
25.2369909049
 10
-5.6847745974
 20
25.2276897873
 10
-5.7139452518
 20
25.2183109389
 10
-5.7430817978
 20
25.2088543598
 10
-5.7721842353
 20
25.1993200498
 10
-5.8012525645
 20
25.1897080091
 10
-5.8302867851
 20
25.1800182376
  0
LWPOLYLINE
  5
29A
100
AcDbEntity
  8
SUPERFICI
100
AcDbPolyline
 62
7
  6
CONTINUOUS
 90
7
 70
0
 10
-5.6555698346
 20
25.2369909049
 10
-5.6847745974
 20
25.2276897873
 10
-5.7139452518
 20
25.2183109389
 10
-5.7430817978
 20
25.2088543598
 10
-5.7721842353
 20
25.1993200498
 10
-5.8012525645
 20
25.1897080091
 10
-5.8302867851
 20
25.1800182376
  0
LWPOLYLINE
  5
29B
100
AcDbEntity
  8
ASSI
100
AcDbPolyline
 62
7
  6
CONTINUOUS
 90
7
 70
0
 10
-8.4488871816
 20
23.8662406201
 10
-8.4764047389
 20
23.8575166997
 10
-8.5038921804
 20
23.8487240004
 10
-8.5313495061
 20
23.8398625222
 10
-8.558776716
 20
23.8309322649
 10
-8.5861738102
 20
23.8219332288
 10
-8.6135407885
 20
23.8128654136
  0
LWPOLYLINE
  5
29C
100
AcDbEntity
  8
SUPERFICI
100
AcDbPolyline
 62
7
  6
CONTINUOUS
 90
7
 70
0
 10
-8.4488871816
 20
23.8662406201
 10
-8.4764047389
 20
23.8575166997
 10
-8.5038921804
 20
23.8487240004
 10
-8.5313495061
 20
23.8398625222
 10
-8.558776716
 20
23.8309322649
 10
-8.5861738102
 20
23.8219332288
 10
-8.6135407885
 20
23.8128654136
  0
LWPOLYLINE
  5
29D
100
AcDbEntity
  8
RACCORDO
100
AcDbPolyline
 62
253
  6
CONTINUOUS
 90
10
 70
0
 10
1.0440293603
 20
-16.9772164203
 10
1.071937028
 20
-17.0077481946
 10
1.1038194851
 20
-17.0342558881
 10
1.1387992726
 20
-17.056009963
 10
1.1759136884
 20
-17.0724117087
 10
1.2141412807
 20
-17.083009721
 10
1.2524299609
 20
-17.0875123249
 10
1.2897259591
 20
-17.0857956009
 10
1.3250028268
 20
-17.0779067947
 10
1.3572896846
 20
-17.064063019
  0
LWPOLYLINE
  5
29E
100
AcDbEntity
  8
RACCORDO
100
AcDbPolyline
 62
253
  6
CONTINUOUS
 90
25
 70
0
 10
-10.8305619103
 20
21.7786030856
 10
-10.8303498369
 20
21.7696376104
 10
-10.8292543642
 20
21.7601802718
 10
-10.827275492
 20
21.7502310699
 10
-10.824471591
 20
21.7396608184
 10
-10.8207842906
 20
21.7285987036
 10
-10.8160384791
 20
21.7174322841
 10
-10.8101452769
 20
21.7060359133
 10
-10.8031935636
 20
21.6945352378
 10
-10.7952748656
 20
21.6836947565
 10
-10.7862232689
 20
21.6734641177
 10
-10.7762046875
 20
21.6638936729
 10
-10.7658083896
 20
21.6558989762
 10
-10.7549694017
 20
21.6496348825
 10
-10.7437526973
 20
21.6449465368
 10
-10.7329424654
 20
21.6422849281
 10
-10.7225920765
 20
21.6418302127
 10
-10.7126481602
 20
21.6434022343
 10
-10.7037347941
 20
21.646911513
 10
-10.6959269484
 20
21.6524821229
 10
-10.6891496529
 20
21.6599899899
 10
-10.6838020748
 20
21.6689734113
 10
-10.6800172697
 20
21.6792784863
 10
-10.677662182
 20
21.6910591157
 10
-10.6767368116
 20
21.7043152995
  0
LWPOLYLINE
  5
29F
100
AcDbEntity
  8
RACCORDO
100
AcDbPolyline
 62
253
  6
CONTINUOUS
 90
25
 70
0
 10
-10.6767368116
 20
21.7043152995
 10
-10.6769488633
 20
21.7132799977
 10
-10.6780441475
 20
21.7227364918
 10
-10.6800226643
 20
21.732684782
 10
-10.682826023
 20
21.7432539693
 10
-10.6865126142
 20
21.7543149526
 10
-10.6912576101
 20
21.7654804284
 10
-10.6971498228
 20
21.776876056
 10
-10.7041004401
 20
21.7883761761
 10
-10.7120181977
 20
21.7992165071
 10
-10.7210690301
 20
21.8094475378
 10
-10.7310870028
 20
21.8190187793
 10
-10.7414830475
 20
21.8270144831
 10
-10.7523222817
 20
21.833279859
 10
-10.7635395879
 20
21.8379696971
 10
-10.7743505456
 20
21.84063262
 10
-10.7847017689
 20
21.8410883648
 10
-10.7946466436
 20
21.8395171943
 10
-10.803560907
 20
21.8360085189
 10
-10.8113695535
 20
21.8304382383
 10
-10.8181475887
 20
21.8229304528
 10
-10.8234957665
 20
21.8139468737
 10
-10.8272810051
 20
21.8036414046
 10
-10.8296363864
 20
21.791860142
 10
-10.8305619103
 20
21.7786030856
  0
LINE
  5
2A0
100
AcDbEntity
  8
RACCORDO
100
AcDbLine
 62
253
  6
CONTINUOUS
 10
-10.1198274009
 20
21.6454217666
 11
-10.1160307485
 21
21.7067355696
  0
LINE
  5
2A1
100
AcDbEntity
  8
RACCORDO
100
AcDbLine
 62
7
  6
CONTINUOUS
 10
-10.9526983702
 20
21.9224962732
 11
-10.9445520876
 21
22.0124030926
  0
LWPOLYLINE
  5
2A2
100
AcDbEntity
  8
RACCORDO
100
AcDbPolyline
 62
253
  6
CONTINUOUS
 90
9
 70
0
 10
-9.9977627159
 20
22.9000653401
 10
-9.9924201651
 20
22.9357174735
 10
-9.9830656011
 20
22.9720232155
 10
-9.969923722
 20
23.008110492
 10
-9.953310198
 20
23.0431124759
 10
-9.93362409
 20
23.0761884086
 10
-9.9113382633
 20
23.1065437953
 10
-9.8869880295
 20
23.1334494892
 10
-9.8611582883
 20
23.1562592059
  0
LINE
  5
2A3
100
AcDbEntity
  8
ASSI
100
AcDbLine
 62
253
  6
CONTINUOUS
 10
-18.7849024515
 20
11.899437179
 11
-18.7572110771
 21
11.9178026958
  0
LWPOLYLINE
  5
2A4
100
AcDbEntity
  8
RACCORDO
100
AcDbPolyline
 62
7
  6
CONTINUOUS
 90
15
 70
0
 10
-18.8172647358
 20
11.8508720104
 10
-18.8357000304
 20
11.838736059
 10
-18.8595499054
 20
11.82110972
 10
-18.8824695009
 20
11.8016638066
 10
-18.9041464634
 20
11.7803688872
 10
-18.9242954103
 20
11.7572038658
 10
-18.9427475999
 20
11.732015273
 10
-18.9591755538
 20
11.704844549
 10
-18.973141723
 20
11.6760875433
 10
-18.984481521
 20
11.6458584911
 10
-18.9930463692
 20
11.6143700845
 10
-18.9986962585
 20
11.5823107
 10
-19.0015313459
 20
11.5501284976
 10
-19.0017633274
 20
11.5180144346
 10
-19.0014384922
 20
11.5099420013
  0
LINE
  5
2A5
100
AcDbEntity
  8
0
100
AcDbLine
 62
253
  6
CONTINUOUS
 10
-18.7683334907
 20
11.9107829941
 11
-18.7572105454
 21
11.9178030209
  0
LINE
  5
2A6
100
AcDbEntity
  8
RACCORDO
100
AcDbLine
 62
7
  6
CONTINUOUS
 10
-18.8172488142
 20
11.8508819936
 11
-18.8171674343
 21
11.8509330124
  0
LINE
  5
2A7
100
AcDbEntity
  8
0
100
AcDbLine
 62
7
  6
CONTINUOUS
 10
-18.6250452071
 20
11.9713606329
 11
-18.8171674016
 21
11.8509328629
  0
LWPOLYLINE
  5
2A8
100
AcDbEntity
  8
RACCORDO
100
AcDbPolyline
 62
253
  6
CONTINUOUS
 90
9
 70
0
 10
-18.8171674343
 20
11.8509330124
 10
-18.8071791698
 20
11.8570147262
 10
-18.7934790774
 20
11.8648134887
 10
-18.7791071606
 20
11.8723860231
 10
-18.7640020013
 20
11.8797460434
 10
-18.748163039
 20
11.8868734083
 10
-18.7315834936
 20
11.8937501213
 10
-18.7141907944
 20
11.9003866115
 10
-18.6959821767
 20
11.9067624906
  0
LWPOLYLINE
  5
2A9
100
AcDbEntity
  8
RACCORDO
100
AcDbPolyline
 62
7
  6
CONTINUOUS
 90
10
 70
0
 10
-10.2500321377
 20
21.4314656063
 10
-10.2896812722
 20
21.4142193622
 10
-10.3879259136
 20
21.3894831184
 10
-10.4916508252
 20
21.387761377
 10
-10.5949938908
 20
21.4101246202
 10
-10.6977870804
 20
21.4591887479
 10
-10.7891691146
 20
21.5322763548
 10
-10.8576777637
 20
21.6158364863
 10
-10.9064016462
 20
21.7048974162
 10
-10.9395783408
 20
21.8059614728
  0
LINE
  5
2AA
100
AcDbEntity
  8
ASSI
100
AcDbLine
 62
7
  6
CONTINUOUS
 10
-3.2919476688
 20
24.6690477744
 11
-3.7477733908
 21
24.507202884
  0
LINE
  5
2AB
100
AcDbEntity
  8
SUPERFICI
100
AcDbLine
 62
7
  6
CONTINUOUS
 10
-3.2919476688
 20
24.6690477744
 11
-3.7477733908
 21
24.507202884
  0
LINE
  5
2AC
100
AcDbEntity
  8
ASSI
100
AcDbLine
 62
7
  6
CONTINUOUS
 10
-4.0427752997
 20
23.5122952951
 11
-3.7478292213
 21
23.6170184676
  0
LINE
  5
2AD
100
AcDbEntity
  8
0
100
AcDbLine
 62
7
  6
CONTINUOUS
 10
-4.0427752997
 20
23.5122952951
 11
-3.7478292213
 21
23.6170184676
  0
LINE
  5
2AE
100
AcDbEntity
  8
ASSI
100
AcDbLine
 62
7
  6
CONTINUOUS
 10
-4.0493313702
 20
23.5154614622
 11
-3.7478292213
 21
23.6170184676
  0
LINE
  5
2AF
100
AcDbEntity
  8
0
100
AcDbLine
 62
7
  6
CONTINUOUS
 10
-4.0493313702
 20
23.5154614622
 11
-3.7478292213
 21
23.6170184676
  0
LWPOLYLINE
  5
2B0
100
AcDbEntity
  8
ASSI
100
AcDbPolyline
 62
7
  6
CONTINUOUS
 90
11
 70
0
 10
-8.6135407885
 20
23.8128654136
 10
-8.6094699398
 20
23.7643624656
 10
-8.6094398873
 20
23.718458975
 10
-8.613450631
 20
23.6751549419
 10
-8.6216852194
 20
23.6339321793
 10
-8.633960604
 20
23.5953088742
 10
-8.6497276388
 20
23.5608395875
 10
-8.6689658545
 20
23.5308455634
 10
-8.6916957204
 20
23.5050055577
 10
-8.7174294986
 20
23.4839103994
 10
-8.7385599066
 20
23.4714053336
  0
LWPOLYLINE
  5
2B1
100
AcDbEntity
  8
SUPERFICI
100
AcDbPolyline
 62
7
  6
CONTINUOUS
 90
11
 70
0
 10
-8.6135407885
 20
23.8128654136
 10
-8.6094699398
 20
23.7643624656
 10
-8.6094398873
 20
23.718458975
 10
-8.613450631
 20
23.6751549419
 10
-8.6216852194
 20
23.6339321793
 10
-8.633960604
 20
23.5953088742
 10
-8.6497276388
 20
23.5608395875
 10
-8.6689658545
 20
23.5308455634
 10
-8.6916957204
 20
23.5050055577
 10
-8.7174294986
 20
23.4839103994
 10
-8.7385599066
 20
23.4714053336
  0
LINE
  5
2B2
100
AcDbEntity
  8
0
100
AcDbLine
 62
7
  6
CONTINUOUS
 10
-8.8703842198
 20
6.6620563822
 11
-8.8687877016
 21
6.6400749999
  0
LINE
  5
2B3
100
AcDbEntity
  8
ASSI
100
AcDbLine
 62
253
  6
CONTINUOUS
 10
-8.8101819368
 20
6.6022608132
 11
-8.8077164671
 21
6.56777737
  0
LWPOLYLINE
  5
2B4
100
AcDbEntity
  8
RACCORDO
100
AcDbPolyline
 62
253
  6
CONTINUOUS
 90
22
 70
0
 10
-8.9027420891
 20
6.6860493874
 10
-8.9023749037
 20
6.6780046628
 10
-8.9021540091
 20
6.6696892392
 10
-8.9021002238
 20
6.6611210764
 10
-8.9022338714
 20
6.6523261595
 10
-8.9025754507
 20
6.6433176968
 10
-8.9031477034
 20
6.6340979358
 10
-8.9039718009
 20
6.6246914947
 10
-8.9050680339
 20
6.6151230711
 10
-8.9064600711
 20
6.605399634
 10
-8.9081678305
 20
6.5955491197
 10
-8.9102093046
 20
6.5855999624
 10
-8.9126064725
 20
6.5755640088
 10
-8.9153763049
 20
6.5654691132
 10
-8.9185325266
 20
6.5553454802
 10
-8.9220918395
 20
6.5452110753
 10
-8.9260657135
 20
6.5350935281
 10
-8.9304634805
 20
6.5250183053
 10
-8.9352970274
 20
6.5150009428
 10
-8.940566924
 20
6.5050756568
 10
-8.9462837562
 20
6.4952518645
 10
-8.95247525
 20
6.4855114217
  0
LWPOLYLINE
  5
2B5
100
AcDbEntity
  8
RACCORDO
100
AcDbPolyline
 62
253
  6
CONTINUOUS
 90
80
 70
0
 10
-9.0440161145
 20
6.6796719989
 10
-9.0437374502
 20
6.673428077
 10
-9.043605268
 20
6.6669933503
 10
-9.0436195575
 20
6.6603678248
 10
-9.0437628714
 20
6.6535439109
 10
-9.0440526353
 20
6.646529211
 10
-9.0445411481
 20
6.63934652
 10
-9.0452270996
 20
6.6319932803
 10
-9.0461117754
 20
6.6244720642
 10
-9.0472513674
 20
6.6168133613
 10
-9.0486458794
 20
6.6090141083
 10
-9.0502952809
 20
6.6010773846
 10
-9.0522557121
 20
6.5930428941
 10
-9.0545291989
 20
6.5849073646
 10
-9.0571136876
 20
6.576674085
 10
-9.0600591999
 20
6.5683925994
 10
-9.0633687102
 20
6.5600625305
 10
-9.0670392173
 20
6.5516842717
 10
-9.0711117832
 20
6.5433085217
 10
-9.0755832872
 20
6.5349438445
 10
-9.0804568258
 20
6.5265816905
 10
-9.0857827891
 20
6.5182470868
 10
-9.0915577621
 20
6.5099417285
 10
-9.097785134
 20
6.5016639358
 10
-9.1045255008
 20
6.4934336742
 10
-9.1117793127
 20
6.4852471858
 10
-9.1195460907
 20
6.4771082456
 10
-9.127885036
 20
6.4690481184
 10
-9.1367982409
 20
6.4610639869
 10
-9.1462835832
 20
6.4531586862
 10
-9.1563939441
 20
6.4453719601
 10
-9.1671303913
 20
6.4377033583
 10
-9.1784918281
 20
6.4301533484
 10
-9.1905278911
 20
6.4227630499
 10
-9.2032313447
 20
6.4155354743
 10
-9.2166093976
 20
6.4084676261
 10
-9.2307333535
 20
6.4015916136
 10
-9.2455996471
 20
6.3949060491
 10
-9.261211815
 20
6.3884123373
 10
-9.2776518131
 20
6.3821467757
 10
-9.2949178057
 20
6.3761070388
 10
-9.313011598
 20
6.3702954702
 10
-9.3320206068
 20
6.364755372
 10
-9.3519454498
 20
6.3594842622
 10
-9.3727854778
 20
6.3544846416
 10
-9.3946262079
 20
6.3498072859
 10
-9.4174802748
 20
6.3454495712
 10
-9.4413350128
 20
6.34141414
 10
-9.4662379929
 20
6.3377596658
 10
-9.4921941296
 20
6.3344873421
 10
-9.5191984839
 20
6.3315959901
 10
-9.5472838538
 20
6.3291407199
 10
-9.5764487731
 20
6.327123257
 10
-9.606694691
 20
6.3255418861
 10
-9.6380587854
 20
6.3244465522
 10
-9.6705273919
 20
6.3238373685
 10
-9.7041141645
 20
6.3237142281
 10
-9.7388972628
 20
6.3241267428
 10
-9.77485872
 20
6.3250716881
 10
-9.8120164948
 20
6.3265522935
 10
-9.8505026359
 20
6.3286278526
 10
-9.8903132216
 20
6.3312940716
 10
-9.9314521639
 20
6.3345552502
 10
-9.9740632621
 20
6.3384835714
 10
-10.0181467197
 20
6.3430753456
 10
-10.0637023239
 20
6.3483342682
 10
-10.110873251
 20
6.3543435991
 10
-10.1596667791
 20
6.3611014937
 10
-10.2100756235
 20
6.3686098007
 10
-10.2622211206
 20
6.3769573178
 10
-10.3161011825
 20
6.3861413941
 10
-10.3717178971
 20
6.3961646808
 10
-10.429198871
 20
6.4071239243
 10
-10.4885307815
 20
6.4190133818
 10
-10.5497269586
 20
6.4318387919
 10
-10.6129549954
 20
6.4457141193
 10
-10.6781995852
 20
6.4606312997
 10
-10.7454760487
 20
6.4765983892
 10
-10.8149979267
 20
6.4937535298
 10
-10.8867596799
 20
6.5120896756
  0
LWPOLYLINE
  5
2B6
100
AcDbEntity
  8
0
100
AcDbPolyline
 62
7
  6
CONTINUOUS
 90
7
 70
0
 10
-8.8687873267
 20
6.6400681122
 10
-8.8685674043
 20
6.6351021177
 10
-8.8686357854
 20
6.5999969245
 10
-8.8715610076
 20
6.5680493646
 10
-8.8770320599
 20
6.5396200755
 10
-8.8845290652
 20
6.515048971
 10
-8.8936515064
 20
6.4938834655
  0
LWPOLYLINE
  5
2B7
100
AcDbEntity
  8
RACCORDO
100
AcDbPolyline
 62
253
  6
CONTINUOUS
 90
3
 70
0
 10
-10.1160307485
 20
21.7067355696
 10
-10.1176208263
 20
21.7484868477
 10
-10.1226708473
 20
21.7933666792
  0
LWPOLYLINE
  5
2B8
100
AcDbEntity
  8
ASSI
100
AcDbPolyline
 62
7
  6
CONTINUOUS
 90
7
 70
0
 10
-8.8687849813
 20
6.640021458
 10
-8.8683688362
 20
6.6288979923
 10
-8.8687210672
 20
6.5982229211
 10
-8.8712931462
 20
6.5699939849
 10
-8.8758721535
 20
6.5444953043
 10
-8.8821916499
 20
6.5217420239
 10
-8.8899122254
 20
6.5017870535
  0
LINE
  5
2B9
100
AcDbEntity
  8
0
100
AcDbLine
 62
253
  6
CONTINUOUS
 10
-8.8077164671
 20
6.56777737
 11
-8.8066370201
 21
6.5343952763
  0
LINE
  5
2BA
100
AcDbEntity
  8
ASSI
100
AcDbLine
 62
253
  6
CONTINUOUS
 10
-8.8077164671
 20
6.56777737
 11
-8.8067727206
 21
6.5342760467
  0
LINE
  5
2BB
100
AcDbEntity
  8
ASSI
100
AcDbLine
 62
7
  6
CONTINUOUS
 10
-7.9038729086
 20
22.8813229726
 11
-7.9038783399
 21
22.7947231011
  0
LINE
  5
2BC
100
AcDbEntity
  8
SUPERFICI
100
AcDbLine
 62
7
  6
CONTINUOUS
 10
-7.9038729086
 20
22.8813229726
 11
-7.9038783399
 21
22.7947231011
  0
LWPOLYLINE
  5
2BD
100
AcDbEntity
  8
ASSI
100
AcDbPolyline
 62
253
  6
CONTINUOUS
 90
8
 70
0
 10
-8.8067727206
 20
6.5342760467
 10
-8.8077886585
 20
6.5013403202
 10
-8.8107642022
 20
6.4689702374
 10
-8.8156045041
 20
6.4370960488
 10
-8.8224042482
 20
6.4057876016
 10
-8.8314476662
 20
6.3752543294
 10
-8.8426944759
 20
6.3455151363
 10
-8.856184831
 20
6.3165511951
  0
LWPOLYLINE
  5
2BE
100
AcDbEntity
  8
0
100
AcDbPolyline
 62
253
  6
CONTINUOUS
 90
7
 70
0
 10
-8.8066370201
 20
6.5343952763
 10
-8.807683596
 20
6.5012032965
 10
-8.810856021
 20
6.4682015342
 10
-8.8160436452
 20
6.4351566611
 10
-8.8233567309
 20
6.4023022359
 10
-8.8331265871
 20
6.3703386241
 10
-8.8454444148
 20
6.3393295338
  0
LWPOLYLINE
  5
2BF
100
AcDbEntity
  8
RACCORDO
100
AcDbPolyline
 62
253
  6
CONTINUOUS
 90
10
 70
0
 10
-2.0758262099
 20
19.0248520603
 10
-2.0529128552
 20
19.0462488976
 10
-2.0260008602
 20
19.0687551402
 10
-1.9958102496
 20
19.0917686385
 10
-1.9631487664
 20
19.1146736715
 10
-1.9288902615
 20
19.1368574198
 10
-1.8939513137
 20
19.1577263623
 10
-1.8592667069
 20
19.176722155
 10
-1.8257644203
 20
19.1933365696
 10
-1.7943408002
 20
19.2071250912
  0
LINE
  5
2C0
100
AcDbEntity
  8
ASSI
100
AcDbLine
 62
7
  6
CONTINUOUS
 10
1.0197285747
 20
22.5867810617
 11
0.7121304965
 21
22.3533516016
  0
LINE
  5
2C1
100
AcDbEntity
  8
SUPERFICI
100
AcDbLine
 62
7
  6
CONTINUOUS
 10
1.0197285747
 20
22.5867810617
 11
0.7121304965
 21
22.3533516016
  0
LINE
  5
2C2
100
AcDbEntity
  8
ASSI
100
AcDbLine
 62
7
  6
CONTINUOUS
 10
2.0505425761
 20
22.442759645
 11
0.8292438008
 21
21.5489204559
  0
LINE
  5
2C3
100
AcDbEntity
  8
0
100
AcDbLine
 62
7
  6
CONTINUOUS
 10
2.0505425761
 20
22.442759645
 11
0.8292438008
 21
21.5489204559
  0
LINE
  5
2C4
100
AcDbEntity
  8
RACCORDO
100
AcDbLine
 62
253
  6
CONTINUOUS
 10
-1.794338744
 20
19.2071222114
 11
-1.3178665087
 21
19.5253141238
  0
LINE
  5
2C5
100
AcDbEntity
  8
RACCORDO
100
AcDbLine
 62
253
  6
CONTINUOUS
 10
-2.0181671526
 20
19.3996457669
 11
-1.5367064212
 21
19.7197820824
  0
LINE
  5
2C6
100
AcDbEntity
  8
SUPERFICI
100
AcDbLine
 62
7
  6
CONTINUOUS
 10
-2.9557799718
 20
20.4917072798
 11
-3.034080325
 21
20.4429188998
  0
LINE
  5
2C7
100
AcDbEntity
  8
0
100
AcDbLine
 62
7
  6
CONTINUOUS
 10
-18.7549470333
 20
11.9191818809
 11
-18.740040662
 21
11.927649297
  0
LINE
  5
2C8
100
AcDbEntity
  8
SUPERFICI
100
AcDbLine
 62
7
  6
CONTINUOUS
 10
-1.3601799559
 20
22.2167715423
 11
-1.6949494385
 21
22.0308707631
  0
LINE
  5
2C9
100
AcDbEntity
  8
DRAFT
100
AcDbLine
 62
7
  6
CONTINUOUS
 10
-2.8048271173
 20
18.509511573
 11
-2.4231418014
 21
18.7180624147
  0
LWPOLYLINE
  5
2CA
100
AcDbEntity
  8
ASSI
100
AcDbPolyline
 62
7
  6
CONTINUOUS
 90
10
 70
0
 10
1.0539228524
 20
21.4483283295
 10
0.7551299573
 20
21.290198611
 10
0.4553085067
 20
21.1317413607
 10
0.1544574949
 20
20.9729529433
 10
-0.1474295027
 20
20.8138283095
 10
-0.450347721
 20
20.6543650152
 10
-0.7542814651
 20
20.4945640268
 10
-1.0592261542
 20
20.3344239852
 10
-1.3651880655
 20
20.173940407
 10
-1.6721679058
 20
20.0131102644
  0
LWPOLYLINE
  5
2CB
100
AcDbEntity
  8
SUPERFICI
100
AcDbPolyline
 62
7
  6
CONTINUOUS
 90
10
 70
0
 10
1.0539228524
 20
21.4483283295
 10
0.7551299573
 20
21.290198611
 10
0.4553085067
 20
21.1317413607
 10
0.1544574949
 20
20.9729529433
 10
-0.1474295027
 20
20.8138283095
 10
-0.450347721
 20
20.6543650152
 10
-0.7542814651
 20
20.4945640268
 10
-1.0592261542
 20
20.3344239852
 10
-1.3651880655
 20
20.173940407
 10
-1.6721679058
 20
20.0131102644
  0
LWPOLYLINE
  5
2CC
100
AcDbEntity
  8
ASSI
100
AcDbPolyline
 62
7
  6
CONTINUOUS
 90
3
 70
0
 10
-18.754599738
 20
11.9193913011
 10
-18.7077398085
 20
11.9432576681
 10
-18.6427395622
 20
11.9667469649
  0
LINE
  5
2CD
100
AcDbEntity
  8
ASSI
100
AcDbLine
 62
253
  6
CONTINUOUS
 10
-2.7643708503
 20
21.2652937339
 11
-0.000893141
 21
22.650828829
  0
LINE
  5
2CE
100
AcDbEntity
  8
SUPERFICI
100
AcDbLine
 62
253
  6
CONTINUOUS
 10
-2.7643708503
 20
21.2652937339
 11
-0.000893141
 21
22.650828829
  0
LINE
  5
2CF
100
AcDbEntity
  8
ASSI
100
AcDbLine
 62
253
  6
CONTINUOUS
 10
-2.366811702
 20
20.928983136
 11
0.3971341076
 21
22.3139180142
  0
LINE
  5
2D0
100
AcDbEntity
  8
SUPERFICI
100
AcDbLine
 62
253
  6
CONTINUOUS
 10
-2.366811702
 20
20.928983136
 11
0.3971341076
 21
22.3139180142
  0
LWPOLYLINE
  5
2D1
100
AcDbEntity
  8
ASSI
100
AcDbPolyline
 62
7
  6
CONTINUOUS
 90
6
 70
0
 10
-0.6528258846
 20
21.4846343207
 10
-0.96105077
 20
21.3322144962
 10
-1.2700966004
 20
21.1791987131
 10
-1.5799629547
 20
21.0255911333
 10
-1.890654879
 20
20.8713856397
 10
-2.2021747641
 20
20.7165814392
  0
LWPOLYLINE
  5
2D2
100
AcDbEntity
  8
SUPERFICI
100
AcDbPolyline
 62
7
  6
CONTINUOUS
 90
6
 70
0
 10
-0.6528258846
 20
21.4846343207
 10
-0.96105077
 20
21.3322144962
 10
-1.2700966004
 20
21.1791987131
 10
-1.5799629547
 20
21.0255911333
 10
-1.890654879
 20
20.8713856397
 10
-2.2021747641
 20
20.7165814392
  0
LINE
  5
2D3
100
AcDbEntity
  8
ASSI
100
AcDbLine
 62
7
  6
CONTINUOUS
 10
-0.3454272193
 20
21.63644339
 11
-0.6528258846
 21
21.4846343207
  0
LINE
  5
2D4
100
AcDbEntity
  8
SUPERFICI
100
AcDbLine
 62
7
  6
CONTINUOUS
 10
-0.3454272193
 20
21.63644339
 11
-0.6528258846
 21
21.4846343207
  0
LWPOLYLINE
  5
2D5
100
AcDbEntity
  8
ASSI
100
AcDbPolyline
 62
7
  6
CONTINUOUS
 90
4
 70
0
 10
0.5718333283
 20
22.0881994529
 10
0.2668982022
 20
21.9382222372
 10
-0.038854355
 20
21.7876372673
 10
-0.3454272193
 20
21.63644339
  0
LWPOLYLINE
  5
2D6
100
AcDbEntity
  8
SUPERFICI
100
AcDbPolyline
 62
7
  6
CONTINUOUS
 90
4
 70
0
 10
0.5718333283
 20
22.0881994529
 10
0.2668982022
 20
21.9382222372
 10
-0.038854355
 20
21.7876372673
 10
-0.3454272193
 20
21.63644339
  0
LINE
  5
2D7
100
AcDbEntity
  8
ASSI
100
AcDbLine
 62
7
  6
CONTINUOUS
 10
-0.1834550445
 20
22.7389946729
 11
-1.6686044766
 21
22.028164891
  0
LINE
  5
2D8
100
AcDbEntity
  8
SUPERFICI
100
AcDbLine
 62
7
  6
CONTINUOUS
 10
-0.1834550445
 20
22.7389946729
 11
-1.6686044766
 21
22.028164891
  0
LWPOLYLINE
  5
2D9
100
AcDbEntity
  8
0
100
AcDbPolyline
 62
7
  6
CONTINUOUS
 90
3
 70
0
 10
-18.740040662
 20
11.927649297
 10
-18.7005797782
 20
11.9463034059
 10
-18.6556035216
 20
11.9627571727
  0
LWPOLYLINE
  5
2DA
100
AcDbEntity
  8
0
100
AcDbPolyline
 62
253
  6
CONTINUOUS
 90
81
 70
0
 10
-13.6153764498
 20
2.1486221093
 10
-13.6935607504
 20
2.1880882456
 10
-13.7713780276
 20
2.2307897823
 10
-13.8488862379
 20
2.276749479
 10
-13.926143338
 20
2.3259900955
 10
-14.0032072844
 20
2.3785343915
 10
-14.080096591
 20
2.4343801683
 10
-14.1566720009
 20
2.4934253934
 10
-14.2327548144
 20
2.5555430756
 10
-14.3081663318
 20
2.6206062241
 10
-14.3827278536
 20
2.6884878477
 10
-14.4562747029
 20
2.7590641334
 10
-14.5286982946
 20
2.8322239795
 10
-14.5999040661
 20
2.9078594624
 10
-14.6697974553
 20
2.9858626583
 10
-14.7382838996
 20
3.0661256435
 10
-14.8052673145
 20
3.1485359846
 10
-14.8706455263
 20
3.2329632095
 10
-14.9343148392
 20
3.3192723364
 10
-14.9961715572
 20
3.4073283835
 10
-15.0561119846
 20
3.496996369
 10
-15.1140359166
 20
3.5881398699
 10
-15.169857114
 20
3.6806166978
 10
-15.2234928285
 20
3.7742832235
 10
-15.274860312
 20
3.8689958173
 10
-15.3238768164
 20
3.9646108499
 10
-15.3704624978
 20
4.0609835729
 10
-15.4145491295
 20
4.1579647634
 10
-15.4560713891
 20
4.2554040795
 10
-15.4949639542
 20
4.3531511795
 10
-15.5311615024
 20
4.4510557215
 10
-15.5646023683
 20
4.5489673894
 10
-15.5952395148
 20
4.6467359699
 10
-15.623029562
 20
4.7442112752
 10
-15.6479291298
 20
4.8412431176
 10
-15.6698948383
 20
4.9376813094
 10
-15.6888871502
 20
5.0333765647
 10
-15.7048818996
 20
5.1281832047
 10
-15.7178587634
 20
5.2219564523
 10
-15.7277974183
 20
5.3145515304
 10
-15.7346775413
 20
5.4058236622
 10
-15.7384828237
 20
5.4956298899
 10
-15.7392130152
 20
5.5838345337
 10
-15.7368718798
 20
5.6703037333
 10
-15.7314631817
 20
5.754903628
 10
-15.7229906849
 20
5.8375003576
 10
-15.7114621282
 20
5.9179627499
 10
-15.6969011479
 20
5.9961703859
 10
-15.6793353552
 20
6.072005535
 10
-15.6587923609
 20
6.1453504664
 10
-15.6352997762
 20
6.2160874496
 10
-15.6088890837
 20
6.2841022597
 10
-15.5796072528
 20
6.3492946956
 10
-15.5475051247
 20
6.411568062
 10
-15.5126335406
 20
6.4708256636
 10
-15.4750433415
 20
6.5269708052
 10
-15.434788581
 20
6.5799108159
 10
-15.3919361617
 20
6.6295691228
 10
-15.3465561989
 20
6.6758731775
 10
-15.2987188075
 20
6.7187504315
 10
-15.2484941027
 20
6.7581283362
 10
-15.1959560138
 20
6.7939393263
 10
-15.1411937281
 20
6.8261357685
 10
-15.0843002469
 20
6.8546750124
 10
-15.0253685718
 20
6.8795144079
 10
-14.9644917043
 20
6.9006113047
 10
-14.9017617328
 20
6.91792643
 10
-14.8372670937
 20
6.9314340218
 10
-14.7710953101
 20
6.9411116955
 10
-14.7033339055
 20
6.9469370664
 10
-14.6340704032
 20
6.9488877501
 10
-14.5634061682
 20
6.9469518371
 10
-14.4914979335
 20
6.941159319
 10
-14.418516274
 20
6.9315506622
 10
-14.3446317643
 20
6.9181663335
 10
-14.2700149792
 20
6.9010467995
 10
-14.1947984505
 20
6.8802198923
 10
-14.1189625378
 20
6.8556629061
 10
-14.0424495574
 20
6.8273405007
 10
-13.9652018258
 20
6.7952173359
 10
-13.8871616595
 20
6.7592580714
  0
LWPOLYLINE
  5
2DB
100
AcDbEntity
  8
0
100
AcDbPolyline
 62
253
  6
CONTINUOUS
 90
5
 70
0
 10
-8.8896649003
 20
6.8923948181
 10
-8.8727595517
 20
6.8507238592
 10
-8.8579487701
 20
6.8101012287
 10
-8.8451435964
 20
6.7708885037
 10
-8.8344086256
 20
6.7331380903
  0
LWPOLYLINE
  5
2DC
100
AcDbEntity
  8
0
100
AcDbPolyline
 62
7
  6
CONTINUOUS
 90
5
 70
0
 10
-8.9361885097
 20
6.8989519545
 10
-8.914934706
 20
6.8456892674
 10
-8.8977715621
 20
6.7947590864
 10
-8.8848732428
 20
6.7473514024
 10
-8.8758671824
 20
6.7033494447
  0
LWPOLYLINE
  5
2DD
100
AcDbEntity
  8
ASSI
100
AcDbPolyline
 62
7
  6
CONTINUOUS
 90
5
 70
0
 10
-8.9348961221
 20
6.895925625
 10
-8.9145199685
 20
6.8445614789
 10
-8.8979557008
 20
6.79536313
 10
-8.8851888704
 20
6.7486691912
 10
-8.876123245
 20
6.7048517911
  0
LWPOLYLINE
  5
2DE
100
AcDbEntity
  8
ASSI
100
AcDbPolyline
 62
253
  6
CONTINUOUS
 90
4
 70
0
 10
-8.8846223522
 20
6.8805155094
 10
-8.8674060544
 20
6.8365691846
 10
-8.8524880553
 20
6.7940777909
 10
-8.8398298602
 20
6.7530200137
  0
LINE
  5
2DF
100
AcDbEntity
  8
ASSI
100
AcDbLine
 62
253
  6
CONTINUOUS
 10
-8.8398298602
 20
6.7530200137
 11
-8.8294701111
 21
6.7134170809
  0
LWPOLYLINE
  5
2E0
100
AcDbEntity
  8
0
100
AcDbPolyline
 62
253
  6
CONTINUOUS
 90
3
 70
0
 10
-8.8344086256
 20
6.7331380903
 10
-8.8256794424
 20
6.6967974764
 10
-8.8186737217
 20
6.6620707725
  0
LINE
  5
2E1
100
AcDbEntity
  8
ASSI
100
AcDbLine
 62
253
  6
CONTINUOUS
 10
-8.8294701111
 20
6.7134170809
 11
-8.8211088341
 21
6.6751075319
  0
LWPOLYLINE
  5
2E2
100
AcDbEntity
  8
RACCORDO
100
AcDbPolyline
 62
253
  6
CONTINUOUS
 90
17
 70
0
 10
-10.1226708473
 20
21.7933666792
 10
-10.131576475
 20
21.8410835064
 10
-10.1446725728
 20
21.8911365314
 10
-10.1622820883
 20
21.9430723025
 10
-10.1847646002
 20
21.9964699912
 10
-10.2124097806
 20
22.0506298513
 10
-10.2452418525
 20
22.1043711002
 10
-10.2830587962
 20
22.1563350186
 10
-10.3257917054
 20
22.2054527428
 10
-10.3728077981
 20
22.2500710893
 10
-10.4226209313
 20
22.2881656406
 10
-10.4742604356
 20
22.3186247398
 10
-10.5267677852
 20
22.3405169504
 10
-10.5784079171
 20
22.3529019593
 10
-10.6279387221
 20
22.3554762004
 10
-10.6744841324
 20
22.3481882139
 10
-10.7175605435
 20
22.3308602274
  0
LWPOLYLINE
  5
2E3
100
AcDbEntity
  8
ASSI
100
AcDbPolyline
 62
253
  6
CONTINUOUS
 90
3
 70
0
 10
-8.8211088341
 20
6.6751075319
 10
-8.8146460816
 20
6.6380375206
 10
-8.8101819368
 20
6.6022608132
  0
LWPOLYLINE
  5
2E4
100
AcDbEntity
  8
0
100
AcDbPolyline
 62
253
  6
CONTINUOUS
 90
4
 70
0
 10
-8.8186737217
 20
6.6620707725
 10
-8.8132974834
 20
6.6290259399
 10
-8.8096450178
 20
6.5975948337
 10
-8.8077164671
 20
6.56777737
  0
LWPOLYLINE
  5
2E5
100
AcDbEntity
  8
RACCORDO
100
AcDbPolyline
 62
253
  6
CONTINUOUS
 90
19
 70
0
 10
-3.5562240602
 20
-22.8866585847
 10
-3.5511590931
 20
-22.9200697804
 10
-3.5438063044
 20
-22.9512420407
 10
-3.5341656944
 20
-22.9801753655
 10
-3.5221355614
 20
-23.0070463075
 10
-3.507817607
 20
-23.031678314
 10
-3.4915169355
 20
-23.0535417274
 10
-3.4731972974
 20
-23.0725702232
 10
-3.4528949422
 20
-23.0888301259
 10
-3.4310237229
 20
-23.1019907518
 10
-3.407548333
 20
-23.1119895876
 10
-3.382504079
 20
-23.1188891466
 10
-3.3564107325
 20
-23.1225462856
 10
-3.3292331916
 20
-23.1228862418
 10
-3.3010065581
 20
-23.119983778
 10
-3.2723559093
 20
-23.1139200393
 10
-3.2434896041
 20
-23.1047220741
 10
-3.2141992836
 20
-23.0923628339
 10
-3.1844849477
 20
-23.0768423187
  0
LWPOLYLINE
  5
2E6
100
AcDbEntity
  8
RACCORDO
100
AcDbPolyline
 62
253
  6
CONTINUOUS
 90
11
 70
0
 10
-4.2542542132
 20
-22.9431813562
 10
-4.2443720139
 20
-23.0093323967
 10
-4.2297159562
 20
-23.0717917936
 10
-4.2103856466
 20
-23.1301230878
 10
-4.1865084681
 20
-23.1839252222
 10
-4.158251437
 20
-23.2328138634
 10
-4.1258250873
 20
-23.2764300803
 10
-4.089464391
 20
-23.3144665005
 10
-4.049416818
 20
-23.3466731622
 10
-4.0059528495
 20
-23.372835304
 10
-3.9984364142
 20
-23.3765756423
  0
LWPOLYLINE
  5
2E7
100
AcDbEntity
  8
ASSI
100
AcDbPolyline
 62
253
  6
CONTINUOUS
 90
25
 70
0
 10
-3.5562240602
 20
-22.8866585847
 10
-3.5527840877
 20
-22.9114315711
 10
-3.5480095186
 20
-22.9351323927
 10
-3.541900353
 20
-22.9577610498
 10
-3.5344221871
 20
-22.9794317363
 10
-3.5256094248
 20
-23.0000302581
 10
-3.5155652772
 20
-23.0192140328
 10
-3.5042675423
 20
-23.0369432742
 10
-3.4917384222
 20
-23.0532577685
 10
-3.4781477345
 20
-23.0679342915
 10
-3.4634938738
 20
-23.0809368609
 10
-3.4477784455
 20
-23.0923014589
 10
-3.4311760835
 20
-23.1019128085
 10
-3.4136805996
 20
-23.1097568552
 10
-3.395298182
 20
-23.1158476534
 10
-3.376222029
 20
-23.1201120886
 10
-3.3564237745
 20
-23.1225297948
 10
-3.3359317847
 20
-23.1231211381
 10
-3.3150243568
 20
-23.121874102
 10
-3.2936804504
 20
-23.1187446649
 10
-3.271921106
 20
-23.1137768485
 10
-3.2500877417
 20
-23.1070907008
 10
-3.2282941636
 20
-23.098726238
 10
-3.2064265656
 20
-23.088643444
 10
-3.1844849477
 20
-23.0768423187
  0
LWPOLYLINE
  5
2E8
100
AcDbEntity
  8
ASSI
100
AcDbPolyline
 62
7
  6
CONTINUOUS
 90
3
 70
0
 10
-8.876123245
 20
6.7048517911
 10
-8.8706078471
 20
6.6643630315
 10
-8.8687886874
 20
6.6400948908
  0
LWPOLYLINE
  5
2E9
100
AcDbEntity
  8
ASSI
100
AcDbPolyline
 62
253
  6
CONTINUOUS
 90
15
 70
0
 10
-4.2542542132
 20
-22.9431813562
 10
-4.2481989647
 20
-22.9876839166
 10
-4.2400092113
 20
-23.030606154
 10
-4.2297104401
 20
-23.0718153443
 10
-4.2173346889
 20
-23.1111832351
 10
-4.2029203089
 20
-23.1485892152
 10
-4.1865113114
 20
-23.1839201496
 10
-4.1681568229
 20
-23.2170680113
 10
-4.1479139849
 20
-23.2479283522
 10
-4.1258475663
 20
-23.2764033967
 10
-4.1020258206
 20
-23.3024048504
 10
-4.0765216832
 20
-23.325852952
 10
-4.04941528
 20
-23.3466745861
 10
-4.0207899681
 20
-23.3648056136
 10
-3.9984368116
 20
-23.3765754499
  0
LINE
  5
2EA
100
AcDbEntity
  8
0
100
AcDbLine
 62
7
  6
CONTINUOUS
 10
-8.8758671824
 20
6.7033494447
 11
-8.8703842198
 21
6.6620563822
  0
LINE
  5
2EB
100
AcDbEntity
  8
RACCORDO
100
AcDbLine
 62
7
  6
CONTINUOUS
 10
-10.9395783408
 20
21.8059614728
 11
-10.9526983702
 21
21.9224962731
  0
LWPOLYLINE
  5
2EC
100
AcDbEntity
  8
RACCORDO
100
AcDbPolyline
 62
253
  6
CONTINUOUS
 90
10
 70
0
 10
-6.7684726194
 20
11.6118072336
 10
-6.6094868418
 20
7.7008870811
 10
-6.4203612845
 20
3.8070658603
 10
-6.2011122302
 20
-0.0693239753
 10
-5.9517584902
 20
-3.9279514427
 10
-5.672321395
 20
-7.7684871766
 10
-5.3628247897
 20
-11.5906034555
 10
-5.0232950432
 20
-15.3939740722
 10
-4.653761049
 20
-19.1782743638
 10
-4.2542542132
 20
-22.9431813562
  0
LWPOLYLINE
  5
2ED
100
AcDbEntity
  8
RACCORDO
100
AcDbPolyline
 62
253
  6
CONTINUOUS
 90
10
 70
0
 10
-6.067928248
 20
11.6337750165
 10
-5.909073357
 20
7.7262329792
 10
-5.7201445461
 20
3.836426745
 10
-5.5011418155
 20
-0.0356436859
 10
-5.252041056
 20
-3.8903100107
 10
-4.9728663767
 20
-7.7272405322
 10
-4.6636901048
 20
-11.5454401595
 10
-4.3245363492
 20
-15.3445771955
 10
-3.9553810011
 20
-19.1249833372
 10
-3.5562240602
 20
-22.8866585847
  0
LWPOLYLINE
  5
2EE
100
AcDbEntity
  8
ASSI
100
AcDbPolyline
 62
253
  6
CONTINUOUS
 90
16
 70
0
 10
-6.7684726194
 20
11.6118072336
 10
-6.6766986853
 20
9.2632223737
 10
-6.5740722733
 20
6.920743815
 10
-6.4605965548
 20
4.5844435715
 10
-6.3362749504
 20
2.2543917063
 10
-6.2011113483
 20
-0.0693383858
 10
-6.0551101857
 20
-2.3866700289
 10
-5.8982762942
 20
-4.6975277942
 10
-5.7306143151
 20
-7.0018449658
 10
-5.5521288592
 20
-9.2995582203
 10
-5.362824974
 20
-11.5906011894
 10
-5.1627087594
 20
-13.8748991465
 10
-4.9517868652
 20
-16.1523765243
 10
-4.7300659723
 20
-18.4229615858
 10
-4.4975527099
 20
-20.6865863727
 10
-4.2542542132
 20
-22.9431813562
  0
LWPOLYLINE
  5
2EF
100
AcDbEntity
  8
ASSI
100
AcDbPolyline
 62
253
  6
CONTINUOUS
 90
16
 70
0
 10
-6.067928248
 20
11.6337750165
 10
-5.9762609067
 20
9.2878260692
 10
-5.8737527003
 20
6.9479853136
 10
-5.7604036287
 20
4.6142527499
 10
-5.6362091067
 20
2.2865246401
 10
-5.5011737196
 20
-0.0350952778
 10
-5.3553112237
 20
-2.3502957905
 10
-5.1986190841
 20
-4.6590710104
 10
-5.0310998357
 20
-6.9614268249
 10
-4.8527748392
 20
-9.2570696832
 10
-4.6636409489
 20
-11.5460020703
 10
-4.4637013105
 20
-13.8282215011
 10
-4.2529867226
 20
-16.1034269687
 10
-4.0315074514
 20
-18.3715181373
 10
-3.7992532306
 20
-20.6325953426
 10
-3.5562240602
 20
-22.8866585847
  0
LINE
  5
2F0
100
AcDbEntity
  8
ASSI
100
AcDbLine
 62
7
  6
CONTINUOUS
 10
-5.0749625338
 20
25.1012831762
 11
-5.0750309261
 21
24.0108094248
  0
LINE
  5
2F1
100
AcDbEntity
  8
SUPERFICI
100
AcDbLine
 62
7
  6
CONTINUOUS
 10
-5.0749625338
 20
25.1012831762
 11
-5.0750309261
 21
24.0108094248
  0
LWPOLYLINE
  5
2F2
100
AcDbEntity
  8
RACCORDO
100
AcDbPolyline
 62
7
  6
CONTINUOUS
 90
6
 70
0
 10
-3.0318193844
 20
18.1910540431
 10
-3.0066777627
 20
18.2792772804
 10
-2.9642742307
 20
18.3616258168
 10
-2.9065800372
 20
18.4330384258
 10
-2.8350866753
 20
18.4913677241
 10
-2.8064465747
 20
18.5086167988
  0
LWPOLYLINE
  5
2F3
100
AcDbEntity
  8
0
100
AcDbPolyline
 62
253
  6
CONTINUOUS
 90
126
 70
0
 10
-8.8454444148
 20
6.3393295338
 10
-8.8602188807
 20
6.3092113361
 10
-8.8775077226
 20
6.2804932549
 10
-8.8973645751
 20
6.2532751794
 10
-8.919735898
 20
6.2274571651
 10
-8.9445188345
 20
6.2032485848
 10
-8.9717344833
 20
6.1807107639
 10
-9.0013619489
 20
6.159782257
 10
-9.0332354621
 20
6.1404882337
 10
-9.0673338573
 20
6.1228624096
 10
-9.1036785382
 20
6.1068709281
 10
-9.1421676044
 20
6.092437592
 10
-9.1827646772
 20
6.0795602479
 10
-9.2255063473
 20
6.0682409235
 10
-9.2704001458
 20
6.0584097066
 10
-9.3174344909
 20
6.0500495514
 10
-9.3666211353
 20
6.0431774025
 10
-9.418002588
 20
6.0377743473
 10
-9.4715507814
 20
6.0338293295
 10
-9.5272939341
 20
6.0313533157
 10
-9.5853589669
 20
6.0303604394
 10
-9.6457164802
 20
6.0308358989
 10
-9.7083960016
 20
6.0327944197
 10
-9.7736128255
 20
6.0362944355
 10
-9.84137586
 20
6.0413240281
 10
-9.9116763032
 20
6.0478950526
 10
-9.9847028752
 20
6.056101608
 10
-10.0604938498
 20
6.0659437085
 10
-10.1390110567
 20
6.0774212783
 10
-10.2203285593
 20
6.0906282758
 10
-10.3044474653
 20
6.1055602792
 10
-10.3913667866
 20
6.1222216391
 10
-10.4811574625
 20
6.140719461
 10
-10.5737725902
 20
6.161035922
 10
-10.6692592096
 20
6.1831887635
 10
-10.7678291927
 20
6.207338426
 10
-10.8694471289
 20
6.2334660252
 10
-10.9741485739
 20
6.2615903589
 10
-11.0822518635
 20
6.2919283829
 10
-11.1937695808
 20
6.324472856
 10
-11.3086892936
 20
6.3592309293
 10
-11.4272918345
 20
6.3964411357
 10
-11.5496027329
 20
6.4361027104
 10
-11.6755966226
 20
6.4782163208
 10
-11.8054780176
 20
6.523022632
 10
-11.9391517115
 20
6.5704686326
 10
-12.0767130869
 20
6.620607229
 10
-12.2186525681
 20
6.673837947
 10
-12.364836064
 20
6.7300739697
 10
-12.5153978437
 20
6.7894020076
 10
-12.6712308988
 20
6.852481861
 10
-12.8326777591
 20
6.9194301863
 10
-12.9993960654
 20
6.990130225
 10
-13.1712515038
 20
7.0648916387
 10
-13.3488650382
 20
7.1440170047
 10
-13.5316158504
 20
7.2272036585
 10
-13.717506963
 20
7.3138533926
 10
-13.9074216541
 20
7.4044944562
 10
-14.1004766971
 20
7.4985985693
 10
-14.2920253345
 20
7.5939827446
 10
-14.4818877207
 20
7.6907177767
 10
-14.6702436002
 20
7.7887329313
 10
-14.8529855803
 20
7.88563294
 10
-15.028983905
 20
7.9808999696
 10
-15.1993681425
 20
8.0750519656
 10
-15.3634199166
 20
8.1672473089
 10
-15.5206329526
 20
8.2571852355
 10
-15.6715133445
 20
8.3451666175
 10
-15.8168613251
 20
8.4312522576
 10
-15.9566517974
 20
8.5153843328
 10
-16.0909097054
 20
8.5976207576
 10
-16.2205103888
 20
8.6781959137
 10
-16.3455024562
 20
8.7571069674
 10
-16.4658371683
 20
8.8343568304
 10
-16.5822438724
 20
8.9101884852
 10
-16.6948066382
 20
8.9846361985
 10
-16.8034412791
 20
9.0576657733
 10
-16.9086247811
 20
9.1294174835
 10
-17.010390287
 20
9.1998999248
 10
-17.1087045532
 20
9.2691045616
 10
-17.2039450045
 20
9.337145959
 10
-17.2961270911
 20
9.4040231557
 10
-17.3852352757
 20
9.469737165
 10
-17.4716005155
 20
9.5344055057
 10
-17.5552388264
 20
9.598026182
 10
-17.6361341141
 20
9.6606012362
 10
-17.7145691777
 20
9.7222542403
 10
-17.7905605492
 20
9.7829859755
 10
-17.8640916191
 20
9.8427957066
 10
-17.9353954746
 20
9.9018047315
 10
-18.0044949003
 20
9.9600233112
 10
-18.0713670283
 20
10.0174412343
 10
-18.136176463
 20
10.0741490921
 10
-18.1989405129
 20
10.130154905
 10
-18.2596417798
 20
10.1854507058
 10
-18.3183928042
 20
10.2401031065
 10
-18.3752016191
 20
10.2941126675
 10
-18.430060095
 20
10.3474788855
 10
-18.4830565225
 20
10.4002667812
 10
-18.5341915512
 20
10.4524682594
 10
-18.5834644247
 20
10.5040914786
 10
-18.6309613114
 20
10.5552258476
 10
-18.6766905375
 20
10.6058630898
 10
-18.7206436497
 20
10.6560115572
 10
-18.7628816231
 20
10.7057856154
 10
-18.8034612374
 20
10.7552420062
 10
-18.8423255442
 20
10.8043240878
 10
-18.8793649099
 20
10.8529761605
 10
-18.9145959747
 20
10.9012372321
 10
-18.9480019227
 20
10.9490683989
 10
-18.9794229532
 20
10.9962970835
 10
-19.0088321044
 20
11.0429189857
 10
-19.0362561963
 20
11.0889384896
 10
-19.0616161429
 20
11.1341960185
 10
-19.0848987031
 20
11.1787335366
 10
-19.1061170164
 20
11.2225091398
 10
-19.1252316474
 20
11.2652374017
 10
-19.1421999254
 20
11.3069438748
 10
-19.1570645286
 20
11.3476030017
 10
-19.1699141834
 20
11.3868526095
 10
-19.180684391
 20
11.4246402234
 10
-19.1894398303
 20
11.4610182109
 10
-19.1964631426
 20
11.495781574
 10
-19.2018486707
 20
11.5288619036
 10
-19.2055023831
 20
11.5603274239
 10
-19.2074244224
 20
11.5901780501
  0
LWPOLYLINE
  5
2F4
100
AcDbEntity
  8
ASSI
100
AcDbPolyline
 62
7
  6
CONTINUOUS
 90
8
 70
0
 10
-8.8899122254
 20
6.5017870535
 10
-8.8987966226
 20
6.4842782642
 10
-8.9090133418
 20
6.4683112754
 10
-8.9206445358
 20
6.4535506118
 10
-8.933619048
 20
6.43991672
 10
-8.9482208136
 20
6.4269986174
 10
-8.9645625003
 20
6.4146946983
 10
-8.9741014005
 20
6.4083174883
  0
LINE
  5
2F5
100
AcDbEntity
  8
0
100
AcDbLine
 62
7
  6
CONTINUOUS
 10
-8.8936515064
 20
6.4938834655
 11
-8.9045262492
 21
6.4748993437
  0
LWPOLYLINE
  5
2F6
100
AcDbEntity
  8
ASSI
100
AcDbPolyline
 62
253
  6
CONTINUOUS
 90
110
 70
0
 10
-8.856184831
 20
6.3165511951
 10
-8.8723236226
 20
6.2885153404
 10
-8.891184534
 20
6.2613181489
 10
-8.9126937063
 20
6.2350491487
 10
-8.9370347819
 20
6.2101295634
 10
-8.9642575736
 20
6.1866152878
 10
-8.9943122638
 20
6.1644504305
 10
-9.0272331787
 20
6.1438884593
 10
-9.063032387
 20
6.124979211
 10
-9.1016979232
 20
6.1076727881
 10
-9.143228138
 20
6.0920730111
 10
-9.1876127038
 20
6.0781955201
 10
-9.2348620914
 20
6.0660245905
 10
-9.2850058812
 20
6.0556169775
 10
-9.3380270406
 20
6.046970631
 10
-9.3939427572
 20
6.0400875093
 10
-9.4528339539
 20
6.0350303732
 10
-9.5146859308
 20
6.0317947858
 10
-9.579513547
 20
6.0303850895
 10
-9.6474420701
 20
6.0308772101
 10
-9.7184575311
 20
6.0332630687
 10
-9.7925740582
 20
6.0375506498
 10
-9.8699590691
 20
6.0438399705
 10
-9.9505978319
 20
6.0521204689
 10
-10.0345052386
 20
6.0624026119
 10
-10.1218931512
 20
6.0748179553
 10
-10.2127442552
 20
6.0893500616
 10
-10.3070760286
 20
6.106015271
 10
-10.4051525349
 20
6.124994298
 10
-10.5069558039
 20
6.1462649748
 10
-10.6125039794
 20
6.1698493659
 10
-10.722115318
 20
6.1959945206
 10
-10.8357741508
 20
6.2246828448
 10
-10.9534963411
 20
6.2559318167
 10
-11.0756474755
 20
6.290041075
 10
-11.2022099408
 20
6.3269905031
 10
-11.3332015674
 20
6.3668000881
 10
-11.4690411447
 20
6.4098296013
 10
-11.6097054668
 20
6.4560512451
 10
-11.7552179785
 20
6.5054926745
 10
-11.9060674877
 20
6.5585968147
 10
-12.0622203815
 20
6.6153153632
 10
-12.2237105282
 20
6.67569647
 10
-12.3911280057
 20
6.7403277102
 10
-12.5644487746
 20
6.809158318
 10
-12.7436971387
 20
6.8822389012
 10
-12.9295357398
 20
6.9603090661
 10
-13.1221221729
 20
7.0433966813
 10
-13.3212990823
 20
7.1314737352
 10
-13.5272567164
 20
7.2251959935
 10
-13.7426975446
 20
7.3259540457
 10
-13.9649192314
 20
7.4323572221
 10
-14.1860047955
 20
7.5408894136
 10
-14.4057634014
 20
7.6517816549
 10
-14.6243857721
 20
7.7648029785
 10
-14.8345272283
 20
7.8757442923
 10
-15.0333181959
 20
7.9831920778
 10
-15.2236279895
 20
8.0885600086
 10
-15.4067203037
 20
8.1918797567
 10
-15.5826324222
 20
8.2930975957
 10
-15.7513267888
 20
8.3922674148
 10
-15.9139549065
 20
8.4895822692
 10
-16.0705980697
 20
8.5850308322
 10
-16.2211747318
 20
8.6786245812
 10
-16.3665921898
 20
8.7705907436
 10
-16.5069346146
 20
8.8609468972
 10
-16.6421176009
 20
8.9496756042
 10
-16.7727956222
 20
9.036951545
 10
-16.8990365035
 20
9.1227977951
 10
-17.0207722019
 20
9.2071914091
 10
-17.1384534234
 20
9.2902380155
 10
-17.2521249894
 20
9.3719537992
 10
-17.3617418792
 20
9.4523226941
 10
-17.4676200661
 20
9.5314019351
 10
-17.5697780153
 20
9.6091876581
 10
-17.6681970839
 20
9.685683833
 10
-17.7631376066
 20
9.7609594317
 10
-17.8546158849
 20
9.8350138194
 10
-17.9426154507
 20
9.90784773
 10
-18.0273474996
 20
9.9795321803
 10
-18.1088261937
 20
10.0500703987
 10
-18.1870372081
 20
10.1194592535
 10
-18.2621490152
 20
10.1877602165
 10
-18.3341759422
 20
10.2549789566
 10
-18.4031035002
 20
10.3211099007
 10
-18.4690569431
 20
10.3861976545
 10
-18.5320511586
 20
10.4502528003
 10
-18.5920710972
 20
10.5132648518
 10
-18.6491971145
 20
10.5752468073
 10
-18.7034471167
 20
10.6362132169
 10
-18.7548030411
 20
10.6961496234
 10
-18.8032913033
 20
10.7550255063
 10
-18.8489250477
 20
10.8128693845
 10
-18.8916909854
 20
10.8696528246
 10
-18.9315759147
 20
10.9252598586
 10
-18.9685689395
 20
10.9797248622
 10
-19.0026808546
 20
11.0330135194
 10
-19.0339310715
 20
11.0849067791
 10
-19.0622786579
 20
11.1354256215
 10
-19.0877645473
 20
11.184549065
 10
-19.1105310802
 20
11.2319950376
 10
-19.1304871871
 20
11.2775944841
 10
-19.1477241199
 20
11.3215163508
 10
-19.1626577737
 20
11.3639855244
 10
-19.175326905
 20
11.405023732
 10
-19.1856929052
 20
11.4446091583
 10
-19.194055612
 20
11.4829013819
 10
-19.2005150159
 20
11.5199535692
 10
-19.2049712634
 20
11.5557124721
 10
-19.2074244224
 20
11.5901780501
  0
LINE
  5
2F7
100
AcDbEntity
  8
RACCORDO
100
AcDbLine
 62
253
  6
CONTINUOUS
 10
-8.95247525
 20
6.4855114217
 11
-8.9591431853
 21
6.4758812101
  0
LWPOLYLINE
  5
2F8
100
AcDbEntity
  8
0
100
AcDbPolyline
 62
7
  6
CONTINUOUS
 90
3
 70
0
 10
-8.9045262492
 20
6.4748993437
 10
-8.9171685182
 20
6.457662311
 10
-8.9314958019
 20
6.4419881025
  0
LWPOLYLINE
  5
2F9
100
AcDbEntity
  8
RACCORDO
100
AcDbPolyline
 62
253
  6
CONTINUOUS
 90
8
 70
0
 10
-8.9591431853
 20
6.4758812101
 10
-8.9662952646
 20
6.4663761374
 10
-8.9739720691
 20
6.456968264
 10
-8.9821800431
 20
6.4476784996
 10
-8.9909229472
 20
6.4385290973
 10
-9.0002408706
 20
6.4295022579
 10
-9.0101404689
 20
6.4206177356
 10
-9.020624584
 20
6.4118980149
  0
LWPOLYLINE
  5
2FA
100
AcDbEntity
  8
RACCORDO
100
AcDbPolyline
 62
253
  6
CONTINUOUS
 90
19
 70
0
 10
-6.1470115947
 20
12.8274219375
 10
-6.2048357924
 20
12.7868368395
 10
-6.2617021025
 20
12.7408169021
 10
-6.3172177339
 20
12.6896843205
 10
-6.3710036394
 20
12.6337972823
 10
-6.4226837493
 20
12.5735461953
 10
-6.4718880467
 20
12.50935185
 10
-6.5182768158
 20
12.4416633984
 10
-6.5615305704
 20
12.3709548467
 10
-6.6013399328
 20
12.297721727
 10
-6.6374262189
 20
12.2224862634
 10
-6.6695481892
 20
12.1457647942
 10
-6.6974878338
 20
12.0680637166
 10
-6.7210539579
 20
11.9899065051
 10
-6.7400749669
 20
11.9118568348
 10
-6.7544079368
 20
11.8344849951
 10
-6.7639536734
 20
11.7583387883
 10
-6.7686519589
 20
11.6839402647
 10
-6.7684726194
 20
11.6118072336
  0
LWPOLYLINE
  5
2FB
100
AcDbEntity
  8
ASSI
100
AcDbPolyline
 62
253
  6
CONTINUOUS
 90
28
 70
0
 10
-6.1470115947
 20
12.8274219375
 10
-6.1856449394
 20
12.8009821566
 10
-6.2239117776
 20
12.7720837356
 10
-6.2616946433
 20
12.7408168686
 10
-6.2988781885
 20
12.7072800343
 10
-6.3353477048
 20
12.6715768646
 10
-6.3709893797
 20
12.633815554
 10
-6.4056943022
 20
12.5941125661
 10
-6.4393553169
 20
12.5525921153
 10
-6.4718655343
 20
12.5093829065
 10
-6.5031250595
 20
12.4646194516
 10
-6.5330381145
 20
12.4184407641
 10
-6.5615098706
 20
12.3709896563
 10
-6.5884526085
 20
12.3224141903
 10
-6.6137842197
 20
12.27286475
 10
-6.6374252587
 20
12.2224927816
 10
-6.6593031094
 20
12.1714540812
 10
-6.6793506508
 20
12.1199076595
 10
-6.6975046654
 20
12.0680127844
 10
-6.7137096809
 20
12.0159297023
 10
-6.7279156863
 20
11.9638208439
 10
-6.7400769141
 20
11.9118495872
 10
-6.7501557006
 20
11.8601791856
 10
-6.7581222829
 20
11.8089677378
 10
-6.7639521077
 20
11.7583695366
 10
-6.7676269133
 20
11.708540073
 10
-6.769135348
 20
11.6596354039
 10
-6.7684726194
 20
11.6118072336
  0
LINE
  5
2FC
100
AcDbEntity
  8
ASSI
100
AcDbLine
 62
253
  6
CONTINUOUS
 10
-1.8623082861
 20
15.567006771
 11
-6.1470115947
 21
12.8274219375
  0
LINE
  5
2FD
100
AcDbEntity
  8
RACCORDO
100
AcDbLine
 62
253
  6
CONTINUOUS
 10
-1.8623082861
 20
15.567006771
 11
-6.1470115947
 21
12.8274219375
  0
LWPOLYLINE
  5
2FE
100
AcDbEntity
  8
RACCORDO
100
AcDbPolyline
 62
253
  6
CONTINUOUS
 90
7
 70
0
 10
-2.3372995579
 20
17.6101164964
 10
-2.3315766118
 20
17.6130974352
 10
-2.2941177398
 20
17.639384221
 10
-2.2623694544
 20
17.6744082804
 10
-2.2369520065
 20
17.7174738045
 10
-2.2183930789
 20
17.7677127706
 10
-2.2070946977
 20
17.8240727171
  0
LINE
  5
2FF
100
AcDbEntity
  8
ASSI
100
AcDbLine
 62
253
  6
CONTINUOUS
 10
2.2996240603
 20
19.6690041739
 11
4.9918515095
 21
21.0222936039
  0
LINE
  5
300
100
AcDbEntity
  8
RACCORDO
100
AcDbLine
 62
253
  6
CONTINUOUS
 10
2.2996240603
 20
19.6690041739
 11
4.9918515095
 21
21.0222936039
  0
LINE
  5
301
100
AcDbEntity
  8
ASSI
100
AcDbLine
 62
253
  6
CONTINUOUS
 10
2.4503560399
 20
19.440209816
 11
5.2042294182
 21
20.8240151824
  0
LINE
  5
302
100
AcDbEntity
  8
RACCORDO
100
AcDbLine
 62
253
  6
CONTINUOUS
 10
2.4503560399
 20
19.440209816
 11
5.2042294182
 21
20.8240151824
  0
LINE
  5
303
100
AcDbEntity
  8
RACCORDO
100
AcDbLine
 62
253
  6
CONTINUOUS
 10
-2.338767169
 20
17.6093900201
 11
-2.3372995579
 21
17.6101164964
  0
LINE
  5
304
100
AcDbEntity
  8
DRAFT
100
AcDbLine
 62
7
  6
CONTINUOUS
 10
-2.3387737478
 20
17.6093867977
 11
-2.0133566651
 21
17.7687728023
  0
LWPOLYLINE
  5
305
100
AcDbEntity
  8
RACCORDO
100
AcDbPolyline
 62
7
  6
CONTINUOUS
 90
10
 70
0
 10
-2.3372994345
 20
17.6101165568
 10
-2.376948569
 20
17.5928703128
 10
-2.4751932104
 20
17.568134069
 10
-2.578918122
 20
17.5664123276
 10
-2.6822611876
 20
17.5887755707
 10
-2.7850543772
 20
17.6378396984
 10
-2.8764364114
 20
17.7109273053
 10
-2.9449450605
 20
17.7944874368
 10
-2.993668943
 20
17.8835483668
 10
-3.0268456376
 20
17.9846124233
  0
LINE
  5
306
100
AcDbEntity
  8
RACCORDO
100
AcDbLine
 62
253
  6
CONTINUOUS
 10
-18.6959821767
 20
11.9067624906
 11
-18.6769522077
 21
11.9128574494
  0
LWPOLYLINE
  5
307
100
AcDbEntity
  8
RACCORDO
100
AcDbPolyline
 62
253
  6
CONTINUOUS
 90
13
 70
0
 10
-18.6769522077
 20
11.9128574494
 10
-18.6570227842
 20
11.9186758668
 10
-18.6361887308
 20
11.9241971029
 10
-18.614446612
 20
11.9293990219
 10
-18.5917200106
 20
11.9342788227
 10
-18.5679923111
 20
11.9388175946
 10
-18.5432715984
 20
11.9429902803
 10
-18.5175189762
 20
11.946783581
 10
-18.4907276998
 20
11.9501789884
 10
-18.4628980884
 20
11.9531556441
 10
-18.4340034668
 20
11.9556989258
 10
-18.4040443926
 20
11.9577921563
 10
-18.3730158203
 20
11.9594175434
  0
LWPOLYLINE
  5
308
100
AcDbEntity
  8
RACCORDO
100
AcDbPolyline
 62
253
  6
CONTINUOUS
 90
10
 70
0
 10
-0.1660612475
 20
-3.0558635002
 10
-0.1326205596
 20
-3.0689871828
 10
-0.0950508827
 20
-3.0782842838
 10
-0.0544687773
 20
-3.0834784976
 10
-0.012080331
 20
-3.0844154556
 10
0.0308546838
 20
-3.081067313
 10
0.0730602495
 20
-3.0735335779
 10
0.113282031
 20
-3.0620381532
 10
0.1503246536
 20
-3.0469226809
 10
0.1830872263
 20
-3.0286363895
  0
LWPOLYLINE
  5
309
100
AcDbEntity
  8
RACCORDO
100
AcDbPolyline
 62
253
  6
CONTINUOUS
 90
10
 70
0
 10
-0.16604139
 20
-2.7392474161
 10
-0.1326007823
 20
-2.7533122559
 10
-0.0950312813
 20
-2.7650908361
 10
-0.0544494399
 20
-2.7742331013
 10
-0.0120613372
 20
-2.7804673463
 10
0.0308732667
 20
-2.7836082915
 10
0.0730783696
 20
-2.7835625889
 10
0.1132996497
 20
-2.780331597
 10
0.1503417442
 20
-2.7740113396
 10
0.1831037742
 20
-2.7647896528
  0
LWPOLYLINE
  5
30A
100
AcDbEntity
  8
RACCORDO
100
AcDbPolyline
 62
253
  6
CONTINUOUS
 90
3
 70
0
 10
-9.6471355508
 20
7.7793748531
 10
-9.6121915629
 20
7.7458011835
 10
-9.5783400326
 20
7.7127845446
  0
LWPOLYLINE
  5
30B
100
AcDbEntity
  8
RACCORDO
100
AcDbPolyline
 62
253
  6
CONTINUOUS
 90
54
 70
0
 10
-9.5783400326
 20
7.7127845446
 10
-9.5455959296
 20
7.6803536874
 10
-9.5139250721
 20
7.6484894637
 10
-9.4833237638
 20
7.6172053168
 10
-9.4537943739
 20
7.5865195743
 10
-9.4253105533
 20
7.5564212809
 10
-9.3978746382
 20
7.5269324956
 10
-9.3714814304
 20
7.4980661704
 10
-9.3460919538
 20
7.4697982594
 10
-9.3217173281
 20
7.4421631589
 10
-9.2983418153
 20
7.4151642797
 10
-9.2758856993
 20
7.3887291727
 10
-9.2543478924
 20
7.3628780058
 10
-9.2337246395
 20
7.3376271186
 10
-9.2139328967
 20
7.3128939077
 10
-9.1949690649
 20
7.2886943345
 10
-9.1768321392
 20
7.2650471155
 10
-9.1594441946
 20
7.2418686585
 10
-9.1428000303
 20
7.2191711868
 10
-9.1269009042
 20
7.1969752522
 10
-9.111680119
 20
7.1752045954
 10
-9.0971271976
 20
7.1538620322
 10
-9.083249586
 20
7.1329761141
 10
-9.0700084217
 20
7.1125053277
 10
-9.0574015422
 20
7.0924661569
 10
-9.0454268322
 20
7.0728754113
 10
-9.0340459467
 20
7.0536891109
 10
-9.0232582747
 20
7.0349280287
 10
-9.0130587405
 20
7.0166062134
 10
-9.0034037535
 20
6.9986657558
 10
-8.9942917401
 20
6.9811263881
 10
-8.9857179258
 20
6.9640034962
 10
-8.9776370549
 20
6.9472278485
 10
-8.9700426544
 20
6.9308077388
 10
-8.9629354635
 20
6.9147692838
 10
-8.9562846423
 20
6.8990656145
 10
-8.9500799026
 20
6.8836960833
 10
-8.9443243254
 20
6.8686960142
 10
-8.9390078556
 20
6.8540699083
 10
-8.934123162
 20
6.8398349227
 10
-8.9296613228
 20
6.826008998
 10
-8.9256082057
 20
6.8125956716
 10
-8.9219525261
 20
6.7996132088
 10
-8.9186793648
 20
6.7870739424
 10
-8.9157683694
 20
6.7749696176
 10
-8.9132036045
 20
6.7633124177
 10
-8.9109669726
 20
6.7521118661
 10
-8.9090355948
 20
6.7413526875
 10
-8.9073907478
 20
6.731040841
 10
-8.9060125902
 20
6.7211811373
 10
-8.9048783374
 20
6.7117539913
 10
-8.9039680414
 20
6.7027531589
 10
-8.9032626653
 20
6.694185565
 10
-8.9027420951
 20
6.6860493903
  0
LWPOLYLINE
  5
30C
100
AcDbEntity
  8
RACCORDO
100
AcDbPolyline
 62
253
  6
CONTINUOUS
 90
3
 70
0
 10
-9.6396104277
 20
7.5784448164
 10
-9.6087563393
 20
7.5473895952
 10
-9.5789913622
 20
7.5169448658
  0
LWPOLYLINE
  5
30D
100
AcDbEntity
  8
RACCORDO
100
AcDbPolyline
 62
253
  6
CONTINUOUS
 90
51
 70
0
 10
-9.5789913622
 20
7.5169448658
 10
-9.5503174038
 20
7.4871140689
 10
-9.5227058743
 20
7.4579228879
 10
-9.496161742
 20
7.4293748199
 10
-9.4706800631
 20
7.4014663535
 10
-9.4462173863
 20
7.3742126549
 10
-9.4227873757
 20
7.347629091
 10
-9.4003763983
 20
7.3217002765
 10
-9.3789000608
 20
7.2963952474
 10
-9.3583595508
 20
7.2717175436
 10
-9.3387537123
 20
7.2476636066
 10
-9.3199946371
 20
7.2241918243
 10
-9.3020806647
 20
7.20130288
 10
-9.2850134861
 20
7.1789960724
 10
-9.2687102196
 20
7.157227713
 10
-9.2531673068
 20
7.1359958286
 10
-9.2383883348
 20
7.1153023754
 10
-9.2243011397
 20
7.0951095596
 10
-9.2108976994
 20
7.075406922
 10
-9.1981860628
 20
7.0562049061
 10
-9.186118173
 20
7.0374970709
 10
-9.1746950193
 20
7.0192846347
 10
-9.1639156411
 20
7.0015663622
 10
-9.153729059
 20
6.9843321316
 10
-9.1441378242
 20
6.9675869866
 10
-9.1351394152
 20
6.9513258658
 10
-9.1266752448
 20
6.9355234884
 10
-9.118746268
 20
6.9201843317
 10
-9.1113515585
 20
6.9053039013
 10
-9.1044297051
 20
6.8908434589
 10
-9.0979770816
 20
6.8767980858
 10
-9.09199734
 20
6.8631726855
 10
-9.0864399857
 20
6.8499432527
 10
-9.0813008617
 20
6.83709771
 10
-9.0765841492
 20
6.8246481205
 10
-9.0722518624
 20
6.8126066894
 10
-9.0683071009
 20
6.8009764805
 10
-9.0647467921
 20
6.789754414
 10
-9.0615236952
 20
6.7789434784
 10
-9.0586403619
 20
6.7685491932
 10
-9.0560942684
 20
6.7585660224
 10
-9.053830563
 20
6.7489803692
 10
-9.0518496308
 20
6.7397955187
 10
-9.0501511135
 20
6.73100817
 10
-9.0486790447
 20
6.7225948472
 10
-9.0474323568
 20
6.7145569838
 10
-9.0464121421
 20
6.7068931318
 10
-9.0455656735
 20
6.6995754928
 10
-9.0448753825
 20
6.6925947967
 10
-9.0443588594
 20
6.6859603007
 10
-9.0440161145
 20
6.6796719989
  0
LWPOLYLINE
  5
30E
100
AcDbEntity
  8
RACCORDO
100
AcDbPolyline
 62
253
  6
CONTINUOUS
 90
9
 70
0
 10
-10.1122636749
 20
22.9059426796
 10
-10.1250907424
 20
22.9445998993
 10
-10.1329630249
 20
22.9839045578
 10
-10.1356699074
 20
23.0228050984
 10
-10.13313897
 20
23.0602607764
 10
-10.1254379253
 20
23.0952695026
 10
-10.1127728072
 20
23.1268946538
 10
-10.0954824581
 20
23.1542901309
 10
-10.0740294639
 20
23.1767229952
  0
LWPOLYLINE
  5
30F
100
AcDbEntity
  8
RACCORDO
100
AcDbPolyline
 62
253
  6
CONTINUOUS
 90
16
 70
0
 10
-5.7541435898
 20
12.2401074093
 10
-5.7602019598
 20
12.2839155915
 10
-5.7700654313
 20
12.329187323
 10
-5.7836260563
 20
12.375426926
 10
-5.8007354045
 20
12.4221281179
 10
-5.8212061821
 20
12.4687795418
 10
-5.8448142792
 20
12.5148703664
 10
-5.8713012358
 20
12.5598959064
 10
-5.9003770568
 20
12.6033631183
 10
-5.9317233734
 20
12.6447959905
 10
-5.9649969707
 20
12.6837408146
 10
-5.9998335161
 20
12.7197711094
 10
-6.0358515219
 20
12.7524922737
 10
-6.0726565789
 20
12.7815459695
 10
-6.1098456801
 20
12.806614035
 10
-6.1470115956
 20
12.8274219368
  0
LWPOLYLINE
  5
310
100
AcDbEntity
  8
ASSI
100
AcDbPolyline
 62
253
  6
CONTINUOUS
 90
25
 70
0
 10
-5.7541435898
 20
12.2401074093
 10
-5.7574796864
 20
12.2672898758
 10
-5.7623146322
 20
12.2951155496
 10
-5.7686277557
 20
12.3234653594
 10
-5.7763920615
 20
12.3522179974
 10
-5.7855743388
 20
12.3812504114
 10
-5.7961352992
 20
12.4104383306
 10
-5.8080297606
 20
12.4396568453
 10
-5.8212068318
 20
12.4687809086
 10
-5.8356101149
 20
12.4976858451
 10
-5.8511779784
 20
12.5262479519
 10
-5.8678438026
 20
12.554344986
 10
-5.885536243
 20
12.5818566566
 10
-5.9041795806
 20
12.6086652163
 10
-5.9236940314
 20
12.6346559336
 10
-5.9439960583
 20
12.6597175464
 10
-5.9649987641
 20
12.6837427884
 10
-5.986612271
 20
12.7066288502
 10
-6.008744083
 20
12.7282777909
 10
-6.0312994818
 20
12.7485969592
 10
-6.0541819367
 20
12.7674993953
 10
-6.0772935222
 20
12.7849042062
 10
-6.1005353291
 20
12.8007369046
 10
-6.1238078869
 20
12.8149297289
 10
-6.1470115956
 20
12.8274219368
  0
LINE
  5
311
100
AcDbEntity
  8
RACCORDO
100
AcDbLine
 62
253
  6
CONTINUOUS
 10
1.2223647781
 20
-16.2165367066
 11
-0.1477660856
 21
-3.229280479
  0
LWPOLYLINE
  5
312
100
AcDbEntity
  8
RACCORDO
100
AcDbPolyline
 62
253
  6
CONTINUOUS
 90
3
 70
0
 10
-2.2032980453
 20
17.8853865202
 10
-2.2048881231
 20
17.9271377982
 10
-2.2099381441
 20
17.9720176297
  0
LWPOLYLINE
  5
313
100
AcDbEntity
  8
RACCORDO
100
AcDbPolyline
 62
253
  6
CONTINUOUS
 90
25
 70
0
 10
-2.9178292071
 20
17.9572540362
 10
-2.9176171337
 20
17.9482885609
 10
-2.916521661
 20
17.9388312224
 10
-2.9145427888
 20
17.9288820204
 10
-2.9117388878
 20
17.9183117689
 10
-2.9080515874
 20
17.9072496541
 10
-2.9033057759
 20
17.8960832346
 10
-2.8974125737
 20
17.8846868638
 10
-2.8904608604
 20
17.8731861884
 10
-2.8825421624
 20
17.8623457071
 10
-2.8734905657
 20
17.8521150682
 10
-2.8634719843
 20
17.8425446235
 10
-2.8530756864
 20
17.8345499268
 10
-2.8422366985
 20
17.8282858331
 10
-2.8310199941
 20
17.8235974874
 10
-2.8202097622
 20
17.8209358786
 10
-2.8098593733
 20
17.8204811633
 10
-2.799915457
 20
17.8220531849
 10
-2.7910020909
 20
17.8255624636
 10
-2.7831942452
 20
17.8311330735
 10
-2.7764169497
 20
17.8386409405
 10
-2.7710693716
 20
17.8476243619
 10
-2.7672845665
 20
17.8579294368
 10
-2.7649294788
 20
17.8697100662
 10
-2.7640041084
 20
17.88296625
  0
LWPOLYLINE
  5
314
100
AcDbEntity
  8
RACCORDO
100
AcDbPolyline
 62
253
  6
CONTINUOUS
 90
25
 70
0
 10
-2.7640041084
 20
17.88296625
 10
-2.7642161601
 20
17.8919309482
 10
-2.7653114443
 20
17.9013874424
 10
-2.7672899611
 20
17.9113357325
 10
-2.7700933198
 20
17.9219049199
 10
-2.773779911
 20
17.9329659031
 10
-2.7785249069
 20
17.9441313789
 10
-2.7844171196
 20
17.9555270066
 10
-2.7913677369
 20
17.9670271267
 10
-2.7992854945
 20
17.9778674576
 10
-2.8083363269
 20
17.9880984883
 10
-2.8183542996
 20
17.9976697299
 10
-2.8287503443
 20
18.0056654337
 10
-2.8395895785
 20
18.0119308095
 10
-2.8508068847
 20
18.0166206477
 10
-2.8616178424
 20
18.0192835705
 10
-2.8719690657
 20
18.0197393153
 10
-2.8819139404
 20
18.0181681448
 10
-2.8908282038
 20
18.0146594694
 10
-2.8986368503
 20
18.0090891889
 10
-2.9054148855
 20
18.0015814034
 10
-2.9107630633
 20
17.9925978242
 10
-2.9145483019
 20
17.9822923552
 10
-2.9169036832
 20
17.9705110925
 10
-2.9178292071
 20
17.9572540362
  0
LWPOLYLINE
  5
315
100
AcDbEntity
  8
ASSI
100
AcDbPolyline
 62
253
  6
CONTINUOUS
 90
14
 70
0
 10
-3.1844849477
 20
-23.0768423187
 10
-3.1838674689
 20
-23.1039971817
 10
-3.1847657407
 20
-23.1302765403
 10
-3.1871759389
 20
-23.1555679209
 10
-3.1910877706
 20
-23.1797630837
 10
-3.1964845141
 20
-23.2027584604
 10
-3.2033430851
 20
-23.2244556024
 10
-3.2116341464
 20
-23.2447616412
 10
-3.2213222293
 20
-23.2635896598
 10
-3.2323658733
 20
-23.2808590473
 10
-3.2447178256
 20
-23.2964958874
 10
-3.2583252311
 20
-23.3104332456
 10
-3.2731298396
 20
-23.3226114456
 10
-3.2888705125
 20
-23.3328648445
  0
LWPOLYLINE
  5
316
100
AcDbEntity
  8
RACCORDO
100
AcDbPolyline
 62
253
  6
CONTINUOUS
 90
10
 70
0
 10
-3.1844849477
 20
-23.0768423187
 10
-3.1842246872
 20
-23.1198782861
 10
-3.1878388801
 20
-23.1604998959
 10
-3.1952879516
 20
-23.1982623479
 10
-3.2064903356
 20
-23.2327521492
 10
-3.2213233677
 20
-23.2635916419
 10
-3.2396246286
 20
-23.2904431384
 10
-3.2611937222
 20
-23.3130126191
 10
-3.2857944706
 20
-23.3310529515
 10
-3.2888705195
 20
-23.3328648485
  0
LINE
  5
317
100
AcDbEntity
  8
ASSI
100
AcDbLine
 62
7
  6
CONTINUOUS
 10
-3.7477733908
 20
24.507202884
 11
-3.7478292213
 21
23.6170184676
  0
LINE
  5
318
100
AcDbEntity
  8
0
100
AcDbLine
 62
7
  6
CONTINUOUS
 10
-3.7477733908
 20
24.507202884
 11
-3.7478292213
 21
23.6170184676
  0
LINE
  5
319
100
AcDbEntity
  8
ASSI
100
AcDbLine
 62
7
  6
CONTINUOUS
 10
-2.9119219321
 20
20.3839241282
 11
-2.9119165007
 21
20.4705239996
  0
LINE
  5
31A
100
AcDbEntity
  8
SUPERFICI
100
AcDbLine
 62
7
  6
CONTINUOUS
 10
-2.9119219321
 20
20.3839241282
 11
-2.9119165007
 21
20.4705239996
  0
LINE
  5
31B
100
AcDbEntity
  8
RACCORDO
100
AcDbLine
 62
253
  6
CONTINUOUS
 10
-2.2070946977
 20
17.8240727171
 11
-2.2032980453
 21
17.8853865202
  0
LINE
  5
31C
100
AcDbEntity
  8
RACCORDO
100
AcDbLine
 62
7
  6
CONTINUOUS
 10
-3.039965667
 20
18.1011472237
 11
-3.0318193844
 21
18.1910540431
  0
LWPOLYLINE
  5
31D
100
AcDbEntity
  8
RACCORDO
100
AcDbPolyline
 62
253
  6
CONTINUOUS
 90
10
 70
0
 10
-2.1814603905
 20
19.1252860595
 10
-2.1761178371
 20
19.1609382097
 10
-2.1667632681
 20
19.1972439645
 10
-2.1536213831
 20
19.2333312487
 10
-2.1370078541
 20
19.2683332348
 10
-2.117321743
 20
19.3014091646
 10
-2.0950359162
 20
19.3317645444
 10
-2.0706856859
 20
19.3586702286
 10
-2.0448559521
 20
19.3814799348
 10
-2.0181671526
 20
19.3996457669
  0
LWPOLYLINE
  5
31E
100
AcDbEntity
  8
0
100
AcDbPolyline
 62
7
  6
CONTINUOUS
 90
4
 70
0
 10
-8.9314958019
 20
6.4419881025
 10
-8.948063459
 20
6.4271270128
 10
-8.9672004702
 20
6.4128781095
 10
-8.9743114798
 20
6.4081826842
  0
LWPOLYLINE
  5
31F
100
AcDbEntity
  8
RACCORDO
100
AcDbPolyline
 62
253
  6
CONTINUOUS
 90
4
 70
0
 10
-9.020624584
 20
6.4118980149
 10
-9.0317292318
 20
6.4033347556
 10
-9.0434584644
 20
6.3949475252
 10
-9.0558161105
 20
6.3867560406
  0
LWPOLYLINE
  5
320
100
AcDbEntity
  8
RACCORDO
100
AcDbPolyline
 62
253
  6
CONTINUOUS
 90
19
 70
0
 10
-5.7541435898
 20
12.2401074093
 10
-5.7835070572
 20
12.2197646186
 10
-5.8120418129
 20
12.1970210236
 10
-5.8397478567
 20
12.1718766245
 10
-5.8668196898
 20
12.1441139124
 10
-5.8930628112
 20
12.1139503962
 10
-5.9178937172
 20
12.0820386021
 10
-5.9412698564
 20
12.0483509068
 10
-5.9632337802
 20
12.0129149337
 10
-5.9833296394
 20
11.9764660787
 10
-6.0015164027
 20
11.9389881694
 10
-6.0178351014
 20
11.9004973783
 10
-6.0319529807
 20
11.8617776188
 10
-6.0438276146
 20
11.8228103265
 10
-6.0535014292
 20
11.7836140658
 10
-6.0607689475
 20
11.7450284438
 10
-6.0655616773
 20
11.7073333294
 10
-6.0679481108
 20
11.6702488536
 10
-6.067928248
 20
11.6337750165
  0
LWPOLYLINE
  5
321
100
AcDbEntity
  8
ASSI
100
AcDbPolyline
 62
253
  6
CONTINUOUS
 90
25
 70
0
 10
-5.7541435898
 20
12.2401074093
 10
-5.7758735738
 20
12.2253975958
 10
-5.7972963258
 20
12.2092008906
 10
-5.8184118461
 20
12.1915172935
 10
-5.8393298893
 20
12.1722511076
 10
-5.8599407007
 20
12.1514980298
 10
-5.8799150157
 20
12.129545152
 10
-5.8992274388
 20
12.1063766416
 10
-5.9179033655
 20
12.0820083311
 10
-5.9356897181
 20
12.0567748091
 10
-5.9525576917
 20
12.0306904153
 10
-5.9685360912
 20
12.0037408101
 10
-5.9834582527
 20
11.9762175628
 10
-5.9973165531
 20
11.9481150031
 10
-6.0101186155
 20
11.9194388013
 10
-6.0217206456
 20
11.8904975372
 10
-6.0321161593
 20
11.8612601392
 10
-6.0413116407
 20
11.8317576789
 10
-6.0491827486
 20
11.8023919509
 10
-6.0557036142
 20
11.773152351
 10
-6.0609001064
 20
11.7440494832
 10
-6.0647254893
 20
11.7155169552
 10
-6.0671641847
 20
11.6876993026
 10
-6.0682317709
 20
11.6604519897
 10
-6.067928248
 20
11.6337750165
  0
LINE
  5
322
100
AcDbEntity
  8
ASSI
100
AcDbLine
 62
253
  6
CONTINUOUS
 10
-1.4725069243
 20
14.9777314703
 11
-5.7541435898
 21
12.2401074093
  0
LINE
  5
323
100
AcDbEntity
  8
RACCORDO
100
AcDbLine
 62
253
  6
CONTINUOUS
 10
-1.4725069243
 20
14.9777314703
 11
-5.7541435898
 21
12.2401074093
  0
LWPOLYLINE
  5
324
100
AcDbEntity
  8
ASSI
100
AcDbPolyline
 62
253
  6
CONTINUOUS
 90
25
 70
0
 10
-6.067928248
 20
11.6337750165
 10
-6.0915116577
 20
11.6214466008
 10
-6.1164769756
 20
11.6099128825
 10
-6.1427196686
 20
11.5992221656
 10
-6.1701298585
 20
11.5894192224
 10
-6.1985927667
 20
11.5805451121
 10
-6.2279891932
 20
11.5726370068
 10
-6.2581960429
 20
11.5657280281
 10
-6.2890868248
 20
11.559847114
 10
-6.3205321647
 20
11.5550188999
 10
-6.3524003853
 20
11.5512636087
 10
-6.3845580323
 20
11.548596971
 10
-6.4168704135
 20
11.5470301589
 10
-6.4492022131
 20
11.5465697352
 10
-6.4814180383
 20
11.5472176294
 10
-6.5133829591
 20
11.5489711285
 10
-6.5449631091
 20
11.551822888
 10
-6.5760262492
 20
11.5557609652
 10
-6.6064423001
 20
11.5607688689
 10
-6.6360838887
 20
11.566825627
 10
-6.6648268869
 20
11.5739058757
 10
-6.692550934
 20
11.5819799667
 10
-6.7191399321
 20
11.5910140892
 10
-6.744482533
 20
11.6009704112
 10
-6.7684726097
 20
11.6118072392
  0
LINE
  5
325
100
AcDbEntity
  8
RACCORDO
100
AcDbLine
 62
253
  6
CONTINUOUS
 10
-0.9546705438
 20
14.8303469803
 11
-1.4432488189
 21
14.5756130642
  0
LINE
  5
326
100
AcDbEntity
  8
RACCORDO
100
AcDbLine
 62
253
  6
CONTINUOUS
 10
-0.3225035187
 20
13.5717739446
 11
-1.3319174609
 21
13.0454938847
  0
LWPOLYLINE
  5
327
100
AcDbEntity
  8
ASSI
100
AcDbPolyline
 62
253
  6
CONTINUOUS
 90
10
 70
0
 10
15.543834178
 20
22.7149793053
 10
15.5744468578
 20
22.7307859056
 10
15.6020191358
 20
22.7445789731
 10
15.6263555133
 20
22.7563434866
 10
15.6472391176
 20
22.7661822525
 10
15.6644471787
 20
22.7739394093
 10
15.677801425
 20
22.7792883393
 10
15.6870650492
 20
22.7823585398
 10
15.69212658
 20
22.7832084812
 10
15.6931096084
 20
22.7826987186
  0
LWPOLYLINE
  5
328
100
AcDbEntity
  8
RACCORDO
100
AcDbPolyline
 62
253
  6
CONTINUOUS
 90
10
 70
0
 10
15.543834178
 20
22.7149793053
 10
15.5744468578
 20
22.7307859056
 10
15.6020191358
 20
22.7445789731
 10
15.6263555133
 20
22.7563434866
 10
15.6472391176
 20
22.7661822525
 10
15.6644471787
 20
22.7739394093
 10
15.677801425
 20
22.7792883393
 10
15.6870650492
 20
22.7823585398
 10
15.69212658
 20
22.7832084812
 10
15.6931096084
 20
22.7826987186
  0
LINE
  5
329
100
AcDbEntity
  8
ASSI
100
AcDbLine
 62
253
  6
CONTINUOUS
 10
15.3057543167
 20
22.955663103
 11
8.0520764788
 21
19.3011746348
  0
LINE
  5
32A
100
AcDbEntity
  8
RACCORDO
100
AcDbLine
 62
253
  6
CONTINUOUS
 10
15.3057543167
 20
22.955663103
 11
8.0520764788
 21
19.3011746348
  0
LWPOLYLINE
  5
32B
100
AcDbEntity
  8
RACCORDO
100
AcDbPolyline
 62
253
  6
CONTINUOUS
 90
16
 70
0
 10
-6.067928248
 20
11.6337750165
 10
-6.1063322015
 20
11.6144275564
 10
-6.1481130723
 20
11.5971887549
 10
-6.1928231986
 20
11.5822433174
 10
-6.2399835331
 20
11.569751377
 10
-6.2890887758
 20
11.5598467788
 10
-6.3396127878
 20
11.5526356457
 10
-6.3910142289
 20
11.5481952416
 10
-6.4427423575
 20
11.5465731433
 10
-6.494242932
 20
11.5477867306
 10
-6.5449641486
 20
11.5518230006
 10
-6.5943625541
 20
11.5586387067
 10
-6.6419088686
 20
11.5681608216
 10
-6.6870936565
 20
11.5802873204
 10
-6.7294327845
 20
11.5948882736
 10
-6.7684726097
 20
11.6118072392
  0
LINE
  5
32C
100
AcDbEntity
  8
ASSI
100
AcDbLine
 62
253
  6
CONTINUOUS
 10
15.5438341456
 20
22.7149793634
 11
8.1762785862
 21
19.0046250715
  0
LINE
  5
32D
100
AcDbEntity
  8
RACCORDO
100
AcDbLine
 62
253
  6
CONTINUOUS
 10
15.5438341456
 20
22.7149793634
 11
8.1762785862
 21
19.0046250715
  0
LWPOLYLINE
  5
32E
100
AcDbEntity
  8
0
100
AcDbPolyline
 62
253
  6
CONTINUOUS
 90
81
 70
0
 10
-13.8871616595
 20
6.7592580714
 10
-13.8089930765
 20
6.7197815742
 10
-13.7312240713
 20
6.67704987
 10
-13.6537963066
 20
6.6310405772
 10
-13.5766514454
 20
6.5817313139
 10
-13.4997311502
 20
6.5290996984
 10
-13.4230163323
 20
6.4731483934
 10
-13.3466448966
 20
6.4139802401
 10
-13.2707939963
 20
6.3517231241
 10
-13.1956407848
 20
6.2865049308
 10
-13.1213624155
 20
6.2184535459
 10
-13.0481218975
 20
6.14769372
 10
-12.9760256645
 20
6.0743376638
 10
-12.9051660058
 20
5.9984944529
 10
-12.8356352108
 20
5.9202731631
 10
-12.7675255692
 20
5.8397828701
 10
-12.7009308514
 20
5.7571372104
 10
-12.6359507529
 20
5.6724680639
 10
-12.5726864503
 20
5.5859118715
 10
-12.5112391201
 20
5.4976050741
 10
-12.4517099389
 20
5.4076841124
 10
-12.3941966036
 20
5.3162868807
 10
-12.3387828919
 20
5.2235570873
 10
-12.2855491021
 20
5.1296398937
 10
-12.2345755323
 20
5.0346804617
 10
-12.1859424806
 20
4.9388239529
 10
-12.1397274115
 20
4.8422166365
 10
-12.0959964558
 20
4.7450092127
 10
-12.0548129104
 20
4.6473534893
 10
-12.0162400724
 20
4.5494012738
 10
-11.980341239
 20
4.4513043742
 10
-11.9471761558
 20
4.3532144908
 10
-11.9167903627
 20
4.2552828952
 10
-11.8892258483
 20
4.1576607517
 10
-11.8645246012
 20
4.0604992246
 10
-11.8427286099
 20
3.9639494782
 10
-11.8238761624
 20
3.8681616885
 10
-11.8079907446
 20
3.773282079
 10
-11.7950921415
 20
3.6794558849
 10
-11.7852001385
 20
3.5868283414
 10
-11.7783345206
 20
3.4955446839
 10
-11.7745112218
 20
3.4057481669
 10
-11.7737307707
 20
3.3175741225
 10
-11.7759898443
 20
3.231155902
 10
-11.78128512
 20
3.146626857
 10
-11.789613275
 20
3.0641203387
 10
-11.8009671788
 20
2.9837669371
 10
-11.8153244712
 20
2.9056861948
 10
-11.832658984
 20
2.829994893
 10
-11.8529445494
 20
2.7568098129
 10
-11.8761549994
 20
2.6862477356
 10
-11.9022604231
 20
2.6184218668
 10
-11.9312159381
 20
2.5534311093
 10
-11.9629729192
 20
2.4913707909
 10
-11.997482741
 20
2.432336239
 10
-12.0346967784
 20
2.3764227811
 10
-12.0745632521
 20
2.3237217029
 10
-12.1170177669
 20
2.2743081231
 10
-12.1619927735
 20
2.2282531188
 10
-12.2094207229
 20
2.1856277667
 10
-12.2592340658
 20
2.1465031438
 10
-12.3113614277
 20
2.1109453446
 10
-12.3657161323
 20
2.0790005331
 10
-12.4222076779
 20
2.0507098909
 10
-12.4807455629
 20
2.0261145995
 10
-12.5412392855
 20
2.0052558406
 10
-12.6035991688
 20
1.9881714452
 10
-12.6677388342
 20
1.9748858425
 10
-12.7335727277
 20
1.9654201113
 10
-12.8010152956
 20
1.9597953303
 10
-12.8699809837
 20
1.9580325783
 10
-12.9403702897
 20
1.9601425092
 10
-13.0120279166
 20
1.9660940783
 10
-13.0847846188
 20
1.9758458162
 10
-13.1584711508
 20
1.9893562534
 10
-13.2329182671
 20
2.0065839205
 10
-13.3079946215
 20
2.0275000907
 10
-13.3837204658
 20
2.0521270079
 10
-13.4601539511
 20
2.080499659
 10
-13.5373532288
 20
2.1126530305
 10
-13.6153764498
 20
2.1486221093
  0
LINE
  5
32F
100
AcDbEntity
  8
0
100
AcDbLine
 62
7
  6
CONTINUOUS
 10
-12.2217738874
 20
9.6772427219
 11
-12.1286184347
 21
9.6216364361
  0
LINE
  5
330
100
AcDbEntity
  8
ASSI
100
AcDbLine
 62
7
  6
CONTINUOUS
 10
-12.2137009644
 20
9.6724477898
 11
-12.1235492777
 21
9.6185930779
  0
LINE
  5
331
100
AcDbEntity
  8
ASSI
100
AcDbLine
 62
253
  6
CONTINUOUS
 10
-12.2594417907
 20
9.7682241117
 11
-12.0969303491
 21
9.6708500217
  0
LINE
  5
332
100
AcDbEntity
  8
0
100
AcDbLine
 62
253
  6
CONTINUOUS
 10
-12.1911026116
 20
9.7275110532
 11
-12.0514721317
 21
9.6433320706
  0
LWPOLYLINE
  5
333
100
AcDbEntity
  8
0
100
AcDbPolyline
 62
7
  6
CONTINUOUS
 90
55
 70
0
 10
-12.1286184347
 20
9.6216364361
 10
-12.037066613
 20
9.5663898255
 10
-11.9473609582
 20
9.5116707328
 10
-11.8594909917
 20
9.457495029
 10
-11.7734711085
 20
9.4038910433
 10
-11.6895799377
 20
9.3510555079
 10
-11.6079906834
 20
9.2991262064
 10
-11.5285310033
 20
9.2480228473
 10
-11.4509612981
 20
9.1976152362
 10
-11.3754113698
 20
9.1480106028
 10
-11.3017528683
 20
9.0991487357
 10
-11.229360321
 20
9.0506321308
 10
-11.1581140516
 20
9.002389944
 10
-11.0881375658
 20
8.9545136178
 10
-11.0191716796
 20
8.9068328706
 10
-10.9511783279
 20
8.8593260994
 10
-10.8841998938
 20
8.8120280784
 10
-10.8180994744
 20
8.7648442518
 10
-10.7528803774
 20
8.7177772265
 10
-10.6885457672
 20
8.6708304523
 10
-10.6249595433
 20
8.6239048197
 10
-10.5621259334
 20
8.5770001276
 10
-10.5000504908
 20
8.5301155999
 10
-10.4386006111
 20
8.4831450149
 10
-10.3777664147
 20
8.4360731639
 10
-10.3175701108
 20
8.3889061294
 10
-10.2579288886
 20
8.3415629313
 10
-10.1988197484
 20
8.2940076707
 10
-10.1402826789
 20
8.2462549819
 10
-10.082331923
 20
8.1982951228
 10
-10.0249755537
 20
8.1501103044
 10
-9.9682300044
 20
8.1016902213
 10
-9.9121244617
 20
8.0530344995
 10
-9.8566756649
 20
8.0041253971
 10
-9.8019026477
 20
7.9549457452
 10
-9.74784176
 20
7.9054941539
 10
-9.694516332
 20
7.8557508959
 10
-9.6419545122
 20
7.8056950659
 10
-9.5902032637
 20
7.7553233758
 10
-9.5392947527
 20
7.7046118167
 10
-9.489272948
 20
7.653538387
 10
-9.440206418
 20
7.6021039311
 10
-9.3921517391
 20
7.5502906943
 10
-9.3451700484
 20
7.4980738731
 10
-9.29934609
 20
7.4454456087
 10
-9.2547809838
 20
7.392405638
 10
-9.2115711952
 20
7.3389252632
 10
-9.16982415
 20
7.284963426
 10
-9.1296900389
 20
7.2305270809
 10
-9.0913596768
 20
7.1756319469
 10
-9.0550577536
 20
7.120343344
 10
-9.0209823796
 20
7.0646668064
 10
-8.9895065864
 20
7.0088350269
 10
-8.9611407558
 20
6.9534960634
 10
-8.9361885097
 20
6.8989519545
  0
LWPOLYLINE
  5
334
100
AcDbEntity
  8
ASSI
100
AcDbPolyline
 62
7
  6
CONTINUOUS
 90
56
 70
0
 10
-12.1235492777
 20
9.6185930779
 10
-12.0356531406
 20
9.5655321621
 10
-11.9500323037
 20
9.5133087181
 10
-11.8668267425
 20
9.4620400762
 10
-11.7858983862
 20
9.4116706244
 10
-11.7068497302
 20
9.361978018
 10
-11.629731432
 20
9.3130168036
 10
-11.5544937111
 20
9.2647788173
 10
-11.4805897048
 20
9.216930526
 10
-11.4080034877
 20
9.1694726421
 10
-11.3367538871
 20
9.1224292858
 10
-11.2663480247
 20
9.0754829783
 10
-11.1966760331
 20
9.0285628474
 10
-11.1278522693
 20
8.9817466043
 10
-11.0597212992
 20
8.9349281348
 10
-10.9922429252
 20
8.8880779279
 10
-10.9254630495
 20
8.8412265047
 10
-10.8593560216
 20
8.7943540426
 10
-10.7939256918
 20
8.7474590368
 10
-10.7291760155
 20
8.7005403903
 10
-10.6650823501
 20
8.6535766418
 10
-10.6016483818
 20
8.6065665459
 10
-10.5388797066
 20
8.5595074962
 10
-10.47675448
 20
8.5123755045
 10
-10.4152746264
 20
8.4651646445
 10
-10.3544496574
 20
8.4178745561
 10
-10.2942706594
 20
8.3704853191
 10
-10.2347435652
 20
8.3229867864
 10
-10.1758781886
 20
8.275372724
 10
-10.1176726681
 20
8.2276266409
 10
-10.0601384836
 20
8.1797376603
 10
-10.0032865516
 20
8.1316939124
 10
-9.9471165076
 20
8.0834745001
 10
-9.891641592
 20
8.0350660421
 10
-9.8368794812
 20
7.9864536226
 10
-9.7828375559
 20
7.9376131842
 10
-9.729534199
 20
7.8885287428
 10
-9.6769944447
 20
7.8391820163
 10
-9.6252362086
 20
7.7895452537
 10
-9.5742844499
 20
7.7395954835
 10
-9.5241784457
 20
7.6893139766
 10
-9.4749603684
 20
7.6386784144
 10
-9.4266625622
 20
7.5876525163
 10
-9.3793527697
 20
7.5362269943
 10
-9.3331319898
 20
7.4844203303
 10
-9.2880716551
 20
7.4322114278
 10
-9.2442635162
 20
7.3795879057
 10
-9.2018521191
 20
7.3265788414
 10
-9.1609582763
 20
7.2731720038
 10
-9.1217366769
 20
7.2193925653
 10
-9.084415772
 20
7.1653280598
 10
-9.0491805615
 20
7.1110322753
 10
-9.0162840692
 20
7.0566341517
 10
-8.9860947734
 20
7.0024668568
 10
-8.9588699723
 20
6.9487971048
 10
-8.9348961221
 20
6.895925625
  0
LWPOLYLINE
  5
335
100
AcDbEntity
  8
ASSI
100
AcDbPolyline
 62
253
  6
CONTINUOUS
 90
41
 70
0
 10
-12.0969303491
 20
9.6708500217
 10
-11.9404069546
 20
9.5753363288
 10
-11.7899550761
 20
9.4816735621
 10
-11.6446664085
 20
9.3896373435
 10
-11.5044568224
 20
9.2992109057
 10
-11.3694102128
 20
9.2104111542
 10
-11.2388703515
 20
9.123064196
 10
-11.1127690565
 20
9.0371475135
 10
-10.9911742923
 20
8.9526837527
 10
-10.8736340835
 20
8.8695667466
 10
-10.760103095
 20
8.7877803594
 10
-10.6506264627
 20
8.7073408444
 10
-10.5448879479
 20
8.6281906018
 10
-10.4428690285
 20
8.5503331623
 10
-10.3445880485
 20
8.4737651002
 10
-10.2497840923
 20
8.398418367
 10
-10.1584408462
 20
8.3242938085
 10
-10.0705744574
 20
8.2513906774
 10
-9.9859727162
 20
8.1796385273
 10
-9.9046211151
 20
8.1090344436
 10
-9.8265339992
 20
8.039581437
 10
-9.7515424453
 20
7.9712179444
 10
-9.6796318031
 20
7.9039384834
 10
-9.6108165617
 20
7.837748632
 10
-9.5449715118
 20
7.7726034144
 10
-9.4820815675
 20
7.7084923339
 10
-9.4221616531
 20
7.645425983
 10
-9.3651315817
 20
7.5833910158
 10
-9.3109734948
 20
7.52237277
 10
-9.2597050942
 20
7.462386001
 10
-9.2112995461
 20
7.4034614811
 10
-9.1657436751
 20
7.3455708461
 10
-9.123050512
 20
7.2887425463
 10
-9.0832325651
 20
7.233092556
 10
-9.0463004701
 20
7.1785865091
 10
-9.0122434897
 20
7.1252588322
 10
-8.9810421485
 20
7.0733286433
 10
-8.9527372831
 20
7.0227746792
 10
-8.9272880575
 20
6.9736182032
 10
-8.9045526182
 20
6.9261420458
 10
-8.8846223522
 20
6.8805155094
  0
LWPOLYLINE
  5
336
100
AcDbEntity
  8
0
100
AcDbPolyline
 62
253
  6
CONTINUOUS
 90
48
 70
0
 10
-12.0514721317
 20
9.6433320706
 10
-11.917372217
 20
9.5610437428
 10
-11.787927111
 20
9.4804129851
 10
-11.6630876941
 20
9.4014425176
 10
-11.5429029551
 20
9.3241296974
 10
-11.426644331
 20
9.248233378
 10
-11.314228196
 20
9.173720071
 10
-11.2057380592
 20
9.1006233337
 10
-11.1006960818
 20
9.0288025756
 10
-10.9990688506
 20
8.9582493535
 10
-10.9008896779
 20
8.88897217
 10
-10.805780833
 20
8.8208558419
 10
-10.7137254111
 20
8.7539004055
 10
-10.6247402296
 20
8.6881058761
 10
-10.5384981544
 20
8.6233570303
 10
-10.4549825372
 20
8.5596550143
 10
-10.3742099477
 20
8.4969987284
 10
-10.2959030869
 20
8.4352695754
 10
-10.2200464258
 20
8.3744673376
 10
-10.1466554162
 20
8.3145922784
 10
-10.075499231
 20
8.2555265215
 10
-10.0065564617
 20
8.1972611383
 10
-9.9398484345
 20
8.1398051062
 10
-9.8752084217
 20
8.0830674098
 10
-9.8126195127
 20
8.0270407102
 10
-9.7520985296
 20
7.9717323988
 10
-9.6935293397
 20
7.9170735581
 10
-9.6369035969
 20
7.8630637226
 10
-9.5822295519
 20
7.8097034143
 10
-9.5294159601
 20
7.7569252018
 10
-9.4784618421
 20
7.7047372785
 10
-9.4293680715
 20
7.6531315137
 10
-9.3820461699
 20
7.6020159968
 10
-9.3364873641
 20
7.5513987859
 10
-9.2927003008
 20
7.501271898
 10
-9.2506226073
 20
7.4515193754
 10
-9.2101968991
 20
7.4020837861
 10
-9.1714803923
 20
7.3530226619
 10
-9.1345825987
 20
7.3043925009
 10
-9.0994868559
 20
7.2561544409
 10
-9.0662096511
 20
7.2083474478
 10
-9.0349102379
 20
7.1611447517
 10
-9.0056156499
 20
7.1145512453
 10
-8.9782987126
 20
7.0685621194
 10
-8.9530374083
 20
7.0233360261
 10
-8.9298446979
 20
6.978830784
 10
-8.9087075196
 20
6.9350886348
 10
-8.8896649003
 20
6.8923948181
  0
LINE
  5
337
100
AcDbEntity
  8
RACCORDO
100
AcDbLine
 62
253
  6
CONTINUOUS
 10
-11.2340006885
 20
8.8468287311
 11
-11.1528988345
 21
8.79159917
  0
LWPOLYLINE
  5
338
100
AcDbEntity
  8
RACCORDO
100
AcDbPolyline
 62
253
  6
CONTINUOUS
 90
30
 70
0
 10
-11.1528988345
 20
8.79159917
 10
-11.0743173114
 20
8.7374486585
 10
-10.9982957821
 20
8.6843950949
 10
-10.9245620827
 20
8.6323508398
 10
-10.8531038052
 20
8.5813137793
 10
-10.7839333384
 20
8.5312860388
 10
-10.7168157214
 20
8.4821863332
 10
-10.6517323147
 20
8.4340061327
 10
-10.5887017448
 20
8.386753975
 10
-10.5275449556
 20
8.340374173
 10
-10.4682457761
 20
8.2948578129
 10
-10.4108203703
 20
8.2502138126
 10
-10.3551381924
 20
8.2064132292
 10
-10.3011967727
 20
8.1634565572
 10
-10.248998581
 20
8.121343302
 10
-10.1984204875
 20
8.0800430327
 10
-10.1494689277
 20
8.0395638711
 10
-10.1021374727
 20
7.9998976916
 10
-10.0562836999
 20
7.9609896891
 10
-10.0119077214
 20
7.9228435346
 10
-9.9690094344
 20
7.8854555518
 10
-9.9274460971
 20
7.8487599137
 10
-9.8872141646
 20
7.8127573349
 10
-9.8483171915
 20
7.7774470951
 10
-9.8106230844
 20
7.7427612153
 10
-9.7741136796
 20
7.7086856193
 10
-9.7388071491
 20
7.6752343783
 10
-9.7046259035
 20
7.6423817343
 10
-9.6715555179
 20
7.61011398
 10
-9.6396104277
 20
7.5784448164
  0
LINE
  5
339
100
AcDbEntity
  8
RACCORDO
100
AcDbLine
 62
7
  6
CONTINUOUS
 10
-3.0268456376
 20
17.9846124233
 11
-3.039965667
 21
18.1011472237
  0
LINE
  5
33A
100
AcDbEntity
  8
RACCORDO
100
AcDbLine
 62
253
  6
CONTINUOUS
 10
1.5715132519
 20
-16.1893095959
 11
0.1830872263
 21
-3.0286363895
  0
LWPOLYLINE
  5
33B
100
AcDbEntity
  8
RACCORDO
100
AcDbPolyline
 62
253
  6
CONTINUOUS
 90
10
 70
0
 10
0.1830872263
 20
-3.0286363895
 10
0.1804845083
 20
-3.0006278055
 10
0.1785331363
 20
-2.972286651
 10
0.1772331103
 20
-2.943612926
 10
0.1765847061
 20
-2.9145991099
 10
0.1765876479
 20
-2.8852527234
 10
0.1772411084
 20
-2.8555963282
 10
0.1785448117
 20
-2.825637445
 10
0.1804990336
 20
-2.7953685532
 10
0.1831037742
 20
-2.7647896528
  0
LINE
  5
33C
100
AcDbEntity
  8
ASSI
100
AcDbLine
 62
7
  6
CONTINUOUS
 10
-1.4725069243
 20
14.9777314703
 11
1.1164463435
 21
-20.6044003008
  0
LINE
  5
33D
100
AcDbEntity
  8
RACCORDO
100
AcDbLine
 62
7
  6
CONTINUOUS
 10
-1.4725069243
 20
14.9777314703
 11
1.1164463435
 21
-20.6044003008
  0
LWPOLYLINE
  5
33E
100
AcDbEntity
  8
ASSI
100
AcDbPolyline
 62
7
  6
CONTINUOUS
 90
19
 70
0
 10
0.5718333283
 20
22.0881994529
 10
0.5740669102
 20
22.040228711
 10
0.580147516
 20
21.9919298662
 10
0.5900751457
 20
21.9433029185
 10
0.6040518808
 20
21.8937863363
 10
0.6218756398
 20
21.8439416511
 10
0.6429401788
 20
21.7954534579
 10
0.6673491477
 20
21.7483807794
 10
0.6949988965
 20
21.7026645929
 10
0.7249722318
 20
21.6598124243
 10
0.7573463536
 20
21.6199158474
 10
0.7920440619
 20
21.5828832884
 10
0.8279165633
 20
21.5499475523
 10
0.8650106225
 20
21.5212419331
 10
0.9032794747
 20
21.4966331367
 10
0.9414340325
 20
21.4769540859
 10
0.9790446002
 20
21.4624824215
 10
1.0165408735
 20
21.4529405027
 10
1.0539228524
 20
21.4483283295
  0
LWPOLYLINE
  5
33F
100
AcDbEntity
  8
SUPERFICI
100
AcDbPolyline
 62
7
  6
CONTINUOUS
 90
19
 70
0
 10
0.5718333283
 20
22.0881994529
 10
0.5740669102
 20
22.040228711
 10
0.580147516
 20
21.9919298662
 10
0.5900751457
 20
21.9433029185
 10
0.6040518808
 20
21.8937863363
 10
0.6218756398
 20
21.8439416511
 10
0.6429401788
 20
21.7954534579
 10
0.6673491477
 20
21.7483807794
 10
0.6949988965
 20
21.7026645929
 10
0.7249722318
 20
21.6598124243
 10
0.7573463536
 20
21.6199158474
 10
0.7920440619
 20
21.5828832884
 10
0.8279165633
 20
21.5499475523
 10
0.8650106225
 20
21.5212419331
 10
0.9032794747
 20
21.4966331367
 10
0.9414340325
 20
21.4769540859
 10
0.9790446002
 20
21.4624824215
 10
1.0165408735
 20
21.4529405027
 10
1.0539228524
 20
21.4483283295
  0
LINE
  5
340
100
AcDbEntity
  8
ASSI
100
AcDbLine
 62
7
  6
CONTINUOUS
 10
0.7121304965
 20
22.3533516016
 11
0.7120881544
 21
21.678232485
  0
LINE
  5
341
100
AcDbEntity
  8
0
100
AcDbLine
 62
7
  6
CONTINUOUS
 10
0.7121304965
 20
22.3533516016
 11
0.7120881544
 21
21.678232485
  0
LWPOLYLINE
  5
342
100
AcDbEntity
  8
RACCORDO
100
AcDbPolyline
 62
253
  6
CONTINUOUS
 90
10
 70
0
 10
1.2241225899
 20
11.8107166852
 10
1.2311985485
 20
11.9461930367
 10
1.2310550432
 20
12.0792930254
 10
1.2236920738
 20
12.2100166514
 10
1.208442993
 20
12.3389453345
 10
1.1859744483
 20
12.4654976549
 10
1.1582863819
 20
12.5879293531
 10
1.1260454414
 20
12.7056590095
 10
1.0885849793
 20
12.8192680436
 10
1.0459049956
 20
12.9287564557
  0
LWPOLYLINE
  5
343
100
AcDbEntity
  8
RACCORDO
100
AcDbPolyline
 62
253
  6
CONTINUOUS
 90
10
 70
0
 10
1.5732677542
 20
11.7851744486
 10
1.5812936878
 20
11.9381247651
 10
1.5794010362
 20
12.0904190762
 10
1.5684607509
 20
12.2408111601
 10
1.5494127848
 20
12.3879841118
 10
1.5231185863
 20
12.5312193753
 10
1.4902297118
 20
12.6703967794
 10
1.4514210154
 20
12.8050698256
 10
1.4075007751
 20
12.9344562327
 10
1.3591882857
 20
13.0581066509
  0
LINE
  5
344
100
AcDbEntity
  8
RACCORDO
100
AcDbLine
 62
7
  6
CONTINUOUS
 10
-0.9172733331
 20
7.3466957725
 11
-0.3225035187
 21
13.5717739446
  0
LINE
  5
345
100
AcDbEntity
  8
RACCORDO
100
AcDbLine
 62
253
  6
CONTINUOUS
 10
-0.16604139
 20
-2.7392474161
 11
1.2241225899
 21
11.8107166852
  0
LINE
  5
346
100
AcDbEntity
  8
RACCORDO
100
AcDbLine
 62
253
  6
CONTINUOUS
 10
0.1831037742
 20
-2.7647896528
 11
1.5732677541
 21
11.7851744485
  0
LWPOLYLINE
  5
347
100
AcDbEntity
  8
ASSI
100
AcDbPolyline
 62
253
  6
CONTINUOUS
 90
10
 70
0
 10
5.2042712245
 20
20.8240362646
 10
5.2157296571
 20
20.8603789973
 10
5.2251698556
 20
20.893710647
 10
5.2320658365
 20
20.9236898802
 10
5.2355918515
 20
20.9502015161
 10
5.2357199118
 20
20.9729655232
 10
5.2331576114
 20
20.9914090371
 10
5.2279168964
 20
21.0052649267
 10
5.2193968737
 20
21.0147003044
 10
5.2175180229
 20
21.0159263506
  0
LWPOLYLINE
  5
348
100
AcDbEntity
  8
RACCORDO
100
AcDbPolyline
 62
253
  6
CONTINUOUS
 90
10
 70
0
 10
5.2042712245
 20
20.8240362646
 10
5.2157296571
 20
20.8603789973
 10
5.2251698556
 20
20.893710647
 10
5.2320658365
 20
20.9236898802
 10
5.2355918515
 20
20.9502015161
 10
5.2357199118
 20
20.9729655232
 10
5.2331576114
 20
20.9914090371
 10
5.2279168964
 20
21.0052649267
 10
5.2193968737
 20
21.0147003044
 10
5.2175180229
 20
21.0159263506
  0
LINE
  5
349
100
AcDbEntity
  8
ASSI
100
AcDbLine
 62
7
  6
CONTINUOUS
 10
-8.9739678493
 20
6.4084071284
 11
-8.9740905729
 21
6.4083283078
  0
LINE
  5
34A
100
AcDbEntity
  8
0
100
AcDbLine
 62
7
  6
CONTINUOUS
 10
-8.9739678177
 20
6.4084071486
 11
-8.9743005408
 21
6.4081935848
  0
LINE
  5
34B
100
AcDbEntity
  8
RACCORDO
100
AcDbLine
 62
253
  6
CONTINUOUS
 10
-9.0558161105
 20
6.3867560406
 11
-9.0587806484
 21
6.3848806078
  0
LWPOLYLINE
  5
34C
100
AcDbEntity
  8
ASSI
100
AcDbPolyline
 62
253
  6
CONTINUOUS
 90
3
 70
0
 10
-8.9740905729
 20
6.4083283078
 10
-8.9799673142
 20
6.4046185969
 10
-9.0072980128
 20
6.3888794308
  0
LINE
  5
34D
100
AcDbEntity
  8
RACCORDO
100
AcDbLine
 62
7
  6
CONTINUOUS
 10
-9.0587806484
 20
6.3848806078
 11
-9.0588608748
 21
6.3848303124
  0
LINE
  5
34E
100
AcDbEntity
  8
0
100
AcDbLine
 62
7
  6
CONTINUOUS
 10
-9.0588609056
 20
6.3848304632
 11
-8.8985626324
 21
6.4853100753
  0
LINE
  5
34F
100
AcDbEntity
  8
0
100
AcDbLine
 62
253
  6
CONTINUOUS
 10
-8.9743005408
 20
6.4081935848
 11
-8.9991776726
 21
6.393313512
  0
LWPOLYLINE
  5
350
100
AcDbEntity
  8
ASSI
100
AcDbPolyline
 62
253
  6
CONTINUOUS
 90
9
 70
0
 10
16.7713741698
 20
19.759516413
 10
16.8013358708
 20
19.7773490455
 10
16.8274503015
 20
19.7966350468
 10
16.8494376689
 20
19.8171677751
 10
16.8670624027
 20
19.8387272351
 10
16.8801356695
 20
19.8610824239
 10
16.8885174037
 20
19.8839938045
 10
16.8921178184
 20
19.9072158919
 10
16.8922651882
 20
19.9129074447
  0
LWPOLYLINE
  5
351
100
AcDbEntity
  8
RACCORDO
100
AcDbPolyline
 62
253
  6
CONTINUOUS
 90
9
 70
0
 10
16.7713741698
 20
19.759516413
 10
16.8013358708
 20
19.7773490455
 10
16.8274503015
 20
19.7966350468
 10
16.8494376689
 20
19.8171677751
 10
16.8670624027
 20
19.8387272351
 10
16.8801356695
 20
19.8610824239
 10
16.8885174037
 20
19.8839938045
 10
16.8921178184
 20
19.9072158919
 10
16.8922651882
 20
19.9129074447
  0
LINE
  5
352
100
AcDbEntity
  8
ASSI
100
AcDbLine
 62
253
  6
CONTINUOUS
 10
16.4572449728
 20
20.991530781
 11
9.3682212751
 21
17.2398191112
  0
LINE
  5
353
100
AcDbEntity
  8
RACCORDO
100
AcDbLine
 62
253
  6
CONTINUOUS
 10
16.4572449728
 20
20.991530781
 11
9.3682212751
 21
17.2398191112
  0
LINE
  5
354
100
AcDbEntity
  8
ASSI
100
AcDbLine
 62
253
  6
CONTINUOUS
 10
9.3682212751
 20
17.2398191112
 11
2.3026412675
 21
13.500360438
  0
LINE
  5
355
100
AcDbEntity
  8
RACCORDO
100
AcDbLine
 62
253
  6
CONTINUOUS
 10
9.3682212751
 20
17.2398191112
 11
2.3026412675
 21
13.500360438
  0
LINE
  5
356
100
AcDbEntity
  8
ASSI
100
AcDbLine
 62
253
  6
CONTINUOUS
 10
16.7713741698
 20
19.759516413
 11
9.6801424446
 21
16.0122104269
  0
LINE
  5
357
100
AcDbEntity
  8
RACCORDO
100
AcDbLine
 62
253
  6
CONTINUOUS
 10
16.7713741698
 20
19.759516413
 11
9.6801424446
 21
16.0122104269
  0
LINE
  5
358
100
AcDbEntity
  8
ASSI
100
AcDbLine
 62
253
  6
CONTINUOUS
 10
9.6801424446
 20
16.0122104269
 11
2.6123923594
 21
12.2770981723
  0
LINE
  5
359
100
AcDbEntity
  8
RACCORDO
100
AcDbLine
 62
253
  6
CONTINUOUS
 10
9.6801424446
 20
16.0122104269
 11
2.6123923594
 21
12.2770981723
  0
LWPOLYLINE
  5
35A
100
AcDbEntity
  8
ASSI
100
AcDbPolyline
 62
253
  6
CONTINUOUS
 90
10
 70
0
 10
16.4572449729
 20
20.9915307809
 10
16.4877126287
 20
21.0073780798
 10
16.5150849468
 20
21.0217299704
 10
16.5390686517
 20
21.0344326821
 10
16.5594067747
 20
21.0453501141
 10
16.575881407
 20
21.0543652938
 10
16.5883160342
 20
21.0613816299
 10
16.5965774282
 20
21.0663239471
 10
16.6005770739
 20
21.0691392922
 10
16.6009620569
 20
21.069742117
  0
LWPOLYLINE
  5
35B
100
AcDbEntity
  8
RACCORDO
100
AcDbPolyline
 62
253
  6
CONTINUOUS
 90
10
 70
0
 10
16.4572449729
 20
20.9915307809
 10
16.4877126287
 20
21.0073780798
 10
16.5150849468
 20
21.0217299704
 10
16.5390686517
 20
21.0344326821
 10
16.5594067747
 20
21.0453501141
 10
16.575881407
 20
21.0543652938
 10
16.5883160342
 20
21.0613816299
 10
16.5965774282
 20
21.0663239471
 10
16.6005770739
 20
21.0691392922
 10
16.6009620569
 20
21.069742117
  0
LINE
  5
35C
100
AcDbEntity
  8
0
100
AcDbLine
 62
253
  6
CONTINUOUS
 10
-8.9991776726
 20
6.393313512
 11
-9.0293619799
 21
6.3777405451
  0
LINE
  5
35D
100
AcDbEntity
  8
ASSI
100
AcDbLine
 62
253
  6
CONTINUOUS
 10
-9.0072980128
 20
6.3888794308
 11
-9.0367057315
 21
6.3743022797
  0
LINE
  5
35E
100
AcDbEntity
  8
RACCORDO
100
AcDbLine
 62
253
  6
CONTINUOUS
 10
2.6123923327
 20
12.276672684
 11
1.5732677541
 21
11.7851744485
  0
LINE
  5
35F
100
AcDbEntity
  8
RACCORDO
100
AcDbLine
 62
253
  6
CONTINUOUS
 10
2.3023544617
 20
13.5009359623
 11
1.3591881693
 21
13.0581065963
  0
LWPOLYLINE
  5
360
100
AcDbEntity
  8
RACCORDO
100
AcDbPolyline
 62
253
  6
CONTINUOUS
 90
10
 70
0
 10
1.0459049957
 20
12.9287564557
 10
1.0738143039
 20
12.941423395
 10
1.1057004408
 20
12.9554721641
 10
1.1406855894
 20
12.9705160041
 10
1.1778066176
 20
12.9861407619
 10
1.2160415931
 20
13.0019162921
 10
1.254337917
 20
13.0174082982
 10
1.2916413013
 20
13.0321902896
 10
1.3269247937
 20
13.0458553216
 10
1.3592170486
 20
13.0580271996
  0
LWPOLYLINE
  5
361
100
AcDbEntity
  8
ASSI
100
AcDbPolyline
 62
253
  6
CONTINUOUS
 90
22
 70
0
 10
17.9837071689
 20
17.128094782
 10
18.0886976
 20
17.1605249887
 10
18.1979933046
 20
17.1824009905
 10
18.3111232747
 20
17.1936284793
 10
18.4275996467
 20
17.1941589588
 10
18.5469201486
 20
17.183990065
 10
18.6685706271
 20
17.1631654873
 10
18.7920270932
 20
17.1317746725
 10
18.916756554
 20
17.0899528947
 10
19.0422196744
 20
17.0378809908
 10
19.1678747545
 20
16.9757840256
 10
19.2931804992
 20
16.9039297383
 10
19.4175969209
 20
16.8226278949
 10
19.5405874937
 20
16.7322291682
 10
19.6616218133
 20
16.6331234803
 10
19.7801782573
 20
16.5257379808
 10
19.895745666
 20
16.4105356395
 10
20.0078255261
 20
16.2880133685
 10
20.1159344496
 20
16.1586995885
 10
20.2196062034
 20
16.0231519853
 10
20.3183937156
 20
15.881955096
 10
20.4118709643
 20
15.7357178351
  0
LWPOLYLINE
  5
362
100
AcDbEntity
  8
RACCORDO
100
AcDbPolyline
 62
253
  6
CONTINUOUS
 90
22
 70
0
 10
17.9837071689
 20
17.128094782
 10
18.0886976
 20
17.1605249887
 10
18.1979933046
 20
17.1824009905
 10
18.3111232747
 20
17.1936284793
 10
18.4275996467
 20
17.1941589588
 10
18.5469201486
 20
17.183990065
 10
18.6685706271
 20
17.1631654873
 10
18.7920270932
 20
17.1317746725
 10
18.916756554
 20
17.0899528947
 10
19.0422196744
 20
17.0378809908
 10
19.1678747545
 20
16.9757840256
 10
19.2931804992
 20
16.9039297383
 10
19.4175969209
 20
16.8226278949
 10
19.5405874937
 20
16.7322291682
 10
19.6616218133
 20
16.6331234803
 10
19.7801782573
 20
16.5257379808
 10
19.895745666
 20
16.4105356395
 10
20.0078255261
 20
16.2880133685
 10
20.1159344496
 20
16.1586995885
 10
20.2196062034
 20
16.0231519853
 10
20.3183937156
 20
15.881955096
 10
20.4118709643
 20
15.7357178351
  0
LWPOLYLINE
  5
363
100
AcDbEntity
  8
RACCORDO
100
AcDbPolyline
 62
7
  6
CONTINUOUS
 90
20
 70
0
 10
-10.9148158677
 20
6.4757002679
 10
-10.8109017464
 20
6.4484591227
 10
-10.7125415506
 20
6.4238713343
 10
-10.6184150218
 20
6.4015032467
 10
-10.5283714156
 20
6.3812395401
 10
-10.4425418949
 20
6.3630262184
 10
-10.3600445367
 20
6.3466060326
 10
-10.2807886282
 20
6.3319042166
 10
-10.2048527405
 20
6.3188795916
 10
-10.1316170073
 20
6.3073750497
 10
-10.0610288895
 20
6.2973476573
 10
-9.9931354432
 20
6.2887638538
 10
-9.9274799233
 20
6.2815367535
 10
-9.8640203457
 20
6.2756406423
 10
-9.8028009044
 20
6.2710599002
 10
-9.7435002383
 20
6.2677557727
 10
-9.6861007507
 20
6.265723961
 10
-9.6306316297
 20
6.264960992
 10
-9.5768521518
 20
6.2654687949
 10
-9.5247962912
 20
6.2672599371
  0
LWPOLYLINE
  5
364
100
AcDbEntity
  8
RACCORDO
100
AcDbPolyline
 62
253
  6
CONTINUOUS
 90
132
 70
0
 10
-10.8867596799
 20
6.5120896756
 10
-10.9607668682
 20
6.5316138602
 10
-11.0372496893
 20
6.5524853394
 10
-11.116201596
 20
6.5746959893
 10
-11.1976291651
 20
6.5982539162
 10
-11.281782291
 20
6.6233427144
 10
-11.3686538028
 20
6.6499529625
 10
-11.458250912
 20
6.6780940577
 10
-11.5508451004
 20
6.7079778144
 10
-11.6464087962
 20
6.7395857207
 10
-11.7449696243
 20
6.7729362567
 10
-11.8468818773
 20
6.8082967156
 10
-11.9521316715
 20
6.8456496933
 10
-12.0607329561
 20
6.885012555
 10
-12.1730817901
 20
6.9267047378
 10
-12.2892107482
 20
6.9707250532
 10
-12.4090873339
 20
7.0170746431
 10
-12.5330100205
 20
7.0660764273
 10
-12.6609147231
 20
7.117686924
 10
-12.7928656166
 20
7.1719495611
 10
-12.9293535839
 20
7.229317611
 10
-13.0701423141
 20
7.2896519886
 10
-13.2154682088
 20
7.3530917247
 10
-13.3665312376
 20
7.4205072553
 10
-13.5246287956
 20
7.4924946588
 10
-13.6884635608
 20
7.5684578132
 10
-13.855343432
 20
7.6474788507
 10
-14.0262963271
 20
7.7301932852
 10
-14.2002943425
 20
7.8159655944
 10
-14.3715616288
 20
7.9019713653
 10
-14.5393779261
 20
7.9880083115
 10
-14.7044634123
 20
8.0742787685
 10
-14.8632028917
 20
8.1585652579
 10
-15.0142550185
 20
8.2401926243
 10
-15.1589610305
 20
8.3198360875
 10
-15.2977296387
 20
8.3973037134
 10
-15.4301501376
 20
8.4723191426
 10
-15.5566331442
 20
8.5451587873
 10
-15.6788193831
 20
8.6164598524
 10
-15.7970769377
 20
8.6863985257
 10
-15.9110376415
 20
8.7547986691
 10
-16.0212378651
 20
8.8217689867
 10
-16.1277294028
 20
8.8873251746
 10
-16.2304603944
 20
8.9514515761
 10
-16.3298117515
 20
9.0142098526
 10
-16.4257676502
 20
9.0755772561
 10
-16.5183438667
 20
9.1355765631
 10
-16.6079687302
 20
9.1943377113
 10
-16.6946546832
 20
9.2518568659
 10
-16.7783892478
 20
9.3081378827
 10
-16.8595633852
 20
9.3633222279
 10
-16.938216752
 20
9.4174278029
 10
-17.0143096639
 20
9.4704367228
 10
-17.0881140793
 20
9.5224367691
 10
-17.1596423718
 20
9.5734300781
 10
-17.2288821487
 20
9.6234145249
 10
-17.2960682269
 20
9.6724714948
 10
-17.3612192331
 20
9.7206095283
 10
-17.4243165276
 20
9.7678200926
 10
-17.485539034
 20
9.8141589587
 10
-17.5449029245
 20
9.8596350452
 10
-17.6023920198
 20
9.9042394377
 10
-17.6581367236
 20
9.9480011536
 10
-17.7121394998
 20
9.9909197032
 10
-17.7643978848
 20
10.032995576
 10
-17.8150348962
 20
10.0742592555
 10
-17.8640440843
 20
10.1147026239
 10
-17.9114319053
 20
10.1543337951
 10
-17.9573407413
 20
10.1932075961
 10
-18.0017704757
 20
10.2313203561
 10
-18.0447212343
 20
10.2686757405
 10
-18.0863357641
 20
10.3053395802
 10
-18.126617612
 20
10.3413111592
 10
-18.1655632409
 20
10.3765911876
 10
-18.2033047713
 20
10.4112476364
 10
-18.2398603921
 20
10.4452945689
 10
-18.2752119227
 20
10.4787179167
 10
-18.3094369304
 20
10.5115434524
 10
-18.3425498718
 20
10.5437848693
 10
-18.3745363007
 20
10.5754284678
 10
-18.4054304348
 20
10.6064589286
 10
-18.435234188
 20
10.6368796894
 10
-18.4639456634
 20
10.6666873025
 10
-18.4915933691
 20
10.6958561161
 10
-18.5181723578
 20
10.72438262
 10
-18.5436876013
 20
10.7522703098
 10
-18.5681824936
 20
10.7795040378
 10
-18.5916433787
 20
10.8060684248
 10
-18.6140839436
 20
10.8319788314
 10
-18.6355886006
 20
10.8572662172
 10
-18.6561561867
 20
10.8819270246
 10
-18.6757878963
 20
10.9059647925
 10
-18.6945716786
 20
10.9294211247
 10
-18.7125092224
 20
10.9522953205
 10
-18.7295988693
 20
10.9745880624
 10
-18.7459235472
 20
10.9963430293
 10
-18.7614868448
 20
11.0175621771
 10
-18.7762852021
 20
11.0382435328
 10
-18.7903908229
 20
11.058424883
 10
-18.8038117693
 20
11.0781166704
 10
-18.8165400062
 20
11.0973084364
 10
-18.8286235924
 20
11.1160066139
 10
-18.840061568
 20
11.1342099705
 10
-18.8508549217
 20
11.1519197216
 10
-18.8610546382
 20
11.1691459708
 10
-18.8706581917
 20
11.1858836586
 10
-18.8796681376
 20
11.2021378268
 10
-18.8881430838
 20
11.2179337301
 10
-18.8960820995
 20
11.2332668757
 10
-18.9034861441
 20
11.2481417393
 10
-18.9104166593
 20
11.262597029
 10
-18.9168772988
 20
11.2766376453
 10
-18.9228644347
 20
11.2902586724
 10
-18.9284285852
 20
11.3034840943
 10
-18.9335739375
 20
11.3163259701
 10
-18.9382963286
 20
11.3287722264
 10
-18.942633753
 20
11.3408106474
 10
-18.9465831372
 20
11.3524381535
 10
-18.9501475816
 20
11.3636578082
 10
-18.9533743442
 20
11.3744666087
 10
-18.9562608997
 20
11.384859019
 10
-18.9588098014
 20
11.3948405583
 10
-18.9610759262
 20
11.4044248058
 10
-18.9630589155
 20
11.4136084604
 10
-18.9647591549
 20
11.4223948071
 10
-18.9662326381
 20
11.4308073042
 10
-18.9674804575
 20
11.4388445035
 10
-18.9685015453
 20
11.4465078386
 10
-18.9693486545
 20
11.4538250913
 10
-18.9700393765
 20
11.4608055179
 10
-18.9705561417
 20
11.4674398492
 10
-18.9708989604
 20
11.4737280791
  0
LWPOLYLINE
  5
365
100
AcDbEntity
  8
RACCORDO
100
AcDbPolyline
 62
253
  6
CONTINUOUS
 90
4
 70
0
 10
-15.2918936954
 20
11.1640188193
 10
-15.1593758795
 20
11.109516829
 10
-15.0223182079
 20
11.0519959424
 10
-14.8809564911
 20
10.9914671745
  0
LWPOLYLINE
  5
366
100
AcDbEntity
  8
ASSI
100
AcDbPolyline
 62
7
  6
CONTINUOUS
 90
27
 70
0
 10
-15.2443275475
 20
11.1915020626
 10
-15.0971583996
 20
11.1303338772
 10
-14.9532382157
 20
11.0692109905
 10
-14.8130938375
 20
11.008473707
 10
-14.6762397763
 20
10.9480204795
 10
-14.54232583
 20
10.8877899647
 10
-14.4114715751
 20
10.8279207539
 10
-14.2835857415
 20
10.7684483035
 10
-14.1579979056
 20
10.7091260165
 10
-14.0346283366
 20
10.6499710981
 10
-13.9135760289
 20
10.5910838326
 10
-13.794434796
 20
10.5323094979
 10
-13.6771545294
 20
10.4736576506
 10
-13.5617964136
 20
10.4151928607
 10
-13.4481191718
 20
10.3568246666
 10
-13.3361014896
 20
10.298570729
 10
-13.2257737631
 20
10.2404729058
 10
-13.1169715296
 20
10.1824681679
 10
-13.0095838924
 20
10.1245183701
 10
-12.9037294461
 20
10.0667086659
 10
-12.7995875128
 20
10.0091608222
 10
-12.6971293753
 20
9.9518820936
 10
-12.5963911283
 20
9.894915123
 10
-12.4976491456
 20
9.8384420189
 10
-12.4009149653
 20
9.7824982649
 10
-12.3061823785
 20
9.7271087624
 10
-12.2137009644
 20
9.6724477898
  0
LWPOLYLINE
  5
367
100
AcDbEntity
  8
0
100
AcDbPolyline
 62
7
  6
CONTINUOUS
 90
27
 70
0
 10
-15.2233105593
 20
11.182850494
 10
-15.0976563767
 20
11.130543144
 10
-14.969792069
 20
11.0763062918
 10
-14.8390706928
 20
11.0198217087
 10
-14.7061447511
 20
10.9613260302
 10
-14.5731924161
 20
10.9017664137
 10
-14.4401258954
 20
10.8411161758
 10
-14.3070503772
 20
10.7794312589
 10
-14.1764421857
 20
10.7178950864
 10
-14.0489665858
 20
10.6568908347
 10
-13.923980605
 20
10.5961780527
 10
-13.8020001527
 20
10.5360657862
 10
-13.6834796179
 20
10.476841034
 10
-13.5679782969
 20
10.4183454493
 10
-13.4546673136
 20
10.3602072696
 10
-13.343520804
 20
10.3024518616
 10
-13.2345740603
 20
10.245133593
 10
-13.1270884742
 20
10.187891672
 10
-13.0208567684
 20
10.1306344319
 10
-12.9160936593
 20
10.0734965004
 10
-12.8126928847
 20
10.0164397785
 10
-12.7105881948
 20
9.959443979
 10
-12.6098531622
 20
9.9025654947
 10
-12.5105911732
 20
9.8458800439
 10
-12.4128002477
 20
9.7894051382
 10
-12.3164883342
 20
9.7331638906
 10
-12.2217738874
 20
9.6772427219
  0
LWPOLYLINE
  5
368
100
AcDbEntity
  8
ASSI
100
AcDbPolyline
 62
253
  6
CONTINUOUS
 90
16
 70
0
 10
-15.2663668916
 20
11.2782267544
 10
-15.0804834836
 20
11.2002131759
 10
-14.8878566046
 20
11.1171762498
 10
-14.6886497518
 20
11.0291451407
 10
-14.4826898023
 20
10.9354663456
 10
-14.2672873749
 20
10.8347544332
 10
-14.0451319849
 20
10.728394756
 10
-13.8241188314
 20
10.61989
 10
-13.6044342065
 20
10.509004128
 10
-13.3858917056
 20
10.3959732434
 10
-13.1758274481
 20
10.2850082636
 10
-12.9771022891
 20
10.1775194731
 10
-12.7868551141
 20
10.0720967399
 10
-12.6038391279
 20
9.9687203332
 10
-12.4280250011
 20
9.8674489791
 10
-12.2594417907
 20
9.7682241117
  0
LWPOLYLINE
  5
369
100
AcDbEntity
  8
RACCORDO
100
AcDbPolyline
 62
253
  6
CONTINUOUS
 90
31
 70
0
 10
-15.2184833898
 20
10.9836858624
 10
-15.081947231
 20
10.9263462029
 10
-14.9411146066
 20
10.8660371928
 10
-14.7957494156
 20
10.8026197008
 10
-14.6446535775
 20
10.7352223046
 10
-14.4865295477
 20
10.6632489423
 10
-14.3226749441
 20
10.5872956325
 10
-14.1557844354
 20
10.5082790703
 10
-13.984831023
 20
10.4255632784
 10
-13.8108417198
 20
10.3397842257
 10
-13.639592197
 20
10.2537665347
 10
-13.471803598
 20
10.1677121017
 10
-13.3067546974
 20
10.0814190789
 10
-13.1480576089
 20
9.9971064749
 10
-12.9970533622
 20
9.9154495761
 10
-12.8524008196
 20
9.8357731598
 10
-12.7136888758
 20
9.7582704526
 10
-12.5813276385
 20
9.6832180762
 10
-12.4549069113
 20
9.610339461
 10
-12.3327851633
 20
9.5389980295
 10
-12.214594248
 20
9.4690176615
 10
-12.1007022287
 20
9.4005745261
 10
-11.9905719089
 20
9.333560467
 10
-11.8841513933
 20
9.2679598635
 10
-11.7814925114
 20
9.2037883753
 10
-11.6822136758
 20
9.1409847533
 10
-11.586330586
 20
9.0795718183
 10
-11.4938274949
 20
9.0195267777
 10
-11.4042756629
 20
8.9607199518
 10
-11.3176625638
 20
8.9031552236
 10
-11.2340006885
 20
8.8468287311
  0
LWPOLYLINE
  5
36A
100
AcDbEntity
  8
0
100
AcDbPolyline
 62
253
  6
CONTINUOUS
 90
18
 70
0
 10
-15.174947485
 20
11.2400503786
 10
-15.008044526
 20
11.1693115825
 10
-14.8360193303
 20
11.0945062944
 10
-14.6582487863
 20
11.0153310861
 10
-14.475356151
 20
10.9320893002
 10
-14.289355304
 20
10.8453831002
 10
-14.0993651694
 20
10.7546828861
 10
-13.9062668739
 20
10.660518228
 10
-13.7147175769
 20
10.565080059
 10
-13.5249069573
 20
10.4683011749
 10
-13.3366452341
 20
10.3702488398
 10
-13.1540203567
 20
10.2733157004
 10
-12.9781620783
 20
10.1780214515
 10
-12.8079404576
 20
10.0838465089
 10
-12.6440539325
 20
9.9916245822
 10
-12.4870033094
 20
9.9016544695
 10
-12.3362876013
 20
9.8136374791
 10
-12.1911026116
 20
9.7275110532
  0
LWPOLYLINE
  5
36B
100
AcDbEntity
  8
RACCORDO
100
AcDbPolyline
 62
253
  6
CONTINUOUS
 90
56
 70
0
 10
-14.8809564911
 20
10.9914671745
 10
-14.7350523773
 20
10.9277344163
 10
-14.5834035584
 20
10.8601576068
 10
-14.4247106352
 20
10.7880060223
 10
-14.2602691472
 20
10.711705616
 10
-14.0927738878
 20
10.6323944495
 10
-13.9212098299
 20
10.5494994381
 10
-13.7466043326
 20
10.4634122777
 10
-13.5747289889
 20
10.3769701188
 10
-13.4063243124
 20
10.2906301995
 10
-13.2406768095
 20
10.2041001006
 10
-13.0813845826
 20
10.1193710359
 10
-12.9298010108
 20
10.0373411987
 10
-12.7845945706
 20
9.9574567959
 10
-12.6453347972
 20
9.8796199064
 10
-12.5124360587
 20
9.8041985684
 10
-12.3854956578
 20
9.731093621
 10
-12.2628554948
 20
9.6594520128
 10
-12.1441480095
 20
9.5891358423
 10
-12.0297479128
 20
9.5204400246
 10
-11.919109785
 20
9.4531081002
 10
-11.8121825074
 20
9.3871738408
 10
-11.709021415
 20
9.3227333406
 10
-11.6092400796
 20
9.2596038965
 10
-11.5128547024
 20
9.1978515333
 10
-11.4198511753
 20
9.137520734
 10
-11.3297972672
 20
9.0783802485
 10
-11.2426807177
 20
9.0204676368
 10
-11.1585147559
 20
8.9638354853
 10
-11.0769054557
 20
8.9082590236
 10
-10.9978131068
 20
8.8537481887
 10
-10.9212779032
 20
8.8003660779
 10
-10.8470259024
 20
8.7479552811
 10
-10.7750445969
 20
8.6965391478
 10
-10.7053464785
 20
8.646157343
 10
-10.6376951603
 20
8.5966680516
 10
-10.5720717335
 20
8.5480853867
 10
-10.5084948522
 20
8.5004497477
 10
-10.4467844884
 20
8.4536518608
 10
-10.3869239296
 20
8.4077042983
 10
-10.3289293551
 20
8.3626434245
 10
-10.2726699085
 20
8.3183910854
 10
-10.2181423795
 20
8.2749687959
 10
-10.1653489602
 20
8.232401113
 10
-10.1141666365
 20
8.1906110632
 10
-10.0646011611
 20
8.1496263562
 10
-10.0166453182
 20
8.1094628783
 10
-9.9701565686
 20
8.07002192
 10
-9.9251345527
 20
8.0313242028
 10
-9.881578153
 20
7.9933886477
 10
-9.8393439178
 20
7.9561088673
 10
-9.7984281696
 20
7.9195003442
 10
-9.7588334297
 20
7.8835828783
 10
-9.7204259593
 20
7.8482513171
 10
-9.683187344
 20
7.8135047959
 10
-9.6471355508
 20
7.7793748531
  0
LWPOLYLINE
  5
36C
100
AcDbEntity
  8
RACCORDO
100
AcDbPolyline
 62
253
  6
CONTINUOUS
 90
17
 70
0
 10
-2.2099381441
 20
17.9720176297
 10
-2.2188437718
 20
18.0197344569
 10
-2.2319398696
 20
18.069787482
 10
-2.2495493851
 20
18.121723253
 10
-2.272031897
 20
18.1751209417
 10
-2.2996770774
 20
18.2292808018
 10
-2.3325091493
 20
18.2830220508
 10
-2.370326093
 20
18.3349859692
 10
-2.4130590022
 20
18.3841036933
 10
-2.4600750949
 20
18.4287220398
 10
-2.5098882281
 20
18.4668165911
 10
-2.5615277324
 20
18.4972756904
 10
-2.614035082
 20
18.5191679009
 10
-2.6656752139
 20
18.5315529099
 10
-2.7152060189
 20
18.534127151
 10
-2.7617514292
 20
18.5268391645
 10
-2.8048278403
 20
18.509511178
  0
LWPOLYLINE
  5
36D
100
AcDbEntity
  8
ASSI
100
AcDbPolyline
 62
7
  6
CONTINUOUS
 90
4
 70
0
 10
2.6082504818
 20
12.4088167701
 10
2.5963956803
 20
12.5421546824
 10
2.576827955
 20
12.6771119094
 10
2.5493550442
 20
12.8144477264
  0
LWPOLYLINE
  5
36E
100
AcDbEntity
  8
SUPERFICI
100
AcDbPolyline
 62
7
  6
CONTINUOUS
 90
4
 70
0
 10
2.6082504818
 20
12.4088167701
 10
2.5963956803
 20
12.5421546824
 10
2.576827955
 20
12.6771119094
 10
2.5493550442
 20
12.8144477264
  0
LINE
  5
36F
100
AcDbEntity
  8
ASSI
100
AcDbLine
 62
7
  6
CONTINUOUS
 10
2.6123923594
 20
12.2770981723
 11
2.6082504818
 21
12.4088167701
  0
LINE
  5
370
100
AcDbEntity
  8
SUPERFICI
100
AcDbLine
 62
7
  6
CONTINUOUS
 10
2.6123923594
 20
12.2770981723
 11
2.6082504818
 21
12.4088167701
  0
LINE
  5
371
100
AcDbEntity
  8
RACCORDO
100
AcDbLine
 62
7
  6
CONTINUOUS
 10
2.6123923327
 20
12.276672684
 11
2.6106413506
 21
-15.6416845652
  0
LINE
  5
372
100
AcDbEntity
  8
ASSI
100
AcDbLine
 62
7
  6
CONTINUOUS
 10
2.6106413239
 20
-15.6421100535
 11
2.6123923594
 21
12.2770981723
  0
LINE
  5
373
100
AcDbEntity
  8
SUPERFICI
100
AcDbLine
 62
7
  6
CONTINUOUS
 10
2.6106413239
 20
-15.6421100535
 11
2.6123923594
 21
12.2770981723
  0
LINE
  5
374
100
AcDbEntity
  8
ASSI
100
AcDbLine
 62
7
  6
CONTINUOUS
 10
2.6106413239
 20
-15.6421100535
 11
2.6064831754
 21
-15.769820264
  0
LINE
  5
375
100
AcDbEntity
  8
SUPERFICI
100
AcDbLine
 62
7
  6
CONTINUOUS
 10
2.6106413239
 20
-15.6421100535
 11
2.6064831754
 21
-15.769820264
  0
LWPOLYLINE
  5
376
100
AcDbEntity
  8
RACCORDO
100
AcDbPolyline
 62
7
  6
CONTINUOUS
 90
7
 70
0
 10
2.6106413506
 20
-15.6416845652
 10
2.6007266159
 20
-15.8336855078
 10
2.5740995983
 20
-16.0105354636
 10
2.5307602977
 20
-16.1722344325
 10
2.4707087142
 20
-16.3187824145
 10
2.3939448478
 20
-16.4501794096
 10
2.3004686984
 20
-16.5664254178
  0
LWPOLYLINE
  5
377
100
AcDbEntity
  8
ASSI
100
AcDbPolyline
 62
253
  6
CONTINUOUS
 90
10
 70
0
 10
17.1595235867
 20
17.5364075731
 10
17.184660893
 20
17.5507940912
 10
17.2071999763
 20
17.5658306598
 10
17.2269704561
 20
17.5814029053
 10
17.2438198533
 20
17.5973748875
 10
17.257622057
 20
17.6136332759
 10
17.2682740229
 20
17.6300891014
 10
17.2756887684
 20
17.6465980871
 10
17.2798004091
 20
17.6630273284
 10
17.2806923498
 20
17.6749028841
  0
LWPOLYLINE
  5
378
100
AcDbEntity
  8
RACCORDO
100
AcDbPolyline
 62
253
  6
CONTINUOUS
 90
10
 70
0
 10
17.1595235867
 20
17.5364075731
 10
17.184660893
 20
17.5507940912
 10
17.2071999763
 20
17.5658306598
 10
17.2269704561
 20
17.5814029053
 10
17.2438198533
 20
17.5973748875
 10
17.257622057
 20
17.6136332759
 10
17.2682740229
 20
17.6300891014
 10
17.2756887684
 20
17.6465980871
 10
17.2798004091
 20
17.6630273284
 10
17.2806923498
 20
17.6749028841
  0
LINE
  5
379
100
AcDbEntity
  8
ASSI
100
AcDbLine
 62
7
  6
CONTINUOUS
 10
16.8920772681
 20
16.9163786162
 11
17.1570913605
 21
17.05528382
  0
LINE
  5
37A
100
AcDbEntity
  8
RACCORDO
100
AcDbLine
 62
7
  6
CONTINUOUS
 10
16.8920772681
 20
16.9163786162
 11
17.1570913605
 21
17.05528382
  0
LWPOLYLINE
  5
37B
100
AcDbEntity
  8
ASSI
100
AcDbPolyline
 62
253
  6
CONTINUOUS
 90
12
 70
0
 10
17.0986402106
 20
17.7518027595
 10
17.1237950669
 20
17.764975191
 10
17.1468302213
 20
17.7772002848
 10
17.1675712332
 20
17.7883915979
 10
17.1858489506
 20
17.7984836306
 10
17.2015296853
 20
17.8074002462
 10
17.2145130882
 20
17.8150531017
 10
17.2246834752
 20
17.821406758
 10
17.2319509368
 20
17.82641848
 10
17.2362789776
 20
17.8300050081
 10
17.2376123704
 20
17.8321617726
 10
17.2375346833
 20
17.8323929674
  0
LWPOLYLINE
  5
37C
100
AcDbEntity
  8
RACCORDO
100
AcDbPolyline
 62
253
  6
CONTINUOUS
 90
12
 70
0
 10
17.0986402106
 20
17.7518027595
 10
17.1237950669
 20
17.764975191
 10
17.1468302213
 20
17.7772002848
 10
17.1675712332
 20
17.7883915979
 10
17.1858489506
 20
17.7984836306
 10
17.2015296853
 20
17.8074002462
 10
17.2145130882
 20
17.8150531017
 10
17.2246834752
 20
17.821406758
 10
17.2319509368
 20
17.82641848
 10
17.2362789776
 20
17.8300050081
 10
17.2376123704
 20
17.8321617726
 10
17.2375346833
 20
17.8323929674
  0
LINE
  5
37D
100
AcDbEntity
  8
ASSI
100
AcDbLine
 62
253
  6
CONTINUOUS
 10
16.8921230183
 20
17.6458378393
 11
17.0986432397
 21
17.7517976495
  0
LINE
  5
37E
100
AcDbEntity
  8
RACCORDO
100
AcDbLine
 62
253
  6
CONTINUOUS
 10
16.8921230183
 20
17.6458378393
 11
17.0986432397
 21
17.7517976495
  0
LINE
  5
37F
100
AcDbEntity
  8
ASSI
100
AcDbLine
 62
253
  6
CONTINUOUS
 10
16.8921075502
 20
17.3992089647
 11
17.1595235871
 21
17.5364127316
  0
LINE
  5
380
100
AcDbEntity
  8
RACCORDO
100
AcDbLine
 62
253
  6
CONTINUOUS
 10
16.8921075502
 20
17.3992089647
 11
17.1595235871
 21
17.5364127316
  0
LINE
  5
381
100
AcDbEntity
  8
ASSI
100
AcDbLine
 62
7
  6
CONTINUOUS
 10
17.1594934906
 20
17.0565428789
 11
17.2108983121
 21
17.0813364303
  0
LINE
  5
382
100
AcDbEntity
  8
RACCORDO
100
AcDbLine
 62
7
  6
CONTINUOUS
 10
17.1594934906
 20
17.0565428789
 11
17.2108983121
 21
17.0813364303
  0
LWPOLYLINE
  5
383
100
AcDbEntity
  8
ASSI
100
AcDbPolyline
 62
7
  6
CONTINUOUS
 90
7
 70
0
 10
17.2108983121
 20
17.0813364303
 10
17.2308637938
 20
17.0906897865
 10
17.2471456302
 20
17.0973802711
 10
17.2599386612
 20
17.101536357
 10
17.269476259
 20
17.1039746294
 10
17.2759483566
 20
17.1046209703
 10
17.2788643174
 20
17.103797366
  0
LWPOLYLINE
  5
384
100
AcDbEntity
  8
RACCORDO
100
AcDbPolyline
 62
7
  6
CONTINUOUS
 90
7
 70
0
 10
17.2108983121
 20
17.0813364303
 10
17.2308637938
 20
17.0906897865
 10
17.2471456302
 20
17.0973802711
 10
17.2599386612
 20
17.101536357
 10
17.269476259
 20
17.1039746294
 10
17.2759483566
 20
17.1046209703
 10
17.2788643174
 20
17.103797366
  0
LWPOLYLINE
  5
385
100
AcDbEntity
  8
0
100
AcDbPolyline
 62
253
  6
CONTINUOUS
 90
4
 70
0
 10
-9.0293619799
 20
6.3777405451
 10
-9.0619446749
 20
6.3633923338
 10
-9.09685037
 20
6.3503223824
 10
-9.1340427027
 20
6.3385517739
  0
LINE
  5
386
100
AcDbEntity
  8
ASSI
100
AcDbLine
 62
7
  6
CONTINUOUS
 10
17.5844707495
 20
16.9561890093
 11
17.9264385174
 21
17.1051459266
  0
LINE
  5
387
100
AcDbEntity
  8
DRAFT
100
AcDbLine
 62
7
  6
CONTINUOUS
 10
17.5844707495
 20
16.9561890093
 11
17.9264385174
 21
17.1051459266
  0
LWPOLYLINE
  5
388
100
AcDbEntity
  8
ASSI
100
AcDbPolyline
 62
253
  6
CONTINUOUS
 90
3
 70
0
 10
-9.0367057315
 20
6.3743022797
 10
-9.0682056514
 20
6.360886119
 10
-9.1018051355
 20
6.3486347933
  0
LINE
  5
389
100
AcDbEntity
  8
ASSI
100
AcDbLine
 62
253
  6
CONTINUOUS
 10
17.9264385428
 20
17.1051459377
 11
17.9837071689
 21
17.128094782
  0
LINE
  5
38A
100
AcDbEntity
  8
RACCORDO
100
AcDbLine
 62
253
  6
CONTINUOUS
 10
17.9264385428
 20
17.1051459377
 11
17.9837071689
 21
17.128094782
  0
LWPOLYLINE
  5
38B
100
AcDbEntity
  8
ASSI
100
AcDbPolyline
 62
7
  6
CONTINUOUS
 90
22
 70
0
 10
17.9264385174
 20
17.1051459266
 10
18.0356010644
 20
17.146622984
 10
18.1500594192
 20
17.178067532
 10
18.269334717
 20
17.1990332283
 10
18.3929844115
 20
17.2091364316
 10
18.5204225285
 20
17.2080394624
 10
18.6509637188
 20
17.1954991107
 10
18.7843671791
 20
17.1712796701
 10
18.9198824368
 20
17.135252639
 10
19.056091551
 20
17.0876669639
 10
19.192497192
 20
17.0286669805
 10
19.328602422
 20
16.9584183063
 10
19.4629891518
 20
16.8776977876
 10
19.5949510884
 20
16.7870979996
 10
19.7242411535
 20
16.6869352967
 10
19.8501268831
 20
16.5779085518
 10
19.972082236
 20
16.4606311812
 10
20.0897280384
 20
16.3356083878
 10
20.202546292
 20
16.2035171287
 10
20.3100841068
 20
16.0650174591
 10
20.4119673725
 20
15.9207073435
 10
20.4959947809
 20
15.7896564838
  0
LWPOLYLINE
  5
38C
100
AcDbEntity
  8
RACCORDO
100
AcDbPolyline
 62
7
  6
CONTINUOUS
 90
22
 70
0
 10
17.9264385174
 20
17.1051459266
 10
18.0356010644
 20
17.146622984
 10
18.1500594192
 20
17.178067532
 10
18.269334717
 20
17.1990332283
 10
18.3929844115
 20
17.2091364316
 10
18.5204225285
 20
17.2080394624
 10
18.6509637188
 20
17.1954991107
 10
18.7843671791
 20
17.1712796701
 10
18.9198824368
 20
17.135252639
 10
19.056091551
 20
17.0876669639
 10
19.192497192
 20
17.0286669805
 10
19.328602422
 20
16.9584183063
 10
19.4629891518
 20
16.8776977876
 10
19.5949510884
 20
16.7870979996
 10
19.7242411535
 20
16.6869352967
 10
19.8501268831
 20
16.5779085518
 10
19.972082236
 20
16.4606311812
 10
20.0897280384
 20
16.3356083878
 10
20.202546292
 20
16.2035171287
 10
20.3100841068
 20
16.0650174591
 10
20.4119673725
 20
15.9207073435
 10
20.4959947809
 20
15.7896564838
  0
LWPOLYLINE
  5
38D
100
AcDbEntity
  8
ASSI
100
AcDbPolyline
 62
253
  6
CONTINUOUS
 90
4
 70
0
 10
-9.1018051355
 20
6.3486347933
 10
-9.137488889
 20
6.3375602466
 10
-9.1752580267
 20
6.3276683018
 10
-9.186933892
 20
6.3251191505
  0
LINE
  5
38E
100
AcDbEntity
  8
ASSI
100
AcDbLine
 62
7
  6
CONTINUOUS
 10
-15.393575875
 20
11.2521236352
 11
-15.2443275475
 21
11.1915020626
  0
LINE
  5
38F
100
AcDbEntity
  8
0
100
AcDbLine
 62
7
  6
CONTINUOUS
 10
-15.3465313395
 20
11.2331705569
 11
-15.2233105593
 21
11.182850494
  0
LINE
  5
390
100
AcDbEntity
  8
0
100
AcDbLine
 62
253
  6
CONTINUOUS
 10
-15.3365838912
 20
11.3070306696
 11
-15.174947485
 21
11.2400503786
  0
LINE
  5
391
100
AcDbEntity
  8
ASSI
100
AcDbLine
 62
253
  6
CONTINUOUS
 10
-21.7814773554
 20
18.8621382543
 11
-6.7684726194
 21
11.6118072336
  0
LINE
  5
392
100
AcDbEntity
  8
RACCORDO
100
AcDbLine
 62
253
  6
CONTINUOUS
 10
-21.7814773554
 20
18.8621382543
 11
-6.7684726194
 21
11.6118072336
  0
LWPOLYLINE
  5
393
100
AcDbEntity
  8
ASSI
100
AcDbPolyline
 62
253
  6
CONTINUOUS
 90
13
 70
0
 10
-21.7814773496
 20
18.8621382577
 10
-21.8040130034
 20
18.8737704159
 10
-21.8250012843
 20
18.8861889879
 10
-21.8443543005
 20
18.8993419681
 10
-21.8619910068
 20
18.9131742739
 10
-21.8778375491
 20
18.9276279811
 10
-21.8918275718
 20
18.942642566
 10
-21.903902489
 20
18.9581551534
 10
-21.9140117332
 20
18.9741007807
 10
-21.9221129702
 20
18.990412675
 10
-21.928172275
 20
19.0070225337
 10
-21.9321642679
 20
19.0238607938
 10
-21.9341468361
 20
19.0425316502
  0
LWPOLYLINE
  5
394
100
AcDbEntity
  8
RACCORDO
100
AcDbPolyline
 62
253
  6
CONTINUOUS
 90
9
 70
0
 10
-21.7814773496
 20
18.8621382577
 10
-21.8167972039
 20
18.8811303101
 10
-21.8480210273
 20
18.9020556059
 10
-21.8748142717
 20
18.9246899406
 10
-21.8968898605
 20
18.9487907984
 10
-21.9140112644
 20
18.9740999503
 10
-21.925995036
 20
19.0003462211
 10
-21.932712775
 20
19.0272483946
 10
-21.9341467485
 20
19.0425293764
  0
LWPOLYLINE
  5
395
100
AcDbEntity
  8
RACCORDO
100
AcDbPolyline
 62
253
  6
CONTINUOUS
 90
10
 70
0
 10
1.3591881693
 20
13.0581065963
 10
1.0579675722
 20
13.7742653243
 10
0.743782043
 20
14.4833892521
 10
0.4169184773
 20
15.1849605553
 10
0.0777065019
 20
15.8784842283
 10
-0.2735847859
 20
16.5634378084
 10
-0.6367471754
 20
17.239271668
 10
-1.0114961764
 20
17.9054769592
 10
-1.397471165
 20
18.561586059
 10
-1.794338744
 20
19.2071222114
  0
LWPOLYLINE
  5
396
100
AcDbEntity
  8
RACCORDO
100
AcDbPolyline
 62
253
  6
CONTINUOUS
 90
10
 70
0
 10
1.0459049956
 20
12.9287564557
 10
0.7473937997
 20
13.6394958945
 10
0.4365768094
 20
14.3422960599
 10
0.1134540246
 20
15.0371569519
 10
-0.2222663383
 20
15.7246247003
 10
-0.5702924957
 20
16.4041531754
 10
-0.9297490967
 20
17.0741039878
 10
-1.3003443576
 20
17.7339310079
 10
-1.682370062
 20
18.3841803654
 10
-2.0758262099
 20
19.0248520603
  0
LWPOLYLINE
  5
397
100
AcDbEntity
  8
ASSI
100
AcDbPolyline
 62
7
  6
CONTINUOUS
 90
4
 70
0
 10
2.5493550442
 20
12.8144477264
 10
2.5141692096
 20
12.9534028581
 10
2.4718472361
 20
13.0916994777
 10
2.4225813855
 20
13.2285783098
  0
LWPOLYLINE
  5
398
100
AcDbEntity
  8
SUPERFICI
100
AcDbPolyline
 62
7
  6
CONTINUOUS
 90
4
 70
0
 10
2.5493550442
 20
12.8144477264
 10
2.5141692096
 20
12.9534028581
 10
2.4718472361
 20
13.0916994777
 10
2.4225813855
 20
13.2285783098
  0
LWPOLYLINE
  5
399
100
AcDbEntity
  8
ASSI
100
AcDbPolyline
 62
7
  6
CONTINUOUS
 90
4
 70
0
 10
2.6064831754
 20
-15.769820264
 10
2.5946123672
 20
-15.8917002086
 10
2.5750288993
 20
-16.0077498874
 10
2.5475404264
 20
-16.1185428349
  0
LWPOLYLINE
  5
39A
100
AcDbEntity
  8
SUPERFICI
100
AcDbPolyline
 62
7
  6
CONTINUOUS
 90
4
 70
0
 10
2.6064831754
 20
-15.769820264
 10
2.5946123672
 20
-15.8917002086
 10
2.5750288993
 20
-16.0077498874
 10
2.5475404264
 20
-16.1185428349
  0
LINE
  5
39B
100
AcDbEntity
  8
RACCORDO
100
AcDbLine
 62
7
  6
CONTINUOUS
 10
17.5625914408
 20
14.5422120278
 11
16.891906586
 21
14.1949546849
  0
LINE
  5
39C
100
AcDbEntity
  8
ASSI
100
AcDbLine
 62
253
  6
CONTINUOUS
 10
22.9271996938
 20
15.4651975152
 11
16.8917916796
 21
12.3628414302
  0
LINE
  5
39D
100
AcDbEntity
  8
RACCORDO
100
AcDbLine
 62
253
  6
CONTINUOUS
 10
22.9271996938
 20
15.4651975152
 11
16.8917916796
 21
12.3628414302
  0
LINE
  5
39E
100
AcDbEntity
  8
ASSI
100
AcDbLine
 62
253
  6
CONTINUOUS
 10
20.2655380753
 20
15.6614031924
 11
20.4118709643
 21
15.7357178351
  0
LINE
  5
39F
100
AcDbEntity
  8
RACCORDO
100
AcDbLine
 62
253
  6
CONTINUOUS
 10
20.2655380753
 20
15.6614031924
 11
20.4118709643
 21
15.7357178351
  0
LINE
  5
3A0
100
AcDbEntity
  8
ASSI
100
AcDbLine
 62
253
  6
CONTINUOUS
 10
21.8506146425
 20
15.9851199512
 11
17.7416659739
 21
14.0184740282
  0
LINE
  5
3A1
100
AcDbEntity
  8
RACCORDO
100
AcDbLine
 62
253
  6
CONTINUOUS
 10
21.8506146425
 20
15.9851199512
 11
17.7416659739
 21
14.0184740282
  0
LINE
  5
3A2
100
AcDbEntity
  8
ASSI
100
AcDbLine
 62
7
  6
CONTINUOUS
 10
21.7183907261
 20
15.9945310785
 11
17.6098669082
 21
14.0280889459
  0
LINE
  5
3A3
100
AcDbEntity
  8
RACCORDO
100
AcDbLine
 62
7
  6
CONTINUOUS
 10
21.7183907261
 20
15.9945310785
 11
17.6098669082
 21
14.0280889459
  0
LWPOLYLINE
  5
3A4
100
AcDbEntity
  8
RACCORDO
100
AcDbPolyline
 62
7
  6
CONTINUOUS
 90
11
 70
0
 10
17.5620403427
 20
14.5419266882
 10
17.5738326097
 20
14.5474526108
 10
17.5854465945
 20
14.5517132113
 10
17.596882297
 20
14.5547084895
 10
17.608256685
 20
14.5564430978
 10
17.6194527908
 20
14.5569123839
 10
17.6301197111
 20
14.556102391
 10
17.6401820838
 20
14.5539801137
 10
17.6497152711
 20
14.5505785573
 10
17.6585944565
 20
14.5459827811
 10
17.6644856169
 20
14.5420042374
  0
LWPOLYLINE
  5
3A5
100
AcDbEntity
  8
ASSI
100
AcDbPolyline
 62
7
  6
CONTINUOUS
 90
7
 70
0
 10
17.6099159234
 20
14.0279860691
 10
17.5309582319
 20
13.991451495
 10
17.3894023717
 20
13.9319215794
 10
17.2387555873
 20
13.8757745261
 10
17.079560085
 20
13.8233563026
 10
16.9124138598
 20
13.7750454007
 10
16.8918799266
 20
13.7698860561
  0
LWPOLYLINE
  5
3A6
100
AcDbEntity
  8
RACCORDO
100
AcDbPolyline
 62
7
  6
CONTINUOUS
 90
7
 70
0
 10
17.6099159234
 20
14.0279860691
 10
17.5309582319
 20
13.991451495
 10
17.3894023717
 20
13.9319215794
 10
17.2387555873
 20
13.8757745261
 10
17.079560085
 20
13.8233563026
 10
16.9124138598
 20
13.7750454007
 10
16.8918799266
 20
13.7698860561
  0
LINE
  5
3A7
100
AcDbEntity
  8
ASSI
100
AcDbLine
 62
253
  6
CONTINUOUS
 10
17.7416659739
 20
14.0184740282
 11
17.5961221064
 21
13.9537719453
  0
LINE
  5
3A8
100
AcDbEntity
  8
RACCORDO
100
AcDbLine
 62
253
  6
CONTINUOUS
 10
17.7416659739
 20
14.0184740282
 11
17.5961221064
 21
13.9537719453
  0
LWPOLYLINE
  5
3A9
100
AcDbEntity
  8
ASSI
100
AcDbPolyline
 62
253
  6
CONTINUOUS
 90
6
 70
0
 10
17.5961221064
 20
13.9537719453
 10
17.4492587408
 20
13.8943792885
 10
17.3010758772
 20
13.8402960576
 10
17.1508994631
 20
13.791766445
 10
16.999403551
 20
13.7485462584
 10
16.8918768599
 20
13.720990714
  0
LWPOLYLINE
  5
3AA
100
AcDbEntity
  8
RACCORDO
100
AcDbPolyline
 62
253
  6
CONTINUOUS
 90
6
 70
0
 10
17.5961221064
 20
13.9537719453
 10
17.4492587408
 20
13.8943792885
 10
17.3010758772
 20
13.8402960576
 10
17.1508994631
 20
13.791766445
 10
16.999403551
 20
13.7485462584
 10
16.8918768599
 20
13.720990714
  0
LWPOLYLINE
  5
3AB
100
AcDbEntity
  8
RACCORDO
100
AcDbPolyline
 62
7
  6
CONTINUOUS
 90
12
 70
0
 10
-9.5247962912
 20
6.2672599371
 10
-9.4744555391
 20
6.2703521971
 10
-9.4255345481
 20
6.2747957571
 10
-9.3780562039
 20
6.2806444851
 10
-9.3320558241
 20
6.2879537636
 10
-9.2872839504
 20
6.2968555747
 10
-9.2436751434
 20
6.3074934704
 10
-9.2014292697
 20
6.319975691
 10
-9.1607155884
 20
6.3344223081
 10
-9.1215907117
 20
6.3510100978
 10
-9.0842545452
 20
6.3698903249
 10
-9.0587646583
 20
6.3848906341
  0
LWPOLYLINE
  5
3AC
100
AcDbEntity
  8
ASSI
100
AcDbPolyline
 62
253
  6
CONTINUOUS
 90
13
 70
0
 10
-21.1722329139
 20
20.0836527947
 10
-21.1960557589
 20
20.093871437
 10
-21.2196084881
 20
20.1022922679
 10
-21.2427903026
 20
20.1088792494
 10
-21.2655019893
 20
20.1136041913
 10
-21.2876463505
 20
20.1164468736
 10
-21.3091286191
 20
20.1173951308
 10
-21.3298568573
 20
20.1164449043
 10
-21.3497423537
 20
20.1136002603
 10
-21.3687000071
 20
20.1088733716
 10
-21.3866486897
 20
20.1022844637
 10
-21.4035115781
 20
20.0938617354
 10
-21.4141718568
 20
20.0872063199
  0
LINE
  5
3AD
100
AcDbEntity
  8
ASSI
100
AcDbLine
 62
253
  6
CONTINUOUS
 10
-21.1722329139
 20
20.0836527947
 11
-6.1470115947
 21
12.8274219375
  0
LINE
  5
3AE
100
AcDbEntity
  8
RACCORDO
100
AcDbLine
 62
253
  6
CONTINUOUS
 10
-21.1722329139
 20
20.0836527947
 11
-6.1470115947
 21
12.8274219375
  0
LWPOLYLINE
  5
3AF
100
AcDbEntity
  8
ASSI
100
AcDbPolyline
 62
7
  6
CONTINUOUS
 90
10
 70
0
 10
-6.8465788093
 20
22.2841143509
 10
-6.8913993216
 20
22.3398306853
 10
-6.9377870215
 20
22.3877861561
 10
-6.9857419089
 20
22.4279807632
 10
-7.0363084193
 20
22.4609189031
 10
-7.0884421173
 20
22.4860961793
 10
-7.1390096961
 20
22.5019994032
 10
-7.1869667203
 20
22.5081241784
 10
-7.2333576254
 20
22.5049749013
 10
-7.2781824113
 20
22.4925515718
  0
LWPOLYLINE
  5
3B0
100
AcDbEntity
  8
ASSI
100
AcDbPolyline
 62
7
  6
CONTINUOUS
 90
10
 70
0
 10
-3.5376178607
 20
20.6860956575
 10
-3.582438373
 20
20.7418119919
 10
-3.6288260729
 20
20.7897674627
 10
-3.6767809603
 20
20.8299620698
 10
-3.7273474707
 20
20.8629002097
 10
-3.7794811687
 20
20.8880774859
 10
-3.8300487475
 20
20.9039807098
 10
-3.8780057717
 20
20.910105485
 10
-3.9243966767
 20
20.9069562079
 10
-3.9692214627
 20
20.8945328784
  0
LWPOLYLINE
  5
3B1
100
AcDbEntity
  8
RACCORDO
100
AcDbPolyline
 62
253
  6
CONTINUOUS
 90
13
 70
0
 10
-1.7943385384
 20
19.2071223486
 10
-1.8079225486
 20
19.2254049491
 10
-1.8224273343
 20
19.2436369654
 10
-1.8378566463
 20
19.2617253424
 10
-1.854183368
 20
19.2795579821
 10
-1.8714211397
 20
19.2970408392
 10
-1.8896273764
 20
19.31408992
 10
-1.9087712183
 20
19.3305729218
 10
-1.9288257048
 20
19.3463557621
 10
-1.9498449421
 20
19.3613212653
 10
-1.9718068477
 20
19.3753125273
 10
-1.9946091069
 20
19.3881468718
 10
-2.0181671526
 20
19.3996457669
  0
LINE
  5
3B2
100
AcDbEntity
  8
ASSI
100
AcDbLine
 62
7
  6
CONTINUOUS
 10
-1.1797909257
 20
19.3311571815
 11
-1.6721679058
 21
20.0131102644
  0
LINE
  5
3B3
100
AcDbEntity
  8
SUPERFICI
100
AcDbLine
 62
7
  6
CONTINUOUS
 10
-1.1797909257
 20
19.3311571815
 11
-1.6721679058
 21
20.0131102644
  0
LWPOLYLINE
  5
3B4
100
AcDbEntity
  8
RACCORDO
100
AcDbPolyline
 62
7
  6
CONTINUOUS
 90
10
 70
0
 10
-1.3178665087
 20
19.5253141238
 10
-0.8731730137
 20
18.8920214823
 10
-0.4386319814
 20
18.2489451606
 10
-0.0142434116
 20
17.5960851589
 10
0.4006049855
 20
16.9324241402
 10
0.80530092
 20
16.2589794415
 10
1.1980075219
 20
15.5788030732
 10
1.5781125011
 20
14.8929123724
 10
1.9462281477
 20
14.2002900021
 10
2.3023544617
 20
13.5009359623
  0
LWPOLYLINE
  5
3B5
100
AcDbEntity
  8
RACCORDO
100
AcDbPolyline
 62
253
  6
CONTINUOUS
 90
13
 70
0
 10
-2.0758262099
 20
19.0248520603
 10
-2.0820256181
 20
19.0344800105
 10
-2.088692177
 20
19.0439787639
 10
-2.0958258868
 20
19.0533483206
 10
-2.1034213587
 20
19.0626460722
 10
-2.1114839814
 20
19.0718146271
 10
-2.1200299213
 20
19.0806818097
 10
-2.1290655732
 20
19.0892615495
 10
-2.1385845422
 20
19.0975399172
 10
-2.1485838102
 20
19.1053029484
 10
-2.1590623713
 20
19.1124793218
 10
-2.1700212314
 20
19.1191403588
 10
-2.1814603905
 20
19.1252860595
  0
LWPOLYLINE
  5
3B6
100
AcDbEntity
  8
ASSI
100
AcDbPolyline
 62
7
  6
CONTINUOUS
 90
9
 70
0
 10
2.3026412675
 20
13.500360438
 10
1.91435239
 20
14.2612980066
 10
1.5123962323
 20
15.0134592864
 10
1.0967727942
 20
15.7568442774
 10
0.6670445642
 20
16.4921841609
 10
0.223649054
 20
17.2187477556
 10
-0.2321012016
 20
17.9343415177
 10
-0.699768691
 20
18.6382342659
 10
-1.1797909257
 20
19.3311571815
  0
LWPOLYLINE
  5
3B7
100
AcDbEntity
  8
SUPERFICI
100
AcDbPolyline
 62
7
  6
CONTINUOUS
 90
9
 70
0
 10
2.3026412675
 20
13.500360438
 10
1.91435239
 20
14.2612980066
 10
1.5123962323
 20
15.0134592864
 10
1.0967727942
 20
15.7568442774
 10
0.6670445642
 20
16.4921841609
 10
0.223649054
 20
17.2187477556
 10
-0.2321012016
 20
17.9343415177
 10
-0.699768691
 20
18.6382342659
 10
-1.1797909257
 20
19.3311571815
  0
LWPOLYLINE
  5
3B8
100
AcDbEntity
  8
RACCORDO
100
AcDbPolyline
 62
7
  6
CONTINUOUS
 90
7
 70
0
 10
2.3023544617
 20
13.5009359623
 10
2.3958103677
 20
13.2944136035
 10
2.4725531026
 20
13.0888826363
 10
2.5325826666
 20
12.8843430607
 10
2.5758990597
 20
12.6807948768
 10
2.6025022817
 20
12.4782380846
 10
2.6123923327
 20
12.276672684
  0
LWPOLYLINE
  5
3B9
100
AcDbEntity
  8
ASSI
100
AcDbPolyline
 62
7
  6
CONTINUOUS
 90
3
 70
0
 10
2.4225813855
 20
13.2285783098
 10
2.3661793959
 20
13.3647986299
 10
2.3026412675
 20
13.500360438
  0
LWPOLYLINE
  5
3BA
100
AcDbEntity
  8
SUPERFICI
100
AcDbPolyline
 62
7
  6
CONTINUOUS
 90
3
 70
0
 10
2.4225813855
 20
13.2285783098
 10
2.3661793959
 20
13.3647986299
 10
2.3026412675
 20
13.500360438
  0
LWPOLYLINE
  5
3BB
100
AcDbEntity
  8
ASSI
100
AcDbPolyline
 62
7
  6
CONTINUOUS
 90
4
 70
0
 10
2.5475404264
 20
-16.1185428349
 10
2.5123392938
 20
-16.2235055167
 10
2.4700025371
 20
-16.3209173282
 10
2.4207225018
 20
-16.410204735
  0
LWPOLYLINE
  5
3BC
100
AcDbEntity
  8
SUPERFICI
100
AcDbPolyline
 62
7
  6
CONTINUOUS
 90
4
 70
0
 10
2.5475404264
 20
-16.1185428349
 10
2.5123392938
 20
-16.2235055167
 10
2.4700025371
 20
-16.3209173282
 10
2.4207225018
 20
-16.410204735
  0
LWPOLYLINE
  5
3BD
100
AcDbEntity
  8
ASSI
100
AcDbPolyline
 62
253
  6
CONTINUOUS
 90
9
 70
0
 10
23.2508286564
 20
14.9192533407
 10
23.2803835573
 20
14.9368171181
 10
23.3063051734
 20
14.9558770522
 10
23.3282730678
 20
14.9762495949
 10
23.3460240956
 20
14.9977629238
 10
23.3592809134
 20
15.0201711786
 10
23.3678187632
 20
15.0431471418
 10
23.3715431398
 20
15.0664088569
 10
23.3717196943
 20
15.0726999784
  0
LWPOLYLINE
  5
3BE
100
AcDbEntity
  8
RACCORDO
100
AcDbPolyline
 62
253
  6
CONTINUOUS
 90
9
 70
0
 10
23.2508286564
 20
14.9192533407
 10
23.2803835573
 20
14.9368171181
 10
23.3063051734
 20
14.9558770522
 10
23.3282730678
 20
14.9762495949
 10
23.3460240956
 20
14.9977629238
 10
23.3592809134
 20
15.0201711786
 10
23.3678187632
 20
15.0431471418
 10
23.3715431398
 20
15.0664088569
 10
23.3717196943
 20
15.0726999784
  0
LINE
  5
3BF
100
AcDbEntity
  8
ASSI
100
AcDbLine
 62
253
  6
CONTINUOUS
 10
23.2508286564
 20
14.9192533407
 11
16.770861693
 21
11.5883824381
  0
LINE
  5
3C0
100
AcDbEntity
  8
RACCORDO
100
AcDbLine
 62
253
  6
CONTINUOUS
 10
23.2508286564
 20
14.9192533407
 11
16.770861693
 21
11.5883824381
  0
LWPOLYLINE
  5
3C1
100
AcDbEntity
  8
0
100
AcDbPolyline
 62
253
  6
CONTINUOUS
 90
3
 70
0
 10
-9.1340427027
 20
6.3385517739
 10
-9.1735430897
 20
6.3280807783
 10
-9.1867340982
 20
6.3251900443
  0
LWPOLYLINE
  5
3C2
100
AcDbEntity
  8
0
100
AcDbPolyline
 62
7
  6
CONTINUOUS
 90
31
 70
0
 10
-18.1723720083
 20
12.0077610836
 10
-18.1015633676
 20
12.0038666936
 10
-18.0289727003
 20
11.9981809996
 10
-17.9547081107
 20
11.9907868898
 10
-17.8788340475
 20
11.9817442833
 10
-17.8013901601
 20
11.9711131777
 10
-17.722411333
 20
11.9589454346
 10
-17.6419423202
 20
11.945281988
 10
-17.5600073123
 20
11.930164123
 10
-17.4765870161
 20
11.9136161921
 10
-17.3917162438
 20
11.8956600516
 10
-17.3053980971
 20
11.8763135757
 10
-17.2175498941
 20
11.8555713367
 10
-17.1281868485
 20
11.833441533
 10
-17.0373173281
 20
11.8099327786
 10
-16.944840148
 20
11.7850244931
 10
-16.850763859
 20
11.7587168272
 10
-16.755097132
 20
11.7310103316
 10
-16.6577347093
 20
11.7018732399
 10
-16.5586863744
 20
11.6713024299
 10
-16.4579557118
 20
11.6392904901
 10
-16.3554265275
 20
11.605792362
 10
-16.2511092053
 20
11.5708023099
 10
-16.1450055028
 20
11.5343076338
 10
-16.0369866031
 20
11.4962494039
 10
-15.9270913493
 20
11.4566271922
 10
-15.8152919997
 20
11.4154137574
 10
-15.7013574906
 20
11.3724980162
 10
-15.5853143642
 20
11.3278621388
 10
-15.4671409077
 20
11.2814708006
 10
-15.3465313395
 20
11.2331705569
  0
LWPOLYLINE
  5
3C3
100
AcDbEntity
  8
RACCORDO
100
AcDbPolyline
 62
253
  6
CONTINUOUS
 90
9
 70
0
 10
-21.1722329139
 20
20.0836527947
 10
-21.2102267666
 20
20.0991423203
 10
-21.2473742443
 20
20.109974161
 10
-21.283268581
 20
20.1160297357
 10
-21.3175167461
 20
20.117242765
 10
-21.349743719
 20
20.1135999943
 10
-21.3795966013
 20
20.1051413518
 10
-21.4067485237
 20
20.0919595038
 10
-21.4142310641
 20
20.0871661084
  0
LWPOLYLINE
  5
3C4
100
AcDbEntity
  8
RACCORDO
100
AcDbPolyline
 62
253
  6
CONTINUOUS
 90
10
 70
0
 10
1.2241225899
 20
11.8107166852
 10
1.257553068
 20
11.7966555219
 10
1.2951134805
 20
11.7848783933
 10
1.3356888374
 20
11.7757357437
 10
1.3780745459
 20
11.7694998232
 10
1.4210109018
 20
11.7663567522
 10
1.4632205002
 20
11.7664006338
 10
1.5034480841
 20
11.7696305792
 10
1.5404978473
 20
11.7759510129
 10
1.5732677546
 20
11.7851744636
  0
LINE
  5
3C5
100
AcDbEntity
  8
RACCORDO
100
AcDbLine
 62
7
  6
CONTINUOUS
 10
-1.4922782689
 20
15.089977483
 11
-0.9546705438
 21
14.8303469803
  0
LINE
  5
3C6
100
AcDbEntity
  8
ASSI
100
AcDbLine
 62
7
  6
CONTINUOUS
 10
-1.8623082861
 20
15.567006771
 11
-17.0405873947
 21
22.8971548526
  0
LINE
  5
3C7
100
AcDbEntity
  8
RACCORDO
100
AcDbLine
 62
7
  6
CONTINUOUS
 10
-1.8623082861
 20
15.567006771
 11
-17.0405873947
 21
22.8971548526
  0
LWPOLYLINE
  5
3C8
100
AcDbEntity
  8
ASSI
100
AcDbPolyline
 62
7
  6
CONTINUOUS
 90
10
 70
0
 10
-2.366811702
 20
20.928983136
 10
-2.4069286366
 20
20.978118815
 10
-2.448201199
 20
21.0244322794
 10
-2.4906293891
 20
21.0679235292
 10
-2.5344019427
 20
21.1087522232
 10
-2.579330124
 20
21.1467587024
 10
-2.6248477262
 20
21.1814639908
 10
-2.6707660134
 20
21.2127084294
 10
-2.7172737215
 20
21.2406516772
 10
-2.7643708503
 20
21.2652937339
  0
LWPOLYLINE
  5
3C9
100
AcDbEntity
  8
SUPERFICI
100
AcDbPolyline
 62
7
  6
CONTINUOUS
 90
10
 70
0
 10
-2.366811702
 20
20.928983136
 10
-2.4069286366
 20
20.978118815
 10
-2.448201199
 20
21.0244322794
 10
-2.4906293891
 20
21.0679235292
 10
-2.5344019427
 20
21.1087522232
 10
-2.579330124
 20
21.1467587024
 10
-2.6248477262
 20
21.1814639908
 10
-2.6707660134
 20
21.2127084294
 10
-2.7172737215
 20
21.2406516772
 10
-2.7643708503
 20
21.2652937339
  0
LWPOLYLINE
  5
3CA
100
AcDbEntity
  8
ASSI
100
AcDbPolyline
 62
7
  6
CONTINUOUS
 90
16
 70
0
 10
16.8709123425
 20
-0.4215735056
 10
16.9182879057
 20
-0.4810677494
 10
17.0202612064
 20
-0.6216926801
 10
17.11650437
 20
-0.7675557265
 10
17.2066442214
 20
-0.9180196062
 10
17.2903410159
 20
-1.0724601328
 10
17.3672991337
 20
-1.2303034673
 10
17.437204961
 20
-1.3909108469
 10
17.4997555816
 20
-1.5536155375
 10
17.554689436
 20
-1.7178045986
 10
17.6017542621
 20
-1.882851956
 10
17.6406969418
 20
-2.048059418
 10
17.671293034
 20
-2.2127335104
 10
17.693349242
 20
-2.3762203179
 10
17.7066919094
 20
-2.5378770089
 10
17.7111642731
 20
-2.6970447399
  0
LWPOLYLINE
  5
3CB
100
AcDbEntity
  8
RACCORDO
100
AcDbPolyline
 62
7
  6
CONTINUOUS
 90
16
 70
0
 10
16.8709123425
 20
-0.4215735056
 10
16.9182879057
 20
-0.4810677494
 10
17.0202612064
 20
-0.6216926801
 10
17.11650437
 20
-0.7675557265
 10
17.2066442214
 20
-0.9180196062
 10
17.2903410159
 20
-1.0724601328
 10
17.3672991337
 20
-1.2303034673
 10
17.437204961
 20
-1.3909108469
 10
17.4997555816
 20
-1.5536155375
 10
17.554689436
 20
-1.7178045986
 10
17.6017542621
 20
-1.882851956
 10
17.6406969418
 20
-2.048059418
 10
17.671293034
 20
-2.2127335104
 10
17.693349242
 20
-2.3762203179
 10
17.7066919094
 20
-2.5378770089
 10
17.7111642731
 20
-2.6970447399
  0
LINE
  5
3CC
100
AcDbEntity
  8
ASSI
100
AcDbLine
 62
7
  6
CONTINUOUS
 10
-2.3118122323
 20
20.8583413209
 11
-2.366811702
 21
20.928983136
  0
LINE
  5
3CD
100
AcDbEntity
  8
SUPERFICI
100
AcDbLine
 62
7
  6
CONTINUOUS
 10
-2.3118122323
 20
20.8583413209
 11
-2.366811702
 21
20.928983136
  0
LINE
  5
3CE
100
AcDbEntity
  8
ASSI
100
AcDbLine
 62
7
  6
CONTINUOUS
 10
-2.256933253
 20
20.7875407553
 11
-2.3118122323
 21
20.8583413209
  0
LINE
  5
3CF
100
AcDbEntity
  8
SUPERFICI
100
AcDbLine
 62
7
  6
CONTINUOUS
 10
-2.256933253
 20
20.7875407553
 11
-2.3118122323
 21
20.8583413209
  0
LINE
  5
3D0
100
AcDbEntity
  8
ASSI
100
AcDbLine
 62
7
  6
CONTINUOUS
 10
-2.2021747641
 20
20.7165814392
 11
-2.256933253
 21
20.7875407553
  0
LINE
  5
3D1
100
AcDbEntity
  8
SUPERFICI
100
AcDbLine
 62
7
  6
CONTINUOUS
 10
-2.2021747641
 20
20.7165814392
 11
-2.256933253
 21
20.7875407553
  0
LWPOLYLINE
  5
3D2
100
AcDbEntity
  8
ASSI
100
AcDbPolyline
 62
253
  6
CONTINUOUS
 90
16
 70
0
 10
16.8709022642
 20
-0.5822648432
 10
16.9012468693
 20
-0.6235637128
 10
16.9965689828
 20
-0.7652868886
 10
17.086537423
 20
-0.9116635023
 10
17.1707736592
 20
-1.0620776827
 10
17.2489233139
 20
-1.2158966337
 10
17.3206576254
 20
-1.3724732691
 10
17.3856748041
 20
-1.531148882
 10
17.4437012834
 20
-1.69125585
 10
17.4944929095
 20
-1.8521205053
 10
17.5378359903
 20
-2.0130660388
 10
17.573548181
 20
-2.1734153348
 10
17.601479234
 20
-2.3324937558
 10
17.6215116427
 20
-2.489632022
 10
17.6335611332
 20
-2.6441690261
 10
17.6375770163
 20
-2.7954546011
  0
LWPOLYLINE
  5
3D3
100
AcDbEntity
  8
RACCORDO
100
AcDbPolyline
 62
253
  6
CONTINUOUS
 90
16
 70
0
 10
16.8709022642
 20
-0.5822648432
 10
16.9012468693
 20
-0.6235637128
 10
16.9965689828
 20
-0.7652868886
 10
17.086537423
 20
-0.9116635023
 10
17.1707736592
 20
-1.0620776827
 10
17.2489233139
 20
-1.2158966337
 10
17.3206576254
 20
-1.3724732691
 10
17.3856748041
 20
-1.531148882
 10
17.4437012834
 20
-1.69125585
 10
17.4944929095
 20
-1.8521205053
 10
17.5378359903
 20
-2.0130660388
 10
17.573548181
 20
-2.1734153348
 10
17.601479234
 20
-2.3324937558
 10
17.6215116427
 20
-2.489632022
 10
17.6335611332
 20
-2.6441690261
 10
17.6375770163
 20
-2.7954546011
  0
LWPOLYLINE
  5
3D4
100
AcDbEntity
  8
ASSI
100
AcDbPolyline
 62
7
  6
CONTINUOUS
 90
9
 70
0
 10
2.3000990663
 20
19.66829286
 10
2.148605159
 20
19.8951525603
 10
1.995874318
 20
20.1207889171
 10
1.8418913883
 20
20.3452237269
 10
1.6866715248
 20
20.5684351931
 10
1.530260193
 20
20.7903579255
 10
1.3726725479
 20
21.0109701273
 10
1.2138934344
 20
21.2302935953
 10
1.0539228524
 20
21.4483283295
  0
LWPOLYLINE
  5
3D5
100
AcDbEntity
  8
RACCORDO
100
AcDbPolyline
 62
7
  6
CONTINUOUS
 90
9
 70
0
 10
2.3000990663
 20
19.66829286
 10
2.148605159
 20
19.8951525603
 10
1.995874318
 20
20.1207889171
 10
1.8418913883
 20
20.3452237269
 10
1.6866715248
 20
20.5684351931
 10
1.530260193
 20
20.7903579255
 10
1.3726725479
 20
21.0109701273
 10
1.2138934344
 20
21.2302935953
 10
1.0539228524
 20
21.4483283295
  0
LINE
  5
3D6
100
AcDbEntity
  8
ASSI
100
AcDbLine
 62
7
  6
CONTINUOUS
 10
2.4503560399
 20
19.440209816
 11
2.3000990663
 21
19.66829286
  0
LINE
  5
3D7
100
AcDbEntity
  8
RACCORDO
100
AcDbLine
 62
7
  6
CONTINUOUS
 10
2.4503560399
 20
19.440209816
 11
2.3000990663
 21
19.66829286
  0
LWPOLYLINE
  5
3D8
100
AcDbEntity
  8
ASSI
100
AcDbPolyline
 62
7
  6
CONTINUOUS
 90
10
 70
0
 10
8.1762786106
 20
19.0046250869
 10
8.1694058111
 20
19.0462243459
 10
8.1608661771
 20
19.0862928958
 10
8.1505745233
 20
19.1245621711
 10
8.1383417797
 20
19.1608071607
 10
8.1242387736
 20
19.1947473552
 10
8.1085667713
 20
19.2260182234
 10
8.0913886595
 20
19.2543187975
 10
8.0725609283
 20
19.2794460018
 10
8.0520764788
 20
19.3011746348
  0
LWPOLYLINE
  5
3D9
100
AcDbEntity
  8
RACCORDO
100
AcDbPolyline
 62
253
  6
CONTINUOUS
 90
8
 70
0
 10
1.1372417957
 20
-16.8353473074
 10
1.1717327834
 20
-16.7575998389
 10
1.1976543815
 20
-16.6745399703
 10
1.2154991576
 20
-16.5869381616
 10
1.226744815
 20
-16.4971057929
 10
1.2318839214
 20
-16.4058133241
 10
1.2304239091
 20
-16.3122902954
 10
1.2223647781
 20
-16.2165367066
  0
LINE
  5
3DA
100
AcDbEntity
  8
ASSI
100
AcDbLine
 62
253
  6
CONTINUOUS
 10
23.3715098997
 20
11.7276502816
 11
24.2375638801
 21
12.2257954965
  0
LINE
  5
3DB
100
AcDbEntity
  8
RACCORDO
100
AcDbLine
 62
253
  6
CONTINUOUS
 10
23.3715098997
 20
11.7276502816
 11
24.2375638801
 21
12.2257954965
  0
LWPOLYLINE
  5
3DC
100
AcDbEntity
  8
RACCORDO
100
AcDbPolyline
 62
253
  6
CONTINUOUS
 90
5
 70
0
 10
-18.3730158203
 20
11.9594175434
 10
-18.3408842567
 20
11.9605612768
 10
-18.3076625423
 20
11.9612082137
 10
-18.2733345916
 20
11.9613423805
 10
-18.2378242698
 20
11.9609488167
  0
LINE
  5
3DD
100
AcDbEntity
  8
0
100
AcDbLine
 62
7
  6
CONTINUOUS
 10
-18.3731771013
 20
12.0078142504
 11
-18.3084036273
 21
12.0098371744
  0
LINE
  5
3DE
100
AcDbEntity
  8
0
100
AcDbLine
 62
7
  6
CONTINUOUS
 10
-18.3084036273
 20
12.0098371744
 11
-18.2413652621
 21
12.0097825025
  0
LWPOLYLINE
  5
3DF
100
AcDbEntity
  8
RACCORDO
100
AcDbPolyline
 62
253
  6
CONTINUOUS
 90
41
 70
0
 10
-18.2378242698
 20
11.9609488167
 10
-18.2011477119
 20
11.9600124484
 10
-18.1632853689
 20
11.9585160001
 10
-18.1241071694
 20
11.9564373854
 10
-18.0836139895
 20
11.9537585295
 10
-18.041800324
 20
11.9504595733
 10
-17.9985256629
 20
11.9465100335
 10
-17.9537865573
 20
11.9418890624
 10
-17.907581048
 20
11.9365746174
 10
-17.8597702195
 20
11.9305291931
 10
-17.8103436729
 20
11.9237289743
 10
-17.7593060463
 20
11.9161507959
 10
-17.7065407853
 20
11.9077543837
 10
-17.6520473684
 20
11.8985163943
 10
-17.5958208711
 20
11.8884113697
 10
-17.5377382258
 20
11.8773931064
 10
-17.4778102703
 20
11.8654394363
 10
-17.416021027
 20
11.8525215257
 10
-17.3522071181
 20
11.838579322
 10
-17.2863810691
 20
11.823589056
 10
-17.218525115
 20
11.8075187091
 10
-17.1484300098
 20
11.7902898537
 10
-17.0760981734
 20
11.7718729471
 10
-17.0015215665
 20
11.7522342737
 10
-16.9244746993
 20
11.7312818098
 10
-16.8449610049
 20
11.7089824609
 10
-16.7629712504
 20
11.6852979506
 10
-16.6782604451
 20
11.6601205286
 10
-16.5908327046
 20
11.633412835
 10
-16.5006780656
 20
11.6051313846
 10
-16.4075299634
 20
11.5751504206
 10
-16.3114130512
 20
11.5434340569
 10
-16.2122969749
 20
11.5099263023
 10
-16.1098320505
 20
11.4744597885
 10
-16.0040290919
 20
11.4369860642
 10
-15.8948714709
 20
11.3974444436
 10
-15.7819675906
 20
11.3556343808
 10
-15.6652821563
 20
11.3114796297
 10
-15.5448447986
 20
11.2649248966
 10
-15.4203610252
 20
11.2157870396
 10
-15.2918936954
 20
11.1640188193
  0
LINE
  5
3E0
100
AcDbEntity
  8
0
100
AcDbLine
 62
7
  6
CONTINUOUS
 10
-18.2413652621
 20
12.0097825025
 11
-18.1723720083
 21
12.0077610836
  0
LINE
  5
3E1
100
AcDbEntity
  8
RACCORDO
100
AcDbLine
 62
253
  6
CONTINUOUS
 10
-2.1814603905
 20
19.1252860595
 11
-9.9977627159
 21
22.9000653401
  0
LWPOLYLINE
  5
3E2
100
AcDbEntity
  8
RACCORDO
100
AcDbPolyline
 62
7
  6
CONTINUOUS
 90
7
 70
0
 10
-1.5367064212
 20
19.7197820824
 10
-1.4964578676
 20
19.6973657686
 10
-1.4577194079
 20
19.6709514498
 10
-1.4204910422
 20
19.6405391259
 10
-1.3847727704
 20
19.6061287969
 10
-1.3505645926
 20
19.5677204629
 10
-1.3178665087
 20
19.5253141238
  0
LWPOLYLINE
  5
3E3
100
AcDbEntity
  8
ASSI
100
AcDbPolyline
 62
7
  6
CONTINUOUS
 90
3
 70
0
 10
-6.3124273667
 20
25.0058092231
 10
-6.2750470737
 20
24.9743159511
 10
-6.2643517099
 20
24.9667072319
  0
LWPOLYLINE
  5
3E4
100
AcDbEntity
  8
SUPERFICI
100
AcDbPolyline
 62
7
  6
CONTINUOUS
 90
3
 70
0
 10
-6.3124273667
 20
25.0058092231
 10
-6.2750470737
 20
24.9743159511
 10
-6.2643517099
 20
24.9667072319
  0
LINE
  5
3E5
100
AcDbEntity
  8
ASSI
100
AcDbLine
 62
7
  6
CONTINUOUS
 10
0.4555036456
 20
22.2388576243
 11
0.3971341076
 21
22.3139180142
  0
LINE
  5
3E6
100
AcDbEntity
  8
SUPERFICI
100
AcDbLine
 62
7
  6
CONTINUOUS
 10
0.4555036456
 20
22.2388576243
 11
0.3971341076
 21
22.3139180142
  0
LINE
  5
3E7
100
AcDbEntity
  8
ASSI
100
AcDbLine
 62
7
  6
CONTINUOUS
 10
0.5137367192
 20
22.1636181039
 11
0.4555036456
 21
22.2388576243
  0
LINE
  5
3E8
100
AcDbEntity
  8
SUPERFICI
100
AcDbLine
 62
7
  6
CONTINUOUS
 10
0.5137367192
 20
22.1636181039
 11
0.4555036456
 21
22.2388576243
  0
LINE
  5
3E9
100
AcDbEntity
  8
ASSI
100
AcDbLine
 62
7
  6
CONTINUOUS
 10
0.5718333283
 20
22.0881994529
 11
0.5137367192
 21
22.1636181039
  0
LINE
  5
3EA
100
AcDbEntity
  8
SUPERFICI
100
AcDbLine
 62
7
  6
CONTINUOUS
 10
0.5718333283
 20
22.0881994529
 11
0.5137367192
 21
22.1636181039
  0
LINE
  5
3EB
100
AcDbEntity
  8
ASSI
100
AcDbLine
 62
7
  6
CONTINUOUS
 10
23.3713300414
 20
8.8599178925
 11
23.6073796508
 21
9.002929593
  0
LINE
  5
3EC
100
AcDbEntity
  8
DRAFT
100
AcDbLine
 62
7
  6
CONTINUOUS
 10
23.3713300414
 20
8.8599178925
 11
23.6073796508
 21
9.002929593
  0
LINE
  5
3ED
100
AcDbEntity
  8
ASSI
100
AcDbLine
 62
253
  6
CONTINUOUS
 10
23.371395841
 20
9.9090529816
 11
24.2374498214
 21
10.4071981965
  0
LINE
  5
3EE
100
AcDbEntity
  8
RACCORDO
100
AcDbLine
 62
253
  6
CONTINUOUS
 10
23.371395841
 20
9.9090529816
 11
24.2374498214
 21
10.4071981965
  0
LWPOLYLINE
  5
3EF
100
AcDbEntity
  8
0
100
AcDbPolyline
 62
7
  6
CONTINUOUS
 90
3
 70
0
 10
-18.4955077831
 20
11.9970958363
 10
-18.4356237038
 20
12.003610793
 10
-18.3731771013
 20
12.0078142504
  0
LWPOLYLINE
  5
3F0
100
AcDbEntity
  8
ASSI
100
AcDbPolyline
 62
7
  6
CONTINUOUS
 90
14
 70
0
 10
16.8919576869
 20
15.0097281897
 10
16.9167158842
 20
15.0061281567
 10
17.0879204537
 20
14.9753596681
 10
17.2542170897
 20
14.9395302816
 10
17.4149367634
 20
14.8988575341
 10
17.5694286864
 20
14.8535806928
 10
17.7168739724
 20
14.8040569816
 10
17.856447961
 20
14.7507126877
 10
17.9879624701
 20
14.6937763511
 10
18.111505423
 20
14.633337429
 10
18.2262397773
 20
14.5699184962
 10
18.3320539464
 20
14.5037068344
 10
18.429670515
 20
14.4342408769
 10
18.4403061914
 20
14.4255580655
  0
LWPOLYLINE
  5
3F1
100
AcDbEntity
  8
RACCORDO
100
AcDbPolyline
 62
7
  6
CONTINUOUS
 90
14
 70
0
 10
16.8919576869
 20
15.0097281897
 10
16.9167158842
 20
15.0061281567
 10
17.0879204537
 20
14.9753596681
 10
17.2542170897
 20
14.9395302816
 10
17.4149367634
 20
14.8988575341
 10
17.5694286864
 20
14.8535806928
 10
17.7168739724
 20
14.8040569816
 10
17.856447961
 20
14.7507126877
 10
17.9879624701
 20
14.6937763511
 10
18.111505423
 20
14.633337429
 10
18.2262397773
 20
14.5699184962
 10
18.3320539464
 20
14.5037068344
 10
18.429670515
 20
14.4342408769
 10
18.4403061914
 20
14.4255580655
  0
LWPOLYLINE
  5
3F2
100
AcDbEntity
  8
ASSI
100
AcDbPolyline
 62
253
  6
CONTINUOUS
 90
14
 70
0
 10
16.8919637903
 20
15.1070433782
 10
16.9982043617
 20
15.08909003
 10
17.153846307
 20
15.0575751019
 10
17.3055037752
 20
15.0215376989
 10
17.4526328736
 20
14.9811046394
 10
17.5947070738
 20
14.9364231806
 10
17.731217839
 20
14.887653073
 10
17.8616763528
 20
14.834967351
 10
17.9856154652
 20
14.7785555262
 10
18.1025915188
 20
14.7186202455
 10
18.212185696
 20
14.6553753688
 10
18.3140054658
 20
14.5890465695
 10
18.4076862261
 20
14.5198729962
 10
18.4909055978
 20
14.4497762109
  0
LWPOLYLINE
  5
3F3
100
AcDbEntity
  8
RACCORDO
100
AcDbPolyline
 62
253
  6
CONTINUOUS
 90
14
 70
0
 10
16.8919637903
 20
15.1070433782
 10
16.9982043617
 20
15.08909003
 10
17.153846307
 20
15.0575751019
 10
17.3055037752
 20
15.0215376989
 10
17.4526328736
 20
14.9811046394
 10
17.5947070738
 20
14.9364231806
 10
17.731217839
 20
14.887653073
 10
17.8616763528
 20
14.834967351
 10
17.9856154652
 20
14.7785555262
 10
18.1025915188
 20
14.7186202455
 10
18.212185696
 20
14.6553753688
 10
18.3140054658
 20
14.5890465695
 10
18.4076862261
 20
14.5198729962
 10
18.4909055978
 20
14.4497762109
  0
LWPOLYLINE
  5
3F4
100
AcDbEntity
  8
0
100
AcDbPolyline
 62
7
  6
CONTINUOUS
 90
6
 70
0
 10
16.9926918553
 20
14.6932235594
 10
16.9945686466
 20
14.6928721803
 10
17.141007921
 20
14.6615964211
 10
17.2844319417
 20
14.6270023137
 10
17.424859316
 20
14.5891103359
 10
17.5614198794
 20
14.5481552869
  0
LWPOLYLINE
  5
3F5
100
AcDbEntity
  8
RACCORDO
100
AcDbPolyline
 62
7
  6
CONTINUOUS
 90
4
 70
0
 10
16.9208427472
 20
14.9013754818
 10
16.9107803745
 20
14.9034977591
 10
16.9001134541
 20
14.904307752
 10
16.8919510537
 20
14.903965624
  0
LWPOLYLINE
  5
3F6
100
AcDbEntity
  8
ASSI
100
AcDbPolyline
 62
7
  6
CONTINUOUS
 90
10
 70
0
 10
-8.0513099316
 20
23.8185506669
 10
-8.0984072984
 20
23.8393985893
 10
-8.1449156942
 20
23.8563762322
 10
-8.190835119
 20
23.8694835955
 10
-8.236354317
 20
23.8787433193
 10
-8.281284544
 20
23.8841327636
 10
-8.3250595673
 20
23.8855840078
 10
-8.3674906425
 20
23.8830744119
 10
-8.4087665139
 20
23.876626616
 10
-8.4488871816
 20
23.8662406201
  0
LWPOLYLINE
  5
3F7
100
AcDbEntity
  8
SUPERFICI
100
AcDbPolyline
 62
7
  6
CONTINUOUS
 90
10
 70
0
 10
-8.0513099316
 20
23.8185506669
 10
-8.0984072984
 20
23.8393985893
 10
-8.1449156942
 20
23.8563762322
 10
-8.190835119
 20
23.8694835955
 10
-8.236354317
 20
23.8787433193
 10
-8.281284544
 20
23.8841327636
 10
-8.3250595673
 20
23.8855840078
 10
-8.3674906425
 20
23.8830744119
 10
-8.4087665139
 20
23.876626616
 10
-8.4488871816
 20
23.8662406201
  0
LWPOLYLINE
  5
3F8
100
AcDbEntity
  8
RACCORDO
100
AcDbPolyline
 62
253
  6
CONTINUOUS
 90
13
 70
0
 10
-9.9977627159
 20
22.9000653401
 10
-10.0060645739
 20
22.9039047338
 10
-10.0146304217
 20
22.9072403351
 10
-10.0234602592
 20
22.9100721442
 10
-10.0325735499
 20
22.9124620499
 10
-10.0419508302
 20
22.9143481633
 10
-10.0515337102
 20
22.9155448177
 10
-10.061338583
 20
22.9160616831
 10
-10.0713490554
 20
22.9158890895
 10
-10.0814575578
 20
22.91481236
 10
-10.0916282336
 20
22.9127599357
 10
-10.1018969393
 20
22.9098033756
 10
-10.1122636749
 20
22.9059426796
  0
LINE
  5
3F9
100
AcDbEntity
  8
RACCORDO
100
AcDbLine
 62
253
  6
CONTINUOUS
 10
-2.0181671526
 20
19.3996457669
 11
-9.834469478
 21
23.1744250475
  0
LINE
  5
3FA
100
AcDbEntity
  8
RACCORDO
100
AcDbLine
 62
7
  6
CONTINUOUS
 10
-9.2790938508
 20
23.4588651469
 11
-7.7817199469
 21
22.7357283295
  0
LINE
  5
3FB
100
AcDbEntity
  8
ASSI
100
AcDbLine
 62
7
  6
CONTINUOUS
 10
-7.2781824113
 20
22.4925515718
 11
-6.8465788093
 21
22.2841143509
  0
LINE
  5
3FC
100
AcDbEntity
  8
ASSI
100
AcDbLine
 62
7
  6
CONTINUOUS
 10
-3.9692214627
 20
20.8945328784
 11
-3.5376178607
 21
20.6860956575
  0
LINE
  5
3FD
100
AcDbEntity
  8
RACCORDO
100
AcDbLine
 62
7
  6
CONTINUOUS
 10
-3.034080325
 20
20.4429188998
 11
-1.5367064212
 21
19.7197820824
  0
LINE
  5
3FE
100
AcDbEntity
  8
ASSI
100
AcDbLine
 62
7
  6
CONTINUOUS
 10
-2.9119165007
 20
20.4705239996
 11
-7.9038729086
 21
22.8813229726
  0
LINE
  5
3FF
100
AcDbEntity
  8
SUPERFICI
100
AcDbLine
 62
7
  6
CONTINUOUS
 10
-2.9119165007
 20
20.4705239996
 11
-7.9038729086
 21
22.8813229726
  0
LINE
  5
400
100
AcDbEntity
  8
ASSI
100
AcDbLine
 62
7
  6
CONTINUOUS
 10
-8.0513099316
 20
23.8185506669
 11
-2.7643708503
 21
21.2652937339
  0
LINE
  5
401
100
AcDbEntity
  8
SUPERFICI
100
AcDbLine
 62
7
  6
CONTINUOUS
 10
-8.0513099316
 20
23.8185506669
 11
-2.7643708503
 21
21.2652937339
  0
LINE
  5
402
100
AcDbEntity
  8
ASSI
100
AcDbLine
 62
7
  6
CONTINUOUS
 10
-6.5073762836
 20
24.3649853977
 11
-1.6686044766
 21
22.028164891
  0
LINE
  5
403
100
AcDbEntity
  8
SUPERFICI
100
AcDbLine
 62
7
  6
CONTINUOUS
 10
-6.5073762836
 20
24.3649853977
 11
-1.6686044766
 21
22.028164891
  0
LWPOLYLINE
  5
404
100
AcDbEntity
  8
RACCORDO
100
AcDbPolyline
 62
253
  6
CONTINUOUS
 90
13
 70
0
 10
-9.834469478
 20
23.1744250475
 10
-9.850363029
 20
23.1822199813
 10
-9.866788016
 20
23.1892858268
 10
-9.8837005664
 20
23.1955132165
 10
-9.9010270679
 20
23.2007863661
 10
-9.9187325958
 20
23.2049942577
 10
-9.9368181209
 20
23.2080188605
 10
-9.9552062362
 20
23.2097273464
 10
-9.9738115807
 20
23.2099868557
 10
-9.9926030378
 20
23.2086523761
 10
-10.0114909512
 20
23.2055712664
 10
-10.0303316795
 20
23.2006001909
 10
-10.0489926612
 20
23.1935976893
  0
LINE
  5
405
100
AcDbEntity
  8
SUPERFICI
100
AcDbLine
 62
7
  6
CONTINUOUS
 10
-1.3601799559
 20
22.2167715423
 11
-1.3264957698
 21
22.1919067019
  0
LINE
  5
406
100
AcDbEntity
  8
ASSI
100
AcDbLine
 62
7
  6
CONTINUOUS
 10
1.8562573736
 20
22.750584661
 11
2.205668477
 21
22.4751701486
  0
LINE
  5
407
100
AcDbEntity
  8
RACCORDO
100
AcDbLine
 62
7
  6
CONTINUOUS
 10
1.8562573736
 20
22.750584661
 11
2.205668477
 21
22.4751701486
  0
LWPOLYLINE
  5
408
100
AcDbEntity
  8
RACCORDO
100
AcDbPolyline
 62
7
  6
CONTINUOUS
 90
10
 70
0
 10
8.0520764788
 20
19.3011746348
 10
8.0725609283
 20
19.2794460018
 10
8.0913886595
 20
19.2543187975
 10
8.1085667713
 20
19.2260182234
 10
8.1242387736
 20
19.1947473552
 10
8.1383417797
 20
19.1608071607
 10
8.1505745233
 20
19.1245621711
 10
8.1608661771
 20
19.0862928958
 10
8.1694058111
 20
19.0462243459
 10
8.1762786106
 20
19.0046250869
  0
LWPOLYLINE
  5
409
100
AcDbEntity
  8
ASSI
100
AcDbPolyline
 62
7
  6
CONTINUOUS
 90
11
 70
0
 10
16.8710085329
 20
1.4084693517
 10
16.8697078201
 20
1.4118446098
 10
16.8659955365
 20
1.41652985
 10
16.8597463084
 20
1.422628615
 10
16.8509378688
 20
1.4303110936
 10
16.8393438566
 20
1.4395927459
 10
16.8248431768
 20
1.4504437351
 10
16.8074926782
 20
1.4630245879
 10
16.7871789873
 20
1.4773469182
 10
16.7636452829
 20
1.4932488906
 10
16.7367208422
 20
1.5106014507
  0
LWPOLYLINE
  5
40A
100
AcDbEntity
  8
RACCORDO
100
AcDbPolyline
 62
7
  6
CONTINUOUS
 90
11
 70
0
 10
16.8710085329
 20
1.4084693517
 10
16.8697078201
 20
1.4118446098
 10
16.8659955365
 20
1.41652985
 10
16.8597463084
 20
1.422628615
 10
16.8509378688
 20
1.4303110936
 10
16.8393438566
 20
1.4395927459
 10
16.8248431768
 20
1.4504437351
 10
16.8074926782
 20
1.4630245879
 10
16.7871789873
 20
1.4773469182
 10
16.7636452829
 20
1.4932488906
 10
16.7367208422
 20
1.5106014507
  0
LWPOLYLINE
  5
40B
100
AcDbEntity
  8
RACCORDO
100
AcDbPolyline
 62
7
  6
CONTINUOUS
 90
12
 70
0
 10
16.9844052822
 20
14.8045923565
 10
16.982973846
 20
14.8177413782
 10
16.9806108886
 20
14.8301586716
 10
16.9773164102
 20
14.8418442366
 10
16.9730434652
 20
14.85291708
 10
16.9678389992
 20
14.863258195
 10
16.961843848
 20
14.8725105615
 10
16.955059396
 20
14.8805903297
 10
16.9474842589
 20
14.8875813494
 10
16.9392551198
 20
14.8933781493
 10
16.9303759345
 20
14.8979739254
 10
16.9226457236
 20
14.9008414268
  0
LINE
  5
40C
100
AcDbEntity
  8
RACCORDO
100
AcDbLine
 62
7
  6
CONTINUOUS
 10
17.024636695
 20
14.2636777291
 11
16.9844052822
 21
14.8045923565
  0
LWPOLYLINE
  5
40D
100
AcDbEntity
  8
ASSI
100
AcDbPolyline
 62
7
  6
CONTINUOUS
 90
7
 70
0
 10
17.2806939522
 20
17.6749675544
 10
17.2800896016
 20
17.6942527965
 10
17.2763892614
 20
17.726333348
 10
17.2693739388
 20
17.7577935688
 10
17.2591296659
 20
17.7883139563
 10
17.245782382
 20
17.8175642278
 10
17.237517869
 20
17.8324213526
  0
LWPOLYLINE
  5
40E
100
AcDbEntity
  8
RACCORDO
100
AcDbPolyline
 62
7
  6
CONTINUOUS
 90
7
 70
0
 10
17.2806939522
 20
17.6749675544
 10
17.2800896016
 20
17.6942527965
 10
17.2763892614
 20
17.726333348
 10
17.2693739388
 20
17.7577935688
 10
17.2591296659
 20
17.7883139563
 10
17.245782382
 20
17.8175642278
 10
17.237517869
 20
17.8324213526
  0
LWPOLYLINE
  5
40F
100
AcDbEntity
  8
ASSI
100
AcDbPolyline
 62
253
  6
CONTINUOUS
 90
13
 70
0
 10
16.7713741698
 20
19.759516413
 10
16.7692091117
 20
19.8578455014
 10
16.7625025756
 20
19.9580354161
 10
16.7512761976
 20
20.0597695831
 10
16.7355663573
 20
20.1627231577
 10
16.715423369
 20
20.2665749882
 10
16.6909097946
 20
20.3710088826
 10
16.6621031221
 20
20.475696679
 10
16.6290936311
 20
20.5803082048
 10
16.5919810728
 20
20.6845233495
 10
16.5508800336
 20
20.7880170466
 10
16.5059208646
 20
20.8904603922
 10
16.457244973
 20
20.9915307811
  0
LWPOLYLINE
  5
410
100
AcDbEntity
  8
RACCORDO
100
AcDbPolyline
 62
253
  6
CONTINUOUS
 90
13
 70
0
 10
16.7713741698
 20
19.759516413
 10
16.7692091117
 20
19.8578455014
 10
16.7625025756
 20
19.9580354161
 10
16.7512761976
 20
20.0597695831
 10
16.7355663573
 20
20.1627231577
 10
16.715423369
 20
20.2665749882
 10
16.6909097946
 20
20.3710088826
 10
16.6621031221
 20
20.475696679
 10
16.6290936311
 20
20.5803082048
 10
16.5919810728
 20
20.6845233495
 10
16.5508800336
 20
20.7880170466
 10
16.5059208646
 20
20.8904603922
 10
16.457244973
 20
20.9915307811
  0
LWPOLYLINE
  5
411
100
AcDbEntity
  8
ASSI
100
AcDbPolyline
 62
7
  6
CONTINUOUS
 90
13
 70
0
 10
16.8922601747
 20
19.9129074471
 10
16.8919861309
 20
19.9466896344
 10
16.8874717296
 20
20.0554194531
 10
16.8775227727
 20
20.1649324424
 10
16.8622674148
 20
20.2749122857
 10
16.8418581314
 20
20.3850572354
 10
16.8164530022
 20
20.4950214117
 10
16.7861937991
 20
20.6045096792
 10
16.7512285365
 20
20.7132499781
 10
16.7117210154
 20
20.8208971023
 10
16.6678301601
 20
20.9271310286
 10
16.619739496
 20
21.0316483691
 10
16.6009583457
 20
21.0697408751
  0
LWPOLYLINE
  5
412
100
AcDbEntity
  8
RACCORDO
100
AcDbPolyline
 62
7
  6
CONTINUOUS
 90
13
 70
0
 10
16.8922601747
 20
19.9129074471
 10
16.8919861309
 20
19.9466896344
 10
16.8874717296
 20
20.0554194531
 10
16.8775227727
 20
20.1649324424
 10
16.8622674148
 20
20.2749122857
 10
16.8418581314
 20
20.3850572354
 10
16.8164530022
 20
20.4950214117
 10
16.7861937991
 20
20.6045096792
 10
16.7512285365
 20
20.7132499781
 10
16.7117210154
 20
20.8208971023
 10
16.6678301601
 20
20.9271310286
 10
16.619739496
 20
21.0316483691
 10
16.6009583457
 20
21.0697408751
  0
LINE
  5
413
100
AcDbEntity
  8
ASSI
100
AcDbLine
 62
7
  6
CONTINUOUS
 10
17.2806923498
 20
17.6749028841
 11
17.2806923319
 21
17.6749673157
  0
LINE
  5
414
100
AcDbEntity
  8
RACCORDO
100
AcDbLine
 62
7
  6
CONTINUOUS
 10
17.2806923498
 20
17.6749028841
 11
17.2806923319
 21
17.6749673157
  0
LINE
  5
415
100
AcDbEntity
  8
ASSI
100
AcDbLine
 62
253
  6
CONTINUOUS
 10
16.7361269252
 20
-7.959048004
 11
16.7367208422
 21
1.5106014507
  0
LINE
  5
416
100
AcDbEntity
  8
RACCORDO
100
AcDbLine
 62
253
  6
CONTINUOUS
 10
16.7361269252
 20
-7.959048004
 11
16.7367208422
 21
1.5106014507
  0
LINE
  5
417
100
AcDbEntity
  8
ASSI
100
AcDbLine
 62
253
  6
CONTINUOUS
 10
16.770861693
 20
11.5883824381
 11
16.7713741698
 21
19.759516413
  0
LINE
  5
418
100
AcDbEntity
  8
RACCORDO
100
AcDbLine
 62
253
  6
CONTINUOUS
 10
16.770861693
 20
11.5883824381
 11
16.7713741698
 21
19.759516413
  0
LINE
  5
419
100
AcDbEntity
  8
ASSI
100
AcDbLine
 62
7
  6
CONTINUOUS
 10
16.870450301
 20
-7.7885466893
 11
16.8710272144
 21
1.4099905913
  0
LINE
  5
41A
100
AcDbEntity
  8
RACCORDO
100
AcDbLine
 62
7
  6
CONTINUOUS
 10
16.870450301
 20
-7.7885466893
 11
16.8710272144
 21
1.4099905913
  0
LINE
  5
41B
100
AcDbEntity
  8
ASSI
100
AcDbLine
 62
7
  6
CONTINUOUS
 10
16.8917690498
 20
12.002023148
 11
16.892265208
 21
19.9129675957
  0
LINE
  5
41C
100
AcDbEntity
  8
RACCORDO
100
AcDbLine
 62
7
  6
CONTINUOUS
 10
16.8917690498
 20
12.002023148
 11
16.892265208
 21
19.9129675957
  0
LINE
  5
41D
100
AcDbEntity
  8
ASSI
100
AcDbLine
 62
253
  6
CONTINUOUS
 10
17.1595235871
 20
17.5364127316
 11
17.1594934906
 21
17.0565428789
  0
LINE
  5
41E
100
AcDbEntity
  8
RACCORDO
100
AcDbLine
 62
253
  6
CONTINUOUS
 10
17.1595235871
 20
17.5364127316
 11
17.1594934906
 21
17.0565428789
  0
LINE
  5
41F
100
AcDbEntity
  8
ASSI
100
AcDbLine
 62
7
  6
CONTINUOUS
 10
17.2806923438
 20
17.6748036614
 11
17.2806563328
 21
17.1006300863
  0
LINE
  5
420
100
AcDbEntity
  8
RACCORDO
100
AcDbLine
 62
7
  6
CONTINUOUS
 10
17.2806923438
 20
17.6748036614
 11
17.2806563328
 21
17.1006300863
  0
LINE
  5
421
100
AcDbEntity
  8
ASSI
100
AcDbLine
 62
253
  6
CONTINUOUS
 10
17.6375770163
 20
-2.7954546011
 11
17.6374629576
 21
-4.6140519011
  0
LINE
  5
422
100
AcDbEntity
  8
RACCORDO
100
AcDbLine
 62
253
  6
CONTINUOUS
 10
17.6375770163
 20
-2.7954546011
 11
17.6374629576
 21
-4.6140519011
  0
LINE
  5
423
100
AcDbEntity
  8
ASSI
100
AcDbLine
 62
7
  6
CONTINUOUS
 10
17.7111642731
 20
-2.6970447398
 11
17.7110502144
 21
-4.5156420399
  0
LINE
  5
424
100
AcDbEntity
  8
RACCORDO
100
AcDbLine
 62
7
  6
CONTINUOUS
 10
17.7111642731
 20
-2.6970447398
 11
17.7110502144
 21
-4.5156420399
  0
LWPOLYLINE
  5
425
100
AcDbEntity
  8
ASSI
100
AcDbPolyline
 62
7
  6
CONTINUOUS
 90
13
 70
0
 10
16.8917687475
 20
12.0024906437
 10
16.8916199955
 20
11.9900413755
 10
16.8896621016
 20
11.9529648416
 10
16.8855330632
 20
11.915623845
 10
16.8793572584
 20
11.878092915
 10
16.8712757035
 20
11.8404270584
 10
16.8613877398
 20
11.8029668015
 10
16.8498031173
 20
11.7657484546
 10
16.8366575983
 20
11.7288279353
 10
16.8220670215
 20
11.6925696606
 10
16.8061521461
 20
11.6571144674
 10
16.7890421215
 20
11.6223786924
 10
16.770861693
 20
11.5883824381
  0
LWPOLYLINE
  5
426
100
AcDbEntity
  8
RACCORDO
100
AcDbPolyline
 62
7
  6
CONTINUOUS
 90
13
 70
0
 10
16.8917687475
 20
12.0024906437
 10
16.8916199955
 20
11.9900413755
 10
16.8896621016
 20
11.9529648416
 10
16.8855330632
 20
11.915623845
 10
16.8793572584
 20
11.878092915
 10
16.8712757035
 20
11.8404270584
 10
16.8613877398
 20
11.8029668015
 10
16.8498031173
 20
11.7657484546
 10
16.8366575983
 20
11.7288279353
 10
16.8220670215
 20
11.6925696606
 10
16.8061521461
 20
11.6571144674
 10
16.7890421215
 20
11.6223786924
 10
16.770861693
 20
11.5883824381
  0
LINE
  5
427
100
AcDbEntity
  8
ASSI
100
AcDbLine
 62
7
  6
CONTINUOUS
 10
17.7110502144
 20
-4.5156420399
 11
17.7076193043
 21
-4.6515815355
  0
LINE
  5
428
100
AcDbEntity
  8
RACCORDO
100
AcDbLine
 62
7
  6
CONTINUOUS
 10
17.7110502144
 20
-4.5156420399
 11
17.7076193043
 21
-4.6515815355
  0
LWPOLYLINE
  5
429
100
AcDbEntity
  8
ASSI
100
AcDbPolyline
 62
253
  6
CONTINUOUS
 90
14
 70
0
 10
17.6374629576
 20
-4.6140519011
 10
17.63342834
 20
-4.7614496255
 10
17.6213601916
 20
-4.9043393572
 10
17.6013092817
 20
-5.042119927
 10
17.5733599649
 20
-5.1742116602
 10
17.537629826
 20
-5.3000588165
 10
17.4942691851
 20
-5.4191319274
 10
17.4434604585
 20
-5.5309300382
 10
17.3854174111
 20
-5.6349827694
 10
17.3203842669
 20
-5.7308523075
 10
17.2486346586
 20
-5.818135293
 10
17.1704704405
 20
-5.8964645401
 10
17.0862204376
 20
-5.965510532
 10
17.0073927943
 20
-6.0183205002
  0
LWPOLYLINE
  5
42A
100
AcDbEntity
  8
RACCORDO
100
AcDbPolyline
 62
253
  6
CONTINUOUS
 90
14
 70
0
 10
17.6374629576
 20
-4.6140519011
 10
17.63342834
 20
-4.7614496255
 10
17.6213601916
 20
-4.9043393572
 10
17.6013092817
 20
-5.042119927
 10
17.5733599649
 20
-5.1742116602
 10
17.537629826
 20
-5.3000588165
 10
17.4942691851
 20
-5.4191319274
 10
17.4434604585
 20
-5.5309300382
 10
17.3854174111
 20
-5.6349827694
 10
17.3203842669
 20
-5.7308523075
 10
17.2486346586
 20
-5.818135293
 10
17.1704704405
 20
-5.8964645401
 10
17.0862204376
 20
-5.965510532
 10
17.0073927943
 20
-6.0183205002
  0
LWPOLYLINE
  5
42B
100
AcDbEntity
  8
ASSI
100
AcDbPolyline
 62
7
  6
CONTINUOUS
 90
15
 70
0
 10
17.7076193043
 20
-4.6515815355
 10
17.697358723
 20
-4.7841003647
 10
17.6802956461
 20
-4.9128511561
 10
17.6564173895
 20
-5.0377033861
 10
17.6257922052
 20
-5.1580846535
 10
17.5886863183
 20
-5.2730660308
 10
17.5452876964
 20
-5.382348593
 10
17.495761203
 20
-5.48573693
 10
17.4405424938
 20
-5.5826005436
 10
17.3800386265
 20
-5.6726106864
 10
17.3144624444
 20
-5.7557946447
 10
17.2440625495
 20
-5.8320925153
 10
17.1691574089
 20
-5.9013730622
 10
17.09013871
 20
-5.9634811977
 10
17.007392787
 20
-6.0183205046
  0
LWPOLYLINE
  5
42C
100
AcDbEntity
  8
RACCORDO
100
AcDbPolyline
 62
7
  6
CONTINUOUS
 90
15
 70
0
 10
17.7076193043
 20
-4.6515815355
 10
17.697358723
 20
-4.7841003647
 10
17.6802956461
 20
-4.9128511561
 10
17.6564173895
 20
-5.0377033861
 10
17.6257922052
 20
-5.1580846535
 10
17.5886863183
 20
-5.2730660308
 10
17.5452876964
 20
-5.382348593
 10
17.495761203
 20
-5.48573693
 10
17.4405424938
 20
-5.5826005436
 10
17.3800386265
 20
-5.6726106864
 10
17.3144624444
 20
-5.7557946447
 10
17.2440625495
 20
-5.8320925153
 10
17.1691574089
 20
-5.9013730622
 10
17.09013871
 20
-5.9634811977
 10
17.007392787
 20
-6.0183205046
  0
LWPOLYLINE
  5
42D
100
AcDbEntity
  8
ASSI
100
AcDbPolyline
 62
253
  6
CONTINUOUS
 90
8
 70
0
 10
17.7111642731
 20
-2.6970447399
 10
17.7094095408
 20
-2.7132414529
 10
17.7046085119
 20
-2.7282294612
 10
17.69680303
 20
-2.7428979895
 10
17.6860730121
 20
-2.7570968529
 10
17.6725283185
 20
-2.7706806752
 10
17.6563076276
 20
-2.7835103772
 10
17.6375770163
 20
-2.7954546011
  0
LWPOLYLINE
  5
42E
100
AcDbEntity
  8
RACCORDO
100
AcDbPolyline
 62
253
  6
CONTINUOUS
 90
8
 70
0
 10
17.7111642731
 20
-2.6970447399
 10
17.7094095408
 20
-2.7132414529
 10
17.7046085119
 20
-2.7282294612
 10
17.69680303
 20
-2.7428979895
 10
17.6860730121
 20
-2.7570968529
 10
17.6725283185
 20
-2.7706806752
 10
17.6563076276
 20
-2.7835103772
 10
17.6375770163
 20
-2.7954546011
  0
LWPOLYLINE
  5
42F
100
AcDbEntity
  8
ASSI
100
AcDbPolyline
 62
253
  6
CONTINUOUS
 90
8
 70
0
 10
17.7110502144
 20
-4.5156420399
 10
17.7092954819
 20
-4.5318387542
 10
17.704494452
 20
-4.5468267642
 10
17.6966889686
 20
-4.5614952939
 10
17.6859589494
 20
-4.5756941576
 10
17.6724142556
 20
-4.5892779788
 10
17.6561935659
 20
-4.602107679
 10
17.6374629576
 20
-4.6140519003
  0
LWPOLYLINE
  5
430
100
AcDbEntity
  8
RACCORDO
100
AcDbPolyline
 62
253
  6
CONTINUOUS
 90
8
 70
0
 10
17.7110502144
 20
-4.5156420399
 10
17.7092954819
 20
-4.5318387542
 10
17.704494452
 20
-4.5468267642
 10
17.6966889686
 20
-4.5614952939
 10
17.6859589494
 20
-4.5756941576
 10
17.6724142556
 20
-4.5892779788
 10
17.6561935659
 20
-4.602107679
 10
17.6374629576
 20
-4.6140519003
  0
LWPOLYLINE
  5
431
100
AcDbEntity
  8
ASSI
100
AcDbPolyline
 62
7
  6
CONTINUOUS
 90
3
 70
0
 10
2.4207225018
 20
-16.410204735
 10
2.3643068424
 20
-16.4919412716
 10
2.3007555591
 20
-16.5661269381
  0
LWPOLYLINE
  5
432
100
AcDbEntity
  8
SUPERFICI
100
AcDbPolyline
 62
7
  6
CONTINUOUS
 90
3
 70
0
 10
2.4207225018
 20
-16.410204735
 10
2.3643068424
 20
-16.4919412716
 10
2.3007555591
 20
-16.5661269381
  0
LWPOLYLINE
  5
433
100
AcDbEntity
  8
RACCORDO
100
AcDbPolyline
 62
253
  6
CONTINUOUS
 90
3
 70
0
 10
1.0440293543
 20
-16.9772164243
 10
1.094673986
 20
-16.9085528359
 10
1.1372417957
 20
-16.8353473074
  0
LWPOLYLINE
  5
434
100
AcDbEntity
  8
RACCORDO
100
AcDbPolyline
 62
253
  6
CONTINUOUS
 90
10
 70
0
 10
1.3573255043
 20
-17.0641288811
 10
1.4169346702
 20
-16.9872678453
 10
1.4666027841
 20
-16.9024971563
 10
1.5066259152
 20
-16.8112188981
 10
1.5372701283
 20
-16.7149814604
 10
1.5591371925
 20
-16.6148624314
 10
1.5730187284
 20
-16.511343427
 10
1.5794372474
 20
-16.4051887591
 10
1.5787667494
 20
-16.2975567178
 10
1.5715132519
 20
-16.1893095959
  0
LWPOLYLINE
  5
435
100
AcDbEntity
  8
ASSI
100
AcDbPolyline
 62
7
  6
CONTINUOUS
 90
6
 70
0
 10
23.1403603934
 20
4.90789406
 10
23.1702866332
 20
4.9261546862
 10
23.2073178631
 20
4.9536161739
 10
23.2414123336
 20
4.9847905973
 10
23.2722434634
 20
5.0194367564
 10
23.2994535569
 20
5.057240891
  0
LWPOLYLINE
  5
436
100
AcDbEntity
  8
RACCORDO
100
AcDbPolyline
 62
7
  6
CONTINUOUS
 90
6
 70
0
 10
23.1403603934
 20
4.90789406
 10
23.1702866332
 20
4.9261546862
 10
23.2073178631
 20
4.9536161739
 10
23.2414123336
 20
4.9847905973
 10
23.2722434634
 20
5.0194367564
 10
23.2994535569
 20
5.057240891
  0
LINE
  5
437
100
AcDbEntity
  8
ASSI
100
AcDbLine
 62
253
  6
CONTINUOUS
 10
23.250215785
 20
5.1473877335
 11
16.7367208422
 21
1.5106014507
  0
LINE
  5
438
100
AcDbEntity
  8
RACCORDO
100
AcDbLine
 62
253
  6
CONTINUOUS
 10
23.250215785
 20
5.1473877335
 11
16.7367208422
 21
1.5106014507
  0
LINE
  5
439
100
AcDbEntity
  8
ASSI
100
AcDbLine
 62
7
  6
CONTINUOUS
 10
23.1404835578
 20
4.9079627635
 11
16.8689275842
 21
1.4062622269
  0
LINE
  5
43A
100
AcDbEntity
  8
RACCORDO
100
AcDbLine
 62
7
  6
CONTINUOUS
 10
23.1404835578
 20
4.9079627635
 11
16.8689275842
 21
1.4062622269
  0
LWPOLYLINE
  5
43B
100
AcDbEntity
  8
0
100
AcDbPolyline
 62
7
  6
CONTINUOUS
 90
4
 70
0
 10
-18.6556035216
 20
11.9627571727
 10
-18.6057648084
 20
11.9767888819
 10
-18.5522522603
 20
11.9882013369
 10
-18.4955077831
 20
11.9970958363
  0
LWPOLYLINE
  5
43C
100
AcDbEntity
  8
ASSI
100
AcDbPolyline
 62
7
  6
CONTINUOUS
 90
27
 70
0
 10
-18.6427395622
 20
11.9667469649
 10
-18.5677123438
 20
11.9852389136
 10
-18.4856121383
 20
11.9983606669
 10
-18.397535684
 20
12.0064589352
 10
-18.3036628064
 20
12.0099013136
 10
-18.2053625858
 20
12.008959335
 10
-18.1031900357
 20
12.0039752956
 10
-17.9971937914
 20
11.9952027609
 10
-17.8878649429
 20
11.9828945881
 10
-17.7755406635
 20
11.9672727079
 10
-17.660183845
 20
11.9484858691
 10
-17.5416310639
 20
11.9266163442
 10
-17.4201533414
 20
11.9017978317
 10
-17.2956220357
 20
11.874056718
 10
-17.1672353323
 20
11.84323553
 10
-17.0347951057
 20
11.8092663532
 10
-16.89855646
 20
11.7722008253
 10
-16.7583581891
 20
11.7319701091
 10
-16.6135199705
 20
11.6883400744
 10
-16.4647638019
 20
11.6414825853
 10
-16.3140479412
 20
11.5920208161
 10
-16.1613395175
 20
11.5399839387
 10
-16.0067341389
 20
11.4854314407
 10
-15.8524110331
 20
11.4291969777
 10
-15.6985636498
 20
11.3714342501
 10
-15.5450545582
 20
11.3121622681
 10
-15.393575875
 20
11.2521236352
  0
LWPOLYLINE
  5
43D
100
AcDbEntity
  8
ASSI
100
AcDbPolyline
 62
7
  6
CONTINUOUS
 90
8
 70
0
 10
21.946855122
 20
16.0264233861
 10
21.9123642856
 20
16.0307166699
 10
21.8776476216
 20
16.0318408974
 10
21.84300559
 20
16.0297920777
 10
21.8087896754
 20
16.0246086494
 10
21.7750412314
 20
16.0162868116
 10
21.7419706029
 20
16.0048246193
 10
21.7184060142
 20
15.9945084472
  0
LWPOLYLINE
  5
43E
100
AcDbEntity
  8
RACCORDO
100
AcDbPolyline
 62
7
  6
CONTINUOUS
 90
8
 70
0
 10
21.946855122
 20
16.0264233861
 10
21.9123642856
 20
16.0307166699
 10
21.8776476216
 20
16.0318408974
 10
21.84300559
 20
16.0297920777
 10
21.8087896754
 20
16.0246086494
 10
21.7750412314
 20
16.0162868116
 10
21.7419706029
 20
16.0048246193
 10
21.7184060142
 20
15.9945084472
  0
LINE
  5
43F
100
AcDbEntity
  8
RACCORDO
100
AcDbLine
 62
7
  6
CONTINUOUS
 10
16.9226437222
 20
14.9008366322
 11
16.8919514206
 21
14.9098152224
  0
LINE
  5
440
100
AcDbEntity
  8
0
100
AcDbLine
 62
7
  6
CONTINUOUS
 10
17.5614198794
 20
14.5481552869
 11
17.5695636104
 21
14.5454521338
  0
LWPOLYLINE
  5
441
100
AcDbEntity
  8
0
100
AcDbPolyline
 62
7
  6
CONTINUOUS
 90
5
 70
0
 10
17.7286805668
 20
14.4914690496
 10
17.8228925529
 20
14.457017936
 10
17.9470305404
 20
14.4071465124
 10
18.0664746177
 20
14.3544866686
 10
18.1786398209
 20
14.3003179751
  0
LWPOLYLINE
  5
442
100
AcDbEntity
  8
ASSI
100
AcDbPolyline
 62
253
  6
CONTINUOUS
 90
3
 70
0
 10
5.1820493957
 20
21.0350573696
 10
5.1666715216
 20
21.0415338916
 10
5.1442477393
 20
21.0479222932
  0
LWPOLYLINE
  5
443
100
AcDbEntity
  8
RACCORDO
100
AcDbPolyline
 62
253
  6
CONTINUOUS
 90
3
 70
0
 10
5.1820493957
 20
21.0350573696
 10
5.1666715216
 20
21.0415338916
 10
5.1442477393
 20
21.0479222932
  0
LWPOLYLINE
  5
444
100
AcDbEntity
  8
ASSI
100
AcDbPolyline
 62
7
  6
CONTINUOUS
 90
8
 70
0
 10
-4.5154627144
 20
25.7183419041
 10
-4.5515263062
 20
25.7338563965
 10
-4.588981415
 20
25.7462185926
 10
-4.6274805204
 20
25.7552735125
 10
-4.6665325968
 20
25.7609037247
 10
-4.7058919056
 20
25.7630911004
 10
-4.7455680752
 20
25.7618044054
 10
-4.7852492974
 20
25.756980599
  0
LWPOLYLINE
  5
445
100
AcDbEntity
  8
RACCORDO
100
AcDbPolyline
 62
7
  6
CONTINUOUS
 90
8
 70
0
 10
-4.5154627144
 20
25.7183419041
 10
-4.5515263062
 20
25.7338563965
 10
-4.588981415
 20
25.7462185926
 10
-4.6274805204
 20
25.7552735125
 10
-4.6665325968
 20
25.7609037247
 10
-4.7058919056
 20
25.7630911004
 10
-4.7455680752
 20
25.7618044054
 10
-4.7852492974
 20
25.756980599
  0
LWPOLYLINE
  5
446
100
AcDbEntity
  8
ASSI
100
AcDbPolyline
 62
253
  6
CONTINUOUS
 90
9
 70
0
 10
17.7431048283
 20
14.0191627
 10
17.7247090566
 20
14.0274038886
 10
17.7063944917
 20
14.0336017693
 10
17.6883005068
 20
14.0377043588
 10
17.6705552976
 20
14.0396729894
 10
17.653305022
 20
14.0394885818
 10
17.6367112038
 20
14.0371575127
 10
17.6209095528
 20
14.0327011778
 10
17.6099522672
 20
14.028129843
  0
LWPOLYLINE
  5
447
100
AcDbEntity
  8
RACCORDO
100
AcDbPolyline
 62
253
  6
CONTINUOUS
 90
9
 70
0
 10
17.7431048283
 20
14.0191627
 10
17.7247090566
 20
14.0274038886
 10
17.7063944917
 20
14.0336017693
 10
17.6883005068
 20
14.0377043588
 10
17.6705552976
 20
14.0396729894
 10
17.653305022
 20
14.0394885818
 10
17.6367112038
 20
14.0371575127
 10
17.6209095528
 20
14.0327011778
 10
17.6099522672
 20
14.028129843
  0
LINE
  5
448
100
AcDbEntity
  8
SUPERFICI
100
AcDbLine
 62
7
  6
CONTINUOUS
 10
-5.982220162
 20
24.4489244041
 11
-1.3601799559
 21
22.2167715423
  0
LINE
  5
449
100
AcDbEntity
  8
ASSI
100
AcDbLine
 62
7
  6
CONTINUOUS
 10
-3.7478292213
 20
23.6170184676
 11
-1.0605108156
 21
22.3192137748
  0
LINE
  5
44A
100
AcDbEntity
  8
0
100
AcDbLine
 62
7
  6
CONTINUOUS
 10
-3.7478292213
 20
23.6170184676
 11
-1.0605108156
 21
22.3192137748
  0
LINE
  5
44B
100
AcDbEntity
  8
ASSI
100
AcDbLine
 62
7
  6
CONTINUOUS
 10
-5.2575244373
 20
25.1894490201
 11
-5.0749625338
 21
25.1012831762
  0
LINE
  5
44C
100
AcDbEntity
  8
SUPERFICI
100
AcDbLine
 62
7
  6
CONTINUOUS
 10
-5.2575244373
 20
25.1894490201
 11
-5.0749625338
 21
25.1012831762
  0
LINE
  5
44D
100
AcDbEntity
  8
ASSI
100
AcDbLine
 62
7
  6
CONTINUOUS
 10
-0.1834550445
 20
22.7389946729
 11
-0.000893141
 21
22.650828829
  0
LINE
  5
44E
100
AcDbEntity
  8
SUPERFICI
100
AcDbLine
 62
7
  6
CONTINUOUS
 10
-0.1834550445
 20
22.7389946729
 11
-0.000893141
 21
22.650828829
  0
LINE
  5
44F
100
AcDbEntity
  8
ASSI
100
AcDbLine
 62
7
  6
CONTINUOUS
 10
-3.7477733908
 20
24.507202884
 11
0.7121304965
 21
22.3533516016
  0
LINE
  5
450
100
AcDbEntity
  8
SUPERFICI
100
AcDbLine
 62
7
  6
CONTINUOUS
 10
-3.7477733908
 20
24.507202884
 11
0.7121304965
 21
22.3533516016
  0
LINE
  5
451
100
AcDbEntity
  8
ASSI
100
AcDbLine
 62
7
  6
CONTINUOUS
 10
-3.2919476688
 20
24.6690477744
 11
1.0197285747
 21
22.5867810617
  0
LINE
  5
452
100
AcDbEntity
  8
SUPERFICI
100
AcDbLine
 62
7
  6
CONTINUOUS
 10
-3.2919476688
 20
24.6690477744
 11
1.0197285747
 21
22.5867810617
  0
LINE
  5
453
100
AcDbEntity
  8
ASSI
100
AcDbLine
 62
253
  6
CONTINUOUS
 10
4.9918515095
 20
21.0222936039
 11
2.0505425761
 21
22.442759645
  0
LINE
  5
454
100
AcDbEntity
  8
RACCORDO
100
AcDbLine
 62
253
  6
CONTINUOUS
 10
4.9918515095
 20
21.0222936039
 11
2.0505425761
 21
22.442759645
  0
LINE
  5
455
100
AcDbEntity
  8
ASSI
100
AcDbLine
 62
253
  6
CONTINUOUS
 10
-2.5195094001
 20
24.6498054824
 11
-4.7056783267
 21
25.7055866977
  0
LINE
  5
456
100
AcDbEntity
  8
RACCORDO
100
AcDbLine
 62
253
  6
CONTINUOUS
 10
-2.5195094001
 20
24.6498054824
 11
-4.7056783267
 21
25.7055866977
  0
LINE
  5
457
100
AcDbEntity
  8
ASSI
100
AcDbLine
 62
7
  6
CONTINUOUS
 10
5.1820671235
 20
21.0350488095
 11
2.2041217929
 21
22.4732079115
  0
LINE
  5
458
100
AcDbEntity
  8
RACCORDO
100
AcDbLine
 62
7
  6
CONTINUOUS
 10
5.1820671235
 20
21.0350488095
 11
2.2041217929
 21
22.4732079115
  0
LINE
  5
459
100
AcDbEntity
  8
ASSI
100
AcDbLine
 62
7
  6
CONTINUOUS
 10
-2.2911000975
 20
24.6441155539
 11
-4.5154627144
 21
25.7183419041
  0
LINE
  5
45A
100
AcDbEntity
  8
RACCORDO
100
AcDbLine
 62
7
  6
CONTINUOUS
 10
-2.2911000975
 20
24.6441155539
 11
-4.5154627144
 21
25.7183419041
  0
LINE
  5
45B
100
AcDbEntity
  8
ASSI
100
AcDbLine
 62
7
  6
CONTINUOUS
 10
-2.0522919301
 20
24.6381665782
 11
1.8562573736
 21
22.750584661
  0
LINE
  5
45C
100
AcDbEntity
  8
SUPERFICI
100
AcDbLine
 62
7
  6
CONTINUOUS
 10
-2.0522919301
 20
24.6381665782
 11
1.8562573736
 21
22.750584661
  0
LWPOLYLINE
  5
45D
100
AcDbEntity
  8
ASSI
100
AcDbPolyline
 62
7
  6
CONTINUOUS
 90
4
 70
0
 10
5.1820493957
 20
21.0350573696
 10
5.1949252488
 20
21.0285835708
 10
5.2108332692
 20
21.0198505271
 10
5.2175180229
 20
21.0159263506
  0
LWPOLYLINE
  5
45E
100
AcDbEntity
  8
RACCORDO
100
AcDbPolyline
 62
7
  6
CONTINUOUS
 90
4
 70
0
 10
5.1820493957
 20
21.0350573696
 10
5.1949252488
 20
21.0285835708
 10
5.2108332692
 20
21.0198505271
 10
5.2175180229
 20
21.0159263506
  0
LWPOLYLINE
  5
45F
100
AcDbEntity
  8
ASSI
100
AcDbPolyline
 62
7
  6
CONTINUOUS
 90
10
 70
0
 10
-0.000893141
 20
22.650828829
 10
0.0462675793
 20
22.6261508278
 10
0.0928365324
 20
22.5981634121
 10
0.1388137182
 20
22.5668665819
 10
0.1843886041
 20
22.5320999622
 10
0.2293717227
 20
22.494023928
 10
0.2731946725
 20
22.4531196036
 10
0.3156679863
 20
22.409547364
 10
0.3569811313
 20
22.3631468342
 10
0.3971341076
 20
22.3139180142
  0
LWPOLYLINE
  5
460
100
AcDbEntity
  8
SUPERFICI
100
AcDbPolyline
 62
7
  6
CONTINUOUS
 90
10
 70
0
 10
-0.000893141
 20
22.650828829
 10
0.0462675793
 20
22.6261508278
 10
0.0928365324
 20
22.5981634121
 10
0.1388137182
 20
22.5668665819
 10
0.1843886041
 20
22.5320999622
 10
0.2293717227
 20
22.494023928
 10
0.2731946725
 20
22.4531196036
 10
0.3156679863
 20
22.409547364
 10
0.3569811313
 20
22.3631468342
 10
0.3971341076
 20
22.3139180142
  0
LWPOLYLINE
  5
461
100
AcDbEntity
  8
ASSI
100
AcDbPolyline
 62
253
  6
CONTINUOUS
 90
10
 70
0
 10
4.9918515206
 20
21.0222935986
 10
5.0177152118
 20
21.0087126607
 10
5.0433807194
 20
20.9927360731
 10
5.0686857627
 20
20.9744648544
 10
5.0934703401
 20
20.9540145318
 10
5.1175777408
 20
20.931514411
 10
5.1408555359
 20
20.9071067583
 10
5.1631565418
 20
20.8809459012
 10
5.1843397511
 20
20.8531972525
 10
5.2042712245
 20
20.8240362646
  0
LWPOLYLINE
  5
462
100
AcDbEntity
  8
RACCORDO
100
AcDbPolyline
 62
253
  6
CONTINUOUS
 90
10
 70
0
 10
4.9918515206
 20
21.0222935986
 10
5.0177152118
 20
21.0087126607
 10
5.0433807194
 20
20.9927360731
 10
5.0686857627
 20
20.9744648544
 10
5.0934703401
 20
20.9540145318
 10
5.1175777408
 20
20.931514411
 10
5.1408555359
 20
20.9071067583
 10
5.1631565418
 20
20.8809459012
 10
5.1843397511
 20
20.8531972525
 10
5.2042712245
 20
20.8240362646
  0
LWPOLYLINE
  5
463
100
AcDbEntity
  8
ASSI
100
AcDbPolyline
 62
253
  6
CONTINUOUS
 90
13
 70
0
 10
5.2042294182
 20
20.8240151824
 10
5.4446547639
 20
20.6784965354
 10
5.6840198422
 20
20.5332846131
 10
5.9223282418
 20
20.3884060879
 10
6.1579828048
 20
20.2448488854
 10
6.3926024578
 20
20.1016874211
 10
6.6309532954
 20
19.9560318097
 10
6.873379536
 20
19.8075377212
 10
7.1194132972
 20
19.6565085432
 10
7.3724912194
 20
19.5009502871
 10
7.6336604412
 20
19.3401530056
 10
7.9016306726
 20
19.1747260268
 10
8.1762785862
 20
19.0046250715
  0
LWPOLYLINE
  5
464
100
AcDbEntity
  8
RACCORDO
100
AcDbPolyline
 62
253
  6
CONTINUOUS
 90
13
 70
0
 10
5.2042294182
 20
20.8240151824
 10
5.4446547639
 20
20.6784965354
 10
5.6840198422
 20
20.5332846131
 10
5.9223282418
 20
20.3884060879
 10
6.1579828048
 20
20.2448488854
 10
6.3926024578
 20
20.1016874211
 10
6.6309532954
 20
19.9560318097
 10
6.873379536
 20
19.8075377212
 10
7.1194132972
 20
19.6565085432
 10
7.3724912194
 20
19.5009502871
 10
7.6336604412
 20
19.3401530056
 10
7.9016306726
 20
19.1747260268
 10
8.1762785862
 20
19.0046250715
  0
LWPOLYLINE
  5
465
100
AcDbEntity
  8
ASSI
100
AcDbPolyline
 62
7
  6
CONTINUOUS
 90
10
 70
0
 10
8.0138992252
 20
19.3296255919
 10
7.8792210787
 20
19.41165546
 10
7.5330416498
 20
19.6221272532
 10
7.1881689526
 20
19.8312621352
 10
6.8446714995
 20
20.0390257014
 10
6.5026188157
 20
20.2453830065
 10
6.1620800317
 20
20.4502995194
 10
5.8231237739
 20
20.6537411308
 10
5.4858174446
 20
20.8556746162
 10
5.2169503149
 20
21.0162656619
  0
LWPOLYLINE
  5
466
100
AcDbEntity
  8
RACCORDO
100
AcDbPolyline
 62
7
  6
CONTINUOUS
 90
10
 70
0
 10
8.0138992252
 20
19.3296255919
 10
7.8792210787
 20
19.41165546
 10
7.5330416498
 20
19.6221272532
 10
7.1881689526
 20
19.8312621352
 10
6.8446714995
 20
20.0390257014
 10
6.5026188157
 20
20.2453830065
 10
6.1620800317
 20
20.4502995194
 10
5.8231237739
 20
20.6537411308
 10
5.4858174446
 20
20.8556746162
 10
5.2169503149
 20
21.0162656619
  0
LWPOLYLINE
  5
467
100
AcDbEntity
  8
ASSI
100
AcDbPolyline
 62
7
  6
CONTINUOUS
 90
7
 70
0
 10
8.0138994539
 20
19.3296256808
 10
8.0175842964
 20
19.3273438139
 10
8.0254916061
 20
19.3221872183
 10
8.0328962547
 20
19.3169899744
 10
8.0397923239
 20
19.3117588428
 10
8.0461857319
 20
19.306487063
 10
8.0520764788
 20
19.3011746348
  0
LWPOLYLINE
  5
468
100
AcDbEntity
  8
RACCORDO
100
AcDbPolyline
 62
7
  6
CONTINUOUS
 90
7
 70
0
 10
8.0138994539
 20
19.3296256808
 10
8.0175842964
 20
19.3273438139
 10
8.0254916061
 20
19.3221872183
 10
8.0328962547
 20
19.3169899744
 10
8.0397923239
 20
19.3117588428
 10
8.0461857319
 20
19.306487063
 10
8.0520764788
 20
19.3011746348
  0
LWPOLYLINE
  5
469
100
AcDbEntity
  8
RACCORDO
100
AcDbPolyline
 62
253
  6
CONTINUOUS
 90
10
 70
0
 10
17.5625914408
 20
14.5422120278
 10
17.6106153566
 20
14.5039666488
 10
17.6562760276
 20
14.4632525411
 10
17.6995734536
 20
14.4200697047
 10
17.7411266517
 20
14.3742055613
 10
17.7803166048
 20
14.3258726891
 10
17.8152862626
 20
14.275708823
 10
17.8458007754
 20
14.2236354989
 10
17.8720949928
 20
14.1697311808
 10
17.8772977195
 20
14.1560880844
  0
LINE
  5
46A
100
AcDbEntity
  8
RACCORDO
100
AcDbLine
 62
253
  6
CONTINUOUS
 10
0.8664142827
 20
-17.1680023381
 11
1.0440293543
 21
-16.9772164243
  0
LINE
  5
46B
100
AcDbEntity
  8
RACCORDO
100
AcDbLine
 62
7
  6
CONTINUOUS
 10
1.0560275846
 20
-17.3876542849
 11
1.3573254726
 21
-17.0641288979
  0
LWPOLYLINE
  5
46C
100
AcDbEntity
  8
RACCORDO
100
AcDbPolyline
 62
7
  6
CONTINUOUS
 90
3
 70
0
 10
2.3004686984
 20
-16.5664254178
 10
1.9442762357
 20
-16.9217745755
 10
1.5760960109
 20
-17.2588126447
  0
LINE
  5
46D
100
AcDbEntity
  8
ASSI
100
AcDbLine
 62
7
  6
CONTINUOUS
 10
2.3007555591
 20
-16.5661269381
 11
1.9123947565
 21
-16.9519918702
  0
LINE
  5
46E
100
AcDbEntity
  8
SUPERFICI
100
AcDbLine
 62
7
  6
CONTINUOUS
 10
2.3007555591
 20
-16.5661269381
 11
1.9123947565
 21
-16.9519918702
  0
LINE
  5
46F
100
AcDbEntity
  8
RACCORDO
100
AcDbLine
 62
7
  6
CONTINUOUS
 10
0.8938998888
 20
-17.5457598155
 11
1.0560275846
 21
-17.3876542849
  0
LINE
  5
470
100
AcDbEntity
  8
ASSI
100
AcDbLine
 62
7
  6
CONTINUOUS
 10
1.9123947565
 20
-16.9519918702
 11
1.5103686024
 21
-17.3158805824
  0
LINE
  5
471
100
AcDbEntity
  8
SUPERFICI
100
AcDbLine
 62
7
  6
CONTINUOUS
 10
1.9123947565
 20
-16.9519918702
 11
1.5103686024
 21
-17.3158805824
  0
LINE
  5
472
100
AcDbEntity
  8
ASSI
100
AcDbLine
 62
253
  6
CONTINUOUS
 10
16.8707357939
 20
-3.2365336725
 11
17.6375770163
 21
-2.7954546011
  0
LINE
  5
473
100
AcDbEntity
  8
RACCORDO
100
AcDbLine
 62
253
  6
CONTINUOUS
 10
16.8707357939
 20
-3.2365336725
 11
17.6375770163
 21
-2.7954546011
  0
LWPOLYLINE
  5
474
100
AcDbEntity
  8
ASSI
100
AcDbPolyline
 62
7
  6
CONTINUOUS
 90
22
 70
0
 10
-1.6721679058
 20
20.0131102644
 10
-1.7071236089
 20
20.009529277
 10
-1.7429478931
 20
20.0111615494
 10
-1.7796407584
 20
20.0180070818
 10
-1.8177367077
 20
20.0303242969
 10
-1.8567012381
 20
20.047854772
 10
-1.8949308404
 20
20.0698232381
 10
-1.9321626538
 20
20.0961925782
 10
-1.968659539
 20
20.1269999094
 10
-2.0036065698
 20
20.1615813138
 10
-2.0372169276
 20
20.2003590936
 10
-2.0692774309
 20
20.2429109466
 10
-2.0983336086
 20
20.2873060484
 10
-2.124063182
 20
20.3332547481
 10
-2.1467884299
 20
20.3810466966
 10
-2.166021718
 20
20.429620022
 10
-2.1817834741
 20
20.479315719
 10
-2.1940532705
 20
20.5297927929
 10
-2.2022821895
 20
20.5789663875
 10
-2.2062872585
 20
20.6261415507
 10
-2.20625145
 20
20.6720132346
 10
-2.2021747641
 20
20.7165814392
  0
LWPOLYLINE
  5
475
100
AcDbEntity
  8
SUPERFICI
100
AcDbPolyline
 62
7
  6
CONTINUOUS
 90
22
 70
0
 10
-1.6721679058
 20
20.0131102644
 10
-1.7071236089
 20
20.009529277
 10
-1.7429478931
 20
20.0111615494
 10
-1.7796407584
 20
20.0180070818
 10
-1.8177367077
 20
20.0303242969
 10
-1.8567012381
 20
20.047854772
 10
-1.8949308404
 20
20.0698232381
 10
-1.9321626538
 20
20.0961925782
 10
-1.968659539
 20
20.1269999094
 10
-2.0036065698
 20
20.1615813138
 10
-2.0372169276
 20
20.2003590936
 10
-2.0692774309
 20
20.2429109466
 10
-2.0983336086
 20
20.2873060484
 10
-2.124063182
 20
20.3332547481
 10
-2.1467884299
 20
20.3810466966
 10
-2.166021718
 20
20.429620022
 10
-2.1817834741
 20
20.479315719
 10
-2.1940532705
 20
20.5297927929
 10
-2.2022821895
 20
20.5789663875
 10
-2.2062872585
 20
20.6261415507
 10
-2.20625145
 20
20.6720132346
 10
-2.2021747641
 20
20.7165814392
  0
LWPOLYLINE
  5
476
100
AcDbEntity
  8
ASSI
100
AcDbPolyline
 62
253
  6
CONTINUOUS
 90
7
 70
0
 10
5.1442477393
 20
21.0479222932
 10
5.1206728998
 20
21.0512672912
 10
5.0961202634
 20
21.0515439464
 10
5.0707743166
 20
21.0487512096
 10
5.0448219323
 20
21.0429119963
 10
5.0184503547
 20
21.0340707053
 10
4.9918515206
 20
21.0222935986
  0
LWPOLYLINE
  5
477
100
AcDbEntity
  8
RACCORDO
100
AcDbPolyline
 62
253
  6
CONTINUOUS
 90
7
 70
0
 10
5.1442477393
 20
21.0479222932
 10
5.1206728998
 20
21.0512672912
 10
5.0961202634
 20
21.0515439464
 10
5.0707743166
 20
21.0487512096
 10
5.0448219323
 20
21.0429119963
 10
5.0184503547
 20
21.0340707053
 10
4.9918515206
 20
21.0222935986
  0
LWPOLYLINE
  5
478
100
AcDbEntity
  8
ASSI
100
AcDbPolyline
 62
7
  6
CONTINUOUS
 90
4
 70
0
 10
22.0477097781
 20
15.9945328845
 10
22.0148656066
 20
16.0082797413
 10
21.9811038653
 20
16.0189430554
 10
21.946855122
 20
16.0264233861
  0
LWPOLYLINE
  5
479
100
AcDbEntity
  8
RACCORDO
100
AcDbPolyline
 62
7
  6
CONTINUOUS
 90
4
 70
0
 10
22.0477097781
 20
15.9945328845
 10
22.0148656066
 20
16.0082797413
 10
21.9811038653
 20
16.0189430554
 10
21.946855122
 20
16.0264233861
  0
LWPOLYLINE
  5
47A
100
AcDbEntity
  8
ASSI
100
AcDbPolyline
 62
253
  6
CONTINUOUS
 90
9
 70
0
 10
22.0506470765
 20
15.9931342522
 10
22.0348892444
 20
15.9999295945
 10
22.0102148021
 20
16.0075400962
 10
21.9846807736
 20
16.0119060123
 10
21.9584552173
 20
16.0130147845
 10
21.9317429392
 20
16.0108559956
 10
21.9047399166
 20
16.0054488823
 10
21.8776330842
 20
15.9968462025
 10
21.8506186286
 20
15.9851180262
  0
LWPOLYLINE
  5
47B
100
AcDbEntity
  8
RACCORDO
100
AcDbPolyline
 62
253
  6
CONTINUOUS
 90
9
 70
0
 10
22.0506470765
 20
15.9931342522
 10
22.0348892444
 20
15.9999295945
 10
22.0102148021
 20
16.0075400962
 10
21.9846807736
 20
16.0119060123
 10
21.9584552173
 20
16.0130147845
 10
21.9317429392
 20
16.0108559956
 10
21.9047399166
 20
16.0054488823
 10
21.8776330842
 20
15.9968462025
 10
21.8506186286
 20
15.9851180262
  0
LWPOLYLINE
  5
47C
100
AcDbEntity
  8
ASSI
100
AcDbPolyline
 62
253
  6
CONTINUOUS
 90
8
 70
0
 10
23.1173515802
 20
15.4779834801
 10
23.1074609869
 20
15.4823563216
 10
23.0803821931
 20
15.4906579065
 10
23.0515931179
 20
15.4944517113
 10
23.0215292015
 20
15.4937095451
 10
22.9905699691
 20
15.4885048927
 10
22.9590141131
 20
15.4789496099
 10
22.9271996938
 20
15.4651975152
  0
LWPOLYLINE
  5
47D
100
AcDbEntity
  8
RACCORDO
100
AcDbPolyline
 62
253
  6
CONTINUOUS
 90
8
 70
0
 10
23.1173515802
 20
15.4779834801
 10
23.1074609869
 20
15.4823563216
 10
23.0803821931
 20
15.4906579065
 10
23.0515931179
 20
15.4944517113
 10
23.0215292015
 20
15.4937095451
 10
22.9905699691
 20
15.4885048927
 10
22.9590141131
 20
15.4789496099
 10
22.9271996938
 20
15.4651975152
  0
LWPOLYLINE
  5
47E
100
AcDbEntity
  8
ASSI
100
AcDbPolyline
 62
253
  6
CONTINUOUS
 90
9
 70
0
 10
21.8506146425
 20
15.9851199512
 10
21.8322008754
 20
15.993402728
 10
21.8139000484
 20
15.9996323114
 10
21.7958520357
 20
16.0037616191
 10
21.7781947884
 20
16.0057595468
 10
21.7610632844
 20
16.0056112051
 10
21.7445885021
 20
16.0033180324
 10
21.7288964239
 20
15.9988977846
 10
21.7183907261
 20
15.9945310785
  0
LWPOLYLINE
  5
47F
100
AcDbEntity
  8
RACCORDO
100
AcDbPolyline
 62
253
  6
CONTINUOUS
 90
9
 70
0
 10
21.8506146425
 20
15.9851199512
 10
21.8322008754
 20
15.993402728
 10
21.8139000484
 20
15.9996323114
 10
21.7958520357
 20
16.0037616191
 10
21.7781947884
 20
16.0057595468
 10
21.7610632844
 20
16.0056112051
 10
21.7445885021
 20
16.0033180324
 10
21.7288964239
 20
15.9988977846
 10
21.7183907261
 20
15.9945310785
  0
LINE
  5
480
100
AcDbEntity
  8
ASSI
100
AcDbLine
 62
253
  6
CONTINUOUS
 10
17.1570913605
 20
17.05528382
 11
20.5306702481
 21
15.4260587521
  0
LINE
  5
481
100
AcDbEntity
  8
RACCORDO
100
AcDbLine
 62
253
  6
CONTINUOUS
 10
17.1570913605
 20
17.05528382
 11
20.5306702481
 21
15.4260587521
  0
LINE
  5
482
100
AcDbEntity
  8
ASSI
100
AcDbLine
 62
7
  6
CONTINUOUS
 10
17.2771415559
 20
17.104609557
 11
20.6422620182
 21
15.4794693732
  0
LINE
  5
483
100
AcDbEntity
  8
RACCORDO
100
AcDbLine
 62
7
  6
CONTINUOUS
 10
17.2771415559
 20
17.104609557
 11
20.6422620182
 21
15.4794693732
  0
LINE
  5
484
100
AcDbEntity
  8
ASSI
100
AcDbLine
 62
253
  6
CONTINUOUS
 10
21.8506146425
 20
15.9851199512
 11
22.9271996938
 21
15.4651975152
  0
LINE
  5
485
100
AcDbEntity
  8
RACCORDO
100
AcDbLine
 62
253
  6
CONTINUOUS
 10
21.8506146425
 20
15.9851199512
 11
22.9271996938
 21
15.4651975152
  0
LINE
  5
486
100
AcDbEntity
  8
ASSI
100
AcDbLine
 62
7
  6
CONTINUOUS
 10
22.0477097781
 20
15.9945328845
 11
23.1174152967
 21
15.4779527262
  0
LINE
  5
487
100
AcDbEntity
  8
RACCORDO
100
AcDbLine
 62
7
  6
CONTINUOUS
 10
22.0477097781
 20
15.9945328845
 11
23.1174152967
 21
15.4779527262
  0
LINE
  5
488
100
AcDbEntity
  8
ASSI
100
AcDbLine
 62
7
  6
CONTINUOUS
 10
22.0510662635
 20
15.992931284
 11
22.0506470765
 21
15.9931342522
  0
LINE
  5
489
100
AcDbEntity
  8
RACCORDO
100
AcDbLine
 62
7
  6
CONTINUOUS
 10
22.0510662635
 20
15.992931284
 11
22.0506470765
 21
15.9931342522
  0
LWPOLYLINE
  5
48A
100
AcDbEntity
  8
ASSI
100
AcDbPolyline
 62
7
  6
CONTINUOUS
 90
15
 70
0
 10
23.1173515802
 20
15.4779834801
 10
23.1396293126
 20
15.4664526965
 10
23.1726840494
 20
15.4462523446
 10
23.203922947
 20
15.4232485451
 10
23.2331499416
 20
15.3975576254
 10
23.2601337921
 20
15.3693400608
 10
23.2846378829
 20
15.3387973802
 10
23.3064649623
 20
15.3061231486
 10
23.3254222144
 20
15.2715398799
 10
23.3413269749
 20
15.2353049781
 10
23.3540226313
 20
15.1976894261
 10
23.363380961
 20
15.1589610864
 10
23.3692898761
 20
15.1194331702
 10
23.3716692932
 20
15.0794676935
 10
23.3717196945
 20
15.0727207945
  0
LWPOLYLINE
  5
48B
100
AcDbEntity
  8
RACCORDO
100
AcDbPolyline
 62
7
  6
CONTINUOUS
 90
15
 70
0
 10
23.1173515802
 20
15.4779834801
 10
23.1396293126
 20
15.4664526965
 10
23.1726840494
 20
15.4462523446
 10
23.203922947
 20
15.4232485451
 10
23.2331499416
 20
15.3975576254
 10
23.2601337921
 20
15.3693400608
 10
23.2846378829
 20
15.3387973802
 10
23.3064649623
 20
15.3061231486
 10
23.3254222144
 20
15.2715398799
 10
23.3413269749
 20
15.2353049781
 10
23.3540226313
 20
15.1976894261
 10
23.363380961
 20
15.1589610864
 10
23.3692898761
 20
15.1194331702
 10
23.3716692932
 20
15.0794676935
 10
23.3717196945
 20
15.0727207945
  0
LWPOLYLINE
  5
48C
100
AcDbEntity
  8
ASSI
100
AcDbPolyline
 62
253
  6
CONTINUOUS
 90
16
 70
0
 10
22.9271996938
 20
15.4651975152
 10
22.9615641203
 20
15.4469960245
 10
22.9954921721
 20
15.4246956155
 10
23.0286122703
 20
15.3985405217
 10
23.0605616848
 20
15.3688171927
 10
23.0909905068
 20
15.3358511573
 10
23.1195654808
 20
15.3000034584
 10
23.1459736548
 20
15.2616666987
 10
23.1699258074
 20
15.221260741
 10
23.1911596154
 20
15.17922811
 10
23.209442527
 20
15.1360291455
 10
23.2245743082
 20
15.0921369612
 10
23.2363892365
 20
15.0480322625
 10
23.2447579151
 20
15.0041980827
 10
23.2495886906
 20
14.9611144921
 10
23.2508286564
 20
14.9192533407
  0
LWPOLYLINE
  5
48D
100
AcDbEntity
  8
RACCORDO
100
AcDbPolyline
 62
253
  6
CONTINUOUS
 90
16
 70
0
 10
22.9271996938
 20
15.4651975152
 10
22.9615641203
 20
15.4469960245
 10
22.9954921721
 20
15.4246956155
 10
23.0286122703
 20
15.3985405217
 10
23.0605616848
 20
15.3688171927
 10
23.0909905068
 20
15.3358511573
 10
23.1195654808
 20
15.3000034584
 10
23.1459736548
 20
15.2616666987
 10
23.1699258074
 20
15.221260741
 10
23.1911596154
 20
15.17922811
 10
23.209442527
 20
15.1360291455
 10
23.2245743082
 20
15.0921369612
 10
23.2363892365
 20
15.0480322625
 10
23.2447579151
 20
15.0041980827
 10
23.2495886906
 20
14.9611144921
 10
23.2508286564
 20
14.9192533407
  0
LWPOLYLINE
  5
48E
100
AcDbEntity
  8
ASSI
100
AcDbPolyline
 62
7
  6
CONTINUOUS
 90
7
 70
0
 10
20.7261341354
 20
15.5196126729
 10
20.6990951664
 20
15.5415471107
 10
20.665910842
 20
15.5717752083
 10
20.6326866374
 20
15.6055637255
 10
20.5998907193
 20
15.6426627787
 10
20.5679149981
 20
15.6828226157
 10
20.5371045609
 20
15.7257869169
  0
LWPOLYLINE
  5
48F
100
AcDbEntity
  8
RACCORDO
100
AcDbPolyline
 62
7
  6
CONTINUOUS
 90
7
 70
0
 10
20.7261341354
 20
15.5196126729
 10
20.6990951664
 20
15.5415471107
 10
20.665910842
 20
15.5717752083
 10
20.6326866374
 20
15.6055637255
 10
20.5998907193
 20
15.6426627787
 10
20.5679149981
 20
15.6828226157
 10
20.5371045609
 20
15.7257869169
  0
LWPOLYLINE
  5
490
100
AcDbEntity
  8
RACCORDO
100
AcDbPolyline
 62
7
  6
CONTINUOUS
 90
7
 70
0
 10
17.9852373603
 20
14.2077507048
 10
17.9459706516
 20
14.2650846454
 10
17.8989856205
 20
14.3244958338
 10
17.8465728349
 20
14.3825446577
 10
17.7889096674
 20
14.4389938987
 10
17.7258994999
 20
14.4938920794
 10
17.664487593
 20
14.5420076883
  0
LINE
  5
491
100
AcDbEntity
  8
ASSI
100
AcDbLine
 62
253
  6
CONTINUOUS
 10
16.8921515113
 20
18.10014162
 11
17.0986432397
 21
17.7517976495
  0
LINE
  5
492
100
AcDbEntity
  8
RACCORDO
100
AcDbLine
 62
253
  6
CONTINUOUS
 10
16.8921515113
 20
18.10014162
 11
17.0986432397
 21
17.7517976495
  0
LINE
  5
493
100
AcDbEntity
  8
ASSI
100
AcDbLine
 62
7
  6
CONTINUOUS
 10
16.8921712591
 20
18.4150083967
 11
17.2373794952
 21
17.8326547667
  0
LINE
  5
494
100
AcDbEntity
  8
RACCORDO
100
AcDbLine
 62
7
  6
CONTINUOUS
 10
16.8921712591
 20
18.4150083967
 11
17.2373794952
 21
17.8326547667
  0
LWPOLYLINE
  5
495
100
AcDbEntity
  8
ASSI
100
AcDbPolyline
 62
253
  6
CONTINUOUS
 90
10
 70
0
 10
17.0986432397
 20
17.7517976495
 10
17.1112443089
 20
17.7288925406
 10
17.1225495892
 20
17.7053038321
 10
17.1324723219
 20
17.681210589
 10
17.140935649
 20
17.6567952007
 10
17.1478749635
 20
17.6322435971
 10
17.1532385315
 20
17.6077438418
 10
17.1569854951
 20
17.5834825425
 10
17.1590860633
 20
17.5596434321
 10
17.159523589
 20
17.5364075755
  0
LWPOLYLINE
  5
496
100
AcDbEntity
  8
RACCORDO
100
AcDbPolyline
 62
253
  6
CONTINUOUS
 90
10
 70
0
 10
17.0986432397
 20
17.7517976495
 10
17.1112443089
 20
17.7288925406
 10
17.1225495892
 20
17.7053038321
 10
17.1324723219
 20
17.681210589
 10
17.140935649
 20
17.6567952007
 10
17.1478749635
 20
17.6322435971
 10
17.1532385315
 20
17.6077438418
 10
17.1569854951
 20
17.5834825425
 10
17.1590860633
 20
17.5596434321
 10
17.159523589
 20
17.5364075755
  0
LWPOLYLINE
  5
497
100
AcDbEntity
  8
ASSI
100
AcDbPolyline
 62
253
  6
CONTINUOUS
 90
10
 70
0
 10
16.4572449728
 20
20.991530781
 10
16.3568045012
 20
21.1903084788
 10
16.2561901945
 20
21.3869807491
 10
16.1554326627
 20
21.5815471604
 10
16.0547642868
 20
21.7736242682
 10
15.9540162405
 20
21.9635982985
 10
15.8526000551
 20
22.1526149861
 10
15.7503205858
 20
22.3410470452
 10
15.6473944477
 20
22.5285043149
 10
15.5438341456
 20
22.7149793634
  0
LWPOLYLINE
  5
498
100
AcDbEntity
  8
RACCORDO
100
AcDbPolyline
 62
253
  6
CONTINUOUS
 90
10
 70
0
 10
16.4572449728
 20
20.991530781
 10
16.3568045012
 20
21.1903084788
 10
16.2561901945
 20
21.3869807491
 10
16.1554326627
 20
21.5815471604
 10
16.0547642868
 20
21.7736242682
 10
15.9540162405
 20
21.9635982985
 10
15.8526000551
 20
22.1526149861
 10
15.7503205858
 20
22.3410470452
 10
15.6473944477
 20
22.5285043149
 10
15.5438341456
 20
22.7149793634
  0
LWPOLYLINE
  5
499
100
AcDbEntity
  8
ASSI
100
AcDbPolyline
 62
7
  6
CONTINUOUS
 90
10
 70
0
 10
16.6009620569
 20
21.069742117
 10
16.5038144227
 20
21.2620350968
 10
16.4057227269
 20
21.4538617925
 10
16.3066928939
 20
21.6452106239
 10
16.2067309353
 20
21.8360699763
 10
16.1058428519
 20
22.0264283883
 10
16.0040346304
 20
22.2162745505
 10
15.9013123744
 20
22.4055970582
 10
15.7976823075
 20
22.594384413
 10
15.6931506731
 20
22.7826252098
  0
LWPOLYLINE
  5
49A
100
AcDbEntity
  8
RACCORDO
100
AcDbPolyline
 62
7
  6
CONTINUOUS
 90
10
 70
0
 10
16.6009620569
 20
21.069742117
 10
16.5038144227
 20
21.2620350968
 10
16.4057227269
 20
21.4538617925
 10
16.3066928939
 20
21.6452106239
 10
16.2067309353
 20
21.8360699763
 10
16.1058428519
 20
22.0264283883
 10
16.0040346304
 20
22.2162745505
 10
15.9013123744
 20
22.4055970582
 10
15.7976823075
 20
22.594384413
 10
15.6931506731
 20
22.7826252098
  0
LINE
  5
49B
100
AcDbEntity
  8
ASSI
100
AcDbLine
 62
253
  6
CONTINUOUS
 10
23.250215785
 20
5.1473877335
 11
23.2508286564
 21
14.9192533407
  0
LINE
  5
49C
100
AcDbEntity
  8
RACCORDO
100
AcDbLine
 62
253
  6
CONTINUOUS
 10
23.250215785
 20
5.1473877335
 11
23.2508286564
 21
14.9192533407
  0
LINE
  5
49D
100
AcDbEntity
  8
ASSI
100
AcDbLine
 62
253
  6
CONTINUOUS
 10
24.2375638801
 20
12.2257954965
 11
24.2374498214
 21
10.4071981965
  0
LINE
  5
49E
100
AcDbEntity
  8
RACCORDO
100
AcDbLine
 62
253
  6
CONTINUOUS
 10
24.2375638801
 20
12.2257954965
 11
24.2374498214
 21
10.4071981965
  0
LINE
  5
49F
100
AcDbEntity
  8
ASSI
100
AcDbLine
 62
7
  6
CONTINUOUS
 10
24.3111511369
 20
12.3242053577
 11
24.3110370782
 21
10.5056080577
  0
LINE
  5
4A0
100
AcDbEntity
  8
RACCORDO
100
AcDbLine
 62
7
  6
CONTINUOUS
 10
24.3111511369
 20
12.3242053577
 11
24.3110370782
 21
10.5056080577
  0
LINE
  5
4A1
100
AcDbEntity
  8
ASSI
100
AcDbLine
 62
7
  6
CONTINUOUS
 10
23.3717196946
 20
15.0727045237
 11
23.3711067969
 21
5.3007685817
  0
LINE
  5
4A2
100
AcDbEntity
  8
RACCORDO
100
AcDbLine
 62
7
  6
CONTINUOUS
 10
23.3717196946
 20
15.0727045237
 11
23.3711067969
 21
5.3007685817
  0
LWPOLYLINE
  5
4A3
100
AcDbEntity
  8
ASSI
100
AcDbPolyline
 62
253
  6
CONTINUOUS
 90
11
 70
0
 10
23.250215785
 20
5.1473877335
 10
23.2494225716
 20
5.1141757458
 10
23.2461165795
 20
5.0823874128
 10
23.2403219531
 20
5.0522667539
 10
23.2320798413
 20
5.0240392362
 10
23.2214532753
 20
4.997928872
 10
23.2085318606
 20
4.9741516589
 10
23.1934267116
 20
4.9528968492
 10
23.1762500723
 20
4.9343093924
 10
23.1571166154
 20
4.9185131015
 10
23.1404828984
 20
4.9079623953
  0
LWPOLYLINE
  5
4A4
100
AcDbEntity
  8
RACCORDO
100
AcDbPolyline
 62
253
  6
CONTINUOUS
 90
11
 70
0
 10
23.250215785
 20
5.1473877335
 10
23.2494225716
 20
5.1141757458
 10
23.2461165795
 20
5.0823874128
 10
23.2403219531
 20
5.0522667539
 10
23.2320798413
 20
5.0240392362
 10
23.2214532753
 20
4.997928872
 10
23.2085318606
 20
4.9741516589
 10
23.1934267116
 20
4.9528968492
 10
23.1762500723
 20
4.9343093924
 10
23.1571166154
 20
4.9185131015
 10
23.1404828984
 20
4.9079623953
  0
LINE
  5
4A5
100
AcDbEntity
  8
ASSI
100
AcDbLine
 62
7
  6
CONTINUOUS
 10
24.3110370782
 20
10.5056080577
 11
24.3076061681
 21
10.3696685621
  0
LINE
  5
4A6
100
AcDbEntity
  8
RACCORDO
100
AcDbLine
 62
7
  6
CONTINUOUS
 10
24.3110370782
 20
10.5056080577
 11
24.3076061681
 21
10.3696685621
  0
LWPOLYLINE
  5
4A7
100
AcDbEntity
  8
ASSI
100
AcDbPolyline
 62
253
  6
CONTINUOUS
 90
14
 70
0
 10
24.2374498214
 20
10.4071981965
 10
24.2334152037
 20
10.2598004721
 10
24.2213470554
 20
10.1169107404
 10
24.2012961455
 20
9.9791301706
 10
24.1733468287
 20
9.8470384374
 10
24.1376166897
 20
9.7211912811
 10
24.0942560488
 20
9.6021181702
 10
24.0434473222
 20
9.4903200594
 10
23.9854042749
 20
9.3862673282
 10
23.9203711307
 20
9.2903977901
 10
23.8486215223
 20
9.2031148046
 10
23.7704573043
 20
9.1247855575
 10
23.6862073013
 20
9.0557395656
 10
23.607379658
 20
9.0029295974
  0
LWPOLYLINE
  5
4A8
100
AcDbEntity
  8
RACCORDO
100
AcDbPolyline
 62
253
  6
CONTINUOUS
 90
14
 70
0
 10
24.2374498214
 20
10.4071981965
 10
24.2334152037
 20
10.2598004721
 10
24.2213470554
 20
10.1169107404
 10
24.2012961455
 20
9.9791301706
 10
24.1733468287
 20
9.8470384374
 10
24.1376166897
 20
9.7211912811
 10
24.0942560488
 20
9.6021181702
 10
24.0434473222
 20
9.4903200594
 10
23.9854042749
 20
9.3862673282
 10
23.9203711307
 20
9.2903977901
 10
23.8486215223
 20
9.2031148046
 10
23.7704573043
 20
9.1247855575
 10
23.6862073013
 20
9.0557395656
 10
23.607379658
 20
9.0029295974
  0
LWPOLYLINE
  5
4A9
100
AcDbEntity
  8
ASSI
100
AcDbPolyline
 62
7
  6
CONTINUOUS
 90
15
 70
0
 10
24.3076061681
 20
10.3696685621
 10
24.2973455868
 20
10.2371497329
 10
24.2802825098
 20
10.1083989415
 10
24.2564042533
 20
9.9835467115
 10
24.225779069
 20
9.8631654441
 10
24.1886731821
 20
9.7481840668
 10
24.1452745602
 20
9.6389015046
 10
24.0957480668
 20
9.5355131676
 10
24.0405293576
 20
9.438649554
 10
23.9800254903
 20
9.3486394112
 10
23.9144493082
 20
9.2654554529
 10
23.8440494133
 20
9.1891575823
 10
23.7691442726
 20
9.1198770354
 10
23.6901255738
 20
9.0577688999
 10
23.6073796508
 20
9.002929593
  0
LWPOLYLINE
  5
4AA
100
AcDbEntity
  8
RACCORDO
100
AcDbPolyline
 62
7
  6
CONTINUOUS
 90
15
 70
0
 10
24.3076061681
 20
10.3696685621
 10
24.2973455868
 20
10.2371497329
 10
24.2802825098
 20
10.1083989415
 10
24.2564042533
 20
9.9835467115
 10
24.225779069
 20
9.8631654441
 10
24.1886731821
 20
9.7481840668
 10
24.1452745602
 20
9.6389015046
 10
24.0957480668
 20
9.5355131676
 10
24.0405293576
 20
9.438649554
 10
23.9800254903
 20
9.3486394112
 10
23.9144493082
 20
9.2654554529
 10
23.8440494133
 20
9.1891575823
 10
23.7691442726
 20
9.1198770354
 10
23.6901255738
 20
9.0577688999
 10
23.6073796508
 20
9.002929593
  0
LWPOLYLINE
  5
4AB
100
AcDbEntity
  8
ASSI
100
AcDbPolyline
 62
253
  6
CONTINUOUS
 90
8
 70
0
 10
24.3111511369
 20
12.3242053577
 10
24.3093964046
 20
12.3080086447
 10
24.3045953757
 20
12.2930206364
 10
24.2967898938
 20
12.2783521081
 10
24.2860598759
 20
12.2641532447
 10
24.2725151823
 20
12.2505694224
 10
24.2562944914
 20
12.2377397204
 10
24.2375638801
 20
12.2257954965
  0
LWPOLYLINE
  5
4AC
100
AcDbEntity
  8
RACCORDO
100
AcDbPolyline
 62
253
  6
CONTINUOUS
 90
8
 70
0
 10
24.3111511369
 20
12.3242053577
 10
24.3093964046
 20
12.3080086447
 10
24.3045953757
 20
12.2930206364
 10
24.2967898938
 20
12.2783521081
 10
24.2860598759
 20
12.2641532447
 10
24.2725151823
 20
12.2505694224
 10
24.2562944914
 20
12.2377397204
 10
24.2375638801
 20
12.2257954965
  0
LWPOLYLINE
  5
4AD
100
AcDbEntity
  8
ASSI
100
AcDbPolyline
 62
253
  6
CONTINUOUS
 90
8
 70
0
 10
24.3110370782
 20
10.5056080577
 10
24.3092823456
 20
10.4894113434
 10
24.3044813158
 20
10.4744233334
 10
24.2966758323
 20
10.4597548037
 10
24.2859458132
 20
10.44555594
 10
24.2724011194
 20
10.4319721188
 10
24.2561804297
 20
10.4191424186
 10
24.2374498214
 20
10.4071981973
  0
LWPOLYLINE
  5
4AE
100
AcDbEntity
  8
RACCORDO
100
AcDbPolyline
 62
253
  6
CONTINUOUS
 90
8
 70
0
 10
24.3110370782
 20
10.5056080577
 10
24.3092823456
 20
10.4894113434
 10
24.3044813158
 20
10.4744233334
 10
24.2966758323
 20
10.4597548037
 10
24.2859458132
 20
10.44555594
 10
24.2724011194
 20
10.4319721188
 10
24.2561804297
 20
10.4191424186
 10
24.2374498214
 20
10.4071981973
  0
LWPOLYLINE
  5
4AF
100
AcDbEntity
  8
ASSI
100
AcDbPolyline
 62
253
  6
CONTINUOUS
 90
8
 70
0
 10
23.3709801174
 20
5.2955516664
 10
23.3674695366
 20
5.272293863
 10
23.3591454455
 20
5.2493098268
 10
23.3460958018
 20
5.2268734812
 10
23.328463369
 20
5.2052349509
 10
23.3064410776
 20
5.1846299328
 10
23.2802644943
 20
5.1652779791
 10
23.250215785
 20
5.1473877335
  0
LWPOLYLINE
  5
4B0
100
AcDbEntity
  8
RACCORDO
100
AcDbPolyline
 62
253
  6
CONTINUOUS
 90
8
 70
0
 10
23.3709801174
 20
5.2955516664
 10
23.3674695366
 20
5.272293863
 10
23.3591454455
 20
5.2493098268
 10
23.3460958018
 20
5.2268734812
 10
23.328463369
 20
5.2052349509
 10
23.3064410776
 20
5.1846299328
 10
23.2802644943
 20
5.1652779791
 10
23.250215785
 20
5.1473877335
  0
LWPOLYLINE
  5
4B1
100
AcDbEntity
  8
ASSI
100
AcDbPolyline
 62
7
  6
CONTINUOUS
 90
7
 70
0
 10
23.2994535569
 20
5.057240891
 10
23.3226881732
 20
5.0978094656
 10
23.3416542702
 20
5.1407426705
 10
23.3560972232
 20
5.1856137115
 10
23.3657943209
 20
5.2319249895
 10
23.3705812027
 20
5.2791235644
 10
23.3711067969
 20
5.3007685817
  0
LWPOLYLINE
  5
4B2
100
AcDbEntity
  8
RACCORDO
100
AcDbPolyline
 62
7
  6
CONTINUOUS
 90
7
 70
0
 10
23.2994535569
 20
5.057240891
 10
23.3226881732
 20
5.0978094656
 10
23.3416542702
 20
5.1407426705
 10
23.3560972232
 20
5.1856137115
 10
23.3657943209
 20
5.2319249895
 10
23.3705812027
 20
5.2791235644
 10
23.3711067969
 20
5.3007685817
  0
LWPOLYLINE
  5
4B3
100
AcDbEntity
  8
ASSI
100
AcDbPolyline
 62
253
  6
CONTINUOUS
 90
11
 70
0
 10
16.5155453049
 20
-8.7741426628
 10
16.5566624374
 20
-8.710220282
 10
16.5937892529
 20
-8.6417628215
 10
16.6268113411
 20
-8.5689851539
 10
16.6556292334
 20
-8.4921093278
 10
16.680152702
 20
-8.4113767732
 10
16.7003039583
 20
-8.3270421285
 10
16.7160202154
 20
-8.2393630715
 10
16.7272511905
 20
-8.1486119036
 10
16.7339606204
 20
-8.0550757277
 10
16.7361269252
 20
-7.959048004
  0
LWPOLYLINE
  5
4B4
100
AcDbEntity
  8
RACCORDO
100
AcDbPolyline
 62
253
  6
CONTINUOUS
 90
11
 70
0
 10
16.5155453049
 20
-8.7741426628
 10
16.5566624374
 20
-8.710220282
 10
16.5937892529
 20
-8.6417628215
 10
16.6268113411
 20
-8.5689851539
 10
16.6556292334
 20
-8.4921093278
 10
16.680152702
 20
-8.4113767732
 10
16.7003039583
 20
-8.3270421285
 10
16.7160202154
 20
-8.2393630715
 10
16.7272511905
 20
-8.1486119036
 10
16.7339606204
 20
-8.0550757277
 10
16.7361269252
 20
-7.959048004
  0
LINE
  5
4B5
100
AcDbEntity
  8
ASSI
100
AcDbLine
 62
253
  6
CONTINUOUS
 10
16.4705682789
 20
-8.833324378
 11
16.5155453049
 21
-8.7741426628
  0
LINE
  5
4B6
100
AcDbEntity
  8
RACCORDO
100
AcDbLine
 62
253
  6
CONTINUOUS
 10
16.4705682789
 20
-8.833324378
 11
16.5155453049
 21
-8.7741426628
  0
LINE
  5
4B7
100
AcDbEntity
  8
ASSI
100
AcDbLine
 62
7
  6
CONTINUOUS
 10
8.1711648669
 20
-13.7444745643
 11
8.163547894
 21
-13.7523591231
  0
LINE
  5
4B8
100
AcDbEntity
  8
RACCORDO
100
AcDbLine
 62
7
  6
CONTINUOUS
 10
8.1711648669
 20
-13.7444745643
 11
8.163547894
 21
-13.7523591231
  0
LINE
  5
4B9
100
AcDbEntity
  8
RACCORDO
100
AcDbLine
 62
7
  6
CONTINUOUS
 10
1.5760960109
 20
-17.2588126447
 11
1.1959280241
 21
-17.5775396254
  0
LINE
  5
4BA
100
AcDbEntity
  8
ASSI
100
AcDbLine
 62
7
  6
CONTINUOUS
 10
1.5103686024
 20
-17.3158805824
 11
1.0946770967
 21
-17.6577930747
  0
LINE
  5
4BB
100
AcDbEntity
  8
SUPERFICI
100
AcDbLine
 62
7
  6
CONTINUOUS
 10
1.5103686024
 20
-17.3158805824
 11
1.0946770967
 21
-17.6577930747
  0
LINE
  5
4BC
100
AcDbEntity
  8
RACCORDO
100
AcDbLine
 62
7
  6
CONTINUOUS
 10
1.1959280241
 20
-17.5775396254
 11
0.9120337975
 21
-17.7949891614
  0
LINE
  5
4BD
100
AcDbEntity
  8
ASSI
100
AcDbLine
 62
7
  6
CONTINUOUS
 10
1.0946770967
 20
-17.6577930747
 11
0.9119574333
 21
-17.7939396252
  0
LINE
  5
4BE
100
AcDbEntity
  8
SUPERFICI
100
AcDbLine
 62
7
  6
CONTINUOUS
 10
1.0946770967
 20
-17.6577930747
 11
0.9119574333
 21
-17.7939396252
  0
LINE
  5
4BF
100
AcDbEntity
  8
ASSI
100
AcDbLine
 62
7
  6
CONTINUOUS
 10
16.8705561265
 20
-6.101223601
 11
17.007392787
 21
-6.0183205046
  0
LINE
  5
4C0
100
AcDbEntity
  8
DRAFT
100
AcDbLine
 62
7
  6
CONTINUOUS
 10
16.8705561265
 20
-6.101223601
 11
17.007392787
 21
-6.0183205046
  0
LINE
  5
4C1
100
AcDbEntity
  8
ASSI
100
AcDbLine
 62
253
  6
CONTINUOUS
 10
16.8706217352
 20
-5.0551309726
 11
17.6374629576
 21
-4.6140519011
  0
LINE
  5
4C2
100
AcDbEntity
  8
RACCORDO
100
AcDbLine
 62
253
  6
CONTINUOUS
 10
16.8706217352
 20
-5.0551309726
 11
17.6374629576
 21
-4.6140519011
  0
LINE
  5
4C3
100
AcDbEntity
  8
ASSI
100
AcDbLine
 62
7
  6
CONTINUOUS
 10
1.8562573736
 20
22.750584661
 11
1.0197285747
 21
22.5867810617
  0
LINE
  5
4C4
100
AcDbEntity
  8
SUPERFICI
100
AcDbLine
 62
7
  6
CONTINUOUS
 10
1.8562573736
 20
22.750584661
 11
1.0197285747
 21
22.5867810617
  0
LINE
  5
4C5
100
AcDbEntity
  8
ASSI
100
AcDbLine
 62
7
  6
CONTINUOUS
 10
-2.0522919301
 20
24.6381665782
 11
-3.2919476688
 21
24.6690477744
  0
LINE
  5
4C6
100
AcDbEntity
  8
SUPERFICI
100
AcDbLine
 62
7
  6
CONTINUOUS
 10
-2.0522919301
 20
24.6381665782
 11
-3.2919476688
 21
24.6690477744
  0
LWPOLYLINE
  5
4C7
100
AcDbEntity
  8
ASSI
100
AcDbPolyline
 62
253
  6
CONTINUOUS
 90
8
 70
0
 10
15.4956441978
 20
22.9685751714
 10
15.4865932262
 20
22.9725878158
 10
15.4596331462
 20
22.9809712346
 10
15.4309637538
 20
22.9848734942
 10
15.4009103186
 20
22.984254415
 10
15.3698030743
 20
22.9791298912
 10
15.3379706898
 20
22.9695628379
 10
15.3057542882
 20
22.9556631167
  0
LWPOLYLINE
  5
4C8
100
AcDbEntity
  8
RACCORDO
100
AcDbPolyline
 62
253
  6
CONTINUOUS
 90
8
 70
0
 10
15.4956441978
 20
22.9685751714
 10
15.4865932262
 20
22.9725878158
 10
15.4596331462
 20
22.9809712346
 10
15.4309637538
 20
22.9848734942
 10
15.4009103186
 20
22.984254415
 10
15.3698030743
 20
22.9791298912
 10
15.3379706898
 20
22.9695628379
 10
15.3057542882
 20
22.9556631167
  0
LINE
  5
4C9
100
AcDbEntity
  8
ASSI
100
AcDbLine
 62
253
  6
CONTINUOUS
 10
2.7173149097
 20
29.0350825358
 11
15.3057543167
 21
22.955663103
  0
LINE
  5
4CA
100
AcDbEntity
  8
RACCORDO
100
AcDbLine
 62
253
  6
CONTINUOUS
 10
2.7173149097
 20
29.0350825358
 11
15.3057543167
 21
22.955663103
  0
LINE
  5
4CB
100
AcDbEntity
  8
ASSI
100
AcDbLine
 62
7
  6
CONTINUOUS
 10
2.9075305514
 20
29.0478377279
 11
15.4959698911
 21
22.9684183277
  0
LINE
  5
4CC
100
AcDbEntity
  8
RACCORDO
100
AcDbLine
 62
7
  6
CONTINUOUS
 10
2.9075305514
 20
29.0478377279
 11
15.4959698911
 21
22.9684183277
  0
LWPOLYLINE
  5
4CD
100
AcDbEntity
  8
ASSI
100
AcDbPolyline
 62
253
  6
CONTINUOUS
 90
10
 70
0
 10
15.3057542882
 20
22.9556631167
 10
15.3356330577
 20
22.9397835876
 10
15.3652138748
 20
22.9207307451
 10
15.3942474754
 20
22.8986651389
 10
15.4224892066
 20
22.873772706
 10
15.449701088
 20
22.8462632034
 10
15.4756538173
 20
22.8163684415
 10
15.5001287028
 20
22.7843403298
 10
15.5229195057
 20
22.7504487548
 10
15.543834178
 20
22.7149793053
  0
LWPOLYLINE
  5
4CE
100
AcDbEntity
  8
RACCORDO
100
AcDbPolyline
 62
253
  6
CONTINUOUS
 90
10
 70
0
 10
15.3057542882
 20
22.9556631167
 10
15.3356330577
 20
22.9397835876
 10
15.3652138748
 20
22.9207307451
 10
15.3942474754
 20
22.8986651389
 10
15.4224892066
 20
22.873772706
 10
15.449701088
 20
22.8462632034
 10
15.4756538173
 20
22.8163684415
 10
15.5001287028
 20
22.7843403298
 10
15.5229195057
 20
22.7504487548
 10
15.543834178
 20
22.7149793053
  0
LWPOLYLINE
  5
4CF
100
AcDbEntity
  8
ASSI
100
AcDbPolyline
 62
7
  6
CONTINUOUS
 90
8
 70
0
 10
15.4956441978
 20
22.9685751714
 10
15.5325786913
 20
22.9486001152
 10
15.5691697719
 20
22.9240240954
 10
15.6032357991
 20
22.8959359566
 10
15.6344399741
 20
22.8645839556
 10
15.6625326568
 20
22.8301606596
 10
15.687197488
 20
22.7929596962
 10
15.6931596004
 20
22.7826087158
  0
LWPOLYLINE
  5
4D0
100
AcDbEntity
  8
RACCORDO
100
AcDbPolyline
 62
7
  6
CONTINUOUS
 90
8
 70
0
 10
15.4956441978
 20
22.9685751714
 10
15.5325786913
 20
22.9486001152
 10
15.5691697719
 20
22.9240240954
 10
15.6032357991
 20
22.8959359566
 10
15.6344399741
 20
22.8645839556
 10
15.6625326568
 20
22.8301606596
 10
15.687197488
 20
22.7929596962
 10
15.6931596004
 20
22.7826087158
  0
LWPOLYLINE
  5
4D1
100
AcDbEntity
  8
ASSI
100
AcDbPolyline
 62
253
  6
CONTINUOUS
 90
10
 70
0
 10
20.5078127595
 20
15.7712249233
 10
20.5072205268
 20
15.7718820032
 10
20.5036718247
 20
15.7728307711
 10
20.4975438597
 20
15.772162633
 10
20.4888993739
 20
15.7698844299
 10
20.4778268752
 20
15.7660194877
 10
20.4644397332
 20
15.7606073792
 10
20.4488750159
 20
15.7537035182
 10
20.4312920846
 20
15.7453785911
 10
20.4118709647
 20
15.7357178343
  0
LWPOLYLINE
  5
4D2
100
AcDbEntity
  8
RACCORDO
100
AcDbPolyline
 62
253
  6
CONTINUOUS
 90
10
 70
0
 10
20.5078127595
 20
15.7712249233
 10
20.5072205268
 20
15.7718820032
 10
20.5036718247
 20
15.7728307711
 10
20.4975438597
 20
15.772162633
 10
20.4888993739
 20
15.7698844299
 10
20.4778268752
 20
15.7660194877
 10
20.4644397332
 20
15.7606073792
 10
20.4488750159
 20
15.7537035182
 10
20.4312920846
 20
15.7453785911
 10
20.4118709647
 20
15.7357178343
  0
LWPOLYLINE
  5
4D3
100
AcDbEntity
  8
ASSI
100
AcDbPolyline
 62
7
  6
CONTINUOUS
 90
17
 70
0
 10
23.3716975629
 20
14.7198275414
 10
23.4109226299
 20
14.6749951911
 10
23.5182747695
 20
14.5401823482
 10
23.6202480702
 20
14.3995574175
 10
23.7164912338
 20
14.2536943711
 10
23.8066310852
 20
14.1032304914
 10
23.8903278797
 20
13.9487899647
 10
23.9672859975
 20
13.7909466303
 10
24.0371918248
 20
13.6303392507
 10
24.0997424453
 20
13.4676345601
 10
24.1546762998
 20
13.303445499
 10
24.2017411259
 20
13.1383981416
 10
24.2406838056
 20
12.9731906796
 10
24.2712798977
 20
12.8085165872
 10
24.2933361058
 20
12.6450297797
 10
24.3066787732
 20
12.4833730887
 10
24.3111511369
 20
12.3242053577
  0
LWPOLYLINE
  5
4D4
100
AcDbEntity
  8
RACCORDO
100
AcDbPolyline
 62
7
  6
CONTINUOUS
 90
17
 70
0
 10
23.3716975629
 20
14.7198275414
 10
23.4109226299
 20
14.6749951911
 10
23.5182747695
 20
14.5401823482
 10
23.6202480702
 20
14.3995574175
 10
23.7164912338
 20
14.2536943711
 10
23.8066310852
 20
14.1032304914
 10
23.8903278797
 20
13.9487899647
 10
23.9672859975
 20
13.7909466303
 10
24.0371918248
 20
13.6303392507
 10
24.0997424453
 20
13.4676345601
 10
24.1546762998
 20
13.303445499
 10
24.2017411259
 20
13.1383981416
 10
24.2406838056
 20
12.9731906796
 10
24.2712798977
 20
12.8085165872
 10
24.2933361058
 20
12.6450297797
 10
24.3066787732
 20
12.4833730887
 10
24.3111511369
 20
12.3242053577
  0
LWPOLYLINE
  5
4D5
100
AcDbEntity
  8
ASSI
100
AcDbPolyline
 62
253
  6
CONTINUOUS
 90
17
 70
0
 10
23.3716882067
 20
14.5706485479
 10
23.4009590068
 20
14.5341598315
 10
23.5012337331
 20
14.3976863848
 10
23.5965558466
 20
14.255963209
 10
23.6865242868
 20
14.1095865953
 10
23.770760523
 20
13.9591724149
 10
23.8489101776
 20
13.8053534639
 10
23.9206444892
 20
13.6487768285
 10
23.9856616678
 20
13.4901012156
 10
24.0436881472
 20
13.3299942476
 10
24.0944797733
 20
13.1691295923
 10
24.1378228541
 20
13.0081840588
 10
24.1735350447
 20
12.8478347628
 10
24.2014660978
 20
12.6887563418
 10
24.2214985065
 20
12.5316180756
 10
24.2335479969
 20
12.3770810715
 10
24.2375638801
 20
12.2257954965
  0
LWPOLYLINE
  5
4D6
100
AcDbEntity
  8
RACCORDO
100
AcDbPolyline
 62
253
  6
CONTINUOUS
 90
17
 70
0
 10
23.3716882067
 20
14.5706485479
 10
23.4009590068
 20
14.5341598315
 10
23.5012337331
 20
14.3976863848
 10
23.5965558466
 20
14.255963209
 10
23.6865242868
 20
14.1095865953
 10
23.770760523
 20
13.9591724149
 10
23.8489101776
 20
13.8053534639
 10
23.9206444892
 20
13.6487768285
 10
23.9856616678
 20
13.4901012156
 10
24.0436881472
 20
13.3299942476
 10
24.0944797733
 20
13.1691295923
 10
24.1378228541
 20
13.0081840588
 10
24.1735350447
 20
12.8478347628
 10
24.2014660978
 20
12.6887563418
 10
24.2214985065
 20
12.5316180756
 10
24.2335479969
 20
12.3770810715
 10
24.2375638801
 20
12.2257954965
  0
LWPOLYLINE
  5
4D7
100
AcDbEntity
  8
ASSI
100
AcDbPolyline
 62
253
  6
CONTINUOUS
 90
8
 70
0
 10
20.4389147994
 20
15.6939724518
 10
20.4678832221
 20
15.6541642609
 10
20.4985672372
 20
15.6165804664
 10
20.5307454768
 20
15.5814922202
 10
20.5641857832
 20
15.5491526801
 10
20.5986468824
 20
15.5197951797
 10
20.633880145
 20
15.4936315256
 10
20.6501674303
 20
15.4832531017
  0
LWPOLYLINE
  5
4D8
100
AcDbEntity
  8
RACCORDO
100
AcDbPolyline
 62
253
  6
CONTINUOUS
 90
8
 70
0
 10
20.4389147994
 20
15.6939724518
 10
20.4678832221
 20
15.6541642609
 10
20.4985672372
 20
15.6165804664
 10
20.5307454768
 20
15.5814922202
 10
20.5641857832
 20
15.5491526801
 10
20.5986468824
 20
15.5197951797
 10
20.633880145
 20
15.4936315256
 10
20.6501674303
 20
15.4832531017
  0
LINE
  5
4D9
100
AcDbEntity
  8
ASSI
100
AcDbLine
 62
253
  6
CONTINUOUS
 10
20.4118709643
 20
15.7357178351
 11
20.4389147994
 21
15.6939724518
  0
LINE
  5
4DA
100
AcDbEntity
  8
RACCORDO
100
AcDbLine
 62
253
  6
CONTINUOUS
 10
20.4118709643
 20
15.7357178351
 11
20.4389147994
 21
15.6939724518
  0
LINE
  5
4DB
100
AcDbEntity
  8
ASSI
100
AcDbLine
 62
7
  6
CONTINUOUS
 10
20.4959947809
 20
15.7896564838
 11
20.5371045609
 21
15.7257869169
  0
LINE
  5
4DC
100
AcDbEntity
  8
RACCORDO
100
AcDbLine
 62
7
  6
CONTINUOUS
 10
20.4959947809
 20
15.7896564838
 11
20.5371045609
 21
15.7257869169
  0
LINE
  5
4DD
100
AcDbEntity
  8
ASSI
100
AcDbLine
 62
253
  6
CONTINUOUS
 10
16.4218727326
 20
-8.8875771181
 11
16.4705682789
 21
-8.833324378
  0
LINE
  5
4DE
100
AcDbEntity
  8
RACCORDO
100
AcDbLine
 62
253
  6
CONTINUOUS
 10
16.4218727326
 20
-8.8875771181
 11
16.4705682789
 21
-8.833324378
  0
LWPOLYLINE
  5
4DF
100
AcDbEntity
  8
ASSI
100
AcDbPolyline
 62
7
  6
CONTINUOUS
 90
13
 70
0
 10
16.4929859598
 20
-8.8337199433
 10
16.5048524133
 20
-8.8213569443
 10
16.5670647969
 20
-8.749926104
 10
16.6247786637
 20
-8.6716800605
 10
16.6776214869
 20
-8.586482104
 10
16.7249358637
 20
-8.4947254255
 10
16.7659893548
 20
-8.3974113792
 10
16.8005440603
 20
-8.294819701
 10
16.8284097309
 20
-8.187159892
 10
16.8492735362
 20
-8.0754478274
 10
16.863048742
 20
-7.9602345723
 10
16.8697494741
 20
-7.8416152779
 10
16.8704458603
 20
-7.7885124228
  0
LWPOLYLINE
  5
4E0
100
AcDbEntity
  8
RACCORDO
100
AcDbPolyline
 62
7
  6
CONTINUOUS
 90
13
 70
0
 10
16.4929859598
 20
-8.8337199433
 10
16.5048524133
 20
-8.8213569443
 10
16.5670647969
 20
-8.749926104
 10
16.6247786637
 20
-8.6716800605
 10
16.6776214869
 20
-8.586482104
 10
16.7249358637
 20
-8.4947254255
 10
16.7659893548
 20
-8.3974113792
 10
16.8005440603
 20
-8.294819701
 10
16.8284097309
 20
-8.187159892
 10
16.8492735362
 20
-8.0754478274
 10
16.863048742
 20
-7.9602345723
 10
16.8697494741
 20
-7.8416152779
 10
16.8704458603
 20
-7.7885124228
  0
LINE
  5
4E1
100
AcDbEntity
  8
ASSI
100
AcDbLine
 62
7
  6
CONTINUOUS
 10
16.4927090632
 20
-8.8340141893
 11
16.4929909352
 21
-8.8337247755
  0
LINE
  5
4E2
100
AcDbEntity
  8
RACCORDO
100
AcDbLine
 62
7
  6
CONTINUOUS
 10
16.4927090632
 20
-8.8340141893
 11
16.4929909352
 21
-8.8337247755
  0
LINE
  5
4E3
100
AcDbEntity
  8
ASSI
100
AcDbLine
 62
7
  6
CONTINUOUS
 10
16.4927090632
 20
-8.8340141893
 11
16.3935001533
 21
-8.9345509211
  0
LINE
  5
4E4
100
AcDbEntity
  8
RACCORDO
100
AcDbLine
 62
7
  6
CONTINUOUS
 10
16.4927090632
 20
-8.8340141893
 11
16.3935001533
 21
-8.9345509211
  0
LWPOLYLINE
  5
4E5
100
AcDbEntity
  8
ASSI
100
AcDbPolyline
 62
7
  6
CONTINUOUS
 90
9
 70
0
 10
16.3935001533
 20
-8.9345509211
 10
16.2933509963
 20
-9.033680017
 10
16.192268651
 20
-9.1313961548
 10
16.0902609473
 20
-9.2276934433
 10
15.9873343758
 20
-9.3225674226
 10
15.8834940381
 20
-9.4160149536
 10
15.7787464852
 20
-9.508031604
 10
15.6730997655
 20
-9.5986117596
 10
15.5665612794
 20
-9.687750548
  0
LWPOLYLINE
  5
4E6
100
AcDbEntity
  8
RACCORDO
100
AcDbPolyline
 62
7
  6
CONTINUOUS
 90
9
 70
0
 10
16.3935001533
 20
-8.9345509211
 10
16.2933509963
 20
-9.033680017
 10
16.192268651
 20
-9.1313961548
 10
16.0902609473
 20
-9.2276934433
 10
15.9873343758
 20
-9.3225674226
 10
15.8834940381
 20
-9.4160149536
 10
15.7787464852
 20
-9.508031604
 10
15.6730997655
 20
-9.5986117596
 10
15.5665612794
 20
-9.687750548
  0
LWPOLYLINE
  5
4E7
100
AcDbEntity
  8
ASSI
100
AcDbPolyline
 62
253
  6
CONTINUOUS
 90
9
 70
0
 10
15.6160426162
 20
-9.6387767811
 10
15.7140396538
 20
-9.5549348417
 10
15.8127608912
 20
-9.468482744
 10
15.9120008614
 20
-9.3795110458
 10
16.0118778839
 20
-9.2878221724
 10
16.1128196667
 20
-9.1929086156
 10
16.21492155
 20
-9.0945409968
 10
16.3179608686
 20
-8.9927899483
 10
16.4218727324
 20
-8.8875771177
  0
LWPOLYLINE
  5
4E8
100
AcDbEntity
  8
RACCORDO
100
AcDbPolyline
 62
253
  6
CONTINUOUS
 90
9
 70
0
 10
15.6160426162
 20
-9.6387767811
 10
15.7140396538
 20
-9.5549348417
 10
15.8127608912
 20
-9.468482744
 10
15.9120008614
 20
-9.3795110458
 10
16.0118778839
 20
-9.2878221724
 10
16.1128196667
 20
-9.1929086156
 10
16.21492155
 20
-9.0945409968
 10
16.3179608686
 20
-8.9927899483
 10
16.4218727324
 20
-8.8875771177
  0
LINE
  5
4E9
100
AcDbEntity
  8
ASSI
100
AcDbLine
 62
253
  6
CONTINUOUS
 10
15.5188131804
 20
-9.7200636256
 11
15.6160426162
 21
-9.6387767811
  0
LINE
  5
4EA
100
AcDbEntity
  8
RACCORDO
100
AcDbLine
 62
253
  6
CONTINUOUS
 10
15.5188131804
 20
-9.7200636256
 11
15.6160426162
 21
-9.6387767811
  0
LWPOLYLINE
  5
4EB
100
AcDbEntity
  8
ASSI
100
AcDbPolyline
 62
7
  6
CONTINUOUS
 90
10
 70
0
 10
15.5665612781
 20
-9.6877505491
 10
15.5578714878
 20
-9.6947704389
 10
15.5490098165
 20
-9.7016074244
 10
15.5399820136
 20
-9.708255355
 10
15.5307733626
 20
-9.7147225529
 10
15.5214110835
 20
-9.7209876871
 10
15.5119656781
 20
-9.727005731
 10
15.5024666402
 20
-9.7327641431
 10
15.4929011243
 20
-9.738276922
 10
15.488655697
 20
-9.7406345427
  0
LWPOLYLINE
  5
4EC
100
AcDbEntity
  8
RACCORDO
100
AcDbPolyline
 62
7
  6
CONTINUOUS
 90
10
 70
0
 10
15.5665612781
 20
-9.6877505491
 10
15.5578714878
 20
-9.6947704389
 10
15.5490098165
 20
-9.7016074244
 10
15.5399820136
 20
-9.708255355
 10
15.5307733626
 20
-9.7147225529
 10
15.5214110835
 20
-9.7209876871
 10
15.5119656781
 20
-9.727005731
 10
15.5024666402
 20
-9.7327641431
 10
15.4929011243
 20
-9.738276922
 10
15.488655697
 20
-9.7406345427
  0
LWPOLYLINE
  5
4ED
100
AcDbEntity
  8
ASSI
100
AcDbPolyline
 62
253
  6
CONTINUOUS
 90
3
 70
0
 10
15.5665612794
 20
-9.687750548
 10
15.5473387887
 20
-9.7023785432
 10
15.5188131802
 20
-9.7200636257
  0
LWPOLYLINE
  5
4EE
100
AcDbEntity
  8
RACCORDO
100
AcDbPolyline
 62
253
  6
CONTINUOUS
 90
3
 70
0
 10
15.5665612794
 20
-9.687750548
 10
15.5473387887
 20
-9.7023785432
 10
15.5188131802
 20
-9.7200636257
  0
LWPOLYLINE
  5
4EF
100
AcDbEntity
  8
ASSI
100
AcDbPolyline
 62
253
  6
CONTINUOUS
 90
8
 70
0
 10
8.1711648669
 20
-13.7444745643
 10
7.9495840466
 20
-13.8942888509
 10
7.7242322511
 20
-14.0445584626
 10
7.4950676262
 20
-14.1951992996
 10
7.2625288079
 20
-14.3458101642
 10
7.0260984439
 20
-14.4966266457
 10
6.7842785789
 20
-14.648480869
 10
6.5370650702
 20
-14.8012045186
  0
LWPOLYLINE
  5
4F0
100
AcDbEntity
  8
RACCORDO
100
AcDbPolyline
 62
253
  6
CONTINUOUS
 90
8
 70
0
 10
8.1711648669
 20
-13.7444745643
 10
7.9495840466
 20
-13.8942888509
 10
7.7242322511
 20
-14.0445584626
 10
7.4950676262
 20
-14.1951992996
 10
7.2625288079
 20
-14.3458101642
 10
7.0260984439
 20
-14.4966266457
 10
6.7842785789
 20
-14.648480869
 10
6.5370650702
 20
-14.8012045186
  0
LWPOLYLINE
  5
4F1
100
AcDbEntity
  8
ASSI
100
AcDbPolyline
 62
253
  6
CONTINUOUS
 90
4
 70
0
 10
16.4218727324
 20
-8.8875771177
 10
16.4557261309
 20
-8.8661006582
 10
16.4861405282
 20
-8.8405399893
 10
16.4927090632
 20
-8.8340141893
  0
LWPOLYLINE
  5
4F2
100
AcDbEntity
  8
RACCORDO
100
AcDbPolyline
 62
253
  6
CONTINUOUS
 90
4
 70
0
 10
16.4218727324
 20
-8.8875771177
 10
16.4557261309
 20
-8.8661006582
 10
16.4861405282
 20
-8.8405399893
 10
16.4927090632
 20
-8.8340141893
  0
LWPOLYLINE
  5
4F3
100
AcDbEntity
  8
ASSI
100
AcDbPolyline
 62
253
  6
CONTINUOUS
 90
25
 70
0
 10
-3.5562240603
 20
-22.8866585847
 10
-3.5796452018
 20
-22.9012220406
 10
-3.6044488998
 20
-22.9149813868
 10
-3.6305312888
 20
-22.9278790024
 10
-3.6577831578
 20
-22.9398608789
 10
-3.68609038
 20
-22.9508768341
 10
-3.7153343872
 20
-22.9608807251
 10
-3.7453927138
 20
-22.9698306597
 10
-3.7761394875
 20
-22.9776891601
 10
-3.8074459255
 20
-22.9844233136
 10
-3.8391809266
 20
-22.9900049237
 10
-3.8712115957
 20
-22.9944106206
 10
-3.9034037728
 20
-22.9976219566
 10
-3.9356226445
 20
-22.9996254905
 10
-3.9677332974
 20
-23.0004128402
 10
-3.9996012554
 20
-22.9999807159
 10
-4.0310930623
 20
-22.9983309364
 10
-4.0620768591
 20
-22.9954704185
 10
-4.0924229233
 20
-22.9914111462
 10
-4.1220041821
 20
-22.9861701245
 10
-4.1506967721
 20
-22.9797693053
 10
-4.1783805739
 20
-22.9722354902
 10
-4.2049396732
 20
-22.9636002264
 10
-4.2302628501
 20
-22.9538996783
 10
-4.2542440685
 20
-22.9431744689
  0
LINE
  5
4F4
100
AcDbEntity
  8
ASSI
100
AcDbLine
 62
253
  6
CONTINUOUS
 10
6.5370650702
 20
-14.8012045186
 11
6.2843344075
 21
-14.9547058356
  0
LINE
  5
4F5
100
AcDbEntity
  8
RACCORDO
100
AcDbLine
 62
253
  6
CONTINUOUS
 10
6.5370650702
 20
-14.8012045186
 11
6.2843344075
 21
-14.9547058356
  0
LINE
  5
4F6
100
AcDbEntity
  8
ASSI
100
AcDbLine
 62
253
  6
CONTINUOUS
 10
6.2843344075
 20
-14.9547058356
 11
6.0243598434
 21
-15.1098440625
  0
LINE
  5
4F7
100
AcDbEntity
  8
RACCORDO
100
AcDbLine
 62
253
  6
CONTINUOUS
 10
6.2843344075
 20
-14.9547058356
 11
6.0243598434
 21
-15.1098440625
  0
LWPOLYLINE
  5
4F8
100
AcDbEntity
  8
ASSI
100
AcDbPolyline
 62
253
  6
CONTINUOUS
 90
9
 70
0
 10
16.7361269252
 20
-7.959048004
 10
16.7694174637
 20
-7.9392341266
 10
16.7984333456
 20
-7.9178054017
 10
16.8228636858
 20
-7.8949914234
 10
16.8424467301
 20
-7.8710366277
 10
16.8569726598
 20
-7.8461976735
 10
16.8662858396
 20
-7.820740693
 10
16.8702864852
 20
-7.7949384401
 10
16.870450301
 20
-7.7885466893
  0
LWPOLYLINE
  5
4F9
100
AcDbEntity
  8
RACCORDO
100
AcDbPolyline
 62
253
  6
CONTINUOUS
 90
9
 70
0
 10
16.7361269252
 20
-7.959048004
 10
16.7694174637
 20
-7.9392341266
 10
16.7984333456
 20
-7.9178054017
 10
16.8228636858
 20
-7.8949914234
 10
16.8424467301
 20
-7.8710366277
 10
16.8569726598
 20
-7.8461976735
 10
16.8662858396
 20
-7.820740693
 10
16.8702864852
 20
-7.7949384401
 10
16.870450301
 20
-7.7885466893
  0
LWPOLYLINE
  5
4FA
100
AcDbEntity
  8
ASSI
100
AcDbPolyline
 62
253
  6
CONTINUOUS
 90
3
 70
0
 10
6.0243598434
 20
-15.1098440625
 10
5.7564915812
 20
-15.2667569872
 10
5.5313753043
 20
-15.3960804122
  0
LWPOLYLINE
  5
4FB
100
AcDbEntity
  8
RACCORDO
100
AcDbPolyline
 62
253
  6
CONTINUOUS
 90
3
 70
0
 10
6.0243598434
 20
-15.1098440625
 10
5.7564915812
 20
-15.2667569872
 10
5.5313753043
 20
-15.3960804122
  0
LWPOLYLINE
  5
4FC
100
AcDbEntity
  8
ASSI
100
AcDbPolyline
 62
253
  6
CONTINUOUS
 90
3
 70
0
 10
15.488655697
 20
-9.7406345427
 10
15.4954030651
 20
-9.7367496603
 10
15.5188131263
 20
-9.7200636582
  0
LWPOLYLINE
  5
4FD
100
AcDbEntity
  8
RACCORDO
100
AcDbPolyline
 62
253
  6
CONTINUOUS
 90
3
 70
0
 10
15.488655697
 20
-9.7406345427
 10
15.4954030651
 20
-9.7367496603
 10
15.5188131263
 20
-9.7200636582
  0
LINE
  5
4FE
100
AcDbEntity
  8
ASSI
100
AcDbLine
 62
253
  6
CONTINUOUS
 10
5.4811871534
 20
-15.4249121949
 11
5.1983525663
 21
-15.5841079508
  0
LINE
  5
4FF
100
AcDbEntity
  8
RACCORDO
100
AcDbLine
 62
253
  6
CONTINUOUS
 10
5.4811871534
 20
-15.4249121949
 11
5.1983525663
 21
-15.5841079508
  0
LWPOLYLINE
  5
500
100
AcDbEntity
  8
ASSI
100
AcDbPolyline
 62
7
  6
CONTINUOUS
 90
10
 70
0
 10
5.1993973988
 20
-15.5835428793
 10
5.4775433455
 20
-15.4270524038
 10
5.8191205776
 20
-15.2305273767
 10
6.1621449459
 20
-15.0283501188
 10
6.5065511359
 20
-14.8205000532
 10
6.8522722361
 20
-14.606959152
 10
7.1992412984
 20
-14.3877101293
 10
7.5473910211
 20
-14.1627375873
 10
7.896655251
 20
-13.9320260882
 10
8.1633117965
 20
-13.7524915279
  0
LWPOLYLINE
  5
501
100
AcDbEntity
  8
RACCORDO
100
AcDbPolyline
 62
7
  6
CONTINUOUS
 90
10
 70
0
 10
5.1993973988
 20
-15.5835428793
 10
5.4775433455
 20
-15.4270524038
 10
5.8191205776
 20
-15.2305273767
 10
6.1621449459
 20
-15.0283501188
 10
6.5065511359
 20
-14.8205000532
 10
6.8522722361
 20
-14.606959152
 10
7.1992412984
 20
-14.3877101293
 10
7.5473910211
 20
-14.1627375873
 10
7.896655251
 20
-13.9320260882
 10
8.1633117965
 20
-13.7524915279
  0
LINE
  5
502
100
AcDbEntity
  8
ASSI
100
AcDbLine
 62
7
  6
CONTINUOUS
 10
2.3324878597
 20
-17.1513493965
 11
2.4583871065
 21
-17.0814707378
  0
LINE
  5
503
100
AcDbEntity
  8
RACCORDO
100
AcDbLine
 62
7
  6
CONTINUOUS
 10
2.3324878597
 20
-17.1513493965
 11
2.4583871065
 21
-17.0814707378
  0
LINE
  5
504
100
AcDbEntity
  8
ASSI
100
AcDbLine
 62
253
  6
CONTINUOUS
 10
15.5188131804
 20
-9.7200636256
 11
8.1711648669
 21
-13.7444745643
  0
LINE
  5
505
100
AcDbEntity
  8
RACCORDO
100
AcDbLine
 62
253
  6
CONTINUOUS
 10
15.5188131804
 20
-9.7200636256
 11
8.1711648669
 21
-13.7444745643
  0
LINE
  5
506
100
AcDbEntity
  8
ASSI
100
AcDbLine
 62
7
  6
CONTINUOUS
 10
8.1611414064
 20
-13.7538183397
 11
15.488655697
 21
-9.7406345427
  0
LINE
  5
507
100
AcDbEntity
  8
RACCORDO
100
AcDbLine
 62
7
  6
CONTINUOUS
 10
8.1611414064
 20
-13.7538183397
 11
15.488655697
 21
-9.7406345427
  0
LINE
  5
508
100
AcDbEntity
  8
ASSI
100
AcDbLine
 62
7
  6
CONTINUOUS
 10
5.1983525663
 20
-15.5841079508
 11
2.4583871065
 21
-17.0814707378
  0
LINE
  5
509
100
AcDbEntity
  8
RACCORDO
100
AcDbLine
 62
7
  6
CONTINUOUS
 10
5.1983525663
 20
-15.5841079508
 11
2.4583871065
 21
-17.0814707378
  0
LINE
  5
50A
100
AcDbEntity
  8
ASSI
100
AcDbLine
 62
7
  6
CONTINUOUS
 10
0.9213051429
 20
-17.9224129499
 11
2.3325112947
 21
-17.1513373582
  0
LINE
  5
50B
100
AcDbEntity
  8
SUPERFICI
100
AcDbLine
 62
7
  6
CONTINUOUS
 10
0.9213051429
 20
-17.9224129499
 11
2.3325112947
 21
-17.1513373582
  0
LINE
  5
50C
100
AcDbEntity
  8
ASSI
100
AcDbLine
 62
253
  6
CONTINUOUS
 10
16.7361269252
 20
-7.959048004
 11
9.6616986085
 21
-11.8070421
  0
LINE
  5
50D
100
AcDbEntity
  8
RACCORDO
100
AcDbLine
 62
253
  6
CONTINUOUS
 10
16.7361269252
 20
-7.959048004
 11
9.6616986085
 21
-11.8070421
  0
LINE
  5
50E
100
AcDbEntity
  8
ASSI
100
AcDbLine
 62
253
  6
CONTINUOUS
 10
9.6616986085
 20
-11.8070421
 11
2.6106413239
 21
-15.6421100535
  0
LINE
  5
50F
100
AcDbEntity
  8
RACCORDO
100
AcDbLine
 62
253
  6
CONTINUOUS
 10
9.6616986085
 20
-11.8070421
 11
2.6106413239
 21
-15.6421100535
  0
LINE
  5
510
100
AcDbEntity
  8
ASSI
100
AcDbLine
 62
253
  6
CONTINUOUS
 10
16.4218727324
 20
-8.8875771177
 11
9.3496475211
 21
-12.7333038779
  0
LINE
  5
511
100
AcDbEntity
  8
RACCORDO
100
AcDbLine
 62
253
  6
CONTINUOUS
 10
16.4218727324
 20
-8.8875771177
 11
9.3496475211
 21
-12.7333038779
  0
LINE
  5
512
100
AcDbEntity
  8
ASSI
100
AcDbLine
 62
253
  6
CONTINUOUS
 10
9.3496475211
 20
-12.7333038779
 11
2.3007555591
 21
-16.5661269381
  0
LINE
  5
513
100
AcDbEntity
  8
RACCORDO
100
AcDbLine
 62
253
  6
CONTINUOUS
 10
9.3496475211
 20
-12.7333038779
 11
2.3007555591
 21
-16.5661269381
  0
LINE
  5
514
100
AcDbEntity
  8
ASSI
100
AcDbLine
 62
253
  6
CONTINUOUS
 10
5.1994703732
 20
-15.5835021108
 11
5.198379518
 21
-15.5840932218
  0
LINE
  5
515
100
AcDbEntity
  8
RACCORDO
100
AcDbLine
 62
253
  6
CONTINUOUS
 10
5.1994703732
 20
-15.5835021108
 11
5.198379518
 21
-15.5840932218
  0
LINE
  5
516
100
AcDbEntity
  8
RACCORDO
100
AcDbLine
 62
253
  6
CONTINUOUS
 10
1.3573254726
 20
-17.0641288979
 11
2.3004686984
 21
-16.5664254178
  0
LINE
  5
517
100
AcDbEntity
  8
RACCORDO
100
AcDbLine
 62
253
  6
CONTINUOUS
 10
1.5715132519
 20
-16.1893095959
 11
2.6106413506
 21
-15.6416845652
  0
LWPOLYLINE
  5
518
100
AcDbEntity
  8
ASSI
100
AcDbPolyline
 62
7
  6
CONTINUOUS
 90
10
 70
0
 10
-5.6555698346
 20
25.2369909049
 10
-5.6154131157
 20
25.2474352254
 10
-5.5740966532
 20
25.2539308849
 10
-5.5316204468
 20
25.2564778833
 10
-5.4877950209
 20
25.25505359
 10
-5.4428098512
 20
25.2496806356
 10
-5.3972333653
 20
25.2404269123
 10
-5.3512550389
 20
25.2273150505
 10
-5.3046853962
 20
25.2103224198
 10
-5.2575244373
 20
25.1894490201
  0
LWPOLYLINE
  5
519
100
AcDbEntity
  8
SUPERFICI
100
AcDbPolyline
 62
7
  6
CONTINUOUS
 90
10
 70
0
 10
-5.6555698346
 20
25.2369909049
 10
-5.6154131157
 20
25.2474352254
 10
-5.5740966532
 20
25.2539308849
 10
-5.5316204468
 20
25.2564778833
 10
-5.4877950209
 20
25.25505359
 10
-5.4428098512
 20
25.2496806356
 10
-5.3972333653
 20
25.2404269123
 10
-5.3512550389
 20
25.2273150505
 10
-5.3046853962
 20
25.2103224198
 10
-5.2575244373
 20
25.1894490201
  0
LWPOLYLINE
  5
51A
100
AcDbEntity
  8
ASSI
100
AcDbPolyline
 62
7
  6
CONTINUOUS
 90
5
 70
0
 10
-4.7852492974
 20
25.756980599
 10
-4.8244654722
 20
25.7486233355
 10
-4.8629818757
 20
25.736736852
 10
-4.9004583806
 20
25.7213686315
 10
-4.9093216207
 20
25.71714068
  0
LWPOLYLINE
  5
51B
100
AcDbEntity
  8
RACCORDO
100
AcDbPolyline
 62
7
  6
CONTINUOUS
 90
5
 70
0
 10
-4.7852492974
 20
25.756980599
 10
-4.8244654722
 20
25.7486233355
 10
-4.8629818757
 20
25.736736852
 10
-4.9004583806
 20
25.7213686315
 10
-4.9093216207
 20
25.71714068
  0
LWPOLYLINE
  5
51C
100
AcDbEntity
  8
ASSI
100
AcDbPolyline
 62
253
  6
CONTINUOUS
 90
3
 70
0
 10
2.8712934924
 20
29.0603685883
 10
2.8982323703
 20
29.0519752102
 10
2.9075305514
 20
29.0478377279
  0
LWPOLYLINE
  5
51D
100
AcDbEntity
  8
RACCORDO
100
AcDbPolyline
 62
253
  6
CONTINUOUS
 90
3
 70
0
 10
2.8712934924
 20
29.0603685883
 10
2.8982323703
 20
29.0519752102
 10
2.9075305514
 20
29.0478377279
  0
LWPOLYLINE
  5
51E
100
AcDbEntity
  8
ASSI
100
AcDbPolyline
 62
7
  6
CONTINUOUS
 90
8
 70
0
 10
2.9075305514
 20
29.0478377279
 10
2.8728251519
 20
29.0628343953
 10
2.8366830078
 20
29.0749519732
 10
2.7993940703
 20
29.0840171148
 10
2.7612546582
 20
29.0898958358
 10
2.7226221167
 20
29.0924884325
 10
2.6838722353
 20
29.0917481156
 10
2.6452673082
 20
29.0876668932
  0
LWPOLYLINE
  5
51F
100
AcDbEntity
  8
RACCORDO
100
AcDbPolyline
 62
7
  6
CONTINUOUS
 90
8
 70
0
 10
2.9075305514
 20
29.0478377279
 10
2.8728251519
 20
29.0628343953
 10
2.8366830078
 20
29.0749519732
 10
2.7993940703
 20
29.0840171148
 10
2.7612546582
 20
29.0898958358
 10
2.7226221167
 20
29.0924884325
 10
2.6838722353
 20
29.0917481156
 10
2.6452673082
 20
29.0876668932
  0
LWPOLYLINE
  5
520
100
AcDbEntity
  8
RACCORDO
100
AcDbPolyline
 62
253
  6
CONTINUOUS
 90
16
 70
0
 10
-3.5562240603
 20
-22.8866585847
 10
-3.5943677521
 20
-22.9095777516
 10
-3.6358910209
 20
-22.930349995
 10
-3.680348974
 20
-22.9487527549
 10
-3.7272652757
 20
-22.9645888587
 10
-3.7761372505
 20
-22.9776886337
 10
-3.8264412697
 20
-22.9879117249
 10
-3.8776383608
 20
-22.995148599
 10
-3.9291799831
 20
-22.9993217181
 10
-3.980513904
 20
-23.00038637
 10
-4.0310901167
 20
-22.9983311478
 10
-4.0803667325
 20
-22.9931780717
 10
-4.127815787
 20
-22.984982353
 10
-4.172928897
 20
-22.9738318029
 10
-4.215222707
 20
-22.9598458918
 10
-4.2542440685
 20
-22.9431744689
  0
LINE
  5
521
100
AcDbEntity
  8
ASSI
100
AcDbLine
 62
253
  6
CONTINUOUS
 10
-3.1844849477
 20
-23.0768423187
 11
1.1164463435
 21
-20.6044003008
  0
LINE
  5
522
100
AcDbEntity
  8
RACCORDO
100
AcDbLine
 62
253
  6
CONTINUOUS
 10
-3.1844849477
 20
-23.0768423187
 11
1.1164463435
 21
-20.6044003008
  0
LINE
  5
523
100
AcDbEntity
  8
RACCORDO
100
AcDbLine
 62
7
  6
CONTINUOUS
 10
1.0168599615
 20
-20.8576639587
 11
-3.2891715506
 21
-23.333037488
  0
LINE
  5
524
100
AcDbEntity
  8
ASSI
100
AcDbLine
 62
7
  6
CONTINUOUS
 10
1.0168600157
 20
-20.8576639276
 11
-3.2891830326
 21
-23.3330440565
  0
LINE
  5
525
100
AcDbEntity
  8
RACCORDO
100
AcDbLine
 62
7
  6
CONTINUOUS
 10
-3.3620393409
 20
-23.3706781103
 11
-3.2891804552
 21
-23.333021946
  0
LWPOLYLINE
  5
526
100
AcDbEntity
  8
ASSI
100
AcDbPolyline
 62
7
  6
CONTINUOUS
 90
5
 70
0
 10
2.6452673082
 20
29.0876668932
 10
2.607170915
 20
29.0802767921
 10
2.5700028641
 20
29.0696817477
 10
2.5340061118
 20
29.0559902866
 10
2.5135554619
 20
29.0465795841
  0
LWPOLYLINE
  5
527
100
AcDbEntity
  8
RACCORDO
100
AcDbPolyline
 62
7
  6
CONTINUOUS
 90
5
 70
0
 10
2.6452673082
 20
29.0876668932
 10
2.607170915
 20
29.0802767921
 10
2.5700028641
 20
29.0696817477
 10
2.5340061118
 20
29.0559902866
 10
2.5135554619
 20
29.0465795841
  0
LWPOLYLINE
  5
528
100
AcDbEntity
  8
ASSI
100
AcDbPolyline
 62
7
  6
CONTINUOUS
 90
3
 70
0
 10
-3.4287163056
 20
-23.39809007
 10
-3.3604477002
 20
-23.3699430472
 10
-3.2891919485
 20
-23.3330285199
  0
ELLIPSE
  5
529
100
AcDbEntity
  8
ASSI
100
AcDbEllipse
 62
7
  6
CONTINUOUS
 10
-12.3643545115
 20
19.296766634
 30
0.0
 11
6.6351332073
 21
3.8577561781
 31
0.0
 40
0.0431373546
 41
-0.6143601278
 42
-0.5936428204
  0
ELLIPSE
  5
52A
100
AcDbEntity
  8
ASSI
100
AcDbEllipse
 62
7
  6
CONTINUOUS
 10
-9.0553935629
 20
17.6987479406
 30
0.0
 11
6.6351332073
 21
3.8577561781
 31
0.0
 40
0.0431373546
 41
-0.6143601278
 42
-0.5936428204
  0
ELLIPSE
  5
52B
100
AcDbEntity
  8
DRAFT
100
AcDbEllipse
 62
7
  6
CONTINUOUS
 10
-2.2135226656
 20
18.2459102181
 30
0.0
 11
-0.1733171267
 21
0.4885487601
 31
0.0
 40
0.6774723831
 41
3.2203830592
 42
6.3932029659
  0
ELLIPSE
  5
52C
100
AcDbEntity
  8
DRAFT
100
AcDbEllipse
 62
7
  6
CONTINUOUS
 10
-10.1262553688
 20
22.0672592675
 30
0.0
 11
-0.1733171267
 21
0.4885487601
 31
0.0
 40
0.6774723831
 41
3.2203830592
 42
6.3932029659
  0
ELLIPSE
  5
52D
100
AcDbEntity
  8
RACCORDO
100
AcDbEllipse
 62
7
  6
CONTINUOUS
 10
-1.0419789572
 20
13.9189445977
 30
0.0
 11
-0.3327626812
 21
0.9488939099
 31
0.0
 40
0.678490536
 41
-2.1683004756
 42
-0.5978087353
  0
ELLIPSE
  5
52E
100
AcDbEntity
  8
ASSI
100
AcDbEllipse
 62
7
  6
CONTINUOUS
 10
-17.0101679863
 20
22.481254995
 30
0.0
 11
-0.2656295132
 21
0.4238899211
 31
0.0
 40
0.5767413956
 41
-0.7424832454
 42
0.02204693
  0
ELLIPSE
  5
52F
100
AcDbEntity
  8
ASSI
100
AcDbEllipse
 62
7
  6
CONTINUOUS
 10
0.7567080654
 20
-20.4304861898
 30
0.0
 11
-0.2656295132
 21
0.4238899211
 31
0.0
 40
0.5767413956
 41
-3.163451384
 42
-2.3137364229
  0
ELLIPSE
  5
530
100
AcDbEntity
  8
ASSI
100
AcDbEllipse
 62
7
  6
CONTINUOUS
 10
-1.8322175584
 20
15.1512656455
 30
0.0
 11
-0.2654800501
 21
0.4237149256
 31
0.0
 40
0.5772666815
 41
-2.3132016606
 42
-0.7428621846
  0
ELLIPSE
  5
531
100
AcDbEntity
  8
RACCORDO
100
AcDbEllipse
 62
7
  6
CONTINUOUS
 10
-17.0101679863
 20
22.481254995
 30
0.0
 11
-0.2656295132
 21
0.4238899211
 31
0.0
 40
0.5767413956
 41
-0.7424832454
 42
0.0220479888
  0
ELLIPSE
  5
532
100
AcDbEntity
  8
RACCORDO
100
AcDbEllipse
 62
7
  6
CONTINUOUS
 10
0.7567080654
 20
-20.4304861898
 30
0.0
 11
-0.2656295132
 21
0.4238899211
 31
0.0
 40
0.5767413956
 41
-3.1634502707
 42
-2.3137364229
  0
ELLIPSE
  5
533
100
AcDbEntity
  8
RACCORDO
100
AcDbEllipse
 62
7
  6
CONTINUOUS
 10
-1.8322175584
 20
15.1512656455
 30
0.0
 11
-0.2654800501
 21
0.4237149256
 31
0.0
 40
0.5772666815
 41
-2.3132016606
 42
-0.7428621846
  0
ELLIPSE
  5
534
100
AcDbEntity
  8
ASSI
100
AcDbEllipse
 62
7
  6
CONTINUOUS
 10
16.0406112251
 20
14.4632438312
 30
0.0
 11
2.7999822329
 21
-0.0196349775
 31
0.0
 40
0.4945916366
 41
0.1187775102
 42
1.2651551481
  0
ELLIPSE
  5
535
100
AcDbEntity
  8
ASSI
100
AcDbEllipse
 62
7
  6
CONTINUOUS
 10
2.0461218387
 20
22.0497833206
 30
0.0
 11
0.1459552361
 21
0.4283875505
 31
0.0
 40
0.4792600461
 41
-0.0575412171
 42
0.6004570532
  0
ELLIPSE
  5
536
100
AcDbEntity
  8
DRAFT
100
AcDbEllipse
 62
7
  6
CONTINUOUS
 10
16.0406112251
 20
14.4632438312
 30
0.0
 11
2.7999822329
 21
-0.0196349775
 31
0.0
 40
0.4945916366
 41
0.1187775102
 42
1.2651551481
  0
ELLIPSE
  5
537
100
AcDbEntity
  8
RACCORDO
100
AcDbEllipse
 62
7
  6
CONTINUOUS
 10
2.0461218387
 20
22.0497833206
 30
0.0
 11
0.1459552361
 21
0.4283875505
 31
0.0
 40
0.4792600461
 41
-0.0575412171
 42
0.6004570532
  0
ENDSEC
  0
SECTION
  2
OBJECTS
  0
DICTIONARY
  5
C
100
AcDbDictionary
280
0
281
1
  3
ACAD_GROUP
350
D
  3
ACAD_MLINESTYLE
350
17
  3
ACAD_LAYOUT
350
1A
  3
ACAD_PLOTSETTINGS
350
19
  3
ACAD_PLOTSTYLENAME
350
E
  0
DICTIONARY
  5
D
102
{ACAD_REACTORS
330
C
102
}
100
AcDbDictionary
280
0
281
1
  0
ACDBDICTIONARYWDFLT
  5
E
102
{ACAD_REACTORS
330
C
102
}
100
AcDbDictionary
281
1
  3
Normal
350
F
100
AcDbDictionaryWithDefault
340
F
  0
DICTIONARY
  5
17
102
{ACAD_REACTORS
330
C
102
}
100
AcDbDictionary
280
0
281
1
  3
Standard
350
18
  0
DICTIONARY
  5
19
102
{ACAD_REACTORS
330
C
102
}
100
AcDbDictionary
281
1
  0
DICTIONARY
  5
1A
102
{ACAD_REACTORS
330
C
102
}
100
AcDbDictionary
281
1
  3
Model
350
538
  3
Layout1
350
539
  0
ACDBPLACEHOLDER
  5
F
102
{ACAD_REACTORS
330
E
102
}
  0
MLINESTYLE
  5
18
102
{ACAD_REACTORS
330
17
102
}
100
AcDbMlineStyle
  2
STANDARD
 70
0
  3

 62
256
 51
90.0
 52
90.0
 71
2
 49
0.5
 62
256
  6
BYLAYER
 49
-0.5
 62
256
  6
BYLAYER
  0
LAYOUT
  5
538
102
{ACAD_REACTORS
330
1A
102
}
100
AcDbPlotSettings
  1

  2
none_device
  4
ANSI_C_(22.00_x_17.00_Inches)
  6

 40
0.0
 41
0.0
 42
0.0
 43
0.0
 44
558.8
 45
431.8
 46
0.0
 47
0.0
 48
0.0
 49
0.0
140
0.0
141
0.0
142
1.0
143
1.0
 70
1024
 72
1
 73
0
 74
0
  7

 75
0
147
1.0
148
0.0
149
0.0
100
AcDbLayout
  1
Model
 70
0
 71
0
 10
0.0
 20
0.0
 11
558.8
 21
431.8
 12
0.0
 22
0.0
 32
0.0
 14
0.0
 24
0.0
 34
0.0
 15
0.0
 25
0.0
 35
0.0
146
0.0
 13
0.0
 23
0.0
 33
0.0
 16
1.0
 26
0.0
 36
0.0
 17
0.0
 27
1.0
 37
0.0
 76
0
330
219
345
0
346
0
  0
LAYOUT
  5
539
102
{ACAD_REACTORS
330
1A
102
}
100
AcDbPlotSettings
  1

  2
none_device
  4
ANSI_C_(22.00_x_17.00_Inches)
  6

 40
0.0
 41
0.0
 42
0.0
 43
0.0
 44
558.8
 45
431.8
 46
0.0
 47
0.0
 48
0.0
 49
0.0
140
0.0
141
0.0
142
1.0
143
1.0
 70
0
 72
1
 73
0
 74
0
  7

 75
0
147
1.0
148
0.0
149
0.0
100
AcDbLayout
  1
Layout1
 70
0
 71
1
 10
0.0
 20
0.0
 11
558.8
 21
431.8
 12
0.0
 22
0.0
 32
0.0
 14
0.0
 24
0.0
 34
0.0
 15
0.0
 25
0.0
 35
0.0
146
0.0
 13
0.0
 23
0.0
 33
0.0
 16
1.0
 26
0.0
 36
0.0
 17
0.0
 27
1.0
 37
0.0
 76
0
330
21A
345
0
346
0
  0
ENDSEC
  0
EOF
