  0
SECTION
  2
HEADER
  9
$ACADVER
  1
AC1024
  9
$DWGCODEPAGE
  3
ANSI_1252
  9
$EXTMAX
 10
297.0
 20
210.0
 30
0.0
  9
$EXTMIN
 10
0.0
 20
0.0
 30
0.0
  9
$LIMMIN
 10
0.0
 20
0.0
  9
$LIMMAX
 10
297.0
 20
210.0
  9
$VIEWCTR
 10
148.5
 20
105.0
  9
$VIEWSIZE
 40
210.0
  9
$CLAYER
  8
0
  9
$LTSCALE
 40
16.335
  9
$CELTYPE
  6
BYLAYER
  9
$DIMSCALE
 40
1.0
  9
$DIMASZ
 40
3.0
  9
$DIMEXO
 40
0.5
  9
$DIMDLI
 40
11.286
  9
$DIMEXE
 40
1.5
  9
$DIMCEN
 40
2.673
  9
$DIMLFAC
 40
1.0
  9
$DIMBLK
  1
_FILLED
  9
$DIMALT
 70
0
  9
$DIMALTF
 40
0.0393700787
  9
$DIMTXT
 40
3.0
  9
$DIMTOL
 70
1
  9
$DIMLIM
 70
0
  9
$DIMTFAC
 40
1.0
  9
$DIMTP
 40
0.01
  9
$DIMTM
 40
0.01
  9
$DIMGAP
 40
0.625
  9
$DIMDSEP
 70
44
  9
$AUNITS
 70
0
  9
$PDMODE
 70
3
  9
$PDSIZE
 40
3.0
  9
$HANDSEED
  5
241
  9
$TILEMODE
 70
1
  9
$MEASUREMENT
 70
1
  9
$INSUNITS
 70
4
  0
ENDSEC
  0
SECTION
  2
CLASSES
  0
CLASS
  1
ACDBDICTIONARYWDFLT
  2
AcDbDictionaryWithDefault
  3
AutoCAD 2000
 90
0
 91
1
280
0
281
0
  0
CLASS
  1
ACDBPLACEHOLDER
  2
AcDbPlaceHolder
  3
AutoCAD 2000
 90
0
 91
1
280
0
281
0
  0
CLASS
  1
LAYOUT
  2
AcDbLayout
  3
AutoCAD 2000
 90
0
 91
0
280
0
281
0
  0
ENDSEC
  0
SECTION
  2
TABLES
  0
TABLE
  2
VPORT
  5
8
100
AcDbSymbolTable
 70
2
  0
VPORT
  5
1F4
100
AcDbSymbolTableRecord
100
AcDbViewportTableRecord
  2
*ACTIVE
 70
0
 10
0.0
 20
0.0
 11
1.0
 21
1.0
 12
148.5
 22
105.0
 13
0.0
 23
0.0
 14
1.0
 24
1.0
 15
0.0
 25
0.0
 16
0.0
 26
0.0
 36
1.0
 17
0.0
 27
0.0
 37
0.0
 40
210.0
 41
1.4142857143
 42
50.0
 43
0.0
 44
0.0
 50
0.0
 51
0.0
 71
0
 72
100
 73
1
 74
1
 75
0
 76
0
 77
0
 78
0
  0
ENDTAB
  0
TABLE
  2
LTYPE
  5
5
100
AcDbSymbolTable
 70
6
  0
LTYPE
  5
14
100
AcDbSymbolTableRecord
100
AcDbLinetypeTableRecord
  2
BYBLOCK
 70
0
  3

 72
65
 73
0
 40
0.0
  0
LTYPE
  5
15
100
AcDbSymbolTableRecord
100
AcDbLinetypeTableRecord
  2
BYLAYER
 70
0
  3

 72
65
 73
0
 40
0.0
  0
LTYPE
  5
16
100
AcDbSymbolTableRecord
100
AcDbLinetypeTableRecord
  2
CONTINUOUS
 70
64
  3
Solid line
 72
65
 73
0
 40
0.0
  0
LTYPE
  5
1F5
100
AcDbSymbolTableRecord
100
AcDbLinetypeTableRecord
  2
CENTER
 70
64
  3
____ _ ____ _ ____ _ ____ _ ____ _ ____ _ ____
 72
65
 73
4
 40
0.6
 49
0.375
 74
0
 49
-0.075
 74
0
 49
0.075
 74
0
 49
-0.075
 74
0
  0
LTYPE
  5
1F6
100
AcDbSymbolTableRecord
100
AcDbLinetypeTableRecord
  2
HIDDEN
 70
64
  3
- - - - - - - - - - - - - - - - - - - -
 72
65
 73
2
 40
0.2
 49
0.1
 74
0
 49
-0.1
 74
0
  0
LTYPE
  5
1F7
100
AcDbSymbolTableRecord
100
AcDbLinetypeTableRecord
  2
PHANTOM
 70
64
  3
_____ _ _ _____ _ _ _____ _ _ _____
 72
65
 73
6
 40
0.8
 49
0.45
 74
0
 49
-0.05
 74
0
 49
0.1
 74
0
 49
-0.05
 74
0
 49
0.1
 74
0
 49
-0.05
 74
0
  0
LTYPE
  5
1F8
100
AcDbSymbolTableRecord
100
AcDbLinetypeTableRecord
  2
DOT
 70
64
  3
. . . . . . . . . . . . . . . . . . . .
 72
65
 73
2
 40
0.2
 49
0.1
 74
0
 49
-0.1
 74
0
  0
LTYPE
  5
1F9
100
AcDbSymbolTableRecord
100
AcDbLinetypeTableRecord
  2
DASHED
 70
64
  3
- - - - - - - - - - - - - - - - - - - -
 72
65
 73
2
 40
0.2
 49
0.1
 74
0
 49
-0.1
 74
0
  0
ENDTAB
  0
TABLE
  2
LAYER
  5
2
100
AcDbSymbolTable
 70
36
  0
LAYER
  5
10
100
AcDbSymbolTableRecord
100
AcDbLayerTableRecord
  2
0
 70
0
 62
7
  6
CONTINUOUS
370
-3
390
F
  0
LAYER
  5
1FA
100
AcDbSymbolTableRecord
100
AcDbLayerTableRecord
  2
DEFAULT_1
 70
0
 62
7
  6
CENTER
370
-3
390
F
  0
LAYER
  5
1FB
100
AcDbSymbolTableRecord
100
AcDbLayerTableRecord
  2
DEFAULT_2
 70
0
 62
7
  6
HIDDEN
370
-3
390
F
  0
LAYER
  5
1FC
100
AcDbSymbolTableRecord
100
AcDbLayerTableRecord
  2
DEFAULT_3
 70
0
 62
7
  6
PHANTOM
370
-3
390
F
  0
LAYER
  5
1FD
100
AcDbSymbolTableRecord
100
AcDbLayerTableRecord
  2
ASSI
 70
0
 62
7
  6
CONTINUOUS
370
-3
390
F
  0
LAYER
  5
1FE
100
AcDbSymbolTableRecord
100
AcDbLayerTableRecord
  2
COORDINATE
 70
0
 62
7
  6
CONTINUOUS
370
-3
390
F
  0
LAYER
  5
1FF
100
AcDbSymbolTableRecord
100
AcDbLayerTableRecord
  2
COORD_ORIGINE
 70
0
 62
7
  6
CONTINUOUS
370
-3
390
F
  0
LAYER
  5
200
100
AcDbSymbolTableRecord
100
AcDbLayerTableRecord
  2
COSMETICI
 70
0
 62
7
  6
CONTINUOUS
370
-3
390
F
  0
LAYER
  5
201
100
AcDbSymbolTableRecord
100
AcDbLayerTableRecord
  2
CURVE
 70
0
 62
7
  6
CONTINUOUS
370
-3
390
F
  0
LAYER
  5
202
100
AcDbSymbolTableRecord
100
AcDbLayerTableRecord
  2
DRAFT
 70
0
 62
7
  6
CONTINUOUS
370
-3
390
F
  0
LAYER
  5
203
100
AcDbSymbolTableRecord
100
AcDbLayerTableRecord
  2
INTFCLR_1
 70
0
 62
7
  6
CONTINUOUS
370
-3
390
F
  0
LAYER
  5
204
100
AcDbSymbolTableRecord
100
AcDbLayerTableRecord
  2
NOTE
 70
0
 62
7
  6
CONTINUOUS
370
-3
390
F
  0
LAYER
  5
205
100
AcDbSymbolTableRecord
100
AcDbLayerTableRecord
  2
PIANI
 70
0
 62
7
  6
CONTINUOUS
370
-3
390
F
  0
LAYER
  5
206
100
AcDbSymbolTableRecord
100
AcDbLayerTableRecord
  2
PIANI_ORIGINE
 70
0
 62
7
  6
CONTINUOUS
370
-3
390
F
  0
LAYER
  5
207
100
AcDbSymbolTableRecord
100
AcDbLayerTableRecord
  2
PUNTI
 70
0
 62
7
  6
CONTINUOUS
370
-3
390
F
  0
LAYER
  5
208
100
AcDbSymbolTableRecord
100
AcDbLayerTableRecord
  2
RACCORDO
 70
0
 62
7
  6
CONTINUOUS
370
-3
390
F
  0
LAYER
  5
209
100
AcDbSymbolTableRecord
100
AcDbLayerTableRecord
  2
SIMBOLI
 70
0
 62
7
  6
CONTINUOUS
370
-3
390
F
  0
LAYER
  5
20A
100
AcDbSymbolTableRecord
100
AcDbLayerTableRecord
  2
SMUSSO
 70
0
 62
7
  6
CONTINUOUS
370
-3
390
F
  0
LAYER
  5
20B
100
AcDbSymbolTableRecord
100
AcDbLayerTableRecord
  2
SNAPLINE
 70
0
 62
7
  6
CONTINUOUS
370
-3
390
F
  0
LAYER
  5
20C
100
AcDbSymbolTableRecord
100
AcDbLayerTableRecord
  2
SUPERFICI
 70
0
 62
7
  6
CONTINUOUS
370
-3
390
F
  0
LAYER
  5
20D
100
AcDbSymbolTableRecord
100
AcDbLayerTableRecord
  2
TRASH
 70
0
 62
7
  6
CONTINUOUS
370
-3
390
F
  0
ENDTAB
  0
TABLE
  2
STYLE
  5
3
100
AcDbSymbolTable
 70
1
  0
STYLE
  5
11
100
AcDbSymbolTableRecord
100
AcDbTextStyleTableRecord
  2
STANDARD
 70
0
 40
0.0
 41
0.8
 50
0.0
 71
0
 42
0.2
  3
txt
  4

  0
STYLE
  5
20E
100
AcDbSymbolTableRecord
100
AcDbTextStyleTableRecord
  2
TEXTSTYLE_1
 70
0
 40
0.0
 41
0.8
 50
0.0
 71
0
 42
0.2
  3
gdt
  4

  0
ENDTAB
  0
TABLE
  2
VIEW
  5
6
100
AcDbSymbolTable
 70
0
  0
ENDTAB
  0
TABLE
  2
UCS
  5
7
100
AcDbSymbolTable
 70
0
  0
ENDTAB
  0
TABLE
  2
APPID
  5
9
100
AcDbSymbolTable
 70
1
  0
APPID
  5
20F
100
AcDbSymbolTableRecord
100
AcDbRegAppTableRecord
  2
ACAD
 70
0
  0
ENDTAB
  0
TABLE
  2
BLOCK_RECORD
  5
1
100
AcDbSymbolTable
 70
0
  0
BLOCK_RECORD
  5
210
100
AcDbSymbolTableRecord
100
AcDbBlockTableRecord
  2
*Model_Space
  0
BLOCK_RECORD
  5
211
100
AcDbSymbolTableRecord
100
AcDbBlockTableRecord
  2
*Paper_Space
  0
BLOCK_RECORD
  5
212
100
AcDbSymbolTableRecord
100
AcDbBlockTableRecord
  2
_FILLED
  0
ENDTAB
  0
TABLE
  2
DIMSTYLE
  5
A
100
AcDbSymbolTable
 70
1
100
AcDbDimStyleTable
 71
0
  0
DIMSTYLE
105
213
100
AcDbSymbolTableRecord
100
AcDbDimStyleTableRecord
  2
STANDARD
 70
0
  3

  4

 40
1.0
 41
3.0
 42
0.5
 43
0.38
 44
1.5
 45
0.0
 46
0.0
 47
0.01
 48
0.01
140
3.0
141
0.09
142
0.0
143
25.4
144
1.0
145
0.0
146
1.0
147
0.625
 71
1
 72
0
 73
0
 74
0
 75
0
 76
0
 77
1
 78
8
 79
2
170
0
171
1
172
0
173
0
174
0
175
0
176
0
177
0
178
0
270
2
179
2
271
2
272
2
273
2
274
2
275
0
280
0
281
0
282
0
283
1
284
8
285
0
286
0
287
3
288
0
340
11
278
44
341
212
342
212
343
212
344
212
  0
ENDTAB
  0
ENDSEC
  0
SECTION
  2
BLOCKS
  0
BLOCK
  5
20
100
AcDbEntity
  8
0
100
AcDbBlockBegin
  2
*Model_Space
 70
0
 10
0.0
 20
0.0
 30
0.0
  3
*Model_Space
  1

  0
ENDBLK
  5
21
100
AcDbEntity
  8
0
100
AcDbBlockEnd
  0
BLOCK
  5
1C
100
AcDbEntity
  8
0
100
AcDbBlockBegin
  2
*Paper_Space
 70
0
 10
0.0
 20
0.0
 30
0.0
  3
*Paper_Space
  1

  0
ENDBLK
  5
1D
100
AcDbEntity
  8
0
100
AcDbBlockEnd
  0
BLOCK
  5
214
100
AcDbEntity
  8
0
100
AcDbBlockBegin
  2
_FILLED
 70
64
 10
0.0
 20
0.0
  3
_FILLED
  1

  0
SOLID
  5
215
100
AcDbEntity
  8
0
  6
BYBLOCK
 62
0
100
AcDbTrace
 10
0.0
 20
0.0
 11
-1.0
 21
0.3166666667
 12
-1.0
 22
-0.3166666667
 13
-1.0
 23
-0.3166666667
  0
ENDBLK
  5
216
100
AcDbEntity
  8
0
  6
BYBLOCK
 62
0
100
AcDbBlockEnd
  0
ENDSEC
  0
SECTION
  2
ENTITIES
  0
LWPOLYLINE
  5
217
100
AcDbEntity
  8
RACCORDO
100
AcDbPolyline
 62
7
  6
CONTINUOUS
 90
16
 70
0
 10
-9.4465311328
 20
20.744330892
 10
-9.5006620332
 20
20.7078171367
 10
-9.5656385592
 20
20.6569815136
 10
-9.6267398935
 20
20.6014526099
 10
-9.6841750972
 20
20.5414843957
 10
-9.7378949746
 20
20.4773972878
 10
-9.7875373171
 20
20.4099042517
 10
-9.8330278145
 20
20.3392805588
 10
-9.8742631896
 20
20.2657464412
 10
-9.9108129962
 20
20.1900897179
 10
-9.9425312012
 20
20.1125087513
 10
-9.9692316069
 20
20.0332108933
 10
-9.9905009902
 20
19.9528932951
 10
-10.0060803085
 20
19.8717793851
 10
-10.01566912
 20
19.7898150416
 10
-10.0181988919
 20
19.7448670732
  0
LINE
  5
218
100
AcDbEntity
  8
RACCORDO
100
AcDbLine
 62
7
  6
CONTINUOUS
 10
-9.4466284986
 20
20.7442886027
 11
-5.2105032236
 21
23.4074359074
  0
LINE
  5
219
100
AcDbEntity
  8
RACCORDO
100
AcDbLine
 62
250
  6
CONTINUOUS
 10
-9.1897661606
 20
20.7237416936
 11
-4.9552130368
 21
23.3859006257
  0
LWPOLYLINE
  5
21A
100
AcDbEntity
  8
RACCORDO
100
AcDbPolyline
 62
250
  6
CONTINUOUS
 90
9
 70
0
 10
-9.4465396275
 20
20.744344434
 10
-9.4279966445
 20
20.7543852754
 10
-9.3993526405
 20
20.7646050066
 10
-9.3683123573
 20
20.7699672247
 10
-9.3352156809
 20
20.7704132142
 10
-9.3004250149
 20
20.7659380916
 10
-9.2643213114
 20
20.7565908588
 10
-9.2272999005
 20
20.7424738665
 10
-9.1897661606
 20
20.7237416936
  0
LWPOLYLINE
  5
21B
100
AcDbEntity
  8
RACCORDO
100
AcDbPolyline
 62
250
  6
CONTINUOUS
 90
4
 70
0
 10
-9.3629041024
 20
20.5912359092
 10
-9.3059893427
 20
20.6405389847
 10
-9.2481411098
 20
20.6848096539
 10
-9.1897661606
 20
20.7237416936
  0
LWPOLYLINE
  5
21C
100
AcDbEntity
  8
RACCORDO
100
AcDbPolyline
 62
7
  6
CONTINUOUS
 90
12
 70
0
 10
5.0943345342
 20
-23.3416405071
 10
5.1501829477
 20
-23.3704863093
 10
5.2113755791
 20
-23.395024528
 10
5.2749255332
 20
-23.4135788288
 10
5.3402345824
 20
-23.4259803455
 10
5.4077324741
 20
-23.432215508
 10
5.4770134207
 20
-23.4320067708
 10
5.5474296197
 20
-23.4251266148
 10
5.6192585409
 20
-23.4112593179
 10
5.6923507693
 20
-23.3900101315
 10
5.7659817515
 20
-23.3611273507
 10
5.8224443272
 20
-23.3336931395
  0
LWPOLYLINE
  5
21D
100
AcDbEntity
  8
RACCORDO
100
AcDbPolyline
 62
250
  6
CONTINUOUS
 90
16
 70
0
 10
4.8859570731
 20
-22.9163967624
 10
4.9243959976
 20
-22.9362853537
 10
4.9662079469
 20
-22.953593701
 10
5.0109449265
 20
-22.9681363539
 10
5.0581276011
 20
-22.979757495
 10
5.1072504314
 20
-22.9883326092
 10
5.1577870902
 20
-22.9937698186
 10
5.2091961015
 20
-22.996010866
 10
5.2609266428
 20
-22.9950317397
 10
5.3124244465
 20
-22.9908429306
 10
5.3631377387
 20
-22.9834893197
 10
5.4125231509
 20
-22.9730496974
 10
5.4600515425
 20
-22.9596359192
 10
5.5052136698
 20
-22.9433917072
 10
5.5475256426
 20
-22.9244911103
 10
5.5865341086
 20
-22.9031366392
  0
LINE
  5
21E
100
AcDbEntity
  8
RACCORDO
100
AcDbLine
 62
7
  6
CONTINUOUS
 10
5.0943476015
 20
-23.3416581468
 11
-9.667078379
 21
-14.8185958207
  0
LINE
  5
21F
100
AcDbEntity
  8
RACCORDO
100
AcDbLine
 62
250
  6
CONTINUOUS
 10
4.8859570672
 20
-22.9163967661
 11
-9.8717475568
 21
-14.3954830737
  0
LINE
  5
220
100
AcDbEntity
  8
RACCORDO
100
AcDbLine
 62
7
  6
CONTINUOUS
 10
-9.6670786071
 20
-14.818595689
 11
-9.6671782712
 21
-14.8185381208
  0
LINE
  5
221
100
AcDbEntity
  8
RACCORDO
100
AcDbLine
 62
250
  6
CONTINUOUS
 10
-9.6671782712
 20
-14.8185381208
 11
-9.6771723176
 21
-14.8126360447
  0
LWPOLYLINE
  5
222
100
AcDbEntity
  8
RACCORDO
100
AcDbPolyline
 62
250
  6
CONTINUOUS
 90
9
 70
0
 10
-9.7031743437
 20
-14.7944412952
 10
-9.7393925984
 20
-14.7622342398
 10
-9.7716649877
 20
-14.7243629797
 10
-9.799768712
 20
-14.6810779227
 10
-9.823494742
 20
-14.6326868476
 10
-9.8426717085
 20
-14.5795418828
 10
-9.8571666754
 20
-14.5220222567
 10
-9.8668807264
 20
-14.4605258846
 10
-9.8717475568
 20
-14.3954830737
  0
LWPOLYLINE
  5
223
100
AcDbEntity
  8
RACCORDO
100
AcDbPolyline
 62
250
  6
CONTINUOUS
 90
10
 70
0
 10
5.0942310168
 20
-23.3415908631
 10
5.0575140172
 20
-23.3170801337
 10
5.0206426684
 20
-23.284493653
 10
4.9877970925
 20
-23.2462871751
 10
4.9592043251
 20
-23.202722147
 10
4.9350642889
 20
-23.1541016144
 10
4.915551253
 20
-23.1007713905
 10
4.9008015126
 20
-23.0431061197
 10
4.8909141824
 20
-22.9815048035
 10
4.8859570672
 20
-22.9163967661
  0
LWPOLYLINE
  5
224
100
AcDbEntity
  8
RACCORDO
100
AcDbPolyline
 62
250
  6
CONTINUOUS
 90
8
 70
0
 10
-10.0173632714
 20
-14.2043863151
 10
-10.0115439865
 20
-14.2351881685
 10
-10.0004419713
 20
-14.2653403567
 10
-9.9841761786
 20
-14.2945198138
 10
-9.9629208884
 20
-14.3224138957
 10
-9.9369038408
 20
-14.3487237309
 10
-9.9064037959
 20
-14.3731674222
 10
-9.8717475468
 20
-14.3954830675
  0
LWPOLYLINE
  5
225
100
AcDbEntity
  8
RACCORDO
100
AcDbPolyline
 62
7
  6
CONTINUOUS
 90
13
 70
0
 10
-10.0181649897
 20
-14.1925959631
 10
-10.0123663058
 20
-14.2680190066
 10
-10.0003223587
 20
-14.3419005904
 10
-9.982530055
 20
-14.4117471379
 10
-9.9595039977
 20
-14.4771137359
 10
-9.9316240704
 20
-14.5380759539
 10
-9.8990318568
 20
-14.5950141023
 10
-9.8621996991
 20
-14.6475434217
 10
-9.8215298804
 20
-14.6954884709
 10
-9.7768563903
 20
-14.7392118754
 10
-9.7285941197
 20
-14.7783506542
 10
-9.6771723176
 20
-14.8126360447
 10
-9.6671437254
 20
-14.8185469976
  0
LINE
  5
226
100
AcDbEntity
  8
RACCORDO
100
AcDbLine
 62
250
  6
CONTINUOUS
 10
-10.0181730357
 20
-14.1926247004
 11
-10.0173632714
 21
-14.2043863151
  0
LWPOLYLINE
  5
227
100
AcDbEntity
  8
RACCORDO
100
AcDbPolyline
 62
250
  6
CONTINUOUS
 90
10
 70
0
 10
-9.8717475568
 20
-14.3954830737
 10
-9.9903372246
 20
-10.6971914285
 10
-10.0792884894
 20
-6.9800526635
 10
-10.1385936246
 20
-3.2443841634
 10
-10.1682474794
 20
0.5094950928
 10
-10.1682474794
 20
4.2812646742
 10
-10.1385936248
 20
8.0706027273
 10
-10.0792884895
 20
11.8771858487
 10
-9.9903372247
 20
15.700689111
 10
-9.8717475568
 20
19.5407862071
  0
LWPOLYLINE
  5
228
100
AcDbEntity
  8
RACCORDO
100
AcDbPolyline
 62
7
  6
CONTINUOUS
 90
10
 70
0
 10
-10.0181995374
 20
19.7451014028
 10
-10.1343130132
 20
15.9960200834
 10
-10.2245032594
 20
12.1446891933
 10
-10.2846223439
 20
8.3104624401
 10
-10.3146618792
 20
4.4937166086
 10
-10.3146198563
 20
0.6947627312
 10
-10.2844955089
 20
-3.086113163
 10
-10.2242892632
 20
-6.8486019455
 10
-10.1340079294
 20
-10.5923363155
 10
-10.0181730357
 20
-14.1926247004
  0
LWPOLYLINE
  5
229
100
AcDbEntity
  8
RACCORDO
100
AcDbPolyline
 62
250
  6
CONTINUOUS
 90
16
 70
0
 10
-9.8717475568
 20
19.5407862071
 10
-9.8668807265
 20
19.6115514426
 10
-9.8571666754
 20
19.6844625014
 10
-9.8426717085
 20
19.759012509
 10
-9.823494742
 20
19.8346928019
 10
-9.799768712
 20
19.9109671628
 10
-9.7716649877
 20
19.9872751378
 10
-9.7393925984
 20
20.0630690546
 10
-9.7031743437
 20
20.1378397334
 10
-9.6632466385
 20
20.2110890996
 10
-9.6198833125
 20
20.282317652
 10
-9.5733924667
 20
20.3510195219
 10
-9.524094922
 20
20.4167072525
 10
-9.4723374346
 20
20.4789244666
 10
-9.4184830808
 20
20.5372387177
 10
-9.3629041024
 20
20.5912359092
  0
LWPOLYLINE
  5
22A
100
AcDbEntity
  8
RACCORDO
100
AcDbPolyline
 62
250
  6
CONTINUOUS
 90
9
 70
0
 10
-10.0181988919
 20
19.7448670732
 10
-10.0173540337
 20
19.7229605304
 10
-10.0115341288
 20
19.694397017
 10
-10.0004316454
 20
19.6661912017
 10
-9.9841655389
 20
19.6386452901
 10
-9.9629100893
 20
19.6120544169
 10
-9.9368930337
 20
19.5867034848
 10
-9.9063931267
 20
19.562864111
 10
-9.8717371533
 20
19.5407917178
  0
LINE
  5
22B
100
AcDbEntity
  8
RACCORDO
100
AcDbLine
 62
250
  6
CONTINUOUS
 10
5.5799473004
 20
12.1958942492
 11
9.9649554255
 21
14.7711823492
  0
LINE
  5
22C
100
AcDbEntity
  8
RACCORDO
100
AcDbLine
 62
250
  6
CONTINUOUS
 10
5.9365314345
 20
11.5854738016
 11
10.3184011265
 21
14.1589187193
  0
LWPOLYLINE
  5
22D
100
AcDbEntity
  8
RACCORDO
100
AcDbPolyline
 62
250
  6
CONTINUOUS
 90
10
 70
0
 10
4.8859570672
 20
-22.9163967661
 10
4.7631578547
 20
-19.2156745838
 10
4.6710494314
 20
-15.4967129159
 10
4.6096395238
 20
-11.759829147
 10
4.5789332829
 20
-8.0053422563
 10
4.5789332829
 20
-4.2335726746
 10
4.6096395237
 20
-0.4448422557
 10
4.6710494313
 20
3.360525597
 10
4.7631578547
 20
7.1822059562
 10
4.8859570672
 20
11.0198725147
  0
LWPOLYLINE
  5
22E
100
AcDbEntity
  8
RACCORDO
100
AcDbPolyline
 62
250
  6
CONTINUOUS
 90
9
 70
0
 10
5.5865341086
 20
-22.9031366392
 10
5.4638470793
 20
-19.2055924094
 10
5.3718318111
 20
-15.4904589806
 10
5.310488304
 20
-11.7577363528
 10
5.2798165633
 20
-8.0070994808
 10
5.2798165837
 20
-4.2388734099
 10
5.3104883499
 20
-0.4540332755
 10
5.3718318569
 20
3.347095877
 10
5.4638471098
 20
7.164839093
  0
LINE
  5
22F
100
AcDbEntity
  8
RACCORDO
100
AcDbLine
 62
250
  6
CONTINUOUS
 10
5.4638471098
 20
7.164839093
 11
5.5865341086
 21
10.9991963724
  0
LWPOLYLINE
  5
230
100
AcDbEntity
  8
RACCORDO
100
AcDbPolyline
 62
250
  6
CONTINUOUS
 90
19
 70
0
 10
4.8859570672
 20
11.0198725147
 10
4.8909141824
 20
11.0906024852
 10
4.9008015126
 20
11.1634242839
 10
4.9155512531
 20
11.2378302876
 10
4.9350642889
 20
11.3133036291
 10
4.9592043251
 20
11.3893156843
 10
4.9877970925
 20
11.4653296279
 10
5.0206426684
 20
11.5408099075
 10
5.0575140172
 20
11.6152345422
 10
5.0981516159
 20
11.6880923184
 10
5.1422740935
 20
11.7588722568
 10
5.1895769298
 20
11.8270821543
 10
5.2397319286
 20
11.892259048
 10
5.2923995969
 20
11.9539518321
 10
5.3472113581
 20
12.0117207444
 10
5.4037694676
 20
12.0651565902
 10
5.4616762142
 20
12.1138848568
 10
5.5205377485
 20
12.1575659593
 10
5.5799473004
 20
12.1958942492
  0
LWPOLYLINE
  5
231
100
AcDbEntity
  8
RACCORDO
100
AcDbPolyline
 62
250
  6
CONTINUOUS
 90
19
 70
0
 10
5.5865341086
 20
10.9991963724
 10
5.5890891283
 20
11.0348364385
 10
5.594042055
 20
11.0710412166
 10
5.6013928886
 20
11.1078107066
 10
5.6112275474
 20
11.1454241962
 10
5.6234601131
 20
11.1836023976
 10
5.6378328315
 20
11.2215074483
 10
5.6543883989
 20
11.2591170655
 10
5.6730841189
 20
11.2964535318
 10
5.6935341488
 20
11.3327458326
 10
5.7157744831
 20
11.3679713779
 10
5.7397691272
 20
11.4021527578
 10
5.7650242538
 20
11.4345867266
 10
5.7915791819
 20
11.4652468183
 10
5.8193945925
 20
11.4941594991
 10
5.8478587014
 20
11.5207009224
 10
5.8767675807
 20
11.5446631396
 10
5.9063251584
 20
11.5662540993
 10
5.9365314345
 20
11.5854738016
  0
LINE
  5
232
100
AcDbEntity
  8
RACCORDO
100
AcDbLine
 62
7
  6
CONTINUOUS
 10
10.3184011265
 20
-20.7861023804
 11
10.3184011265
 21
14.1589187193
  0
LWPOLYLINE
  5
233
100
AcDbEntity
  8
RACCORDO
100
AcDbPolyline
 62
250
  6
CONTINUOUS
 90
16
 70
0
 10
4.885973662
 20
11.0198813
 10
4.9244118475
 20
10.999749984
 10
4.9662228788
 20
10.9818377874
 10
5.0109587857
 20
10.9663366244
 10
5.0581402603
 20
10.953412577
 10
5.1072617924
 20
10.9432041156
 10
5.1577970861
 20
10.9358206155
 10
5.2092046976
 20
10.9313411848
 10
5.2609338375
 20
10.9298138168
 10
5.3124302712
 20
10.9312548759
 10
5.3631422575
 20
10.9356489226
 10
5.4125264598
 20
10.9429488781
 10
5.4600537675
 20
10.9530765296
 10
5.5052149654
 20
10.9659233678
 10
5.5475261889
 20
10.9813517495
 10
5.5865341085
 20
10.9991963724
  0
LINE
  5
234
100
AcDbEntity
  8
RACCORDO
100
AcDbLine
 62
250
  6
CONTINUOUS
 10
-9.8717475568
 20
19.5407862071
 11
4.8859570672
 21
11.0198725147
  0
LINE
  5
235
100
AcDbEntity
  8
RACCORDO
100
AcDbLine
 62
250
  6
CONTINUOUS
 10
-9.1897661606
 20
20.7237416936
 11
5.5799473004
 21
12.1958942492
  0
LWPOLYLINE
  5
236
100
AcDbEntity
  8
RACCORDO
100
AcDbPolyline
 62
250
  6
CONTINUOUS
 90
16
 70
0
 10
5.5799473004
 20
12.1958942492
 10
5.6162936813
 20
12.1719689662
 10
5.6523434153
 20
12.143895595
 10
5.6877017635
 20
12.1119815347
 10
5.7219815577
 20
12.0765762393
 10
5.7548074393
 20
12.0380673911
 10
5.7858199702
 20
11.996876656
 10
5.8146795678
 20
11.9534550659
 10
5.8410702241
 20
11.9082780806
 10
5.8647029657
 20
11.8618403808
 10
5.8853190176
 20
11.8146504522
 10
5.9026926375
 20
11.767225017
 10
5.9166335868
 20
11.7200833762
 10
5.9269892143
 20
11.6737417236
 10
5.9336461276
 20
11.6287074928
 10
5.9365314345
 20
11.5854738016
  0
LINE
  5
237
100
AcDbEntity
  8
RACCORDO
100
AcDbLine
 62
7
  6
CONTINUOUS
 10
-4.9552130368
 20
23.3859006257
 11
9.9649554255
 21
14.7711823492
  0
LWPOLYLINE
  5
238
100
AcDbEntity
  8
RACCORDO
100
AcDbPolyline
 62
250
  6
CONTINUOUS
 90
9
 70
0
 10
5.8226098125
 20
-23.3336220046
 10
5.841072494
 20
-23.3223163331
 10
5.8647049389
 20
-23.3023689992
 10
5.8853206122
 20
-23.2779222201
 10
5.9026938139
 20
-23.2492437255
 10
5.9166343464
 20
-23.2166475859
 10
5.9269896059
 20
-23.1804907601
 10
5.93364625
 20
-23.1411691823
 10
5.9365314345
 20
-23.0991134335
  0
LINE
  5
239
100
AcDbEntity
  8
RACCORDO
100
AcDbLine
 62
250
  6
CONTINUOUS
 10
10.3184011265
 20
-20.7861023804
 11
5.9365314345
 21
-23.0991134335
  0
LINE
  5
23A
100
AcDbEntity
  8
RACCORDO
100
AcDbLine
 62
7
  6
CONTINUOUS
 10
10.2093426487
 20
-21.0180438952
 11
5.8226098125
 21
-23.3336220046
  0
LWPOLYLINE
  5
23B
100
AcDbEntity
  8
RACCORDO
100
AcDbPolyline
 62
250
  6
CONTINUOUS
 90
19
 70
0
 10
5.9365314345
 20
-23.0991134335
 10
5.9063251585
 20
-23.1135783562
 10
5.8767675808
 20
-23.1249486235
 10
5.8478587015
 20
-23.1332242354
 10
5.8193945925
 20
-23.1384246541
 10
5.7915791818
 20
-23.1405304174
 10
5.7650242537
 20
-23.1394831387
 10
5.7397691271
 20
-23.1352125048
 10
5.7157744831
 20
-23.1277888288
 10
5.6935341488
 20
-23.1173646632
 10
5.673084119
 20
-23.1038772783
 10
5.654388399
 20
-23.0873894038
 10
5.6378328317
 20
-23.0682417804
 10
5.6234601132
 20
-23.0463645127
 10
5.6112275473
 20
-23.021827496
 10
5.6013928885
 20
-22.9951811576
 10
5.5940420548
 20
-22.9666089732
 10
5.5890891282
 20
-22.9359274671
 10
5.5865341086
 20
-22.9031366392
  0
ELLIPSE
  5
23C
100
AcDbEntity
  8
RACCORDO
100
AcDbEllipse
 62
7
  6
CONTINUOUS
 10
-4.9550514911
 20
22.9774322729
 30
0.0
 11
-0.2500597015
 21
0.4332530584
 31
0.0
 40
0.5770679649
 41
-0.7850277811
 42
0.0218062175
  0
ELLIPSE
  5
23D
100
AcDbEntity
  8
RACCORDO
100
AcDbEllipse
 62
7
  6
CONTINUOUS
 10
9.9647938798
 20
14.3629005454
 30
0.0
 11
-0.2499453902
 21
0.4330552278
 31
0.0
 40
0.5775954737
 41
-2.3558238482
 42
-0.7854843722
  0
ELLIPSE
  5
23E
100
AcDbEntity
  8
RACCORDO
100
AcDbEllipse
 62
7
  6
CONTINUOUS
 10
9.9647938798
 20
-20.5817474215
 30
0.0
 11
-0.2500597015
 21
0.4332530584
 31
0.0
 40
0.5770679649
 41
-3.1633988709
 42
-2.3562809586
  0
ENDSEC
  0
SECTION
  2
OBJECTS
  0
DICTIONARY
  5
C
100
AcDbDictionary
280
0
281
1
  3
ACAD_GROUP
350
D
  3
ACAD_MLINESTYLE
350
17
  3
ACAD_LAYOUT
350
1A
  3
ACAD_PLOTSETTINGS
350
19
  3
ACAD_PLOTSTYLENAME
350
E
  0
DICTIONARY
  5
D
102
{ACAD_REACTORS
330
C
102
}
100
AcDbDictionary
280
0
281
1
  0
ACDBDICTIONARYWDFLT
  5
E
102
{ACAD_REACTORS
330
C
102
}
100
AcDbDictionary
281
1
  3
Normal
350
F
100
AcDbDictionaryWithDefault
340
F
  0
DICTIONARY
  5
17
102
{ACAD_REACTORS
330
C
102
}
100
AcDbDictionary
280
0
281
1
  3
Standard
350
18
  0
DICTIONARY
  5
19
102
{ACAD_REACTORS
330
C
102
}
100
AcDbDictionary
281
1
  0
DICTIONARY
  5
1A
102
{ACAD_REACTORS
330
C
102
}
100
AcDbDictionary
281
1
  3
Model
350
23F
  3
Layout1
350
240
  0
ACDBPLACEHOLDER
  5
F
102
{ACAD_REACTORS
330
E
102
}
  0
MLINESTYLE
  5
18
102
{ACAD_REACTORS
330
17
102
}
100
AcDbMlineStyle
  2
STANDARD
 70
0
  3

 62
256
 51
90.0
 52
90.0
 71
2
 49
0.5
 62
256
  6
BYLAYER
 49
-0.5
 62
256
  6
BYLAYER
  0
LAYOUT
  5
23F
102
{ACAD_REACTORS
330
1A
102
}
100
AcDbPlotSettings
  1

  2
none_device
  4
ISO_A4_(297.00_x_210.00_MM)
  6

 40
0.0
 41
0.0
 42
0.0
 43
0.0
 44
297.0
 45
210.0
 46
0.0
 47
0.0
 48
0.0
 49
0.0
140
0.0
141
0.0
142
1.0
143
1.0
 70
1024
 72
1
 73
0
 74
0
  7

 75
0
147
1.0
148
0.0
149
0.0
100
AcDbLayout
  1
Model
 70
0
 71
0
 10
0.0
 20
0.0
 11
297.0
 21
210.0
 12
0.0
 22
0.0
 32
0.0
 14
0.0
 24
0.0
 34
0.0
 15
0.0
 25
0.0
 35
0.0
146
0.0
 13
0.0
 23
0.0
 33
0.0
 16
1.0
 26
0.0
 36
0.0
 17
0.0
 27
1.0
 37
0.0
 76
0
330
210
345
0
346
0
  0
LAYOUT
  5
240
102
{ACAD_REACTORS
330
1A
102
}
100
AcDbPlotSettings
  1

  2
none_device
  4
ISO_A4_(297.00_x_210.00_MM)
  6

 40
0.0
 41
0.0
 42
0.0
 43
0.0
 44
297.0
 45
210.0
 46
0.0
 47
0.0
 48
0.0
 49
0.0
140
0.0
141
0.0
142
1.0
143
1.0
 70
0
 72
1
 73
0
 74
0
  7

 75
0
147
1.0
148
0.0
149
0.0
100
AcDbLayout
  1
Layout1
 70
0
 71
1
 10
0.0
 20
0.0
 11
297.0
 21
210.0
 12
0.0
 22
0.0
 32
0.0
 14
0.0
 24
0.0
 34
0.0
 15
0.0
 25
0.0
 35
0.0
146
0.0
 13
0.0
 23
0.0
 33
0.0
 16
1.0
 26
0.0
 36
0.0
 17
0.0
 27
1.0
 37
0.0
 76
0
330
211
345
0
346
0
  0
ENDSEC
  0
EOF
