  0
SECTION
  2
HEADER
  9
$ACADVER
  1
AC1024
  9
$DWGCODEPAGE
  3
ANSI_1252
  9
$EXTMAX
 10
297.0
 20
210.0
 30
0.0
  9
$EXTMIN
 10
0.0
 20
0.0
 30
0.0
  9
$LIMMIN
 10
0.0
 20
0.0
  9
$LIMMAX
 10
297.0
 20
210.0
  9
$VIEWCTR
 10
148.5
 20
105.0
  9
$VIEWSIZE
 40
210.0
  9
$CLAYER
  8
0
  9
$LTSCALE
 40
16.335
  9
$CELTYPE
  6
BYLAYER
  9
$DIMSCALE
 40
1.0
  9
$DIMASZ
 40
3.0
  9
$DIMEXO
 40
0.5
  9
$DIMDLI
 40
11.286
  9
$DIMEXE
 40
1.5
  9
$DIMCEN
 40
2.673
  9
$DIMLFAC
 40
1.0
  9
$DIMBLK
  1
_FILLED
  9
$DIMALT
 70
0
  9
$DIMALTF
 40
0.0393700787
  9
$DIMTXT
 40
3.0
  9
$DIMTOL
 70
1
  9
$DIMLIM
 70
0
  9
$DIMTFAC
 40
1.0
  9
$DIMTP
 40
0.01
  9
$DIMTM
 40
0.01
  9
$DIMGAP
 40
0.625
  9
$DIMDSEP
 70
44
  9
$AUNITS
 70
0
  9
$PDMODE
 70
3
  9
$PDSIZE
 40
3.0
  9
$HANDSEED
  5
261
  9
$TILEMODE
 70
1
  9
$MEASUREMENT
 70
1
  9
$INSUNITS
 70
4
  0
ENDSEC
  0
SECTION
  2
CLASSES
  0
CLASS
  1
ACDBDICTIONARYWDFLT
  2
AcDbDictionaryWithDefault
  3
AutoCAD 2000
 90
0
 91
1
280
0
281
0
  0
CLASS
  1
ACDBPLACEHOLDER
  2
AcDbPlaceHolder
  3
AutoCAD 2000
 90
0
 91
1
280
0
281
0
  0
CLASS
  1
LAYOUT
  2
AcDbLayout
  3
AutoCAD 2000
 90
0
 91
0
280
0
281
0
  0
ENDSEC
  0
SECTION
  2
TABLES
  0
TABLE
  2
VPORT
  5
8
100
AcDbSymbolTable
 70
2
  0
VPORT
  5
1F4
100
AcDbSymbolTableRecord
100
AcDbViewportTableRecord
  2
*ACTIVE
 70
0
 10
0.0
 20
0.0
 11
1.0
 21
1.0
 12
148.5
 22
105.0
 13
0.0
 23
0.0
 14
1.0
 24
1.0
 15
0.0
 25
0.0
 16
0.0
 26
0.0
 36
1.0
 17
0.0
 27
0.0
 37
0.0
 40
210.0
 41
1.4142857143
 42
50.0
 43
0.0
 44
0.0
 50
0.0
 51
0.0
 71
0
 72
100
 73
1
 74
1
 75
0
 76
0
 77
0
 78
0
  0
ENDTAB
  0
TABLE
  2
LTYPE
  5
5
100
AcDbSymbolTable
 70
6
  0
LTYPE
  5
14
100
AcDbSymbolTableRecord
100
AcDbLinetypeTableRecord
  2
BYBLOCK
 70
0
  3

 72
65
 73
0
 40
0.0
  0
LTYPE
  5
15
100
AcDbSymbolTableRecord
100
AcDbLinetypeTableRecord
  2
BYLAYER
 70
0
  3

 72
65
 73
0
 40
0.0
  0
LTYPE
  5
16
100
AcDbSymbolTableRecord
100
AcDbLinetypeTableRecord
  2
CONTINUOUS
 70
64
  3
Solid line
 72
65
 73
0
 40
0.0
  0
LTYPE
  5
1F5
100
AcDbSymbolTableRecord
100
AcDbLinetypeTableRecord
  2
CENTER
 70
64
  3
____ _ ____ _ ____ _ ____ _ ____ _ ____ _ ____
 72
65
 73
4
 40
0.6
 49
0.375
 74
0
 49
-0.075
 74
0
 49
0.075
 74
0
 49
-0.075
 74
0
  0
LTYPE
  5
1F6
100
AcDbSymbolTableRecord
100
AcDbLinetypeTableRecord
  2
HIDDEN
 70
64
  3
- - - - - - - - - - - - - - - - - - - -
 72
65
 73
2
 40
0.2
 49
0.1
 74
0
 49
-0.1
 74
0
  0
LTYPE
  5
1F7
100
AcDbSymbolTableRecord
100
AcDbLinetypeTableRecord
  2
PHANTOM
 70
64
  3
_____ _ _ _____ _ _ _____ _ _ _____
 72
65
 73
6
 40
0.8
 49
0.45
 74
0
 49
-0.05
 74
0
 49
0.1
 74
0
 49
-0.05
 74
0
 49
0.1
 74
0
 49
-0.05
 74
0
  0
LTYPE
  5
1F8
100
AcDbSymbolTableRecord
100
AcDbLinetypeTableRecord
  2
DOT
 70
64
  3
. . . . . . . . . . . . . . . . . . . .
 72
65
 73
2
 40
0.2
 49
0.1
 74
0
 49
-0.1
 74
0
  0
LTYPE
  5
1F9
100
AcDbSymbolTableRecord
100
AcDbLinetypeTableRecord
  2
DASHED
 70
64
  3
- - - - - - - - - - - - - - - - - - - -
 72
65
 73
2
 40
0.2
 49
0.1
 74
0
 49
-0.1
 74
0
  0
ENDTAB
  0
TABLE
  2
LAYER
  5
2
100
AcDbSymbolTable
 70
36
  0
LAYER
  5
10
100
AcDbSymbolTableRecord
100
AcDbLayerTableRecord
  2
0
 70
0
 62
7
  6
CONTINUOUS
370
-3
390
F
  0
LAYER
  5
1FA
100
AcDbSymbolTableRecord
100
AcDbLayerTableRecord
  2
DEFAULT_1
 70
0
 62
7
  6
CENTER
370
-3
390
F
  0
LAYER
  5
1FB
100
AcDbSymbolTableRecord
100
AcDbLayerTableRecord
  2
DEFAULT_2
 70
0
 62
7
  6
HIDDEN
370
-3
390
F
  0
LAYER
  5
1FC
100
AcDbSymbolTableRecord
100
AcDbLayerTableRecord
  2
DEFAULT_3
 70
0
 62
7
  6
PHANTOM
370
-3
390
F
  0
LAYER
  5
1FD
100
AcDbSymbolTableRecord
100
AcDbLayerTableRecord
  2
ASSI
 70
0
 62
7
  6
CONTINUOUS
370
-3
390
F
  0
LAYER
  5
1FE
100
AcDbSymbolTableRecord
100
AcDbLayerTableRecord
  2
COORDINATE
 70
0
 62
7
  6
CONTINUOUS
370
-3
390
F
  0
LAYER
  5
1FF
100
AcDbSymbolTableRecord
100
AcDbLayerTableRecord
  2
COORD_ORIGINE
 70
0
 62
7
  6
CONTINUOUS
370
-3
390
F
  0
LAYER
  5
200
100
AcDbSymbolTableRecord
100
AcDbLayerTableRecord
  2
COPY_PUBLISH
 70
0
 62
7
  6
CONTINUOUS
370
-3
390
F
  0
LAYER
  5
201
100
AcDbSymbolTableRecord
100
AcDbLayerTableRecord
  2
COSMETIC
 70
0
 62
7
  6
CONTINUOUS
370
-3
390
F
  0
LAYER
  5
202
100
AcDbSymbolTableRecord
100
AcDbLayerTableRecord
  2
COSMETICI
 70
0
 62
7
  6
CONTINUOUS
370
-3
390
F
  0
LAYER
  5
203
100
AcDbSymbolTableRecord
100
AcDbLayerTableRecord
  2
CURVE
 70
0
 62
7
  6
CONTINUOUS
370
-3
390
F
  0
LAYER
  5
204
100
AcDbSymbolTableRecord
100
AcDbLayerTableRecord
  2
DRAFT
 70
0
 62
7
  6
CONTINUOUS
370
-3
390
F
  0
LAYER
  5
205
100
AcDbSymbolTableRecord
100
AcDbLayerTableRecord
  2
IMPORT_IGES
 70
0
 62
7
  6
CONTINUOUS
370
-3
390
F
  0
LAYER
  5
206
100
AcDbSymbolTableRecord
100
AcDbLayerTableRecord
  2
INTFCLR_1
 70
0
 62
7
  6
CONTINUOUS
370
-3
390
F
  0
LAYER
  5
207
100
AcDbSymbolTableRecord
100
AcDbLayerTableRecord
  2
NOTE
 70
0
 62
7
  6
CONTINUOUS
370
-3
390
F
  0
LAYER
  5
208
100
AcDbSymbolTableRecord
100
AcDbLayerTableRecord
  2
PIANI
 70
0
 62
7
  6
CONTINUOUS
370
-3
390
F
  0
LAYER
  5
209
100
AcDbSymbolTableRecord
100
AcDbLayerTableRecord
  2
PIANI_ORIGINE
 70
0
 62
7
  6
CONTINUOUS
370
-3
390
F
  0
LAYER
  5
20A
100
AcDbSymbolTableRecord
100
AcDbLayerTableRecord
  2
PUNTI
 70
0
 62
7
  6
CONTINUOUS
370
-3
390
F
  0
LAYER
  5
20B
100
AcDbSymbolTableRecord
100
AcDbLayerTableRecord
  2
RACCORDO
 70
0
 62
7
  6
CONTINUOUS
370
-3
390
F
  0
LAYER
  5
20C
100
AcDbSymbolTableRecord
100
AcDbLayerTableRecord
  2
SIMBOLI
 70
0
 62
7
  6
CONTINUOUS
370
-3
390
F
  0
LAYER
  5
20D
100
AcDbSymbolTableRecord
100
AcDbLayerTableRecord
  2
SMUSSO
 70
0
 62
7
  6
CONTINUOUS
370
-3
390
F
  0
LAYER
  5
20E
100
AcDbSymbolTableRecord
100
AcDbLayerTableRecord
  2
SNAPLINE
 70
0
 62
7
  6
CONTINUOUS
370
-3
390
F
  0
LAYER
  5
20F
100
AcDbSymbolTableRecord
100
AcDbLayerTableRecord
  2
SUPERFICI
 70
0
 62
7
  6
CONTINUOUS
370
-3
390
F
  0
LAYER
  5
210
100
AcDbSymbolTableRecord
100
AcDbLayerTableRecord
  2
TRASH
 70
0
 62
7
  6
CONTINUOUS
370
-3
390
F
  0
LAYER
  5
211
100
AcDbSymbolTableRecord
100
AcDbLayerTableRecord
  2
XSEC_DATUMS
 70
0
 62
7
  6
CONTINUOUS
370
-3
390
F
  0
ENDTAB
  0
TABLE
  2
STYLE
  5
3
100
AcDbSymbolTable
 70
1
  0
STYLE
  5
11
100
AcDbSymbolTableRecord
100
AcDbTextStyleTableRecord
  2
STANDARD
 70
0
 40
0.0
 41
0.8
 50
0.0
 71
0
 42
0.2
  3
txt
  4

  0
STYLE
  5
212
100
AcDbSymbolTableRecord
100
AcDbTextStyleTableRecord
  2
TEXTSTYLE_1
 70
0
 40
0.0
 41
0.8
 50
0.0
 71
0
 42
0.2
  3
gdt
  4

  0
ENDTAB
  0
TABLE
  2
VIEW
  5
6
100
AcDbSymbolTable
 70
0
  0
ENDTAB
  0
TABLE
  2
UCS
  5
7
100
AcDbSymbolTable
 70
0
  0
ENDTAB
  0
TABLE
  2
APPID
  5
9
100
AcDbSymbolTable
 70
1
  0
APPID
  5
213
100
AcDbSymbolTableRecord
100
AcDbRegAppTableRecord
  2
ACAD
 70
0
  0
ENDTAB
  0
TABLE
  2
BLOCK_RECORD
  5
1
100
AcDbSymbolTable
 70
0
  0
BLOCK_RECORD
  5
214
100
AcDbSymbolTableRecord
100
AcDbBlockTableRecord
  2
*Model_Space
  0
BLOCK_RECORD
  5
215
100
AcDbSymbolTableRecord
100
AcDbBlockTableRecord
  2
*Paper_Space
  0
BLOCK_RECORD
  5
216
100
AcDbSymbolTableRecord
100
AcDbBlockTableRecord
  2
_FILLED
  0
ENDTAB
  0
TABLE
  2
DIMSTYLE
  5
A
100
AcDbSymbolTable
 70
1
100
AcDbDimStyleTable
 71
0
  0
DIMSTYLE
105
217
100
AcDbSymbolTableRecord
100
AcDbDimStyleTableRecord
  2
STANDARD
 70
0
  3

  4

 40
1.0
 41
3.0
 42
0.5
 43
0.38
 44
1.5
 45
0.0
 46
0.0
 47
0.01
 48
0.01
140
3.0
141
0.09
142
0.0
143
25.4
144
1.0
145
0.0
146
1.0
147
0.625
 71
1
 72
0
 73
0
 74
0
 75
0
 76
0
 77
1
 78
8
 79
2
170
0
171
1
172
0
173
0
174
0
175
0
176
0
177
0
178
0
270
2
179
2
271
2
272
2
273
2
274
2
275
0
280
0
281
0
282
0
283
1
284
8
285
0
286
0
287
3
288
0
340
11
278
44
341
216
342
216
343
216
344
216
  0
ENDTAB
  0
ENDSEC
  0
SECTION
  2
BLOCKS
  0
BLOCK
  5
20
100
AcDbEntity
  8
0
100
AcDbBlockBegin
  2
*Model_Space
 70
0
 10
0.0
 20
0.0
 30
0.0
  3
*Model_Space
  1

  0
ENDBLK
  5
21
100
AcDbEntity
  8
0
100
AcDbBlockEnd
  0
BLOCK
  5
1C
100
AcDbEntity
  8
0
100
AcDbBlockBegin
  2
*Paper_Space
 70
0
 10
0.0
 20
0.0
 30
0.0
  3
*Paper_Space
  1

  0
ENDBLK
  5
1D
100
AcDbEntity
  8
0
100
AcDbBlockEnd
  0
BLOCK
  5
218
100
AcDbEntity
  8
0
100
AcDbBlockBegin
  2
_FILLED
 70
64
 10
0.0
 20
0.0
  3
_FILLED
  1

  0
SOLID
  5
219
100
AcDbEntity
  8
0
  6
BYBLOCK
 62
0
100
AcDbTrace
 10
0.0
 20
0.0
 11
-1.0
 21
0.3166666667
 12
-1.0
 22
-0.3166666667
 13
-1.0
 23
-0.3166666667
  0
ENDBLK
  5
21A
100
AcDbEntity
  8
0
  6
BYBLOCK
 62
0
100
AcDbBlockEnd
  0
ENDSEC
  0
SECTION
  2
ENTITIES
  0
LWPOLYLINE
  5
21B
100
AcDbEntity
  8
RACCORDO
100
AcDbPolyline
 62
7
  6
CONTINUOUS
 90
16
 70
0
 10
-9.4111757938
 20
20.7239171622
 10
-9.4653066942
 20
20.6874034069
 10
-9.5302832201
 20
20.6365677838
 10
-9.5913845545
 20
20.5810388802
 10
-9.6488197581
 20
20.5210706659
 10
-9.7025396356
 20
20.456983558
 10
-9.7521819781
 20
20.389490522
 10
-9.7976724754
 20
20.318866829
 10
-9.8389078505
 20
20.2453327115
 10
-9.8754576572
 20
20.1696759881
 10
-9.9071758621
 20
20.0920950216
 10
-9.9338762679
 20
20.0127971635
 10
-9.9551456512
 20
19.9324795653
 10
-9.9707249694
 20
19.8513656554
 10
-9.9803137809
 20
19.7694013118
 10
-9.9828435528
 20
19.7244533434
  0
LINE
  5
21C
100
AcDbEntity
  8
RACCORDO
100
AcDbLine
 62
7
  6
CONTINUOUS
 10
-9.4112731596
 20
20.7238748729
 11
-5.1751478846
 21
23.3870221777
  0
LINE
  5
21D
100
AcDbEntity
  8
RACCORDO
100
AcDbLine
 62
250
  6
CONTINUOUS
 10
-9.1544108216
 20
20.7033279638
 11
-4.9198576977
 21
23.365486896
  0
LWPOLYLINE
  5
21E
100
AcDbEntity
  8
RACCORDO
100
AcDbPolyline
 62
250
  6
CONTINUOUS
 90
9
 70
0
 10
-9.4111842885
 20
20.7239307042
 10
-9.3926413054
 20
20.7339715456
 10
-9.3639973014
 20
20.7441912769
 10
-9.3329570182
 20
20.7495534949
 10
-9.2998603419
 20
20.7499994844
 10
-9.2650696758
 20
20.7455243618
 10
-9.2289659724
 20
20.736177129
 10
-9.1919445614
 20
20.7220601367
 10
-9.1544108216
 20
20.7033279638
  0
LWPOLYLINE
  5
21F
100
AcDbEntity
  8
RACCORDO
100
AcDbPolyline
 62
250
  6
CONTINUOUS
 90
4
 70
0
 10
-9.3275487633
 20
20.5708221794
 10
-9.2706340036
 20
20.6201252549
 10
-9.2127857707
 20
20.6643959241
 10
-9.1544108216
 20
20.7033279638
  0
LWPOLYLINE
  5
220
100
AcDbEntity
  8
RACCORDO
100
AcDbPolyline
 62
7
  6
CONTINUOUS
 90
12
 70
0
 10
5.0589791952
 20
-23.3212267775
 10
5.1148276087
 20
-23.3500725797
 10
5.1760202401
 20
-23.3746107984
 10
5.2395701941
 20
-23.3931650993
 10
5.3048792434
 20
-23.405566616
 10
5.372377135
 20
-23.4118017784
 10
5.4416580816
 20
-23.4115930412
 10
5.5120742807
 20
-23.4047128852
 10
5.5839032018
 20
-23.3908455884
 10
5.6569954302
 20
-23.3695964019
 10
5.7306264125
 20
-23.3407136212
 10
5.7870889881
 20
-23.3132794099
  0
LWPOLYLINE
  5
221
100
AcDbEntity
  8
RACCORDO
100
AcDbPolyline
 62
250
  6
CONTINUOUS
 90
16
 70
0
 10
4.8506017341
 20
-22.8959830329
 10
4.8890406585
 20
-22.9158716241
 10
4.9308526079
 20
-22.9331799714
 10
4.9755895874
 20
-22.9477226244
 10
5.0227722621
 20
-22.9593437654
 10
5.0718950924
 20
-22.9679188797
 10
5.1224317511
 20
-22.973356089
 10
5.1738407624
 20
-22.9755971364
 10
5.2255713038
 20
-22.9746180101
 10
5.2770691075
 20
-22.970429201
 10
5.3277823996
 20
-22.9630755901
 10
5.3771678118
 20
-22.9526359678
 10
5.4246962034
 20
-22.9392221897
 10
5.4698583308
 20
-22.9229779777
 10
5.5121703035
 20
-22.9040773808
 10
5.5511787696
 20
-22.8827229096
  0
LINE
  5
222
100
AcDbEntity
  8
RACCORDO
100
AcDbLine
 62
7
  6
CONTINUOUS
 10
5.0589922625
 20
-23.3212444173
 11
-9.6317230399
 21
-14.8390095504
  0
LINE
  5
223
100
AcDbEntity
  8
RACCORDO
100
AcDbLine
 62
250
  6
CONTINUOUS
 10
4.8506017282
 20
-22.8959830366
 11
-9.8363922177
 21
-14.4158968035
  0
LINE
  5
224
100
AcDbEntity
  8
RACCORDO
100
AcDbLine
 62
7
  6
CONTINUOUS
 10
-9.631723268
 20
-14.8390094187
 11
-9.6318229321
 21
-14.8389518506
  0
LWPOLYLINE
  5
225
100
AcDbEntity
  8
RACCORDO
100
AcDbPolyline
 62
250
  6
CONTINUOUS
 90
10
 70
0
 10
-9.6318229321
 20
-14.8389518506
 10
-9.6678190047
 20
-14.8148550249
 10
-9.7040372593
 20
-14.7826479696
 10
-9.7363096486
 20
-14.7447767095
 10
-9.7644133729
 20
-14.7014916524
 10
-9.7881394029
 20
-14.6531005773
 10
-9.8073163695
 20
-14.5999556126
 10
-9.8218113363
 20
-14.5424359865
 10
-9.8315253874
 20
-14.4809396144
 10
-9.8363922177
 20
-14.4158968035
  0
LWPOLYLINE
  5
226
100
AcDbEntity
  8
RACCORDO
100
AcDbPolyline
 62
250
  6
CONTINUOUS
 90
10
 70
0
 10
5.0588756777
 20
-23.3211771336
 10
5.0221586782
 20
-23.2966664041
 10
4.9852873293
 20
-23.2640799235
 10
4.9524417534
 20
-23.2258734455
 10
4.9238489861
 20
-23.1823084175
 10
4.8997089498
 20
-23.1336878848
 10
4.880195914
 20
-23.080357661
 10
4.8654461735
 20
-23.0226923901
 10
4.8555588433
 20
-22.961091074
 10
4.8506017282
 20
-22.8959830366
  0
LWPOLYLINE
  5
227
100
AcDbEntity
  8
0
100
AcDbPolyline
 62
250
  6
CONTINUOUS
 90
7
 70
0
 10
-3.1083876008
 20
-12.0430470385
 10
-3.0393449538
 20
-12.0458130352
 10
-2.9681586015
 20
-12.0566678157
 10
-2.89478471
 20
-12.0757819192
 10
-2.8192695891
 20
-12.1029863094
 10
-2.7431839808
 20
-12.1377139835
 10
-2.6663542564
 20
-12.1803008769
  0
LWPOLYLINE
  5
228
100
AcDbEntity
  8
RACCORDO
100
AcDbPolyline
 62
250
  6
CONTINUOUS
 90
8
 70
0
 10
-9.9820079323
 20
-14.2248000449
 10
-9.9761886474
 20
-14.2556018982
 10
-9.9650866322
 20
-14.2857540865
 10
-9.9488208395
 20
-14.3149335436
 10
-9.9275655493
 20
-14.3428276255
 10
-9.9015485017
 20
-14.3691374606
 10
-9.8710484568
 20
-14.393581152
 10
-9.8363922078
 20
-14.4158967973
  0
LWPOLYLINE
  5
229
100
AcDbEntity
  8
RACCORDO
100
AcDbPolyline
 62
7
  6
CONTINUOUS
 90
13
 70
0
 10
-9.9828096506
 20
-14.2130096929
 10
-9.9770109668
 20
-14.2884327364
 10
-9.9649670196
 20
-14.3623143202
 10
-9.9471747159
 20
-14.4321608677
 10
-9.9241486587
 20
-14.4975274657
 10
-9.8962687313
 20
-14.5584896837
 10
-9.8636765178
 20
-14.6154278321
 10
-9.82684436
 20
-14.6679571515
 10
-9.7861745413
 20
-14.7159022007
 10
-9.7415010513
 20
-14.7596256052
 10
-9.6932387807
 20
-14.7987643839
 10
-9.6418169786
 20
-14.8330497745
 10
-9.6317883864
 20
-14.8389607274
  0
LINE
  5
22A
100
AcDbEntity
  8
RACCORDO
100
AcDbLine
 62
250
  6
CONTINUOUS
 10
-9.9828176966
 20
-14.2130384302
 11
-9.9820079323
 21
-14.2248000449
  0
LWPOLYLINE
  5
22B
100
AcDbEntity
  8
RACCORDO
100
AcDbPolyline
 62
250
  6
CONTINUOUS
 90
10
 70
0
 10
-9.8363922177
 20
-14.4158968035
 10
-9.9549818855
 20
-10.7176051583
 10
-10.0439331503
 20
-7.0004663933
 10
-10.1032382856
 20
-3.2647978932
 10
-10.1328921403
 20
0.489081363
 10
-10.1328921404
 20
4.2608509444
 10
-10.1032382857
 20
8.0501889975
 10
-10.0439331505
 20
11.8567721189
 10
-9.9549818856
 20
15.6802753812
 10
-9.8363922177
 20
19.5203724773
  0
LWPOLYLINE
  5
22C
100
AcDbEntity
  8
RACCORDO
100
AcDbPolyline
 62
7
  6
CONTINUOUS
 90
10
 70
0
 10
-9.9828441983
 20
19.724687673
 10
-10.0989576741
 20
15.9756063537
 10
-10.1891479204
 20
12.1242754635
 10
-10.2492670049
 20
8.2900487103
 10
-10.2793065401
 20
4.4733028788
 10
-10.2792645173
 20
0.6743490015
 10
-10.2491401698
 20
-3.1065268928
 10
-10.1889339242
 20
-6.8690156753
 10
-10.0986525903
 20
-10.6127500453
 10
-9.9828176966
 20
-14.2130384302
  0
LWPOLYLINE
  5
22D
100
AcDbEntity
  8
RACCORDO
100
AcDbPolyline
 62
250
  6
CONTINUOUS
 90
16
 70
0
 10
-9.8363922177
 20
19.5203724773
 10
-9.8315253874
 20
19.5911377128
 10
-9.8218113363
 20
19.6640487716
 10
-9.8073163695
 20
19.7385987793
 10
-9.788139403
 20
19.8142790721
 10
-9.7644133729
 20
19.8905534331
 10
-9.7363096486
 20
19.9668614081
 10
-9.7040372593
 20
20.0426553248
 10
-9.6678190047
 20
20.1174260037
 10
-9.6278912994
 20
20.1906753699
 10
-9.5845279734
 20
20.2619039222
 10
-9.5380371276
 20
20.3306057922
 10
-9.4887395829
 20
20.3962935227
 10
-9.4369820956
 20
20.4585107369
 10
-9.3831277417
 20
20.5168249879
 10
-9.3275487633
 20
20.5708221794
  0
LWPOLYLINE
  5
22E
100
AcDbEntity
  8
0
100
AcDbPolyline
 62
250
  6
CONTINUOUS
 90
3
 70
0
 10
-2.6663542564
 20
-12.1803008769
 10
-2.5889545798
 20
-12.2304113789
 10
-2.5130769118
 20
-12.2864708834
  0
LWPOLYLINE
  5
22F
100
AcDbEntity
  8
0
100
AcDbPolyline
 62
250
  6
CONTINUOUS
 90
21
 70
0
 10
-2.5130769118
 20
-12.2864708834
 10
-2.4385515121
 20
-12.3491293398
 10
-2.3655466227
 20
-12.4177358894
 10
-2.2966610767
 20
-12.4887646517
 10
-2.2325193468
 20
-12.5620243529
 10
-2.1724947612
 20
-12.6377049316
 10
-2.1173102501
 20
-12.7128528194
 10
-2.0674193541
 20
-12.786891691
 10
-2.0223672485
 20
-12.8603970908
 10
-1.9815154589
 20
-12.9321439488
 10
-1.944920335
 20
-13.001855867
 10
-1.9125251431
 20
-13.0698090085
 10
-1.8835225682
 20
-13.1356076226
 10
-1.8578649943
 20
-13.1991881128
 10
-1.8356001819
 20
-13.260614162
 10
-1.8160643562
 20
-13.3196812273
 10
-1.7992354571
 20
-13.3763047635
 10
-1.7851360603
 20
-13.4305696283
 10
-1.7731696211
 20
-13.4825255521
 10
-1.7633031956
 20
-13.5321192187
 10
-1.755570384
 20
-13.5794043428
  0
LWPOLYLINE
  5
230
100
AcDbEntity
  8
RACCORDO
100
AcDbPolyline
 62
250
  6
CONTINUOUS
 90
9
 70
0
 10
-9.9828435528
 20
19.7244533434
 10
-9.9819986947
 20
19.7025468006
 10
-9.9761787897
 20
19.6739832872
 10
-9.9650763064
 20
19.6457774719
 10
-9.9488101999
 20
19.6182315603
 10
-9.9275547502
 20
19.5916406872
 10
-9.9015376946
 20
19.566289755
 10
-9.8710377876
 20
19.5424503812
 10
-9.8363818143
 20
19.520377988
  0
LINE
  5
231
100
AcDbEntity
  8
RACCORDO
100
AcDbLine
 62
250
  6
CONTINUOUS
 10
5.5445919614
 20
12.2163079787
 11
9.9296000864
 21
14.7915960788
  0
LINE
  5
232
100
AcDbEntity
  8
RACCORDO
100
AcDbLine
 62
250
  6
CONTINUOUS
 10
5.9011760954
 20
11.6058875311
 11
10.2830457874
 21
14.1793324489
  0
LWPOLYLINE
  5
233
100
AcDbEntity
  8
RACCORDO
100
AcDbPolyline
 62
250
  6
CONTINUOUS
 90
55
 70
0
 10
-3.2666098231
 20
-12.827813691
 10
-3.2655359423
 20
-12.871178278
 10
-3.2623170958
 20
-12.9156408416
 10
-3.2569636194
 20
-12.9610519816
 10
-3.2494971912
 20
-13.0072360478
 10
-3.2399403785
 20
-13.0540600853
 10
-3.2283062793
 20
-13.1014371696
 10
-3.2146092279
 20
-13.1492597308
 10
-3.1988973613
 20
-13.1973170571
 10
-3.1812459712
 20
-13.2453657501
 10
-3.1617187063
 20
-13.2932354685
 10
-3.140380241
 20
-13.3407705534
 10
-3.11733338
 20
-13.3877517538
 10
-3.0926880571
 20
-13.4339773115
 10
-3.0665123104
 20
-13.4793403589
 10
-3.0388523469
 20
-13.5237662436
 10
-3.0097797143
 20
-13.5671333728
 10
-2.9794094398
 20
-13.6092638145
 10
-2.9478537529
 20
-13.650000433
 10
-2.915220062
 20
-13.6892047815
 10
-2.8816177424
 20
-13.7267456625
 10
-2.8471693976
 20
-13.7624872718
 10
-2.8120142533
 20
-13.7962898791
 10
-2.7762498023
 20
-13.8280643659
 10
-2.7399374773
 20
-13.8577519959
 10
-2.7031620531
 20
-13.8852694406
 10
-2.6660821659
 20
-13.9104840983
 10
-2.6288714626
 20
-13.9332726287
 10
-2.5916705844
 20
-13.9535499701
 10
-2.5545917793
 20
-13.97125601
 10
-2.5177668314
 20
-13.9863280516
 10
-2.4813249377
 20
-13.9987144886
 10
-2.4453853957
 20
-14.0083760573
 10
-2.4100633454
 20
-14.0152819151
 10
-2.375474332
 20
-14.0194083033
 10
-2.3417407819
 20
-14.0207394241
 10
-2.3089842285
 20
-14.0192706717
 10
-2.2773199756
 20
-14.0150089083
 10
-2.2468503241
 20
-14.0079696498
 10
-2.2176719222
 20
-13.9981753736
 10
-2.1898798366
 20
-13.9856563202
 10
-2.1635736545
 20
-13.9704556078
 10
-2.1388494204
 20
-13.9526291502
 10
-2.1157946394
 20
-13.9322430852
 10
-2.0944816462
 20
-13.9093645821
 10
-2.0749757265
 20
-13.8840636962
 10
-2.0573329929
 20
-13.8564060751
 10
-2.0416277829
 20
-13.8265005795
 10
-2.0279352906
 20
-13.7945024774
 10
-2.0163038715
 20
-13.7605658676
 10
-2.0067484454
 20
-13.7247818037
 10
-1.9992826102
 20
-13.6872225005
 10
-1.9939292298
 20
-13.6479948693
 10
-1.9907102186
 20
-13.6072490322
 10
-1.9896362024
 20
-13.5651222553
  0
LWPOLYLINE
  5
234
100
AcDbEntity
  8
0
100
AcDbPolyline
 62
250
  6
CONTINUOUS
 90
11
 70
0
 10
-3.4375992606
 20
-12.6839903895
 10
-3.4368026613
 20
-12.6051753992
 10
-3.4300396253
 20
-12.5302525998
 10
-3.4173597253
 20
-12.4597630248
 10
-3.3988581996
 20
-12.3942026695
 10
-3.3746583058
 20
-12.3340697531
 10
-3.3449305014
 20
-12.2798406051
 10
-3.3099180524
 20
-12.2319166628
 10
-3.2698736229
 20
-12.190606991
 10
-3.225047858
 20
-12.1561714244
 10
-3.2073531817
 20
-12.145246096
  0
LWPOLYLINE
  5
235
100
AcDbEntity
  8
0
100
AcDbPolyline
 62
250
  6
CONTINUOUS
 90
11
 70
0
 10
-3.5789929005
 20
-12.6862609606
 10
-3.5777879731
 20
-12.599836151
 10
-3.5703037919
 20
-12.5187462688
 10
-3.5565413515
 20
-12.4429919241
 10
-3.5363119616
 20
-12.3720944484
 10
-3.5098060287
 20
-12.3065335629
 10
-3.47759412
 20
-12.2477480258
 10
-3.4395677937
 20
-12.1959158824
 10
-3.3958390843
 20
-12.1508612785
 10
-3.3473107788
 20
-12.1134930392
 10
-3.2938821422
 20
-12.0839638688
  0
LWPOLYLINE
  5
236
100
AcDbEntity
  8
0
100
AcDbPolyline
 62
250
  6
CONTINUOUS
 90
4
 70
0
 10
-1.755570384
 20
-13.5794043428
 10
-1.7494745593
 20
-13.6245912637
 10
-1.7448504009
 20
-13.6677502292
 10
-1.7418638695
 20
-13.7088113807
  0
LINE
  5
237
100
AcDbEntity
  8
0
100
AcDbLine
 62
250
  6
CONTINUOUS
 10
-1.7418638695
 20
-13.7088113807
 11
-1.7405152695
 21
-13.7477749032
  0
LWPOLYLINE
  5
238
100
AcDbEntity
  8
RACCORDO
100
AcDbPolyline
 62
250
  6
CONTINUOUS
 90
55
 70
0
 10
-1.9896362024
 20
-13.5651222553
 10
-1.9907100446
 20
-13.521757646
 10
-1.993928872
 20
-13.4772950713
 10
-1.9992823488
 20
-13.4318839316
 10
-2.00674881
 20
-13.3856998844
 10
-2.0163056752
 20
-13.3388758773
 10
-2.0279398076
 20
-13.2914988121
 10
-2.0416368513
 20
-13.2436762465
 10
-2.057348691
 20
-13.1956189046
 10
-2.0750000612
 20
-13.1475702002
 10
-2.0945273254
 20
-13.0997004814
 10
-2.1158657969
 20
-13.0521654001
 10
-2.1389126625
 20
-13.0051842023
 10
-2.1635579842
 20
-12.9589586439
 10
-2.1897337278
 20
-12.9135955947
 10
-2.2173936888
 20
-12.8691697085
 10
-2.2464663202
 20
-12.8258025787
 10
-2.276836594
 20
-12.7836721366
 10
-2.3083922801
 20
-12.7429355176
 10
-2.3410259699
 20
-12.7037311684
 10
-2.3746282882
 20
-12.6661902866
 10
-2.4090766319
 20
-12.6304486768
 10
-2.4442317757
 20
-12.5966460692
 10
-2.4799962264
 20
-12.5648715823
 10
-2.5163085512
 20
-12.535183952
 10
-2.5530839747
 20
-12.507666507
 10
-2.590163861
 20
-12.4824518488
 10
-2.6273745638
 20
-12.4596633181
 10
-2.6645754415
 20
-12.4393859764
 10
-2.7016542464
 20
-12.4216799364
 10
-2.7384791942
 20
-12.4066078948
 10
-2.7749210878
 20
-12.3942214577
 10
-2.8108606298
 20
-12.3845598889
 10
-2.8461826802
 20
-12.3776540312
 10
-2.8807716938
 20
-12.3735276431
 10
-2.9145052442
 20
-12.3721965225
 10
-2.947261798
 20
-12.3736652751
 10
-2.9789260509
 20
-12.3779270386
 10
-3.0093957025
 20
-12.3849662971
 10
-3.0385741049
 20
-12.3947605736
 10
-3.0663661923
 20
-12.4072796281
 10
-3.0926723767
 20
-12.4224803417
 10
-3.1173966117
 20
-12.4403067998
 10
-3.1404513894
 20
-12.4606928629
 10
-3.1617643779
 20
-12.4835713634
 10
-3.1812702979
 20
-12.5088722495
 10
-3.1989130447
 20
-12.5365298782
 10
-3.2146182729
 20
-12.5664353842
 10
-3.2283107702
 20
-12.5984334893
 10
-3.2399421663
 20
-12.6323700858
 10
-3.2494975563
 20
-12.6681541288
 10
-3.2569633694
 20
-12.7057134193
 10
-3.262316751
 20
-12.7449410512
 10
-3.2655357775
 20
-12.7856868971
 10
-3.2666098231
 20
-12.827813691
  0
LWPOLYLINE
  5
239
100
AcDbEntity
  8
RACCORDO
100
AcDbPolyline
 62
250
  6
CONTINUOUS
 90
42
 70
0
 10
-1.8552597751
 20
-13.561815704
 10
-1.8564420533
 20
-13.5140821844
 10
-1.8599852863
 20
-13.465140164
 10
-1.8658780974
 20
-13.4151540702
 10
-1.8740965602
 20
-13.3643172523
 10
-1.8846159091
 20
-13.3127759938
 10
-1.8974219303
 20
-13.2606258992
 10
-1.9124989472
 20
-13.2079853831
 10
-1.9297938537
 20
-13.1550864499
 10
-1.9492236417
 20
-13.1021970438
 10
-1.9707182007
 20
-13.0495046514
 10
-1.9942064007
 20
-12.9971805992
 10
-2.0195751203
 20
-12.94546623
 10
-2.0467033635
 20
-12.8945836379
 10
-2.0755162202
 20
-12.8446504558
 10
-2.1059628195
 20
-12.7957488531
 10
-2.1379644027
 20
-12.7480126688
 10
-2.1713943581
 20
-12.7016377625
 10
-2.206129151
 20
-12.6567971021
 10
-2.2420505528
 20
-12.6136430838
 10
-2.279038168
 20
-12.5723201219
 10
-2.3169570406
 20
-12.5329777003
 10
-2.3556539186
 20
-12.495769625
 10
-2.3950214878
 20
-12.4607939936
 10
-2.4349921271
 20
-12.4281154618
 10
-2.4754725204
 20
-12.3978257546
 10
-2.5162880497
 20
-12.3700708316
 10
-2.5572475738
 20
-12.3449864572
 10
-2.5981962826
 20
-12.3226662618
 10
-2.6390106201
 20
-12.3031764146
 10
-2.6795455254
 20
-12.2865859296
 10
-2.7196587853
 20
-12.2729516123
 10
-2.7592190838
 20
-12.2623166816
 10
-2.7980996812
 20
-12.2547150874
 10
-2.8361733918
 20
-12.2501729814
 10
-2.8733054553
 20
-12.2487077534
 10
-2.9093620941
 20
-12.2503244742
 10
-2.9442163868
 20
-12.2550155916
 10
-2.9777557272
 20
-12.2627640251
 10
-3.0098737322
 20
-12.2735450294
 10
-3.0404657618
 20
-12.2873253119
 10
-3.0568947131
 20
-12.2963381381
  0
LWPOLYLINE
  5
23A
100
AcDbEntity
  8
0
100
AcDbPolyline
 62
7
  6
CONTINUOUS
 90
10
 70
0
 10
-1.7697964444
 20
-13.7073411571
 10
-1.7696091086
 20
-13.7504239639
 10
-1.7741644117
 20
-13.8300701415
 10
-1.7853019452
 20
-13.9053525584
 10
-1.8030409048
 20
-13.9748914536
 10
-1.8269197538
 20
-14.037053201
 10
-1.8563125886
 20
-14.0910706903
 10
-1.890841255
 20
-14.1369324877
 10
-1.9302065217
 20
-14.1747358366
 10
-1.971823782
 20
-14.2031841686
  0
LINE
  5
23B
100
AcDbEntity
  8
0
100
AcDbLine
 62
250
  6
CONTINUOUS
 10
-1.7405152695
 20
-13.7477749032
 11
-1.7417046831
 21
-13.8342192375
  0
LWPOLYLINE
  5
23C
100
AcDbEntity
  8
RACCORDO
100
AcDbPolyline
 62
7
  6
CONTINUOUS
 90
16
 70
0
 10
-3.2898031298
 20
-12.790839555
 10
-3.2886637701
 20
-12.7450947354
 10
-3.2852520312
 20
-12.7006843075
 10
-3.2795781789
 20
-12.6577034607
 10
-3.2716345183
 20
-12.6161595336
 10
-3.2614446914
 20
-12.5762414586
 10
-3.2491120339
 20
-12.5382837818
 10
-3.2347122286
 20
-12.5023773987
 10
-3.2183000225
 20
-12.4685451965
 10
-3.2000227507
 20
-12.4369682719
 10
-3.1800313078
 20
-12.4077493907
 10
-3.1583921323
 20
-12.3808442654
 10
-3.1351520416
 20
-12.3562154122
 10
-3.1103987887
 20
-12.333887648
 10
-3.0842713996
 20
-12.3139199547
 10
-3.0568947124
 20
-12.2963381377
  0
LWPOLYLINE
  5
23D
100
AcDbEntity
  8
0
100
AcDbPolyline
 62
250
  6
CONTINUOUS
 90
7
 70
0
 10
-1.7417046831
 20
-13.8342192375
 10
-1.7491448387
 20
-13.9153055874
 10
-1.7628367317
 20
-13.9910345566
 10
-1.7829705675
 20
-14.0618862267
 10
-1.8093578582
 20
-14.127381557
 10
-1.8414324893
 20
-14.1860830344
 10
-1.8793070589
 20
-14.2378143312
  0
LWPOLYLINE
  5
23E
100
AcDbEntity
  8
RACCORDO
100
AcDbPolyline
 62
250
  6
CONTINUOUS
 90
5
 70
0
 10
4.8506017282
 20
-22.8959830366
 10
4.7278025157
 20
-19.1952608542
 10
4.6356940923
 20
-15.4762991863
 10
4.5742841847
 20
-11.7394154175
 10
4.5435779438
 20
-7.9849285267
  0
LWPOLYLINE
  5
23F
100
AcDbEntity
  8
RACCORDO
100
AcDbPolyline
 62
250
  6
CONTINUOUS
 90
4
 70
0
 10
5.5511787696
 20
-22.8827229096
 10
5.4284917402
 20
-19.1851786798
 10
5.336476472
 20
-15.470045251
 10
5.275132965
 20
-11.7373226232
  0
LINE
  5
240
100
AcDbEntity
  8
RACCORDO
100
AcDbLine
 62
250
  6
CONTINUOUS
 10
5.275132965
 20
-11.7373226232
 11
5.2444612242
 21
-7.9866857513
  0
LINE
  5
241
100
AcDbEntity
  8
RACCORDO
100
AcDbLine
 62
250
  6
CONTINUOUS
 10
4.5435779438
 20
-7.9849285267
 11
4.5435779438
 21
-4.213158945
  0
LWPOLYLINE
  5
242
100
AcDbEntity
  8
RACCORDO
100
AcDbPolyline
 62
250
  6
CONTINUOUS
 90
5
 70
0
 10
5.2444612242
 20
-7.9866857513
 10
5.2444612446
 20
-4.2184596803
 10
5.2751330109
 20
-0.433619546
 10
5.3364765179
 20
3.3675096066
 10
5.4284917708
 20
7.1852528225
  0
LWPOLYLINE
  5
243
100
AcDbEntity
  8
RACCORDO
100
AcDbPolyline
 62
250
  6
CONTINUOUS
 90
4
 70
0
 10
4.5435779438
 20
-4.213158945
 10
4.5742841847
 20
-0.4244285261
 10
4.6356940923
 20
3.3809393266
 10
4.7278025156
 20
7.2026196857
  0
LINE
  5
244
100
AcDbEntity
  8
RACCORDO
100
AcDbLine
 62
250
  6
CONTINUOUS
 10
5.4284917708
 20
7.1852528225
 11
5.5511787696
 21
11.0196101019
  0
LINE
  5
245
100
AcDbEntity
  8
RACCORDO
100
AcDbLine
 62
250
  6
CONTINUOUS
 10
4.7278025156
 20
7.2026196857
 11
4.8506017282
 21
11.0402862443
  0
LWPOLYLINE
  5
246
100
AcDbEntity
  8
RACCORDO
100
AcDbPolyline
 62
250
  6
CONTINUOUS
 90
19
 70
0
 10
4.8506017282
 20
11.0402862443
 10
4.8555588434
 20
11.1110162147
 10
4.8654461736
 20
11.1838380135
 10
4.880195914
 20
11.2582440171
 10
4.8997089498
 20
11.3337173586
 10
4.9238489861
 20
11.4097294139
 10
4.9524417534
 20
11.4857433574
 10
4.9852873293
 20
11.5612236371
 10
5.0221586782
 20
11.6356482718
 10
5.0627962768
 20
11.708506048
 10
5.1069187545
 20
11.7792859864
 10
5.1542215908
 20
11.8474958839
 10
5.2043765896
 20
11.9126727776
 10
5.2570442578
 20
11.9743655616
 10
5.3118560191
 20
12.0321344739
 10
5.3684141285
 20
12.0855703197
 10
5.4263208752
 20
12.1342985864
 10
5.4851824095
 20
12.1779796889
 10
5.5445919614
 20
12.2163079787
  0
LWPOLYLINE
  5
247
100
AcDbEntity
  8
RACCORDO
100
AcDbPolyline
 62
250
  6
CONTINUOUS
 90
19
 70
0
 10
5.5511787696
 20
11.0196101019
 10
5.5537337892
 20
11.0552501681
 10
5.5586867159
 20
11.0914549462
 10
5.5660375496
 20
11.1282244362
 10
5.5758722083
 20
11.1658379257
 10
5.588104774
 20
11.2040161272
 10
5.6024774925
 20
11.2419211778
 10
5.6190330598
 20
11.279530795
 10
5.6377287799
 20
11.3168672614
 10
5.6581788097
 20
11.3531595621
 10
5.680419144
 20
11.3883851075
 10
5.7044137881
 20
11.4225664873
 10
5.7296689147
 20
11.4550004562
 10
5.7562238428
 20
11.4856605479
 10
5.7840392534
 20
11.5145732286
 10
5.8125033624
 20
11.541114652
 10
5.8414122417
 20
11.5650768691
 10
5.8709698194
 20
11.5866678288
 10
5.9011760954
 20
11.6058875311
  0
LWPOLYLINE
  5
248
100
AcDbEntity
  8
0
100
AcDbPolyline
 62
250
  6
CONTINUOUS
 90
39
 70
0
 10
-1.8793070589
 20
-14.2378143312
 10
-1.9228725669
 20
-14.2827539685
 10
-1.9712320092
 20
-14.3199976298
 10
-2.024490714
 20
-14.3493950364
 10
-2.0825475455
 20
-14.3710990284
 10
-2.144196659
 20
-14.3846604921
 10
-2.2095147209
 20
-14.3899101127
 10
-2.2784288711
 20
-14.3870195339
 10
-2.3495092207
 20
-14.3760512306
 10
-2.4228031634
 20
-14.3568367646
 10
-2.4982657807
 20
-14.3295460899
 10
-2.57432847
 20
-14.2947491191
 10
-2.6511688553
 20
-14.2521086254
 10
-2.7286098446
 20
-14.2019621614
 10
-2.8045502908
 20
-14.1458915214
 10
-2.8791581154
 20
-14.0832486794
 10
-2.9522638949
 20
-14.0146807411
 10
-3.0212603663
 20
-13.9437121371
 10
-3.0855199094
 20
-13.8705370833
 10
-3.1456679474
 20
-13.7949600187
 10
-3.2009775977
 20
-13.7199212078
 10
-3.2509948754
 20
-13.6459948966
 10
-3.2961724847
 20
-13.5726060563
 10
-3.3371447183
 20
-13.5009717398
 10
-3.3738550238
 20
-13.4313663921
 10
-3.4063595711
 20
-13.3635153357
 10
-3.4354625196
 20
-13.2978124185
 10
-3.4612112767
 20
-13.2343213425
 10
-3.4835585807
 20
-13.1729784962
 10
-3.5031670626
 20
-13.1139870477
 10
-3.5200591718
 20
-13.0574316712
 10
-3.5342129749
 20
-13.003228009
 10
-3.5462248049
 20
-12.9513258499
 10
-3.5561282091
 20
-12.9017787597
 10
-3.563890296
 20
-12.8545335742
 10
-3.5700078423
 20
-12.8093800494
 10
-3.5746466615
 20
-12.7662482394
 10
-3.5776415796
 20
-12.7252084812
 10
-3.5789929005
 20
-12.6862609606
  0
LINE
  5
249
100
AcDbEntity
  8
RACCORDO
100
AcDbLine
 62
7
  6
CONTINUOUS
 10
10.2830457874
 20
-20.7656886509
 11
10.2830457874
 21
14.1793324489
  0
LINE
  5
24A
100
AcDbEntity
  8
DRAFT
100
AcDbLine
 62
7
  6
CONTINUOUS
 10
-3.0568947134
 20
-12.2963381383
 11
-2.8014568907
 21
-12.1466592754
  0
LINE
  5
24B
100
AcDbEntity
  8
0
100
AcDbLine
 62
7
  6
CONTINUOUS
 10
-3.2073531817
 20
-12.145246096
 11
-3.2067084823
 21
-12.1448730066
  0
LWPOLYLINE
  5
24C
100
AcDbEntity
  8
0
100
AcDbPolyline
 62
7
  6
CONTINUOUS
 90
29
 70
0
 10
-3.2074099679
 20
-12.1452806633
 10
-3.1661258804
 20
-12.1252020317
 10
-3.1156087205
 20
-12.1095271762
 10
-3.0606389344
 20
-12.1012581755
 10
-3.0013350581
 20
-12.1006198468
 10
-2.9379551641
 20
-12.1078514132
 10
-2.8713307468
 20
-12.1231009453
 10
-2.8027726732
 20
-12.1460869597
 10
-2.7335278235
 20
-12.1762058519
 10
-2.6638240757
 20
-12.2131826128
 10
-2.5933557488
 20
-12.257144671
 10
-2.5224706213
 20
-12.3079920258
 10
-2.4520132786
 20
-12.3652516863
 10
-2.3822984238
 20
-12.4287540722
 10
-2.3137649156
 20
-12.4982365003
 10
-2.2471393593
 20
-12.5731230711
 10
-2.1831021808
 20
-12.6527202805
 10
-2.1221736349
 20
-12.7364261514
 10
-2.0648421191
 20
-12.8236257648
 10
-2.011640796
 20
-12.913500925
 10
-1.9629825532
 20
-13.005336714
 10
-1.9192069325
 20
-13.0984394718
 10
-1.880666945
 20
-13.191983125
 10
-1.8476075724
 20
-13.2852411998
 10
-1.8202278847
 20
-13.3774874612
 10
-1.7986962331
 20
-13.4678778144
 10
-1.783086824
 20
-13.5556639417
 10
-1.7733895854
 20
-13.640235984
 10
-1.7698025256
 20
-13.7071179091
  0
LWPOLYLINE
  5
24D
100
AcDbEntity
  8
0
100
AcDbPolyline
 62
250
  6
CONTINUOUS
 90
4
 70
0
 10
-3.2938821422
 20
-12.0839638688
 10
-3.2356580969
 20
-12.0621236108
 10
-3.1738507711
 20
-12.0484273166
 10
-3.1083876008
 20
-12.0430470385
  0
LWPOLYLINE
  5
24E
100
AcDbEntity
  8
RACCORDO
100
AcDbPolyline
 62
250
  6
CONTINUOUS
 90
15
 70
0
 10
-2.0629277307
 20
-14.0178285418
 10
-2.0467206612
 20
-14.0079847145
 10
-2.0195055596
 20
-13.9883623219
 10
-1.9941281228
 20
-13.9659224241
 10
-1.9706679606
 20
-13.9407389777
 10
-1.9491969009
 20
-13.9128891367
 10
-1.9297766596
 20
-13.8824452075
 10
-1.9124891059
 20
-13.8495269606
 10
-1.8974171182
 20
-13.8143052037
 10
-1.8846140229
 20
-13.776949495
 10
-1.8740961557
 20
-13.7375601618
 10
-1.8658783118
 20
-13.6962168292
 10
-1.8599855956
 20
-13.6530372022
 10
-1.8564421847
 20
-13.6081864677
 10
-1.8552597751
 20
-13.561815704
  0
LINE
  5
24F
100
AcDbEntity
  8
0
100
AcDbLine
 62
7
  6
CONTINUOUS
 10
-1.970239375
 20
-14.2022771712
 11
-1.9718869985
 21
-14.2032229262
  0
LINE
  5
250
100
AcDbEntity
  8
DRAFT
100
AcDbLine
 62
7
  6
CONTINUOUS
 10
-2.06292773
 20
-14.0178285414
 11
-1.7779589623
 21
-13.8557188135
  0
LWPOLYLINE
  5
251
100
AcDbEntity
  8
RACCORDO
100
AcDbPolyline
 62
7
  6
CONTINUOUS
 90
43
 70
0
 10
-2.0629277289
 20
-14.0178285408
 10
-2.0924668618
 20
-14.0330385241
 10
-2.1235634772
 20
-14.0458951935
 10
-2.156133228
 20
-14.0562837949
 10
-2.1901030007
 20
-14.064103612
 10
-2.2253587686
 20
-14.0692555765
 10
-2.2617532651
 20
-14.0716572216
 10
-2.2991966256
 20
-14.0712490236
 10
-2.3375932189
 20
-14.0679789131
 10
-2.3767984941
 20
-14.0618121498
 10
-2.4168009
 20
-14.0526999744
 10
-2.4574393653
 20
-14.0406260691
 10
-2.4983410202
 20
-14.025682013
 10
-2.5393858283
 20
-14.0079201555
 10
-2.5805046443
 20
-13.9873747297
 10
-2.6213868989
 20
-13.9642197733
 10
-2.6618814461
 20
-13.9385822543
 10
-2.7019446858
 20
-13.910527091
 10
-2.7414171448
 20
-13.8802003881
 10
-2.7801795247
 20
-13.8477334904
 10
-2.8181589245
 20
-13.8132241132
 10
-2.8552581105
 20
-13.7767923381
 10
-2.8913752012
 20
-13.7385686156
 10
-2.9264265826
 20
-13.6986695767
 10
-2.9603373842
 20
-13.6572035727
 10
-2.9930179637
 20
-13.6142993704
 10
-3.0243820653
 20
-13.5700873541
 10
-3.0543576014
 20
-13.5246823333
 10
-3.0828624202
 20
-13.4782177817
 10
-3.1098167511
 20
-13.4308304511
 10
-3.1351528526
 20
-13.3826418895
 10
-3.1587953375
 20
-13.3337934086
 10
-3.180675351
 20
-13.2844217104
 10
-3.2007366386
 20
-13.2346399689
 10
-3.2189157962
 20
-13.1845812413
 10
-3.2351476747
 20
-13.1343932383
 10
-3.2493766499
 20
-13.0842060652
 10
-3.2615483752
 20
-13.0341528487
 10
-3.2716084241
 20
-12.9843799837
 10
-3.2795077372
 20
-12.9350275031
 10
-3.2852013048
 20
-12.8862291307
 10
-3.2886464135
 20
-12.8381205977
 10
-3.2898031298
 20
-12.790839555
  0
LWPOLYLINE
  5
252
100
AcDbEntity
  8
0
100
AcDbPolyline
 62
250
  6
CONTINUOUS
 90
37
 70
0
 10
-1.9718869985
 20
-14.2032229262
 10
-2.0012387305
 20
-14.2183042799
 10
-2.0544618539
 20
-14.2381663544
 10
-2.1114384564
 20
-14.2505774735
 10
-2.1717629665
 20
-14.2554481134
 10
-2.2350012292
 20
-14.2527380822
 10
-2.3007290758
 20
-14.2424775015
 10
-2.3684856937
 20
-14.2247378167
 10
-2.4377866047
 20
-14.1996385283
 10
-2.5081529572
 20
-14.1673615107
 10
-2.579263027
 20
-14.1280375947
 10
-2.6504450032
 20
-14.0820063213
 10
-2.7206988147
 20
-14.0299768202
 10
-2.7898793969
 20
-13.9721779784
 10
-2.857209676
 20
-13.9093460819
 10
-2.9208998342
 20
-13.8434572999
 10
-2.980464975
 20
-13.7756612514
 10
-3.0360385194
 20
-13.7064288612
 10
-3.0870412534
 20
-13.6370474392
 10
-3.1333021789
 20
-13.5685500753
 10
-3.1751852219
 20
-13.5012170474
 10
-3.2130213588
 20
-13.4351328717
 10
-3.2469423818
 20
-13.3707476591
 10
-3.2771607721
 20
-13.3083848559
 10
-3.3040723047
 20
-13.2477999762
 10
-3.3278728862
 20
-13.1891453149
 10
-3.3487141256
 20
-13.1326948762
 10
-3.3668577495
 20
-13.078309374
 10
-3.3824731733
 20
-13.0261056367
 10
-3.3957379148
 20
-12.9761840762
 10
-3.4068749969
 20
-12.9283436116
 10
-3.4160358746
 20
-12.8826384608
 10
-3.4233776396
 20
-12.8391011398
 10
-3.4290782739
 20
-12.7974852593
 10
-3.4332701004
 20
-12.7577177948
 10
-3.4360688187
 20
-12.7198892707
 10
-3.4375992794
 20
-12.6839904004
  0
LWPOLYLINE
  5
253
100
AcDbEntity
  8
RACCORDO
100
AcDbPolyline
 62
250
  6
CONTINUOUS
 90
16
 70
0
 10
4.850618323
 20
11.0402950296
 10
4.8890565084
 20
11.0201637136
 10
4.9308675397
 20
11.002251517
 10
4.9756034466
 20
10.9867503539
 10
5.0227849212
 20
10.9738263065
 10
5.0719064534
 20
10.9636178452
 10
5.122441747
 20
10.9562343451
 10
5.1738493586
 20
10.9517549144
 10
5.2255784984
 20
10.9502275463
 10
5.2770749322
 20
10.9516686055
 10
5.3277869184
 20
10.9560626521
 10
5.3771711207
 20
10.9633626077
 10
5.4246984285
 20
10.9734902592
 10
5.4698596263
 20
10.9863370974
 10
5.5121708498
 20
11.0017654791
 10
5.5511787694
 20
11.019610102
  0
LINE
  5
254
100
AcDbEntity
  8
RACCORDO
100
AcDbLine
 62
250
  6
CONTINUOUS
 10
-9.8363922177
 20
19.5203724773
 11
4.8506017282
 21
11.0402862443
  0
LINE
  5
255
100
AcDbEntity
  8
RACCORDO
100
AcDbLine
 62
250
  6
CONTINUOUS
 10
-9.1544108216
 20
20.7033279638
 11
5.5445919614
 21
12.2163079787
  0
LWPOLYLINE
  5
256
100
AcDbEntity
  8
RACCORDO
100
AcDbPolyline
 62
250
  6
CONTINUOUS
 90
16
 70
0
 10
5.5445919614
 20
12.2163079787
 10
5.5809383422
 20
12.1923826957
 10
5.6169880762
 20
12.1643093246
 10
5.6523464245
 20
12.1323952643
 10
5.6866262186
 20
12.0969899689
 10
5.7194521003
 20
12.0584811207
 10
5.7504646311
 20
12.0172903855
 10
5.7793242287
 20
11.9738687955
 10
5.8057148851
 20
11.9286918101
 10
5.8293476266
 20
11.8822541104
 10
5.8499636786
 20
11.8350641817
 10
5.8673372984
 20
11.7876387465
 10
5.8812782477
 20
11.7404971058
 10
5.8916338752
 20
11.6941554531
 10
5.8982907885
 20
11.6491212223
 10
5.9011760954
 20
11.6058875311
  0
LINE
  5
257
100
AcDbEntity
  8
RACCORDO
100
AcDbLine
 62
7
  6
CONTINUOUS
 10
-4.9198576977
 20
23.365486896
 11
9.9296000864
 21
14.7915960788
  0
LWPOLYLINE
  5
258
100
AcDbEntity
  8
RACCORDO
100
AcDbPolyline
 62
250
  6
CONTINUOUS
 90
9
 70
0
 10
5.7872544734
 20
-23.3132082751
 10
5.8057171549
 20
-23.3019026035
 10
5.8293495999
 20
-23.2819552697
 10
5.8499652731
 20
-23.2575084905
 10
5.8673384748
 20
-23.2288299959
 10
5.8812790073
 20
-23.1962338564
 10
5.8916342669
 20
-23.1600770306
 10
5.8982909109
 20
-23.1207554528
 10
5.9011760954
 20
-23.078699704
  0
LINE
  5
259
100
AcDbEntity
  8
RACCORDO
100
AcDbLine
 62
250
  6
CONTINUOUS
 10
10.2830457874
 20
-20.7656886509
 11
5.9011760954
 21
-23.078699704
  0
LINE
  5
25A
100
AcDbEntity
  8
RACCORDO
100
AcDbLine
 62
7
  6
CONTINUOUS
 10
10.1739873096
 20
-20.9976301656
 11
5.7872544734
 21
-23.3132082751
  0
LWPOLYLINE
  5
25B
100
AcDbEntity
  8
RACCORDO
100
AcDbPolyline
 62
250
  6
CONTINUOUS
 90
19
 70
0
 10
5.9011760954
 20
-23.078699704
 10
5.8709698194
 20
-23.0931646267
 10
5.8414122417
 20
-23.104534894
 10
5.8125033624
 20
-23.1128105059
 10
5.7840392534
 20
-23.1180109246
 10
5.7562238428
 20
-23.1201166879
 10
5.7296689147
 20
-23.1190694091
 10
5.7044137881
 20
-23.1147987752
 10
5.680419144
 20
-23.1073750993
 10
5.6581788097
 20
-23.0969509336
 10
5.6377287799
 20
-23.0834635488
 10
5.6190330599
 20
-23.0669756743
 10
5.6024774926
 20
-23.0478280509
 10
5.5881047741
 20
-23.0259507831
 10
5.5758722083
 20
-23.0014137665
 10
5.5660375494
 20
-22.9747674281
 10
5.5586867158
 20
-22.9461952437
 10
5.5537337892
 20
-22.9155137375
 10
5.5511787696
 20
-22.8827229096
  0
ELLIPSE
  5
25C
100
AcDbEntity
  8
RACCORDO
100
AcDbEllipse
 62
7
  6
CONTINUOUS
 10
-4.919696152
 20
22.9570185432
 30
0.0
 11
-0.2500597015
 21
0.4332530584
 31
0.0
 40
0.5770679649
 41
-0.7850277811
 42
0.0218062175
  0
ELLIPSE
  5
25D
100
AcDbEntity
  8
RACCORDO
100
AcDbEllipse
 62
7
  6
CONTINUOUS
 10
9.9294385407
 20
-20.5613336919
 30
0.0
 11
-0.2500597015
 21
0.4332530584
 31
0.0
 40
0.5770679649
 41
-3.1633988709
 42
-2.3562809586
  0
ELLIPSE
  5
25E
100
AcDbEntity
  8
RACCORDO
100
AcDbEllipse
 62
7
  6
CONTINUOUS
 10
9.9294385407
 20
14.3833142749
 30
0.0
 11
-0.2499453902
 21
0.4330552278
 31
0.0
 40
0.5775954737
 41
-2.3558238482
 42
-0.7854843722
  0
ENDSEC
  0
SECTION
  2
OBJECTS
  0
DICTIONARY
  5
C
100
AcDbDictionary
280
0
281
1
  3
ACAD_GROUP
350
D
  3
ACAD_MLINESTYLE
350
17
  3
ACAD_LAYOUT
350
1A
  3
ACAD_PLOTSETTINGS
350
19
  3
ACAD_PLOTSTYLENAME
350
E
  0
DICTIONARY
  5
D
102
{ACAD_REACTORS
330
C
102
}
100
AcDbDictionary
280
0
281
1
  0
ACDBDICTIONARYWDFLT
  5
E
102
{ACAD_REACTORS
330
C
102
}
100
AcDbDictionary
281
1
  3
Normal
350
F
100
AcDbDictionaryWithDefault
340
F
  0
DICTIONARY
  5
17
102
{ACAD_REACTORS
330
C
102
}
100
AcDbDictionary
280
0
281
1
  3
Standard
350
18
  0
DICTIONARY
  5
19
102
{ACAD_REACTORS
330
C
102
}
100
AcDbDictionary
281
1
  0
DICTIONARY
  5
1A
102
{ACAD_REACTORS
330
C
102
}
100
AcDbDictionary
281
1
  3
Model
350
25F
  3
Layout1
350
260
  0
ACDBPLACEHOLDER
  5
F
102
{ACAD_REACTORS
330
E
102
}
  0
MLINESTYLE
  5
18
102
{ACAD_REACTORS
330
17
102
}
100
AcDbMlineStyle
  2
STANDARD
 70
0
  3

 62
256
 51
90.0
 52
90.0
 71
2
 49
0.5
 62
256
  6
BYLAYER
 49
-0.5
 62
256
  6
BYLAYER
  0
LAYOUT
  5
25F
102
{ACAD_REACTORS
330
1A
102
}
100
AcDbPlotSettings
  1

  2
none_device
  4
ISO_A4_(297.00_x_210.00_MM)
  6

 40
0.0
 41
0.0
 42
0.0
 43
0.0
 44
297.0
 45
210.0
 46
0.0
 47
0.0
 48
0.0
 49
0.0
140
0.0
141
0.0
142
1.0
143
1.0
 70
1024
 72
1
 73
0
 74
0
  7

 75
0
147
1.0
148
0.0
149
0.0
100
AcDbLayout
  1
Model
 70
0
 71
0
 10
0.0
 20
0.0
 11
297.0
 21
210.0
 12
0.0
 22
0.0
 32
0.0
 14
0.0
 24
0.0
 34
0.0
 15
0.0
 25
0.0
 35
0.0
146
0.0
 13
0.0
 23
0.0
 33
0.0
 16
1.0
 26
0.0
 36
0.0
 17
0.0
 27
1.0
 37
0.0
 76
0
330
214
345
0
346
0
  0
LAYOUT
  5
260
102
{ACAD_REACTORS
330
1A
102
}
100
AcDbPlotSettings
  1

  2
none_device
  4
ISO_A4_(297.00_x_210.00_MM)
  6

 40
0.0
 41
0.0
 42
0.0
 43
0.0
 44
297.0
 45
210.0
 46
0.0
 47
0.0
 48
0.0
 49
0.0
140
0.0
141
0.0
142
1.0
143
1.0
 70
0
 72
1
 73
0
 74
0
  7

 75
0
147
1.0
148
0.0
149
0.0
100
AcDbLayout
  1
Layout1
 70
0
 71
1
 10
0.0
 20
0.0
 11
297.0
 21
210.0
 12
0.0
 22
0.0
 32
0.0
 14
0.0
 24
0.0
 34
0.0
 15
0.0
 25
0.0
 35
0.0
146
0.0
 13
0.0
 23
0.0
 33
0.0
 16
1.0
 26
0.0
 36
0.0
 17
0.0
 27
1.0
 37
0.0
 76
0
330
215
345
0
346
0
  0
ENDSEC
  0
EOF
