  0
SECTION
  2
HEADER
  9
$ACADVER
  1
AC1024
  9
$DWGCODEPAGE
  3
ANSI_1252
  9
$EXTMAX
 10
297.0
 20
210.0
 30
0.0
  9
$EXTMIN
 10
0.0
 20
0.0
 30
0.0
  9
$LIMMIN
 10
0.0
 20
0.0
  9
$LIMMAX
 10
297.0
 20
210.0
  9
$VIEWCTR
 10
148.5
 20
105.0
  9
$VIEWSIZE
 40
210.0
  9
$CLAYER
  8
0
  9
$LTSCALE
 40
16.335
  9
$CELTYPE
  6
BYLAYER
  9
$DIMSCALE
 40
1.0
  9
$DIMASZ
 40
3.0
  9
$DIMEXO
 40
0.5
  9
$DIMDLI
 40
11.286
  9
$DIMEXE
 40
1.5
  9
$DIMCEN
 40
2.673
  9
$DIMLFAC
 40
1.0
  9
$DIMBLK
  1
_FILLED
  9
$DIMALT
 70
0
  9
$DIMALTF
 40
0.0393700787
  9
$DIMTXT
 40
3.0
  9
$DIMTOL
 70
1
  9
$DIMLIM
 70
0
  9
$DIMTFAC
 40
1.0
  9
$DIMTP
 40
0.01
  9
$DIMTM
 40
0.01
  9
$DIMGAP
 40
0.625
  9
$DIMDSEP
 70
44
  9
$AUNITS
 70
0
  9
$PDMODE
 70
3
  9
$PDSIZE
 40
3.0
  9
$HANDSEED
  5
2AB
  9
$TILEMODE
 70
1
  9
$MEASUREMENT
 70
1
  9
$INSUNITS
 70
4
  0
ENDSEC
  0
SECTION
  2
CLASSES
  0
CLASS
  1
ACDBDICTIONARYWDFLT
  2
AcDbDictionaryWithDefault
  3
AutoCAD 2000
 90
0
 91
1
280
0
281
0
  0
CLASS
  1
ACDBPLACEHOLDER
  2
AcDbPlaceHolder
  3
AutoCAD 2000
 90
0
 91
1
280
0
281
0
  0
CLASS
  1
LAYOUT
  2
AcDbLayout
  3
AutoCAD 2000
 90
0
 91
0
280
0
281
0
  0
ENDSEC
  0
SECTION
  2
TABLES
  0
TABLE
  2
VPORT
  5
8
100
AcDbSymbolTable
 70
2
  0
VPORT
  5
1F4
100
AcDbSymbolTableRecord
100
AcDbViewportTableRecord
  2
*ACTIVE
 70
0
 10
0.0
 20
0.0
 11
1.0
 21
1.0
 12
148.5
 22
105.0
 13
0.0
 23
0.0
 14
1.0
 24
1.0
 15
0.0
 25
0.0
 16
0.0
 26
0.0
 36
1.0
 17
0.0
 27
0.0
 37
0.0
 40
210.0
 41
1.4142857143
 42
50.0
 43
0.0
 44
0.0
 50
0.0
 51
0.0
 71
0
 72
100
 73
1
 74
1
 75
0
 76
0
 77
0
 78
0
  0
ENDTAB
  0
TABLE
  2
LTYPE
  5
5
100
AcDbSymbolTable
 70
6
  0
LTYPE
  5
14
100
AcDbSymbolTableRecord
100
AcDbLinetypeTableRecord
  2
BYBLOCK
 70
0
  3

 72
65
 73
0
 40
0.0
  0
LTYPE
  5
15
100
AcDbSymbolTableRecord
100
AcDbLinetypeTableRecord
  2
BYLAYER
 70
0
  3

 72
65
 73
0
 40
0.0
  0
LTYPE
  5
16
100
AcDbSymbolTableRecord
100
AcDbLinetypeTableRecord
  2
CONTINUOUS
 70
64
  3
Solid line
 72
65
 73
0
 40
0.0
  0
LTYPE
  5
1F5
100
AcDbSymbolTableRecord
100
AcDbLinetypeTableRecord
  2
CENTER
 70
64
  3
____ _ ____ _ ____ _ ____ _ ____ _ ____ _ ____
 72
65
 73
4
 40
0.6
 49
0.375
 74
0
 49
-0.075
 74
0
 49
0.075
 74
0
 49
-0.075
 74
0
  0
LTYPE
  5
1F6
100
AcDbSymbolTableRecord
100
AcDbLinetypeTableRecord
  2
HIDDEN
 70
64
  3
- - - - - - - - - - - - - - - - - - - -
 72
65
 73
2
 40
0.2
 49
0.1
 74
0
 49
-0.1
 74
0
  0
LTYPE
  5
1F7
100
AcDbSymbolTableRecord
100
AcDbLinetypeTableRecord
  2
PHANTOM
 70
64
  3
_____ _ _ _____ _ _ _____ _ _ _____
 72
65
 73
6
 40
0.8
 49
0.45
 74
0
 49
-0.05
 74
0
 49
0.1
 74
0
 49
-0.05
 74
0
 49
0.1
 74
0
 49
-0.05
 74
0
  0
LTYPE
  5
1F8
100
AcDbSymbolTableRecord
100
AcDbLinetypeTableRecord
  2
DOT
 70
64
  3
. . . . . . . . . . . . . . . . . . . .
 72
65
 73
2
 40
0.2
 49
0.1
 74
0
 49
-0.1
 74
0
  0
LTYPE
  5
1F9
100
AcDbSymbolTableRecord
100
AcDbLinetypeTableRecord
  2
DASHED
 70
64
  3
- - - - - - - - - - - - - - - - - - - -
 72
65
 73
2
 40
0.2
 49
0.1
 74
0
 49
-0.1
 74
0
  0
ENDTAB
  0
TABLE
  2
LAYER
  5
2
100
AcDbSymbolTable
 70
36
  0
LAYER
  5
10
100
AcDbSymbolTableRecord
100
AcDbLayerTableRecord
  2
0
 70
0
 62
7
  6
CONTINUOUS
370
-3
390
F
  0
LAYER
  5
1FA
100
AcDbSymbolTableRecord
100
AcDbLayerTableRecord
  2
DEFAULT_1
 70
0
 62
7
  6
CENTER
370
-3
390
F
  0
LAYER
  5
1FB
100
AcDbSymbolTableRecord
100
AcDbLayerTableRecord
  2
DEFAULT_2
 70
0
 62
7
  6
HIDDEN
370
-3
390
F
  0
LAYER
  5
1FC
100
AcDbSymbolTableRecord
100
AcDbLayerTableRecord
  2
DEFAULT_3
 70
0
 62
7
  6
PHANTOM
370
-3
390
F
  0
LAYER
  5
1FD
100
AcDbSymbolTableRecord
100
AcDbLayerTableRecord
  2
ASSI
 70
0
 62
7
  6
CONTINUOUS
370
-3
390
F
  0
LAYER
  5
1FE
100
AcDbSymbolTableRecord
100
AcDbLayerTableRecord
  2
COORDINATE
 70
0
 62
7
  6
CONTINUOUS
370
-3
390
F
  0
LAYER
  5
1FF
100
AcDbSymbolTableRecord
100
AcDbLayerTableRecord
  2
COORD_ORIGINE
 70
0
 62
7
  6
CONTINUOUS
370
-3
390
F
  0
LAYER
  5
200
100
AcDbSymbolTableRecord
100
AcDbLayerTableRecord
  2
COPY_PUBLISH
 70
0
 62
7
  6
CONTINUOUS
370
-3
390
F
  0
LAYER
  5
201
100
AcDbSymbolTableRecord
100
AcDbLayerTableRecord
  2
COSMETIC
 70
0
 62
7
  6
CONTINUOUS
370
-3
390
F
  0
LAYER
  5
202
100
AcDbSymbolTableRecord
100
AcDbLayerTableRecord
  2
COSMETICI
 70
0
 62
7
  6
CONTINUOUS
370
-3
390
F
  0
LAYER
  5
203
100
AcDbSymbolTableRecord
100
AcDbLayerTableRecord
  2
CURVE
 70
0
 62
7
  6
CONTINUOUS
370
-3
390
F
  0
LAYER
  5
204
100
AcDbSymbolTableRecord
100
AcDbLayerTableRecord
  2
DRAFT
 70
0
 62
7
  6
CONTINUOUS
370
-3
390
F
  0
LAYER
  5
205
100
AcDbSymbolTableRecord
100
AcDbLayerTableRecord
  2
IMPORT_IGES
 70
0
 62
7
  6
CONTINUOUS
370
-3
390
F
  0
LAYER
  5
206
100
AcDbSymbolTableRecord
100
AcDbLayerTableRecord
  2
INTFCLR_1
 70
0
 62
7
  6
CONTINUOUS
370
-3
390
F
  0
LAYER
  5
207
100
AcDbSymbolTableRecord
100
AcDbLayerTableRecord
  2
NOTE
 70
0
 62
7
  6
CONTINUOUS
370
-3
390
F
  0
LAYER
  5
208
100
AcDbSymbolTableRecord
100
AcDbLayerTableRecord
  2
PIANI
 70
0
 62
7
  6
CONTINUOUS
370
-3
390
F
  0
LAYER
  5
209
100
AcDbSymbolTableRecord
100
AcDbLayerTableRecord
  2
PIANI_ORIGINE
 70
0
 62
7
  6
CONTINUOUS
370
-3
390
F
  0
LAYER
  5
20A
100
AcDbSymbolTableRecord
100
AcDbLayerTableRecord
  2
PUNTI
 70
0
 62
7
  6
CONTINUOUS
370
-3
390
F
  0
LAYER
  5
20B
100
AcDbSymbolTableRecord
100
AcDbLayerTableRecord
  2
RACCORDO
 70
0
 62
7
  6
CONTINUOUS
370
-3
390
F
  0
LAYER
  5
20C
100
AcDbSymbolTableRecord
100
AcDbLayerTableRecord
  2
SIMBOLI
 70
0
 62
7
  6
CONTINUOUS
370
-3
390
F
  0
LAYER
  5
20D
100
AcDbSymbolTableRecord
100
AcDbLayerTableRecord
  2
SMUSSO
 70
0
 62
7
  6
CONTINUOUS
370
-3
390
F
  0
LAYER
  5
20E
100
AcDbSymbolTableRecord
100
AcDbLayerTableRecord
  2
SNAPLINE
 70
0
 62
7
  6
CONTINUOUS
370
-3
390
F
  0
LAYER
  5
20F
100
AcDbSymbolTableRecord
100
AcDbLayerTableRecord
  2
SUPERFICI
 70
0
 62
7
  6
CONTINUOUS
370
-3
390
F
  0
LAYER
  5
210
100
AcDbSymbolTableRecord
100
AcDbLayerTableRecord
  2
TRASH
 70
0
 62
7
  6
CONTINUOUS
370
-3
390
F
  0
LAYER
  5
211
100
AcDbSymbolTableRecord
100
AcDbLayerTableRecord
  2
XSEC_DATUMS
 70
0
 62
7
  6
CONTINUOUS
370
-3
390
F
  0
ENDTAB
  0
TABLE
  2
STYLE
  5
3
100
AcDbSymbolTable
 70
1
  0
STYLE
  5
11
100
AcDbSymbolTableRecord
100
AcDbTextStyleTableRecord
  2
STANDARD
 70
0
 40
0.0
 41
0.8
 50
0.0
 71
0
 42
0.2
  3
txt
  4

  0
STYLE
  5
212
100
AcDbSymbolTableRecord
100
AcDbTextStyleTableRecord
  2
TEXTSTYLE_1
 70
0
 40
0.0
 41
0.8
 50
0.0
 71
0
 42
0.2
  3
gdt
  4

  0
ENDTAB
  0
TABLE
  2
VIEW
  5
6
100
AcDbSymbolTable
 70
0
  0
ENDTAB
  0
TABLE
  2
UCS
  5
7
100
AcDbSymbolTable
 70
0
  0
ENDTAB
  0
TABLE
  2
APPID
  5
9
100
AcDbSymbolTable
 70
1
  0
APPID
  5
213
100
AcDbSymbolTableRecord
100
AcDbRegAppTableRecord
  2
ACAD
 70
0
  0
ENDTAB
  0
TABLE
  2
BLOCK_RECORD
  5
1
100
AcDbSymbolTable
 70
0
  0
BLOCK_RECORD
  5
214
100
AcDbSymbolTableRecord
100
AcDbBlockTableRecord
  2
*Model_Space
  0
BLOCK_RECORD
  5
215
100
AcDbSymbolTableRecord
100
AcDbBlockTableRecord
  2
*Paper_Space
  0
BLOCK_RECORD
  5
216
100
AcDbSymbolTableRecord
100
AcDbBlockTableRecord
  2
_FILLED
  0
ENDTAB
  0
TABLE
  2
DIMSTYLE
  5
A
100
AcDbSymbolTable
 70
1
100
AcDbDimStyleTable
 71
0
  0
DIMSTYLE
105
217
100
AcDbSymbolTableRecord
100
AcDbDimStyleTableRecord
  2
STANDARD
 70
0
  3

  4

 40
1.0
 41
3.0
 42
0.5
 43
0.38
 44
1.5
 45
0.0
 46
0.0
 47
0.01
 48
0.01
140
3.0
141
0.09
142
0.0
143
25.4
144
1.0
145
0.0
146
1.0
147
0.625
 71
1
 72
0
 73
0
 74
0
 75
0
 76
0
 77
1
 78
8
 79
2
170
0
171
1
172
0
173
0
174
0
175
0
176
0
177
0
178
0
270
2
179
2
271
2
272
2
273
2
274
2
275
0
280
0
281
0
282
0
283
1
284
8
285
0
286
0
287
3
288
0
340
11
278
44
341
216
342
216
343
216
344
216
  0
ENDTAB
  0
ENDSEC
  0
SECTION
  2
BLOCKS
  0
BLOCK
  5
20
100
AcDbEntity
  8
0
100
AcDbBlockBegin
  2
*Model_Space
 70
0
 10
0.0
 20
0.0
 30
0.0
  3
*Model_Space
  1

  0
ENDBLK
  5
21
100
AcDbEntity
  8
0
100
AcDbBlockEnd
  0
BLOCK
  5
1C
100
AcDbEntity
  8
0
100
AcDbBlockBegin
  2
*Paper_Space
 70
0
 10
0.0
 20
0.0
 30
0.0
  3
*Paper_Space
  1

  0
ENDBLK
  5
1D
100
AcDbEntity
  8
0
100
AcDbBlockEnd
  0
BLOCK
  5
218
100
AcDbEntity
  8
0
100
AcDbBlockBegin
  2
_FILLED
 70
64
 10
0.0
 20
0.0
  3
_FILLED
  1

  0
SOLID
  5
219
100
AcDbEntity
  8
0
  6
BYBLOCK
 62
0
100
AcDbTrace
 10
0.0
 20
0.0
 11
-1.0
 21
0.3166666667
 12
-1.0
 22
-0.3166666667
 13
-1.0
 23
-0.3166666667
  0
ENDBLK
  5
21A
100
AcDbEntity
  8
0
  6
BYBLOCK
 62
0
100
AcDbBlockEnd
  0
ENDSEC
  0
SECTION
  2
ENTITIES
  0
LWPOLYLINE
  5
21B
100
AcDbEntity
  8
RACCORDO
100
AcDbPolyline
 62
7
  6
CONTINUOUS
 90
16
 70
0
 10
-7.8805182851
 20
22.5980679519
 10
-7.9346537295
 20
22.5615509173
 10
-7.9996343314
 20
22.5107112946
 10
-8.0607392718
 20
22.4551777509
 10
-8.1181776667
 20
22.3952042457
 10
-8.1719002471
 20
22.3311112695
 10
-8.2215446279
 20
22.2636120396
 10
-8.2670364722
 20
22.1929818801
 10
-8.3082724651
 20
22.1194410713
 10
-8.3448220181
 20
22.0437777176
 10
-8.3765390731
 20
21.9661902303
 10
-8.403237402
 20
21.8868859882
 10
-8.4245037007
 20
21.8065623472
 10
-8.4400788902
 20
21.7254427825
 10
-8.4496624515
 20
21.6434731493
 10
-8.4521888929
 20
21.5985212916
  0
LINE
  5
21C
100
AcDbEntity
  8
RACCORDO
100
AcDbLine
 62
7
  6
CONTINUOUS
 10
-7.8806156549
 20
22.5980256645
 11
-3.6430454255
 21
25.2620813764
  0
LINE
  5
21D
100
AcDbEntity
  8
RACCORDO
100
AcDbLine
 62
250
  6
CONTINUOUS
 10
-7.6237533169
 20
22.5774787554
 11
-3.3877552387
 21
25.2405460947
  0
LWPOLYLINE
  5
21E
100
AcDbEntity
  8
RACCORDO
100
AcDbPolyline
 62
250
  6
CONTINUOUS
 90
9
 70
0
 10
-7.8805267818
 20
22.5980814971
 10
-7.8619838007
 20
22.6081223372
 10
-7.8333397968
 20
22.6183420685
 10
-7.8022995135
 20
22.6237042866
 10
-7.7692028372
 20
22.624150276
 10
-7.7344121711
 20
22.6196751534
 10
-7.6983084677
 20
22.6103279206
 10
-7.6612870567
 20
22.5962109283
 10
-7.6237533169
 20
22.5774787554
  0
LWPOLYLINE
  5
21F
100
AcDbEntity
  8
RACCORDO
100
AcDbPolyline
 62
250
  6
CONTINUOUS
 90
4
 70
0
 10
-7.796902546
 20
22.4449626052
 10
-7.7399841753
 20
22.4942697857
 10
-7.6821321529
 20
22.5385439319
 10
-7.6237533169
 20
22.5774787554
  0
LINE
  5
220
100
AcDbEntity
  8
0
100
AcDbLine
 62
7
  6
CONTINUOUS
 10
2.5796500591
 20
-15.9077135607
 11
2.7487974383
 21
-15.8662447023
  0
LINE
  5
221
100
AcDbEntity
  8
0
100
AcDbLine
 62
7
  6
CONTINUOUS
 10
2.7219206031
 20
-15.8290709781
 11
2.8743627611
 21
-15.7926317333
  0
LINE
  5
222
100
AcDbEntity
  8
0
100
AcDbLine
 62
7
  6
CONTINUOUS
 10
2.5637980729
 20
-15.8516687241
 11
2.7219206031
 21
-15.8290709781
  0
LINE
  5
223
100
AcDbEntity
  8
0
100
AcDbLine
 62
7
  6
CONTINUOUS
 10
2.4859495971
 20
-15.8558032617
 11
2.5637980729
 21
-15.8516687241
  0
LWPOLYLINE
  5
224
100
AcDbEntity
  8
0
100
AcDbPolyline
 62
7
  6
CONTINUOUS
 90
3
 70
0
 10
2.2344495726
 20
-15.9385535353
 10
2.4044315856
 20
-15.9318927897
 10
2.5796500591
 20
-15.9077135607
  0
LWPOLYLINE
  5
225
100
AcDbEntity
  8
0
100
AcDbPolyline
 62
250
  6
CONTINUOUS
 90
5
 70
0
 10
1.1770873358
 20
-16.2240733328
 10
0.9903948092
 20
-16.1574906548
 10
0.8107264826
 20
-16.0822998314
 10
0.6355878512
 20
-15.9969235169
 10
0.46497753
 20
-15.9013625705
  0
LWPOLYLINE
  5
226
100
AcDbEntity
  8
RACCORDO
100
AcDbPolyline
 62
7
  6
CONTINUOUS
 90
12
 70
0
 10
6.589585431
 20
-21.3653104205
 10
6.6454327526
 20
-21.3941557206
 10
6.7066253381
 20
-21.4186940397
 10
6.7701753123
 20
-21.4372484474
 10
6.8354844446
 20
-21.4496500795
 10
6.9029824528
 20
-21.4558853464
 10
6.9722635538
 20
-21.4556766861
 10
7.0426799379
 20
-21.4487965646
 10
7.1145090251
 20
-21.4349292766
 10
7.1876013865
 20
-21.4136800804
 10
7.2612324841
 20
-21.3847972657
 10
7.3176951496
 20
-21.357363014
  0
LWPOLYLINE
  5
227
100
AcDbEntity
  8
RACCORDO
100
AcDbPolyline
 62
250
  6
CONTINUOUS
 90
16
 70
0
 10
6.3812049262
 20
-20.9399864264
 10
6.419643862
 20
-20.9598753022
 10
6.4614558381
 20
-20.977184361
 10
6.5061928594
 20
-20.9917281446
 10
6.5533755906
 20
-21.0033508234
 10
6.6024984916
 20
-21.0119278661
 10
6.6530352345
 20
-21.017367374
 10
6.7044443425
 20
-21.0196110652
 10
6.7561749922
 20
-21.0186348998
 10
6.8076729147
 20
-21.014449337
 10
6.8583863349
 20
-21.0070992229
 10
6.9077718831
 20
-20.9966633105
 10
6.9553004173
 20
-20.9832534155
 10
7.0004626922
 20
-20.9670132185
 10
7.0427748162
 20
-20.9481167251
 10
7.0817834353
 20
-20.9267664022
  0
LINE
  5
228
100
AcDbEntity
  8
RACCORDO
100
AcDbLine
 62
7
  6
CONTINUOUS
 10
6.5895984365
 20
-21.3653280289
 11
-8.1010655358
 21
-12.8831227995
  0
LINE
  5
229
100
AcDbEntity
  8
RACCORDO
100
AcDbLine
 62
250
  6
CONTINUOUS
 10
6.3812049203
 20
-20.9399864301
 11
-8.3057376344
 21
-12.4599298696
  0
LINE
  5
22A
100
AcDbEntity
  8
RACCORDO
100
AcDbLine
 62
7
  6
CONTINUOUS
 10
-8.1010657614
 20
-12.8831226692
 11
-8.101165424
 21
-12.8830651019
  0
LINE
  5
22B
100
AcDbEntity
  8
RACCORDO
100
AcDbLine
 62
250
  6
CONTINUOUS
 10
-8.101165424
 20
-12.8830651019
 11
-8.111176646
 21
-12.8771526969
  0
LWPOLYLINE
  5
22C
100
AcDbEntity
  8
RACCORDO
100
AcDbPolyline
 62
250
  6
CONTINUOUS
 90
9
 70
0
 10
-8.1371869715
 20
-12.85894869
 10
-8.1734049517
 20
-12.8267354362
 10
-8.2056763647
 20
-12.7888574
 10
-8.233778387
 20
-12.7455650675
 10
-8.2575019729
 20
-12.6971663107
 10
-8.2766757476
 20
-12.6440133616
 10
-8.2911667804
 20
-12.5864855559
 10
-8.3008761696
 20
-12.5249809178
 10
-8.3057376344
 20
-12.4599298696
  0
LWPOLYLINE
  5
22D
100
AcDbEntity
  8
ASSI
100
AcDbPolyline
 62
250
  6
CONTINUOUS
 90
13
 70
0
 10
0.444675352
 20
-15.5189194881
 10
0.6380218393
 20
-15.6234626671
 10
0.828696474
 20
-15.7127210101
 10
1.0167025514
 20
-15.7866924631
 10
1.2029057234
 20
-15.8456116352
 10
1.3864535733
 20
-15.8892356738
 10
1.564775
 20
-15.9168446517
 10
1.7377496628
 20
-15.9281760097
 10
1.9055224501
 20
-15.9234770555
 10
2.0659209223
 20
-15.9027921671
 10
2.2188392258
 20
-15.8659111159
 10
2.3644152438
 20
-15.8130243148
 10
2.5008402829
 20
-15.7447782839
  0
LWPOLYLINE
  5
22E
100
AcDbEntity
  8
ASSI
100
AcDbPolyline
 62
7
  6
CONTINUOUS
 90
14
 70
0
 10
0.4653127822
 20
-15.5614543939
 10
0.5968651919
 20
-15.6342188184
 10
0.784860524
 20
-15.7271300255
 10
0.9712149348
 20
-15.8061364283
 10
1.1551279468
 20
-15.8708864374
 10
1.3360482412
 20
-15.9212413782
 10
1.5135983587
 20
-15.9571020343
 10
1.6872097108
 20
-15.9782831711
 10
1.8562482137
 20
-15.984668856
 10
2.020202268
 20
-15.9761832521
 10
2.1784676891
 20
-15.9527230054
 10
2.3303523474
 20
-15.914279763
 10
2.4751635145
 20
-15.8609738327
 10
2.5787905099
 20
-15.8112977119
  0
LINE
  5
22F
100
AcDbEntity
  8
0
100
AcDbLine
 62
250
  6
CONTINUOUS
 10
0.46497753
 20
-15.9013625705
 11
-2.504870951
 21
-14.1866092785
  0
LINE
  5
230
100
AcDbEntity
  8
0
100
AcDbLine
 62
250
  6
CONTINUOUS
 10
0.6038321911
 20
-15.6518252811
 11
-2.3660162899
 21
-13.9370719891
  0
LINE
  5
231
100
AcDbEntity
  8
ASSI
100
AcDbLine
 62
7
  6
CONTINUOUS
 10
-2.5045210368
 20
-13.8467186047
 11
0.4653274439
 21
-15.5614718965
  0
LINE
  5
232
100
AcDbEntity
  8
ASSI
100
AcDbLine
 62
250
  6
CONTINUOUS
 10
-2.525173129
 20
-13.8041661961
 11
0.444675352
 21
-15.5189194881
  0
LINE
  5
233
100
AcDbEntity
  8
0
100
AcDbLine
 62
250
  6
CONTINUOUS
 10
-2.3660162899
 20
-13.9370719891
 11
-2.5642647732
 21
-13.815674983
  0
LWPOLYLINE
  5
234
100
AcDbEntity
  8
0
100
AcDbPolyline
 62
250
  6
CONTINUOUS
 90
36
 70
0
 10
-2.504870951
 20
-14.1866092785
 10
-2.7133527881
 20
-14.0586996586
 10
-2.9198111349
 20
-13.9178499279
 10
-3.1242438932
 20
-13.7640587844
 10
-3.3274492018
 20
-13.5965944806
 10
-3.5286205433
 20
-13.4161835681
 10
-3.7253471359
 20
-13.2250111422
 10
-3.9175040353
 20
-13.0229989345
 10
-4.1052007173
 20
-12.8102156355
 10
-4.2863774332
 20
-12.5890664141
 10
-4.4609895227
 20
-12.3594523089
 10
-4.6290612412
 20
-12.1214596796
 10
-4.7886370938
 20
-11.8777722336
 10
-4.9396163876
 20
-11.6282790457
 10
-5.082077074
 20
-11.3730770483
 10
-5.2143343949
 20
-11.11516346
 10
-5.336276335
 20
-10.854489568
 10
-5.4479932215
 20
-10.5910908095
 10
-5.5481086343
 20
-10.3280936181
 10
-5.6364521426
 20
-10.0655006927
 10
-5.7131765614
 20
-9.8032986323
 10
-5.7773969572
 20
-9.544593801
 10
-5.8289730583
 20
-9.2894506373
 10
-5.8680342407
 20
-9.037798177
 10
-5.8941078328
 20
-8.7925444618
 10
-5.9070313506
 20
-8.553758405
 10
-5.9069642616
 20
-8.321369413
 10
-5.8939251319
 20
-8.0980813423
 10
-5.8677753488
 20
-7.8839853713
 10
-5.828658957
 20
-7.6789937852
 10
-5.7770268267
 20
-7.4855471561
 10
-5.7127219439
 20
-7.3037973912
 10
-5.6359145702
 20
-7.1336007577
 10
-5.5475540358
 20
-6.9769589329
 10
-5.4475214369
 20
-6.8340497516
 10
-5.3359548635
 20
-6.7047070892
  0
LWPOLYLINE
  5
235
100
AcDbEntity
  8
RACCORDO
100
AcDbPolyline
 62
250
  6
CONTINUOUS
 90
10
 70
0
 10
6.5894818409
 20
-21.3652607389
 10
6.5527389259
 20
-21.3407301712
 10
6.5158678541
 20
-21.3081374914
 10
6.4830232711
 20
-21.2699242449
 10
6.4544322365
 20
-21.2263519608
 10
6.4302946876
 20
-21.1777237756
 10
6.4107848989
 20
-21.1243856027
 10
6.3960391609
 20
-21.0667121919
 10
6.3861565743
 20
-21.0051026547
 10
6.3812049203
 20
-20.9399864301
  0
LINE
  5
236
100
AcDbEntity
  8
0
100
AcDbLine
 62
250
  6
CONTINUOUS
 10
-2.5642647732
 20
-13.815674983
 11
-2.6275265262
 21
-13.7725198591
  0
LINE
  5
237
100
AcDbEntity
  8
CURVE
100
AcDbLine
 62
250
  6
CONTINUOUS
 10
-2.9119262997
 20
-11.7487048906
 11
0.7110654013
 21
-13.840574892
  0
LWPOLYLINE
  5
238
100
AcDbEntity
  8
RACCORDO
100
AcDbPolyline
 62
7
  6
CONTINUOUS
 90
13
 70
0
 10
-8.4521551976
 20
-12.2570382907
 10
-8.4463624514
 20
-12.3324704687
 10
-8.4343234499
 20
-12.4063606939
 10
-8.4165349919
 20
-12.4762154281
 10
-8.3935117569
 20
-12.5415896975
 10
-8.3656337117
 20
-12.6025591182
 10
-8.3330425048
 20
-12.6595040821
 10
-8.2962105538
 20
-12.7120397258
 10
-8.2555401947
 20
-12.7599905838
 10
-8.2108653894
 20
-12.803719376
 10
-8.1626011012
 20
-12.8428630271
 10
-8.111176646
 20
-12.8771526969
 10
-8.1011308184
 20
-12.8830740142
  0
LINE
  5
239
100
AcDbEntity
  8
RACCORDO
100
AcDbLine
 62
250
  6
CONTINUOUS
 10
-8.4521632497
 20
-12.2570670253
 11
-8.4513529438
 21
-12.2688436563
  0
LWPOLYLINE
  5
23A
100
AcDbEntity
  8
RACCORDO
100
AcDbPolyline
 62
7
  6
CONTINUOUS
 90
10
 70
0
 10
-8.4521895598
 20
21.5987556868
 10
-8.5677371267
 20
17.8591013446
 10
-8.6574953906
 20
14.0171257129
 10
-8.7173264631
 20
10.1921742959
 10
-8.747222035
 20
6.3846211651
 10
-8.7471801149
 20
2.5947751196
 10
-8.7171999415
 20
-1.1770798638
 10
-8.6572819355
 20
-4.9306368732
 10
-8.5674328399
 20
-8.6655312328
 10
-8.4521632497
 20
-12.2570670253
  0
LWPOLYLINE
  5
23B
100
AcDbEntity
  8
RACCORDO
100
AcDbPolyline
 62
250
  6
CONTINUOUS
 90
16
 70
0
 10
-8.3057376344
 20
21.3944396527
 10
-8.3008761696
 20
21.46520682
 10
-8.2911667804
 20
21.5381206667
 10
-8.2766757477
 20
21.6126742314
 10
-8.2575019729
 20
21.6883587583
 10
-8.233778387
 20
21.7646379288
 10
-8.2056763646
 20
21.8409511789
 10
-8.1734049517
 20
21.9167507244
 10
-8.1371869715
 20
21.9915272797
 10
-8.0972588684
 20
22.064782665
 10
-8.0538945112
 20
22.1360172717
 10
-8.0074020489
 20
22.2047251206
 10
-7.9581023565
 20
22.270418647
 10
-7.9063422518
 20
22.3326413724
 10
-7.8524848777
 20
22.3909607543
 10
-7.796902546
 20
22.4449626052
  0
LWPOLYLINE
  5
23C
100
AcDbEntity
  8
RACCORDO
100
AcDbPolyline
 62
250
  6
CONTINUOUS
 90
8
 70
0
 10
-8.4513529438
 20
-12.2688436563
 10
-8.4455337568
 20
-12.2996428651
 10
-8.4344318275
 20
-12.3297927539
 10
-8.4181661077
 20
-12.3589702812
 10
-8.3969108767
 20
-12.3868628238
 10
-8.3708938739
 20
-12.4131715266
 10
-8.3403938589
 20
-12.4376145047
 10
-8.3057376246
 20
-12.4599298634
  0
LWPOLYLINE
  5
23D
100
AcDbEntity
  8
RACCORDO
100
AcDbPolyline
 62
250
  6
CONTINUOUS
 90
9
 70
0
 10
-8.4521888929
 20
21.5985212916
 10
-8.4513437019
 20
21.5766249714
 10
-8.4455238946
 20
21.548058702
 10
-8.4344214969
 20
21.5198504905
 10
-8.4181554632
 20
21.4923025677
 10
-8.3969000727
 20
21.4657100902
 10
-8.3708830619
 20
21.4403579775
 10
-8.3403831849
 20
21.4165178598
 10
-8.3057272263
 20
21.394445167
  0
LWPOLYLINE
  5
23E
100
AcDbEntity
  8
RACCORDO
100
AcDbPolyline
 62
250
  6
CONTINUOUS
 90
10
 70
0
 10
-8.3057376344
 20
-12.4599298696
 10
-8.4237554028
 20
-8.7703854128
 10
-8.5122776563
 20
-5.0620874095
 10
-8.5712967427
 20
-1.335350962
 10
-8.6008075606
 20
2.4095072484
 10
-8.6008075607
 20
6.1721691029
 10
-8.5712967429
 20
9.9523150739
 10
-8.5122776564
 20
13.7496240985
 10
-8.4237554029
 20
17.5637736044
 10
-8.3057376344
 20
21.3944396527
  0
LINE
  5
23F
100
AcDbEntity
  8
RACCORDO
100
AcDbLine
 62
250
  6
CONTINUOUS
 10
7.0751981264
 20
14.0904884132
 11
11.4617025455
 21
16.6666552775
  0
LINE
  5
240
100
AcDbEntity
  8
RACCORDO
100
AcDbLine
 62
250
  6
CONTINUOUS
 10
7.4317822604
 20
13.4800679656
 11
11.8151482465
 21
16.0543916476
  0
LWPOLYLINE
  5
241
100
AcDbEntity
  8
0
100
AcDbPolyline
 62
7
  6
CONTINUOUS
 90
3
 70
0
 10
-2.9200939754
 20
-6.6267776817
 10
-2.7349553016
 20
-6.7215695304
 10
-2.6482290768
 20
-6.7702732618
  0
LWPOLYLINE
  5
242
100
AcDbEntity
  8
ASSI
100
AcDbPolyline
 62
250
  6
CONTINUOUS
 90
12
 70
0
 10
-2.6785743739
 20
-7.0576141054
 10
-2.8723140341
 20
-6.9530690433
 10
-3.0637005523
 20
-6.8640351777
 10
-3.2527306273
 20
-6.7905105566
 10
-3.4402684577
 20
-6.7322614909
 10
-3.6254365875
 20
-6.689513824
 10
-3.8056165363
 20
-6.6629533023
 10
-3.9806627219
 20
-6.652832343
 10
-4.1506961858
 20
-6.658883968
 10
-4.3134975912
 20
-6.681014347
 10
-4.4689328519
 20
-6.7194144347
 10
-4.6171040784
 20
-6.7738742204
  0
LWPOLYLINE
  5
243
100
AcDbEntity
  8
ASSI
100
AcDbPolyline
 62
250
  6
CONTINUOUS
 90
13
 70
0
 10
-2.6078687491
 20
-6.9341664422
 10
-2.805004228
 20
-6.827692196
 10
-3.0013691672
 20
-6.7363447694
 10
-3.1961219849
 20
-6.6605641341
 10
-3.3884932077
 20
-6.6007081222
 10
-3.5775719533
 20
-6.5571133751
 10
-3.7623223714
 20
-6.5300335299
 10
-3.9418916558
 20
-6.5195816272
 10
-4.1155530135
 20
-6.525789328
 10
-4.2825054191
 20
-6.5486147578
 10
-4.4419944466
 20
-6.5879334103
 10
-4.5933575112
 20
-6.6435628955
 10
-4.7411999211
 20
-6.7183001933
  0
LINE
  5
244
100
AcDbEntity
  8
ASSI
100
AcDbLine
 62
7
  6
CONTINUOUS
 10
-4.6891180619
 20
-6.5431614557
 11
-4.5647891902
 21
-6.614947388
  0
LINE
  5
245
100
AcDbEntity
  8
ASSI
100
AcDbLine
 62
250
  6
CONTINUOUS
 10
0.2912741071
 20
-8.7723673974
 11
-2.6785743739
 21
-7.0576141054
  0
LINE
  5
246
100
AcDbEntity
  8
ASSI
100
AcDbLine
 62
250
  6
CONTINUOUS
 10
0.3619797319
 20
-8.6489197341
 11
-2.6078687491
 21
-6.9341664422
  0
LINE
  5
247
100
AcDbEntity
  8
0
100
AcDbLine
 62
250
  6
CONTINUOUS
 10
-4.4612260604
 20
-6.251967431
 11
-4.2867561231
 21
-6.2326526975
  0
LWPOLYLINE
  5
248
100
AcDbEntity
  8
0
100
AcDbPolyline
 62
7
  6
CONTINUOUS
 90
9
 70
0
 10
-4.2736753125
 20
-6.3620982477
 10
-4.1235219507
 20
-6.3468355364
 10
-3.9666776234
 20
-6.3451437235
 10
-3.8037632596
 20
-6.3572294842
 10
-3.6353200823
 20
-6.383262589
 10
-3.4619189099
 20
-6.4233690226
 10
-3.2843421726
 20
-6.477460736
 10
-3.1034688816
 20
-6.5453354859
 10
-2.9200939754
 20
-6.6267776817
  0
LWPOLYLINE
  5
249
100
AcDbEntity
  8
0
100
AcDbPolyline
 62
250
  6
CONTINUOUS
 90
6
 70
0
 10
-4.2867561231
 20
-6.2326526975
 10
-4.1047459699
 20
-6.2306061953
 10
-3.9165713532
 20
-6.2449839092
 10
-3.7287426507
 20
-6.2736231731
 10
-3.54094672
 20
-6.317991672
 10
-3.3535108976
 20
-6.3766302361
  0
LWPOLYLINE
  5
24A
100
AcDbEntity
  8
0
100
AcDbPolyline
 62
250
  6
CONTINUOUS
 90
3
 70
0
 10
-3.3535108976
 20
-6.3766302361
 10
-3.173904442
 20
-6.4429848122
 10
-3.0046185016
 20
-6.5148715521
  0
LWPOLYLINE
  5
24B
100
AcDbEntity
  8
0
100
AcDbPolyline
 62
250
  6
CONTINUOUS
 90
3
 70
0
 10
-3.0046185016
 20
-6.5148715521
 10
-2.8431669399
 20
-6.5944773071
 10
-2.6895508586
 20
-6.6818027373
  0
LINE
  5
24C
100
AcDbEntity
  8
0
100
AcDbLine
 62
7
  6
CONTINUOUS
 10
-2.6481590146
 20
-6.7703137715
 11
0.3216894673
 21
-8.485067064
  0
LINE
  5
24D
100
AcDbEntity
  8
0
100
AcDbLine
 62
250
  6
CONTINUOUS
 10
-2.6895508586
 20
-6.6818027373
 11
0.2802976224
 21
-8.3965560293
  0
LWPOLYLINE
  5
24E
100
AcDbEntity
  8
0
100
AcDbPolyline
 62
250
  6
CONTINUOUS
 90
3
 70
0
 10
0.2802976224
 20
-8.3965560293
 10
0.346301604
 20
-8.4352403775
 10
0.4138273264
 20
-8.476597766
  0
LWPOLYLINE
  5
24F
100
AcDbEntity
  8
0
100
AcDbPolyline
 62
7
  6
CONTINUOUS
 90
29
 70
0
 10
0.3217260969
 20
-8.485088198
 10
0.4081371318
 20
-8.5363367025
 10
0.6038766857
 20
-8.6623933044
 10
0.8000739727
 20
-8.8026111673
 10
0.9959969353
 20
-8.9566512903
 10
1.1906514287
 20
-9.1239480718
 10
1.3828238854
 20
-9.3036565333
 10
1.5716575132
 20
-9.4951866315
 10
1.7563323912
 20
-9.6978491658
 10
1.9357776814
 20
-9.9104686029
 10
2.1092168655
 20
-10.1320574673
 10
2.2759732685
 20
-10.3617359581
 10
2.4352121663
 20
-10.5983822299
 10
2.5862245742
 20
-10.8409822336
 10
2.7284363789
 20
-11.0885708979
 10
2.8612740551
 20
-11.3400697146
 10
2.9842719209
 20
-11.5943998272
 10
3.0969918294
 20
-11.8504817002
 10
3.1989849571
 20
-12.1072011219
 10
3.2898483181
 20
-12.3634668449
 10
3.3692145144
 20
-12.6182029994
 10
3.4368281405
 20
-12.8703248683
 10
3.4925482331
 20
-13.1187560265
 10
3.5362786599
 20
-13.3625435038
 10
3.5679405295
 20
-13.6007778703
 10
3.5874405039
 20
-13.8323063748
 10
3.5947466523
 20
-14.0562488731
 10
3.5899407914
 20
-14.2721053873
 10
3.5731465304
 20
-14.4789891687
  0
LWPOLYLINE
  5
250
100
AcDbEntity
  8
0
100
AcDbPolyline
 62
250
  6
CONTINUOUS
 90
40
 70
0
 10
0.4138273264
 20
-8.476597766
 10
0.4828748177
 20
-8.5206281778
 10
0.5532582765
 20
-8.5670613037
 10
0.6251636187
 20
-8.6161673842
 10
0.6991485055
 20
-8.6687571941
 10
0.7752747314
 20
-8.7247934021
 10
0.8534808297
 20
-8.784313143
 10
0.9341397134
 20
-8.8482388034
 10
1.0172906646
 20
-8.9165045016
 10
1.1028951376
 20
-8.9891756781
 10
1.1912096105
 20
-9.0673715194
 10
1.2823174035
 20
-9.1510454665
 10
1.3761367113
 20
-9.24024317
 10
1.4726769216
 20
-9.3362217718
 10
1.5720499375
 20
-9.4389705295
 10
1.6741467958
 20
-9.5484984214
 10
1.7786466437
 20
-9.6660915358
 10
1.8857148607
 20
-9.7917815923
 10
1.995191414
 20
-9.9255336597
 10
2.1062690484
 20
-10.068532818
 10
2.2192068514
 20
-10.2209204192
 10
2.3337549124
 20
-10.3825495909
 10
2.4483450045
 20
-10.554171556
 10
2.5632801916
 20
-10.7361349672
 10
2.6782721682
 20
-10.9280822757
 10
2.7908686391
 20
-11.1297035997
 10
2.9014311716
 20
-11.3418361058
 10
3.0096196427
 20
-11.5636296654
 10
3.11193053
 20
-11.7922426533
 10
3.2083803093
 20
-12.0285248228
 10
3.2989771777
 20
-12.2716114465
 10
3.3802011219
 20
-12.5160916235
 10
3.4514603268
 20
-12.7617315919
 10
3.5133652763
 20
-13.0087537
 10
3.5641903601
 20
-13.2524366759
 10
3.6035421658
 20
-13.4922280755
 10
3.6318229918
 20
-13.7286748135
 10
3.6484915855
 20
-13.958710241
 10
3.6533311101
 20
-14.1821019647
 10
3.6465595479
 20
-14.3990815396
  0
LWPOLYLINE
  5
251
100
AcDbEntity
  8
0
100
AcDbPolyline
 62
250
  6
CONTINUOUS
 90
13
 70
0
 10
-5.5849957472
 20
-9.0380509741
 10
-5.5888879157
 20
-9.0131998744
 10
-5.6141056592
 20
-8.7783889774
 10
-5.6268358344
 20
-8.5497329664
 10
-5.6270270567
 20
-8.3281755528
 10
-5.6146541606
 20
-8.1144911309
 10
-5.5898416412
 20
-7.909482141
 10
-5.5527438411
 20
-7.7139917569
 10
-5.5034491167
 20
-7.5288113146
 10
-5.4421438991
 20
-7.3547261531
 10
-5.3690501986
 20
-7.1924890645
 10
-5.2844476571
 20
-7.0426988875
 10
-5.1887520832
 20
-6.9058797986
  0
LINE
  5
252
100
AcDbEntity
  8
0
100
AcDbLine
 62
250
  6
CONTINUOUS
 10
-4.6295121022
 20
-6.2876946955
 11
-4.4612260604
 21
-6.251967431
  0
LWPOLYLINE
  5
253
100
AcDbEntity
  8
ASSI
100
AcDbPolyline
 62
250
  6
CONTINUOUS
 90
6
 70
0
 10
-2.525173129
 20
-13.8041661961
 10
-2.5237330017
 20
-13.8167884982
 10
-2.5203848203
 20
-13.8278485323
 10
-2.5152208851
 20
-13.8370414032
 10
-2.5083835519
 20
-13.844113688
 10
-2.5045210368
 20
-13.8467186047
  0
LWPOLYLINE
  5
254
100
AcDbEntity
  8
0
100
AcDbPolyline
 62
250
  6
CONTINUOUS
 90
7
 70
0
 10
-2.6895508586
 20
-6.6818027373
 10
-2.6880591745
 20
-6.7017394403
 10
-2.6842824006
 20
-6.7199672388
 10
-2.6782822235
 20
-6.7361884151
 10
-2.670156645
 20
-6.7501380264
 10
-2.6600383814
 20
-6.7615882315
 10
-2.6481590146
 20
-6.7703137715
  0
LWPOLYLINE
  5
255
100
AcDbEntity
  8
CURVE
100
AcDbPolyline
 62
250
  6
CONTINUOUS
 90
87
 70
0
 10
-1.4756885808
 20
-12.8847291687
 10
-1.4754074849
 20
-12.9057676314
 10
-1.4758172973
 20
-12.9261956763
 10
-1.4769132246
 20
-12.9460268621
 10
-1.4786904735
 20
-12.9652747474
 10
-1.4811442506
 20
-12.9839528909
 10
-1.4842697625
 20
-13.0020748513
 10
-1.488062216
 20
-13.0196541871
 10
-1.4925167937
 20
-13.0366973195
 10
-1.4976285832
 20
-13.0531821199
 10
-1.503392648
 20
-13.0690793221
 10
-1.5098040519
 20
-13.0843596599
 10
-1.5168578584
 20
-13.0989938674
 10
-1.5245491312
 20
-13.1129526781
 10
-1.5328729338
 20
-13.1262068262
 10
-1.5418222361
 20
-13.1387291988
 10
-1.5513816325
 20
-13.1505012979
 10
-1.5615336237
 20
-13.1615067788
 10
-1.5722607101
 20
-13.1717292967
 10
-1.5835453925
 20
-13.181152507
 10
-1.5953701715
 20
-13.1897600651
 10
-1.6077175476
 20
-13.1975356262
 10
-1.6205697597
 20
-13.2044647035
 10
-1.6339080003
 20
-13.210540242
 10
-1.6477132
 20
-13.2157570443
 10
-1.6619662895
 20
-13.2201099132
 10
-1.6766481994
 20
-13.2235936514
 10
-1.6917398604
 20
-13.2262030617
 10
-1.7072222032
 20
-13.2279329467
 10
-1.7230753691
 20
-13.2287793642
 10
-1.7392763423
 20
-13.2287433919
 10
-1.7558013177
 20
-13.2278273625
 10
-1.7726264901
 20
-13.2260336086
 10
-1.7897280544
 20
-13.223364463
 10
-1.8070822055
 20
-13.2198222583
 10
-1.8246651382
 20
-13.2154093272
 10
-1.8424527826
 20
-13.2101294308
 10
-1.8604200101
 20
-13.2039920437
 10
-1.8785414271
 20
-13.1970080687
 10
-1.8967916402
 20
-13.1891884089
 10
-1.9151452559
 20
-13.1805439672
 10
-1.9335768808
 20
-13.1710856466
 10
-1.9520611214
 20
-13.16082435
 10
-1.9705724776
 20
-13.1497722556
 10
-1.9890850233
 20
-13.137946643
 10
-2.0075727255
 20
-13.125366067
 10
-2.0260095514
 20
-13.1120490823
 10
-2.0443694681
 20
-13.0980142439
 10
-2.0626264429
 20
-13.0832801065
 10
-2.0807544429
 20
-13.0678652249
 10
-2.0987276473
 20
-13.0517892998
 10
-2.1165210836
 20
-13.0350766152
 10
-2.1341099915
 20
-13.0177526011
 10
-2.1514696107
 20
-12.9998426873
 10
-2.1685751806
 20
-12.9813723037
 10
-2.185401941
 20
-12.9623668803
 10
-2.2019251315
 20
-12.9428518469
 10
-2.218120568
 20
-12.9228533887
 10
-2.2339663718
 20
-12.9024007118
 10
-2.2494412405
 20
-12.8815237776
 10
-2.2645238717
 20
-12.8602525475
 10
-2.279192963
 20
-12.8386169827
 10
-2.293427212
 20
-12.8166470448
 10
-2.3072053163
 20
-12.794372695
 10
-2.3205068249
 20
-12.771824207
 10
-2.3333146928
 20
-12.7490331035
 10
-2.3456127262
 20
-12.7260312193
 10
-2.3573847314
 20
-12.7028503895
 10
-2.3686145149
 20
-12.6795224489
 10
-2.3792858829
 20
-12.6560792325
 10
-2.3893826417
 20
-12.6325525752
 10
-2.3977335939
 20
-12.6119235163
 10
-2.4056236304
 20
-12.5912773979
 10
-2.4130441689
 20
-12.5706366714
 10
-2.4199866272
 20
-12.5500237881
 10
-2.4264424166
 20
-12.529463728
 10
-2.4324029231
 20
-12.5089915861
 10
-2.4378595263
 20
-12.4886449861
 10
-2.4428036059
 20
-12.4684615516
 10
-2.4472284794
 20
-12.4484736305
 10
-2.4511352159
 20
-12.4286924675
 10
-2.4545268222
 20
-12.4091240312
 10
-2.4574063054
 20
-12.3897742906
 10
-2.4597753479
 20
-12.3706419774
 10
-2.4616303347
 20
-12.3516968762
 10
-2.4629663264
 20
-12.3329015346
 10
-2.4637783836
 20
-12.3142185002
  0
LWPOLYLINE
  5
256
100
AcDbEntity
  8
0
100
AcDbPolyline
 62
250
  6
CONTINUOUS
 90
11
 70
0
 10
-2.504870951
 20
-14.1866092785
 10
-2.504328748
 20
-14.1646743456
 10
-2.501316274
 20
-14.1415857891
 10
-2.495886468
 20
-14.1177487726
 10
-2.4881346892
 20
-14.0935815925
 10
-2.4781970205
 20
-14.0695082716
 10
-2.4662478593
 20
-14.0459511212
 10
-2.4524969115
 20
-14.0233234538
 10
-2.437185476
 20
-14.0020222376
 10
-2.4205821563
 20
-13.9824210881
 10
-2.4029782437
 20
-13.9648638567
  0
LWPOLYLINE
  5
257
100
AcDbEntity
  8
ASSI
100
AcDbPolyline
 62
250
  6
CONTINUOUS
 90
10
 70
0
 10
-2.6785743739
 20
-7.0576141054
 10
-2.6776318518
 20
-7.0427721011
 10
-2.6745375034
 20
-7.0270983144
 10
-2.6693866638
 20
-7.0110761695
 10
-2.662338093
 20
-6.9951998402
 10
-2.6536091358
 20
-6.979959124
 10
-2.6434690622
 20
-6.9658243118
 10
-2.6322306714
 20
-6.953231514
 10
-2.6202406083
 20
-6.9425692263
 10
-2.607868748
 20
-6.9341664428
  0
LWPOLYLINE
  5
258
100
AcDbEntity
  8
CURVE
100
AcDbPolyline
 62
250
  6
CONTINUOUS
 90
71
 70
0
 10
-0.2863618248
 20
-10.1500468771
 10
-0.2982621927
 20
-10.1070801673
 10
-0.3111703976
 20
-10.0642945214
 10
-0.3250878059
 20
-10.0216675701
 10
-0.3400157838
 20
-9.9791769441
 10
-0.3559556977
 20
-9.9368002741
 10
-0.3729089138
 20
-9.8945151907
 10
-0.3908767984
 20
-9.8522993247
 10
-0.4098549959
 20
-9.8101462887
 10
-0.429816262
 20
-9.7681136231
 10
-0.4507276307
 20
-9.7262748505
 10
-0.4725561358
 20
-9.6847034932
 10
-0.4952688111
 20
-9.6434730738
 10
-0.5188326905
 20
-9.6026571146
 10
-0.5432148078
 20
-9.5623291382
 10
-0.5683821701
 20
-9.5225575503
 10
-0.5943016781
 20
-9.4833902908
 10
-0.6209402056
 20
-9.4448701825
 10
-0.6482646265
 20
-9.4070400486
 10
-0.6762418148
 20
-9.3699427121
 10
-0.7048386443
 20
-9.3336209961
 10
-0.7340219889
 20
-9.2981177237
 10
-0.7637576002
 20
-9.2634755868
 10
-0.7940067404
 20
-9.2297367527
 10
-0.8247295494
 20
-9.1969432577
 10
-0.8558861671
 20
-9.1651371381
 10
-0.8874367334
 20
-9.1343604301
 10
-0.9193413881
 20
-9.1046551699
 10
-0.9515602713
 20
-9.0760633937
 10
-0.9840531805
 20
-9.0486251015
 10
-1.0167785442
 20
-9.0223721481
 10
-1.0496944486
 20
-8.9973343519
 10
-1.0827589801
 20
-8.9735415314
 10
-1.1159302247
 20
-8.9510235051
 10
-1.1491662688
 20
-8.9298100914
 10
-1.1824251986
 20
-8.9099311087
 10
-1.2156651027
 20
-8.8914145015
 10
-1.248844079
 20
-8.8742807182
 10
-1.2819202278
 20
-8.8585483328
 10
-1.3148516495
 20
-8.8442359196
 10
-1.3475964444
 20
-8.8313620529
 10
-1.3801127128
 20
-8.8199453069
 10
-1.4123585549
 20
-8.8100042559
 10
-1.4442924384
 20
-8.8015550281
 10
-1.4758742995
 20
-8.7946039687
 10
-1.5070644418
 20
-8.7891549769
 10
-1.5378231689
 20
-8.7852119519
 10
-1.5681107843
 20
-8.782778793
 10
-1.5978875915
 20
-8.7818593993
 10
-1.6271138941
 20
-8.7824576701
 10
-1.655751114
 20
-8.7845760794
 10
-1.6837651467
 20
-8.7882114009
 10
-1.7111230059
 20
-8.7933589831
 10
-1.7377917055
 20
-8.8000141742
 10
-1.7637382593
 20
-8.8081723228
 10
-1.7889296811
 20
-8.8178287774
 10
-1.8133329847
 20
-8.8289788862
 10
-1.8369153823
 20
-8.8416127517
 10
-1.8596448799
 20
-8.855699491
 10
-1.8814896817
 20
-8.8712029751
 10
-1.9024179921
 20
-8.888087075
 10
-1.9223980154
 20
-8.9063156617
 10
-1.9413979559
 20
-8.9258526063
 10
-1.9593860179
 20
-8.9466617798
 10
-1.9763357303
 20
-8.9687166567
 10
-1.9922419198
 20
-8.9920291264
 10
-2.0071047379
 20
-9.0166206816
 10
-2.0209243356
 20
-9.0425128152
 10
-2.0337008645
 20
-9.0697270201
 10
-2.0454344758
 20
-9.098284789
 10
-2.0561253207
 20
-9.1282076149
  0
LWPOLYLINE
  5
259
100
AcDbEntity
  8
0
100
AcDbPolyline
 62
250
  6
CONTINUOUS
 90
7
 70
0
 10
0.2802976224
 20
-8.3965560293
 10
0.2817893078
 20
-8.4164927402
 10
0.2855660844
 20
-8.4347205435
 10
0.2915662649
 20
-8.4509417219
 10
0.2996918468
 20
-8.4648913328
 10
0.3098101132
 20
-8.4763415356
 10
0.3216894673
 20
-8.485067064
  0
LWPOLYLINE
  5
25A
100
AcDbEntity
  8
0
100
AcDbPolyline
 62
7
  6
CONTINUOUS
 90
3
 70
0
 10
-4.9775040772
 20
-6.8928772856
 10
-4.914880756
 20
-6.7978059308
 10
-4.809418719
 20
-6.6659494328
  0
LWPOLYLINE
  5
25B
100
AcDbEntity
  8
ASSI
100
AcDbPolyline
 62
250
  6
CONTINUOUS
 90
6
 70
0
 10
0.444675352
 20
-15.5189194881
 10
0.4461153319
 20
-15.5315410607
 10
0.4494632086
 20
-15.5426007484
 10
0.4546267923
 20
-15.551793606
 10
0.4614638485
 20
-15.5588661368
 10
0.4653088779
 20
-15.5614611688
  0
LWPOLYLINE
  5
25C
100
AcDbEntity
  8
0
100
AcDbPolyline
 62
250
  6
CONTINUOUS
 90
11
 70
0
 10
0.46497753
 20
-15.9013625705
 10
0.465519637
 20
-15.8794287793
 10
0.4685318135
 20
-15.856341206
 10
0.4739612091
 20
-15.8325049339
 10
0.4817125625
 20
-15.8083381825
 10
0.4916498721
 20
-15.7842649699
 10
0.5035987828
 20
-15.760707673
 10
0.5173496448
 20
-15.7380796165
 10
0.5326611921
 20
-15.7167778213
 10
0.5492647759
 20
-15.6971760383
 10
0.5668690778
 20
-15.6796181908
  0
LWPOLYLINE
  5
25D
100
AcDbEntity
  8
ASSI
100
AcDbPolyline
 62
250
  6
CONTINUOUS
 90
10
 70
0
 10
0.2912741071
 20
-8.7723673974
 10
0.2922167563
 20
-8.7575244346
 10
0.2953114237
 20
-8.7418498931
 10
0.3004626464
 20
-8.7258272944
 10
0.3075115216
 20
-8.7099508967
 10
0.3162406088
 20
-8.6947104483
 10
0.3263806368
 20
-8.6805760801
 10
0.3376188104
 20
-8.6679838029
 10
0.3496084593
 20
-8.657322058
 10
0.3619797319
 20
-8.6489197341
  0
LWPOLYLINE
  5
25E
100
AcDbEntity
  8
0
100
AcDbPolyline
 62
250
  6
CONTINUOUS
 90
4
 70
0
 10
-5.1887520832
 20
-6.9058797986
 10
-5.0824112686
 20
-6.7825500009
 10
-4.965847685
 20
-6.673192076
 10
-4.8395705965
 20
-6.5783067902
  0
LWPOLYLINE
  5
25F
100
AcDbEntity
  8
ASSI
100
AcDbPolyline
 62
7
  6
CONTINUOUS
 90
36
 70
0
 10
-5.0315075697
 20
-6.9405647788
 10
-5.1415950782
 20
-7.0608322033
 10
-5.2408415074
 20
-7.1944470674
 10
-5.3288542334
 20
-7.3407455954
 10
-5.405312622
 20
-7.4991523262
 10
-5.4699470118
 20
-7.6691147774
 10
-5.5225622419
 20
-7.8500347288
 10
-5.562920068
 20
-8.0411686315
 10
-5.5908167167
 20
-8.241649839
 10
-5.6061953332
 20
-8.4506949792
 10
-5.609010456
 20
-8.6675094565
 10
-5.5992451564
 20
-8.8910649043
 10
-5.5770102054
 20
-9.1204237506
 10
-5.5424328179
 20
-9.3547425774
 10
-5.495668249
 20
-9.5930317228
 10
-5.4369680022
 20
-9.8343285388
 10
-5.3666085227
 20
-10.0777115483
 10
-5.2848842546
 20
-10.3222046676
 10
-5.1921709161
 20
-10.5668405455
 10
-5.0888807433
 20
-10.8106753545
 10
-4.9754303017
 20
-11.0527542022
 10
-4.8523007287
 20
-11.2921360492
 10
-4.7200255518
 20
-11.5278886953
 10
-4.5791412747
 20
-11.7590761449
 10
-4.4302212861
 20
-11.9848025939
 10
-4.273894362
 20
-12.2041928826
 10
-4.1108012189
 20
-12.4163596448
 10
-3.9416106226
 20
-12.6204562254
 10
-3.7670142198
 20
-12.8157170945
 10
-3.5876884444
 20
-13.001391665
 10
-3.4043395133
 20
-13.1767345575
 10
-3.21767029
 20
-13.3410975255
 10
-3.0283327802
 20
-13.4938769156
 10
-2.8370347123
 20
-13.6344488465
 10
-2.6446186974
 20
-13.7622104337
 10
-2.5045110457
 20
-13.8467186782
  0
LWPOLYLINE
  5
260
100
AcDbEntity
  8
ASSI
100
AcDbPolyline
 62
250
  6
CONTINUOUS
 90
35
 70
0
 10
-5.0065935254
 20
-7.029804708
 10
-5.1165023749
 20
-7.1445833595
 10
-5.2155225714
 20
-7.2735848098
 10
-5.3037777698
 20
-7.416620552
 10
-5.3801245012
 20
-7.5718682097
 10
-5.4444014054
 20
-7.7394800818
 10
-5.4967451728
 20
-7.9192887461
 10
-5.5364703994
 20
-8.1089988164
 10
-5.563410363
 20
-8.3087361869
 10
-5.5777183751
 20
-8.5183665106
 10
-5.579201927
 20
-8.7352117807
 10
-5.5676974604
 20
-8.9593687923
 10
-5.5433684449
 20
-9.1907403246
 10
-5.5065264338
 20
-9.4263655577
 10
-5.4570172894
 20
-9.666307306
 10
-5.3950084302
 20
-9.910510511
 10
-5.3213066576
 20
-10.1558454452
 10
-5.2357752044
 20
-10.4023337042
 10
-5.1385754804
 20
-10.6499685159
 10
-5.030972635
 20
-10.8955844347
 10
-4.9128466344
 20
-11.1391706104
 10
-4.7843497047
 20
-11.3807575171
 10
-4.6471637266
 20
-11.6172468762
 10
-4.5012141812
 20
-11.8485606685
 10
-4.3466104453
 20
-12.0747983468
 10
-4.1853153005
 20
-12.2931310071
 10
-4.017257416
 20
-12.5034815975
 10
-3.8425401714
 20
-12.7059469974
 10
-3.6633902594
 20
-12.8979603717
 10
-3.4796427136
 20
-13.0794719727
 10
-3.2914870222
 20
-13.2505467833
 10
-3.1016807562
 20
-13.4087895798
 10
-2.911147747
 20
-13.5534048457
 10
-2.7189774376
 20
-13.6851963653
 10
-2.525173129
 20
-13.8041661961
  0
LINE
  5
261
100
AcDbEntity
  8
0
100
AcDbLine
 62
7
  6
CONTINUOUS
 10
-4.809418719
 20
-6.6659494328
 11
-4.6942339817
 21
-6.5474631353
  0
LINE
  5
262
100
AcDbEntity
  8
0
100
AcDbLine
 62
250
  6
CONTINUOUS
 10
-5.3359548635
 20
-6.7047070892
 11
-5.214195185
 21
-6.5904203241
  0
LINE
  5
263
100
AcDbEntity
  8
ASSI
100
AcDbLine
 62
7
  6
CONTINUOUS
 10
-4.9111112159
 20
-6.834249427
 11
-5.0315075697
 21
-6.9405647788
  0
LWPOLYLINE
  5
264
100
AcDbEntity
  8
0
100
AcDbPolyline
 62
7
  6
CONTINUOUS
 90
3
 70
0
 10
-4.6942339817
 20
-6.5474631353
 10
-4.5697511586
 20
-6.4427927652
 10
-4.557068568
 20
-6.434189517
  0
LINE
  5
265
100
AcDbEntity
  8
ASSI
100
AcDbLine
 62
7
  6
CONTINUOUS
 10
2.6801379466
 20
-15.8350422578
 11
2.6813069565
 21
-15.7570365629
  0
LINE
  5
266
100
AcDbEntity
  8
ASSI
100
AcDbLine
 62
7
  6
CONTINUOUS
 10
3.028382887
 20
-15.5733282742
 11
3.0261065614
 21
-15.7252229449
  0
LINE
  5
267
100
AcDbEntity
  8
ASSI
100
AcDbLine
 62
250
  6
CONTINUOUS
 10
-4.8859518028
 20
-6.9290797848
 11
-5.0065935254
 21
-7.029804708
  0
LWPOLYLINE
  5
268
100
AcDbEntity
  8
0
100
AcDbPolyline
 62
250
  6
CONTINUOUS
 90
3
 70
0
 10
-5.214195185
 20
-6.5904203241
 10
-5.0821840531
 20
-6.4913790232
 10
-4.9400021325
 20
-6.40740715
  0
LINE
  5
269
100
AcDbEntity
  8
0
100
AcDbLine
 62
250
  6
CONTINUOUS
 10
-4.8395705965
 20
-6.5783067902
 11
-4.7378947606
 21
-6.5164177487
  0
LWPOLYLINE
  5
26A
100
AcDbEntity
  8
ASSI
100
AcDbPolyline
 62
7
  6
CONTINUOUS
 90
3
 70
0
 10
-4.741094503
 20
-6.7182412985
 10
-4.7809500202
 20
-6.7423441845
 10
-4.9111112159
 20
-6.834249427
  0
LINE
  5
26B
100
AcDbEntity
  8
ASSI
100
AcDbLine
 62
7
  6
CONTINUOUS
 10
-4.7438570585
 20
-6.7198528899
 11
-4.196908888
 21
-6.3994276072
  0
LINE
  5
26C
100
AcDbEntity
  8
0
100
AcDbLine
 62
7
  6
CONTINUOUS
 10
-4.7378947606
 20
-6.5164177487
 11
-4.7350973397
 21
-6.5148771835
  0
LWPOLYLINE
  5
26D
100
AcDbEntity
  8
ASSI
100
AcDbPolyline
 62
7
  6
CONTINUOUS
 90
3
 70
0
 10
-4.1969008574
 20
-6.3994417718
 10
-4.1086815352
 20
-6.3516955418
 10
-4.0974388537
 20
-6.3465541892
  0
LWPOLYLINE
  5
26E
100
AcDbEntity
  8
0
100
AcDbPolyline
 62
7
  6
CONTINUOUS
 90
5
 70
0
 10
-4.7375804959
 20
-6.5163608696
 10
-4.6810318457
 20
-6.4869157982
 10
-4.5527042593
 20
-6.432333211
 10
-4.4167654013
 20
-6.3906542257
 10
-4.2736753125
 20
-6.3620982477
  0
LWPOLYLINE
  5
26F
100
AcDbEntity
  8
0
100
AcDbPolyline
 62
250
  6
CONTINUOUS
 90
3
 70
0
 10
-4.9400021325
 20
-6.40740715
 10
-4.7892028702
 20
-6.3394481086
 10
-4.6295121022
 20
-6.2876946955
  0
LWPOLYLINE
  5
270
100
AcDbEntity
  8
RACCORDO
100
AcDbPolyline
 62
250
  6
CONTINUOUS
 90
5
 70
0
 10
6.3812049203
 20
-20.9399864301
 10
6.2589979093
 20
-17.2480231583
 10
6.1673337238
 20
-13.5379110436
 10
6.106220016
 20
-9.8099651885
 10
6.0756618874
 20
-6.0645022741
  0
LWPOLYLINE
  5
271
100
AcDbEntity
  8
RACCORDO
100
AcDbPolyline
 62
250
  6
CONTINUOUS
 90
19
 70
0
 10
6.3812049203
 20
12.9143830922
 10
6.3861565743
 20
12.9851150531
 10
6.3960391609
 20
13.0579396896
 10
6.4107848989
 20
13.132349291
 10
6.4302946876
 20
13.2078268964
 10
6.4544322365
 20
13.2838437814
 10
6.483023271
 20
13.3598630151
 10
6.5158678541
 20
13.4353489365
 10
6.5527389259
 20
13.5097794557
 10
6.5933769308
 20
13.5826432503
 10
6.6375004574
 20
13.6534292306
 10
6.6848049374
 20
13.7216450859
 10
6.7349621197
 20
13.7868277512
 10
6.7876324513
 20
13.8485260204
 10
6.8424472881
 20
13.9063000337
 10
6.8990088101
 20
13.9597405056
 10
6.9569192293
 20
14.0084728411
 10
7.0157846184
 20
14.0521573815
 10
7.0751981264
 20
14.0904884132
  0
LINE
  5
272
100
AcDbEntity
  8
0
100
AcDbLine
 62
250
  6
CONTINUOUS
 10
3.6465595479
 20
-14.3990815396
 11
3.6282802023
 21
-14.6072829133
  0
LINE
  5
273
100
AcDbEntity
  8
0
100
AcDbLine
 62
7
  6
CONTINUOUS
 10
3.5731465304
 20
-14.4789891687
 11
3.5445201303
 21
-14.6760233833
  0
LINE
  5
274
100
AcDbEntity
  8
0
100
AcDbLine
 62
250
  6
CONTINUOUS
 10
3.6282802023
 20
-14.6072829133
 11
3.5983817793
 21
-14.8066047465
  0
LINE
  5
275
100
AcDbEntity
  8
ASSI
100
AcDbLine
 62
250
  6
CONTINUOUS
 10
-2.4861224484
 20
-6.863871654
 11
-2.6078687491
 21
-6.9341664422
  0
LWPOLYLINE
  5
276
100
AcDbEntity
  8
ASSI
100
AcDbPolyline
 62
250
  6
CONTINUOUS
 90
3
 70
0
 10
-4.6171040784
 20
-6.7738742204
 10
-4.7561481057
 20
-6.8436995134
 10
-4.8859518028
 20
-6.9290797848
  0
LWPOLYLINE
  5
277
100
AcDbEntity
  8
RACCORDO
100
AcDbPolyline
 62
250
  6
CONTINUOUS
 90
4
 70
0
 10
7.0817834353
 20
-20.9267664022
 10
6.9596881074
 20
-17.2379761095
 10
6.8681166153
 20
-13.5316826072
 10
6.8070689589
 20
-9.8078858953
  0
LINE
  5
278
100
AcDbEntity
  8
RACCORDO
100
AcDbLine
 62
250
  6
CONTINUOUS
 10
6.8070689589
 20
-9.8078858953
 11
6.7765451434
 21
-6.0662632692
  0
LINE
  5
279
100
AcDbEntity
  8
RACCORDO
100
AcDbLine
 62
250
  6
CONTINUOUS
 10
6.0756618874
 20
-6.0645022741
 11
6.0756618874
 21
-2.3018404193
  0
LWPOLYLINE
  5
27A
100
AcDbEntity
  8
RACCORDO
100
AcDbPolyline
 62
250
  6
CONTINUOUS
 90
5
 70
0
 10
6.7765451434
 20
-6.0662632692
 10
6.7765451636
 20
-2.3071374336
 10
6.8070690045
 20
1.4685234976
 10
6.8681166608
 20
5.2603968197
 10
6.9596881378
 20
9.0688052374
  0
LWPOLYLINE
  5
27B
100
AcDbEntity
  8
RACCORDO
100
AcDbPolyline
 62
250
  6
CONTINUOUS
 90
4
 70
0
 10
6.0756618874
 20
-2.3018404193
 10
6.106220016
 20
1.477700848
 10
6.1673337237
 20
5.273800465
 10
6.2589979092
 20
9.0861358594
  0
LINE
  5
27C
100
AcDbEntity
  8
RACCORDO
100
AcDbLine
 62
250
  6
CONTINUOUS
 10
6.2589979092
 20
9.0861358594
 11
6.3812049203
 21
12.9143830922
  0
LINE
  5
27D
100
AcDbEntity
  8
RACCORDO
100
AcDbLine
 62
250
  6
CONTINUOUS
 10
6.9596881378
 20
9.0688052374
 11
7.0817834353
 21
12.8937487506
  0
LWPOLYLINE
  5
27E
100
AcDbEntity
  8
RACCORDO
100
AcDbPolyline
 62
250
  6
CONTINUOUS
 90
19
 70
0
 10
7.0817834353
 20
12.8937487506
 10
7.084335691
 20
12.929389871
 10
7.0892862302
 20
12.9655960431
 10
7.0966350528
 20
13.0023672669
 10
7.1064680784
 20
13.0399828852
 10
7.1186993875
 20
13.0781635552
 10
7.1330712211
 20
13.1160712488
 10
7.14962629
 20
13.1536836828
 10
7.1683218834
 20
13.1910231404
 10
7.1887721099
 20
13.227318443
 10
7.2110129757
 20
13.2625469979
 10
7.2350084745
 20
13.2967313977
 10
7.2602646962
 20
13.3291682419
 10
7.2868209715
 20
13.3598310588
 10
7.3146379697
 20
13.3887463201
 10
7.343103788
 20
13.41529004
 10
7.3720144587
 20
13.4392542233
 10
7.4015739496
 20
13.4608468651
 10
7.4317822604
 20
13.4800679656
  0
LINE
  5
27F
100
AcDbEntity
  8
0
100
AcDbLine
 62
7
  6
CONTINUOUS
 10
3.5445201303
 20
-14.6760233833
 11
3.5042064447
 21
-14.862621149
  0
LINE
  5
280
100
AcDbEntity
  8
0
100
AcDbLine
 62
250
  6
CONTINUOUS
 10
3.5983817793
 20
-14.8066047465
 11
3.5569696347
 21
-14.9971518733
  0
LWPOLYLINE
  5
281
100
AcDbEntity
  8
0
100
AcDbPolyline
 62
250
  6
CONTINUOUS
 90
3
 70
0
 10
3.5569696347
 20
-14.9971518733
 10
3.5044651415
 20
-15.1768717284
 10
3.4407235895
 20
-15.3456347927
  0
LWPOLYLINE
  5
282
100
AcDbEntity
  8
0
100
AcDbPolyline
 62
7
  6
CONTINUOUS
 90
4
 70
0
 10
3.5042064447
 20
-14.862621149
 10
3.4523663756
 20
-15.0379787032
 10
3.3892789486
 20
-15.201120534
 10
3.3153799359
 20
-15.3513050156
  0
LINE
  5
283
100
AcDbEntity
  8
ASSI
100
AcDbLine
 62
250
  6
CONTINUOUS
 10
0.4784933549
 20
-8.5816462285
 11
0.3619797319
 21
-8.6489197341
  0
LWPOLYLINE
  5
284
100
AcDbEntity
  8
0
100
AcDbPolyline
 62
250
  6
CONTINUOUS
 90
3
 70
0
 10
-2.4029782437
 20
-13.9648638567
 10
-2.3846826236
 20
-13.9496585779
 10
-2.3660162899
 20
-13.9370719891
  0
LINE
  5
285
100
AcDbEntity
  8
0
100
AcDbLine
 62
250
  6
CONTINUOUS
 10
3.4407235895
 20
-15.3456347927
 11
3.3658775176
 21
-15.5035779304
  0
LINE
  5
286
100
AcDbEntity
  8
0
100
AcDbLine
 62
250
  6
CONTINUOUS
 10
3.3658775176
 20
-15.5035779304
 11
3.2807581091
 21
-15.6490518798
  0
LINE
  5
287
100
AcDbEntity
  8
0
100
AcDbLine
 62
7
  6
CONTINUOUS
 10
3.3153799359
 20
-15.3513050156
 11
3.2311395134
 21
-15.4879433469
  0
LINE
  5
288
100
AcDbEntity
  8
0
100
AcDbLine
 62
250
  6
CONTINUOUS
 10
-2.3660162899
 20
-13.9370719891
 11
-2.3571796082
 21
-13.931791699
  0
LINE
  5
289
100
AcDbEntity
  8
RACCORDO
100
AcDbLine
 62
7
  6
CONTINUOUS
 10
11.8151482465
 20
-18.8089824245
 11
11.8151482465
 21
16.0543916476
  0
LINE
  5
28A
100
AcDbEntity
  8
0
100
AcDbLine
 62
250
  6
CONTINUOUS
 10
3.2807581091
 20
-15.6490518798
 11
3.1852611725
 21
-15.7819279168
  0
LWPOLYLINE
  5
28B
100
AcDbEntity
  8
0
100
AcDbPolyline
 62
7
  6
CONTINUOUS
 90
5
 70
0
 10
3.2311395134
 20
-15.4879433469
 10
3.1369763791
 20
-15.6106652949
 10
3.0332573266
 20
-15.7192568282
 10
2.9204804351
 20
-15.8133502685
 10
2.8243726104
 20
-15.8778758989
  0
LWPOLYLINE
  5
28C
100
AcDbEntity
  8
0
100
AcDbPolyline
 62
250
  6
CONTINUOUS
 90
3
 70
0
 10
3.1852611725
 20
-15.7819279168
 10
3.079474093
 20
-15.902345008
 10
2.9645105806
 20
-16.0090584173
  0
LWPOLYLINE
  5
28D
100
AcDbEntity
  8
ASSI
100
AcDbPolyline
 62
7
  6
CONTINUOUS
 90
3
 70
0
 10
3.2550712378
 20
-15.3705044812
 10
3.3583799399
 20
-15.2542218656
 10
3.3727150636
 20
-15.2347832095
  0
LWPOLYLINE
  5
28E
100
AcDbEntity
  8
0
100
AcDbPolyline
 62
250
  6
CONTINUOUS
 90
3
 70
0
 10
0.5668690778
 20
-15.6796181908
 10
0.5851652212
 20
-15.6644123403
 10
0.6038321911
 20
-15.6518252811
  0
LWPOLYLINE
  5
28F
100
AcDbEntity
  8
0
100
AcDbPolyline
 62
250
  6
CONTINUOUS
 90
12
 70
0
 10
2.9645105806
 20
-16.0090584173
 10
2.8402623456
 20
-16.1019328454
 10
2.7068184478
 20
-16.1811153838
 10
2.5655852355
 20
-16.2457869834
 10
2.417035837
 20
-16.2958948988
 10
2.2606777105
 20
-16.3315038339
 10
2.0964674242
 20
-16.3519717133
 10
1.9227335273
 20
-16.3570249756
 10
1.7411318364
 20
-16.3469468422
 10
1.5566086984
 20
-16.3219311138
 10
1.3683156704
 20
-16.2804667281
 10
1.1770873358
 20
-16.2240733328
  0
LWPOLYLINE
  5
290
100
AcDbEntity
  8
ASSI
100
AcDbPolyline
 62
250
  6
CONTINUOUS
 90
37
 70
0
 10
2.5008402829
 20
-15.7447782839
 10
2.6280325359
 20
-15.6609611422
 10
2.7461086736
 20
-15.5617633333
 10
2.8535526689
 20
-15.4484380259
 10
2.9502370601
 20
-15.3207939921
 10
3.0363215024
 20
-15.1790028351
 10
3.1107123028
 20
-15.0248671509
 10
3.1732685345
 20
-14.8582191644
 10
3.2241557753
 20
-14.679211822
 10
3.262729012
 20
-14.4901356317
 10
3.288832442
 20
-14.2908587912
 10
3.302635164
 20
-14.0815053374
 10
3.3039666067
 20
-13.8647574375
 10
3.2926633139
 20
-13.6405232305
 10
3.2688886707
 20
-13.4088949926
 10
3.2329488458
 20
-13.1728393081
 10
3.1846784013
 20
-12.932306278
 10
3.1242293773
 20
-12.6873542465
 10
3.0523713095
 20
-12.4411199076
 10
2.9689449319
 20
-12.1935998055
 10
2.874084845
 20
-11.9448125166
 10
2.7689903884
 20
-11.6979343591
 10
2.6535090328
 20
-11.4529952668
 10
2.5277611784
 20
-11.2099847448
 10
2.39334728
 20
-10.9720233825
 10
2.2501538283
 20
-10.7392084802
 10
2.0982595599
 20
-10.5114635918
 10
1.9395482547
 20
-10.2916516563
 10
1.773908396
 20
-10.0798664219
 10
1.6014195035
 20
-9.8760332094
 10
1.4242500448
 20
-9.682763397
 10
1.2422037066
 20
-9.5001244116
 10
1.0554522826
 20
-9.328063375
 10
0.8667171817
 20
-9.169010731
 10
0.6769008915
 20
-9.0237793778
 10
0.4850876351
 20
-8.8915642817
 10
0.2912741071
 20
-8.7723673974
  0
LINE
  5
291
100
AcDbEntity
  8
0
100
AcDbLine
 62
7
  6
CONTINUOUS
 10
2.8244361642
 20
-15.8779032475
 11
2.8243307704
 21
-15.8779671355
  0
LINE
  5
292
100
AcDbEntity
  8
0
100
AcDbLine
 62
250
  6
CONTINUOUS
 10
0.6038321911
 20
-15.6518252811
 11
0.6168049943
 21
-15.6440734839
  0
LINE
  5
293
100
AcDbEntity
  8
ASSI
100
AcDbLine
 62
7
  6
CONTINUOUS
 10
3.2515569945
 20
-15.4548261039
 11
3.2381135699
 21
-15.4623172202
  0
LWPOLYLINE
  5
294
100
AcDbEntity
  8
ASSI
100
AcDbPolyline
 62
250
  6
CONTINUOUS
 90
38
 70
0
 10
2.5787614157
 20
-15.8113131279
 10
2.6194899134
 20
-15.7887734543
 10
2.7501481251
 20
-15.7028597074
 10
2.8708395105
 20
-15.6015388145
 10
2.9811464563
 20
-15.4851881774
 10
3.0805549355
 20
-15.3543262035
 10
3.168603637
 20
-15.2095268033
 10
3.24502696
 20
-15.0513508252
 10
3.309461918
 20
-14.8804915236
 10
3.3615880314
 20
-14.6977036803
 10
3.4012830595
 20
-14.503724739
 10
3.4283457251
 20
-14.2994047629
 10
3.442615561
 20
-14.0856433427
 10
3.4441165724
 20
-13.8633204294
 10
3.4328162713
 20
-13.6334065343
 10
3.4087195685
 20
-13.396911451
 10
3.3719920676
 20
-13.1548224742
 10
3.3227692458
 20
-12.9081918651
 10
3.2612214704
 20
-12.658099853
 10
3.1876496675
 20
-12.405603318
 10
3.1023513509
 20
-12.1517987094
 10
3.0056556296
 20
-11.8977913208
 10
2.8979876513
 20
-11.6446577884
 10
2.7797882379
 20
-11.3934851751
 10
2.6515362483
 20
-11.145373302
 10
2.5137847171
 20
-10.9014029006
 10
2.3671255487
 20
-10.662649487
 10
2.2121520243
 20
-10.430122088
 10
2.0494743864
 20
-10.2047705751
 10
1.8797622573
 20
-9.9875583033
 10
1.7037325342
 20
-9.7794419896
 10
1.5221075272
 20
-9.5813158555
 10
1.3355443993
 20
-9.3939369103
 10
1.1449334661
 20
-9.2182400471
 10
0.951400217
 20
-9.0552571587
 10
0.7558884872
 20
-8.9057139106
 10
0.5591346537
 20
-8.7700958755
 10
0.3619797319
 20
-8.6489197341
  0
LWPOLYLINE
  5
295
100
AcDbEntity
  8
RACCORDO
100
AcDbPolyline
 62
250
  6
CONTINUOUS
 90
16
 70
0
 10
6.3812215192
 20
12.9143918816
 10
6.4196597158
 20
12.8942608672
 10
6.4614707736
 20
12.8763494166
 10
6.5062067221
 20
12.8608494359
 10
6.5533882529
 20
12.8479269946
 10
6.6025098554
 20
12.8377205457
 10
6.6530452328
 20
12.8303394431
 10
6.7044529407
 20
12.8258627689
 10
6.7561821886
 20
12.8243384872
 10
6.8076787408
 20
12.8257829292
 10
6.8583908548
 20
12.830180619
 10
6.9077751928
 20
12.8374844391
 10
6.9553026428
 20
12.847616135
 10
7.0004639881
 20
12.8604671543
 10
7.0427753626
 20
12.8758998088
 10
7.0817834352
 20
12.8937487506
  0
LINE
  5
296
100
AcDbEntity
  8
RACCORDO
100
AcDbLine
 62
250
  6
CONTINUOUS
 10
-8.3057376344
 20
21.3944396527
 11
6.3812049203
 21
12.9143830922
  0
LWPOLYLINE
  5
297
100
AcDbEntity
  8
0
100
AcDbPolyline
 62
250
  6
CONTINUOUS
 90
15
 70
0
 10
2.8243307704
 20
-15.8779671355
 10
2.7482868029
 20
-15.9208163075
 10
2.6130918029
 20
-15.9825043691
 10
2.4708525088
 20
-16.0301682263
 10
2.3216998564
 20
-16.0638706445
 10
2.1645986594
 20
-16.0836721515
 10
1.9984805926
 20
-16.0890650954
 10
1.82521699
 20
-16.079316441
 10
1.6483222724
 20
-16.0545941909
 10
1.467982186
 20
-16.0152722374
 10
1.2855331238
 20
-15.9619070418
 10
1.1066496289
 20
-15.8969832797
 10
0.9337965215
 20
-15.8228979576
 10
0.7660089642
 20
-15.74068577
 10
0.6038321911
 20
-15.6518252811
  0
LINE
  5
298
100
AcDbEntity
  8
ASSI
100
AcDbLine
 62
7
  6
CONTINUOUS
 10
2.5773471602
 20
-15.8120627822
 11
3.2381135699
 21
-15.4623172202
  0
LINE
  5
299
100
AcDbEntity
  8
0
100
AcDbLine
 62
7
  6
CONTINUOUS
 10
2.9105062246
 20
-15.807571804
 11
2.9510068607
 21
-15.7878810756
  0
LINE
  5
29A
100
AcDbEntity
  8
0
100
AcDbLine
 62
7
  6
CONTINUOUS
 10
2.7487974383
 20
-15.8662447023
 11
2.9105062246
 21
-15.807571804
  0
LINE
  5
29B
100
AcDbEntity
  8
0
100
AcDbLine
 62
7
  6
CONTINUOUS
 10
2.8743627611
 20
-15.7926317333
 11
2.9948608861
 21
-15.7512922313
  0
LINE
  5
29C
100
AcDbEntity
  8
RACCORDO
100
AcDbLine
 62
250
  6
CONTINUOUS
 10
-7.6237533169
 20
22.5774787554
 11
7.0751981264
 21
14.0904884132
  0
LWPOLYLINE
  5
29D
100
AcDbEntity
  8
RACCORDO
100
AcDbPolyline
 62
250
  6
CONTINUOUS
 90
16
 70
0
 10
7.0751981264
 20
14.0904884132
 10
7.1115445072
 20
14.0665631302
 10
7.1475942412
 20
14.0384897591
 10
7.1829525895
 20
14.0065756988
 10
7.2172323836
 20
13.9711704034
 10
7.2500582653
 20
13.9326615552
 10
7.2810707961
 20
13.89147082
 10
7.3099303937
 20
13.84804923
 10
7.3363210501
 20
13.8028722446
 10
7.3599537916
 20
13.7564345449
 10
7.3805698436
 20
13.7092446162
 10
7.3979434634
 20
13.661819181
 10
7.4118844127
 20
13.6146775403
 10
7.4222400403
 20
13.5683358876
 10
7.4288969535
 20
13.5233016568
 10
7.4317822604
 20
13.4800679656
  0
LINE
  5
29E
100
AcDbEntity
  8
RACCORDO
100
AcDbLine
 62
7
  6
CONTINUOUS
 10
-3.3877552387
 20
25.2405460947
 11
11.4617025455
 21
16.6666552775
  0
LWPOLYLINE
  5
29F
100
AcDbEntity
  8
RACCORDO
100
AcDbPolyline
 62
250
  6
CONTINUOUS
 90
9
 70
0
 10
7.3178606385
 20
-21.3572918815
 10
7.3363233205
 20
-21.3459862096
 10
7.3599557654
 20
-21.3260388756
 10
7.3805714385
 20
-21.3015920964
 10
7.3979446401
 20
-21.2729136018
 10
7.4118851725
 20
-21.2403174623
 10
7.422240432
 20
-21.2041606366
 10
7.428897076
 20
-21.164839059
 10
7.4317822604
 20
-21.1227833104
  0
LINE
  5
2A0
100
AcDbEntity
  8
RACCORDO
100
AcDbLine
 62
250
  6
CONTINUOUS
 10
11.8151482465
 20
-18.8089824245
 11
7.4317822604
 21
-21.1227833104
  0
LINE
  5
2A1
100
AcDbEntity
  8
RACCORDO
100
AcDbLine
 62
7
  6
CONTINUOUS
 10
11.7060897687
 20
-19.0409239392
 11
7.3178606385
 21
-21.3572918815
  0
LWPOLYLINE
  5
2A2
100
AcDbEntity
  8
RACCORDO
100
AcDbPolyline
 62
250
  6
CONTINUOUS
 90
19
 70
0
 10
7.4317822604
 20
-21.1227833104
 10
7.4015739496
 20
-21.1372491041
 10
7.3720144588
 20
-21.1486198227
 10
7.343103788
 20
-21.1568954662
 10
7.3146379697
 20
-21.1620954944
 10
7.2868209715
 20
-21.1642004476
 10
7.2602646961
 20
-21.163151946
 10
7.2350084745
 20
-21.158879658
 10
7.2110129757
 20
-21.1514539152
 10
7.1887721099
 20
-21.1410273327
 10
7.1683218835
 20
-21.1275371654
 10
7.1496262901
 20
-21.1110461584
 10
7.1330712212
 20
-21.0918951623
 10
7.1186993875
 20
-21.0700142649
 10
7.1064680784
 20
-21.0454733783
 10
7.0966350527
 20
-21.01882309
 10
7.0892862301
 20
-20.9902469291
 10
7.084335691
 20
-20.9595613665
 10
7.0817834353
 20
-20.9267664022
  0
ELLIPSE
  5
2A3
100
AcDbEntity
  8
ASSI
100
AcDbEllipse
 62
7
  6
CONTINUOUS
 10
-13.0246824803
 20
-20.245834379
 30
0.0
 11
31.9688281258
 21
14.4299522753
 31
0.0
 40
0.0732634166
 41
-1.0698772717
 42
-1.0674242785
  0
ELLIPSE
  5
2A4
100
AcDbEntity
  8
CURVE
100
AcDbEllipse
 62
250
  6
CONTINUOUS
 10
212.7019391253
 20
116.5425336231
 30
0.0
 11
208.9938334986
 21
224.612126744
 31
0.0
 40
0.3706072491
 41
-3.822974904
 42
-3.8099252267
  0
ELLIPSE
  5
2A5
100
AcDbEntity
  8
CURVE
100
AcDbEllipse
 62
250
  6
CONTINUOUS
 10
209.28405698
 20
118.5159759377
 30
0.0
 11
36.5766438562
 21
310.3945642742
 31
0.0
 40
0.7074347452
 41
-4.2033719584
 42
-4.190322281
  0
ELLIPSE
  5
2A6
100
AcDbEntity
  8
RACCORDO
100
AcDbEllipse
 62
7
  6
CONTINUOUS
 10
-3.387593693
 20
24.8320777419
 30
0.0
 11
-0.2500597015
 21
0.4332530584
 31
0.0
 40
0.5770679649
 41
-0.7850277811
 42
0.0218062175
  0
ELLIPSE
  5
2A7
100
AcDbEntity
  8
RACCORDO
100
AcDbEllipse
 62
7
  6
CONTINUOUS
 10
11.4615409998
 20
16.2583734737
 30
0.0
 11
-0.2499453902
 21
0.4330552278
 31
0.0
 40
0.5775954737
 41
-2.3558238482
 42
-0.7854843722
  0
ELLIPSE
  5
2A8
100
AcDbEntity
  8
RACCORDO
100
AcDbEllipse
 62
7
  6
CONTINUOUS
 10
11.4615409998
 20
-18.6046274655
 30
0.0
 11
-0.2500597015
 21
0.4332530584
 31
0.0
 40
0.5770679649
 41
-3.1633988709
 42
-2.3562809586
  0
ENDSEC
  0
SECTION
  2
OBJECTS
  0
DICTIONARY
  5
C
100
AcDbDictionary
280
0
281
1
  3
ACAD_GROUP
350
D
  3
ACAD_MLINESTYLE
350
17
  3
ACAD_LAYOUT
350
1A
  3
ACAD_PLOTSETTINGS
350
19
  3
ACAD_PLOTSTYLENAME
350
E
  0
DICTIONARY
  5
D
102
{ACAD_REACTORS
330
C
102
}
100
AcDbDictionary
280
0
281
1
  0
ACDBDICTIONARYWDFLT
  5
E
102
{ACAD_REACTORS
330
C
102
}
100
AcDbDictionary
281
1
  3
Normal
350
F
100
AcDbDictionaryWithDefault
340
F
  0
DICTIONARY
  5
17
102
{ACAD_REACTORS
330
C
102
}
100
AcDbDictionary
280
0
281
1
  3
Standard
350
18
  0
DICTIONARY
  5
19
102
{ACAD_REACTORS
330
C
102
}
100
AcDbDictionary
281
1
  0
DICTIONARY
  5
1A
102
{ACAD_REACTORS
330
C
102
}
100
AcDbDictionary
281
1
  3
Model
350
2A9
  3
Layout1
350
2AA
  0
ACDBPLACEHOLDER
  5
F
102
{ACAD_REACTORS
330
E
102
}
  0
MLINESTYLE
  5
18
102
{ACAD_REACTORS
330
17
102
}
100
AcDbMlineStyle
  2
STANDARD
 70
0
  3

 62
256
 51
90.0
 52
90.0
 71
2
 49
0.5
 62
256
  6
BYLAYER
 49
-0.5
 62
256
  6
BYLAYER
  0
LAYOUT
  5
2A9
102
{ACAD_REACTORS
330
1A
102
}
100
AcDbPlotSettings
  1

  2
none_device
  4
ISO_A4_(297.00_x_210.00_MM)
  6

 40
0.0
 41
0.0
 42
0.0
 43
0.0
 44
297.0
 45
210.0
 46
0.0
 47
0.0
 48
0.0
 49
0.0
140
0.0
141
0.0
142
1.0
143
1.0
 70
1024
 72
1
 73
0
 74
0
  7

 75
0
147
1.0
148
0.0
149
0.0
100
AcDbLayout
  1
Model
 70
0
 71
0
 10
0.0
 20
0.0
 11
297.0
 21
210.0
 12
0.0
 22
0.0
 32
0.0
 14
0.0
 24
0.0
 34
0.0
 15
0.0
 25
0.0
 35
0.0
146
0.0
 13
0.0
 23
0.0
 33
0.0
 16
1.0
 26
0.0
 36
0.0
 17
0.0
 27
1.0
 37
0.0
 76
0
330
214
345
0
346
0
  0
LAYOUT
  5
2AA
102
{ACAD_REACTORS
330
1A
102
}
100
AcDbPlotSettings
  1

  2
none_device
  4
ISO_A4_(297.00_x_210.00_MM)
  6

 40
0.0
 41
0.0
 42
0.0
 43
0.0
 44
297.0
 45
210.0
 46
0.0
 47
0.0
 48
0.0
 49
0.0
140
0.0
141
0.0
142
1.0
143
1.0
 70
0
 72
1
 73
0
 74
0
  7

 75
0
147
1.0
148
0.0
149
0.0
100
AcDbLayout
  1
Layout1
 70
0
 71
1
 10
0.0
 20
0.0
 11
297.0
 21
210.0
 12
0.0
 22
0.0
 32
0.0
 14
0.0
 24
0.0
 34
0.0
 15
0.0
 25
0.0
 35
0.0
146
0.0
 13
0.0
 23
0.0
 33
0.0
 16
1.0
 26
0.0
 36
0.0
 17
0.0
 27
1.0
 37
0.0
 76
0
330
215
345
0
346
0
  0
ENDSEC
  0
EOF
