  0
SECTION
  2
HEADER
  9
$ACADVER
  1
AC1024
  9
$DWGCODEPAGE
  3
ANSI_1252
  9
$EXTMAX
 10
297.0
 20
210.0
 30
0.0
  9
$EXTMIN
 10
0.0
 20
0.0
 30
0.0
  9
$LIMMIN
 10
0.0
 20
0.0
  9
$LIMMAX
 10
297.0
 20
210.0
  9
$VIEWCTR
 10
148.5
 20
105.0
  9
$VIEWSIZE
 40
210.0
  9
$CLAYER
  8
0
  9
$LTSCALE
 40
16.335
  9
$CELTYPE
  6
BYLAYER
  9
$DIMSCALE
 40
1.0
  9
$DIMASZ
 40
3.0
  9
$DIMEXO
 40
0.5
  9
$DIMDLI
 40
11.286
  9
$DIMEXE
 40
1.5
  9
$DIMCEN
 40
2.673
  9
$DIMLFAC
 40
1.0
  9
$DIMBLK
  1
_FILLED
  9
$DIMALT
 70
0
  9
$DIMALTF
 40
0.0393700787
  9
$DIMTXT
 40
3.0
  9
$DIMTOL
 70
1
  9
$DIMLIM
 70
0
  9
$DIMTFAC
 40
1.0
  9
$DIMTP
 40
0.01
  9
$DIMTM
 40
0.01
  9
$DIMGAP
 40
0.625
  9
$DIMDSEP
 70
44
  9
$AUNITS
 70
0
  9
$PDMODE
 70
3
  9
$PDSIZE
 40
3.0
  9
$HANDSEED
  5
2F2
  9
$TILEMODE
 70
1
  9
$MEASUREMENT
 70
1
  9
$INSUNITS
 70
4
  0
ENDSEC
  0
SECTION
  2
CLASSES
  0
CLASS
  1
ACDBDICTIONARYWDFLT
  2
AcDbDictionaryWithDefault
  3
AutoCAD 2000
 90
0
 91
1
280
0
281
0
  0
CLASS
  1
ACDBPLACEHOLDER
  2
AcDbPlaceHolder
  3
AutoCAD 2000
 90
0
 91
1
280
0
281
0
  0
CLASS
  1
LAYOUT
  2
AcDbLayout
  3
AutoCAD 2000
 90
0
 91
0
280
0
281
0
  0
ENDSEC
  0
SECTION
  2
TABLES
  0
TABLE
  2
VPORT
  5
8
100
AcDbSymbolTable
 70
2
  0
VPORT
  5
1F4
100
AcDbSymbolTableRecord
100
AcDbViewportTableRecord
  2
*ACTIVE
 70
0
 10
0.0
 20
0.0
 11
1.0
 21
1.0
 12
148.5
 22
105.0
 13
0.0
 23
0.0
 14
1.0
 24
1.0
 15
0.0
 25
0.0
 16
0.0
 26
0.0
 36
1.0
 17
0.0
 27
0.0
 37
0.0
 40
210.0
 41
1.4142857143
 42
50.0
 43
0.0
 44
0.0
 50
0.0
 51
0.0
 71
0
 72
100
 73
1
 74
1
 75
0
 76
0
 77
0
 78
0
  0
ENDTAB
  0
TABLE
  2
LTYPE
  5
5
100
AcDbSymbolTable
 70
6
  0
LTYPE
  5
14
100
AcDbSymbolTableRecord
100
AcDbLinetypeTableRecord
  2
BYBLOCK
 70
0
  3

 72
65
 73
0
 40
0.0
  0
LTYPE
  5
15
100
AcDbSymbolTableRecord
100
AcDbLinetypeTableRecord
  2
BYLAYER
 70
0
  3

 72
65
 73
0
 40
0.0
  0
LTYPE
  5
16
100
AcDbSymbolTableRecord
100
AcDbLinetypeTableRecord
  2
CONTINUOUS
 70
64
  3
Solid line
 72
65
 73
0
 40
0.0
  0
LTYPE
  5
1F5
100
AcDbSymbolTableRecord
100
AcDbLinetypeTableRecord
  2
CENTER
 70
64
  3
____ _ ____ _ ____ _ ____ _ ____ _ ____ _ ____
 72
65
 73
4
 40
0.6
 49
0.375
 74
0
 49
-0.075
 74
0
 49
0.075
 74
0
 49
-0.075
 74
0
  0
LTYPE
  5
1F6
100
AcDbSymbolTableRecord
100
AcDbLinetypeTableRecord
  2
HIDDEN
 70
64
  3
- - - - - - - - - - - - - - - - - - - -
 72
65
 73
2
 40
0.2
 49
0.1
 74
0
 49
-0.1
 74
0
  0
LTYPE
  5
1F7
100
AcDbSymbolTableRecord
100
AcDbLinetypeTableRecord
  2
PHANTOM
 70
64
  3
_____ _ _ _____ _ _ _____ _ _ _____
 72
65
 73
6
 40
0.8
 49
0.45
 74
0
 49
-0.05
 74
0
 49
0.1
 74
0
 49
-0.05
 74
0
 49
0.1
 74
0
 49
-0.05
 74
0
  0
LTYPE
  5
1F8
100
AcDbSymbolTableRecord
100
AcDbLinetypeTableRecord
  2
DOT
 70
64
  3
. . . . . . . . . . . . . . . . . . . .
 72
65
 73
2
 40
0.2
 49
0.1
 74
0
 49
-0.1
 74
0
  0
LTYPE
  5
1F9
100
AcDbSymbolTableRecord
100
AcDbLinetypeTableRecord
  2
DASHED
 70
64
  3
- - - - - - - - - - - - - - - - - - - -
 72
65
 73
2
 40
0.2
 49
0.1
 74
0
 49
-0.1
 74
0
  0
ENDTAB
  0
TABLE
  2
LAYER
  5
2
100
AcDbSymbolTable
 70
36
  0
LAYER
  5
10
100
AcDbSymbolTableRecord
100
AcDbLayerTableRecord
  2
0
 70
0
 62
7
  6
CONTINUOUS
370
-3
390
F
  0
LAYER
  5
1FA
100
AcDbSymbolTableRecord
100
AcDbLayerTableRecord
  2
DEFAULT_1
 70
0
 62
7
  6
CENTER
370
-3
390
F
  0
LAYER
  5
1FB
100
AcDbSymbolTableRecord
100
AcDbLayerTableRecord
  2
DEFAULT_2
 70
0
 62
7
  6
HIDDEN
370
-3
390
F
  0
LAYER
  5
1FC
100
AcDbSymbolTableRecord
100
AcDbLayerTableRecord
  2
DEFAULT_3
 70
0
 62
7
  6
PHANTOM
370
-3
390
F
  0
LAYER
  5
1FD
100
AcDbSymbolTableRecord
100
AcDbLayerTableRecord
  2
ASSI
 70
0
 62
7
  6
CONTINUOUS
370
-3
390
F
  0
LAYER
  5
1FE
100
AcDbSymbolTableRecord
100
AcDbLayerTableRecord
  2
COORDINATE
 70
0
 62
7
  6
CONTINUOUS
370
-3
390
F
  0
LAYER
  5
1FF
100
AcDbSymbolTableRecord
100
AcDbLayerTableRecord
  2
COORD_ORIGINE
 70
0
 62
7
  6
CONTINUOUS
370
-3
390
F
  0
LAYER
  5
200
100
AcDbSymbolTableRecord
100
AcDbLayerTableRecord
  2
COSMETICI
 70
0
 62
7
  6
CONTINUOUS
370
-3
390
F
  0
LAYER
  5
201
100
AcDbSymbolTableRecord
100
AcDbLayerTableRecord
  2
CURVE
 70
0
 62
7
  6
CONTINUOUS
370
-3
390
F
  0
LAYER
  5
202
100
AcDbSymbolTableRecord
100
AcDbLayerTableRecord
  2
DRAFT
 70
0
 62
7
  6
CONTINUOUS
370
-3
390
F
  0
LAYER
  5
203
100
AcDbSymbolTableRecord
100
AcDbLayerTableRecord
  2
INTFCLR_1
 70
0
 62
7
  6
CONTINUOUS
370
-3
390
F
  0
LAYER
  5
204
100
AcDbSymbolTableRecord
100
AcDbLayerTableRecord
  2
NOTE
 70
0
 62
7
  6
CONTINUOUS
370
-3
390
F
  0
LAYER
  5
205
100
AcDbSymbolTableRecord
100
AcDbLayerTableRecord
  2
PIANI
 70
0
 62
7
  6
CONTINUOUS
370
-3
390
F
  0
LAYER
  5
206
100
AcDbSymbolTableRecord
100
AcDbLayerTableRecord
  2
PIANI_ORIGINE
 70
0
 62
7
  6
CONTINUOUS
370
-3
390
F
  0
LAYER
  5
207
100
AcDbSymbolTableRecord
100
AcDbLayerTableRecord
  2
PUNTI
 70
0
 62
7
  6
CONTINUOUS
370
-3
390
F
  0
LAYER
  5
208
100
AcDbSymbolTableRecord
100
AcDbLayerTableRecord
  2
RACCORDO
 70
0
 62
7
  6
CONTINUOUS
370
-3
390
F
  0
LAYER
  5
209
100
AcDbSymbolTableRecord
100
AcDbLayerTableRecord
  2
SIMBOLI
 70
0
 62
7
  6
CONTINUOUS
370
-3
390
F
  0
LAYER
  5
20A
100
AcDbSymbolTableRecord
100
AcDbLayerTableRecord
  2
SMUSSO
 70
0
 62
7
  6
CONTINUOUS
370
-3
390
F
  0
LAYER
  5
20B
100
AcDbSymbolTableRecord
100
AcDbLayerTableRecord
  2
SNAPLINE
 70
0
 62
7
  6
CONTINUOUS
370
-3
390
F
  0
LAYER
  5
20C
100
AcDbSymbolTableRecord
100
AcDbLayerTableRecord
  2
SUPERFICI
 70
0
 62
7
  6
CONTINUOUS
370
-3
390
F
  0
LAYER
  5
20D
100
AcDbSymbolTableRecord
100
AcDbLayerTableRecord
  2
TRASH
 70
0
 62
7
  6
CONTINUOUS
370
-3
390
F
  0
ENDTAB
  0
TABLE
  2
STYLE
  5
3
100
AcDbSymbolTable
 70
1
  0
STYLE
  5
11
100
AcDbSymbolTableRecord
100
AcDbTextStyleTableRecord
  2
STANDARD
 70
0
 40
0.0
 41
0.8
 50
0.0
 71
0
 42
0.2
  3
txt
  4

  0
STYLE
  5
20E
100
AcDbSymbolTableRecord
100
AcDbTextStyleTableRecord
  2
TEXTSTYLE_1
 70
0
 40
0.0
 41
0.8
 50
0.0
 71
0
 42
0.2
  3
gdt
  4

  0
ENDTAB
  0
TABLE
  2
VIEW
  5
6
100
AcDbSymbolTable
 70
0
  0
ENDTAB
  0
TABLE
  2
UCS
  5
7
100
AcDbSymbolTable
 70
0
  0
ENDTAB
  0
TABLE
  2
APPID
  5
9
100
AcDbSymbolTable
 70
1
  0
APPID
  5
20F
100
AcDbSymbolTableRecord
100
AcDbRegAppTableRecord
  2
ACAD
 70
0
  0
ENDTAB
  0
TABLE
  2
BLOCK_RECORD
  5
1
100
AcDbSymbolTable
 70
0
  0
BLOCK_RECORD
  5
210
100
AcDbSymbolTableRecord
100
AcDbBlockTableRecord
  2
*Model_Space
  0
BLOCK_RECORD
  5
211
100
AcDbSymbolTableRecord
100
AcDbBlockTableRecord
  2
*Paper_Space
  0
BLOCK_RECORD
  5
212
100
AcDbSymbolTableRecord
100
AcDbBlockTableRecord
  2
_FILLED
  0
ENDTAB
  0
TABLE
  2
DIMSTYLE
  5
A
100
AcDbSymbolTable
 70
1
100
AcDbDimStyleTable
 71
0
  0
DIMSTYLE
105
213
100
AcDbSymbolTableRecord
100
AcDbDimStyleTableRecord
  2
STANDARD
 70
0
  3

  4

 40
1.0
 41
3.0
 42
0.5
 43
0.38
 44
1.5
 45
0.0
 46
0.0
 47
0.01
 48
0.01
140
3.0
141
0.09
142
0.0
143
25.4
144
1.0
145
0.0
146
1.0
147
0.625
 71
1
 72
0
 73
0
 74
0
 75
0
 76
0
 77
1
 78
8
 79
2
170
0
171
1
172
0
173
0
174
0
175
0
176
0
177
0
178
0
270
2
179
2
271
2
272
2
273
2
274
2
275
0
280
0
281
0
282
0
283
1
284
8
285
0
286
0
287
3
288
0
340
11
278
44
341
212
342
212
343
212
344
212
  0
ENDTAB
  0
ENDSEC
  0
SECTION
  2
BLOCKS
  0
BLOCK
  5
20
100
AcDbEntity
  8
0
100
AcDbBlockBegin
  2
*Model_Space
 70
0
 10
0.0
 20
0.0
 30
0.0
  3
*Model_Space
  1

  0
ENDBLK
  5
21
100
AcDbEntity
  8
0
100
AcDbBlockEnd
  0
BLOCK
  5
1C
100
AcDbEntity
  8
0
100
AcDbBlockBegin
  2
*Paper_Space
 70
0
 10
0.0
 20
0.0
 30
0.0
  3
*Paper_Space
  1

  0
ENDBLK
  5
1D
100
AcDbEntity
  8
0
100
AcDbBlockEnd
  0
BLOCK
  5
214
100
AcDbEntity
  8
0
100
AcDbBlockBegin
  2
_FILLED
 70
64
 10
0.0
 20
0.0
  3
_FILLED
  1

  0
SOLID
  5
215
100
AcDbEntity
  8
0
  6
BYBLOCK
 62
0
100
AcDbTrace
 10
0.0
 20
0.0
 11
-1.0
 21
0.3166666667
 12
-1.0
 22
-0.3166666667
 13
-1.0
 23
-0.3166666667
  0
ENDBLK
  5
216
100
AcDbEntity
  8
0
  6
BYBLOCK
 62
0
100
AcDbBlockEnd
  0
ENDSEC
  0
SECTION
  2
ENTITIES
  0
LWPOLYLINE
  5
217
100
AcDbEntity
  8
RACCORDO
100
AcDbPolyline
 62
250
  6
CONTINUOUS
 90
4
 70
0
 10
-20.1524109385
 20
25.0817365273
 10
-20.0954925677
 20
25.1310437079
 10
-20.0376405454
 20
25.1753178541
 10
-19.9792617093
 20
25.2142526776
  0
LWPOLYLINE
  5
218
100
AcDbEntity
  8
RACCORDO
100
AcDbPolyline
 62
7
  6
CONTINUOUS
 90
16
 70
0
 10
-20.2360266774
 20
25.2348418742
 10
-20.290162122
 20
25.1983248394
 10
-20.3551427238
 20
25.1474852168
 10
-20.4162476643
 20
25.0919516731
 10
-20.4736860592
 20
25.0319781679
 10
-20.5274086396
 20
24.9678851916
 10
-20.5770530204
 20
24.9003859618
 10
-20.6225448647
 20
24.8297558023
 10
-20.6637808575
 20
24.7562149935
 10
-20.7003304106
 20
24.6805516398
 10
-20.7320474656
 20
24.6029641525
 10
-20.7587457945
 20
24.5236599103
 10
-20.7800120931
 20
24.4433362694
 10
-20.7955872827
 20
24.3622167047
 10
-20.805170844
 20
24.2802470714
 10
-20.8076972854
 20
24.2352952138
  0
LINE
  5
219
100
AcDbEntity
  8
RACCORDO
100
AcDbLine
 62
7
  6
CONTINUOUS
 10
-20.2361240473
 20
25.2347995867
 11
-15.998553818
 21
27.8988552985
  0
LINE
  5
21A
100
AcDbEntity
  8
RACCORDO
100
AcDbLine
 62
250
  6
CONTINUOUS
 10
-19.9792617093
 20
25.2142526776
 11
-15.7432636312
 21
27.8773200168
  0
LWPOLYLINE
  5
21B
100
AcDbEntity
  8
RACCORDO
100
AcDbPolyline
 62
250
  6
CONTINUOUS
 90
8
 70
0
 10
-20.2360351814
 20
25.2348554147
 10
-20.2308164546
 20
25.2379977483
 10
-20.1962465692
 20
25.25301298
 10
-20.157807906
 20
25.2604782087
 10
-20.1161577793
 20
25.2602657765
 10
-20.0720084203
 20
25.2523793161
 10
-20.0261147981
 20
25.2369536887
 10
-19.9792617093
 20
25.2142526776
  0
LWPOLYLINE
  5
21C
100
AcDbEntity
  8
RACCORDO
100
AcDbPolyline
 62
7
  6
CONTINUOUS
 90
12
 70
0
 10
-20.8076640661
 20
-9.6202511179
 10
-20.802429932
 20
-9.6908903432
 10
-20.7914346245
 20
-9.7617073676
 10
-20.7747727257
 20
-9.8302291015
 10
-20.7524166072
 20
-9.8962572365
 10
-20.7244124294
 20
-9.9593375794
 10
-20.6910757037
 20
-10.018724379
 10
-20.6527516134
 20
-10.0739251109
 10
-20.6097567204
 20
-10.1246004919
 10
-20.5626840083
 20
-10.1702102227
 10
-20.5121325267
 20
-10.2104391353
 10
-20.4565704582
 20
-10.2463398195
  0
LWPOLYLINE
  5
21D
100
AcDbEntity
  8
RACCORDO
100
AcDbPolyline
 62
250
  6
CONTINUOUS
 90
10
 70
0
 10
-20.6612460269
 20
-9.8231559474
 10
-20.7792637953
 20
-6.1336114907
 10
-20.8677860487
 20
-2.4253134874
 10
-20.9268051352
 20
1.3014229602
 10
-20.9563159531
 20
5.0462811706
 10
-20.9563159532
 20
8.8089430251
 10
-20.9268051353
 20
12.589088996
 10
-20.8677860489
 20
16.3863980206
 10
-20.7792637954
 20
20.2005475265
 10
-20.6612460269
 20
24.0312135749
  0
LWPOLYLINE
  5
21E
100
AcDbEntity
  8
RACCORDO
100
AcDbPolyline
 62
250
  6
CONTINUOUS
 90
8
 70
0
 10
-20.8076972854
 20
24.2352952138
 10
-20.8077593074
 20
24.2277207141
 10
-20.8029858921
 20
24.191952539
 10
-20.7899298893
 20
24.1566244127
 10
-20.7688097611
 20
24.1223274688
 10
-20.7399789035
 20
24.0896355869
 10
-20.7039197339
 20
24.0590957896
 10
-20.6612356188
 20
24.0312190892
  0
LWPOLYLINE
  5
21F
100
AcDbEntity
  8
RACCORDO
100
AcDbPolyline
 62
7
  6
CONTINUOUS
 90
10
 70
0
 10
-20.8076979523
 20
24.235529609
 10
-20.9232455192
 20
20.4958752668
 10
-21.013003783
 20
16.6538996351
 10
-21.0728348556
 20
12.8289482182
 10
-21.1027304275
 20
9.0213950873
 10
-21.1026885073
 20
5.2315490418
 10
-21.072708334
 20
1.4596940585
 10
-21.012790328
 20
-2.2938629509
 10
-20.9229412323
 20
-6.0287573105
 10
-20.8076716422
 20
-9.6202931031
  0
LWPOLYLINE
  5
220
100
AcDbEntity
  8
RACCORDO
100
AcDbPolyline
 62
250
  6
CONTINUOUS
 90
16
 70
0
 10
-20.6612460269
 20
24.0312135749
 10
-20.6563845621
 20
24.1019807422
 10
-20.6466751729
 20
24.1748945889
 10
-20.6321841401
 20
24.2494481535
 10
-20.6130103654
 20
24.3251326804
 10
-20.5892867795
 20
24.401411851
 10
-20.5611847571
 20
24.4777251011
 10
-20.5289133442
 20
24.5535246466
 10
-20.492695364
 20
24.6283012019
 10
-20.4527672609
 20
24.7015565872
 10
-20.4094029037
 20
24.7727911939
 10
-20.3629104413
 20
24.8414990428
 10
-20.3136107489
 20
24.9071925692
 10
-20.2618506443
 20
24.9694152945
 10
-20.2079932701
 20
25.0277346765
 10
-20.1524109385
 20
25.0817365273
  0
LWPOLYLINE
  5
221
100
AcDbEntity
  8
RACCORDO
100
AcDbPolyline
 62
250
  6
CONTINUOUS
 90
7
 70
0
 10
-20.8076716422
 20
-9.6202931031
 10
-20.8029956132
 20
-9.6552172159
 10
-20.7899402199
 20
-9.6930188318
 10
-20.7688204598
 20
-9.7293018964
 10
-20.7399897302
 20
-9.7634592847
 10
-20.7039304558
 20
-9.7949194407
 10
-20.661246017
 20
-9.8231559412
  0
LWPOLYLINE
  5
222
100
AcDbEntity
  8
RACCORDO
100
AcDbPolyline
 62
250
  6
CONTINUOUS
 90
13
 70
0
 10
9.7941777542
 20
-27.4077359354
 10
9.8427703793
 20
-27.432201667
 10
9.8964608287
 20
-27.4525618761
 10
9.9543506994
 20
-27.4684758753
 10
10.0154713196
 20
-27.4796773752
 10
10.0787999572
 20
-27.4859789412
 10
10.1432769332
 20
-27.487275129
 10
10.2078233538
 20
-27.4835442497
 10
10.2713591628
 20
-27.474848732
 10
10.3328212149
 20
-27.4613340781
 10
10.3911810648
 20
-27.4432264289
 10
10.4454621764
 20
-27.4208287799
 10
10.4947562633
 20
-27.3945159112
  0
LWPOLYLINE
  5
223
100
AcDbEntity
  8
RACCORDO
100
AcDbPolyline
 62
7
  6
CONTINUOUS
 90
12
 70
0
 10
10.0025582589
 20
-27.8330599296
 10
10.0584055805
 20
-27.8619052296
 10
10.1195981661
 20
-27.8864435488
 10
10.1831481403
 20
-27.9049979564
 10
10.2484572725
 20
-27.9173995885
 10
10.3159552808
 20
-27.9236348555
 10
10.3852363818
 20
-27.9234261952
 10
10.4556527659
 20
-27.9165460736
 10
10.5274818531
 20
-27.9026787857
 10
10.6005742145
 20
-27.8814295895
 10
10.6742053121
 20
-27.8525467747
 10
10.7306679776
 20
-27.8251125231
  0
LINE
  5
224
100
AcDbEntity
  8
RACCORDO
100
AcDbLine
 62
7
  6
CONTINUOUS
 10
10.0025712645
 20
-27.833077538
 11
-20.4565739282
 21
-10.2463488773
  0
LINE
  5
225
100
AcDbEntity
  8
RACCORDO
100
AcDbLine
 62
250
  6
CONTINUOUS
 10
9.7941777483
 20
-27.4077359391
 11
-20.6612460269
 21
-9.8231559474
  0
LINE
  5
226
100
AcDbEntity
  8
RACCORDO
100
AcDbLine
 62
7
  6
CONTINUOUS
 10
-20.4565741539
 20
-10.246348747
 11
-20.4566050949
 21
-10.2463308798
  0
LWPOLYLINE
  5
227
100
AcDbEntity
  8
RACCORDO
100
AcDbPolyline
 62
250
  6
CONTINUOUS
 90
10
 70
0
 10
-20.4566050949
 20
-10.2463308798
 10
-20.492695364
 20
-10.2221747678
 10
-20.5289133442
 20
-10.189961514
 10
-20.5611847571
 20
-10.1520834778
 10
-20.5892867795
 20
-10.1087911453
 10
-20.6130103654
 20
-10.0603923886
 10
-20.6321841401
 20
-10.0072394395
 10
-20.6466751728
 20
-9.9497116338
 10
-20.656384562
 20
-9.8882069957
 10
-20.6612460269
 20
-9.8231559474
  0
LWPOLYLINE
  5
228
100
AcDbEntity
  8
RACCORDO
100
AcDbPolyline
 62
250
  6
CONTINUOUS
 90
10
 70
0
 10
10.0024546688
 20
-27.833010248
 10
9.9657117539
 20
-27.8084796803
 10
9.9288406821
 20
-27.7758870004
 10
9.895996099
 20
-27.737673754
 10
9.8674050645
 20
-27.6941014698
 10
9.8432675155
 20
-27.6454732847
 10
9.8237577269
 20
-27.5921351117
 10
9.8090119889
 20
-27.5344617009
 10
9.7991294023
 20
-27.4728521638
 10
9.7941777483
 20
-27.4077359391
  0
LWPOLYLINE
  5
229
100
AcDbEntity
  8
RACCORDO
100
AcDbPolyline
 62
250
  6
CONTINUOUS
 90
5
 70
0
 10
3.8323950245
 20
17.5922585737
 10
4.2807288335
 20
17.8194182865
 10
4.7379169844
 20
18.0266884243
 10
5.2036610719
 20
18.2139483375
 10
5.6776301739
 20
18.3810765265
  0
LWPOLYLINE
  5
22A
100
AcDbEntity
  8
RACCORDO
100
AcDbPolyline
 62
7
  6
CONTINUOUS
 90
4
 70
0
 10
7.8862064897
 20
19.7228437865
 10
7.6132891479
 20
19.590940298
 10
7.3453328101
 20
19.4505233306
 10
7.3187836
 20
19.4359988765
  0
LINE
  5
22B
100
AcDbEntity
  8
0
100
AcDbLine
 62
7
  6
CONTINUOUS
 10
12.4620349516
 20
20.043190574
 11
12.0461405591
 21
19.8750481905
  0
LWPOLYLINE
  5
22C
100
AcDbEntity
  8
RACCORDO
100
AcDbPolyline
 62
7
  6
CONTINUOUS
 90
5
 70
0
 10
6.2582625878
 20
18.7241427978
 10
5.8200277951
 20
18.5814822891
 10
5.3922166865
 20
18.4194255259
 10
4.974829262
 20
18.2379725084
 10
4.5675217884
 20
18.0369246173
  0
LWPOLYLINE
  5
22D
100
AcDbEntity
  8
RACCORDO
100
AcDbPolyline
 62
250
  6
CONTINUOUS
 90
10
 70
0
 10
5.8929116242
 20
18.3411452657
 10
5.8711782062
 20
18.325317623
 10
5.8501446161
 20
18.3060558187
 10
5.830316087
 20
18.2838225272
 10
5.8121689063
 20
18.2591517989
 10
5.7961389744
 20
18.2326362323
 10
5.7826113351
 20
18.204912739
 10
5.7719109262
 20
18.1766472455
 10
5.7642947748
 20
18.1485186976
 10
5.7599458232
 20
18.1212027514
  0
LWPOLYLINE
  5
22E
100
AcDbEntity
  8
RACCORDO
100
AcDbPolyline
 62
250
  6
CONTINUOUS
 90
7
 70
0
 10
3.1362040159
 20
16.9765520128
 10
3.3557728681
 20
17.1127013586
 10
3.7923771528
 20
17.3581624034
 10
4.2377523098
 20
17.5838807318
 10
4.6915505274
 20
17.7896691443
 10
5.1541196174
 20
17.9757148404
 10
5.6254595798
 20
18.1420178199
  0
LWPOLYLINE
  5
22F
100
AcDbEntity
  8
RACCORDO
100
AcDbPolyline
 62
7
  6
CONTINUOUS
 90
3
 70
0
 10
3.2803291673
 20
17.2778027935
 10
3.0771633572
 20
17.1518751028
 10
2.9619359723
 20
17.077172197
  0
LINE
  5
230
100
AcDbEntity
  8
RACCORDO
100
AcDbLine
 62
7
  6
CONTINUOUS
 10
3.2787804688
 20
17.2768613827
 11
3.2803019808
 21
17.2777836425
  0
LINE
  5
231
100
AcDbEntity
  8
DRAFT
100
AcDbLine
 62
7
  6
CONTINUOUS
 10
4.0609351498
 20
17.7510429605
 11
3.2787959101
 21
17.276870744
  0
LWPOLYLINE
  5
232
100
AcDbEntity
  8
RACCORDO
100
AcDbPolyline
 62
7
  6
CONTINUOUS
 90
21
 70
0
 10
5.0080145301
 20
17.5319297128
 10
4.993508104
 20
17.5231771792
 10
4.9546797529
 20
17.4956109491
 10
4.9181382396
 20
17.4629960694
 10
4.8847575302
 20
17.4255688445
 10
4.8550394799
 20
17.383239336
 10
4.8297119003
 20
17.3361185727
 10
4.8097828889
 20
17.2851155053
 10
4.7959361087
 20
17.2312775035
 10
4.7884477811
 20
17.1745733646
 10
4.7877473962
 20
17.1164781598
 10
4.7936050233
 20
17.0596631998
 10
4.8057198773
 20
17.0034725637
 10
4.8239279619
 20
16.9482833984
 10
4.846737325
 20
16.8972521965
 10
4.8736303976
 20
16.8499523872
 10
4.9049704882
 20
16.8053321462
 10
4.9392882134
 20
16.7652102492
 10
4.9758119529
 20
16.7298802199
 10
5.0152878304
 20
16.6983910804
 10
5.0579057015
 20
16.6708083106
  0
LWPOLYLINE
  5
233
100
AcDbEntity
  8
RACCORDO
100
AcDbPolyline
 62
7
  6
CONTINUOUS
 90
3
 70
0
 10
3.2803019808
 20
17.2777836425
 10
3.3932554342
 20
17.3453775704
 10
3.4969255159
 20
17.4059176868
  0
LINE
  5
234
100
AcDbEntity
  8
RACCORDO
100
AcDbLine
 62
250
  6
CONTINUOUS
 10
6.4725655778
 20
18.6837791415
 11
5.8929116243
 21
18.3411452656
  0
LINE
  5
235
100
AcDbEntity
  8
RACCORDO
100
AcDbLine
 62
250
  6
CONTINUOUS
 10
6.2582626262
 20
18.7241427995
 11
5.6776301739
 21
18.3810765265
  0
LINE
  5
236
100
AcDbEntity
  8
ASSI
100
AcDbLine
 62
7
  6
CONTINUOUS
 10
5.3942958636
 20
17.7549637706
 11
5.0079033796
 21
17.531865593
  0
LINE
  5
237
100
AcDbEntity
  8
ASSI
100
AcDbLine
 62
7
  6
CONTINUOUS
 10
5.8329307099
 20
16.8535068957
 11
5.5079275398
 21
16.6658541385
  0
LINE
  5
238
100
AcDbEntity
  8
RACCORDO
100
AcDbLine
 62
250
  6
CONTINUOUS
 10
5.0080145301
 20
17.5319297128
 11
5.0079033796
 21
17.531865593
  0
LWPOLYLINE
  5
239
100
AcDbEntity
  8
RACCORDO
100
AcDbPolyline
 62
7
  6
CONTINUOUS
 90
3
 70
0
 10
4.5675217884
 20
18.0369246173
 10
4.1706379988
 20
17.8164804718
 10
4.060950432
 20
17.751016921
  0
LINE
  5
23A
100
AcDbEntity
  8
RACCORDO
100
AcDbLine
 62
250
  6
CONTINUOUS
 10
3.4969255159
 20
17.4059176868
 11
3.8323950245
 21
17.5922585737
  0
LINE
  5
23B
100
AcDbEntity
  8
DRAFT
100
AcDbLine
 62
7
  6
CONTINUOUS
 10
9.9473323807
 20
20.4061863341
 11
7.1307488551
 21
18.844605587
  0
LINE
  5
23C
100
AcDbEntity
  8
DRAFT
100
AcDbLine
 62
7
  6
CONTINUOUS
 10
10.4422986031
 20
20.4990129295
 11
7.599416864
 21
18.9312666361
  0
LINE
  5
23D
100
AcDbEntity
  8
DRAFT
100
AcDbLine
 62
7
  6
CONTINUOUS
 10
7.3187813844
 20
19.4360027777
 11
5.6360020125
 21
18.5117724988
  0
LINE
  5
23E
100
AcDbEntity
  8
DRAFT
100
AcDbLine
 62
7
  6
CONTINUOUS
 10
10.5168589632
 20
21.1664336326
 11
7.8862064897
 21
19.7228437865
  0
LINE
  5
23F
100
AcDbEntity
  8
DRAFT
100
AcDbLine
 62
7
  6
CONTINUOUS
 10
10.5571857368
 20
21.1431104795
 11
8.283689517
 21
19.8959903796
  0
LINE
  5
240
100
AcDbEntity
  8
DRAFT
100
AcDbLine
 62
7
  6
CONTINUOUS
 10
9.5793411022
 20
20.3206738335
 11
6.6830776572
 21
18.7405773509
  0
LWPOLYLINE
  5
241
100
AcDbEntity
  8
DRAFT
100
AcDbPolyline
 62
7
  6
CONTINUOUS
 90
16
 70
0
 10
7.0282013356
 20
18.6458460151
 10
7.021275428
 20
18.6420743916
 10
7.0016392376
 20
18.633482245
 10
6.9809173278
 20
18.6273311122
 10
6.9590941902
 20
18.6236614309
 10
6.9361853332
 20
18.6224327634
 10
6.912561145
 20
18.6236559265
 10
6.8882170758
 20
18.6273658673
 10
6.8631576755
 20
18.6335276387
 10
6.8377669805
 20
18.6420472151
 10
6.8120306345
 20
18.6529641133
 10
6.7859629939
 20
18.6662388167
 10
6.7599911652
 20
18.6816587496
 10
6.7342575173
 20
18.6991530538
 10
6.7086196813
 20
18.7187925875
 10
6.6830776572
 20
18.7405773509
  0
LINE
  5
242
100
AcDbEntity
  8
DRAFT
100
AcDbLine
 62
7
  6
CONTINUOUS
 10
10.8950215576
 20
20.2376163695
 11
8.0172240537
 21
18.6900300011
  0
LWPOLYLINE
  5
243
100
AcDbEntity
  8
RACCORDO
100
AcDbPolyline
 62
250
  6
CONTINUOUS
 90
10
 70
0
 10
5.677644398
 20
18.3810478267
 10
5.6576678041
 20
18.3655140742
 10
5.6405168641
 20
18.345738646
 10
5.6266396175
 20
18.3222381428
 10
5.6163985842
 20
18.2956264767
 10
5.6100612942
 20
18.2665988337
 10
5.6077932989
 20
18.2359135133
 10
5.6096538466
 20
18.2043721193
 10
5.6155943351
 20
18.1727986195
 10
5.6254595806
 20
18.1420178203
  0
LWPOLYLINE
  5
244
100
AcDbEntity
  8
RACCORDO
100
AcDbPolyline
 62
250
  6
CONTINUOUS
 90
24
 70
0
 10
5.5079275398
 20
16.6658541385
 10
5.5205967166
 20
16.6739513026
 10
5.5439031041
 20
16.6937111765
 10
5.564068577
 20
16.717907139
 10
5.58087754
 20
16.7462765626
 10
5.5941476607
 20
16.7785114194
 10
5.6037334092
 20
16.8142607327
 10
5.6095284812
 20
16.8531315582
 10
5.6114688496
 20
16.8946963971
 10
5.6095332201
 20
16.9384994894
 10
5.603742791
 20
16.9840607338
 10
5.5941613965
 20
17.0308790662
 10
5.5808947371
 20
17.0784401388
 10
5.564088402
 20
17.1262235632
 10
5.5439262587
 20
17.1737070357
 10
5.520628439
 20
17.2203717167
 10
5.494450967
 20
17.2657044434
 10
5.4656830085
 20
17.3092051682
 10
5.4346402977
 20
17.3503977234
 10
5.401663558
 20
17.388831151
 10
5.3671174219
 20
17.4240822303
 10
5.3313819331
 20
17.4557656262
 10
5.2948478901
 20
17.483537234
 10
5.2579154597
 20
17.5070950042
  0
LINE
  5
245
100
AcDbEntity
  8
RACCORDO
100
AcDbLine
 62
7
  6
CONTINUOUS
 10
8.0172240537
 20
17.7919126966
 11
7.4501639895
 21
17.4420072669
  0
LINE
  5
246
100
AcDbEntity
  8
DRAFT
100
AcDbLine
 62
7
  6
CONTINUOUS
 10
12.0461405591
 20
18.9769308861
 11
7.2088104541
 21
16.1839263704
  0
LINE
  5
247
100
AcDbEntity
  8
DRAFT
100
AcDbLine
 62
7
  6
CONTINUOUS
 10
10.8950215576
 20
18.388239987
 11
12.0461405591
 21
19.018676636
  0
LWPOLYLINE
  5
248
100
AcDbEntity
  8
RACCORDO
100
AcDbPolyline
 62
250
  6
CONTINUOUS
 90
13
 70
0
 10
16.7869621125
 20
-20.1376984555
 10
16.8063886581
 20
-20.1473531846
 10
16.827839205
 20
-20.1551569429
 10
16.8509547679
 20
-20.1609791305
 10
16.8753484964
 20
-20.1647223104
 10
16.9006121497
 20
-20.1663238386
 10
16.9263229282
 20
-20.1657569128
 10
16.9520505494
 20
-20.1630310207
 10
16.977364449
 20
-20.1581917815
 10
17.0018409865
 20
-20.1513201822
 10
17.0250705352
 20
-20.1425312224
 10
17.0466643371
 20
-20.1319719897
 10
17.0662610095
 20
-20.119819198
  0
LINE
  5
249
100
AcDbEntity
  8
DRAFT
100
AcDbLine
 62
7
  6
CONTINUOUS
 10
15.3185799042
 20
17.6835092204
 11
12.5395231586
 21
16.0789111757
  0
LINE
  5
24A
100
AcDbEntity
  8
DRAFT
100
AcDbLine
 62
7
  6
CONTINUOUS
 10
15.7713028587
 20
17.4221126604
 11
12.9573303482
 21
15.8376745407
  0
LINE
  5
24B
100
AcDbEntity
  8
DRAFT
100
AcDbLine
 62
7
  6
CONTINUOUS
 10
15.3301626405
 20
16.2509473524
 11
13.4259983572
 21
15.2098074224
  0
LINE
  5
24C
100
AcDbEntity
  8
DRAFT
100
AcDbLine
 62
7
  6
CONTINUOUS
 10
16.2662690811
 20
16.7577114782
 11
15.3301626405
 21
16.2509473524
  0
LINE
  5
24D
100
AcDbEntity
  8
RACCORDO
100
AcDbLine
 62
7
  6
CONTINUOUS
 10
12.5395231586
 20
15.1807938712
 11
11.9919196199
 21
14.8196544875
  0
LINE
  5
24E
100
AcDbEntity
  8
DRAFT
100
AcDbLine
 62
7
  6
CONTINUOUS
 10
16.6342603595
 20
16.2472518732
 11
15.7278886285
 21
15.6992412045
  0
LWPOLYLINE
  5
24F
100
AcDbEntity
  8
RACCORDO
100
AcDbPolyline
 62
7
  6
CONTINUOUS
 90
21
 70
0
 10
12.7861891231
 20
13.0409091862
 10
12.771682697
 20
13.0321566526
 10
12.732854346
 20
13.0045904225
 10
12.6963128326
 20
12.9719755428
 10
12.6629321233
 20
12.9345483179
 10
12.633214073
 20
12.8922188094
 10
12.6078864933
 20
12.8450980461
 10
12.587957482
 20
12.7940949786
 10
12.5741107017
 20
12.7402569769
 10
12.5666223742
 20
12.683552838
 10
12.5659219893
 20
12.6254576332
 10
12.5717796163
 20
12.5686426732
 10
12.5838944703
 20
12.5124520371
 10
12.602102555
 20
12.4572628718
 10
12.6249119181
 20
12.4062316699
 10
12.6518049907
 20
12.3589318606
 10
12.6831450812
 20
12.3143116196
 10
12.7174628065
 20
12.2741897226
 10
12.7539865459
 20
12.2388596933
 10
12.7934624235
 20
12.2073705538
 10
12.8360802946
 20
12.179787784
  0
LINE
  5
250
100
AcDbEntity
  8
DRAFT
100
AcDbLine
 62
7
  6
CONTINUOUS
 10
15.7278886285
 20
15.6992412045
 11
14.8075178977
 21
15.1465008913
  0
LINE
  5
251
100
AcDbEntity
  8
DRAFT
100
AcDbLine
 62
7
  6
CONTINUOUS
 10
14.8075178977
 20
15.1465008913
 11
13.873669555
 21
14.5888197084
  0
LINE
  5
252
100
AcDbEntity
  8
DRAFT
100
AcDbLine
 62
7
  6
CONTINUOUS
 10
16.3946146719
 20
16.4664610304
 11
16.4302026025
 21
16.4873741574
  0
LINE
  5
253
100
AcDbEntity
  8
ASSI
100
AcDbLine
 62
7
  6
CONTINUOUS
 10
13.1724704567
 20
13.263943244
 11
12.7860779727
 21
13.0408450664
  0
LINE
  5
254
100
AcDbEntity
  8
RACCORDO
100
AcDbLine
 62
250
  6
CONTINUOUS
 10
12.7861891231
 20
13.0409091862
 11
12.7860779727
 21
13.0408450664
  0
LINE
  5
255
100
AcDbEntity
  8
RACCORDO
100
AcDbLine
 62
7
  6
CONTINUOUS
 10
20.9048947111
 20
-17.7922148885
 11
21.1064517177
 21
-17.908591378
  0
LINE
  5
256
100
AcDbEntity
  8
0
100
AcDbLine
 62
7
  6
CONTINUOUS
 10
16.4302026025
 20
17.3437457119
 11
16.7214149912
 21
17.5838779217
  0
LINE
  5
257
100
AcDbEntity
  8
DRAFT
100
AcDbLine
 62
7
  6
CONTINUOUS
 10
16.4302026025
 20
16.4873741574
 11
17.3402449544
 21
17.2266570989
  0
LINE
  5
258
100
AcDbEntity
  8
RACCORDO
100
AcDbLine
 62
250
  6
CONTINUOUS
 10
13.7635544034
 20
13.7123652169
 11
14.2984845863
 21
14.0818194073
  0
LINE
  5
259
100
AcDbEntity
  8
RACCORDO
100
AcDbLine
 62
250
  6
CONTINUOUS
 10
13.5491719851
 20
13.9205164887
 11
14.0841816347
 21
14.2889274262
  0
LWPOLYLINE
  5
25A
100
AcDbEntity
  8
RACCORDO
100
AcDbPolyline
 62
250
  6
CONTINUOUS
 90
24
 70
0
 10
13.2861021328
 20
12.1748336119
 10
13.2987713096
 20
12.182930776
 10
13.3220776971
 20
12.2026906499
 10
13.3422431701
 20
12.2268866124
 10
13.359052133
 20
12.255256036
 10
13.3723222538
 20
12.2874908928
 10
13.3819080023
 20
12.3232402061
 10
13.3877030743
 20
12.3621110316
 10
13.3896434426
 20
12.4036758705
 10
13.3877078131
 20
12.4474789628
 10
13.3819173841
 20
12.4930402072
 10
13.3723359896
 20
12.5398585396
 10
13.3590693302
 20
12.5874196122
 10
13.3422629951
 20
12.6352030366
 10
13.3221008518
 20
12.6826865091
 10
13.298803032
 20
12.7293511901
 10
13.27262556
 20
12.7746839168
 10
13.2438576015
 20
12.8181846416
 10
13.2128148908
 20
12.8593771968
 10
13.179838151
 20
12.8978106244
 10
13.145292015
 20
12.9330617037
 10
13.1095565262
 20
12.9647450996
 10
13.0730224831
 20
12.9925167074
 10
13.0360900528
 20
13.0160744776
  0
LINE
  5
25B
100
AcDbEntity
  8
DRAFT
100
AcDbLine
 62
7
  6
CONTINUOUS
 10
20.8677865361
 20
15.1899377796
 11
18.327394972
 21
13.6942324157
  0
LINE
  5
25C
100
AcDbEntity
  8
DRAFT
100
AcDbLine
 62
7
  6
CONTINUOUS
 10
20.1288749478
 20
15.6165370905
 11
17.9299119448
 21
14.3263824453
  0
LINE
  5
25D
100
AcDbEntity
  8
ASSI
100
AcDbLine
 62
7
  6
CONTINUOUS
 10
13.611105303
 20
12.3624863691
 11
13.2861021328
 21
12.1748336119
  0
LWPOLYLINE
  5
25E
100
AcDbEntity
  8
RACCORDO
100
AcDbPolyline
 62
250
  6
CONTINUOUS
 90
10
 70
0
 10
13.5399268377
 20
13.5723036168
 10
13.5578629525
 20
13.5870327431
 10
13.5789977157
 20
13.6029745431
 10
13.6027789541
 20
13.6197125167
 10
13.6285853522
 20
13.6368093625
 10
13.6557426843
 20
13.6538184032
 10
13.6835414298
 20
13.6702952556
 10
13.7112553105
 20
13.6858094405
 10
13.7381602654
 20
13.6999556297
 10
13.7635533675
 20
13.7123642357
  0
LINE
  5
25F
100
AcDbEntity
  8
DRAFT
100
AcDbLine
 62
7
  6
CONTINUOUS
 10
21.1064517177
 20
14.8642233443
 11
18.5589435679
 21
13.3149363121
  0
LINE
  5
260
100
AcDbEntity
  8
RACCORDO
100
AcDbLine
 62
250
  6
CONTINUOUS
 10
10.4881709544
 20
7.6227389042
 11
14.8746753735
 21
10.1989057685
  0
LINE
  5
261
100
AcDbEntity
  8
RACCORDO
100
AcDbLine
 62
250
  6
CONTINUOUS
 10
10.8447550884
 20
7.0123184566
 11
15.2281210744
 21
9.5866421386
  0
LINE
  5
262
100
AcDbEntity
  8
RACCORDO
100
AcDbLine
 62
250
  6
CONTINUOUS
 10
15.5184657901
 20
8.6517619223
 11
15.2281210744
 21
8.4841216156
  0
LWPOLYLINE
  5
263
100
AcDbEntity
  8
RACCORDO
100
AcDbPolyline
 62
250
  6
CONTINUOUS
 90
10
 70
0
 10
16.6112918341
 20
7.3349467526
 10
16.6331243767
 20
7.3425786541
 10
16.6581454691
 20
7.3516500633
 10
16.6856820499
 20
7.3619169615
 10
16.7149933916
 20
7.3731031717
 10
16.7452910263
 20
7.3849077874
 10
16.7757599548
 20
7.3970132671
 10
16.8055805704
 20
7.4090939765
 10
16.8339507056
 20
7.4208249474
 10
16.8601072106
 20
7.4318906193
  0
LWPOLYLINE
  5
264
100
AcDbEntity
  8
RACCORDO
100
AcDbPolyline
 62
250
  6
CONTINUOUS
 90
13
 70
0
 10
15.3724243514
 20
-7.8523380846
 10
15.3918508972
 20
-7.8619928138
 10
15.4133014443
 20
-7.8697965721
 10
15.4364170074
 20
-7.8756187598
 10
15.4608107362
 20
-7.8793619397
 10
15.4860743896
 20
-7.8809634678
 10
15.5117851682
 20
-7.880396542
 10
15.5375127893
 20
-7.8776706498
 10
15.5628266889
 20
-7.8728314106
 10
15.5873032262
 20
-7.8659598113
 10
15.6105327747
 20
-7.8571708515
 10
15.6321265763
 20
-7.8466116188
 10
15.6517232484
 20
-7.834458827
  0
LWPOLYLINE
  5
265
100
AcDbEntity
  8
RACCORDO
100
AcDbPolyline
 62
250
  6
CONTINUOUS
 90
13
 70
0
 10
15.3724243514
 20
-7.6533326915
 10
15.391850897
 20
-7.6634094833
 10
15.4133014439
 20
-7.6722943312
 10
15.4364170068
 20
-7.6798385431
 10
15.4608107354
 20
-7.6859158629
 10
15.4860743887
 20
-7.6904245835
 10
15.5117851672
 20
-7.6932892495
 10
15.5375127884
 20
-7.6944619192
 10
15.562826688
 20
-7.6939229674
 10
15.5873032255
 20
-7.6916814137
 10
15.6105327742
 20
-7.6877747716
 10
15.6321265761
 20
-7.6822684208
 10
15.6517232484
 20
-7.6752545126
  0
LWPOLYLINE
  5
266
100
AcDbEntity
  8
RACCORDO
100
AcDbPolyline
 62
250
  6
CONTINUOUS
 90
10
 70
0
 10
16.6112918343
 20
-20.8363350282
 10
16.6331246876
 20
-20.8608079696
 10
16.6581456735
 20
-20.8819071348
 10
16.6856817802
 20
-20.8990650009
 10
16.7149923447
 20
-20.9118200571
 10
16.7452889748
 20
-20.9198292195
 10
16.7757567552
 20
-20.9228770581
 10
16.8055761668
 20
-20.9208815926
 10
16.8339451306
 20
-20.9138964966
 10
16.8601005812
 20
-20.9021096543
  0
LINE
  5
267
100
AcDbEntity
  8
RACCORDO
100
AcDbLine
 62
250
  6
CONTINUOUS
 10
20.6025005743
 20
9.5751331228
 11
17.8768394848
 21
7.9627211233
  0
LINE
  5
268
100
AcDbEntity
  8
RACCORDO
100
AcDbLine
 62
250
  6
CONTINUOUS
 10
16.0116581068
 20
7.6309055188
 11
15.2281210744
 21
7.1785040067
  0
LINE
  5
269
100
AcDbEntity
  8
RACCORDO
100
AcDbLine
 62
250
  6
CONTINUOUS
 10
17.8580641384
 20
7.9944593147
 11
16.8601073638
 21
7.4318906699
  0
LINE
  5
26A
100
AcDbEntity
  8
RACCORDO
100
AcDbLine
 62
250
  6
CONTINUOUS
 10
15.3724243514
 20
-7.8523380846
 11
15.2281210744
 21
-7.769019181
  0
LINE
  5
26B
100
AcDbEntity
  8
RACCORDO
100
AcDbLine
 62
250
  6
CONTINUOUS
 10
15.3724243514
 20
-7.6533326915
 11
15.2281210744
 21
-7.5700137879
  0
LINE
  5
26C
100
AcDbEntity
  8
RACCORDO
100
AcDbLine
 62
250
  6
CONTINUOUS
 10
20.9063156229
 20
8.3885531704
 11
18.1626142164
 21
6.76759906
  0
LINE
  5
26D
100
AcDbEntity
  8
RACCORDO
100
AcDbLine
 62
250
  6
CONTINUOUS
 10
18.1626142164
 20
6.8063798289
 11
17.0662610095
 21
6.1875321569
  0
LINE
  5
26E
100
AcDbEntity
  8
RACCORDO
100
AcDbLine
 62
7
  6
CONTINUOUS
 10
7.3148772618
 20
17.2234048266
 11
7.2088104541
 21
16.1839263704
  0
LWPOLYLINE
  5
26F
100
AcDbEntity
  8
DRAFT
100
AcDbPolyline
 62
7
  6
CONTINUOUS
 90
11
 70
0
 10
7.1307488551
 20
18.844605587
 10
7.1277734187
 20
18.8161494112
 10
7.1229649335
 20
18.7893953132
 10
7.1163233995
 20
18.7643432929
 10
7.1077924514
 20
18.7408748088
 10
7.0974284545
 20
18.7191084025
 10
7.0854005049
 20
18.6993996983
 10
7.0716801778
 20
18.6817835102
 10
7.0562958981
 20
18.6662250242
 10
7.0395020362
 20
18.6529754232
 10
7.0282013356
 20
18.6458460151
  0
LWPOLYLINE
  5
270
100
AcDbEntity
  8
RACCORDO
100
AcDbPolyline
 62
250
  6
CONTINUOUS
 90
9
 70
0
 10
9.7941777483
 20
-27.4077359391
 10
9.6719707372
 20
-23.7157726673
 10
9.5803065518
 20
-20.0056605527
 10
9.519192844
 20
-16.2777146975
 10
9.4886347154
 20
-12.5322517831
 10
9.4886347154
 20
-8.7695899283
 10
9.5191928439
 20
-4.990048661
 10
9.5803065517
 20
-1.193949044
 10
9.6719707372
 20
2.6183863503
  0
LWPOLYLINE
  5
271
100
AcDbEntity
  8
RACCORDO
100
AcDbPolyline
 62
250
  6
CONTINUOUS
 90
9
 70
0
 10
10.4947562633
 20
-27.3945159112
 10
10.3726609354
 20
-23.7057256185
 10
10.2810894433
 20
-19.9994321162
 10
10.2200417869
 20
-16.2756354044
 10
10.1895179714
 20
-12.5340127783
 10
10.1895179916
 20
-8.7748869426
 10
10.2200418324
 20
-4.9992260114
 10
10.2810894888
 20
-1.2073526893
 10
10.3726609657
 20
2.6010557283
  0
LINE
  5
272
100
AcDbEntity
  8
DRAFT
100
AcDbLine
 62
7
  6
CONTINUOUS
 10
8.0172240537
 20
18.6900300011
 11
8.0172240537
 21
17.7919126966
  0
LINE
  5
273
100
AcDbEntity
  8
RACCORDO
100
AcDbLine
 62
250
  6
CONTINUOUS
 10
9.6719707372
 20
2.6183863503
 11
9.7941777483
 21
6.4466335832
  0
LWPOLYLINE
  5
274
100
AcDbEntity
  8
RACCORDO
100
AcDbPolyline
 62
250
  6
CONTINUOUS
 90
19
 70
0
 10
9.7941777483
 20
6.4466335832
 10
9.7991294023
 20
6.5173655441
 10
9.8090119889
 20
6.5901901806
 10
9.8237577269
 20
6.6645997819
 10
9.8432675156
 20
6.7400773873
 10
9.8674050645
 20
6.8160942724
 10
9.895996099
 20
6.892113506
 10
9.928840682
 20
6.9675994274
 10
9.9657117539
 20
7.0420299466
 10
10.0063497588
 20
7.1148937413
 10
10.0504732854
 20
7.1856797216
 10
10.0977777654
 20
7.2538955769
 10
10.1479349477
 20
7.3190782421
 10
10.2006052793
 20
7.3807765113
 10
10.2554201161
 20
7.4385505246
 10
10.3119816381
 20
7.4919909966
 10
10.3698920573
 20
7.5407233321
 10
10.4287574464
 20
7.5844078724
 10
10.4881709544
 20
7.6227389042
  0
LINE
  5
275
100
AcDbEntity
  8
DRAFT
100
AcDbLine
 62
7
  6
CONTINUOUS
 10
10.8950215576
 20
20.2376163695
 11
10.8950215576
 21
18.388239987
  0
LINE
  5
276
100
AcDbEntity
  8
RACCORDO
100
AcDbLine
 62
250
  6
CONTINUOUS
 10
10.3726609657
 20
2.6010557283
 11
10.4947562633
 21
6.4259992415
  0
LWPOLYLINE
  5
277
100
AcDbEntity
  8
RACCORDO
100
AcDbPolyline
 62
250
  6
CONTINUOUS
 90
19
 70
0
 10
10.4947562633
 20
6.4259992415
 10
10.497308519
 20
6.4616403619
 10
10.5022590582
 20
6.4978465341
 10
10.5096078808
 20
6.5346177579
 10
10.5194409064
 20
6.5722333762
 10
10.5316722155
 20
6.6104140462
 10
10.546044049
 20
6.6483217398
 10
10.562599118
 20
6.6859341738
 10
10.5812947114
 20
6.7232736314
 10
10.6017449379
 20
6.759568934
 10
10.6239858037
 20
6.7947974888
 10
10.6479813025
 20
6.8289818886
 10
10.6732375242
 20
6.8614187328
 10
10.6997937995
 20
6.8920815498
 10
10.7276107977
 20
6.9209968111
 10
10.756076616
 20
6.947540531
 10
10.7849872867
 20
6.9715047142
 10
10.8145467775
 20
6.9930973561
 10
10.8447550884
 20
7.0123184566
  0
LINE
  5
278
100
AcDbEntity
  8
RACCORDO
100
AcDbLine
 62
7
  6
CONTINUOUS
 10
11.8612747456
 20
14.5983718992
 11
11.75884722
 21
13.5567921671
  0
LWPOLYLINE
  5
279
100
AcDbEntity
  8
RACCORDO
100
AcDbPolyline
 62
250
  6
CONTINUOUS
 90
10
 70
0
 10
13.4162061842
 20
13.7005739745
 10
13.4205551359
 20
13.727889921
 10
13.4281712875
 20
13.7560184692
 10
13.4388716966
 20
13.7842839629
 10
13.4523993364
 20
13.8120074564
 10
13.4684292687
 20
13.8385230231
 10
13.4865764497
 20
13.8631937512
 10
13.5064049785
 20
13.8854270425
 10
13.5274385681
 20
13.9046888464
 10
13.5491719852
 20
13.9205164887
  0
LWPOLYLINE
  5
27A
100
AcDbEntity
  8
RACCORDO
100
AcDbPolyline
 62
250
  6
CONTINUOUS
 90
13
 70
0
 10
9.7941943471
 20
6.4466423725
 10
9.8427860194
 20
6.4218174919
 10
9.8964752454
 20
6.4005374763
 10
9.9543636722
 20
6.3831583929
 10
10.0154826834
 20
6.3699710367
 10
10.0788096075
 20
6.3611960648
 10
10.1432848287
 20
6.3569803042
 10
10.2078295177
 20
6.3573942949
 10
10.2713636828
 20
6.36243111
 10
10.3328242406
 20
6.372006471
 10
10.3911828046
 20
6.3859601586
 10
10.445462892
 20
6.4040586932
 10
10.4947562631
 20
6.4259992416
  0
LINE
  5
27B
100
AcDbEntity
  8
RACCORDO
100
AcDbLine
 62
250
  6
CONTINUOUS
 10
-20.6612460269
 20
24.0312135749
 11
9.7941777483
 21
6.4466335832
  0
LINE
  5
27C
100
AcDbEntity
  8
RACCORDO
100
AcDbLine
 62
250
  6
CONTINUOUS
 10
-19.9792617093
 20
25.2142526776
 11
10.4881709544
 21
7.6227389042
  0
LINE
  5
27D
100
AcDbEntity
  8
DRAFT
100
AcDbLine
 62
7
  6
CONTINUOUS
 10
12.0461405591
 20
18.9769308861
 11
12.0461405591
 21
19.8750481905
  0
LINE
  5
27E
100
AcDbEntity
  8
DRAFT
100
AcDbLine
 62
7
  6
CONTINUOUS
 10
12.5395231586
 20
16.0789111757
 11
12.5395231586
 21
15.1807938712
  0
LWPOLYLINE
  5
27F
100
AcDbEntity
  8
RACCORDO
100
AcDbPolyline
 62
250
  6
CONTINUOUS
 90
13
 70
0
 10
16.7869621125
 20
6.209453978
 10
16.8063881797
 20
6.1993774093
 10
16.8278382714
 20
6.1904926845
 10
16.8509534501
 20
6.1829485069
 10
16.875346913
 20
6.1768711473
 10
16.9006104379
 20
6.1723623369
 10
16.9263212127
 20
6.1694975579
 10
16.952048962
 20
6.168324773
 10
16.9773631084
 20
6.1688636297
 10
17.0018399539
 20
6.1711051246
 10
17.0250698389
 20
6.1750117527
 10
17.0466639944
 20
6.1805181447
 10
17.0662610094
 20
6.1875321561
  0
LWPOLYLINE
  5
280
100
AcDbEntity
  8
RACCORDO
100
AcDbPolyline
 62
250
  6
CONTINUOUS
 90
13
 70
0
 10
10.4881709544
 20
7.6227389042
 10
10.5335730879
 20
7.592172906
 10
10.5783570923
 20
7.5552424082
 10
10.621757146
 20
7.5125789349
 10
10.6630310932
 20
7.4649120461
 10
10.7014731355
 20
7.4130568617
 10
10.7364259006
 20
7.357900123
 10
10.7672916844
 20
7.3003850289
 10
10.7935426716
 20
7.2414951072
 10
10.8147299612
 20
7.1822373955
 10
10.8304912435
 20
7.1236252208
 10
10.8405569952
 20
7.0666608712
 10
10.8447550884
 20
7.0123184566
  0
LINE
  5
281
100
AcDbEntity
  8
RACCORDO
100
AcDbLine
 62
7
  6
CONTINUOUS
 10
15.2281210744
 20
-13.7529813459
 11
16.0116581068
 21
-20.4508458158
  0
LWPOLYLINE
  5
282
100
AcDbEntity
  8
RACCORDO
100
AcDbPolyline
 62
250
  6
CONTINUOUS
 90
16
 70
0
 10
15.6517232484
 20
-7.834458827
 10
15.6506548873
 20
-7.8244602101
 10
15.6497393001
 20
-7.8143704922
 10
15.648976487
 20
-7.8041896736
 10
15.6483665816
 20
-7.7939164689
 10
15.6479094502
 20
-7.7835521633
 10
15.6476046912
 20
-7.7731006124
 10
15.6474521534
 20
-7.7625618567
 10
15.647451988
 20
-7.7519358556
 10
15.6476042469
 20
-7.741226343
 10
15.6479087832
 20
-7.730433396
 10
15.6483657438
 20
-7.7195569375
 10
15.6489756214
 20
-7.7086004696
 10
15.6497385801
 20
-7.6975651599
 10
15.6506544558
 20
-7.6864498409
 10
15.6517232484
 20
-7.6752545126
  0
LWPOLYLINE
  5
283
100
AcDbEntity
  8
RACCORDO
100
AcDbPolyline
 62
250
  6
CONTINUOUS
 90
16
 70
0
 10
15.3724243514
 20
-7.8523380846
 10
15.3710931939
 20
-7.8398475622
 10
15.3699525995
 20
-7.8272357175
 10
15.369002501
 20
-7.8145061554
 10
15.3682428799
 20
-7.8016644107
 10
15.3676734134
 20
-7.7887122546
 10
15.3672937513
 20
-7.7756475181
 10
15.3671038733
 20
-7.7624738725
 10
15.3671037088
 20
-7.7491947355
 10
15.3672932742
 20
-7.7358072837
 10
15.3676726696
 20
-7.7223149032
 10
15.3682419476
 20
-7.7087211596
 10
15.3690015055
 20
-7.6950232592
 10
15.3699517132
 20
-7.6812225129
 10
15.3710926259
 20
-7.6673244861
 10
15.3724243514
 20
-7.6533326915
  0
LINE
  5
284
100
AcDbEntity
  8
RACCORDO
100
AcDbLine
 62
7
  6
CONTINUOUS
 10
15.2281210744
 20
-25.2767319335
 11
15.2281210744
 21
9.5866421386
  0
LINE
  5
285
100
AcDbEntity
  8
DRAFT
100
AcDbLine
 62
7
  6
CONTINUOUS
 10
16.4302026025
 20
16.4873741574
 11
16.4302026025
 21
17.3437457119
  0
LWPOLYLINE
  5
286
100
AcDbEntity
  8
RACCORDO
100
AcDbPolyline
 62
250
  6
CONTINUOUS
 90
13
 70
0
 10
17.0662610095
 20
6.1875321569
 10
17.0729408127
 20
6.2849881983
 10
17.0751395236
 20
6.3846212313
 10
17.0728838542
 20
6.486134368
 10
17.0662406269
 20
6.5892399968
 10
17.0552362822
 20
6.6936162079
 10
17.0398565714
 20
6.7989077929
 10
17.0201785779
 20
6.9047972169
 10
16.9962954783
 20
7.0109735979
 10
16.9682346533
 20
7.1170892706
 10
16.9360848221
 20
7.2228180214
 10
16.8999968324
 20
7.3278559771
 10
16.8601073638
 20
7.4318906699
  0
LWPOLYLINE
  5
287
100
AcDbEntity
  8
RACCORDO
100
AcDbPolyline
 62
250
  6
CONTINUOUS
 90
13
 70
0
 10
16.7869621125
 20
6.209453978
 10
16.7938580177
 20
6.2978952741
 10
16.7967671879
 20
6.3878541703
 10
16.795689623
 20
6.4793306667
 10
16.7905950955
 20
6.5726577233
 10
16.781513833
 20
6.66750238
 10
16.7685365179
 20
6.7628657568
 10
16.7516098612
 20
6.8587480278
 10
16.7307871519
 20
6.9551490189
 10
16.7063189396
 20
7.0510693272
 10
16.6782887408
 20
7.1461758184
 10
16.646613039
 20
7.2408016269
 10
16.6112918341
 20
7.3349467526
  0
LINE
  5
288
100
AcDbEntity
  8
RACCORDO
100
AcDbLine
 62
250
  6
CONTINUOUS
 10
15.3724243514
 20
-7.6533326915
 11
16.7869621125
 21
6.209453978
  0
LINE
  5
289
100
AcDbEntity
  8
RACCORDO
100
AcDbLine
 62
250
  6
CONTINUOUS
 10
15.6517232484
 20
-7.6752545126
 11
17.0662610095
 21
6.1875321569
  0
LINE
  5
28A
100
AcDbEntity
  8
RACCORDO
100
AcDbLine
 62
7
  6
CONTINUOUS
 10
15.2281210744
 20
0.0892930764
 11
16.0116581068
 21
7.6309055188
  0
LINE
  5
28B
100
AcDbEntity
  8
DRAFT
100
AcDbLine
 62
7
  6
CONTINUOUS
 10
6.5188534699
 20
18.6969640734
 11
6.4721599862
 21
18.684013325
  0
LINE
  5
28C
100
AcDbEntity
  8
DRAFT
100
AcDbLine
 62
7
  6
CONTINUOUS
 10
6.5656483842
 20
18.7096971879
 11
6.5188534699
 21
18.6969640734
  0
LINE
  5
28D
100
AcDbEntity
  8
DRAFT
100
AcDbLine
 62
7
  6
CONTINUOUS
 10
6.6125445768
 20
18.7222126277
 11
6.5656483842
 21
18.7096971879
  0
LWPOLYLINE
  5
28E
100
AcDbEntity
  8
DRAFT
100
AcDbPolyline
 62
7
  6
CONTINUOUS
 90
3
 70
0
 10
6.6830776572
 20
18.7405773509
 10
6.6595414379
 20
18.7345102293
 10
6.6125445768
 20
18.7222126277
  0
LWPOLYLINE
  5
28F
100
AcDbEntity
  8
RACCORDO
100
AcDbPolyline
 62
250
  6
CONTINUOUS
 90
7
 70
0
 10
5.6254595798
 20
18.1420178199
 10
5.6466773566
 20
18.1469317033
 10
5.6683737723
 20
18.1484923621
 10
5.6905488267
 20
18.1466997963
 10
5.7132025201
 20
18.1415540059
 10
5.7363348522
 20
18.1330549909
 10
5.7599458232
 20
18.1212027514
  0
LINE
  5
290
100
AcDbEntity
  8
RACCORDO
100
AcDbLine
 62
7
  6
CONTINUOUS
 10
15.2281210744
 20
8.8194033222
 11
15.5184657901
 21
8.6517619223
  0
LINE
  5
291
100
AcDbEntity
  8
RACCORDO
100
AcDbLine
 62
7
  6
CONTINUOUS
 10
-15.7432636312
 20
27.8773200168
 11
14.8746753735
 21
10.1989057685
  0
LINE
  5
292
100
AcDbEntity
  8
RACCORDO
100
AcDbLine
 62
250
  6
CONTINUOUS
 10
16.7869621125
 20
-20.1376984555
 11
15.3724243514
 21
-7.8523380846
  0
LINE
  5
293
100
AcDbEntity
  8
RACCORDO
100
AcDbLine
 62
250
  6
CONTINUOUS
 10
17.0662610095
 20
-20.119819198
 11
15.6517232484
 21
-7.834458827
  0
LINE
  5
294
100
AcDbEntity
  8
RACCORDO
100
AcDbLine
 62
7
  6
CONTINUOUS
 10
18.1626142164
 20
-19.5160650926
 11
18.1626142164
 21
6.8063798289
  0
LWPOLYLINE
  5
295
100
AcDbEntity
  8
RACCORDO
100
AcDbPolyline
 62
7
  6
CONTINUOUS
 90
13
 70
0
 10
18.1626142164
 20
-19.5160652129
 10
18.1604122373
 20
-19.6058522258
 10
18.1538717154
 20
-19.6924268358
 10
18.1429926508
 20
-19.7757890429
 10
18.1277147683
 20
-19.8562227711
 10
18.108098343
 20
-19.9334440964
 10
18.0843241998
 20
-20.0066012469
 10
18.0563290796
 20
-20.0756338291
 10
18.0241762413
 20
-20.1406022365
 10
17.9882362873
 20
-20.2008358775
 10
17.9486327514
 20
-20.2561112217
 10
17.9052420998
 20
-20.3066517995
 10
17.8580643322
 20
-20.3524576109
  0
LWPOLYLINE
  5
296
100
AcDbEntity
  8
DRAFT
100
AcDbPolyline
 62
7
  6
CONTINUOUS
 90
10
 70
0
 10
9.5793411022
 20
20.3206738335
 10
9.4312192987
 20
20.2821059981
 10
9.2841282878
 20
20.2413802986
 10
9.1380680695
 20
20.1984967351
 10
8.9930261952
 20
20.1534512273
 10
8.8490151136
 20
20.1062478554
 10
8.7060721703
 20
20.0568988606
 10
8.5642098141
 20
20.0054083232
 10
8.4234155963
 20
19.9517721629
 10
8.283689517
 20
19.8959903796
  0
LWPOLYLINE
  5
297
100
AcDbEntity
  8
RACCORDO
100
AcDbPolyline
 62
250
  6
CONTINUOUS
 90
7
 70
0
 10
5.6776301739
 20
18.3810765265
 10
5.710210089
 20
18.3881166811
 10
5.7446318476
 20
18.38960112
 10
5.7805183655
 20
18.3855414734
 10
5.817471703
 20
18.3760119365
 10
5.8550778418
 20
18.3611481335
 10
5.8929116242
 20
18.3411452657
  0
LWPOLYLINE
  5
298
100
AcDbEntity
  8
RACCORDO
100
AcDbPolyline
 62
7
  6
CONTINUOUS
 90
7
 70
0
 10
6.2582625878
 20
18.7241427978
 10
6.2907752484
 20
18.7305466615
 10
6.3245358425
 20
18.7317112118
 10
6.35954437
 20
18.7276364486
 10
6.395800831
 20
18.7183223719
 10
6.4333052253
 20
18.7037689818
 10
6.4720575532
 20
18.6839762781
  0
LWPOLYLINE
  5
299
100
AcDbEntity
  8
DRAFT
100
AcDbPolyline
 62
7
  6
CONTINUOUS
 90
10
 70
0
 10
10.4422986031
 20
20.4990129295
 10
10.3868156427
 20
20.4898328619
 10
10.3314538971
 20
20.4803692078
 10
10.2762133663
 20
20.4706219671
 10
10.2210934321
 20
20.4605910238
 10
10.1660947128
 20
20.450276494
 10
10.1112190626
 20
20.4396787253
 10
10.0564670995
 20
20.4287978338
 10
10.0018382056
 20
20.4176337034
 10
9.9473323807
 20
20.4061863341
  0
LWPOLYLINE
  5
29A
100
AcDbEntity
  8
DRAFT
100
AcDbPolyline
 62
7
  6
CONTINUOUS
 90
10
 70
0
 10
7.599416864
 20
18.9312666361
 10
7.5469092321
 20
18.9226498265
 10
7.4945095617
 20
18.9137798956
 10
7.4422178526
 20
18.9046568436
 10
7.390033584
 20
18.895280574
 10
7.3379572768
 20
18.8856511832
 10
7.285990494
 20
18.8757689602
 10
7.2341337566
 20
18.8656340013
 10
7.1823865436
 20
18.8552462102
 10
7.1307488551
 20
18.844605587
  0
LWPOLYLINE
  5
29B
100
AcDbEntity
  8
DRAFT
100
AcDbPolyline
 62
7
  6
CONTINUOUS
 90
25
 70
0
 10
13.873669555
 20
14.5888197084
 10
13.8481116169
 20
14.5965313333
 10
13.8224475668
 20
14.6065113084
 10
13.7966774048
 20
14.6187596338
 10
13.770654632
 20
14.6333711677
 10
13.7445257474
 20
14.6502510518
 10
13.7187302472
 20
14.6691147114
 10
13.6932822563
 20
14.6899893342
 10
13.6681676499
 20
14.7128477325
 10
13.6437835498
 20
14.7373237689
 10
13.6201387252
 20
14.7634460521
 10
13.5972244068
 20
14.7911859735
 10
13.5754114091
 20
14.8200915696
 10
13.5547189852
 20
14.8501802054
 10
13.5351278819
 20
14.881434516
 10
13.5169511547
 20
14.9133504428
 10
13.5002123604
 20
14.9459356029
 10
13.484887942
 20
14.9791823794
 10
13.4712202841
 20
15.0125638629
 10
13.4592343561
 20
15.0460829491
 10
13.4489051886
 20
15.0797367424
 10
13.4404002573
 20
15.112989646
 10
13.4337753877
 20
15.1456631278
 10
13.4289747543
 20
15.1779357199
 10
13.4259983572
 20
15.2098074224
  0
LWPOLYLINE
  5
29C
100
AcDbEntity
  8
RACCORDO
100
AcDbPolyline
 62
250
  6
CONTINUOUS
 90
31
 70
0
 10
12.7532473403
 20
12.3628824741
 10
12.7607137264
 20
12.3590435675
 10
12.7679575156
 20
12.3561783843
 10
12.7749787078
 20
12.3542869243
 10
12.781852763
 20
12.3533667646
 10
12.7885042213
 20
12.3534203283
 10
12.7947067026
 20
12.3544548845
 10
12.8004428387
 20
12.3565052821
 10
12.8057299979
 20
12.3595366722
 10
12.8103939047
 20
12.3634517776
 10
12.8144129232
 20
12.3682796569
 10
12.8178086895
 20
12.3739912514
 10
12.8204718355
 20
12.3804021081
 10
12.8223786605
 20
12.3875352314
 10
12.8235528653
 20
12.3953676169
 10
12.8239561846
 20
12.4036457986
 10
12.8235632686
 20
12.4123844337
 10
12.8223994671
 20
12.421568865
 10
12.8205025635
 20
12.4309016543
 10
12.81784867
 20
12.4403874738
 10
12.8144616744
 20
12.4500216513
 10
12.8104510239
 20
12.4594927322
 10
12.8057960741
 20
12.4687955379
 10
12.8005174694
 20
12.4779352469
 10
12.7947865891
 20
12.4866159398
 10
12.7885864464
 20
12.4948238805
 10
12.7819340282
 20
12.5025728051
 10
12.7750516744
 20
12.5096080033
 10
12.7680134985
 20
12.5158445718
 10
12.7607453872
 20
12.5213674138
 10
12.7532473403
 20
12.5261765295
  0
LWPOLYLINE
  5
29D
100
AcDbEntity
  8
RACCORDO
100
AcDbPolyline
 62
250
  6
CONTINUOUS
 90
31
 70
0
 10
12.7532473403
 20
12.5261765295
 10
12.7457809542
 20
12.5300154361
 10
12.738537165
 20
12.5328806194
 10
12.7315159728
 20
12.5347720793
 10
12.7246419175
 20
12.535692239
 10
12.7179904593
 20
12.5356386753
 10
12.711787978
 20
12.5346041191
 10
12.7060518418
 20
12.5325537215
 10
12.7007646827
 20
12.5295223314
 10
12.6961007759
 20
12.525607226
 10
12.6920817573
 20
12.5207793468
 10
12.6886859911
 20
12.5150677523
 10
12.6860228451
 20
12.5086568956
 10
12.6841160201
 20
12.5015237723
 10
12.6829418152
 20
12.4936913867
 10
12.682538496
 20
12.4854132051
 10
12.6829314119
 20
12.4766745699
 10
12.6840952135
 20
12.4674901386
 10
12.6859921171
 20
12.4581573493
 10
12.6886460106
 20
12.4486715298
 10
12.6920330061
 20
12.4390373523
 10
12.6960436567
 20
12.4295662715
 10
12.7006986064
 20
12.4202634658
 10
12.7059772112
 20
12.4111237568
 10
12.7117080914
 20
12.4024430638
 10
12.7179082341
 20
12.3942351232
 10
12.7245606524
 20
12.3864861986
 10
12.7314430061
 20
12.3794510003
 10
12.738481182
 20
12.3732144319
 10
12.7457492934
 20
12.3676915898
 10
12.7532473403
 20
12.3628824741
  0
LWPOLYLINE
  5
29E
100
AcDbEntity
  8
RACCORDO
100
AcDbPolyline
 62
250
  6
CONTINUOUS
 90
31
 70
0
 10
4.9750727472
 20
16.8539030008
 10
4.9825391334
 20
16.8500640941
 10
4.9897829225
 20
16.8471989109
 10
4.9968041147
 20
16.8453074509
 10
5.00367817
 20
16.8443872913
 10
5.0103296283
 20
16.8444408549
 10
5.0165321096
 20
16.8454754111
 10
5.0222682457
 20
16.8475258087
 10
5.0275554048
 20
16.8505571988
 10
5.0322193116
 20
16.8544723042
 10
5.0362383302
 20
16.8593001835
 10
5.0396340964
 20
16.865011778
 10
5.0422972424
 20
16.8714226347
 10
5.0442040675
 20
16.878555758
 10
5.0453782723
 20
16.8863881435
 10
5.0457815915
 20
16.8946663252
 10
5.0453886756
 20
16.9034049603
 10
5.044224874
 20
16.9125893916
 10
5.0423279704
 20
16.9219221809
 10
5.0396740769
 20
16.9314080004
 10
5.0362870814
 20
16.9410421779
 10
5.0322764308
 20
16.9505132588
 10
5.0276214811
 20
16.9598160645
 10
5.0223428764
 20
16.9689557735
 10
5.0166119961
 20
16.9776364665
 10
5.0104118534
 20
16.9858444071
 10
5.0037594351
 20
16.9935933317
 10
4.9968770814
 20
17.0006285299
 10
4.9898389055
 20
17.0068650984
 10
4.9825707941
 20
17.0123879404
 10
4.9750727472
 20
17.0171970561
  0
LWPOLYLINE
  5
29F
100
AcDbEntity
  8
RACCORDO
100
AcDbPolyline
 62
250
  6
CONTINUOUS
 90
31
 70
0
 10
4.9750727472
 20
17.0171970561
 10
4.9676063611
 20
17.0210359627
 10
4.9603625719
 20
17.023901146
 10
4.9533413797
 20
17.0257926059
 10
4.9464673245
 20
17.0267127656
 10
4.9398158662
 20
17.026659202
 10
4.9336133849
 20
17.0256246457
 10
4.9278772488
 20
17.0235742482
 10
4.9225900896
 20
17.020542858
 10
4.9179261829
 20
17.0166277526
 10
4.9139071643
 20
17.0117998734
 10
4.9105113981
 20
17.0060882789
 10
4.907848252
 20
16.9996774222
 10
4.905941427
 20
16.9925442989
 10
4.9047672222
 20
16.9847119134
 10
4.9043639029
 20
16.9764337317
 10
4.9047568189
 20
16.9676950965
 10
4.9059206204
 20
16.9585106653
 10
4.907817524
 20
16.9491778759
 10
4.9104714175
 20
16.9396920564
 10
4.9138584131
 20
16.9300578789
 10
4.9178690637
 20
16.9205867981
 10
4.9225240134
 20
16.9112839924
 10
4.9278026181
 20
16.9021442834
 10
4.9335334984
 20
16.8934635904
 10
4.9397336411
 20
16.8852556498
 10
4.9463860593
 20
16.8775067252
 10
4.9532684131
 20
16.8704715269
 10
4.960306589
 20
16.8642349585
 10
4.9675747004
 20
16.8587121164
 10
4.9750727472
 20
16.8539030008
  0
LWPOLYLINE
  5
2A0
100
AcDbEntity
  8
RACCORDO
100
AcDbPolyline
 62
7
  6
CONTINUOUS
 90
12
 70
0
 10
12.836080296
 20
12.1797877832
 10
12.8782586954
 20
12.1580914967
 10
12.9212067833
 20
12.1410584226
 10
12.9642999192
 20
12.1286526912
 10
13.006247893
 20
12.1208083804
 10
13.0472931716
 20
12.1170227824
 10
13.089248286
 20
12.1170769396
 10
13.1323354223
 20
12.1213047565
 10
13.1754335858
 20
12.1299218762
 10
13.2182742798
 20
12.1431361964
 10
13.2601218834
 20
12.1609876265
 10
13.2859909824
 20
12.1747694921
  0
LWPOLYLINE
  5
2A1
100
AcDbEntity
  8
RACCORDO
100
AcDbPolyline
 62
7
  6
CONTINUOUS
 90
12
 70
0
 10
5.0579057029
 20
16.6708083098
 10
5.1000841023
 20
16.6491120234
 10
5.1430321903
 20
16.6320789492
 10
5.1861253262
 20
16.6196732178
 10
5.2280732999
 20
16.611828907
 10
5.2691185785
 20
16.608043309
 10
5.311073693
 20
16.6080974662
 10
5.3541608293
 20
16.6123252832
 10
5.3972589928
 20
16.6209424028
 10
5.4400996867
 20
16.634156723
 10
5.4819472904
 20
16.6520081531
 10
5.5078163894
 20
16.6657900187
  0
LWPOLYLINE
  5
2A2
100
AcDbEntity
  8
RACCORDO
100
AcDbPolyline
 62
250
  6
CONTINUOUS
 90
9
 70
0
 10
13.0360900528
 20
13.0160744776
 10
12.9991291675
 20
13.0351783294
 10
12.9625824322
 20
13.0495960036
 10
12.9268497017
 20
13.05917316
 10
12.8923288995
 20
13.0638081541
 10
12.8593885492
 20
13.0634566853
 10
12.8283675644
 20
13.0581211644
 10
12.799597497
 20
13.0478490268
 10
12.7861891231
 20
13.0409091862
  0
LWPOLYLINE
  5
2A3
100
AcDbEntity
  8
RACCORDO
100
AcDbPolyline
 62
250
  6
CONTINUOUS
 90
9
 70
0
 10
5.2579154597
 20
17.5070950042
 10
5.2209545745
 20
17.526198856
 10
5.1844078391
 20
17.5406165302
 10
5.1486751087
 20
17.5501936866
 10
5.1141543064
 20
17.5548286807
 10
5.0812139562
 20
17.5544772119
 10
5.0501929713
 20
17.549141691
 10
5.0214229039
 20
17.5388695534
 10
5.0080145301
 20
17.5319297128
  0
LINE
  5
2A4
100
AcDbEntity
  8
DRAFT
100
AcDbLine
 62
7
  6
CONTINUOUS
 10
11.75884722
 20
13.5567921671
 11
7.2088104541
 21
16.1839263704
  0
LINE
  5
2A5
100
AcDbEntity
  8
RACCORDO
100
AcDbLine
 62
250
  6
CONTINUOUS
 10
5.7599458232
 20
18.1212027514
 11
7.3148772618
 21
17.2234048266
  0
LINE
  5
2A6
100
AcDbEntity
  8
RACCORDO
100
AcDbLine
 62
250
  6
CONTINUOUS
 10
13.4162061842
 20
13.7005739745
 11
11.8612747456
 21
14.5983718992
  0
LINE
  5
2A7
100
AcDbEntity
  8
RACCORDO
100
AcDbLine
 62
250
  6
CONTINUOUS
 10
5.8929116243
 20
18.3411452656
 11
7.4501639895
 21
17.4420072669
  0
LINE
  5
2A8
100
AcDbEntity
  8
RACCORDO
100
AcDbLine
 62
250
  6
CONTINUOUS
 10
13.5491719851
 20
13.9205164887
 11
11.9919196199
 21
14.8196544875
  0
LWPOLYLINE
  5
2A9
100
AcDbEntity
  8
RACCORDO
100
AcDbPolyline
 62
250
  6
CONTINUOUS
 90
10
 70
0
 10
13.5399268377
 20
13.5723036168
 10
13.5282494658
 20
13.5907544448
 10
13.5159955418
 20
13.6082126898
 10
13.5031650656
 20
13.6246783519
 10
13.4896790904
 20
13.640227509
 10
13.475616563
 20
13.6547840831
 10
13.4612143246
 20
13.6681198402
 10
13.4465513221
 20
13.6801587021
 10
13.4315486087
 20
13.6909767468
 10
13.4162061842
 20
13.7005739745
  0
LWPOLYLINE
  5
2AA
100
AcDbEntity
  8
RACCORDO
100
AcDbPolyline
 62
250
  6
CONTINUOUS
 90
10
 70
0
 10
16.8601073638
 20
7.4318906699
 10
16.5654955155
 20
8.1561797404
 10
16.2578631361
 20
8.8750871938
 10
15.937494466
 20
9.5880787785
 10
15.6047275306
 20
10.2946283777
 10
15.2598191685
 20
10.9942077924
 10
14.9029422338
 20
11.6862853491
 10
14.5343663235
 20
12.3703410801
 10
14.1544600779
 20
13.0458689202
 10
13.7635544034
 20
13.7123652169
  0
LWPOLYLINE
  5
2AB
100
AcDbEntity
  8
RACCORDO
100
AcDbPolyline
 62
250
  6
CONTINUOUS
 90
10
 70
0
 10
16.6112918341
 20
7.3349467526
 10
16.3186991327
 20
8.0551134598
 10
16.013731808
 20
8.7689105492
 10
15.69638986
 20
9.4763380208
 10
15.3663971497
 20
10.1779454029
 10
15.024029816
 20
10.8731831671
 10
14.6701162763
 20
11.5604027291
 10
14.3049326695
 20
12.2390545606
 10
13.9282028566
 20
12.9096881899
 10
13.5399268377
 20
13.5723036168
  0
LINE
  5
2AC
100
AcDbEntity
  8
RACCORDO
100
AcDbLine
 62
7
  6
CONTINUOUS
 10
20.9063156229
 20
8.3885531706
 11
20.9063156229
 21
-17.734202552
  0
LINE
  5
2AD
100
AcDbEntity
  8
DRAFT
100
AcDbLine
 62
7
  6
CONTINUOUS
 10
21.1064517177
 20
-18.0965306358
 11
21.1064517177
 21
-17.908591378
  0
LINE
  5
2AE
100
AcDbEntity
  8
DRAFT
100
AcDbLine
 62
7
  6
CONTINUOUS
 10
21.1064517177
 20
14.8642233443
 11
21.1064517177
 21
15.052162602
  0
LINE
  5
2AF
100
AcDbEntity
  8
RACCORDO
100
AcDbLine
 62
7
  6
CONTINUOUS
 10
6.4725655778
 20
18.6837791415
 11
8.0172240537
 21
17.7919126966
  0
LINE
  5
2B0
100
AcDbEntity
  8
RACCORDO
100
AcDbLine
 62
7
  6
CONTINUOUS
 10
12.5395231586
 20
15.1807938712
 11
14.0841816347
 21
14.2889274262
  0
LINE
  5
2B1
100
AcDbEntity
  8
DRAFT
100
AcDbLine
 62
7
  6
CONTINUOUS
 10
12.9573303482
 20
15.8376745407
 11
12.5395231586
 21
16.0789111757
  0
LINE
  5
2B2
100
AcDbEntity
  8
DRAFT
100
AcDbLine
 62
7
  6
CONTINUOUS
 10
8.0172240537
 20
18.6900300011
 11
7.599416864
 21
18.9312666361
  0
LWPOLYLINE
  5
2B3
100
AcDbEntity
  8
RACCORDO
100
AcDbPolyline
 62
7
  6
CONTINUOUS
 90
7
 70
0
 10
14.0846896591
 20
14.2885379089
 10
14.123441991
 20
14.2635803908
 10
14.1609463854
 20
14.2348246464
 10
14.1972028423
 20
14.2022706757
 10
14.2322113616
 20
14.1659184785
 10
14.2659719434
 20
14.1257680551
 10
14.2984845876
 20
14.0818194053
  0
LINE
  5
2B4
100
AcDbEntity
  8
DRAFT
100
AcDbLine
 62
7
  6
CONTINUOUS
 10
13.1145293597
 20
15.6295352702
 11
12.9573303482
 21
15.8376745407
  0
LINE
  5
2B5
100
AcDbEntity
  8
DRAFT
100
AcDbLine
 62
7
  6
CONTINUOUS
 10
13.2707567183
 20
15.420239949
 11
13.1145293597
 21
15.6295352702
  0
LINE
  5
2B6
100
AcDbEntity
  8
DRAFT
100
AcDbLine
 62
7
  6
CONTINUOUS
 10
13.4259983572
 20
15.2098074224
 11
13.2707567183
 21
15.420239949
  0
LINE
  5
2B7
100
AcDbEntity
  8
DRAFT
100
AcDbLine
 62
7
  6
CONTINUOUS
 10
14.0145089831
 20
14.388962346
 11
13.873669555
 21
14.5888197084
  0
LINE
  5
2B8
100
AcDbEntity
  8
DRAFT
100
AcDbLine
 62
7
  6
CONTINUOUS
 10
14.0845872261
 20
14.2886932428
 11
14.0145089831
 21
14.388962346
  0
LWPOLYLINE
  5
2B9
100
AcDbEntity
  8
RACCORDO
100
AcDbPolyline
 62
250
  6
CONTINUOUS
 90
10
 70
0
 10
13.7635544034
 20
13.7123652169
 10
13.7430175914
 20
13.7419215511
 10
13.7213642816
 20
13.7701703775
 10
13.6987195914
 20
13.7969720268
 10
13.6752231537
 20
13.8221955755
 10
13.6509971506
 20
13.8457160896
 10
13.6261448466
 20
13.8674128617
 10
13.6007922754
 20
13.8871753658
 10
13.5750882802
 20
13.9049061961
 10
13.5491719852
 20
13.9205164887
  0
LWPOLYLINE
  5
2BA
100
AcDbEntity
  8
RACCORDO
100
AcDbPolyline
 62
7
  6
CONTINUOUS
 90
10
 70
0
 10
17.8580643219
 20
7.9944589435
 10
17.5073437796
 20
8.6949093629
 10
17.1451683553
 20
9.389787193
 10
16.7715380489
 20
10.0790924337
 10
16.3861091235
 20
10.7634206443
 10
15.9892253161
 20
11.4421762656
 10
15.5819178377
 20
12.1135726201
 10
15.1645304253
 20
12.7770141486
 10
14.7367193419
 20
13.4330964104
 10
14.2984845876
 20
14.0818194053
  0
LWPOLYLINE
  5
2BB
100
AcDbEntity
  8
RACCORDO
100
AcDbPolyline
 62
7
  6
CONTINUOUS
 90
13
 70
0
 10
17.8580643219
 20
7.9944589435
 10
17.905242094
 20
7.8941734181
 10
17.9486327492
 20
7.7935263954
 10
17.9882362873
 20
7.6925178754
 10
18.0241762421
 20
7.5907816746
 10
18.0563290799
 20
7.4886839764
 10
18.0843241998
 20
7.387323332
 10
18.108098343
 20
7.2867123968
 10
18.1277147683
 20
7.1868385153
 10
18.1429926508
 20
7.0887622714
 10
18.1538717154
 20
6.9928371931
 10
18.1604122373
 20
6.8987097524
 10
18.1626142164
 20
6.8063799493
  0
LWPOLYLINE
  5
2BC
100
AcDbEntity
  8
DRAFT
100
AcDbPolyline
 62
7
  6
CONTINUOUS
 90
25
 70
0
 10
16.2662690811
 20
16.7577114782
 10
16.272298601
 20
16.7317028568
 10
16.2793787919
 20
16.7056649733
 10
16.2875096539
 20
16.6795978276
 10
16.2967251163
 20
16.6534154815
 10
16.3069912497
 20
16.6272038733
 10
16.318206266
 20
16.6012208179
 10
16.3303794948
 20
16.575468662
 10
16.3435016065
 20
16.549945059
 10
16.3574428251
 20
16.5249007837
 10
16.3722111567
 20
16.5003407002
 10
16.3877985951
 20
16.4762599444
 10
16.4040513457
 20
16.4528946993
 10
16.4209755948
 20
16.4302523867
 10
16.4385651561
 20
16.4083255849
 10
16.4566476762
 20
16.3873282118
 10
16.4752278983
 20
16.3672692932
 10
16.4943010793
 20
16.3481398034
 10
16.5136806358
 20
16.3301265827
 10
16.5333694968
 20
16.3132404562
 10
16.5533647332
 20
16.2974705989
 10
16.5734709747
 20
16.2829713755
 10
16.5936230979
 20
16.2697942409
 10
16.6138862262
 20
16.2578877401
 10
16.6342603595
 20
16.2472518732
  0
LWPOLYLINE
  5
2BD
100
AcDbEntity
  8
RACCORDO
100
AcDbPolyline
 62
7
  6
CONTINUOUS
 90
13
 70
0
 10
20.9063156229
 20
-17.734202552
 10
20.9041191859
 20
-17.8238776722
 10
20.8975950609
 20
-17.9103492125
 10
20.886743248
 20
-17.9936171726
 10
20.8715038338
 20
-18.0739643342
 10
20.8519367316
 20
-18.1511079158
 10
20.8282216818
 20
-18.224199573
 10
20.8002957604
 20
-18.2931794103
 10
20.7682218914
 20
-18.3581073232
 10
20.732368587
 20
-18.4183146545
 10
20.6928586849
 20
-18.4735785184
 10
20.6495693475
 20
-18.5241218006
 10
20.6025005747
 20
-18.5699445011
  0
LINE
  5
2BE
100
AcDbEntity
  8
DRAFT
100
AcDbLine
 62
7
  6
CONTINUOUS
 10
14.8024249739
 20
17.3854868093
 11
12.0461405591
 21
18.9769308861
  0
LINE
  5
2BF
100
AcDbEntity
  8
DRAFT
100
AcDbLine
 62
7
  6
CONTINUOUS
 10
15.7713028587
 20
17.4221126604
 11
15.3185799042
 21
17.6835092204
  0
LINE
  5
2C0
100
AcDbEntity
  8
DRAFT
100
AcDbLine
 62
7
  6
CONTINUOUS
 10
10.8950215576
 20
20.2376163695
 11
10.4422986031
 21
20.4990129295
  0
LINE
  5
2C1
100
AcDbEntity
  8
0
100
AcDbLine
 62
7
  6
CONTINUOUS
 10
12.0461405591
 20
19.8750481905
 11
16.4302026025
 21
17.3437457119
  0
LINE
  5
2C2
100
AcDbEntity
  8
0
100
AcDbLine
 62
7
  6
CONTINUOUS
 10
12.4620349516
 20
20.043190574
 11
16.7214149912
 21
17.5838779217
  0
LINE
  5
2C3
100
AcDbEntity
  8
DRAFT
100
AcDbLine
 62
7
  6
CONTINUOUS
 10
16.7214149912
 20
17.5838779217
 11
21.1064517177
 21
15.052162602
  0
LINE
  5
2C4
100
AcDbEntity
  8
DRAFT
100
AcDbLine
 62
7
  6
CONTINUOUS
 10
12.4620712575
 20
20.0432534537
 11
10.5168589632
 21
21.1664336326
  0
LWPOLYLINE
  5
2C5
100
AcDbEntity
  8
DRAFT
100
AcDbPolyline
 62
7
  6
CONTINUOUS
 90
7
 70
0
 10
9.5793411022
 20
20.3206738335
 10
9.5997167788
 20
20.3077809322
 10
9.6199823134
 20
20.2962869555
 10
9.6401377061
 20
20.2861919034
 10
9.6602484337
 20
20.2774718035
 10
9.6802490194
 20
20.2701506281
 10
9.6946745794
 20
20.2658653493
  0
LINE
  5
2C6
100
AcDbEntity
  8
DRAFT
100
AcDbLine
 62
7
  6
CONTINUOUS
 10
15.9373880955
 20
17.2019306296
 11
15.7713028587
 21
17.4221126604
  0
LINE
  5
2C7
100
AcDbEntity
  8
DRAFT
100
AcDbLine
 62
7
  6
CONTINUOUS
 10
16.1023823992
 20
16.9804561017
 11
15.9373880955
 21
17.2019306296
  0
LINE
  5
2C8
100
AcDbEntity
  8
DRAFT
100
AcDbLine
 62
7
  6
CONTINUOUS
 10
16.2662690811
 20
16.7577114782
 11
16.1023823992
 21
16.9804561017
  0
LWPOLYLINE
  5
2C9
100
AcDbEntity
  8
DRAFT
100
AcDbPolyline
 62
7
  6
CONTINUOUS
 90
10
 70
0
 10
17.9299119448
 20
14.3263824453
 10
17.7901858654
 20
14.5435164027
 10
17.6493916476
 20
14.7597381966
 10
17.5075292914
 20
14.975047827
 10
17.3645863482
 20
15.1894637497
 10
17.2205752665
 20
15.4029675089
 10
17.0755333922
 20
15.6155037376
 10
16.9294731739
 20
15.82705398
 10
16.782382163
 20
16.0376366919
 10
16.6342603595
 20
16.2472518732
  0
LWPOLYLINE
  5
2CA
100
AcDbEntity
  8
RACCORDO
100
AcDbPolyline
 62
7
  6
CONTINUOUS
 90
10
 70
0
 10
20.6025005747
 20
9.575133122
 10
20.370406522
 20
10.0423820513
 10
20.133067651
 20
10.5073687826
 10
19.8904839619
 20
10.9700933157
 10
19.6425608499
 20
11.4307297966
 10
19.3893929197
 20
11.8891040795
 10
19.1312639854
 20
12.3446937265
 10
18.8682686517
 20
12.797324592
 10
18.6003123139
 20
13.2471708217
 10
18.327394972
 20
13.6942324157
  0
LWPOLYLINE
  5
2CB
100
AcDbEntity
  8
RACCORDO
100
AcDbPolyline
 62
7
  6
CONTINUOUS
 90
13
 70
0
 10
20.6025005747
 20
9.575133122
 10
20.6495693475
 20
9.4749565825
 10
20.6928586849
 20
9.3744238585
 10
20.732368587
 20
9.27353495
 10
20.7682218914
 20
9.1719251216
 10
20.8002957604
 20
9.0699591086
 10
20.8282216818
 20
8.9687311173
 10
20.8519367316
 20
8.868253915
 10
20.8715038338
 20
8.7685147343
 10
20.886743248
 20
8.6705694791
 10
20.8975950609
 20
8.5747701174
 10
20.9041191859
 20
8.4807646813
 10
20.9063156229
 20
8.3885531706
  0
LINE
  5
2CC
100
AcDbEntity
  8
RACCORDO
100
AcDbLine
 62
250
  6
CONTINUOUS
 10
17.0662610095
 20
-20.119819198
 11
18.1626142164
 21
-19.5160650926
  0
LINE
  5
2CD
100
AcDbEntity
  8
RACCORDO
100
AcDbLine
 62
250
  6
CONTINUOUS
 10
16.0116581068
 20
-20.4508458158
 11
15.2281210744
 21
-20.8421922763
  0
LINE
  5
2CE
100
AcDbEntity
  8
RACCORDO
100
AcDbLine
 62
7
  6
CONTINUOUS
 10
15.884717685
 20
-20.7981571849
 11
15.2281210744
 21
-21.1261018116
  0
LINE
  5
2CF
100
AcDbEntity
  8
DRAFT
100
AcDbLine
 62
7
  6
CONTINUOUS
 10
20.8677865361
 20
-18.5197026995
 11
21.1064517177
 21
-18.0965306358
  0
LWPOLYLINE
  5
2D0
100
AcDbEntity
  8
RACCORDO
100
AcDbPolyline
 62
250
  6
CONTINUOUS
 90
13
 70
0
 10
16.6112918341
 20
-20.8363350284
 10
16.6466130393
 20
-20.7991097602
 10
16.6782887413
 20
-20.7577596193
 10
16.7063189402
 20
-20.7122846057
 10
16.7307871523
 20
-20.6625103478
 10
16.7516098613
 20
-20.6086112171
 10
16.7685365178
 20
-20.5511103287
 10
16.7815138329
 20
-20.4899530122
 10
16.7905950955
 20
-20.4251939379
 10
16.795689623
 20
-20.3575202324
 10
16.7967671879
 20
-20.287160938
 10
16.7938580178
 20
-20.2138870123
 10
16.7869621125
 20
-20.1376984555
  0
LWPOLYLINE
  5
2D1
100
AcDbEntity
  8
RACCORDO
100
AcDbPolyline
 62
250
  6
CONTINUOUS
 90
13
 70
0
 10
16.8601073638
 20
-20.9021200809
 10
16.8999968429
 20
-20.8604403832
 10
16.9360848375
 20
-20.8138965217
 10
16.9682346692
 20
-20.7626403901
 10
16.9962954903
 20
-20.7068544368
 10
17.0201785841
 20
-20.6467058772
 10
17.0398565735
 20
-20.5823448428
 10
17.0552362822
 20
-20.5139798416
 10
17.066240626
 20
-20.4418337273
 10
17.0728838535
 20
-20.3660967246
 10
17.0751395236
 20
-20.287000748
 10
17.0729408131
 20
-20.2048187605
 10
17.0662610095
 20
-20.119819198
  0
LINE
  5
2D2
100
AcDbEntity
  8
RACCORDO
100
AcDbLine
 62
250
  6
CONTINUOUS
 10
16.5654963232
 20
-21.165620333
 11
16.8601073638
 21
-20.9021200809
  0
LINE
  5
2D3
100
AcDbEntity
  8
RACCORDO
100
AcDbLine
 62
250
  6
CONTINUOUS
 10
16.2578645975
 20
-21.4116643843
 11
16.5654963232
 21
-21.165620333
  0
LINE
  5
2D4
100
AcDbEntity
  8
RACCORDO
100
AcDbLine
 62
250
  6
CONTINUOUS
 10
15.9374964021
 20
-21.6400461813
 11
16.2578645975
 21
-21.4116643843
  0
LWPOLYLINE
  5
2D5
100
AcDbEntity
  8
RACCORDO
100
AcDbPolyline
 62
7
  6
CONTINUOUS
 90
5
 70
0
 10
16.3861092134
 20
-21.4216423043
 10
16.771538119
 20
-21.1823977619
 10
17.1451684074
 20
-20.9245514418
 10
17.5073438118
 20
-20.6479047248
 10
17.8580643322
 20
-20.3524576109
  0
LWPOLYLINE
  5
2D6
100
AcDbEntity
  8
RACCORDO
100
AcDbPolyline
 62
7
  6
CONTINUOUS
 90
7
 70
0
 10
19.2382828607
 20
-19.5766552715
 10
19.3893929197
 20
-19.4830491461
 10
19.6425608499
 20
-19.3170268432
 10
19.8904839619
 20
-19.1426857577
 10
20.133067651
 20
-18.9600907882
 10
20.370406522
 20
-18.769177036
 10
20.6025005747
 20
-18.5699445011
  0
LINE
  5
2D7
100
AcDbEntity
  8
DRAFT
100
AcDbLine
 62
7
  6
CONTINUOUS
 10
20.8677865361
 20
-18.5197026995
 11
20.0945442705
 21
-18.9890876903
  0
LINE
  5
2D8
100
AcDbEntity
  8
DRAFT
100
AcDbLine
 62
7
  6
CONTINUOUS
 10
19.2382835119
 20
-19.576656381
 11
17.5999352918
 21
-20.5699056231
  0
LINE
  5
2D9
100
AcDbEntity
  8
RACCORDO
100
AcDbLine
 62
250
  6
CONTINUOUS
 10
18.1626142164
 20
-19.3941787926
 11
20.9063156229
 21
-17.7342025518
  0
LINE
  5
2DA
100
AcDbEntity
  8
RACCORDO
100
AcDbLine
 62
250
  6
CONTINUOUS
 10
18.0319116958
 20
-20.1249718851
 11
20.6025005744
 21
-18.5699445014
  0
LINE
  5
2DB
100
AcDbEntity
  8
DRAFT
100
AcDbLine
 62
7
  6
CONTINUOUS
 10
21.1064517177
 20
-17.908591378
 11
20.8773327548
 21
-18.0432323618
  0
LWPOLYLINE
  5
2DC
100
AcDbEntity
  8
RACCORDO
100
AcDbPolyline
 62
250
  6
CONTINUOUS
 90
3
 70
0
 10
15.3912435182
 20
-21.9725958591
 10
15.6047297308
 20
-21.8505490558
 10
15.9374964021
 20
-21.6400461813
  0
LINE
  5
2DD
100
AcDbEntity
  8
RACCORDO
100
AcDbLine
 62
7
  6
CONTINUOUS
 10
16.1502296373
 20
-21.5556855782
 11
16.3861092134
 21
-21.4216423043
  0
LWPOLYLINE
  5
2DE
100
AcDbEntity
  8
RACCORDO
100
AcDbPolyline
 62
250
  6
CONTINUOUS
 90
6
 70
0
 10
15.2281210744
 20
-21.8542850364
 10
15.3664539642
 20
-21.7770906135
 10
15.6964402151
 20
-21.5683400215
 10
16.0137706849
 20
-21.3420370611
 10
16.3187212245
 20
-21.0980353967
 10
16.6112918341
 20
-20.8363350284
  0
LINE
  5
2DF
100
AcDbEntity
  8
RACCORDO
100
AcDbLine
 62
250
  6
CONTINUOUS
 10
16.8601073638
 20
-20.9021200809
 11
17.8580641384
 21
-20.3524577822
  0
LINE
  5
2E0
100
AcDbEntity
  8
RACCORDO
100
AcDbLine
 62
7
  6
CONTINUOUS
 10
15.3910060072
 20
-21.9727263011
 11
15.3912435182
 21
-21.9725958591
  0
LINE
  5
2E1
100
AcDbEntity
  8
DRAFT
100
AcDbLine
 62
7
  6
CONTINUOUS
 10
16.1502528078
 20
-21.5557263758
 11
15.3912420116
 21
-21.9725966866
  0
LINE
  5
2E2
100
AcDbEntity
  8
RACCORDO
100
AcDbLine
 62
7
  6
CONTINUOUS
 10
15.2281210744
 20
-22.0593307583
 11
15.3910044011
 21
-21.9727299661
  0
LWPOLYLINE
  5
2E3
100
AcDbEntity
  8
RACCORDO
100
AcDbPolyline
 62
250
  6
CONTINUOUS
 90
8
 70
0
 10
10.7308334665
 20
-27.8250413905
 10
10.7364282793
 20
-27.8219518269
 10
10.7672937358
 20
-27.7992064427
 10
10.7935442667
 20
-27.7693416052
 10
10.8147310323
 20
-27.732868115
 10
10.8304918093
 20
-27.690409766
 10
10.8405571727
 20
-27.6426926622
 10
10.8447550884
 20
-27.5905328195
  0
LINE
  5
2E4
100
AcDbEntity
  8
RACCORDO
100
AcDbLine
 62
250
  6
CONTINUOUS
 10
15.2281210744
 20
-25.2767319335
 11
10.8447550884
 21
-27.5905328195
  0
LINE
  5
2E5
100
AcDbEntity
  8
RACCORDO
100
AcDbLine
 62
7
  6
CONTINUOUS
 10
15.1190625967
 20
-25.5086734483
 11
10.7308334665
 21
-27.8250413905
  0
LWPOLYLINE
  5
2E6
100
AcDbEntity
  8
RACCORDO
100
AcDbPolyline
 62
250
  6
CONTINUOUS
 90
19
 70
0
 10
10.8447550884
 20
-27.5905328195
 10
10.8145467776
 20
-27.6049986132
 10
10.7849872868
 20
-27.6163693317
 10
10.756076616
 20
-27.6246449752
 10
10.7276107977
 20
-27.6298450035
 10
10.6997937995
 20
-27.6319499567
 10
10.6732375241
 20
-27.630901455
 10
10.6479813024
 20
-27.626629167
 10
10.6239858036
 20
-27.6192034242
 10
10.6017449379
 20
-27.6087768417
 10
10.5812947115
 20
-27.5952866744
 10
10.5625991181
 20
-27.5787956674
 10
10.5460440492
 20
-27.5596446713
 10
10.5316722155
 20
-27.5377637739
 10
10.5194409064
 20
-27.5132228873
 10
10.5096078807
 20
-27.4865725991
 10
10.5022590581
 20
-27.4579964382
 10
10.4973085189
 20
-27.4273108756
 10
10.4947562633
 20
-27.3945159112
  0
ELLIPSE
  5
2E7
100
AcDbEntity
  8
RACCORDO
100
AcDbEllipse
 62
7
  6
CONTINUOUS
 10
11.9991918495
 20
14.6609323032
 30
0.0
 11
0.0974277822
 21
0.1746820465
 31
0.0
 40
0.5671693725
 41
0.8293790667
 42
2.2256424683
  0
ELLIPSE
  5
2E8
100
AcDbEntity
  8
RACCORDO
100
AcDbEllipse
 62
7
  6
CONTINUOUS
 10
7.4576946037
 20
17.2831358946
 30
0.0
 11
0.1026656474
 21
0.17165654
 31
0.0
 40
0.5873179545
 41
0.846842987
 42
2.2431063886
  0
ELLIPSE
  5
2E9
100
AcDbEntity
  8
ASSI
100
AcDbEllipse
 62
7
  6
CONTINUOUS
 10
13.3917878798
 20
12.8132148066
 30
0.0
 11
-0.1967987478
 21
0.4619779435
 31
0.0
 40
0.6426901439
 41
3.2195272795
 42
6.3611199331
  0
ELLIPSE
  5
2EA
100
AcDbEntity
  8
ASSI
100
AcDbEllipse
 62
7
  6
CONTINUOUS
 10
5.6136132868
 20
17.3042353332
 30
0.0
 11
-0.1967987478
 21
0.4619779435
 31
0.0
 40
0.6426901439
 41
3.2195272795
 42
6.3611199331
  0
ELLIPSE
  5
2EB
100
AcDbEntity
  8
RACCORDO
100
AcDbEllipse
 62
7
  6
CONTINUOUS
 10
15.4455398893
 20
7.956877446
 30
0.0
 11
-0.3108245393
 21
0.7412066881
 31
0.0
 40
0.6457575109
 41
-2.2736572975
 42
-0.7040789459
  0
ELLIPSE
  5
2EC
100
AcDbEntity
  8
RACCORDO
100
AcDbEllipse
 62
7
  6
CONTINUOUS
 10
15.4455398893
 20
-20.1232749585
 30
0.0
 11
-0.4657599682
 21
0.6589874682
 31
0.0
 40
0.5004821238
 41
-3.2181310412
 42
-2.3985276257
  0
ELLIPSE
  5
2ED
100
AcDbEntity
  8
RACCORDO
100
AcDbEllipse
 62
7
  6
CONTINUOUS
 10
-15.7431020854
 20
27.468851664
 30
0.0
 11
-0.2500597015
 21
0.4332530584
 31
0.0
 40
0.5770679649
 41
-0.7850277811
 42
0.0218062175
  0
ELLIPSE
  5
2EE
100
AcDbEntity
  8
RACCORDO
100
AcDbEllipse
 62
7
  6
CONTINUOUS
 10
14.8745138277
 20
9.7906239646
 30
0.0
 11
-0.2499453902
 21
0.4330552278
 31
0.0
 40
0.5775954737
 41
-2.3558238482
 42
-0.7854843722
  0
ELLIPSE
  5
2EF
100
AcDbEntity
  8
RACCORDO
100
AcDbEllipse
 62
7
  6
CONTINUOUS
 10
14.8745138277
 20
-25.0723769746
 30
0.0
 11
-0.2500597015
 21
0.4332530584
 31
0.0
 40
0.5770679649
 41
-3.1633988709
 42
-2.3562809586
  0
ENDSEC
  0
SECTION
  2
OBJECTS
  0
DICTIONARY
  5
C
100
AcDbDictionary
280
0
281
1
  3
ACAD_GROUP
350
D
  3
ACAD_MLINESTYLE
350
17
  3
ACAD_LAYOUT
350
1A
  3
ACAD_PLOTSETTINGS
350
19
  3
ACAD_PLOTSTYLENAME
350
E
  0
DICTIONARY
  5
D
102
{ACAD_REACTORS
330
C
102
}
100
AcDbDictionary
280
0
281
1
  0
ACDBDICTIONARYWDFLT
  5
E
102
{ACAD_REACTORS
330
C
102
}
100
AcDbDictionary
281
1
  3
Normal
350
F
100
AcDbDictionaryWithDefault
340
F
  0
DICTIONARY
  5
17
102
{ACAD_REACTORS
330
C
102
}
100
AcDbDictionary
280
0
281
1
  3
Standard
350
18
  0
DICTIONARY
  5
19
102
{ACAD_REACTORS
330
C
102
}
100
AcDbDictionary
281
1
  0
DICTIONARY
  5
1A
102
{ACAD_REACTORS
330
C
102
}
100
AcDbDictionary
281
1
  3
Model
350
2F0
  3
Layout1
350
2F1
  0
ACDBPLACEHOLDER
  5
F
102
{ACAD_REACTORS
330
E
102
}
  0
MLINESTYLE
  5
18
102
{ACAD_REACTORS
330
17
102
}
100
AcDbMlineStyle
  2
STANDARD
 70
0
  3

 62
256
 51
90.0
 52
90.0
 71
2
 49
0.5
 62
256
  6
BYLAYER
 49
-0.5
 62
256
  6
BYLAYER
  0
LAYOUT
  5
2F0
102
{ACAD_REACTORS
330
1A
102
}
100
AcDbPlotSettings
  1

  2
none_device
  4
ISO_A4_(297.00_x_210.00_MM)
  6

 40
0.0
 41
0.0
 42
0.0
 43
0.0
 44
297.0
 45
210.0
 46
0.0
 47
0.0
 48
0.0
 49
0.0
140
0.0
141
0.0
142
1.0
143
1.0
 70
1024
 72
1
 73
0
 74
0
  7

 75
0
147
1.0
148
0.0
149
0.0
100
AcDbLayout
  1
Model
 70
0
 71
0
 10
0.0
 20
0.0
 11
297.0
 21
210.0
 12
0.0
 22
0.0
 32
0.0
 14
0.0
 24
0.0
 34
0.0
 15
0.0
 25
0.0
 35
0.0
146
0.0
 13
0.0
 23
0.0
 33
0.0
 16
1.0
 26
0.0
 36
0.0
 17
0.0
 27
1.0
 37
0.0
 76
0
330
210
345
0
346
0
  0
LAYOUT
  5
2F1
102
{ACAD_REACTORS
330
1A
102
}
100
AcDbPlotSettings
  1

  2
none_device
  4
ISO_A4_(297.00_x_210.00_MM)
  6

 40
0.0
 41
0.0
 42
0.0
 43
0.0
 44
297.0
 45
210.0
 46
0.0
 47
0.0
 48
0.0
 49
0.0
140
0.0
141
0.0
142
1.0
143
1.0
 70
0
 72
1
 73
0
 74
0
  7

 75
0
147
1.0
148
0.0
149
0.0
100
AcDbLayout
  1
Layout1
 70
0
 71
1
 10
0.0
 20
0.0
 11
297.0
 21
210.0
 12
0.0
 22
0.0
 32
0.0
 14
0.0
 24
0.0
 34
0.0
 15
0.0
 25
0.0
 35
0.0
146
0.0
 13
0.0
 23
0.0
 33
0.0
 16
1.0
 26
0.0
 36
0.0
 17
0.0
 27
1.0
 37
0.0
 76
0
330
211
345
0
346
0
  0
ENDSEC
  0
EOF
