  0
SECTION
  2
HEADER
  9
$ACADVER
  1
AC1024
  9
$DWGCODEPAGE
  3
ANSI_1252
  9
$EXTMAX
 10
297.0
 20
210.0
 30
0.0
  9
$EXTMIN
 10
0.0
 20
0.0
 30
0.0
  9
$LIMMIN
 10
0.0
 20
0.0
  9
$LIMMAX
 10
297.0
 20
210.0
  9
$VIEWCTR
 10
148.5
 20
105.0
  9
$VIEWSIZE
 40
210.0
  9
$CLAYER
  8
0
  9
$LTSCALE
 40
16.335
  9
$CELTYPE
  6
BYLAYER
  9
$DIMSCALE
 40
1.0
  9
$DIMASZ
 40
3.0
  9
$DIMEXO
 40
0.5
  9
$DIMDLI
 40
11.286
  9
$DIMEXE
 40
1.5
  9
$DIMCEN
 40
2.673
  9
$DIMLFAC
 40
1.0
  9
$DIMBLK
  1
_FILLED
  9
$DIMALT
 70
0
  9
$DIMALTF
 40
0.0393700787
  9
$DIMTXT
 40
3.0
  9
$DIMTOL
 70
1
  9
$DIMLIM
 70
0
  9
$DIMTFAC
 40
1.0
  9
$DIMTP
 40
0.01
  9
$DIMTM
 40
0.01
  9
$DIMGAP
 40
0.625
  9
$DIMDSEP
 70
44
  9
$AUNITS
 70
0
  9
$PDMODE
 70
3
  9
$PDSIZE
 40
3.0
  9
$HANDSEED
  5
314
  9
$TILEMODE
 70
1
  9
$MEASUREMENT
 70
1
  9
$INSUNITS
 70
4
  0
ENDSEC
  0
SECTION
  2
CLASSES
  0
CLASS
  1
ACDBDICTIONARYWDFLT
  2
AcDbDictionaryWithDefault
  3
AutoCAD 2000
 90
0
 91
1
280
0
281
0
  0
CLASS
  1
ACDBPLACEHOLDER
  2
AcDbPlaceHolder
  3
AutoCAD 2000
 90
0
 91
1
280
0
281
0
  0
CLASS
  1
LAYOUT
  2
AcDbLayout
  3
AutoCAD 2000
 90
0
 91
0
280
0
281
0
  0
ENDSEC
  0
SECTION
  2
TABLES
  0
TABLE
  2
VPORT
  5
8
100
AcDbSymbolTable
 70
2
  0
VPORT
  5
1F4
100
AcDbSymbolTableRecord
100
AcDbViewportTableRecord
  2
*ACTIVE
 70
0
 10
0.0
 20
0.0
 11
1.0
 21
1.0
 12
148.5
 22
105.0
 13
0.0
 23
0.0
 14
1.0
 24
1.0
 15
0.0
 25
0.0
 16
0.0
 26
0.0
 36
1.0
 17
0.0
 27
0.0
 37
0.0
 40
210.0
 41
1.4142857143
 42
50.0
 43
0.0
 44
0.0
 50
0.0
 51
0.0
 71
0
 72
100
 73
1
 74
1
 75
0
 76
0
 77
0
 78
0
  0
ENDTAB
  0
TABLE
  2
LTYPE
  5
5
100
AcDbSymbolTable
 70
6
  0
LTYPE
  5
14
100
AcDbSymbolTableRecord
100
AcDbLinetypeTableRecord
  2
BYBLOCK
 70
0
  3

 72
65
 73
0
 40
0.0
  0
LTYPE
  5
15
100
AcDbSymbolTableRecord
100
AcDbLinetypeTableRecord
  2
BYLAYER
 70
0
  3

 72
65
 73
0
 40
0.0
  0
LTYPE
  5
16
100
AcDbSymbolTableRecord
100
AcDbLinetypeTableRecord
  2
CONTINUOUS
 70
64
  3
Solid line
 72
65
 73
0
 40
0.0
  0
LTYPE
  5
1F5
100
AcDbSymbolTableRecord
100
AcDbLinetypeTableRecord
  2
CENTER
 70
64
  3
____ _ ____ _ ____ _ ____ _ ____ _ ____ _ ____
 72
65
 73
4
 40
0.6
 49
0.375
 74
0
 49
-0.075
 74
0
 49
0.075
 74
0
 49
-0.075
 74
0
  0
LTYPE
  5
1F6
100
AcDbSymbolTableRecord
100
AcDbLinetypeTableRecord
  2
HIDDEN
 70
64
  3
- - - - - - - - - - - - - - - - - - - -
 72
65
 73
2
 40
0.2
 49
0.1
 74
0
 49
-0.1
 74
0
  0
LTYPE
  5
1F7
100
AcDbSymbolTableRecord
100
AcDbLinetypeTableRecord
  2
PHANTOM
 70
64
  3
_____ _ _ _____ _ _ _____ _ _ _____
 72
65
 73
6
 40
0.8
 49
0.45
 74
0
 49
-0.05
 74
0
 49
0.1
 74
0
 49
-0.05
 74
0
 49
0.1
 74
0
 49
-0.05
 74
0
  0
LTYPE
  5
1F8
100
AcDbSymbolTableRecord
100
AcDbLinetypeTableRecord
  2
DOT
 70
64
  3
. . . . . . . . . . . . . . . . . . . .
 72
65
 73
2
 40
0.2
 49
0.1
 74
0
 49
-0.1
 74
0
  0
LTYPE
  5
1F9
100
AcDbSymbolTableRecord
100
AcDbLinetypeTableRecord
  2
DASHED
 70
64
  3
- - - - - - - - - - - - - - - - - - - -
 72
65
 73
2
 40
0.2
 49
0.1
 74
0
 49
-0.1
 74
0
  0
ENDTAB
  0
TABLE
  2
LAYER
  5
2
100
AcDbSymbolTable
 70
36
  0
LAYER
  5
10
100
AcDbSymbolTableRecord
100
AcDbLayerTableRecord
  2
0
 70
0
 62
7
  6
CONTINUOUS
370
-3
390
F
  0
LAYER
  5
1FA
100
AcDbSymbolTableRecord
100
AcDbLayerTableRecord
  2
DEFAULT_1
 70
0
 62
7
  6
CENTER
370
-3
390
F
  0
LAYER
  5
1FB
100
AcDbSymbolTableRecord
100
AcDbLayerTableRecord
  2
DEFAULT_2
 70
0
 62
7
  6
HIDDEN
370
-3
390
F
  0
LAYER
  5
1FC
100
AcDbSymbolTableRecord
100
AcDbLayerTableRecord
  2
DEFAULT_3
 70
0
 62
7
  6
PHANTOM
370
-3
390
F
  0
LAYER
  5
1FD
100
AcDbSymbolTableRecord
100
AcDbLayerTableRecord
  2
ASSI
 70
0
 62
7
  6
CONTINUOUS
370
-3
390
F
  0
LAYER
  5
1FE
100
AcDbSymbolTableRecord
100
AcDbLayerTableRecord
  2
COORDINATE
 70
0
 62
7
  6
CONTINUOUS
370
-3
390
F
  0
LAYER
  5
1FF
100
AcDbSymbolTableRecord
100
AcDbLayerTableRecord
  2
COORD_ORIGINE
 70
0
 62
7
  6
CONTINUOUS
370
-3
390
F
  0
LAYER
  5
200
100
AcDbSymbolTableRecord
100
AcDbLayerTableRecord
  2
COPY_PUBLISH
 70
0
 62
7
  6
CONTINUOUS
370
-3
390
F
  0
LAYER
  5
201
100
AcDbSymbolTableRecord
100
AcDbLayerTableRecord
  2
COSMETIC
 70
0
 62
7
  6
CONTINUOUS
370
-3
390
F
  0
LAYER
  5
202
100
AcDbSymbolTableRecord
100
AcDbLayerTableRecord
  2
COSMETICI
 70
0
 62
7
  6
CONTINUOUS
370
-3
390
F
  0
LAYER
  5
203
100
AcDbSymbolTableRecord
100
AcDbLayerTableRecord
  2
CURVE
 70
0
 62
7
  6
CONTINUOUS
370
-3
390
F
  0
LAYER
  5
204
100
AcDbSymbolTableRecord
100
AcDbLayerTableRecord
  2
DRAFT
 70
0
 62
7
  6
CONTINUOUS
370
-3
390
F
  0
LAYER
  5
205
100
AcDbSymbolTableRecord
100
AcDbLayerTableRecord
  2
IMPORT_IGES
 70
0
 62
7
  6
CONTINUOUS
370
-3
390
F
  0
LAYER
  5
206
100
AcDbSymbolTableRecord
100
AcDbLayerTableRecord
  2
INTFCLR_1
 70
0
 62
7
  6
CONTINUOUS
370
-3
390
F
  0
LAYER
  5
207
100
AcDbSymbolTableRecord
100
AcDbLayerTableRecord
  2
NOTE
 70
0
 62
7
  6
CONTINUOUS
370
-3
390
F
  0
LAYER
  5
208
100
AcDbSymbolTableRecord
100
AcDbLayerTableRecord
  2
PIANI
 70
0
 62
7
  6
CONTINUOUS
370
-3
390
F
  0
LAYER
  5
209
100
AcDbSymbolTableRecord
100
AcDbLayerTableRecord
  2
PIANI_ORIGINE
 70
0
 62
7
  6
CONTINUOUS
370
-3
390
F
  0
LAYER
  5
20A
100
AcDbSymbolTableRecord
100
AcDbLayerTableRecord
  2
PUNTI
 70
0
 62
7
  6
CONTINUOUS
370
-3
390
F
  0
LAYER
  5
20B
100
AcDbSymbolTableRecord
100
AcDbLayerTableRecord
  2
RACCORDO
 70
0
 62
7
  6
CONTINUOUS
370
-3
390
F
  0
LAYER
  5
20C
100
AcDbSymbolTableRecord
100
AcDbLayerTableRecord
  2
SIMBOLI
 70
0
 62
7
  6
CONTINUOUS
370
-3
390
F
  0
LAYER
  5
20D
100
AcDbSymbolTableRecord
100
AcDbLayerTableRecord
  2
SMUSSO
 70
0
 62
7
  6
CONTINUOUS
370
-3
390
F
  0
LAYER
  5
20E
100
AcDbSymbolTableRecord
100
AcDbLayerTableRecord
  2
SNAPLINE
 70
0
 62
7
  6
CONTINUOUS
370
-3
390
F
  0
LAYER
  5
20F
100
AcDbSymbolTableRecord
100
AcDbLayerTableRecord
  2
SUPERFICI
 70
0
 62
7
  6
CONTINUOUS
370
-3
390
F
  0
LAYER
  5
210
100
AcDbSymbolTableRecord
100
AcDbLayerTableRecord
  2
TRASH
 70
0
 62
7
  6
CONTINUOUS
370
-3
390
F
  0
LAYER
  5
211
100
AcDbSymbolTableRecord
100
AcDbLayerTableRecord
  2
XSEC_DATUMS
 70
0
 62
7
  6
CONTINUOUS
370
-3
390
F
  0
ENDTAB
  0
TABLE
  2
STYLE
  5
3
100
AcDbSymbolTable
 70
1
  0
STYLE
  5
11
100
AcDbSymbolTableRecord
100
AcDbTextStyleTableRecord
  2
STANDARD
 70
0
 40
0.0
 41
0.8
 50
0.0
 71
0
 42
0.2
  3
txt
  4

  0
STYLE
  5
212
100
AcDbSymbolTableRecord
100
AcDbTextStyleTableRecord
  2
TEXTSTYLE_1
 70
0
 40
0.0
 41
0.8
 50
0.0
 71
0
 42
0.2
  3
gdt
  4

  0
ENDTAB
  0
TABLE
  2
VIEW
  5
6
100
AcDbSymbolTable
 70
0
  0
ENDTAB
  0
TABLE
  2
UCS
  5
7
100
AcDbSymbolTable
 70
0
  0
ENDTAB
  0
TABLE
  2
APPID
  5
9
100
AcDbSymbolTable
 70
1
  0
APPID
  5
213
100
AcDbSymbolTableRecord
100
AcDbRegAppTableRecord
  2
ACAD
 70
0
  0
ENDTAB
  0
TABLE
  2
BLOCK_RECORD
  5
1
100
AcDbSymbolTable
 70
0
  0
BLOCK_RECORD
  5
214
100
AcDbSymbolTableRecord
100
AcDbBlockTableRecord
  2
*Model_Space
  0
BLOCK_RECORD
  5
215
100
AcDbSymbolTableRecord
100
AcDbBlockTableRecord
  2
*Paper_Space
  0
BLOCK_RECORD
  5
216
100
AcDbSymbolTableRecord
100
AcDbBlockTableRecord
  2
_FILLED
  0
ENDTAB
  0
TABLE
  2
DIMSTYLE
  5
A
100
AcDbSymbolTable
 70
1
100
AcDbDimStyleTable
 71
0
  0
DIMSTYLE
105
217
100
AcDbSymbolTableRecord
100
AcDbDimStyleTableRecord
  2
STANDARD
 70
0
  3

  4

 40
1.0
 41
3.0
 42
0.5
 43
0.38
 44
1.5
 45
0.0
 46
0.0
 47
0.01
 48
0.01
140
3.0
141
0.09
142
0.0
143
25.4
144
1.0
145
0.0
146
1.0
147
0.625
 71
1
 72
0
 73
0
 74
0
 75
0
 76
0
 77
1
 78
8
 79
2
170
0
171
1
172
0
173
0
174
0
175
0
176
0
177
0
178
0
270
2
179
2
271
2
272
2
273
2
274
2
275
0
280
0
281
0
282
0
283
1
284
8
285
0
286
0
287
3
288
0
340
11
278
44
341
216
342
216
343
216
344
216
  0
ENDTAB
  0
ENDSEC
  0
SECTION
  2
BLOCKS
  0
BLOCK
  5
20
100
AcDbEntity
  8
0
100
AcDbBlockBegin
  2
*Model_Space
 70
0
 10
0.0
 20
0.0
 30
0.0
  3
*Model_Space
  1

  0
ENDBLK
  5
21
100
AcDbEntity
  8
0
100
AcDbBlockEnd
  0
BLOCK
  5
1C
100
AcDbEntity
  8
0
100
AcDbBlockBegin
  2
*Paper_Space
 70
0
 10
0.0
 20
0.0
 30
0.0
  3
*Paper_Space
  1

  0
ENDBLK
  5
1D
100
AcDbEntity
  8
0
100
AcDbBlockEnd
  0
BLOCK
  5
218
100
AcDbEntity
  8
0
100
AcDbBlockBegin
  2
_FILLED
 70
64
 10
0.0
 20
0.0
  3
_FILLED
  1

  0
SOLID
  5
219
100
AcDbEntity
  8
0
  6
BYBLOCK
 62
0
100
AcDbTrace
 10
0.0
 20
0.0
 11
-1.0
 21
0.3166666667
 12
-1.0
 22
-0.3166666667
 13
-1.0
 23
-0.3166666667
  0
ENDBLK
  5
21A
100
AcDbEntity
  8
0
  6
BYBLOCK
 62
0
100
AcDbBlockEnd
  0
ENDSEC
  0
SECTION
  2
ENTITIES
  0
LWPOLYLINE
  5
21B
100
AcDbEntity
  8
RACCORDO
100
AcDbPolyline
 62
250
  6
CONTINUOUS
 90
4
 70
0
 10
-20.1524109385
 20
25.0817365273
 10
-20.0954925677
 20
25.1310437078
 10
-20.0376405454
 20
25.175317854
 10
-19.9792617093
 20
25.2142526775
  0
LWPOLYLINE
  5
21C
100
AcDbEntity
  8
RACCORDO
100
AcDbPolyline
 62
7
  6
CONTINUOUS
 90
16
 70
0
 10
-20.2360266774
 20
25.2348418741
 10
-20.290162122
 20
25.1983248394
 10
-20.3551427238
 20
25.1474852167
 10
-20.4162476643
 20
25.091951673
 10
-20.4736860592
 20
25.0319781678
 10
-20.5274086396
 20
24.9678851916
 10
-20.5770530204
 20
24.9003859617
 10
-20.6225448647
 20
24.8297558023
 10
-20.6637808575
 20
24.7562149934
 10
-20.7003304106
 20
24.6805516397
 10
-20.7320474656
 20
24.6029641525
 10
-20.7587457945
 20
24.5236599103
 10
-20.7800120931
 20
24.4433362693
 10
-20.7955872827
 20
24.3622167046
 10
-20.805170844
 20
24.2802470714
 10
-20.8076972854
 20
24.2352952137
  0
LINE
  5
21D
100
AcDbEntity
  8
RACCORDO
100
AcDbLine
 62
7
  6
CONTINUOUS
 10
-20.2361240473
 20
25.2347995866
 11
-15.998553818
 21
27.8988552985
  0
LINE
  5
21E
100
AcDbEntity
  8
RACCORDO
100
AcDbLine
 62
250
  6
CONTINUOUS
 10
-19.9792617093
 20
25.2142526775
 11
-15.7432636312
 21
27.8773200168
  0
LWPOLYLINE
  5
21F
100
AcDbEntity
  8
RACCORDO
100
AcDbPolyline
 62
250
  6
CONTINUOUS
 90
8
 70
0
 10
-20.2360351814
 20
25.2348554147
 10
-20.2308164546
 20
25.2379977483
 10
-20.1962465692
 20
25.2530129799
 10
-20.157807906
 20
25.2604782086
 10
-20.1161577793
 20
25.2602657765
 10
-20.0720084203
 20
25.2523793161
 10
-20.0261147981
 20
25.2369536886
 10
-19.9792617093
 20
25.2142526775
  0
LWPOLYLINE
  5
220
100
AcDbEntity
  8
RACCORDO
100
AcDbPolyline
 62
7
  6
CONTINUOUS
 90
12
 70
0
 10
-20.8076640661
 20
-9.620251118
 10
-20.802429932
 20
-9.6908903433
 10
-20.7914346245
 20
-9.7617073677
 10
-20.7747727257
 20
-9.8302291016
 10
-20.7524166072
 20
-9.8962572366
 10
-20.7244124294
 20
-9.9593375794
 10
-20.6910757037
 20
-10.018724379
 10
-20.6527516134
 20
-10.073925111
 10
-20.6097567204
 20
-10.124600492
 10
-20.5626840083
 20
-10.1702102227
 10
-20.5121325267
 20
-10.2104391354
 10
-20.4565704582
 20
-10.2463398196
  0
LWPOLYLINE
  5
221
100
AcDbEntity
  8
RACCORDO
100
AcDbPolyline
 62
250
  6
CONTINUOUS
 90
10
 70
0
 10
-20.6612460269
 20
-9.8231559475
 10
-20.7792637953
 20
-6.1336114907
 10
-20.8677860487
 20
-2.4253134874
 10
-20.9268051352
 20
1.3014229601
 10
-20.9563159531
 20
5.0462811706
 10
-20.9563159532
 20
8.808943025
 10
-20.9268051353
 20
12.589088996
 10
-20.8677860489
 20
16.3863980206
 10
-20.7792637954
 20
20.2005475265
 10
-20.6612460269
 20
24.0312135748
  0
LWPOLYLINE
  5
222
100
AcDbEntity
  8
RACCORDO
100
AcDbPolyline
 62
250
  6
CONTINUOUS
 90
8
 70
0
 10
-20.8076972854
 20
24.2352952137
 10
-20.8077593074
 20
24.227720714
 10
-20.8029858921
 20
24.191952539
 10
-20.7899298893
 20
24.1566244126
 10
-20.7688097611
 20
24.1223274688
 10
-20.7399789035
 20
24.0896355869
 10
-20.7039197339
 20
24.0590957895
 10
-20.6612356188
 20
24.0312190891
  0
LWPOLYLINE
  5
223
100
AcDbEntity
  8
RACCORDO
100
AcDbPolyline
 62
7
  6
CONTINUOUS
 90
10
 70
0
 10
-20.8076979523
 20
24.2355296089
 10
-20.9232455192
 20
20.4958752668
 10
-21.013003783
 20
16.653899635
 10
-21.0728348556
 20
12.8289482181
 10
-21.1027304275
 20
9.0213950873
 10
-21.1026885073
 20
5.2315490417
 10
-21.072708334
 20
1.4596940584
 10
-21.012790328
 20
-2.293862951
 10
-20.9229412323
 20
-6.0287573106
 10
-20.8076716422
 20
-9.6202931031
  0
LWPOLYLINE
  5
224
100
AcDbEntity
  8
RACCORDO
100
AcDbPolyline
 62
250
  6
CONTINUOUS
 90
16
 70
0
 10
-20.6612460269
 20
24.0312135748
 10
-20.6563845621
 20
24.1019807421
 10
-20.6466751729
 20
24.1748945888
 10
-20.6321841401
 20
24.2494481535
 10
-20.6130103654
 20
24.3251326804
 10
-20.5892867795
 20
24.401411851
 10
-20.5611847571
 20
24.477725101
 10
-20.5289133442
 20
24.5535246466
 10
-20.492695364
 20
24.6283012018
 10
-20.4527672609
 20
24.7015565871
 10
-20.4094029037
 20
24.7727911938
 10
-20.3629104413
 20
24.8414990427
 10
-20.3136107489
 20
24.9071925691
 10
-20.2618506443
 20
24.9694152945
 10
-20.2079932701
 20
25.0277346764
 10
-20.1524109385
 20
25.0817365273
  0
LWPOLYLINE
  5
225
100
AcDbEntity
  8
RACCORDO
100
AcDbPolyline
 62
250
  6
CONTINUOUS
 90
7
 70
0
 10
-20.8076716422
 20
-9.6202931031
 10
-20.8029956132
 20
-9.655217216
 10
-20.7899402199
 20
-9.6930188319
 10
-20.7688204598
 20
-9.7293018965
 10
-20.7399897302
 20
-9.7634592847
 10
-20.7039304558
 20
-9.7949194407
 10
-20.661246017
 20
-9.8231559413
  0
LWPOLYLINE
  5
226
100
AcDbEntity
  8
RACCORDO
100
AcDbPolyline
 62
250
  6
CONTINUOUS
 90
13
 70
0
 10
9.7941777542
 20
-27.4077359355
 10
9.8427703793
 20
-27.4322016671
 10
9.8964608287
 20
-27.4525618762
 10
9.9543506994
 20
-27.4684758753
 10
10.0154713196
 20
-27.4796773753
 10
10.0787999572
 20
-27.4859789412
 10
10.1432769332
 20
-27.4872751291
 10
10.2078233538
 20
-27.4835442497
 10
10.2713591628
 20
-27.474848732
 10
10.3328212149
 20
-27.4613340781
 10
10.3911810648
 20
-27.4432264289
 10
10.4454621764
 20
-27.42082878
 10
10.4947562633
 20
-27.3945159113
  0
LWPOLYLINE
  5
227
100
AcDbEntity
  8
RACCORDO
100
AcDbPolyline
 62
7
  6
CONTINUOUS
 90
12
 70
0
 10
10.0025582589
 20
-27.8330599296
 10
10.0584055805
 20
-27.8619052297
 10
10.1195981661
 20
-27.8864435489
 10
10.1831481403
 20
-27.9049979565
 10
10.2484572725
 20
-27.9173995886
 10
10.3159552808
 20
-27.9236348555
 10
10.3852363818
 20
-27.9234261952
 10
10.4556527659
 20
-27.9165460737
 10
10.5274818531
 20
-27.9026787857
 10
10.6005742145
 20
-27.8814295896
 10
10.6742053121
 20
-27.8525467748
 10
10.7306679776
 20
-27.8251125231
  0
LINE
  5
228
100
AcDbEntity
  8
RACCORDO
100
AcDbLine
 62
7
  6
CONTINUOUS
 10
10.0025712645
 20
-27.833077538
 11
-20.4565739282
 21
-10.2463488774
  0
LINE
  5
229
100
AcDbEntity
  8
RACCORDO
100
AcDbLine
 62
250
  6
CONTINUOUS
 10
9.7941777483
 20
-27.4077359392
 11
-20.6612460269
 21
-9.8231559475
  0
LINE
  5
22A
100
AcDbEntity
  8
RACCORDO
100
AcDbLine
 62
7
  6
CONTINUOUS
 10
-20.4565741539
 20
-10.2463487471
 11
-20.4566050949
 21
-10.2463308799
  0
LWPOLYLINE
  5
22B
100
AcDbEntity
  8
RACCORDO
100
AcDbPolyline
 62
250
  6
CONTINUOUS
 90
10
 70
0
 10
-20.4566050949
 20
-10.2463308799
 10
-20.492695364
 20
-10.2221747679
 10
-20.5289133442
 20
-10.1899615141
 10
-20.5611847571
 20
-10.1520834779
 10
-20.5892867795
 20
-10.1087911454
 10
-20.6130103654
 20
-10.0603923886
 10
-20.6321841401
 20
-10.0072394395
 10
-20.6466751728
 20
-9.9497116338
 10
-20.656384562
 20
-9.8882069957
 10
-20.6612460269
 20
-9.8231559475
  0
LWPOLYLINE
  5
22C
100
AcDbEntity
  8
RACCORDO
100
AcDbPolyline
 62
250
  6
CONTINUOUS
 90
10
 70
0
 10
10.0024546688
 20
-27.8330102481
 10
9.9657117539
 20
-27.8084796803
 10
9.9288406821
 20
-27.7758870005
 10
9.895996099
 20
-27.737673754
 10
9.8674050645
 20
-27.6941014699
 10
9.8432675155
 20
-27.6454732847
 10
9.8237577269
 20
-27.5921351118
 10
9.8090119889
 20
-27.534461701
 10
9.7991294023
 20
-27.4728521638
 10
9.7941777483
 20
-27.4077359392
  0
LWPOLYLINE
  5
22D
100
AcDbEntity
  8
RACCORDO
100
AcDbPolyline
 62
250
  6
CONTINUOUS
 90
55
 70
0
 10
-14.1607264346
 20
-8.234329597
 10
-14.1596525539
 20
-8.277694184
 10
-14.1564337073
 20
-8.3221567476
 10
-14.151080231
 20
-8.3675678877
 10
-14.1436138028
 20
-8.4137519538
 10
-14.1340569901
 20
-8.4605759913
 10
-14.1224228909
 20
-8.5079530756
 10
-14.1087258395
 20
-8.5557756368
 10
-14.0930139729
 20
-8.6038329631
 10
-14.0753625828
 20
-8.6518816561
 10
-14.0558353178
 20
-8.6997513745
 10
-14.0344968526
 20
-8.7472864594
 10
-14.0114499915
 20
-8.7942676598
 10
-13.9868046686
 20
-8.8404932175
 10
-13.960628922
 20
-8.8858562649
 10
-13.9329689584
 20
-8.9302821496
 10
-13.9038963259
 20
-8.9736492788
 10
-13.8735260513
 20
-9.0157797205
 10
-13.8419703645
 20
-9.056516339
 10
-13.8093366735
 20
-9.0957206875
 10
-13.7757343539
 20
-9.1332615686
 10
-13.7412860092
 20
-9.1690031778
 10
-13.7061308649
 20
-9.2028057851
 10
-13.6703664139
 20
-9.2345802719
 10
-13.6340540888
 20
-9.264267902
 10
-13.5972786646
 20
-9.2917853466
 10
-13.5601987774
 20
-9.3170000043
 10
-13.5229880741
 20
-9.3397885347
 10
-13.485787196
 20
-9.3600658761
 10
-13.4487083909
 20
-9.377771916
 10
-13.411883443
 20
-9.3928439576
 10
-13.3754415493
 20
-9.4052303946
 10
-13.3395020072
 20
-9.4148919633
 10
-13.3041799569
 20
-9.4217978211
 10
-13.2695909435
 20
-9.4259242094
 10
-13.2358573934
 20
-9.4272553301
 10
-13.20310084
 20
-9.4257865777
 10
-13.1714365872
 20
-9.4215248143
 10
-13.1409669357
 20
-9.4144855558
 10
-13.1117885338
 20
-9.4046912796
 10
-13.0839964481
 20
-9.3921722262
 10
-13.057690266
 20
-9.3769715138
 10
-13.0329660319
 20
-9.3591450562
 10
-13.0099112509
 20
-9.3387589912
 10
-12.9885982578
 20
-9.3158804881
 10
-12.969092338
 20
-9.2905796022
 10
-12.9514496045
 20
-9.2629219811
 10
-12.9357443944
 20
-9.2330164855
 10
-12.9220519021
 20
-9.2010183834
 10
-12.910420483
 20
-9.1670817736
 10
-12.9008650569
 20
-9.1312977097
 10
-12.8933992218
 20
-9.0937384065
 10
-12.8880458414
 20
-9.0545107753
 10
-12.8848268301
 20
-9.0137649382
 10
-12.883752814
 20
-8.9716381613
  0
LWPOLYLINE
  5
22E
100
AcDbEntity
  8
0
100
AcDbPolyline
 62
250
  6
CONTINUOUS
 90
11
 70
0
 10
-14.3317158722
 20
-8.0905062956
 10
-14.33086075
 20
-8.0105335611
 10
-14.3239058723
 20
-7.9349148521
 10
-14.3109850641
 20
-7.8641484386
 10
-14.292317671
 20
-7.7987926361
 10
-14.2680869264
 20
-7.7391314869
 10
-14.238351418
 20
-7.685262211
 10
-14.2032435195
 20
-7.6374950449
 10
-14.1630633946
 20
-7.5962984592
 10
-14.1181156635
 20
-7.5620016364
 10
-14.100825279
 20
-7.5513890195
  0
LWPOLYLINE
  5
22F
100
AcDbEntity
  8
0
100
AcDbPolyline
 62
250
  6
CONTINUOUS
 90
12
 70
0
 10
-14.4731095121
 20
-8.0927768666
 10
-14.4716904461
 20
-8.0052000149
 10
-14.464027008
 20
-7.9233395369
 10
-14.4501204365
 20
-7.8471961913
 10
-14.4298001559
 20
-7.7764439612
 10
-14.4032389741
 20
-7.7114102305
 10
-14.3709538473
 20
-7.6530762503
 10
-14.332804041
 20
-7.6014382089
 10
-14.2889337151
 20
-7.556502007
 10
-14.2402884638
 20
-7.5192642515
 10
-14.1867877856
 20
-7.4899134735
 10
-14.1285163984
 20
-7.4682637073
  0
LWPOLYLINE
  5
230
100
AcDbEntity
  8
RACCORDO
100
AcDbPolyline
 62
7
  6
CONTINUOUS
 90
16
 70
0
 10
-14.1839197414
 20
-8.197355461
 10
-14.1827803816
 20
-8.1516106414
 10
-14.1793686427
 20
-8.1072002135
 10
-14.1736947905
 20
-8.0642193667
 10
-14.1657511298
 20
-8.0226754396
 10
-14.1555613029
 20
-7.9827573646
 10
-14.1432286454
 20
-7.9447996879
 10
-14.1288288401
 20
-7.9088933047
 10
-14.1124166341
 20
-7.8750611025
 10
-14.0941393622
 20
-7.8434841779
 10
-14.0741479194
 20
-7.8142652968
 10
-14.0525087439
 20
-7.7873601714
 10
-14.0292686532
 20
-7.7627313182
 10
-14.0045154003
 20
-7.740403554
 10
-13.9783880112
 20
-7.7204358607
 10
-13.951011324
 20
-7.7028540438
  0
LWPOLYLINE
  5
231
100
AcDbEntity
  8
RACCORDO
100
AcDbPolyline
 62
250
  6
CONTINUOUS
 90
5
 70
0
 10
3.8323950245
 20
17.5922585737
 10
4.2807288335
 20
17.8194182865
 10
4.7379169844
 20
18.0266884242
 10
5.2036610719
 20
18.2139483374
 10
5.6776301739
 20
18.3810765265
  0
LWPOLYLINE
  5
232
100
AcDbEntity
  8
RACCORDO
100
AcDbPolyline
 62
7
  6
CONTINUOUS
 90
4
 70
0
 10
7.8862064897
 20
19.7228437864
 10
7.6132891479
 20
19.590940298
 10
7.3453328101
 20
19.4505233305
 10
7.3187836
 20
19.4359988764
  0
LINE
  5
233
100
AcDbEntity
  8
0
100
AcDbLine
 62
7
  6
CONTINUOUS
 10
12.4620349516
 20
20.043190574
 11
12.0461405591
 21
19.8750481905
  0
LWPOLYLINE
  5
234
100
AcDbEntity
  8
RACCORDO
100
AcDbPolyline
 62
7
  6
CONTINUOUS
 90
5
 70
0
 10
6.2582625878
 20
18.7241427978
 10
5.8200277951
 20
18.581482289
 10
5.3922166865
 20
18.4194255259
 10
4.974829262
 20
18.2379725084
 10
4.5675217884
 20
18.0369246173
  0
LINE
  5
235
100
AcDbEntity
  8
0
100
AcDbLine
 62
250
  6
CONTINUOUS
 10
-13.4059212189
 20
-7.6939919693
 11
-13.3314954486
 21
-7.7566814384
  0
LWPOLYLINE
  5
236
100
AcDbEntity
  8
0
100
AcDbPolyline
 62
250
  6
CONTINUOUS
 90
20
 70
0
 10
-13.3314954486
 20
-7.7566814384
 10
-13.2586175466
 20
-7.8252840251
 10
-13.1898681174
 20
-7.8962736475
 10
-13.1258738898
 20
-7.9694486556
 10
-13.0660059497
 20
-8.0450093724
 10
-13.0109622515
 20
-8.1200331689
 10
-12.9611876667
 20
-8.1939507169
 10
-12.9162360487
 20
-8.2673305691
 10
-12.8754699601
 20
-8.3389576069
 10
-12.8389446752
 20
-8.4085580607
 10
-12.8066045374
 20
-8.4764054663
 10
-12.7776464919
 20
-8.5421061374
 10
-12.7520237121
 20
-8.6055946599
 10
-12.7297831681
 20
-8.6669365336
 10
-12.7102629703
 20
-8.7259347284
 10
-12.693440325
 20
-8.7825054199
 10
-12.6793385344
 20
-8.8367327407
 10
-12.6673651251
 20
-8.8886717615
 10
-12.6574866089
 20
-8.938269937
 10
-12.649737119
 20
-8.9855802043
  0
LWPOLYLINE
  5
237
100
AcDbEntity
  8
0
100
AcDbPolyline
 62
250
  6
CONTINUOUS
 90
4
 70
0
 10
-12.649737119
 20
-8.9855802043
 10
-12.6436257127
 20
-9.0308159177
 10
-12.6389889588
 20
-9.074048327
 10
-12.6359909154
 20
-9.1152065637
  0
LINE
  5
238
100
AcDbEntity
  8
0
100
AcDbLine
 62
250
  6
CONTINUOUS
 10
-12.6359909154
 20
-9.1152065637
 11
-12.634631881
 21
-9.1542908093
  0
LWPOLYLINE
  5
239
100
AcDbEntity
  8
RACCORDO
100
AcDbPolyline
 62
250
  6
CONTINUOUS
 90
55
 70
0
 10
-12.883752814
 20
-8.9716381613
 10
-12.8848266561
 20
-8.928273552
 10
-12.8880454836
 20
-8.8838109773
 10
-12.8933989604
 20
-8.8383998376
 10
-12.9008654215
 20
-8.7922157904
 10
-12.9104222867
 20
-8.7453917833
 10
-12.9220564192
 20
-8.6980147181
 10
-12.9357534629
 20
-8.6501921525
 10
-12.9514653025
 20
-8.6021348107
 10
-12.9691166728
 20
-8.5540861062
 10
-12.9886439369
 20
-8.5062163874
 10
-13.0099824085
 20
-8.4586813061
 10
-13.033029274
 20
-8.4117001083
 10
-13.0576745958
 20
-8.3654745499
 10
-13.0838503394
 20
-8.3201115007
 10
-13.1115103003
 20
-8.2756856145
 10
-13.1405829317
 20
-8.2323184847
 10
-13.1709532056
 20
-8.1901880426
 10
-13.2025088917
 20
-8.1494514236
 10
-13.2351425814
 20
-8.1102470744
 10
-13.2687448997
 20
-8.0727061927
 10
-13.3031932434
 20
-8.0369645828
 10
-13.3383483872
 20
-8.0031619753
 10
-13.374112838
 20
-7.9713874883
 10
-13.4104251627
 20
-7.941699858
 10
-13.4472005862
 20
-7.914182413
 10
-13.4842804726
 20
-7.8889677548
 10
-13.5214911753
 20
-7.8661792241
 10
-13.5586920531
 20
-7.8459018824
 10
-13.595770858
 20
-7.8281958424
 10
-13.6325958057
 20
-7.8131238008
 10
-13.6690376994
 20
-7.8007373637
 10
-13.7049772414
 20
-7.7910757949
 10
-13.7402992917
 20
-7.7841699372
 10
-13.7748883054
 20
-7.7800435491
 10
-13.8086218558
 20
-7.7787124285
 10
-13.8413784095
 20
-7.7801811811
 10
-13.8730426624
 20
-7.7844429446
 10
-13.903512314
 20
-7.7914822031
 10
-13.9326907164
 20
-7.8012764796
 10
-13.9604828039
 20
-7.8137955341
 10
-13.9867889882
 20
-7.8289962477
 10
-14.0115132232
 20
-7.8468227058
 10
-14.0345680009
 20
-7.8672087689
 10
-14.0558809895
 20
-7.8900872694
 10
-14.0753869095
 20
-7.9153881555
 10
-14.0930296563
 20
-7.9430457842
 10
-14.1087348844
 20
-7.9729512903
 10
-14.1224273818
 20
-8.0049493953
 10
-14.1340587778
 20
-8.0388859918
 10
-14.1436141678
 20
-8.0746700348
 10
-14.151079981
 20
-8.1122293253
 10
-14.1564333626
 20
-8.1514569572
 10
-14.1596523891
 20
-8.1922028031
 10
-14.1607264346
 20
-8.234329597
  0
LWPOLYLINE
  5
23A
100
AcDbEntity
  8
RACCORDO
100
AcDbPolyline
 62
250
  6
CONTINUOUS
 90
42
 70
0
 10
-12.7493763866
 20
-8.96833161
 10
-12.7505586648
 20
-8.9205980904
 10
-12.7541018978
 20
-8.87165607
 10
-12.759994709
 20
-8.8216699763
 10
-12.7682131718
 20
-8.7708331583
 10
-12.7787325207
 20
-8.7192918998
 10
-12.7915385418
 20
-8.6671418052
 10
-12.8066155588
 20
-8.6145012891
 10
-12.8239104653
 20
-8.5616023559
 10
-12.8433402532
 20
-8.5087129498
 10
-12.8648348123
 20
-8.4560205574
 10
-12.8883230122
 20
-8.4036965052
 10
-12.9136917319
 20
-8.351982136
 10
-12.940819975
 20
-8.3010995439
 10
-12.9696328317
 20
-8.2511663618
 10
-13.000079431
 20
-8.2022647591
 10
-13.0320810143
 20
-8.1545285748
 10
-13.0655109697
 20
-8.1081536685
 10
-13.1002457626
 20
-8.0633130081
 10
-13.1361671644
 20
-8.0201589899
 10
-13.1731547795
 20
-7.9788360279
 10
-13.2110736521
 20
-7.9394936063
 10
-13.2497705301
 20
-7.9022855311
 10
-13.2891380994
 20
-7.8673098996
 10
-13.3291087386
 20
-7.8346313678
 10
-13.369589132
 20
-7.8043416606
 10
-13.4104046612
 20
-7.7765867376
 10
-13.4513641853
 20
-7.7515023632
 10
-13.4923128942
 20
-7.7291821678
 10
-13.5331272317
 20
-7.7096923207
 10
-13.5736621369
 20
-7.6931018356
 10
-13.6137753968
 20
-7.6794675183
 10
-13.6533356954
 20
-7.6688325876
 10
-13.6922162928
 20
-7.6612309934
 10
-13.7302900034
 20
-7.6566888874
 10
-13.7674220669
 20
-7.6552236595
 10
-13.8034787056
 20
-7.6568403802
 10
-13.8383329984
 20
-7.6615314976
 10
-13.8718723388
 20
-7.6692799311
 10
-13.9039903438
 20
-7.6800609354
 10
-13.9345823734
 20
-7.6938412179
 10
-13.9510113246
 20
-7.7028540441
  0
LWPOLYLINE
  5
23B
100
AcDbEntity
  8
0
100
AcDbPolyline
 62
7
  6
CONTINUOUS
 90
10
 70
0
 10
-12.6639130426
 20
-9.1138575034
 10
-12.6637250591
 20
-9.156883095
 10
-12.6682753978
 20
-9.236517921
 10
-12.6794060177
 20
-9.3118003378
 10
-12.697137025
 20
-9.3813456117
 10
-12.7210096777
 20
-9.443513145
 10
-12.7503984637
 20
-9.4975389325
 10
-12.7849265409
 20
-9.5434122794
 10
-12.8242937975
 20
-9.5812270596
 10
-12.8659246697
 20
-9.6096915562
  0
LINE
  5
23C
100
AcDbEntity
  8
0
100
AcDbLine
 62
250
  6
CONTINUOUS
 10
-12.634631881
 20
-9.1542908093
 11
-12.6360350118
 21
-9.2418869527
  0
LWPOLYLINE
  5
23D
100
AcDbEntity
  8
0
100
AcDbPolyline
 62
250
  6
CONTINUOUS
 90
6
 70
0
 10
-12.6360350118
 20
-9.2418869527
 10
-12.6436533393
 20
-9.3237432502
 10
-12.657488103
 20
-9.3998604537
 10
-12.6777121008
 20
-9.4705664387
 10
-12.7041547684
 20
-9.5355346858
 10
-12.7363029473
 20
-9.5937847493
  0
LWPOLYLINE
  5
23E
100
AcDbEntity
  8
RACCORDO
100
AcDbPolyline
 62
250
  6
CONTINUOUS
 90
10
 70
0
 10
5.8929116242
 20
18.3411452656
 10
5.8711782062
 20
18.325317623
 10
5.8501446161
 20
18.3060558186
 10
5.830316087
 20
18.2838225271
 10
5.8121689063
 20
18.2591517989
 10
5.7961389744
 20
18.2326362323
 10
5.7826113351
 20
18.204912739
 10
5.7719109262
 20
18.1766472455
 10
5.7642947748
 20
18.1485186976
 10
5.7599458232
 20
18.1212027514
  0
LWPOLYLINE
  5
23F
100
AcDbEntity
  8
RACCORDO
100
AcDbPolyline
 62
250
  6
CONTINUOUS
 90
7
 70
0
 10
3.1362040159
 20
16.9765520127
 10
3.3557728681
 20
17.1127013585
 10
3.7923771528
 20
17.3581624034
 10
4.2377523098
 20
17.5838807317
 10
4.6915505274
 20
17.7896691443
 10
5.1541196174
 20
17.9757148403
 10
5.6254595798
 20
18.1420178199
  0
LWPOLYLINE
  5
240
100
AcDbEntity
  8
RACCORDO
100
AcDbPolyline
 62
7
  6
CONTINUOUS
 90
3
 70
0
 10
3.2803291673
 20
17.2778027934
 10
3.0771633572
 20
17.1518751027
 10
2.9619359723
 20
17.077172197
  0
LINE
  5
241
100
AcDbEntity
  8
RACCORDO
100
AcDbLine
 62
7
  6
CONTINUOUS
 10
3.2787804688
 20
17.2768613826
 11
3.2803019808
 21
17.2777836425
  0
LINE
  5
242
100
AcDbEntity
  8
DRAFT
100
AcDbLine
 62
7
  6
CONTINUOUS
 10
4.0609351498
 20
17.7510429605
 11
3.2787959101
 21
17.2768707439
  0
LWPOLYLINE
  5
243
100
AcDbEntity
  8
RACCORDO
100
AcDbPolyline
 62
7
  6
CONTINUOUS
 90
21
 70
0
 10
5.0080145301
 20
17.5319297127
 10
4.993508104
 20
17.5231771791
 10
4.9546797529
 20
17.495610949
 10
4.9181382396
 20
17.4629960694
 10
4.8847575302
 20
17.4255688444
 10
4.8550394799
 20
17.3832393359
 10
4.8297119003
 20
17.3361185727
 10
4.8097828889
 20
17.2851155052
 10
4.7959361087
 20
17.2312775034
 10
4.7884477811
 20
17.1745733645
 10
4.7877473962
 20
17.1164781597
 10
4.7936050233
 20
17.0596631997
 10
4.8057198773
 20
17.0034725636
 10
4.8239279619
 20
16.9482833983
 10
4.846737325
 20
16.8972521965
 10
4.8736303976
 20
16.8499523871
 10
4.9049704882
 20
16.8053321461
 10
4.9392882134
 20
16.7652102492
 10
4.9758119529
 20
16.7298802199
 10
5.0152878304
 20
16.6983910803
 10
5.0579057015
 20
16.6708083106
  0
LWPOLYLINE
  5
244
100
AcDbEntity
  8
RACCORDO
100
AcDbPolyline
 62
7
  6
CONTINUOUS
 90
3
 70
0
 10
3.2803019808
 20
17.2777836425
 10
3.3932554342
 20
17.3453775704
 10
3.4969255159
 20
17.4059176867
  0
LINE
  5
245
100
AcDbEntity
  8
RACCORDO
100
AcDbLine
 62
250
  6
CONTINUOUS
 10
6.4725655778
 20
18.6837791415
 11
5.8929116243
 21
18.3411452656
  0
LINE
  5
246
100
AcDbEntity
  8
RACCORDO
100
AcDbLine
 62
250
  6
CONTINUOUS
 10
6.2582626262
 20
18.7241427995
 11
5.6776301739
 21
18.3810765265
  0
LINE
  5
247
100
AcDbEntity
  8
ASSI
100
AcDbLine
 62
7
  6
CONTINUOUS
 10
5.3942958636
 20
17.7549637705
 11
5.0079033796
 21
17.5318655929
  0
LINE
  5
248
100
AcDbEntity
  8
ASSI
100
AcDbLine
 62
7
  6
CONTINUOUS
 10
5.8329307099
 20
16.8535068957
 11
5.5079275398
 21
16.6658541385
  0
LINE
  5
249
100
AcDbEntity
  8
RACCORDO
100
AcDbLine
 62
250
  6
CONTINUOUS
 10
5.0080145301
 20
17.5319297127
 11
5.0079033796
 21
17.5318655929
  0
LWPOLYLINE
  5
24A
100
AcDbEntity
  8
RACCORDO
100
AcDbPolyline
 62
7
  6
CONTINUOUS
 90
3
 70
0
 10
4.5675217884
 20
18.0369246173
 10
4.1706379988
 20
17.8164804718
 10
4.060950432
 20
17.7510169209
  0
LINE
  5
24B
100
AcDbEntity
  8
RACCORDO
100
AcDbLine
 62
250
  6
CONTINUOUS
 10
3.4969255159
 20
17.4059176867
 11
3.8323950245
 21
17.5922585737
  0
LINE
  5
24C
100
AcDbEntity
  8
DRAFT
100
AcDbLine
 62
7
  6
CONTINUOUS
 10
9.9473323807
 20
20.4061863341
 11
9.0225567365
 21
19.8928799485
  0
LINE
  5
24D
100
AcDbEntity
  8
DRAFT
100
AcDbLine
 62
7
  6
CONTINUOUS
 10
9.0225567365
 20
19.8928799485
 11
8.0835202302
 21
19.3722838707
  0
LINE
  5
24E
100
AcDbEntity
  8
DRAFT
100
AcDbLine
 62
7
  6
CONTINUOUS
 10
8.0835202302
 20
19.3722838707
 11
7.1307488551
 21
18.8446055869
  0
LINE
  5
24F
100
AcDbEntity
  8
DRAFT
100
AcDbLine
 62
7
  6
CONTINUOUS
 10
10.4422986031
 20
20.4990129294
 11
7.599416864
 21
18.931266636
  0
LINE
  5
250
100
AcDbEntity
  8
DRAFT
100
AcDbLine
 62
7
  6
CONTINUOUS
 10
7.3187813844
 20
19.4360027777
 11
5.6360020125
 21
18.5117724987
  0
LINE
  5
251
100
AcDbEntity
  8
DRAFT
100
AcDbLine
 62
7
  6
CONTINUOUS
 10
10.5168589632
 20
21.1664336325
 11
7.8862064897
 21
19.7228437864
  0
LINE
  5
252
100
AcDbEntity
  8
DRAFT
100
AcDbLine
 62
7
  6
CONTINUOUS
 10
10.5571857368
 20
21.1431104794
 11
8.283689517
 21
19.8959903795
  0
LINE
  5
253
100
AcDbEntity
  8
DRAFT
100
AcDbLine
 62
7
  6
CONTINUOUS
 10
7.9824279094
 20
19.4500215543
 11
6.6830776572
 21
18.7405773509
  0
LINE
  5
254
100
AcDbEntity
  8
DRAFT
100
AcDbLine
 62
7
  6
CONTINUOUS
 10
8.9442167397
 20
19.9745687848
 11
7.9824279094
 21
19.4500215543
  0
LINE
  5
255
100
AcDbEntity
  8
DRAFT
100
AcDbLine
 62
7
  6
CONTINUOUS
 10
9.5793411022
 20
20.3206738335
 11
8.9442167397
 21
19.9745687848
  0
LWPOLYLINE
  5
256
100
AcDbEntity
  8
DRAFT
100
AcDbPolyline
 62
7
  6
CONTINUOUS
 90
16
 70
0
 10
7.0282013356
 20
18.6458460151
 10
7.021275428
 20
18.6420743916
 10
7.0016392376
 20
18.6334822449
 10
6.9809173278
 20
18.6273311122
 10
6.9590941902
 20
18.6236614308
 10
6.9361853332
 20
18.6224327634
 10
6.912561145
 20
18.6236559264
 10
6.8882170758
 20
18.6273658673
 10
6.8631576755
 20
18.6335276386
 10
6.8377669805
 20
18.6420472151
 10
6.8120306345
 20
18.6529641133
 10
6.7859629939
 20
18.6662388166
 10
6.7599911652
 20
18.6816587496
 10
6.7342575173
 20
18.6991530537
 10
6.7086196813
 20
18.7187925875
 10
6.6830776572
 20
18.7405773509
  0
LINE
  5
257
100
AcDbEntity
  8
DRAFT
100
AcDbLine
 62
7
  6
CONTINUOUS
 10
10.8950215576
 20
20.2376163695
 11
8.0172240537
 21
18.6900300011
  0
LWPOLYLINE
  5
258
100
AcDbEntity
  8
RACCORDO
100
AcDbPolyline
 62
250
  6
CONTINUOUS
 90
10
 70
0
 10
5.677644398
 20
18.3810478266
 10
5.6576678041
 20
18.3655140741
 10
5.6405168641
 20
18.345738646
 10
5.6266396175
 20
18.3222381428
 10
5.6163985842
 20
18.2956264766
 10
5.6100612942
 20
18.2665988336
 10
5.6077932989
 20
18.2359135132
 10
5.6096538466
 20
18.2043721193
 10
5.6155943351
 20
18.1727986195
 10
5.6254595806
 20
18.1420178202
  0
LWPOLYLINE
  5
259
100
AcDbEntity
  8
RACCORDO
100
AcDbPolyline
 62
250
  6
CONTINUOUS
 90
24
 70
0
 10
5.5079275398
 20
16.6658541385
 10
5.5205967166
 20
16.6739513025
 10
5.5439031041
 20
16.6937111764
 10
5.564068577
 20
16.717907139
 10
5.58087754
 20
16.7462765626
 10
5.5941476607
 20
16.7785114194
 10
5.6037334092
 20
16.8142607327
 10
5.6095284812
 20
16.8531315581
 10
5.6114688496
 20
16.8946963971
 10
5.6095332201
 20
16.9384994893
 10
5.603742791
 20
16.9840607338
 10
5.5941613965
 20
17.0308790661
 10
5.5808947371
 20
17.0784401387
 10
5.564088402
 20
17.1262235631
 10
5.5439262587
 20
17.1737070356
 10
5.520628439
 20
17.2203717167
 10
5.494450967
 20
17.2657044433
 10
5.4656830085
 20
17.3092051681
 10
5.4346402977
 20
17.3503977233
 10
5.401663558
 20
17.3888311509
 10
5.3671174219
 20
17.4240822302
 10
5.3313819331
 20
17.4557656261
 10
5.2948478901
 20
17.483537234
 10
5.2579154597
 20
17.5070950041
  0
LINE
  5
25A
100
AcDbEntity
  8
RACCORDO
100
AcDbLine
 62
7
  6
CONTINUOUS
 10
8.0172240537
 20
17.7919126966
 11
7.4501639895
 21
17.4420072669
  0
LINE
  5
25B
100
AcDbEntity
  8
DRAFT
100
AcDbLine
 62
7
  6
CONTINUOUS
 10
12.0461405591
 20
18.976930886
 11
7.2088104541
 21
16.1839263703
  0
LINE
  5
25C
100
AcDbEntity
  8
DRAFT
100
AcDbLine
 62
7
  6
CONTINUOUS
 10
10.8950215576
 20
18.388239987
 11
12.0461405591
 21
19.018676636
  0
LWPOLYLINE
  5
25D
100
AcDbEntity
  8
RACCORDO
100
AcDbPolyline
 62
250
  6
CONTINUOUS
 90
13
 70
0
 10
16.7869621125
 20
-20.1376984556
 10
16.8063886581
 20
-20.1473531847
 10
16.827839205
 20
-20.155156943
 10
16.8509547679
 20
-20.1609791306
 10
16.8753484964
 20
-20.1647223105
 10
16.9006121497
 20
-20.1663238387
 10
16.9263229282
 20
-20.1657569129
 10
16.9520505494
 20
-20.1630310208
 10
16.977364449
 20
-20.1581917815
 10
17.0018409865
 20
-20.1513201822
 10
17.0250705352
 20
-20.1425312225
 10
17.0466643371
 20
-20.1319719898
 10
17.0662610095
 20
-20.1198191981
  0
LINE
  5
25E
100
AcDbEntity
  8
DRAFT
100
AcDbLine
 62
7
  6
CONTINUOUS
 10
15.3185799042
 20
17.6835092203
 11
12.5395231586
 21
16.0789111756
  0
LINE
  5
25F
100
AcDbEntity
  8
DRAFT
100
AcDbLine
 62
7
  6
CONTINUOUS
 10
15.7713028587
 20
17.4221126604
 11
12.9573303482
 21
15.8376745407
  0
LWPOLYLINE
  5
260
100
AcDbEntity
  8
DRAFT
100
AcDbPolyline
 62
7
  6
CONTINUOUS
 90
10
 70
0
 10
16.2662690811
 20
16.7577114781
 10
15.955402228
 20
16.5898286517
 10
15.6433697062
 20
16.4209080566
 10
15.3301626405
 20
16.2509473524
 10
15.0157644972
 20
16.0799244767
 10
14.7001735464
 20
15.9078585986
 10
14.3834053907
 20
15.7348091351
 10
14.0654618269
 20
15.5607947722
 10
13.7463283491
 20
15.3857944023
 10
13.4259983572
 20
15.2098074224
  0
LWPOLYLINE
  5
261
100
AcDbEntity
  8
0
100
AcDbPolyline
 62
250
  6
CONTINUOUS
 90
9
 70
0
 10
-14.0011642965
 20
-7.4495390742
 10
-13.9320873687
 20
-7.452466508
 10
-13.8608785049
 20
-7.4634746957
 10
-13.787495393
 20
-7.4827353665
 10
-13.7119828076
 20
-7.5100782861
 10
-13.6359118041
 20
-7.5449323978
 10
-13.5591037494
 20
-7.5876399058
 10
-13.4817377983
 20
-7.6378589225
 10
-13.4059212189
 20
-7.6939919693
  0
LWPOLYLINE
  5
262
100
AcDbEntity
  8
0
100
AcDbPolyline
 62
250
  6
CONTINUOUS
 90
3
 70
0
 10
-12.7363029473
 20
-9.5937847493
 10
-12.7743009159
 20
-9.6453217578
 10
-12.8180078261
 20
-9.6901426738
  0
LINE
  5
263
100
AcDbEntity
  8
RACCORDO
100
AcDbLine
 62
7
  6
CONTINUOUS
 10
12.5395231586
 20
15.1807938712
 11
11.9919196199
 21
14.8196544874
  0
LWPOLYLINE
  5
264
100
AcDbEntity
  8
DRAFT
100
AcDbPolyline
 62
7
  6
CONTINUOUS
 90
10
 70
0
 10
16.6342603595
 20
16.2472518732
 10
16.333687521
 20
16.0650896904
 10
16.0315646291
 20
15.8824229388
 10
15.7278886285
 20
15.6992412045
 10
15.4226355067
 20
15.5155327997
 10
15.1158245553
 20
15.3312877335
 10
14.8075178977
 20
15.1465008913
 10
14.4977348892
 20
14.961166603
 10
14.1864525569
 20
14.7752755059
 10
13.873669555
 20
14.5888197084
  0
LWPOLYLINE
  5
265
100
AcDbEntity
  8
RACCORDO
100
AcDbPolyline
 62
7
  6
CONTINUOUS
 90
21
 70
0
 10
12.7861891231
 20
13.0409091861
 10
12.771682697
 20
13.0321566525
 10
12.732854346
 20
13.0045904224
 10
12.6963128326
 20
12.9719755428
 10
12.6629321233
 20
12.9345483178
 10
12.633214073
 20
12.8922188093
 10
12.6078864933
 20
12.8450980461
 10
12.587957482
 20
12.7940949786
 10
12.5741107017
 20
12.7402569768
 10
12.5666223742
 20
12.6835528379
 10
12.5659219893
 20
12.6254576331
 10
12.5717796163
 20
12.5686426731
 10
12.5838944703
 20
12.512452037
 10
12.602102555
 20
12.4572628717
 10
12.6249119181
 20
12.4062316699
 10
12.6518049907
 20
12.3589318605
 10
12.6831450812
 20
12.3143116195
 10
12.7174628065
 20
12.2741897226
 10
12.7539865459
 20
12.2388596933
 10
12.7934624235
 20
12.2073705537
 10
12.8360802946
 20
12.179787784
  0
LINE
  5
266
100
AcDbEntity
  8
DRAFT
100
AcDbLine
 62
7
  6
CONTINUOUS
 10
16.3946146719
 20
16.4664610303
 11
16.4302026025
 21
16.4873741573
  0
LINE
  5
267
100
AcDbEntity
  8
ASSI
100
AcDbLine
 62
7
  6
CONTINUOUS
 10
13.1724704567
 20
13.2639432439
 11
12.7860779727
 21
13.0408450663
  0
LINE
  5
268
100
AcDbEntity
  8
RACCORDO
100
AcDbLine
 62
250
  6
CONTINUOUS
 10
12.7861891231
 20
13.0409091861
 11
12.7860779727
 21
13.0408450663
  0
LINE
  5
269
100
AcDbEntity
  8
RACCORDO
100
AcDbLine
 62
7
  6
CONTINUOUS
 10
20.9048947111
 20
-17.7922148886
 11
21.1064517177
 21
-17.9085913781
  0
LINE
  5
26A
100
AcDbEntity
  8
0
100
AcDbLine
 62
7
  6
CONTINUOUS
 10
16.4302026025
 20
17.3437457118
 11
16.7214149912
 21
17.5838779217
  0
LINE
  5
26B
100
AcDbEntity
  8
DRAFT
100
AcDbLine
 62
7
  6
CONTINUOUS
 10
16.4302026025
 20
16.4873741573
 11
17.3402449544
 21
17.2266570989
  0
LINE
  5
26C
100
AcDbEntity
  8
RACCORDO
100
AcDbLine
 62
250
  6
CONTINUOUS
 10
13.7635544034
 20
13.7123652168
 11
14.2984845863
 21
14.0818194072
  0
LINE
  5
26D
100
AcDbEntity
  8
RACCORDO
100
AcDbLine
 62
250
  6
CONTINUOUS
 10
13.5491719851
 20
13.9205164887
 11
14.0841816347
 21
14.2889274261
  0
LWPOLYLINE
  5
26E
100
AcDbEntity
  8
RACCORDO
100
AcDbPolyline
 62
250
  6
CONTINUOUS
 90
24
 70
0
 10
13.2861021328
 20
12.1748336119
 10
13.2987713096
 20
12.1829307759
 10
13.3220776971
 20
12.2026906498
 10
13.3422431701
 20
12.2268866124
 10
13.359052133
 20
12.255256036
 10
13.3723222538
 20
12.2874908928
 10
13.3819080023
 20
12.3232402061
 10
13.3877030743
 20
12.3621110315
 10
13.3896434426
 20
12.4036758705
 10
13.3877078131
 20
12.4474789627
 10
13.3819173841
 20
12.4930402072
 10
13.3723359896
 20
12.5398585395
 10
13.3590693302
 20
12.5874196121
 10
13.3422629951
 20
12.6352030365
 10
13.3221008518
 20
12.682686509
 10
13.298803032
 20
12.7293511901
 10
13.27262556
 20
12.7746839167
 10
13.2438576015
 20
12.8181846415
 10
13.2128148908
 20
12.8593771967
 10
13.179838151
 20
12.8978106243
 10
13.145292015
 20
12.9330617036
 10
13.1095565262
 20
12.9647450995
 10
13.0730224831
 20
12.9925167074
 10
13.0360900528
 20
13.0160744775
  0
LINE
  5
26F
100
AcDbEntity
  8
DRAFT
100
AcDbLine
 62
7
  6
CONTINUOUS
 10
20.8677865361
 20
15.1899377795
 11
18.327394972
 21
13.6942324156
  0
LINE
  5
270
100
AcDbEntity
  8
DRAFT
100
AcDbLine
 62
7
  6
CONTINUOUS
 10
20.1288749478
 20
15.6165370904
 11
17.9299119448
 21
14.3263824453
  0
LINE
  5
271
100
AcDbEntity
  8
ASSI
100
AcDbLine
 62
7
  6
CONTINUOUS
 10
13.611105303
 20
12.3624863691
 11
13.2861021328
 21
12.1748336119
  0
LWPOLYLINE
  5
272
100
AcDbEntity
  8
0
100
AcDbPolyline
 62
250
  6
CONTINUOUS
 90
3
 70
0
 10
-14.1285163984
 20
-7.4682637073
 10
-14.0666686177
 20
-7.4547503566
 10
-14.0011642965
 20
-7.4495390742
  0
LWPOLYLINE
  5
273
100
AcDbEntity
  8
RACCORDO
100
AcDbPolyline
 62
250
  6
CONTINUOUS
 90
10
 70
0
 10
13.5399268377
 20
13.5723036168
 10
13.5578629525
 20
13.587032743
 10
13.5789977157
 20
13.6029745431
 10
13.6027789541
 20
13.6197125166
 10
13.6285853522
 20
13.6368093624
 10
13.6557426843
 20
13.6538184031
 10
13.6835414298
 20
13.6702952555
 10
13.7112553105
 20
13.6858094404
 10
13.7381602654
 20
13.6999556297
 10
13.7635533675
 20
13.7123642357
  0
LWPOLYLINE
  5
274
100
AcDbEntity
  8
0
100
AcDbPolyline
 62
250
  6
CONTINUOUS
 90
38
 70
0
 10
-12.8180078261
 20
-9.6901426738
 10
-12.8664841275
 20
-9.7272555964
 10
-12.9198150834
 20
-9.7564745402
 10
-12.9779196515
 20
-9.7779880698
 10
-13.0396097166
 20
-9.7913666574
 10
-13.1049694743
 20
-9.796447356
 10
-13.173918518
 20
-9.7933954312
 10
-13.2450220618
 20
-9.782273817
 10
-13.3183260031
 20
-9.762912861
 10
-13.3937869063
 20
-9.7354837234
 10
-13.4698357392
 20
-9.700560406
 10
-13.5466551117
 20
-9.6577993966
 10
-13.6240629325
 20
-9.6075445252
 10
-13.6999426478
 20
-9.5514005194
 10
-13.7744509286
 20
-9.4887269822
 10
-13.8474295968
 20
-9.4201633872
 10
-13.916289732
 20
-9.3492342111
 10
-13.980401489
 20
-9.276143999
 10
-14.0403925295
 20
-9.2006868691
 10
-14.0955610089
 20
-9.1257721573
 10
-14.1454616342
 20
-9.0519670937
 10
-14.1905384266
 20
-8.9787036709
 10
-14.2314246464
 20
-8.9071890631
 10
-14.2680648093
 20
-8.8376951113
 10
-14.3005140189
 20
-8.7699497431
 10
-14.3295721957
 20
-8.7043447383
 10
-14.3552859565
 20
-8.6409456082
 10
-14.3776088289
 20
-8.5796869314
 10
-14.3972015691
 20
-8.5207643755
 10
-14.4140873527
 20
-8.4642618893
 10
-14.4282435128
 20
-8.4100958361
 10
-14.440262313
 20
-8.3582106714
 10
-14.4501778329
 20
-8.3086591839
 10
-14.4579566377
 20
-8.2613889795
 10
-14.4640898164
 20
-8.2161867987
 10
-14.4687412818
 20
-8.1729816873
 10
-14.4717477476
 20
-8.1318449824
 10
-14.4731095121
 20
-8.0927768666
  0
LINE
  5
275
100
AcDbEntity
  8
DRAFT
100
AcDbLine
 62
7
  6
CONTINUOUS
 10
21.1064517177
 20
14.8642233442
 11
18.5589435679
 21
13.3149363121
  0
LINE
  5
276
100
AcDbEntity
  8
RACCORDO
100
AcDbLine
 62
250
  6
CONTINUOUS
 10
10.4881709544
 20
7.6227389041
 11
14.8746753735
 21
10.1989057684
  0
LINE
  5
277
100
AcDbEntity
  8
RACCORDO
100
AcDbLine
 62
250
  6
CONTINUOUS
 10
10.8447550884
 20
7.0123184565
 11
15.2281210744
 21
9.5866421385
  0
LINE
  5
278
100
AcDbEntity
  8
DRAFT
100
AcDbLine
 62
7
  6
CONTINUOUS
 10
-13.951011325
 20
-7.7028540444
 11
-13.6957956992
 21
-7.5533053821
  0
LINE
  5
279
100
AcDbEntity
  8
RACCORDO
100
AcDbLine
 62
250
  6
CONTINUOUS
 10
15.5184657901
 20
8.6517619222
 11
15.2281210744
 21
8.4841216156
  0
LINE
  5
27A
100
AcDbEntity
  8
0
100
AcDbLine
 62
7
  6
CONTINUOUS
 10
-14.100825279
 20
-7.5513890195
 11
-14.1007649963
 21
-7.5513542204
  0
LWPOLYLINE
  5
27B
100
AcDbEntity
  8
0
100
AcDbPolyline
 62
7
  6
CONTINUOUS
 90
27
 70
0
 10
-14.1008181303
 20
-7.551386432
 10
-14.0837285119
 20
-7.5422218096
 10
-14.0306325603
 20
-7.5214861895
 10
-13.9716622002
 20
-7.5094558739
 10
-13.9073673486
 20
-7.5066498974
 10
-13.8384913587
 20
-7.5132970126
 10
-13.7658424405
 20
-7.5295049689
 10
-13.690384206
 20
-7.5551440939
 10
-13.6133247682
 20
-7.5897810949
 10
-13.5360313147
 20
-7.6326640307
 10
-13.4589231678
 20
-7.6833367228
 10
-13.3815590507
 20
-7.7421237834
 10
-13.3042386416
 20
-7.8090868008
 10
-13.2282251451
 20
-7.8833627501
 10
-13.1544175567
 20
-7.9642348084
 10
-13.083526014
 20
-8.0510363479
 10
-13.016270489
 20
-8.1429706047
 10
-12.9534554563
 20
-8.2390046923
 10
-12.8956702812
 20
-8.3382129027
 10
-12.8434329622
 20
-8.4396959224
 10
-12.7972677704
 20
-8.5423512493
 10
-12.7575570688
 20
-8.6452050276
 10
-12.724597273
 20
-8.7472965447
 10
-12.6986551645
 20
-8.8475047678
 10
-12.6798571695
 20
-8.9448249256
 10
-12.6682133384
 20
-9.0384302104
 10
-12.663919216
 20
-9.1136305319
  0
LWPOLYLINE
  5
27C
100
AcDbEntity
  8
RACCORDO
100
AcDbPolyline
 62
250
  6
CONTINUOUS
 90
10
 70
0
 10
16.6112918341
 20
7.3349467525
 10
16.6331243767
 20
7.342578654
 10
16.6581454691
 20
7.3516500633
 10
16.6856820499
 20
7.3619169615
 10
16.7149933916
 20
7.3731031716
 10
16.7452910263
 20
7.3849077873
 10
16.7757599548
 20
7.3970132671
 10
16.8055805704
 20
7.4090939765
 10
16.8339507056
 20
7.4208249473
 10
16.8601072106
 20
7.4318906193
  0
LWPOLYLINE
  5
27D
100
AcDbEntity
  8
RACCORDO
100
AcDbPolyline
 62
250
  6
CONTINUOUS
 90
13
 70
0
 10
15.3724243514
 20
-7.8523380846
 10
15.3918508972
 20
-7.8619928139
 10
15.4133014443
 20
-7.8697965722
 10
15.4364170074
 20
-7.8756187598
 10
15.4608107362
 20
-7.8793619397
 10
15.4860743896
 20
-7.8809634679
 10
15.5117851682
 20
-7.880396542
 10
15.5375127893
 20
-7.8776706499
 10
15.5628266889
 20
-7.8728314106
 10
15.5873032262
 20
-7.8659598113
 10
15.6105327747
 20
-7.8571708515
 10
15.6321265763
 20
-7.8466116188
 10
15.6517232484
 20
-7.8344588271
  0
LWPOLYLINE
  5
27E
100
AcDbEntity
  8
RACCORDO
100
AcDbPolyline
 62
250
  6
CONTINUOUS
 90
13
 70
0
 10
15.3724243514
 20
-7.6533326916
 10
15.391850897
 20
-7.6634094833
 10
15.4133014439
 20
-7.6722943313
 10
15.4364170068
 20
-7.6798385432
 10
15.4608107354
 20
-7.6859158629
 10
15.4860743887
 20
-7.6904245836
 10
15.5117851672
 20
-7.6932892496
 10
15.5375127884
 20
-7.6944619192
 10
15.562826688
 20
-7.6939229674
 10
15.5873032255
 20
-7.6916814138
 10
15.6105327742
 20
-7.6877747717
 10
15.6321265761
 20
-7.6822684208
 10
15.6517232484
 20
-7.6752545126
  0
LWPOLYLINE
  5
27F
100
AcDbEntity
  8
RACCORDO
100
AcDbPolyline
 62
250
  6
CONTINUOUS
 90
10
 70
0
 10
16.6112918343
 20
-20.8363350282
 10
16.6331246876
 20
-20.8608079696
 10
16.6581456735
 20
-20.8819071349
 10
16.6856817802
 20
-20.8990650009
 10
16.7149923447
 20
-20.9118200572
 10
16.7452889748
 20
-20.9198292195
 10
16.7757567552
 20
-20.9228770582
 10
16.8055761668
 20
-20.9208815926
 10
16.8339451306
 20
-20.9138964966
 10
16.8601005812
 20
-20.9021096544
  0
LWPOLYLINE
  5
280
100
AcDbEntity
  8
RACCORDO
100
AcDbPolyline
 62
250
  6
CONTINUOUS
 90
15
 70
0
 10
-12.9570443422
 20
-9.4243444478
 10
-12.9408372728
 20
-9.4145006205
 10
-12.9136221711
 20
-9.3948782279
 10
-12.8882447344
 20
-9.3724383301
 10
-12.8647845722
 20
-9.3472548837
 10
-12.8433135125
 20
-9.3194050427
 10
-12.8238932711
 20
-9.2889611135
 10
-12.8066057174
 20
-9.2560428666
 10
-12.7915337297
 20
-9.2208211097
 10
-12.7787306345
 20
-9.183465401
 10
-12.7682127672
 20
-9.1440760678
 10
-12.7599949233
 20
-9.1027327352
 10
-12.7541022072
 20
-9.0595531082
 10
-12.7505587963
 20
-9.0147023738
 10
-12.7493763866
 20
-8.96833161
  0
LINE
  5
281
100
AcDbEntity
  8
RACCORDO
100
AcDbLine
 62
250
  6
CONTINUOUS
 10
20.6025005743
 20
9.5751331227
 11
17.8768394848
 21
7.9627211233
  0
LINE
  5
282
100
AcDbEntity
  8
RACCORDO
100
AcDbLine
 62
250
  6
CONTINUOUS
 10
16.0116581068
 20
7.6309055188
 11
15.2281210744
 21
7.1785040067
  0
LINE
  5
283
100
AcDbEntity
  8
0
100
AcDbLine
 62
7
  6
CONTINUOUS
 10
-12.8643557307
 20
-9.6087929295
 11
-12.8659838087
 21
-9.6097275303
  0
LINE
  5
284
100
AcDbEntity
  8
DRAFT
100
AcDbLine
 62
7
  6
CONTINUOUS
 10
-12.9570443416
 20
-9.4243444475
 11
-12.6720778577
 21
-9.2622360187
  0
LINE
  5
285
100
AcDbEntity
  8
RACCORDO
100
AcDbLine
 62
250
  6
CONTINUOUS
 10
17.8580641384
 20
7.9944593146
 11
16.8601073638
 21
7.4318906699
  0
LWPOLYLINE
  5
286
100
AcDbEntity
  8
RACCORDO
100
AcDbPolyline
 62
7
  6
CONTINUOUS
 90
43
 70
0
 10
-12.9570443405
 20
-9.4243444468
 10
-12.9865834733
 20
-9.4395544301
 10
-13.0176800888
 20
-9.4524110995
 10
-13.0502498395
 20
-9.4627997009
 10
-13.0842196122
 20
-9.470619518
 10
-13.1194753802
 20
-9.4757714826
 10
-13.1558698767
 20
-9.4781731276
 10
-13.1933132371
 20
-9.4777649296
 10
-13.2317098304
 20
-9.4744948191
 10
-13.2709151056
 20
-9.4683280559
 10
-13.3109175115
 20
-9.4592158805
 10
-13.3515559769
 20
-9.4471419751
 10
-13.3924576317
 20
-9.4321979191
 10
-13.4335024399
 20
-9.4144360615
 10
-13.4746212558
 20
-9.3938906357
 10
-13.5155035104
 20
-9.3707356793
 10
-13.5559980577
 20
-9.3450981603
 10
-13.5960612973
 20
-9.317042997
 10
-13.6355337564
 20
-9.2867162941
 10
-13.6742961362
 20
-9.2542493964
 10
-13.7122755361
 20
-9.2197400192
 10
-13.7493747221
 20
-9.1833082441
 10
-13.7854918127
 20
-9.1450845216
 10
-13.8205431942
 20
-9.1051854827
 10
-13.8544539957
 20
-9.0637194787
 10
-13.8871345753
 20
-9.0208152764
 10
-13.9184986768
 20
-8.9766032601
 10
-13.9484742129
 20
-8.9311982394
 10
-13.9769790317
 20
-8.8847336877
 10
-14.0039333627
 20
-8.8373463571
 10
-14.0292694642
 20
-8.7891577956
 10
-14.0529119491
 20
-8.7403093146
 10
-14.0747919625
 20
-8.6909376164
 10
-14.0948532501
 20
-8.641155875
 10
-14.1130324077
 20
-8.5910971473
 10
-14.1292642862
 20
-8.5409091444
 10
-14.1434932614
 20
-8.4907219712
 10
-14.1556649868
 20
-8.4406687547
 10
-14.1657250356
 20
-8.3908958897
 10
-14.1736243488
 20
-8.3415434091
 10
-14.1793179164
 20
-8.2927450367
 10
-14.1827630251
 20
-8.2446365038
 10
-14.1839197414
 20
-8.197355461
  0
LINE
  5
287
100
AcDbEntity
  8
RACCORDO
100
AcDbLine
 62
250
  6
CONTINUOUS
 10
15.3724243514
 20
-7.8523380846
 11
15.2281210744
 21
-7.7690191811
  0
LINE
  5
288
100
AcDbEntity
  8
RACCORDO
100
AcDbLine
 62
250
  6
CONTINUOUS
 10
15.3724243514
 20
-7.6533326916
 11
15.2281210744
 21
-7.570013788
  0
LINE
  5
289
100
AcDbEntity
  8
RACCORDO
100
AcDbLine
 62
250
  6
CONTINUOUS
 10
20.9063156229
 20
8.3885531703
 11
18.1626142164
 21
6.7675990599
  0
LINE
  5
28A
100
AcDbEntity
  8
RACCORDO
100
AcDbLine
 62
250
  6
CONTINUOUS
 10
18.1626142164
 20
6.8063798289
 11
17.0662610095
 21
6.1875321568
  0
LWPOLYLINE
  5
28B
100
AcDbEntity
  8
0
100
AcDbPolyline
 62
250
  6
CONTINUOUS
 90
37
 70
0
 10
-12.8659838087
 20
-9.6097275303
 10
-12.896471944
 20
-9.6253313232
 10
-12.9497383061
 20
-9.6450200325
 10
-13.0067498439
 20
-9.6572677026
 10
-13.0671123342
 20
-9.6619840733
 10
-13.1303835437
 20
-9.6591253447
 10
-13.1961334428
 20
-9.6487219344
 10
-13.2638996058
 20
-9.630846983
 10
-13.3331994927
 20
-9.6056208092
 10
-13.4035530464
 20
-9.5732268612
 10
-13.4746446115
 20
-9.533793638
 10
-13.545797271
 20
-9.4876643156
 10
-13.6159936038
 20
-9.4355636513
 10
-13.6850819663
 20
-9.3777326957
 10
-13.7522969298
 20
-9.3149062414
 10
-13.8158599599
 20
-9.2490564726
 10
-13.8752859483
 20
-9.1813370398
 10
-13.9307156092
 20
-9.1122139259
 10
-13.9815895716
 20
-9.0429500848
 10
-14.0277422988
 20
-8.9745664978
 10
-14.0695318823
 20
-8.9073471421
 10
-14.10728914
 20
-8.8413734419
 10
-14.1411456079
 20
-8.7770921768
 10
-14.1713121664
 20
-8.7148257787
 10
-14.1981824893
 20
-8.6543310166
 10
-14.2219505969
 20
-8.5957617595
 10
-14.2427683158
 20
-8.5393885471
 10
-14.2608981473
 20
-8.4850663066
 10
-14.276507906
 20
-8.4329116985
 10
-14.2897735738
 20
-8.383024946
 10
-14.3009179565
 20
-8.3351996279
 10
-14.3100904925
 20
-8.2894905101
 10
-14.3174463411
 20
-8.2459307347
 10
-14.3231623879
 20
-8.2042692819
 10
-14.3273688717
 20
-8.1644325287
 10
-14.3301790745
 20
-8.1265141654
 10
-14.331715891
 20
-8.0905063064
  0
LINE
  5
28C
100
AcDbEntity
  8
RACCORDO
100
AcDbLine
 62
7
  6
CONTINUOUS
 10
7.3148772618
 20
17.2234048266
 11
7.2088104541
 21
16.1839263703
  0
LWPOLYLINE
  5
28D
100
AcDbEntity
  8
DRAFT
100
AcDbPolyline
 62
7
  6
CONTINUOUS
 90
11
 70
0
 10
7.1307488551
 20
18.8446055869
 10
7.1277734187
 20
18.8161494112
 10
7.1229649335
 20
18.7893953132
 10
7.1163233995
 20
18.7643432929
 10
7.1077924514
 20
18.7408748088
 10
7.0974284545
 20
18.7191084024
 10
7.0854005049
 20
18.6993996982
 10
7.0716801778
 20
18.6817835101
 10
7.0562958981
 20
18.6662250242
 10
7.0395020362
 20
18.6529754231
 10
7.0282013356
 20
18.6458460151
  0
LWPOLYLINE
  5
28E
100
AcDbEntity
  8
RACCORDO
100
AcDbPolyline
 62
250
  6
CONTINUOUS
 90
9
 70
0
 10
9.7941777483
 20
-27.4077359392
 10
9.6719707372
 20
-23.7157726674
 10
9.5803065518
 20
-20.0056605527
 10
9.519192844
 20
-16.2777146976
 10
9.4886347154
 20
-12.5322517832
 10
9.4886347154
 20
-8.7695899284
 10
9.5191928439
 20
-4.9900486611
 10
9.5803065517
 20
-1.1939490441
 10
9.6719707372
 20
2.6183863503
  0
LWPOLYLINE
  5
28F
100
AcDbEntity
  8
RACCORDO
100
AcDbPolyline
 62
250
  6
CONTINUOUS
 90
9
 70
0
 10
10.4947562633
 20
-27.3945159113
 10
10.3726609354
 20
-23.7057256186
 10
10.2810894433
 20
-19.9994321163
 10
10.2200417869
 20
-16.2756354044
 10
10.1895179714
 20
-12.5340127783
 10
10.1895179916
 20
-8.7748869427
 10
10.2200418324
 20
-4.9992260115
 10
10.2810894888
 20
-1.2073526894
 10
10.3726609657
 20
2.6010557282
  0
LINE
  5
290
100
AcDbEntity
  8
DRAFT
100
AcDbLine
 62
7
  6
CONTINUOUS
 10
8.0172240537
 20
18.6900300011
 11
8.0172240537
 21
17.7919126966
  0
LINE
  5
291
100
AcDbEntity
  8
RACCORDO
100
AcDbLine
 62
250
  6
CONTINUOUS
 10
9.6719707372
 20
2.6183863503
 11
9.7941777483
 21
6.4466335831
  0
LWPOLYLINE
  5
292
100
AcDbEntity
  8
RACCORDO
100
AcDbPolyline
 62
250
  6
CONTINUOUS
 90
19
 70
0
 10
9.7941777483
 20
6.4466335831
 10
9.7991294023
 20
6.517365544
 10
9.8090119889
 20
6.5901901805
 10
9.8237577269
 20
6.6645997819
 10
9.8432675156
 20
6.7400773873
 10
9.8674050645
 20
6.8160942723
 10
9.895996099
 20
6.892113506
 10
9.928840682
 20
6.9675994274
 10
9.9657117539
 20
7.0420299466
 10
10.0063497588
 20
7.1148937412
 10
10.0504732854
 20
7.1856797215
 10
10.0977777654
 20
7.2538955768
 10
10.1479349477
 20
7.3190782421
 10
10.2006052793
 20
7.3807765113
 10
10.2554201161
 20
7.4385505246
 10
10.3119816381
 20
7.4919909965
 10
10.3698920573
 20
7.540723332
 10
10.4287574464
 20
7.5844078724
 10
10.4881709544
 20
7.6227389041
  0
LINE
  5
293
100
AcDbEntity
  8
DRAFT
100
AcDbLine
 62
7
  6
CONTINUOUS
 10
10.8950215576
 20
20.2376163695
 11
10.8950215576
 21
18.388239987
  0
LINE
  5
294
100
AcDbEntity
  8
RACCORDO
100
AcDbLine
 62
250
  6
CONTINUOUS
 10
10.3726609657
 20
2.6010557282
 11
10.4947562633
 21
6.4259992414
  0
LWPOLYLINE
  5
295
100
AcDbEntity
  8
RACCORDO
100
AcDbPolyline
 62
250
  6
CONTINUOUS
 90
19
 70
0
 10
10.4947562633
 20
6.4259992414
 10
10.497308519
 20
6.4616403619
 10
10.5022590582
 20
6.497846534
 10
10.5096078808
 20
6.5346177578
 10
10.5194409064
 20
6.5722333761
 10
10.5316722155
 20
6.6104140461
 10
10.546044049
 20
6.6483217397
 10
10.562599118
 20
6.6859341737
 10
10.5812947114
 20
6.7232736313
 10
10.6017449379
 20
6.7595689339
 10
10.6239858037
 20
6.7947974888
 10
10.6479813025
 20
6.8289818886
 10
10.6732375242
 20
6.8614187328
 10
10.6997937995
 20
6.8920815497
 10
10.7276107977
 20
6.920996811
 10
10.756076616
 20
6.9475405309
 10
10.7849872867
 20
6.9715047142
 10
10.8145467775
 20
6.993097356
 10
10.8447550884
 20
7.0123184565
  0
LINE
  5
296
100
AcDbEntity
  8
RACCORDO
100
AcDbLine
 62
7
  6
CONTINUOUS
 10
11.8612747456
 20
14.5983718992
 11
11.75884722
 21
13.556792167
  0
LWPOLYLINE
  5
297
100
AcDbEntity
  8
RACCORDO
100
AcDbPolyline
 62
250
  6
CONTINUOUS
 90
10
 70
0
 10
13.4162061842
 20
13.7005739744
 10
13.4205551359
 20
13.7278899209
 10
13.4281712875
 20
13.7560184691
 10
13.4388716966
 20
13.7842839628
 10
13.4523993364
 20
13.8120074563
 10
13.4684292687
 20
13.8385230231
 10
13.4865764497
 20
13.8631937512
 10
13.5064049785
 20
13.8854270424
 10
13.5274385681
 20
13.9046888463
 10
13.5491719852
 20
13.9205164887
  0
LWPOLYLINE
  5
298
100
AcDbEntity
  8
RACCORDO
100
AcDbPolyline
 62
250
  6
CONTINUOUS
 90
13
 70
0
 10
9.7941943471
 20
6.4466423725
 10
9.8427860194
 20
6.4218174918
 10
9.8964752454
 20
6.4005374762
 10
9.9543636722
 20
6.3831583928
 10
10.0154826834
 20
6.3699710366
 10
10.0788096075
 20
6.3611960647
 10
10.1432848287
 20
6.3569803041
 10
10.2078295177
 20
6.3573942948
 10
10.2713636828
 20
6.3624311099
 10
10.3328242406
 20
6.372006471
 10
10.3911828046
 20
6.3859601586
 10
10.445462892
 20
6.4040586931
 10
10.4947562631
 20
6.4259992415
  0
LINE
  5
299
100
AcDbEntity
  8
RACCORDO
100
AcDbLine
 62
250
  6
CONTINUOUS
 10
-20.6612460269
 20
24.0312135748
 11
9.7941777483
 21
6.4466335831
  0
LINE
  5
29A
100
AcDbEntity
  8
RACCORDO
100
AcDbLine
 62
250
  6
CONTINUOUS
 10
-19.9792617093
 20
25.2142526775
 11
10.4881709544
 21
7.6227389041
  0
LINE
  5
29B
100
AcDbEntity
  8
DRAFT
100
AcDbLine
 62
7
  6
CONTINUOUS
 10
12.0461405591
 20
18.976930886
 11
12.0461405591
 21
19.8750481905
  0
LINE
  5
29C
100
AcDbEntity
  8
DRAFT
100
AcDbLine
 62
7
  6
CONTINUOUS
 10
12.5395231586
 20
16.0789111756
 11
12.5395231586
 21
15.1807938712
  0
LWPOLYLINE
  5
29D
100
AcDbEntity
  8
RACCORDO
100
AcDbPolyline
 62
250
  6
CONTINUOUS
 90
13
 70
0
 10
16.7869621125
 20
6.2094539779
 10
16.8063881797
 20
6.1993774092
 10
16.8278382714
 20
6.1904926844
 10
16.8509534501
 20
6.1829485068
 10
16.875346913
 20
6.1768711473
 10
16.9006104379
 20
6.1723623368
 10
16.9263212127
 20
6.1694975579
 10
16.952048962
 20
6.168324773
 10
16.9773631084
 20
6.1688636297
 10
17.0018399539
 20
6.1711051245
 10
17.0250698389
 20
6.1750117526
 10
17.0466639944
 20
6.1805181447
 10
17.0662610094
 20
6.187532156
  0
LWPOLYLINE
  5
29E
100
AcDbEntity
  8
RACCORDO
100
AcDbPolyline
 62
250
  6
CONTINUOUS
 90
13
 70
0
 10
10.4881709544
 20
7.6227389041
 10
10.5335730879
 20
7.5921729059
 10
10.5783570923
 20
7.5552424081
 10
10.621757146
 20
7.5125789349
 10
10.6630310932
 20
7.464912046
 10
10.7014731355
 20
7.4130568617
 10
10.7364259006
 20
7.3579001229
 10
10.7672916844
 20
7.3003850289
 10
10.7935426716
 20
7.2414951071
 10
10.8147299612
 20
7.1822373954
 10
10.8304912435
 20
7.1236252207
 10
10.8405569952
 20
7.0666608711
 10
10.8447550884
 20
7.0123184565
  0
LINE
  5
29F
100
AcDbEntity
  8
RACCORDO
100
AcDbLine
 62
7
  6
CONTINUOUS
 10
15.2281210744
 20
-13.752981346
 11
16.0116581068
 21
-20.4508458158
  0
LWPOLYLINE
  5
2A0
100
AcDbEntity
  8
RACCORDO
100
AcDbPolyline
 62
250
  6
CONTINUOUS
 90
16
 70
0
 10
15.6517232484
 20
-7.8344588271
 10
15.6506548873
 20
-7.8244602101
 10
15.6497393001
 20
-7.8143704923
 10
15.648976487
 20
-7.8041896736
 10
15.6483665816
 20
-7.7939164689
 10
15.6479094502
 20
-7.7835521634
 10
15.6476046912
 20
-7.7731006125
 10
15.6474521534
 20
-7.7625618568
 10
15.647451988
 20
-7.7519358557
 10
15.6476042469
 20
-7.7412263431
 10
15.6479087832
 20
-7.7304333961
 10
15.6483657438
 20
-7.7195569375
 10
15.6489756214
 20
-7.7086004697
 10
15.6497385801
 20
-7.69756516
 10
15.6506544558
 20
-7.6864498409
 10
15.6517232484
 20
-7.6752545126
  0
LWPOLYLINE
  5
2A1
100
AcDbEntity
  8
RACCORDO
100
AcDbPolyline
 62
250
  6
CONTINUOUS
 90
16
 70
0
 10
15.3724243514
 20
-7.8523380846
 10
15.3710931939
 20
-7.8398475623
 10
15.3699525995
 20
-7.8272357175
 10
15.369002501
 20
-7.8145061554
 10
15.3682428799
 20
-7.8016644108
 10
15.3676734134
 20
-7.7887122547
 10
15.3672937513
 20
-7.7756475181
 10
15.3671038733
 20
-7.7624738725
 10
15.3671037088
 20
-7.7491947356
 10
15.3672932742
 20
-7.7358072837
 10
15.3676726696
 20
-7.7223149032
 10
15.3682419476
 20
-7.7087211597
 10
15.3690015055
 20
-7.6950232592
 10
15.3699517132
 20
-7.681222513
 10
15.3710926259
 20
-7.6673244862
 10
15.3724243514
 20
-7.6533326916
  0
LINE
  5
2A2
100
AcDbEntity
  8
RACCORDO
100
AcDbLine
 62
7
  6
CONTINUOUS
 10
15.2281210744
 20
-25.2767319336
 11
15.2281210744
 21
9.5866421385
  0
LINE
  5
2A3
100
AcDbEntity
  8
DRAFT
100
AcDbLine
 62
7
  6
CONTINUOUS
 10
16.4302026025
 20
16.4873741573
 11
16.4302026025
 21
17.3437457118
  0
LWPOLYLINE
  5
2A4
100
AcDbEntity
  8
RACCORDO
100
AcDbPolyline
 62
250
  6
CONTINUOUS
 90
13
 70
0
 10
17.0662610095
 20
6.1875321568
 10
17.0729408127
 20
6.2849881983
 10
17.0751395236
 20
6.3846212312
 10
17.0728838542
 20
6.4861343679
 10
17.0662406269
 20
6.5892399967
 10
17.0552362822
 20
6.6936162079
 10
17.0398565714
 20
6.7989077929
 10
17.0201785779
 20
6.9047972169
 10
16.9962954783
 20
7.0109735978
 10
16.9682346533
 20
7.1170892705
 10
16.9360848221
 20
7.2228180214
 10
16.8999968324
 20
7.327855977
 10
16.8601073638
 20
7.4318906699
  0
LWPOLYLINE
  5
2A5
100
AcDbEntity
  8
RACCORDO
100
AcDbPolyline
 62
250
  6
CONTINUOUS
 90
13
 70
0
 10
16.7869621125
 20
6.2094539779
 10
16.7938580177
 20
6.297895274
 10
16.7967671879
 20
6.3878541702
 10
16.795689623
 20
6.4793306666
 10
16.7905950955
 20
6.5726577232
 10
16.781513833
 20
6.66750238
 10
16.7685365179
 20
6.7628657567
 10
16.7516098612
 20
6.8587480278
 10
16.7307871519
 20
6.9551490188
 10
16.7063189396
 20
7.0510693271
 10
16.6782887408
 20
7.1461758184
 10
16.646613039
 20
7.2408016268
 10
16.6112918341
 20
7.3349467525
  0
LINE
  5
2A6
100
AcDbEntity
  8
RACCORDO
100
AcDbLine
 62
250
  6
CONTINUOUS
 10
15.3724243514
 20
-7.6533326916
 11
16.7869621125
 21
6.2094539779
  0
LINE
  5
2A7
100
AcDbEntity
  8
RACCORDO
100
AcDbLine
 62
250
  6
CONTINUOUS
 10
15.6517232484
 20
-7.6752545126
 11
17.0662610095
 21
6.1875321568
  0
LINE
  5
2A8
100
AcDbEntity
  8
RACCORDO
100
AcDbLine
 62
7
  6
CONTINUOUS
 10
15.2281210744
 20
0.0892930763
 11
16.0116581068
 21
7.6309055188
  0
LINE
  5
2A9
100
AcDbEntity
  8
DRAFT
100
AcDbLine
 62
7
  6
CONTINUOUS
 10
6.5188534699
 20
18.6969640733
 11
6.4721599862
 21
18.684013325
  0
LINE
  5
2AA
100
AcDbEntity
  8
DRAFT
100
AcDbLine
 62
7
  6
CONTINUOUS
 10
6.5656483842
 20
18.7096971878
 11
6.5188534699
 21
18.6969640733
  0
LINE
  5
2AB
100
AcDbEntity
  8
DRAFT
100
AcDbLine
 62
7
  6
CONTINUOUS
 10
6.6125445768
 20
18.7222126276
 11
6.5656483842
 21
18.7096971878
  0
LWPOLYLINE
  5
2AC
100
AcDbEntity
  8
DRAFT
100
AcDbPolyline
 62
7
  6
CONTINUOUS
 90
3
 70
0
 10
6.6830776572
 20
18.7405773509
 10
6.6595414379
 20
18.7345102292
 10
6.6125445768
 20
18.7222126276
  0
LWPOLYLINE
  5
2AD
100
AcDbEntity
  8
RACCORDO
100
AcDbPolyline
 62
250
  6
CONTINUOUS
 90
7
 70
0
 10
5.6254595798
 20
18.1420178199
 10
5.6466773566
 20
18.1469317032
 10
5.6683737723
 20
18.148492362
 10
5.6905488267
 20
18.1466997962
 10
5.7132025201
 20
18.1415540058
 10
5.7363348522
 20
18.1330549909
 10
5.7599458232
 20
18.1212027514
  0
LINE
  5
2AE
100
AcDbEntity
  8
RACCORDO
100
AcDbLine
 62
7
  6
CONTINUOUS
 10
15.2281210744
 20
8.8194033222
 11
15.5184657901
 21
8.6517619222
  0
LINE
  5
2AF
100
AcDbEntity
  8
RACCORDO
100
AcDbLine
 62
7
  6
CONTINUOUS
 10
-15.7432636312
 20
27.8773200168
 11
14.8746753735
 21
10.1989057684
  0
LINE
  5
2B0
100
AcDbEntity
  8
RACCORDO
100
AcDbLine
 62
250
  6
CONTINUOUS
 10
16.7869621125
 20
-20.1376984556
 11
15.3724243514
 21
-7.8523380846
  0
LINE
  5
2B1
100
AcDbEntity
  8
RACCORDO
100
AcDbLine
 62
250
  6
CONTINUOUS
 10
17.0662610095
 20
-20.1198191981
 11
15.6517232484
 21
-7.8344588271
  0
LINE
  5
2B2
100
AcDbEntity
  8
RACCORDO
100
AcDbLine
 62
7
  6
CONTINUOUS
 10
18.1626142164
 20
-19.5160650927
 11
18.1626142164
 21
6.8063798289
  0
LWPOLYLINE
  5
2B3
100
AcDbEntity
  8
RACCORDO
100
AcDbPolyline
 62
7
  6
CONTINUOUS
 90
13
 70
0
 10
18.1626142164
 20
-19.516065213
 10
18.1604122373
 20
-19.6058522259
 10
18.1538717154
 20
-19.6924268359
 10
18.1429926508
 20
-19.775789043
 10
18.1277147683
 20
-19.8562227712
 10
18.108098343
 20
-19.9334440965
 10
18.0843241998
 20
-20.006601247
 10
18.0563290796
 20
-20.0756338292
 10
18.0241762413
 20
-20.1406022366
 10
17.9882362873
 20
-20.2008358776
 10
17.9486327514
 20
-20.2561112217
 10
17.9052420998
 20
-20.3066517995
 10
17.8580643322
 20
-20.352457611
  0
LWPOLYLINE
  5
2B4
100
AcDbEntity
  8
DRAFT
100
AcDbPolyline
 62
7
  6
CONTINUOUS
 90
10
 70
0
 10
9.5793411022
 20
20.3206738335
 10
9.4312192987
 20
20.282105998
 10
9.2841282878
 20
20.2413802985
 10
9.1380680695
 20
20.198496735
 10
8.9930261952
 20
20.1534512272
 10
8.8490151136
 20
20.1062478554
 10
8.7060721703
 20
20.0568988606
 10
8.5642098141
 20
20.0054083232
 10
8.4234155963
 20
19.9517721628
 10
8.283689517
 20
19.8959903795
  0
LWPOLYLINE
  5
2B5
100
AcDbEntity
  8
RACCORDO
100
AcDbPolyline
 62
250
  6
CONTINUOUS
 90
7
 70
0
 10
5.6776301739
 20
18.3810765265
 10
5.710210089
 20
18.3881166811
 10
5.7446318476
 20
18.3896011199
 10
5.7805183655
 20
18.3855414734
 10
5.817471703
 20
18.3760119364
 10
5.8550778418
 20
18.3611481335
 10
5.8929116242
 20
18.3411452656
  0
LWPOLYLINE
  5
2B6
100
AcDbEntity
  8
RACCORDO
100
AcDbPolyline
 62
7
  6
CONTINUOUS
 90
7
 70
0
 10
6.2582625878
 20
18.7241427978
 10
6.2907752484
 20
18.7305466615
 10
6.3245358425
 20
18.7317112117
 10
6.35954437
 20
18.7276364485
 10
6.395800831
 20
18.7183223719
 10
6.4333052253
 20
18.7037689817
 10
6.4720575532
 20
18.6839762781
  0
LWPOLYLINE
  5
2B7
100
AcDbEntity
  8
DRAFT
100
AcDbPolyline
 62
7
  6
CONTINUOUS
 90
10
 70
0
 10
10.4422986031
 20
20.4990129294
 10
10.3868156427
 20
20.4898328619
 10
10.3314538971
 20
20.4803692077
 10
10.2762133663
 20
20.470621967
 10
10.2210934321
 20
20.4605910238
 10
10.1660947128
 20
20.4502764939
 10
10.1112190626
 20
20.4396787253
 10
10.0564670995
 20
20.4287978337
 10
10.0018382056
 20
20.4176337033
 10
9.9473323807
 20
20.4061863341
  0
LWPOLYLINE
  5
2B8
100
AcDbEntity
  8
DRAFT
100
AcDbPolyline
 62
7
  6
CONTINUOUS
 90
10
 70
0
 10
7.599416864
 20
18.931266636
 10
7.5469092321
 20
18.9226498264
 10
7.4945095617
 20
18.9137798956
 10
7.4422178526
 20
18.9046568435
 10
7.390033584
 20
18.8952805739
 10
7.3379572768
 20
18.8856511831
 10
7.285990494
 20
18.8757689601
 10
7.2341337566
 20
18.8656340012
 10
7.1823865436
 20
18.8552462102
 10
7.1307488551
 20
18.8446055869
  0
LWPOLYLINE
  5
2B9
100
AcDbEntity
  8
DRAFT
100
AcDbPolyline
 62
7
  6
CONTINUOUS
 90
25
 70
0
 10
13.873669555
 20
14.5888197084
 10
13.8481116169
 20
14.5965313332
 10
13.8224475668
 20
14.6065113084
 10
13.7966774048
 20
14.6187596338
 10
13.770654632
 20
14.6333711676
 10
13.7445257474
 20
14.6502510517
 10
13.7187302472
 20
14.6691147114
 10
13.6932822563
 20
14.6899893341
 10
13.6681676499
 20
14.7128477324
 10
13.6437835498
 20
14.7373237688
 10
13.6201387252
 20
14.7634460521
 10
13.5972244068
 20
14.7911859734
 10
13.5754114091
 20
14.8200915695
 10
13.5547189852
 20
14.8501802054
 10
13.5351278819
 20
14.8814345159
 10
13.5169511547
 20
14.9133504428
 10
13.5002123604
 20
14.9459356029
 10
13.484887942
 20
14.9791823793
 10
13.4712202841
 20
15.0125638628
 10
13.4592343561
 20
15.046082949
 10
13.4489051886
 20
15.0797367423
 10
13.4404002573
 20
15.112989646
 10
13.4337753877
 20
15.1456631277
 10
13.4289747543
 20
15.1779357199
 10
13.4259983572
 20
15.2098074224
  0
LWPOLYLINE
  5
2BA
100
AcDbEntity
  8
RACCORDO
100
AcDbPolyline
 62
250
  6
CONTINUOUS
 90
31
 70
0
 10
12.7532473403
 20
12.3628824741
 10
12.7607137264
 20
12.3590435675
 10
12.7679575156
 20
12.3561783842
 10
12.7749787078
 20
12.3542869243
 10
12.781852763
 20
12.3533667646
 10
12.7885042213
 20
12.3534203282
 10
12.7947067026
 20
12.3544548844
 10
12.8004428387
 20
12.356505282
 10
12.8057299979
 20
12.3595366722
 10
12.8103939047
 20
12.3634517776
 10
12.8144129232
 20
12.3682796568
 10
12.8178086895
 20
12.3739912513
 10
12.8204718355
 20
12.380402108
 10
12.8223786605
 20
12.3875352313
 10
12.8235528653
 20
12.3953676168
 10
12.8239561846
 20
12.4036457985
 10
12.8235632686
 20
12.4123844336
 10
12.8223994671
 20
12.4215688649
 10
12.8205025635
 20
12.4309016542
 10
12.81784867
 20
12.4403874738
 10
12.8144616744
 20
12.4500216513
 10
12.8104510239
 20
12.4594927321
 10
12.8057960741
 20
12.4687955378
 10
12.8005174694
 20
12.4779352468
 10
12.7947865891
 20
12.4866159398
 10
12.7885864464
 20
12.4948238804
 10
12.7819340282
 20
12.502572805
 10
12.7750516744
 20
12.5096080033
 10
12.7680134985
 20
12.5158445717
 10
12.7607453872
 20
12.5213674138
 10
12.7532473403
 20
12.5261765294
  0
LWPOLYLINE
  5
2BB
100
AcDbEntity
  8
RACCORDO
100
AcDbPolyline
 62
250
  6
CONTINUOUS
 90
31
 70
0
 10
12.7532473403
 20
12.5261765294
 10
12.7457809542
 20
12.5300154361
 10
12.738537165
 20
12.5328806193
 10
12.7315159728
 20
12.5347720793
 10
12.7246419175
 20
12.5356922389
 10
12.7179904593
 20
12.5356386753
 10
12.711787978
 20
12.5346041191
 10
12.7060518418
 20
12.5325537215
 10
12.7007646827
 20
12.5295223313
 10
12.6961007759
 20
12.5256072259
 10
12.6920817573
 20
12.5207793467
 10
12.6886859911
 20
12.5150677522
 10
12.6860228451
 20
12.5086568955
 10
12.6841160201
 20
12.5015237722
 10
12.6829418152
 20
12.4936913867
 10
12.682538496
 20
12.485413205
 10
12.6829314119
 20
12.4766745699
 10
12.6840952135
 20
12.4674901386
 10
12.6859921171
 20
12.4581573493
 10
12.6886460106
 20
12.4486715298
 10
12.6920330061
 20
12.4390373523
 10
12.6960436567
 20
12.4295662714
 10
12.7006986064
 20
12.4202634657
 10
12.7059772112
 20
12.4111237567
 10
12.7117080914
 20
12.4024430637
 10
12.7179082341
 20
12.3942351231
 10
12.7245606524
 20
12.3864861985
 10
12.7314430061
 20
12.3794510002
 10
12.738481182
 20
12.3732144318
 10
12.7457492934
 20
12.3676915898
 10
12.7532473403
 20
12.3628824741
  0
LWPOLYLINE
  5
2BC
100
AcDbEntity
  8
RACCORDO
100
AcDbPolyline
 62
250
  6
CONTINUOUS
 90
31
 70
0
 10
4.9750727472
 20
16.8539030007
 10
4.9825391334
 20
16.8500640941
 10
4.9897829225
 20
16.8471989108
 10
4.9968041147
 20
16.8453074509
 10
5.00367817
 20
16.8443872912
 10
5.0103296283
 20
16.8444408548
 10
5.0165321096
 20
16.8454754111
 10
5.0222682457
 20
16.8475258086
 10
5.0275554048
 20
16.8505571988
 10
5.0322193116
 20
16.8544723042
 10
5.0362383302
 20
16.8593001834
 10
5.0396340964
 20
16.8650117779
 10
5.0422972424
 20
16.8714226346
 10
5.0442040675
 20
16.8785557579
 10
5.0453782723
 20
16.8863881434
 10
5.0457815915
 20
16.8946663251
 10
5.0453886756
 20
16.9034049603
 10
5.044224874
 20
16.9125893915
 10
5.0423279704
 20
16.9219221808
 10
5.0396740769
 20
16.9314080004
 10
5.0362870814
 20
16.9410421779
 10
5.0322764308
 20
16.9505132587
 10
5.0276214811
 20
16.9598160644
 10
5.0223428764
 20
16.9689557734
 10
5.0166119961
 20
16.9776364664
 10
5.0104118534
 20
16.985844407
 10
5.0037594351
 20
16.9935933316
 10
4.9968770814
 20
17.0006285299
 10
4.9898389055
 20
17.0068650983
 10
4.9825707941
 20
17.0123879404
 10
4.9750727472
 20
17.017197056
  0
LWPOLYLINE
  5
2BD
100
AcDbEntity
  8
RACCORDO
100
AcDbPolyline
 62
250
  6
CONTINUOUS
 90
31
 70
0
 10
4.9750727472
 20
17.017197056
 10
4.9676063611
 20
17.0210359627
 10
4.9603625719
 20
17.0239011459
 10
4.9533413797
 20
17.0257926059
 10
4.9464673245
 20
17.0267127655
 10
4.9398158662
 20
17.0266592019
 10
4.9336133849
 20
17.0256246457
 10
4.9278772488
 20
17.0235742481
 10
4.9225900896
 20
17.020542858
 10
4.9179261829
 20
17.0166277526
 10
4.9139071643
 20
17.0117998733
 10
4.9105113981
 20
17.0060882788
 10
4.907848252
 20
16.9996774221
 10
4.905941427
 20
16.9925442988
 10
4.9047672222
 20
16.9847119133
 10
4.9043639029
 20
16.9764337316
 10
4.9047568189
 20
16.9676950965
 10
4.9059206204
 20
16.9585106652
 10
4.907817524
 20
16.9491778759
 10
4.9104714175
 20
16.9396920564
 10
4.9138584131
 20
16.9300578789
 10
4.9178690637
 20
16.920586798
 10
4.9225240134
 20
16.9112839923
 10
4.9278026181
 20
16.9021442833
 10
4.9335334984
 20
16.8934635903
 10
4.9397336411
 20
16.8852556497
 10
4.9463860593
 20
16.8775067251
 10
4.9532684131
 20
16.8704715269
 10
4.960306589
 20
16.8642349584
 10
4.9675747004
 20
16.8587121164
 10
4.9750727472
 20
16.8539030007
  0
LWPOLYLINE
  5
2BE
100
AcDbEntity
  8
RACCORDO
100
AcDbPolyline
 62
7
  6
CONTINUOUS
 90
12
 70
0
 10
12.836080296
 20
12.1797877832
 10
12.8782586954
 20
12.1580914967
 10
12.9212067833
 20
12.1410584225
 10
12.9642999192
 20
12.1286526911
 10
13.006247893
 20
12.1208083804
 10
13.0472931716
 20
12.1170227823
 10
13.089248286
 20
12.1170769395
 10
13.1323354223
 20
12.1213047565
 10
13.1754335858
 20
12.1299218762
 10
13.2182742798
 20
12.1431361963
 10
13.2601218834
 20
12.1609876265
 10
13.2859909824
 20
12.174769492
  0
LWPOLYLINE
  5
2BF
100
AcDbEntity
  8
RACCORDO
100
AcDbPolyline
 62
7
  6
CONTINUOUS
 90
12
 70
0
 10
5.0579057029
 20
16.6708083098
 10
5.1000841023
 20
16.6491120233
 10
5.1430321903
 20
16.6320789491
 10
5.1861253262
 20
16.6196732177
 10
5.2280732999
 20
16.611828907
 10
5.2691185785
 20
16.6080433089
 10
5.311073693
 20
16.6080974661
 10
5.3541608293
 20
16.6123252831
 10
5.3972589928
 20
16.6209424028
 10
5.4400996867
 20
16.6341567229
 10
5.4819472904
 20
16.6520081531
 10
5.5078163894
 20
16.6657900186
  0
LWPOLYLINE
  5
2C0
100
AcDbEntity
  8
RACCORDO
100
AcDbPolyline
 62
250
  6
CONTINUOUS
 90
9
 70
0
 10
13.0360900528
 20
13.0160744775
 10
12.9991291675
 20
13.0351783293
 10
12.9625824322
 20
13.0495960036
 10
12.9268497017
 20
13.0591731599
 10
12.8923288995
 20
13.0638081541
 10
12.8593885492
 20
13.0634566852
 10
12.8283675644
 20
13.0581211643
 10
12.799597497
 20
13.0478490267
 10
12.7861891231
 20
13.0409091861
  0
LWPOLYLINE
  5
2C1
100
AcDbEntity
  8
RACCORDO
100
AcDbPolyline
 62
250
  6
CONTINUOUS
 90
9
 70
0
 10
5.2579154597
 20
17.5070950041
 10
5.2209545745
 20
17.5261988559
 10
5.1844078391
 20
17.5406165302
 10
5.1486751087
 20
17.5501936865
 10
5.1141543064
 20
17.5548286807
 10
5.0812139562
 20
17.5544772118
 10
5.0501929713
 20
17.5491416909
 10
5.0214229039
 20
17.5388695533
 10
5.0080145301
 20
17.5319297127
  0
LINE
  5
2C2
100
AcDbEntity
  8
DRAFT
100
AcDbLine
 62
7
  6
CONTINUOUS
 10
11.75884722
 20
13.556792167
 11
7.2088104541
 21
16.1839263703
  0
LINE
  5
2C3
100
AcDbEntity
  8
RACCORDO
100
AcDbLine
 62
250
  6
CONTINUOUS
 10
5.7599458232
 20
18.1212027514
 11
7.3148772618
 21
17.2234048266
  0
LINE
  5
2C4
100
AcDbEntity
  8
RACCORDO
100
AcDbLine
 62
250
  6
CONTINUOUS
 10
13.4162061842
 20
13.7005739744
 11
11.8612747456
 21
14.5983718992
  0
LINE
  5
2C5
100
AcDbEntity
  8
RACCORDO
100
AcDbLine
 62
250
  6
CONTINUOUS
 10
5.8929116243
 20
18.3411452656
 11
7.4501639895
 21
17.4420072669
  0
LINE
  5
2C6
100
AcDbEntity
  8
RACCORDO
100
AcDbLine
 62
250
  6
CONTINUOUS
 10
13.5491719851
 20
13.9205164887
 11
11.9919196199
 21
14.8196544874
  0
LWPOLYLINE
  5
2C7
100
AcDbEntity
  8
RACCORDO
100
AcDbPolyline
 62
250
  6
CONTINUOUS
 90
10
 70
0
 10
13.5399268377
 20
13.5723036168
 10
13.5282494658
 20
13.5907544447
 10
13.5159955418
 20
13.6082126897
 10
13.5031650656
 20
13.6246783518
 10
13.4896790904
 20
13.6402275089
 10
13.475616563
 20
13.6547840831
 10
13.4612143246
 20
13.6681198401
 10
13.4465513221
 20
13.680158702
 10
13.4315486087
 20
13.6909767468
 10
13.4162061842
 20
13.7005739744
  0
LWPOLYLINE
  5
2C8
100
AcDbEntity
  8
RACCORDO
100
AcDbPolyline
 62
250
  6
CONTINUOUS
 90
10
 70
0
 10
16.8601073638
 20
7.4318906699
 10
16.5654955155
 20
8.1561797404
 10
16.2578631361
 20
8.8750871938
 10
15.937494466
 20
9.5880787784
 10
15.6047275306
 20
10.2946283776
 10
15.2598191685
 20
10.9942077923
 10
14.9029422338
 20
11.686285349
 10
14.5343663235
 20
12.3703410801
 10
14.1544600779
 20
13.0458689201
 10
13.7635544034
 20
13.7123652168
  0
LWPOLYLINE
  5
2C9
100
AcDbEntity
  8
RACCORDO
100
AcDbPolyline
 62
250
  6
CONTINUOUS
 90
10
 70
0
 10
16.6112918341
 20
7.3349467525
 10
16.3186991327
 20
8.0551134597
 10
16.013731808
 20
8.7689105491
 10
15.69638986
 20
9.4763380208
 10
15.3663971497
 20
10.1779454028
 10
15.024029816
 20
10.8731831671
 10
14.6701162763
 20
11.560402729
 10
14.3049326695
 20
12.2390545605
 10
13.9282028566
 20
12.9096881898
 10
13.5399268377
 20
13.5723036168
  0
LINE
  5
2CA
100
AcDbEntity
  8
RACCORDO
100
AcDbLine
 62
7
  6
CONTINUOUS
 10
20.9063156229
 20
8.3885531705
 11
20.9063156229
 21
-17.7342025521
  0
LINE
  5
2CB
100
AcDbEntity
  8
DRAFT
100
AcDbLine
 62
7
  6
CONTINUOUS
 10
21.1064517177
 20
-18.0965306358
 11
21.1064517177
 21
-17.9085913781
  0
LINE
  5
2CC
100
AcDbEntity
  8
DRAFT
100
AcDbLine
 62
7
  6
CONTINUOUS
 10
21.1064517177
 20
14.8642233442
 11
21.1064517177
 21
15.0521626019
  0
LINE
  5
2CD
100
AcDbEntity
  8
RACCORDO
100
AcDbLine
 62
7
  6
CONTINUOUS
 10
6.4725655778
 20
18.6837791415
 11
8.0172240537
 21
17.7919126966
  0
LINE
  5
2CE
100
AcDbEntity
  8
RACCORDO
100
AcDbLine
 62
7
  6
CONTINUOUS
 10
12.5395231586
 20
15.1807938712
 11
14.0841816347
 21
14.2889274261
  0
LINE
  5
2CF
100
AcDbEntity
  8
DRAFT
100
AcDbLine
 62
7
  6
CONTINUOUS
 10
12.9573303482
 20
15.8376745407
 11
12.5395231586
 21
16.0789111756
  0
LINE
  5
2D0
100
AcDbEntity
  8
DRAFT
100
AcDbLine
 62
7
  6
CONTINUOUS
 10
8.0172240537
 20
18.6900300011
 11
7.599416864
 21
18.931266636
  0
LWPOLYLINE
  5
2D1
100
AcDbEntity
  8
RACCORDO
100
AcDbPolyline
 62
7
  6
CONTINUOUS
 90
7
 70
0
 10
14.0846896591
 20
14.2885379088
 10
14.123441991
 20
14.2635803908
 10
14.1609463854
 20
14.2348246463
 10
14.1972028423
 20
14.2022706756
 10
14.2322113616
 20
14.1659184785
 10
14.2659719434
 20
14.125768055
 10
14.2984845876
 20
14.0818194052
  0
LINE
  5
2D2
100
AcDbEntity
  8
DRAFT
100
AcDbLine
 62
7
  6
CONTINUOUS
 10
13.0622376506
 20
15.699043477
 11
12.9573303482
 21
15.8376745407
  0
LINE
  5
2D3
100
AcDbEntity
  8
DRAFT
100
AcDbLine
 62
7
  6
CONTINUOUS
 10
13.1667136283
 20
15.5598979151
 11
13.0622376506
 21
15.699043477
  0
LINE
  5
2D4
100
AcDbEntity
  8
DRAFT
100
AcDbLine
 62
7
  6
CONTINUOUS
 10
13.2707567183
 20
15.4202399489
 11
13.1667136283
 21
15.5598979151
  0
LWPOLYLINE
  5
2D5
100
AcDbEntity
  8
DRAFT
100
AcDbPolyline
 62
7
  6
CONTINUOUS
 90
3
 70
0
 10
13.4259983572
 20
15.2098074224
 10
13.3743606687
 20
15.280077954
 10
13.2707567183
 20
15.4202399489
  0
LINE
  5
2D6
100
AcDbEntity
  8
DRAFT
100
AcDbLine
 62
7
  6
CONTINUOUS
 10
14.0145089831
 20
14.3889623459
 11
13.873669555
 21
14.5888197084
  0
LINE
  5
2D7
100
AcDbEntity
  8
DRAFT
100
AcDbLine
 62
7
  6
CONTINUOUS
 10
14.0845872261
 20
14.2886932428
 11
14.0145089831
 21
14.3889623459
  0
LWPOLYLINE
  5
2D8
100
AcDbEntity
  8
RACCORDO
100
AcDbPolyline
 62
250
  6
CONTINUOUS
 90
10
 70
0
 10
13.7635544034
 20
13.7123652168
 10
13.7430175914
 20
13.741921551
 10
13.7213642816
 20
13.7701703774
 10
13.6987195914
 20
13.7969720267
 10
13.6752231537
 20
13.8221955754
 10
13.6509971506
 20
13.8457160895
 10
13.6261448466
 20
13.8674128616
 10
13.6007922754
 20
13.8871753657
 10
13.5750882802
 20
13.9049061961
 10
13.5491719852
 20
13.9205164887
  0
LWPOLYLINE
  5
2D9
100
AcDbEntity
  8
RACCORDO
100
AcDbPolyline
 62
7
  6
CONTINUOUS
 90
10
 70
0
 10
17.8580643219
 20
7.9944589434
 10
17.5073437796
 20
8.6949093628
 10
17.1451683553
 20
9.3897871929
 10
16.7715380489
 20
10.0790924337
 10
16.3861091235
 20
10.7634206443
 10
15.9892253161
 20
11.4421762656
 10
15.5819178377
 20
12.1135726201
 10
15.1645304253
 20
12.7770141486
 10
14.7367193419
 20
13.4330964103
 10
14.2984845876
 20
14.0818194052
  0
LWPOLYLINE
  5
2DA
100
AcDbEntity
  8
RACCORDO
100
AcDbPolyline
 62
7
  6
CONTINUOUS
 90
13
 70
0
 10
17.8580643219
 20
7.9944589434
 10
17.905242094
 20
7.894173418
 10
17.9486327492
 20
7.7935263953
 10
17.9882362873
 20
7.6925178754
 10
18.0241762421
 20
7.5907816745
 10
18.0563290799
 20
7.4886839764
 10
18.0843241998
 20
7.3873233319
 10
18.108098343
 20
7.2867123967
 10
18.1277147683
 20
7.1868385153
 10
18.1429926508
 20
7.0887622714
 10
18.1538717154
 20
6.992837193
 10
18.1604122373
 20
6.8987097523
 10
18.1626142164
 20
6.8063799492
  0
LWPOLYLINE
  5
2DB
100
AcDbEntity
  8
DRAFT
100
AcDbPolyline
 62
7
  6
CONTINUOUS
 90
25
 70
0
 10
16.2662690811
 20
16.7577114781
 10
16.272298601
 20
16.7317028567
 10
16.2793787919
 20
16.7056649732
 10
16.2875096539
 20
16.6795978275
 10
16.2967251163
 20
16.6534154814
 10
16.3069912497
 20
16.6272038732
 10
16.318206266
 20
16.6012208178
 10
16.3303794948
 20
16.5754686619
 10
16.3435016065
 20
16.5499450589
 10
16.3574428251
 20
16.5249007837
 10
16.3722111567
 20
16.5003407001
 10
16.3877985951
 20
16.4762599443
 10
16.4040513457
 20
16.4528946992
 10
16.4209755948
 20
16.4302523867
 10
16.4385651561
 20
16.4083255848
 10
16.4566476762
 20
16.3873282117
 10
16.4752278983
 20
16.3672692932
 10
16.4943010793
 20
16.3481398033
 10
16.5136806358
 20
16.3301265826
 10
16.5333694968
 20
16.3132404562
 10
16.5533647332
 20
16.2974705989
 10
16.5734709747
 20
16.2829713755
 10
16.5936230979
 20
16.2697942408
 10
16.6138862262
 20
16.2578877401
 10
16.6342603595
 20
16.2472518732
  0
LWPOLYLINE
  5
2DC
100
AcDbEntity
  8
RACCORDO
100
AcDbPolyline
 62
7
  6
CONTINUOUS
 90
13
 70
0
 10
20.9063156229
 20
-17.7342025521
 10
20.9041191859
 20
-17.8238776723
 10
20.8975950609
 20
-17.9103492125
 10
20.886743248
 20
-17.9936171727
 10
20.8715038338
 20
-18.0739643343
 10
20.8519367316
 20
-18.1511079158
 10
20.8282216818
 20
-18.2241995731
 10
20.8002957604
 20
-18.2931794103
 10
20.7682218914
 20
-18.3581073233
 10
20.732368587
 20
-18.4183146546
 10
20.6928586849
 20
-18.4735785184
 10
20.6495693475
 20
-18.5241218006
 10
20.6025005747
 20
-18.5699445012
  0
LINE
  5
2DD
100
AcDbEntity
  8
DRAFT
100
AcDbLine
 62
7
  6
CONTINUOUS
 10
14.8024249739
 20
17.3854868092
 11
12.0461405591
 21
18.976930886
  0
LINE
  5
2DE
100
AcDbEntity
  8
DRAFT
100
AcDbLine
 62
7
  6
CONTINUOUS
 10
15.7713028587
 20
17.4221126604
 11
15.3185799042
 21
17.6835092203
  0
LINE
  5
2DF
100
AcDbEntity
  8
DRAFT
100
AcDbLine
 62
7
  6
CONTINUOUS
 10
10.8950215576
 20
20.2376163695
 11
10.4422986031
 21
20.4990129294
  0
LINE
  5
2E0
100
AcDbEntity
  8
0
100
AcDbLine
 62
7
  6
CONTINUOUS
 10
12.0461405591
 20
19.8750481905
 11
16.4302026025
 21
17.3437457118
  0
LINE
  5
2E1
100
AcDbEntity
  8
DRAFT
100
AcDbLine
 62
7
  6
CONTINUOUS
 10
21.1064517177
 20
15.0521626019
 11
20.1288749478
 21
15.6165370904
  0
LINE
  5
2E2
100
AcDbEntity
  8
0
100
AcDbLine
 62
7
  6
CONTINUOUS
 10
12.4620349516
 20
20.043190574
 11
16.7214149912
 21
17.5838779217
  0
LINE
  5
2E3
100
AcDbEntity
  8
DRAFT
100
AcDbLine
 62
7
  6
CONTINUOUS
 10
16.7214149912
 20
17.5838779217
 11
20.1288749478
 21
15.6165370904
  0
LINE
  5
2E4
100
AcDbEntity
  8
DRAFT
100
AcDbLine
 62
7
  6
CONTINUOUS
 10
12.4620712575
 20
20.0432534536
 11
10.5168589632
 21
21.1664336325
  0
LWPOLYLINE
  5
2E5
100
AcDbEntity
  8
DRAFT
100
AcDbPolyline
 62
7
  6
CONTINUOUS
 90
7
 70
0
 10
9.5793411022
 20
20.3206738335
 10
9.5997167788
 20
20.3077809322
 10
9.6199823134
 20
20.2962869555
 10
9.6401377061
 20
20.2861919034
 10
9.6602484337
 20
20.2774718034
 10
9.6802490194
 20
20.270150628
 10
9.6946745794
 20
20.2658653492
  0
LINE
  5
2E6
100
AcDbEntity
  8
DRAFT
100
AcDbLine
 62
7
  6
CONTINUOUS
 10
15.8821475647
 20
17.2754682506
 11
15.7713028587
 21
17.4221126604
  0
LINE
  5
2E7
100
AcDbEntity
  8
DRAFT
100
AcDbLine
 62
7
  6
CONTINUOUS
 10
15.9925080296
 20
17.128248568
 11
15.8821475647
 21
17.2754682506
  0
LINE
  5
2E8
100
AcDbEntity
  8
DRAFT
100
AcDbLine
 62
7
  6
CONTINUOUS
 10
16.1023823992
 20
16.9804561016
 11
15.9925080296
 21
17.128248568
  0
LWPOLYLINE
  5
2E9
100
AcDbEntity
  8
DRAFT
100
AcDbPolyline
 62
7
  6
CONTINUOUS
 90
3
 70
0
 10
16.2662690811
 20
16.7577114781
 10
16.2117632562
 20
16.8321008077
 10
16.1023823992
 20
16.9804561016
  0
LWPOLYLINE
  5
2EA
100
AcDbEntity
  8
DRAFT
100
AcDbPolyline
 62
7
  6
CONTINUOUS
 90
10
 70
0
 10
17.9299119448
 20
14.3263824453
 10
17.7901858654
 20
14.5435164026
 10
17.6493916476
 20
14.7597381965
 10
17.5075292914
 20
14.975047827
 10
17.3645863482
 20
15.1894637497
 10
17.2205752665
 20
15.4029675088
 10
17.0755333922
 20
15.6155037375
 10
16.9294731739
 20
15.8270539799
 10
16.782382163
 20
16.0376366918
 10
16.6342603595
 20
16.2472518732
  0
LINE
  5
2EB
100
AcDbEntity
  8
RACCORDO
100
AcDbLine
 62
7
  6
CONTINUOUS
 10
18.6003123139
 20
13.2471708216
 11
18.327394972
 21
13.6942324156
  0
LWPOLYLINE
  5
2EC
100
AcDbEntity
  8
RACCORDO
100
AcDbPolyline
 62
7
  6
CONTINUOUS
 90
9
 70
0
 10
20.6025005747
 20
9.5751331219
 10
20.370406522
 20
10.0423820512
 10
20.133067651
 20
10.5073687825
 10
19.8904839619
 20
10.9700933157
 10
19.6425608499
 20
11.4307297966
 10
19.3893929197
 20
11.8891040794
 10
19.1312639854
 20
12.3446937265
 10
18.8682686517
 20
12.7973245919
 10
18.6003123139
 20
13.2471708216
  0
LWPOLYLINE
  5
2ED
100
AcDbEntity
  8
RACCORDO
100
AcDbPolyline
 62
7
  6
CONTINUOUS
 90
13
 70
0
 10
20.6025005747
 20
9.5751331219
 10
20.6495693475
 20
9.4749565824
 10
20.6928586849
 20
9.3744238585
 10
20.732368587
 20
9.2735349499
 10
20.7682218914
 20
9.1719251215
 10
20.8002957604
 20
9.0699591086
 10
20.8282216818
 20
8.9687311172
 10
20.8519367316
 20
8.8682539149
 10
20.8715038338
 20
8.7685147342
 10
20.886743248
 20
8.6705694791
 10
20.8975950609
 20
8.5747701174
 10
20.9041191859
 20
8.4807646812
 10
20.9063156229
 20
8.3885531705
  0
LINE
  5
2EE
100
AcDbEntity
  8
RACCORDO
100
AcDbLine
 62
250
  6
CONTINUOUS
 10
17.0662610095
 20
-20.1198191981
 11
18.1626142164
 21
-19.5160650927
  0
LINE
  5
2EF
100
AcDbEntity
  8
RACCORDO
100
AcDbLine
 62
250
  6
CONTINUOUS
 10
16.0116581068
 20
-20.4508458158
 11
15.2281210744
 21
-20.8421922764
  0
LINE
  5
2F0
100
AcDbEntity
  8
RACCORDO
100
AcDbLine
 62
7
  6
CONTINUOUS
 10
15.884717685
 20
-20.798157185
 11
15.2281210744
 21
-21.1261018116
  0
LINE
  5
2F1
100
AcDbEntity
  8
DRAFT
100
AcDbLine
 62
7
  6
CONTINUOUS
 10
20.8677865361
 20
-18.5197026996
 11
21.1064517177
 21
-18.0965306358
  0
LWPOLYLINE
  5
2F2
100
AcDbEntity
  8
RACCORDO
100
AcDbPolyline
 62
250
  6
CONTINUOUS
 90
13
 70
0
 10
16.6112918341
 20
-20.8363350284
 10
16.6466130393
 20
-20.7991097602
 10
16.6782887413
 20
-20.7577596194
 10
16.7063189402
 20
-20.7122846058
 10
16.7307871523
 20
-20.6625103478
 10
16.7516098613
 20
-20.6086112172
 10
16.7685365178
 20
-20.5511103288
 10
16.7815138329
 20
-20.4899530122
 10
16.7905950955
 20
-20.4251939379
 10
16.795689623
 20
-20.3575202325
 10
16.7967671879
 20
-20.287160938
 10
16.7938580178
 20
-20.2138870124
 10
16.7869621125
 20
-20.1376984556
  0
LWPOLYLINE
  5
2F3
100
AcDbEntity
  8
RACCORDO
100
AcDbPolyline
 62
250
  6
CONTINUOUS
 90
13
 70
0
 10
16.8601073638
 20
-20.902120081
 10
16.8999968429
 20
-20.8604403833
 10
16.9360848375
 20
-20.8138965217
 10
16.9682346692
 20
-20.7626403901
 10
16.9962954903
 20
-20.7068544369
 10
17.0201785841
 20
-20.6467058773
 10
17.0398565735
 20
-20.5823448428
 10
17.0552362822
 20
-20.5139798417
 10
17.066240626
 20
-20.4418337274
 10
17.0728838535
 20
-20.3660967246
 10
17.0751395236
 20
-20.287000748
 10
17.0729408131
 20
-20.2048187606
 10
17.0662610095
 20
-20.1198191981
  0
LINE
  5
2F4
100
AcDbEntity
  8
RACCORDO
100
AcDbLine
 62
250
  6
CONTINUOUS
 10
16.5654963232
 20
-21.1656203331
 11
16.8601073638
 21
-20.902120081
  0
LINE
  5
2F5
100
AcDbEntity
  8
RACCORDO
100
AcDbLine
 62
250
  6
CONTINUOUS
 10
16.2578645975
 20
-21.4116643843
 11
16.5654963232
 21
-21.1656203331
  0
LINE
  5
2F6
100
AcDbEntity
  8
RACCORDO
100
AcDbLine
 62
250
  6
CONTINUOUS
 10
15.9374964021
 20
-21.6400461813
 11
16.2578645975
 21
-21.4116643843
  0
LWPOLYLINE
  5
2F7
100
AcDbEntity
  8
RACCORDO
100
AcDbPolyline
 62
7
  6
CONTINUOUS
 90
5
 70
0
 10
16.3861092134
 20
-21.4216423044
 10
16.771538119
 20
-21.182397762
 10
17.1451684074
 20
-20.9245514419
 10
17.5073438118
 20
-20.6479047249
 10
17.8580643322
 20
-20.352457611
  0
LWPOLYLINE
  5
2F8
100
AcDbEntity
  8
RACCORDO
100
AcDbPolyline
 62
7
  6
CONTINUOUS
 90
7
 70
0
 10
19.2382828607
 20
-19.5766552716
 10
19.3893929197
 20
-19.4830491462
 10
19.6425608499
 20
-19.3170268433
 10
19.8904839619
 20
-19.1426857577
 10
20.133067651
 20
-18.9600907882
 10
20.370406522
 20
-18.769177036
 10
20.6025005747
 20
-18.5699445012
  0
LINE
  5
2F9
100
AcDbEntity
  8
DRAFT
100
AcDbLine
 62
7
  6
CONTINUOUS
 10
20.8677865361
 20
-18.5197026996
 11
20.0945442705
 21
-18.9890876903
  0
LINE
  5
2FA
100
AcDbEntity
  8
DRAFT
100
AcDbLine
 62
7
  6
CONTINUOUS
 10
19.2382835119
 20
-19.5766563811
 11
17.5999352918
 21
-20.5699056232
  0
LINE
  5
2FB
100
AcDbEntity
  8
RACCORDO
100
AcDbLine
 62
250
  6
CONTINUOUS
 10
18.1626142164
 20
-19.3941787926
 11
20.9063156229
 21
-17.7342025519
  0
LINE
  5
2FC
100
AcDbEntity
  8
RACCORDO
100
AcDbLine
 62
250
  6
CONTINUOUS
 10
18.0319116958
 20
-20.1249718852
 11
20.6025005744
 21
-18.5699445015
  0
LINE
  5
2FD
100
AcDbEntity
  8
DRAFT
100
AcDbLine
 62
7
  6
CONTINUOUS
 10
21.1064517177
 20
-17.9085913781
 11
20.8773327548
 21
-18.0432323618
  0
LWPOLYLINE
  5
2FE
100
AcDbEntity
  8
RACCORDO
100
AcDbPolyline
 62
250
  6
CONTINUOUS
 90
3
 70
0
 10
15.3912435182
 20
-21.9725958592
 10
15.6047297308
 20
-21.8505490558
 10
15.9374964021
 20
-21.6400461813
  0
LINE
  5
2FF
100
AcDbEntity
  8
RACCORDO
100
AcDbLine
 62
7
  6
CONTINUOUS
 10
16.1502296373
 20
-21.5556855783
 11
16.3861092134
 21
-21.4216423044
  0
LWPOLYLINE
  5
300
100
AcDbEntity
  8
RACCORDO
100
AcDbPolyline
 62
250
  6
CONTINUOUS
 90
6
 70
0
 10
15.2281210744
 20
-21.8542850365
 10
15.3664539642
 20
-21.7770906136
 10
15.6964402151
 20
-21.5683400215
 10
16.0137706849
 20
-21.3420370611
 10
16.3187212245
 20
-21.0980353968
 10
16.6112918341
 20
-20.8363350284
  0
LINE
  5
301
100
AcDbEntity
  8
RACCORDO
100
AcDbLine
 62
250
  6
CONTINUOUS
 10
16.8601073638
 20
-20.902120081
 11
17.8580641384
 21
-20.3524577823
  0
LINE
  5
302
100
AcDbEntity
  8
RACCORDO
100
AcDbLine
 62
7
  6
CONTINUOUS
 10
15.3910060072
 20
-21.9727263012
 11
15.3912435182
 21
-21.9725958592
  0
LINE
  5
303
100
AcDbEntity
  8
DRAFT
100
AcDbLine
 62
7
  6
CONTINUOUS
 10
16.1502528078
 20
-21.5557263758
 11
15.3912420116
 21
-21.9725966867
  0
LINE
  5
304
100
AcDbEntity
  8
RACCORDO
100
AcDbLine
 62
7
  6
CONTINUOUS
 10
15.2281210744
 20
-22.0593307584
 11
15.3910044011
 21
-21.9727299662
  0
LWPOLYLINE
  5
305
100
AcDbEntity
  8
RACCORDO
100
AcDbPolyline
 62
250
  6
CONTINUOUS
 90
8
 70
0
 10
10.7308334665
 20
-27.8250413906
 10
10.7364282793
 20
-27.821951827
 10
10.7672937358
 20
-27.7992064428
 10
10.7935442667
 20
-27.7693416053
 10
10.8147310323
 20
-27.7328681151
 10
10.8304918093
 20
-27.6904097661
 10
10.8405571727
 20
-27.6426926623
 10
10.8447550884
 20
-27.5905328195
  0
LINE
  5
306
100
AcDbEntity
  8
RACCORDO
100
AcDbLine
 62
250
  6
CONTINUOUS
 10
15.2281210744
 20
-25.2767319336
 11
10.8447550884
 21
-27.5905328195
  0
LINE
  5
307
100
AcDbEntity
  8
RACCORDO
100
AcDbLine
 62
7
  6
CONTINUOUS
 10
15.1190625967
 20
-25.5086734483
 11
10.7308334665
 21
-27.8250413906
  0
LWPOLYLINE
  5
308
100
AcDbEntity
  8
RACCORDO
100
AcDbPolyline
 62
250
  6
CONTINUOUS
 90
19
 70
0
 10
10.8447550884
 20
-27.5905328195
 10
10.8145467776
 20
-27.6049986132
 10
10.7849872868
 20
-27.6163693318
 10
10.756076616
 20
-27.6246449753
 10
10.7276107977
 20
-27.6298450035
 10
10.6997937995
 20
-27.6319499567
 10
10.6732375241
 20
-27.6309014551
 10
10.6479813024
 20
-27.6266291671
 10
10.6239858036
 20
-27.6192034243
 10
10.6017449379
 20
-27.6087768418
 10
10.5812947115
 20
-27.5952866745
 10
10.5625991181
 20
-27.5787956675
 10
10.5460440492
 20
-27.5596446714
 10
10.5316722155
 20
-27.537763774
 10
10.5194409064
 20
-27.5132228874
 10
10.5096078807
 20
-27.4865725991
 10
10.5022590581
 20
-27.4579964382
 10
10.4973085189
 20
-27.4273108756
 10
10.4947562633
 20
-27.3945159113
  0
ELLIPSE
  5
309
100
AcDbEntity
  8
RACCORDO
100
AcDbEllipse
 62
7
  6
CONTINUOUS
 10
11.9991918495
 20
14.6609323032
 30
0.0
 11
0.0974277822
 21
0.1746820465
 31
0.0
 40
0.5671693725
 41
0.8293790667
 42
2.2256424683
  0
ELLIPSE
  5
30A
100
AcDbEntity
  8
RACCORDO
100
AcDbEllipse
 62
7
  6
CONTINUOUS
 10
7.4576946037
 20
17.2831358946
 30
0.0
 11
0.1026656474
 21
0.17165654
 31
0.0
 40
0.5873179545
 41
0.846842987
 42
2.2431063886
  0
ELLIPSE
  5
30B
100
AcDbEntity
  8
ASSI
100
AcDbEllipse
 62
7
  6
CONTINUOUS
 10
13.3917878798
 20
12.8132148065
 30
0.0
 11
-0.1967987478
 21
0.4619779435
 31
0.0
 40
0.6426901439
 41
3.2195272795
 42
6.3611199331
  0
ELLIPSE
  5
30C
100
AcDbEntity
  8
ASSI
100
AcDbEllipse
 62
7
  6
CONTINUOUS
 10
5.6136132868
 20
17.3042353331
 30
0.0
 11
-0.1967987478
 21
0.4619779435
 31
0.0
 40
0.6426901439
 41
3.2195272795
 42
6.3611199331
  0
ELLIPSE
  5
30D
100
AcDbEntity
  8
RACCORDO
100
AcDbEllipse
 62
7
  6
CONTINUOUS
 10
15.4455398893
 20
7.9568774459
 30
0.0
 11
-0.3108245393
 21
0.7412066881
 31
0.0
 40
0.6457575109
 41
-2.2736572975
 42
-0.7040789459
  0
ELLIPSE
  5
30E
100
AcDbEntity
  8
RACCORDO
100
AcDbEllipse
 62
7
  6
CONTINUOUS
 10
15.4455398893
 20
-20.1232749586
 30
0.0
 11
-0.4657599682
 21
0.6589874682
 31
0.0
 40
0.5004821238
 41
-3.2181310412
 42
-2.3985276257
  0
ELLIPSE
  5
30F
100
AcDbEntity
  8
RACCORDO
100
AcDbEllipse
 62
7
  6
CONTINUOUS
 10
-15.7431020854
 20
27.468851664
 30
0.0
 11
-0.2500597015
 21
0.4332530584
 31
0.0
 40
0.5770679649
 41
-0.7850277811
 42
0.0218062175
  0
ELLIPSE
  5
310
100
AcDbEntity
  8
RACCORDO
100
AcDbEllipse
 62
7
  6
CONTINUOUS
 10
14.8745138277
 20
-25.0723769746
 30
0.0
 11
-0.2500597015
 21
0.4332530584
 31
0.0
 40
0.5770679649
 41
-3.1633988709
 42
-2.3562809586
  0
ELLIPSE
  5
311
100
AcDbEntity
  8
RACCORDO
100
AcDbEllipse
 62
7
  6
CONTINUOUS
 10
14.8745138277
 20
9.7906239645
 30
0.0
 11
-0.2499453902
 21
0.4330552278
 31
0.0
 40
0.5775954737
 41
-2.3558238482
 42
-0.7854843722
  0
ENDSEC
  0
SECTION
  2
OBJECTS
  0
DICTIONARY
  5
C
100
AcDbDictionary
280
0
281
1
  3
ACAD_GROUP
350
D
  3
ACAD_MLINESTYLE
350
17
  3
ACAD_LAYOUT
350
1A
  3
ACAD_PLOTSETTINGS
350
19
  3
ACAD_PLOTSTYLENAME
350
E
  0
DICTIONARY
  5
D
102
{ACAD_REACTORS
330
C
102
}
100
AcDbDictionary
280
0
281
1
  0
ACDBDICTIONARYWDFLT
  5
E
102
{ACAD_REACTORS
330
C
102
}
100
AcDbDictionary
281
1
  3
Normal
350
F
100
AcDbDictionaryWithDefault
340
F
  0
DICTIONARY
  5
17
102
{ACAD_REACTORS
330
C
102
}
100
AcDbDictionary
280
0
281
1
  3
Standard
350
18
  0
DICTIONARY
  5
19
102
{ACAD_REACTORS
330
C
102
}
100
AcDbDictionary
281
1
  0
DICTIONARY
  5
1A
102
{ACAD_REACTORS
330
C
102
}
100
AcDbDictionary
281
1
  3
Model
350
312
  3
Layout1
350
313
  0
ACDBPLACEHOLDER
  5
F
102
{ACAD_REACTORS
330
E
102
}
  0
MLINESTYLE
  5
18
102
{ACAD_REACTORS
330
17
102
}
100
AcDbMlineStyle
  2
STANDARD
 70
0
  3

 62
256
 51
90.0
 52
90.0
 71
2
 49
0.5
 62
256
  6
BYLAYER
 49
-0.5
 62
256
  6
BYLAYER
  0
LAYOUT
  5
312
102
{ACAD_REACTORS
330
1A
102
}
100
AcDbPlotSettings
  1

  2
none_device
  4
ISO_A4_(297.00_x_210.00_MM)
  6

 40
0.0
 41
0.0
 42
0.0
 43
0.0
 44
297.0
 45
210.0
 46
0.0
 47
0.0
 48
0.0
 49
0.0
140
0.0
141
0.0
142
1.0
143
1.0
 70
1024
 72
1
 73
0
 74
0
  7

 75
0
147
1.0
148
0.0
149
0.0
100
AcDbLayout
  1
Model
 70
0
 71
0
 10
0.0
 20
0.0
 11
297.0
 21
210.0
 12
0.0
 22
0.0
 32
0.0
 14
0.0
 24
0.0
 34
0.0
 15
0.0
 25
0.0
 35
0.0
146
0.0
 13
0.0
 23
0.0
 33
0.0
 16
1.0
 26
0.0
 36
0.0
 17
0.0
 27
1.0
 37
0.0
 76
0
330
214
345
0
346
0
  0
LAYOUT
  5
313
102
{ACAD_REACTORS
330
1A
102
}
100
AcDbPlotSettings
  1

  2
none_device
  4
ISO_A4_(297.00_x_210.00_MM)
  6

 40
0.0
 41
0.0
 42
0.0
 43
0.0
 44
297.0
 45
210.0
 46
0.0
 47
0.0
 48
0.0
 49
0.0
140
0.0
141
0.0
142
1.0
143
1.0
 70
0
 72
1
 73
0
 74
0
  7

 75
0
147
1.0
148
0.0
149
0.0
100
AcDbLayout
  1
Layout1
 70
0
 71
1
 10
0.0
 20
0.0
 11
297.0
 21
210.0
 12
0.0
 22
0.0
 32
0.0
 14
0.0
 24
0.0
 34
0.0
 15
0.0
 25
0.0
 35
0.0
146
0.0
 13
0.0
 23
0.0
 33
0.0
 16
1.0
 26
0.0
 36
0.0
 17
0.0
 27
1.0
 37
0.0
 76
0
330
215
345
0
346
0
  0
ENDSEC
  0
EOF
