0
SECTION
2
HEADER
9
$ACADVER
1
AC1015
9
$DWGCODEPAGE
3
ANSI_1252
9
$EXTMAX
10
297.0000000000
20
210.0000000000
30
0.0000000000
9
$EXTMIN
10
0.0000000000
20
0.0000000000
30
0.0000000000
9
$LIMMIN
10
0.0000000000
20
0.0000000000
9
$LIMMAX
10
297.0000000000
20
210.0000000000
9
$VIEWCTR
10
148.5000000000
20
105.0000000000
9
$VIEWSIZE
40
210.0000000000
9
$CLAYER
8
0
9
$LTSCALE
40
16.3350000000
9
$CELTYPE
6
BYLAYER
9
$DIMSCALE
40
1
9
$DIMASZ
40
3.0000000000
9
$DIMEXO
40
1.8562500000
9
$DIMDLI
40
11.2860000000
9
$DIMEXE
40
5.3460000000
9
$DIMCEN
40
2.6730000000
9
$DIMLFAC
40
1.0000000000
9
$DIMBLK
1
_FILLED
9
$DIMTXT
40
3.0000000000
9
$DIMTOL
70
1
9
$DIMLIM
70
0
9
$DIMTFAC
40
1.0000000000
9
$DIMTP
40
0.0100000000
9
$DIMTM
40
0.0100000000
9
$PDMODE
70
3
9
$PDSIZE
40
3.0000000000
9
$HANDSEED
5
283
9
$MEASUREMENT
70
1
9
$INSUNITS
70
4
0
ENDSEC
0
SECTION
2
CLASSES
0
CLASS
1
ACDBDICTIONARYWDFLT
2
AcDbDictionaryWithDefault
3
AutoCAD 2000
90
0
280
0
281
0
0
CLASS
1
ACDBPLACEHOLDER
2
AcDbPlaceHolder
3
AutoCAD 2000
90
0
280
0
281
0
0
CLASS
1
LAYOUT
2
AcDbLayout
3
AutoCAD 2000
90
0
280
0
281
0
0
ENDSEC
0
SECTION
2
TABLES
0
TABLE
2
VPORT
5
8
100
AcDbSymbolTable
70
2
0
VPORT
5
1F4
100
AcDbSymbolTableRecord
100
AcDbViewportTableRecord
2
*ACTIVE
70
0
10
0.0
20
0.0
11
1.0
21
1.0
12
148.5000000000
22
105.0000000000
13
0.0
23
0.0
14
1.0
24
1.0
15
0.0
25
0.0
16
0.0
26
0.0
36
1.0
17
0.0
27
0.0
37
0.0
40
210.0000000000
41
1.4142857143
42
50.0
43
0.0
44
0.0
50
0.0
51
0.0
71
0
72
100
73
1
74
1
75
0
76
0
77
0
78
0
0
ENDTAB
0
TABLE
2
LTYPE
5
5
100
AcDbSymbolTable
70
6
0
LTYPE
5
14
100
AcDbSymbolTableRecord
100
AcDbLinetypeTableRecord
2
BYBLOCK
70
0
3

72
65
73
0
40
0.0
0
LTYPE
5
15
100
AcDbSymbolTableRecord
100
AcDbLinetypeTableRecord
2
BYLAYER
70
0
3

72
65
73
0
40
0.0
0
LTYPE
5
16
100
AcDbSymbolTableRecord
100
AcDbLinetypeTableRecord
2
CONTINUOUS
70
64
3
Solid line
72
65
73
0
40
0
0
LTYPE
5
1F5
100
AcDbSymbolTableRecord
100
AcDbLinetypeTableRecord
2
CENTER
70
64
3
____ _ ____ _ ____ _ ____ _ ____ _ ____ _ ____
72
65
73
4
40
0.6
49
0.375
74
0
49
-0.075
74
0
49
0.075
74
0
49
-0.075
74
0
0
LTYPE
5
1F6
100
AcDbSymbolTableRecord
100
AcDbLinetypeTableRecord
2
HIDDEN
70
64
3
- - - - - - - - - - - - - - - - - - - -
72
65
73
2
40
0.2
49
0.1
74
0
49
-0.1
74
0
0
LTYPE
5
1F7
100
AcDbSymbolTableRecord
100
AcDbLinetypeTableRecord
2
PHANTOM
70
64
3
_____ _ _ _____ _ _ _____ _ _ _____
72
65
73
6
40
0.8
49
0.45
74
0
49
-0.05
74
0
49
0.1
74
0
49
-0.05
74
0
49
0.1
74
0
49
-0.05
74
0
0
LTYPE
5
1F8
100
AcDbSymbolTableRecord
100
AcDbLinetypeTableRecord
2
DOT
70
64
3
. . . . . . . . . . . . . . . . . . . .
72
65
73
2
40
0.2
49
0.1
74
0
49
-0.1
74
0
0
LTYPE
5
1F9
100
AcDbSymbolTableRecord
100
AcDbLinetypeTableRecord
2
DASHED
70
64
3
- - - - - - - - - - - - - - - - - - - -
72
65
73
2
40
0.2
49
0.1
74
0
49
-0.1
74
0
0
ENDTAB
0
TABLE
2
LAYER
5
2
100
AcDbSymbolTable
70
36
0
LAYER
5
10
100
AcDbSymbolTableRecord
100
AcDbLayerTableRecord
2
0
70
0
62
7
6
CONTINUOUS
370
-3
390
F
0
LAYER
5
1FA
100
AcDbSymbolTableRecord
100
AcDbLayerTableRecord
2
DEFAULT_1
70
0
62
7
6
CENTER
370
-3
390
F
0
LAYER
5
1FB
100
AcDbSymbolTableRecord
100
AcDbLayerTableRecord
2
DEFAULT_2
70
0
62
8
6
HIDDEN
370
-3
390
F
0
LAYER
5
1FC
100
AcDbSymbolTableRecord
100
AcDbLayerTableRecord
2
DEFAULT_3
70
0
62
7
6
PHANTOM
370
-3
390
F
0
LAYER
5
1FD
100
AcDbSymbolTableRecord
100
AcDbLayerTableRecord
2
ASSI
70
0
62
7
6
CONTINUOUS
370
-3
390
F
0
LAYER
5
1FE
100
AcDbSymbolTableRecord
100
AcDbLayerTableRecord
2
COORDINATE
70
0
62
7
6
CONTINUOUS
370
-3
390
F
0
LAYER
5
1FF
100
AcDbSymbolTableRecord
100
AcDbLayerTableRecord
2
COORD_ORIGINE
70
0
62
7
6
CONTINUOUS
370
-3
390
F
0
LAYER
5
200
100
AcDbSymbolTableRecord
100
AcDbLayerTableRecord
2
DRAFT
70
0
62
7
6
CONTINUOUS
370
-3
390
F
0
LAYER
5
201
100
AcDbSymbolTableRecord
100
AcDbLayerTableRecord
2
IMPORT_FEATURES
70
0
62
7
6
CONTINUOUS
370
-3
390
F
0
LAYER
5
202
100
AcDbSymbolTableRecord
100
AcDbLayerTableRecord
2
INTF_1
70
0
62
7
6
CONTINUOUS
370
-3
390
F
0
LAYER
5
203
100
AcDbSymbolTableRecord
100
AcDbLayerTableRecord
2
PIANI
70
0
62
7
6
CONTINUOUS
370
-3
390
F
0
LAYER
5
204
100
AcDbSymbolTableRecord
100
AcDbLayerTableRecord
2
PIANI_ORIGINE
70
0
62
7
6
CONTINUOUS
370
-3
390
F
0
LAYER
5
205
100
AcDbSymbolTableRecord
100
AcDbLayerTableRecord
2
PUNTI
70
0
62
7
6
CONTINUOUS
370
-3
390
F
0
LAYER
5
206
100
AcDbSymbolTableRecord
100
AcDbLayerTableRecord
2
RACCORDO
70
0
62
7
6
CONTINUOUS
370
-3
390
F
0
LAYER
5
207
100
AcDbSymbolTableRecord
100
AcDbLayerTableRecord
2
RGB____0____0____0__
70
0
62
7
6
CONTINUOUS
370
-3
390
F
0
LAYER
5
208
100
AcDbSymbolTableRecord
100
AcDbLayerTableRecord
2
SUPERFICI
70
0
62
7
6
CONTINUOUS
370
-3
390
F
0
LAYER
5
209
100
AcDbSymbolTableRecord
100
AcDbLayerTableRecord
2
TRASH
70
0
62
7
6
CONTINUOUS
370
-3
390
F
0
LAYER
5
20A
100
AcDbSymbolTableRecord
100
AcDbLayerTableRecord
2
XSEC_DATUMS
70
0
62
7
6
CONTINUOUS
370
-3
390
F
0
ENDTAB
0
TABLE
2
STYLE
5
3
100
AcDbSymbolTable
70
1
0
STYLE
5
11
100
AcDbSymbolTableRecord
100
AcDbTextStyleTableRecord
2
STANDARD
70
0
40
0.0
41
0.8000000000
50
0.0
71
0
42
0.2
3
txt
4

0
ENDTAB
0
TABLE
2
VIEW
5
6
100
AcDbSymbolTable
70
0
0
ENDTAB
0
TABLE
2
UCS
5
7
100
AcDbSymbolTable
70
0
0
ENDTAB
0
TABLE
2
APPID
5
9
100
AcDbSymbolTable
70
1
0
APPID
5
20B
100
AcDbSymbolTableRecord
100
AcDbRegAppTableRecord
2
ACAD
70
0
0
ENDTAB
0
TABLE
2
BLOCK_RECORD
5
1
100
AcDbSymbolTable
70
0
0
BLOCK_RECORD
5
1F
100
AcDbSymbolTableRecord
100
AcDbBlockTableRecord
2
*MODEL_SPACE
0
BLOCK_RECORD
5
1B
100
AcDbSymbolTableRecord
100
AcDbBlockTableRecord
2
*PAPER_SPACE
0
ENDTAB
0
TABLE
2
DIMSTYLE
5
A
100
AcDbSymbolTable
70
1
100
AcDbDimStyleTable
71
0
0
DIMSTYLE
105
20C
100
AcDbSymbolTableRecord
100
AcDbDimStyleTableRecord
2
STANDARD
70
0
3

4

40
1.0
41
3.0000000000
42
0.0625
43
0.38
44
0.18
45
0.0
46
0.0
47
0.0100000000
48
0.0100000000
140
3.0000000000
141
0.09
142
0.0
143
25.4
144
1.0000000000
145
0.0
146
1.0000000000
147
0.09
71
1
72
0
73
0
74
0
75
0
76
0
77
1
78
8
170
0
171
2
172
0
173
0
174
0
175
0
176
0
177
0
178
0
270
2
271
2
272
2
273
2
274
2
275
0
280
0
281
0
282
0
283
1
284
8
285
0
286
0
287
3
288
0
340
11
0
ENDTAB
0
ENDSEC
0
SECTION
2
BLOCKS
0
BLOCK
5
20
100
AcDbEntity
8
0
100
AcDbBlockBegin
2
*MODEL_SPACE
70
0
10
0.0
20
0.0
30
0.0
3
*MODEL_SPACE
1

0
ENDBLK
5
21
100
AcDbEntity
8
0
100
AcDbBlockEnd
0
BLOCK
5
1C
100
AcDbEntity
8
0
100
AcDbBlockBegin
2
*PAPER_SPACE
70
0
10
0.0
20
0.0
30
0.0
3
*PAPER_SPACE
1

0
ENDBLK
5
1D
100
AcDbEntity
8
0
100
AcDbBlockEnd
0
ENDSEC
0
SECTION
2
ENTITIES
0
LINE
5
20D
100
AcDbEntity
8
0
100
AcDbLine
62
7
6
CONTINUOUS
10
-11.8316030026
20
18.9467871777
11
-7.9001954033
21
22.8610016079
0
LWPOLYLINE
5
20E
100
AcDbEntity
8
0
100
AcDbPolyline
62
7
6
CONTINUOUS
90
10
70
0
10
6.4541984596
20
-24.3744702919
10
6.5123928085
20
-24.3882350278
10
6.5764090574
20
-24.3965324866
10
6.6410636756
20
-24.3979711705
10
6.7067469993
20
-24.3924230268
10
6.7729733750
20
-24.3796071188
10
6.8388033321
20
-24.3594323751
10
6.9041580168
20
-24.3316184277
10
6.9687541853
20
-24.2958212066
10
7.0200457372
20
-24.2608986678
0
LWPOLYLINE
5
20F
100
AcDbEntity
8
0
100
AcDbPolyline
62
7
6
CONTINUOUS
90
14
70
0
10
-11.8311934661
20
18.9471752161
10
-11.8779401874
20
18.8970616819
10
-11.9266034726
20
18.8362952535
10
-11.9722890557
20
18.7698430144
10
-12.0147317799
20
18.6982097329
10
-12.0526666519
20
18.6241280185
10
-12.0859376985
20
18.5490785262
10
-12.1152748607
20
18.4723245185
10
-12.1407471950
20
18.3942383548
10
-12.1622234112
20
18.3156124169
10
-12.1798145892
20
18.2363156384
10
-12.1935947262
20
18.1553227230
10
-12.2032245224
20
18.0722799636
10
-12.2082399990
20
17.9822025294
0
LINE
5
210
100
AcDbEntity
8
0
100
AcDbLine
62
9
6
CONTINUOUS
10
-11.4919092370
20
19.0135480552
11
-7.5588957541
21
22.9293613460
0
LINE
5
211
100
AcDbEntity
8
0
100
AcDbLine
62
7
6
CONTINUOUS
10
6.4549037134
20
-24.3746845173
11
-11.7393145662
21
-19.1224661066
0
LINE
5
212
100
AcDbEntity
8
0
100
AcDbLine
62
9
6
CONTINUOUS
10
6.2293169557
20
-23.8819749502
11
-11.9581432792
21
-18.6317074190
0
LINE
5
213
100
AcDbEntity
8
0
100
AcDbLine
62
7
6
CONTINUOUS
10
-0.9334718061
20
21.9693941402
11
0.5059467068
21
22.9594541561
0
LINE
5
214
100
AcDbEntity
8
0
100
AcDbLine
62
7
6
CONTINUOUS
10
1.9400140222
20
23.3888251901
11
2.1062774758
21
23.4878977243
0
LINE
5
215
100
AcDbEntity
8
0
100
AcDbLine
62
7
6
CONTINUOUS
10
2.4170091410
20
23.6291373267
11
2.2383008888
21
23.4743714404
0
LINE
5
216
100
AcDbEntity
8
0
100
AcDbLine
62
7
6
CONTINUOUS
10
-0.9334718061
20
21.0167661961
11
0.5059467068
21
22.1580837066
0
LWPOLYLINE
5
217
100
AcDbEntity
8
0
100
AcDbPolyline
62
7
6
CONTINUOUS
90
15
70
0
10
-12.2082198845
20
-18.4091127135
10
-12.2076219133
20
-18.4280059308
10
-12.2008008100
20
-18.5153535880
10
-12.1874976490
20
-18.5981137199
10
-12.1674510175
20
-18.6771769976
10
-12.1405069058
20
-18.7521251781
10
-12.1073620817
20
-18.8210836845
10
-12.0686854973
20
-18.8834735679
10
-12.0247280382
20
-18.9396279487
10
-11.9766054174
20
-18.9888293693
10
-11.9264157151
20
-19.0300930328
10
-11.8740676719
20
-19.0645720815
10
-11.8172054826
20
-19.0938854253
10
-11.7551568533
20
-19.1176326720
10
-11.7387345367
20
-19.1226143804
0
LWPOLYLINE
5
218
100
AcDbEntity
8
0
100
AcDbPolyline
62
7
6
CONTINUOUS
90
10
70
0
10
-12.2082312903
20
17.9827236216
10
-12.2917768112
20
13.9242048468
10
-12.3557892661
20
9.8057628871
10
-12.3984630378
20
5.7056207693
10
-12.4197920054
20
1.6241881176
10
-12.4197746694
20
-2.4381964619
10
-12.3984104276
20
-6.4812208466
10
-12.3556995293
20
-10.5045486300
10
-12.2916468473
20
-14.5077806917
10
-12.2082194940
20
-18.4092207490
0
LINE
5
219
100
AcDbEntity
8
0
100
AcDbLine
62
7
6
CONTINUOUS
10
4.2626806166
20
20.4693941402
11
5.3232621037
21
21.5688149855
0
LINE
5
21A
100
AcDbEntity
8
0
100
AcDbLine
62
7
6
CONTINUOUS
10
8.9121996694
20
21.7239065699
11
7.9772629739
21
20.9283595625
0
LINE
5
21B
100
AcDbEntity
8
0
100
AcDbLine
62
7
6
CONTINUOUS
10
8.9121996694
20
21.7541373267
11
7.9623681198
21
20.9315590754
0
LINE
5
21C
100
AcDbEntity
8
0
100
AcDbLine
62
9
6
CONTINUOUS
10
11.6799204629
20
-13.1373682416
11
12.1800099257
21
-13.2817316345
0
LINE
5
21D
100
AcDbEntity
8
0
100
AcDbLine
62
7
6
CONTINUOUS
10
11.8206812685
20
-13.0905985881
11
12.3145131524
21
-13.2331555736
0
LINE
5
21E
100
AcDbEntity
8
0
100
AcDbLine
62
7
6
CONTINUOUS
10
9.6695551244
20
19.2261065620
11
11.6119067729
21
20.9445682584
0
LINE
5
21F
100
AcDbEntity
8
0
100
AcDbLine
62
7
6
CONTINUOUS
10
7.3229313346
20
21.9819794694
11
7.1930967547
21
21.8036206811
0
LINE
5
220
100
AcDbEntity
8
0
100
AcDbLine
62
7
6
CONTINUOUS
10
7.9827944098
20
22.0224335151
11
7.5283110477
21
21.3980921276
0
LINE
5
221
100
AcDbEntity
8
0
100
AcDbLine
62
9
6
CONTINUOUS
10
6.7098630276
20
13.7591489968
11
10.8881045646
21
17.6041710461
0
LINE
5
222
100
AcDbEntity
8
0
100
AcDbLine
62
7
6
CONTINUOUS
10
10.8922287319
20
17.5995989196
11
12.1800099257
21
18.7612083055
0
LINE
5
223
100
AcDbEntity
8
0
100
AcDbLine
62
9
6
CONTINUOUS
10
7.1515306670
20
13.2093012720
11
11.3207876574
21
17.0460553025
0
LINE
5
224
100
AcDbEntity
8
0
100
AcDbLine
62
7
6
CONTINUOUS
10
-0.9334718061
20
21.0167661961
11
-0.9334718061
21
21.9693941402
0
LINE
5
225
100
AcDbEntity
8
0
100
AcDbLine
62
7
6
CONTINUOUS
10
-0.0969328078
20
24.3548498571
11
-0.0969328078
21
24.3246191003
0
LINE
5
226
100
AcDbEntity
8
0
100
AcDbLine
62
7
6
CONTINUOUS
10
0.5059467068
20
22.1580837066
11
0.5059467068
21
22.9594541561
0
LINE
5
227
100
AcDbEntity
8
0
100
AcDbLine
62
7
6
CONTINUOUS
10
4.2626806166
20
19.5167661961
11
4.2626806166
21
20.4693941402
0
LINE
5
228
100
AcDbEntity
8
0
100
AcDbLine
62
7
6
CONTINUOUS
10
8.9121996694
20
21.7541373267
11
8.9121996694
21
21.7239065699
0
LINE
5
229
100
AcDbEntity
8
0
100
AcDbLine
62
7
6
CONTINUOUS
10
11.3207876574
20
17.0460553025
11
11.3207876574
21
-20.8854609999
0
LINE
5
22A
100
AcDbEntity
8
0
100
AcDbLine
62
7
6
CONTINUOUS
10
11.4261416183
20
20.9981940394
11
11.4261416183
21
21.0284247962
0
LINE
5
22B
100
AcDbEntity
8
0
100
AcDbLine
62
7
6
CONTINUOUS
10
12.4224516608
20
-14.4635426934
11
12.4224516608
21
-13.4960561024
0
LINE
5
22C
100
AcDbEntity
8
0
100
AcDbLine
62
7
6
CONTINUOUS
10
12.4224516608
20
19.4129092414
11
12.4224516608
21
20.3803958325
0
LINE
5
22D
100
AcDbEntity
8
0
100
AcDbLine
62
9
6
CONTINUOUS
10
-11.9581432792
20
17.7730807184
11
6.2293169557
21
12.5228131872
0
LINE
5
22E
100
AcDbEntity
8
0
100
AcDbLine
62
9
6
CONTINUOUS
10
-11.4919092370
20
19.0135480552
11
6.7098630276
21
13.7591489968
0
LINE
5
22F
100
AcDbEntity
8
0
100
AcDbLine
62
7
6
CONTINUOUS
10
12.3940478448
20
-14.6116381008
11
12.1148156780
21
-15.3622343803
0
LINE
5
230
100
AcDbEntity
8
0
100
AcDbLine
62
7
6
CONTINUOUS
10
11.3207876574
20
-14.0567706367
11
12.1800099257
21
-13.2817316345
0
LINE
5
231
100
AcDbEntity
8
0
100
AcDbLine
62
7
6
CONTINUOUS
10
11.3207876574
20
-13.4422115010
11
11.6799204629
21
-13.1373682416
0
LINE
5
232
100
AcDbEntity
8
0
100
AcDbLine
62
7
6
CONTINUOUS
10
-0.0969328078
20
24.3548498571
11
-0.0453630605
21
24.3097321966
0
LINE
5
233
100
AcDbEntity
8
0
100
AcDbLine
62
7
6
CONTINUOUS
10
-7.5588957541
20
22.9293613460
11
-0.9334718061
21
21.0167661961
0
LINE
5
234
100
AcDbEntity
8
0
100
AcDbLine
62
7
6
CONTINUOUS
10
4.2626806166
20
19.5167661961
11
10.8881045646
21
17.6041710461
0
LINE
5
235
100
AcDbEntity
8
0
100
AcDbLine
62
7
6
CONTINUOUS
10
7.9827944098
20
22.0224335151
11
7.3229313346
21
21.9819794694
0
LINE
5
236
100
AcDbEntity
8
0
100
AcDbLine
62
7
6
CONTINUOUS
10
-1.7764066756
20
22.2127284771
11
-0.9334718061
21
21.9693941402
0
LINE
5
237
100
AcDbEntity
8
0
100
AcDbLine
62
7
6
CONTINUOUS
10
4.2626806166
20
20.4693941402
11
5.1056154861
21
20.2260598033
0
LINE
5
238
100
AcDbEntity
8
0
100
AcDbLine
62
7
6
CONTINUOUS
10
4.7185892758
20
20.9419985460
11
0.5059467068
21
22.1580837066
0
LINE
5
239
100
AcDbEntity
8
0
100
AcDbLine
62
9
6
CONTINUOUS
10
11.3207876574
20
-20.8854609999
11
7.1515306670
21
-23.9875158352
0
LINE
5
23A
100
AcDbEntity
8
0
100
AcDbLine
62
7
6
CONTINUOUS
10
11.1987618340
20
-21.1518268314
11
7.0214122949
21
-24.2599027706
0
LINE
5
23B
100
AcDbEntity
8
0
100
AcDbLine
62
7
6
CONTINUOUS
10
3.3464144007
20
23.3608411382
11
2.1062774758
21
23.4878977243
0
LINE
5
23C
100
AcDbEntity
8
0
100
AcDbLine
62
7
6
CONTINUOUS
10
0.5059467068
20
22.9594541561
11
5.3232621037
21
21.5688149855
0
LINE
5
23D
100
AcDbEntity
8
0
100
AcDbLine
62
7
6
CONTINUOUS
10
0.2414791679
20
23.8791499678
11
7.0877296426
21
21.9028076906
0
LINE
5
23E
100
AcDbEntity
8
0
100
AcDbLine
62
7
6
CONTINUOUS
10
7.3229313346
20
21.9819794694
11
2.1062774758
21
23.4878977243
0
LINE
5
23F
100
AcDbEntity
8
0
100
AcDbLine
62
7
6
CONTINUOUS
10
11.6119067729
20
20.9445682584
11
8.9121996694
21
21.7239065699
0
LINE
5
240
100
AcDbEntity
8
0
100
AcDbLine
62
7
6
CONTINUOUS
10
2.3908285377
20
23.6064642591
11
-0.2826979624
21
24.3782448813
0
LINE
5
241
100
AcDbEntity
8
0
100
AcDbLine
62
7
6
CONTINUOUS
10
-0.2473126991
20
24.3982607925
11
-0.0969328078
21
24.3548498571
0
LINE
5
242
100
AcDbEntity
8
0
100
AcDbLine
62
7
6
CONTINUOUS
10
2.4170091410
20
23.6291373267
11
8.9121996694
21
21.7541373267
0
LINE
5
243
100
AcDbEntity
8
0
100
AcDbLine
62
7
6
CONTINUOUS
10
11.5765215096
20
20.9850138609
11
11.4261416183
21
21.0284247962
0
LINE
5
244
100
AcDbEntity
8
0
100
AcDbLine
62
7
6
CONTINUOUS
10
12.1148156780
20
20.7240975152
11
12.3940478448
21
20.4772493993
0
SPLINE
5
245
100
AcDbEntity
8
0
100
AcDbSpline
62
7
6
CONTINUOUS
70
0
71
3
72
11
73
7
74
5
42
0.0000001000
43
0.0000001000
44
0.0000000001
12
0.0000000000
22
-0.3033753872
32
0.0000000000
13
-0.2440254719
23
-0.1816262566
33
0.0000000000
40
0.0000000000
40
0.0000000000
40
0.0000000000
40
0.0000000000
40
0.2719221258
40
0.5293849068
40
0.7762630574
40
1.0000000000
40
1.0000000000
40
1.0000000000
40
1.0000000000
10
11.3207876574
20
-20.8854609999
30
0.0000000000
10
11.3207876574
20
-20.9129591599
30
0.0000000000
10
11.3156860845
20
-20.9666983553
30
0.0000000000
10
11.2912095608
20
-21.0420019828
30
0.0000000000
10
11.2517851904
20
-21.1051299681
30
0.0000000000
10
11.2169548624
20
-21.1382846906
30
0.0000000000
10
11.1987556914
20
-21.1518301917
30
0.0000000000
11
11.3207876574
21
-20.8854609999
31
0.0000000000
11
11.3124886463
21
-20.9675369749
31
0.0000000000
11
11.2879031478
21
-21.0416746358
31
0.0000000000
11
11.2479598664
21
-21.1050312306
31
0.0000000000
11
11.1987556914
21
-21.1518301917
31
0.0000000000
0
SPLINE
5
246
100
AcDbEntity
8
0
100
AcDbSpline
62
7
6
CONTINUOUS
70
0
71
3
72
15
73
11
74
9
42
0.0000001000
43
0.0000001000
44
0.0000000001
12
0.7219862733
22
-0.2084194846
32
0.0000000000
13
0.0000000000
23
-0.7514671386
33
0.0000000000
40
0.0000000000
40
0.0000000000
40
0.0000000000
40
0.0000000000
40
0.1205393368
40
0.2461578347
40
0.3751903396
40
0.5055940514
40
0.6351814954
40
0.7618668466
40
0.8838779518
40
1.0000000000
40
1.0000000000
40
1.0000000000
40
1.0000000000
10
10.8881045646
20
17.6041710461
30
0.0000000000
10
10.9171138134
20
17.5957967973
30
0.0000000000
10
10.9748631504
20
17.5731661414
30
0.0000000000
10
11.0558988157
20
17.5248490988
30
0.0000000000
10
11.1305323288
20
17.4631738836
30
0.0000000000
10
11.1959489126
20
17.3904802503
30
0.0000000000
10
11.2497227060
20
17.3094954856
30
0.0000000000
10
11.2898398693
20
17.2232238607
30
0.0000000000
10
11.3147847979
20
17.1348998696
30
0.0000000000
10
11.3207876574
20
17.0751426036
30
0.0000000000
10
11.3207876574
20
17.0460553025
30
0.0000000000
11
10.8881045646
21
17.6041710461
31
0.0000000000
11
10.9725726524
21
17.5714583086
31
0.0000000000
11
11.0537882627
21
17.5233434487
31
0.0000000000
11
11.1286191786
21
17.4616807317
31
0.0000000000
11
11.1941835494
21
17.3888510829
31
0.0000000000
11
11.2479628221
21
17.3076673920
31
0.0000000000
11
11.2879043421
21
17.2212515843
31
0.0000000000
11
11.3124888384
21
17.1329216905
31
0.0000000000
11
11.3207876574
21
17.0460553025
31
0.0000000000
0
SPLINE
5
247
100
AcDbEntity
8
0
100
AcDbSpline
62
7
6
CONTINUOUS
70
0
71
3
72
8
73
4
74
2
42
0.0000001000
43
0.0000001000
44
0.0000000001
12
0.0598344578
22
-0.0288467331
32
0.0000000000
13
0.0598209740
23
-0.0288746964
33
0.0000000000
40
0.0000000000
40
0.0000000000
40
0.0000000000
40
0.0000000000
40
1.0000000000
40
1.0000000000
40
1.0000000000
40
1.0000000000
10
11.5765215096
20
20.9850138609
30
0.0000000000
10
11.5964663288
20
20.9753982832
30
0.0000000000
10
11.6164089028
20
20.9657780458
30
0.0000000000
10
11.6363492275
20
20.9561531470
30
0.0000000000
11
11.5765215096
21
20.9850138609
31
0.0000000000
11
11.6363492275
21
20.9561531470
31
0.0000000000
0
SPLINE
5
248
100
AcDbEntity
8
0
100
AcDbSpline
62
7
6
CONTINUOUS
70
0
71
3
72
10
73
6
74
4
42
0.0000001000
43
0.0000001000
44
0.0000000001
12
0.4789009236
22
-0.2311583692
32
0.0000000000
13
0.4780299918
23
-0.2329540079
33
0.0000000000
40
0.0000000000
40
0.0000000000
40
0.0000000000
40
0.0000000000
40
0.2498853770
40
0.6248621018
40
1.0000000000
40
1.0000000000
40
1.0000000000
40
1.0000000000
10
11.6363492275
20
20.9561531470
30
0.0000000000
10
11.6762393401
20
20.9368987816
30
0.0000000000
10
11.7759658432
20
20.8887047657
30
0.0000000000
10
11.9354730553
20
20.8113905048
30
0.0000000000
10
12.0550399559
20
20.7532274741
30
0.0000000000
10
12.1148156780
20
20.7240975152
30
0.0000000000
11
11.6363492275
21
20.9561531470
31
0.0000000000
11
11.7559925278
21
20.8983340726
31
0.0000000000
11
11.9354269078
21
20.8113608656
31
0.0000000000
11
12.1148156780
21
20.7240975152
31
0.0000000000
0
SPLINE
5
249
100
AcDbEntity
8
0
100
AcDbSpline
62
7
6
CONTINUOUS
70
0
71
3
72
8
73
4
74
2
42
0.0000001000
43
0.0000001000
44
0.0000000001
12
0.3252131581
22
0.2690067514
32
0.0000000000
13
0.3251599640
23
0.2690710527
33
0.0000000000
40
0.0000000000
40
0.0000000000
40
0.0000000000
40
0.0000000000
40
1.0000000000
40
1.0000000000
40
1.0000000000
40
1.0000000000
10
-2.1947743101
20
22.0562934933
30
0.0000000000
10
-2.0863699241
20
22.1459624104
30
0.0000000000
10
-1.9779742304
20
22.2356418377
30
0.0000000000
10
-1.8695875758
20
22.3253321886
30
0.0000000000
11
-2.1947743101
21
22.0562934933
31
0.0000000000
11
-1.8695875758
21
22.3253321886
31
0.0000000000
0
SPLINE
5
24A
100
AcDbEntity
8
0
100
AcDbSpline
62
7
6
CONTINUOUS
70
0
71
3
72
10
73
6
74
4
42
0.0000001000
43
0.0000001000
44
0.0000000001
12
1.2191150345
22
1.0088221246
32
0.0000000000
13
1.2182897234
23
1.0098186591
33
0.0000000000
40
0.0000000000
40
0.0000000000
40
0.0000000000
40
0.0000000000
40
0.2877698830
40
0.8363709770
40
1.0000000000
40
1.0000000000
40
1.0000000000
40
1.0000000000
10
-1.8695875758
20
22.3253321886
30
0.0000000000
10
-1.7526460455
20
22.4221017302
30
0.0000000000
10
-1.4127991495
20
22.7033885367
30
0.0000000000
10
-1.0065747033
20
23.0398404397
30
0.0000000000
10
-0.7173230081
20
23.2795604332
30
0.0000000000
10
-0.6508738223
20
23.3346389801
30
0.0000000000
11
-1.8695875758
21
22.3253321886
31
0.0000000000
11
-1.5187949867
21
22.6156794809
31
0.0000000000
11
-0.8502332975
21
23.1694177195
31
0.0000000000
11
-0.6508738223
21
23.3346389801
31
0.0000000000
0
SPLINE
5
24B
100
AcDbEntity
8
0
100
AcDbSpline
62
7
6
CONTINUOUS
70
0
71
3
72
8
73
4
74
2
42
0.0000001000
43
0.0000001000
44
0.0000000001
12
0.4617314704
22
0.3827209944
32
0.0000000000
13
0.4615972206
23
0.3828828882
33
0.0000000000
40
0.0000000000
40
0.0000000000
40
0.0000000000
40
0.0000000000
40
1.0000000000
40
1.0000000000
40
1.0000000000
40
1.0000000000
10
-0.6508738223
20
23.3346389801
30
0.0000000000
10
-0.4969633322
20
23.4622126449
30
0.0000000000
10
-0.3430743922
20
23.5898123083
30
0.0000000000
10
-0.1892086520
20
23.7174399377
30
0.0000000000
11
-0.6508738223
21
23.3346389801
31
0.0000000000
11
-0.1892086520
21
23.7174399377
31
0.0000000000
0
SPLINE
5
24C
100
AcDbEntity
8
0
100
AcDbSpline
62
7
6
CONTINUOUS
70
0
71
3
72
8
73
4
74
2
42
0.0000001000
43
0.0000001000
44
0.0000000001
12
0.0186902547
22
0.0065093232
32
0.0000000000
13
0.0187247527
23
0.0064099890
33
0.0000000000
40
0.0000000000
40
0.0000000000
40
0.0000000000
40
0.0000000000
40
1.0000000000
40
1.0000000000
40
1.0000000000
40
1.0000000000
10
-0.4200603015
20
24.3426045257
30
0.0000000000
10
-0.4138302166
20
24.3447743001
30
0.0000000000
10
-0.4075942885
20
24.3469274122
30
0.0000000000
10
-0.4013527042
20
24.3490640752
30
0.0000000000
11
-0.4200603015
21
24.3426045257
31
0.0000000000
11
-0.4013527042
21
24.3490640752
31
0.0000000000
0
SPLINE
5
24D
100
AcDbEntity
8
0
100
AcDbSpline
62
7
6
CONTINUOUS
70
0
71
3
72
10
73
6
74
4
42
0.0000001000
43
0.0000001000
44
0.0000000001
12
0.1335599705
22
0.0457211883
32
0.0000000000
13
0.1351052678
23
0.0409295657
33
0.0000000000
40
0.0000000000
40
0.0000000000
40
0.0000000000
40
0.0000000000
40
0.2823714624
40
0.7109349022
40
1.0000000000
40
1.0000000000
40
1.0000000000
40
1.0000000000
10
-0.4013527042
20
24.3490640752
30
0.0000000000
10
-0.3887815295
20
24.3533675281
30
0.0000000000
10
-0.3570729463
20
24.3640344564
30
0.0000000000
10
-0.3122807427
20
24.3784591124
30
0.0000000000
10
-0.2800099433
20
24.3884078681
30
0.0000000000
10
-0.2669918709
20
24.3923516377
30
0.0000000000
11
-0.4013527042
21
24.3490640752
31
0.0000000000
11
-0.3635718744
21
24.3617759945
31
0.0000000000
11
-0.3059871411
21
24.3803276770
31
0.0000000000
11
-0.2669918709
21
24.3923516377
31
0.0000000000
0
SPLINE
5
24E
100
AcDbEntity
8
0
100
AcDbSpline
62
7
6
CONTINUOUS
70
0
71
3
72
8
73
4
74
2
42
0.0000001000
43
0.0000001000
44
0.0000000001
12
0.3159316336
22
0.2893983590
32
0.0000000000
13
0.3159304906
23
0.2893996068
33
0.0000000000
40
0.0000000000
40
0.0000000000
40
0.0000000000
40
0.0000000000
40
1.0000000000
40
1.0000000000
40
1.0000000000
40
1.0000000000
10
11.3207908826
20
-16.0895819427
30
0.0000000000
10
11.4261014271
20
-15.9931158230
30
0.0000000000
10
11.5314118232
20
-15.8966495412
30
0.0000000000
10
11.6367219867
20
-15.8001830056
30
0.0000000000
11
11.3207908826
21
-16.0895819427
31
0.0000000000
11
11.6367219867
21
-15.8001830056
31
0.0000000000
0
SPLINE
5
24F
100
AcDbEntity
8
0
100
AcDbSpline
62
7
6
CONTINUOUS
70
0
71
3
72
8
73
4
74
2
42
0.0000001000
43
0.0000001000
44
0.0000000001
12
0.0292101489
22
0.0267571692
32
0.0000000000
13
0.0292101368
23
0.0267571825
33
0.0000000000
40
0.0000000000
40
0.0000000000
40
0.0000000000
40
0.0000000000
40
1.0000000000
40
1.0000000000
40
1.0000000000
40
1.0000000000
10
11.6367219867
20
-15.8001830056
30
0.0000000000
10
11.6464587030
20
-15.7912639492
30
0.0000000000
10
11.6561954173
20
-15.7823448906
30
0.0000000000
10
11.6659321295
20
-15.7734258298
30
0.0000000000
11
11.6367219867
21
-15.8001830056
31
0.0000000000
11
11.6659321295
21
-15.7734258298
31
0.0000000000
0
SPLINE
5
250
100
AcDbEntity
8
0
100
AcDbSpline
62
7
6
CONTINUOUS
70
0
71
3
72
8
73
4
74
2
42
0.0000001000
43
0.0000001000
44
0.0000000001
12
0.4488852445
22
0.4111895980
32
0.0000000000
13
0.4488816116
23
0.4111935639
33
0.0000000000
40
0.0000000000
40
0.0000000000
40
0.0000000000
40
0.0000000000
40
1.0000000000
40
1.0000000000
40
1.0000000000
40
1.0000000000
10
11.6659321295
20
-15.7734258298
30
0.0000000000
10
11.8155605443
20
-15.6363626305
30
0.0000000000
10
11.9651884741
20
-15.4992989016
30
0.0000000000
10
12.1148156780
20
-15.3622343803
30
0.0000000000
11
11.6659321295
21
-15.7734258298
31
0.0000000000
11
12.1148156780
21
-15.3622343803
31
0.0000000000
0
SPLINE
5
251
100
AcDbEntity
8
0
100
AcDbSpline
62
7
6
CONTINUOUS
70
0
71
3
72
12
73
8
74
6
42
0.0000001000
43
0.0000001000
44
0.0000000001
12
0.5275787957
22
0.4758886711
32
0.0000000000
13
0.0000000000
23
0.7104994109
33
0.0000000000
40
0.0000000000
40
0.0000000000
40
0.0000000000
40
0.0000000000
40
0.1624809877
40
0.3607711381
40
0.5768000311
40
0.7969832204
40
1.0000000000
40
1.0000000000
40
1.0000000000
40
1.0000000000
10
12.1800099257
20
18.7612083055
30
0.0000000000
10
12.2085837669
20
18.7869825926
30
0.0000000000
10
12.2626113173
20
18.8544594839
30
0.0000000000
10
12.3275186061
20
18.9751097387
30
0.0000000000
10
12.3795981329
20
19.1165940391
30
0.0000000000
10
12.4134034959
20
19.2645374582
30
0.0000000000
10
12.4224516608
20
19.3648281407
30
0.0000000000
10
12.4224516608
20
19.4129092414
30
0.0000000000
11
12.1800099257
21
18.7612083055
31
0.0000000000
11
12.2545246269
21
18.8493817926
31
0.0000000000
11
12.3226326939
21
18.9727101523
31
0.0000000000
11
12.3761337291
21
19.1165723383
31
0.0000000000
11
12.4107022938
21
19.2691452590
31
0.0000000000
11
12.4224516608
21
19.4129092414
31
0.0000000000
0
SPLINE
5
252
100
AcDbEntity
8
0
100
AcDbSpline
62
7
6
CONTINUOUS
70
0
71
3
72
9
73
5
74
3
42
0.0000001000
43
0.0000001000
44
0.0000000001
12
0.0000000000
22
0.1028332311
32
0.0000000000
13
-0.0770443191
23
0.0681090765
33
0.0000000000
40
0.0000000000
40
0.0000000000
40
0.0000000000
40
0.0000000000
40
0.5837454915
40
1.0000000000
40
1.0000000000
40
1.0000000000
40
1.0000000000
10
12.4224516608
20
20.3803958325
30
0.0000000000
10
12.4224516608
20
20.4004053108
30
0.0000000000
10
12.4197122364
20
20.4345637316
30
0.0000000000
10
12.4047378598
20
20.4677991626
30
0.0000000000
10
12.3940478448
20
20.4772493993
30
0.0000000000
11
12.4224516608
21
20.3803958325
31
0.0000000000
11
12.4150842399
21
20.4399704422
31
0.0000000000
11
12.3940478448
21
20.4772493993
31
0.0000000000
0
SPLINE
5
253
100
AcDbEntity
8
0
100
AcDbSpline
62
7
6
CONTINUOUS
70
0
71
3
72
11
73
7
74
5
42
0.0000001000
43
0.0000001000
44
0.0000000001
12
0.0000000000
22
0.2996869596
32
0.0000000000
13
-0.2892923436
23
0.0777177401
33
0.0000000000
40
0.0000000000
40
0.0000000000
40
0.0000000000
40
0.0000000000
40
0.4108601345
40
0.7332171007
40
0.9716019600
40
1.0000000000
40
1.0000000000
40
1.0000000000
40
1.0000000000
10
12.4224516608
20
-13.4960561024
30
0.0000000000
10
12.4224516608
20
-13.4550129609
30
0.0000000000
10
12.4165619699
20
-13.3814355402
30
0.0000000000
10
12.3870286215
20
-13.2878789280
30
0.0000000000
10
12.3425991960
20
-13.2422317853
30
0.0000000000
10
12.3173067362
20
-13.2340523135
30
0.0000000000
10
12.3145682910
20
-13.2333166364
30
0.0000000000
11
12.4224516608
21
-13.4960561024
31
0.0000000000
11
12.4107022938
21
-13.3734885391
31
0.0000000000
11
12.3761337291
21
-13.2832789599
31
0.0000000000
11
12.3226326939
21
-13.2359351963
31
0.0000000000
11
12.3145682910
21
-13.2333166364
31
0.0000000000
0
SPLINE
5
254
100
AcDbEntity
8
0
100
AcDbSpline
62
7
6
CONTINUOUS
70
0
71
3
72
9
73
5
74
3
42
0.0000001000
43
0.0000001000
44
0.0000000001
12
0.0527719377
22
0.1418547890
32
0.0000000000
13
0.0000000000
23
0.1513527620
33
0.0000000000
40
0.0000000000
40
0.0000000000
40
0.0000000000
40
0.0000000000
40
0.5161152076
40
1.0000000000
40
1.0000000000
40
1.0000000000
40
1.0000000000
10
12.3940478448
20
-14.6116381008
30
0.0000000000
10
12.4031266446
20
-14.5872336296
30
0.0000000000
10
12.4167605993
20
-14.5384232348
30
0.0000000000
10
12.4224516608
20
-14.4879551266
30
0.0000000000
10
12.4224516608
20
-14.4635426934
30
0.0000000000
11
12.3940478448
21
-14.6116381008
31
0.0000000000
11
12.4150842399
21
-14.5364084823
31
0.0000000000
11
12.4224516608
21
-14.4635426934
31
0.0000000000
0
SPLINE
5
255
100
AcDbEntity
8
0
100
AcDbSpline
62
7
6
CONTINUOUS
70
0
71
3
72
8
73
4
74
2
42
0.0000001000
43
0.0000001000
44
0.0000000001
12
-1.9579955006
22
-1.6034928550
32
0.0000000000
13
-1.9579724690
23
-1.6035209782
33
0.0000000000
40
0.0000000000
40
0.0000000000
40
0.0000000000
40
0.0000000000
40
1.0000000000
40
1.0000000000
40
1.0000000000
40
1.0000000000
10
-0.4200603015
20
24.3426045257
30
0.0000000000
10
-1.0727254683
20
23.8081069074
30
0.0000000000
10
-1.7253785913
20
23.2735945826
30
0.0000000000
10
-2.3780360809
20
22.7390875899
30
0.0000000000
11
-0.4200603015
21
24.3426045257
31
0.0000000000
11
-2.3780360809
21
22.7390875899
31
0.0000000000
0
SPLINE
5
256
100
AcDbEntity
8
0
100
AcDbSpline
62
7
6
CONTINUOUS
70
0
71
3
72
9
73
5
74
3
42
0.0000001000
43
0.0000001000
44
0.0000000001
12
-1.1784578069
22
-0.9651217498
32
0.0000000000
13
-1.1784631424
23
-0.9651152347
33
0.0000000000
40
0.0000000000
40
0.0000000000
40
0.0000000000
40
0.0000000000
40
0.1668619178
40
1.0000000000
40
1.0000000000
40
1.0000000000
40
1.0000000000
10
-2.3780360809
20
22.7390875899
30
0.0000000000
10
-2.4435826575
20
22.6854069012
30
0.0000000000
10
-2.8364021904
20
22.3636999736
30
0.0000000000
10
-3.2292239022
20
22.0419957065
30
0.0000000000
10
-3.5564980764
20
21.7739709546
30
0.0000000000
11
-2.3780360809
21
22.7390875899
31
0.0000000000
11
-2.5746759594
21
22.5780457055
31
0.0000000000
11
-3.5564980764
21
21.7739709546
31
0.0000000000
0
SPLINE
5
257
100
AcDbEntity
8
0
100
AcDbSpline
62
7
6
CONTINUOUS
70
0
71
3
72
10
73
6
74
4
42
0.0000001000
43
0.0000001000
44
0.0000000001
12
1.6227546319
22
-1.6423333874
32
0.0000000000
13
1.5176884064
23
-1.7398889194
33
0.0000000000
40
0.0000000000
40
0.0000000000
40
0.0000000000
40
0.0000000000
40
0.3331296141
40
0.6664998097
40
1.0000000000
40
1.0000000000
40
1.0000000000
40
1.0000000000
10
8.0988443375
20
20.9178325117
30
0.0000000000
10
8.2790402123
20
20.7354625492
30
0.0000000000
10
8.6357868374
20
20.3668375334
30
0.0000000000
10
9.1594622742
20
19.8028090964
30
0.0000000000
10
9.5008386670
20
19.4195243239
30
0.0000000000
10
9.6695551244
20
19.2261065620
30
0.0000000000
11
8.0988443375
21
20.9178325117
31
0.0000000000
11
8.6337301963
21
20.3651469529
31
0.0000000000
11
9.1574331519
21
19.8010953863
31
0.0000000000
11
9.6695551244
21
19.2261065620
31
0.0000000000
0
SPLINE
5
258
100
AcDbEntity
8
0
100
AcDbSpline
62
7
6
CONTINUOUS
70
0
71
3
72
10
73
6
74
4
42
0.0000001000
43
0.0000001000
44
0.0000000001
12
0.4339927646
22
-0.4068793553
32
0.0000000000
13
0.4273670570
23
-0.4138332129
33
0.0000000000
40
0.0000000000
40
0.0000000000
40
0.0000000000
40
0.0000000000
40
0.3332001708
40
0.6665359266
40
1.0000000000
40
1.0000000000
40
1.0000000000
40
1.0000000000
10
7.0877296426
20
21.9028076906
30
0.0000000000
10
7.1359317970
20
21.8576169337
30
0.0000000000
10
7.2321123172
20
21.7669569886
30
0.0000000000
10
7.3756767880
20
21.6301656677
30
0.0000000000
10
7.4709136093
20
21.5384394346
30
0.0000000000
10
7.5184174625
20
21.4924399317
30
0.0000000000
11
7.0877296426
21
21.9028076906
31
0.0000000000
11
7.2319703916
21
21.7668463868
31
0.0000000000
11
7.3755354276
21
21.6300548190
31
0.0000000000
11
7.5184174625
21
21.4924399317
31
0.0000000000
0
SPLINE
5
259
100
AcDbEntity
8
0
100
AcDbSpline
62
7
6
CONTINUOUS
70
0
71
3
72
10
73
6
74
4
42
0.0000001000
43
0.0000001000
44
0.0000000001
12
0.4284727749
22
0.1675250431
32
0.0000000000
13
0.4328387808
23
0.1558978793
33
0.0000000000
40
0.0000000000
40
0.0000000000
40
0.0000000000
40
0.0000000000
40
0.3328839827
40
0.6662139585
40
1.0000000000
40
1.0000000000
40
1.0000000000
40
1.0000000000
10
-0.1892086520
20
23.7174399377
30
0.0000000000
10
-0.1416647441
20
23.7360287389
30
0.0000000000
10
-0.0463444718
20
23.7728013233
30
0.0000000000
10
0.0972240827
20
23.8267059024
30
0.0000000000
10
0.1933206535
20
23.8618044558
30
0.0000000000
10
0.2414791679
20
23.8791499678
30
0.0000000000
11
-0.1892086520
21
23.7174399377
31
0.0000000000
11
-0.0463266171
21
23.7725618437
31
0.0000000000
11
0.0972384189
21
23.8264660993
31
0.0000000000
11
0.2414791679
21
23.8791499678
31
0.0000000000
0
SPLINE
5
25A
100
AcDbEntity
8
0
100
AcDbSpline
62
7
6
CONTINUOUS
70
0
71
3
72
10
73
6
74
4
42
0.0000001000
43
0.0000001000
44
0.0000000001
12
1.5267503008
22
0.8688078433
32
0.0000000000
13
1.6110043156
23
0.7003275267
33
0.0000000000
40
0.0000000000
40
0.0000000000
40
0.0000000000
40
0.0000000000
40
0.3320767676
40
0.6653523910
40
1.0000000000
40
1.0000000000
40
1.0000000000
40
1.0000000000
10
-2.3403463139
20
22.6930664762
30
0.0000000000
10
-2.1713468790
20
22.7892367763
30
0.0000000000
10
-1.8292159183
20
22.9758109325
30
0.0000000000
10
-1.3053035218
20
23.2375618354
30
0.0000000000
10
-0.9493417745
20
23.3998211528
30
0.0000000000
10
-0.7696355271
20
23.4779421303
30
0.0000000000
11
-2.3403463139
21
22.6930664762
31
0.0000000000
11
-1.8282243415
21
22.9723815418
31
0.0000000000
11
-1.3045213858
21
23.2340730660
31
0.0000000000
11
-0.7696355271
21
23.4779421303
31
0.0000000000
0
SPLINE
5
25B
100
AcDbEntity
8
0
100
AcDbSpline
62
7
6
CONTINUOUS
70
0
71
3
72
9
73
5
74
3
42
0.0000001000
43
0.0000001000
44
0.0000000001
12
0.1163329216
22
0.0987470553
32
0.0000000000
13
0.1473329242
23
-0.0402284858
33
0.0000000000
40
0.0000000000
40
0.0000000000
40
0.0000000000
40
0.0000000000
40
0.5909261232
40
1.0000000000
40
1.0000000000
40
1.0000000000
40
1.0000000000
10
11.6799204629
20
-13.1373682416
30
0.0000000000
10
11.7028351837
20
-13.1179175034
30
0.0000000000
10
11.7460881257
20
-13.0881490571
30
0.0000000000
10
11.8006892574
20
-13.0852564373
30
0.0000000000
10
11.8207792743
20
-13.0907419115
30
0.0000000000
11
11.6799204629
21
-13.1373682416
31
0.0000000000
11
11.7579164865
21
-13.0921204671
31
0.0000000000
11
11.8207792743
21
-13.0907419115
31
0.0000000000
0
SPLINE
5
25C
100
AcDbEntity
8
0
100
AcDbSpline
62
7
6
CONTINUOUS
70
0
71
3
72
9
73
5
74
3
42
0.0000001000
43
0.0000001000
44
0.0000000001
12
0.1779999576
22
-0.1158318635
32
0.0000000000
13
0.2100194422
23
-0.0369255847
33
0.0000000000
40
0.0000000000
40
0.0000000000
40
0.0000000000
40
0.0000000000
40
0.7069290018
40
1.0000000000
40
1.0000000000
40
1.0000000000
40
1.0000000000
10
-0.7696355271
20
23.4779421303
30
0.0000000000
10
-0.7276910829
20
23.4506471624
30
0.0000000000
10
-0.6632477131
20
23.4190591550
30
0.0000000000
10
-0.5940613789
20
23.4018018676
30
0.0000000000
10
-0.5735445097
20
23.3981945950
30
0.0000000000
11
-0.7696355271
21
23.4779421303
31
0.0000000000
11
-0.6342070189
21
23.4131479628
31
0.0000000000
11
-0.5735445097
21
23.3981945950
31
0.0000000000
0
SPLINE
5
25D
100
AcDbEntity
8
0
100
AcDbSpline
62
7
6
CONTINUOUS
70
0
71
3
72
12
73
8
74
6
42
0.0000001000
43
0.0000001000
44
0.0000000001
12
0.0540039664
22
-0.3491573249
32
0.0000000000
13
-0.2677322572
23
-0.2319381904
33
0.0000000000
40
0.0000000000
40
0.0000000000
40
0.0000000000
40
0.0000000000
40
0.2331111193
40
0.4534504310
40
0.6630028687
40
0.8644829945
40
1.0000000000
40
1.0000000000
40
1.0000000000
40
1.0000000000
10
-2.1947743101
20
22.0562934933
30
0.0000000000
10
-2.1905780018
20
22.0291626750
30
0.0000000000
10
-2.1867862194
20
21.9755590034
30
0.0000000000
10
-2.1960676941
20
21.8975278523
30
0.0000000000
10
-2.2203116090
20
21.8265813395
30
0.0000000000
10
-2.2549641738
20
21.7715942576
30
0.0000000000
10
-2.2828286965
20
21.7429799563
30
0.0000000000
10
-2.2949227878
20
21.7325027666
30
0.0000000000
11
-2.1947743101
21
22.0562934933
31
0.0000000000
11
-2.1893591537
21
21.9741114465
31
0.0000000000
11
-2.1989742512
21
21.8968596485
31
0.0000000000
11
-2.2232928121
21
21.8269307526
31
0.0000000000
11
-2.2614691197
21
21.7668488279
31
0.0000000000
11
-2.2949227878
21
21.7325027666
31
0.0000000000
0
SPLINE
5
25E
100
AcDbEntity
8
0
100
AcDbSpline
62
7
6
CONTINUOUS
70
0
71
3
72
13
73
9
74
7
42
0.0000001000
43
0.0000001000
44
0.0000000001
12
0.0001968303
22
-0.8986184656
32
0.0000000000
13
0.8962081531
23
0.0657733365
33
0.0000000000
40
0.0000000000
40
0.0000000000
40
0.0000000000
40
0.0000000000
40
0.1603704259
40
0.3322072956
40
0.5090917903
40
0.6834935459
40
0.8485571051
40
1.0000000000
40
1.0000000000
40
1.0000000000
40
1.0000000000
10
7.5184174625
20
21.4924399317
30
0.0000000000
10
7.5184279844
20
21.4444026563
30
0.0000000000
10
7.5350317766
20
21.3445655779
30
0.0000000000
10
7.5994710202
20
21.2047301025
30
0.0000000000
10
7.6978481801
20
21.0808636836
30
0.0000000000
10
7.8209871754
20
20.9847367968
30
0.0000000000
10
7.9573765831
20
20.9254527305
30
0.0000000000
10
8.0536028852
20
20.9145122102
30
0.0000000000
10
8.0988443375
20
20.9178325117
30
0.0000000000
11
7.5184174625
21
21.4924399317
31
0.0000000000
11
7.5403886060
21
21.3500127986
31
0.0000000000
11
7.6040379570
21
21.2093252167
31
0.0000000000
11
7.7028060672
21
21.0847840748
31
0.0000000000
11
7.8267399806
21
20.9888583501
31
0.0000000000
11
7.9634158294
21
20.9312280299
31
0.0000000000
11
8.0988443375
21
20.9178325117
31
0.0000000000
0
SPLINE
5
25F
100
AcDbEntity
8
0
100
AcDbSpline
62
7
6
CONTINUOUS
70
0
71
3
72
12
73
8
74
6
42
0.0000001000
43
0.0000001000
44
0.0000000001
12
0.2591436189
22
0.2579505330
32
0.0000000000
13
0.3502727765
23
-0.1011150409
33
0.0000000000
40
0.0000000000
40
0.0000000000
40
0.0000000000
40
0.0000000000
40
0.1261506237
40
0.3299754989
40
0.5413780951
40
0.7641657731
40
1.0000000000
40
1.0000000000
40
1.0000000000
40
1.0000000000
10
-7.9001604751
20
22.8610243180
30
0.0000000000
10
-7.8892634320
20
22.8718711916
30
0.0000000000
10
-7.8584527272
20
22.8979296755
30
0.0000000000
10
-7.7996514023
20
22.9290493704
30
0.0000000000
10
-7.7235402535
20
22.9473595069
30
0.0000000000
10
-7.6415154498
20
22.9480938211
30
0.0000000000
10
-7.5864311906
20
22.9373101418
30
0.0000000000
10
-7.5588957541
20
22.9293613460
30
0.0000000000
11
-7.9001604751
21
22.8610243180
31
0.0000000000
11
-7.8649703211
21
22.8907593178
31
0.0000000000
11
-7.7994059402
21
22.9257338940
31
0.0000000000
11
-7.7245765639
21
22.9441916406
31
0.0000000000
11
-7.6433628742
21
22.9454161951
31
0.0000000000
11
-7.5588957541
21
22.9293613460
31
0.0000000000
0
SPLINE
5
260
100
AcDbEntity
8
0
100
AcDbSpline
62
9
6
CONTINUOUS
70
0
71
3
72
12
73
8
74
6
42
0.0000001000
43
0.0000001000
44
0.0000000001
12
0.7138215032
22
-0.2150882215
32
0.0000000000
13
0.0238389828
23
-0.7451414525
33
0.0000000000
40
0.0000000000
40
0.0000000000
40
0.0000000000
40
0.0000000000
40
0.1959828139
40
0.4032354827
40
0.6124966286
40
0.8139904538
40
1.0000000000
40
1.0000000000
40
1.0000000000
40
1.0000000000
10
6.7098630276
20
13.7591489968
30
0.0000000000
10
6.7564952765
20
13.7450977985
30
0.0000000000
10
6.8485146533
20
13.7022015582
30
0.0000000000
10
6.9685390288
20
13.6066771901
30
0.0000000000
10
7.0657274448
20
13.4860672638
30
0.0000000000
10
7.1310541281
20
13.3515072672
30
0.0000000000
10
7.1500525742
20
13.2555024131
30
0.0000000000
10
7.1515306670
20
13.2093012720
30
0.0000000000
11
6.7098630276
21
13.7591489968
31
0.0000000000
11
6.8428715790
21
13.6986779245
31
0.0000000000
11
6.9641546156
21
13.6029478382
31
0.0000000000
11
7.0618537966
21
13.4813186598
31
0.0000000000
11
7.1264166727
21
13.3456825724
31
0.0000000000
11
7.1515306670
21
13.2093012720
31
0.0000000000
0
SPLINE
5
261
100
AcDbEntity
8
0
100
AcDbSpline
62
7
6
CONTINUOUS
70
0
71
3
72
9
73
5
74
3
42
0.0000001000
43
0.0000001000
44
0.0000000001
12
-0.1421935411
22
0.0381999763
32
0.0000000000
13
-0.1093791101
23
-0.0986625690
33
0.0000000000
40
0.0000000000
40
0.0000000000
40
0.0000000000
40
0.0000000000
40
0.4046027424
40
1.0000000000
40
1.0000000000
40
1.0000000000
40
1.0000000000
10
12.3145682910
20
-13.2333166364
30
0.0000000000
10
12.2953909921
20
-13.2281646980
30
0.0000000000
10
12.2423983885
20
-13.2317943352
30
0.0000000000
10
12.2017179331
20
-13.2621504935
30
0.0000000000
10
12.1800099257
20
-13.2817316345
30
0.0000000000
11
12.3145682910
21
-13.2333166364
31
0.0000000000
11
12.2545246269
21
-13.2354770421
31
0.0000000000
11
12.1800099257
21
-13.2817316345
31
0.0000000000
0
SPLINE
5
262
100
AcDbEntity
8
0
100
AcDbSpline
62
9
6
CONTINUOUS
70
0
71
3
72
10
73
6
74
4
42
0.0000001000
43
0.0000001000
44
0.0000000001
12
-0.8760477410
22
36.3972379846
32
0.0000000000
13
0.8396126216
23
36.3980966975
33
0.0000000000
40
0.0000000000
40
0.0000000000
40
0.0000000000
40
0.0000000000
40
0.3285845702
40
0.6619778319
40
1.0000000000
40
1.0000000000
40
1.0000000000
40
1.0000000000
10
-11.9581432792
20
-18.6317074190
30
0.0000000000
10
-12.0540952027
20
-14.6451838193
30
0.0000000000
10
-12.1810601597
20
-6.6120525830
30
0.0000000000
10
-12.1797124133
20
5.5243212167
30
0.0000000000
10
-12.0527458388
20
13.6719595320
30
0.0000000000
10
-11.9581432792
20
17.7730807184
30
0.0000000000
11
-11.9581432792
21
-18.6317074190
31
0.0000000000
11
-12.1486362848
21
-6.6701896616
31
0.0000000000
11
-12.1486362851
21
5.4679186275
31
0.0000000000
11
-11.9581432792
21
17.7730807184
31
0.0000000000
0
SPLINE
5
263
100
AcDbEntity
8
0
100
AcDbSpline
62
9
6
CONTINUOUS
70
0
71
3
72
13
73
9
74
7
42
0.0000001000
43
0.0000001000
44
0.0000000001
12
0.0315493357
22
1.3508827018
32
0.0000000000
13
0.9671061712
23
0.9437081584
33
0.0000000000
40
0.0000000000
40
0.0000000000
40
0.0000000000
40
0.0000000000
40
0.1687715594
40
0.3482289231
40
0.5294156080
40
0.7036681212
40
0.8627269120
40
1.0000000000
40
1.0000000000
40
1.0000000000
40
1.0000000000
10
-11.9581432792
20
17.7730807184
30
0.0000000000
10
-11.9563684024
20
17.8490775785
30
0.0000000000
10
-11.9418520648
20
18.0057162934
30
0.0000000000
10
-11.8938222010
20
18.2396983359
30
0.0000000000
10
-11.8212331606
20
18.4698813580
30
0.0000000000
10
-11.7283641701
20
18.6827555200
30
0.0000000000
10
-11.6207578738
20
18.8659438815
30
0.0000000000
10
-11.5361617872
20
18.9703661442
30
0.0000000000
10
-11.4919092370
20
19.0135480552
30
0.0000000000
11
-11.9581432792
21
17.7730807184
31
0.0000000000
11
-11.9382865332
21
18.0002673509
31
0.0000000000
11
-11.8899620648
21
18.2378954073
31
0.0000000000
11
-11.8161546276
21
18.4713339535
31
0.0000000000
11
-11.7212342638
21
18.6868125257
31
0.0000000000
11
-11.6109258239
21
18.8712745763
31
0.0000000000
11
-11.4919092370
21
19.0135480552
31
0.0000000000
0
SPLINE
5
264
100
AcDbEntity
8
0
100
AcDbSpline
62
7
6
CONTINUOUS
70
0
71
3
72
10
73
6
74
4
42
0.0000001000
43
0.0000001000
44
0.0000000001
12
0.4162945190
22
0.1619022727
32
0.0000000000
13
0.4203824381
23
0.1509704546
33
0.0000000000
40
0.0000000000
40
0.0000000000
40
0.0000000000
40
0.0000000000
40
0.3328967965
40
0.6662269888
40
1.0000000000
40
1.0000000000
40
1.0000000000
40
1.0000000000
10
-2.1947743101
20
22.0562934933
30
0.0000000000
10
-2.1485799395
20
22.0742590759
30
0.0000000000
10
-2.0559732351
20
22.1098093803
30
0.0000000000
10
-1.9165119446
20
22.1619554887
30
0.0000000000
10
-1.8231774464
20
22.1959318561
30
0.0000000000
10
-1.7764066756
20
22.2127284771
30
0.0000000000
11
-2.1947743101
21
22.0562934933
31
0.0000000000
11
-2.0559570346
21
22.1095842273
31
0.0000000000
11
-1.9164989439
21
22.1617300492
31
0.0000000000
11
-1.7764066756
21
22.2127284771
31
0.0000000000
0
SPLINE
5
265
100
AcDbEntity
8
0
100
AcDbSpline
62
7
6
CONTINUOUS
70
0
71
3
72
10
73
6
74
4
42
0.0000001000
43
0.0000001000
44
0.0000000001
12
0.3075194894
22
0.1418663870
32
0.0000000000
13
0.3103420539
23
0.1355806686
33
0.0000000000
40
0.0000000000
40
0.0000000000
40
0.0000000000
40
0.0000000000
40
0.3330517268
40
0.6663830441
40
1.0000000000
40
1.0000000000
40
1.0000000000
40
1.0000000000
10
-3.1418365858
20
21.6542661961
30
0.0000000000
10
-3.1076966201
20
21.6700158111
30
0.0000000000
10
-3.0392806201
20
21.7012960551
30
0.0000000000
10
-2.9362969257
20
21.7475383145
30
0.0000000000
10
-2.8674045603
20
21.7779134418
30
0.0000000000
10
-2.8328927698
20
21.7929907785
30
0.0000000000
11
-3.1418365858
21
21.6542661961
31
0.0000000000
11
-3.0392567222
21
21.7011667320
31
0.0000000000
11
-2.9362744942
21
21.7474086887
31
0.0000000000
11
-2.8328927698
21
21.7929907785
31
0.0000000000
0
SPLINE
5
266
100
AcDbEntity
8
0
100
AcDbSpline
62
7
6
CONTINUOUS
70
0
71
3
72
10
73
6
74
4
42
0.0000001000
43
0.0000001000
44
0.0000000001
12
0.3108281557
22
-0.3152497537
32
0.0000000000
13
0.3070527916
23
-0.3189280997
33
0.0000000000
40
0.0000000000
40
0.0000000000
40
0.0000000000
40
0.0000000000
40
0.3332726071
40
0.6666072851
40
1.0000000000
40
1.0000000000
40
1.0000000000
40
1.0000000000
10
6.1621015803
20
19.1963595738
30
0.0000000000
10
6.1966317503
20
19.1613382047
30
0.0000000000
10
6.2655595085
20
19.0911517177
30
0.0000000000
10
6.3685415267
20
18.9854530837
30
0.0000000000
10
6.4369223416
20
18.9147089644
30
0.0000000000
10
6.4710453962
20
18.8792661961
30
0.0000000000
11
6.1621015803
21
19.1963595738
31
0.0000000000
11
6.2654833047
21
19.0910900176
31
0.0000000000
11
6.3684655327
21
18.9853912438
31
0.0000000000
11
6.4710453962
21
18.8792661961
31
0.0000000000
0
SPLINE
5
267
100
AcDbEntity
8
0
100
AcDbSpline
62
7
6
CONTINUOUS
70
0
71
3
72
10
73
6
74
4
42
0.0000001000
43
0.0000001000
44
0.0000000001
12
0.4214717427
22
-0.3946984768
32
0.0000000000
13
0.4152491403
23
-0.4012399144
33
0.0000000000
40
0.0000000000
40
0.0000000000
40
0.0000000000
40
0.0000000000
40
0.3332033606
40
0.6665389645
40
1.0000000000
40
1.0000000000
40
1.0000000000
40
1.0000000000
10
5.1056154861
20
20.2260598033
30
0.0000000000
10
5.1524274198
20
20.1822215170
30
0.0000000000
10
5.2458412138
20
20.0942830012
30
0.0000000000
10
5.3852987892
20
19.9616212356
30
0.0000000000
10
5.4778266512
20
19.8726794455
30
0.0000000000
10
5.5239831206
20
19.8280801531
30
0.0000000000
11
5.1056154861
21
20.2260598033
31
0.0000000000
11
5.2457077543
21
20.0941790666
31
0.0000000000
11
5.3851658451
21
19.9615170784
31
0.0000000000
11
5.5239831206
21
19.8280801531
31
0.0000000000
0
SPLINE
5
268
100
AcDbEntity
8
0
100
AcDbSpline
62
7
6
CONTINUOUS
70
0
71
3
72
10
73
6
74
4
42
0.0000001000
43
0.0000001000
44
0.0000000001
12
1.9899044006
22
1.6697779577
32
0.0000000000
13
1.9993909600
23
1.6584069888
33
0.0000000000
40
0.0000000000
40
0.0000000000
40
0.0000000000
40
0.0000000000
40
0.3364039479
40
0.6697430122
40
1.0000000000
40
1.0000000000
40
1.0000000000
40
1.0000000000
10
5.5239831206
20
19.8280801531
30
0.0000000000
10
5.7471203527
20
20.0153201187
30
0.0000000000
10
6.1916750944
20
20.3877211198
30
0.0000000000
10
6.8564492071
20
20.9425547730
30
0.0000000000
10
7.2983131839
20
21.3098730995
30
0.0000000000
10
7.5184174625
20
21.4924399317
30
0.0000000000
11
5.5239831206
21
19.8280801531
31
0.0000000000
11
6.1938792818
21
20.3892221984
31
0.0000000000
11
6.8586803986
21
20.9440460207
31
0.0000000000
11
7.5184174625
21
21.4924399317
31
0.0000000000
0
SPLINE
5
269
100
AcDbEntity
8
0
100
AcDbSpline
62
7
6
CONTINUOUS
70
0
71
3
72
8
73
4
74
2
42
0.0000001000
43
0.0000001000
44
0.0000000001
12
0.9415960188
22
0.7965263597
32
0.0000000000
13
0.9415924975
23
0.7965305223
33
0.0000000000
40
0.0000000000
40
0.0000000000
40
0.0000000000
40
0.0000000000
40
1.0000000000
40
1.0000000000
40
1.0000000000
40
1.0000000000
10
5.1056154861
20
20.2260598033
30
0.0000000000
10
5.4194808257
20
20.4915685899
30
0.0000000000
10
5.7333441226
20
20.7570797911
30
0.0000000000
10
6.0472082885
20
21.0225899652
30
0.0000000000
11
5.1056154861
21
20.2260598033
31
0.0000000000
11
6.0472082885
21
21.0225899652
31
0.0000000000
0
SPLINE
5
26A
100
AcDbEntity
8
0
100
AcDbSpline
62
7
6
CONTINUOUS
70
0
71
3
72
9
73
5
74
3
42
0.0000001000
43
0.0000001000
44
0.0000000001
12
1.0405210340
22
0.8802181038
32
0.0000000000
13
1.0405177940
23
0.8802219338
33
0.0000000000
40
0.0000000000
40
0.0000000000
40
0.0000000000
40
0.0000000000
40
0.0475379802
40
1.0000000000
40
1.0000000000
40
1.0000000000
40
1.0000000000
10
6.0472082885
20
21.0225899652
30
0.0000000000
10
6.0636963779
20
21.0365378955
30
0.0000000000
10
6.4105367730
20
21.3299438704
30
0.0000000000
10
6.7573784160
20
21.6233483703
30
0.0000000000
10
7.0877296426
20
21.9028076906
30
0.0000000000
11
6.0472082885
21
21.0225899652
31
0.0000000000
11
6.0966725643
21
21.0644337469
31
0.0000000000
11
7.0877296426
21
21.9028076906
31
0.0000000000
0
SPLINE
5
26B
100
AcDbEntity
8
0
100
AcDbSpline
62
7
6
CONTINUOUS
70
0
71
3
72
9
73
5
74
3
42
0.0000001000
43
0.0000001000
44
0.0000000001
12
-2.9523848926
22
-2.6217403364
32
0.0000000000
13
-2.9523619074
23
-2.6217662204
33
0.0000000000
40
0.0000000000
40
0.0000000000
40
0.0000000000
40
0.0000000000
40
0.6869632063
40
1.0000000000
40
1.0000000000
40
1.0000000000
40
1.0000000000
10
12.1148156780
20
20.7240975152
30
0.0000000000
10
11.4387557473
20
20.1237511326
30
0.0000000000
10
10.4546489533
20
19.2498134721
30
0.0000000000
10
9.4705265266
20
18.3758934153
30
0.0000000000
10
9.1624605582
20
18.1023236514
30
0.0000000000
11
12.1148156780
21
20.7240975152
31
0.0000000000
11
10.0866580529
21
18.9230334053
31
0.0000000000
11
9.1624605582
21
18.1023236514
31
0.0000000000
0
SPLINE
5
26C
100
AcDbEntity
8
0
100
AcDbSpline
62
7
6
CONTINUOUS
70
0
71
3
72
10
73
6
74
4
42
0.0000001000
43
0.0000001000
44
0.0000000001
12
1.9414512788
22
1.7161657293
32
0.0000000000
13
1.9315629910
23
1.7272875528
33
0.0000000000
40
0.0000000000
40
0.0000000000
40
0.0000000000
40
0.0000000000
40
0.3365036367
40
0.6698448559
40
1.0000000000
40
1.0000000000
40
1.0000000000
40
1.0000000000
10
6.1621015803
20
19.1963595738
30
0.0000000000
10
6.3798700522
20
19.3888582434
30
0.0000000000
10
6.8130365299
20
19.7724131580
30
0.0000000000
10
7.4586587067
20
20.3461933203
30
0.0000000000
10
7.8862725183
20
20.7277415548
30
0.0000000000
10
8.0988443375
20
20.9178325117
30
0.0000000000
11
6.1621015803
21
19.1963595738
31
0.0000000000
11
6.8149049588
21
19.7744230267
31
0.0000000000
11
7.4605253538
21
20.3482352618
31
0.0000000000
11
8.0988443375
21
20.9178325117
31
0.0000000000
0
SPLINE
5
26D
100
AcDbEntity
8
0
100
AcDbSpline
62
7
6
CONTINUOUS
70
0
71
3
72
10
73
6
74
4
42
0.0000001000
43
0.0000001000
44
0.0000000001
12
-0.0353560002
22
0.0404711912
32
0.0000000000
13
-0.0354145135
23
0.0404199987
33
0.0000000000
40
0.0000000000
40
0.0000000000
40
0.0000000000
40
0.0000000000
40
0.3333339535
40
0.6666673069
40
1.0000000000
40
1.0000000000
40
1.0000000000
40
1.0000000000
10
11.6119067729
20
20.9445682584
30
0.0000000000
10
11.6079783211
20
20.9490650658
30
0.0000000000
10
11.6001192559
20
20.9580567782
30
0.0000000000
10
11.5883241669
20
20.9715386472
30
0.0000000000
10
11.5804564480
20
20.9805227585
30
0.0000000000
10
11.5765215096
20
20.9850138609
30
0.0000000000
11
11.6119067729
21
20.9445682584
31
0.0000000000
11
11.6001181651
21
20.9580558385
31
0.0000000000
11
11.5883230757
21
20.9715377078
31
0.0000000000
11
11.5765215096
21
20.9850138609
31
0.0000000000
0
SPLINE
5
26E
100
AcDbEntity
8
0
100
AcDbSpline
62
7
6
CONTINUOUS
70
0
71
3
72
10
73
6
74
4
42
0.0000001000
43
0.0000001000
44
0.0000000001
12
-0.0354105402
22
-0.0199711789
32
0.0000000000
13
-0.0353599411
23
-0.0200606307
33
0.0000000000
40
0.0000000000
40
0.0000000000
40
0.0000000000
40
0.0000000000
40
0.3333575707
40
0.6666908711
40
1.0000000000
40
1.0000000000
40
1.0000000000
40
1.0000000000
10
-0.2473126991
20
24.3982607925
30
0.0000000000
10
-0.2512474896
20
24.3960416112
30
0.0000000000
10
-0.2591149152
20
24.3916000955
30
0.0000000000
10
-0.2709100072
20
24.3849281231
30
0.0000000000
10
-0.2787693653
20
24.3804736784
30
0.0000000000
10
-0.2826979624
20
24.3782448813
30
0.0000000000
11
-0.2473126991
21
24.3982607925
31
0.0000000000
11
-0.2591142652
21
24.3915982768
31
0.0000000000
11
-0.2709093546
21
24.3849263055
31
0.0000000000
11
-0.2826979624
21
24.3782448813
31
0.0000000000
0
SPLINE
5
26F
100
AcDbEntity
8
0
100
AcDbSpline
62
7
6
CONTINUOUS
70
0
71
3
72
8
73
4
74
2
42
0.0000001000
43
0.0000001000
44
0.0000000001
12
-0.0996879939
22
-0.0816417488
32
0.0000000000
13
-0.0996878189
23
-0.0816419625
33
0.0000000000
40
0.0000000000
40
0.0000000000
40
0.0000000000
40
0.0000000000
40
1.0000000000
40
1.0000000000
40
1.0000000000
40
1.0000000000
10
-0.2826979624
20
24.3782448813
30
0.0000000000
10
-0.3159272937
20
24.3510309650
30
0.0000000000
10
-0.3491565935
20
24.3238170104
30
0.0000000000
10
-0.3823858664
20
24.2966030229
30
0.0000000000
11
-0.2826979624
21
24.3782448813
31
0.0000000000
11
-0.3823858664
21
24.2966030229
31
0.0000000000
0
SPLINE
5
270
100
AcDbEntity
8
0
100
AcDbSpline
62
7
6
CONTINUOUS
70
0
71
3
72
9
73
5
74
3
42
0.0000001000
43
0.0000001000
44
0.0000000001
12
-1.9579669749
22
-1.6035285765
32
0.0000000000
13
-1.9579513125
23
-1.6035477007
33
0.0000000000
40
0.0000000000
40
0.0000000000
40
0.0000000000
40
0.0000000000
40
0.4745430285
40
1.0000000000
40
1.0000000000
40
1.0000000000
40
1.0000000000
10
-0.3823858664
20
24.2966030229
30
0.0000000000
10
-0.6920990591
20
24.0429552539
30
0.0000000000
10
-1.3447497963
20
23.5084397196
30
0.0000000000
10
-1.9974065916
20
22.9739315823
30
0.0000000000
10
-2.3403463139
20
22.6930664762
30
0.0000000000
11
-0.3823858664
21
24.2966030229
31
0.0000000000
11
-1.3115221382
21
23.5356556787
31
0.0000000000
11
-2.3403463139
21
22.6930664762
31
0.0000000000
0
SPLINE
5
271
100
AcDbEntity
8
0
100
AcDbSpline
62
7
6
CONTINUOUS
70
0
71
3
72
10
73
6
74
4
42
0.0000001000
43
0.0000001000
44
0.0000000001
12
2.0623093638
22
1.6861115986
32
0.0000000000
13
2.0642977552
23
1.6836766355
33
0.0000000000
40
0.0000000000
40
0.0000000000
40
0.0000000000
40
0.0000000000
40
0.3360170931
40
0.6693480246
40
1.0000000000
40
1.0000000000
40
1.0000000000
40
1.0000000000
10
-2.8328927698
20
21.7929907785
30
0.0000000000
10
-2.6019023707
20
21.9818448845
30
0.0000000000
10
-2.1417029363
20
22.3579636350
30
0.0000000000
10
-1.4539589400
20
22.9196244969
30
0.0000000000
10
-0.9971569039
20
23.2923717951
30
0.0000000000
10
-0.7696355271
20
23.4779421303
30
0.0000000000
11
-2.8328927698
21
21.7929907785
31
0.0000000000
11
-2.1398206638
21
22.3594296511
31
0.0000000000
11
-1.4520782527
21
22.9210823075
31
0.0000000000
11
-0.7696355271
21
23.4779421303
31
0.0000000000
0
SPLINE
5
272
100
AcDbEntity
8
0
100
AcDbSpline
62
7
6
CONTINUOUS
70
0
71
3
72
15
73
11
74
9
42
0.0000001000
43
0.0000001000
44
0.0000000001
12
-0.4450416357
22
-0.3855424547
32
0.0000000000
13
-0.4484643258
23
0.3791999150
33
0.0000000000
40
0.0000000000
40
0.0000000000
40
0.0000000000
40
0.0000000000
40
0.0375474231
40
0.1576227736
40
0.2816338403
40
0.4117431480
40
0.5490433607
40
0.6935712803
40
0.8444255288
40
1.0000000000
40
1.0000000000
40
1.0000000000
40
1.0000000000
10
-2.2949227878
20
21.7325027666
30
0.0000000000
10
-2.3004928433
20
21.7276773914
30
0.0000000000
10
-2.3246672683
20
21.7083373645
30
0.0000000000
10
-2.3733001453
20
21.6811929199
30
0.0000000000
10
-2.4445393032
20
21.6615312000
30
0.0000000000
10
-2.5216228445
20
21.6576875580
30
0.0000000000
10
-2.6018561899
20
21.6695602830
30
0.0000000000
10
-2.6825542292
20
21.6965876433
30
0.0000000000
10
-2.7610262887
20
21.7377543889
30
0.0000000000
10
-2.8096362364
20
21.7733261697
30
0.0000000000
10
-2.8328927698
20
21.7929907785
30
0.0000000000
11
-2.2949227878
21
21.7325027666
31
0.0000000000
11
-2.3121827878
21
21.7186987674
31
0.0000000000
11
-2.3736659453
21
21.6841617516
31
0.0000000000
11
-2.4437749178
21
21.6644371913
31
0.0000000000
11
-2.5200698493
21
21.6602043746
31
0.0000000000
11
-2.5998956499
21
21.6716023322
31
0.0000000000
11
-2.6804908004
21
21.6982307205
31
0.0000000000
11
-2.7590628127
21
21.7391650775
31
0.0000000000
11
-2.8328927698
21
21.7929907785
31
0.0000000000
0
SPLINE
5
273
100
AcDbEntity
8
0
100
AcDbSpline
62
9
6
CONTINUOUS
70
0
71
3
72
11
73
7
74
5
42
0.0000001000
43
0.0000001000
44
0.0000000001
12
-0.0092405387
22
-0.3513332385
32
0.0000000000
13
0.3318324988
23
-0.0955416106
33
0.0000000000
40
0.0000000000
40
0.0000000000
40
0.0000000000
40
0.0000000000
40
0.0836975127
40
0.3204043625
40
0.6250314767
40
1.0000000000
40
1.0000000000
40
1.0000000000
40
1.0000000000
10
-12.2077659571
20
17.9821900614
30
0.0000000000
10
-12.2080237604
20
17.9723881553
30
0.0000000000
10
-12.2044839662
20
17.9349046998
30
0.0000000000
10
-12.1618062423
20
17.8721818971
30
0.0000000000
10
-12.0734356383
20
17.8128922780
30
0.0000000000
10
-11.9996160251
20
17.7850246671
30
0.0000000000
10
-11.9581404445
20
17.7730829683
30
0.0000000000
11
-12.2077659571
21
17.9821900614
31
0.0000000000
11
-12.2049230632
21
17.9531686902
31
0.0000000000
11
-12.1635290578
21
17.8826873043
31
0.0000000000
11
-12.0785563559
21
17.8206798164
31
0.0000000000
11
-11.9581404445
21
17.7730829683
31
0.0000000000
0
SPLINE
5
274
100
AcDbEntity
8
0
100
AcDbSpline
62
9
6
CONTINUOUS
70
0
71
3
72
10
73
6
74
4
42
0.0000001000
43
0.0000001000
44
0.0000000001
12
0.2579479132
22
0.2547426213
32
0.0000000000
13
0.3473031558
23
-0.0959538029
33
0.0000000000
40
0.0000000000
40
0.0000000000
40
0.0000000000
40
0.0000000000
40
0.2832646466
40
0.6240679247
40
1.0000000000
40
1.0000000000
40
1.0000000000
40
1.0000000000
10
-11.8311905536
20
18.9471722170
30
0.0000000000
10
-11.8068347121
20
18.9712254099
30
0.0000000000
10
-11.7426837591
20
19.0138265249
30
0.0000000000
10
-11.6221783987
20
19.0377441475
30
0.0000000000
10
-11.5354300357
20
19.0255720926
30
0.0000000000
10
-11.4919092370
20
19.0135480552
30
0.0000000000
11
-11.8311905536
21
18.9471722170
31
0.0000000000
11
-11.7463213197
21
19.0041969970
31
0.0000000000
11
-11.6263261635
21
19.0302760686
31
0.0000000000
11
-11.4919092370
21
19.0135480552
31
0.0000000000
0
SPLINE
5
275
100
AcDbEntity
8
0
100
AcDbSpline
62
9
6
CONTINUOUS
70
0
71
3
72
11
73
7
74
5
42
0.0000001000
43
0.0000001000
44
0.0000000001
12
0.0059505589
22
-0.3588631540
32
0.0000000000
13
0.3405245492
23
-0.0985436006
33
0.0000000000
40
0.0000000000
40
0.0000000000
40
0.0000000000
40
0.0000000000
40
0.0766391606
40
0.3270236332
40
0.6327007680
40
1.0000000000
40
1.0000000000
40
1.0000000000
40
1.0000000000
10
-12.2079631879
20
-18.4092164990
30
0.0000000000
10
-12.2078111727
20
-18.4183841560
30
0.0000000000
10
-12.2035575522
20
-18.4573146846
30
0.0000000000
10
-12.1639068515
20
-18.5248804858
30
0.0000000000
10
-12.0745924034
20
-18.5903391689
30
0.0000000000
10
-11.9998347386
20
-18.6196424142
30
0.0000000000
10
-11.9581432702
20
-18.6317074105
30
0.0000000000
11
-12.2079631879
21
-18.4092164990
31
0.0000000000
11
-12.2049255099
21
-18.4364110570
31
0.0000000000
11
-12.1635320957
21
-18.5149285701
31
0.0000000000
11
-12.0785595028
21
-18.5821734320
31
0.0000000000
11
-11.9581432702
21
-18.6317074105
31
0.0000000000
0
SPLINE
5
276
100
AcDbEntity
8
0
100
AcDbSpline
62
7
6
CONTINUOUS
70
0
71
3
72
19
73
15
74
13
42
0.0000001000
43
0.0000001000
44
0.0000000001
12
-0.9972158267
22
-0.2674550270
32
0.0000000000
13
0.1728727152
23
1.0178834023
33
0.0000000000
40
0.0000000000
40
0.0000000000
40
0.0000000000
40
0.0000000000
40
0.0723286812
40
0.1485577634
40
0.2289714771
40
0.3132750883
40
0.4007192190
40
0.4902117488
40
0.5804630364
40
0.6701060140
40
0.7578240030
40
0.8425029829
40
0.9232485468
40
1.0000000000
40
1.0000000000
40
1.0000000000
40
1.0000000000
10
6.1621015803
20
19.1963595738
30
0.0000000000
10
6.1380591451
20
19.1899113506
30
0.0000000000
10
6.0869923745
20
19.1824375401
30
0.0000000000
10
6.0078718906
20
19.1873410972
30
0.0000000000
10
5.9270386692
20
19.2076908665
30
0.0000000000
10
5.8472327481
20
19.2427008362
30
0.0000000000
10
5.7710913467
20
19.2911268022
30
0.0000000000
10
5.7011638021
20
19.3513112997
30
0.0000000000
10
5.6398043384
20
19.4212103452
30
0.0000000000
10
5.5890942374
20
19.4984591701
30
0.0000000000
10
5.5507629166
20
19.5804478341
30
0.0000000000
10
5.5261493941
20
19.6644049751
30
0.0000000000
10
5.5161110198
20
19.7475362665
30
0.0000000000
10
5.5195603766
20
19.8020388096
30
0.0000000000
10
5.5239831206
20
19.8280801531
30
0.0000000000
11
6.1621015803
21
19.1963595738
31
0.0000000000
11
6.0882698548
21
19.1851595399
31
0.0000000000
11
6.0096912599
21
19.1895901106
31
0.0000000000
11
5.9290893447
21
19.2094972216
31
0.0000000000
11
5.8492622928
21
19.2441902656
31
0.0000000000
11
5.7729738109
21
19.2924706318
31
0.0000000000
11
5.7028747530
21
19.3526652804
31
0.0000000000
11
5.6413991958
21
19.4226896255
31
0.0000000000
11
5.5906872493
21
19.5001124944
31
0.0000000000
11
5.5525075118
21
19.5822365963
31
0.0000000000
11
5.5281848423
21
19.6662127160
31
0.0000000000
11
5.5185680135
21
19.7490226631
31
0.0000000000
11
5.5239831206
21
19.8280801531
31
0.0000000000
0
SPLINE
5
277
100
AcDbEntity
8
0
100
AcDbSpline
62
9
6
CONTINUOUS
70
0
71
3
72
11
73
7
74
5
42
0.0000001000
43
0.0000001000
44
0.0000000001
12
-0.5514391687
22
0.1665715680
32
0.0000000000
13
-0.0143743673
23
0.5718560166
33
0.0000000000
40
0.0000000000
40
0.0000000000
40
0.0000000000
40
0.0000000000
40
0.1565226247
40
0.3813282608
40
0.6619514132
40
1.0000000000
40
1.0000000000
40
1.0000000000
40
1.0000000000
10
6.4543192049
20
-24.3743592111
30
0.0000000000
10
6.4255483028
20
-24.3656684715
30
0.0000000000
10
6.3597578150
20
-24.3278968343
30
0.0000000000
10
6.2882523674
20
-24.2198462049
30
0.0000000000
10
6.2418881407
20
-24.0645709306
30
0.0000000000
10
6.2309367006
20
-23.9464133230
30
0.0000000000
10
6.2293169557
20
-23.8819749502
30
0.0000000000
11
6.4543192049
21
-24.3743592111
31
0.0000000000
11
6.3756831117
21
-24.3305372151
31
0.0000000000
11
6.2995867659
21
-24.2268716441
31
0.0000000000
11
6.2497882593
21
-24.0742645049
31
0.0000000000
11
6.2293169557
21
-23.8819749502
31
0.0000000000
0
SPLINE
5
278
100
AcDbEntity
8
0
100
AcDbSpline
62
9
6
CONTINUOUS
70
0
71
3
72
10
73
6
74
4
42
0.0000001000
43
0.0000001000
44
0.0000000001
12
0.2512383288
22
0.1867403087
32
0.0000000000
13
0.0094341098
23
0.3105868947
33
0.0000000000
40
0.0000000000
40
0.0000000000
40
0.0000000000
40
0.0000000000
40
0.1739971381
40
0.5716323788
40
1.0000000000
40
1.0000000000
40
1.0000000000
40
1.0000000000
10
7.0213622994
20
-24.2598352893
30
0.0000000000
10
7.0359338828
20
-24.2490045296
30
0.0000000000
10
7.0805757649
20
-24.2091007314
30
0.0000000000
10
7.1349804113
20
-24.1179178287
30
0.0000000000
10
7.1501835780
20
-24.0318642916
30
0.0000000000
10
7.1515306670
20
-23.9875158352
30
0.0000000000
11
7.0213622994
21
-24.2598352893
31
0.0000000000
11
7.0618559284
21
-24.2235800487
31
0.0000000000
11
7.1264174962
21
-24.1182320575
31
0.0000000000
11
7.1515306670
21
-23.9875158352
31
0.0000000000
0
SPLINE
5
279
100
AcDbEntity
8
0
100
AcDbSpline
62
9
6
CONTINUOUS
70
0
71
3
72
11
73
7
74
5
42
0.0000001000
43
0.0000001000
44
0.0000000001
12
-0.5469981746
22
0.1637535074
32
0.0000000000
13
-0.0138148189
23
0.5671140985
33
0.0000000000
40
0.0000000000
40
0.0000000000
40
0.0000000000
40
0.0000000000
40
0.1547144870
40
0.3780634339
40
0.6595816368
40
1.0000000000
40
1.0000000000
40
1.0000000000
40
1.0000000000
10
-11.7392547512
20
-19.1223267603
30
0.0000000000
10
-11.7674642651
20
-19.1138817470
30
0.0000000000
10
-11.8320704990
20
-19.0761784415
30
0.0000000000
10
-11.9011645655
20
-18.9684382243
30
0.0000000000
10
-11.9460050269
20
-18.8138585778
30
0.0000000000
10
-11.9565756732
20
-18.6960594367
30
0.0000000000
10
-11.9581432792
20
-18.6317074190
30
0.0000000000
11
-11.7392547512
21
-19.1223267603
31
0.0000000000
11
-11.8161546276
21
-19.0789952415
31
0.0000000000
11
-11.8899620648
21
-18.9760105978
31
0.0000000000
11
-11.9382865332
21
-18.8237971527
31
0.0000000000
11
-11.9581432792
21
-18.6317074190
31
0.0000000000
0
SPLINE
5
27A
100
AcDbEntity
8
0
100
AcDbSpline
62
7
6
CONTINUOUS
70
0
71
3
72
9
73
5
74
3
42
0.0000001000
43
0.0000001000
44
0.0000000001
12
1.6824247720
22
1.3894004731
32
0.0000000000
13
1.6824303173
23
1.3893937583
33
0.0000000000
40
0.0000000000
40
0.0000000000
40
0.0000000000
40
0.0000000000
40
0.5996937391
40
1.0000000000
40
1.0000000000
40
1.0000000000
40
1.0000000000
10
-1.7764066756
20
22.2127284771
30
0.0000000000
10
-1.4400934748
20
22.4904667321
30
0.0000000000
10
-0.8792815267
20
22.9535957539
30
0.0000000000
10
-0.3184726574
20
23.4167285039
30
0.0000000000
10
-0.0939768609
20
23.6021228440
30
0.0000000000
11
-1.7764066756
21
22.2127284771
31
0.0000000000
11
-0.7674637538
21
23.0459392225
31
0.0000000000
11
-0.0939768609
21
23.6021228440
31
0.0000000000
0
SPLINE
5
27B
100
AcDbEntity
8
0
100
AcDbSpline
62
7
6
CONTINUOUS
70
0
71
3
72
8
73
4
74
2
42
0.0000001000
43
0.0000001000
44
0.0000000001
12
0.3354555383
22
0.2770277178
32
0.0000000000
13
0.3354566414
23
0.2770263819
33
0.0000000000
40
0.0000000000
40
0.0000000000
40
0.0000000000
40
0.0000000000
40
1.0000000000
40
1.0000000000
40
1.0000000000
40
1.0000000000
10
-0.0939768609
20
23.6021228440
30
0.0000000000
10
0.0178416519
20
23.6944654166
30
0.0000000000
10
0.1296602874
20
23.7868078405
30
0.0000000000
10
0.2414791679
20
23.8791499678
30
0.0000000000
11
-0.0939768609
21
23.6021228440
31
0.0000000000
11
0.2414791679
21
23.8791499678
31
0.0000000000
0
SPLINE
5
27C
100
AcDbEntity
8
0
100
AcDbSpline
62
9
6
CONTINUOUS
70
0
71
3
72
13
73
9
74
7
42
0.0000001000
43
0.0000001000
44
0.0000000001
12
-0.3415268923
22
-0.2542460274
32
0.0000000000
13
-0.0108308182
23
0.4256340611
33
0.0000000000
40
0.0000000000
40
0.0000000000
40
0.0000000000
40
0.0000000000
40
0.1655495670
40
0.3016091313
40
0.4316988479
40
0.5839709214
40
0.7732079246
40
1.0000000000
40
1.0000000000
40
1.0000000000
40
1.0000000000
10
7.1515306670
20
-23.9875158352
30
0.0000000000
10
7.1326841240
20
-24.0015459418
30
0.0000000000
10
7.0951148163
20
-24.0236583834
30
0.0000000000
10
7.0314831806
20
-24.0311784947
30
0.0000000000
10
6.9758930520
20
-24.0023954711
30
0.0000000000
10
6.9375980357
20
-23.9453372730
30
0.0000000000
10
6.9140610438
20
-23.8675317665
30
0.0000000000
10
6.9084984049
20
-23.8083939110
30
0.0000000000
10
6.9076796237
20
-23.7762171003
30
0.0000000000
11
7.1515306670
21
-23.9875158352
31
0.0000000000
11
7.0893664543
21
-24.0207413577
31
0.0000000000
11
7.0316146727
21
-24.0252861331
31
0.0000000000
11
6.9819360251
21
-24.0007928251
31
0.0000000000
11
6.9433009636
21
-23.9487287224
31
0.0000000000
11
6.9180305296
21
-23.8722223954
31
0.0000000000
11
6.9076796237
21
-23.7762171003
31
0.0000000000
0
SPLINE
5
27D
100
AcDbEntity
8
0
100
AcDbSpline
62
9
6
CONTINUOUS
70
0
71
3
72
10
73
6
74
4
42
0.0000001000
43
0.0000001000
44
0.0000000001
12
-0.9301870934
22
36.3962789062
32
0.0000000000
13
0.8922582174
23
36.3972284868
33
0.0000000000
40
0.0000000000
40
0.0000000000
40
0.0000000000
40
0.0000000000
40
0.3286805181
40
0.6620702619
40
1.0000000000
40
1.0000000000
40
1.0000000000
40
1.0000000000
10
6.2293169557
20
-23.8819749502
30
0.0000000000
10
6.1274054972
20
-19.8943923481
30
0.0000000000
10
5.9925293349
20
-11.8601298975
30
0.0000000000
10
5.9939325940
20
0.2764294928
30
0.0000000000
10
6.1288100939
20
8.4229112244
30
0.0000000000
10
6.2293169557
20
12.5228131872
30
0.0000000000
11
6.2293169557
21
-23.8819749502
31
0.0000000000
11
6.0269587320
21
-11.9170320027
31
0.0000000000
11
6.0269587319
21
0.2210762873
31
0.0000000000
11
6.2293169557
21
12.5228131872
31
0.0000000000
0
SPLINE
5
27E
100
AcDbEntity
8
0
100
AcDbSpline
62
9
6
CONTINUOUS
70
0
71
3
72
10
73
6
74
4
42
0.0000001000
43
0.0000001000
44
0.0000000001
12
-0.9292830467
22
36.3598821575
32
0.0000000000
13
0.8913914153
23
36.3608308325
33
0.0000000000
40
0.0000000000
40
0.0000000000
40
0.0000000000
40
0.0000000000
40
0.3286800933
40
0.6620709269
40
1.0000000000
40
1.0000000000
40
1.0000000000
40
1.0000000000
10
6.9076796237
20
-23.7762171003
30
0.0000000000
10
6.8058673442
20
-19.7926272801
30
0.0000000000
10
6.6711217309
20
-11.7663910333
30
0.0000000000
10
6.6725236632
20
0.3580319013
30
0.0000000000
10
6.8072705988
20
8.4963722958
30
0.0000000000
10
6.9076796237
20
12.5921662489
30
0.0000000000
11
6.9076796237
21
-23.7762171003
31
0.0000000000
11
6.7055179622
21
-11.8232545792
31
0.0000000000
11
6.7055180020
21
0.3027553036
31
0.0000000000
11
6.9076796237
21
12.5921662489
31
0.0000000000
0
SPLINE
5
27F
100
AcDbEntity
8
0
100
AcDbSpline
62
9
6
CONTINUOUS
70
0
71
3
72
12
73
8
74
6
42
0.0000001000
43
0.0000001000
44
0.0000000001
12
0.6822290326
22
-0.1964564444
32
0.0000000000
13
0.5269433785
23
0.4757754338
33
0.0000000000
40
0.0000000000
40
0.0000000000
40
0.0000000000
40
0.0000000000
40
0.2067884873
40
0.4243155778
40
0.6377705675
40
0.8330972191
40
1.0000000000
40
1.0000000000
40
1.0000000000
40
1.0000000000
10
6.2293169611
20
-23.8819749452
30
0.0000000000
10
6.2763426643
20
-23.8955165889
30
0.0000000000
10
6.3758572440
20
-23.9132734766
30
0.0000000000
10
6.5273595770
20
-23.9149112347
30
0.0000000000
10
6.6746486404
20
-23.8925968015
30
0.0000000000
10
6.8042877192
20
-23.8484997567
30
0.0000000000
10
6.8783635186
20
-23.8026865147
30
0.0000000000
10
6.9076796237
20
-23.7762171003
30
0.0000000000
11
6.2293169611
21
-23.8819749452
31
0.0000000000
11
6.3736430974
21
-23.9088655061
31
0.0000000000
11
6.5280656192
21
-23.9107280601
31
0.0000000000
11
6.6777996357
21
-23.8873842824
31
0.0000000000
11
6.8085091485
21
-23.8410691786
31
0.0000000000
11
6.9076796237
21
-23.7762171003
31
0.0000000000
0
SPLINE
5
280
100
AcDbEntity
8
0
100
AcDbSpline
62
9
6
CONTINUOUS
70
0
71
3
72
13
73
9
74
7
42
0.0000001000
43
0.0000001000
44
0.0000000001
12
0.0326320417
22
1.3536053001
32
0.0000000000
13
0.9875287274
23
0.9263364245
33
0.0000000000
40
0.0000000000
40
0.0000000000
40
0.0000000000
40
0.0000000000
40
0.1683633257
40
0.3473292470
40
0.5282532309
40
0.7024271107
40
0.8618555044
40
1.0000000000
40
1.0000000000
40
1.0000000000
40
1.0000000000
10
6.2293169557
20
12.5228131872
30
0.0000000000
10
6.2311483021
20
12.5987790172
30
0.0000000000
10
6.2461067222
20
12.7553182945
30
0.0000000000
10
6.2956422396
20
12.9889722239
30
0.0000000000
10
6.3704954975
20
13.2185779890
30
0.0000000000
10
6.4662852130
20
13.4307154053
30
0.0000000000
10
6.5772876960
20
13.6130222287
30
0.0000000000
10
6.6643891416
20
13.7164929041
30
0.0000000000
10
6.7098630276
20
13.7591489968
30
0.0000000000
11
6.2293169557
21
12.5228131872
31
0.0000000000
11
6.2497882593
21
12.7498558619
31
0.0000000000
11
6.2995867658
21
12.9870032823
31
0.0000000000
11
6.3756831117
21
13.2198552688
31
0.0000000000
11
6.4734981148
21
13.4344445825
31
0.0000000000
11
6.5871991320
21
13.6179388072
31
0.0000000000
11
6.7098630276
21
13.7591489968
31
0.0000000000
0
SPLINE
5
281
100
AcDbEntity
8
0
100
AcDbSpline
62
9
6
CONTINUOUS
70
0
71
3
72
13
73
9
74
7
42
0.0000001000
43
0.0000001000
44
0.0000000001
12
0.0165398794
22
0.6775188525
32
0.0000000000
13
0.4987953801
23
0.4588120879
33
0.0000000000
40
0.0000000000
40
0.0000000000
40
0.0000000000
40
0.0000000000
40
0.1677744444
40
0.3466483263
40
0.5275632775
40
0.7018631687
40
0.8616056186
40
1.0000000000
40
1.0000000000
40
1.0000000000
40
1.0000000000
10
6.9076796237
20
12.5921662489
30
0.0000000000
10
6.9086046134
20
12.6300563653
30
0.0000000000
10
6.9161809779
20
12.7082528005
30
0.0000000000
10
6.9413040482
20
12.8249815336
30
0.0000000000
10
6.9793145847
20
12.9397416803
30
0.0000000000
10
7.0279829866
20
13.0457094377
30
0.0000000000
10
7.0843510887
20
13.1366563021
30
0.0000000000
10
7.1285205076
20
13.1881356003
30
0.0000000000
10
7.1515306670
20
13.2093012720
30
0.0000000000
11
6.9076796237
21
12.5921662489
31
0.0000000000
11
6.9180305297
21
12.7053983444
31
0.0000000000
11
6.9433009635
21
12.8239617361
31
0.0000000000
11
6.9819360251
21
12.9403253791
31
0.0000000000
11
7.0316146727
21
13.0474978408
31
0.0000000000
11
7.0893664543
21
13.1390681709
31
0.0000000000
11
7.1515306670
21
13.2093012720
31
0.0000000000
0
SPLINE
5
282
100
AcDbEntity
8
0
100
AcDbSpline
62
9
6
CONTINUOUS
70
0
71
3
72
12
73
8
74
6
42
0.0000001000
43
0.0000001000
44
0.0000000001
12
0.6730687762
22
-0.1948061116
32
0.0000000000
13
0.5575056206
23
0.4244508000
33
0.0000000000
40
0.0000000000
40
0.0000000000
40
0.0000000000
40
0.0000000000
40
0.2100410183
40
0.4306546673
40
0.6454581794
40
0.8390385696
40
1.0000000000
40
1.0000000000
40
1.0000000000
40
1.0000000000
10
6.2293282060
20
12.5228221134
30
0.0000000000
10
6.2764522231
20
12.5091830220
30
0.0000000000
10
6.3757331365
20
12.4900614539
30
0.0000000000
10
6.5267761039
20
12.4832268825
30
0.0000000000
10
6.6736028723
20
12.4975494208
30
0.0000000000
10
6.8027008376
20
12.5315155530
30
0.0000000000
10
6.8777673228
20
12.5693928463
30
0.0000000000
10
6.9076796235
20
12.5921662490
30
0.0000000000
11
6.2293282060
21
12.5228221134
31
0.0000000000
11
6.3736516664
21
12.4939947142
31
0.0000000000
11
6.5280709944
21
12.4868942025
31
0.0000000000
11
6.6778020603
21
12.5022003851
31
0.0000000000
11
6.8085095895
21
12.5384478464
31
0.0000000000
11
6.9076796235
21
12.5921662490
31
0.0000000000
0
ENDSEC
0
SECTION
2
OBJECTS
0
DICTIONARY
5
C
100
AcDbDictionary
280
0
281
1
3
ACAD_GROUP
350
D
3
ACAD_MLINESTYLE
350
17
3
ACAD_LAYOUT
350
1A
3
ACAD_PLOTSETTINGS
350
19
3
ACAD_PLOTSTYLENAME
350
E
0
DICTIONARY
5
D
102
{ACAD_REACTORS
330
C
102
}
100
AcDbDictionary
280
0
281
1
0
ACDBDICTIONARYWDFLT
5
E
102
{ACAD_REACTORS
330
C
102
}
100
AcDbDictionary
281
1
3
Normal
350
F
100
AcDbDictionaryWithDefault
340
F
0
DICTIONARY
5
17
102
{ACAD_REACTORS
330
C
102
}
100
AcDbDictionary
280
0
281
1
3
Standard
350
18
0
DICTIONARY
5
19
102
{ACAD_REACTORS
330
C
102
}
100
AcDbDictionary
281
1
0
DICTIONARY
5
1A
102
{ACAD_REACTORS
330
C
102
}
100
AcDbDictionary
281
1
3
Layout1
350
1E
3
Model
350
22
0
ACDBPLACEHOLDER
5
F
102
{ACAD_REACTORS
330
E
102
}
0
MLINESTYLE
5
18
102
{ACAD_REACTORS
330
17
102
}
100
AcDbMlineStyle
2
STANDARD
70
0
3

62
256
51
90.0
52
90.0
71
2
49
0.5
62
256
6
BYLAYER
49
-0.5
62
256
6
BYLAYER
0
LAYOUT
5
1E
102
{ACAD_REACTORS
330
1A
102
}
100
AcDbPlotSettings
1

2

4

6

40
0.0
41
0.0
42
0.0
43
0.0
44
0.0
45
0.0
46
0.0
47
0.0
48
0.0
49
0.0
140
0.0
141
0.0
142
1.0
143
1.0
70
0
72
0
73
0
74
0
7

75
0
147
1.0
148
0.0
149
0.0
100
AcDbLayout
1
Layout1
70
0
71
0
10
0.0
20
0.0
11
0.0
21
0.0
12
0.0
22
0.0
32
0.0
14
0.0
24
0.0
34
0.0
15
0.0
25
0.0
35
0.0
146
0.0
13
0.0
23
0.0
33
0.0
16
0.0
26
0.0
36
0.0
17
0.0
27
0.0
37
0.0
76
0
330
1B
331
0
345
0
346
0
0
LAYOUT
5
22
102
{ACAD_REACTORS
330
1A
102
}
100
AcDbPlotSettings
1

2

4

6

40
0.0
41
0.0
42
0.0
43
0.0
44
0.0
45
0.0
46
0.0
47
0.0
48
0.0
49
0.0
140
0.0
141
0.0
142
1.0
143
1.0
70
0
72
0
73
0
74
0
7

75
0
147
1.0
148
0.0
149
0.0
100
AcDbLayout
1
Model
70
0
71
0
10
0.0
20
0.0
11
0.0
21
0.0
12
0.0
22
0.0
32
0.0
14
0.0
24
0.0
34
0.0
15
0.0
25
0.0
35
0.0
146
0.0
13
0.0
23
0.0
33
0.0
16
0.0
26
0.0
36
0.0
17
0.0
27
0.0
37
0.0
76
0
330
1F
331
0
345
0
346
0
0
ENDSEC
0
EOF
