  0
SECTION
  2
HEADER
  9
$ACADVER
  1
AC1024
  9
$DWGCODEPAGE
  3
ANSI_1252
  9
$EXTMAX
 10
297.0
 20
210.0
 30
0.0
  9
$EXTMIN
 10
0.0
 20
0.0
 30
0.0
  9
$LIMMIN
 10
0.0
 20
0.0
  9
$LIMMAX
 10
297.0
 20
210.0
  9
$VIEWCTR
 10
148.5
 20
105.0
  9
$VIEWSIZE
 40
210.0
  9
$CLAYER
  8
0
  9
$LTSCALE
 40
16.335
  9
$CELTYPE
  6
BYLAYER
  9
$DIMSCALE
 40
1.0
  9
$DIMASZ
 40
3.0
  9
$DIMEXO
 40
0.5
  9
$DIMDLI
 40
11.286
  9
$DIMEXE
 40
1.5
  9
$DIMCEN
 40
2.673
  9
$DIMLFAC
 40
1.0
  9
$DIMBLK
  1
_FILLED
  9
$DIMALT
 70
0
  9
$DIMALTF
 40
0.0393700787
  9
$DIMTXT
 40
3.0
  9
$DIMTOL
 70
1
  9
$DIMLIM
 70
0
  9
$DIMTFAC
 40
1.0
  9
$DIMTP
 40
0.01
  9
$DIMTM
 40
0.01
  9
$DIMGAP
 40
0.625
  9
$DIMDSEP
 70
44
  9
$AUNITS
 70
0
  9
$PDMODE
 70
3
  9
$PDSIZE
 40
3.0
  9
$HANDSEED
  5
28C
  9
$TILEMODE
 70
1
  9
$MEASUREMENT
 70
1
  9
$INSUNITS
 70
4
  0
ENDSEC
  0
SECTION
  2
CLASSES
  0
CLASS
  1
ACDBDICTIONARYWDFLT
  2
AcDbDictionaryWithDefault
  3
AutoCAD 2000
 90
0
 91
1
280
0
281
0
  0
CLASS
  1
ACDBPLACEHOLDER
  2
AcDbPlaceHolder
  3
AutoCAD 2000
 90
0
 91
1
280
0
281
0
  0
CLASS
  1
LAYOUT
  2
AcDbLayout
  3
AutoCAD 2000
 90
0
 91
0
280
0
281
0
  0
ENDSEC
  0
SECTION
  2
TABLES
  0
TABLE
  2
VPORT
  5
8
100
AcDbSymbolTable
 70
2
  0
VPORT
  5
1F4
100
AcDbSymbolTableRecord
100
AcDbViewportTableRecord
  2
*ACTIVE
 70
0
 10
0.0
 20
0.0
 11
1.0
 21
1.0
 12
148.5
 22
105.0
 13
0.0
 23
0.0
 14
1.0
 24
1.0
 15
0.0
 25
0.0
 16
0.0
 26
0.0
 36
1.0
 17
0.0
 27
0.0
 37
0.0
 40
210.0
 41
1.4142857143
 42
50.0
 43
0.0
 44
0.0
 50
0.0
 51
0.0
 71
0
 72
100
 73
1
 74
1
 75
0
 76
0
 77
0
 78
0
  0
ENDTAB
  0
TABLE
  2
LTYPE
  5
5
100
AcDbSymbolTable
 70
6
  0
LTYPE
  5
14
100
AcDbSymbolTableRecord
100
AcDbLinetypeTableRecord
  2
BYBLOCK
 70
0
  3

 72
65
 73
0
 40
0.0
  0
LTYPE
  5
15
100
AcDbSymbolTableRecord
100
AcDbLinetypeTableRecord
  2
BYLAYER
 70
0
  3

 72
65
 73
0
 40
0.0
  0
LTYPE
  5
16
100
AcDbSymbolTableRecord
100
AcDbLinetypeTableRecord
  2
CONTINUOUS
 70
64
  3
Solid line
 72
65
 73
0
 40
0.0
  0
LTYPE
  5
1F5
100
AcDbSymbolTableRecord
100
AcDbLinetypeTableRecord
  2
CENTER
 70
64
  3
____ _ ____ _ ____ _ ____ _ ____ _ ____ _ ____
 72
65
 73
4
 40
0.6
 49
0.375
 74
0
 49
-0.075
 74
0
 49
0.075
 74
0
 49
-0.075
 74
0
  0
LTYPE
  5
1F6
100
AcDbSymbolTableRecord
100
AcDbLinetypeTableRecord
  2
HIDDEN
 70
64
  3
- - - - - - - - - - - - - - - - - - - -
 72
65
 73
2
 40
0.2
 49
0.1
 74
0
 49
-0.1
 74
0
  0
LTYPE
  5
1F7
100
AcDbSymbolTableRecord
100
AcDbLinetypeTableRecord
  2
PHANTOM
 70
64
  3
_____ _ _ _____ _ _ _____ _ _ _____
 72
65
 73
6
 40
0.8
 49
0.45
 74
0
 49
-0.05
 74
0
 49
0.1
 74
0
 49
-0.05
 74
0
 49
0.1
 74
0
 49
-0.05
 74
0
  0
LTYPE
  5
1F8
100
AcDbSymbolTableRecord
100
AcDbLinetypeTableRecord
  2
DOT
 70
64
  3
. . . . . . . . . . . . . . . . . . . .
 72
65
 73
2
 40
0.2
 49
0.1
 74
0
 49
-0.1
 74
0
  0
LTYPE
  5
1F9
100
AcDbSymbolTableRecord
100
AcDbLinetypeTableRecord
  2
DASHED
 70
64
  3
- - - - - - - - - - - - - - - - - - - -
 72
65
 73
2
 40
0.2
 49
0.1
 74
0
 49
-0.1
 74
0
  0
ENDTAB
  0
TABLE
  2
LAYER
  5
2
100
AcDbSymbolTable
 70
36
  0
LAYER
  5
10
100
AcDbSymbolTableRecord
100
AcDbLayerTableRecord
  2
0
 70
0
 62
7
  6
CONTINUOUS
370
-3
390
F
  0
LAYER
  5
1FA
100
AcDbSymbolTableRecord
100
AcDbLayerTableRecord
  2
DEFAULT_1
 70
0
 62
7
  6
CENTER
370
-3
390
F
  0
LAYER
  5
1FB
100
AcDbSymbolTableRecord
100
AcDbLayerTableRecord
  2
DEFAULT_2
 70
0
 62
7
  6
HIDDEN
370
-3
390
F
  0
LAYER
  5
1FC
100
AcDbSymbolTableRecord
100
AcDbLayerTableRecord
  2
DEFAULT_3
 70
0
 62
7
  6
PHANTOM
370
-3
390
F
  0
LAYER
  5
1FD
100
AcDbSymbolTableRecord
100
AcDbLayerTableRecord
  2
ASSI
 70
0
 62
7
  6
CONTINUOUS
370
-3
390
F
  0
LAYER
  5
1FE
100
AcDbSymbolTableRecord
100
AcDbLayerTableRecord
  2
COORDINATE
 70
0
 62
7
  6
CONTINUOUS
370
-3
390
F
  0
LAYER
  5
1FF
100
AcDbSymbolTableRecord
100
AcDbLayerTableRecord
  2
COORD_ORIGINE
 70
0
 62
7
  6
CONTINUOUS
370
-3
390
F
  0
LAYER
  5
200
100
AcDbSymbolTableRecord
100
AcDbLayerTableRecord
  2
DRAFT
 70
0
 62
7
  6
CONTINUOUS
370
-3
390
F
  0
LAYER
  5
201
100
AcDbSymbolTableRecord
100
AcDbLayerTableRecord
  2
IMPORT_FEATURES
 70
0
 62
7
  6
CONTINUOUS
370
-3
390
F
  0
LAYER
  5
202
100
AcDbSymbolTableRecord
100
AcDbLayerTableRecord
  2
INTF_1
 70
0
 62
7
  6
CONTINUOUS
370
-3
390
F
  0
LAYER
  5
203
100
AcDbSymbolTableRecord
100
AcDbLayerTableRecord
  2
INTF_9
 70
0
 62
7
  6
CONTINUOUS
370
-3
390
F
  0
LAYER
  5
204
100
AcDbSymbolTableRecord
100
AcDbLayerTableRecord
  2
PIANI
 70
0
 62
7
  6
CONTINUOUS
370
-3
390
F
  0
LAYER
  5
205
100
AcDbSymbolTableRecord
100
AcDbLayerTableRecord
  2
PIANI_ORIGINE
 70
0
 62
7
  6
CONTINUOUS
370
-3
390
F
  0
LAYER
  5
206
100
AcDbSymbolTableRecord
100
AcDbLayerTableRecord
  2
PUNTI
 70
0
 62
7
  6
CONTINUOUS
370
-3
390
F
  0
LAYER
  5
207
100
AcDbSymbolTableRecord
100
AcDbLayerTableRecord
  2
RACCORDO
 70
0
 62
7
  6
CONTINUOUS
370
-3
390
F
  0
LAYER
  5
208
100
AcDbSymbolTableRecord
100
AcDbLayerTableRecord
  2
RGB____0____0____0__
 70
0
 62
7
  6
CONTINUOUS
370
-3
390
F
  0
LAYER
  5
209
100
AcDbSymbolTableRecord
100
AcDbLayerTableRecord
  2
SNAPLINE
 70
0
 62
7
  6
CONTINUOUS
370
-3
390
F
  0
LAYER
  5
20A
100
AcDbSymbolTableRecord
100
AcDbLayerTableRecord
  2
SUPERFICI
 70
0
 62
7
  6
CONTINUOUS
370
-3
390
F
  0
LAYER
  5
20B
100
AcDbSymbolTableRecord
100
AcDbLayerTableRecord
  2
TRASH
 70
0
 62
7
  6
CONTINUOUS
370
-3
390
F
  0
LAYER
  5
20C
100
AcDbSymbolTableRecord
100
AcDbLayerTableRecord
  2
XSEC_DATUMS
 70
0
 62
7
  6
CONTINUOUS
370
-3
390
F
  0
ENDTAB
  0
TABLE
  2
STYLE
  5
3
100
AcDbSymbolTable
 70
1
  0
STYLE
  5
11
100
AcDbSymbolTableRecord
100
AcDbTextStyleTableRecord
  2
STANDARD
 70
0
 40
0.0
 41
0.8
 50
0.0
 71
0
 42
0.2
  3
txt
  4

  0
STYLE
  5
20D
100
AcDbSymbolTableRecord
100
AcDbTextStyleTableRecord
  2
TEXTSTYLE_1
 70
0
 40
0.0
 41
0.8
 50
0.0
 71
0
 42
0.2
  3
gdt
  4

  0
ENDTAB
  0
TABLE
  2
VIEW
  5
6
100
AcDbSymbolTable
 70
0
  0
ENDTAB
  0
TABLE
  2
UCS
  5
7
100
AcDbSymbolTable
 70
0
  0
ENDTAB
  0
TABLE
  2
APPID
  5
9
100
AcDbSymbolTable
 70
1
  0
APPID
  5
20E
100
AcDbSymbolTableRecord
100
AcDbRegAppTableRecord
  2
ACAD
 70
0
  0
ENDTAB
  0
TABLE
  2
BLOCK_RECORD
  5
1
100
AcDbSymbolTable
 70
0
  0
BLOCK_RECORD
  5
20F
100
AcDbSymbolTableRecord
100
AcDbBlockTableRecord
  2
*Model_Space
  0
BLOCK_RECORD
  5
210
100
AcDbSymbolTableRecord
100
AcDbBlockTableRecord
  2
*Paper_Space
  0
BLOCK_RECORD
  5
211
100
AcDbSymbolTableRecord
100
AcDbBlockTableRecord
  2
_FILLED
  0
ENDTAB
  0
TABLE
  2
DIMSTYLE
  5
A
100
AcDbSymbolTable
 70
1
100
AcDbDimStyleTable
 71
0
  0
DIMSTYLE
105
212
100
AcDbSymbolTableRecord
100
AcDbDimStyleTableRecord
  2
STANDARD
 70
0
  3

  4

 40
1.0
 41
3.0
 42
0.5
 43
0.38
 44
1.5
 45
0.0
 46
0.0
 47
0.01
 48
0.01
140
3.0
141
0.09
142
0.0
143
25.4
144
1.0
145
0.0
146
1.0
147
0.625
 71
1
 72
0
 73
0
 74
0
 75
0
 76
0
 77
1
 78
8
 79
2
170
0
171
1
172
0
173
0
174
0
175
0
176
0
177
0
178
0
270
2
179
2
271
2
272
2
273
2
274
2
275
0
280
0
281
0
282
0
283
1
284
8
285
0
286
0
287
3
288
0
340
11
278
44
341
211
342
211
343
211
344
211
  0
ENDTAB
  0
ENDSEC
  0
SECTION
  2
BLOCKS
  0
BLOCK
  5
20
100
AcDbEntity
  8
0
100
AcDbBlockBegin
  2
*Model_Space
 70
0
 10
0.0
 20
0.0
 30
0.0
  3
*Model_Space
  1

  0
ENDBLK
  5
21
100
AcDbEntity
  8
0
100
AcDbBlockEnd
  0
BLOCK
  5
1C
100
AcDbEntity
  8
0
100
AcDbBlockBegin
  2
*Paper_Space
 70
0
 10
0.0
 20
0.0
 30
0.0
  3
*Paper_Space
  1

  0
ENDBLK
  5
1D
100
AcDbEntity
  8
0
100
AcDbBlockEnd
  0
BLOCK
  5
213
100
AcDbEntity
  8
0
100
AcDbBlockBegin
  2
_FILLED
 70
64
 10
0.0
 20
0.0
  3
_FILLED
  1

  0
SOLID
  5
214
100
AcDbEntity
  8
0
  6
BYBLOCK
 62
0
100
AcDbTrace
 10
0.0
 20
0.0
 11
-1.0
 21
0.3166666667
 12
-1.0
 22
-0.3166666667
 13
-1.0
 23
-0.3166666667
  0
ENDBLK
  5
215
100
AcDbEntity
  8
0
  6
BYBLOCK
 62
0
100
AcDbBlockEnd
  0
ENDSEC
  0
SECTION
  2
ENTITIES
  0
LINE
  5
216
100
AcDbEntity
  8
0
100
AcDbLine
 62
7
  6
CONTINUOUS
 10
-11.8316030026
 20
18.9493772574
 11
-7.9001447031
 21
22.8636421661
  0
LWPOLYLINE
  5
217
100
AcDbEntity
  8
0
100
AcDbPolyline
 62
250
  6
CONTINUOUS
 90
10
 70
0
 10
-11.831202885
 20
18.9497747834
 10
-11.8124181104
 20
18.966711101
 10
-11.7810232645
 20
18.9889041574
 10
-11.7463213197
 20
19.0067870767
 10
-11.7086920362
 20
19.0201641576
 10
-11.6685472095
 20
19.0288890082
 10
-11.6263261635
 20
19.0328661483
 10
-11.5824909436
 20
19.0320520542
 10
-11.5375212598
 20
19.026455635
 10
-11.491909237
 20
19.0161381349
  0
LINE
  5
218
100
AcDbEntity
  8
DRAFT
100
AcDbLine
 62
7
  6
CONTINUOUS
 10
-0.189208652
 20
23.7200300174
 11
-0.0940298511
 21
23.7569132492
  0
LINE
  5
219
100
AcDbEntity
  8
DRAFT
100
AcDbLine
 62
7
  6
CONTINUOUS
 10
-0.0940298511
 20
23.7569132492
 11
0.0014527758
 21
23.7932554045
  0
LINE
  5
21A
100
AcDbEntity
  8
DRAFT
100
AcDbLine
 62
7
  6
CONTINUOUS
 10
0.0014527758
 20
23.7932554045
 11
0.0972384189
 21
23.829056179
  0
LWPOLYLINE
  5
21B
100
AcDbEntity
  8
DRAFT
100
AcDbPolyline
 62
7
  6
CONTINUOUS
 90
3
 70
0
 10
0.0972384189
 20
23.829056179
 10
0.193323839
 20
23.8643143566
 10
0.2414791679
 20
23.8817400475
  0
LWPOLYLINE
  5
21C
100
AcDbEntity
  8
0
100
AcDbPolyline
 62
7
  6
CONTINUOUS
 90
10
 70
0
 10
6.4541984596
 20
-24.3718802122
 10
6.5123928085
 20
-24.385644948
 10
6.5764090574
 20
-24.3939424069
 10
6.6410636756
 20
-24.3953810908
 10
6.7067469993
 20
-24.3898329471
 10
6.772973375
 20
-24.377017039
 10
6.8388033321
 20
-24.3568422954
 10
6.9041580168
 20
-24.329028348
 10
6.9687541853
 20
-24.2932311269
 10
7.0200457372
 20
-24.2583085881
  0
LWPOLYLINE
  5
21D
100
AcDbEntity
  8
0
100
AcDbPolyline
 62
250
  6
CONTINUOUS
 90
13
 70
0
 10
-11.7392963092
 20
-19.1198812972
 10
-11.7548912405
 20
-19.1146054671
 10
-11.7866009886
 20
-19.0986668222
 10
-11.8161546276
 20
-19.0764051618
 10
-11.8433478157
 20
-19.0479788218
 10
-11.8680005886
 20
-19.0135792086
 10
-11.8899620648
 20
-18.9734205181
 10
-11.9090860257
 20
-18.9277544006
 10
-11.9252318286
 20
-18.8768953843
 10
-11.9382865332
 20
-18.8212070729
 10
-11.9481631564
 20
-18.7610760176
 10
-11.9547965595
 20
-18.6969015605
 10
-11.9581432792
 20
-18.6291173392
  0
LWPOLYLINE
  5
21E
100
AcDbEntity
  8
0
100
AcDbPolyline
 62
7
  6
CONTINUOUS
 90
14
 70
0
 10
-11.8311934661
 20
18.9497652958
 10
-11.8779401874
 20
18.8996517616
 10
-11.9266034726
 20
18.8388853333
 10
-11.9722890557
 20
18.7724330942
 10
-12.0147317799
 20
18.7007998126
 10
-12.0526666519
 20
18.6267180982
 10
-12.0859376985
 20
18.5516686059
 10
-12.1152748607
 20
18.4749145983
 10
-12.140747195
 20
18.3968284345
 10
-12.1622234112
 20
18.3182024966
 10
-12.1798145892
 20
18.2389057181
 10
-12.1935947262
 20
18.1579128027
 10
-12.2032245224
 20
18.0748700434
 10
-12.208239999
 20
17.9847926091
  0
LINE
  5
21F
100
AcDbEntity
  8
0
100
AcDbLine
 62
250
  6
CONTINUOUS
 10
-11.491909237
 20
19.0161381349
 11
-7.5588957541
 21
22.9319514257
  0
LWPOLYLINE
  5
220
100
AcDbEntity
  8
DRAFT
100
AcDbPolyline
 62
7
  6
CONTINUOUS
 90
10
 70
0
 10
-2.3403463139
 20
22.6956565559
 10
-2.1709257657
 20
22.7907197491
 10
-2.0002184415
 20
22.8838247709
 10
-1.8282243415
 20
22.9749716215
 10
-1.6549287218
 20
23.0641676682
 10
-1.4803463262
 20
23.1514055436
 10
-1.3045213858
 20
23.2366631457
 10
-1.1274686443
 20
23.3199331071
 10
-0.9491733581
 20
23.4012227952
 10
-0.7696355271
 20
23.48053221
  0
LINE
  5
221
100
AcDbEntity
  8
DRAFT
100
AcDbLine
 62
7
  6
CONTINUOUS
 10
-3.1418365858
 20
21.6568562758
 11
-3.0734947173
 21
21.6881964752
  0
LINE
  5
222
100
AcDbEntity
  8
DRAFT
100
AcDbLine
 62
7
  6
CONTINUOUS
 10
-3.0734947173
 20
21.6881964752
 11
-3.0049739138
 21
21.7192440204
  0
LINE
  5
223
100
AcDbEntity
  8
DRAFT
100
AcDbLine
 62
7
  6
CONTINUOUS
 10
-3.0049739138
 20
21.7192440204
 11
-2.9362744942
 21
21.7499987685
  0
LWPOLYLINE
  5
224
100
AcDbEntity
  8
DRAFT
100
AcDbPolyline
 62
7
  6
CONTINUOUS
 90
3
 70
0
 10
-2.9362744942
 20
21.7499987685
 10
-2.8673977331
 20
21.7804601468
 10
-2.8328927698
 20
21.7955808582
  0
LINE
  5
225
100
AcDbEntity
  8
DRAFT
100
AcDbLine
 62
7
  6
CONTINUOUS
 10
-2.1947743101
 20
22.058883573
 11
-2.1023006615
 21
22.0945379414
  0
LINE
  5
226
100
AcDbEntity
  8
DRAFT
100
AcDbLine
 62
7
  6
CONTINUOUS
 10
-2.1023006615
 20
22.0945379414
 11
-2.0095419602
 21
22.129683552
  0
LINE
  5
227
100
AcDbEntity
  8
DRAFT
100
AcDbLine
 62
7
  6
CONTINUOUS
 10
-2.0095419602
 20
22.129683552
 11
-1.9164989439
 21
22.1643201289
  0
LWPOLYLINE
  5
228
100
AcDbEntity
  8
DRAFT
100
AcDbPolyline
 62
7
  6
CONTINUOUS
 90
3
 70
0
 10
-1.9164989439
 20
22.1643201289
 10
-1.8231745625
 20
22.1984465691
 10
-1.7764066756
 20
22.2153185569
  0
LWPOLYLINE
  5
229
100
AcDbEntity
  8
0
100
AcDbPolyline
 62
250
  6
CONTINUOUS
 90
16
 70
0
 10
6.2293169611
 20
-23.8793848655
 10
6.2754157741
 20
-23.8910178972
 10
6.3236969227
 20
-23.9000135455
 10
6.3736430974
 20
-23.9062754264
 10
6.424719149
 20
-23.9097364466
 10
6.4763778222
 20
-23.9103595232
 10
6.5280656192
 20
-23.9081379804
 10
6.57922873
 20
-23.9030956209
 10
6.6293189664
 20
-23.8952864712
 10
6.6777996357
 20
-23.8847942026
 10
6.7241512909
 20
-23.8717312347
 10
6.7678772962
 20
-23.8562375309
 10
6.8085091485
 20
-23.8384790989
 10
6.845611497
 20
-23.8186462115
 10
6.8787868079
 20
-23.7969513689
 10
6.9076796237
 20
-23.7736270206
  0
LINE
  5
22A
100
AcDbEntity
  8
0
100
AcDbLine
 62
7
  6
CONTINUOUS
 10
6.454882898
 20
-24.3720884287
 11
-11.7392937975
 21
-19.1198820223
  0
LINE
  5
22B
100
AcDbEntity
  8
0
100
AcDbLine
 62
250
  6
CONTINUOUS
 10
6.2293169557
 20
-23.8793848705
 11
-11.9581432792
 21
-18.6291173392
  0
LWPOLYLINE
  5
22C
100
AcDbEntity
  8
0
100
AcDbPolyline
 62
250
  6
CONTINUOUS
 90
13
 70
0
 10
6.4542760041
 20
-24.3719121487
 10
6.4388180599
 20
-24.3666775911
 10
6.4061396953
 20
-24.3504637772
 10
6.3756831117
 20
-24.3279471354
 10
6.3476499963
 20
-24.2992768788
 10
6.3222264114
 20
-24.2646448667
 10
6.2995867659
 20
-24.2242815644
 10
6.2798812154
 20
-24.1784523264
 10
6.2632423172
 20
-24.1274659671
 10
6.2497882593
 20
-24.0716744252
 10
6.2396097442
 20
-24.0114573128
 10
6.2327710849
 20
-23.9472166486
 10
6.2293169557
 20
-23.8793848705
  0
LINE
  5
22D
100
AcDbEntity
  8
DRAFT
100
AcDbLine
 62
7
  6
CONTINUOUS
 10
-2.1947743101
 20
22.058883573
 11
-0.189208652
 21
23.7200300174
  0
LINE
  5
22E
100
AcDbEntity
  8
DRAFT
100
AcDbLine
 62
7
  6
CONTINUOUS
 10
-1.7764066756
 20
22.2153185569
 11
0.2414791679
 21
23.8817400475
  0
LINE
  5
22F
100
AcDbEntity
  8
DRAFT
100
AcDbLine
 62
7
  6
CONTINUOUS
 10
-0.4200603015
 20
24.3451946054
 11
-3.5564956129
 21
21.7765580263
  0
LINE
  5
230
100
AcDbEntity
  8
DRAFT
100
AcDbLine
 62
7
  6
CONTINUOUS
 10
-0.2645828863
 20
24.3956707127
 11
-2.3403463139
 21
22.6956565559
  0
LINE
  5
231
100
AcDbEntity
  8
DRAFT
100
AcDbLine
 62
7
  6
CONTINUOUS
 10
-2.8328927698
 20
21.7955808582
 11
-0.7696355271
 21
23.48053221
  0
LWPOLYLINE
  5
232
100
AcDbEntity
  8
DRAFT
100
AcDbPolyline
 62
7
  6
CONTINUOUS
 90
23
 70
0
 10
-2.294901576
 20
21.7351177419
 10
-2.3121827878
 20
21.7212888471
 10
-2.3315599591
 20
21.7082195253
 10
-2.3521337402
 20
21.6966627641
 10
-2.3736659453
 20
21.6867518313
 10
-2.3961675439
 20
21.6785059906
 10
-2.4196275665
 20
21.6719059784
 10
-2.4437749178
 20
21.667027271
 10
-2.4686175695
 20
21.663889878
 10
-2.49414755
 20
21.6624737898
 10
-2.5200698493
 20
21.6627944543
 10
-2.5463884092
 20
21.6648718484
 10
-2.5730992879
 20
21.6686859951
 10
-2.5998956499
 20
21.674192412
 10
-2.6267786422
 20
21.6814105106
 10
-2.6537471179
 20
21.6903208794
 10
-2.6804908004
 20
21.7008208003
 10
-2.7070069649
 20
21.7129284273
 10
-2.7332983363
 20
21.7266256065
 10
-2.7590628127
 20
21.7417551572
 10
-2.7841996934
 20
21.758264686
 10
-2.8088096791
 20
21.7762065863
 10
-2.8328927698
 20
21.7955808582
  0
LINE
  5
233
100
AcDbEntity
  8
DRAFT
100
AcDbLine
 62
7
  6
CONTINUOUS
 10
-0.9334718061
 20
21.9719842199
 11
0.5059467068
 21
22.9620442358
  0
LINE
  5
234
100
AcDbEntity
  8
0
100
AcDbLine
 62
7
  6
CONTINUOUS
 10
1.9400140222
 20
23.3914152699
 11
2.1062774758
 21
23.490487804
  0
LINE
  5
235
100
AcDbEntity
  8
DRAFT
100
AcDbLine
 62
7
  6
CONTINUOUS
 10
2.417009141
 20
23.6317274064
 11
2.2383008888
 21
23.4769615201
  0
LINE
  5
236
100
AcDbEntity
  8
DRAFT
100
AcDbLine
 62
7
  6
CONTINUOUS
 10
-0.9334718061
 20
21.0193562758
 11
0.5059467068
 21
22.1606737863
  0
LWPOLYLINE
  5
237
100
AcDbEntity
  8
0
100
AcDbPolyline
 62
7
  6
CONTINUOUS
 90
15
 70
0
 10
-12.2082198845
 20
-18.4065226338
 10
-12.2076219133
 20
-18.4254158511
 10
-12.20080081
 20
-18.5127635082
 10
-12.187497649
 20
-18.5955236402
 10
-12.1674510175
 20
-18.6745869178
 10
-12.1405069058
 20
-18.7495350984
 10
-12.1073620817
 20
-18.8184936047
 10
-12.0686854973
 20
-18.8808834881
 10
-12.0247280382
 20
-18.937037869
 10
-11.9766054174
 20
-18.9862392896
 10
-11.9264157151
 20
-19.0275029531
 10
-11.8740676719
 20
-19.0619820018
 10
-11.8172054826
 20
-19.0912953456
 10
-11.7551568533
 20
-19.1150425923
 10
-11.7387345367
 20
-19.1200243007
  0
LWPOLYLINE
  5
238
100
AcDbEntity
  8
0
100
AcDbPolyline
 62
7
  6
CONTINUOUS
 90
10
 70
0
 10
-12.2082312903
 20
17.9853137013
 10
-12.2917768112
 20
13.9267949266
 10
-12.3557892661
 20
9.8083529668
 10
-12.3984630378
 20
5.708210849
 10
-12.4197920054
 20
1.6267781973
 10
-12.4197746694
 20
-2.4356063822
 10
-12.3984104276
 20
-6.4786307669
 10
-12.3556995293
 20
-10.5019585503
 10
-12.2916468473
 20
-14.505190612
 10
-12.208219494
 20
-18.4066306693
  0
LWPOLYLINE
  5
239
100
AcDbEntity
  8
0
100
AcDbPolyline
 62
250
  6
CONTINUOUS
 90
19
 70
0
 10
-11.9581432792
 20
17.7756707982
 10
-11.9547965596
 20
17.8493741353
 10
-11.9481631565
 20
17.9252726521
 10
-11.9382865332
 20
18.0028574307
 10
-11.9252318286
 20
18.0816203297
 10
-11.9090860257
 20
18.1610201143
 10
-11.8899620648
 20
18.240485487
 10
-11.8680005885
 20
18.3194599535
 10
-11.8433478157
 20
18.3974369712
 10
-11.8161546276
 20
18.4739240332
 10
-11.7866009886
 20
18.5484199162
 10
-11.7548912405
 20
18.6204104639
 10
-11.7212342638
 20
18.6894026055
 10
-11.6858598485
 20
18.7549333131
 10
-11.6490089575
 20
18.8165617172
 10
-11.6109258239
 20
18.873864656
 10
-11.5718682905
 20
18.9264556513
 10
-11.5321055782
 20
18.9739860393
 10
-11.491909237
 20
19.0161381349
  0
LWPOLYLINE
  5
23A
100
AcDbEntity
  8
0
100
AcDbPolyline
 62
250
  6
CONTINUOUS
 90
11
 70
0
 10
-12.208219494
 20
-18.4066306693
 10
-12.2049255099
 20
-18.4338209772
 10
-12.1963063141
 20
-18.4607965566
 10
-12.1824590539
 20
-18.4870628713
 10
-12.1635320957
 20
-18.5123384904
 10
-12.1397282331
 20
-18.5363525978
 10
-12.1113025128
 20
-18.5588478939
 10
-12.0785595028
 20
-18.5795833523
 10
-12.0418500287
 20
-18.5983368024
 10
-12.0015674149
 20
-18.6149073103
 10
-11.9581432702
 20
-18.6291173307
  0
LWPOLYLINE
  5
23B
100
AcDbEntity
  8
0
100
AcDbPolyline
 62
250
  6
CONTINUOUS
 90
10
 70
0
 10
-11.9581432792
 20
-18.6291173392
 10
-12.0428004864
 20
-14.6621491097
 10
-12.1063000603
 20
-10.6748604584
 10
-12.1486362848
 20
-6.6675995819
 10
-12.1698053494
 20
-2.6407164466
 10
-12.1698053495
 20
1.4054373691
 10
-12.1486362851
 20
5.4705087072
 10
-12.1063000606
 20
9.554142691
 10
-12.0428004866
 20
13.6559827537
 10
-11.9581432792
 20
17.7756707982
  0
LWPOLYLINE
  5
23C
100
AcDbEntity
  8
0
100
AcDbPolyline
 62
250
  6
CONTINUOUS
 90
12
 70
0
 10
-12.208239999
 20
17.9847926091
 10
-12.2082221459
 20
17.9799805015
 10
-12.2049230632
 20
17.9557587699
 10
-12.1963036167
 20
17.9317301759
 10
-12.182456159
 20
17.9081521723
 10
-12.1635290578
 20
17.885277384
 10
-12.1397251062
 20
17.8633509017
 10
-12.1112993503
 20
17.842607655
 10
-12.0785563559
 20
17.8232698962
 10
-12.0418469458
 20
17.8055448182
 10
-12.0015644405
 20
17.7896223353
 10
-11.9581404445
 20
17.775673048
  0
LINE
  5
23D
100
AcDbEntity
  8
DRAFT
100
AcDbLine
 62
7
  6
CONTINUOUS
 10
4.2626806166
 20
20.4719842199
 11
5.3232621037
 21
21.5714050653
  0
LINE
  5
23E
100
AcDbEntity
  8
DRAFT
100
AcDbLine
 62
7
  6
CONTINUOUS
 10
8.9298070624
 20
21.7414789568
 11
7.9772629739
 21
20.9309496422
  0
LINE
  5
23F
100
AcDbEntity
  8
DRAFT
100
AcDbLine
 62
7
  6
CONTINUOUS
 10
5.1056154861
 20
20.228649883
 11
7.0877296426
 21
21.9053977703
  0
LINE
  5
240
100
AcDbEntity
  8
DRAFT
100
AcDbLine
 62
7
  6
CONTINUOUS
 10
5.5239831206
 20
19.8306702328
 11
6.416044036
 21
20.5774592779
  0
LWPOLYLINE
  5
241
100
AcDbEntity
  8
DRAFT
100
AcDbPolyline
 62
7
  6
CONTINUOUS
 90
3
 70
0
 10
6.416044036
 20
20.5774592779
 10
7.2990620701
 20
21.3129440909
 10
7.5184174625
 20
21.4950300114
  0
LINE
  5
242
100
AcDbEntity
  8
DRAFT
100
AcDbLine
 62
7
  6
CONTINUOUS
 10
6.5981032591
 20
19.5848017386
 11
8.0988443375
 21
20.9204225914
  0
LINE
  5
243
100
AcDbEntity
  8
DRAFT
100
AcDbLine
 62
7
  6
CONTINUOUS
 10
6.1621015803
 20
19.1989496535
 11
6.5981032591
 21
19.5848017386
  0
LINE
  5
244
100
AcDbEntity
  8
DRAFT
100
AcDbLine
 62
7
  6
CONTINUOUS
 10
8.9121996694
 20
21.7567274064
 11
7.9623681198
 21
20.9341491551
  0
LINE
  5
245
100
AcDbEntity
  8
RACCORDO
100
AcDbLine
 62
250
  6
CONTINUOUS
 10
11.6799204629
 20
-13.1347781618
 11
12.1800099257
 21
-13.2791415548
  0
LINE
  5
246
100
AcDbEntity
  8
RACCORDO
100
AcDbLine
 62
7
  6
CONTINUOUS
 10
11.8206916378
 20
-13.0880115017
 11
12.3144924037
 21
-13.2305595043
  0
LINE
  5
247
100
AcDbEntity
  8
DRAFT
100
AcDbLine
 62
7
  6
CONTINUOUS
 10
12.114815678
 20
20.7266875949
 11
9.1624630533
 21
18.1049109214
  0
LINE
  5
248
100
AcDbEntity
  8
DRAFT
100
AcDbLine
 62
7
  6
CONTINUOUS
 10
9.6695551244
 20
19.2286966417
 11
11.6290064828
 21
20.9622872008
  0
LINE
  5
249
100
AcDbEntity
  8
0
100
AcDbLine
 62
7
  6
CONTINUOUS
 10
7.3229313346
 20
21.9845695492
 11
7.1930967547
 21
21.8062107609
  0
LINE
  5
24A
100
AcDbEntity
  8
DRAFT
100
AcDbLine
 62
7
  6
CONTINUOUS
 10
7.9827944098
 20
22.0250235948
 11
7.5283110477
 21
21.4006822073
  0
LINE
  5
24B
100
AcDbEntity
  8
0
100
AcDbLine
 62
250
  6
CONTINUOUS
 10
6.7098630276
 20
13.7617390765
 11
10.8881045646
 21
17.6067611259
  0
LINE
  5
24C
100
AcDbEntity
  8
RACCORDO
100
AcDbLine
 62
7
  6
CONTINUOUS
 10
10.8922287319
 20
17.6021889993
 11
12.1800099257
 21
18.7637983852
  0
LINE
  5
24D
100
AcDbEntity
  8
0
100
AcDbLine
 62
250
  6
CONTINUOUS
 10
7.151530667
 20
13.2118913517
 11
11.3207876574
 21
17.0486453822
  0
LINE
  5
24E
100
AcDbEntity
  8
DRAFT
100
AcDbLine
 62
7
  6
CONTINUOUS
 10
-0.9334718061
 20
21.0193562758
 11
-0.9334718061
 21
21.9719842199
  0
LINE
  5
24F
100
AcDbEntity
  8
DRAFT
100
AcDbLine
 62
7
  6
CONTINUOUS
 10
0.5059467068
 20
22.1606737863
 11
0.5059467068
 21
22.9620442358
  0
LWPOLYLINE
  5
250
100
AcDbEntity
  8
DRAFT
100
AcDbPolyline
 62
7
  6
CONTINUOUS
 90
15
 70
0
 10
-2.1947743101
 20
22.058883573
 10
-2.1912992298
 20
22.030941752
 10
-2.1894941776
 20
22.0035477364
 10
-2.1893591537
 20
21.9767015262
 10
-2.1909062613
 20
21.9503145046
 10
-2.1941233972
 20
21.9244752885
 10
-2.1989742512
 20
21.8994497282
 10
-2.2054780429
 20
21.8752329564
 10
-2.2136155527
 20
21.8518298404
 10
-2.2232928121
 20
21.8295208323
 10
-2.2345274015
 20
21.8083221979
 10
-2.2473017406
 20
21.7882176714
 10
-2.2614691197
 20
21.7694389076
 10
-2.2770461124
 20
21.7520008588
 10
-2.294901576
 20
21.7351177419
  0
LWPOLYLINE
  5
251
100
AcDbEntity
  8
0
100
AcDbPolyline
 62
250
  6
CONTINUOUS
 90
10
 70
0
 10
6.2293169557
 20
-23.8793848705
 10
6.1393863183
 20
-19.9108943343
 10
6.0719316717
 20
-15.9224639529
 10
6.026958732
 20
-11.914441923
 10
6.00447131
 20
-7.8871782107
 10
6.00447131
 20
-3.8410243946
 10
6.0269587319
 20
0.2236663671
 10
6.0719316716
 20
4.3065391973
 10
6.1393863182
 20
8.4072375296
 10
6.2293169557
 20
12.5254032669
  0
LINE
  5
252
100
AcDbEntity
  8
DRAFT
100
AcDbLine
 62
7
  6
CONTINUOUS
 10
4.2626806166
 20
19.5193562758
 11
4.2626806166
 21
20.4719842199
  0
LWPOLYLINE
  5
253
100
AcDbEntity
  8
0
100
AcDbPolyline
 62
250
  6
CONTINUOUS
 90
19
 70
0
 10
6.2293169557
 20
12.5254032669
 10
6.232771085
 20
12.599095149
 10
6.2396097442
 20
12.6749459791
 10
6.2497882593
 20
12.7524459416
 10
6.2632423172
 20
12.8310776987
 10
6.2798812153
 20
12.9103084622
 10
6.2995867658
 20
12.989593362
 10
6.3222264114
 20
13.0683921379
 10
6.3476499963
 20
13.146181208
 10
6.3756831117
 20
13.2224453485
 10
6.4061396953
 20
13.2966687835
 10
6.4388180599
 20
13.3683546149
 10
6.4734981148
 20
13.4370346622
 10
6.5099565565
 20
13.5022531686
 10
6.5479474623
 20
13.5635595032
 10
6.587199132
 20
13.6205288869
 10
6.6274442592
 20
13.6727753478
 10
6.6684227484
 20
13.7199510974
 10
6.7098630276
 20
13.7617390765
  0
LWPOLYLINE
  5
254
100
AcDbEntity
  8
0
100
AcDbPolyline
 62
250
  6
CONTINUOUS
 90
10
 70
0
 10
6.9076796237
 20
-23.7736270206
 10
6.8178299919
 20
-19.8085336649
 10
6.7504427715
 20
-15.8242128245
 10
6.7055179622
 20
-11.8206644995
 10
6.6830555687
 20
-7.7975314195
 10
6.6830555863
 20
-3.7551708549
 10
6.705518002
 20
0.3053453833
 10
6.7504428112
 20
4.3836600248
 10
6.8178300185
 20
8.4801303399
 10
6.9076796237
 20
12.5947563286
  0
LWPOLYLINE
  5
255
100
AcDbEntity
  8
0
100
AcDbPolyline
 62
250
  6
CONTINUOUS
 90
19
 70
0
 10
6.9076796237
 20
12.5947563286
 10
6.9094722004
 20
12.6319079942
 10
6.9129225024
 20
12.6696520261
 10
6.9180305297
 20
12.7079884241
 10
6.9248538712
 20
12.7471961161
 10
6.933334938
 20
12.7869961742
 10
6.9433009635
 20
12.8265518159
 10
6.9547803232
 20
12.8658430553
 10
6.9677446416
 20
12.9048898782
 10
6.9819360251
 20
12.9429154588
 10
6.997378526
 20
12.9798982977
 10
7.0140480919
 20
13.0158598942
 10
7.0316146727
 20
13.0500879205
 10
7.0501038333
 20
13.0825573451
 10
7.0694900087
 20
13.1132931994
 10
7.0893664543
 20
13.1416582506
 10
7.1095975884
 20
13.1674400875
 10
7.1303189926
 20
13.1908511212
 10
7.151530667
 20
13.2118913517
  0
LWPOLYLINE
  5
256
100
AcDbEntity
  8
DRAFT
100
AcDbPolyline
 62
7
  6
CONTINUOUS
 90
19
 70
0
 10
7.5184174625
 20
21.4950300114
 10
7.521110265
 20
21.4473610169
 10
7.5284339796
 20
21.3998853059
 10
7.540388606
 20
21.3526028783
 10
7.5572170869
 20
21.3049801457
 10
7.5786764797
 20
21.2575506966
 10
7.604037957
 20
21.2119152964
 10
7.633427204
 20
21.1681457196
 10
7.6667185354
 20
21.1261701917
 10
7.7028060672
 20
21.0873741545
 10
7.7417813145
 20
21.0518609041
 10
7.7835527623
 20
21.0195271445
 10
7.8267399806
 20
20.9914484298
 10
7.8714009476
 20
20.9677633004
 10
7.9174776852
 20
20.948333216
 10
7.9634158294
 20
20.9338181096
 10
8.0086972588
 20
20.9244379589
 10
8.0538400949
 20
20.9199727861
 10
8.0988443375
 20
20.9204225914
  0
LINE
  5
257
100
AcDbEntity
  8
0
100
AcDbLine
 62
7
  6
CONTINUOUS
 10
11.3207876574
 20
17.0486453822
 11
11.3207876574
 21
-20.8828709202
  0
LINE
  5
258
100
AcDbEntity
  8
RACCORDO
100
AcDbLine
 62
7
  6
CONTINUOUS
 10
12.4224516608
 20
-14.4609526137
 11
12.4224516608
 21
-13.4934660226
  0
LINE
  5
259
100
AcDbEntity
  8
RACCORDO
100
AcDbLine
 62
7
  6
CONTINUOUS
 10
12.4224516608
 20
19.4154993212
 11
12.4224516608
 21
20.3829859122
  0
LWPOLYLINE
  5
25A
100
AcDbEntity
  8
0
100
AcDbPolyline
 62
250
  6
CONTINUOUS
 90
16
 70
0
 10
6.229328206
 20
12.5254121931
 10
6.2754262296
 20
12.5135186164
 10
6.3237064776
 20
12.5038750423
 10
6.3736516664
 20
12.4965847939
 10
6.4247266739
 20
12.4917259803
 10
6.476384273
 20
12.4893506598
 10
6.5280709944
 20
12.4894842822
 10
6.579233057
 20
12.4921254161
 10
6.6293223008
 20
12.4972457638
 10
6.6778020603
 20
12.5047904648
 10
6.7241529144
 20
12.5146786841
 10
6.7678782513
 20
12.5268044772
 10
6.8085095895
 20
12.5410379262
 10
6.8456115974
 20
12.5572265312
 10
6.878786757
 20
12.5751968445
 10
6.9076796235
 20
12.5947563287
  0
LINE
  5
25B
100
AcDbEntity
  8
0
100
AcDbLine
 62
250
  6
CONTINUOUS
 10
-11.9581432792
 20
17.7756707982
 11
6.2293169557
 21
12.5254032669
  0
LINE
  5
25C
100
AcDbEntity
  8
0
100
AcDbLine
 62
250
  6
CONTINUOUS
 10
-11.491909237
 20
19.0161381349
 11
6.7098630276
 21
13.7617390765
  0
LWPOLYLINE
  5
25D
100
AcDbEntity
  8
0
100
AcDbPolyline
 62
250
  6
CONTINUOUS
 90
16
 70
0
 10
6.7098630276
 20
13.7617390765
 10
6.7547091222
 20
13.7459435675
 10
6.7992076289
 20
13.7257127448
 10
6.842871579
 20
13.7012680042
 10
6.8852231369
 20
13.6728768563
 10
6.9257988289
 20
13.6408499992
 10
6.9641546156
 20
13.605537918
 10
6.9998707509
 20
13.5673270498
 10
7.0325563761
 20
13.5266355548
 10
7.0618537966
 20
13.4839087396
 10
7.0874423965
 20
13.4396141843
 10
7.1090421473
 20
13.3942366256
 10
7.1264166727
 20
13.3482726521
 10
7.1393758348
 20
13.3022252698
 10
7.1477778152
 20
13.2565983974
 10
7.151530667
 20
13.2118913517
  0
LINE
  5
25E
100
AcDbEntity
  8
RACCORDO
100
AcDbLine
 62
7
  6
CONTINUOUS
 10
12.3940478448
 20
-14.6090480211
 11
12.114815678
 21
-15.3596443006
  0
LINE
  5
25F
100
AcDbEntity
  8
RACCORDO
100
AcDbLine
 62
7
  6
CONTINUOUS
 10
11.3207876574
 20
-14.054180557
 11
12.1800099257
 21
-13.2791415548
  0
LINE
  5
260
100
AcDbEntity
  8
RACCORDO
100
AcDbLine
 62
7
  6
CONTINUOUS
 10
11.3207876574
 20
-13.4396214212
 11
11.6799204629
 21
-13.1347781618
  0
LWPOLYLINE
  5
261
100
AcDbEntity
  8
DRAFT
100
AcDbPolyline
 62
7
  6
CONTINUOUS
 90
37
 70
0
 10
6.1621015803
 20
19.1989496535
 10
6.1380184351
 20
19.193479575
 10
6.1134078599
 20
19.1897462304
 10
6.0882698548
 20
19.1877496196
 10
6.0625035476
 20
19.1874954487
 10
6.0362098104
 20
19.1889780117
 10
6.0096912599
 20
19.1921801903
 10
5.9829451318
 20
19.1971218565
 10
5.9559741903
 20
19.2037831382
 10
5.9290893447
 20
19.2120873013
 10
5.902291872
 20
19.2220531609
 10
5.8755804952
 20
19.2336619019
 10
5.8492622928
 20
19.2467803453
 10
5.8233414446
 20
19.2614260627
 10
5.7978137709
 20
19.2775814825
 10
5.7729738109
 20
19.2950607115
 10
5.7488295935
 20
19.3138789921
 10
5.7253730899
 20
19.3340210819
 10
5.702874753
 20
19.3552553601
 10
5.6813454705
 20
19.3775946634
 10
5.6607743548
 20
19.4010261552
 10
5.6413991958
 20
19.4252797052
 10
5.6232337533
 20
19.4503651697
 10
5.6062642674
 20
19.4762726923
 10
5.5906872493
 20
19.5027025742
 10
5.5765191336
 20
19.5296604421
 10
5.5637434856
 20
19.5571406692
 10
5.5525075118
 20
19.5848266761
 10
5.5428288451
 20
19.612724721
 10
5.5346898525
 20
19.6408285457
 10
5.5281848423
 20
19.6688027957
 10
5.5233331728
 20
19.6966314745
 10
5.5201154856
 20
19.7243305785
 10
5.5185680135
 20
19.7516127428
 10
5.5187028341
 20
19.7783821792
 10
5.5205078698
 20
19.8047346758
 10
5.5239831206
 20
19.8306702328
  0
LINE
  5
262
100
AcDbEntity
  8
DRAFT
100
AcDbLine
 62
7
  6
CONTINUOUS
 10
5.1056154861
 20
20.228649883
 11
5.2457077543
 21
20.0967691463
  0
LINE
  5
263
100
AcDbEntity
  8
DRAFT
100
AcDbLine
 62
7
  6
CONTINUOUS
 10
5.2457077543
 20
20.0967691463
 11
5.3851658451
 21
19.9641071581
  0
LINE
  5
264
100
AcDbEntity
  8
DRAFT
100
AcDbLine
 62
7
  6
CONTINUOUS
 10
5.3851658451
 20
19.9641071581
 11
5.5239831206
 21
19.8306702328
  0
LINE
  5
265
100
AcDbEntity
  8
DRAFT
100
AcDbLine
 62
7
  6
CONTINUOUS
 10
6.1621015803
 20
19.1989496535
 11
6.2998552087
 21
19.0584947546
  0
LWPOLYLINE
  5
266
100
AcDbEntity
  8
DRAFT
100
AcDbPolyline
 62
7
  6
CONTINUOUS
 90
3
 70
0
 10
6.2998552087
 20
19.0584947546
 10
6.4368968156
 20
18.9172786555
 10
6.4710453962
 20
18.8818562758
  0
LINE
  5
267
100
AcDbEntity
  8
DRAFT
100
AcDbLine
 62
7
  6
CONTINUOUS
 10
11.3207876574
 20
-16.0869883421
 11
12.114815678
 21
-15.3596443006
  0
LINE
  5
268
100
AcDbEntity
  8
DRAFT
100
AcDbLine
 62
7
  6
CONTINUOUS
 10
-7.5588957541
 20
22.9319514257
 11
-0.9334718061
 21
21.0193562758
  0
LINE
  5
269
100
AcDbEntity
  8
DRAFT
100
AcDbLine
 62
7
  6
CONTINUOUS
 10
4.2626806166
 20
19.5193562758
 11
10.8881045646
 21
17.6067611259
  0
LWPOLYLINE
  5
26A
100
AcDbEntity
  8
DRAFT
100
AcDbPolyline
 62
7
  6
CONTINUOUS
 90
6
 70
0
 10
-0.7696355271
 20
23.48053221
 10
-0.7246312844
 20
23.4540991931
 10
-0.6794884483
 20
23.4325011373
 10
-0.6342070189
 20
23.4157380425
 10
-0.5882688747
 20
23.403730749
 10
-0.5734325746
 20
23.4014213217
  0
LINE
  5
26B
100
AcDbEntity
  8
DRAFT
100
AcDbLine
 62
7
  6
CONTINUOUS
 10
7.9827944098
 20
22.0250235948
 11
7.3229313346
 21
21.9845695492
  0
LINE
  5
26C
100
AcDbEntity
  8
DRAFT
100
AcDbLine
 62
7
  6
CONTINUOUS
 10
-1.7764066756
 20
22.2153185569
 11
-0.9334718061
 21
21.9719842199
  0
LINE
  5
26D
100
AcDbEntity
  8
DRAFT
100
AcDbLine
 62
7
  6
CONTINUOUS
 10
4.2626806166
 20
20.4719842199
 11
5.1056154861
 21
20.228649883
  0
LINE
  5
26E
100
AcDbEntity
  8
DRAFT
100
AcDbLine
 62
7
  6
CONTINUOUS
 10
4.7185892758
 20
20.9445886257
 11
0.5059467068
 21
22.1606737863
  0
LINE
  5
26F
100
AcDbEntity
  8
DRAFT
100
AcDbLine
 62
7
  6
CONTINUOUS
 10
7.0877296426
 20
21.9053977703
 11
7.2319703916
 21
21.7694364665
  0
LINE
  5
270
100
AcDbEntity
  8
DRAFT
100
AcDbLine
 62
7
  6
CONTINUOUS
 10
7.2319703916
 20
21.7694364665
 11
7.3755354276
 21
21.6326448987
  0
LINE
  5
271
100
AcDbEntity
  8
DRAFT
100
AcDbLine
 62
7
  6
CONTINUOUS
 10
7.3755354276
 20
21.6326448987
 11
7.5184174625
 21
21.4950300114
  0
LWPOLYLINE
  5
272
100
AcDbEntity
  8
DRAFT
100
AcDbPolyline
 62
7
  6
CONTINUOUS
 90
10
 70
0
 10
8.0988443375
 20
20.9204225914
 10
8.2783821686
 20
20.7374569616
 10
8.4566774548
 20
20.553228442
 10
8.6337301963
 20
20.3677370326
 10
8.8095551367
 20
20.1809668539
 10
8.9841375323
 20
19.9929337854
 10
9.1574331519
 20
19.803685466
 10
9.329427252
 20
19.6132377754
 10
9.5001345762
 20
19.421574834
 10
9.6695551244
 20
19.2286966417
  0
LWPOLYLINE
  5
273
100
AcDbEntity
  8
0
100
AcDbPolyline
 62
250
  6
CONTINUOUS
 90
9
 70
0
 10
7.021412296
 20
-24.2573126901
 10
7.032558827
 20
-24.2485957204
 10
7.0618559284
 20
-24.220989969
 10
7.0874441204
 20
-24.1893918947
 10
7.1090434205
 20
-24.1541473203
 10
7.1264174962
 20
-24.1156419778
 10
7.1393762606
 20
-24.0742972734
 10
7.1477779493
 20
-24.0305656725
 10
7.151530667
 20
-23.9849257555
  0
LINE
  5
274
100
AcDbEntity
  8
0
100
AcDbLine
 62
250
  6
CONTINUOUS
 10
11.3207876574
 20
-20.8828709202
 11
7.151530667
 21
-23.9849257555
  0
LINE
  5
275
100
AcDbEntity
  8
0
100
AcDbLine
 62
7
  6
CONTINUOUS
 10
11.1987785803
 20
-21.1492242919
 11
7.021412296
 21
-24.2573126901
  0
LWPOLYLINE
  5
276
100
AcDbEntity
  8
0
100
AcDbPolyline
 62
250
  6
CONTINUOUS
 90
19
 70
0
 10
7.151530667
 20
-23.9849257555
 10
7.1303189927
 20
-23.9991876793
 10
7.1095975884
 20
-24.0102628535
 10
7.0893664543
 20
-24.0181512779
 10
7.0694900087
 20
-24.0228661874
 10
7.0501038332
 20
-24.0243943473
 10
7.0316146727
 20
-24.0226960534
 10
7.0140480918
 20
-24.0177037271
 10
6.9973785259
 20
-24.009484947
 10
6.9819360251
 20
-23.9982027454
 10
6.9677446417
 20
-23.9837955931
 10
6.9547803233
 20
-23.9663250192
 10
6.9433009636
 20
-23.9461386427
 10
6.9333349381
 20
-23.9231692528
 10
6.9248538711
 20
-23.8974840603
 10
6.9180305296
 20
-23.8696323157
 10
6.9129225023
 20
-23.8397971027
 10
6.9094722003
 20
-23.8077953377
 10
6.9076796237
 20
-23.7736270206
  0
LINE
  5
277
100
AcDbEntity
  8
DRAFT
100
AcDbLine
 62
7
  6
CONTINUOUS
 10
3.3464144007
 20
23.363431218
 11
2.1062774758
 21
23.490487804
  0
LINE
  5
278
100
AcDbEntity
  8
DRAFT
100
AcDbLine
 62
7
  6
CONTINUOUS
 10
0.5059467068
 20
22.9620442358
 11
5.3232621037
 21
21.5714050653
  0
LINE
  5
279
100
AcDbEntity
  8
DRAFT
100
AcDbLine
 62
7
  6
CONTINUOUS
 10
0.2414791679
 20
23.8817400475
 11
7.0877296426
 21
21.9053977703
  0
LINE
  5
27A
100
AcDbEntity
  8
0
100
AcDbLine
 62
7
  6
CONTINUOUS
 10
7.3229313346
 20
21.9845695492
 11
2.1062774758
 21
23.490487804
  0
LINE
  5
27B
100
AcDbEntity
  8
DRAFT
100
AcDbLine
 62
7
  6
CONTINUOUS
 10
11.6290064828
 20
20.9622872008
 11
8.9298070624
 21
21.7414789568
  0
LINE
  5
27C
100
AcDbEntity
  8
DRAFT
100
AcDbLine
 62
7
  6
CONTINUOUS
 10
2.4082054446
 20
23.6241031816
 11
-0.2645828863
 21
24.3956707127
  0
LINE
  5
27D
100
AcDbEntity
  8
DRAFT
100
AcDbLine
 62
7
  6
CONTINUOUS
 10
8.9121996694
 20
21.7567274064
 11
2.417009141
 21
23.6317274064
  0
LINE
  5
27E
100
AcDbEntity
  8
DRAFT
100
AcDbLine
 62
7
  6
CONTINUOUS
 10
8.9121996694
 20
21.7567274064
 11
8.9298070624
 21
21.7414789568
  0
LINE
  5
27F
100
AcDbEntity
  8
RACCORDO
100
AcDbLine
 62
7
  6
CONTINUOUS
 10
12.114815678
 20
20.7266875949
 11
12.3940478448
 21
20.479839479
  0
ELLIPSE
  5
280
100
AcDbEntity
  8
0
100
AcDbEllipse
 62
7
  6
CONTINUOUS
 10
-7.5585001851
 20
22.4982302896
 30
0.0
 11
-0.3268304148
 21
0.3791392952
 31
0.0
 40
0.7494504149
 41
-0.8542338901
 42
0.0538274293
  0
ELLIPSE
  5
281
100
AcDbEntity
  8
0
100
AcDbEllipse
 62
7
  6
CONTINUOUS
 10
10.8877089956
 20
-20.7574558276
 30
0.0
 11
-0.3268304148
 21
0.3791392952
 31
0.0
 40
0.7494504149
 41
-3.1954200739
 42
-2.4259436054
  0
ELLIPSE
  5
282
100
AcDbEntity
  8
0
100
AcDbEllipse
 62
7
  6
CONTINUOUS
 10
10.8877089956
 20
17.1732683716
 30
0.0
 11
-0.3266993775
 21
0.3786546485
 31
0.0
 40
0.7508075094
 41
-2.4254825658
 42
-0.8555996275
  0
ELLIPSE
  5
283
100
AcDbEntity
  8
RACCORDO
100
AcDbEllipse
 62
7
  6
CONTINUOUS
 10
11.6799204629
 20
-13.5677908637
 30
0.0
 11
0.1412727446
 21
0.4796331008
 31
0.0
 40
0.4395474798
 41
0.0023767833
 42
0.5903798325
  0
ELLIPSE
  5
284
100
AcDbEntity
  8
DRAFT
100
AcDbEllipse
 62
7
  6
CONTINUOUS
 10
6.2818228996
 20
16.5347005106
 30
0.0
 11
27.3713713247
 21
-12.5056573451
 31
0.0
 40
0.2087225594
 41
1.452104168
 42
1.4701499808
  0
ELLIPSE
  5
285
100
AcDbEntity
  8
DRAFT
100
AcDbEllipse
 62
7
  6
CONTINUOUS
 10
25.7673944848
 20
10.9097005106
 30
0.0
 11
27.3713713247
 21
-12.5056573451
 31
0.0
 40
0.2087225594
 41
2.9089229157
 42
2.9269687286
  0
ELLIPSE
  5
286
100
AcDbEntity
  8
RACCORDO
100
AcDbEllipse
 62
7
  6
CONTINUOUS
 10
12.1800099257
 20
19.1968110871
 30
0.0
 11
0.1335836931
 21
0.481849059
 31
0.0
 40
0.4198825747
 41
-2.5580389917
 42
-0.987242665
  0
ELLIPSE
  5
287
100
AcDbEntity
  8
RACCORDO
100
AcDbEllipse
 62
7
  6
CONTINUOUS
 10
12.3254749668
 20
20.2955106186
 30
0.0
 11
0.0534334772
 21
0.1927396236
 31
0.0
 40
0.4198825747
 41
-0.987242665
 42
-0.2018445016
  0
ELLIPSE
  5
288
100
AcDbEntity
  8
RACCORDO
100
AcDbEllipse
 62
7
  6
CONTINUOUS
 10
12.3254749668
 20
-14.5484279073
 30
0.0
 11
0.0534334772
 21
0.1927396236
 31
0.0
 40
0.4198825747
 41
-1.7726408283
 42
-0.987242665
  0
ELLIPSE
  5
289
100
AcDbEntity
  8
RACCORDO
100
AcDbEllipse
 62
7
  6
CONTINUOUS
 10
12.1800099257
 20
-13.7121542567
 30
0.0
 11
0.1335836931
 21
0.481849059
 31
0.0
 40
0.4198825747
 41
5.2959426422
 42
6.866738969
  0
ENDSEC
  0
SECTION
  2
OBJECTS
  0
DICTIONARY
  5
C
100
AcDbDictionary
280
0
281
1
  3
ACAD_GROUP
350
D
  3
ACAD_MLINESTYLE
350
17
  3
ACAD_LAYOUT
350
1A
  3
ACAD_PLOTSETTINGS
350
19
  3
ACAD_PLOTSTYLENAME
350
E
  0
DICTIONARY
  5
D
102
{ACAD_REACTORS
330
C
102
}
100
AcDbDictionary
280
0
281
1
  0
ACDBDICTIONARYWDFLT
  5
E
102
{ACAD_REACTORS
330
C
102
}
100
AcDbDictionary
281
1
  3
Normal
350
F
100
AcDbDictionaryWithDefault
340
F
  0
DICTIONARY
  5
17
102
{ACAD_REACTORS
330
C
102
}
100
AcDbDictionary
280
0
281
1
  3
Standard
350
18
  0
DICTIONARY
  5
19
102
{ACAD_REACTORS
330
C
102
}
100
AcDbDictionary
281
1
  0
DICTIONARY
  5
1A
102
{ACAD_REACTORS
330
C
102
}
100
AcDbDictionary
281
1
  3
Model
350
28A
  3
Layout1
350
28B
  0
ACDBPLACEHOLDER
  5
F
102
{ACAD_REACTORS
330
E
102
}
  0
MLINESTYLE
  5
18
102
{ACAD_REACTORS
330
17
102
}
100
AcDbMlineStyle
  2
STANDARD
 70
0
  3

 62
256
 51
90.0
 52
90.0
 71
2
 49
0.5
 62
256
  6
BYLAYER
 49
-0.5
 62
256
  6
BYLAYER
  0
LAYOUT
  5
28A
102
{ACAD_REACTORS
330
1A
102
}
100
AcDbPlotSettings
  1

  2
none_device
  4
ISO_A4_(297.00_x_210.00_MM)
  6

 40
0.0
 41
0.0
 42
0.0
 43
0.0
 44
297.0
 45
210.0
 46
0.0
 47
0.0
 48
0.0
 49
0.0
140
0.0
141
0.0
142
1.0
143
1.0
 70
1024
 72
1
 73
0
 74
0
  7

 75
0
147
1.0
148
0.0
149
0.0
100
AcDbLayout
  1
Model
 70
0
 71
0
 10
0.0
 20
0.0
 11
297.0
 21
210.0
 12
0.0
 22
0.0
 32
0.0
 14
0.0
 24
0.0
 34
0.0
 15
0.0
 25
0.0
 35
0.0
146
0.0
 13
0.0
 23
0.0
 33
0.0
 16
1.0
 26
0.0
 36
0.0
 17
0.0
 27
1.0
 37
0.0
 76
0
330
20F
345
0
346
0
  0
LAYOUT
  5
28B
102
{ACAD_REACTORS
330
1A
102
}
100
AcDbPlotSettings
  1

  2
none_device
  4
ISO_A4_(297.00_x_210.00_MM)
  6

 40
0.0
 41
0.0
 42
0.0
 43
0.0
 44
297.0
 45
210.0
 46
0.0
 47
0.0
 48
0.0
 49
0.0
140
0.0
141
0.0
142
1.0
143
1.0
 70
0
 72
1
 73
0
 74
0
  7

 75
0
147
1.0
148
0.0
149
0.0
100
AcDbLayout
  1
Layout1
 70
0
 71
1
 10
0.0
 20
0.0
 11
297.0
 21
210.0
 12
0.0
 22
0.0
 32
0.0
 14
0.0
 24
0.0
 34
0.0
 15
0.0
 25
0.0
 35
0.0
146
0.0
 13
0.0
 23
0.0
 33
0.0
 16
1.0
 26
0.0
 36
0.0
 17
0.0
 27
1.0
 37
0.0
 76
0
330
210
345
0
346
0
  0
ENDSEC
  0
EOF
