0
SECTION
2
HEADER
9
$ACADVER
1
AC1015
9
$DWGCODEPAGE
3
ANSI_1252
9
$EXTMAX
10
297.0000000000
20
210.0000000000
30
0.0000000000
9
$EXTMIN
10
0.0000000000
20
0.0000000000
30
0.0000000000
9
$LIMMIN
10
0.0000000000
20
0.0000000000
9
$LIMMAX
10
297.0000000000
20
210.0000000000
9
$VIEWCTR
10
148.5000000000
20
105.0000000000
9
$VIEWSIZE
40
210.0000000000
9
$CLAYER
8
0
9
$LTSCALE
40
16.3350000000
9
$CELTYPE
6
BYLAYER
9
$DIMSCALE
40
1
9
$DIMASZ
40
3.0000000000
9
$DIMEXO
40
1.8562500000
9
$DIMDLI
40
11.2860000000
9
$DIMEXE
40
5.3460000000
9
$DIMCEN
40
2.6730000000
9
$DIMLFAC
40
1.0000000000
9
$DIMBLK
1
_FILLED
9
$DIMTXT
40
3.0000000000
9
$DIMTOL
70
1
9
$DIMLIM
70
0
9
$DIMTFAC
40
1.0000000000
9
$DIMTP
40
0.0100000000
9
$DIMTM
40
0.0100000000
9
$PDMODE
70
3
9
$PDSIZE
40
3.0000000000
9
$HANDSEED
5
35A
9
$MEASUREMENT
70
1
9
$INSUNITS
70
4
0
ENDSEC
0
SECTION
2
CLASSES
0
CLASS
1
ACDBDICTIONARYWDFLT
2
AcDbDictionaryWithDefault
3
AutoCAD 2000
90
0
280
0
281
0
0
CLASS
1
ACDBPLACEHOLDER
2
AcDbPlaceHolder
3
AutoCAD 2000
90
0
280
0
281
0
0
CLASS
1
LAYOUT
2
AcDbLayout
3
AutoCAD 2000
90
0
280
0
281
0
0
ENDSEC
0
SECTION
2
TABLES
0
TABLE
2
VPORT
5
8
100
AcDbSymbolTable
70
2
0
VPORT
5
1F4
100
AcDbSymbolTableRecord
100
AcDbViewportTableRecord
2
*ACTIVE
70
0
10
0.0
20
0.0
11
1.0
21
1.0
12
148.5000000000
22
105.0000000000
13
0.0
23
0.0
14
1.0
24
1.0
15
0.0
25
0.0
16
0.0
26
0.0
36
1.0
17
0.0
27
0.0
37
0.0
40
210.0000000000
41
1.4142857143
42
50.0
43
0.0
44
0.0
50
0.0
51
0.0
71
0
72
100
73
1
74
1
75
0
76
0
77
0
78
0
0
ENDTAB
0
TABLE
2
LTYPE
5
5
100
AcDbSymbolTable
70
6
0
LTYPE
5
14
100
AcDbSymbolTableRecord
100
AcDbLinetypeTableRecord
2
BYBLOCK
70
0
3

72
65
73
0
40
0.0
0
LTYPE
5
15
100
AcDbSymbolTableRecord
100
AcDbLinetypeTableRecord
2
BYLAYER
70
0
3

72
65
73
0
40
0.0
0
LTYPE
5
16
100
AcDbSymbolTableRecord
100
AcDbLinetypeTableRecord
2
CONTINUOUS
70
64
3
Solid line
72
65
73
0
40
0
0
LTYPE
5
1F5
100
AcDbSymbolTableRecord
100
AcDbLinetypeTableRecord
2
CENTER
70
64
3
____ _ ____ _ ____ _ ____ _ ____ _ ____ _ ____
72
65
73
4
40
0.6
49
0.375
74
0
49
-0.075
74
0
49
0.075
74
0
49
-0.075
74
0
0
LTYPE
5
1F6
100
AcDbSymbolTableRecord
100
AcDbLinetypeTableRecord
2
HIDDEN
70
64
3
- - - - - - - - - - - - - - - - - - - -
72
65
73
2
40
0.2
49
0.1
74
0
49
-0.1
74
0
0
LTYPE
5
1F7
100
AcDbSymbolTableRecord
100
AcDbLinetypeTableRecord
2
PHANTOM
70
64
3
_____ _ _ _____ _ _ _____ _ _ _____
72
65
73
6
40
0.8
49
0.45
74
0
49
-0.05
74
0
49
0.1
74
0
49
-0.05
74
0
49
0.1
74
0
49
-0.05
74
0
0
LTYPE
5
1F8
100
AcDbSymbolTableRecord
100
AcDbLinetypeTableRecord
2
DOT
70
64
3
. . . . . . . . . . . . . . . . . . . .
72
65
73
2
40
0.2
49
0.1
74
0
49
-0.1
74
0
0
LTYPE
5
1F9
100
AcDbSymbolTableRecord
100
AcDbLinetypeTableRecord
2
DASHED
70
64
3
- - - - - - - - - - - - - - - - - - - -
72
65
73
2
40
0.2
49
0.1
74
0
49
-0.1
74
0
0
ENDTAB
0
TABLE
2
LAYER
5
2
100
AcDbSymbolTable
70
36
0
LAYER
5
10
100
AcDbSymbolTableRecord
100
AcDbLayerTableRecord
2
0
70
0
62
7
6
CONTINUOUS
370
-3
390
F
0
LAYER
5
1FA
100
AcDbSymbolTableRecord
100
AcDbLayerTableRecord
2
DEFAULT_1
70
0
62
7
6
CENTER
370
-3
390
F
0
LAYER
5
1FB
100
AcDbSymbolTableRecord
100
AcDbLayerTableRecord
2
DEFAULT_2
70
0
62
9
6
HIDDEN
370
-3
390
F
0
LAYER
5
1FC
100
AcDbSymbolTableRecord
100
AcDbLayerTableRecord
2
DEFAULT_3
70
0
62
7
6
PHANTOM
370
-3
390
F
0
LAYER
5
1FD
100
AcDbSymbolTableRecord
100
AcDbLayerTableRecord
2
_BLACK_HOLE
70
0
62
7
6
CONTINUOUS
370
-3
390
F
0
LAYER
5
1FE
100
AcDbSymbolTableRecord
100
AcDbLayerTableRecord
2
ASSI
70
0
62
7
6
CONTINUOUS
370
-3
390
F
0
LAYER
5
1FF
100
AcDbSymbolTableRecord
100
AcDbLayerTableRecord
2
COLOR5
70
0
62
7
6
CONTINUOUS
370
-3
390
F
0
LAYER
5
200
100
AcDbSymbolTableRecord
100
AcDbLayerTableRecord
2
COORDINATE
70
0
62
7
6
CONTINUOUS
370
-3
390
F
0
LAYER
5
201
100
AcDbSymbolTableRecord
100
AcDbLayerTableRecord
2
COORD_ORIGINE
70
0
62
7
6
CONTINUOUS
370
-3
390
F
0
LAYER
5
202
100
AcDbSymbolTableRecord
100
AcDbLayerTableRecord
2
CURVE
70
0
62
7
6
CONTINUOUS
370
-3
390
F
0
LAYER
5
203
100
AcDbSymbolTableRecord
100
AcDbLayerTableRecord
2
DRAFT
70
0
62
7
6
CONTINUOUS
370
-3
390
F
0
LAYER
5
204
100
AcDbSymbolTableRecord
100
AcDbLayerTableRecord
2
IMPORT_FEATURES
70
0
62
7
6
CONTINUOUS
370
-3
390
F
0
LAYER
5
205
100
AcDbSymbolTableRecord
100
AcDbLayerTableRecord
2
INTF_1
70
0
62
7
6
CONTINUOUS
370
-3
390
F
0
LAYER
5
206
100
AcDbSymbolTableRecord
100
AcDbLayerTableRecord
2
NOTE
70
0
62
7
6
CONTINUOUS
370
-3
390
F
0
LAYER
5
207
100
AcDbSymbolTableRecord
100
AcDbLayerTableRecord
2
PIANI
70
0
62
7
6
CONTINUOUS
370
-3
390
F
0
LAYER
5
208
100
AcDbSymbolTableRecord
100
AcDbLayerTableRecord
2
PIANI_ORIGINE
70
0
62
7
6
CONTINUOUS
370
-3
390
F
0
LAYER
5
209
100
AcDbSymbolTableRecord
100
AcDbLayerTableRecord
2
PUNTI
70
0
62
7
6
CONTINUOUS
370
-3
390
F
0
LAYER
5
20A
100
AcDbSymbolTableRecord
100
AcDbLayerTableRecord
2
RACCORDO
70
0
62
7
6
CONTINUOUS
370
-3
390
F
0
LAYER
5
20B
100
AcDbSymbolTableRecord
100
AcDbLayerTableRecord
2
RGB____0____0____0__
70
0
62
7
6
CONTINUOUS
370
-3
390
F
0
LAYER
5
20C
100
AcDbSymbolTableRecord
100
AcDbLayerTableRecord
2
SMUSSO
70
0
62
7
6
CONTINUOUS
370
-3
390
F
0
LAYER
5
20D
100
AcDbSymbolTableRecord
100
AcDbLayerTableRecord
2
SUPERFICI
70
0
62
7
6
CONTINUOUS
370
-3
390
F
0
LAYER
5
20E
100
AcDbSymbolTableRecord
100
AcDbLayerTableRecord
2
TRASH
70
0
62
7
6
CONTINUOUS
370
-3
390
F
0
LAYER
5
20F
100
AcDbSymbolTableRecord
100
AcDbLayerTableRecord
2
XSEC_DATUMS
70
0
62
7
6
CONTINUOUS
370
-3
390
F
0
ENDTAB
0
TABLE
2
STYLE
5
3
100
AcDbSymbolTable
70
1
0
STYLE
5
11
100
AcDbSymbolTableRecord
100
AcDbTextStyleTableRecord
2
STANDARD
70
0
40
0.0
41
0.8000000000
50
0.0
71
0
42
0.2
3
txt
4

0
ENDTAB
0
TABLE
2
VIEW
5
6
100
AcDbSymbolTable
70
0
0
ENDTAB
0
TABLE
2
UCS
5
7
100
AcDbSymbolTable
70
0
0
ENDTAB
0
TABLE
2
APPID
5
9
100
AcDbSymbolTable
70
1
0
APPID
5
210
100
AcDbSymbolTableRecord
100
AcDbRegAppTableRecord
2
ACAD
70
0
0
ENDTAB
0
TABLE
2
BLOCK_RECORD
5
1
100
AcDbSymbolTable
70
0
0
BLOCK_RECORD
5
1F
100
AcDbSymbolTableRecord
100
AcDbBlockTableRecord
2
*MODEL_SPACE
0
BLOCK_RECORD
5
1B
100
AcDbSymbolTableRecord
100
AcDbBlockTableRecord
2
*PAPER_SPACE
0
ENDTAB
0
TABLE
2
DIMSTYLE
5
A
100
AcDbSymbolTable
70
1
100
AcDbDimStyleTable
71
0
0
DIMSTYLE
105
211
100
AcDbSymbolTableRecord
100
AcDbDimStyleTableRecord
2
STANDARD
70
0
3

4

40
1.0
41
3.0000000000
42
0.0625
43
0.38
44
0.18
45
0.0
46
0.0
47
0.0100000000
48
0.0100000000
140
3.0000000000
141
0.09
142
0.0
143
25.4
144
1.0000000000
145
0.0
146
1.0000000000
147
0.09
71
1
72
0
73
0
74
0
75
0
76
0
77
1
78
8
170
0
171
2
172
0
173
0
174
0
175
0
176
0
177
0
178
0
270
2
271
2
272
2
273
2
274
2
275
0
280
0
281
0
282
0
283
1
284
8
285
0
286
0
287
3
288
0
340
11
0
ENDTAB
0
ENDSEC
0
SECTION
2
BLOCKS
0
BLOCK
5
20
100
AcDbEntity
8
0
100
AcDbBlockBegin
2
*MODEL_SPACE
70
0
10
0.0
20
0.0
30
0.0
3
*MODEL_SPACE
1

0
ENDBLK
5
21
100
AcDbEntity
8
0
100
AcDbBlockEnd
0
BLOCK
5
1C
100
AcDbEntity
8
0
100
AcDbBlockBegin
2
*PAPER_SPACE
70
0
10
0.0
20
0.0
30
0.0
3
*PAPER_SPACE
1

0
ENDBLK
5
1D
100
AcDbEntity
8
0
100
AcDbBlockEnd
0
ENDSEC
0
SECTION
2
ENTITIES
0
LWPOLYLINE
5
212
100
AcDbEntity
8
0
100
AcDbPolyline
62
9
6
CONTINUOUS
90
16
70
0
10
-13.3635939062
20
20.4833090718
10
-13.4000476535
20
20.4655014257
10
-13.4752475795
20
20.4238450991
10
-13.5486576404
20
20.3763499117
10
-13.6196199970
20
20.3233277902
10
-13.6867149116
20
20.2658014472
10
-13.7497477043
20
20.2040044999
10
-13.8084178461
20
20.1380967229
10
-13.8615452598
20
20.0693680563
10
-13.9089846495
20
19.9980639579
10
-13.9505456362
20
19.9243000955
10
-13.9855095568
20
19.8493386212
10
-14.0137687954
20
19.7734681923
10
-14.0352323227
20
19.6967840191
10
-14.0496012809
20
19.6204297924
10
-14.0568799053
20
19.5447945980
0
LINE
5
213
100
AcDbEntity
8
0
100
AcDbLine
62
9
6
CONTINUOUS
10
-13.3636472995
20
20.4832996991
11
-6.4122924753
21
23.7372220307
0
LINE
5
214
100
AcDbEntity
8
0
100
AcDbLine
62
9
6
CONTINUOUS
10
-13.1743342140
20
20.3742740847
11
-6.2205725517
21
23.6293230549
0
LINE
5
215
100
AcDbEntity
8
0
100
AcDbLine
62
9
6
CONTINUOUS
10
-2.3953822518
20
18.9444408530
11
-0.1209579129
21
19.7870299548
0
LINE
5
216
100
AcDbEntity
8
0
100
AcDbLine
62
9
6
CONTINUOUS
10
-2.3953822518
20
19.7222583123
11
-0.1209579129
21
20.4413461869
0
LINE
5
217
100
AcDbEntity
8
0
100
AcDbLine
62
9
6
CONTINUOUS
10
4.1578209785
20
21.3836191671
11
3.2786321112
21
21.0246918150
0
LINE
5
218
100
AcDbEntity
8
0
100
AcDbLine
62
9
6
CONTINUOUS
10
2.4043600094
20
20.6677717241
11
1.6594155184
21
20.3636494091
0
LWPOLYLINE
5
219
100
AcDbEntity
8
0
100
AcDbPolyline
62
9
6
CONTINUOUS
90
15
70
0
10
-3.3985330262
20
-23.4767695965
10
-3.3578860206
20
-23.5222984881
10
-3.3080193220
20
-23.5686654735
10
-3.2533098415
20
-23.6103596677
10
-3.1942227501
20
-23.6468666010
10
-3.1307360612
20
-23.6780291587
10
-3.0630028101
20
-23.7035078671
10
-2.9917582502
20
-23.7227791601
10
-2.9176900523
20
-23.7355110192
10
-2.8408307997
20
-23.7415780101
10
-2.7619530959
20
-23.7407758906
10
-2.6827049340
20
-23.7331560543
10
-2.6032983210
20
-23.7189231463
10
-2.5239492055
20
-23.6982071689
10
-2.4779092922
20
-23.6832045360
0
LINE
5
21A
100
AcDbEntity
8
0
100
AcDbLine
62
9
6
CONTINUOUS
10
-3.3984584650
20
-23.4768782026
11
-13.8999567504
21
-10.6152220356
0
LINE
5
21B
100
AcDbEntity
8
0
100
AcDbLine
62
9
6
CONTINUOUS
10
-3.4896032549
20
-23.2267981405
11
-13.9901383174
21
-10.3663216758
0
LWPOLYLINE
5
21C
100
AcDbEntity
8
0
100
AcDbPolyline
62
9
6
CONTINUOUS
90
4
70
0
10
-13.9992238287
20
-10.4513783787
10
-13.9712621506
20
-10.5089900251
10
-13.9384125354
20
-10.5632705614
10
-13.8999919581
20
-10.6151483142
0
LINE
5
21D
100
AcDbEntity
8
0
100
AcDbLine
62
9
6
CONTINUOUS
10
-14.0568302931
20
-10.2007796264
11
-14.0510955337
21
-10.2626236089
0
LWPOLYLINE
5
21E
100
AcDbEntity
8
0
100
AcDbPolyline
62
9
6
CONTINUOUS
90
10
70
0
10
-14.0568863117
20
19.5447547266
10
-14.2008178780
20
16.3263391351
10
-14.3160901720
20
12.9284623916
10
-14.3929108539
20
9.5461379818
10
-14.4312697241
20
6.1797102391
10
-14.4311649927
20
2.8294631216
10
-14.3925965410
20
-0.5043427476
10
-14.3155658612
20
-3.8214251322
10
-14.2000828668
20
-7.1214485187
10
-14.0568300787
20
-10.2008739016
0
LINE
5
21F
100
AcDbEntity
8
0
100
AcDbLine
62
9
6
CONTINUOUS
10
-14.0568799053
20
19.5447945980
11
-14.0568819099
21
19.5447545062
0
LINE
5
220
100
AcDbEntity
8
0
100
AcDbLine
62
9
6
CONTINUOUS
10
6.4354583965
20
-14.9296836799
11
4.6796177482
21
-15.2876395053
0
LINE
5
221
100
AcDbEntity
8
0
100
AcDbLine
62
9
6
CONTINUOUS
10
6.3554756330
20
-14.6580031808
11
4.6796177482
21
-14.9996532576
0
LINE
5
222
100
AcDbEntity
8
0
100
AcDbLine
62
9
6
CONTINUOUS
10
4.6796177482
20
-14.7599111267
11
6.2106886147
21
-14.4806760227
0
LINE
5
223
100
AcDbEntity
8
0
100
AcDbLine
62
9
6
CONTINUOUS
10
4.6796177482
20
-14.7033401126
11
6.1362420603
21
-14.4376824933
0
LWPOLYLINE
5
224
100
AcDbEntity
8
0
100
AcDbPolyline
62
9
6
CONTINUOUS
90
4
70
0
10
-14.0510955337
20
-10.2626236089
10
-14.0393364690
20
-10.3278581355
10
-14.0219735324
20
-10.3909179736
10
-13.9992238287
20
-10.4513783787
0
LINE
5
225
100
AcDbEntity
8
0
100
AcDbLine
62
9
6
CONTINUOUS
10
-14.0568349645
20
-10.2007798704
11
-14.0568300787
21
-10.2008739016
0
LINE
5
226
100
AcDbEntity
8
0
100
AcDbLine
62
9
6
CONTINUOUS
10
0.6046177482
20
16.0480236981
11
2.6603204283
21
17.0349898026
0
LINE
5
227
100
AcDbEntity
8
0
100
AcDbLine
62
9
6
CONTINUOUS
10
1.0912864220
20
15.4519787358
11
4.5450616406
21
16.8294691203
0
LWPOLYLINE
5
228
100
AcDbEntity
8
0
100
AcDbPolyline
62
9
6
CONTINUOUS
90
5
70
0
10
10.0193653593
20
-12.9245239447
10
9.9699665536
20
-12.9262052233
10
9.9204183198
20
-12.9332515964
10
9.8709679850
20
-12.9453734805
10
9.8202025640
20
-12.9630284135
0
LINE
5
229
100
AcDbEntity
8
0
100
AcDbLine
62
9
6
CONTINUOUS
10
5.8932909661
20
17.4196335692
11
5.5043600094
21
17.1888679826
0
LINE
5
22A
100
AcDbEntity
8
0
100
AcDbLine
62
9
6
CONTINUOUS
10
7.3712286016
20
17.4480146610
11
5.5043600094
21
16.3403398452
0
LINE
5
22B
100
AcDbEntity
8
0
100
AcDbLine
62
9
6
CONTINUOUS
10
7.9078209785
20
16.7908258994
11
5.0911380004
21
15.6409198888
0
LINE
5
22C
100
AcDbEntity
8
0
100
AcDbLine
62
9
6
CONTINUOUS
10
7.9383178777
20
16.7783755924
11
5.0932986438
21
15.6371734181
0
LINE
5
22D
100
AcDbEntity
8
0
100
AcDbLine
62
9
6
CONTINUOUS
10
5.8010196178
20
-10.0693441042
11
4.6796177482
21
-10.2898456138
0
LINE
5
22E
100
AcDbEntity
8
0
100
AcDbLine
62
9
6
CONTINUOUS
10
-9.9854122214
20
2.3079601118
11
-9.9854122214
21
-1.3343121800
0
LINE
5
22F
100
AcDbEntity
8
0
100
AcDbLine
62
9
6
CONTINUOUS
10
6.0356792775
20
13.4268675966
11
9.4967013896
21
14.8697533785
0
LINE
5
230
100
AcDbEntity
8
0
100
AcDbLine
62
9
6
CONTINUOUS
10
5.7443407189
20
-9.7925875292
11
4.6796177482
21
-10.0019442538
0
LINE
5
231
100
AcDbEntity
8
0
100
AcDbLine
62
9
6
CONTINUOUS
10
4.6796177482
20
-9.8954186825
11
5.6794197024
21
-9.7130758472
0
LINE
5
232
100
AcDbEntity
8
0
100
AcDbLine
62
9
6
CONTINUOUS
10
4.6796177482
20
-9.8388476684
11
5.5987070075
21
-9.6712251300
0
LINE
5
233
100
AcDbEntity
8
0
100
AcDbLine
62
9
6
CONTINUOUS
10
5.6367005373
20
-9.6658176769
11
5.5987674183
21
-9.6712338348
0
LINE
5
234
100
AcDbEntity
8
0
100
AcDbLine
62
9
6
CONTINUOUS
10
7.9410180467
20
12.0353400121
11
8.7240709221
21
12.4171698866
0
LWPOLYLINE
5
235
100
AcDbEntity
8
0
100
AcDbPolyline
62
9
6
CONTINUOUS
90
4
70
0
10
10.0612889026
20
13.0043135861
10
10.1058598955
20
13.0253940842
10
10.1490363143
20
13.0500910152
10
10.1904577411
20
13.0780772283
0
LINE
5
236
100
AcDbEntity
8
0
100
AcDbLine
62
9
6
CONTINUOUS
10
-2.6655360973
20
7.5036774868
11
4.4298080481
21
10.5853240370
0
LINE
5
237
100
AcDbEntity
8
0
100
AcDbLine
62
9
6
CONTINUOUS
10
-2.4004691533
20
6.8506356433
11
4.6796177482
21
9.9256556745
0
LINE
5
238
100
AcDbEntity
8
0
100
AcDbLine
62
9
6
CONTINUOUS
10
10.0861596264
20
13.0671929264
11
6.4354583965
21
11.5161099364
0
LINE
5
239
100
AcDbEntity
8
0
100
AcDbLine
62
9
6
CONTINUOUS
10
10.0613602790
20
13.0043400655
11
6.4251916427
21
11.4594315766
0
LINE
5
23A
100
AcDbEntity
8
0
100
AcDbLine
62
9
6
CONTINUOUS
10
10.0586900128
20
11.2329314408
11
8.6339297247
21
10.8011028707
0
LWPOLYLINE
5
23B
100
AcDbEntity
8
0
100
AcDbPolyline
62
9
6
CONTINUOUS
90
4
70
0
10
5.7782944553
20
-9.6749008873
10
5.7336216723
20
-9.6666119591
10
5.6862759335
20
-9.6634797973
10
5.6367005373
20
-9.6658176769
0
LINE
5
23C
100
AcDbEntity
8
0
100
AcDbLine
62
9
6
CONTINUOUS
10
4.5842162233
20
10.3204306499
11
6.4354583965
21
11.5161099364
0
LINE
5
23D
100
AcDbEntity
8
0
100
AcDbLine
62
9
6
CONTINUOUS
10
4.6004938884
20
10.2806072421
11
6.4277598042
21
11.4608007566
0
LINE
5
23E
100
AcDbEntity
8
0
100
AcDbLine
62
9
6
CONTINUOUS
10
7.3007701709
20
8.9014347048
11
8.1667955747
21
9.2611589227
0
LINE
5
23F
100
AcDbEntity
8
0
100
AcDbLine
62
9
6
CONTINUOUS
10
8.1667955747
20
9.2611589227
11
9.4658336804
21
9.7822327675
0
LINE
5
240
100
AcDbEntity
8
0
100
AcDbLine
62
9
6
CONTINUOUS
10
4.6796177482
20
8.4485312431
11
6.1912994327
21
9.0330110626
0
LINE
5
241
100
AcDbEntity
8
0
100
AcDbLine
62
9
6
CONTINUOUS
10
6.1913017401
20
9.0330119547
11
6.1914994227
21
9.0330883083
0
LINE
5
242
100
AcDbEntity
8
0
100
AcDbLine
62
9
6
CONTINUOUS
10
-10.6655426472
20
2.4760988447
11
-10.6649579737
21
2.4763245529
0
LWPOLYLINE
5
243
100
AcDbEntity
8
0
100
AcDbPolyline
62
9
6
CONTINUOUS
90
16
70
0
10
-10.6650047447
20
2.4762916130
10
-10.6333908722
20
2.4867973837
10
-10.5783232398
20
2.4980264813
10
-10.5155772080
20
2.5017406102
10
-10.4453376885
20
2.4966820737
10
-10.3661331285
20
2.4815293896
10
-10.2774128048
20
2.4546814450
10
-10.1802355688
20
2.4150765183
10
-10.0759435427
20
2.3622751307
10
-9.9651206029
20
2.2957859865
10
-9.8484067561
20
2.2152538785
10
-9.7270946067
20
2.1210065735
10
-9.6018268631
20
2.0131415672
10
-9.4730892714
20
1.8916841584
10
-9.3417477751
20
1.7571147573
10
-9.2084610855
20
1.6098909898
0
LWPOLYLINE
5
244
100
AcDbEntity
8
0
100
AcDbPolyline
62
9
6
CONTINUOUS
90
33
70
0
10
6.1914994191
20
9.0330883069
10
6.2373933611
20
9.0482471482
10
6.3150071666
20
9.0632127847
10
6.3973688798
20
9.0660940461
10
6.4833020728
20
9.0563005643
10
6.5724023376
20
9.0334655940
10
6.6652088992
20
8.9968957450
10
6.7614267867
20
8.9460578898
10
6.8597460376
20
8.8812920657
10
6.9606213244
20
8.8020642814
10
7.0636662477
20
8.7083419043
10
7.1657455277
20
8.6031506329
10
7.2652573367
20
8.4889770007
10
7.3630224472
20
8.3656424721
10
7.4591018296
20
8.2334868477
10
7.5530555199
20
8.0934155897
10
7.6444138175
20
7.9464084472
10
7.7330299591
20
7.7929129460
10
7.8184768356
20
7.6338063569
10
7.9002816774
20
7.4700962665
10
7.9781685000
20
7.3024255717
10
8.0517221035
20
7.1317313965
10
8.1205242590
20
6.9590173842
10
8.1842770550
20
6.7850279813
10
8.2425921462
20
6.6107776564
10
8.2951274543
20
6.4372223652
10
8.3416442893
20
6.2649966220
10
8.3817868189
20
6.0951700697
10
8.4152695101
20
5.9286283064
10
8.4419011237
20
5.7656806762
10
8.4613604962
20
5.6070643878
10
8.4732708792
20
5.4539812480
10
8.4773097665
20
5.3074306119
0
LWPOLYLINE
5
245
100
AcDbEntity
8
0
100
AcDbPolyline
62
9
6
CONTINUOUS
90
3
70
0
10
5.8591007763
20
-9.7059571349
10
5.8201362912
20
-9.6880811757
10
5.7782944553
20
-9.6749008873
0
LINE
5
246
100
AcDbEntity
8
0
100
AcDbLine
62
9
6
CONTINUOUS
10
-9.2084610855
20
1.6098909898
11
-9.0726567032
21
1.4490380336
0
LWPOLYLINE
5
247
100
AcDbEntity
8
0
100
AcDbPolyline
62
9
6
CONTINUOUS
90
39
70
0
10
-9.0724817424
20
1.4488213907
10
-8.9173823676
20
1.2517444936
10
-8.7662464389
20
1.0460098537
10
-8.6157003507
20
0.8273937316
10
-8.4664722054
20
0.5968041580
10
-8.3192431890
20
0.3552118902
10
-8.1746309641
20
0.1035312538
10
-8.0332394365
20
-0.1572701123
10
-7.8956822183
20
-0.4261082064
10
-7.7625287182
20
-0.7019487217
10
-7.6343601550
20
-0.9836481429
10
-7.5117592392
20
-1.2699267673
10
-7.3952390002
20
-1.5596070550
10
-7.2852739019
20
-1.8515145057
10
-7.1823370009
20
-2.1443444088
10
-7.0868492273
20
-2.4368759457
10
-6.9991930598
20
-2.7278944009
10
-6.9197294497
20
-3.0160874177
10
-6.8487580104
20
-3.3002866313
10
-6.7865624929
20
-3.5792415599
10
-6.7334050020
20
-3.8515111708
10
-6.6894320879
20
-4.1160796258
10
-6.6547946278
20
-4.3716728957
10
-6.6296091142
20
-4.6165054770
10
-6.6138197279
20
-4.8496588884
10
-6.6073255370
20
-5.0701239955
10
-6.6099074183
20
-5.2760957537
10
-6.6212197826
20
-5.4669667844
10
-6.6408371519
20
-5.6420162970
10
-6.6679750440
20
-5.7994670385
10
-6.7017912692
20
-5.9389706629
10
-6.7413956187
20
-6.0605703198
10
-6.7852755731
20
-6.1634001547
10
-6.8316560017
20
-6.2473531598
10
-6.8793991707
20
-6.3140998142
10
-6.9279167832
20
-6.3657963587
10
-6.9752555782
20
-6.4032207961
10
-7.0218914497
20
-6.4293670068
10
-7.0270977025
20
-6.4316994378
0
LWPOLYLINE
5
248
100
AcDbEntity
8
0
100
AcDbPolyline
62
9
6
CONTINUOUS
90
6
70
0
10
10.1904577411
20
13.0780772283
10
10.2298588299
20
13.1091160066
10
10.2668504194
20
13.1428424050
10
10.3011815512
20
13.1790544707
10
10.3325808990
20
13.2175503509
10
10.3606664528
20
13.2580012471
0
LWPOLYLINE
5
249
100
AcDbEntity
8
0
100
AcDbPolyline
62
9
6
CONTINUOUS
90
3
70
0
10
5.9265710783
20
-9.7542367882
10
5.8947038009
20
-9.7281453662
10
5.8591007763
20
-9.7059571349
0
LINE
5
24A
100
AcDbEntity
8
0
100
AcDbLine
62
9
6
CONTINUOUS
10
6.2106886147
20
-14.4806760227
11
6.3554756330
21
-14.6580031808
0
LINE
5
24B
100
AcDbEntity
8
0
100
AcDbLine
62
9
6
CONTINUOUS
10
-2.3953822518
20
18.9444408530
11
-2.3953822518
21
19.7222583123
0
LINE
5
24C
100
AcDbEntity
8
0
100
AcDbLine
62
9
6
CONTINUOUS
10
-10.2114531628
20
-1.4648457534
11
-9.9970876239
21
-1.3654606486
0
LWPOLYLINE
5
24D
100
AcDbEntity
8
0
100
AcDbPolyline
62
9
6
CONTINUOUS
90
7
70
0
10
10.2612190047
20
-13.0221452923
10
10.2296430869
20
-12.9946094313
10
10.1940334742
20
-12.9710350078
10
10.1546224409
20
-12.9518242688
10
10.1120726260
20
-12.9374900494
10
10.0669879564
20
-12.9283478845
10
10.0193653593
20
-12.9245239447
0
LINE
5
24E
100
AcDbEntity
8
0
100
AcDbLine
62
9
6
CONTINUOUS
10
5.9554471056
20
-9.7850864303
11
5.9265710783
21
-9.7542367882
0
LINE
5
24F
100
AcDbEntity
8
0
100
AcDbLine
62
9
6
CONTINUOUS
10
6.0187588881
20
-9.8626294183
11
6.0179338712
21
-9.8616257337
0
LINE
5
250
100
AcDbEntity
8
0
100
AcDbLine
62
9
6
CONTINUOUS
10
5.6794197024
20
-9.7130758472
11
5.7443407189
21
-9.7925875292
0
LINE
5
251
100
AcDbEntity
8
0
100
AcDbLine
62
9
6
CONTINUOUS
10
-0.1209579129
20
19.7870299548
11
-0.1209579129
21
20.4413461869
0
LINE
5
252
100
AcDbEntity
8
0
100
AcDbLine
62
9
6
CONTINUOUS
10
4.6796177482
20
2.9419268356
11
8.0806716386
21
4.4050132233
0
LINE
5
253
100
AcDbEntity
8
0
100
AcDbLine
62
9
6
CONTINUOUS
10
9.3039218351
20
4.3637157091
11
10.5979981655
21
4.9061592236
0
LINE
5
254
100
AcDbEntity
8
0
100
AcDbLine
62
9
6
CONTINUOUS
10
9.3038987017
20
4.3637060131
11
9.2974211916
21
4.3610620787
0
LINE
5
255
100
AcDbEntity
8
0
100
AcDbLine
62
9
6
CONTINUOUS
10
8.4281294061
20
4.0156009904
11
9.2974438158
21
4.3610710688
0
LINE
5
256
100
AcDbEntity
8
0
100
AcDbLine
62
9
6
CONTINUOUS
10
10.2828387012
20
-13.0460005399
11
10.2612190047
21
-13.0221452923
0
LINE
5
257
100
AcDbEntity
8
0
100
AcDbLine
62
9
6
CONTINUOUS
10
8.8476777489
20
-13.3520946546
11
6.0672797580
21
-9.9468164749
0
LINE
5
258
100
AcDbEntity
8
0
100
AcDbLine
62
9
6
CONTINUOUS
10
5.8825521957
20
-9.7205723403
11
4.6796177482
21
-8.2472845451
0
LINE
5
259
100
AcDbEntity
8
0
100
AcDbLine
62
9
6
CONTINUOUS
10
5.9554629582
20
-9.7851080468
11
6.0187502642
21
-9.8626188504
0
LINE
5
25A
100
AcDbEntity
8
0
100
AcDbLine
62
9
6
CONTINUOUS
10
8.9007128466
20
-13.3308773397
11
4.6796177482
21
-8.1611127663
0
LINE
5
25B
100
AcDbEntity
8
0
100
AcDbLine
62
9
6
CONTINUOUS
10
9.8944442661
20
-13.0073132154
11
9.9831520114
21
-13.1159575715
0
LINE
5
25C
100
AcDbEntity
8
0
100
AcDbLine
62
9
6
CONTINUOUS
10
10.2829072591
20
-13.0460652493
11
10.3681172140
21
-13.1504257046
0
LINE
5
25D
100
AcDbEntity
8
0
100
AcDbLine
62
9
6
CONTINUOUS
10
6.0329880150
20
-9.8814799829
11
6.0179220790
21
-9.8616088527
0
LINE
5
25E
100
AcDbEntity
8
0
100
AcDbLine
62
9
6
CONTINUOUS
10
0.6046177482
20
15.2702062388
11
0.6046177482
21
16.0480236981
0
LINE
5
25F
100
AcDbEntity
8
0
100
AcDbLine
62
9
6
CONTINUOUS
10
12.3827170250
20
5.5402511125
11
10.7287241591
21
4.6772601106
0
LINE
5
260
100
AcDbEntity
8
0
100
AcDbLine
62
9
6
CONTINUOUS
10
-13.9901383174
20
19.3580633678
11
-3.4896032549
21
6.4975869031
0
LINE
5
261
100
AcDbEntity
8
0
100
AcDbLine
62
9
6
CONTINUOUS
10
10.3818205702
20
-13.1685360239
11
10.3681075966
21
-13.1504215193
0
LINE
5
262
100
AcDbEntity
8
0
100
AcDbLine
62
9
6
CONTINUOUS
10
2.4043600094
20
20.1370489465
11
2.4043600094
21
20.9855770839
0
LINE
5
263
100
AcDbEntity
8
0
100
AcDbLine
62
9
6
CONTINUOUS
10
3.4957216857
20
22.8051562796
11
3.4957216857
21
22.5251523045
0
LWPOLYLINE
5
264
100
AcDbEntity
8
0
100
AcDbPolyline
62
9
6
CONTINUOUS
90
7
70
0
10
10.3606664528
20
13.2580012471
10
10.3853127437
20
13.3005866176
10
10.4059815021
20
13.3448650336
10
10.4219332502
20
13.3896120949
10
10.4331371627
20
13.4351353016
10
10.4392296933
20
13.4807446065
10
10.4403374027
20
13.5099951143
0
LINE
5
265
100
AcDbEntity
8
0
100
AcDbLine
62
9
6
CONTINUOUS
10
-7.0271767120
20
-6.4317451705
11
-7.0289813118
21
-6.4325250481
0
LINE
5
266
100
AcDbEntity
8
0
100
AcDbLine
62
9
6
CONTINUOUS
10
-13.1743342140
20
20.3742740847
11
-2.6655360973
21
7.5036774868
0
LINE
5
267
100
AcDbEntity
8
0
100
AcDbLine
62
9
6
CONTINUOUS
10
3.4957216857
20
22.8051562796
11
3.4946828493
21
22.8255088075
0
LWPOLYLINE
5
268
100
AcDbEntity
8
0
100
AcDbPolyline
62
9
6
CONTINUOUS
90
6
70
0
10
6.0910747769
20
-10.0724501530
10
6.0900418072
20
-10.0449583181
10
6.0838076690
20
-10.0003824452
10
6.0719716207
20
-9.9577442298
10
6.0548618745
20
-9.9178941476
10
6.0329880150
20
-9.8814799829
0
LINE
5
269
100
AcDbEntity
8
0
100
AcDbLine
62
9
6
CONTINUOUS
10
4.6796177482
20
9.9256556745
11
4.6796177482
21
-21.0452976958
0
LINE
5
26A
100
AcDbEntity
8
0
100
AcDbLine
62
9
6
CONTINUOUS
10
5.5043600094
20
16.3403398452
11
5.5043600094
21
17.1888679826
0
LINE
5
26B
100
AcDbEntity
8
0
100
AcDbLine
62
9
6
CONTINUOUS
10
5.9926138503
20
-10.6784044674
11
5.9926138503
21
-10.1944455208
0
LINE
5
26C
100
AcDbEntity
8
0
100
AcDbLine
62
9
6
CONTINUOUS
10
6.0328209785
20
10.4543489754
11
6.0328209785
21
8.9717366162
0
LINE
5
26D
100
AcDbEntity
8
0
100
AcDbLine
62
9
6
CONTINUOUS
10
6.0911061777
20
-10.5575919412
11
6.0911061777
21
-10.0725927688
0
LWPOLYLINE
5
26E
100
AcDbEntity
8
0
100
AcDbPolyline
62
9
6
CONTINUOUS
90
5
70
0
10
3.4946828493
20
22.8255088075
10
3.4915066332
20
22.8459987060
10
3.4861341890
20
22.8663369837
10
3.4785126955
20
22.8863192635
10
3.4687283648
20
22.9054991272
0
LWPOLYLINE
5
26F
100
AcDbEntity
8
0
100
AcDbPolyline
62
9
6
CONTINUOUS
90
6
70
0
10
10.4402056240
20
-13.3501781081
10
10.4369539968
20
-13.3106024817
10
10.4293520196
20
-13.2721099740
10
10.4175004597
20
-13.2353201089
10
10.4015698722
20
-13.2006660771
10
10.3818205702
20
-13.1685360239
0
LINE
5
270
100
AcDbEntity
8
0
100
AcDbLine
62
9
6
CONTINUOUS
10
7.9410180467
20
11.6497428947
11
7.9410180467
21
12.0353400121
0
LINE
5
271
100
AcDbEntity
8
0
100
AcDbLine
62
9
6
CONTINUOUS
10
8.7240709221
20
12.4171698866
11
8.7240709221
21
10.8284236380
0
LINE
5
272
100
AcDbEntity
8
0
100
AcDbLine
62
9
6
CONTINUOUS
10
8.8519979912
20
12.4905151439
11
8.8519979912
21
10.8671968715
0
LINE
5
273
100
AcDbEntity
8
0
100
AcDbLine
62
9
6
CONTINUOUS
10
8.4773097665
20
5.3074306119
11
8.4728480581
21
5.1632199901
0
LWPOLYLINE
5
274
100
AcDbEntity
8
0
100
AcDbPolyline
62
9
6
CONTINUOUS
90
11
70
0
10
8.4728480581
20
5.1632199901
10
8.4598020691
20
5.0320398450
10
8.4386009458
20
4.9134285546
10
8.4095136516
20
4.8067253691
10
8.3728236119
20
4.7117328429
10
8.3290016259
20
4.6285570175
10
8.2785825009
20
4.5570809685
10
8.2217250497
20
4.4967091554
10
8.1586489731
20
4.4472885187
10
8.0904419867
20
4.4093441032
10
8.0801581361
20
4.4047928654
0
LINE
5
275
100
AcDbEntity
8
0
100
AcDbLine
62
9
6
CONTINUOUS
10
10.4403413728
20
14.2997689340
11
10.4393150255
21
14.3199993641
0
LINE
5
276
100
AcDbEntity
8
0
100
AcDbLine
62
9
6
CONTINUOUS
10
10.4403407130
20
-13.3601932032
11
10.4402056240
21
-13.3501781081
0
LINE
5
277
100
AcDbEntity
8
0
100
AcDbLine
62
9
6
CONTINUOUS
10
10.3433489878
20
14.1785471718
11
10.3433489878
21
13.3885976782
0
LINE
5
278
100
AcDbEntity
8
0
100
AcDbLine
62
9
6
CONTINUOUS
10
10.3433489878
20
-14.2714095006
11
10.3433489878
21
-13.4814600069
0
LINE
5
279
100
AcDbEntity
8
0
100
AcDbLine
62
9
6
CONTINUOUS
10
10.4403413728
20
14.2997689340
11
10.4403413728
21
13.5098194460
0
LINE
5
27A
100
AcDbEntity
8
0
100
AcDbLine
62
9
6
CONTINUOUS
10
10.4403413728
20
-14.1501877384
11
10.4403413728
21
-13.3602382463
0
LWPOLYLINE
5
27B
100
AcDbEntity
8
0
100
AcDbPolyline
62
9
6
CONTINUOUS
90
6
70
0
10
10.4403413728
20
-14.1501877384
10
10.4385753901
20
-14.1766990477
10
10.4331874060
20
-14.2031983445
10
10.4241386065
20
-14.2290456922
10
10.4115987564
20
-14.2534878079
10
10.3964602078
20
-14.2751951227
0
LINE
5
27C
100
AcDbEntity
8
0
100
AcDbLine
62
9
6
CONTINUOUS
10
-6.2205725517
20
23.6293230549
11
-2.3953822518
21
18.9444408530
0
LINE
5
27D
100
AcDbEntity
8
0
100
AcDbLine
62
9
6
CONTINUOUS
10
0.6046177482
20
15.2702062388
11
4.4298080481
21
10.5853240370
0
LINE
5
27E
100
AcDbEntity
8
0
100
AcDbLine
62
9
6
CONTINUOUS
10
-2.8820509256
20
20.3183032746
11
-2.3953822518
21
19.7222583123
0
LINE
5
27F
100
AcDbEntity
8
0
100
AcDbLine
62
9
6
CONTINUOUS
10
0.6046177482
20
16.0480236981
11
1.0912864220
21
15.4519787358
0
LINE
5
280
100
AcDbEntity
8
0
100
AcDbLine
62
9
6
CONTINUOUS
10
6.0328209785
20
10.4543489754
11
7.3007701709
21
8.9014347048
0
LINE
5
281
100
AcDbEntity
8
0
100
AcDbLine
62
9
6
CONTINUOUS
10
4.6796177482
20
-11.2158875423
11
5.9926138503
21
-10.6784044674
0
LINE
5
282
100
AcDbEntity
8
0
100
AcDbLine
62
9
6
CONTINUOUS
10
6.4896712302
20
11.3152083623
11
8.1667955747
21
9.2611589227
0
LINE
5
283
100
AcDbEntity
8
0
100
AcDbLine
62
9
6
CONTINUOUS
10
2.2765248685
20
16.8507252141
11
-0.1209579129
21
19.7870299548
0
LINE
5
284
100
AcDbEntity
8
0
100
AcDbLine
62
9
6
CONTINUOUS
10
-0.1209579129
20
20.4413461869
11
2.6603204283
21
17.0349898026
0
LWPOLYLINE
5
285
100
AcDbEntity
8
0
100
AcDbPolyline
62
9
6
CONTINUOUS
90
5
70
0
10
10.4393150255
20
14.3199993641
10
10.4361788951
20
14.3403586372
10
10.4308774546
20
14.3605636833
10
10.4233644322
20
14.3804072930
10
10.4137229012
20
14.3994626813
0
LINE
5
286
100
AcDbEntity
8
0
100
AcDbLine
62
9
6
CONTINUOUS
10
9.4658336804
20
9.7822327675
11
7.8532833565
21
11.7571955066
0
LINE
5
287
100
AcDbEntity
8
0
100
AcDbLine
62
9
6
CONTINUOUS
10
0.5923770861
20
21.6704992566
11
4.5450616406
21
16.8294691203
0
LINE
5
288
100
AcDbEntity
8
0
100
AcDbLine
62
9
6
CONTINUOUS
10
5.5043600094
20
16.3403398452
11
2.4043600094
21
20.1370489465
0
LINE
5
289
100
AcDbEntity
8
0
100
AcDbLine
62
9
6
CONTINUOUS
10
9.9831520114
20
-13.1159575715
11
6.3550238627
21
-14.6574498774
0
LINE
5
28A
100
AcDbEntity
8
0
100
AcDbLine
62
9
6
CONTINUOUS
10
10.0861596264
20
-13.3786006899
11
6.4354583965
21
-14.9296836799
0
LINE
5
28B
100
AcDbEntity
8
0
100
AcDbLine
62
9
6
CONTINUOUS
10
9.8201562436
20
-12.9630431886
11
6.1359502749
21
-14.4369531424
0
LINE
5
28C
100
AcDbEntity
8
0
100
AcDbLine
62
9
6
CONTINUOUS
10
9.8944442661
20
-13.0073132154
11
6.2109144827
21
-14.4809526533
0
LINE
5
28D
100
AcDbEntity
8
0
100
AcDbLine
62
9
6
CONTINUOUS
10
5.5043600094
20
17.1888679826
11
2.4043600094
21
20.9855770839
0
LINE
5
28E
100
AcDbEntity
8
0
100
AcDbLine
62
9
6
CONTINUOUS
10
5.8932909661
20
17.4196335692
11
2.8814544565
21
21.1083648879
0
LINE
5
28F
100
AcDbEntity
8
0
100
AcDbLine
62
9
6
CONTINUOUS
10
7.9078209785
20
16.7908258994
11
4.1578209785
21
21.3836191671
0
LINE
5
290
100
AcDbEntity
8
0
100
AcDbLine
62
9
6
CONTINUOUS
10
9.4967013896
20
14.8697533785
11
7.9383178777
21
16.7783755924
0
LINE
5
291
100
AcDbEntity
8
0
100
AcDbLine
62
9
6
CONTINUOUS
10
4.1883178777
20
21.3711688601
11
2.6299343658
21
23.2797910740
0
LWPOLYLINE
5
292
100
AcDbEntity
8
0
100
AcDbPolyline
62
9
6
CONTINUOUS
90
3
70
0
10
3.4687283648
20
22.9054991272
10
3.4570569899
20
22.9233549242
10
3.4505599073
20
22.9317465547
0
LWPOLYLINE
5
293
100
AcDbEntity
8
0
100
AcDbPolyline
62
9
6
CONTINUOUS
90
3
70
0
10
10.4137229012
20
14.3994626813
10
10.4022089133
20
14.4172376503
10
10.3951728503
20
14.4263674391
0
LWPOLYLINE
5
294
100
AcDbEntity
8
0
100
AcDbPolyline
62
9
6
CONTINUOUS
90
24
70
0
10
11.6121029336
20
9.9631559913
10
11.6786522322
20
9.8586979458
10
11.7565762478
20
9.7309453096
10
11.8307289475
20
9.6033597629
10
11.9014906050
20
9.4755085330
10
11.9688405686
20
9.3476250938
10
12.0333054104
20
9.2188507231
10
12.0950245065
20
9.0889568953
10
12.1535151390
20
8.9590713084
10
12.2091614533
20
8.8284792863
10
12.2622439883
20
8.6965404223
10
12.3122681651
20
8.5645491834
10
12.3594630989
20
8.4320332861
10
12.4041285602
20
8.2981526419
10
12.4459537544
20
8.1638381929
10
12.4850103037
20
8.0289295557
10
12.5215314588
20
7.8925676923
10
12.5554506497
20
7.7548378841
10
12.5867674159
20
7.6155373008
10
12.6155228868
20
7.4741414969
10
12.6416668200
20
7.3303784528
10
12.6651182862
20
7.1840007932
10
12.6857695230
20
7.0347707263
10
12.7034816316
20
6.8825018931
0
LINE
5
295
100
AcDbEntity
8
0
100
AcDbLine
62
9
6
CONTINUOUS
10
9.7265183514
20
-15.0422512511
11
10.3433489878
21
-14.2714095006
0
LINE
5
296
100
AcDbEntity
8
0
100
AcDbLine
62
9
6
CONTINUOUS
10
9.8226869132
20
-14.9922291843
11
10.3964995954
21
-14.2751461696
0
LINE
5
297
100
AcDbEntity
8
0
100
AcDbLine
62
9
6
CONTINUOUS
10
10.3964602078
20
-14.2751951227
11
10.3964964411
21
-14.2751501096
0
LINE
5
298
100
AcDbEntity
8
0
100
AcDbLine
62
9
6
CONTINUOUS
10
7.3712286016
20
17.4480146610
11
5.8932909661
21
17.4196335692
0
LINE
5
299
100
AcDbEntity
8
0
100
AcDbLine
62
9
6
CONTINUOUS
10
9.7265183514
20
14.4252400273
11
10.3433489878
21
14.1785471718
0
LINE
5
29A
100
AcDbEntity
8
0
100
AcDbLine
62
9
6
CONTINUOUS
10
9.7190641435
20
14.7072285020
11
10.3628158599
21
14.4497689340
0
LINE
5
29B
100
AcDbEntity
8
0
100
AcDbLine
62
9
6
CONTINUOUS
10
7.9078209785
20
16.7908258994
11
7.9383178777
21
16.7783755924
0
LINE
5
29C
100
AcDbEntity
8
0
100
AcDbLine
62
9
6
CONTINUOUS
10
10.2780354045
20
14.5536033620
11
9.8556234382
21
14.7277813676
0
LINE
5
29D
100
AcDbEntity
8
0
100
AcDbLine
62
9
6
CONTINUOUS
10
9.8612037139
20
14.7413145071
11
10.2318020646
21
14.5885014081
0
LINE
5
29E
100
AcDbEntity
8
0
100
AcDbLine
62
9
6
CONTINUOUS
10
10.2318027610
20
14.5885011209
11
10.2318692577
21
14.5884736759
0
LINE
5
29F
100
AcDbEntity
8
0
100
AcDbLine
62
9
6
CONTINUOUS
10
10.2458597429
20
14.5820581182
11
10.2318692577
21
14.5884736759
0
LWPOLYLINE
5
2A0
100
AcDbEntity
8
0
100
AcDbPolyline
62
9
6
CONTINUOUS
90
3
70
0
10
10.2889320140
20
14.5526402621
10
10.2683798177
20
14.5687454091
10
10.2458597429
20
14.5820581182
0
LWPOLYLINE
5
2A1
100
AcDbEntity
8
0
100
AcDbPolyline
62
9
6
CONTINUOUS
90
3
70
0
10
10.3107026756
20
14.5298207440
10
10.3071334622
20
14.5340852139
10
10.2889320140
20
14.5526402621
0
LWPOLYLINE
5
2A2
100
AcDbEntity
8
0
100
AcDbPolyline
62
9
6
CONTINUOUS
90
3
70
0
10
3.3660792565
20
23.0352127041
10
3.3625781586
20
23.0393977660
10
3.3445731545
20
23.0577938031
0
LINE
5
2A3
100
AcDbEntity
8
0
100
AcDbLine
62
9
6
CONTINUOUS
10
10.3951728503
20
14.4263674391
11
10.3952607066
21
14.4262600404
0
LINE
5
2A4
100
AcDbEntity
8
0
100
AcDbLine
62
9
6
CONTINUOUS
10
3.4505599073
20
22.9317465547
11
3.4506410195
21
22.9316473860
0
LINE
5
2A5
100
AcDbEntity
8
0
100
AcDbLine
62
9
6
CONTINUOUS
10
3.0000194783
20
23.1241471577
11
9.8556234382
21
14.7277813676
0
LINE
5
2A6
100
AcDbEntity
8
0
100
AcDbLine
62
9
6
CONTINUOUS
10
3.3334157174
20
23.0589907075
11
3.4181961728
21
22.9551562796
0
LINE
5
2A7
100
AcDbEntity
8
0
100
AcDbLine
62
9
6
CONTINUOUS
10
10.2780354045
20
14.5536033620
11
10.3628158599
21
14.4497689340
0
LINE
5
2A8
100
AcDbEntity
8
0
100
AcDbLine
62
9
6
CONTINUOUS
10
3.3658605641
20
23.0354818139
11
3.4506410195
21
22.9316473860
0
LINE
5
2A9
100
AcDbEntity
8
0
100
AcDbLine
62
9
6
CONTINUOUS
10
10.3104802512
20
14.5300944684
11
10.3952607066
21
14.4262600404
0
LINE
5
2AA
100
AcDbEntity
8
0
100
AcDbLine
62
9
6
CONTINUOUS
10
2.4043600094
20
20.9855770839
11
2.8814544565
21
21.1083648879
0
LWPOLYLINE
5
2AB
100
AcDbEntity
8
0
100
AcDbPolyline
62
9
6
CONTINUOUS
90
3
70
0
10
3.3445731545
20
23.0577938031
10
3.3242612612
20
23.0737892833
10
3.3020171018
20
23.0870501480
0
LINE
5
2AC
100
AcDbEntity
8
0
100
AcDbLine
62
9
6
CONTINUOUS
10
4.6796177482
20
-21.0452976958
11
-2.4004691533
21
-23.5204383461
0
LINE
5
2AD
100
AcDbEntity
8
0
100
AcDbLine
62
9
6
CONTINUOUS
10
4.6154786899
20
-21.2034258002
11
-2.4778703432
21
-23.6832027836
0
LINE
5
2AE
100
AcDbEntity
8
0
100
AcDbLine
62
9
6
CONTINUOUS
10
4.6944133553
20
20.7264304055
11
2.8814544565
21
21.1083648879
0
LINE
5
2AF
100
AcDbEntity
8
0
100
AcDbLine
62
9
6
CONTINUOUS
10
3.3515045147
20
22.7017815450
11
3.3972293582
21
22.6833035151
0
LINE
5
2B0
100
AcDbEntity
8
0
100
AcDbLine
62
9
6
CONTINUOUS
10
3.3020171018
20
23.0870501480
11
3.2878842031
21
23.0935977907
0
LINE
5
2B1
100
AcDbEntity
8
0
100
AcDbLine
62
9
6
CONTINUOUS
10
3.0000194783
20
23.1241471577
11
3.4181961728
21
22.9551562796
0
LINE
5
2B2
100
AcDbEntity
8
0
100
AcDbLine
62
9
6
CONTINUOUS
10
2.6765568554
20
23.3325031848
11
3.3334157174
21
23.0589907075
0
LINE
5
2B3
100
AcDbEntity
8
0
100
AcDbLine
62
9
6
CONTINUOUS
10
2.6782425301
20
23.3474493086
11
3.2878215020
21
23.0936239218
0
LINE
5
2B4
100
AcDbEntity
8
0
100
AcDbLine
62
9
6
CONTINUOUS
10
3.2878222646
20
23.0936236043
11
3.2878842031
21
23.0935977907
0
SPLINE
5
2B5
100
AcDbEntity
8
0
100
AcDbSpline
62
9
6
CONTINUOUS
70
0
71
3
72
10
73
6
74
4
42
0.0000001000
43
0.0000001000
44
0.0000000001
12
-0.2676372149
22
-0.9432752250
32
0.0000000000
13
-0.6168925862
23
-0.7621294942
33
0.0000000000
40
0.0000000000
40
0.0000000000
40
0.0000000000
40
0.0000000000
40
0.3232625255
40
0.6558725699
40
1.0000000000
40
1.0000000000
40
1.0000000000
40
1.0000000000
10
6.4896712302
20
11.3152083623
30
0.0000000000
10
6.4608322029
20
11.2135665185
30
0.0000000000
10
6.3869165641
20
11.0114135193
30
0.0000000000
10
6.2326516963
20
10.7222533571
30
0.0000000000
10
6.1035841986
20
10.5417721968
30
0.0000000000
10
6.0328209785
20
10.4543489754
30
0.0000000000
11
6.4896712302
21
11.3152083623
31
0.0000000000
11
6.3813472866
21
11.0173313601
31
0.0000000000
11
6.2284689026
21
10.7292565352
31
0.0000000000
11
6.0328209785
21
10.4543489754
31
0.0000000000
0
SPLINE
5
2B6
100
AcDbEntity
8
0
100
AcDbSpline
62
9
6
CONTINUOUS
70
0
71
3
72
21
73
17
74
15
42
0.0000001000
43
0.0000001000
44
0.0000000001
12
3.3713394987
22
-4.1290307608
32
0.0000000000
13
-4.9374967319
23
-2.0977486313
33
0.0000000000
40
0.0000000000
40
0.0000000000
40
0.0000000000
40
0.0000000000
40
0.0771628776
40
0.1611995353
40
0.2500504622
40
0.3419702293
40
0.4343427769
40
0.5254927861
40
0.6126786202
40
0.6945212032
40
0.7686362827
40
0.8342049357
40
0.8898334519
40
0.9359355997
40
0.9735509374
40
1.0000000000
40
1.0000000000
40
1.0000000000
40
1.0000000000
10
9.4658336804
20
9.7822327675
30
0.0000000000
10
9.5525477661
20
9.6760301358
30
0.0000000000
10
9.7229939626
20
9.4453322545
30
0.0000000000
10
9.9595440904
20
9.0688521639
30
0.0000000000
10
10.1833280016
20
8.6545921428
30
0.0000000000
10
10.3879699187
20
8.2142038171
30
0.0000000000
10
10.5682381263
20
7.7588977191
30
0.0000000000
10
10.7189404261
20
7.3018027173
30
0.0000000000
10
10.8363532460
20
6.8543305510
30
0.0000000000
10
10.9171504976
20
6.4295243313
30
0.0000000000
10
10.9594752468
20
6.0376724457
30
0.0000000000
10
10.9623192187
20
5.6899222644
30
0.0000000000
10
10.9256266148
20
5.3937320791
30
0.0000000000
10
10.8497819777
20
5.1560302396
30
0.0000000000
10
10.7388383166
20
4.9897820405
30
0.0000000000
10
10.6413780302
20
4.9247504442
30
0.0000000000
10
10.5978473101
20
4.9062559493
30
0.0000000000
11
9.4658336804
21
9.7822327675
31
0.0000000000
11
9.7116129629
21
9.4524183816
31
0.0000000000
11
9.9508670265
21
9.0737001099
31
0.0000000000
11
10.1765477730
21
8.6573004538
31
0.0000000000
11
10.3832870156
21
8.2130677855
31
0.0000000000
11
10.5644924329
21
7.7552256507
31
0.0000000000
11
10.7162360447
21
7.2936485130
31
0.0000000000
11
10.8334141035
21
6.8439142674
31
0.0000000000
11
10.9136521358
21
6.4150899700
31
0.0000000000
11
10.9541673419
21
6.0220983277
31
0.0000000000
11
10.9541673419
21
5.6725809647
31
0.0000000000
11
10.9136521358
21
5.3788309040
31
0.0000000000
11
10.8334141035
21
5.1465488438
31
0.0000000000
11
10.7162360447
21
4.9838410513
31
0.0000000000
11
10.5978473101
21
4.9062559493
31
0.0000000000
0
SPLINE
5
2B7
100
AcDbEntity
8
0
100
AcDbSpline
62
9
6
CONTINUOUS
70
0
71
3
72
8
73
4
74
2
42
0.0000001000
43
0.0000001000
44
0.0000000001
12
-0.0358933667
22
-0.1922081079
32
0.0000000000
13
-0.0538494538
23
-0.1875678286
33
0.0000000000
40
0.0000000000
40
0.0000000000
40
0.0000000000
40
0.0000000000
40
1.0000000000
40
1.0000000000
40
1.0000000000
40
1.0000000000
10
6.5346156625
20
11.5052654527
30
0.0000000000
10
6.5226512070
20
11.4411960834
30
0.0000000000
10
6.5076210482
20
11.3777309719
30
0.0000000000
10
6.4896712302
20
11.3152083623
30
0.0000000000
11
6.5346156625
21
11.5052654527
31
0.0000000000
11
6.4896712302
21
11.3152083623
31
0.0000000000
0
SPLINE
5
2B8
100
AcDbEntity
8
0
100
AcDbSpline
62
9
6
CONTINUOUS
70
0
71
3
72
8
73
4
74
2
42
0.0000001000
43
0.0000001000
44
0.0000000001
12
0.0543738503
22
-0.0235349092
32
0.0000000000
13
0.0540555403
23
-0.0242550324
33
0.0000000000
40
0.0000000000
40
0.0000000000
40
0.0000000000
40
0.0000000000
40
1.0000000000
40
1.0000000000
40
1.0000000000
40
1.0000000000
10
4.6690087508
20
10.0424690483
30
0.0000000000
10
4.6871333675
20
10.0346240786
30
0.0000000000
10
4.7052059771
20
10.0266594972
30
0.0000000000
10
4.7232244905
20
10.0185744864
30
0.0000000000
11
4.6690087508
21
10.0424690483
31
0.0000000000
11
4.7232244905
21
10.0185744864
31
0.0000000000
0
SPLINE
5
2B9
100
AcDbEntity
8
0
100
AcDbSpline
62
9
6
CONTINUOUS
70
0
71
3
72
11
73
7
74
5
42
0.0000001000
43
0.0000001000
44
0.0000000001
12
1.4976247497
22
-0.6719928542
32
0.0000000000
13
1.0387454420
23
-1.2722943012
33
0.0000000000
40
0.0000000000
40
0.0000000000
40
0.0000000000
40
0.0000000000
40
0.1005215685
40
0.4141441011
40
0.7147934265
40
1.0000000000
40
1.0000000000
40
1.0000000000
40
1.0000000000
10
4.7232244905
20
10.0185744864
30
0.0000000000
10
4.7734056868
20
9.9960578945
30
0.0000000000
10
4.9784212082
20
9.8994423012
30
0.0000000000
10
5.3186545756
20
9.7048060553
30
0.0000000000
10
5.7104206260
20
9.4046523051
30
0.0000000000
10
5.9340686357
20
9.1734326338
30
0.0000000000
10
6.0328209785
20
9.0524770678
30
0.0000000000
11
4.7232244905
21
10.0185744864
31
0.0000000000
11
4.8724642335
21
9.9482048513
31
0.0000000000
11
5.3183542367
21
9.6914418742
31
0.0000000000
11
5.7088456916
21
9.3900918535
31
0.0000000000
11
6.0328209785
21
9.0524770678
31
0.0000000000
0
SPLINE
5
2BA
100
AcDbEntity
8
0
100
AcDbSpline
62
9
6
CONTINUOUS
70
0
71
3
72
12
73
8
74
6
42
0.0000001000
43
0.0000001000
44
0.0000000001
12
-0.7300217507
22
-0.2941420638
32
0.0000000000
13
-0.6062775005
23
0.4954520542
33
0.0000000000
40
0.0000000000
40
0.0000000000
40
0.0000000000
40
0.0000000000
40
0.0364259786
40
0.2690472954
40
0.5453687997
40
0.8828882543
40
1.0000000000
40
1.0000000000
40
1.0000000000
40
1.0000000000
10
8.4279963648
20
4.0156690055
30
0.0000000000
10
8.4191324459
20
4.0120975347
30
0.0000000000
10
8.3527038324
20
3.9882797024
30
0.0000000000
10
8.2058142287
20
3.9810475525
30
0.0000000000
10
7.9935941428
20
4.0525415687
30
0.0000000000
10
7.8314064795
20
4.1548756595
30
0.0000000000
10
7.7378101444
20
4.2278675656
30
0.0000000000
10
7.7141427389
20
4.2472086506
30
0.0000000000
11
8.4279963648
21
4.0156690055
31
0.0000000000
11
8.4010344202
21
4.0060193860
31
0.0000000000
11
8.2195647963
21
3.9920173492
31
0.0000000000
11
8.0125232597
21
4.0542809440
31
0.0000000000
11
7.7865135117
21
4.1908825111
31
0.0000000000
11
7.7141427389
21
4.2472086506
31
0.0000000000
0
SPLINE
5
2BB
100
AcDbEntity
8
0
100
AcDbSpline
62
9
6
CONTINUOUS
70
0
71
3
72
10
73
6
74
4
42
0.0000001000
43
0.0000001000
44
0.0000000001
12
-0.0727057964
22
0.0890460513
32
0.0000000000
13
0.0001049887
23
0.1154716015
33
0.0000000000
40
0.0000000000
40
0.0000000000
40
0.0000000000
40
0.0000000000
40
0.4827335125
40
0.9475817462
40
1.0000000000
40
1.0000000000
40
1.0000000000
40
1.0000000000
10
7.8532833565
20
11.7571955066
30
0.0000000000
10
7.8415841817
20
11.7715240110
30
0.0000000000
10
7.8221603392
20
11.8029485113
30
0.0000000000
10
7.8134846493
20
11.8410770727
30
0.0000000000
10
7.8130931212
20
11.8609845069
30
0.0000000000
10
7.8130949557
20
11.8630021135
30
0.0000000000
11
7.8532833565
21
11.7571955066
31
0.0000000000
11
7.8247011735
21
11.8047628208
31
0.0000000000
11
7.8132145376
21
11.8569516839
31
0.0000000000
11
7.8130949557
21
11.8630021135
31
0.0000000000
0
SPLINE
5
2BC
100
AcDbEntity
8
0
100
AcDbSpline
62
9
6
CONTINUOUS
70
0
71
3
72
21
73
17
74
15
42
0.0000001000
43
0.0000001000
44
0.0000000001
12
3.3860666083
22
-4.1470677128
32
0.0000000000
13
-4.9586629901
23
-2.1079316390
33
0.0000000000
40
0.0000000000
40
0.0000000000
40
0.0000000000
40
0.0000000000
40
0.0771641256
40
0.1612024825
40
0.2500543541
40
0.3419754957
40
0.4343491516
40
0.5255003233
40
0.6126873493
40
0.6945310388
40
0.7686471672
40
0.8342167611
40
0.8898460633
40
0.9359488376
40
0.9735646967
40
1.0000000000
40
1.0000000000
40
1.0000000000
40
1.0000000000
10
8.1667955747
20
9.2611589227
30
0.0000000000
10
8.2538898644
20
9.1544906381
30
0.0000000000
10
8.4250837339
20
8.9227807400
30
0.0000000000
10
8.6626707535
20
8.5446500871
30
0.0000000000
10
8.8874354903
20
8.1285740549
30
0.0000000000
10
9.0929738200
20
7.6862563672
30
0.0000000000
10
9.2740318016
20
7.2289552567
30
0.0000000000
10
9.4253943061
20
6.7698576272
30
0.0000000000
10
9.5433215682
20
6.3204247725
30
0.0000000000
10
9.6244728761
20
5.8937569859
30
0.0000000000
10
9.6669831102
20
5.5001878630
30
0.0000000000
10
9.6698395472
20
5.1509136315
30
0.0000000000
10
9.6329861360
20
4.8534254061
30
0.0000000000
10
9.5568091354
20
4.6146818942
30
0.0000000000
10
9.4453936342
20
4.4477265635
30
0.0000000000
10
9.3475351750
20
4.3824173222
30
0.0000000000
10
9.3038405883
20
4.3638427182
30
0.0000000000
11
8.1667955747
21
9.2611589227
31
0.0000000000
11
8.4136524670
21
8.9298984228
31
0.0000000000
11
8.6539564001
21
8.5495180137
31
0.0000000000
11
8.8806252514
21
8.1312948592
31
0.0000000000
11
9.0882705921
21
7.6851149142
31
0.0000000000
11
9.2702696640
21
7.2252672212
31
0.0000000000
11
9.4226780372
21
6.7616678360
31
0.0000000000
11
9.5403695534
21
6.3099628231
31
0.0000000000
11
9.6209591729
21
5.8792594575
31
0.0000000000
11
9.6616519413
21
5.4845455139
31
0.0000000000
11
9.6616519413
21
5.1334963075
31
0.0000000000
11
9.6209591729
21
4.8384588826
31
0.0000000000
11
9.5403695534
21
4.6051589634
31
0.0000000000
11
9.4226780372
21
4.4417381123
31
0.0000000000
11
9.3038405883
21
4.3638427182
31
0.0000000000
0
SPLINE
5
2BD
100
AcDbEntity
8
0
100
AcDbSpline
62
9
6
CONTINUOUS
70
0
71
3
72
21
73
17
74
15
42
0.0000001000
43
0.0000001000
44
0.0000000001
12
3.3806464807
22
-4.1404294392
32
0.0000000000
13
-4.9872618839
23
-2.0094791720
33
0.0000000000
40
0.0000000000
40
0.0000000000
40
0.0000000000
40
0.0000000000
40
0.0770629838
40
0.1609911211
40
0.2497266613
40
0.3415274575
40
0.4337800717
40
0.5248119010
40
0.6118846322
40
0.6936210407
40
0.7676400230
40
0.8331236171
40
0.8886800169
40
0.9347223741
40
0.9722889358
40
1.0000000000
40
1.0000000000
40
1.0000000000
40
1.0000000000
10
7.3007701709
20
8.9014347048
30
0.0000000000
10
7.3876110726
20
8.7950767558
30
0.0000000000
10
7.5583068113
20
8.5640410838
30
0.0000000000
10
7.7952026922
20
8.1870104699
30
0.0000000000
10
8.0193137038
20
7.7721446456
30
0.0000000000
10
8.2242542747
20
7.3311133210
30
0.0000000000
10
8.4047856779
20
6.8751421439
30
0.0000000000
10
8.5557078677
20
6.4173799209
30
0.0000000000
10
8.6732920426
20
5.9692544209
30
0.0000000000
10
8.7542072098
20
5.5438279909
30
0.0000000000
10
8.7965937275
20
5.1514040032
30
0.0000000000
10
8.7994418460
20
4.8031460106
30
0.0000000000
10
8.7626956951
20
4.5065233356
30
0.0000000000
10
8.6867403570
20
4.2684743441
30
0.0000000000
10
8.5743257833
20
4.1000217173
30
0.0000000000
10
8.4740638095
20
4.0342306076
30
0.0000000000
10
8.4279963648
20
4.0156690055
30
0.0000000000
11
7.3007701709
21
8.9014347048
31
0.0000000000
11
7.5469088747
21
8.5711379625
31
0.0000000000
11
7.7865135117
21
8.1918645353
31
0.0000000000
11
8.0125232597
21
7.7748575429
31
0.0000000000
11
8.2195647963
21
7.3299750173
31
0.0000000000
11
8.4010344202
21
6.8714649983
31
0.0000000000
11
8.5529995702
21
6.4092137019
31
0.0000000000
11
8.6703486132
21
5.9588229274
31
0.0000000000
11
8.7507037277
21
5.5293726521
31
0.0000000000
11
8.7912780790
21
5.1358070644
31
0.0000000000
11
8.7912780790
21
4.7857794803
31
0.0000000000
11
8.7507037277
21
4.4916003501
31
0.0000000000
11
8.6703486132
21
4.2589791034
31
0.0000000000
11
8.5529995702
21
4.0960336061
31
0.0000000000
11
8.4279963648
21
4.0156690055
31
0.0000000000
0
SPLINE
5
2BE
100
AcDbEntity
8
0
100
AcDbSpline
62
9
6
CONTINUOUS
70
0
71
3
72
11
73
7
74
5
42
0.0000001000
43
0.0000001000
44
0.0000000001
12
0.0002059553
22
0.2265195901
32
0.0000000000
13
0.2026980577
23
0.0988390138
33
0.0000000000
40
0.0000000000
40
0.0000000000
40
0.0000000000
40
0.0000000000
40
0.2050273421
40
0.4480544176
40
0.7152039850
40
1.0000000000
40
1.0000000000
40
1.0000000000
40
1.0000000000
10
7.8130949557
20
11.8630021135
30
0.0000000000
10
7.8131090312
20
11.8784830167
30
0.0000000000
10
7.8184805011
20
11.9123457201
30
0.0000000000
10
7.8437802678
20
11.9608215648
30
0.0000000000
10
7.8861177511
20
12.0039919292
30
0.0000000000
10
7.9217755137
20
12.0259570263
30
0.0000000000
10
7.9410180467
20
12.0353400121
30
0.0000000000
11
7.8130949557
21
11.8630021135
31
0.0000000000
11
7.8202189831
21
11.9087421869
31
0.0000000000
11
7.8449971567
21
11.9576266099
31
0.0000000000
11
7.8866452082
21
12.0011576494
31
0.0000000000
11
7.9410180467
21
12.0353400121
31
0.0000000000
0
SPLINE
5
2BF
100
AcDbEntity
8
0
100
AcDbSpline
62
9
6
CONTINUOUS
70
0
71
3
72
12
73
8
74
6
42
0.0000001000
43
0.0000001000
44
0.0000000001
12
0.5058814298
22
-0.2693493435
32
0.0000000000
13
0.5090691938
23
0.2660725060
33
0.0000000000
40
0.0000000000
40
0.0000000000
40
0.0000000000
40
0.0000000000
40
0.2768532539
40
0.5195201235
40
0.7376515077
40
0.9424431908
40
1.0000000000
40
1.0000000000
40
1.0000000000
40
1.0000000000
10
10.1803241394
20
4.7310612220
30
0.0000000000
10
10.2270091127
20
4.7062044746
30
0.0000000000
10
10.3177126915
20
4.6651588656
30
0.0000000000
10
10.4550940940
20
4.6303496391
30
0.0000000000
10
10.5834414855
20
4.6274707792
30
0.0000000000
10
10.6734932422
20
4.6506849523
30
0.0000000000
10
10.7189334372
20
4.6721640503
30
0.0000000000
10
10.7287002367
20
4.6772688118
30
0.0000000000
11
10.1803241394
21
4.7310612220
31
0.0000000000
11
10.3254001972
21
4.6671521268
31
0.0000000000
11
10.4605059020
21
4.6346695834
31
0.0000000000
11
10.5854049239
21
4.6333353683
31
0.0000000000
11
10.6988156298
21
4.6631631723
31
0.0000000000
11
10.7287002367
21
4.6772688118
31
0.0000000000
0
SPLINE
5
2C0
100
AcDbEntity
8
0
100
AcDbSpline
62
9
6
CONTINUOUS
70
0
71
3
72
9
73
5
74
3
42
0.0000001000
43
0.0000001000
44
0.0000000001
12
-0.1174279494
22
0.1807633207
32
0.0000000000
13
-0.1318304005
23
0.1705174198
33
0.0000000000
40
0.0000000000
40
0.0000000000
40
0.0000000000
40
0.0000000000
40
0.3754224454
40
1.0000000000
40
1.0000000000
40
1.0000000000
40
1.0000000000
10
11.6121027872
20
9.9631560772
30
0.0000000000
10
11.5974077579
20
9.9857769465
30
0.0000000000
10
11.5573430683
20
10.0454330150
30
0.0000000000
10
11.5148543825
20
10.1034140874
30
0.0000000000
10
11.4874082794
20
10.1389145384
30
0.0000000000
11
11.6121027872
21
9.9631560772
31
0.0000000000
11
11.5669837475
21
10.0303333234
31
0.0000000000
11
11.4874082794
21
10.1389145384
31
0.0000000000
0
SPLINE
5
2C1
100
AcDbEntity
8
0
100
AcDbSpline
62
9
6
CONTINUOUS
70
0
71
3
72
9
73
5
74
3
42
0.0000001000
43
0.0000001000
44
0.0000000001
12
0.0000000000
22
0.3938511047
32
0.0000000000
13
-0.0412153141
23
0.3918395571
33
0.0000000000
40
0.0000000000
40
0.0000000000
40
0.0000000000
40
0.0000000000
40
0.8969730616
40
1.0000000000
40
1.0000000000
40
1.0000000000
40
1.0000000000
10
12.7254487860
20
6.4892913296
30
0.0000000000
10
12.7254487860
20
6.6070492734
30
0.0000000000
10
12.7180562604
20
6.7383650283
30
0.0000000000
10
12.7048970412
20
6.8690452144
30
0.0000000000
10
12.7034816119
20
6.8825018911
30
0.0000000000
11
12.7254487860
21
6.4892913296
31
0.0000000000
11
12.7075473384
21
6.8421113092
31
0.0000000000
11
12.7034816119
21
6.8825018911
31
0.0000000000
0
SPLINE
5
2C2
100
AcDbEntity
8
0
100
AcDbSpline
62
9
6
CONTINUOUS
70
0
71
3
72
12
73
8
74
6
42
0.0000001000
43
0.0000001000
44
0.0000000001
12
-0.6834287040
22
0.6448120281
32
0.0000000000
13
-0.9031521986
23
-0.2777216146
33
0.0000000000
40
0.0000000000
40
0.0000000000
40
0.0000000000
40
0.0000000000
40
0.3124615698
40
0.5759040458
40
0.7943951295
40
0.9805319118
40
1.0000000000
40
1.0000000000
40
1.0000000000
40
1.0000000000
10
10.8874082794
20
10.8737614613
30
0.0000000000
10
10.8162265442
20
10.9409211208
30
0.0000000000
10
10.6781554034
20
11.0579474857
30
0.0000000000
10
10.4643312466
20
11.1878066310
30
0.0000000000
10
10.2633350443
20
11.2545764965
30
0.0000000000
10
10.1268922452
20
11.2522072871
30
0.0000000000
10
10.0645687747
20
11.2346755323
30
0.0000000000
10
10.0587078925
20
11.2328732960
30
0.0000000000
11
10.8874082794
21
10.8737614613
31
0.0000000000
11
10.6614158336
21
11.0611721015
31
0.0000000000
11
10.4476675727
21
11.1860067595
31
0.0000000000
11
10.2511391827
21
11.2453595026
31
0.0000000000
11
10.0764055009
21
11.2378487026
31
0.0000000000
11
10.0587078925
21
11.2328732960
31
0.0000000000
0
SPLINE
5
2C3
100
AcDbEntity
8
0
100
AcDbSpline
62
9
6
CONTINUOUS
70
0
71
3
72
15
73
11
74
9
42
0.0000001000
43
0.0000001000
44
0.0000000001
12
0.5528648765
22
-0.7151088966
32
0.0000000000
13
0.2905772549
23
-0.8559987435
33
0.0000000000
40
0.0000000000
40
0.0000000000
40
0.0000000000
40
0.0000000000
40
0.1366909486
40
0.2731604220
40
0.4100858780
40
0.5481609870
40
0.6878936304
40
0.8288840960
40
0.9706794802
40
1.0000000000
40
1.0000000000
40
1.0000000000
40
1.0000000000
10
10.8874082794
20
10.8737614613
30
0.0000000000
10
10.9125988209
20
10.8411784901
30
0.0000000000
10
10.9614089915
20
10.7748657656
30
0.0000000000
10
11.0299227100
20
10.6719904023
30
0.0000000000
10
11.0937832181
20
10.5656740808
30
0.0000000000
10
11.1531189688
20
10.4556504667
30
0.0000000000
10
11.2078608663
20
10.3419096023
30
0.0000000000
10
11.2578029741
20
10.2247623473
30
0.0000000000
10
11.2907786000
20
10.1366627209
30
0.0000000000
10
11.3075722992
20
10.0879122434
30
0.0000000000
10
11.3104122579
20
10.0795461341
30
0.0000000000
11
10.8874082794
21
10.8737614613
31
0.0000000000
11
10.9606540765
21
10.7742578246
31
0.0000000000
11
11.0290378807
21
10.6715926100
31
0.0000000000
11
11.0927777292
21
10.5655003028
31
0.0000000000
11
11.1520337626
21
10.4556577790
31
0.0000000000
11
11.2068262820
21
10.3418567919
31
0.0000000000
11
11.2568259224
21
10.2246329991
31
0.0000000000
11
11.3017793910
21
10.1046057453
31
0.0000000000
11
11.3104122579
21
10.0795461341
31
0.0000000000
0
SPLINE
5
2C4
100
AcDbEntity
8
0
100
AcDbSpline
62
9
6
CONTINUOUS
70
0
71
3
72
10
73
6
74
4
42
0.0000001000
43
0.0000001000
44
0.0000000001
12
-0.5272665451
22
0.7906857908
32
0.0000000000
13
-0.6890501371
23
0.6545257352
33
0.0000000000
40
0.0000000000
40
0.0000000000
40
0.0000000000
40
0.0000000000
40
0.3621099015
40
0.6968871679
40
1.0000000000
40
1.0000000000
40
1.0000000000
40
1.0000000000
10
10.8050641649
20
9.9100244542
30
0.0000000000
10
10.7414213527
20
10.0054628388
30
0.0000000000
10
10.6138034718
20
10.1858104451
30
0.0000000000
10
10.4140812021
20
10.4320033248
30
0.0000000000
10
10.2746841444
20
10.5787396606
30
0.0000000000
10
10.2050641649
20
10.6448713770
30
0.0000000000
11
10.8050641649
21
9.9100244542
31
0.0000000000
11
10.6056754017
21
10.1905135919
31
0.0000000000
11
10.4044529281
21
10.4369597845
31
0.0000000000
11
10.2050641649
21
10.6448713770
31
0.0000000000
0
SPLINE
5
2C5
100
AcDbEntity
8
0
100
AcDbSpline
62
9
6
CONTINUOUS
70
0
71
3
72
10
73
6
74
4
42
0.0000001000
43
0.0000001000
44
0.0000000001
12
-0.6823506036
22
-0.2288707388
32
0.0000000000
13
-0.6823377727
23
-0.2289089890
33
0.0000000000
40
0.0000000000
40
0.0000000000
40
0.0000000000
40
0.0000000000
40
0.3323333742
40
0.6656670283
40
1.0000000000
40
1.0000000000
40
1.0000000000
40
1.0000000000
10
11.4874082794
20
10.1389145384
30
0.0000000000
10
11.4118189866
20
10.1135607435
30
0.0000000000
10
11.2604133767
20
10.0627753822
30
0.0000000000
10
11.0329653506
20
9.9864786513
30
0.0000000000
10
10.8811068367
20
9.9355350617
30
0.0000000000
10
10.8050641649
20
9.9100244542
30
0.0000000000
11
11.4874082794
21
10.1389145384
31
0.0000000000
11
11.2606411287
21
10.0628509839
31
0.0000000000
11
11.0331928783
21
9.9865541959
31
0.0000000000
11
10.8050641649
21
9.9100244542
31
0.0000000000
0
SPLINE
5
2C6
100
AcDbEntity
8
0
100
AcDbSpline
62
9
6
CONTINUOUS
70
0
71
3
72
12
73
8
74
6
42
0.0000001000
43
0.0000001000
44
0.0000000001
12
0.9408873264
22
0.4903412322
32
0.0000000000
13
0.0000000000
23
1.0519846914
33
0.0000000000
40
0.0000000000
40
0.0000000000
40
0.0000000000
40
0.0000000000
40
0.0727930682
40
0.2471844619
40
0.4554439425
40
0.7058049118
40
1.0000000000
40
1.0000000000
40
1.0000000000
40
1.0000000000
10
12.3825970222
20
5.5404813788
30
0.0000000000
10
12.4054270473
20
5.5523791931
30
0.0000000000
10
12.4791465137
20
5.6001564339
30
0.0000000000
10
12.5817557355
20
5.7270457565
30
0.0000000000
10
12.6662357758
20
5.9344602963
30
0.0000000000
10
12.7160980062
20
6.1948752473
30
0.0000000000
10
12.7254487860
20
6.3861284199
30
0.0000000000
10
12.7254487860
20
6.4892913296
30
0.0000000000
11
12.3825970222
21
5.5404813788
31
0.0000000000
11
12.4472825365
21
5.5823479063
31
0.0000000000
11
12.5668263443
21
5.7215088811
31
0.0000000000
11
12.6542597103
21
5.9223919016
31
0.0000000000
11
12.7075473384
21
6.1803207621
31
0.0000000000
11
12.7254487860
21
6.4892913296
31
0.0000000000
0
SPLINE
5
2C7
100
AcDbEntity
8
0
100
AcDbSpline
62
9
6
CONTINUOUS
70
0
71
3
72
15
73
11
74
9
42
0.0000001000
43
0.0000001000
44
0.0000000001
12
-0.3667703316
22
3.4869350737
32
0.0000000000
13
-1.9387661288
23
2.9197702840
33
0.0000000000
40
0.0000000000
40
0.0000000000
40
0.0000000000
40
0.0000000000
40
0.1002948592
40
0.2213160652
40
0.3492016828
40
0.4814251943
40
0.6153156693
40
0.7481481705
40
0.8772319474
40
1.0000000000
40
1.0000000000
40
1.0000000000
40
1.0000000000
10
12.7034816119
20
6.8825018911
30
0.0000000000
10
12.6912198857
20
6.9990757785
30
0.0000000000
10
12.6542802750
20
7.2551709139
30
0.0000000000
10
12.5692587039
20
7.6544863420
30
0.0000000000
10
12.4498830626
20
8.0837122151
30
0.0000000000
10
12.3016671098
20
8.5197439974
30
0.0000000000
10
12.1280100227
20
8.9525035724
30
0.0000000000
10
11.9329165593
20
9.3720033997
30
0.0000000000
10
11.7209220086
20
9.7685397610
30
0.0000000000
10
11.5667477934
20
10.0194297012
30
0.0000000000
10
11.4874082794
20
10.1389145384
30
0.0000000000
11
12.7034816119
21
6.8825018911
31
0.0000000000
11
12.6542597103
21
7.2305676683
31
0.0000000000
11
12.5668263443
21
7.6456178219
31
0.0000000000
11
12.4472825365
21
8.0776001277
31
0.0000000000
11
12.2984110579
21
8.5164587925
31
0.0000000000
11
12.1236773761
21
8.9519779537
31
0.0000000000
11
11.9271489861
21
9.3740194862
31
0.0000000000
11
11.7134007252
21
9.7727590008
31
0.0000000000
11
11.4874082794
21
10.1389145384
31
0.0000000000
0
SPLINE
5
2C8
100
AcDbEntity
8
0
100
AcDbSpline
62
9
6
CONTINUOUS
70
0
71
3
72
10
73
6
74
4
42
0.0000001000
43
0.0000001000
44
0.0000000001
12
0.6823377727
22
0.2289089890
32
0.0000000000
13
0.6823506036
23
0.2288707388
33
0.0000000000
40
0.0000000000
40
0.0000000000
40
0.0000000000
40
0.0000000000
40
0.3343281165
40
0.6676617741
40
1.0000000000
40
1.0000000000
40
1.0000000000
40
1.0000000000
10
10.2050641649
20
10.6448713770
30
0.0000000000
10
10.2811057324
20
10.6703816140
30
0.0000000000
10
10.4329631428
20
10.7213248334
30
0.0000000000
10
10.6604111688
20
10.7976215645
30
0.0000000000
10
10.8118178831
20
10.8484072962
30
0.0000000000
10
10.8874082794
20
10.8737614613
30
0.0000000000
11
10.2050641649
21
10.6448713770
31
0.0000000000
11
10.4331895654
21
10.7214000074
31
0.0000000000
11
10.6606378181
21
10.7976967963
31
0.0000000000
11
10.8874082794
21
10.8737614613
31
0.0000000000
0
SPLINE
5
2C9
100
AcDbEntity
8
0
100
AcDbSpline
62
9
6
CONTINUOUS
70
0
71
3
72
14
73
10
74
8
42
0.0000001000
43
0.0000001000
44
0.0000000001
12
0.9895311992
22
0.5171930440
32
0.0000000000
13
0.0000000000
23
1.1130593827
33
0.0000000000
40
0.0000000000
40
0.0000000000
40
0.0000000000
40
0.0000000000
40
0.0760636890
40
0.1891637161
40
0.3152875180
40
0.4580679388
40
0.6194536549
40
0.8001545998
40
1.0000000000
40
1.0000000000
40
1.0000000000
40
1.0000000000
10
10.7287002367
20
4.6772688118
30
0.0000000000
10
10.7537893678
20
4.6903820154
30
0.0000000000
10
10.8128630473
20
4.7294337484
30
0.0000000000
10
10.8935650464
20
4.8157490242
30
0.0000000000
10
10.9657360088
20
4.9387635615
30
0.0000000000
10
11.0219419354
20
5.0888308760
30
0.0000000000
10
11.0621150369
20
5.2646107988
30
0.0000000000
10
11.0860550174
20
5.4645381431
30
0.0000000000
10
11.0908336804
20
5.6058116498
30
0.0000000000
10
11.0908336804
20
5.6799582491
30
0.0000000000
11
10.7287002367
21
4.6772688118
31
0.0000000000
11
10.7995742723
21
4.7238469218
31
0.0000000000
11
10.8866469316
21
4.8147639194
31
0.0000000000
11
10.9591401243
21
4.9349812336
31
0.0000000000
11
11.0163099720
21
5.0832652722
31
0.0000000000
11
11.0575698349
21
5.2580944403
31
0.0000000000
11
11.0824963309
21
5.4576747539
31
0.0000000000
11
11.0908336804
21
5.6799582491
31
0.0000000000
0
SPLINE
5
2CA
100
AcDbEntity
8
0
100
AcDbSpline
62
9
6
CONTINUOUS
70
0
71
3
72
27
73
23
74
21
42
0.0000001000
43
0.0000001000
44
0.0000000001
12
4.7089016137
22
-2.9151843975
32
0.0000000000
13
0.0000000000
23
-5.5349532848
33
0.0000000000
40
0.0000000000
40
0.0000000000
40
0.0000000000
40
0.0000000000
40
0.0163071286
40
0.0523125597
40
0.0921763796
40
0.1357455378
40
0.1827686889
40
0.2329187572
40
0.2858091118
40
0.3410060109
40
0.3980388683
40
0.4564092493
40
0.5155991308
40
0.5750787464
40
0.6343142221
40
0.6927751436
40
0.7499421810
40
0.8053149095
40
0.8584200235
40
0.9088202520
40
0.9561244886
40
1.0000000000
40
1.0000000000
40
1.0000000000
40
1.0000000000
10
8.8261155369
20
10.5662002819
30
0.0000000000
10
8.8517117583
20
10.5503541863
30
0.0000000000
10
8.9322368065
20
10.4969428317
30
0.0000000000
10
9.0659203189
20
10.3914012564
30
0.0000000000
10
9.2265518536
20
10.2402175919
30
0.0000000000
10
9.3896378084
20
10.0629657932
30
0.0000000000
10
9.5535523626
20
9.8613932472
30
0.0000000000
10
9.7166366009
20
9.6375148758
30
0.0000000000
10
9.8772279720
20
9.3935885283
30
0.0000000000
10
10.0336837277
20
9.1320879594
30
0.0000000000
10
10.1844010698
20
8.8556744257
30
0.0000000000
10
10.3278353431
20
8.5671671659
30
0.0000000000
10
10.4625168606
20
8.2695128564
30
0.0000000000
10
10.5870665841
20
7.9657541447
30
0.0000000000
10
10.7002107087
20
7.6589974394
30
0.0000000000
10
10.8007941190
20
7.3523800419
30
0.0000000000
10
10.8877926149
20
7.0490371640
30
0.0000000000
10
10.9603239152
20
6.7520677092
30
0.0000000000
10
11.0176569062
20
6.4645034793
30
0.0000000000
10
11.0592203132
20
6.1892656449
30
0.0000000000
10
11.0846054877
20
5.9291639386
30
0.0000000000
10
11.0908336804
20
5.7609078844
30
0.0000000000
10
11.0908336804
20
5.6799582491
30
0.0000000000
11
8.8261155369
21
10.5662002819
31
0.0000000000
11
8.9014626445
21
10.5164245949
31
0.0000000000
11
9.0585233155
21
10.3937551058
31
0.0000000000
11
9.2197635419
21
10.2431379343
31
0.0000000000
11
9.3835287810
21
10.0661186162
31
0.0000000000
11
9.5481385797
21
9.8645136095
31
0.0000000000
11
9.7119038188
21
9.6403916541
31
0.0000000000
11
9.8731440453
21
9.3960525448
31
0.0000000000
11
10.0302047163
21
9.1340035314
31
0.0000000000
11
10.1814741767
21
8.8569335913
31
0.0000000000
11
10.3254001972
21
8.5676858372
31
0.0000000000
11
10.4605059020
21
8.2692283424
31
0.0000000000
11
10.5854049239
21
7.9646236846
31
0.0000000000
11
10.6988156298
21
7.6569975198
31
0.0000000000
11
10.7995742723
21
7.3495065088
31
0.0000000000
11
10.8866469316
21
7.0453059255
31
0.0000000000
11
10.9591401243
21
6.7475172794
31
0.0000000000
11
11.0163099720
21
6.4591962851
31
0.0000000000
11
11.0575698349
21
6.1833015061
31
0.0000000000
11
11.0824963309
21
5.9226639963
31
0.0000000000
11
11.0908336804
21
5.6799582491
31
0.0000000000
0
SPLINE
5
2CB
100
AcDbEntity
8
0
100
AcDbSpline
62
9
6
CONTINUOUS
70
0
71
3
72
11
73
7
74
5
42
0.0000001000
43
0.0000001000
44
0.0000000001
12
0.0000000000
22
-0.1798959168
32
0.0000000000
13
-0.1710358628
23
-0.0616373335
33
0.0000000000
40
0.0000000000
40
0.0000000000
40
0.0000000000
40
0.0000000000
40
0.3517823551
40
0.6350583649
40
0.8584004191
40
1.0000000000
40
1.0000000000
40
1.0000000000
40
1.0000000000
10
4.6796177482
20
-21.0452976958
30
0.0000000000
10
4.6796177482
20
-21.0663924322
30
0.0000000000
10
4.6773111762
20
-21.1046107523
30
0.0000000000
10
4.6643434175
20
-21.1548019265
30
0.0000000000
10
4.6430669407
20
-21.1887641667
30
0.0000000000
10
4.6235770271
20
-21.2004027819
30
0.0000000000
10
4.6155041583
20
-21.2033120555
30
0.0000000000
11
4.6796177482
21
-21.0452976958
31
0.0000000000
11
4.6748263119
21
-21.1084002574
31
0.0000000000
11
4.6606318677
21
-21.1573436889
31
0.0000000000
11
4.6375706034
21
-21.1902446885
31
0.0000000000
11
4.6155041583
21
-21.2033120555
31
0.0000000000
0
SPLINE
5
2CC
100
AcDbEntity
8
0
100
AcDbSpline
62
9
6
CONTINUOUS
70
0
71
3
72
15
73
11
74
9
42
0.0000001000
43
0.0000001000
44
0.0000000001
12
0.4528260813
22
-0.5545964207
32
0.0000000000
13
0.0000000000
23
-0.7159809004
33
0.0000000000
40
0.0000000000
40
0.0000000000
40
0.0000000000
40
0.0000000000
40
0.1152102346
40
0.2418081995
40
0.3757579552
40
0.5126052090
40
0.6477419485
40
0.7766748355
40
0.8952605733
40
1.0000000000
40
1.0000000000
40
1.0000000000
40
1.0000000000
10
4.4298080481
20
10.5853240370
30
0.0000000000
10
4.4471981144
20
10.5640256424
30
0.0000000000
10
4.4811248171
20
10.5172033926
30
0.0000000000
10
4.5273328893
20
10.4402485298
30
0.0000000000
10
4.5699788476
20
10.3554408064
30
0.0000000000
10
4.6074226770
20
10.2660070015
30
0.0000000000
10
4.6382454979
20
10.1753427630
30
0.0000000000
10
4.6613003306
20
10.0868782187
30
0.0000000000
10
4.6757515362
20
10.0039624490
30
0.0000000000
10
4.6796177482
20
9.9506528175
30
0.0000000000
10
4.6796177482
20
9.9256556745
30
0.0000000000
11
4.4298080481
21
10.5853240370
31
0.0000000000
11
4.4785757213
21
10.5187955602
31
0.0000000000
11
4.5254655758
21
10.4412245357
31
0.0000000000
11
4.5686692252
21
10.3556015060
31
0.0000000000
11
4.6065228323
21
10.2652290060
31
0.0000000000
11
4.6375723099
21
10.1735910077
31
0.0000000000
11
4.6606325573
21
10.0842041831
31
0.0000000000
11
4.6748264228
21
10.0004938841
31
0.0000000000
11
4.6796177482
21
9.9256556745
31
0.0000000000
0
SPLINE
5
2CD
100
AcDbEntity
8
0
100
AcDbSpline
62
9
6
CONTINUOUS
70
0
71
3
72
10
73
6
74
4
42
0.0000001000
43
0.0000001000
44
0.0000000001
12
0.9379302357
22
-2.1082540933
32
0.0000000000
13
0.8757371035
23
-2.1348379270
33
0.0000000000
40
0.0000000000
40
0.0000000000
40
0.0000000000
40
0.0000000000
40
0.3329253708
40
0.6663325805
40
1.0000000000
40
1.0000000000
40
1.0000000000
40
1.0000000000
10
5.1288289819
20
15.5485962162
30
0.0000000000
10
5.2329159058
20
15.3146324576
30
0.0000000000
10
5.4389424188
20
14.8453399911
30
0.0000000000
10
5.7412359424
20
14.1380628747
30
0.0000000000
10
5.9382776310
20
13.6643095507
30
0.0000000000
10
6.0356792775
20
13.4268675966
30
0.0000000000
11
5.1288289819
21
15.5485962162
31
0.0000000000
11
5.4376454764
21
14.8451827352
31
0.0000000000
11
5.7400055189
21
14.1377606188
31
0.0000000000
11
6.0356792775
21
13.4268675966
31
0.0000000000
0
SPLINE
5
2CE
100
AcDbEntity
8
0
100
AcDbSpline
62
9
6
CONTINUOUS
70
0
71
3
72
10
73
6
74
4
42
0.0000001000
43
0.0000001000
44
0.0000000001
12
0.2507214027
22
-0.5371350259
32
0.0000000000
13
0.2465964180
23
-0.5390412456
33
0.0000000000
40
0.0000000000
40
0.0000000000
40
0.0000000000
40
0.0000000000
40
0.3330650750
40
0.6664033236
40
1.0000000000
40
1.0000000000
40
1.0000000000
40
1.0000000000
10
4.5450616406
20
16.8294691203
30
0.0000000000
10
4.5728971548
20
16.7698354811
30
0.0000000000
10
4.6284381567
20
16.6504478713
30
0.0000000000
10
4.7113241451
20
16.4710832017
30
0.0000000000
10
4.7662981209
20
16.3513178522
30
0.0000000000
10
4.7937193693
20
16.2913770629
30
0.0000000000
11
4.5450616406
21
16.8294691203
31
0.0000000000
11
4.6283390758
21
16.6504614395
31
0.0000000000
11
4.7112263881
21
16.4710943850
31
0.0000000000
11
4.7937193693
21
16.2913770629
31
0.0000000000
0
SPLINE
5
2CF
100
AcDbEntity
8
0
100
AcDbSpline
62
9
6
CONTINUOUS
70
0
71
3
72
10
73
6
74
4
42
0.0000001000
43
0.0000001000
44
0.0000000001
12
0.2500691575
22
-0.0659094430
32
0.0000000000
13
0.2472120225
23
-0.0759266367
33
0.0000000000
40
0.0000000000
40
0.0000000000
40
0.0000000000
40
0.0000000000
40
0.3304857959
40
0.6638047395
40
1.0000000000
40
1.0000000000
40
1.0000000000
40
1.0000000000
10
0.3437193574
20
21.7414917553
30
0.0000000000
10
0.3712674589
20
21.7342310437
30
0.0000000000
10
0.4264997021
20
21.7192644899
30
0.0000000000
10
0.5093914721
20
21.6955934946
30
0.0000000000
10
0.5646732494
20
21.6790079818
30
0.0000000000
10
0.5923770861
20
21.6704992566
30
0.0000000000
11
0.3437193574
21
21.7414917553
31
0.0000000000
11
0.4262123386
21
21.7191433659
31
0.0000000000
11
0.5090996509
21
21.6954787993
31
0.0000000000
11
0.5923770861
21
21.6704992566
31
0.0000000000
0
SPLINE
5
2D0
100
AcDbEntity
8
0
100
AcDbSpline
62
9
6
CONTINUOUS
70
0
71
3
72
10
73
6
74
4
42
0.0000001000
43
0.0000001000
44
0.0000000001
12
0.9134268696
22
-0.0107131716
32
0.0000000000
13
0.8954534618
23
-0.1806281146
33
0.0000000000
40
0.0000000000
40
0.0000000000
40
0.0000000000
40
0.0000000000
40
0.3240050752
40
0.6569896007
40
1.0000000000
40
1.0000000000
40
1.0000000000
40
1.0000000000
10
-0.8982405508
20
21.9191503451
30
0.0000000000
10
-0.7995889037
20
21.9179933044
30
0.0000000000
10
-0.5995748129
20
21.9087864694
30
0.0000000000
10
-0.2967508883
20
21.8752546303
30
0.0000000000
10
-0.0937735384
20
21.8402109079
30
0.0000000000
10
0.0086097448
20
21.8195584673
30
0.0000000000
11
-0.8982405508
21
21.9191503451
31
0.0000000000
11
-0.6025667922
21
21.9057935282
31
0.0000000000
11
-0.3002067497
21
21.8725878221
31
0.0000000000
11
0.0086097448
21
21.8195584673
31
0.0000000000
0
SPLINE
5
2D1
100
AcDbEntity
8
0
100
AcDbSpline
62
9
6
CONTINUOUS
70
0
71
3
72
9
73
5
74
3
42
0.0000001000
43
0.0000001000
44
0.0000000001
12
0.1007429029
22
-0.1749685887
32
0.0000000000
13
0.1407857214
23
-0.1447134991
33
0.0000000000
40
0.0000000000
40
0.0000000000
40
0.0000000000
40
0.0000000000
40
0.6959453318
40
1.0000000000
40
1.0000000000
40
1.0000000000
40
1.0000000000
10
0.0086097448
20
21.8195584673
30
0.0000000000
10
0.0319802625
20
21.7789689431
30
0.0000000000
10
0.0689088244
20
21.7221015763
30
0.0000000000
10
0.1128957504
20
21.6714217110
30
0.0000000000
10
0.1271646024
20
21.6567547727
30
0.0000000000
11
0.0086097448
21
21.8195584673
31
0.0000000000
11
0.0867994304
21
21.7028126401
31
0.0000000000
11
0.1271646024
21
21.6567547727
31
0.0000000000
0
SPLINE
5
2D2
100
AcDbEntity
8
0
100
AcDbSpline
62
9
6
CONTINUOUS
70
0
71
3
72
12
73
8
74
6
42
0.0000001000
43
0.0000001000
44
0.0000000001
12
0.0236833233
22
-0.2358848353
32
0.0000000000
13
-0.2211247995
23
-0.0920248922
33
0.0000000000
40
0.0000000000
40
0.0000000000
40
0.0000000000
40
0.0000000000
40
0.2941071834
40
0.5421589903
40
0.7435501424
40
0.9042027458
40
1.0000000000
40
1.0000000000
40
1.0000000000
40
1.0000000000
10
-3.1235955920
20
20.3877950395
30
0.0000000000
10
-3.1212737802
20
20.3646698979
30
0.0000000000
10
-3.1189824261
20
20.3217858183
30
0.0000000000
10
-3.1236758238
20
20.2629628824
30
0.0000000000
10
-3.1366628705
20
20.2161513790
30
0.0000000000
10
-3.1567515834
20
20.1848609648
30
0.0000000000
10
-3.1743860420
20
20.1736440124
30
0.0000000000
10
-3.1814470915
20
20.1707054350
30
0.0000000000
11
-3.1235955920
21
20.3877950395
31
0.0000000000
11
-3.1204691500
21
20.3181409500
31
0.0000000000
11
-3.1260204291
21
20.2595977215
31
0.0000000000
11
-3.1400607568
21
20.2139648966
31
0.0000000000
11
-3.1621018582
21
20.1829046945
31
0.0000000000
11
-3.1814470915
21
20.1707054350
31
0.0000000000
0
SPLINE
5
2D3
100
AcDbEntity
8
0
100
AcDbSpline
62
9
6
CONTINUOUS
70
0
71
3
72
13
73
9
74
7
42
0.0000001000
43
0.0000001000
44
0.0000000001
12
0.0001292630
22
-0.8346945516
32
0.0000000000
13
0.6797262461
23
-0.4844452927
33
0.0000000000
40
0.0000000000
40
0.0000000000
40
0.0000000000
40
0.0000000000
40
0.1524896022
40
0.3315532748
40
0.5218458479
40
0.7067460399
40
0.8703812303
40
1.0000000000
40
1.0000000000
40
1.0000000000
40
1.0000000000
10
4.7937193693
20
16.2913770629
30
0.0000000000
10
4.7937259398
20
16.2489496495
30
0.0000000000
10
4.8046691830
20
16.1567556755
30
0.0000000000
10
4.8413308826
20
16.0159889781
30
0.0000000000
10
4.8969360487
20
15.8718110261
30
0.0000000000
10
4.9660624708
20
15.7383320816
30
0.0000000000
10
5.0417309943
20
15.6286356636
30
0.0000000000
10
5.0994605553
20
15.5695272839
30
0.0000000000
10
5.1288289819
20
15.5485962162
30
0.0000000000
11
4.7937193693
21
16.2913770629
31
0.0000000000
11
4.8064044150
21
16.1647284993
31
0.0000000000
11
4.8431523849
21
16.0198529780
31
0.0000000000
11
4.9001761799
21
15.8716058277
31
0.0000000000
11
4.9717294582
21
15.7348597944
31
0.0000000000
11
5.0506392963
21
15.6233752220
31
0.0000000000
11
5.1288289819
21
15.5485962162
31
0.0000000000
0
SPLINE
5
2D4
100
AcDbEntity
8
0
100
AcDbSpline
62
9
6
CONTINUOUS
70
0
71
3
72
11
73
7
74
5
42
0.0000001000
43
0.0000001000
44
0.0000000001
12
1.1801432147
22
-1.4453743497
32
0.0000000000
13
1.8741975403
23
-0.2378599670
33
0.0000000000
40
0.0000000000
40
0.0000000000
40
0.0000000000
40
0.0000000000
40
0.3703330769
40
0.6786832731
40
0.9242751969
40
1.0000000000
40
1.0000000000
40
1.0000000000
40
1.0000000000
10
-8.2998994541
20
-5.1488623919
30
0.0000000000
10
-8.1542174315
20
-5.3272857020
30
0.0000000000
10
-7.8705857442
20
-5.6415637429
30
0.0000000000
10
-7.4248612045
20
-6.0093076711
30
0.0000000000
10
-7.0730201031
20
-6.1904184454
30
0.0000000000
10
-6.8736698194
20
-6.2325307591
30
0.0000000000
10
-6.8263620728
20
-6.2385347255
30
0.0000000000
11
-8.2998994541
21
-5.1488623919
31
0.0000000000
11
-7.8316830361
21
-5.6570912275
31
0.0000000000
11
-7.3814605450
21
-6.0153550799
31
0.0000000000
11
-6.9665316004
21
-6.2098873953
31
0.0000000000
11
-6.8263620728
21
-6.2385347255
31
0.0000000000
0
SPLINE
5
2D5
100
AcDbEntity
8
0
100
AcDbSpline
62
9
6
CONTINUOUS
70
0
71
3
72
9
73
5
74
3
42
0.0000001000
43
0.0000001000
44
0.0000000001
12
0.0000000000
22
-0.0340707878
32
0.0000000000
13
-0.0330410749
23
-0.0134252671
33
0.0000000000
40
0.0000000000
40
0.0000000000
40
0.0000000000
40
0.0000000000
40
0.7843580178
40
1.0000000000
40
1.0000000000
40
1.0000000000
40
1.0000000000
10
-9.9854122214
20
-1.3343121800
30
0.0000000000
10
-9.9854122214
20
-1.3432200785
30
0.0000000000
10
-9.9850810926
20
-1.3571131378
30
0.0000000000
10
-9.9951257255
20
-1.3634808037
30
0.0000000000
10
-9.9975007398
20
-1.3644458208
30
0.0000000000
11
-9.9854122214
21
-1.3343121800
31
0.0000000000
11
-9.9912761245
21
-1.3603845897
31
0.0000000000
11
-9.9975007398
21
-1.3644458208
31
0.0000000000
0
SPLINE
5
2D6
100
AcDbEntity
8
0
100
AcDbSpline
62
9
6
CONTINUOUS
70
0
71
3
72
12
73
8
74
6
42
0.0000001000
43
0.0000001000
44
0.0000000001
12
-0.1148874711
22
0.0789648164
32
0.0000000000
13
-0.1201624118
23
-0.0402916465
33
0.0000000000
40
0.0000000000
40
0.0000000000
40
0.0000000000
40
0.0000000000
40
0.0102743281
40
0.1452445184
40
0.3861123732
40
0.7292612157
40
1.0000000000
40
1.0000000000
40
1.0000000000
40
1.0000000000
10
2.6785657047
20
23.3469853461
30
0.0000000000
10
2.6781722408
20
23.3472557829
30
0.0000000000
10
2.6724285177
20
23.3507788858
30
0.0000000000
10
2.6554159042
20
23.3468589323
30
0.0000000000
10
2.6259694799
20
23.3427091303
30
0.0000000000
10
2.5910151577
20
23.3320773221
30
0.0000000000
10
2.5663155687
20
23.3240945790
30
0.0000000000
10
2.5554713603
20
23.3204584085
30
0.0000000000
11
2.6785657047
21
23.3469853461
31
0.0000000000
11
2.6773563579
21
23.3477292106
31
0.0000000000
11
2.6602324348
21
23.3481463740
31
0.0000000000
11
2.6301645519
21
23.3426371880
31
0.0000000000
11
2.5881804744
21
23.3310682489
31
0.0000000000
11
2.5554713603
21
23.3204584085
31
0.0000000000
0
SPLINE
5
2D7
100
AcDbEntity
8
0
100
AcDbSpline
62
9
6
CONTINUOUS
70
0
71
3
72
9
73
5
74
3
42
0.0000001000
43
0.0000001000
44
0.0000000001
12
-0.0530073959
22
-0.0177739047
32
0.0000000000
13
-0.0524301855
23
-0.0196970946
33
0.0000000000
40
0.0000000000
40
0.0000000000
40
0.0000000000
40
0.0000000000
40
0.3261175558
40
1.0000000000
40
1.0000000000
40
1.0000000000
40
1.0000000000
10
2.5554713603
20
23.3204584085
30
0.0000000000
10
2.5497091462
20
23.3185262810
30
0.0000000000
10
2.5320823400
20
23.3125015666
30
0.0000000000
10
2.5145432447
20
23.3061021004
30
0.0000000000
10
2.5027659841
20
23.3016775917
30
0.0000000000
11
2.5554713603
21
23.3204584085
31
0.0000000000
11
2.5382216525
21
23.3145568949
31
0.0000000000
11
2.5027659841
21
23.3016775917
31
0.0000000000
0
SPLINE
5
2D8
100
AcDbEntity
8
0
100
AcDbSpline
62
9
6
CONTINUOUS
70
0
71
3
72
8
73
4
74
2
42
0.0000001000
43
0.0000001000
44
0.0000000001
12
-0.0182101254
22
-0.0068412224
32
0.0000000000
13
-0.0181422371
23
-0.0069958776
33
0.0000000000
40
0.0000000000
40
0.0000000000
40
0.0000000000
40
0.0000000000
40
1.0000000000
40
1.0000000000
40
1.0000000000
40
1.0000000000
10
2.5027659841
20
23.3016775917
30
0.0000000000
10
2.4966959424
20
23.2993971842
30
0.0000000000
10
2.4906370649
20
23.2970870194
30
0.0000000000
10
2.4845896525
20
23.2947550602
30
0.0000000000
11
2.5027659841
21
23.3016775917
31
0.0000000000
11
2.4845896525
21
23.2947550602
31
0.0000000000
0
SPLINE
5
2D9
100
AcDbEntity
8
0
100
AcDbSpline
62
9
6
CONTINUOUS
70
0
71
3
72
10
73
6
74
4
42
0.0000001000
43
0.0000001000
44
0.0000000001
12
0.0085707811
22
-0.0899448715
32
0.0000000000
13
-0.1003932497
23
-0.0433040984
33
0.0000000000
40
0.0000000000
40
0.0000000000
40
0.0000000000
40
0.0000000000
40
0.1737623004
40
0.5215411636
40
1.0000000000
40
1.0000000000
40
1.0000000000
40
1.0000000000
10
9.8236642320
20
-14.9917047983
30
0.0000000000
10
9.8241606582
20
-14.9969144742
30
0.0000000000
10
9.7974060004
20
-15.0062008065
30
0.0000000000
10
9.7726712630
20
-15.0233037061
30
0.0000000000
10
9.7425296972
20
-15.0353448416
30
0.0000000000
10
9.7265183514
20
-15.0422512511
30
0.0000000000
11
9.8236642320
21
-14.9917047983
31
0.0000000000
11
9.8078708007
21
-15.0030616655
31
0.0000000000
11
9.7741841752
21
-15.0206984224
31
0.0000000000
11
9.7265183514
21
-15.0422512511
31
0.0000000000
0
SPLINE
5
2DA
100
AcDbEntity
8
0
100
AcDbSpline
62
9
6
CONTINUOUS
70
0
71
3
72
18
73
14
74
12
42
0.0000001000
43
0.0000001000
44
0.0000000001
12
-5.2029627882
22
-6.4285355744
32
0.0000000000
13
5.2065564670
23
-6.3767033306
33
0.0000000000
40
0.0000000000
40
0.0000000000
40
0.0000000000
40
0.0000000000
40
0.0317386427
40
0.0911276956
40
0.1649142704
40
0.2523889258
40
0.3514500042
40
0.4591494087
40
0.5720135360
40
0.6862798504
40
0.7981123778
40
0.9038047820
40
1.0000000000
40
1.0000000000
40
1.0000000000
40
1.0000000000
10
-10.3815669228
20
2.4850061298
30
0.0000000000
10
-10.4366119151
20
2.4169951319
30
0.0000000000
10
-10.5633988143
20
2.1950948716
30
0.0000000000
10
-10.6776934731
20
1.7537919958
30
0.0000000000
10
-10.7145508524
20
1.1466635880
30
0.0000000000
10
-10.6626942352
20
0.4327734770
30
0.0000000000
10
-10.5236155977
20
-0.3637015000
30
0.0000000000
10
-10.3018992085
20
-1.2131746854
30
0.0000000000
10
-10.0056107130
20
-2.0836995867
30
0.0000000000
10
-9.6458477471
20
-2.9422358351
30
0.0000000000
10
-9.2362571970
20
-3.7562717596
30
0.0000000000
10
-8.7925604467
20
-4.4949348958
30
0.0000000000
10
-8.4668480656
20
-4.9443929362
30
0.0000000000
10
-8.2998994541
20
-5.1488623919
30
0.0000000000
11
-10.3815669228
21
2.4850061298
31
0.0000000000
11
-10.5172098788
21
2.2597619169
31
0.0000000000
11
-10.6537840690
21
1.7903171912
31
0.0000000000
11
-10.6998994541
21
1.1846378491
31
0.0000000000
11
-10.6537840690
21
0.4659993441
31
0.0000000000
11
-10.5172098788
21
-0.3379824596
31
0.0000000000
11
-10.2954260877
21
-1.1964076549
31
0.0000000000
11
-9.9969543604
21
-2.0762924848
31
0.0000000000
11
-9.6332673079
21
-2.9438165142
31
0.0000000000
11
-9.2183383633
21
-3.7656483925
31
0.0000000000
11
-8.7681158722
21
-4.5101999141
31
0.0000000000
11
-8.2998994541
21
-5.1488623919
31
0.0000000000
0
SPLINE
5
2DB
100
AcDbEntity
8
0
100
AcDbSpline
62
9
6
CONTINUOUS
70
0
71
3
72
8
73
4
74
2
42
0.0000001000
43
0.0000001000
44
0.0000000001
12
0.1861480280
22
0.0725729730
32
0.0000000000
13
0.1861445864
23
0.0725818013
33
0.0000000000
40
0.0000000000
40
0.0000000000
40
0.0000000000
40
0.0000000000
40
1.0000000000
40
1.0000000000
40
1.0000000000
40
1.0000000000
10
-3.1235955920
20
20.3877950395
30
0.0000000000
10
-3.0615462494
20
20.4119860305
30
0.0000000000
10
-2.9994974766
20
20.4361784836
30
0.0000000000
10
-2.9374492812
20
20.4603724173
30
0.0000000000
11
-3.1235955920
21
20.3877950395
31
0.0000000000
11
-2.9374492812
21
20.4603724173
31
0.0000000000
0
SPLINE
5
2DC
100
AcDbEntity
8
0
100
AcDbSpline
62
9
6
CONTINUOUS
70
0
71
3
72
10
73
6
74
4
42
0.0000001000
43
0.0000001000
44
0.0000000001
12
3.1757454946
22
1.2382918720
32
0.0000000000
13
3.1746095843
23
1.2412011033
33
0.0000000000
40
0.0000000000
40
0.0000000000
40
0.0000000000
40
0.0000000000
40
0.3089735312
40
0.6729832798
40
1.0000000000
40
1.0000000000
40
1.0000000000
40
1.0000000000
10
-2.9374492812
20
20.4603724173
30
0.0000000000
10
-2.6103755146
20
20.5879055548
30
0.0000000000
10
-1.8980025793
20
20.8657784084
30
0.0000000000
10
-0.8395933103
20
21.2789846933
30
0.0000000000
10
-0.1082981312
20
21.5647609282
30
0.0000000000
10
0.2377520069
20
21.7000587662
30
0.0000000000
11
-2.9374492812
21
20.4603724173
31
0.0000000000
11
-1.9562771761
21
20.8430979700
31
0.0000000000
11
-0.8004655299
21
21.2943369731
31
0.0000000000
11
0.2377520069
21
21.7000587662
31
0.0000000000
0
SPLINE
5
2DD
100
AcDbEntity
8
0
100
AcDbSpline
62
9
6
CONTINUOUS
70
0
71
3
72
8
73
4
74
2
42
0.0000001000
43
0.0000001000
44
0.0000000001
12
0.1059680740
22
0.0414311388
32
0.0000000000
13
0.1059666247
23
0.0414348450
33
0.0000000000
40
0.0000000000
40
0.0000000000
40
0.0000000000
40
0.0000000000
40
1.0000000000
40
1.0000000000
40
1.0000000000
40
1.0000000000
10
0.2377520069
20
21.7000587662
30
0.0000000000
10
0.2730746982
20
21.7138691458
30
0.0000000000
10
0.3083971491
20
21.7276801403
30
0.0000000000
10
0.3437193574
20
21.7414917553
30
0.0000000000
11
0.2377520069
21
21.7000587662
31
0.0000000000
11
0.3437193574
21
21.7414917553
31
0.0000000000
0
SPLINE
5
2DE
100
AcDbEntity
8
0
100
AcDbSpline
62
9
6
CONTINUOUS
70
0
71
3
72
12
73
8
74
6
42
0.0000001000
43
0.0000001000
44
0.0000000001
12
0.2136215276
22
0.1007718448
32
0.0000000000
13
0.1473861520
23
-0.1805104338
33
0.0000000000
40
0.0000000000
40
0.0000000000
40
0.0000000000
40
0.0000000000
40
0.0666985976
40
0.2294468975
40
0.4341075380
40
0.6911719130
40
1.0000000000
40
1.0000000000
40
1.0000000000
40
1.0000000000
10
-6.4121332092
20
23.7371396743
30
0.0000000000
10
-6.4073837904
20
23.7393801212
30
0.0000000000
10
-6.3901957607
20
23.7451811839
30
0.0000000000
10
-6.3553003243
20
23.7413076010
30
0.0000000000
10
-6.3117009629
20
23.7189068068
30
0.0000000000
10
-6.2652817490
20
23.6806314283
30
0.0000000000
10
-6.2357448794
20
23.6479052855
30
0.0000000000
10
-6.2205725517
20
23.6293230549
30
0.0000000000
11
-6.4121332092
21
23.7371396743
31
0.0000000000
11
-6.3972847853
21
23.7420895654
31
0.0000000000
11
-6.3594311724
21
23.7397388417
31
0.0000000000
11
-6.3162284118
21
23.7195346225
31
0.0000000000
11
-6.2693396662
21
23.6822499666
31
0.0000000000
11
-6.2205725517
21
23.6293230549
31
0.0000000000
0
SPLINE
5
2DF
100
AcDbEntity
8
0
100
AcDbSpline
62
9
6
CONTINUOUS
70
0
71
3
72
8
73
4
74
2
42
0.0000001000
43
0.0000001000
44
0.0000000001
12
-3.4067128945
22
-1.3136718660
32
0.0000000000
13
-3.4067011196
23
-1.3137024013
33
0.0000000000
40
0.0000000000
40
0.0000000000
40
0.0000000000
40
0.0000000000
40
1.0000000000
40
1.0000000000
40
1.0000000000
40
1.0000000000
10
2.4845896525
20
23.2947550602
30
0.0000000000
10
1.3490186877
20
22.8568644382
30
0.0000000000
10
0.2134547912
20
22.4189554864
30
0.0000000000
10
-0.9221122487
20
21.9810546860
30
0.0000000000
11
2.4845896525
21
23.2947550602
31
0.0000000000
11
-0.9221122487
21
21.9810546860
31
0.0000000000
0
SPLINE
5
2E0
100
AcDbEntity
8
0
100
AcDbSpline
62
9
6
CONTINUOUS
70
0
71
3
72
9
73
5
74
3
42
0.0000001000
43
0.0000001000
44
0.0000000001
12
-3.0061420255
22
-1.1592375905
32
0.0000000000
13
-3.0061392274
23
-1.1592448461
33
0.0000000000
40
0.0000000000
40
0.0000000000
40
0.0000000000
40
0.0000000000
40
0.0429263922
40
1.0000000000
40
1.0000000000
40
1.0000000000
40
1.0000000000
10
-0.9221122487
20
21.9810546860
30
0.0000000000
10
-0.9651265260
20
21.9644673902
30
0.0000000000
10
-1.9671739729
20
21.5780551324
30
0.0000000000
10
-2.9692241686
20
21.1916500030
30
0.0000000000
10
-3.9282563405
20
20.8218224539
30
0.0000000000
11
-0.9221122487
21
21.9810546860
31
0.0000000000
11
-1.0511550945
21
21.9312928350
31
0.0000000000
11
-3.9282563405
21
20.8218224539
31
0.0000000000
0
SPLINE
5
2E1
100
AcDbEntity
8
0
100
AcDbSpline
62
9
6
CONTINUOUS
70
0
71
3
72
9
73
5
74
3
42
0.0000001000
43
0.0000001000
44
0.0000000001
12
5.0468954270
22
2.1769163674
32
0.0000000000
13
5.0468825761
23
2.1769461602
33
0.0000000000
40
0.0000000000
40
0.0000000000
40
0.0000000000
40
0.0000000000
40
0.3134020701
40
1.0000000000
40
1.0000000000
40
1.0000000000
40
1.0000000000
10
4.6796191444
20
-17.2191588550
30
0.0000000000
10
5.2068549692
20
-16.9917421564
30
0.0000000000
10
6.8891524361
20
-16.2661010286
30
0.0000000000
10
8.5714586416
20
-15.5404801601
30
0.0000000000
10
9.7265183514
20
-15.0422512511
30
0.0000000000
11
4.6796191444
21
-17.2191588550
31
0.0000000000
11
6.2613268447
21
-16.5369092831
31
0.0000000000
11
9.7265183514
21
-15.0422512511
31
0.0000000000
0
SPLINE
5
2E2
100
AcDbEntity
8
0
100
AcDbSpline
62
9
6
CONTINUOUS
70
0
71
3
72
11
73
7
74
5
42
0.0000001000
43
0.0000001000
44
0.0000000001
12
-0.1452209755
22
0.1786136259
32
0.0000000000
13
-0.2292180346
23
-0.0107961019
33
0.0000000000
40
0.0000000000
40
0.0000000000
40
0.0000000000
40
0.0000000000
40
0.0411550771
40
0.4191627400
40
0.8469558441
40
1.0000000000
40
1.0000000000
40
1.0000000000
40
1.0000000000
10
10.3681382350
20
-13.1504654363
30
0.0000000000
10
10.3661460415
20
-13.1480151505
30
0.0000000000
10
10.3452081526
20
-13.1235967648
30
0.0000000000
10
10.2897437961
20
-13.0862181717
30
0.0000000000
10
10.2163290907
20
-13.0725350668
30
0.0000000000
10
10.1718430651
20
-13.0726540648
30
0.0000000000
10
10.1601495715
20
-13.0732048249
30
0.0000000000
11
10.3681382350
21
-13.1504654363
31
0.0000000000
11
10.3619717365
21
-13.1432772255
31
0.0000000000
11
10.2910394706
21
-13.0937107515
31
0.0000000000
11
10.1952852547
21
-13.0731750773
31
0.0000000000
11
10.1601495715
21
-13.0732048249
31
0.0000000000
0
SPLINE
5
2E3
100
AcDbEntity
8
0
100
AcDbSpline
62
9
6
CONTINUOUS
70
0
71
3
72
9
73
5
74
3
42
0.0000001000
43
0.0000001000
44
0.0000000001
12
-0.1828902621
22
-0.0086140775
32
0.0000000000
13
-0.1685159592
23
-0.0704632038
33
0.0000000000
40
0.0000000000
40
0.0000000000
40
0.0000000000
40
0.0000000000
40
0.3980538537
40
1.0000000000
40
1.0000000000
40
1.0000000000
40
1.0000000000
10
10.1601495715
20
-13.0732048249
30
0.0000000000
10
10.1358828470
20
-13.0743477804
30
0.0000000000
10
10.0752232194
20
-13.0828386495
30
0.0000000000
10
10.0169645221
20
-13.1018192202
30
0.0000000000
10
9.9831520114
20
-13.1159575715
30
0.0000000000
11
10.1601495715
21
-13.0732048249
31
0.0000000000
11
10.0879716698
21
-13.0827694871
31
0.0000000000
11
9.9831520114
21
-13.1159575715
31
0.0000000000
0
SPLINE
5
2E4
100
AcDbEntity
8
0
100
AcDbSpline
62
9
6
CONTINUOUS
70
0
71
3
72
12
73
8
74
6
42
0.0000001000
43
0.0000001000
44
0.0000000001
12
-2.5428896694
22
3.1145701072
32
0.0000000000
13
-1.3053770850
23
3.8037862584
33
0.0000000000
40
0.0000000000
40
0.0000000000
40
0.0000000000
40
0.0000000000
40
0.1846903911
40
0.3877673107
40
0.6026366424
40
0.8230690315
40
1.0000000000
40
1.0000000000
40
1.0000000000
40
1.0000000000
10
-8.8447140410
20
-5.3790467136
30
0.0000000000
10
-9.0012631369
20
-5.1873029899
30
0.0000000000
10
-9.3087479764
20
-4.7672520305
30
0.0000000000
10
-9.7322650537
20
-4.0787172837
30
0.0000000000
10
-10.1286157570
20
-3.3197079024
30
0.0000000000
10
-10.4604548991
20
-2.5686323611
30
0.0000000000
10
-10.6471058023
20
-2.0695358805
30
0.0000000000
10
-10.7240930130
20
-1.8452000182
30
0.0000000000
11
-8.8447140410
21
-5.3790467136
31
0.0000000000
11
-9.2862345650
21
-4.7819545082
31
0.0000000000
11
-9.7158960343
21
-4.0876094254
31
0.0000000000
11
-10.1167982033
21
-3.3223112517
31
0.0000000000
11
-10.4751933821
21
-2.5116902039
31
0.0000000000
11
-10.7240930130
21
-1.8452000182
31
0.0000000000
0
SPLINE
5
2E5
100
AcDbEntity
8
0
100
AcDbSpline
62
9
6
CONTINUOUS
70
0
71
3
72
16
73
12
74
10
42
0.0000001000
43
0.0000001000
44
0.0000000001
12
-1.4897198386
22
4.3409493827
32
0.0000000000
13
4.3349672625
23
1.6555409820
33
0.0000000000
40
0.0000000000
40
0.0000000000
40
0.0000000000
40
0.0000000000
40
0.0373128263
40
0.2231695309
40
0.3970606380
40
0.5542818660
40
0.6910016341
40
0.8053423826
40
0.8975355203
40
0.9725602851
40
1.0000000000
40
1.0000000000
40
1.0000000000
40
1.0000000000
10
-10.7240930130
20
-1.8452000182
30
0.0000000000
10
-10.7426215655
20
-1.7912089882
30
0.0000000000
10
-10.8513209127
20
-1.4675565172
30
0.0000000000
10
-11.0217723421
20
-0.8841247430
30
0.0000000000
10
-11.1863814263
20
-0.1098536643
30
0.0000000000
10
-11.2730769128
20
0.6015843784
30
0.0000000000
10
-11.2795619434
20
1.2276959062
30
0.0000000000
10
-11.2053001576
20
1.7502944926
30
0.0000000000
10
-11.0510215268
20
2.1577001475
30
0.0000000000
10
-10.8471474620
20
2.3893691504
30
0.0000000000
10
-10.7048660107
20
2.4601008042
30
0.0000000000
10
-10.6652159221
20
2.4752433283
30
0.0000000000
11
-10.7240930130
21
-1.8452000182
31
0.0000000000
11
-10.7786090278
21
-1.6828635482
31
0.0000000000
11
-11.0162631980
21
-0.8638220011
31
0.0000000000
11
-11.1795343694
21
-0.0827865815
31
0.0000000000
11
-11.2626281897
21
0.6338389243
31
0.0000000000
11
-11.2626270765
21
1.2611925761
31
0.0000000000
11
-11.1795180870
21
1.7792334304
31
0.0000000000
11
-11.0162299305
21
2.1694877091
31
0.0000000000
11
-10.7785636267
21
2.4185444025
31
0.0000000000
11
-10.6652159221
21
2.4752433283
31
0.0000000000
0
SPLINE
5
2E6
100
AcDbEntity
8
0
100
AcDbSpline
62
9
6
CONTINUOUS
70
0
71
3
72
9
73
5
74
3
42
0.0000001000
43
0.0000001000
44
0.0000000001
12
0.0613188891
22
0.0310966480
32
0.0000000000
13
-0.0000000000
23
0.0695606398
33
0.0000000000
40
0.0000000000
40
0.0000000000
40
0.0000000000
40
0.0000000000
40
0.3448626581
40
1.0000000000
40
1.0000000000
40
1.0000000000
40
1.0000000000
10
10.0611884727
20
13.0046788470
30
0.0000000000
10
10.0682373378
20
13.0082535379
30
0.0000000000
10
10.0858306498
20
13.0278261624
30
0.0000000000
10
10.0861596264
20
13.0520023356
30
0.0000000000
10
10.0861596264
20
13.0671929264
30
0.0000000000
11
10.0611884727
21
13.0046788470
31
0.0000000000
11
10.0783186387
21
13.0223007737
31
0.0000000000
11
10.0861596264
21
13.0671929264
31
0.0000000000
0
SPLINE
5
2E7
100
AcDbEntity
8
0
100
AcDbSpline
62
9
6
CONTINUOUS
70
0
71
3
72
9
73
5
74
3
42
0.0000001000
43
0.0000001000
44
0.0000000001
12
0.0077684401
22
-0.0092785937
32
0.0000000000
13
0.0029630135
23
-0.0116543754
33
0.0000000000
40
0.0000000000
40
0.0000000000
40
0.0000000000
40
0.0000000000
40
0.2562463087
40
1.0000000000
40
1.0000000000
40
1.0000000000
40
1.0000000000
10
9.8494668403
20
14.7433394049
30
0.0000000000
10
9.8501303850
20
14.7425468697
30
0.0000000000
10
9.8525082765
20
14.7392877198
30
0.0000000000
10
9.8539325047
20
14.7355146506
30
0.0000000000
10
9.8546670888
20
14.7326253224
30
0.0000000000
11
9.8494668403
21
14.7433394049
31
0.0000000000
11
9.8512864172
21
14.7408428344
31
0.0000000000
11
9.8546670888
21
14.7326253224
31
0.0000000000
0
SPLINE
5
2E8
100
AcDbEntity
8
0
100
AcDbSpline
62
9
6
CONTINUOUS
70
0
71
3
72
8
73
4
74
2
42
0.0000001000
43
0.0000001000
44
0.0000000001
12
0.0012207759
22
-0.0048016590
32
0.0000000000
13
0.0007264044
23
-0.0048520505
33
0.0000000000
40
0.0000000000
40
0.0000000000
40
0.0000000000
40
0.0000000000
40
1.0000000000
40
1.0000000000
40
1.0000000000
40
1.0000000000
10
9.8546670888
20
14.7326253224
30
0.0000000000
10
9.8550740141
20
14.7310247694
30
0.0000000000
10
9.8553813034
20
14.7293987178
30
0.0000000000
10
9.8556234382
20
14.7277813676
30
0.0000000000
11
9.8546670888
21
14.7326253224
31
0.0000000000
11
9.8556234382
21
14.7277813676
31
0.0000000000
0
SPLINE
5
2E9
100
AcDbEntity
8
0
100
AcDbSpline
62
9
6
CONTINUOUS
70
0
71
3
72
10
73
6
74
4
42
0.0000001000
43
0.0000001000
44
0.0000000001
12
-0.0006889533
22
-0.1651813233
32
0.0000000000
13
-0.1501259257
23
-0.0637844112
33
0.0000000000
40
0.0000000000
40
0.0000000000
40
0.0000000000
40
0.0000000000
40
0.2189186639
40
0.5834456289
40
1.0000000000
40
1.0000000000
40
1.0000000000
40
1.0000000000
10
10.4402423205
20
13.5098198106
30
0.0000000000
10
10.4401920456
20
13.4977660524
30
0.0000000000
10
10.4344516181
20
13.4656027329
30
0.0000000000
10
10.4013154514
20
13.4199693925
30
0.0000000000
10
10.3641941913
20
13.3974542366
30
0.0000000000
10
10.3433489878
20
13.3885976782
30
0.0000000000
11
10.4402423205
21
13.5098198106
31
0.0000000000
11
10.4339705460
21
13.4744093974
31
0.0000000000
11
10.4005914881
21
13.4252029563
31
0.0000000000
11
10.3433489878
21
13.3885976782
31
0.0000000000
0
SPLINE
5
2EA
100
AcDbEntity
8
0
100
AcDbSpline
62
9
6
CONTINUOUS
70
0
71
3
72
10
73
6
74
4
42
0.0000001000
43
0.0000001000
44
0.0000000001
12
-0.0006888143
22
-0.1651813657
32
0.0000000000
13
-0.1501259672
23
-0.0637844128
33
0.0000000000
40
0.0000000000
40
0.0000000000
40
0.0000000000
40
0.0000000000
40
0.2189127021
40
0.5834403786
40
1.0000000000
40
1.0000000000
40
1.0000000000
40
1.0000000000
10
10.4402423188
20
14.2997693471
30
0.0000000000
10
10.4401920554
20
14.2877159140
30
0.0000000000
10
10.4344518693
20
14.2555528790
30
0.0000000000
10
10.4013160080
20
14.2099192510
30
0.0000000000
10
10.3641944598
20
14.1874038421
30
0.0000000000
10
10.3433489878
20
14.1785471718
30
0.0000000000
11
10.4402423188
21
14.2997693471
31
0.0000000000
11
10.4339709008
21
14.2643598543
31
0.0000000000
11
10.4005921353
21
14.2151530575
31
0.0000000000
11
10.3433489878
21
14.1785471718
31
0.0000000000
0
SPLINE
5
2EB
100
AcDbEntity
8
0
100
AcDbSpline
62
9
6
CONTINUOUS
70
0
71
3
72
9
73
5
74
3
42
0.0000001000
43
0.0000001000
44
0.0000000001
12
-0.0183653087
22
0.0226023283
32
0.0000000000
13
-0.0253605963
23
0.0143587954
33
0.0000000000
40
0.0000000000
40
0.0000000000
40
0.0000000000
40
0.0000000000
40
0.2523885074
40
1.0000000000
40
1.0000000000
40
1.0000000000
40
1.0000000000
10
3.3658499685
20
23.0354732045
30
0.0000000000
10
3.3643049042
20
23.0373747272
30
0.0000000000
10
3.3578167407
20
23.0446076939
30
0.0000000000
10
3.3499377108
20
23.0504727897
30
0.0000000000
10
3.3436177530
20
23.0540510565
30
0.0000000000
11
3.3658499685
21
23.0354732045
31
0.0000000000
11
3.3609412303
21
23.0409386292
31
0.0000000000
11
3.3436177530
21
23.0540510565
31
0.0000000000
0
SPLINE
5
2EC
100
AcDbEntity
8
0
100
AcDbSpline
62
9
6
CONTINUOUS
70
0
71
3
72
8
73
4
74
2
42
0.0000001000
43
0.0000001000
44
0.0000000001
12
-0.0099002398
22
0.0056053697
32
0.0000000000
13
-0.0104543020
23
0.0042679509
33
0.0000000000
40
0.0000000000
40
0.0000000000
40
0.0000000000
40
0.0000000000
40
1.0000000000
40
1.0000000000
40
1.0000000000
40
1.0000000000
10
3.3436177530
20
23.0540510565
30
0.0000000000
10
3.3403176731
20
23.0559195131
30
0.0000000000
10
3.3369004847
20
23.0575680572
30
0.0000000000
10
3.3334157174
20
23.0589907075
30
0.0000000000
11
3.3436177530
21
23.0540510565
31
0.0000000000
11
3.3334157174
21
23.0589907075
31
0.0000000000
0
SPLINE
5
2ED
100
AcDbEntity
8
0
100
AcDbSpline
62
9
6
CONTINUOUS
70
0
71
3
72
9
73
5
74
3
42
0.0000001000
43
0.0000001000
44
0.0000000001
12
-0.0183653087
22
0.0226023283
32
0.0000000000
13
-0.0253605963
23
0.0143587954
33
0.0000000000
40
0.0000000000
40
0.0000000000
40
0.0000000000
40
0.0000000000
40
0.2523885074
40
1.0000000000
40
1.0000000000
40
1.0000000000
40
1.0000000000
10
10.3104696556
20
14.5300858590
30
0.0000000000
10
10.3089245913
20
14.5319873816
30
0.0000000000
10
10.3024364278
20
14.5392203483
30
0.0000000000
10
10.2945573979
20
14.5450854441
30
0.0000000000
10
10.2882374401
20
14.5486637110
30
0.0000000000
11
10.3104696556
21
14.5300858590
31
0.0000000000
11
10.3055609174
21
14.5355512836
31
0.0000000000
11
10.2882374401
21
14.5486637110
31
0.0000000000
0
SPLINE
5
2EE
100
AcDbEntity
8
0
100
AcDbSpline
62
9
6
CONTINUOUS
70
0
71
3
72
8
73
4
74
2
42
0.0000001000
43
0.0000001000
44
0.0000000001
12
-0.0099002398
22
0.0056053697
32
0.0000000000
13
-0.0104543020
23
0.0042679509
33
0.0000000000
40
0.0000000000
40
0.0000000000
40
0.0000000000
40
0.0000000000
40
1.0000000000
40
1.0000000000
40
1.0000000000
40
1.0000000000
10
10.2882374401
20
14.5486637110
30
0.0000000000
10
10.2849373602
20
14.5505321675
30
0.0000000000
10
10.2815201718
20
14.5521807116
30
0.0000000000
10
10.2780354045
20
14.5536033620
30
0.0000000000
11
10.2882374401
21
14.5486637110
31
0.0000000000
11
10.2780354045
21
14.5536033620
31
0.0000000000
0
SPLINE
5
2EF
100
AcDbEntity
8
0
100
AcDbSpline
62
9
6
CONTINUOUS
70
0
71
3
72
10
73
6
74
4
42
0.0000001000
43
0.0000001000
44
0.0000000001
12
0.0000000003
22
-0.8393096311
32
0.0000000000
13
-0.7297646656
23
-0.4145466756
33
0.0000000000
40
0.0000000000
40
0.0000000000
40
0.0000000000
40
0.0000000000
40
0.4245054332
40
0.7536576471
40
1.0000000000
40
1.0000000000
40
1.0000000000
40
1.0000000000
10
8.3803173815
20
5.1862088525
30
0.0000000000
10
8.3803173815
20
5.0674450197
30
0.0000000000
10
8.3656388837
20
4.8557352422
30
0.0000000000
10
8.2842697227
20
4.5846467172
30
0.0000000000
10
8.1733350930
20
4.4554087923
30
0.0000000000
10
8.1134111114
20
4.4213686578
30
0.0000000000
11
8.3803173815
21
5.1862088525
31
0.0000000000
11
8.3489827426
21
4.8312979167
31
0.0000000000
11
8.2565606393
21
4.5709556674
31
0.0000000000
11
8.1134111114
21
4.4213686578
31
0.0000000000
0
SPLINE
5
2F0
100
AcDbEntity
8
0
100
AcDbSpline
62
9
6
CONTINUOUS
70
0
71
3
72
9
73
5
74
3
42
0.0000001000
43
0.0000001000
44
0.0000000001
12
-0.0161398230
22
-0.0091683118
32
0.0000000000
13
-0.0167275398
23
-0.0081223811
33
0.0000000000
40
0.0000000000
40
0.0000000000
40
0.0000000000
40
0.0000000000
40
0.3546816856
40
1.0000000000
40
1.0000000000
40
1.0000000000
40
1.0000000000
10
8.1134111114
20
4.4213686578
30
0.0000000000
10
8.1115029448
20
4.4202847137
30
0.0000000000
10
8.1060874452
20
4.4172894480
30
0.0000000000
10
8.1005715131
20
4.4144699140
30
0.0000000000
10
8.0969733172
20
4.4127227403
30
0.0000000000
11
8.1134111114
21
4.4213686578
31
0.0000000000
11
8.1076487535
21
4.4181820888
31
0.0000000000
11
8.0969733172
21
4.4127227403
31
0.0000000000
0
SPLINE
5
2F1
100
AcDbEntity
8
0
100
AcDbSpline
62
9
6
CONTINUOUS
70
0
71
3
72
8
73
4
74
2
42
0.0000001000
43
0.0000001000
44
0.0000000001
12
-0.0161912334
22
-0.0078619672
32
0.0000000000
13
-0.0166811656
23
-0.0068943688
33
0.0000000000
40
0.0000000000
40
0.0000000000
40
0.0000000000
40
0.0000000000
40
1.0000000000
40
1.0000000000
40
1.0000000000
40
1.0000000000
10
8.0969733172
20
4.4127227403
30
0.0000000000
10
8.0915762394
20
4.4101020846
30
0.0000000000
10
8.0860921747
20
4.4076441428
30
0.0000000000
10
8.0805317862
20
4.4053460198
30
0.0000000000
11
8.0969733172
21
4.4127227403
31
0.0000000000
11
8.0805317862
21
4.4053460198
31
0.0000000000
0
SPLINE
5
2F2
100
AcDbEntity
8
0
100
AcDbSpline
62
9
6
CONTINUOUS
70
0
71
3
72
8
73
4
74
2
42
0.0000001000
43
0.0000001000
44
0.0000000001
12
0.0304752554
22
-0.0124414709
32
0.0000000000
13
0.0233488376
23
-0.0235145164
33
0.0000000000
40
0.0000000000
40
0.0000000000
40
0.0000000000
40
0.0000000000
40
1.0000000000
40
1.0000000000
40
1.0000000000
40
1.0000000000
10
10.3628158599
20
14.4497689340
30
0.0000000000
10
10.3729742784
20
14.4456217770
30
0.0000000000
10
10.3825584269
20
14.4395550278
30
0.0000000000
10
10.3903413728
20
14.4317168557
30
0.0000000000
11
10.3628158599
21
14.4497689340
31
0.0000000000
11
10.3903413728
21
14.4317168557
31
0.0000000000
0
SPLINE
5
2F3
100
AcDbEntity
8
0
100
AcDbSpline
62
9
6
CONTINUOUS
70
0
71
3
72
8
73
4
74
2
42
0.0000001000
43
0.0000001000
44
0.0000000001
12
0.0050806697
22
-0.0051167211
32
0.0000000000
13
0.0045579777
23
-0.0055884422
33
0.0000000000
40
0.0000000000
40
0.0000000000
40
0.0000000000
40
0.0000000000
40
1.0000000000
40
1.0000000000
40
1.0000000000
40
1.0000000000
10
10.3903413728
20
14.4317168557
30
0.0000000000
10
10.3920349293
20
14.4300112820
30
0.0000000000
10
10.3936432006
20
14.4282218331
30
0.0000000000
10
10.3951625265
20
14.4263590190
30
0.0000000000
11
10.3903413728
21
14.4317168557
31
0.0000000000
11
10.3951625265
21
14.4263590190
31
0.0000000000
0
SPLINE
5
2F4
100
AcDbEntity
8
0
100
AcDbSpline
62
9
6
CONTINUOUS
70
0
71
3
72
8
73
4
74
2
42
0.0000001000
43
0.0000001000
44
0.0000000001
12
0.0304752554
22
-0.0124414709
32
0.0000000000
13
0.0233488376
23
-0.0235145164
33
0.0000000000
40
0.0000000000
40
0.0000000000
40
0.0000000000
40
0.0000000000
40
1.0000000000
40
1.0000000000
40
1.0000000000
40
1.0000000000
10
3.4181961728
20
22.9551562796
30
0.0000000000
10
3.4283545913
20
22.9510091226
30
0.0000000000
10
3.4379387398
20
22.9449423734
30
0.0000000000
10
3.4457216857
20
22.9371042013
30
0.0000000000
11
3.4181961728
21
22.9551562796
31
0.0000000000
11
3.4457216857
21
22.9371042013
31
0.0000000000
0
SPLINE
5
2F5
100
AcDbEntity
8
0
100
AcDbSpline
62
9
6
CONTINUOUS
70
0
71
3
72
8
73
4
74
2
42
0.0000001000
43
0.0000001000
44
0.0000000001
12
0.0050881647
22
-0.0051242693
32
0.0000000000
13
0.0045639132
23
-0.0055973366
33
0.0000000000
40
0.0000000000
40
0.0000000000
40
0.0000000000
40
0.0000000000
40
1.0000000000
40
1.0000000000
40
1.0000000000
40
1.0000000000
10
3.4457216857
20
22.9371042013
30
0.0000000000
10
3.4474177405
20
22.9353961115
30
0.0000000000
10
3.4490282584
20
22.9336038989
30
0.0000000000
10
3.4505495628
20
22.9317381200
30
0.0000000000
11
3.4457216857
21
22.9371042013
31
0.0000000000
11
3.4505495628
21
22.9317381200
31
0.0000000000
0
SPLINE
5
2F6
100
AcDbEntity
8
0
100
AcDbSpline
62
9
6
CONTINUOUS
70
0
71
3
72
8
73
4
74
2
42
0.0000001000
43
0.0000001000
44
0.0000000001
12
0.0539709684
22
-0.0223561994
32
0.0000000000
13
0.0364640489
23
-0.0448858837
33
0.0000000000
40
0.0000000000
40
0.0000000000
40
0.0000000000
40
0.0000000000
40
1.0000000000
40
1.0000000000
40
1.0000000000
40
1.0000000000
10
10.2318689716
20
14.5884729851
30
0.0000000000
10
10.2498592944
20
14.5810209186
30
0.0000000000
10
10.2658807216
20
14.5685653232
30
0.0000000000
10
10.2780354045
20
14.5536033620
30
0.0000000000
11
10.2318689716
21
14.5884729851
31
0.0000000000
11
10.2780354045
21
14.5536033620
31
0.0000000000
0
SPLINE
5
2F7
100
AcDbEntity
8
0
100
AcDbSpline
62
9
6
CONTINUOUS
70
0
71
3
72
8
73
4
74
2
42
0.0000001000
43
0.0000001000
44
0.0000000001
12
0.0444066346
22
0.0082338801
32
0.0000000000
13
0.0451585445
23
0.0039774946
33
0.0000000000
40
0.0000000000
40
0.0000000000
40
0.0000000000
40
0.0000000000
40
1.0000000000
40
1.0000000000
40
1.0000000000
40
1.0000000000
10
5.6794197024
20
-9.7130758472
30
0.0000000000
10
5.6942219139
20
-9.7103312206
30
0.0000000000
10
5.7091938814
20
-9.7082184670
30
0.0000000000
10
5.7242467296
20
-9.7068926355
30
0.0000000000
11
5.6794197024
21
-9.7130758472
31
0.0000000000
11
5.7242467296
21
-9.7068926355
31
0.0000000000
0
SPLINE
5
2F8
100
AcDbEntity
8
0
100
AcDbSpline
62
9
6
CONTINUOUS
70
0
71
3
72
9
73
5
74
3
42
0.0000001000
43
0.0000001000
44
0.0000000001
12
0.1936084784
22
0.0170527347
32
0.0000000000
13
0.1622864532
23
-0.1080884358
33
0.0000000000
40
0.0000000000
40
0.0000000000
40
0.0000000000
40
0.0000000000
40
0.4314499510
40
1.0000000000
40
1.0000000000
40
1.0000000000
40
1.0000000000
10
5.7242467296
20
-9.7068926355
30
0.0000000000
10
5.7520908524
20
-9.7044401683
30
0.0000000000
10
5.8172684341
20
-9.7049965903
30
0.0000000000
10
5.8809108883
20
-9.7252891392
30
0.0000000000
10
5.9116668786
20
-9.7457737010
30
0.0000000000
11
5.7242467296
21
-9.7068926355
31
0.0000000000
11
5.8080468187
21
-9.7085941662
31
0.0000000000
11
5.9116668786
21
-9.7457737010
31
0.0000000000
0
SPLINE
5
2F9
100
AcDbEntity
8
0
100
AcDbSpline
62
9
6
CONTINUOUS
70
0
71
3
72
8
73
4
74
2
42
0.0000001000
43
0.0000001000
44
0.0000000001
12
0.0489461988
22
-0.0325998749
32
0.0000000000
13
0.0375262965
23
-0.0456946927
33
0.0000000000
40
0.0000000000
40
0.0000000000
40
0.0000000000
40
0.0000000000
40
1.0000000000
40
1.0000000000
40
1.0000000000
40
1.0000000000
10
5.9116668786
20
-9.7457737010
30
0.0000000000
10
5.9279822782
20
-9.7566403260
30
0.0000000000
10
5.9427702164
20
-9.7700247711
30
0.0000000000
10
5.9552789819
20
-9.7852563353
30
0.0000000000
11
5.9116668786
21
-9.7457737010
31
0.0000000000
11
5.9552789819
21
-9.7852563353
31
0.0000000000
0
SPLINE
5
2FA
100
AcDbEntity
8
0
100
AcDbSpline
62
9
6
CONTINUOUS
70
0
71
3
72
10
73
6
74
4
42
0.0000001000
43
0.0000001000
44
0.0000000001
12
3.4582960139
22
1.3681444621
32
0.0000000000
13
3.4637224679
23
1.3543475384
33
0.0000000000
40
0.0000000000
40
0.0000000000
40
0.0000000000
40
0.0000000000
40
0.3364457060
40
0.6697857654
40
1.0000000000
40
1.0000000000
40
1.0000000000
40
1.0000000000
10
1.3328310884
20
14.9298093178
30
0.0000000000
10
1.7206740364
20
15.0832447610
30
0.0000000000
10
2.4929592773
20
15.3882460629
30
0.0000000000
10
3.6465676284
20
15.8421583937
30
0.0000000000
10
4.4124625482
20
16.1423021177
30
0.0000000000
10
4.7937193693
20
16.2913770629
30
0.0000000000
11
1.3328310884
21
14.9298093178
31
0.0000000000
11
2.4966373890
21
15.3894136936
31
0.0000000000
11
3.6502778677
21
15.8433118230
31
0.0000000000
11
4.7937193693
21
16.2913770629
31
0.0000000000
0
SPLINE
5
2FB
100
AcDbEntity
8
0
100
AcDbSpline
62
9
6
CONTINUOUS
70
0
71
3
72
11
73
7
74
5
42
0.0000001000
43
0.0000001000
44
0.0000000001
12
0.0000000000
22
0.2863473351
32
0.0000000000
13
-0.1854201226
23
0.2182067241
33
0.0000000000
40
0.0000000000
40
0.0000000000
40
0.0000000000
40
0.0000000000
40
0.2229128285
40
0.4866969494
40
0.7575320412
40
1.0000000000
40
1.0000000000
40
1.0000000000
40
1.0000000000
10
10.0861596264
20
-13.3786006899
30
0.0000000000
10
10.0861596264
20
-13.3573238585
30
0.0000000000
10
10.0792283778
20
-13.3109436364
30
0.0000000000
10
10.0573712389
20
-13.2418340287
30
0.0000000000
10
10.0254847818
20
-13.1746324360
30
0.0000000000
10
9.9981381576
20
-13.1335936178
30
0.0000000000
10
9.9831520114
20
-13.1159575715
30
0.0000000000
11
10.0861596264
21
-13.3786006899
31
0.0000000000
11
10.0783186385
21
-13.3152536227
31
0.0000000000
11
10.0559893944
21
-13.2430956579
31
0.0000000000
11
10.0225713189
21
-13.1731121914
31
0.0000000000
11
9.9831520114
21
-13.1159575715
31
0.0000000000
0
SPLINE
5
2FC
100
AcDbEntity
8
0
100
AcDbSpline
62
9
6
CONTINUOUS
70
0
71
3
72
11
73
7
74
5
42
0.0000001000
43
0.0000001000
44
0.0000000001
12
0.0429128092
22
0.2871636509
32
0.0000000000
13
-0.1836349330
23
0.2249059424
33
0.0000000000
40
0.0000000000
40
0.0000000000
40
0.0000000000
40
0.0000000000
40
0.2290518127
40
0.4927574195
40
0.7601398727
40
1.0000000000
40
1.0000000000
40
1.0000000000
40
1.0000000000
10
6.4354583965
20
-14.9296836799
30
0.0000000000
10
6.4387348154
20
-14.9077585617
30
0.0000000000
10
6.4382446562
20
-14.8594918786
30
0.0000000000
10
6.4233896299
20
-14.7871551614
30
0.0000000000
10
6.3964400871
20
-14.7171270704
30
0.0000000000
10
6.3697060955
20
-14.6754318667
30
0.0000000000
10
6.3550238627
20
-14.6574498774
30
0.0000000000
11
6.4354583965
21
-14.9296836799
31
0.0000000000
11
6.4363043149
21
-14.8631833340
31
0.0000000000
11
6.4214431932
21
-14.7880718531
31
0.0000000000
11
6.3929764858
21
-14.7158440338
31
0.0000000000
11
6.3550238627
21
-14.6574498774
31
0.0000000000
0
SPLINE
5
2FD
100
AcDbEntity
8
0
100
AcDbSpline
62
9
6
CONTINUOUS
70
0
71
3
72
10
73
6
74
4
42
0.0000001000
43
0.0000001000
44
0.0000000001
12
0.1501259614
22
0.0637844062
32
0.0000000000
13
0.0006888373
23
0.1651813573
33
0.0000000000
40
0.0000000000
40
0.0000000000
40
0.0000000000
40
0.0000000000
40
0.4165587384
40
0.7810862986
40
1.0000000000
40
1.0000000000
40
1.0000000000
40
1.0000000000
10
10.3433489878
20
-13.4814600069
30
0.0000000000
10
10.3641944148
20
-13.4726033563
30
0.0000000000
10
10.4013159152
20
-13.4500879911
30
0.0000000000
10
10.4344518276
20
-13.4044544115
30
0.0000000000
10
10.4401920538
20
-13.3722913289
30
0.0000000000
10
10.4402423191
20
-13.3602378414
30
0.0000000000
11
10.3433489878
21
-13.4814600069
31
0.0000000000
11
10.4005920269
21
-13.4448542252
31
0.0000000000
11
10.4339708417
21
-13.3956474882
31
0.0000000000
11
10.4402423191
21
-13.3602378414
31
0.0000000000
0
SPLINE
5
2FE
100
AcDbEntity
8
0
100
AcDbSpline
62
9
6
CONTINUOUS
70
0
71
3
72
10
73
6
74
4
42
0.0000001000
43
0.0000001000
44
0.0000000001
12
0.1342193931
22
0.0570261450
32
0.0000000000
13
0.0250186957
23
0.1455716418
33
0.0000000000
40
0.0000000000
40
0.0000000000
40
0.0000000000
40
0.0000000000
40
0.4659268279
40
0.8736553144
40
1.0000000000
40
1.0000000000
40
1.0000000000
40
1.0000000000
10
10.3433489878
20
-14.2714095006
30
0.0000000000
10
10.3641944598
20
-14.2625528303
30
0.0000000000
10
10.4013160080
20
-14.2400374214
30
0.0000000000
10
10.4309409641
20
-14.1992388976
30
0.0000000000
10
10.4376588966
20
-14.1737399415
30
0.0000000000
10
10.4387125563
20
-14.1676092071
30
0.0000000000
11
10.3433489878
21
-14.2714095006
31
0.0000000000
11
10.4005921353
21
-14.2348036149
31
0.0000000000
11
10.4339709008
21
-14.1855968181
31
0.0000000000
11
10.4387125563
21
-14.1676092071
31
0.0000000000
0
SPLINE
5
2FF
100
AcDbEntity
8
0
100
AcDbSpline
62
9
6
CONTINUOUS
70
0
71
3
72
8
73
4
74
2
42
0.0000001000
43
0.0000001000
44
0.0000000001
12
0.0029650092
22
0.0172519489
32
0.0000000000
13
0.0000729832
23
0.0175017666
33
0.0000000000
40
0.0000000000
40
0.0000000000
40
0.0000000000
40
0.0000000000
40
1.0000000000
40
1.0000000000
40
1.0000000000
40
1.0000000000
10
10.4387125563
20
-14.1676092071
30
0.0000000000
10
10.4397008927
20
-14.1618585575
30
0.0000000000
10
10.4402179911
20
-14.1560212475
30
0.0000000000
10
10.4402423188
20
-14.1501873253
30
0.0000000000
11
10.4387125563
21
-14.1676092071
31
0.0000000000
11
10.4402423188
21
-14.1501873253
31
0.0000000000
0
SPLINE
5
300
100
AcDbEntity
8
0
100
AcDbSpline
62
9
6
CONTINUOUS
70
0
71
3
72
9
73
5
74
3
42
0.0000001000
43
0.0000001000
44
0.0000000001
12
0.0502402791
22
-0.0201055281
32
0.0000000000
13
0.0395957757
23
0.0354384718
33
0.0000000000
40
0.0000000000
40
0.0000000000
40
0.0000000000
40
0.0000000000
40
0.7254548776
40
1.0000000000
40
1.0000000000
40
1.0000000000
40
1.0000000000
10
10.3433489878
20
-14.2714095006
30
0.0000000000
10
10.3554980063
20
-14.2762713851
30
0.0000000000
10
10.3723627362
20
-14.2857458764
30
0.0000000000
10
10.3920987719
20
-14.2776138942
30
0.0000000000
10
10.3957223809
20
-14.2743707410
30
0.0000000000
11
10.3433489878
21
-14.2714095006
31
0.0000000000
11
10.3814783319
21
-14.2807519980
31
0.0000000000
11
10.3957223809
21
-14.2743707410
31
0.0000000000
0
SPLINE
5
301
100
AcDbEntity
8
0
100
AcDbSpline
62
9
6
CONTINUOUS
70
0
71
3
72
10
73
6
74
4
42
0.0000001000
43
0.0000001000
44
0.0000000001
12
-0.0565723079
22
0.0707044705
32
0.0000000000
13
-0.0796652684
23
-0.0387531563
33
0.0000000000
40
0.0000000000
40
0.0000000000
40
0.0000000000
40
0.0000000000
40
0.5781636279
40
0.9455795026
40
1.0000000000
40
1.0000000000
40
1.0000000000
40
1.0000000000
10
9.8944442661
20
-13.0073132154
30
0.0000000000
10
9.8835415825
20
-12.9936869643
30
0.0000000000
10
9.8653091466
20
-12.9730728161
30
0.0000000000
10
9.8333269224
20
-12.9583344574
30
0.0000000000
10
9.8217976574
20
-12.9626331108
30
0.0000000000
10
9.8203525162
20
-12.9633360995
30
0.0000000000
11
9.8944442661
21
-13.0073132154
31
0.0000000000
11
9.8567557993
21
-12.9709749639
31
0.0000000000
11
9.8248050588
21
-12.9616990018
31
0.0000000000
11
9.8203525162
21
-12.9633360995
31
0.0000000000
0
SPLINE
5
302
100
AcDbEntity
8
0
100
AcDbSpline
62
9
6
CONTINUOUS
70
0
71
3
72
9
73
5
74
3
42
0.0000001000
43
0.0000001000
44
0.0000000001
12
-0.0563523005
22
0.0690171910
32
0.0000000000
13
-0.0860492168
23
-0.0158201704
33
0.0000000000
40
0.0000000000
40
0.0000000000
40
0.0000000000
40
0.0000000000
40
0.5995191017
40
1.0000000000
40
1.0000000000
40
1.0000000000
40
1.0000000000
10
6.2109144827
20
-14.4809526533
30
0.0000000000
10
6.1996530558
20
-14.4671602785
30
0.0000000000
10
6.1794172344
20
-14.4450279757
30
0.0000000000
10
6.1476459038
20
-14.4355761638
30
0.0000000000
10
6.1361588812
20
-14.4376880558
30
0.0000000000
11
6.2109144827
21
-14.4809526533
31
0.0000000000
11
6.1712434038
21
-14.4451804639
31
0.0000000000
11
6.1361588812
21
-14.4376880558
31
0.0000000000
0
SPLINE
5
303
100
AcDbEntity
8
0
100
AcDbSpline
62
9
6
CONTINUOUS
70
0
71
3
72
14
73
10
74
8
42
0.0000001000
43
0.0000001000
44
0.0000000001
12
0.3351985362
22
0.1402472401
32
0.0000000000
13
-0.2935859929
23
0.2140901954
33
0.0000000000
40
0.0000000000
40
0.0000000000
40
0.0000000000
40
0.0000000000
40
0.1475415515
40
0.2820569834
40
0.4092766982
40
0.5397905820
40
0.6803440389
40
0.8331003779
40
1.0000000000
40
1.0000000000
40
1.0000000000
40
1.0000000000
10
9.7265183514
20
14.4252400273
30
0.0000000000
10
9.7430035887
20
14.4321374591
30
0.0000000000
10
9.7733913081
20
14.4485655142
30
0.0000000000
10
9.8090376337
20
14.4844571435
30
0.0000000000
10
9.8268936716
20
14.5301992786
30
0.0000000000
10
9.8228671223
20
14.5796940439
30
0.0000000000
10
9.8007503887
20
14.6268450922
30
0.0000000000
10
9.7651591825
20
14.6702473146
30
0.0000000000
10
9.7353972739
20
14.6953179777
30
0.0000000000
10
9.7190641435
20
14.7072285020
30
0.0000000000
11
9.7265183514
21
14.4252400273
31
0.0000000000
11
9.7732017289
21
14.4515972049
31
0.0000000000
11
9.8067989668
21
14.4870962389
31
0.0000000000
11
9.8232502084
21
14.5302957786
31
0.0000000000
11
9.8203246797
21
14.5776284148
31
0.0000000000
11
9.7996930418
21
14.6243464196
31
0.0000000000
11
9.7651018571
21
14.6677542755
31
0.0000000000
11
9.7190641435
21
14.7072285020
31
0.0000000000
0
SPLINE
5
304
100
AcDbEntity
8
0
100
AcDbSpline
62
9
6
CONTINUOUS
70
0
71
3
72
9
73
5
74
3
42
0.0000001000
43
0.0000001000
44
0.0000000001
12
-6.2849028720
22
-2.6296065974
32
0.0000000000
13
-6.2848730306
23
-2.6296779188
33
0.0000000000
40
0.0000000000
40
0.0000000000
40
0.0000000000
40
0.0000000000
40
0.5513535684
40
1.0000000000
40
1.0000000000
40
1.0000000000
40
1.0000000000
10
9.7265183514
20
14.4252400273
30
0.0000000000
10
8.5714504763
20
13.9419590337
30
0.0000000000
10
6.4764974998
20
13.0653884933
30
0.0000000000
10
4.3815312551
20
12.1888496640
30
0.0000000000
10
3.4416359689
20
11.7955844591
30
0.0000000000
11
9.7265183514
21
14.4252400273
31
0.0000000000
11
6.2613268447
21
12.9753680829
31
0.0000000000
11
3.4416359689
21
11.7955844591
31
0.0000000000
0
SPLINE
5
305
100
AcDbEntity
8
0
100
AcDbSpline
62
9
6
CONTINUOUS
70
0
71
3
72
10
73
6
74
4
42
0.0000001000
43
0.0000001000
44
0.0000000001
12
3.4303151655
22
1.4288534431
32
0.0000000000
13
3.4245685609
23
1.4425721707
33
0.0000000000
40
0.0000000000
40
0.0000000000
40
0.0000000000
40
0.0000000000
40
0.3364790508
40
0.6698198314
40
1.0000000000
40
1.0000000000
40
1.0000000000
40
1.0000000000
10
1.7012489529
20
14.1131996980
30
0.0000000000
10
2.0859920165
20
14.2734594481
30
0.0000000000
10
2.8517017649
20
14.5929357553
30
0.0000000000
10
3.9942527048
20
15.0713460380
30
0.0000000000
10
4.7519207737
20
15.3898266421
30
0.0000000000
10
5.1288289819
20
15.5485962162
30
0.0000000000
11
1.7012489529
21
14.1131996980
31
0.0000000000
11
2.8551867308
21
14.5946779603
31
0.0000000000
11
3.9977532146
21
15.0731219428
31
0.0000000000
11
5.1288289819
21
15.5485962162
31
0.0000000000
0
SPLINE
5
306
100
AcDbEntity
8
0
100
AcDbSpline
62
9
6
CONTINUOUS
70
0
71
3
72
11
73
7
74
5
42
0.0000001000
43
0.0000001000
44
0.0000000001
12
0.0804363971
22
0.2798694878
32
0.0000000000
13
-0.1859563943
23
0.2240918642
33
0.0000000000
40
0.0000000000
40
0.0000000000
40
0.0000000000
40
0.0000000000
40
0.2375902036
40
0.5020455075
40
0.7653952246
40
1.0000000000
40
1.0000000000
40
1.0000000000
40
1.0000000000
10
5.8010196178
20
-10.0693441042
30
0.0000000000
10
5.8073899178
20
-10.0471793547
30
0.0000000000
10
5.8130592527
20
-9.9980939750
30
0.0000000000
10
5.8053862562
20
-9.9237419498
30
0.0000000000
10
5.7833333522
20
-9.8526288812
30
0.0000000000
10
5.7588828049
20
-9.8101118697
30
0.0000000000
10
5.7443407189
20
-9.7925875292
30
0.0000000000
11
5.8010196178
21
-10.0693441042
31
0.0000000000
11
5.8103589939
21
-10.0007912950
31
0.0000000000
11
5.8028707848
21
-9.9241470692
31
0.0000000000
11
5.7796917674
21
-9.8510467145
31
0.0000000000
11
5.7443407189
21
-9.7925875292
31
0.0000000000
0
SPLINE
5
307
100
AcDbEntity
8
0
100
AcDbSpline
62
9
6
CONTINUOUS
70
0
71
3
72
10
73
6
74
4
42
0.0000001000
43
0.0000001000
44
0.0000000001
12
0.1520549071
22
0.0633335356
32
0.0000000000
13
0.0007354807
23
0.1668122988
33
0.0000000000
40
0.0000000000
40
0.0000000000
40
0.0000000000
40
0.0000000000
40
0.4157766322
40
0.7794083456
40
1.0000000000
40
1.0000000000
40
1.0000000000
40
1.0000000000
10
5.9926138503
20
-10.1944455208
30
0.0000000000
10
6.0136874761
20
-10.1856679861
30
0.0000000000
10
6.0512486858
20
-10.1632405101
30
0.0000000000
10
6.0850348831
20
-10.1173867232
30
0.0000000000
10
6.0909526589
20
-10.0848583870
30
0.0000000000
10
6.0910067392
20
-10.0725925867
30
0.0000000000
11
5.9926138503
21
-10.1944455208
31
0.0000000000
11
6.0505665022
21
-10.1579520215
31
0.0000000000
11
6.0845133677
21
-10.1086042884
31
0.0000000000
11
6.0910067392
21
-10.0725925867
31
0.0000000000
0
SPLINE
5
308
100
AcDbEntity
8
0
100
AcDbSpline
62
9
6
CONTINUOUS
70
0
71
3
72
9
73
5
74
3
42
0.0000001000
43
0.0000001000
44
0.0000000001
12
0.2221848598
22
-0.1627680575
32
0.0000000000
13
0.2225402242
23
-0.1622818569
33
0.0000000000
40
0.0000000000
40
0.0000000000
40
0.0000000000
40
0.0000000000
40
0.4996592196
40
1.0000000000
40
1.0000000000
40
1.0000000000
40
1.0000000000
10
9.4967013896
20
14.8697533785
30
0.0000000000
10
9.5337069609
20
14.8426438583
30
0.0000000000
10
9.6077982806
20
14.7884283690
30
0.0000000000
10
9.6819488270
20
14.7342939123
30
0.0000000000
10
9.7190641435
20
14.7072285020
30
0.0000000000
11
9.4967013896
21
14.8697533785
31
0.0000000000
11
9.6077625694
21
14.7884855507
31
0.0000000000
11
9.7190641435
21
14.7072285020
31
0.0000000000
0
SPLINE
5
309
100
AcDbEntity
8
0
100
AcDbSpline
62
9
6
CONTINUOUS
70
0
71
3
72
9
73
5
74
3
42
0.0000001000
43
0.0000001000
44
0.0000000001
12
0.0117055231
22
0.0127970277
32
0.0000000000
13
-0.0157002008
23
0.0107911112
33
0.0000000000
40
0.0000000000
40
0.0000000000
40
0.0000000000
40
0.0000000000
40
0.6476580892
40
1.0000000000
40
1.0000000000
40
1.0000000000
40
1.0000000000
10
2.6765568554
20
23.3325031848
30
0.0000000000
10
2.6790839143
20
23.3352658843
30
0.0000000000
10
2.6848429068
20
23.3407982620
30
0.0000000000
10
2.6804096509
20
23.3457179591
30
0.0000000000
10
2.6785657047
20
23.3469853461
30
0.0000000000
11
2.6765568554
21
23.3325031848
31
0.0000000000
11
2.6822683798
21
23.3421750670
31
0.0000000000
11
2.6785657047
21
23.3469853461
31
0.0000000000
0
SPLINE
5
30A
100
AcDbEntity
8
0
100
AcDbSpline
62
9
6
CONTINUOUS
70
0
71
3
72
9
73
5
74
3
42
0.0000001000
43
0.0000001000
44
0.0000000001
12
-0.0396001956
22
-0.0432927941
32
0.0000000000
13
-0.0383777433
23
-0.0443808236
33
0.0000000000
40
0.0000000000
40
0.0000000000
40
0.0000000000
40
0.0000000000
40
0.6005713685
40
1.0000000000
40
1.0000000000
40
1.0000000000
40
1.0000000000
10
2.6765568554
20
23.3325031848
30
0.0000000000
10
2.6686292741
20
23.3238363806
30
0.0000000000
10
2.6555491943
20
23.3092952302
30
0.0000000000
10
2.6426736785
20
23.2945731356
30
0.0000000000
10
2.6375639553
20
23.2886641450
30
0.0000000000
11
2.6765568554
21
23.3325031848
31
0.0000000000
11
2.6529920146
21
23.3063051194
31
0.0000000000
11
2.6375639553
21
23.2886641450
31
0.0000000000
0
SPLINE
5
30B
100
AcDbEntity
8
0
100
AcDbSpline
62
9
6
CONTINUOUS
70
0
71
3
72
8
73
4
74
2
42
0.0000001000
43
0.0000001000
44
0.0000000001
12
-0.0076544296
22
-0.0088517422
32
0.0000000000
13
-0.0076046886
23
-0.0088943619
33
0.0000000000
40
0.0000000000
40
0.0000000000
40
0.0000000000
40
0.0000000000
40
1.0000000000
40
1.0000000000
40
1.0000000000
40
1.0000000000
10
2.6375639553
20
23.2886641450
30
0.0000000000
10
2.6350124788
20
23.2857135643
30
0.0000000000
10
2.6324692620
20
23.2827558613
30
0.0000000000
10
2.6299343658
20
23.2797910740
30
0.0000000000
11
2.6375639553
21
23.2886641450
31
0.0000000000
11
2.6299343658
21
23.2797910740
31
0.0000000000
0
SPLINE
5
30C
100
AcDbEntity
8
0
100
AcDbSpline
62
9
6
CONTINUOUS
70
0
71
3
72
8
73
4
74
2
42
0.0000001000
43
0.0000001000
44
0.0000000001
12
-0.1215033802
22
-0.0468571776
32
0.0000000000
13
-0.1215033273
23
-0.0468573148
33
0.0000000000
40
0.0000000000
40
0.0000000000
40
0.0000000000
40
0.0000000000
40
1.0000000000
40
1.0000000000
40
1.0000000000
40
1.0000000000
10
2.6299343658
20
23.2797910740
30
0.0000000000
10
2.5894332390
20
23.2641720148
30
0.0000000000
10
2.5489321216
20
23.2485529315
30
0.0000000000
10
2.5084310125
20
23.2329338266
30
0.0000000000
11
2.6299343658
21
23.2797910740
31
0.0000000000
11
2.5084310125
21
23.2329338266
31
0.0000000000
0
SPLINE
5
30D
100
AcDbEntity
8
0
100
AcDbSpline
62
9
6
CONTINUOUS
70
0
71
3
72
9
73
5
74
3
42
0.0000001000
43
0.0000001000
44
0.0000000001
12
-3.4066759356
22
-1.3137721440
32
0.0000000000
13
-3.4066660799
23
-1.3137977001
33
0.0000000000
40
0.0000000000
40
0.0000000000
40
0.0000000000
40
0.0000000000
40
0.4821668792
40
1.0000000000
40
1.0000000000
40
1.0000000000
40
1.0000000000
10
2.5084310125
20
23.2329338266
30
0.0000000000
10
1.9609022445
20
23.0217813550
30
0.0000000000
10
0.8253467595
20
22.5838491123
30
0.0000000000
10
-0.3102123749
20
22.1459263328
30
0.0000000000
10
-0.8982405508
20
21.9191503451
30
0.0000000000
11
2.5084310125
21
23.2329338266
31
0.0000000000
11
0.8658469075
21
22.5994707096
31
0.0000000000
11
-0.8982405508
21
21.9191503451
31
0.0000000000
0
SPLINE
5
30E
100
AcDbEntity
8
0
100
AcDbSpline
62
9
6
CONTINUOUS
70
0
71
3
72
10
73
6
74
4
42
0.0000001000
43
0.0000001000
44
0.0000000001
12
3.5000500233
22
1.3474273960
32
0.0000000000
13
3.5012537158
23
1.3442965339
33
0.0000000000
40
0.0000000000
40
0.0000000000
40
0.0000000000
40
0.0000000000
40
0.3363168770
40
0.6696542863
40
1.0000000000
40
1.0000000000
40
1.0000000000
40
1.0000000000
10
-3.4920134565
20
20.4736211998
30
0.0000000000
10
-3.0996381587
20
20.6246753910
30
0.0000000000
10
-2.3183242579
20
20.9253432363
30
0.0000000000
10
-1.1514549719
20
21.3740024414
30
0.0000000000
10
-0.3769316410
20
21.6715309347
30
0.0000000000
10
0.0086097448
20
21.8195584673
30
0.0000000000
11
-3.4920134565
21
20.4736211998
31
0.0000000000
11
-2.3148265180
21
20.9266251717
31
0.0000000000
11
-1.1479408768
21
21.3752843909
31
0.0000000000
11
0.0086097448
21
21.8195584673
31
0.0000000000
0
SPLINE
5
30F
100
AcDbEntity
8
0
100
AcDbSpline
62
9
6
CONTINUOUS
70
0
71
3
72
9
73
5
74
3
42
0.0000001000
43
0.0000001000
44
0.0000000001
12
3.2824702611
22
1.2774995457
32
0.0000000000
13
3.2824760208
23
1.2774847465
33
0.0000000000
40
0.0000000000
40
0.0000000000
40
0.0000000000
40
0.0000000000
40
0.5292392488
40
1.0000000000
40
1.0000000000
40
1.0000000000
40
1.0000000000
10
-2.8820509256
20
20.3183032746
30
0.0000000000
10
-2.3029802272
20
20.5436709080
30
0.0000000000
10
-1.2088210664
20
20.9694979051
30
0.0000000000
10
-0.1146641809
20
21.3953307483
30
0.0000000000
10
0.4004227782
20
21.5957939746
30
0.0000000000
11
-2.8820509256
21
20.3183032746
31
0.0000000000
11
-1.1448369197
21
20.9944012656
31
0.0000000000
11
0.4004227782
21
21.5957939746
31
0.0000000000
0
SPLINE
5
310
100
AcDbEntity
8
0
100
AcDbSpline
62
9
6
CONTINUOUS
70
0
71
3
72
8
73
4
74
2
42
0.0000001000
43
0.0000001000
44
0.0000000001
12
0.1919542664
22
0.0747053888
32
0.0000000000
13
0.1919543521
23
0.0747051687
33
0.0000000000
40
0.0000000000
40
0.0000000000
40
0.0000000000
40
0.0000000000
40
1.0000000000
40
1.0000000000
40
1.0000000000
40
1.0000000000
10
0.4004227782
20
21.5957939746
30
0.0000000000
10
0.4644075336
20
21.6206957709
30
0.0000000000
10
0.5283923021
20
21.6455975338
30
0.0000000000
10
0.5923770861
20
21.6704992566
30
0.0000000000
11
0.4004227782
21
21.5957939746
31
0.0000000000
11
0.5923770861
21
21.6704992566
31
0.0000000000
0
SPLINE
5
311
100
AcDbEntity
8
0
100
AcDbSpline
62
9
6
CONTINUOUS
70
0
71
3
72
24
73
20
74
18
42
0.0000001000
43
0.0000001000
44
0.0000000001
12
-7.2733038537
22
8.9091049163
32
0.0000000000
13
7.2743259312
23
-8.9082704048
33
0.0000000000
40
0.0000000000
40
0.0000000000
40
0.0000000000
40
0.0000000000
40
0.0685612787
40
0.1439901149
40
0.2238062114
40
0.3056965411
40
0.3872530724
40
0.4660640186
40
0.5398077810
40
0.6064876218
40
0.6644758559
40
0.7129723635
40
0.7520695273
40
0.7838721233
40
0.8133426943
40
0.8468054954
40
0.8884215165
40
0.9396601837
40
1.0000000000
40
1.0000000000
40
1.0000000000
40
1.0000000000
10
-9.0999738041
20
-5.6975254891
30
0.0000000000
10
-9.2661961417
20
-5.4939189473
30
0.0000000000
10
-9.5927709430
20
-5.0477464192
30
0.0000000000
10
-10.0425031522
20
-4.3162243799
30
0.0000000000
10
-10.4633925018
20
-3.5096252212
30
0.0000000000
10
-10.8402207329
20
-2.6558599622
30
0.0000000000
10
-11.1600073248
20
-1.7832067769
30
0.0000000000
10
-11.4115860619
20
-0.9209108941
30
0.0000000000
10
-11.5863047239
20
-0.0978751701
30
0.0000000000
10
-11.6783233843
20
0.6583952113
30
0.0000000000
10
-11.6852141826
20
1.3239763432
30
0.0000000000
10
-11.6064112914
20
1.8795286341
30
0.0000000000
10
-11.4427021742
20
2.3126202076
30
0.0000000000
10
-11.1795319333
20
2.6122903697
30
0.0000000000
10
-10.8165628220
20
2.7277086145
30
0.0000000000
10
-10.4120799792
20
2.6483251570
30
0.0000000000
10
-9.9842126591
20
2.4129684966
30
0.0000000000
10
-9.5331445565
20
2.0327202357
30
0.0000000000
10
-9.2462843008
20
1.7139422999
30
0.0000000000
10
-9.0999738041
20
1.5347678334
30
0.0000000000
11
-9.0999738041
21
-5.6975254891
31
0.0000000000
11
-9.5687540635
21
-5.0634793764
31
0.0000000000
11
-10.0250900463
21
-4.3256945138
31
0.0000000000
11
-10.4508139643
21
-3.5124175760
31
0.0000000000
11
-10.8313409326
21
-2.6508921369
31
0.0000000000
11
-11.1534526760
21
-1.7699527036
31
0.0000000000
11
-11.4057264353
21
-0.8993620832
31
0.0000000000
11
-11.5790316348
21
-0.0691300254
31
0.0000000000
11
-11.6672332914
21
0.6926660606
31
0.0000000000
11
-11.6672419253
21
1.3595889884
31
0.0000000000
11
-11.5790419239
21
1.9103297178
31
0.0000000000
11
-11.4057321249
21
2.3252451482
31
0.0000000000
11
-11.1534546993
21
2.5900805489
31
0.0000000000
11
-10.8313418006
21
2.6955527842
31
0.0000000000
11
-10.4508058714
21
2.6380514160
31
0.0000000000
11
-10.0250662253
21
2.4193538237
31
0.0000000000
11
-9.5687301070
21
2.0464902056
31
0.0000000000
11
-9.0999738041
21
1.5347678334
31
0.0000000000
0
SPLINE
5
312
100
AcDbEntity
8
0
100
AcDbSpline
62
9
6
CONTINUOUS
70
0
71
3
72
8
73
4
74
2
42
0.0000001000
43
0.0000001000
44
0.0000000001
12
-0.1036722269
22
-0.0480700929
32
0.0000000000
13
-0.1036739971
23
-0.0480662749
33
0.0000000000
40
0.0000000000
40
0.0000000000
40
0.0000000000
40
0.0000000000
40
1.0000000000
40
1.0000000000
40
1.0000000000
40
1.0000000000
10
-9.9854122214
20
-1.3343121800
30
0.0000000000
10
-10.0199696304
20
-1.3503355443
30
0.0000000000
10
-10.0545273349
20
-1.3663582712
30
0.0000000000
10
-10.0890853339
20
-1.3823803628
30
0.0000000000
11
-9.9854122214
21
-1.3343121800
31
0.0000000000
11
-10.0890853339
21
-1.3823803628
31
0.0000000000
0
SPLINE
5
313
100
AcDbEntity
8
0
100
AcDbSpline
62
9
6
CONTINUOUS
70
0
71
3
72
8
73
4
74
2
42
0.0000001000
43
0.0000001000
44
0.0000000001
12
-0.1293973474
22
-0.0599923670
32
0.0000000000
13
-0.1294000943
23
-0.0599864420
33
0.0000000000
40
0.0000000000
40
0.0000000000
40
0.0000000000
40
0.0000000000
40
1.0000000000
40
1.0000000000
40
1.0000000000
40
1.0000000000
10
-10.0890853339
20
-1.3823803628
30
0.0000000000
10
-10.1322177831
20
-1.4023778185
30
0.0000000000
10
-10.1753506910
20
-1.4223742846
30
0.0000000000
10
-10.2184840558
20
-1.4423697652
30
0.0000000000
11
-10.0890853339
21
-1.3823803628
31
0.0000000000
11
-10.2184840558
21
-1.4423697652
31
0.0000000000
0
SPLINE
5
314
100
AcDbEntity
8
0
100
AcDbSpline
62
9
6
CONTINUOUS
70
0
71
3
72
12
73
8
74
6
42
0.0000001000
43
0.0000001000
44
0.0000000001
12
-2.0643260154
22
-0.8708821412
32
0.0000000000
13
-1.4017774251
23
1.7167303404
33
0.0000000000
40
0.0000000000
40
0.0000000000
40
0.0000000000
40
0.0000000000
40
0.0946162933
40
0.2548313052
40
0.4560941642
40
0.7053991036
40
1.0000000000
40
1.0000000000
40
1.0000000000
40
1.0000000000
10
-7.0293282337
20
-6.4317027094
30
0.0000000000
10
-7.0944345256
20
-6.4591692561
30
0.0000000000
10
-7.2833768589
20
-6.5034550645
30
0.0000000000
10
-7.6225670100
20
-6.4312109174
30
0.0000000000
10
-8.0181641077
20
-6.2070207028
30
0.0000000000
10
-8.4382749555
20
-5.8475682615
30
0.0000000000
10
-8.7070590790
20
-5.5476301460
30
0.0000000000
10
-8.8447140410
20
-5.3790467136
30
0.0000000000
11
-7.0293282337
21
-6.4317027094
31
0.0000000000
11
-7.2348181106
21
-6.4803854169
31
0.0000000000
11
-7.5852236183
21
-6.4228959188
31
0.0000000000
11
-7.9795042367
21
-6.2142869877
31
0.0000000000
11
-8.4047840937
21
-5.8615246941
31
0.0000000000
11
-8.8447140410
21
-5.3790467136
31
0.0000000000
0
SPLINE
5
315
100
AcDbEntity
8
0
100
AcDbSpline
62
9
6
CONTINUOUS
70
0
71
3
72
8
73
4
74
2
42
0.0000001000
43
0.0000001000
44
0.0000000001
12
0.0270830157
22
-0.0330039136
32
0.0000000000
13
0.0166539573
23
-0.0398123466
33
0.0000000000
40
0.0000000000
40
0.0000000000
40
0.0000000000
40
0.0000000000
40
1.0000000000
40
1.0000000000
40
1.0000000000
40
1.0000000000
10
3.4181961728
20
22.9551562796
30
0.0000000000
10
3.4272238447
20
22.9441549750
30
0.0000000000
10
3.4344709233
20
22.9316363353
30
0.0000000000
10
3.4400222424
20
22.9183655531
30
0.0000000000
11
3.4181961728
21
22.9551562796
31
0.0000000000
11
3.4400222424
21
22.9183655531
31
0.0000000000
0
SPLINE
5
316
100
AcDbEntity
8
0
100
AcDbSpline
62
9
6
CONTINUOUS
70
0
71
3
72
10
73
6
74
4
42
0.0000001000
43
0.0000001000
44
0.0000000001
12
0.0469844828
22
-0.1123194016
32
0.0000000000
13
-0.0218102892
23
-0.1188535078
33
0.0000000000
40
0.0000000000
40
0.0000000000
40
0.0000000000
40
0.0000000000
40
0.1863995957
40
0.7885038812
40
1.0000000000
40
1.0000000000
40
1.0000000000
40
1.0000000000
10
3.4400222424
20
22.9183655531
30
0.0000000000
10
3.4429415386
20
22.9113867894
30
0.0000000000
10
3.4533069370
20
22.8809854825
30
0.0000000000
10
3.4560901090
20
22.8402348100
30
0.0000000000
10
3.4518013460
20
22.8077056599
30
0.0000000000
10
3.4502637488
20
22.7993266414
30
0.0000000000
11
3.4400222424
21
22.9183655531
31
0.0000000000
11
3.4473856127
21
22.8969165409
31
0.0000000000
11
3.4535882555
21
22.8246598960
31
0.0000000000
11
3.4502637488
21
22.7993266414
31
0.0000000000
0
SPLINE
5
317
100
AcDbEntity
8
0
100
AcDbSpline
62
9
6
CONTINUOUS
70
0
71
3
72
9
73
5
74
3
42
0.0000001000
43
0.0000001000
44
0.0000000001
12
-0.0232470352
22
-0.1266829453
32
0.0000000000
13
-0.0807024647
23
-0.0998460191
33
0.0000000000
40
0.0000000000
40
0.0000000000
40
0.0000000000
40
0.0000000000
40
0.4033331355
40
1.0000000000
40
1.0000000000
40
1.0000000000
40
1.0000000000
10
3.4502637488
20
22.7993266414
30
0.0000000000
10
3.4471383156
20
22.7822948315
30
0.0000000000
10
3.4350588440
20
22.7408555827
30
0.0000000000
10
3.4132801871
20
22.7031617855
30
0.0000000000
10
3.3972293582
20
22.6833035151
30
0.0000000000
11
3.4502637488
21
22.7993266414
31
0.0000000000
11
3.4358163729
21
22.7494764883
31
0.0000000000
11
3.3972293582
21
22.6833035151
31
0.0000000000
0
SPLINE
5
318
100
AcDbEntity
8
0
100
AcDbSpline
62
9
6
CONTINUOUS
70
0
71
3
72
12
73
8
74
6
42
0.0000001000
43
0.0000001000
44
0.0000000001
12
0.0000712417
22
-0.3093957794
32
0.0000000000
13
-0.2428795400
23
-0.1921684313
33
0.0000000000
40
0.0000000000
40
0.0000000000
40
0.0000000000
40
0.0000000000
40
0.1773886648
40
0.3964465929
40
0.6478077960
40
0.9130254330
40
1.0000000000
40
1.0000000000
40
1.0000000000
40
1.0000000000
10
10.3433489878
20
13.3885976782
30
0.0000000000
10
10.3433532002
20
13.3703032434
30
0.0000000000
10
10.3369632057
20
13.3293602442
30
0.0000000000
10
10.3112513754
20
13.2671706052
30
0.0000000000
10
10.2687519535
20
13.2037810476
30
0.0000000000
10
10.2254320769
20
13.1586741369
30
0.0000000000
10
10.1975354201
20
13.1353330844
30
0.0000000000
10
10.1904939725
20
13.1297618290
30
0.0000000000
11
10.3433489878
21
13.3885976782
31
0.0000000000
11
10.3357638547
21
13.3342410503
31
0.0000000000
11
10.3106890296
21
13.2712745105
31
0.0000000000
11
10.2678398427
21
13.2063735457
31
0.0000000000
11
10.2111540209
21
13.1470430737
31
0.0000000000
11
10.1904939725
21
13.1297618290
31
0.0000000000
0
SPLINE
5
319
100
AcDbEntity
8
0
100
AcDbSpline
62
9
6
CONTINUOUS
70
0
71
3
72
9
73
5
74
3
42
0.0000001000
43
0.0000001000
44
0.0000000001
12
-0.0956806191
22
-0.0757033486
32
0.0000000000
13
-0.1121843563
23
-0.0476490345
33
0.0000000000
40
0.0000000000
40
0.0000000000
40
0.0000000000
40
0.0000000000
40
0.4285123826
40
1.0000000000
40
1.0000000000
40
1.0000000000
40
1.0000000000
10
10.1904939725
20
13.1297618290
30
0.0000000000
10
10.1768271958
20
13.1189485549
30
0.0000000000
10
10.1435946557
20
13.0954095994
30
0.0000000000
10
10.1075302832
20
13.0762698708
30
0.0000000000
10
10.0861596264
20
13.0671929264
30
0.0000000000
11
10.1904939725
21
13.1297618290
31
0.0000000000
11
10.1478260968
21
13.0995828858
31
0.0000000000
11
10.0861596264
21
13.0671929264
31
0.0000000000
0
SPLINE
5
31A
100
AcDbEntity
8
0
100
AcDbSpline
62
9
6
CONTINUOUS
70
0
71
3
72
9
73
5
74
3
42
0.0000001000
43
0.0000001000
44
0.0000000001
12
-0.1346489384
22
-0.0470986271
32
0.0000000000
13
-0.1426545631
23
-0.0098978343
33
0.0000000000
40
0.0000000000
40
0.0000000000
40
0.0000000000
40
0.0000000000
40
0.7626035703
40
1.0000000000
40
1.0000000000
40
1.0000000000
40
1.0000000000
10
-2.4004691533
20
-23.5204383461
30
0.0000000000
10
-2.4346970737
20
-23.5324108732
30
0.0000000000
10
-2.4810597112
20
-23.5443810309
30
0.0000000000
10
-2.5284962681
20
-23.5495403557
30
0.0000000000
10
-2.5397848294
20
-23.5503235926
30
0.0000000000
11
-2.4004691533
21
-23.5204383461
31
0.0000000000
11
-2.5060342526
21
-23.5467069066
31
0.0000000000
11
-2.5397848294
21
-23.5503235926
31
0.0000000000
0
SPLINE
5
31B
100
AcDbEntity
8
0
100
AcDbSpline
62
9
6
CONTINUOUS
70
0
71
3
72
8
73
4
74
2
42
0.0000001000
43
0.0000001000
44
0.0000000001
12
-0.0328775554
22
-0.0022811510
32
0.0000000000
13
-0.0329406730
23
0.0003743749
33
0.0000000000
40
0.0000000000
40
0.0000000000
40
0.0000000000
40
0.0000000000
40
1.0000000000
40
1.0000000000
40
1.0000000000
40
1.0000000000
10
-2.5397848294
20
-23.5503235926
30
0.0000000000
10
-2.5507440146
20
-23.5510839762
30
0.0000000000
10
-2.5617289224
20
-23.5514281835
30
0.0000000000
10
-2.5727091467
20
-23.5513033919
30
0.0000000000
11
-2.5397848294
21
-23.5503235926
31
0.0000000000
11
-2.5727091467
21
-23.5513033919
31
0.0000000000
0
SPLINE
5
31C
100
AcDbEntity
8
0
100
AcDbSpline
62
9
6
CONTINUOUS
70
0
71
3
72
12
73
8
74
6
42
0.0000001000
43
0.0000001000
44
0.0000000001
12
-0.3539482101
22
0.0040226661
32
0.0000000000
13
-0.0186614318
23
0.3527619344
33
0.0000000000
40
0.0000000000
40
0.0000000000
40
0.0000000000
40
0.0000000000
40
0.0888163633
40
0.3347056254
40
0.5568360987
40
0.7721920864
40
1.0000000000
40
1.0000000000
40
1.0000000000
40
1.0000000000
10
-2.5727091467
20
-23.5513033919
30
0.0000000000
10
-2.5831879443
20
-23.5511842991
30
0.0000000000
10
-2.6226613555
20
-23.5491258056
30
0.0000000000
10
-2.6876064761
20
-23.5345244463
30
0.0000000000
10
-2.7572136750
20
-23.4903216754
30
0.0000000000
10
-2.8024096369
20
-23.4237211773
30
0.0000000000
10
-2.8131514217
20
-23.3713275939
30
0.0000000000
10
-2.8145684957
20
-23.3445402738
30
0.0000000000
11
-2.5727091467
21
-23.5513033919
31
0.0000000000
11
-2.6041063152
21
-23.5496187757
31
0.0000000000
11
-2.6884688629
21
-23.5289328308
31
0.0000000000
11
-2.7540775778
21
-23.4858882006
31
0.0000000000
11
-2.7969909480
21
-23.4230714610
31
0.0000000000
11
-2.8145684957
21
-23.3445402738
31
0.0000000000
0
SPLINE
5
31D
100
AcDbEntity
8
0
100
AcDbSpline
62
9
6
CONTINUOUS
70
0
71
3
72
8
73
4
74
2
42
0.0000001000
43
0.0000001000
44
0.0000000001
12
-0.3692322191
22
6.9492850179
32
0.0000000000
13
-0.1919419470
23
6.9569427613
33
0.0000000000
40
0.0000000000
40
0.0000000000
40
0.0000000000
40
0.0000000000
40
1.0000000000
40
1.0000000000
40
1.0000000000
40
1.0000000000
10
-3.4896032549
20
-23.2267981405
30
0.0000000000
10
-3.6126806612
20
-20.9103698012
30
0.0000000000
10
-3.7058080439
20
-18.5922027157
30
0.0000000000
10
-3.7697886929
20
-16.2732217953
30
0.0000000000
11
-3.4896032549
21
-23.2267981405
31
0.0000000000
11
-3.7697886929
21
-16.2732217953
31
0.0000000000
0
SPLINE
5
31E
100
AcDbEntity
8
0
100
AcDbSpline
62
9
6
CONTINUOUS
70
0
71
3
72
8
73
4
74
2
42
0.0000001000
43
0.0000001000
44
0.0000000001
12
-0.0101336735
22
0.3672953588
32
0.0000000000
13
-0.0096465724
23
0.3673085612
33
0.0000000000
40
0.0000000000
40
0.0000000000
40
0.0000000000
40
0.0000000000
40
1.0000000000
40
1.0000000000
40
1.0000000000
40
1.0000000000
10
-3.7697886929
20
-16.2732217953
30
0.0000000000
10
-3.7731665840
20
-16.1507900090
30
0.0000000000
10
-3.7764632326
20
-16.0283559543
30
0.0000000000
10
-3.7796787567
20
-15.9059197672
30
0.0000000000
11
-3.7697886929
21
-16.2732217953
31
0.0000000000
11
-3.7796787567
21
-15.9059197672
31
0.0000000000
0
SPLINE
5
31F
100
AcDbEntity
8
0
100
AcDbSpline
62
9
6
CONTINUOUS
70
0
71
3
72
8
73
4
74
2
42
0.0000001000
43
0.0000001000
44
0.0000000001
12
-0.0043780226
22
0.1667001626
32
0.0000000000
13
-0.0042777992
23
0.1667027597
33
0.0000000000
40
0.0000000000
40
0.0000000000
40
0.0000000000
40
0.0000000000
40
1.0000000000
40
1.0000000000
40
1.0000000000
40
1.0000000000
10
-3.7796787567
20
-15.9059197672
30
0.0000000000
10
-3.7811380976
20
-15.8503530463
30
0.0000000000
10
-3.7825807290
20
-15.7947858863
30
0.0000000000
10
-3.7840066621
20
-15.7392182997
30
0.0000000000
11
-3.7796787567
21
-15.9059197672
31
0.0000000000
11
-3.7840066621
21
-15.7392182997
31
0.0000000000
0
SPLINE
5
320
100
AcDbEntity
8
0
100
AcDbSpline
62
9
6
CONTINUOUS
70
0
71
3
72
8
73
4
74
2
42
0.0000001000
43
0.0000001000
44
0.0000000001
12
-0.0016715853
22
0.0651404775
32
0.0000000000
13
-0.0016562890
23
0.0651408660
33
0.0000000000
40
0.0000000000
40
0.0000000000
40
0.0000000000
40
0.0000000000
40
1.0000000000
40
1.0000000000
40
1.0000000000
40
1.0000000000
10
-3.7840066621
20
-15.7392182997
30
0.0000000000
10
-3.7845638572
20
-15.7175048072
30
0.0000000000
10
-3.7851185026
20
-15.6957912496
30
0.0000000000
10
-3.7856705990
20
-15.6740776276
30
0.0000000000
11
-3.7840066621
21
-15.7392182997
31
0.0000000000
11
-3.7856705990
21
-15.6740776276
31
0.0000000000
0
SPLINE
5
321
100
AcDbEntity
8
0
100
AcDbSpline
62
9
6
CONTINUOUS
70
0
71
3
72
8
73
4
74
2
42
0.0000001000
43
0.0000001000
44
0.0000000001
12
-0.0010885094
22
0.0428104288
32
0.0000000000
13
-0.0010819042
23
0.0428105949
33
0.0000000000
40
0.0000000000
40
0.0000000000
40
0.0000000000
40
0.0000000000
40
1.0000000000
40
1.0000000000
40
1.0000000000
40
1.0000000000
10
-3.7856705990
20
-15.6740776276
30
0.0000000000
10
-3.7860334354
20
-15.6598074847
30
0.0000000000
10
-3.7863951709
20
-15.6455373140
30
0.0000000000
10
-3.7867558057
20
-15.6312671156
30
0.0000000000
11
-3.7856705990
21
-15.6740776276
31
0.0000000000
11
-3.7867558057
21
-15.6312671156
31
0.0000000000
0
SPLINE
5
322
100
AcDbEntity
8
0
100
AcDbSpline
62
9
6
CONTINUOUS
70
0
71
3
72
8
73
4
74
2
42
0.0000001000
43
0.0000001000
44
0.0000000001
12
-0.0043619383
22
0.1726004676
32
0.0000000000
13
-0.0042546184
23
0.1726031153
33
0.0000000000
40
0.0000000000
40
0.0000000000
40
0.0000000000
40
0.0000000000
40
1.0000000000
40
1.0000000000
40
1.0000000000
40
1.0000000000
10
-3.7867558057
20
-15.6312671156
30
0.0000000000
10
-3.7882097851
20
-15.5737336265
30
0.0000000000
10
-3.7896458717
20
-15.5161996889
30
0.0000000000
10
-3.7910640778
20
-15.4586653172
30
0.0000000000
11
-3.7867558057
21
-15.6312671156
31
0.0000000000
11
-3.7910640778
21
-15.4586653172
31
0.0000000000
0
SPLINE
5
323
100
AcDbEntity
8
0
100
AcDbSpline
62
9
6
CONTINUOUS
70
0
71
3
72
8
73
4
74
2
42
0.0000001000
43
0.0000001000
44
0.0000000001
12
-0.0012873857
22
0.0522271965
32
0.0000000000
13
-0.0012775641
23
0.0522274338
33
0.0000000000
40
0.0000000000
40
0.0000000000
40
0.0000000000
40
0.0000000000
40
1.0000000000
40
1.0000000000
40
1.0000000000
40
1.0000000000
10
-3.7910640778
20
-15.4586653172
30
0.0000000000
10
-3.7914932064
20
-15.4412562517
30
0.0000000000
10
-3.7919206979
20
-15.4238471464
30
0.0000000000
10
-3.7923465526
20
-15.4064380018
30
0.0000000000
11
-3.7910640778
21
-15.4586653172
31
0.0000000000
11
-3.7923465526
21
-15.4064380018
31
0.0000000000
0
SPLINE
5
324
100
AcDbEntity
8
0
100
AcDbSpline
62
9
6
CONTINUOUS
70
0
71
3
72
8
73
4
74
2
42
0.0000001000
43
0.0000001000
44
0.0000000001
12
-0.0117438283
22
0.4800933273
32
0.0000000000
13
-0.0109147861
23
0.4801123740
33
0.0000000000
40
0.0000000000
40
0.0000000000
40
0.0000000000
40
0.0000000000
40
1.0000000000
40
1.0000000000
40
1.0000000000
40
1.0000000000
10
-3.7923465526
20
-15.4064380018
30
0.0000000000
10
-3.7962611621
20
-15.2464068927
30
0.0000000000
10
-3.8000374658
20
-15.0863724572
30
0.0000000000
10
-3.8036757278
20
-14.9263349993
30
0.0000000000
11
-3.7923465526
21
-15.4064380018
31
0.0000000000
11
-3.8036757278
21
-14.9263349993
31
0.0000000000
0
SPLINE
5
325
100
AcDbEntity
8
0
100
AcDbSpline
62
9
6
CONTINUOUS
70
0
71
3
72
8
73
4
74
2
42
0.0000001000
43
0.0000001000
44
0.0000000001
12
-0.0045226520
22
0.1989394169
32
0.0000000000
13
-0.0043805024
23
0.1989424657
33
0.0000000000
40
0.0000000000
40
0.0000000000
40
0.0000000000
40
0.0000000000
40
1.0000000000
40
1.0000000000
40
1.0000000000
40
1.0000000000
10
-3.8036757278
20
-14.9263349993
30
0.0000000000
10
-3.8051832785
20
-14.8600218603
30
0.0000000000
10
-3.8066671282
20
-14.7937082024
30
0.0000000000
10
-3.8081272956
20
-14.7273940471
30
0.0000000000
11
-3.8036757278
21
-14.9263349993
31
0.0000000000
11
-3.8081272956
21
-14.7273940471
31
0.0000000000
0
SPLINE
5
326
100
AcDbEntity
8
0
100
AcDbSpline
62
9
6
CONTINUOUS
70
0
71
3
72
8
73
4
74
2
42
0.0000001000
43
0.0000001000
44
0.0000000001
12
-0.0005677255
22
0.0257835073
32
0.0000000000
13
-0.0005653389
23
0.0257835573
33
0.0000000000
40
0.0000000000
40
0.0000000000
40
0.0000000000
40
0.0000000000
40
1.0000000000
40
1.0000000000
40
1.0000000000
40
1.0000000000
10
-3.8081272956
20
-14.7273940471
30
0.0000000000
10
-3.8083165375
20
-14.7187995447
30
0.0000000000
10
-3.8085053815
20
-14.7102050339
30
0.0000000000
10
-3.8086938278
20
-14.7016105148
30
0.0000000000
11
-3.8081272956
21
-14.7273940471
31
0.0000000000
11
-3.8086938278
21
-14.7016105148
31
0.0000000000
0
SPLINE
5
327
100
AcDbEntity
8
0
100
AcDbSpline
62
9
6
CONTINUOUS
70
0
71
3
72
8
73
4
74
2
42
0.0000001000
43
0.0000001000
44
0.0000000001
12
-0.0014615132
22
0.0666556072
32
0.0000000000
13
-0.0014455659
23
0.0666559379
33
0.0000000000
40
0.0000000000
40
0.0000000000
40
0.0000000000
40
0.0000000000
40
1.0000000000
40
1.0000000000
40
1.0000000000
40
1.0000000000
10
-3.8086938278
20
-14.7016105148
30
0.0000000000
10
-3.8091809989
20
-14.6793919790
30
0.0000000000
10
-3.8096655117
20
-14.6571733878
30
0.0000000000
10
-3.8101473670
20
-14.6349547418
30
0.0000000000
11
-3.8086938278
21
-14.7016105148
31
0.0000000000
11
-3.8101473670
21
-14.6349547418
31
0.0000000000
0
SPLINE
5
328
100
AcDbEntity
8
0
100
AcDbSpline
62
9
6
CONTINUOUS
70
0
71
3
72
10
73
6
74
4
42
0.0000001000
43
0.0000001000
44
0.0000000001
12
-0.3027814167
22
13.9614386818
32
0.0000000000
13
0.3771631657
23
13.9595273865
33
0.0000000000
40
0.0000000000
40
0.0000000000
40
0.0000000000
40
0.0000000000
40
0.0845357960
40
0.7942827304
40
1.0000000000
40
1.0000000000
40
1.0000000000
40
1.0000000000
10
-3.8101473670
20
-14.6349547418
30
0.0000000000
10
-3.8186793231
20
-14.2415409645
30
0.0000000000
10
-3.8910155303
20
-10.5449366154
30
0.0000000000
10
-3.8899169270
20
-5.8895164340
30
0.0000000000
10
-3.7955515190
20
-1.6291365737
30
0.0000000000
10
-3.7696885268
20
-0.6718979540
30
0.0000000000
11
-3.8101473670
21
-14.6349547418
31
0.0000000000
11
-3.8332475930
21
-13.4546664742
31
0.0000000000
11
-3.8332475931
21
-3.5439425564
31
0.0000000000
11
-3.7696885268
21
-0.6718979540
31
0.0000000000
0
SPLINE
5
329
100
AcDbEntity
8
0
100
AcDbSpline
62
9
6
CONTINUOUS
70
0
71
3
72
8
73
4
74
2
42
0.0000001000
43
0.0000001000
44
0.0000000001
12
0.1937932822
22
7.1726586151
32
0.0000000000
13
0.3654967487
23
7.1655092344
33
0.0000000000
40
0.0000000000
40
0.0000000000
40
0.0000000000
40
0.0000000000
40
1.0000000000
40
1.0000000000
40
1.0000000000
40
1.0000000000
10
-3.7696885268
20
-0.6718979540
30
0.0000000000
10
-3.7050907661
20
1.7189882511
30
0.0000000000
10
-3.6114355045
20
4.1090838249
30
0.0000000000
10
-3.4896032549
20
6.4975869031
30
0.0000000000
11
-3.7696885268
21
-0.6718979540
31
0.0000000000
11
-3.4896032549
21
6.4975869031
31
0.0000000000
0
SPLINE
5
32A
100
AcDbEntity
8
0
100
AcDbSpline
62
9
6
CONTINUOUS
70
0
71
3
72
8
73
4
74
2
42
0.0000001000
43
0.0000001000
44
0.0000000001
12
-0.3540096866
22
6.6627277133
32
0.0000000000
13
-0.1907859301
23
6.6698769149
33
0.0000000000
40
0.0000000000
40
0.0000000000
40
0.0000000000
40
0.0000000000
40
1.0000000000
40
1.0000000000
40
1.0000000000
40
1.0000000000
10
-2.8145684957
20
-23.3445402738
30
0.0000000000
10
-2.9325717246
20
-21.1236310360
30
0.0000000000
10
-3.0230163725
20
-18.9011218722
30
0.0000000000
10
-3.0866116826
20
-16.6778295672
30
0.0000000000
11
-2.8145684957
21
-23.3445402738
31
0.0000000000
11
-3.0866116826
21
-16.6778295672
31
0.0000000000
0
SPLINE
5
32B
100
AcDbEntity
8
0
100
AcDbSpline
62
9
6
CONTINUOUS
70
0
71
3
72
10
73
6
74
4
42
0.0000001000
43
0.0000001000
44
0.0000000001
12
-0.6586577541
22
23.0266778334
32
0.0000000000
13
1.1734215806
23
23.0045342781
33
0.0000000000
40
0.0000000000
40
0.0000000000
40
0.0000000000
40
0.0000000000
40
0.1344186373
40
0.5642465287
40
1.0000000000
40
1.0000000000
40
1.0000000000
40
1.0000000000
10
-3.0866116826
20
-16.6778295672
30
0.0000000000
10
-3.1161236418
20
-15.6460913483
30
0.0000000000
10
-3.2157343571
20
-11.3144757317
30
0.0000000000
10
-3.2139220864
20
-3.6349441649
30
0.0000000000
10
-2.9850093380
20
3.0086851624
30
0.0000000000
10
-2.8145684957
20
6.3501203847
30
0.0000000000
11
-3.0866116826
21
-16.6778295672
31
0.0000000000
11
-3.1578723828
21
-13.5821905867
31
0.0000000000
11
-3.1578723152
21
-3.6813449776
31
0.0000000000
11
-2.8145684957
21
6.3501203847
31
0.0000000000
0
SPLINE
5
32C
100
AcDbEntity
8
0
100
AcDbSpline
62
9
6
CONTINUOUS
70
0
71
3
72
8
73
4
74
2
42
0.0000001000
43
0.0000001000
44
0.0000000001
12
0.0271566474
22
-0.0329297725
32
0.0000000000
13
0.0168198843
23
-0.0397243626
33
0.0000000000
40
0.0000000000
40
0.0000000000
40
0.0000000000
40
0.0000000000
40
1.0000000000
40
1.0000000000
40
1.0000000000
40
1.0000000000
10
10.3628158599
20
14.4497689340
30
0.0000000000
10
10.3718680757
20
14.4387923432
30
0.0000000000
10
10.3791601224
20
14.4263061710
30
0.0000000000
10
10.3847667505
20
14.4130647168
30
0.0000000000
11
10.3628158599
21
14.4497689340
31
0.0000000000
11
10.3847667505
21
14.4130647168
31
0.0000000000
0
SPLINE
5
32D
100
AcDbEntity
8
0
100
AcDbSpline
62
9
6
CONTINUOUS
70
0
71
3
72
10
73
6
74
4
42
0.0000001000
43
0.0000001000
44
0.0000000001
12
0.0473300307
22
-0.1117817023
32
0.0000000000
13
-0.0211170915
23
-0.1186327986
33
0.0000000000
40
0.0000000000
40
0.0000000000
40
0.0000000000
40
0.0000000000
40
0.1866738554
40
0.7887256382
40
1.0000000000
40
1.0000000000
40
1.0000000000
40
1.0000000000
10
10.3847667505
20
14.4130647168
30
0.0000000000
10
10.3877118436
20
14.4061091430
30
0.0000000000
10
10.3981903935
20
14.3758402442
30
0.0000000000
10
10.4011950864
20
14.3352208508
30
0.0000000000
10
10.3970940409
20
14.3027718122
30
0.0000000000
10
10.3956068743
20
14.2944171226
30
0.0000000000
11
10.3847667505
21
14.4130647168
31
0.0000000000
11
10.3922177056
21
14.3916821159
31
0.0000000000
11
10.3987830294
21
14.3196697789
31
0.0000000000
11
10.3956068743
21
14.2944171226
31
0.0000000000
0
SPLINE
5
32E
100
AcDbEntity
8
0
100
AcDbSpline
62
9
6
CONTINUOUS
70
0
71
3
72
9
73
5
74
3
42
0.0000001000
43
0.0000001000
44
0.0000000001
12
-0.0224907956
22
-0.1263500719
32
0.0000000000
13
-0.0799141239
23
-0.0998872739
33
0.0000000000
40
0.0000000000
40
0.0000000000
40
0.0000000000
40
0.0000000000
40
0.4031553087
40
1.0000000000
40
1.0000000000
40
1.0000000000
40
1.0000000000
10
10.3956068743
20
14.2944171226
30
0.0000000000
10
10.3925844464
20
14.2774375552
30
0.0000000000
10
10.3807655270
20
14.2360837492
30
0.0000000000
10
10.3592477613
20
14.1984195682
30
0.0000000000
10
10.3433489878
20
14.1785471718
30
0.0000000000
11
10.3956068743
21
14.2944171226
31
0.0000000000
11
10.3814783319
21
14.2446932326
31
0.0000000000
11
10.3433489878
21
14.1785471718
31
0.0000000000
0
SPLINE
5
32F
100
AcDbEntity
8
0
100
AcDbSpline
62
9
6
CONTINUOUS
70
0
71
3
72
9
73
5
74
3
42
0.0000001000
43
0.0000001000
44
0.0000000001
12
0.0095782232
22
-0.0559564405
32
0.0000000000
13
-0.0440193105
23
-0.0356853520
33
0.0000000000
40
0.0000000000
40
0.0000000000
40
0.0000000000
40
0.0000000000
40
0.7238199100
40
1.0000000000
40
1.0000000000
40
1.0000000000
40
1.0000000000
10
6.4354583965
20
11.5161099364
30
0.0000000000
10
6.4377693661
20
11.5026091412
30
0.0000000000
10
6.4430011942
20
11.4832172027
30
0.0000000000
10
6.4309481990
20
11.4647609801
30
0.0000000000
10
6.4268957800
20
11.4614757856
30
0.0000000000
11
6.4354583965
21
11.5161099364
31
0.0000000000
11
6.4362873861
21
11.4750268347
31
0.0000000000
11
6.4268957800
21
11.4614757856
31
0.0000000000
0
SPLINE
5
330
100
AcDbEntity
8
0
100
AcDbSpline
62
9
6
CONTINUOUS
70
0
71
3
72
9
73
5
74
3
42
0.0000001000
43
0.0000001000
44
0.0000000001
12
0.0417568609
22
-0.0352813408
32
0.0000000000
13
0.0346797996
23
-0.0423434447
33
0.0000000000
40
0.0000000000
40
0.0000000000
40
0.0000000000
40
0.0000000000
40
0.7972660458
40
1.0000000000
40
1.0000000000
40
1.0000000000
40
1.0000000000
10
3.0000194783
20
23.1241471577
30
0.0000000000
10
3.0111165875
20
23.1147709527
30
0.0000000000
10
3.0242227161
20
23.1020068340
30
0.0000000000
10
3.0360574237
20
23.0881163191
30
0.0000000000
10
3.0384010147
20
23.0852548344
30
0.0000000000
11
3.0000194783
21
23.1241471577
31
0.0000000000
11
3.0312065728
21
23.0937021810
31
0.0000000000
11
3.0384010147
21
23.0852548344
31
0.0000000000
0
SPLINE
5
331
100
AcDbEntity
8
0
100
AcDbSpline
62
9
6
CONTINUOUS
70
0
71
3
72
9
73
5
74
3
42
0.0000001000
43
0.0000001000
44
0.0000000001
12
0.1208241955
22
-0.1478640849
32
0.0000000000
13
0.1736457755
23
-0.0806399683
33
0.0000000000
40
0.0000000000
40
0.0000000000
40
0.0000000000
40
0.0000000000
40
0.6737258031
40
1.0000000000
40
1.0000000000
40
1.0000000000
40
1.0000000000
10
-3.4896032457
20
-23.2267981364
30
0.0000000000
10
-3.4624691196
20
-23.2600047529
30
0.0000000000
10
-3.4127230075
20
-23.3018228463
30
0.0000000000
10
-3.3564413690
20
-23.3321891363
30
0.0000000000
10
-3.3375559903
20
-23.3409593832
30
0.0000000000
11
-3.4896032457
21
-23.2267981364
31
0.0000000000
11
-3.3924721233
21
-23.3111545625
31
0.0000000000
11
-3.3375559903
21
-23.3409593832
31
0.0000000000
0
SPLINE
5
332
100
AcDbEntity
8
0
100
AcDbSpline
62
9
6
CONTINUOUS
70
0
71
3
72
8
73
4
74
2
42
0.0000001000
43
0.0000001000
44
0.0000000001
12
0.0280231991
22
-0.0130137913
32
0.0000000000
13
0.0287266075
23
-0.0113737104
33
0.0000000000
40
0.0000000000
40
0.0000000000
40
0.0000000000
40
0.0000000000
40
1.0000000000
40
1.0000000000
40
1.0000000000
40
1.0000000000
10
-3.3375559903
20
-23.3409593832
30
0.0000000000
10
-3.3282149240
20
-23.3452973137
30
0.0000000000
10
-3.3187461190
20
-23.3493569596
30
0.0000000000
10
-3.3091705832
20
-23.3531481964
30
0.0000000000
11
-3.3375559903
21
-23.3409593832
31
0.0000000000
11
-3.3091705832
21
-23.3531481964
31
0.0000000000
0
SPLINE
5
333
100
AcDbEntity
8
0
100
AcDbSpline
62
9
6
CONTINUOUS
70
0
71
3
72
11
73
7
74
5
42
0.0000001000
43
0.0000001000
44
0.0000000001
12
0.4713581071
22
-0.1866245648
32
0.0000000000
13
0.4651930803
23
0.1981612804
33
0.0000000000
40
0.0000000000
40
0.0000000000
40
0.0000000000
40
0.0000000000
40
0.0959763519
40
0.3950998813
40
0.7010715539
40
1.0000000000
40
1.0000000000
40
1.0000000000
40
1.0000000000
10
-3.3091705832
20
-23.3531481964
30
0.0000000000
10
-3.2940908394
20
-23.3591187113
30
0.0000000000
10
-3.2309233263
20
-23.3809568368
30
0.0000000000
10
-3.1133454911
20
-23.4008495387
30
0.0000000000
10
-2.9600541606
20
-23.3924791354
30
0.0000000000
10
-2.8609216439
20
-23.3642856217
30
0.0000000000
10
-2.8145684957
20
-23.3445402738
30
0.0000000000
11
-3.3091705832
21
-23.3531481964
31
0.0000000000
11
-3.2632193038
21
-23.3691013012
31
0.0000000000
11
-3.1142198526
21
-23.3950903537
31
0.0000000000
11
-2.9597394387
21
-23.3866334478
31
0.0000000000
11
-2.8145684957
21
-23.3445402738
31
0.0000000000
0
SPLINE
5
334
100
AcDbEntity
8
0
100
AcDbSpline
62
9
6
CONTINUOUS
70
0
71
3
72
13
73
9
74
7
42
0.0000001000
43
0.0000001000
44
0.0000000001
12
0.0686337197
22
1.3551977289
32
0.0000000000
13
1.2408603241
23
0.5491239642
33
0.0000000000
40
0.0000000000
40
0.0000000000
40
0.0000000000
40
0.0000000000
40
0.1389403629
40
0.2946628897
40
0.4642790907
40
0.6426698258
40
0.8235255464
40
1.0000000000
40
1.0000000000
40
1.0000000000
40
1.0000000000
10
-3.4896032549
20
6.4975869031
30
0.0000000000
10
-3.4864245903
20
6.5603507911
30
0.0000000000
10
-3.4592431210
20
6.6926322867
30
0.0000000000
10
-3.3718169667
20
6.8849318440
30
0.0000000000
10
-3.2409267462
20
7.0727955413
30
0.0000000000
10
-3.0740770124
20
7.2455228776
30
0.0000000000
10
-2.8809517210
20
7.3932692451
30
0.0000000000
10
-2.7385294798
20
7.4713753696
30
0.0000000000
10
-2.6655360973
20
7.5036774868
30
0.0000000000
11
-3.4896032549
21
6.4975869031
31
0.0000000000
11
-3.4544980260
21
6.6828227228
31
0.0000000000
11
-3.3691011136
21
6.8761030626
31
0.0000000000
11
-3.2386065372
21
7.0656918590
31
0.0000000000
11
-3.0708677035
21
7.2402167400
31
0.0000000000
11
-2.8758868390
21
7.3892409913
31
0.0000000000
11
-2.6655360973
21
7.5036774868
31
0.0000000000
0
SPLINE
5
335
100
AcDbEntity
8
0
100
AcDbSpline
62
9
6
CONTINUOUS
70
0
71
3
72
13
73
9
74
7
42
0.0000001000
43
0.0000001000
44
0.0000000001
12
0.0344037176
22
0.6773126710
32
0.0000000000
13
0.6220938807
23
0.2700653138
33
0.0000000000
40
0.0000000000
40
0.0000000000
40
0.0000000000
40
0.0000000000
40
0.1385594556
40
0.2942281603
40
0.4638317016
40
0.6423312698
40
0.8234598725
40
1.0000000000
40
1.0000000000
40
1.0000000000
40
1.0000000000
10
-2.8145684957
20
6.3501203847
30
0.0000000000
10
-2.8129795089
20
6.3814030764
30
0.0000000000
10
-2.7993554595
20
6.4474167864
30
0.0000000000
10
-2.7554385971
20
6.5433276327
30
0.0000000000
10
-2.6896150486
20
6.6369595325
30
0.0000000000
10
-2.6056797877
20
6.7228845231
30
0.0000000000
10
-2.5085988062
20
6.7961674393
30
0.0000000000
10
-2.4370773310
20
6.8347431883
30
0.0000000000
10
-2.4004691533
20
6.8506356433
30
0.0000000000
11
-2.8145684957
21
6.3501203847
31
0.0000000000
11
-2.7969909478
21
6.4424308115
31
0.0000000000
11
-2.7540775780
21
6.5388878303
31
0.0000000000
11
-2.6884688629
21
6.6333638786
31
0.0000000000
11
-2.6041063152
21
6.7201825845
31
0.0000000000
11
-2.5060342526
21
6.7941505214
31
0.0000000000
11
-2.4004691533
21
6.8506356433
31
0.0000000000
0
SPLINE
5
336
100
AcDbEntity
8
0
100
AcDbSpline
62
9
6
CONTINUOUS
70
0
71
3
72
12
73
8
74
6
42
0.0000001000
43
0.0000001000
44
0.0000000001
12
0.4608001193
22
-0.5648821414
32
0.0000000000
13
0.6863543466
23
0.2456548282
33
0.0000000000
40
0.0000000000
40
0.0000000000
40
0.0000000000
40
0.0000000000
40
0.1779014927
40
0.3746756834
40
0.5838812654
40
0.7957848317
40
1.0000000000
40
1.0000000000
40
1.0000000000
40
1.0000000000
10
-3.4895837688
20
6.4975941913
30
0.0000000000
10
-3.4622580925
20
6.4640963992
30
0.0000000000
10
-3.3917705481
20
6.4038067105
30
0.0000000000
10
-3.2621142500
20
6.3431272092
30
0.0000000000
10
-3.1140971535
20
6.3114055721
30
0.0000000000
10
-2.9610964233
20
6.3114232153
30
0.0000000000
10
-2.8612898185
20
6.3333982375
30
0.0000000000
10
-2.8145684958
20
6.3501203848
30
0.0000000000
11
-3.4895837688
21
6.4975941913
31
0.0000000000
11
-3.3924549953
21
6.4116572766
31
0.0000000000
11
-3.2632061118
21
6.3494344149
31
0.0000000000
11
-3.1142114259
21
6.3168828344
31
0.0000000000
11
-2.9597357112
21
6.3171190288
31
0.0000000000
11
-2.8145684958
21
6.3501203848
31
0.0000000000
0
SPLINE
5
337
100
AcDbEntity
8
0
100
AcDbSpline
62
9
6
CONTINUOUS
70
0
71
3
72
12
73
8
74
6
42
0.0000001000
43
0.0000001000
44
0.0000000001
12
0.4392995228
22
-0.5609156173
32
0.0000000000
13
0.0472765985
23
-0.7108975480
33
0.0000000000
40
0.0000000000
40
0.0000000000
40
0.0000000000
40
0.0000000000
40
0.1904324703
40
0.4044107885
40
0.6232311426
40
0.8275638317
40
1.0000000000
40
1.0000000000
40
1.0000000000
40
1.0000000000
10
-2.6655360973
20
7.5036774868
30
0.0000000000
10
-2.6376504661
20
7.4680719712
30
0.0000000000
10
-2.5845215140
20
7.3876808431
30
0.0000000000
10
-2.5161415412
20
7.2562077497
30
0.0000000000
10
-2.4589893358
20
7.1158278894
30
0.0000000000
10
-2.4185452959
20
6.9801013990
30
0.0000000000
10
-2.4031865518
20
6.8914971263
30
0.0000000000
10
-2.4004691533
20
6.8506356433
30
0.0000000000
11
-2.6655360973
21
7.5036774868
31
0.0000000000
11
-2.5895566999
21
7.3912702734
31
0.0000000000
11
-2.5187903480
21
7.2562371698
31
0.0000000000
11
-2.4601561598
21
7.1117809152
31
0.0000000000
11
-2.4193870402
21
6.9720255894
31
0.0000000000
11
-2.4004691533
21
6.8506356433
31
0.0000000000
0
SPLINE
5
338
100
AcDbEntity
8
0
100
AcDbSpline
62
9
6
CONTINUOUS
70
0
71
3
72
15
73
11
74
9
42
0.0000001000
43
0.0000001000
44
0.0000000001
12
-0.4284614930
22
-0.1783116267
32
0.0000000000
13
-0.2044262724
23
0.4113644756
33
0.0000000000
40
0.0000000000
40
0.0000000000
40
0.0000000000
40
0.0000000000
40
0.0225866017
40
0.0998811886
40
0.1954077910
40
0.3145880868
40
0.4577891110
40
0.6226264925
40
0.8050584780
40
1.0000000000
40
1.0000000000
40
1.0000000000
40
1.0000000000
10
-3.1814470915
20
20.1707054350
30
0.0000000000
10
-3.1846729212
20
20.1693629505
30
0.0000000000
10
-3.1993751744
20
20.1645813912
30
0.0000000000
10
-3.2304000611
20
20.1665736993
30
0.0000000000
10
-3.2714681314
20
20.1855425076
30
0.0000000000
10
-3.3151929514
20
20.2190646460
30
0.0000000000
10
-3.3606510117
20
20.2663435590
30
0.0000000000
10
-3.4065305098
20
20.3259485064
30
0.0000000000
10
-3.4512865033
20
20.3959760058
30
0.0000000000
10
-3.4787297336
20
20.4468905274
30
0.0000000000
10
-3.4920134565
20
20.4736211998
30
0.0000000000
11
-3.1814470915
21
20.1707054350
31
0.0000000000
11
-3.1913814082
21
20.1674969872
31
0.0000000000
11
-3.2268787257
21
20.1682810702
31
0.0000000000
11
-3.2673561599
21
20.1852257208
31
0.0000000000
11
-3.3114050591
21
20.2177354161
31
0.0000000000
11
-3.3574925066
21
20.2646720528
31
0.0000000000
11
-3.4040241384
21
20.3244069591
31
0.0000000000
11
-3.4493877108
21
20.3948689233
31
0.0000000000
11
-3.4920134565
21
20.4736211998
31
0.0000000000
0
SPLINE
5
339
100
AcDbEntity
8
0
100
AcDbSpline
62
9
6
CONTINUOUS
70
0
71
3
72
8
73
4
74
2
42
0.0000001000
43
0.0000001000
44
0.0000000001
12
-0.0087659237
22
0.1681200391
32
0.0000000000
13
-0.0086624740
23
0.1681258940
33
0.0000000000
40
0.0000000000
40
0.0000000000
40
0.0000000000
40
0.0000000000
40
1.0000000000
40
1.0000000000
40
1.0000000000
40
1.0000000000
10
-13.9901383174
20
-10.3663216758
30
0.0000000000
10
-13.9930602920
20
-10.3102816628
30
0.0000000000
10
-13.9959650190
20
-10.2542406676
30
0.0000000000
10
-13.9988525103
20
-10.1981987030
30
0.0000000000
11
-13.9901383174
21
-10.3663216758
31
0.0000000000
11
-13.9988525103
21
-10.1981987030
31
0.0000000000
0
SPLINE
5
33A
100
AcDbEntity
8
0
100
AcDbSpline
62
9
6
CONTINUOUS
70
0
71
3
72
10
73
6
74
4
42
0.0000001000
43
0.0000001000
44
0.0000000001
12
-1.5214136253
22
29.5284033617
32
0.0000000000
13
1.4744321764
23
29.5307000020
33
0.0000000000
40
0.0000000000
40
0.0000000000
40
0.0000000000
40
0.0000000000
40
0.3247215705
40
0.6599115193
40
1.0000000000
40
1.0000000000
40
1.0000000000
40
1.0000000000
10
-13.9988525103
20
-10.1981987030
30
0.0000000000
10
-14.1635311176
20
-7.0020288648
30
0.0000000000
10
-14.3842681582
20
-0.5002427057
30
0.0000000000
10
-14.3818465764
20
9.3572919387
30
0.0000000000
10
-14.1572841170
20
16.0103797354
30
0.0000000000
10
-13.9901383174
20
19.3580633678
30
0.0000000000
11
-13.9988525103
21
-10.1981987030
31
0.0000000000
11
-14.3269322687
21
-0.6025799831
31
0.0000000000
11
-14.3269322688
21
9.3081439341
31
0.0000000000
11
-13.9901383174
21
19.3580633678
31
0.0000000000
0
SPLINE
5
33B
100
AcDbEntity
8
0
100
AcDbSpline
62
9
6
CONTINUOUS
70
0
71
3
72
9
73
5
74
3
42
0.0000001000
43
0.0000001000
44
0.0000000001
12
0.0000109278
22
0.0945070082
32
0.0000000000
13
-0.0637930200
23
0.0703973203
33
0.0000000000
40
0.0000000000
40
0.0000000000
40
0.0000000000
40
0.0000000000
40
0.4904495824
40
1.0000000000
40
1.0000000000
40
1.0000000000
40
1.0000000000
10
10.3433489878
20
-13.4814600069
30
0.0000000000
10
10.3433507743
20
-13.4660096993
30
0.0000000000
10
10.3391946289
20
-13.4341904932
30
0.0000000000
10
10.3233470143
20
-13.4058025500
30
0.0000000000
10
10.3125117609
20
-13.3938455553
30
0.0000000000
11
10.3433489878
21
-13.4814600069
31
0.0000000000
11
10.3364617394
21
-13.4356236253
31
0.0000000000
11
10.3125117609
21
-13.3938455553
31
0.0000000000
0
SPLINE
5
33C
100
AcDbEntity
8
0
100
AcDbSpline
62
9
6
CONTINUOUS
70
0
71
3
72
11
73
7
74
5
42
0.0000001000
43
0.0000001000
44
0.0000000001
12
-0.1622306923
22
0.1790259499
32
0.0000000000
13
-0.2212078254
23
-0.0939671951
33
0.0000000000
40
0.0000000000
40
0.0000000000
40
0.0000000000
40
0.0000000000
40
0.2149719134
40
0.4582577136
40
0.7262236532
40
1.0000000000
40
1.0000000000
40
1.0000000000
40
1.0000000000
10
10.3125117609
20
-13.3938455553
30
0.0000000000
10
10.3008867468
20
-13.3810170383
30
0.0000000000
10
10.2693329064
20
-13.3598246924
30
0.0000000000
10
10.2108926473
20
-13.3492058598
30
0.0000000000
10
10.1477958242
20
-13.3562541767
30
0.0000000000
10
10.1063467831
20
-13.3700253581
30
0.0000000000
10
10.0861596264
20
-13.3786006899
30
0.0000000000
11
10.3125117609
21
-13.3938455553
31
0.0000000000
11
10.2701111441
21
-13.3643231471
31
0.0000000000
11
10.2128898297
21
-13.3522989692
31
0.0000000000
11
10.1487750765
21
-13.3583812949
31
0.0000000000
11
10.0861596264
21
-13.3786006899
31
0.0000000000
0
SPLINE
5
33D
100
AcDbEntity
8
0
100
AcDbSpline
62
9
6
CONTINUOUS
70
0
71
3
72
8
73
4
74
2
42
0.0000001000
43
0.0000001000
44
0.0000000001
12
0.0030211060
22
0.0603837742
32
0.0000000000
13
0.0085647254
23
0.0599661734
33
0.0000000000
40
0.0000000000
40
0.0000000000
40
0.0000000000
40
0.0000000000
40
1.0000000000
40
1.0000000000
40
1.0000000000
40
1.0000000000
10
-13.9901383174
20
19.3580633678
30
0.0000000000
10
-13.9891312821
20
19.3781912925
30
0.0000000000
10
-13.9871453865
20
19.3982795937
30
0.0000000000
10
-13.9842904780
20
19.4182683182
30
0.0000000000
11
-13.9901383174
21
19.3580633678
31
0.0000000000
11
-13.9842904780
21
19.4182683182
31
0.0000000000
0
SPLINE
5
33E
100
AcDbEntity
8
0
100
AcDbSpline
62
9
6
CONTINUOUS
70
0
71
3
72
9
73
5
74
3
42
0.0000001000
43
0.0000001000
44
0.0000000001
12
0.0278498914
22
0.1949918231
32
0.0000000000
13
0.0722867494
23
0.1831750776
33
0.0000000000
40
0.0000000000
40
0.0000000000
40
0.0000000000
40
0.0000000000
40
0.6531436203
40
1.0000000000
40
1.0000000000
40
1.0000000000
40
1.0000000000
10
-13.9842904780
20
19.4182683182
30
0.0000000000
10
-13.9782271517
20
19.4607208732
30
0.0000000000
10
-13.9629424211
20
19.5250304669
30
0.0000000000
10
-13.9409359265
20
19.5869408527
30
0.0000000000
10
-13.9325782198
20
19.6081193341
30
0.0000000000
11
-13.9842904780
21
19.4182683182
31
0.0000000000
11
-13.9553934215
21
19.5437041810
31
0.0000000000
11
-13.9325782198
21
19.6081193341
31
0.0000000000
0
SPLINE
5
33F
100
AcDbEntity
8
0
100
AcDbSpline
62
9
6
CONTINUOUS
70
0
71
3
72
12
73
8
74
6
42
0.0000001000
43
0.0000001000
44
0.0000000001
12
0.4048671129
22
1.0259358095
32
0.0000000000
13
1.0005390979
23
0.4597217189
33
0.0000000000
40
0.0000000000
40
0.0000000000
40
0.0000000000
40
0.0000000000
40
0.1305766791
40
0.3400728060
40
0.5602610481
40
0.7830523292
40
1.0000000000
40
1.0000000000
40
1.0000000000
40
1.0000000000
10
-13.9325782198
20
19.6081193341
30
0.0000000000
10
-13.9149561521
20
19.6527737644
30
0.0000000000
10
-13.8606715736
20
19.7656496353
30
0.0000000000
10
-13.7440480776
20
19.9362070341
30
0.0000000000
10
-13.5789474634
20
20.1109471102
30
0.0000000000
10
-13.3878103389
20
20.2610713207
30
0.0000000000
10
-13.2466890896
20
20.3410288993
30
0.0000000000
10
-13.1743342140
20
20.3742740847
30
0.0000000000
11
-13.9325782198
21
19.6081193341
31
0.0000000000
11
-13.8708358987
21
19.7380765814
31
0.0000000000
11
-13.7416898318
21
19.9292122779
31
0.0000000000
11
-13.5756007507
21
20.1058365459
31
0.0000000000
11
-13.3825862987
21
20.2572471537
31
0.0000000000
11
-13.1743342140
21
20.3742740847
31
0.0000000000
0
SPLINE
5
340
100
AcDbEntity
8
0
100
AcDbSpline
62
9
6
CONTINUOUS
70
0
71
3
72
10
73
6
74
4
42
0.0000001000
43
0.0000001000
44
0.0000000001
12
0.2428799155
22
-0.0647252643
32
0.0000000000
13
0.2401787389
23
-0.0741227803
33
0.0000000000
40
0.0000000000
40
0.0000000000
40
0.0000000000
40
0.0000000000
40
0.3305731147
40
0.6638930540
40
1.0000000000
40
1.0000000000
40
1.0000000000
40
1.0000000000
10
-3.1235955920
20
20.3877950395
30
0.0000000000
10
-3.0968324020
20
20.3806628954
30
0.0000000000
10
-3.0431785529
20
20.3659804759
30
0.0000000000
10
-2.9626583682
20
20.3428103372
30
0.0000000000
10
-2.9089595064
20
20.3266076684
30
0.0000000000
10
-2.8820509256
20
20.3183032746
30
0.0000000000
11
-3.1235955920
21
20.3877950395
31
0.0000000000
11
-3.0434494006
21
20.3658676503
31
0.0000000000
11
-2.9629332344
21
20.3427033612
31
0.0000000000
11
-2.8820509256
21
20.3183032746
31
0.0000000000
0
SPLINE
5
341
100
AcDbEntity
8
0
100
AcDbSpline
62
9
6
CONTINUOUS
70
0
71
3
72
10
73
6
74
4
42
0.0000001000
43
0.0000001000
44
0.0000000001
12
0.1788973301
22
-0.0293543147
32
0.0000000000
13
0.1778147117
23
-0.0353250449
33
0.0000000000
40
0.0000000000
40
0.0000000000
40
0.0000000000
40
0.0000000000
40
0.3313662122
40
0.6646888076
40
1.0000000000
40
1.0000000000
40
1.0000000000
40
1.0000000000
10
-3.6703822518
20
20.5059905640
30
0.0000000000
10
-3.6506220749
20
20.5027482213
30
0.0000000000
10
-3.6110217254
20
20.4960186157
30
0.0000000000
10
-3.5515622391
20
20.4852262149
30
0.0000000000
10
-3.5118878775
20
20.4775694941
30
0.0000000000
10
-3.4920134565
20
20.4736211998
30
0.0000000000
11
-3.6703822518
21
20.5059905640
31
0.0000000000
11
-3.6111577400
21
20.4959280798
31
0.0000000000
11
-3.5517009229
21
20.4851381916
31
0.0000000000
11
-3.4920134565
21
20.4736211998
31
0.0000000000
0
SPLINE
5
342
100
AcDbEntity
8
0
100
AcDbSpline
62
9
6
CONTINUOUS
70
0
71
3
72
10
73
6
74
4
42
0.0000001000
43
0.0000001000
44
0.0000000001
12
0.2113670882
22
0.0852363503
32
0.0000000000
13
0.1479020671
23
-0.1738882051
33
0.0000000000
40
0.0000000000
40
0.0000000000
40
0.0000000000
40
0.0000000000
40
0.1812480798
40
0.5195124594
40
1.0000000000
40
1.0000000000
40
1.0000000000
40
1.0000000000
10
-13.3633695001
20
20.4827505540
30
0.0000000000
10
-13.3505995405
20
20.4879001956
30
0.0000000000
10
-13.3068387530
20
20.4904344273
30
0.0000000000
10
-13.2419571147
20
20.4458628208
30
0.0000000000
10
-13.1980225808
20
20.4021244567
30
0.0000000000
10
-13.1743342140
20
20.3742740847
30
0.0000000000
11
-13.3633695001
21
20.4827505540
31
0.0000000000
11
-13.3212886660
21
20.4865415827
31
0.0000000000
11
-13.2527529884
21
20.4509652401
31
0.0000000000
11
-13.1743342140
21
20.3742740847
31
0.0000000000
0
SPLINE
5
343
100
AcDbEntity
8
0
100
AcDbSpline
62
9
6
CONTINUOUS
70
0
71
3
72
10
73
6
74
4
42
0.0000001000
43
0.0000001000
44
0.0000000001
12
0.1795072432
22
-0.4040398643
32
0.0000000000
13
0.1772305873
23
-0.4050436781
33
0.0000000000
40
0.0000000000
40
0.0000000000
40
0.0000000000
40
0.0000000000
40
0.3332115506
40
0.6665475876
40
1.0000000000
40
1.0000000000
40
1.0000000000
40
1.0000000000
10
1.7012489529
20
14.1131996980
30
0.0000000000
10
1.7211869152
20
14.0683227815
30
0.0000000000
10
1.7609859880
20
13.9785147010
30
0.0000000000
10
1.8204423085
20
13.8436667281
30
0.0000000000
10
1.8599184259
20
13.7536774583
30
0.0000000000
10
1.8796177482
20
13.7086565278
30
0.0000000000
11
1.7012489529
21
14.1131996980
31
0.0000000000
11
1.7609364193
21
13.9785128532
31
0.0000000000
11
1.8203932364
21
13.8436638778
31
0.0000000000
11
1.8796177482
21
13.7086565278
31
0.0000000000
0
SPLINE
5
344
100
AcDbEntity
8
0
100
AcDbSpline
62
9
6
CONTINUOUS
70
0
71
3
72
9
73
5
74
3
42
0.0000001000
43
0.0000001000
44
0.0000000001
12
0.0095863017
22
-0.1813189623
32
0.0000000000
13
0.1138904606
23
-0.1395948920
33
0.0000000000
40
0.0000000000
40
0.0000000000
40
0.0000000000
40
0.0000000000
40
0.3507561101
40
1.0000000000
40
1.0000000000
40
1.0000000000
40
1.0000000000
10
-14.0567457504
20
-10.2008694432
30
0.0000000000
10
-14.0556249324
20
-10.2220690212
30
0.0000000000
10
-14.0452083685
20
-10.2821792293
30
0.0000000000
10
-14.0147858636
20
-10.3361112920
30
0.0000000000
10
-13.9901383017
20
-10.3663216689
30
0.0000000000
11
-14.0567457504
21
-10.2008694432
31
0.0000000000
11
-14.0458562577
21
-10.2634769704
31
0.0000000000
11
-13.9901383017
21
-10.3663216689
31
0.0000000000
0
SPLINE
5
345
100
AcDbEntity
8
0
100
AcDbSpline
62
9
6
CONTINUOUS
70
0
71
3
72
10
73
6
74
4
42
0.0000001000
43
0.0000001000
44
0.0000000001
12
0.2434841966
22
-0.5212691478
32
0.0000000000
13
0.2396073221
23
-0.5230625294
33
0.0000000000
40
0.0000000000
40
0.0000000000
40
0.0000000000
40
0.0000000000
40
0.3330714697
40
0.6664094111
40
1.0000000000
40
1.0000000000
40
1.0000000000
40
1.0000000000
10
1.0912864220
20
15.4519787358
30
0.0000000000
10
1.1183189684
20
15.3941054421
30
0.0000000000
10
1.1722620259
20
15.2782453841
30
0.0000000000
10
1.2527769853
20
15.1041883186
30
0.0000000000
10
1.3061875059
20
14.9879722302
30
0.0000000000
10
1.3328310884
20
14.9298093178
30
0.0000000000
11
1.0912864220
21
15.4519787358
31
0.0000000000
11
1.1721687308
21
15.2782584366
31
0.0000000000
11
1.2526848971
21
15.1041992024
31
0.0000000000
11
1.3328310884
21
14.9298093178
31
0.0000000000
0
SPLINE
5
346
100
AcDbEntity
8
0
100
AcDbSpline
62
9
6
CONTINUOUS
70
0
71
3
72
9
73
5
74
3
42
0.0000001000
43
0.0000001000
44
0.0000000001
12
-0.0095869613
22
-0.2025528925
32
0.0000000000
13
0.1274533718
23
-0.1559544918
33
0.0000000000
40
0.0000000000
40
0.0000000000
40
0.0000000000
40
0.0000000000
40
0.4261488263
40
1.0000000000
40
1.0000000000
40
1.0000000000
40
1.0000000000
10
-14.0568407255
20
19.5447525569
30
0.0000000000
10
-14.0582025496
20
19.5159799978
30
0.0000000000
10
-14.0491714195
20
19.4477071352
30
0.0000000000
10
-14.0145131631
20
19.3878967608
30
0.0000000000
10
-13.9901334075
20
19.3580652047
30
0.0000000000
11
-14.0568407255
21
19.5447525569
31
0.0000000000
11
-14.0458513801
21
19.4593280090
31
0.0000000000
11
-13.9901334075
21
19.3580652047
31
0.0000000000
0
SPLINE
5
347
100
AcDbEntity
8
0
100
AcDbSpline
62
9
6
CONTINUOUS
70
0
71
3
72
9
73
5
74
3
42
0.0000001000
43
0.0000001000
44
0.0000000001
12
-0.1698100270
22
0.2089367398
32
0.0000000000
13
-0.0139521237
23
0.2672462161
33
0.0000000000
40
0.0000000000
40
0.0000000000
40
0.0000000000
40
0.0000000000
40
0.4002367798
40
1.0000000000
40
1.0000000000
40
1.0000000000
40
1.0000000000
10
-13.8999383913
20
-10.6151205694
30
0.0000000000
10
-13.9225931307
20
-10.5872458468
30
0.0000000000
10
-13.9693070133
20
-10.5093525226
30
0.0000000000
10
-13.9873489939
20
-10.4197498262
30
0.0000000000
10
-13.9901383174
20
-10.3663216758
30
0.0000000000
11
-13.8999383913
21
-10.6151205694
31
0.0000000000
11
-13.9553934215
21
-10.5230185821
31
0.0000000000
11
-13.9901383174
21
-10.3663216758
31
0.0000000000
0
SPLINE
5
348
100
AcDbEntity
8
0
100
AcDbSpline
62
9
6
CONTINUOUS
70
0
71
3
72
9
73
5
74
3
42
0.0000001000
43
0.0000001000
44
0.0000000001
12
0.0924033895
22
0.0159363147
32
0.0000000000
13
0.0589056112
23
-0.0733359074
33
0.0000000000
40
0.0000000000
40
0.0000000000
40
0.0000000000
40
0.0000000000
40
0.4252267988
40
1.0000000000
40
1.0000000000
40
1.0000000000
40
1.0000000000
10
5.5987661848
20
-9.6712277744
30
0.0000000000
10
5.6118636506
20
-9.6689689250
30
0.0000000000
10
5.6452104692
20
-9.6761770320
30
0.0000000000
10
5.6681339262
20
-9.6990253402
30
0.0000000000
10
5.6794197151
20
-9.7130758449
30
0.0000000000
11
5.5987661848
21
-9.6712277744
31
0.0000000000
11
5.6383388428
21
-9.6779271128
31
0.0000000000
11
5.6794197151
21
-9.7130758449
31
0.0000000000
0
SPLINE
5
349
100
AcDbEntity
8
0
100
AcDbSpline
62
9
6
CONTINUOUS
70
0
71
3
72
10
73
6
74
4
42
0.0000001000
43
0.0000001000
44
0.0000000001
12
0.1828254608
22
0.0581914026
32
0.0000000000
13
0.0118797175
23
0.1879486449
33
0.0000000000
40
0.0000000000
40
0.0000000000
40
0.0000000000
40
0.0000000000
40
0.1046631675
40
0.4768171588
40
1.0000000000
40
1.0000000000
40
1.0000000000
40
1.0000000000
10
-2.4781083199
20
-23.6824549125
30
0.0000000000
10
-2.4717299560
20
-23.6804247470
30
0.0000000000
10
-2.4440880256
20
-23.6678286893
30
0.0000000000
10
-2.4104868239
20
-23.6085896030
30
0.0000000000
10
-2.4025409081
20
-23.5532155148
30
0.0000000000
10
-2.4004691533
20
-23.5204383461
30
0.0000000000
11
-2.4781083199
21
-23.6824549125
31
0.0000000000
11
-2.4601548280
21
-23.6741409282
31
0.0000000000
11
-2.4193864759
21
-23.6171329659
31
0.0000000000
11
-2.4004691533
21
-23.5204383461
31
0.0000000000
0
SPLINE
5
34A
100
AcDbEntity
8
0
100
AcDbSpline
62
9
6
CONTINUOUS
70
0
71
3
72
10
73
6
74
4
42
0.0000001000
43
0.0000001000
44
0.0000000001
12
-0.0005956752
22
-0.1661743832
32
0.0000000000
13
-0.1518255543
23
-0.0621507297
33
0.0000000000
40
0.0000000000
40
0.0000000000
40
0.0000000000
40
0.0000000000
40
0.2220216309
40
0.5853844844
40
1.0000000000
40
1.0000000000
40
1.0000000000
40
1.0000000000
10
6.0910031628
20
-10.5575068680
30
0.0000000000
10
6.0909590785
20
-10.5698049705
30
0.0000000000
10
6.0850186381
20
-10.6022794135
30
0.0000000000
10
6.0510821601
20
-10.6477754354
30
0.0000000000
10
6.0135969272
20
-10.6698149151
30
0.0000000000
10
5.9926138503
20
-10.6784044674
30
0.0000000000
11
6.0910031628
21
-10.5575068680
31
0.0000000000
11
6.0844497911
21
-10.5935981151
31
0.0000000000
11
6.0504037053
21
-10.6425302154
31
0.0000000000
11
5.9926138503
21
-10.6784044674
31
0.0000000000
0
SPLINE
5
34B
100
AcDbEntity
8
0
100
AcDbSpline
62
9
6
CONTINUOUS
70
0
71
3
72
9
73
5
74
3
42
0.0000001000
43
0.0000001000
44
0.0000000001
12
-0.1708322640
22
0.2100335550
32
0.0000000000
13
-0.0141846136
23
0.2687297998
33
0.0000000000
40
0.0000000000
40
0.0000000000
40
0.0000000000
40
0.0000000000
40
0.4016405517
40
1.0000000000
40
1.0000000000
40
1.0000000000
40
1.0000000000
10
-3.3984205454
20
-23.4768019487
30
0.0000000000
10
-3.4212916004
20
-23.4486826177
30
0.0000000000
10
-3.4684008686
20
-23.3704762169
30
0.0000000000
10
-3.4867740890
20
-23.2803971454
30
0.0000000000
10
-3.4896032549
20
-23.2267981405
30
0.0000000000
11
-3.3984205454
21
-23.4768019487
31
0.0000000000
11
-3.4544980260
21
-23.3839456524
31
0.0000000000
11
-3.4896032549
21
-23.2267981405
31
0.0000000000
0
SPLINE
5
34C
100
AcDbEntity
8
0
100
AcDbSpline
62
9
6
CONTINUOUS
70
0
71
3
72
10
73
6
74
4
42
0.0000001000
43
0.0000001000
44
0.0000000001
12
-0.1336612220
22
0.1606785604
32
0.0000000000
13
-0.2073934817
23
0.0027349409
33
0.0000000000
40
0.0000000000
40
0.0000000000
40
0.0000000000
40
0.0000000000
40
0.2750829194
40
0.8044296392
40
1.0000000000
40
1.0000000000
40
1.0000000000
40
1.0000000000
10
6.0177436444
20
-9.8617839747
30
0.0000000000
10
6.0054876713
20
-9.8470506656
30
0.0000000000
10
5.9633289109
20
-9.8091716111
30
0.0000000000
10
5.8953325146
20
-9.7878797396
30
0.0000000000
10
5.8452071789
20
-9.7844159662
30
0.0000000000
10
5.8316871729
20
-9.7842376751
30
0.0000000000
11
6.0177436444
21
-9.8617839747
31
0.0000000000
11
5.9751880998
21
-9.8235709909
31
0.0000000000
11
5.8721924427
21
-9.7871561902
31
0.0000000000
11
5.8316871729
21
-9.7842376751
31
0.0000000000
0
SPLINE
5
34D
100
AcDbEntity
8
0
100
AcDbSpline
62
9
6
CONTINUOUS
70
0
71
3
72
8
73
4
74
2
42
0.0000001000
43
0.0000001000
44
0.0000000001
12
-0.0880390510
22
0.0011609892
32
0.0000000000
13
-0.0860031161
23
-0.0166834839
33
0.0000000000
40
0.0000000000
40
0.0000000000
40
0.0000000000
40
0.0000000000
40
1.0000000000
40
1.0000000000
40
1.0000000000
40
1.0000000000
10
5.8316871729
20
-9.7842376751
30
0.0000000000
10
5.8023408226
20
-9.7838506786
30
0.0000000000
10
5.7730084242
20
-9.7870263679
30
0.0000000000
10
5.7443407189
20
-9.7925875292
30
0.0000000000
11
5.8316871729
21
-9.7842376751
31
0.0000000000
11
5.7443407189
21
-9.7925875292
31
0.0000000000
0
SPLINE
5
34E
100
AcDbEntity
8
0
100
AcDbSpline
62
9
6
CONTINUOUS
70
0
71
3
72
18
73
14
74
12
42
0.0000001000
43
0.0000001000
44
0.0000000001
12
4.3309202638
22
1.6001118172
32
0.0000000000
13
0.2258337024
23
-4.5826433725
33
0.0000000000
40
0.0000000000
40
0.0000000000
40
0.0000000000
40
0.0000000000
40
0.0348137680
40
0.0893240798
40
0.1606315372
40
0.2492347601
40
0.3527759197
40
0.4673487769
40
0.5881511373
40
0.7099126977
40
0.8273393906
40
0.9353693754
40
1.0000000000
40
1.0000000000
40
1.0000000000
40
1.0000000000
10
6.1916839358
20
9.0325888983
30
0.0000000000
10
6.2419424869
20
9.0511575388
30
0.0000000000
10
6.3849398042
20
9.0668068269
30
0.0000000000
10
6.6183276890
20
8.9713780549
30
0.0000000000
10
6.8793524319
20
8.7705230257
30
0.0000000000
10
7.1520410787
20
8.4718980515
30
0.0000000000
10
7.4245394794
20
8.0894115773
30
0.0000000000
10
7.6838425466
20
7.6400619457
30
0.0000000000
10
7.9170125096
20
7.1457813187
30
0.0000000000
10
8.1124956246
20
6.6307657712
30
0.0000000000
10
8.2607108051
20
6.1203999470
30
0.0000000000
10
8.3458286179
20
5.6845995365
30
0.0000000000
10
8.3720202207
20
5.4212995850
30
0.0000000000
10
8.3768854785
20
5.3225732172
30
0.0000000000
11
6.1916839358
21
9.0325888983
31
0.0000000000
11
6.3514005924
21
9.0529180182
31
0.0000000000
11
6.5883585889
21
8.9732648613
31
0.0000000000
11
6.8525012443
21
8.7804675265
31
0.0000000000
11
7.1305886633
21
8.4841920289
31
0.0000000000
11
7.4086760710
21
8.0992948186
31
0.0000000000
11
7.6728185437
21
7.6450772877
31
0.0000000000
11
7.9097765744
21
7.1443036877
31
0.0000000000
11
8.1076495911
21
6.6221322434
31
0.0000000000
11
8.2565604802
21
6.1046041219
31
0.0000000000
11
8.3489832895
21
5.6178694546
31
0.0000000000
11
8.3768854785
21
5.3225732172
31
0.0000000000
0
SPLINE
5
34F
100
AcDbEntity
8
0
100
AcDbSpline
62
9
6
CONTINUOUS
70
0
71
3
72
8
73
4
74
2
42
0.0000001000
43
0.0000001000
44
0.0000000001
12
0.0067166510
22
-0.1362950527
32
0.0000000000
13
0.0000000000
23
-0.1363966000
33
0.0000000000
40
0.0000000000
40
0.0000000000
40
0.0000000000
40
0.0000000000
40
1.0000000000
40
1.0000000000
40
1.0000000000
40
1.0000000000
10
8.3768854785
20
5.3225732172
30
0.0000000000
10
8.3791243622
20
5.2771415330
30
0.0000000000
10
8.3803173815
20
5.2316743859
30
0.0000000000
10
8.3803173815
20
5.1862088525
30
0.0000000000
11
8.3768854785
21
5.3225732172
31
0.0000000000
11
8.3803173815
21
5.1862088525
31
0.0000000000
0
SPLINE
5
350
100
AcDbEntity
8
0
100
AcDbSpline
62
9
6
CONTINUOUS
70
0
71
3
72
9
73
5
74
3
42
0.0000001000
43
0.0000001000
44
0.0000000001
12
-0.0000056797
22
0.0833348766
32
0.0000000000
13
-0.0504479431
23
0.0676279810
33
0.0000000000
40
0.0000000000
40
0.0000000000
40
0.0000000000
40
0.0000000000
40
0.7622496784
40
1.0000000000
40
1.0000000000
40
1.0000000000
40
1.0000000000
10
5.9926138503
20
-10.1944455208
30
0.0000000000
10
5.9926124072
20
-10.1732715265
30
0.0000000000
10
5.9874373657
20
-10.1446880081
30
0.0000000000
10
5.9725784149
20
-10.1207212770
30
0.0000000000
10
5.9685804100
20
-10.1153617523
30
0.0000000000
11
5.9926138503
21
-10.1944455208
31
0.0000000000
11
5.9790964705
21
-10.1323784380
31
0.0000000000
11
5.9685804100
21
-10.1153617523
31
0.0000000000
0
SPLINE
5
351
100
AcDbEntity
8
0
100
AcDbSpline
62
9
6
CONTINUOUS
70
0
71
3
72
10
73
6
74
4
42
0.0000001000
43
0.0000001000
44
0.0000000001
12
-0.1102597869
22
0.1478087375
32
0.0000000000
13
-0.1786993731
23
-0.0352246064
33
0.0000000000
40
0.0000000000
40
0.0000000000
40
0.0000000000
40
0.0000000000
40
0.2196628895
40
0.5795646891
40
1.0000000000
40
1.0000000000
40
1.0000000000
40
1.0000000000
10
5.9685804100
20
-10.1153617523
30
0.0000000000
10
5.9605070822
20
-10.1045390542
30
0.0000000000
10
5.9342002864
20
-10.0796267875
30
0.0000000000
10
5.8741407635
20
-10.0609010392
30
0.0000000000
10
5.8260634600
20
-10.0644075481
30
0.0000000000
10
5.8010196178
20
-10.0693441042
30
0.0000000000
11
5.9685804100
21
-10.1153617523
31
0.0000000000
11
5.9393445530
21
-10.0876745424
31
0.0000000000
11
5.8775188552
21
-10.0658887853
31
0.0000000000
11
5.8010196178
21
-10.0693441042
31
0.0000000000
0
SPLINE
5
352
100
AcDbEntity
8
0
100
AcDbSpline
62
9
6
CONTINUOUS
70
0
71
3
72
10
73
6
74
4
42
0.0000001000
43
0.0000001000
44
0.0000000001
12
-0.0007347379
22
-0.1668125538
32
0.0000000000
13
-0.1520551072
23
-0.0633336474
33
0.0000000000
40
0.0000000000
40
0.0000000000
40
0.0000000000
40
0.0000000000
40
0.2205587934
40
0.5841928549
40
1.0000000000
40
1.0000000000
40
1.0000000000
40
1.0000000000
10
3.4956222367
20
22.8051567176
30
0.0000000000
10
3.4955682191
20
22.7928927257
30
0.0000000000
10
3.4896518129
20
22.7603660573
30
0.0000000000
10
3.4558673703
20
22.7145106283
30
0.0000000000
10
3.4183045582
20
22.6920817095
30
0.0000000000
10
3.3972293582
20
22.6833035151
30
0.0000000000
11
3.4956222367
21
22.8051567176
31
0.0000000000
11
3.4891308734
21
22.7691501268
31
0.0000000000
11
3.4551858164
21
22.7198005797
31
0.0000000000
11
3.3972293582
21
22.6833035151
31
0.0000000000
0
SPLINE
5
353
100
AcDbEntity
8
0
100
AcDbSpline
62
9
6
CONTINUOUS
70
0
71
3
72
8
73
4
74
2
42
0.0000001000
43
0.0000001000
44
0.0000000001
12
-0.0088907168
22
0.0109313171
32
0.0000000000
13
-0.0096929404
23
0.0102102930
33
0.0000000000
40
0.0000000000
40
0.0000000000
40
0.0000000000
40
0.0000000000
40
1.0000000000
40
1.0000000000
40
1.0000000000
40
1.0000000000
10
10.2828186329
20
-13.0459957567
30
0.0000000000
10
10.2798550606
20
-13.0423519844
30
0.0000000000
10
10.2767558364
20
-13.0388218019
30
0.0000000000
10
10.2735248562
20
-13.0354183709
30
0.0000000000
11
10.2828186329
21
-13.0459957567
31
0.0000000000
11
10.2735248562
21
-13.0354183709
31
0.0000000000
0
SPLINE
5
354
100
AcDbEntity
8
0
100
AcDbSpline
62
9
6
CONTINUOUS
70
0
71
3
72
11
73
7
74
5
42
0.0000001000
43
0.0000001000
44
0.0000000001
12
-0.2525534631
22
0.2660332940
32
0.0000000000
13
-0.3459489269
23
-0.1175309077
33
0.0000000000
40
0.0000000000
40
0.0000000000
40
0.0000000000
40
0.0000000000
40
0.2390671889
40
0.5071211816
40
0.8008651219
40
1.0000000000
40
1.0000000000
40
1.0000000000
40
1.0000000000
10
10.2735248562
20
-13.0354183709
30
0.0000000000
10
10.2533991074
20
-13.0142184270
30
0.0000000000
10
10.1998631762
20
-12.9796803553
30
0.0000000000
10
10.1022542144
20
-12.9617526417
30
0.0000000000
10
10.0093073864
20
-12.9709260269
30
0.0000000000
10
9.9512972800
20
-12.9869159016
30
0.0000000000
10
9.9283337808
20
-12.9947174026
30
0.0000000000
11
10.2735248562
21
-13.0354183709
31
0.0000000000
11
10.2010849874
21
-12.9868073105
31
0.0000000000
11
10.1053508682
21
-12.9667326489
31
0.0000000000
11
9.9985304225
21
-12.9756355043
31
0.0000000000
11
9.9283337808
21
-12.9947174026
31
0.0000000000
0
SPLINE
5
355
100
AcDbEntity
8
0
100
AcDbSpline
62
9
6
CONTINUOUS
70
0
71
3
72
8
73
4
74
2
42
0.0000001000
43
0.0000001000
44
0.0000000001
12
-0.0342553233
22
-0.0116377272
32
0.0000000000
13
-0.0335094711
23
-0.0135171405
33
0.0000000000
40
0.0000000000
40
0.0000000000
40
0.0000000000
40
0.0000000000
40
1.0000000000
40
1.0000000000
40
1.0000000000
40
1.0000000000
10
9.9283337808
20
-12.9947174026
30
0.0000000000
10
9.9169153397
20
-12.9985966450
30
0.0000000000
10
9.9056140898
20
-13.0028075019
30
0.0000000000
10
9.8944442661
20
-13.0073132154
30
0.0000000000
11
9.9283337808
21
-12.9947174026
31
0.0000000000
11
9.8944442661
21
-13.0073132154
31
0.0000000000
0
SPLINE
5
356
100
AcDbEntity
8
0
100
AcDbSpline
62
9
6
CONTINUOUS
70
0
71
3
72
19
73
15
74
13
42
0.0000001000
43
0.0000001000
44
0.0000000001
12
-0.8522867684
22
0.3726215075
32
0.0000000000
13
0.1227680651
23
0.9220452948
33
0.0000000000
40
0.0000000000
40
0.0000000000
40
0.0000000000
40
0.0000000000
40
0.0534885034
40
0.1189825755
40
0.1958220653
40
0.2823259666
40
0.3761868756
40
0.4746810066
40
0.5748539284
40
0.6736619969
40
0.7681189387
40
0.8554724209
40
0.9332644483
40
1.0000000000
40
1.0000000000
40
1.0000000000
40
1.0000000000
10
1.7012489529
20
14.1131996980
30
0.0000000000
10
1.6860531050
20
14.1198433536
30
0.0000000000
10
1.6545847926
20
14.1398601385
30
0.0000000000
10
1.6098154821
20
14.1811032335
30
0.0000000000
10
1.5639183573
20
14.2354174273
30
0.0000000000
10
1.5184694296
20
14.3010608906
30
0.0000000000
10
1.4749857252
20
14.3758868967
30
0.0000000000
10
1.4349766485
20
14.4573632700
30
0.0000000000
10
1.3998222105
20
14.5427072728
30
0.0000000000
10
1.3707330125
20
14.6289879264
30
0.0000000000
10
1.3486977332
20
14.7132374699
30
0.0000000000
10
1.3344476524
20
14.7925646690
30
0.0000000000
10
1.3284146378
20
14.8643143703
30
0.0000000000
10
1.3301000903
20
14.9092982507
30
0.0000000000
10
1.3328310884
20
14.9298093178
30
0.0000000000
11
1.7012489529
21
14.1131996980
31
0.0000000000
11
1.6586221863
21
14.1388595178
31
0.0000000000
11
1.6132548134
21
14.1795193686
31
0.0000000000
11
1.5667192760
21
14.2337695638
31
0.0000000000
11
1.5206311061
21
14.2997271488
31
0.0000000000
11
1.4765859305
21
14.3751106380
31
0.0000000000
11
1.4361142205
21
14.4573043756
31
0.0000000000
11
1.4006212911
21
14.5434588695
31
0.0000000000
11
1.3713427351
21
14.6305802181
31
0.0000000000
11
1.3492996534
21
14.7156323673
31
0.0000000000
11
1.3352569536
21
14.7956643983
31
0.0000000000
11
1.3297046749
21
14.8678118535
31
0.0000000000
11
1.3328310884
21
14.9298093178
31
0.0000000000
0
SPLINE
5
357
100
AcDbEntity
8
0
100
AcDbSpline
62
9
6
CONTINUOUS
70
0
71
3
72
8
73
4
74
2
42
0.0000001000
43
0.0000001000
44
0.0000000001
12
0.1609159045
22
-0.1971034914
32
0.0000000000
13
0.1541676826
23
-0.2025142936
33
0.0000000000
40
0.0000000000
40
0.0000000000
40
0.0000000000
40
0.0000000000
40
1.0000000000
40
1.0000000000
40
1.0000000000
40
1.0000000000
10
-9.0999738041
20
1.5347678334
30
0.0000000000
10
-9.0463351693
20
1.4690666696
30
0.0000000000
10
-8.9938608595
20
1.4024052303
30
0.0000000000
10
-8.9424716320
20
1.3349004658
30
0.0000000000
11
-9.0999738041
21
1.5347678334
31
0.0000000000
11
-8.9424716320
21
1.3349004658
31
0.0000000000
0
SPLINE
5
358
100
AcDbEntity
8
0
100
AcDbSpline
62
9
6
CONTINUOUS
70
0
71
3
72
24
73
20
74
18
42
0.0000001000
43
0.0000001000
44
0.0000000001
12
6.7924800294
22
-8.9225852722
32
0.0000000000
13
-7.0907850518
23
8.6833863997
33
0.0000000000
40
0.0000000000
40
0.0000000000
40
0.0000000000
40
0.0000000000
40
0.0476041790
40
0.1249178086
40
0.2067430577
40
0.2907359060
40
0.3744379900
40
0.4553686436
40
0.5311218644
40
0.5996067006
40
0.6590937562
40
0.7086950623
40
0.7484250523
40
0.7803971664
40
0.8098341668
40
0.8435033079
40
0.8857835031
40
0.9381486562
40
1.0000000000
40
1.0000000000
40
1.0000000000
40
1.0000000000
10
-8.9424716320
20
1.3349004658
30
0.0000000000
10
-8.8346881536
20
1.1933163503
30
0.0000000000
10
-8.5643799500
20
0.8120514481
30
0.0000000000
10
-8.1630773447
20
0.1510641993
30
0.0000000000
10
-7.7488556331
20
-0.6584220716
30
0.0000000000
10
-7.3800909947
20
-1.5155508661
30
0.0000000000
10
-7.0686875453
20
-2.3916046815
30
0.0000000000
10
-6.8246976091
20
-3.2568797810
30
0.0000000000
10
-6.6557627706
20
-4.0820519664
30
0.0000000000
10
-6.5669617530
20
-4.8392890477
30
0.0000000000
10
-6.5602350827
20
-5.5044490352
30
0.0000000000
10
-6.6360732116
20
-6.0582539589
30
0.0000000000
10
-6.7934940379
20
-6.4885205238
30
0.0000000000
10
-7.0485381602
20
-6.7865115894
30
0.0000000000
10
-7.4047897138
20
-6.8988759516
30
0.0000000000
10
-7.8013242935
20
-6.8148448304
30
0.0000000000
10
-8.2218575685
20
-6.5768490332
30
0.0000000000
10
-8.6682665111
20
-6.1951350701
30
0.0000000000
10
-8.9537822760
20
-5.8765518617
30
0.0000000000
10
-9.0999738041
20
-5.6975254891
30
0.0000000000
11
-8.9424716320
21
1.3349004658
31
0.0000000000
11
-8.6327100918
21
0.9000976465
31
0.0000000000
11
-8.1807507925
21
0.1605202873
31
0.0000000000
11
-7.7616657643
21
-0.6554729156
31
0.0000000000
11
-7.3891434904
21
-1.5202719018
31
0.0000000000
11
-7.0753235801
21
-2.4046016234
31
0.0000000000
11
-6.8305090652
21
-3.2782399139
31
0.0000000000
11
-6.6628169951
21
-4.1107679145
31
0.0000000000
11
-6.5776266474
21
-4.8737918631
31
0.0000000000
11
-6.5776203660
21
-5.5406850890
31
0.0000000000
11
-6.6628100292
21
-6.0901875702
31
0.0000000000
11
-6.8305066690
21
-6.5028143915
31
0.0000000000
11
-7.0753259022
21
-6.7646083962
31
0.0000000000
11
-7.3891483886
21
-6.8666975270
31
0.0000000000
11
-7.7616799879
21
-6.8059279963
31
0.0000000000
11
-8.1807811275
21
-6.5845178607
31
0.0000000000
11
-8.6327385225
21
-6.2098660364
31
0.0000000000
11
-9.0999738041
21
-5.6975254891
31
0.0000000000
0
SPLINE
5
359
100
AcDbEntity
8
0
100
AcDbSpline
62
9
6
CONTINUOUS
70
0
71
3
72
8
73
4
74
2
42
0.0000001000
43
0.0000001000
44
0.0000000001
12
0.0532692133
22
-0.0222848952
32
0.0000000000
13
0.0359316893
23
-0.0444574494
33
0.0000000000
40
0.0000000000
40
0.0000000000
40
0.0000000000
40
0.0000000000
40
1.0000000000
40
1.0000000000
40
1.0000000000
40
1.0000000000
10
3.2878838532
20
23.0935969543
30
0.0000000000
10
3.3056402577
20
23.0861686559
30
0.0000000000
10
3.3214384876
20
23.0738098573
30
0.0000000000
10
3.3334157174
20
23.0589907075
30
0.0000000000
11
3.2878838532
21
23.0935969543
31
0.0000000000
11
3.3334157174
21
23.0589907075
31
0.0000000000
0
ENDSEC
0
SECTION
2
OBJECTS
0
DICTIONARY
5
C
100
AcDbDictionary
280
0
281
1
3
ACAD_GROUP
350
D
3
ACAD_MLINESTYLE
350
17
3
ACAD_LAYOUT
350
1A
3
ACAD_PLOTSETTINGS
350
19
3
ACAD_PLOTSTYLENAME
350
E
0
DICTIONARY
5
D
102
{ACAD_REACTORS
330
C
102
}
100
AcDbDictionary
280
0
281
1
0
ACDBDICTIONARYWDFLT
5
E
102
{ACAD_REACTORS
330
C
102
}
100
AcDbDictionary
281
1
3
Normal
350
F
100
AcDbDictionaryWithDefault
340
F
0
DICTIONARY
5
17
102
{ACAD_REACTORS
330
C
102
}
100
AcDbDictionary
280
0
281
1
3
Standard
350
18
0
DICTIONARY
5
19
102
{ACAD_REACTORS
330
C
102
}
100
AcDbDictionary
281
1
0
DICTIONARY
5
1A
102
{ACAD_REACTORS
330
C
102
}
100
AcDbDictionary
281
1
3
Layout1
350
1E
3
Model
350
22
0
ACDBPLACEHOLDER
5
F
102
{ACAD_REACTORS
330
E
102
}
0
MLINESTYLE
5
18
102
{ACAD_REACTORS
330
17
102
}
100
AcDbMlineStyle
2
STANDARD
70
0
3

62
256
51
90.0
52
90.0
71
2
49
0.5
62
256
6
BYLAYER
49
-0.5
62
256
6
BYLAYER
0
LAYOUT
5
1E
102
{ACAD_REACTORS
330
1A
102
}
100
AcDbPlotSettings
1

2

4

6

40
0.0
41
0.0
42
0.0
43
0.0
44
0.0
45
0.0
46
0.0
47
0.0
48
0.0
49
0.0
140
0.0
141
0.0
142
1.0
143
1.0
70
0
72
0
73
0
74
0
7

75
0
147
1.0
148
0.0
149
0.0
100
AcDbLayout
1
Layout1
70
0
71
0
10
0.0
20
0.0
11
0.0
21
0.0
12
0.0
22
0.0
32
0.0
14
0.0
24
0.0
34
0.0
15
0.0
25
0.0
35
0.0
146
0.0
13
0.0
23
0.0
33
0.0
16
0.0
26
0.0
36
0.0
17
0.0
27
0.0
37
0.0
76
0
330
1B
331
0
345
0
346
0
0
LAYOUT
5
22
102
{ACAD_REACTORS
330
1A
102
}
100
AcDbPlotSettings
1

2

4

6

40
0.0
41
0.0
42
0.0
43
0.0
44
0.0
45
0.0
46
0.0
47
0.0
48
0.0
49
0.0
140
0.0
141
0.0
142
1.0
143
1.0
70
0
72
0
73
0
74
0
7

75
0
147
1.0
148
0.0
149
0.0
100
AcDbLayout
1
Model
70
0
71
0
10
0.0
20
0.0
11
0.0
21
0.0
12
0.0
22
0.0
32
0.0
14
0.0
24
0.0
34
0.0
15
0.0
25
0.0
35
0.0
146
0.0
13
0.0
23
0.0
33
0.0
16
0.0
26
0.0
36
0.0
17
0.0
27
0.0
37
0.0
76
0
330
1F
331
0
345
0
346
0
0
ENDSEC
0
EOF
