  0
SECTION
  2
HEADER
  9
$ACADVER
  1
AC1024
  9
$DWGCODEPAGE
  3
ANSI_1252
  9
$EXTMAX
 10
297.0
 20
210.0
 30
0.0
  9
$EXTMIN
 10
0.0
 20
0.0
 30
0.0
  9
$LIMMIN
 10
0.0
 20
0.0
  9
$LIMMAX
 10
297.0
 20
210.0
  9
$VIEWCTR
 10
148.5
 20
105.0
  9
$VIEWSIZE
 40
210.0
  9
$CLAYER
  8
0
  9
$LTSCALE
 40
16.335
  9
$CELTYPE
  6
BYLAYER
  9
$DIMSCALE
 40
1.0
  9
$DIMASZ
 40
3.0
  9
$DIMEXO
 40
0.5
  9
$DIMDLI
 40
11.286
  9
$DIMEXE
 40
1.5
  9
$DIMCEN
 40
2.673
  9
$DIMLFAC
 40
1.0
  9
$DIMBLK
  1
_FILLED
  9
$DIMALT
 70
0
  9
$DIMALTF
 40
0.0393700787
  9
$DIMTXT
 40
3.0
  9
$DIMTOL
 70
1
  9
$DIMLIM
 70
0
  9
$DIMTFAC
 40
1.0
  9
$DIMTP
 40
0.01
  9
$DIMTM
 40
0.01
  9
$DIMGAP
 40
0.625
  9
$DIMDSEP
 70
44
  9
$AUNITS
 70
0
  9
$PDMODE
 70
3
  9
$PDSIZE
 40
3.0
  9
$HANDSEED
  5
301
  9
$TILEMODE
 70
1
  9
$MEASUREMENT
 70
1
  9
$INSUNITS
 70
4
  0
ENDSEC
  0
SECTION
  2
CLASSES
  0
CLASS
  1
ACDBDICTIONARYWDFLT
  2
AcDbDictionaryWithDefault
  3
AutoCAD 2000
 90
0
 91
1
280
0
281
0
  0
CLASS
  1
ACDBPLACEHOLDER
  2
AcDbPlaceHolder
  3
AutoCAD 2000
 90
0
 91
1
280
0
281
0
  0
CLASS
  1
LAYOUT
  2
AcDbLayout
  3
AutoCAD 2000
 90
0
 91
0
280
0
281
0
  0
ENDSEC
  0
SECTION
  2
TABLES
  0
TABLE
  2
VPORT
  5
8
100
AcDbSymbolTable
 70
2
  0
VPORT
  5
1F4
100
AcDbSymbolTableRecord
100
AcDbViewportTableRecord
  2
*ACTIVE
 70
0
 10
0.0
 20
0.0
 11
1.0
 21
1.0
 12
148.5
 22
105.0
 13
0.0
 23
0.0
 14
1.0
 24
1.0
 15
0.0
 25
0.0
 16
0.0
 26
0.0
 36
1.0
 17
0.0
 27
0.0
 37
0.0
 40
210.0
 41
1.4142857143
 42
50.0
 43
0.0
 44
0.0
 50
0.0
 51
0.0
 71
0
 72
100
 73
1
 74
1
 75
0
 76
0
 77
0
 78
0
  0
ENDTAB
  0
TABLE
  2
LTYPE
  5
5
100
AcDbSymbolTable
 70
6
  0
LTYPE
  5
14
100
AcDbSymbolTableRecord
100
AcDbLinetypeTableRecord
  2
BYBLOCK
 70
0
  3

 72
65
 73
0
 40
0.0
  0
LTYPE
  5
15
100
AcDbSymbolTableRecord
100
AcDbLinetypeTableRecord
  2
BYLAYER
 70
0
  3

 72
65
 73
0
 40
0.0
  0
LTYPE
  5
16
100
AcDbSymbolTableRecord
100
AcDbLinetypeTableRecord
  2
CONTINUOUS
 70
64
  3
Solid line
 72
65
 73
0
 40
0.0
  0
LTYPE
  5
1F5
100
AcDbSymbolTableRecord
100
AcDbLinetypeTableRecord
  2
CENTER
 70
64
  3
____ _ ____ _ ____ _ ____ _ ____ _ ____ _ ____
 72
65
 73
4
 40
0.6
 49
0.375
 74
0
 49
-0.075
 74
0
 49
0.075
 74
0
 49
-0.075
 74
0
  0
LTYPE
  5
1F6
100
AcDbSymbolTableRecord
100
AcDbLinetypeTableRecord
  2
HIDDEN
 70
64
  3
- - - - - - - - - - - - - - - - - - - -
 72
65
 73
2
 40
0.2
 49
0.1
 74
0
 49
-0.1
 74
0
  0
LTYPE
  5
1F7
100
AcDbSymbolTableRecord
100
AcDbLinetypeTableRecord
  2
PHANTOM
 70
64
  3
_____ _ _ _____ _ _ _____ _ _ _____
 72
65
 73
6
 40
0.8
 49
0.45
 74
0
 49
-0.05
 74
0
 49
0.1
 74
0
 49
-0.05
 74
0
 49
0.1
 74
0
 49
-0.05
 74
0
  0
LTYPE
  5
1F8
100
AcDbSymbolTableRecord
100
AcDbLinetypeTableRecord
  2
DOT
 70
64
  3
. . . . . . . . . . . . . . . . . . . .
 72
65
 73
2
 40
0.2
 49
0.1
 74
0
 49
-0.1
 74
0
  0
LTYPE
  5
1F9
100
AcDbSymbolTableRecord
100
AcDbLinetypeTableRecord
  2
DASHED
 70
64
  3
- - - - - - - - - - - - - - - - - - - -
 72
65
 73
2
 40
0.2
 49
0.1
 74
0
 49
-0.1
 74
0
  0
ENDTAB
  0
TABLE
  2
LAYER
  5
2
100
AcDbSymbolTable
 70
36
  0
LAYER
  5
10
100
AcDbSymbolTableRecord
100
AcDbLayerTableRecord
  2
0
 70
0
 62
7
  6
CONTINUOUS
370
-3
390
F
  0
LAYER
  5
1FA
100
AcDbSymbolTableRecord
100
AcDbLayerTableRecord
  2
DEFAULT_1
 70
0
 62
7
  6
CENTER
370
-3
390
F
  0
LAYER
  5
1FB
100
AcDbSymbolTableRecord
100
AcDbLayerTableRecord
  2
DEFAULT_2
 70
0
 62
7
  6
HIDDEN
370
-3
390
F
  0
LAYER
  5
1FC
100
AcDbSymbolTableRecord
100
AcDbLayerTableRecord
  2
DEFAULT_3
 70
0
 62
7
  6
PHANTOM
370
-3
390
F
  0
LAYER
  5
1FD
100
AcDbSymbolTableRecord
100
AcDbLayerTableRecord
  2
ASSI
 70
0
 62
7
  6
CONTINUOUS
370
-3
390
F
  0
LAYER
  5
1FE
100
AcDbSymbolTableRecord
100
AcDbLayerTableRecord
  2
COLOR5
 70
0
 62
7
  6
CONTINUOUS
370
-3
390
F
  0
LAYER
  5
1FF
100
AcDbSymbolTableRecord
100
AcDbLayerTableRecord
  2
COORDINATE
 70
0
 62
7
  6
CONTINUOUS
370
-3
390
F
  0
LAYER
  5
200
100
AcDbSymbolTableRecord
100
AcDbLayerTableRecord
  2
COORD_ORIGINE
 70
0
 62
7
  6
CONTINUOUS
370
-3
390
F
  0
LAYER
  5
201
100
AcDbSymbolTableRecord
100
AcDbLayerTableRecord
  2
CURVE
 70
0
 62
7
  6
CONTINUOUS
370
-3
390
F
  0
LAYER
  5
202
100
AcDbSymbolTableRecord
100
AcDbLayerTableRecord
  2
DRAFT
 70
0
 62
7
  6
CONTINUOUS
370
-3
390
F
  0
LAYER
  5
203
100
AcDbSymbolTableRecord
100
AcDbLayerTableRecord
  2
IMPORT_FEATURES
 70
0
 62
7
  6
CONTINUOUS
370
-3
390
F
  0
LAYER
  5
204
100
AcDbSymbolTableRecord
100
AcDbLayerTableRecord
  2
INTF_1
 70
0
 62
7
  6
CONTINUOUS
370
-3
390
F
  0
LAYER
  5
205
100
AcDbSymbolTableRecord
100
AcDbLayerTableRecord
  2
INTF_12
 70
0
 62
7
  6
CONTINUOUS
370
-3
390
F
  0
LAYER
  5
206
100
AcDbSymbolTableRecord
100
AcDbLayerTableRecord
  2
NOTE
 70
0
 62
7
  6
CONTINUOUS
370
-3
390
F
  0
LAYER
  5
207
100
AcDbSymbolTableRecord
100
AcDbLayerTableRecord
  2
PIANI
 70
0
 62
7
  6
CONTINUOUS
370
-3
390
F
  0
LAYER
  5
208
100
AcDbSymbolTableRecord
100
AcDbLayerTableRecord
  2
PIANI_ORIGINE
 70
0
 62
7
  6
CONTINUOUS
370
-3
390
F
  0
LAYER
  5
209
100
AcDbSymbolTableRecord
100
AcDbLayerTableRecord
  2
PUNTI
 70
0
 62
7
  6
CONTINUOUS
370
-3
390
F
  0
LAYER
  5
20A
100
AcDbSymbolTableRecord
100
AcDbLayerTableRecord
  2
RACCORDO
 70
0
 62
7
  6
CONTINUOUS
370
-3
390
F
  0
LAYER
  5
20B
100
AcDbSymbolTableRecord
100
AcDbLayerTableRecord
  2
RGB____0____0____0__
 70
0
 62
7
  6
CONTINUOUS
370
-3
390
F
  0
LAYER
  5
20C
100
AcDbSymbolTableRecord
100
AcDbLayerTableRecord
  2
SMUSSO
 70
0
 62
7
  6
CONTINUOUS
370
-3
390
F
  0
LAYER
  5
20D
100
AcDbSymbolTableRecord
100
AcDbLayerTableRecord
  2
SNAPLINE
 70
0
 62
7
  6
CONTINUOUS
370
-3
390
F
  0
LAYER
  5
20E
100
AcDbSymbolTableRecord
100
AcDbLayerTableRecord
  2
SUPERFICI
 70
0
 62
7
  6
CONTINUOUS
370
-3
390
F
  0
LAYER
  5
20F
100
AcDbSymbolTableRecord
100
AcDbLayerTableRecord
  2
TRASH
 70
0
 62
7
  6
CONTINUOUS
370
-3
390
F
  0
LAYER
  5
210
100
AcDbSymbolTableRecord
100
AcDbLayerTableRecord
  2
XSEC_DATUMS
 70
0
 62
7
  6
CONTINUOUS
370
-3
390
F
  0
ENDTAB
  0
TABLE
  2
STYLE
  5
3
100
AcDbSymbolTable
 70
1
  0
STYLE
  5
11
100
AcDbSymbolTableRecord
100
AcDbTextStyleTableRecord
  2
STANDARD
 70
0
 40
0.0
 41
0.8
 50
0.0
 71
0
 42
0.2
  3
txt
  4

  0
STYLE
  5
211
100
AcDbSymbolTableRecord
100
AcDbTextStyleTableRecord
  2
TEXTSTYLE_1
 70
0
 40
0.0
 41
0.8
 50
0.0
 71
0
 42
0.2
  3
gdt
  4

  0
ENDTAB
  0
TABLE
  2
VIEW
  5
6
100
AcDbSymbolTable
 70
0
  0
ENDTAB
  0
TABLE
  2
UCS
  5
7
100
AcDbSymbolTable
 70
0
  0
ENDTAB
  0
TABLE
  2
APPID
  5
9
100
AcDbSymbolTable
 70
1
  0
APPID
  5
212
100
AcDbSymbolTableRecord
100
AcDbRegAppTableRecord
  2
ACAD
 70
0
  0
ENDTAB
  0
TABLE
  2
BLOCK_RECORD
  5
1
100
AcDbSymbolTable
 70
0
  0
BLOCK_RECORD
  5
213
100
AcDbSymbolTableRecord
100
AcDbBlockTableRecord
  2
*Model_Space
  0
BLOCK_RECORD
  5
214
100
AcDbSymbolTableRecord
100
AcDbBlockTableRecord
  2
*Paper_Space
  0
BLOCK_RECORD
  5
215
100
AcDbSymbolTableRecord
100
AcDbBlockTableRecord
  2
_FILLED
  0
ENDTAB
  0
TABLE
  2
DIMSTYLE
  5
A
100
AcDbSymbolTable
 70
1
100
AcDbDimStyleTable
 71
0
  0
DIMSTYLE
105
216
100
AcDbSymbolTableRecord
100
AcDbDimStyleTableRecord
  2
STANDARD
 70
0
  3

  4

 40
1.0
 41
3.0
 42
0.5
 43
0.38
 44
1.5
 45
0.0
 46
0.0
 47
0.01
 48
0.01
140
3.0
141
0.09
142
0.0
143
25.4
144
1.0
145
0.0
146
1.0
147
0.625
 71
1
 72
0
 73
0
 74
0
 75
0
 76
0
 77
1
 78
8
 79
2
170
0
171
1
172
0
173
0
174
0
175
0
176
0
177
0
178
0
270
2
179
2
271
2
272
2
273
2
274
2
275
0
280
0
281
0
282
0
283
1
284
8
285
0
286
0
287
3
288
0
340
11
278
44
341
215
342
215
343
215
344
215
  0
ENDTAB
  0
ENDSEC
  0
SECTION
  2
BLOCKS
  0
BLOCK
  5
20
100
AcDbEntity
  8
0
100
AcDbBlockBegin
  2
*Model_Space
 70
0
 10
0.0
 20
0.0
 30
0.0
  3
*Model_Space
  1

  0
ENDBLK
  5
21
100
AcDbEntity
  8
0
100
AcDbBlockEnd
  0
BLOCK
  5
1C
100
AcDbEntity
  8
0
100
AcDbBlockBegin
  2
*Paper_Space
 70
0
 10
0.0
 20
0.0
 30
0.0
  3
*Paper_Space
  1

  0
ENDBLK
  5
1D
100
AcDbEntity
  8
0
100
AcDbBlockEnd
  0
BLOCK
  5
217
100
AcDbEntity
  8
0
100
AcDbBlockBegin
  2
_FILLED
 70
64
 10
0.0
 20
0.0
  3
_FILLED
  1

  0
SOLID
  5
218
100
AcDbEntity
  8
0
  6
BYBLOCK
 62
0
100
AcDbTrace
 10
0.0
 20
0.0
 11
-1.0
 21
0.3166666667
 12
-1.0
 22
-0.3166666667
 13
-1.0
 23
-0.3166666667
  0
ENDBLK
  5
219
100
AcDbEntity
  8
0
  6
BYBLOCK
 62
0
100
AcDbBlockEnd
  0
ENDSEC
  0
SECTION
  2
ENTITIES
  0
LINE
  5
21A
100
AcDbEntity
  8
0
100
AcDbLine
 62
250
  6
CONTINUOUS
 10
-13.4241837123
 20
20.8049458888
 11
-13.3685929623
 21
20.8513065426
  0
LWPOLYLINE
  5
21B
100
AcDbEntity
  8
0
100
AcDbPolyline
 62
250
  6
CONTINUOUS
 90
3
 70
0
 10
-13.3685929623
 20
20.8513065426
 10
-13.3119960424
 20
20.8924939375
 10
-13.2547769821
 20
20.9282335427
  0
LWPOLYLINE
  5
21C
100
AcDbEntity
  8
0
100
AcDbPolyline
 62
7
  6
CONTINUOUS
 90
16
 70
0
 10
-13.4881018963
 20
20.9369977389
 10
-13.4976294076
 20
20.9313688698
 10
-13.5650627403
 20
20.8870337111
 10
-13.6299355514
 20
20.8363396012
 10
-13.6922138283
 20
20.7793046345
 10
-13.7515709292
 20
20.7160665372
 10
-13.8068905621
 20
20.6477725533
 10
-13.858063433
 20
20.5746010021
 10
-13.9047956477
 20
20.4967584786
 10
-13.946066448
 20
20.4159350501
 10
-13.9817422636
 20
20.3324215391
 10
-14.0116171384
 20
20.2464980528
 10
-14.0350227308
 20
20.160032746
 10
-14.0518167496
 20
20.0737991961
 10
-14.0620480594
 20
19.9874796098
 10
-14.064893421
 20
19.9370215729
  0
LINE
  5
21D
100
AcDbEntity
  8
0
100
AcDbLine
 62
7
  6
CONTINUOUS
 10
-13.4881310305
 20
20.9370009353
 11
-7.8532702626
 21
24.2226408767
  0
LINE
  5
21E
100
AcDbEntity
  8
0
100
AcDbLine
 62
250
  6
CONTINUOUS
 10
-13.2547769821
 20
20.9282335427
 11
-7.6193674875
 21
24.214193442
  0
LWPOLYLINE
  5
21F
100
AcDbEntity
  8
0
100
AcDbPolyline
 62
250
  6
CONTINUOUS
 90
8
 70
0
 10
-13.4881106649
 20
20.9370128085
 10
-13.4625395886
 20
20.9493057106
 10
-13.432032529
 20
20.9581976316
 10
-13.399383183
 20
20.9621307148
 10
-13.3649488479
 20
20.9610619187
 10
-13.3291063553
 20
20.9550029398
 10
-13.2922479469
 20
20.9440200842
 10
-13.2547769821
 20
20.9282335427
  0
LINE
  5
220
100
AcDbEntity
  8
DRAFT
100
AcDbLine
 62
7
  6
CONTINUOUS
 10
-0.4066092032
 20
24.0423643556
 11
-0.3288960377
 21
24.0678667579
  0
LINE
  5
221
100
AcDbEntity
  8
DRAFT
100
AcDbLine
 62
7
  6
CONTINUOUS
 10
-3.2395806688
 20
22.6997206598
 11
-3.1640762508
 21
22.7243176622
  0
LINE
  5
222
100
AcDbEntity
  8
DRAFT
100
AcDbLine
 62
7
  6
CONTINUOUS
 10
-0.3288960377
 20
24.0678667579
 11
-0.2509347993
 21
24.0927917541
  0
LINE
  5
223
100
AcDbEntity
  8
DRAFT
100
AcDbLine
 62
7
  6
CONTINUOUS
 10
-3.1640762508
 20
22.7243176622
 11
-3.0883390884
 21
22.7483718221
  0
LINE
  5
224
100
AcDbEntity
  8
DRAFT
100
AcDbLine
 62
7
  6
CONTINUOUS
 10
-0.2509347993
 20
24.0927917541
 11
-0.1727261492
 21
24.117139137
  0
LINE
  5
225
100
AcDbEntity
  8
DRAFT
100
AcDbLine
 62
7
  6
CONTINUOUS
 10
-3.0883390884
 20
22.7483718221
 11
-3.0123697837
 21
22.7718829519
  0
LWPOLYLINE
  5
226
100
AcDbEntity
  8
DRAFT
100
AcDbPolyline
 62
7
  6
CONTINUOUS
 90
3
 70
0
 10
-0.1727261492
 20
24.117139137
 10
-0.0942727322
 20
24.1409080776
 10
-0.0549540708
 20
24.1525756839
  0
LWPOLYLINE
  5
227
100
AcDbEntity
  8
DRAFT
100
AcDbPolyline
 62
7
  6
CONTINUOUS
 90
3
 70
0
 10
-3.0123697837
 20
22.7718829519
 10
-2.9361707454
 20
22.7948503013
 10
-2.8979849256
 20
22.8061301052
  0
LWPOLYLINE
  5
228
100
AcDbEntity
  8
DRAFT
100
AcDbPolyline
 62
7
  6
CONTINUOUS
 90
21
 70
0
 10
-3.3649887675
 20
22.3578204464
 10
-3.3680641054
 20
22.3563158145
 10
-3.3856450772
 20
22.3489795554
 10
-3.4040175556
 20
22.3434243019
 10
-3.4231725838
 20
22.3396294786
 10
-3.4428888136
 20
22.3376381462
 10
-3.4631727538
 20
22.3374712675
 10
-3.4840178956
 20
22.3391078796
 10
-3.5051833643
 20
22.3425281553
 10
-3.5266723785
 20
22.3477525426
 10
-3.5484817196
 20
22.3547605934
 10
-3.5703608576
 20
22.3634711358
 10
-3.5923107289
 20
22.3739037187
 10
-3.6143303971
 20
22.3860387932
 10
-3.6361665224
 20
22.3997365406
 10
-3.65781688
 20
22.4150147891
 10
-3.6792836949
 20
22.4318557105
 10
-3.7003203017
 20
22.450066001
 10
-3.7208444789
 20
22.4695812259
 10
-3.7409384481
 20
22.4904658199
 10
-3.7606022094
 20
22.512719783
  0
LINE
  5
229
100
AcDbEntity
  8
DRAFT
100
AcDbLine
 62
7
  6
CONTINUOUS
 10
-3.2395806688
 20
22.6997206598
 11
-0.4066092032
 21
24.0423643556
  0
LINE
  5
22A
100
AcDbEntity
  8
DRAFT
100
AcDbLine
 62
7
  6
CONTINUOUS
 10
-2.8979849256
 20
22.8061301052
 11
-0.0549540708
 21
24.1525756839
  0
LINE
  5
22B
100
AcDbEntity
  8
DRAFT
100
AcDbLine
 62
7
  6
CONTINUOUS
 10
0.7378061928
 20
24.6476340815
 11
-0.8842767539
 21
23.8801982673
  0
LINE
  5
22C
100
AcDbEntity
  8
DRAFT
100
AcDbLine
 62
7
  6
CONTINUOUS
 10
-4.0174425287
 20
22.4206441186
 11
-1.5878085457
 21
23.5691321105
  0
LINE
  5
22D
100
AcDbEntity
  8
DRAFT
100
AcDbLine
 62
7
  6
CONTINUOUS
 10
-3.7606022094
 20
22.512719783
 11
-0.8805257622
 21
23.8722700214
  0
LWPOLYLINE
  5
22E
100
AcDbEntity
  8
DRAFT
100
AcDbPolyline
 62
7
  6
CONTINUOUS
 90
6
 70
0
 10
-1.5878084012
 20
23.5691318153
 10
-1.4608186997
 20
23.6281252882
 10
-1.317258237
 20
23.6923589473
 10
-1.172695279
 20
23.7544581537
 10
-1.0271177873
 20
23.8144285117
 10
-0.8805257622
 20
23.8722700214
  0
LINE
  5
22F
100
AcDbEntity
  8
DRAFT
100
AcDbLine
 62
7
  6
CONTINUOUS
 10
-4.0128537788
 20
22.4109365876
 11
-3.9570528768
 21
22.4341049341
  0
LINE
  5
230
100
AcDbEntity
  8
DRAFT
100
AcDbLine
 62
7
  6
CONTINUOUS
 10
-3.9570528768
 20
22.4341049341
 11
-3.9011058751
 21
22.4569592307
  0
LINE
  5
231
100
AcDbEntity
  8
DRAFT
100
AcDbLine
 62
7
  6
CONTINUOUS
 10
-3.9011058751
 20
22.4569592307
 11
-3.8450130338
 21
22.4794993723
  0
LINE
  5
232
100
AcDbEntity
  8
DRAFT
100
AcDbLine
 62
7
  6
CONTINUOUS
 10
-2.2097314867
 20
22.4620033858
 11
-0.2873049656
 21
23.2307657541
  0
LWPOLYLINE
  5
233
100
AcDbEntity
  8
DRAFT
100
AcDbPolyline
 62
7
  6
CONTINUOUS
 90
3
 70
0
 10
-3.8450130338
 20
22.4794993723
 10
-3.7887753939
 20
22.501724939
 10
-3.7606022094
 20
22.512719783
  0
LINE
  5
234
100
AcDbEntity
  8
0
100
AcDbLine
 62
7
  6
CONTINUOUS
 10
1.6793558098
 20
23.524629768
 11
2.0952502023
 21
23.6702359624
  0
LWPOLYLINE
  5
235
100
AcDbEntity
  8
0
100
AcDbPolyline
 62
250
  6
CONTINUOUS
 90
16
 70
0
 10
0.9315903457
 20
-24.0676466476
 10
0.9700292162
 20
-24.0848444779
 10
1.0118410388
 20
-24.0997706085
 10
1.05657782
 20
-24.1122651132
 10
1.1037602266
 20
-24.1221941192
 10
1.1528827219
 20
-24.1294512421
 10
1.2034189819
 20
-24.1339587254
 10
1.2548275349
 20
-24.1356682738
 10
1.3065575629
 20
-24.1345615702
 10
1.3580548036
 20
-24.1306504724
 10
1.4087674888
 20
-24.1239768859
 10
1.4581522565
 20
-24.114612315
 10
1.5056799726
 20
-24.1026570966
 10
1.5508414004
 20
-24.0882393251
 10
1.593152657
 20
-24.07151348
 10
1.6321603977
 20
-24.0526587706
  0
LWPOLYLINE
  5
236
100
AcDbEntity
  8
0
100
AcDbPolyline
 62
7
  6
CONTINUOUS
 90
11
 70
0
 10
1.1922915187
 20
-24.5731418181
 10
1.2470061774
 20
-24.5976933418
 10
1.311351676
 20
-24.6197121063
 10
1.3784158664
 20
-24.635567216
 10
1.447661074
 20
-24.644944893
 10
1.5186811701
 20
-24.6475869265
 10
1.5909468845
 20
-24.6432665816
 10
1.6638172185
 20
-24.6318649801
 10
1.7368943856
 20
-24.6132771494
 10
1.8098028367
 20
-24.5873825627
 10
1.8185909685
 20
-24.5837519272
  0
LINE
  5
237
100
AcDbEntity
  8
0
100
AcDbLine
 62
7
  6
CONTINUOUS
 10
1.1931217096
 20
-24.5735597896
 11
-13.6614029759
 21
-17.1462974468
  0
LINE
  5
238
100
AcDbEntity
  8
0
100
AcDbLine
 62
250
  6
CONTINUOUS
 10
0.9315903382
 20
-24.0676466518
 11
-13.9184087594
 21
-16.6426471029
  0
LWPOLYLINE
  5
239
100
AcDbEntity
  8
0
100
AcDbPolyline
 62
250
  6
CONTINUOUS
 90
12
 70
0
 10
-13.6617528711
 20
-17.1461222678
 10
-13.6742377906
 20
-17.1395614303
 10
-13.7163036254
 20
-17.1125853287
 10
-13.7550092582
 20
-17.0798211165
 10
-13.7901006705
 20
-17.0414887677
 10
-13.8213600896
 20
-16.9978267452
 10
-13.8485803083
 20
-16.9491099643
 10
-13.8715628507
 20
-16.8956752758
 10
-13.8901448697
 20
-16.8379044376
 10
-13.9042023112
 20
-16.7761978925
 10
-13.9136440965
 20
-16.7109652661
 10
-13.9184087594
 20
-16.6426471029
  0
LWPOLYLINE
  5
23A
100
AcDbEntity
  8
0
100
AcDbPolyline
 62
250
  6
CONTINUOUS
 90
12
 70
0
 10
1.1922388858
 20
-24.5731169504
 10
1.1800820007
 20
-24.5667224101
 10
1.1372804972
 20
-24.5393834632
 10
1.0978843835
 20
-24.5062745935
 10
1.0621572177
 20
-24.4676172568
 10
1.0303411668
 20
-24.4236693402
 10
1.0026481042
 20
-24.3747200294
 10
0.979265973
 20
-24.3210992358
 10
0.9603588683
 20
-24.26317748
 10
0.9460540469
 20
-24.2013487214
 10
0.9364434773
 20
-24.1360252662
 10
0.9315903382
 20
-24.0676466518
  0
LINE
  5
23B
100
AcDbEntity
  8
DRAFT
100
AcDbLine
 62
7
  6
CONTINUOUS
 10
2.9167926769
 20
23.5637371248
 11
2.7358552543
 21
23.4732684135
  0
LINE
  5
23C
100
AcDbEntity
  8
DRAFT
100
AcDbLine
 62
7
  6
CONTINUOUS
 10
-2.2097314867
 20
21.5093754416
 11
-0.2873049656
 21
22.4293953046
  0
LINE
  5
23D
100
AcDbEntity
  8
RACCORDO
100
AcDbLine
 62
250
  6
CONTINUOUS
 10
8.0815329196
 20
-16.2281553731
 11
7.7958294671
 21
-16.28065789
  0
LINE
  5
23E
100
AcDbEntity
  8
RACCORDO
100
AcDbLine
 62
250
  6
CONTINUOUS
 10
7.9565973473
 20
-15.9763321745
 11
7.7958294671
 21
-16.0058758089
  0
LWPOLYLINE
  5
23F
100
AcDbEntity
  8
0
100
AcDbPolyline
 62
250
  6
CONTINUOUS
 90
8
 70
0
 10
-14.0639827599
 20
-16.4764430148
 10
-14.0582066428
 20
-16.5031459085
 10
-14.0471042207
 20
-16.5294577657
 10
-14.0308380823
 20
-16.5548949592
 10
-14.0095825116
 20
-16.5791849416
 10
-13.9835652517
 20
-16.6020674574
 10
-13.9530650651
 20
-16.6232973314
 10
-13.9184087466
 20
-16.6426470959
  0
LWPOLYLINE
  5
240
100
AcDbEntity
  8
0
100
AcDbPolyline
 62
7
  6
CONTINUOUS
 90
12
 70
0
 10
-14.0648707588
 20
-16.4649574863
 10
-14.0583322934
 20
-16.5495271099
 10
-14.0452394193
 20
-16.6284814282
 10
-14.025636958
 20
-16.7042077507
 10
-13.999680368
 20
-16.7762795455
 10
-13.9675341321
 20
-16.8444117175
 10
-13.9294265724
 20
-16.9081919394
 10
-13.8857694171
 20
-16.966991814
 10
-13.8369120259
 20
-17.0204413465
 10
-13.7831267247
 20
-17.0683103748
 10
-13.725039312
 20
-17.1100766733
 10
-13.6617961872
 20
-17.1461001561
  0
LWPOLYLINE
  5
241
100
AcDbEntity
  8
0
100
AcDbPolyline
 62
250
  6
CONTINUOUS
 90
16
 70
0
 10
-13.9184087594
 20
19.7621410344
 10
-13.9136440966
 20
19.8353104297
 10
-13.9042023112
 20
19.9101507772
 10
-13.8901448698
 20
19.986160066
 10
-13.8715628508
 20
20.0628404382
 10
-13.8485803083
 20
20.1396645506
 10
-13.8213600896
 20
20.2160792598
 10
-13.7901006704
 20
20.2915503944
 10
-13.7550092582
 20
20.3655946765
 10
-13.7163036254
 20
20.4377438664
 10
-13.6742377906
 20
20.5075253081
 10
-13.629101226
 20
20.5744573513
 10
-13.5811951947
 20
20.638080506
 10
-13.5308443652
 20
20.6979682423
 10
-13.4783898141
 20
20.7537180041
 10
-13.4241837123
 20
20.8049458888
  0
LINE
  5
242
100
AcDbEntity
  8
DRAFT
100
AcDbLine
 62
7
  6
CONTINUOUS
 10
2.0329092004
 20
20.3406830422
 11
3.6460165852
 21
21.2641049786
  0
LINE
  5
243
100
AcDbEntity
  8
DRAFT
100
AcDbLine
 62
7
  6
CONTINUOUS
 10
5.1371835938
 20
19.6279929663
 11
6.3605577253
 21
20.2517282777
  0
LWPOLYLINE
  5
244
100
AcDbEntity
  8
DRAFT
100
AcDbPolyline
 62
7
  6
CONTINUOUS
 90
3
 70
0
 10
3.583779923
 20
18.8405287168
 10
3.8965944054
 20
18.9987260983
 10
5.1371835938
 20
19.6279929663
  0
LINE
  5
245
100
AcDbEntity
  8
DRAFT
100
AcDbLine
 62
7
  6
CONTINUOUS
 10
8.2200935358
 20
20.9120866953
 11
6.5027582321
 21
20.0534190435
  0
LINE
  5
246
100
AcDbEntity
  8
DRAFT
100
AcDbLine
 62
7
  6
CONTINUOUS
 10
8.2449941497
 20
20.8940401031
 11
6.5090445121
 21
20.0446194379
  0
LINE
  5
247
100
AcDbEntity
  8
DRAFT
100
AcDbLine
 62
7
  6
CONTINUOUS
 10
2.7211626393
 20
19.9965563228
 11
5.5349860339
 21
21.3576056316
  0
LINE
  5
248
100
AcDbEntity
  8
DRAFT
100
AcDbLine
 62
7
  6
CONTINUOUS
 10
3.0627583824
 20
19.5485511341
 11
4.0119526222
 21
20.0031145311
  0
LINE
  5
249
100
AcDbEntity
  8
DRAFT
100
AcDbLine
 62
7
  6
CONTINUOUS
 10
4.0119526222
 20
20.0031145311
 11
4.9532472568
 21
20.4522150949
  0
LINE
  5
24A
100
AcDbEntity
  8
DRAFT
100
AcDbLine
 62
7
  6
CONTINUOUS
 10
4.9532472568
 20
20.4522150949
 11
5.8866411663
 21
20.8957391709
  0
LWPOLYLINE
  5
24B
100
AcDbEntity
  8
0
100
AcDbPolyline
 62
250
  6
CONTINUOUS
 90
9
 70
0
 10
-14.064893421
 20
19.9370215729
 10
-14.0640228371
 20
19.9189733125
 10
-14.0582028501
 20
19.8944695163
 10
-14.0471002481
 20
19.8702452665
 10
-14.0308339895
 20
19.8465601121
 10
-14.0095783579
 20
19.8236678263
 10
-13.9835610954
 20
19.8018136867
 10
-13.9530609623
 20
19.7812318483
 10
-13.9184047505
 20
19.7621428338
  0
LWPOLYLINE
  5
24C
100
AcDbEntity
  8
0
100
AcDbPolyline
 62
250
  6
CONTINUOUS
 90
10
 70
0
 10
-13.9184087594
 20
-16.6426471029
 10
-14.0397081395
 20
-12.6621215239
 10
-14.1306921051
 20
-8.6646638007
 10
-14.1913525728
 20
-4.6506230383
 10
-14.2216841532
 20
-0.6203498087
 10
-14.2216841533
 20
3.425804007
 10
-14.191352573
 20
7.4874852509
 10
-14.1306921053
 20
11.5643393488
 10
-14.0397081396
 20
15.6560103395
 10
-13.9184087594
 20
19.7621410344
  0
LWPOLYLINE
  5
24D
100
AcDbEntity
  8
0
100
AcDbPolyline
 62
7
  6
CONTINUOUS
 90
10
 70
0
 10
-14.0648929795
 20
19.9371368446
 10
-14.1814450098
 20
16.0130212987
 10
-14.2747918075
 20
11.8663802383
 10
-14.3370027849
 20
7.7348967474
 10
-14.3680691701
 20
3.6189914566
 10
-14.3679890035
 20
-0.4809878395
 10
-14.3367616866
 20
-4.5647215395
 10
-14.2743879319
 20
-8.6318637058
 10
-14.1808752716
 20
-12.6820025726
 10
-14.0648730848
 20
-16.4649911186
  0
LINE
  5
24E
100
AcDbEntity
  8
0
100
AcDbLine
 62
7
  6
CONTINUOUS
 10
6.3546302419
 20
21.5405459426
 11
6.0634178532
 21
21.3325987463
  0
LINE
  5
24F
100
AcDbEntity
  8
DRAFT
100
AcDbLine
 62
7
  6
CONTINUOUS
 10
7.461237319
 20
21.2915148037
 11
6.1439414671
 21
20.3508680811
  0
LWPOLYLINE
  5
250
100
AcDbEntity
  8
RACCORDO
100
AcDbPolyline
 62
7
  6
CONTINUOUS
 90
12
 70
0
 10
10.7486462631
 20
19.3925374444
 10
10.7621852386
 20
19.4000330082
 10
10.7743455589
 20
19.4085423844
 10
10.7850570012
 20
19.4180099164
 10
10.7943176118
 20
19.4283472891
 10
10.8019898199
 20
19.4395080642
 10
10.8078150799
 20
19.4514869384
 10
10.8117125007
 20
19.4642591876
 10
10.8136659451
 20
19.4776714801
 10
10.813570919
 20
19.4915243335
 10
10.8113655267
 20
19.5057911769
 10
10.8071283255
 20
19.520325359
  0
LINE
  5
251
100
AcDbEntity
  8
RACCORDO
100
AcDbLine
 62
7
  6
CONTINUOUS
 10
10.7486462631
 20
19.3925374444
 11
6.4209127175
 21
17.1940533395
  0
LINE
  5
252
100
AcDbEntity
  8
DRAFT
100
AcDbLine
 62
7
  6
CONTINUOUS
 10
7.6430377124
 20
18.3721874822
 11
10.4488812477
 21
19.7920965541
  0
LWPOLYLINE
  5
253
100
AcDbEntity
  8
RACCORDO
100
AcDbPolyline
 62
7
  6
CONTINUOUS
 90
14
 70
0
 10
10.9881308552
 20
17.5848721351
 10
11.0183845999
 20
17.6020443312
 10
11.0592630517
 20
17.6303539243
 10
11.0986498382
 20
17.6637899718
 10
11.1354366293
 20
17.7013931668
 10
11.1693700537
 20
17.7426905575
 10
11.2003748153
 20
17.7875356961
 10
11.2278086022
 20
17.8349488508
 10
11.2515007036
 20
17.8845290363
 10
11.2712187049
 20
17.9359093052
 10
11.286522435
 20
17.9879411594
 10
11.2972405204
 20
18.0400254666
 10
11.3033066738
 20
18.0921021818
 10
11.3046620904
 20
18.1302929243
  0
LINE
  5
254
100
AcDbEntity
  8
0
100
AcDbLine
 62
250
  6
CONTINUOUS
 10
1.6069078388
 20
13.4973911322
 11
7.4425452011
 21
16.6832370977
  0
LINE
  5
255
100
AcDbEntity
  8
0
100
AcDbLine
 62
250
  6
CONTINUOUS
 10
1.9727405788
 20
12.8943886865
 11
7.7958294671
 21
16.0733840711
  0
LINE
  5
256
100
AcDbEntity
  8
RACCORDO
100
AcDbLine
 62
250
  6
CONTINUOUS
 10
11.0401037439
 20
17.6930396154
 11
8.0815329196
 21
16.1611947284
  0
LINE
  5
257
100
AcDbEntity
  8
RACCORDO
100
AcDbLine
 62
7
  6
CONTINUOUS
 10
10.9881937511
 20
17.5848999001
 11
8.0560241149
 21
16.0667246283
  0
LINE
  5
258
100
AcDbEntity
  8
0
100
AcDbLine
 62
7
  6
CONTINUOUS
 10
10.1414445397
 20
14.0359456535
 11
9.1701207257
 21
13.6778816461
  0
LINE
  5
259
100
AcDbEntity
  8
RACCORDO
100
AcDbLine
 62
250
  6
CONTINUOUS
 10
10.1414445397
 20
14.0359456535
 11
10.1677719853
 21
14.0452972929
  0
LWPOLYLINE
  5
25A
100
AcDbEntity
  8
RACCORDO
100
AcDbPolyline
 62
250
  6
CONTINUOUS
 90
41
 70
0
 10
9.1706042243
 20
13.6776398968
 10
9.2283147177
 20
13.6969559209
 10
9.3350411419
 20
13.7240852579
 10
9.4452369216
 20
13.7421504395
 10
9.5585601559
 20
13.7510946457
 10
9.6746631426
 20
13.7508908186
 10
9.7931946303
 20
13.7415399508
 10
9.9137941626
 20
13.723070496
 10
10.0360953596
 20
13.6955384204
 10
10.159724832
 20
13.6590276381
 10
10.2843038227
 20
13.6136501897
 10
10.4094507896
 20
13.5595456718
 10
10.5347866407
 20
13.4968785947
 10
10.6599336794
 20
13.4258378048
 10
10.7845128101
 20
13.3466378817
 10
10.9081424939
 20
13.2595207651
 10
11.0304439825
 20
13.1647531602
 10
11.1510438854
 20
13.0626245365
 10
11.2695758216
 20
12.9534453026
 10
11.3856793434
 20
12.8375474454
 10
11.4990032088
 20
12.715281204
 10
11.6091996995
 20
12.5870213449
 10
11.7159268864
 20
12.4531666155
 10
11.818854442
 20
12.3141338588
 10
11.917675977
 20
12.1703395893
 10
12.01210201
 20
12.0222049851
 10
12.1018437318
 20
11.8701812267
 10
12.1866275445
 20
11.7147297892
 10
12.2662045106
 20
11.5563023832
 10
12.3403434815
 20
11.3953474806
 10
12.4087986154
 20
11.2323862386
 10
12.4713296742
 20
11.0679926546
 10
12.5277597418
 20
10.9026420421
 10
12.5779113846
 20
10.7368655428
 10
12.6215982959
 20
10.5713271659
 10
12.658709024
 20
10.4065422544
 10
12.6891594409
 20
10.2429937911
 10
12.7128677387
 20
10.081287128
 10
12.7297988659
 20
9.9219368293
 10
12.7399484012
 20
9.7653683998
 10
12.743326056
 20
9.6120333826
  0
LWPOLYLINE
  5
25B
100
AcDbEntity
  8
RACCORDO
100
AcDbPolyline
 62
250
  6
CONTINUOUS
 90
8
 70
0
 10
10.1677719853
 20
14.0452972929
 10
10.2611938205
 20
14.0730231651
 10
10.3575771498
 20
14.0933420363
 10
10.4566670283
 20
14.106203251
 10
10.5582100333
 20
14.1115769216
 10
10.6619563073
 20
14.1094507578
 10
10.7676420232
 20
14.0998291078
 10
10.8749890499
 20
14.0827362539
  0
LWPOLYLINE
  5
25C
100
AcDbEntity
  8
RACCORDO
100
AcDbPolyline
 62
7
  6
CONTINUOUS
 90
8
 70
0
 10
10.9891299395
 20
-14.3741764198
 10
10.9501269262
 20
-14.3588543451
 10
10.9084517983
 20
-14.3486275821
 10
10.8645430598
 20
-14.3439253646
 10
10.8191896625
 20
-14.3451282835
 10
10.7733860802
 20
-14.3523596592
 10
10.7277190989
 20
-14.3655458123
 10
10.6828376457
 20
-14.3844981298
  0
LINE
  5
25D
100
AcDbEntity
  8
RACCORDO
100
AcDbLine
 62
7
  6
CONTINUOUS
 10
7.7958294671
 20
-15.8959482343
 11
7.9565973473
 21
-15.9763321745
  0
LINE
  5
25E
100
AcDbEntity
  8
RACCORDO
100
AcDbLine
 62
250
  6
CONTINUOUS
 10
8.8284959335
 20
-15.2956210574
 11
7.7958294671
 21
-14.7792878242
  0
LINE
  5
25F
100
AcDbEntity
  8
RACCORDO
100
AcDbLine
 62
7
  6
CONTINUOUS
 10
8.8532975986
 20
-15.2834347932
 11
7.7958294671
 21
-14.7547007274
  0
LWPOLYLINE
  5
260
100
AcDbEntity
  8
RACCORDO
100
AcDbPolyline
 62
250
  6
CONTINUOUS
 90
28
 70
0
 10
-9.0303669498
 20
-3.8805970876
 10
-9.1727681151
 20
-3.6208829855
 10
-9.3053403284
 20
-3.3557290343
 10
-9.4275879326
 20
-3.0861220751
 10
-9.5390390114
 20
-2.8131069558
 10
-9.6392067291
 20
-2.5377499133
 10
-9.7277068079
 20
-2.2611179438
 10
-9.8042207995
 20
-1.9842452005
 10
-9.8684311984
 20
-1.7081570901
 10
-9.9200978264
 20
-1.4338696812
 10
-9.9590255813
 20
-1.1624595118
 10
-9.9850453447
 20
-0.8950287412
 10
-9.9980642299
 20
-0.6326743918
 10
-9.998063939
 20
-0.3762961085
 10
-9.985043777
 20
-0.1266797007
 10
-9.9590200521
 20
0.115309465
 10
-9.9200844888
 20
0.3486489741
 10
-9.8684083282
 20
0.5723550485
 10
-9.8041893084
 20
0.7855524303
 10
-9.7276674644
 20
0.9874607002
 10
-9.6391599887
 20
1.1773065207
 10
-9.5389854882
 20
1.3543827006
 10
-9.4275288326
 20
1.5179987458
 10
-9.3052765006
 20
1.6674847561
 10
-9.1727008114
 20
1.802271087
 10
-9.0302973671
 20
1.9218638242
 10
-8.8786500862
 20
2.0257962284
 10
-8.7019560729
 20
2.1215197167
  0
LINE
  5
261
100
AcDbEntity
  8
RACCORDO
100
AcDbLine
 62
7
  6
CONTINUOUS
 10
-9.1907786546
 20
1.3596790353
 11
-9.1907786546
 21
-2.249345032
  0
LWPOLYLINE
  5
262
100
AcDbEntity
  8
DRAFT
100
AcDbPolyline
 62
7
  6
CONTINUOUS
 90
36
 70
0
 10
-8.6857216237
 20
2.043707488
 10
-8.827023461
 20
1.9034860339
 10
-8.9562749516
 20
1.7473783701
 10
-9.0733215301
 20
1.5751812249
 10
-9.178317762
 20
1.3870978702
 10
-9.2699245968
 20
1.1855270239
 10
-9.3479706288
 20
0.9702957053
 10
-9.4126272638
 20
0.7415768951
 10
-9.4630696689
 20
0.5022882544
 10
-9.4991157123
 20
0.2522945046
 10
-9.5209475258
 20
-0.0082690757
 10
-9.528286672
 20
-0.2760789897
 10
-9.5209475258
 20
-0.5512280498
 10
-9.4991157123
 20
-0.8336234437
 10
-9.4630696689
 20
-1.1196632369
 10
-9.4126272638
 20
-1.4093942826
 10
-9.3479706288
 20
-1.7027697278
 10
-9.2699245968
 20
-1.9960470784
 10
-9.178317762
 20
-2.2892247595
 10
-9.0733215301
 20
-2.5823043462
 10
-8.9562749516
 20
-2.8715480698
 10
-8.827023461
 20
-3.1569072242
 10
-8.6857216237
 20
-3.4384305156
 10
-8.5341721868
 20
-3.7125262941
 10
-8.3722441614
 20
-3.9790989341
 10
-8.2000685363
 20
-4.2382440613
 10
-8.0198410247
 20
-4.4866569021
 10
-7.831458184
 20
-4.72420039
 10
-7.6350234568
 20
-4.9510115916
 10
-7.4330428839
 20
-5.1641969338
 10
-7.2254456877
 20
-5.3635815808
 10
-7.0123026457
 20
-5.5493403686
 10
-6.7963321309
 20
-5.7191042312
 10
-6.5784402675
 20
-5.8720834801
 10
-6.3577209313
 20
-6.0090678039
 10
-6.1341741223
 20
-6.1300572027
  0
LWPOLYLINE
  5
263
100
AcDbEntity
  8
RACCORDO
100
AcDbPolyline
 62
250
  6
CONTINUOUS
 90
3
 70
0
 10
11.0732709546
 20
17.7133114631
 10
11.0566125458
 20
17.7021594403
 10
11.0401037439
 20
17.6930396154
  0
LWPOLYLINE
  5
264
100
AcDbEntity
  8
RACCORDO
100
AcDbPolyline
 62
250
  6
CONTINUOUS
 90
8
 70
0
 10
10.9881937511
 20
17.5848999001
 10
10.9979657944
 20
17.5909112011
 10
11.0103739108
 20
17.6019539263
 10
11.0208290922
 20
17.6157437326
 10
11.0291524476
 20
17.6320446727
 10
11.0352015621
 20
17.6505778328
 10
11.0388729335
 20
17.6710261056
 10
11.0401037439
 20
17.6930396154
  0
LINE
  5
265
100
AcDbEntity
  8
RACCORDO
100
AcDbLine
 62
7
  6
CONTINUOUS
 10
7.8664653474
 20
14.5212831467
 11
8.4809259833
 21
14.8802288439
  0
LINE
  5
266
100
AcDbEntity
  8
DRAFT
100
AcDbLine
 62
250
  6
CONTINUOUS
 10
9.1039770123
 20
12.6616298649
 11
10.164637184
 21
13.1806234169
  0
LINE
  5
267
100
AcDbEntity
  8
RACCORDO
100
AcDbLine
 62
7
  6
CONTINUOUS
 10
10.9424546433
 20
14.0420903749
 11
10.9837194447
 21
14.0582159059
  0
LINE
  5
268
100
AcDbEntity
  8
RACCORDO
100
AcDbLine
 62
7
  6
CONTINUOUS
 10
11.8322475821
 20
13.6339518372
 11
11.7909827808
 21
13.6178263062
  0
LWPOLYLINE
  5
269
100
AcDbEntity
  8
RACCORDO
100
AcDbPolyline
 62
7
  6
CONTINUOUS
 90
11
 70
0
 10
11.8322475821
 20
13.6339518372
 10
11.8519394917
 20
13.640801441
 10
11.8713221931
 20
13.6457839432
 10
11.8903956865
 20
13.6488993438
 10
11.9093000654
 20
13.6501525271
 10
11.9278952362
 20
13.6495386088
 10
11.9457609178
 20
13.6470429354
 10
11.9628055976
 20
13.642650115
 10
11.9791207881
 20
13.6363755396
 10
11.994560746
 20
13.628250731
 10
12.007670212
 20
13.619358383
  0
LWPOLYLINE
  5
26A
100
AcDbEntity
  8
RACCORDO
100
AcDbPolyline
 62
250
  6
CONTINUOUS
 90
8
 70
0
 10
10.9955616952
 20
-14.3772982316
 10
10.9710020042
 20
-14.3670977876
 10
10.943368545
 20
-14.3600015972
 10
10.9147228131
 20
-14.3567962251
 10
10.885348864
 20
-14.3573418516
 10
10.8559576006
 20
-14.3613891479
 10
10.8269798651
 20
-14.3685571678
 10
10.7985186136
 20
-14.3785133298
  0
LWPOLYLINE
  5
26B
100
AcDbEntity
  8
RACCORDO
100
AcDbPolyline
 62
250
  6
CONTINUOUS
 90
8
 70
0
 10
11.1175013485
 20
-14.4382680582
 10
11.0962238663
 20
-14.4292525218
 10
11.0686705854
 20
-14.4218470205
 10
11.040110303
 20
-14.4184901309
 10
11.0108016084
 20
-14.4190204909
 10
10.9814396107
 20
-14.4231740077
 10
10.9524586144
 20
-14.4305583088
 10
10.9239837559
 20
-14.4408320003
  0
LWPOLYLINE
  5
26C
100
AcDbEntity
  8
RACCORDO
100
AcDbPolyline
 62
250
  6
CONTINUOUS
 90
7
 70
0
 10
10.7707840873
 20
-14.3909137201
 10
10.7524866842
 20
-14.3830857268
 10
10.7345023546
 20
-14.3783552598
 10
10.7171388154
 20
-14.3768032584
 10
10.7006931615
 20
-14.378456278
 10
10.6854467827
 20
-14.383286035
 10
10.6828357717
 20
-14.3844943004
  0
LWPOLYLINE
  5
26D
100
AcDbEntity
  8
RACCORDO
100
AcDbPolyline
 62
250
  6
CONTINUOUS
 90
9
 70
0
 10
11.1748191931
 20
-14.6882555218
 10
11.1591236477
 20
-14.681367669
 10
11.1428073776
 20
-14.6768666251
 10
11.1258564111
 20
-14.6749583022
 10
11.1082847198
 20
-14.6754367883
 10
11.0908480344
 20
-14.677855871
 10
11.073798265
 20
-14.6820668128
 10
11.0568835015
 20
-14.6882183512
 10
11.0401037439
 20
-14.6963104861
  0
LWPOLYLINE
  5
26E
100
AcDbEntity
  8
DRAFT
100
AcDbPolyline
 62
7
  6
CONTINUOUS
 90
9
 70
0
 10
-6.1341741223
 20
-6.1300572027
 10
-5.9106273133
 20
-6.232614613
 10
-5.6899079771
 20
-6.3163496253
 10
-5.4720161138
 20
-6.3812622398
 10
-5.2560455989
 20
-6.427468892
 10
-5.0429025569
 20
-6.4548531462
 10
-4.8353053608
 20
-6.4630656953
 10
-4.6333247878
 20
-6.4518609261
 10
-4.4368900606
 20
-6.4214844517
  0
LINE
  5
26F
100
AcDbEntity
  8
RACCORDO
100
AcDbLine
 62
7
  6
CONTINUOUS
 10
10.9964809202
 20
-14.3777641572
 11
10.9891299395
 21
-14.3741764198
  0
LINE
  5
270
100
AcDbEntity
  8
RACCORDO
100
AcDbLine
 62
250
  6
CONTINUOUS
 10
10.7707840873
 20
-14.3909137201
 11
10.8962357838
 21
-14.4536395683
  0
LINE
  5
271
100
AcDbEntity
  8
RACCORDO
100
AcDbLine
 62
7
  6
CONTINUOUS
 10
10.9955615261
 20
-14.377298147
 11
11.1175004161
 21
-14.438267592
  0
LWPOLYLINE
  5
272
100
AcDbEntity
  8
RACCORDO
100
AcDbPolyline
 62
250
  6
CONTINUOUS
 90
14
 70
0
 10
-6.5790133697
 20
-6.3619866004
 10
-6.7876418797
 20
-6.2499145603
 10
-6.9958882045
 20
-6.122480972
 10
-7.2029634507
 20
-5.9801073319
 10
-7.4081925741
 20
-5.823194916
 10
-7.6106715165
 20
-5.6523498789
 10
-7.8092884065
 20
-5.4684513467
 10
-8.003189136
 20
-5.2723274904
 10
-8.1917544555
 20
-5.0646286339
 10
-8.3742661021
 20
-4.8460931536
 10
-8.5500412976
 20
-4.6175528666
 10
-8.7184137196
 20
-4.379879643
 10
-8.8787223201
 20
-4.1339193598
 10
-9.0303669498
 20
-3.8805970876
  0
LWPOLYLINE
  5
273
100
AcDbEntity
  8
RACCORDO
100
AcDbPolyline
 62
250
  6
CONTINUOUS
 90
45
 70
0
 10
-6.7874320935
 20
-6.7286213277
 10
-7.0103098283
 20
-6.6087972961
 10
-7.2311444023
 20
-6.4736230315
 10
-7.4499334842
 20
-6.323097339
 10
-7.6676115163
 20
-6.1564572562
 10
-7.883234685
 20
-5.9744609465
 10
-8.0939813349
 20
-5.7793879125
 10
-8.2996492412
 20
-5.5711678087
 10
-8.500423187
 20
-5.349862067
 10
-8.6940612764
 20
-5.1179474787
 10
-8.8804772449
 20
-4.8753023312
 10
-9.0597341725
 20
-4.6220365302
 10
-9.2298151167
 20
-4.3609747856
 10
-9.3906133413
 20
-4.0920154167
 10
-9.5422097312
 20
-3.8152470061
 10
-9.682871773
 20
-3.5337812042
 10
-9.8124706758
 20
-3.2475363156
 10
-9.9311101856
 20
-2.9565814346
 10
-10.0374118274
 20
-2.6642570732
 10
-10.1312154741
 20
-2.3705641506
 10
-10.2126605944
 20
-2.0754914583
 10
-10.2808252997
 20
-1.7823649739
 10
-10.3355527274
 20
-1.4911749339
 10
-10.3769860776
 20
-1.2019244157
 10
-10.4046622784
 20
-0.9179630637
 10
-10.4184286551
 20
-0.6394418902
 10
-10.4184335017
 20
-0.3662079001
 10
-10.4046743996
 20
-0.1011593423
 10
-10.3770009436
 20
0.1557088291
 10
-10.3355678811
 20
0.4043891895
 10
-10.2808397497
 20
0.6419601861
 10
-10.2126734894
 20
0.86825474
 10
-10.1312258491
 20
1.0834329404
 10
-10.0374198239
 20
1.2850596583
 10
-9.9311162358
 20
1.4729857351
 10
-9.81247493
 20
1.6473499559
 10
-9.6828746218
 20
1.8061455754
 10
-9.542212184
 20
1.9491730121
 10
-9.3906157921
 20
2.0766194021
 10
-9.2298163442
 20
2.1870555236
 10
-9.0597323623
 20
2.2802840319
 10
-8.8804711736
 20
2.3564895195
 10
-8.6940498807
 20
2.4148142197
 10
-8.5004042912
 20
2.4550584569
 10
-8.2996217823
 20
2.4774105287
  0
LINE
  5
274
100
AcDbEntity
  8
RACCORDO
100
AcDbLine
 62
7
  6
CONTINUOUS
 10
-6.9119915816
 20
2.0574856213
 11
-6.9119915816
 21
-5.6281899917
  0
LINE
  5
275
100
AcDbEntity
  8
RACCORDO
100
AcDbLine
 62
250
  6
CONTINUOUS
 10
7.7958294671
 20
15.9178426594
 11
8.0815329196
 21
16.1611947284
  0
LINE
  5
276
100
AcDbEntity
  8
RACCORDO
100
AcDbLine
 62
7
  6
CONTINUOUS
 10
7.7958294671
 20
15.8471333304
 11
8.0552935464
 21
16.0681356318
  0
LINE
  5
277
100
AcDbEntity
  8
DRAFT
100
AcDbLine
 62
7
  6
CONTINUOUS
 10
-8.5341721868
 20
2.1662538296
 11
-8.6857216237
 21
2.043707488
  0
LINE
  5
278
100
AcDbEntity
  8
DRAFT
100
AcDbLine
 62
7
  6
CONTINUOUS
 10
-8.4638255618
 20
2.21171474
 11
-8.5341721868
 21
2.1662538296
  0
LINE
  5
279
100
AcDbEntity
  8
DRAFT
100
AcDbLine
 62
250
  6
CONTINUOUS
 10
8.3968702311
 20
12.3005187851
 11
9.1039770123
 21
12.6616298649
  0
LINE
  5
27A
100
AcDbEntity
  8
RACCORDO
100
AcDbLine
 62
7
  6
CONTINUOUS
 10
-8.7019560729
 20
2.1215197167
 11
-8.701781019
 21
2.1216024533
  0
LWPOLYLINE
  5
27B
100
AcDbEntity
  8
RACCORDO
100
AcDbPolyline
 62
250
  6
CONTINUOUS
 90
5
 70
0
 10
11.2485329998
 20
-15.8156872919
 10
11.2599433956
 20
-15.8242994131
 10
11.2688120512
 20
-15.8316422355
 10
11.2749673444
 20
-15.8375813262
 10
11.2782826803
 20
-15.8420073984
  0
LWPOLYLINE
  5
27C
100
AcDbEntity
  8
RACCORDO
100
AcDbPolyline
 62
7
  6
CONTINUOUS
 90
13
 70
0
 10
-8.7018747975
 20
2.121546522
 10
-8.5966902782
 20
2.1668492743
 10
-8.4500341279
 20
2.2163718012
 10
-8.2975792799
 20
2.252726184
 10
-8.1392339005
 20
2.2758488456
 10
-7.9753199861
 20
2.2855602504
 10
-7.8063602796
 20
2.2816518101
 10
-7.6326571046
 20
2.2639430098
 10
-7.4546828459
 20
2.2323105195
 10
-7.2731074147
 20
2.1866789913
 10
-7.08861763
 20
2.1270382617
 10
-6.9019699957
 20
2.0535392739
 10
-6.7095439748
 20
1.9641969597
  0
LWPOLYLINE
  5
27D
100
AcDbEntity
  8
DRAFT
100
AcDbPolyline
 62
7
  6
CONTINUOUS
 90
3
 70
0
 10
-4.4368900606
 20
-6.4214844517
 10
-4.2485072199
 20
-6.3723238045
 10
-4.1895789264
 20
-6.3500295107
  0
LINE
  5
27E
100
AcDbEntity
  8
DRAFT
100
AcDbLine
 62
7
  6
CONTINUOUS
 10
-2.2097314867
 20
21.5093754416
 11
-2.2097314867
 21
22.4620033858
  0
LINE
  5
27F
100
AcDbEntity
  8
DRAFT
100
AcDbLine
 62
7
  6
CONTINUOUS
 10
7.7958294671
 20
6.4194885241
 11
9.592649675
 21
7.3478501943
  0
LINE
  5
280
100
AcDbEntity
  8
DRAFT
100
AcDbLine
 62
7
  6
CONTINUOUS
 10
10.4566946346
 20
7.385887132
 11
11.5114523125
 21
7.9279010388
  0
LINE
  5
281
100
AcDbEntity
  8
DRAFT
100
AcDbLine
 62
7
  6
CONTINUOUS
 10
10.4566946346
 20
7.385887132
 11
10.434479656
 21
7.3747796427
  0
LINE
  5
282
100
AcDbEntity
  8
DRAFT
100
AcDbLine
 62
7
  6
CONTINUOUS
 10
9.7235025013
 20
7.0290477772
 11
10.434479656
 21
7.3747796427
  0
LWPOLYLINE
  5
283
100
AcDbEntity
  8
DRAFT
100
AcDbPolyline
 62
7
  6
CONTINUOUS
 90
11
 70
0
 10
9.7235047682
 20
7.029043196
 10
9.6962420514
 20
7.0162410853
 10
9.6023140829
 20
6.978707423
 10
9.504367876
 20
6.9492993324
 10
9.4034411023
 20
6.9283362733
 10
9.2995982068
 20
6.9159168036
 10
9.1927747444
 20
6.9119423655
 10
9.0838150514
 20
6.9164367454
 10
8.9726307393
 20
6.9294750587
 10
8.8593101965
 20
6.9509821899
 10
8.836179168
 20
6.957005178
  0
LWPOLYLINE
  5
284
100
AcDbEntity
  8
RACCORDO
100
AcDbPolyline
 62
250
  6
CONTINUOUS
 90
4
 70
0
 10
10.9512916684
 20
-14.4934074451
 10
10.9334715517
 20
-14.47752047
 10
10.9150143207
 20
-14.4641884731
 10
10.8962357838
 20
-14.4536395683
  0
LWPOLYLINE
  5
285
100
AcDbEntity
  8
RACCORDO
100
AcDbPolyline
 62
7
  6
CONTINUOUS
 90
5
 70
0
 10
10.8138485294
 20
-16.6648926081
 10
10.813765346
 20
-16.6647952728
 10
10.8120998026
 20
-16.6653375594
 10
10.8084241334
 20
-16.6669248856
 10
10.8027291322
 20
-16.6696759341
  0
LWPOLYLINE
  5
286
100
AcDbEntity
  8
DRAFT
100
AcDbPolyline
 62
7
  6
CONTINUOUS
 90
18
 70
0
 10
-3.2395806688
 20
22.6997206598
 10
-3.2367432775
 20
22.6713633124
 10
-3.2352694586
 20
22.643753461
 10
-3.235159212
 20
22.6168911056
 10
-3.2364224201
 20
22.5906890766
 10
-3.2390492006
 20
22.5652345435
 10
-3.2430099063
 20
22.5407890151
 10
-3.24832023
 20
22.5173499222
 10
-3.2549644789
 20
22.494919834
 10
-3.2628659281
 20
22.4737679663
 10
-3.272038932
 20
22.4539126873
 10
-3.2824691361
 20
22.4353356288
 10
-3.2940367527
 20
22.4182509032
 10
-3.306755314
 20
22.4026754446
 10
-3.3206112877
 20
22.3885923189
 10
-3.3354442894
 20
22.376164836
 10
-3.3512656834
 20
22.3654125038
 10
-3.3649887675
 20
22.3578204464
  0
LWPOLYLINE
  5
287
100
AcDbEntity
  8
0
100
AcDbPolyline
 62
250
  6
CONTINUOUS
 90
10
 70
0
 10
0.9315903382
 20
-24.0676466518
 10
0.8059852204
 20
-20.0849682053
 10
0.7117719513
 20
-16.0858958315
 10
0.6489586148
 20
-12.0707786353
 10
0.6175506
 20
-8.0399671886
 10
0.6175506
 20
-3.9938133725
 10
0.6489586148
 20
0.0673296547
 10
0.7117719513
 20
4.1431073188
 10
0.8059852203
 20
8.2331636587
 10
0.9315903382
 20
12.3371414856
  0
LINE
  5
288
100
AcDbEntity
  8
DRAFT
100
AcDbLine
 62
7
  6
CONTINUOUS
 10
-0.2873049656
 20
22.4293953046
 11
-0.2873049656
 21
23.2307657541
  0
LWPOLYLINE
  5
289
100
AcDbEntity
  8
0
100
AcDbPolyline
 62
250
  6
CONTINUOUS
 90
19
 70
0
 10
0.9315903382
 20
12.3371414856
 10
0.9364434773
 20
12.4102865315
 10
0.946054047
 20
12.4850545705
 10
0.9603588683
 20
12.5609428868
 10
0.979265973
 20
12.6374444299
 10
1.0026481042
 20
12.7140407592
 10
1.0303411668
 20
12.7902055862
 10
1.0621572177
 20
12.8654197479
 10
1.0978843835
 20
12.9391834934
 10
1.1372804972
 20
13.0110090207
 10
1.1800820007
 20
13.0804101506
 10
1.2260040916
 20
13.1469220088
 10
1.2747412781
 20
13.2101110121
 10
1.3259773998
 20
13.2695569144
 10
1.379365031
 20
13.3248481426
 10
1.4345267779
 20
13.3756026452
 10
1.491086895
 20
13.42147678
 10
1.5486752689
 20
13.4621642428
 10
1.6069078388
 20
13.4973911322
  0
LINE
  5
28A
100
AcDbEntity
  8
0
100
AcDbLine
 62
7
  6
CONTINUOUS
 10
12.9043711287
 20
8.5100924755
 11
12.024481012
 21
7.9409869768
  0
LWPOLYLINE
  5
28B
100
AcDbEntity
  8
RACCORDO
100
AcDbPolyline
 62
7
  6
CONTINUOUS
 90
41
 70
0
 10
-6.7093909174
 20
1.9641173833
 10
-6.5023394085
 20
1.8526665824
 10
-6.2978207829
 20
1.7270664694
 10
-6.0938360622
 20
1.5862092082
 10
-5.8913259125
 20
1.4305591159
 10
-5.6911341942
 20
1.2606564326
 10
-5.4940634146
 20
1.0770377155
 10
-5.3009693147
 20
0.880364715
 10
-5.1127224179
 20
0.6714516507
 10
-4.9301228351
 20
0.4510839531
 10
-4.7539385969
 20
0.220089019
 10
-4.5849159892
 20
-0.0205749428
 10
-4.4237404398
 20
-0.2699845291
 10
-4.2710855671
 20
-0.5271594061
 10
-4.1275940011
 20
-0.7909870289
 10
-3.9938365686
 20
-1.0604138822
 10
-3.8703520617
 20
-1.3343699792
 10
-3.7576309491
 20
-1.6116663192
 10
-3.6560917839
 20
-1.8911914875
 10
-3.5661267964
 20
-2.1718139204
 10
-3.4880640151
 20
-2.4522870828
 10
-3.4221487047
 20
-2.7314942476
 10
-3.3686026697
 20
-3.008291588
 10
-3.3275683253
 20
-3.2813944085
 10
-3.2991178063
 20
-3.5494653577
 10
-3.2832273586
 20
-3.8116922248
 10
-3.2798239965
 20
-4.0675687283
 10
-3.2888423342
 20
-4.315902532
 10
-3.3101903658
 20
-4.5558277572
 10
-3.3438283474
 20
-4.7872138564
 10
-3.3896749528
 20
-5.0091725928
 10
-3.4475540138
 20
-5.2204853263
 10
-3.5172942207
 20
-5.4204176002
 10
-3.5986921795
 20
-5.6082118731
 10
-3.6913465862
 20
-5.7827178535
 10
-3.7945979226
 20
-5.9428107562
 10
-3.9078209943
 20
-6.0878024284
 10
-4.0305998554
 20
-6.2173396213
 10
-4.1625029884
 20
-6.3311729204
 10
-4.3029734685
 20
-6.4290012685
 10
-4.400188057
 20
-6.4847126601
  0
LWPOLYLINE
  5
28C
100
AcDbEntity
  8
RACCORDO
100
AcDbPolyline
 62
250
  6
CONTINUOUS
 90
36
 70
0
 10
-6.7874320935
 20
2.1290928275
 10
-6.5646941816
 20
2.0091975011
 10
-6.344273394
 20
1.873814833
 10
-6.1261673994
 20
1.7229459601
 10
-5.9094387632
 20
1.5558293959
 10
-5.6950155485
 20
1.3732311991
 10
-5.4856917299
 20
1.1774447724
 10
-5.2816560484
 20
0.9684065122
 10
-5.082702321
 20
0.7461885506
 10
-4.8910313839
 20
0.5132882687
 10
-4.7067096804
 20
0.2695938781
 10
-4.5296475824
 20
0.0152285452
 10
-4.3618127553
 20
-0.2469583609
 10
-4.2032887055
 20
-0.517056988
 10
-4.0539660751
 20
-0.7949644348
 10
-3.9155262304
 20
-1.0775432102
 10
-3.7880749395
 20
-1.3648632192
 10
-3.6714813896
 20
-1.6568421131
 10
-3.5670773085
 20
-1.9501165749
 10
-3.4750028714
 20
-2.244676224
 10
-3.395097243
 20
-2.5405210711
 10
-3.3282478278
 20
-2.8343069223
 10
-3.2745985487
 20
-3.1260378652
 10
-3.2339918203
 20
-3.4157028357
 10
-3.2068715148
 20
-3.6999392328
 10
-3.1933858416
 20
-3.9785904701
 10
-3.1933822269
 20
-4.2518107445
 10
-3.2068625647
 20
-4.5167082116
 10
-3.233981031
 20
-4.7732923239
 10
-3.2745877836
 20
-5.0215555884
 10
-3.3282379066
 20
-5.2585853671
 10
-3.3950889262
 20
-5.484222041
 10
-3.4749969989
 20
-5.6986319251
 10
-3.5670739
 20
-5.8993956997
 10
-3.6714803161
 20
-6.0863745385
 10
-3.7880762273
 20
-6.2597175612
  0
LWPOLYLINE
  5
28D
100
AcDbEntity
  8
RACCORDO
100
AcDbPolyline
 62
250
  6
CONTINUOUS
 90
3
 70
0
 10
10.9838170487
 20
-14.531719942
 10
10.9681697637
 20
-14.5115775677
 10
10.9512916684
 20
-14.4934074451
  0
LWPOLYLINE
  5
28E
100
AcDbEntity
  8
0
100
AcDbPolyline
 62
250
  6
CONTINUOUS
 90
8
 70
0
 10
1.6321603977
 20
-24.0526587706
 10
1.5066698382
 20
-20.0733903779
 10
1.4125519233
 20
-16.0784382603
 10
1.3498066528
 20
-12.0678024179
 10
1.318434033
 20
-8.0411255809
 10
1.3184340577
 20
-3.9987650191
 10
1.3498067084
 20
0.0582074587
 10
1.4125519789
 20
4.1294345827
  0
LINE
  5
28F
100
AcDbEntity
  8
DRAFT
100
AcDbLine
 62
7
  6
CONTINUOUS
 10
1.6793558098
 20
23.2854207437
 11
1.6793558098
 21
23.524629768
  0
LINE
  5
290
100
AcDbEntity
  8
DRAFT
100
AcDbLine
 62
7
  6
CONTINUOUS
 10
2.0329092004
 20
19.3880550981
 11
2.0329092004
 21
20.3406830422
  0
LWPOLYLINE
  5
291
100
AcDbEntity
  8
0
100
AcDbPolyline
 62
250
  6
CONTINUOUS
 90
3
 70
0
 10
1.4125519789
 20
4.1294345827
 10
1.5066698753
 20
8.2152736227
 10
1.6321603977
 20
12.3157245786
  0
LWPOLYLINE
  5
292
100
AcDbEntity
  8
0
100
AcDbPolyline
 62
250
  6
CONTINUOUS
 90
19
 70
0
 10
1.6321603977
 20
12.3157245786
 10
1.6346640412
 20
12.3525934401
 10
1.6394829851
 20
12.3897931385
 10
1.6466172292
 20
12.4273236738
 10
1.6561472064
 20
12.4654548881
 10
1.6679924839
 20
12.5039169393
 10
1.6819117631
 20
12.5419003009
 10
1.6979446755
 20
12.5793805107
 10
1.7160515897
 20
12.6163820309
 10
1.7358723126
 20
12.6521687221
 10
1.7574404374
 20
12.6867152903
 10
1.7807223709
 20
12.7200470295
 10
1.8052571409
 20
12.7515036818
 10
1.8310804533
 20
12.7810561825
 10
1.8581566021
 20
12.8087335964
 10
1.885917498
 20
12.83396286
 10
1.9141737779
 20
12.8565529524
 10
1.9431148048
 20
12.8766948945
 10
1.9727405788
 20
12.8943886865
  0
LWPOLYLINE
  5
293
100
AcDbEntity
  8
RACCORDO
100
AcDbPolyline
 62
250
  6
CONTINUOUS
 90
17
 70
0
 10
-3.7880762273
 20
-6.2597175612
 10
-3.9155295386
 20
-6.4174410215
 10
-4.0539704736
 20
-6.5593588167
 10
-4.203293857
 20
-6.6856696523
 10
-4.3618197239
 20
-6.7949696709
 10
-4.5296578975
 20
-6.8870756517
 10
-4.7067244049
 20
-6.9621839129
 10
-4.8910515838
 20
-7.0194614513
 10
-5.0827303682
 20
-7.0587218714
 10
-5.2816930092
 20
-7.0801633756
 10
-5.4857347588
 20
-7.0835303498
 10
-5.6950609381
 20
-7.068564692
 10
-5.9094836707
 20
-7.0355334192
 10
-6.1262076599
 20
-6.9849682177
 10
-6.3443044007
 20
-6.9170479864
 10
-6.5647117682
 20
-6.8315986249
 10
-6.7874320935
 20
-6.7286213277
  0
LWPOLYLINE
  5
294
100
AcDbEntity
  8
RACCORDO
100
AcDbPolyline
 62
7
  6
CONTINUOUS
 90
40
 70
0
 10
12.9043711287
 20
8.5100924755
 10
12.9950034375
 20
8.5738257822
 10
13.0818834378
 20
8.645549275
 10
13.1645627111
 20
8.725228988
 10
13.2426905682
 20
8.8128990603
 10
13.315752435
 20
8.9083735785
 10
13.383156262
 20
9.0112033057
 10
13.4445833135
 20
9.1211723961
 10
13.4997771402
 20
9.2381265671
 10
13.5483900063
 20
9.3616333552
 10
13.5902803453
 20
9.4916935565
 10
13.6251610999
 20
9.6278681447
 10
13.6526762639
 20
9.7689230249
 10
13.6727800789
 20
9.9143897151
 10
13.6854708676
 20
10.064027812
 10
13.6907194109
 20
10.2167562453
 10
13.6886187864
 20
10.37197585
 10
13.6792715238
 20
10.5294380111
 10
13.6628065717
 20
10.6884782995
 10
13.6393767957
 20
10.8485716129
 10
13.6091220558
 20
11.009360176
 10
13.572203278
 20
11.1703799757
 10
13.5287982586
 20
11.3311528044
 10
13.4790768207
 20
11.4912716891
 10
13.4232041335
 20
11.6503549336
 10
13.3613663787
 20
11.8079730815
 10
13.293766783
 20
11.9636808019
 10
13.2206064014
 20
12.1170640146
 10
13.1421128377
 20
12.2676764559
 10
13.0585032265
 20
12.4151168042
 10
12.9699670507
 20
12.5590412569
 10
12.8767285763
 20
12.6990534552
 10
12.7790406217
 20
12.8347317344
 10
12.677130447
 20
12.9657070835
 10
12.571238933
 20
13.0916020444
 10
12.461635393
 20
13.2120191536
 10
12.3485794142
 20
13.3265875719
 10
12.2323280811
 20
13.4349497414
 10
12.113152071
 20
13.5367452256
 10
12.0076934222
 20
13.6193977282
  0
LINE
  5
295
100
AcDbEntity
  8
RACCORDO
100
AcDbLine
 62
250
  6
CONTINUOUS
 10
10.9979657939
 20
-14.5534899264
 11
10.9838170487
 21
-14.531719942
  0
LINE
  5
296
100
AcDbEntity
  8
RACCORDO
100
AcDbLine
 62
7
  6
CONTINUOUS
 10
-4.3996056814
 20
-6.484410575
 11
-4.4003150754
 21
-6.4847848665
  0
LWPOLYLINE
  5
297
100
AcDbEntity
  8
RACCORDO
100
AcDbPolyline
 62
250
  6
CONTINUOUS
 90
13
 70
0
 10
-4.4003150754
 20
-6.4847848665
 10
-4.4542171185
 20
-6.5120502566
 10
-4.6203846544
 20
-6.5824492863
 10
-4.7940793397
 20
-6.6362505195
 10
-4.9746415303
 20
-6.6732456396
 10
-5.1613819331
 20
-6.6932877486
 10
-5.3536598839
 20
-6.6963159571
 10
-5.5508658345
 20
-6.6822953427
 10
-5.752135543
 20
-6.6512571055
 10
-5.9564044076
 20
-6.6034095275
 10
-6.1627838906
 20
-6.5390446632
 10
-6.3705831039
 20
-6.4584471654
 10
-6.5790133697
 20
-6.3619866004
  0
LWPOLYLINE
  5
298
100
AcDbEntity
  8
RACCORDO
100
AcDbPolyline
 62
250
  6
CONTINUOUS
 90
8
 70
0
 10
-8.2996217823
 20
2.4774105287
 10
-8.0939477494
 20
2.4815941821
 10
-7.8831981275
 20
2.4673406591
 10
-7.6675744261
 20
2.4349101882
 10
-7.449899649
 20
2.3848203717
 10
-7.2311180588
 20
2.317242153
 10
-7.0102947632
 20
2.2320000172
 10
-6.7874320935
 20
2.1290928275
  0
LWPOLYLINE
  5
299
100
AcDbEntity
  8
DRAFT
100
AcDbPolyline
 62
7
  6
CONTINUOUS
 90
19
 70
0
 10
5.8866411663
 20
20.8957391709
 10
5.8888398304
 20
20.8477481895
 10
5.8948196183
 20
20.7993967588
 10
5.9045805299
 20
20.7506848788
 10
5.918320927
 20
20.7010499117
 10
5.9358424479
 20
20.6510544953
 10
5.9565500073
 20
20.6023865432
 10
5.9805462271
 20
20.5551028013
 10
6.0077284853
 20
20.5091465238
 10
6.0371938316
 20
20.4660353866
 10
6.0690169879
 20
20.4258617429
 10
6.1031232321
 20
20.3885332394
 10
6.1383854482
 20
20.3552904928
 10
6.174850975
 20
20.3262651106
 10
6.2124724738
 20
20.3013254853
 10
6.2499808114
 20
20.28131741
 10
6.2869529438
 20
20.2665228158
 10
6.323811915
 20
20.2566597717
 10
6.3605577253
 20
20.2517282777
  0
LINE
  5
29A
100
AcDbEntity
  8
DRAFT
100
AcDbLine
 62
7
  6
CONTINUOUS
 10
6.0634178532
 20
20.4329301066
 11
6.0634178532
 21
21.3325987463
  0
LINE
  5
29B
100
AcDbEntity
  8
0
100
AcDbLine
 62
7
  6
CONTINUOUS
 10
7.7958294671
 20
16.0733840711
 11
7.7958294671
 21
-21.8581322312
  0
LWPOLYLINE
  5
29C
100
AcDbEntity
  8
RACCORDO
100
AcDbPolyline
 62
7
  6
CONTINUOUS
 90
7
 70
0
 10
8.0815329196
 20
16.1611947284
 10
8.0826283039
 20
16.1404632087
 10
8.0813400351
 20
16.1213188214
 10
8.0776505836
 20
16.1040545469
 10
8.0715547576
 20
16.0889098258
 10
8.0631515375
 20
16.0761353048
 10
8.0552864634
 20
16.0681295987
  0
LINE
  5
29D
100
AcDbEntity
  8
RACCORDO
100
AcDbLine
 62
250
  6
CONTINUOUS
 10
7.8664653474
 20
14.3305208292
 11
7.8664653474
 21
14.5212831467
  0
LINE
  5
29E
100
AcDbEntity
  8
RACCORDO
100
AcDbLine
 62
250
  6
CONTINUOUS
 10
8.4809259833
 20
14.8802288439
 11
8.4809259833
 21
14.0224790173
  0
LINE
  5
29F
100
AcDbEntity
  8
RACCORDO
100
AcDbLine
 62
7
  6
CONTINUOUS
 10
8.5511126503
 20
14.9752413662
 11
8.5511126503
 21
13.9873856838
  0
LWPOLYLINE
  5
2A0
100
AcDbEntity
  8
RACCORDO
100
AcDbPolyline
 62
7
  6
CONTINUOUS
 90
13
 70
0
 10
8.0815329196
 20
-16.2281553731
 10
8.0827538652
 20
-16.2039035873
 10
8.0814552348
 20
-16.1788867476
 10
8.0776855265
 20
-16.1535035728
 10
8.0715660018
 20
-16.128140041
 10
8.0631920292
 20
-16.1032332437
 10
8.0526361549
 20
-16.0792628212
 10
8.0401011278
 20
-16.0566440039
 10
8.0258277702
 20
-16.0357346908
 10
8.0099920271
 20
-16.016904788
 10
7.9928485006
 20
-16.0004890889
 10
7.9747306806
 20
-15.9867747911
 10
7.9559584476
 20
-15.9760127246
  0
LWPOLYLINE
  5
2A1
100
AcDbEntity
  8
RACCORDO
100
AcDbPolyline
 62
250
  6
CONTINUOUS
 90
7
 70
0
 10
11.3046574367
 20
18.1311024336
 10
11.3032093429
 20
18.1181872363
 10
11.2984390972
 20
18.1054735965
 10
11.2904265494
 20
18.0931742404
 10
11.2793057988
 20
18.0814949607
 10
11.2652629506
 20
18.0706311726
 10
11.2485329998
 20
18.0607646429
  0
LWPOLYLINE
  5
2A2
100
AcDbEntity
  8
RACCORDO
100
AcDbPolyline
 62
250
  6
CONTINUOUS
 90
7
 70
0
 10
11.3046650397
 20
19.097717071
 10
11.3032095104
 20
19.0856745095
 10
11.2984394136
 20
19.0729607989
 10
11.2904269503
 20
19.0606613272
 10
11.2793061907
 20
19.0489818979
 10
11.2652632149
 20
19.038117939
 10
11.2485329998
 20
19.0282512339
  0
LWPOLYLINE
  5
2A3
100
AcDbEntity
  8
RACCORDO
100
AcDbPolyline
 62
250
  6
CONTINUOUS
 90
15
 70
0
 10
11.2460098185
 20
18.0178680072
 10
11.2423859195
 20
17.9949559018
 10
11.2371956927
 20
17.9707640695
 10
11.2304305937
 20
17.9455963788
 10
11.222064989
 20
17.9203644355
 10
11.2119721426
 20
17.8950463726
 10
11.2002787906
 20
17.869664057
 10
11.1873395086
 20
17.8451946947
 10
11.1730565427
 20
17.821705105
 10
11.1575276469
 20
17.7991284684
 10
11.141400658
 20
17.7782415332
 10
11.1246422884
 20
17.7591890499
 10
11.1072858259
 20
17.7418262679
 10
11.0900789702
 20
17.7264956838
 10
11.0732709546
 20
17.7133114631
  0
LWPOLYLINE
  5
2A4
100
AcDbEntity
  8
RACCORDO
100
AcDbPolyline
 62
7
  6
CONTINUOUS
 90
10
 70
0
 10
11.0844282436
 20
7.7084639219
 10
11.1349039888
 20
7.7047607083
 10
11.2571208982
 20
7.7045321336
 10
11.3768213521
 20
7.7130909802
 10
11.4937401763
 20
7.7303312771
 10
11.6074288946
 20
7.7560936499
 10
11.7177014233
 20
7.7902459457
 10
11.8242342388
 20
7.8326168141
 10
11.9266078985
 20
7.8829551739
 10
12.0244810213
 20
7.9409869828
  0
LINE
  5
2A5
100
AcDbEntity
  8
RACCORDO
100
AcDbLine
 62
250
  6
CONTINUOUS
 10
11.2782826803
 20
-15.8420073984
 11
11.2786592256
 21
-15.8448420573
  0
LWPOLYLINE
  5
2A6
100
AcDbEntity
  8
RACCORDO
100
AcDbPolyline
 62
250
  6
CONTINUOUS
 90
7
 70
0
 10
11.0401037439
 20
-14.6963104861
 10
11.0388729335
 20
-14.6731083966
 10
11.035201562
 20
-14.6491147215
 10
11.0291524475
 20
-14.6247399994
 10
11.020829092
 20
-14.6004012883
 10
11.0103739104
 20
-14.5765150305
 10
10.9979657939
 20
-14.5534899264
  0
LWPOLYLINE
  5
2A7
100
AcDbEntity
  8
RACCORDO
100
AcDbPolyline
 62
7
  6
CONTINUOUS
 90
12
 70
0
 10
11.3046643904
 20
-14.7786118537
 10
11.3042550038
 20
-14.7581493371
 10
11.3001240611
 20
-14.7113860775
 10
11.2916660352
 20
-14.6669526793
 10
11.2788621801
 20
-14.6246888661
 10
11.2621285538
 20
-14.5856666777
 10
11.2420453293
 20
-14.5505095607
 10
11.2187956852
 20
-14.518958511
 10
11.1924606636
 20
-14.4908543821
 10
11.1634522535
 20
-14.4665027239
 10
11.1321726161
 20
-14.4461066429
 10
11.1178584061
 20
-14.4384521201
  0
LWPOLYLINE
  5
2A8
100
AcDbEntity
  8
RACCORDO
100
AcDbPolyline
 62
250
  6
CONTINUOUS
 90
11
 70
0
 10
11.2485329998
 20
-14.8482007009
 10
11.2482089238
 20
-14.8288955182
 10
11.2463484217
 20
-14.8099515795
 10
11.2429514935
 20
-14.7913688847
 10
11.2380597975
 20
-14.7727807739
 10
11.2316316753
 20
-14.7545539071
 10
11.2235421518
 20
-14.7377882644
 10
11.2136406149
 20
-14.7225991518
 10
11.2020776767
 20
-14.7088712632
 10
11.1891801978
 20
-14.6973586601
 10
11.1748191931
 20
-14.6882555218
  0
LINE
  5
2A9
100
AcDbEntity
  8
RACCORDO
100
AcDbLine
 62
250
  6
CONTINUOUS
 10
11.2485329998
 20
19.0282512339
 11
11.2485329998
 21
18.0607646429
  0
LINE
  5
2AA
100
AcDbEntity
  8
RACCORDO
100
AcDbLine
 62
250
  6
CONTINUOUS
 10
11.2485329998
 20
-15.8156872919
 11
11.2485329998
 21
-14.8482007009
  0
LINE
  5
2AB
100
AcDbEntity
  8
RACCORDO
100
AcDbLine
 62
7
  6
CONTINUOUS
 10
11.3046650397
 20
19.097717071
 11
11.3046650397
 21
18.1302304887
  0
LINE
  5
2AC
100
AcDbEntity
  8
RACCORDO
100
AcDbLine
 62
7
  6
CONTINUOUS
 10
11.3046650397
 20
-15.7462214549
 11
11.3046650397
 21
-14.7787348661
  0
LWPOLYLINE
  5
2AD
100
AcDbEntity
  8
RACCORDO
100
AcDbPolyline
 62
250
  6
CONTINUOUS
 90
3
 70
0
 10
11.2485329998
 20
18.0607646429
 10
11.2480588453
 20
18.0398042543
 10
11.2460098185
 20
18.0178680072
  0
LWPOLYLINE
  5
2AE
100
AcDbEntity
  8
DRAFT
100
AcDbPolyline
 62
7
  6
CONTINUOUS
 90
13
 70
0
 10
10.2690253686
 20
8.7739226941
 10
10.2635484189
 20
8.6037447645
 10
10.2479021396
 20
8.4414942344
 10
10.2220865306
 20
8.2871711037
 10
10.18584444
 20
8.1400038858
 10
10.1394330198
 20
8.0007640674
 10
10.0836237259
 20
7.8717661085
 10
10.0182594754
 20
7.7531811992
 10
9.9434973511
 20
7.6448381494
 10
9.8605800577
 20
7.5485378497
 10
9.7693712837
 20
7.4644815913
 10
9.6700073404
 20
7.3924680831
 10
9.5926423912
 20
7.3478645705
  0
LWPOLYLINE
  5
2AF
100
AcDbEntity
  8
0
100
AcDbPolyline
 62
250
  6
CONTINUOUS
 90
16
 70
0
 10
0.9316062485
 20
12.337148624
 10
0.9700444158
 20
12.319690347
 10
1.0118553636
 20
12.3041164074
 10
1.0565911217
 20
12.2905936674
 10
1.1037723828
 20
12.2792670122
 10
1.152893638
 20
12.2702577978
 10
1.203428593
 20
12.2636625507
 10
1.2548358068
 20
12.2595519339
 10
1.306564493
 20
12.2579699891
 10
1.3580604206
 20
12.2589336658
 10
1.4087718528
 20
12.2624326388
 10
1.4581554578
 20
12.2684294195
 10
1.5056821304
 20
12.2768597574
 10
1.5508426609
 20
12.2876333281
 10
1.5931531909
 20
12.3006347016
 10
1.6321603976
 20
12.3157245787
  0
LINE
  5
2B0
100
AcDbEntity
  8
0
100
AcDbLine
 62
250
  6
CONTINUOUS
 10
-13.9184087594
 20
19.7621410344
 11
0.9315903382
 21
12.3371414856
  0
LWPOLYLINE
  5
2B1
100
AcDbEntity
  8
RACCORDO
100
AcDbPolyline
 62
250
  6
CONTINUOUS
 90
17
 70
0
 10
13.5973018436
 20
10.120897739
 10
13.5944510278
 20
9.9855319233
 10
13.5859050945
 20
9.8533590259
 10
13.5716849406
 20
9.7247241284
 10
13.5518202887
 20
9.5999309224
 10
13.5263645772
 20
9.4793400588
 10
13.4954094677
 20
9.3633567875
 10
13.4590732111
 20
9.2523454277
 10
13.4174428434
 20
9.1465049532
 10
13.3705778447
 20
9.0459805782
 10
13.318545237
 20
8.9509621086
 10
13.2615110967
 20
8.8617943832
 10
13.1997050366
 20
8.7788284968
 10
13.1333650654
 20
8.7023329184
 10
13.0626191216
 20
8.6324077776
 10
12.9875496044
 20
8.5691294197
 10
12.9043711287
 20
8.5100924755
  0
LWPOLYLINE
  5
2B2
100
AcDbEntity
  8
RACCORDO
100
AcDbPolyline
 62
250
  6
CONTINUOUS
 90
16
 70
0
 10
12.743326056
 20
9.6120333826
 10
12.7399486331
 20
9.4620809756
 10
12.7297997579
 20
9.315666489
 10
12.7128696725
 20
9.1732511615
 10
12.6891627712
 20
9.0352562018
 10
12.6587140452
 20
8.902160978
 10
12.621605155
 20
8.774488664
 10
12.5779200798
 20
8.652638001
 10
12.5277702089
 20
8.5370131328
 10
12.4713418009
 20
8.4280919825
 10
12.4088121658
 20
8.3262282847
 10
12.3403581868
 20
8.2317205751
 10
12.2662202621
 20
8.1449029296
 10
12.186644262
 20
8.066050719
 10
12.1018612837
 20
7.99538125
 10
12.024481025
 20
7.9409869852
  0
LINE
  5
2B3
100
AcDbEntity
  8
RACCORDO
100
AcDbLine
 62
250
  6
CONTINUOUS
 10
11.3032095104
 20
-15.7582640164
 11
11.3046650397
 21
-15.7462214549
  0
LWPOLYLINE
  5
2B4
100
AcDbEntity
  8
DRAFT
100
AcDbPolyline
 62
7
  6
CONTINUOUS
 90
27
 70
0
 10
7.7958294671
 20
12.1803484641
 10
7.8453192196
 20
12.1768127561
 10
7.9802765213
 20
12.1537214198
 10
8.1175937025
 20
12.1167871304
 10
8.2572319668
 20
12.066237465
 10
8.3968702311
 20
12.0029126661
 10
8.5365084954
 20
11.9265992007
 10
8.6761467596
 20
11.8375106018
 10
8.8134639408
 20
11.7371277101
 10
8.9484212426
 20
11.6252617447
 10
9.0810574612
 20
11.5021014865
 10
9.2091679024
 20
11.3696941194
 10
9.332676919
 20
11.2278850805
 10
9.4516601581
 20
11.0768289326
 10
9.5641398668
 20
10.9190365484
 10
9.6700073404
 20
10.7543953334
 10
9.7693712837
 20
10.5830178819
 10
9.8605800577
 20
10.4077528495
 10
9.9434973511
 20
10.2285352564
 10
10.0182594754
 20
10.0454300824
 10
10.0836237259
 20
9.8614809225
 10
10.1394330198
 20
9.6766736697
 10
10.18584444
 20
9.4910224311
 10
10.2220865306
 20
9.3076131226
 10
10.2479021396
 20
9.1274743829
 10
10.2635484189
 20
8.9495775735
 10
10.2690253686
 20
8.7739226941
  0
LINE
  5
2B5
100
AcDbEntity
  8
0
100
AcDbLine
 62
250
  6
CONTINUOUS
 10
-13.2547769821
 20
20.9282335427
 11
1.6069078388
 21
13.4973911322
  0
LWPOLYLINE
  5
2B6
100
AcDbEntity
  8
0
100
AcDbPolyline
 62
250
  6
CONTINUOUS
 90
16
 70
0
 10
1.6069078388
 20
13.4973911322
 10
1.6432956176
 20
13.476248302
 10
1.6794876809
 20
13.4507059218
 10
1.7150879614
 20
13.4210435142
 10
1.7497068682
 20
13.3875856894
 10
1.7829655498
 20
13.3506985924
 10
1.8145000401
 20
13.3107858964
 10
1.843965242
 20
13.2682843853
 10
1.8710387035
 20
13.2236591738
 10
1.8954241468
 20
13.177398617
 10
1.9168547101
 20
13.1300089666
 10
1.9350958684
 20
13.0820088303
 10
1.9499479999
 20
13.0339234969
 10
1.9612485705
 20
12.9862791874
 10
1.9688739128
 20
12.9395972964
 10
1.9727405788
 20
12.8943886865
  0
LWPOLYLINE
  5
2B7
100
AcDbEntity
  8
RACCORDO
100
AcDbPolyline
 62
7
  6
CONTINUOUS
 90
7
 70
0
 10
11.0972327798
 20
14.0713070042
 10
11.0793670984
 20
14.0738026776
 10
11.0607719278
 20
14.0744165958
 10
11.041867549
 20
14.0731634125
 10
11.0227940557
 20
14.0700480119
 10
11.0034113543
 20
14.0650655097
 10
10.9837194447
 20
14.0582159059
  0
LINE
  5
2B8
100
AcDbEntity
  8
DRAFT
100
AcDbLine
 62
7
  6
CONTINUOUS
 10
7.7958294671
 20
12.6010391671
 11
8.3968702311
 21
12.3005187851
  0
LINE
  5
2B9
100
AcDbEntity
  8
DRAFT
100
AcDbLine
 62
7
  6
CONTINUOUS
 10
7.7958294671
 20
13.3157036375
 11
9.1039770123
 21
12.6616298649
  0
LWPOLYLINE
  5
2BA
100
AcDbEntity
  8
DRAFT
100
AcDbPolyline
 62
7
  6
CONTINUOUS
 90
46
 70
0
 10
9.1039770123
 20
12.6616298649
 10
9.2207894515
 20
12.5992816403
 10
9.3372769306
 20
12.5292198489
 10
9.4530853773
 20
12.4516514224
 10
9.5678911815
 20
12.3667840305
 10
9.6813149259
 20
12.2748889767
 10
9.7929264585
 20
12.1763178261
 10
9.9023184659
 20
12.0714509326
 10
10.0092364252
 20
11.9605532992
 10
10.1134846223
 20
11.8438253577
 10
10.2148338198
 20
11.7214927587
 10
10.3128699323
 20
11.5940233188
 10
10.4071394792
 20
11.4620093409
 10
10.497262324
 20
11.3260266298
 10
10.5830892426
 20
11.186345657
 10
10.6645250351
 20
11.0431190673
 10
10.7414108191
 20
10.8965679002
 10
10.8133821156
 20
10.7473247899
 10
10.8800630235
 20
10.5961716635
 10
10.9411792477
 20
10.4438104644
 10
10.996671136
 20
10.2904769914
 10
11.0465039619
 20
10.1362650706
 10
11.0905729665
 20
9.9813839723
 10
11.1286340967
 20
9.826560868
 10
11.1604748948
 20
9.6726622954
 10
11.1859838812
 20
9.5204167636
 10
11.205169088
 20
9.370011941
 10
11.2180231597
 20
9.2215034373
 10
11.2244872585
 20
9.0750929809
 10
11.2244872585
 20
8.9315040798
 10
11.2180231597
 20
8.7915577222
 10
11.205169088
 20
8.6559032903
 10
11.1859838812
 20
8.5246836744
 10
11.1604748948
 20
8.3979471291
 10
11.1286340967
 20
8.2758893546
 10
11.0905729665
 20
8.1591273804
 10
11.0465039619
 20
8.0483152868
 10
10.996671136
 20
7.9439361919
 10
10.9411792477
 20
7.8460946071
 10
10.8800630235
 20
7.7548496323
 10
10.8133821156
 20
7.6703774138
 10
10.7414108191
 20
7.5931055999
 10
10.6645250351
 20
7.5234402169
 10
10.5830892426
 20
7.4616494197
 10
10.497262324
 20
7.4077953655
 10
10.4566946346
 20
7.385887132
  0
LWPOLYLINE
  5
2BB
100
AcDbEntity
  8
DRAFT
100
AcDbPolyline
 62
7
  6
CONTINUOUS
 90
46
 70
0
 10
8.3968702311
 20
12.3005187851
 10
8.5139278583
 20
12.2379701367
 10
8.629958756
 20
12.1681809593
 10
8.7449629241
 20
12.091151253
 10
8.8593101965
 20
12.0065783705
 10
8.9726307393
 20
11.9147649589
 10
9.0838150514
 20
11.8166189601
 10
9.1927747444
 20
11.712153647
 10
9.2995982068
 20
11.6013557465
 10
9.4034411023
 20
11.4850933814
 10
9.504367876
 20
11.3632035485
 10
9.6023140829
 20
11.235849251
 10
9.6962420514
 20
11.1043876202
 10
9.7860118716
 20
10.9689380707
 10
9.8717634535
 20
10.8293811881
 10
9.9528788546
 20
10.6867158602
 10
10.0294198326
 20
10.5407174479
 10
10.1013246299
 20
10.3916105904
 10
10.1677900308
 20
10.2410680925
 10
10.2286728428
 20
10.0893055079
 10
10.2841162584
 20
9.9361072829
 10
10.3337466389
 20
9.7824995618
 10
10.3775854078
 20
9.6282283496
 10
10.4156111416
 20
9.4735476412
 10
10.4473859316
 20
9.320245565
 10
10.4728053749
 20
9.1685943071
 10
10.4919738743
 20
9.0183216815
 10
10.5047667296
 20
8.8703992579
 10
10.5111423738
 20
8.7245924796
 10
10.5111423738
 20
8.5811359035
 10
10.5047667296
 20
8.4417047694
 10
10.4919738743
 20
8.3065752011
 10
10.4728053749
 20
8.1754710749
 10
10.4473859316
 20
8.0492392604
 10
10.4156111416
 20
7.9277119741
 10
10.3775854078
 20
7.8110569995
 10
10.3337466389
 20
7.7006245562
 10
10.2841162584
 20
7.5966472156
 10
10.2286728428
 20
7.4988924062
 10
10.1677900308
 20
7.4080126336
 10
10.1013246299
 20
7.3239355366
 10
10.0294198326
 20
7.2467334763
 10
9.9528788546
 20
7.1772760422
 10
9.8717634535
 20
7.1157261153
 10
9.7860118716
 20
7.0619208145
 10
9.7235047682
 20
7.029043196
  0
LINE
  5
2BC
100
AcDbEntity
  8
DRAFT
100
AcDbLine
 62
7
  6
CONTINUOUS
 10
2.7211626393
 20
19.9965563228
 11
2.8355474973
 21
19.8479243114
  0
LINE
  5
2BD
100
AcDbEntity
  8
DRAFT
100
AcDbLine
 62
7
  6
CONTINUOUS
 10
2.8355474973
 20
19.8479243114
 11
2.9494145516
 21
19.6985868792
  0
LINE
  5
2BE
100
AcDbEntity
  8
DRAFT
100
AcDbLine
 62
7
  6
CONTINUOUS
 10
2.9494145516
 20
19.6985868792
 11
3.0627583824
 21
19.5485511341
  0
LINE
  5
2BF
100
AcDbEntity
  8
DRAFT
100
AcDbLine
 62
7
  6
CONTINUOUS
 10
3.583779923
 20
18.8405287168
 11
3.6962552896
 21
18.6836021818
  0
LWPOLYLINE
  5
2C0
100
AcDbEntity
  8
DRAFT
100
AcDbPolyline
 62
7
  6
CONTINUOUS
 90
3
 70
0
 10
3.6962552896
 20
18.6836021818
 10
3.8081492931
 20
18.5259995853
 10
3.8360314924
 20
18.486493952
  0
LWPOLYLINE
  5
2C1
100
AcDbEntity
  8
RACCORDO
100
AcDbPolyline
 62
7
  6
CONTINUOUS
 90
10
 70
0
 10
11.1051274082
 20
14.0695220568
 10
10.9964894123
 20
14.0938163752
 10
10.8810943002
 20
14.1124351397
 10
10.7676892054
 20
14.1233380445
 10
10.656571187
 20
14.1266750191
 10
10.5479215755
 20
14.1226192455
 10
10.4418393253
 20
14.1113340852
 10
10.3385410019
 20
14.0929868448
 10
10.2383281535
 20
14.0677823583
 10
10.1414445397
 20
14.0359456535
  0
LINE
  5
2C2
100
AcDbEntity
  8
RACCORDO
100
AcDbLine
 62
250
  6
CONTINUOUS
 10
10.8749890499
 20
14.0827362539
 11
10.9837194447
 21
14.0582159059
  0
LINE
  5
2C3
100
AcDbEntity
  8
RACCORDO
100
AcDbLine
 62
7
  6
CONTINUOUS
 10
10.164637184
 20
13.1806234169
 11
7.884146646
 21
14.320868686
  0
LINE
  5
2C4
100
AcDbEntity
  8
RACCORDO
100
AcDbLine
 62
7
  6
CONTINUOUS
 10
7.7958294671
 20
15.4143509134
 11
8.4632446847
 21
15.0806433046
  0
LWPOLYLINE
  5
2C5
100
AcDbEntity
  8
DRAFT
100
AcDbPolyline
 62
7
  6
CONTINUOUS
 90
46
 70
0
 10
10.164637184
 20
13.1806234169
 10
10.2815239882
 20
13.1181660094
 10
10.3973854531
 20
13.048478759
 10
10.5122215788
 20
12.9715616657
 10
10.6264015324
 20
12.8871126441
 10
10.7395561469
 20
12.7954337796
 10
10.8505779203
 20
12.6974313293
 10
10.9593788619
 20
12.5931182918
 10
11.0660469624
 20
12.4824816684
 10
11.1697386927
 20
12.3663887196
 10
11.270518171
 20
12.2446769318
 10
11.368321279
 20
12.1175088186
 10
11.4621121335
 20
11.9862391809
 10
11.5517511808
 20
11.8509870548
 10
11.6373779746
 20
11.7116334041
 10
11.7183752923
 20
11.569175921
 10
11.7948047185
 20
11.4233904207
 10
11.8666046686
 20
11.274501088
 10
11.9329731661
 20
11.1241781696
 10
11.9937672563
 20
10.9726368542
 10
12.0491298938
 20
10.8196619531
 10
12.0986879661
 20
10.666278147
 10
12.1424628607
 20
10.5122318094
 10
12.1804331901
 20
10.3577765668
 10
12.2121616796
 20
10.2046979799
 10
12.2375440744
 20
10.0532678737
 10
12.2566846292
 20
9.9032144231
 10
12.2694588335
 20
9.7555077135
 10
12.275825184
 20
9.6099134838
 10
12.275825184
 20
9.466665995
 10
12.2694588335
 20
9.3274381158
 10
12.2566846292
 20
9.1925056105
 10
12.2375440744
 20
9.0615927148
 10
12.2121616796
 20
8.9355450034
 10
12.1804331901
 20
8.8141949059
 10
12.1424628607
 20
8.6977099927
 10
12.0986879661
 20
8.5874385497
 10
12.0491298938
 20
8.4836128159
 10
11.9937672563
 20
8.3860005523
 10
11.9329731661
 20
8.2952533271
 10
11.8666046686
 20
8.2112989062
 10
11.7948047185
 20
8.1342095236
 10
11.7183752923
 20
8.0648534496
 10
11.6373779746
 20
8.0033932841
 10
11.5517511808
 20
7.9496664272
 10
11.5114538382
 20
7.9278980191
  0
LINE
  5
2C6
100
AcDbEntity
  8
DRAFT
100
AcDbLine
 62
7
  6
CONTINUOUS
 10
5.6527581123
 20
21.2043970062
 11
5.7699784734
 21
21.050438914
  0
LINE
  5
2C7
100
AcDbEntity
  8
DRAFT
100
AcDbLine
 62
7
  6
CONTINUOUS
 10
5.7699784734
 20
21.050438914
 11
5.8866411663
 21
20.8957391709
  0
LWPOLYLINE
  5
2C8
100
AcDbEntity
  8
DRAFT
100
AcDbPolyline
 62
7
  6
CONTINUOUS
 90
10
 70
0
 10
6.3605577253
 20
20.2517282777
 10
6.5071497505
 20
20.0472947428
 10
6.6527272421
 20
19.8417468932
 10
6.7972902002
 20
19.6350847287
 10
6.9408506628
 20
19.427290607
 10
7.0833965919
 20
19.2183821705
 10
7.2248918729
 20
19.008412347
 10
7.3653244675
 20
18.7973987791
 10
7.504706414
 20
18.5853238242
 10
7.6430377124
 20
18.3721874822
  0
LWPOLYLINE
  5
2C9
100
AcDbEntity
  8
RACCORDO
100
AcDbPolyline
 62
7
  6
CONTINUOUS
 90
10
 70
0
 10
11.2172046914
 20
13.9671926763
 10
11.2083075068
 20
13.9854223412
 10
11.1982243904
 20
14.0020482818
 10
11.1869553424
 20
14.0170704979
 10
11.1743967963
 20
14.0305711593
 10
11.1606523185
 20
14.0424680962
 10
11.146032608
 20
14.0525148001
 10
11.1305926501
 20
14.0606396086
 10
11.1142774596
 20
14.0669141839
 10
11.1051299061
 20
14.0695282836
  0
LINE
  5
2CA
100
AcDbEntity
  8
RACCORDO
100
AcDbLine
 62
7
  6
CONTINUOUS
 10
11.2172046914
 20
13.9671926763
 11
11.226628547
 21
13.9452034155
  0
LINE
  5
2CB
100
AcDbEntity
  8
RACCORDO
100
AcDbLine
 62
250
  6
CONTINUOUS
 10
10.7486462631
 20
-16.6976213716
 11
11.2485329998
 21
-15.8156872919
  0
LINE
  5
2CC
100
AcDbEntity
  8
RACCORDO
100
AcDbLine
 62
7
  6
CONTINUOUS
 10
10.8138708762
 20
-16.6648531822
 11
11.278658975
 21
-15.8448424998
  0
LWPOLYLINE
  5
2CD
100
AcDbEntity
  8
RACCORDO
100
AcDbPolyline
 62
250
  6
CONTINUOUS
 90
7
 70
0
 10
11.2485329998
 20
-14.8482007009
 10
11.2652631706
 20
-14.8383340263
 10
11.279306125
 20
-14.827470097
 10
11.2904268832
 20
-14.8157906934
 10
11.2984393607
 20
-14.8034912415
 10
11.3032094824
 20
-14.7907775429
 10
11.3046648884
 20
-14.7786118534
  0
LINE
  5
2CE
100
AcDbEntity
  8
RACCORDO
100
AcDbLine
 62
250
  6
CONTINUOUS
 10
10.8962357838
 20
-14.4536395683
 11
7.9559584476
 21
-15.9760127246
  0
LINE
  5
2CF
100
AcDbEntity
  8
RACCORDO
100
AcDbLine
 62
250
  6
CONTINUOUS
 10
11.0401037439
 20
-14.6963104861
 11
8.0815329196
 21
-16.2281553731
  0
LINE
  5
2D0
100
AcDbEntity
  8
RACCORDO
100
AcDbLine
 62
7
  6
CONTINUOUS
 10
10.6825858782
 20
-14.3846165003
 11
7.7958294671
 21
-15.8030203125
  0
LINE
  5
2D1
100
AcDbEntity
  8
RACCORDO
100
AcDbLine
 62
250
  6
CONTINUOUS
 10
10.7707840873
 20
-14.3909137201
 11
7.7958294671
 21
-15.8526536017
  0
LINE
  5
2D2
100
AcDbEntity
  8
RACCORDO
100
AcDbLine
 62
250
  6
CONTINUOUS
 10
10.9239837559
 20
-14.4408320003
 11
10.8962357838
 21
-14.4536395683
  0
LINE
  5
2D3
100
AcDbEntity
  8
RACCORDO
100
AcDbLine
 62
250
  6
CONTINUOUS
 10
10.7985186136
 20
-14.3785133298
 11
10.7707840873
 21
-14.3909137201
  0
LWPOLYLINE
  5
2D4
100
AcDbEntity
  8
DRAFT
100
AcDbPolyline
 62
7
  6
CONTINUOUS
 90
37
 70
0
 10
3.583779923
 20
18.8405287168
 10
3.5641161173
 20
18.837938336
 10
3.5440216668
 20
18.8371477555
 10
3.5234965716
 20
18.8381569753
 10
3.5024584698
 20
18.8409837631
 10
3.4809897233
 20
18.8456103513
 10
3.4593374175
 20
18.8519834366
 10
3.4374992953
 20
18.8601232217
 10
3.4154776138
 20
18.870009504
 10
3.3935262293
 20
18.881528373
 10
3.3716461845
 20
18.8946984909
 10
3.3498364366
 20
18.9095011955
 10
3.3283477144
 20
18.9257665895
 10
3.3071834305
 20
18.9435117445
 10
3.2863401722
 20
18.9627195889
 10
3.2660584298
 20
18.9831690103
 10
3.2463447588
 20
19.0048742911
 10
3.2271926038
 20
19.0278211491
 10
3.2088227886
 20
19.0517456245
 10
3.1912442031
 20
19.076659252
 10
3.1744479574
 20
19.102550497
 10
3.1586282064
 20
19.1291207959
 10
3.1437961846
 20
19.1563783597
 10
3.1299406575
 20
19.1843149773
 10
3.1172220754
 20
19.2126074524
 10
3.1056538574
 20
19.2412594466
 10
3.0952225845
 20
19.2702672982
 10
3.0860484503
 20
19.2992968259
 10
3.078145852
 20
19.3283521796
 10
3.0715003924
 20
19.3574292094
 10
3.0661890738
 20
19.386181284
 10
3.0622277023
 20
19.4145900921
 10
3.0596004717
 20
19.4426739452
 10
3.058336966
 20
19.4701411456
 10
3.0584470466
 20
19.496894461
 10
3.059920852
 20
19.5230311239
 10
3.0627583824
 20
19.5485511341
  0
LINE
  5
2D5
100
AcDbEntity
  8
DRAFT
100
AcDbLine
 62
7
  6
CONTINUOUS
 10
-7.6193674875
 20
24.214193442
 11
-2.2097314867
 21
21.5093754416
  0
LINE
  5
2D6
100
AcDbEntity
  8
DRAFT
100
AcDbLine
 62
7
  6
CONTINUOUS
 10
2.0329092004
 20
19.3880550981
 11
7.4425452011
 21
16.6832370977
  0
LINE
  5
2D7
100
AcDbEntity
  8
DRAFT
100
AcDbLine
 62
7
  6
CONTINUOUS
 10
-2.8979849256
 20
22.8061301052
 11
-2.2097314867
 21
22.4620033858
  0
LINE
  5
2D8
100
AcDbEntity
  8
DRAFT
100
AcDbLine
 62
7
  6
CONTINUOUS
 10
2.0329092004
 20
20.3406830422
 11
2.7211626393
 21
19.9965563228
  0
LWPOLYLINE
  5
2D9
100
AcDbEntity
  8
0
100
AcDbPolyline
 62
7
  6
CONTINUOUS
 90
10
 70
0
 10
11.7909827808
 20
13.6178263062
 10
11.6972972253
 20
13.6847057232
 10
11.6033139954
 20
13.7467248175
 10
11.5090330913
 20
13.8038835891
 10
11.4142560632
 20
13.8562812629
 10
11.3191813609
 20
13.9038186141
 10
11.2244043328
 20
13.9461979683
 10
11.1301234287
 20
13.9833201008
 10
11.0361401988
 20
14.0152842364
 10
10.9424546433
 20
14.0420903749
  0
LWPOLYLINE
  5
2DA
100
AcDbEntity
  8
RACCORDO
100
AcDbPolyline
 62
250
  6
CONTINUOUS
 90
28
 70
0
 10
11.8322475821
 20
13.6339518372
 10
11.9409704862
 20
13.5497478385
 10
12.0483107241
 20
13.4595001064
 10
12.1539903854
 20
13.3634427451
 10
12.2577313084
 20
13.2618295327
 10
12.3592697378
 20
13.1549197764
 10
12.4583559787
 20
13.0429753242
 10
12.5547367945
 20
12.9262791001
 10
12.6481569991
 20
12.8051368135
 10
12.7383733474
 20
12.6798610974
 10
12.8251520621
 20
12.5507735211
 10
12.9082656932
 20
12.4182092486
 10
12.9874941403
 20
12.2825168073
 10
13.0626256387
 20
12.1440579514
 10
13.133470533
 20
12.0031812151
 10
13.1998557722
 20
11.8602254737
 10
13.2616138376
 20
11.7155402764
 10
13.3185713089
 20
11.5695198719
 10
13.370565018
 20
11.4225770887
 10
13.4174518386
 20
11.2751195524
 10
13.4591192282
 20
11.1275046707
 10
13.4954684967
 20
10.9800729064
 10
13.5264050673
 20
10.8331823749
 10
13.5518365548
 20
10.6872417627
 10
13.571687664
 20
10.5426652788
 10
13.5859044949
 20
10.3998406701
 10
13.594450424
 20
10.2591291494
 10
13.5973018436
 20
10.120897739
  0
LWPOLYLINE
  5
2DB
100
AcDbEntity
  8
DRAFT
100
AcDbPolyline
 62
7
  6
CONTINUOUS
 90
3
 70
0
 10
-0.8805257622
 20
23.8722700214
 10
-0.8437799519
 20
23.8404557052
 10
-0.8393317746
 20
23.8371978099
  0
LINE
  5
2DC
100
AcDbEntity
  8
DRAFT
100
AcDbLine
 62
7
  6
CONTINUOUS
 10
5.5349860339
 20
21.3576056316
 11
5.6527581123
 21
21.2043970062
  0
LWPOLYLINE
  5
2DD
100
AcDbEntity
  8
RACCORDO
100
AcDbPolyline
 62
7
  6
CONTINUOUS
 90
9
 70
0
 10
10.8071283255
 20
19.520325359
 10
10.8010575451
 20
19.5347782156
 10
10.7932147664
 20
19.5490690184
 10
10.7836854235
 20
19.5631893917
 10
10.772758659
 20
19.5769376123
 10
10.7605647698
 20
19.5902429259
 10
10.7471353163
 20
19.6031519557
 10
10.7325978977
 20
19.6156370647
 10
10.7156716583
 20
19.6286630028
  0
LWPOLYLINE
  5
2DE
100
AcDbEntity
  8
RACCORDO
100
AcDbPolyline
 62
250
  6
CONTINUOUS
 90
6
 70
0
 10
11.2485329998
 20
-15.8156872919
 10
11.2652632149
 20
-15.8058205868
 10
11.2793061907
 20
-15.794956628
 10
11.2904269503
 20
-15.7832771986
 10
11.2984394136
 20
-15.770977727
 10
11.3032095104
 20
-15.7582640164
  0
LINE
  5
2DF
100
AcDbEntity
  8
RACCORDO
100
AcDbLine
 62
7
  6
CONTINUOUS
 10
7.7958294671
 20
-18.2553248377
 11
10.7486462631
 21
-16.6976213716
  0
LWPOLYLINE
  5
2E0
100
AcDbEntity
  8
RACCORDO
100
AcDbPolyline
 62
7
  6
CONTINUOUS
 90
3
 70
0
 10
10.7749238868
 20
-16.6837428668
 10
10.762521887
 20
-16.6901895375
 10
10.7486462631
 20
-16.6976213716
  0
LINE
  5
2E1
100
AcDbEntity
  8
RACCORDO
100
AcDbLine
 62
7
  6
CONTINUOUS
 10
10.8027291322
 20
-16.6696759341
 11
10.7749238868
 21
-16.6837428668
  0
LINE
  5
2E2
100
AcDbEntity
  8
DRAFT
100
AcDbLine
 62
7
  6
CONTINUOUS
 10
2.8987825962
 20
20.8363515237
 11
-0.2873049656
 21
22.4293953046
  0
LINE
  5
2E3
100
AcDbEntity
  8
DRAFT
100
AcDbLine
 62
7
  6
CONTINUOUS
 10
-0.2873049656
 20
23.2307657541
 11
3.6460165852
 21
21.2641049786
  0
LWPOLYLINE
  5
2E4
100
AcDbEntity
  8
RACCORDO
100
AcDbPolyline
 62
250
  6
CONTINUOUS
 90
10
 70
0
 10
11.2514036181
 20
19.2299967274
 10
11.2623523877
 20
19.2117611824
 10
11.2706347122
 20
19.1915845307
 10
11.2761036183
 20
19.1698207422
 10
11.2786686576
 20
19.1468219426
 10
11.2782826803
 20
19.1229942095
 10
11.2749673444
 20
19.0988114241
 10
11.2688120512
 20
19.0747061812
 10
11.2599433956
 20
19.0510568759
 10
11.2485329998
 20
19.0282512339
  0
LWPOLYLINE
  5
2E5
100
AcDbEntity
  8
0
100
AcDbPolyline
 62
250
  6
CONTINUOUS
 90
10
 70
0
 10
1.8189333654
 20
-24.5836241056
 10
1.8439674432
 20
-24.5709499886
 10
1.8710407522
 20
-24.5515723976
 10
1.8954259397
 20
-24.5275003499
 10
1.9168561716
 20
-24.4989973221
 10
1.93509696
 20
-24.4663752712
 10
1.9499487183
 20
-24.4299912345
 10
1.9612489536
 20
-24.3902434091
 10
1.9688740423
 20
-24.3475667908
 10
1.9727405788
 20
-24.3024284207
  0
LINE
  5
2E6
100
AcDbEntity
  8
DRAFT
100
AcDbLine
 62
7
  6
CONTINUOUS
 10
7.461237319
 20
21.2915148037
 11
6.3546302419
 21
21.5405459426
  0
LINE
  5
2E7
100
AcDbEntity
  8
DRAFT
100
AcDbLine
 62
7
  6
CONTINUOUS
 10
-0.0549540708
 20
24.1525756839
 11
5.5349860339
 21
21.3576056316
  0
LINE
  5
2E8
100
AcDbEntity
  8
0
100
AcDbLine
 62
7
  6
CONTINUOUS
 10
6.0634178532
 20
21.3325987463
 11
1.6793558098
 21
23.524629768
  0
LINE
  5
2E9
100
AcDbEntity
  8
0
100
AcDbLine
 62
7
  6
CONTINUOUS
 10
6.3546302419
 20
21.5405459426
 11
2.0952502023
 21
23.6702359624
  0
LINE
  5
2EA
100
AcDbEntity
  8
DRAFT
100
AcDbLine
 62
7
  6
CONTINUOUS
 10
10.4488812477
 20
19.7920965541
 11
8.2449941497
 21
20.8940401031
  0
LINE
  5
2EB
100
AcDbEntity
  8
DRAFT
100
AcDbLine
 62
7
  6
CONTINUOUS
 10
2.9145541628
 20
23.5592600965
 11
0.7378061928
 21
24.6476340815
  0
LINE
  5
2EC
100
AcDbEntity
  8
DRAFT
100
AcDbLine
 62
7
  6
CONTINUOUS
 10
8.2200935358
 20
20.9120866953
 11
2.9167926769
 21
23.5637371248
  0
LWPOLYLINE
  5
2ED
100
AcDbEntity
  8
RACCORDO
100
AcDbPolyline
 62
7
  6
CONTINUOUS
 90
3
 70
0
 10
10.7156716583
 20
19.6286630028
 10
10.7004610388
 20
19.6392535928
 10
10.682961146
 20
19.650376749
  0
LINE
  5
2EE
100
AcDbEntity
  8
DRAFT
100
AcDbLine
 62
7
  6
CONTINUOUS
 10
8.2200935358
 20
20.9120866953
 11
8.2449941497
 21
20.8940401031
  0
LINE
  5
2EF
100
AcDbEntity
  8
RACCORDO
100
AcDbLine
 62
250
  6
CONTINUOUS
 10
10.7486462631
 20
19.3925374444
 11
11.2485329998
 21
19.0282512339
  0
LINE
  5
2F0
100
AcDbEntity
  8
RACCORDO
100
AcDbLine
 62
7
  6
CONTINUOUS
 10
10.715685481
 20
19.6286529466
 11
11.2224541777
 21
19.2593515938
  0
LINE
  5
2F1
100
AcDbEntity
  8
RACCORDO
100
AcDbLine
 62
250
  6
CONTINUOUS
 10
11.2224541777
 20
19.2593515938
 11
11.2226772687
 21
19.2591886446
  0
LWPOLYLINE
  5
2F2
100
AcDbEntity
  8
RACCORDO
100
AcDbPolyline
 62
250
  6
CONTINUOUS
 90
3
 70
0
 10
11.2226772687
 20
19.2591886446
 10
11.2379806946
 20
19.2459822503
 10
11.2514036181
 20
19.2299967274
  0
LINE
  5
2F3
100
AcDbEntity
  8
0
100
AcDbLine
 62
250
  6
CONTINUOUS
 10
7.7958294671
 20
-21.8581322312
 11
1.9727405788
 21
-24.3024284207
  0
LINE
  5
2F4
100
AcDbEntity
  8
0
100
AcDbLine
 62
7
  6
CONTINUOUS
 10
7.6545637133
 20
-22.1340635208
 11
1.8189333654
 21
-24.5836241056
  0
LWPOLYLINE
  5
2F5
100
AcDbEntity
  8
0
100
AcDbPolyline
 62
250
  6
CONTINUOUS
 90
19
 70
0
 10
1.9727405788
 20
-24.3024284207
 10
1.9431148048
 20
-24.313343906
 10
1.9141737779
 20
-24.3211499886
 10
1.8859174981
 20
-24.3258466685
 10
1.8581566021
 20
-24.3274257905
 10
1.8310804532
 20
-24.3258955098
 10
1.8052571409
 20
-24.3212802921
 10
1.7807223708
 20
-24.3135165918
 10
1.7574404373
 20
-24.3026679544
 10
1.7358723126
 20
-24.2889494821
 10
1.7160515897
 20
-24.2723034405
 10
1.6979446756
 20
-24.2527875639
 10
1.6819117632
 20
-24.2307901577
 10
1.6679924839
 20
-24.2062484878
 10
1.6561472063
 20
-24.1792252882
 10
1.646617229
 20
-24.150297066
 10
1.6394829849
 20
-24.1196559902
 10
1.6346640411
 20
-24.0871098918
 10
1.6321603977
 20
-24.0526587706
  0
LINE
  5
2F6
100
AcDbEntity
  8
DRAFT
100
AcDbLine
 62
7
  6
CONTINUOUS
 10
3.6756488937
 20
23.1843090164
 11
2.0952502023
 21
23.6702359624
  0
ARC
  5
2F7
100
AcDbEntity
  8
RACCORDO
100
AcDbCircle
 62
7
  6
CONTINUOUS
 10
11.1046650397
 20
19.097717071
 40
0.2
100
AcDbArc
 50
0.0
 51
53.8386292323
  0
ARC
  5
2F8
100
AcDbEntity
  8
RACCORDO
100
AcDbCircle
 62
7
  6
CONTINUOUS
 10
11.1046650397
 20
-15.7462214549
 40
0.2
100
AcDbArc
 50
330.4552615572
 51
360.0
  0
ELLIPSE
  5
2F9
100
AcDbEntity
  8
RACCORDO
100
AcDbEllipse
 62
7
  6
CONTINUOUS
 10
8.2511126503
 20
14.9768445942
 30
0.0
 11
0.2999981629
 21
-0.0021225547
 31
0.0
 40
0.4946372042
 41
-0.6946320453
 42
0.7888978189
  0
ELLIPSE
  5
2FA
100
AcDbEntity
  8
RACCORDO
100
AcDbEllipse
 62
7
  6
CONTINUOUS
 10
8.0962786803
 20
14.4246673964
 30
0.0
 11
0.2999981629
 21
-0.0021225547
 31
0.0
 40
0.4946372042
 41
2.4469606083
 42
3.9304904725
  0
ELLIPSE
  5
2FB
100
AcDbEntity
  8
0
100
AcDbEllipse
 62
7
  6
CONTINUOUS
 10
7.4422222204
 20
-21.6809325563
 30
0.0
 11
-0.2234618187
 21
0.4480306886
 31
0.0
 40
0.6116748051
 41
-3.1815309152
 42
-2.2548620396
  0
ELLIPSE
  5
2FC
100
AcDbEntity
  8
0
100
AcDbEllipse
 62
7
  6
CONTINUOUS
 10
7.4422222204
 20
16.2497916429
 30
0.0
 11
-0.2230998035
 21
0.4477110033
 31
0.0
 40
0.6127700112
 41
-2.2535417632
 42
-0.6836588249
  0
ELLIPSE
  5
2FD
100
AcDbEntity
  8
RACCORDO
100
AcDbEllipse
 62
7
  6
CONTINUOUS
 10
12.2647503868
 20
15.596963047
 30
0.0
 11
27.4617631667
 21
-16.9727751518
 31
0.0
 40
0.0815186111
 41
1.6786949413
 42
1.6872243121
  0
ELLIPSE
  5
2FE
100
AcDbEntity
  8
0
100
AcDbEllipse
 62
7
  6
CONTINUOUS
 10
-7.6190445067
 20
23.7804250065
 30
0.0
 11
-0.2234618187
 21
0.4480306886
 31
0.0
 40
0.6116748051
 41
-0.6831523243
 42
0.0399382621
  0
ENDSEC
  0
SECTION
  2
OBJECTS
  0
DICTIONARY
  5
C
100
AcDbDictionary
280
0
281
1
  3
ACAD_GROUP
350
D
  3
ACAD_MLINESTYLE
350
17
  3
ACAD_LAYOUT
350
1A
  3
ACAD_PLOTSETTINGS
350
19
  3
ACAD_PLOTSTYLENAME
350
E
  0
DICTIONARY
  5
D
102
{ACAD_REACTORS
330
C
102
}
100
AcDbDictionary
280
0
281
1
  0
ACDBDICTIONARYWDFLT
  5
E
102
{ACAD_REACTORS
330
C
102
}
100
AcDbDictionary
281
1
  3
Normal
350
F
100
AcDbDictionaryWithDefault
340
F
  0
DICTIONARY
  5
17
102
{ACAD_REACTORS
330
C
102
}
100
AcDbDictionary
280
0
281
1
  3
Standard
350
18
  0
DICTIONARY
  5
19
102
{ACAD_REACTORS
330
C
102
}
100
AcDbDictionary
281
1
  0
DICTIONARY
  5
1A
102
{ACAD_REACTORS
330
C
102
}
100
AcDbDictionary
281
1
  3
Model
350
2FF
  3
Layout1
350
300
  0
ACDBPLACEHOLDER
  5
F
102
{ACAD_REACTORS
330
E
102
}
  0
MLINESTYLE
  5
18
102
{ACAD_REACTORS
330
17
102
}
100
AcDbMlineStyle
  2
STANDARD
 70
0
  3

 62
256
 51
90.0
 52
90.0
 71
2
 49
0.5
 62
256
  6
BYLAYER
 49
-0.5
 62
256
  6
BYLAYER
  0
LAYOUT
  5
2FF
102
{ACAD_REACTORS
330
1A
102
}
100
AcDbPlotSettings
  1

  2
none_device
  4
ISO_A4_(297.00_x_210.00_MM)
  6

 40
0.0
 41
0.0
 42
0.0
 43
0.0
 44
297.0
 45
210.0
 46
0.0
 47
0.0
 48
0.0
 49
0.0
140
0.0
141
0.0
142
1.0
143
1.0
 70
1024
 72
1
 73
0
 74
0
  7

 75
0
147
1.0
148
0.0
149
0.0
100
AcDbLayout
  1
Model
 70
0
 71
0
 10
0.0
 20
0.0
 11
297.0
 21
210.0
 12
0.0
 22
0.0
 32
0.0
 14
0.0
 24
0.0
 34
0.0
 15
0.0
 25
0.0
 35
0.0
146
0.0
 13
0.0
 23
0.0
 33
0.0
 16
1.0
 26
0.0
 36
0.0
 17
0.0
 27
1.0
 37
0.0
 76
0
330
213
345
0
346
0
  0
LAYOUT
  5
300
102
{ACAD_REACTORS
330
1A
102
}
100
AcDbPlotSettings
  1

  2
none_device
  4
ISO_A4_(297.00_x_210.00_MM)
  6

 40
0.0
 41
0.0
 42
0.0
 43
0.0
 44
297.0
 45
210.0
 46
0.0
 47
0.0
 48
0.0
 49
0.0
140
0.0
141
0.0
142
1.0
143
1.0
 70
0
 72
1
 73
0
 74
0
  7

 75
0
147
1.0
148
0.0
149
0.0
100
AcDbLayout
  1
Layout1
 70
0
 71
1
 10
0.0
 20
0.0
 11
297.0
 21
210.0
 12
0.0
 22
0.0
 32
0.0
 14
0.0
 24
0.0
 34
0.0
 15
0.0
 25
0.0
 35
0.0
146
0.0
 13
0.0
 23
0.0
 33
0.0
 16
1.0
 26
0.0
 36
0.0
 17
0.0
 27
1.0
 37
0.0
 76
0
330
214
345
0
346
0
  0
ENDSEC
  0
EOF
