  0
SECTION
  2
HEADER
  9
$ACADVER
  1
AC1024
  9
$DWGCODEPAGE
  3
ANSI_1252
  9
$EXTMAX
 10
297.0
 20
210.0
 30
0.0
  9
$EXTMIN
 10
0.0
 20
0.0
 30
0.0
  9
$LIMMIN
 10
0.0
 20
0.0
  9
$LIMMAX
 10
297.0
 20
210.0
  9
$VIEWCTR
 10
148.5
 20
105.0
  9
$VIEWSIZE
 40
210.0
  9
$CLAYER
  8
0
  9
$LTSCALE
 40
16.335
  9
$CELTYPE
  6
BYLAYER
  9
$DIMSCALE
 40
1.0
  9
$DIMASZ
 40
3.0
  9
$DIMEXO
 40
0.5
  9
$DIMDLI
 40
11.286
  9
$DIMEXE
 40
1.5
  9
$DIMCEN
 40
2.673
  9
$DIMLFAC
 40
1.0
  9
$DIMBLK
  1
_FILLED
  9
$DIMALT
 70
0
  9
$DIMALTF
 40
0.0393700787
  9
$DIMTXT
 40
3.0
  9
$DIMTOL
 70
1
  9
$DIMLIM
 70
0
  9
$DIMTFAC
 40
1.0
  9
$DIMTP
 40
0.01
  9
$DIMTM
 40
0.01
  9
$DIMGAP
 40
0.625
  9
$DIMDSEP
 70
44
  9
$AUNITS
 70
0
  9
$PDMODE
 70
3
  9
$PDSIZE
 40
3.0
  9
$HANDSEED
  5
756
  9
$TILEMODE
 70
1
  9
$MEASUREMENT
 70
1
  9
$INSUNITS
 70
4
  0
ENDSEC
  0
SECTION
  2
CLASSES
  0
CLASS
  1
ACDBDICTIONARYWDFLT
  2
AcDbDictionaryWithDefault
  3
AutoCAD 2000
 90
0
 91
1
280
0
281
0
  0
CLASS
  1
ACDBPLACEHOLDER
  2
AcDbPlaceHolder
  3
AutoCAD 2000
 90
0
 91
1
280
0
281
0
  0
CLASS
  1
LAYOUT
  2
AcDbLayout
  3
AutoCAD 2000
 90
0
 91
0
280
0
281
0
  0
ENDSEC
  0
SECTION
  2
TABLES
  0
TABLE
  2
VPORT
  5
8
100
AcDbSymbolTable
 70
2
  0
VPORT
  5
1F4
100
AcDbSymbolTableRecord
100
AcDbViewportTableRecord
  2
*ACTIVE
 70
0
 10
0.0
 20
0.0
 11
1.0
 21
1.0
 12
148.5
 22
105.0
 13
0.0
 23
0.0
 14
1.0
 24
1.0
 15
0.0
 25
0.0
 16
0.0
 26
0.0
 36
1.0
 17
0.0
 27
0.0
 37
0.0
 40
210.0
 41
1.4142857143
 42
50.0
 43
0.0
 44
0.0
 50
0.0
 51
0.0
 71
0
 72
100
 73
1
 74
1
 75
0
 76
0
 77
0
 78
0
  0
ENDTAB
  0
TABLE
  2
LTYPE
  5
5
100
AcDbSymbolTable
 70
6
  0
LTYPE
  5
14
100
AcDbSymbolTableRecord
100
AcDbLinetypeTableRecord
  2
BYBLOCK
 70
0
  3

 72
65
 73
0
 40
0.0
  0
LTYPE
  5
15
100
AcDbSymbolTableRecord
100
AcDbLinetypeTableRecord
  2
BYLAYER
 70
0
  3

 72
65
 73
0
 40
0.0
  0
LTYPE
  5
16
100
AcDbSymbolTableRecord
100
AcDbLinetypeTableRecord
  2
CONTINUOUS
 70
64
  3
Solid line
 72
65
 73
0
 40
0.0
  0
LTYPE
  5
1F5
100
AcDbSymbolTableRecord
100
AcDbLinetypeTableRecord
  2
CENTER
 70
64
  3
____ _ ____ _ ____ _ ____ _ ____ _ ____ _ ____
 72
65
 73
4
 40
0.6
 49
0.375
 74
0
 49
-0.075
 74
0
 49
0.075
 74
0
 49
-0.075
 74
0
  0
LTYPE
  5
1F6
100
AcDbSymbolTableRecord
100
AcDbLinetypeTableRecord
  2
HIDDEN
 70
64
  3
- - - - - - - - - - - - - - - - - - - -
 72
65
 73
2
 40
0.2
 49
0.1
 74
0
 49
-0.1
 74
0
  0
LTYPE
  5
1F7
100
AcDbSymbolTableRecord
100
AcDbLinetypeTableRecord
  2
PHANTOM
 70
64
  3
_____ _ _ _____ _ _ _____ _ _ _____
 72
65
 73
6
 40
0.8
 49
0.45
 74
0
 49
-0.05
 74
0
 49
0.1
 74
0
 49
-0.05
 74
0
 49
0.1
 74
0
 49
-0.05
 74
0
  0
LTYPE
  5
1F8
100
AcDbSymbolTableRecord
100
AcDbLinetypeTableRecord
  2
DOT
 70
64
  3
. . . . . . . . . . . . . . . . . . . .
 72
65
 73
2
 40
0.2
 49
0.1
 74
0
 49
-0.1
 74
0
  0
LTYPE
  5
1F9
100
AcDbSymbolTableRecord
100
AcDbLinetypeTableRecord
  2
DASHED
 70
64
  3
- - - - - - - - - - - - - - - - - - - -
 72
65
 73
2
 40
0.2
 49
0.1
 74
0
 49
-0.1
 74
0
  0
ENDTAB
  0
TABLE
  2
LAYER
  5
2
100
AcDbSymbolTable
 70
36
  0
LAYER
  5
10
100
AcDbSymbolTableRecord
100
AcDbLayerTableRecord
  2
0
 70
0
 62
7
  6
CONTINUOUS
370
-3
390
F
  0
LAYER
  5
1FA
100
AcDbSymbolTableRecord
100
AcDbLayerTableRecord
  2
DEFAULT_1
 70
0
 62
7
  6
CENTER
370
-3
390
F
  0
LAYER
  5
1FB
100
AcDbSymbolTableRecord
100
AcDbLayerTableRecord
  2
DEFAULT_2
 70
0
 62
7
  6
HIDDEN
370
-3
390
F
  0
LAYER
  5
1FC
100
AcDbSymbolTableRecord
100
AcDbLayerTableRecord
  2
DEFAULT_3
 70
0
 62
7
  6
PHANTOM
370
-3
390
F
  0
LAYER
  5
1FD
100
AcDbSymbolTableRecord
100
AcDbLayerTableRecord
  2
ASSI
 70
0
 62
7
  6
CONTINUOUS
370
-3
390
F
  0
LAYER
  5
1FE
100
AcDbSymbolTableRecord
100
AcDbLayerTableRecord
  2
COORDINATE
 70
0
 62
7
  6
CONTINUOUS
370
-3
390
F
  0
LAYER
  5
1FF
100
AcDbSymbolTableRecord
100
AcDbLayerTableRecord
  2
COORD_ORIGINE
 70
0
 62
7
  6
CONTINUOUS
370
-3
390
F
  0
LAYER
  5
200
100
AcDbSymbolTableRecord
100
AcDbLayerTableRecord
  2
COPY-PUBBLISH
 70
0
 62
7
  6
CONTINUOUS
370
-3
390
F
  0
LAYER
  5
201
100
AcDbSymbolTableRecord
100
AcDbLayerTableRecord
  2
COPY_PUBLISH
 70
0
 62
7
  6
CONTINUOUS
370
-3
390
F
  0
LAYER
  5
202
100
AcDbSymbolTableRecord
100
AcDbLayerTableRecord
  2
COSMETIC
 70
0
 62
7
  6
CONTINUOUS
370
-3
390
F
  0
LAYER
  5
203
100
AcDbSymbolTableRecord
100
AcDbLayerTableRecord
  2
COSMETICHE
 70
0
 62
7
  6
CONTINUOUS
370
-3
390
F
  0
LAYER
  5
204
100
AcDbSymbolTableRecord
100
AcDbLayerTableRecord
  2
COSMETICI
 70
0
 62
7
  6
CONTINUOUS
370
-3
390
F
  0
LAYER
  5
205
100
AcDbSymbolTableRecord
100
AcDbLayerTableRecord
  2
CURVA_CENTRALE
 70
0
 62
7
  6
CONTINUOUS
370
-3
390
F
  0
LAYER
  5
206
100
AcDbSymbolTableRecord
100
AcDbLayerTableRecord
  2
CURVE
 70
0
 62
7
  6
CONTINUOUS
370
-3
390
F
  0
LAYER
  5
207
100
AcDbSymbolTableRecord
100
AcDbLayerTableRecord
  2
C_COMP
 70
0
 62
7
  6
CONTINUOUS
370
-3
390
F
  0
LAYER
  5
208
100
AcDbSymbolTableRecord
100
AcDbLayerTableRecord
  2
DRAFT
 70
0
 62
7
  6
CONTINUOUS
370
-3
390
F
  0
LAYER
  5
209
100
AcDbSymbolTableRecord
100
AcDbLayerTableRecord
  2
IMPORTED
 70
0
 62
7
  6
CONTINUOUS
370
-3
390
F
  0
LAYER
  5
20A
100
AcDbSymbolTableRecord
100
AcDbLayerTableRecord
  2
IMPORT_IGES
 70
0
 62
7
  6
CONTINUOUS
370
-3
390
F
  0
LAYER
  5
20B
100
AcDbSymbolTableRecord
100
AcDbLayerTableRecord
  2
INTFCLR_3
 70
0
 62
7
  6
CONTINUOUS
370
-3
390
F
  0
LAYER
  5
20C
100
AcDbSymbolTableRecord
100
AcDbLayerTableRecord
  2
INTF_1
 70
0
 62
7
  6
CONTINUOUS
370
-3
390
F
  0
LAYER
  5
20D
100
AcDbSymbolTableRecord
100
AcDbLayerTableRecord
  2
INTF_11
 70
0
 62
7
  6
CONTINUOUS
370
-3
390
F
  0
LAYER
  5
20E
100
AcDbSymbolTableRecord
100
AcDbLayerTableRecord
  2
INTF_16
 70
0
 62
7
  6
CONTINUOUS
370
-3
390
F
  0
LAYER
  5
20F
100
AcDbSymbolTableRecord
100
AcDbLayerTableRecord
  2
INTF_2
 70
0
 62
7
  6
CONTINUOUS
370
-3
390
F
  0
LAYER
  5
210
100
AcDbSymbolTableRecord
100
AcDbLayerTableRecord
  2
INTF_6
 70
0
 62
7
  6
CONTINUOUS
370
-3
390
F
  0
LAYER
  5
211
100
AcDbSymbolTableRecord
100
AcDbLayerTableRecord
  2
INTF_8
 70
0
 62
7
  6
CONTINUOUS
370
-3
390
F
  0
LAYER
  5
212
100
AcDbSymbolTableRecord
100
AcDbLayerTableRecord
  2
INTF_CYAN
 70
0
 62
7
  6
CONTINUOUS
370
-3
390
F
  0
LAYER
  5
213
100
AcDbSymbolTableRecord
100
AcDbLayerTableRecord
  2
NOTE
 70
0
 62
7
  6
CONTINUOUS
370
-3
390
F
  0
LAYER
  5
214
100
AcDbSymbolTableRecord
100
AcDbLayerTableRecord
  2
PIANI
 70
0
 62
7
  6
CONTINUOUS
370
-3
390
F
  0
LAYER
  5
215
100
AcDbSymbolTableRecord
100
AcDbLayerTableRecord
  2
PIANI_ORIGINE
 70
0
 62
7
  6
CONTINUOUS
370
-3
390
F
  0
LAYER
  5
216
100
AcDbSymbolTableRecord
100
AcDbLayerTableRecord
  2
PIANI_RIFERIMENTO
 70
0
 62
7
  6
CONTINUOUS
370
-3
390
F
  0
LAYER
  5
217
100
AcDbSymbolTableRecord
100
AcDbLayerTableRecord
  2
PUNTI
 70
0
 62
7
  6
CONTINUOUS
370
-3
390
F
  0
LAYER
  5
218
100
AcDbSymbolTableRecord
100
AcDbLayerTableRecord
  2
RACCORDO
 70
0
 62
7
  6
CONTINUOUS
370
-3
390
F
  0
LAYER
  5
219
100
AcDbSymbolTableRecord
100
AcDbLayerTableRecord
  2
RGB__255__255__255__
 70
0
 62
7
  6
CONTINUOUS
370
-3
390
F
  0
LAYER
  5
21A
100
AcDbSymbolTableRecord
100
AcDbLayerTableRecord
  2
RGB____0____0____0__
 70
0
 62
7
  6
CONTINUOUS
370
-3
390
F
  0
LAYER
  5
21B
100
AcDbSymbolTableRecord
100
AcDbLayerTableRecord
  2
SMUSSO
 70
0
 62
7
  6
CONTINUOUS
370
-3
390
F
  0
LAYER
  5
21C
100
AcDbSymbolTableRecord
100
AcDbLayerTableRecord
  2
SNAPLINE
 70
0
 62
7
  6
CONTINUOUS
370
-3
390
F
  0
LAYER
  5
21D
100
AcDbSymbolTableRecord
100
AcDbLayerTableRecord
  2
SUPERFICI
 70
0
 62
7
  6
CONTINUOUS
370
-3
390
F
  0
LAYER
  5
21E
100
AcDbSymbolTableRecord
100
AcDbLayerTableRecord
  2
TRASH
 70
0
 62
7
  6
CONTINUOUS
370
-3
390
F
  0
LAYER
  5
21F
100
AcDbSymbolTableRecord
100
AcDbLayerTableRecord
  2
WHITE
 70
0
 62
7
  6
CONTINUOUS
370
-3
390
F
  0
LAYER
  5
220
100
AcDbSymbolTableRecord
100
AcDbLayerTableRecord
  2
XSEC_DATUMS
 70
0
 62
7
  6
CONTINUOUS
370
-3
390
F
  0
ENDTAB
  0
TABLE
  2
STYLE
  5
3
100
AcDbSymbolTable
 70
1
  0
STYLE
  5
11
100
AcDbSymbolTableRecord
100
AcDbTextStyleTableRecord
  2
STANDARD
 70
0
 40
0.0
 41
0.8
 50
0.0
 71
0
 42
0.2
  3
txt
  4

  0
STYLE
  5
221
100
AcDbSymbolTableRecord
100
AcDbTextStyleTableRecord
  2
TEXTSTYLE_1
 70
0
 40
0.0
 41
0.8
 50
0.0
 71
0
 42
0.2
  3
gdt
  4

  0
ENDTAB
  0
TABLE
  2
VIEW
  5
6
100
AcDbSymbolTable
 70
0
  0
ENDTAB
  0
TABLE
  2
UCS
  5
7
100
AcDbSymbolTable
 70
0
  0
ENDTAB
  0
TABLE
  2
APPID
  5
9
100
AcDbSymbolTable
 70
1
  0
APPID
  5
222
100
AcDbSymbolTableRecord
100
AcDbRegAppTableRecord
  2
ACAD
 70
0
  0
ENDTAB
  0
TABLE
  2
BLOCK_RECORD
  5
1
100
AcDbSymbolTable
 70
0
  0
BLOCK_RECORD
  5
223
100
AcDbSymbolTableRecord
100
AcDbBlockTableRecord
  2
*Model_Space
  0
BLOCK_RECORD
  5
224
100
AcDbSymbolTableRecord
100
AcDbBlockTableRecord
  2
*Paper_Space
  0
BLOCK_RECORD
  5
225
100
AcDbSymbolTableRecord
100
AcDbBlockTableRecord
  2
_FILLED
  0
ENDTAB
  0
TABLE
  2
DIMSTYLE
  5
A
100
AcDbSymbolTable
 70
1
100
AcDbDimStyleTable
 71
0
  0
DIMSTYLE
105
226
100
AcDbSymbolTableRecord
100
AcDbDimStyleTableRecord
  2
STANDARD
 70
0
  3

  4

 40
1.0
 41
3.0
 42
0.5
 43
0.38
 44
1.5
 45
0.0
 46
0.0
 47
0.01
 48
0.01
140
3.0
141
0.09
142
0.0
143
25.4
144
1.0
145
0.0
146
1.0
147
0.625
 71
1
 72
0
 73
0
 74
0
 75
0
 76
0
 77
1
 78
8
 79
2
170
0
171
1
172
0
173
0
174
0
175
0
176
0
177
0
178
0
270
2
179
2
271
2
272
2
273
2
274
2
275
0
280
0
281
0
282
0
283
1
284
8
285
0
286
0
287
3
288
0
340
11
278
44
341
225
342
225
343
225
344
225
  0
ENDTAB
  0
ENDSEC
  0
SECTION
  2
BLOCKS
  0
BLOCK
  5
20
100
AcDbEntity
  8
0
100
AcDbBlockBegin
  2
*Model_Space
 70
0
 10
0.0
 20
0.0
 30
0.0
  3
*Model_Space
  1

  0
ENDBLK
  5
21
100
AcDbEntity
  8
0
100
AcDbBlockEnd
  0
BLOCK
  5
1C
100
AcDbEntity
  8
0
100
AcDbBlockBegin
  2
*Paper_Space
 70
0
 10
0.0
 20
0.0
 30
0.0
  3
*Paper_Space
  1

  0
ENDBLK
  5
1D
100
AcDbEntity
  8
0
100
AcDbBlockEnd
  0
BLOCK
  5
227
100
AcDbEntity
  8
0
100
AcDbBlockBegin
  2
_FILLED
 70
64
 10
0.0
 20
0.0
  3
_FILLED
  1

  0
SOLID
  5
228
100
AcDbEntity
  8
0
  6
BYBLOCK
 62
0
100
AcDbTrace
 10
0.0
 20
0.0
 11
-1.0
 21
0.3166666667
 12
-1.0
 22
-0.3166666667
 13
-1.0
 23
-0.3166666667
  0
ENDBLK
  5
229
100
AcDbEntity
  8
0
  6
BYBLOCK
 62
0
100
AcDbBlockEnd
  0
ENDSEC
  0
SECTION
  2
ENTITIES
  0
LWPOLYLINE
  5
22A
100
AcDbEntity
  8
RACCORDO
100
AcDbPolyline
 62
250
  6
CONTINUOUS
 90
5
 70
0
 10
-28.0259328484
 20
24.8547962984
 10
-27.952693609
 20
24.908250236
 10
-27.8787048745
 20
24.9556551301
 10
-27.8043440339
 20
24.9967750703
 10
-27.7299860576
 20
25.0314053613
  0
LINE
  5
22B
100
AcDbEntity
  8
0
100
AcDbLine
 62
7
  6
CONTINUOUS
 10
-24.3819545312
 20
27.5769003343
 11
-22.9924261584
 21
28.3871226466
  0
LINE
  5
22C
100
AcDbEntity
  8
0
100
AcDbLine
 62
250
  6
CONTINUOUS
 10
-24.1480517561
 20
27.5684528996
 11
-22.7585233833
 21
28.378675212
  0
LWPOLYLINE
  5
22D
100
AcDbEntity
  8
RACCORDO
100
AcDbPolyline
 62
250
  6
CONTINUOUS
 90
9
 70
0
 10
-31.5862386214
 20
-12.7169917593
 10
-31.5847939004
 20
-12.7435859624
 10
-31.5755109355
 20
-12.7839276199
 10
-31.5577721702
 20
-12.8236918963
 10
-31.5317676729
 20
-12.8624527229
 10
-31.497776078
 20
-12.899794783
 10
-31.4561616009
 20
-12.9353179617
 10
-31.4073701348
 20
-12.9686416331
 10
-31.3519244735
 20
-12.9994087386
  0
LWPOLYLINE
  5
22E
100
AcDbEntity
  8
RACCORDO
100
AcDbPolyline
 62
7
  6
CONTINUOUS
 90
15
 70
0
 10
-31.5862260555
 20
-12.7169919554
 10
-31.5864175689
 20
-12.7505361378
 10
-31.5810732367
 20
-12.8705381936
 10
-31.5664913076
 20
-12.9860044073
 10
-31.5430734182
 20
-13.0965028509
 10
-31.5111579518
 20
-13.2018896912
 10
-31.4710028474
 20
-13.3019941791
 10
-31.4231079959
 20
-13.3961649023
 10
-31.367890104
 20
-13.4840687434
 10
-31.3055237353
 20
-13.5656416925
 10
-31.2366150754
 20
-13.6402487575
 10
-31.1617995408
 20
-13.707418304
 10
-31.0812817232
 20
-13.7670566759
 10
-30.9956060687
 20
-13.8187285025
 10
-30.9650736651
 20
-13.8345790035
  0
LINE
  5
22F
100
AcDbEntity
  8
RACCORDO
100
AcDbLine
 62
7
  6
CONTINUOUS
 10
-31.5862341584
 20
-12.7167116266
 11
-31.5862386214
 21
-12.7169917593
  0
LWPOLYLINE
  5
230
100
AcDbEntity
  8
RACCORDO
100
AcDbPolyline
 62
7
  6
CONTINUOUS
 90
13
 70
0
 10
-29.0789218291
 20
23.6380609203
 10
-29.4259036812
 20
20.6223769697
 10
-29.7563270156
 20
17.5310653992
 10
-30.0600737081
 20
14.4490505443
 10
-30.3370962809
 20
11.3767763536
 10
-30.5873607253
 20
8.3146325774
 10
-30.8108366655
 20
5.2629878205
 10
-31.0074935988
 20
2.2222253685
 10
-31.1773064812
 20
-0.8072735602
 10
-31.3202522645
 20
-3.825143256
 10
-31.4363087022
 20
-6.8309991171
 10
-31.5254601029
 20
-9.8244104923
 10
-31.5862341584
 20
-12.7167116266
  0
LWPOLYLINE
  5
231
100
AcDbEntity
  8
RACCORDO
100
AcDbPolyline
 62
250
  6
CONTINUOUS
 90
18
 70
0
 10
-28.8434234376
 20
23.3710922605
 10
-28.8292809407
 20
23.4684425557
 10
-28.810009676
 20
23.566939711
 10
-28.7857071589
 20
23.6660912092
 10
-28.7564983648
 20
23.7653989141
 10
-28.7225290763
 20
23.8643692221
 10
-28.6839636607
 20
23.9625153553
 10
-28.6409924089
 20
24.0593553599
 10
-28.593833527
 20
24.1543966945
 10
-28.5427271705
 20
24.2471472831
 10
-28.4879393068
 20
24.3371344833
 10
-28.4297406749
 20
24.4239214383
 10
-28.3684061445
 20
24.5070896967
 10
-28.3042368836
 20
24.5862323937
 10
-28.2375618378
 20
24.6609438089
 10
-28.1687180677
 20
24.7308369824
 10
-28.0980578465
 20
24.7955601452
 10
-28.0259328484
 20
24.8547962984
  0
LWPOLYLINE
  5
232
100
AcDbEntity
  8
0
100
AcDbPolyline
 62
7
  6
CONTINUOUS
 90
10
 70
0
 10
-18.504179816
 20
26.5223720604
 10
-18.4906397671
 20
26.5299573386
 10
-18.4596461887
 20
26.5534089461
 10
-18.4331611682
 20
26.5827750192
 10
-18.4113932723
 20
26.6183249649
 10
-18.3941339343
 20
26.6597893763
 10
-18.3821608272
 20
26.7052965035
 10
-18.3757331754
 20
26.7542224298
 10
-18.3745917545
 20
26.8071910719
 10
-18.3787365646
 20
26.8642024297
  0
LWPOLYLINE
  5
233
100
AcDbEntity
  8
ASSI
100
AcDbPolyline
 62
7
  6
CONTINUOUS
 90
10
 70
0
 10
-18.504179816
 20
26.5223720604
 10
-18.4906397671
 20
26.5299573386
 10
-18.4596461887
 20
26.5534089461
 10
-18.4331611682
 20
26.5827750192
 10
-18.4113932723
 20
26.6183249649
 10
-18.3941339343
 20
26.6597893763
 10
-18.3821608272
 20
26.7052965035
 10
-18.3757331754
 20
26.7542224298
 10
-18.3745917545
 20
26.8071910719
 10
-18.3787365646
 20
26.8642024297
  0
LINE
  5
234
100
AcDbEntity
  8
0
100
AcDbLine
 62
7
  6
CONTINUOUS
 10
-14.8033029703
 20
28.1216539557
 11
-16.2623077617
 21
27.3979768233
  0
LINE
  5
235
100
AcDbEntity
  8
ASSI
100
AcDbLine
 62
7
  6
CONTINUOUS
 10
-14.8033029703
 20
28.1216539557
 11
-16.2623077617
 21
27.3979768233
  0
LINE
  5
236
100
AcDbEntity
  8
0
100
AcDbLine
 62
7
  6
CONTINUOUS
 10
-15.545765099
 20
28.2068461256
 11
-16.4813396504
 21
27.7633123945
  0
LINE
  5
237
100
AcDbEntity
  8
ASSI
100
AcDbLine
 62
7
  6
CONTINUOUS
 10
-15.545765099
 20
28.2068461256
 11
-16.4813396504
 21
27.7633123945
  0
LINE
  5
238
100
AcDbEntity
  8
0
100
AcDbLine
 62
7
  6
CONTINUOUS
 10
-16.4813396504
 20
27.7633123945
 11
-17.7424251254
 21
27.1656774981
  0
LINE
  5
239
100
AcDbEntity
  8
ASSI
100
AcDbLine
 62
7
  6
CONTINUOUS
 10
-16.4813396504
 20
27.7633123945
 11
-17.7424251254
 21
27.1656774981
  0
LINE
  5
23A
100
AcDbEntity
  8
0
100
AcDbLine
 62
7
  6
CONTINUOUS
 10
-17.7424251254
 20
27.1656774981
 11
-18.0601021445
 21
27.0151641115
  0
LINE
  5
23B
100
AcDbEntity
  8
ASSI
100
AcDbLine
 62
7
  6
CONTINUOUS
 10
-17.7424251254
 20
27.1656774981
 11
-18.0601021445
 21
27.0151641115
  0
LINE
  5
23C
100
AcDbEntity
  8
0
100
AcDbLine
 62
250
  6
CONTINUOUS
 10
-18.216891128
 20
26.916172259
 11
-15.374027971
 21
28.2623275317
  0
LINE
  5
23D
100
AcDbEntity
  8
ASSI
100
AcDbLine
 62
250
  6
CONTINUOUS
 10
-18.216891128
 20
26.916172259
 11
-15.374027971
 21
28.2623275317
  0
LINE
  5
23E
100
AcDbEntity
  8
0
100
AcDbLine
 62
250
  6
CONTINUOUS
 10
-17.8260836819
 20
26.8650833054
 11
-14.9827603602
 21
28.2113826507
  0
LINE
  5
23F
100
AcDbEntity
  8
ASSI
100
AcDbLine
 62
250
  6
CONTINUOUS
 10
-17.8260836819
 20
26.8650833054
 11
-14.9827603602
 21
28.2113826507
  0
LINE
  5
240
100
AcDbEntity
  8
RACCORDO
100
AcDbLine
 62
7
  6
CONTINUOUS
 10
-14.5786250149
 20
28.7173388568
 11
-16.0200969917
 21
28.0365883822
  0
LINE
  5
241
100
AcDbEntity
  8
RACCORDO
100
AcDbLine
 62
250
  6
CONTINUOUS
 10
-14.3444941965
 20
28.7086500692
 11
-15.2402025999
 21
28.2856355393
  0
LINE
  5
242
100
AcDbEntity
  8
ASSI
100
AcDbLine
 62
250
  6
CONTINUOUS
 10
-14.3444941965
 20
28.7086500692
 11
-15.2402025999
 21
28.2856355393
  0
LINE
  5
243
100
AcDbEntity
  8
0
100
AcDbLine
 62
7
  6
CONTINUOUS
 10
-18.5766657994
 20
26.8297632233
 11
-18.8997581052
 21
26.6772015529
  0
LINE
  5
244
100
AcDbEntity
  8
ASSI
100
AcDbLine
 62
7
  6
CONTINUOUS
 10
-18.5766657994
 20
26.8297632233
 11
-18.8997581052
 21
26.6772015529
  0
LINE
  5
245
100
AcDbEntity
  8
ASSI
100
AcDbLine
 62
7
  6
CONTINUOUS
 10
-16.3366026693
 20
27.8871792794
 11
-18.5766657994
 21
26.8297632233
  0
LINE
  5
246
100
AcDbEntity
  8
0
100
AcDbLine
 62
7
  6
CONTINUOUS
 10
-16.019681658
 20
28.0367517914
 11
-18.5766657994
 21
26.8297632233
  0
LINE
  5
247
100
AcDbEntity
  8
ASSI
100
AcDbLine
 62
7
  6
CONTINUOUS
 10
-14.5786250149
 20
28.7173388568
 11
-16.3366026693
 21
27.8871792794
  0
LINE
  5
248
100
AcDbEntity
  8
RACCORDO
100
AcDbLine
 62
7
  6
CONTINUOUS
 10
-5.3232908101
 20
32.8334235352
 11
-14.1130993033
 21
28.6902198852
  0
LINE
  5
249
100
AcDbEntity
  8
ASSI
100
AcDbLine
 62
7
  6
CONTINUOUS
 10
-5.3232908101
 20
32.8334235352
 11
-14.1130993033
 21
28.6902198852
  0
LINE
  5
24A
100
AcDbEntity
  8
RACCORDO
100
AcDbLine
 62
250
  6
CONTINUOUS
 10
-5.1039408105
 20
32.8171785152
 11
-13.9666323216
 21
28.6396190167
  0
LINE
  5
24B
100
AcDbEntity
  8
ASSI
100
AcDbLine
 62
250
  6
CONTINUOUS
 10
-5.1039408105
 20
32.8171785152
 11
-13.9666323216
 21
28.6396190167
  0
LINE
  5
24C
100
AcDbEntity
  8
0
100
AcDbLine
 62
7
  6
CONTINUOUS
 10
-15.7315206816
 20
27.4773155828
 11
-16.0974204287
 21
27.3067120657
  0
LWPOLYLINE
  5
24D
100
AcDbEntity
  8
RACCORDO
100
AcDbPolyline
 62
250
  6
CONTINUOUS
 90
9
 70
0
 10
-5.3232909067
 20
32.8334234897
 10
-5.3167629126
 20
32.8363515384
 10
-5.2918987735
 20
32.8449797071
 10
-5.265013861
 20
32.8503421001
 10
-5.2361851726
 20
32.8521245813
 10
-5.2054649231
 20
32.8500066157
 10
-5.173003991
 20
32.8436604082
 10
-5.1390665066
 20
32.8327989741
 10
-5.1039408109
 20
32.8171785154
  0
LWPOLYLINE
  5
24E
100
AcDbEntity
  8
ASSI
100
AcDbPolyline
 62
250
  6
CONTINUOUS
 90
9
 70
0
 10
-5.3232909067
 20
32.8334234897
 10
-5.3167629126
 20
32.8363515384
 10
-5.2918987735
 20
32.8449797071
 10
-5.265013861
 20
32.8503421001
 10
-5.2361851726
 20
32.8521245813
 10
-5.2054649231
 20
32.8500066157
 10
-5.173003991
 20
32.8436604082
 10
-5.1390665066
 20
32.8327989741
 10
-5.1039408109
 20
32.8171785154
  0
LWPOLYLINE
  5
24F
100
AcDbEntity
  8
RACCORDO
100
AcDbPolyline
 62
7
  6
CONTINUOUS
 90
16
 70
0
 10
-28.0859806323
 20
25.0552407826
 10
-28.1063127532
 20
25.0462750002
 10
-28.2181886213
 20
24.9893692737
 10
-28.3256942427
 20
24.9217833311
 10
-28.428996611
 20
24.8436063128
 10
-28.5274229217
 20
24.7553953521
 10
-28.6195387071
 20
24.658647506
 10
-28.705365607
 20
24.5535861577
 10
-28.7845465137
 20
24.4405636743
 10
-28.8554809085
 20
24.3219886453
 10
-28.9180524487
 20
24.19826166
 10
-28.9719950983
 20
24.0697489453
 10
-29.0161076673
 20
23.9391891731
 10
-29.0501444414
 20
23.8077017761
 10
-29.0741299811
 20
23.6748019466
 10
-29.0789342082
 20
23.6378858931
  0
LINE
  5
250
100
AcDbEntity
  8
RACCORDO
100
AcDbLine
 62
7
  6
CONTINUOUS
 10
-28.0859867036
 20
25.0552548844
 11
-24.1043410667
 21
26.7699069974
  0
LINE
  5
251
100
AcDbEntity
  8
RACCORDO
100
AcDbLine
 62
250
  6
CONTINUOUS
 10
-27.7299860576
 20
25.0314053613
 11
-23.7523423881
 21
26.744334043
  0
LINE
  5
252
100
AcDbEntity
  8
RACCORDO
100
AcDbLine
 62
7
  6
CONTINUOUS
 10
-14.5242953279
 20
28.7415015269
 11
-14.5650427736
 21
28.7243268557
  0
LINE
  5
253
100
AcDbEntity
  8
ASSI
100
AcDbLine
 62
7
  6
CONTINUOUS
 10
-14.524295215
 20
28.7415015745
 11
-14.5650427776
 21
28.7243268538
  0
LINE
  5
254
100
AcDbEntity
  8
0
100
AcDbLine
 62
7
  6
CONTINUOUS
 10
-19.1481224453
 20
26.573474743
 11
-18.8997581052
 21
26.6772015529
  0
LINE
  5
255
100
AcDbEntity
  8
ASSI
100
AcDbLine
 62
7
  6
CONTINUOUS
 10
-19.1481224453
 20
26.573474743
 11
-18.8997581052
 21
26.6772015529
  0
LWPOLYLINE
  5
256
100
AcDbEntity
  8
RACCORDO
100
AcDbPolyline
 62
250
  6
CONTINUOUS
 90
8
 70
0
 10
-28.0858647101
 20
25.0553074474
 10
-28.0757016001
 20
25.059493272
 10
-28.0229432816
 20
25.0755391161
 10
-27.9674086728
 20
25.083316265
 10
-27.9097059871
 20
25.0827395438
 10
-27.8504671821
 20
25.0738152686
 10
-27.7903410391
 20
25.0566411777
 10
-27.7299860576
 20
25.0314053613
  0
LINE
  5
257
100
AcDbEntity
  8
RACCORDO
100
AcDbLine
 62
7
  6
CONTINUOUS
 10
-5.3232908056
 20
32.8334235374
 11
-5.2697712789
 21
32.8549690868
  0
LWPOLYLINE
  5
258
100
AcDbEntity
  8
ASSI
100
AcDbPolyline
 62
7
  6
CONTINUOUS
 90
8
 70
0
 10
-5.3232908056
 20
32.8334235374
 10
-5.2697714282
 20
32.854969046
 10
-5.213449792
 20
32.8703505844
 10
-5.1552307683
 20
32.8791066448
 10
-5.0962929096
 20
32.8809555798
 10
-5.0374469442
 20
32.8758382496
 10
-4.9791159041
 20
32.8636818069
 10
-4.9221533621
 20
32.8444726963
  0
LWPOLYLINE
  5
259
100
AcDbEntity
  8
0
100
AcDbPolyline
 62
7
  6
CONTINUOUS
 90
6
 70
0
 10
-15.545765099
 20
28.2068461256
 10
-15.5172260747
 20
28.2162880884
 10
-15.4886535182
 20
28.2256520264
 10
-15.4600474296
 20
28.2349379398
 10
-15.4314078087
 20
28.2441458285
 10
-15.4027346557
 20
28.2532756925
  0
LWPOLYLINE
  5
25A
100
AcDbEntity
  8
ASSI
100
AcDbPolyline
 62
7
  6
CONTINUOUS
 90
6
 70
0
 10
-15.545765099
 20
28.2068461256
 10
-15.5172260747
 20
28.2162880884
 10
-15.4886535182
 20
28.2256520264
 10
-15.4600474296
 20
28.2349379398
 10
-15.4314078087
 20
28.2441458285
 10
-15.4027346557
 20
28.2532756925
  0
LWPOLYLINE
  5
25B
100
AcDbEntity
  8
0
100
AcDbPolyline
 62
7
  6
CONTINUOUS
 90
6
 70
0
 10
-18.3787365646
 20
26.8642024297
 10
-18.3518363428
 20
26.8730366641
 10
-18.324906514
 20
26.88180186
 10
-18.2979470781
 20
26.8904980174
 10
-18.2709580353
 20
26.8991251363
 10
-18.2439393854
 20
26.9076832168
  0
LWPOLYLINE
  5
25C
100
AcDbEntity
  8
ASSI
100
AcDbPolyline
 62
7
  6
CONTINUOUS
 90
6
 70
0
 10
-18.3787365646
 20
26.8642024297
 10
-18.3518363428
 20
26.8730366641
 10
-18.324906514
 20
26.88180186
 10
-18.2979470781
 20
26.8904980174
 10
-18.2709580353
 20
26.8991251363
 10
-18.2439393854
 20
26.9076832168
  0
LINE
  5
25D
100
AcDbEntity
  8
0
100
AcDbLine
 62
7
  6
CONTINUOUS
 10
-15.4027346557
 20
28.2532756925
 11
-15.3740279705
 21
28.2623275318
  0
LINE
  5
25E
100
AcDbEntity
  8
ASSI
100
AcDbLine
 62
7
  6
CONTINUOUS
 10
-15.4027346557
 20
28.2532756925
 11
-15.3740279705
 21
28.2623275318
  0
LINE
  5
25F
100
AcDbEntity
  8
RACCORDO
100
AcDbLine
 62
7
  6
CONTINUOUS
 10
-14.467306455
 20
28.7588224873
 11
-14.5242953279
 21
28.7415015269
  0
LINE
  5
260
100
AcDbEntity
  8
ASSI
100
AcDbLine
 62
7
  6
CONTINUOUS
 10
-14.4673061463
 20
28.7588225614
 11
-14.524295215
 21
28.7415015745
  0
LWPOLYLINE
  5
261
100
AcDbEntity
  8
RACCORDO
100
AcDbPolyline
 62
250
  6
CONTINUOUS
 90
9
 70
0
 10
-29.0789342082
 20
23.6378858931
 10
-29.0780427695
 20
23.6014094861
 10
-29.0683180752
 20
23.5674638212
 10
-29.0501952868
 20
23.5332611037
 10
-29.023868585
 20
23.4991678062
 10
-28.989620053
 20
23.4655492289
 10
-28.9478166541
 20
23.4327655856
 10
-28.8989063001
 20
23.4011681438
 10
-28.8434130517
 20
23.3710954613
  0
LWPOLYLINE
  5
262
100
AcDbEntity
  8
RACCORDO
100
AcDbPolyline
 62
250
  6
CONTINUOUS
 90
13
 70
0
 10
-31.3519245094
 20
-12.9994087558
 10
-31.2892455881
 20
-10.031814674
 10
-31.1998919103
 20
-7.0514315303
 10
-31.0838746468
 20
-4.0586410515
 10
-30.9412083536
 20
-1.0538266016
 10
-30.7719112379
 20
1.9626271038
 10
-30.5760051524
 20
4.9903340475
 10
-30.3535153309
 20
8.0289066566
 10
-30.1044701084
 20
11.077955816
 10
-29.8289011801
 20
14.1370911556
 10
-29.5268438825
 20
17.2059210685
 10
-29.1983371918
 20
20.2840527593
 10
-28.8434234376
 20
23.3710922605
  0
LINE
  5
263
100
AcDbEntity
  8
0
100
AcDbLine
 62
7
  6
CONTINUOUS
 10
-12.7942863801
 20
23.5066366619
 11
-12.8941146611
 21
23.4464708508
  0
LINE
  5
264
100
AcDbEntity
  8
DRAFT
100
AcDbLine
 62
7
  6
CONTINUOUS
 10
-16.1987576921
 20
23.2067299307
 11
-16.4162884206
 21
23.0856778393
  0
LINE
  5
265
100
AcDbEntity
  8
RACCORDO
100
AcDbLine
 62
250
  6
CONTINUOUS
 10
-16.4154866176
 20
23.0861213795
 11
-16.4162907436
 21
23.0856765466
  0
LINE
  5
266
100
AcDbEntity
  8
0
100
AcDbLine
 62
7
  6
CONTINUOUS
 10
-11.1880794904
 20
25.2055949872
 11
-11.5292865245
 21
25.0226451136
  0
LINE
  5
267
100
AcDbEntity
  8
0
100
AcDbLine
 62
7
  6
CONTINUOUS
 10
-17.4767984683
 20
25.8244152949
 11
-17.5610194169
 21
25.7799232288
  0
LWPOLYLINE
  5
268
100
AcDbEntity
  8
RACCORDO
100
AcDbPolyline
 62
250
  6
CONTINUOUS
 90
28
 70
0
 10
-10.1485783174
 20
29.23790616
 10
-10.1745274362
 20
29.2247296493
 10
-10.1999790011
 20
29.2104917581
 10
-10.2249330121
 20
29.1951924862
 10
-10.2495629482
 20
29.1788820542
 10
-10.2736953304
 20
29.1615102415
 10
-10.2968097215
 20
29.1429263872
 10
-10.3189806397
 20
29.123113386
 10
-10.3401335669
 20
29.1020883431
 10
-10.3595245113
 20
29.0797519128
 10
-10.3772316489
 20
29.0560402138
 10
-10.3931768038
 20
29.0310171274
 10
-10.4063814567
 20
29.0047749518
 10
-10.4168529113
 20
28.9772351219
 10
-10.4245838638
 20
28.9484762027
 10
-10.4285738835
 20
28.9188261874
 10
-10.4287382465
 20
28.8882014062
 10
-10.4251616765
 20
28.8566855288
 10
-10.4170979144
 20
28.8248575584
 10
-10.4043780248
 20
28.7926683586
 10
-10.387170943
 20
28.7601670658
 10
-10.3652372153
 20
28.7280800922
 10
-10.338406323
 20
28.6964212598
 10
-10.3068487847
 20
28.6651767465
 10
-10.2708367029
 20
28.6350314987
 10
-10.2304607783
 20
28.6062138317
 10
-10.1856303101
 20
28.5784954301
 10
-10.1363452983
 20
28.551876294
  0
LWPOLYLINE
  5
269
100
AcDbEntity
  8
ASSI
100
AcDbPolyline
 62
250
  6
CONTINUOUS
 90
28
 70
0
 10
-10.1485783174
 20
29.23790616
 10
-10.1745274362
 20
29.2247296493
 10
-10.1999790011
 20
29.2104917581
 10
-10.2249330121
 20
29.1951924862
 10
-10.2495629482
 20
29.1788820542
 10
-10.2736953304
 20
29.1615102415
 10
-10.2968097215
 20
29.1429263872
 10
-10.3189806397
 20
29.123113386
 10
-10.3401335669
 20
29.1020883431
 10
-10.3595245113
 20
29.0797519128
 10
-10.3772316489
 20
29.0560402138
 10
-10.3931768038
 20
29.0310171274
 10
-10.4063814567
 20
29.0047749518
 10
-10.4168529113
 20
28.9772351219
 10
-10.4245838638
 20
28.9484762027
 10
-10.4285738835
 20
28.9188261874
 10
-10.4287382465
 20
28.8882014062
 10
-10.4251616765
 20
28.8566855288
 10
-10.4170979144
 20
28.8248575584
 10
-10.4043780248
 20
28.7926683586
 10
-10.387170943
 20
28.7601670658
 10
-10.3652372153
 20
28.7280800922
 10
-10.338406323
 20
28.6964212598
 10
-10.3068487847
 20
28.6651767465
 10
-10.2708367029
 20
28.6350314987
 10
-10.2304607783
 20
28.6062138317
 10
-10.1856303101
 20
28.5784954301
 10
-10.1363452983
 20
28.551876294
  0
LINE
  5
26A
100
AcDbEntity
  8
RACCORDO
100
AcDbLine
 62
250
  6
CONTINUOUS
 10
-10.1485783174
 20
29.23790616
 11
-4.02252817
 21
32.2764721949
  0
LINE
  5
26B
100
AcDbEntity
  8
ASSI
100
AcDbLine
 62
250
  6
CONTINUOUS
 10
-10.1485783174
 20
29.23790616
 11
-4.02252817
 21
32.2764721949
  0
LINE
  5
26C
100
AcDbEntity
  8
RACCORDO
100
AcDbLine
 62
250
  6
CONTINUOUS
 10
-7.7584250681
 20
27.4828160639
 11
-3.6690286273
 21
29.5111868459
  0
LINE
  5
26D
100
AcDbEntity
  8
ASSI
100
AcDbLine
 62
250
  6
CONTINUOUS
 10
-7.7584250681
 20
27.4828160639
 11
-3.6690286273
 21
29.5111868459
  0
LINE
  5
26E
100
AcDbEntity
  8
RACCORDO
100
AcDbLine
 62
250
  6
CONTINUOUS
 10
-6.9702432488
 20
27.0887251542
 11
-3.3155290846
 21
28.9014903226
  0
LINE
  5
26F
100
AcDbEntity
  8
ASSI
100
AcDbLine
 62
250
  6
CONTINUOUS
 10
-6.9702432488
 20
27.0887251542
 11
-3.3155290846
 21
28.9014903226
  0
LINE
  5
270
100
AcDbEntity
  8
RACCORDO
100
AcDbLine
 62
7
  6
CONTINUOUS
 10
-6.5359846547
 20
26.8715958572
 11
-2.8812704905
 21
28.6843610255
  0
LINE
  5
271
100
AcDbEntity
  8
ASSI
100
AcDbLine
 62
7
  6
CONTINUOUS
 10
-6.5359846547
 20
26.8715958572
 11
-2.8812704905
 21
28.6843610255
  0
LWPOLYLINE
  5
272
100
AcDbEntity
  8
RACCORDO
100
AcDbPolyline
 62
250
  6
CONTINUOUS
 90
10
 70
0
 10
-3.6690286273
 20
31.6667756716
 10
-9.8079032567
 20
28.6218854271
 10
-9.8206555897
 20
28.6150670904
 10
-9.8332527082
 20
28.6077386246
 10
-9.8455858069
 20
28.5999012417
 10
-9.8575829412
 20
28.5915290731
 10
-9.8691964804
 20
28.5825653555
 10
-9.8803096196
 20
28.5730008807
 10
-9.8907958886
 20
28.5628306705
 10
-9.8993910798
 20
28.5532990697
  0
LWPOLYLINE
  5
273
100
AcDbEntity
  8
ASSI
100
AcDbPolyline
 62
250
  6
CONTINUOUS
 90
10
 70
0
 10
-3.6690286273
 20
31.6667756716
 10
-9.8079032567
 20
28.6218854271
 10
-9.8206555897
 20
28.6150670904
 10
-9.8332527082
 20
28.6077386246
 10
-9.8455858069
 20
28.5999012417
 10
-9.8575829412
 20
28.5915290731
 10
-9.8691964804
 20
28.5825653555
 10
-9.8803096196
 20
28.5730008807
 10
-9.8907958886
 20
28.5628306705
 10
-9.8993910798
 20
28.5532990697
  0
LINE
  5
274
100
AcDbEntity
  8
0
100
AcDbLine
 62
250
  6
CONTINUOUS
 10
-9.8155194682
 20
25.6277622047
 11
-12.6290503961
 21
24.2665666625
  0
LINE
  5
275
100
AcDbEntity
  8
ASSI
100
AcDbLine
 62
250
  6
CONTINUOUS
 10
-9.8155194682
 20
25.6277622047
 11
-12.6290503961
 21
24.2665666625
  0
LINE
  5
276
100
AcDbEntity
  8
0
100
AcDbLine
 62
250
  6
CONTINUOUS
 10
-9.4242518575
 20
25.2874394749
 11
-12.2382429499
 21
23.92684817
  0
LINE
  5
277
100
AcDbEntity
  8
ASSI
100
AcDbLine
 62
250
  6
CONTINUOUS
 10
-9.4242518575
 20
25.2874394749
 11
-12.2382429499
 21
23.92684817
  0
LINE
  5
278
100
AcDbEntity
  8
0
100
AcDbLine
 62
7
  6
CONTINUOUS
 10
-9.9949768582
 20
25.7174908997
 11
-11.5058205477
 21
25.0197332163
  0
LINE
  5
279
100
AcDbEntity
  8
ASSI
100
AcDbLine
 62
7
  6
CONTINUOUS
 10
-9.9949768582
 20
25.7174908997
 11
-11.5058205477
 21
25.0197332163
  0
LINE
  5
27A
100
AcDbEntity
  8
0
100
AcDbLine
 62
7
  6
CONTINUOUS
 10
-14.9728568147
 20
27.0979836493
 11
-14.8033029703
 21
27.168636291
  0
LINE
  5
27B
100
AcDbEntity
  8
ASSI
100
AcDbLine
 62
7
  6
CONTINUOUS
 10
-14.9910906919
 20
27.0903856406
 11
-14.8033029703
 21
27.168636291
  0
LINE
  5
27C
100
AcDbEntity
  8
RACCORDO
100
AcDbLine
 62
250
  6
CONTINUOUS
 10
-16.3676829271
 20
23.1042711437
 11
-16.4154866176
 21
23.0861213795
  0
LINE
  5
27D
100
AcDbEntity
  8
RACCORDO
100
AcDbLine
 62
250
  6
CONTINUOUS
 10
-10.0757268774
 20
28.5744550365
 11
-10.1363452975
 21
28.5518762936
  0
LINE
  5
27E
100
AcDbEntity
  8
ASSI
100
AcDbLine
 62
250
  6
CONTINUOUS
 10
-10.0757268774
 20
28.5744550365
 11
-10.1363452975
 21
28.5518762936
  0
LINE
  5
27F
100
AcDbEntity
  8
0
100
AcDbLine
 62
7
  6
CONTINUOUS
 10
-12.9983946063
 20
27.6737557003
 11
-13.459800086
 21
27.5159064572
  0
LINE
  5
280
100
AcDbEntity
  8
ASSI
100
AcDbLine
 62
7
  6
CONTINUOUS
 10
-12.9983946063
 20
27.6737557003
 11
-13.459800086
 21
27.5159064572
  0
LINE
  5
281
100
AcDbEntity
  8
0
100
AcDbLine
 62
7
  6
CONTINUOUS
 10
-18.2439393854
 20
26.9076832168
 11
-18.2168911285
 21
26.9161722588
  0
LINE
  5
282
100
AcDbEntity
  8
ASSI
100
AcDbLine
 62
7
  6
CONTINUOUS
 10
-18.2439393854
 20
26.9076832168
 11
-18.2168911285
 21
26.9161722588
  0
LWPOLYLINE
  5
283
100
AcDbEntity
  8
RACCORDO
100
AcDbPolyline
 62
250
  6
CONTINUOUS
 90
14
 70
0
 10
-30.9660426099
 20
-13.8341067676
 10
-31.0110930121
 20
-13.8088907058
 10
-31.0641115846
 20
-13.7714851097
 10
-31.1133027813
 20
-13.7276787965
 10
-31.1584350216
 20
-13.6776798551
 10
-31.1992842177
 20
-13.6217306824
 10
-31.2356370974
 20
-13.5601159492
 10
-31.2673099282
 20
-13.4931500786
 10
-31.2941422793
 20
-13.4211741414
 10
-31.3160009145
 20
-13.3445453457
 10
-31.3327803132
 20
-13.2636409493
 10
-31.3443965722
 20
-13.1788633065
 10
-31.3507889306
 20
-13.0906388058
 10
-31.3519245094
 20
-12.9994087558
  0
LINE
  5
284
100
AcDbEntity
  8
0
100
AcDbLine
 62
7
  6
CONTINUOUS
 10
-23.9455246729
 20
27.0801134211
 11
-23.9455246729
 21
26.7698927709
  0
LINE
  5
285
100
AcDbEntity
  8
0
100
AcDbLine
 62
7
  6
CONTINUOUS
 10
-8.7600395566
 20
25.5545781754
 11
-9.0757380426
 21
25.3238754355
  0
LINE
  5
286
100
AcDbEntity
  8
ASSI
100
AcDbLine
 62
7
  6
CONTINUOUS
 10
-8.7600395566
 20
25.5545781754
 11
-9.0757380426
 21
25.3238754355
  0
LINE
  5
287
100
AcDbEntity
  8
RACCORDO
100
AcDbLine
 62
7
  6
CONTINUOUS
 10
-8.9785783976
 20
24.5021084585
 11
-7.713624445
 21
25.3932151934
  0
LINE
  5
288
100
AcDbEntity
  8
ASSI
100
AcDbLine
 62
7
  6
CONTINUOUS
 10
-8.9785783976
 20
24.5021084585
 11
-7.713624445
 21
25.3932151934
  0
LINE
  5
289
100
AcDbEntity
  8
DRAFT
100
AcDbLine
 62
7
  6
CONTINUOUS
 10
-4.7758393815
 20
25.9915232206
 11
-2.0449009284
 21
27.4119355374
  0
LINE
  5
28A
100
AcDbEntity
  8
ASSI
100
AcDbLine
 62
7
  6
CONTINUOUS
 10
-4.7758393815
 20
25.9915232206
 11
-2.0449009284
 21
27.4119355374
  0
LWPOLYLINE
  5
28B
100
AcDbEntity
  8
0
100
AcDbPolyline
 62
7
  6
CONTINUOUS
 90
10
 70
0
 10
-8.7785981705
 20
24.4162100477
 10
-9.0833124231
 20
24.2605341563
 10
-9.3889831226
 20
24.1045847314
 10
-9.695611224
 20
23.9483580073
 10
-10.0032032793
 20
23.7918487787
 10
-10.3117542907
 20
23.6350544975
 10
-10.6212479706
 20
23.4779760926
 10
-10.9316795026
 20
23.3206121232
 10
-11.2430552869
 20
23.1629579671
 10
-11.5553759728
 20
23.0050104868
  0
LWPOLYLINE
  5
28C
100
AcDbEntity
  8
ASSI
100
AcDbPolyline
 62
7
  6
CONTINUOUS
 90
10
 70
0
 10
-8.7785981705
 20
24.4162100477
 10
-9.0833124231
 20
24.2605341563
 10
-9.3889831226
 20
24.1045847314
 10
-9.695611224
 20
23.9483580073
 10
-10.0032032793
 20
23.7918487787
 10
-10.3117542907
 20
23.6350544975
 10
-10.6212479706
 20
23.4779760926
 10
-10.9316795026
 20
23.3206121232
 10
-11.2430552869
 20
23.1629579671
 10
-11.5553759728
 20
23.0050104868
  0
LINE
  5
28D
100
AcDbEntity
  8
SMUSSO
100
AcDbLine
 62
7
  6
CONTINUOUS
 10
-5.4320084603
 20
26.31960776
 11
-2.0449009284
 21
27.9996380659
  0
LINE
  5
28E
100
AcDbEntity
  8
ASSI
100
AcDbLine
 62
7
  6
CONTINUOUS
 10
-5.4320084603
 20
26.31960776
 11
-2.0449009284
 21
27.9996380659
  0
LINE
  5
28F
100
AcDbEntity
  8
RACCORDO
100
AcDbLine
 62
7
  6
CONTINUOUS
 10
4.6743299553
 20
27.9280431323
 11
-2.5711905377
 21
24.3684061172
  0
LINE
  5
290
100
AcDbEntity
  8
ASSI
100
AcDbLine
 62
7
  6
CONTINUOUS
 10
4.6743299553
 20
27.9280431323
 11
-2.5711905377
 21
24.3684061172
  0
LINE
  5
291
100
AcDbEntity
  8
RACCORDO
100
AcDbLine
 62
7
  6
CONTINUOUS
 10
-7.3580626973
 20
22.6036241805
 11
-9.3125969733
 21
21.655712007
  0
LINE
  5
292
100
AcDbEntity
  8
ASSI
100
AcDbLine
 62
7
  6
CONTINUOUS
 10
-7.3580626973
 20
22.6036241805
 11
-9.3125969733
 21
21.655712007
  0
LWPOLYLINE
  5
293
100
AcDbEntity
  8
0
100
AcDbPolyline
 62
7
  6
CONTINUOUS
 90
5
 70
0
 10
-10.8138138279
 20
24.3173092212
 10
-11.128330957
 20
24.1670572416
 10
-11.4435975685
 20
24.0162637196
 10
-11.7596189417
 20
23.8649225101
 10
-12.0763975134
 20
23.7130329041
  0
LWPOLYLINE
  5
294
100
AcDbEntity
  8
ASSI
100
AcDbPolyline
 62
7
  6
CONTINUOUS
 90
5
 70
0
 10
-10.8138138279
 20
24.3173092212
 10
-11.128330957
 20
24.1670572416
 10
-11.4435975685
 20
24.0162637196
 10
-11.7596189417
 20
23.8649225101
 10
-12.0763975134
 20
23.7130329041
  0
LINE
  5
295
100
AcDbEntity
  8
0
100
AcDbLine
 62
7
  6
CONTINUOUS
 10
-10.500046738
 20
24.4670153108
 11
-10.8138138279
 21
24.3173092212
  0
LINE
  5
296
100
AcDbEntity
  8
ASSI
100
AcDbLine
 62
7
  6
CONTINUOUS
 10
-10.500046738
 20
24.4670153108
 11
-10.8138138279
 21
24.3173092212
  0
LWPOLYLINE
  5
297
100
AcDbEntity
  8
0
100
AcDbPolyline
 62
7
  6
CONTINUOUS
 90
4
 70
0
 10
-9.5632737963
 20
24.91275942
 10
-9.8747797317
 20
24.7647395671
 10
-10.1870354677
 20
24.6161603031
 10
-10.500046738
 20
24.4670153108
  0
LWPOLYLINE
  5
298
100
AcDbEntity
  8
ASSI
100
AcDbPolyline
 62
7
  6
CONTINUOUS
 90
4
 70
0
 10
-9.5632737963
 20
24.91275942
 10
-9.8747797317
 20
24.7647395671
 10
-10.1870354677
 20
24.6161603031
 10
-10.500046738
 20
24.4670153108
  0
LINE
  5
299
100
AcDbEntity
  8
0
100
AcDbLine
 62
7
  6
CONTINUOUS
 10
-9.2525147295
 20
25.0602209408
 11
-9.5632737963
 21
24.91275942
  0
LINE
  5
29A
100
AcDbEntity
  8
ASSI
100
AcDbLine
 62
7
  6
CONTINUOUS
 10
-9.2525147295
 20
25.0602209408
 11
-9.5632737963
 21
24.91275942
  0
LINE
  5
29B
100
AcDbEntity
  8
RACCORDO
100
AcDbLine
 62
7
  6
CONTINUOUS
 10
3.0624099043
 20
28.6439951546
 11
-3.2821073099
 21
25.713884515
  0
LINE
  5
29C
100
AcDbEntity
  8
ASSI
100
AcDbLine
 62
7
  6
CONTINUOUS
 10
3.0624099043
 20
28.6439951546
 11
-3.2821081308
 21
25.7138841311
  0
LINE
  5
29D
100
AcDbEntity
  8
RACCORDO
100
AcDbLine
 62
250
  6
CONTINUOUS
 10
3.2782196169
 20
28.6260983015
 11
-3.0654910145
 21
25.6963625086
  0
LINE
  5
29E
100
AcDbEntity
  8
ASSI
100
AcDbLine
 62
250
  6
CONTINUOUS
 10
3.2782196169
 20
28.6260983015
 11
-3.0654910145
 21
25.6963625086
  0
LWPOLYLINE
  5
29F
100
AcDbEntity
  8
RACCORDO
100
AcDbPolyline
 62
7
  6
CONTINUOUS
 90
4
 70
0
 10
-3.2821072131
 20
25.7138842978
 10
-3.2925832193
 20
25.7092014705
 10
-3.3563179618
 20
25.6853379524
 10
-3.43875579
 20
25.6628265699
  0
LWPOLYLINE
  5
2A0
100
AcDbEntity
  8
ASSI
100
AcDbPolyline
 62
7
  6
CONTINUOUS
 90
4
 70
0
 10
-3.282108034
 20
25.7138839139
 10
-3.2925410027
 20
25.7092198165
 10
-3.356271524
 20
25.6853529652
 10
-3.4387124805
 20
25.6628364589
  0
LINE
  5
2A1
100
AcDbEntity
  8
RACCORDO
100
AcDbLine
 62
250
  6
CONTINUOUS
 10
-3.118749394
 20
25.673641433
 11
-3.0654910145
 21
25.6963625086
  0
LINE
  5
2A2
100
AcDbEntity
  8
ASSI
100
AcDbLine
 62
250
  6
CONTINUOUS
 10
-3.118749394
 20
25.673641433
 11
-3.0654910145
 21
25.6963625086
  0
LWPOLYLINE
  5
2A3
100
AcDbEntity
  8
RACCORDO
100
AcDbPolyline
 62
250
  6
CONTINUOUS
 90
7
 70
0
 10
3.0624101072
 20
28.6439952483
 10
3.0796185789
 20
28.6509262634
 10
3.1136414833
 20
28.6593056225
 10
3.1508956912
 20
28.6616107865
 10
3.1910843702
 20
28.6571997944
 10
3.2337194777
 20
28.6455112885
 10
3.2782196169
 20
28.6260983015
  0
LWPOLYLINE
  5
2A4
100
AcDbEntity
  8
ASSI
100
AcDbPolyline
 62
250
  6
CONTINUOUS
 90
7
 70
0
 10
3.0624101072
 20
28.6439952483
 10
3.0796185789
 20
28.6509262634
 10
3.1136414833
 20
28.6593056225
 10
3.1508956912
 20
28.6616107865
 10
3.1910843702
 20
28.6571997944
 10
3.2337194777
 20
28.6455112885
 10
3.2782196169
 20
28.6260983015
  0
LINE
  5
2A5
100
AcDbEntity
  8
0
100
AcDbLine
 62
7
  6
CONTINUOUS
 10
-10.0221220939
 20
20.1184121316
 11
-10.1032449786
 21
20.0865431112
  0
LWPOLYLINE
  5
2A6
100
AcDbEntity
  8
RACCORDO
100
AcDbPolyline
 62
250
  6
CONTINUOUS
 90
5
 70
0
 10
-4.4672561662
 20
25.717331728
 10
-4.4066385016
 20
25.739910271
 10
-4.348005427
 20
25.7488613339
 10
-4.293099207
 20
25.7439189406
 10
-4.2498197259
 20
25.7285133928
  0
LWPOLYLINE
  5
2A7
100
AcDbEntity
  8
ASSI
100
AcDbPolyline
 62
250
  6
CONTINUOUS
 90
5
 70
0
 10
-4.4672561662
 20
25.717331728
 10
-4.4066385016
 20
25.739910271
 10
-4.348005427
 20
25.7488613339
 10
-4.293099207
 20
25.7439189406
 10
-4.2498197259
 20
25.7285133928
  0
LINE
  5
2A8
100
AcDbEntity
  8
RACCORDO
100
AcDbLine
 62
7
  6
CONTINUOUS
 10
3.0624099242
 20
28.6439951638
 11
3.1378843188
 21
28.6717206137
  0
LINE
  5
2A9
100
AcDbEntity
  8
ASSI
100
AcDbLine
 62
7
  6
CONTINUOUS
 10
3.0624099242
 20
28.6439951638
 11
3.1378843188
 21
28.6717206137
  0
LWPOLYLINE
  5
2AA
100
AcDbEntity
  8
RACCORDO
100
AcDbPolyline
 62
250
  6
CONTINUOUS
 90
5
 70
0
 10
-3.281300727
 20
25.7142593617
 10
-3.2399526573
 20
25.7278026547
 10
-3.1846353571
 20
25.7315269977
 10
-3.1258866892
 20
25.7209397677
 10
-3.0654910144
 20
25.6963625086
  0
LWPOLYLINE
  5
2AB
100
AcDbEntity
  8
ASSI
100
AcDbPolyline
 62
250
  6
CONTINUOUS
 90
5
 70
0
 10
-3.281300727
 20
25.7142593617
 10
-3.2399526573
 20
25.7278026547
 10
-3.1846353571
 20
25.7315269977
 10
-3.1258866892
 20
25.7209397677
 10
-3.0654910144
 20
25.6963625086
  0
LWPOLYLINE
  5
2AC
100
AcDbEntity
  8
RACCORDO
100
AcDbPolyline
 62
7
  6
CONTINUOUS
 90
11
 70
0
 10
-0.9245683941
 20
-28.8548324539
 10
-0.9086662857
 20
-28.8626402658
 10
-0.8210060555
 20
-28.9000944335
 10
-0.7300342196
 20
-28.9297503052
 10
-0.6362759855
 20
-28.9513634697
 10
-0.5398493769
 20
-28.9647597184
 10
-0.441399474
 20
-28.9696756495
 10
-0.3416919006
 20
-28.9659263507
 10
-0.2408797942
 20
-28.9533203846
 10
-0.1393992166
 20
-28.9316510472
 10
-0.0318221897
 20
-28.8986720875
  0
LINE
  5
2AD
100
AcDbEntity
  8
RACCORDO
100
AcDbLine
 62
7
  6
CONTINUOUS
 10
-0.9234876707
 20
-28.8553842372
 11
-30.966042538
 21
-13.8341068036
  0
LINE
  5
2AE
100
AcDbEntity
  8
RACCORDO
100
AcDbLine
 62
250
  6
CONTINUOUS
 10
-1.3168871104
 20
-28.0169274553
 11
-31.3519245094
 21
-12.9994087558
  0
LINE
  5
2AF
100
AcDbEntity
  8
0
100
AcDbLine
 62
7
  6
CONTINUOUS
 10
-17.6811004741
 20
25.7799232288
 11
-17.6811004741
 21
25.9265662978
  0
LINE
  5
2B0
100
AcDbEntity
  8
ASSI
100
AcDbLine
 62
7
  6
CONTINUOUS
 10
-17.6811004741
 20
25.7799232288
 11
-17.6811004741
 21
25.9265662978
  0
LINE
  5
2B1
100
AcDbEntity
  8
DRAFT
100
AcDbLine
 62
7
  6
CONTINUOUS
 10
5.2859530342
 20
26.7342961991
 11
4.1743303359
 21
26.1587366984
  0
LINE
  5
2B2
100
AcDbEntity
  8
ASSI
100
AcDbLine
 62
7
  6
CONTINUOUS
 10
5.2859530342
 20
26.7342961991
 11
4.1743303359
 21
26.1587366984
  0
LINE
  5
2B3
100
AcDbEntity
  8
DRAFT
100
AcDbLine
 62
7
  6
CONTINUOUS
 10
8.4679335495
 20
25.1433059415
 11
7.3563108513
 21
24.5677464407
  0
LINE
  5
2B4
100
AcDbEntity
  8
ASSI
100
AcDbLine
 62
7
  6
CONTINUOUS
 10
8.4679335495
 20
25.1433059415
 11
7.3563108513
 21
24.5677464407
  0
LINE
  5
2B5
100
AcDbEntity
  8
DRAFT
100
AcDbLine
 62
7
  6
CONTINUOUS
 10
4.1743303359
 20
26.1587366984
 11
-1.2474884441
 21
23.4234501059
  0
LINE
  5
2B6
100
AcDbEntity
  8
ASSI
100
AcDbLine
 62
7
  6
CONTINUOUS
 10
4.1743303359
 20
26.1587366984
 11
-1.2474884441
 21
23.4234501059
  0
LINE
  5
2B7
100
AcDbEntity
  8
DRAFT
100
AcDbLine
 62
7
  6
CONTINUOUS
 10
7.3563108513
 20
24.5677464407
 11
1.9344920734
 21
21.8324598494
  0
LINE
  5
2B8
100
AcDbEntity
  8
ASSI
100
AcDbLine
 62
7
  6
CONTINUOUS
 10
7.3563108513
 20
24.5677464407
 11
1.9344920734
 21
21.8324598494
  0
LINE
  5
2B9
100
AcDbEntity
  8
RACCORDO
100
AcDbLine
 62
7
  6
CONTINUOUS
 10
7.8563104706
 20
26.3370528746
 11
0.6107898482
 21
22.777415796
  0
LINE
  5
2BA
100
AcDbEntity
  8
ASSI
100
AcDbLine
 62
7
  6
CONTINUOUS
 10
7.8563104706
 20
26.3370528746
 11
0.6107898482
 21
22.777415796
  0
LINE
  5
2BB
100
AcDbEntity
  8
0
100
AcDbLine
 62
7
  6
CONTINUOUS
 10
-1.5158053671
 20
19.3607944467
 11
-2.1501995678
 21
19.0602128231
  0
LINE
  5
2BC
100
AcDbEntity
  8
ASSI
100
AcDbLine
 62
7
  6
CONTINUOUS
 10
-1.5158053671
 20
19.3607944467
 11
-2.1501995678
 21
19.0602128231
  0
LINE
  5
2BD
100
AcDbEntity
  8
0
100
AcDbLine
 62
7
  6
CONTINUOUS
 10
0.3641374777
 20
20.2518948373
 11
-1.5158053671
 21
19.3607944467
  0
LINE
  5
2BE
100
AcDbEntity
  8
ASSI
100
AcDbLine
 62
7
  6
CONTINUOUS
 10
0.3641374777
 20
20.2518948373
 11
-1.5158053671
 21
19.3607944467
  0
LINE
  5
2BF
100
AcDbEntity
  8
0
100
AcDbLine
 62
250
  6
CONTINUOUS
 10
-2.3069885513
 20
18.9612209707
 11
0.5358746058
 21
20.3073762433
  0
LINE
  5
2C0
100
AcDbEntity
  8
ASSI
100
AcDbLine
 62
250
  6
CONTINUOUS
 10
-2.3069885513
 20
18.9612209707
 11
0.5358746058
 21
20.3073762433
  0
LINE
  5
2C1
100
AcDbEntity
  8
0
100
AcDbLine
 62
250
  6
CONTINUOUS
 10
-1.9161811052
 20
18.9101320171
 11
0.9271422165
 21
20.2564313624
  0
LINE
  5
2C2
100
AcDbEntity
  8
ASSI
100
AcDbLine
 62
250
  6
CONTINUOUS
 10
-1.9161811052
 20
18.9101320171
 11
0.9271422165
 21
20.2564313624
  0
LINE
  5
2C3
100
AcDbEntity
  8
0
100
AcDbLine
 62
7
  6
CONTINUOUS
 10
-2.6667632227
 20
18.874811935
 11
-2.9898555285
 21
18.7222502646
  0
LINE
  5
2C4
100
AcDbEntity
  8
ASSI
100
AcDbLine
 62
7
  6
CONTINUOUS
 10
-2.6667632227
 20
18.874811935
 11
-2.9898555285
 21
18.7222502646
  0
LINE
  5
2C5
100
AcDbEntity
  8
0
100
AcDbLine
 62
7
  6
CONTINUOUS
 10
-0.1097790813
 20
20.0818005031
 11
-0.7443944897
 21
19.782290415
  0
LINE
  5
2C6
100
AcDbEntity
  8
ASSI
100
AcDbLine
 62
7
  6
CONTINUOUS
 10
-0.1097790813
 20
20.0818005031
 11
-0.7443944897
 21
19.782290415
  0
LINE
  5
2C7
100
AcDbEntity
  8
0
100
AcDbLine
 62
7
  6
CONTINUOUS
 10
-0.7443944897
 20
19.782290415
 11
-2.6667632227
 21
18.874811935
  0
LINE
  5
2C8
100
AcDbEntity
  8
ASSI
100
AcDbLine
 62
7
  6
CONTINUOUS
 10
-0.7443944897
 20
19.782290415
 11
-2.6667632227
 21
18.874811935
  0
LINE
  5
2C9
100
AcDbEntity
  8
RACCORDO
100
AcDbLine
 62
7
  6
CONTINUOUS
 10
6.5314660936
 20
26.9994750631
 11
-0.9016070598
 21
23.53361425
  0
LINE
  5
2CA
100
AcDbEntity
  8
ASSI
100
AcDbLine
 62
7
  6
CONTINUOUS
 10
6.5314660936
 20
26.9994750631
 11
-0.9016070598
 21
23.53361425
  0
LINE
  5
2CB
100
AcDbEntity
  8
RACCORDO
100
AcDbLine
 62
7
  6
CONTINUOUS
 10
9.7134466089
 20
25.4084848054
 11
2.2803734556
 21
21.9426239923
  0
LINE
  5
2CC
100
AcDbEntity
  8
ASSI
100
AcDbLine
 62
7
  6
CONTINUOUS
 10
9.7134466089
 20
25.4084848054
 11
2.2803734556
 21
21.9426239923
  0
LINE
  5
2CD
100
AcDbEntity
  8
0
100
AcDbLine
 62
7
  6
CONTINUOUS
 10
0.1783818951
 20
19.5223642944
 11
-0.187517852
 21
19.3517607774
  0
LWPOLYLINE
  5
2CE
100
AcDbEntity
  8
0
100
AcDbPolyline
 62
7
  6
CONTINUOUS
 90
3
 70
0
 10
-3.2418750057
 20
18.6203510232
 10
-3.1325211302
 20
18.665613018
 10
-2.9898555285
 20
18.7222502646
  0
LWPOLYLINE
  5
2CF
100
AcDbEntity
  8
ASSI
100
AcDbPolyline
 62
7
  6
CONTINUOUS
 90
3
 70
0
 10
-3.2418750057
 20
18.6203510232
 10
-3.1325211302
 20
18.665613018
 10
-2.9898555285
 20
18.7222502646
  0
LINE
  5
2D0
100
AcDbEntity
  8
0
100
AcDbLine
 62
7
  6
CONTINUOUS
 10
-5.7794814068
 20
17.997091788
 11
-5.8606042915
 21
17.9652227676
  0
LINE
  5
2D1
100
AcDbEntity
  8
0
100
AcDbLine
 62
7
  6
CONTINUOUS
 10
2.9115079704
 20
19.7188044119
 11
2.4501024907
 21
19.5609551689
  0
LINE
  5
2D2
100
AcDbEntity
  8
ASSI
100
AcDbLine
 62
7
  6
CONTINUOUS
 10
2.9115079704
 20
19.7188044119
 11
2.4501024907
 21
19.5609551689
  0
LWPOLYLINE
  5
2D3
100
AcDbEntity
  8
0
100
AcDbPolyline
 62
7
  6
CONTINUOUS
 90
6
 70
0
 10
0.3641374777
 20
20.2518948373
 10
0.392676502
 20
20.2613368
 10
0.4212490585
 20
20.2707007381
 10
0.4498551472
 20
20.2799866515
 10
0.478494768
 20
20.2891945401
 10
0.507167921
 20
20.2983244042
  0
LWPOLYLINE
  5
2D4
100
AcDbEntity
  8
ASSI
100
AcDbPolyline
 62
7
  6
CONTINUOUS
 90
6
 70
0
 10
0.3641374777
 20
20.2518948373
 10
0.392676502
 20
20.2613368
 10
0.4212490585
 20
20.2707007381
 10
0.4498551472
 20
20.2799866515
 10
0.478494768
 20
20.2891945401
 10
0.507167921
 20
20.2983244042
  0
LWPOLYLINE
  5
2D5
100
AcDbEntity
  8
0
100
AcDbPolyline
 62
7
  6
CONTINUOUS
 90
6
 70
0
 10
-2.4688339879
 20
18.9092511414
 10
-2.4419337661
 20
18.9180853757
 10
-2.4150039372
 20
18.9268505716
 10
-2.3880445014
 20
18.935546729
 10
-2.3610554586
 20
18.944173848
 10
-2.3340368087
 20
18.9527319285
  0
LWPOLYLINE
  5
2D6
100
AcDbEntity
  8
ASSI
100
AcDbPolyline
 62
7
  6
CONTINUOUS
 90
6
 70
0
 10
-2.4688339879
 20
18.9092511414
 10
-2.4419337661
 20
18.9180853757
 10
-2.4150039372
 20
18.9268505716
 10
-2.3880445014
 20
18.935546729
 10
-2.3610554586
 20
18.944173848
 10
-2.3340368087
 20
18.9527319285
  0
LINE
  5
2D7
100
AcDbEntity
  8
0
100
AcDbLine
 62
7
  6
CONTINUOUS
 10
0.507167921
 20
20.2983244042
 11
0.5358746062
 21
20.3073762435
  0
LINE
  5
2D8
100
AcDbEntity
  8
ASSI
100
AcDbLine
 62
7
  6
CONTINUOUS
 10
0.507167921
 20
20.2983244042
 11
0.5358746062
 21
20.3073762435
  0
LINE
  5
2D9
100
AcDbEntity
  8
0
100
AcDbLine
 62
7
  6
CONTINUOUS
 10
-2.3340368087
 20
18.9527319285
 11
-2.3069885518
 21
18.9612209705
  0
LINE
  5
2DA
100
AcDbEntity
  8
ASSI
100
AcDbLine
 62
7
  6
CONTINUOUS
 10
-2.3340368087
 20
18.9527319285
 11
-2.3069885518
 21
18.9612209705
  0
LINE
  5
2DB
100
AcDbEntity
  8
0
100
AcDbLine
 62
7
  6
CONTINUOUS
 10
4.4740274558
 20
-25.3589789231
 11
6.7743931301
 21
-26.5091617602
  0
LINE
  5
2DC
100
AcDbEntity
  8
0
100
AcDbLine
 62
7
  6
CONTINUOUS
 10
7.1256699859
 20
-26.2977242512
 11
4.4998344143
 21
-24.9848064654
  0
LINE
  5
2DD
100
AcDbEntity
  8
0
100
AcDbLine
 62
7
  6
CONTINUOUS
 10
7.7032368968
 20
-25.9357546426
 11
4.5432211396
 21
-24.355746764
  0
LINE
  5
2DE
100
AcDbEntity
  8
DRAFT
100
AcDbLine
 62
7
  6
CONTINUOUS
 10
7.7032368968
 20
-24.7327293699
 11
4.6234287173
 21
-23.1928252802
  0
LINE
  5
2DF
100
AcDbEntity
  8
RACCORDO
100
AcDbLine
 62
7
  6
CONTINUOUS
 10
-14.8033029703
 20
27.0132067271
 11
-14.8033029703
 21
27.168636291
  0
LINE
  5
2E0
100
AcDbEntity
  8
0
100
AcDbLine
 62
7
  6
CONTINUOUS
 10
-14.8033029703
 20
27.168636291
 11
-14.8033029703
 21
28.1216539557
  0
LINE
  5
2E1
100
AcDbEntity
  8
ASSI
100
AcDbLine
 62
7
  6
CONTINUOUS
 10
-14.8033029703
 20
27.0132067271
 11
-14.8033029703
 21
28.1216539557
  0
LINE
  5
2E2
100
AcDbEntity
  8
0
100
AcDbLine
 62
7
  6
CONTINUOUS
 10
-13.459800086
 20
27.5159064572
 11
-13.459800086
 21
26.625694606
  0
LINE
  5
2E3
100
AcDbEntity
  8
ASSI
100
AcDbLine
 62
7
  6
CONTINUOUS
 10
-13.459800086
 20
27.5159064572
 11
-13.459800086
 21
26.625694606
  0
LWPOLYLINE
  5
2E4
100
AcDbEntity
  8
0
100
AcDbPolyline
 62
7
  6
CONTINUOUS
 90
19
 70
0
 10
-12.0763975134
 20
23.7130329041
 10
-12.0805423234
 20
23.6601663563
 10
-12.0794009025
 20
23.6060562933
 10
-12.0729732507
 20
23.5507027152
 10
-12.0610001436
 20
23.493222481
 10
-12.0437408057
 20
23.4344987316
 10
-12.0219729097
 20
23.37718089
 10
-11.9954878892
 20
23.3213297963
 10
-11.9644943108
 20
23.2668846104
 10
-11.930395547
 20
23.2163122345
 10
-11.8930501779
 20
23.1697929406
 10
-11.8525996234
 20
23.1271464566
 10
-11.8108715163
 20
23.0902988684
 10
-11.7678066809
 20
23.0595156059
 10
-11.7234642929
 20
23.0345312392
 10
-11.6798495121
 20
23.0164755643
 10
-11.6376307252
 20
23.00572518
 10
-11.5961395454
 20
23.0019034875
 10
-11.5553759728
 20
23.0050104868
  0
LWPOLYLINE
  5
2E5
100
AcDbEntity
  8
ASSI
100
AcDbPolyline
 62
7
  6
CONTINUOUS
 90
19
 70
0
 10
-12.0763975134
 20
23.7130329041
 10
-12.0805423234
 20
23.6601663563
 10
-12.0794009025
 20
23.6060562933
 10
-12.0729732507
 20
23.5507027152
 10
-12.0610001436
 20
23.493222481
 10
-12.0437408057
 20
23.4344987316
 10
-12.0219729097
 20
23.37718089
 10
-11.9954878892
 20
23.3213297963
 10
-11.9644943108
 20
23.2668846104
 10
-11.930395547
 20
23.2163122345
 10
-11.8930501779
 20
23.1697929406
 10
-11.8525996234
 20
23.1271464566
 10
-11.8108715163
 20
23.0902988684
 10
-11.7678066809
 20
23.0595156059
 10
-11.7234642929
 20
23.0345312392
 10
-11.6798495121
 20
23.0164755643
 10
-11.6376307252
 20
23.00572518
 10
-11.5961395454
 20
23.0019034875
 10
-11.5553759728
 20
23.0050104868
  0
LINE
  5
2E6
100
AcDbEntity
  8
DRAFT
100
AcDbLine
 62
7
  6
CONTINUOUS
 10
-10.1032449786
 20
20.0865431112
 11
-10.1414487229
 21
19.9388872104
  0
LWPOLYLINE
  5
2E7
100
AcDbEntity
  8
0
100
AcDbPolyline
 62
7
  6
CONTINUOUS
 90
10
 70
0
 10
-2.5942772393
 20
18.567420772
 10
-2.5807371904
 20
18.5750060502
 10
-2.549743612
 20
18.5984576577
 10
-2.5232585916
 20
18.6278237309
 10
-2.5014906956
 20
18.6633736766
 10
-2.4842313576
 20
18.704838088
 10
-2.4722582505
 20
18.7503452151
 10
-2.4658305987
 20
18.7992711414
 10
-2.4646891778
 20
18.8522397835
 10
-2.4688339879
 20
18.9092511414
  0
LWPOLYLINE
  5
2E8
100
AcDbEntity
  8
ASSI
100
AcDbPolyline
 62
7
  6
CONTINUOUS
 90
10
 70
0
 10
-2.5942772393
 20
18.567420772
 10
-2.5807371904
 20
18.5750060502
 10
-2.549743612
 20
18.5984576577
 10
-2.5232585916
 20
18.6278237309
 10
-2.5014906956
 20
18.6633736766
 10
-2.4842313576
 20
18.704838088
 10
-2.4722582505
 20
18.7503452151
 10
-2.4658305987
 20
18.7992711414
 10
-2.4646891778
 20
18.8522397835
 10
-2.4688339879
 20
18.9092511414
  0
LINE
  5
2E9
100
AcDbEntity
  8
DRAFT
100
AcDbLine
 62
7
  6
CONTINUOUS
 10
-0.642408506
 20
15.4285553376
 11
-0.8599392345
 21
15.3075032462
  0
LINE
  5
2EA
100
AcDbEntity
  8
RACCORDO
100
AcDbLine
 62
250
  6
CONTINUOUS
 10
-0.8591374315
 20
15.3079467865
 11
-0.8599415575
 21
15.3075019535
  0
LINE
  5
2EB
100
AcDbEntity
  8
0
100
AcDbLine
 62
7
  6
CONTINUOUS
 10
-1.5668958916
 20
17.8694640065
 11
-1.6511168402
 21
17.8249719404
  0
LINE
  5
2EC
100
AcDbEntity
  8
DRAFT
100
AcDbLine
 62
7
  6
CONTINUOUS
 10
11.6499140649
 20
23.5523156838
 11
10.5382913666
 21
22.976756183
  0
LINE
  5
2ED
100
AcDbEntity
  8
ASSI
100
AcDbLine
 62
7
  6
CONTINUOUS
 10
11.6499140649
 20
23.5523156838
 11
10.5382913666
 21
22.976756183
  0
LINE
  5
2EE
100
AcDbEntity
  8
DRAFT
100
AcDbLine
 62
7
  6
CONTINUOUS
 10
10.5382913666
 20
22.976756183
 11
5.1164725888
 21
20.2414695917
  0
LINE
  5
2EF
100
AcDbEntity
  8
ASSI
100
AcDbLine
 62
7
  6
CONTINUOUS
 10
10.5382913666
 20
22.976756183
 11
5.1164725888
 21
20.2414695917
  0
LINE
  5
2F0
100
AcDbEntity
  8
0
100
AcDbLine
 62
7
  6
CONTINUOUS
 10
1.1065996064
 20
20.1667026674
 11
-0.352405185
 21
19.4430255349
  0
LINE
  5
2F1
100
AcDbEntity
  8
ASSI
100
AcDbLine
 62
7
  6
CONTINUOUS
 10
1.1065996064
 20
20.1667026674
 11
-0.352405185
 21
19.4430255349
  0
LINE
  5
2F2
100
AcDbEntity
  8
RACCORDO
100
AcDbLine
 62
7
  6
CONTINUOUS
 10
11.038290986
 20
24.7460626169
 11
3.7927703636
 21
21.1864255383
  0
LINE
  5
2F3
100
AcDbEntity
  8
ASSI
100
AcDbLine
 62
7
  6
CONTINUOUS
 10
11.038290986
 20
24.7460626169
 11
3.7927703636
 21
21.1864255383
  0
LINE
  5
2F4
100
AcDbEntity
  8
0
100
AcDbLine
 62
250
  6
CONTINUOUS
 10
6.0943831084
 20
17.6728109164
 11
3.2808521806
 21
16.3116153742
  0
LINE
  5
2F5
100
AcDbEntity
  8
ASSI
100
AcDbLine
 62
250
  6
CONTINUOUS
 10
6.0943831084
 20
17.6728109164
 11
3.2808521806
 21
16.3116153742
  0
LINE
  5
2F6
100
AcDbEntity
  8
RACCORDO
100
AcDbLine
 62
7
  6
CONTINUOUS
 10
12.8954271243
 20
23.8174945478
 11
5.4623539709
 21
20.3516337346
  0
LINE
  5
2F7
100
AcDbEntity
  8
ASSI
100
AcDbLine
 62
7
  6
CONTINUOUS
 10
12.8954271243
 20
23.8174945478
 11
5.4623539709
 21
20.3516337346
  0
LINE
  5
2F8
100
AcDbEntity
  8
0
100
AcDbLine
 62
7
  6
CONTINUOUS
 10
5.9149257185
 20
17.7625396114
 11
4.404082029
 21
17.0647819279
  0
LINE
  5
2F9
100
AcDbEntity
  8
ASSI
100
AcDbLine
 62
7
  6
CONTINUOUS
 10
5.9149257185
 20
17.7625396114
 11
4.404082029
 21
17.0647819279
  0
LINE
  5
2FA
100
AcDbEntity
  8
0
100
AcDbLine
 62
7
  6
CONTINUOUS
 10
0.9188118848
 20
19.1354343522
 11
1.1065996064
 21
19.2136850027
  0
LINE
  5
2FB
100
AcDbEntity
  8
ASSI
100
AcDbLine
 62
7
  6
CONTINUOUS
 10
0.9188118848
 20
19.1354343522
 11
1.1065996064
 21
19.2136850027
  0
LINE
  5
2FC
100
AcDbEntity
  8
RACCORDO
100
AcDbLine
 62
250
  6
CONTINUOUS
 10
-0.811333741
 20
15.3260965506
 11
-0.8591374315
 21
15.3079467865
  0
LINE
  5
2FD
100
AcDbEntity
  8
DRAFT
100
AcDbLine
 62
7
  6
CONTINUOUS
 10
15.0891132244
 20
18.9865710911
 11
14.7500052994
 21
18.8785289538
  0
LINE
  5
2FE
100
AcDbEntity
  8
ASSI
100
AcDbLine
 62
7
  6
CONTINUOUS
 10
15.0891132244
 20
18.9865710911
 11
14.7500052994
 21
18.8785289538
  0
LINE
  5
2FF
100
AcDbEntity
  8
DRAFT
100
AcDbLine
 62
7
  6
CONTINUOUS
 10
15.0603747312
 20
18.6273598515
 11
14.757579737
 21
18.5322802406
  0
LINE
  5
300
100
AcDbEntity
  8
ASSI
100
AcDbLine
 62
7
  6
CONTINUOUS
 10
15.0603747312
 20
18.6273598515
 11
14.757579737
 21
18.5322802406
  0
LWPOLYLINE
  5
301
100
AcDbEntity
  8
DRAFT
100
AcDbPolyline
 62
7
  6
CONTINUOUS
 90
4
 70
0
 10
-15.5457650905
 20
22.6247298225
 10
-15.5570438202
 20
22.7278422952
 10
-15.580244905
 20
22.8254392717
 10
-15.6141968551
 20
22.9144495122
  0
LINE
  5
302
100
AcDbEntity
  8
0
100
AcDbLine
 62
7
  6
CONTINUOUS
 10
-12.7740336038
 20
23.4730328626
 11
-12.7740336038
 21
23.3864303222
  0
LINE
  5
303
100
AcDbEntity
  8
ASSI
100
AcDbLine
 62
7
  6
CONTINUOUS
 10
-12.7740336038
 20
23.4730328626
 11
-12.7740336038
 21
23.3864303222
  0
LINE
  5
304
100
AcDbEntity
  8
DRAFT
100
AcDbLine
 62
7
  6
CONTINUOUS
 10
-10.6108287359
 20
20.1735772169
 11
-10.6108287359
 21
20.4127654526
  0
LINE
  5
305
100
AcDbEntity
  8
RACCORDO
100
AcDbLine
 62
250
  6
CONTINUOUS
 10
-9.7950787747
 20
28.6282096367
 11
-9.7950787747
 21
28.5631175268
  0
LINE
  5
306
100
AcDbEntity
  8
ASSI
100
AcDbLine
 62
250
  6
CONTINUOUS
 10
-9.7950787747
 20
28.6282096367
 11
-9.7950787747
 21
28.5631175268
  0
LINE
  5
307
100
AcDbEntity
  8
0
100
AcDbLine
 62
7
  6
CONTINUOUS
 10
-9.0757380426
 20
25.3238754355
 11
-9.0757380426
 21
24.597410843
  0
LINE
  5
308
100
AcDbEntity
  8
ASSI
100
AcDbLine
 62
7
  6
CONTINUOUS
 10
-9.0757380426
 20
25.3238754355
 11
-9.0757380426
 21
24.597410843
  0
LINE
  5
309
100
AcDbEntity
  8
DRAFT
100
AcDbLine
 62
7
  6
CONTINUOUS
 10
-5.8606042915
 20
17.9652227676
 11
-5.8988080358
 21
17.8175668668
  0
LINE
  5
30A
100
AcDbEntity
  8
0
100
AcDbLine
 62
7
  6
CONTINUOUS
 10
7.1498630201
 20
17.599626887
 11
6.834164534
 21
17.3689241472
  0
LINE
  5
30B
100
AcDbEntity
  8
ASSI
100
AcDbLine
 62
7
  6
CONTINUOUS
 10
7.1498630201
 20
17.599626887
 11
6.834164534
 21
17.3689241472
  0
LINE
  5
30C
100
AcDbEntity
  8
RACCORDO
100
AcDbLine
 62
7
  6
CONTINUOUS
 10
6.9313241791
 20
16.5471571701
 11
8.1962781317
 21
17.4382639051
  0
LINE
  5
30D
100
AcDbEntity
  8
ASSI
100
AcDbLine
 62
7
  6
CONTINUOUS
 10
6.9313241791
 20
16.5471571701
 11
8.1962781317
 21
17.4382639051
  0
LINE
  5
30E
100
AcDbEntity
  8
0
100
AcDbLine
 62
7
  6
CONTINUOUS
 10
3.1156161966
 20
15.5516853735
 11
3.0157879156
 21
15.4915195625
  0
LINE
  5
30F
100
AcDbEntity
  8
SMUSSO
100
AcDbLine
 62
7
  6
CONTINUOUS
 10
13.5128416959
 20
18.8441861044
 11
13.730170187
 21
18.9658749643
  0
LINE
  5
310
100
AcDbEntity
  8
ASSI
100
AcDbLine
 62
7
  6
CONTINUOUS
 10
13.5128416959
 20
18.8441861044
 11
13.730170187
 21
18.9658749643
  0
LINE
  5
311
100
AcDbEntity
  8
0
100
AcDbLine
 62
7
  6
CONTINUOUS
 10
4.7218230863
 20
17.2506436988
 11
4.3806160522
 21
17.0676938253
  0
LINE
  5
312
100
AcDbEntity
  8
0
100
AcDbLine
 62
7
  6
CONTINUOUS
 10
13.2511248408
 20
17.4641244667
 11
14.0668586974
 21
17.8942770591
  0
LINE
  5
313
100
AcDbEntity
  8
DRAFT
100
AcDbLine
 62
7
  6
CONTINUOUS
 10
14.4342979885
 20
18.7434577308
 11
18.0015763182
 21
20.5929909081
  0
LINE
  5
314
100
AcDbEntity
  8
ASSI
100
AcDbLine
 62
7
  6
CONTINUOUS
 10
14.4342979885
 20
18.7434577308
 11
18.0015763182
 21
20.5929909081
  0
LWPOLYLINE
  5
315
100
AcDbEntity
  8
0
100
AcDbPolyline
 62
7
  6
CONTINUOUS
 90
10
 70
0
 10
7.1313044062
 20
16.4612587593
 10
6.8265901536
 20
16.305582868
 10
6.5209194541
 20
16.1496334431
 10
6.2142913527
 20
15.9934067189
 10
5.9066992974
 20
15.8368974903
 10
5.598148286
 20
15.6801032092
 10
5.2886546061
 20
15.5230248042
 10
4.9782230741
 20
15.3656608348
 10
4.6668472898
 20
15.2080066788
 10
4.3545266039
 20
15.0500591984
  0
LWPOLYLINE
  5
316
100
AcDbEntity
  8
ASSI
100
AcDbPolyline
 62
7
  6
CONTINUOUS
 90
10
 70
0
 10
7.1313044062
 20
16.4612587593
 10
6.8265901536
 20
16.305582868
 10
6.5209194541
 20
16.1496334431
 10
6.2142913527
 20
15.9934067189
 10
5.9066992974
 20
15.8368974903
 10
5.598148286
 20
15.6801032092
 10
5.2886546061
 20
15.5230248042
 10
4.9782230741
 20
15.3656608348
 10
4.6668472898
 20
15.2080066788
 10
4.3545266039
 20
15.0500591984
  0
LINE
  5
317
100
AcDbEntity
  8
DRAFT
100
AcDbLine
 62
7
  6
CONTINUOUS
 10
14.4582789676
 20
18.7848469116
 11
13.730170187
 21
18.4157779684
  0
LINE
  5
318
100
AcDbEntity
  8
ASSI
100
AcDbLine
 62
7
  6
CONTINUOUS
 10
14.4582789676
 20
18.7848469116
 11
13.730170187
 21
18.4157779684
  0
LINE
  5
319
100
AcDbEntity
  8
0
100
AcDbLine
 62
7
  6
CONTINUOUS
 10
14.1951461262
 20
17.6711853277
 11
14.690120873
 21
17.9186727011
  0
LINE
  5
31A
100
AcDbEntity
  8
RACCORDO
100
AcDbLine
 62
7
  6
CONTINUOUS
 10
17.1582987856
 20
18.0991725534
 11
15.8468344745
 21
17.4434403979
  0
LINE
  5
31B
100
AcDbEntity
  8
RACCORDO
100
AcDbLine
 62
7
  6
CONTINUOUS
 10
15.1456107326
 20
17.092828527
 11
14.8758993529
 21
16.9579728371
  0
LINE
  5
31C
100
AcDbEntity
  8
RACCORDO
100
AcDbLine
 62
7
  6
CONTINUOUS
 10
13.3058437269
 20
19.6978931361
 11
17.2359282022
 21
21.6472440088
  0
LINE
  5
31D
100
AcDbEntity
  8
ASSI
100
AcDbLine
 62
7
  6
CONTINUOUS
 10
13.3058437269
 20
19.6978931361
 11
17.2359282022
 21
21.6472440088
  0
LINE
  5
31E
100
AcDbEntity
  8
SMUSSO
100
AcDbLine
 62
7
  6
CONTINUOUS
 10
13.730170187
 20
18.9658749643
 11
18.0015763182
 21
21.0845238946
  0
LINE
  5
31F
100
AcDbEntity
  8
ASSI
100
AcDbLine
 62
7
  6
CONTINUOUS
 10
13.730170187
 20
18.9658749643
 11
18.0015763182
 21
21.0845238946
  0
LINE
  5
320
100
AcDbEntity
  8
RACCORDO
100
AcDbLine
 62
250
  6
CONTINUOUS
 10
8.4203218527
 20
14.7144319054
 11
11.0717536542
 21
16.0005261439
  0
LINE
  5
321
100
AcDbEntity
  8
ASSI
100
AcDbLine
 62
250
  6
CONTINUOUS
 10
8.4203218527
 20
14.7144319054
 11
11.0717536542
 21
16.0005261439
  0
LINE
  5
322
100
AcDbEntity
  8
RACCORDO
100
AcDbLine
 62
250
  6
CONTINUOUS
 10
8.6522775882
 20
14.4922146399
 11
11.3023868024
 21
15.7771753789
  0
LINE
  5
323
100
AcDbEntity
  8
ASSI
100
AcDbLine
 62
250
  6
CONTINUOUS
 10
8.6522775882
 20
14.4922146399
 11
11.3023868024
 21
15.7771753789
  0
LINE
  5
324
100
AcDbEntity
  8
0
100
AcDbLine
 62
250
  6
CONTINUOUS
 10
6.4856507193
 20
17.3324881865
 11
3.6716596268
 21
15.9718968816
  0
LINE
  5
325
100
AcDbEntity
  8
ASSI
100
AcDbLine
 62
250
  6
CONTINUOUS
 10
6.4856507193
 20
17.3324881865
 11
3.6716596268
 21
15.9718968816
  0
LWPOLYLINE
  5
326
100
AcDbEntity
  8
0
100
AcDbPolyline
 62
7
  6
CONTINUOUS
 90
5
 70
0
 10
5.0960887488
 20
16.3623579329
 10
4.7815716197
 20
16.2121059533
 10
4.4663050082
 20
16.0613124313
 10
4.150283635
 20
15.9099712217
 10
3.8335050633
 20
15.7580816158
  0
LWPOLYLINE
  5
327
100
AcDbEntity
  8
ASSI
100
AcDbPolyline
 62
7
  6
CONTINUOUS
 90
5
 70
0
 10
5.0960887488
 20
16.3623579329
 10
4.7815716197
 20
16.2121059533
 10
4.4663050082
 20
16.0613124313
 10
4.150283635
 20
15.9099712217
 10
3.8335050633
 20
15.7580816158
  0
LINE
  5
328
100
AcDbEntity
  8
0
100
AcDbLine
 62
7
  6
CONTINUOUS
 10
5.4098558387
 20
16.5120640224
 11
5.0960887488
 21
16.3623579329
  0
LINE
  5
329
100
AcDbEntity
  8
ASSI
100
AcDbLine
 62
7
  6
CONTINUOUS
 10
5.4098558387
 20
16.5120640224
 11
5.0960887488
 21
16.3623579329
  0
LWPOLYLINE
  5
32A
100
AcDbEntity
  8
0
100
AcDbPolyline
 62
7
  6
CONTINUOUS
 90
4
 70
0
 10
6.3466287804
 20
16.9578081316
 10
6.035122845
 20
16.8097882788
 10
5.722867109
 20
16.6612090148
 10
5.4098558387
 20
16.5120640224
  0
LWPOLYLINE
  5
32B
100
AcDbEntity
  8
ASSI
100
AcDbPolyline
 62
7
  6
CONTINUOUS
 90
4
 70
0
 10
6.3466287804
 20
16.9578081316
 10
6.035122845
 20
16.8097882788
 10
5.722867109
 20
16.6612090148
 10
5.4098558387
 20
16.5120640224
  0
LINE
  5
32C
100
AcDbEntity
  8
0
100
AcDbLine
 62
7
  6
CONTINUOUS
 10
6.6573878472
 20
17.1052696525
 11
6.3466287804
 21
16.9578081316
  0
LINE
  5
32D
100
AcDbEntity
  8
ASSI
100
AcDbLine
 62
7
  6
CONTINUOUS
 10
6.6573878472
 20
17.1052696525
 11
6.3466287804
 21
16.9578081316
  0
LWPOLYLINE
  5
32E
100
AcDbEntity
  8
RACCORDO
100
AcDbPolyline
 62
7
  6
CONTINUOUS
 90
10
 70
0
 10
18.0068005974
 20
17.6748953219
 10
18.0181970616
 20
17.6800639772
 10
18.0294174641
 20
17.6841158735
 10
18.0404618048
 20
17.6870510111
 10
18.0514250638
 20
17.6888695424
 10
18.0622122609
 20
17.6895713149
 10
18.0725384564
 20
17.6891558705
 10
18.0823086701
 20
17.6876230566
 10
18.0916178821
 20
17.6849730259
 10
18.1004660924
 20
17.6812057783
  0
LINE
  5
32F
100
AcDbEntity
  8
DRAFT
100
AcDbLine
 62
7
  6
CONTINUOUS
 10
14.7500052994
 20
18.8785289538
 11
14.4342979885
 21
18.7434577308
  0
LINE
  5
330
100
AcDbEntity
  8
ASSI
100
AcDbLine
 62
7
  6
CONTINUOUS
 10
14.7500052994
 20
18.8785289538
 11
14.4342979885
 21
18.7434577308
  0
LWPOLYLINE
  5
331
100
AcDbEntity
  8
RACCORDO
100
AcDbPolyline
 62
250
  6
CONTINUOUS
 90
9
 70
0
 10
11.0717536568
 20
16.0005261426
 10
11.101837606
 20
16.013351487
 10
11.1316647407
 20
16.0229169546
 10
11.161017974
 20
16.0291507945
 10
11.1896855293
 20
16.0320055034
 10
11.2174560374
 20
16.0314574433
 10
11.2441208166
 20
16.0275095857
 10
11.2694838927
 20
16.0201913418
 10
11.28917806
 20
16.0117138254
  0
LWPOLYLINE
  5
332
100
AcDbEntity
  8
ASSI
100
AcDbPolyline
 62
250
  6
CONTINUOUS
 90
9
 70
0
 10
11.0717536568
 20
16.0005261426
 10
11.101837606
 20
16.013351487
 10
11.1316647407
 20
16.0229169546
 10
11.161017974
 20
16.0291507945
 10
11.1896855293
 20
16.0320055034
 10
11.2174560374
 20
16.0314574433
 10
11.2441208166
 20
16.0275095857
 10
11.2694838927
 20
16.0201913418
 10
11.28917806
 20
16.0117138253
  0
LWPOLYLINE
  5
333
100
AcDbEntity
  8
SMUSSO
100
AcDbPolyline
 62
7
  6
CONTINUOUS
 90
8
 70
0
 10
18.0429961281
 20
17.3293169356
 10
17.7212133894
 20
17.1975018399
 10
17.3771029249
 20
17.0894805668
 10
17.0106647347
 20
17.0052531161
 10
16.6170987895
 20
16.9439058566
 10
16.2012051185
 20
16.9063524196
 10
15.7773838097
 20
16.8953336991
 10
15.3406736833
 20
16.911731263
  0
LWPOLYLINE
  5
334
100
AcDbEntity
  8
ASSI
100
AcDbPolyline
 62
7
  6
CONTINUOUS
 90
8
 70
0
 10
18.0429961281
 20
17.3293169356
 10
17.7212133894
 20
17.1975018399
 10
17.3771029249
 20
17.0894805668
 10
17.0106647347
 20
17.0052531161
 10
16.6170987895
 20
16.9439058566
 10
16.2012051185
 20
16.9063524196
 10
15.7773838097
 20
16.8953336991
 10
15.3406736833
 20
16.911731263
  0
LINE
  5
335
100
AcDbEntity
  8
DRAFT
100
AcDbLine
 62
7
  6
CONTINUOUS
 10
14.757579737
 20
18.5322802406
 11
14.4709177709
 21
18.4152720198
  0
LINE
  5
336
100
AcDbEntity
  8
ASSI
100
AcDbLine
 62
7
  6
CONTINUOUS
 10
14.757579737
 20
18.5322802406
 11
14.4709177709
 21
18.4152720198
  0
LWPOLYLINE
  5
337
100
AcDbEntity
  8
RACCORDO
100
AcDbPolyline
 62
250
  6
CONTINUOUS
 90
5
 70
0
 10
22.6736978901
 20
18.9283591649
 10
22.7338387307
 20
18.9508112211
 10
22.7921914202
 20
18.9598608224
 10
22.8470180324
 20
18.9551337937
 10
22.8907427165
 20
18.9397360657
  0
LWPOLYLINE
  5
338
100
AcDbEntity
  8
ASSI
100
AcDbPolyline
 62
250
  6
CONTINUOUS
 90
5
 70
0
 10
22.6736978901
 20
18.9283591649
 10
22.7338387307
 20
18.9508112211
 10
22.7921914202
 20
18.9598608224
 10
22.8470180324
 20
18.9551337937
 10
22.8907427164
 20
18.9397360658
  0
LINE
  5
339
100
AcDbEntity
  8
0
100
AcDbLine
 62
7
  6
CONTINUOUS
 10
7.3464458069
 20
11.6168095358
 11
7.7032368968
 21
11.736350422
  0
LWPOLYLINE
  5
33A
100
AcDbEntity
  8
RACCORDO
100
AcDbPolyline
 62
250
  6
CONTINUOUS
 90
4
 70
0
 10
17.675426906
 20
-5.4998351548
 10
17.6906668913
 20
-5.4964153232
 10
17.7089663823
 20
-5.4900753804
 10
17.727708367
 20
-5.4813191501
  0
LWPOLYLINE
  5
33B
100
AcDbEntity
  8
ASSI
100
AcDbPolyline
 62
250
  6
CONTINUOUS
 90
4
 70
0
 10
17.675426906
 20
-5.4998351548
 10
17.6906668913
 20
-5.4964153232
 10
17.7089663823
 20
-5.4900753804
 10
17.727708367
 20
-5.4813191501
  0
LINE
  5
33C
100
AcDbEntity
  8
DRAFT
100
AcDbLine
 62
7
  6
CONTINUOUS
 10
-5.6314590402
 20
17.683892369
 11
-5.6314590402
 21
17.9230806047
  0
LWPOLYLINE
  5
33D
100
AcDbEntity
  8
RACCORDO
100
AcDbPolyline
 62
250
  6
CONTINUOUS
 90
6
 70
0
 10
-3.5286985582
 20
29.6847638724
 10
-3.5302020761
 20
29.6654782101
 10
-3.544262646
 20
29.6229606543
 10
-3.5727180654
 20
29.5822821714
 10
-3.6147227808
 20
29.5446515088
 10
-3.6690286273
 20
29.5111868459
  0
LWPOLYLINE
  5
33E
100
AcDbEntity
  8
ASSI
100
AcDbPolyline
 62
250
  6
CONTINUOUS
 90
6
 70
0
 10
-3.5286985567
 20
29.6847660454
 10
-3.5302020761
 20
29.6654782101
 10
-3.544262646
 20
29.6229606543
 10
-3.5727180654
 20
29.5822821714
 10
-3.6147227808
 20
29.5446515088
 10
-3.6690286273
 20
29.5111868459
  0
LWPOLYLINE
  5
33F
100
AcDbEntity
  8
RACCORDO
100
AcDbPolyline
 62
250
  6
CONTINUOUS
 90
6
 70
0
 10
-3.5286985275
 20
31.8404402642
 10
-3.5306722521
 20
31.8182488866
 10
-3.5457703286
 20
31.77567076
 10
-3.5747704213
 20
31.7356198531
 10
-3.6163923439
 20
31.6990157164
 10
-3.6690286273
 20
31.6667756716
  0
LWPOLYLINE
  5
340
100
AcDbEntity
  8
ASSI
100
AcDbPolyline
 62
250
  6
CONTINUOUS
 90
6
 70
0
 10
-3.5286985275
 20
31.8404402642
 10
-3.5306722521
 20
31.8182488866
 10
-3.5457703286
 20
31.77567076
 10
-3.5747704213
 20
31.7356198531
 10
-3.6163923439
 20
31.6990157164
 10
-3.6690286273
 20
31.6667756716
  0
LWPOLYLINE
  5
341
100
AcDbEntity
  8
RACCORDO
100
AcDbPolyline
 62
250
  6
CONTINUOUS
 90
6
 70
0
 10
13.7297525656
 20
17.6723204647
 10
13.8006283975
 20
17.7280939323
 10
13.8771215353
 20
17.7819218678
 10
13.959112939
 20
17.8337230515
 10
14.046361536
 20
17.8833406908
 10
14.0668586974
 20
17.8942770591
  0
LINE
  5
342
100
AcDbEntity
  8
0
100
AcDbLine
 62
250
  6
CONTINUOUS
 10
6.7743931301
 20
12.1072304565
 11
8.213291882
 21
12.8927675793
  0
LINE
  5
343
100
AcDbEntity
  8
0
100
AcDbLine
 62
250
  6
CONTINUOUS
 10
7.3464458069
 20
11.6168095358
 11
8.566576148
 21
12.2829145527
  0
LWPOLYLINE
  5
344
100
AcDbEntity
  8
RACCORDO
100
AcDbPolyline
 62
250
  6
CONTINUOUS
 90
7
 70
0
 10
22.9298752233
 20
18.6656568671
 10
22.9855764923
 20
18.6937339811
 10
23.0319012732
 20
18.7147641747
 10
23.0677606804
 20
18.7287685944
 10
23.0917173815
 20
18.7365408108
 10
23.1029623761
 20
18.7375482501
 10
23.103655236
 20
18.7368525403
  0
LWPOLYLINE
  5
345
100
AcDbEntity
  8
ASSI
100
AcDbPolyline
 62
250
  6
CONTINUOUS
 90
7
 70
0
 10
22.9298752233
 20
18.6656568671
 10
22.9855764923
 20
18.6937339811
 10
23.0319012732
 20
18.7147641747
 10
23.0677606804
 20
18.7287685944
 10
23.0917173815
 20
18.7365408108
 10
23.1029623761
 20
18.7375482501
 10
23.103655236
 20
18.7368525403
  0
LWPOLYLINE
  5
346
100
AcDbEntity
  8
RACCORDO
100
AcDbPolyline
 62
250
  6
CONTINUOUS
 90
7
 70
0
 10
24.0345211169
 20
16.5618840871
 10
24.0902075782
 20
16.589833509
 10
24.1358492333
 20
16.6129341284
 10
24.1700898609
 20
16.6304995203
 10
24.1919120204
 20
16.6420077412
 10
24.2006672821
 20
16.6471168298
 10
24.2008287919
 20
16.647342933
  0
LWPOLYLINE
  5
347
100
AcDbEntity
  8
ASSI
100
AcDbPolyline
 62
250
  6
CONTINUOUS
 90
7
 70
0
 10
24.0345211169
 20
16.5618840871
 10
24.0902075782
 20
16.589833509
 10
24.1358492333
 20
16.6129341284
 10
24.1700898609
 20
16.6304995203
 10
24.1919120204
 20
16.6420077412
 10
24.2006672821
 20
16.6471168298
 10
24.2008287919
 20
16.647342933
  0
LINE
  5
348
100
AcDbEntity
  8
RACCORDO
100
AcDbLine
 62
7
  6
CONTINUOUS
 10
18.0068294933
 20
17.6749097699
 11
16.6953626119
 21
17.0191763292
  0
LINE
  5
349
100
AcDbEntity
  8
RACCORDO
100
AcDbLine
 62
250
  6
CONTINUOUS
 10
13.8259834704
 20
14.6284725214
 11
19.383140154
 21
17.329150337
  0
LINE
  5
34A
100
AcDbEntity
  8
ASSI
100
AcDbLine
 62
250
  6
CONTINUOUS
 10
13.8259834704
 20
14.6284725214
 11
19.383140154
 21
17.329150337
  0
LINE
  5
34B
100
AcDbEntity
  8
RACCORDO
100
AcDbLine
 62
250
  6
CONTINUOUS
 10
19.383140154
 20
17.329150337
 11
22.6736978901
 21
18.9283591649
  0
LINE
  5
34C
100
AcDbEntity
  8
ASSI
100
AcDbLine
 62
250
  6
CONTINUOUS
 10
19.383140154
 20
17.329150337
 11
22.6736978901
 21
18.9283591649
  0
LINE
  5
34D
100
AcDbEntity
  8
RACCORDO
100
AcDbLine
 62
250
  6
CONTINUOUS
 10
14.0813167758
 20
14.367276768
 11
22.9298752231
 21
18.6656568675
  0
LINE
  5
34E
100
AcDbEntity
  8
ASSI
100
AcDbLine
 62
250
  6
CONTINUOUS
 10
14.0813167758
 20
14.367276768
 11
22.9298752231
 21
18.6656568675
  0
LINE
  5
34F
100
AcDbEntity
  8
RACCORDO
100
AcDbLine
 62
7
  6
CONTINUOUS
 10
22.1127177379
 20
19.2088492409
 11
18.0429961281
 21
17.3293169356
  0
LINE
  5
350
100
AcDbEntity
  8
ASSI
100
AcDbLine
 62
7
  6
CONTINUOUS
 10
22.1127177379
 20
19.2088492409
 11
18.0429961281
 21
17.3293169356
  0
LWPOLYLINE
  5
351
100
AcDbEntity
  8
RACCORDO
100
AcDbPolyline
 62
250
  6
CONTINUOUS
 90
22
 70
0
 10
2.3219895951
 20
10.0054175349
 10
2.2464013509
 20
9.9714023779
 10
2.1708299216
 20
9.9308877321
 10
2.0956502776
 20
9.8840782927
 10
2.0212341679
 20
9.8312127902
 10
1.9479519787
 20
9.7725552326
 10
1.8761711656
 20
9.7083923658
 10
1.8062437178
 20
9.6390410311
 10
1.7385215934
 20
9.5648531552
 10
1.6733578283
 20
9.4862077103
 10
1.611082391
 20
9.4035099053
 10
1.5519954265
 20
9.3171671167
 10
1.4963847107
 20
9.2275913425
 10
1.444521757
 20
9.1352190525
 10
1.3966717583
 20
9.0405232763
 10
1.3530854531
 20
8.9439907984
 10
1.313982349
 20
8.8461135095
 10
1.2795514352
 20
8.7473740141
 10
1.249963758
 20
8.6482557508
 10
1.2253673262
 20
8.54925121
 10
1.2058848888
 20
8.4508596409
 10
1.1916139614
 20
8.3535735609
  0
LWPOLYLINE
  5
352
100
AcDbEntity
  8
RACCORDO
100
AcDbPolyline
 62
250
  6
CONTINUOUS
 90
22
 70
0
 10
2.8382936391
 20
9.0078914744
 10
2.8025866703
 20
8.9921120915
 10
2.7671848963
 20
8.9734835007
 10
2.7320883172
 20
8.9520057021
 10
2.6971083925
 20
8.9275373704
 10
2.6624336626
 20
8.9002198308
 10
2.6286297483
 20
8.8704770592
 10
2.5957244256
 20
8.8382779201
 10
2.5636899184
 20
8.803653549
 10
2.5330085204
 20
8.7671213274
 10
2.5037023726
 20
8.7286544405
 10
2.475749334
 20
8.6882797032
 10
2.4495652746
 20
8.6465949419
 10
2.425174089
 20
8.6035739081
 10
2.4025518827
 20
8.5592428504
 10
2.382042842
 20
8.5142783405
 10
2.3636796698
 20
8.468655997
 10
2.3474296633
 20
8.4224002015
 10
2.3335388995
 20
8.376260671
 10
2.3220894043
 20
8.3304873113
 10
2.312999152
 20
8.2848302167
 10
2.3062681424
 20
8.2392893871
  0
LINE
  5
353
100
AcDbEntity
  8
RACCORDO
100
AcDbLine
 62
250
  6
CONTINUOUS
 10
6.4412894818
 20
11.647518108
 11
2.3219895951
 21
10.0054175349
  0
LINE
  5
354
100
AcDbEntity
  8
RACCORDO
100
AcDbLine
 62
250
  6
CONTINUOUS
 10
6.9575935258
 20
10.6499920475
 11
2.8382936391
 21
9.0078914744
  0
LINE
  5
355
100
AcDbEntity
  8
ASSI
100
AcDbLine
 62
7
  6
CONTINUOUS
 10
5.9046134569
 20
-7.9681573433
 11
5.6811904524
 21
-7.8564458411
  0
LINE
  5
356
100
AcDbEntity
  8
RACCORDO
100
AcDbLine
 62
7
  6
CONTINUOUS
 10
-3.5224321881
 20
29.5958327629
 11
-3.5286985866
 21
29.6847638693
  0
LINE
  5
357
100
AcDbEntity
  8
ASSI
100
AcDbLine
 62
7
  6
CONTINUOUS
 10
-3.5224494201
 20
29.5959613456
 11
-3.5286985851
 21
29.6847660423
  0
LINE
  5
358
100
AcDbEntity
  8
RACCORDO
100
AcDbLine
 62
7
  6
CONTINUOUS
 10
-3.5309204124
 20
31.8875161144
 11
-3.528700474
 21
31.8412032247
  0
LINE
  5
359
100
AcDbEntity
  8
ASSI
100
AcDbLine
 62
7
  6
CONTINUOUS
 10
-3.530920413
 20
31.8875161201
 11
-3.528700474
 21
31.841203224
  0
LINE
  5
35A
100
AcDbEntity
  8
RACCORDO
100
AcDbLine
 62
250
  6
CONTINUOUS
 10
-3.6712736581
 20
31.72471833
 11
-3.6690286273
 21
31.6667756716
  0
LINE
  5
35B
100
AcDbEntity
  8
ASSI
100
AcDbLine
 62
250
  6
CONTINUOUS
 10
-3.6712736581
 20
31.72471833
 11
-3.6690286273
 21
31.6667756716
  0
LWPOLYLINE
  5
35C
100
AcDbEntity
  8
RACCORDO
100
AcDbPolyline
 62
250
  6
CONTINUOUS
 90
9
 70
0
 10
-3.6690286273
 20
29.5111868459
 10
-3.6683387114
 20
29.4905405627
 10
-3.6668013017
 20
29.4686986462
 10
-3.6643195439
 20
29.4456760643
 10
-3.6607927893
 20
29.4215209931
 10
-3.6561286875
 20
29.3962536758
 10
-3.650236753
 20
29.3698662562
 10
-3.643004053
 20
29.3423871901
 10
-3.6343442387
 20
29.3139500179
  0
LWPOLYLINE
  5
35D
100
AcDbEntity
  8
ASSI
100
AcDbPolyline
 62
250
  6
CONTINUOUS
 90
9
 70
0
 10
-3.6690286273
 20
29.5111868459
 10
-3.6683387114
 20
29.4905405627
 10
-3.6668013017
 20
29.4686986462
 10
-3.6643195439
 20
29.4456760643
 10
-3.6607927893
 20
29.4215209931
 10
-3.6561286875
 20
29.3962536758
 10
-3.650236753
 20
29.3698662562
 10
-3.643004053
 20
29.3423871901
 10
-3.6343442387
 20
29.3139500179
  0
LWPOLYLINE
  5
35E
100
AcDbEntity
  8
RACCORDO
100
AcDbPolyline
 62
250
  6
CONTINUOUS
 90
22
 70
0
 10
-0.1955435932
 20
-28.0342236264
 10
-0.1949031146
 20
-28.0769664751
 10
-0.1917955462
 20
-28.1180041605
 10
-0.186220888
 20
-28.1573366826
 10
-0.1781277279
 20
-28.1951636922
 10
-0.1675674781
 20
-28.2312855386
 10
-0.1546943745
 20
-28.2651032697
 10
-0.13947294
 20
-28.2965641724
 10
-0.1219386518
 20
-28.3257209598
 10
-0.1023521778
 20
-28.3521328203
 10
-0.0806835829
 20
-28.37575682
 10
-0.0569628023
 20
-28.3966358927
 10
-0.0315403094
 20
-28.4144580287
 10
-0.004386025
 20
-28.4291781019
 10
0.0244699718
 20
-28.4408412385
 10
0.0545869699
 20
-28.4492708072
 10
0.0859965894
 20
-28.4544102181
 10
0.1186672104
 20
-28.4563160611
 10
0.152063262
 20
-28.4549814752
 10
0.1860062207
 20
-28.4504041734
 10
0.2206746101
 20
-28.4425864426
 10
0.2560684301
 20
-28.4315282828
  0
LWPOLYLINE
  5
35F
100
AcDbEntity
  8
RACCORDO
100
AcDbPolyline
 62
250
  6
CONTINUOUS
 90
14
 70
0
 10
-1.3168871104
 20
-28.0169274553
 10
-1.315623118
 20
-28.1082217121
 10
-1.3090195922
 20
-28.1965517965
 10
-1.297109412
 20
-28.2814763999
 10
-1.279951076
 20
-28.362570265
 10
-1.2576307496
 20
-28.4394299063
 10
-1.2302607408
 20
-28.5116746723
 10
-1.1979730749
 20
-28.5789479605
 10
-1.1609293936
 20
-28.6409080945
 10
-1.1193238501
 20
-28.6972354408
 10
-1.0733688967
 20
-28.7476457388
 10
-1.0232894411
 20
-28.7918961814
 10
-0.9693299444
 20
-28.8297722396
 10
-0.9244646033
 20
-28.8548946044
  0
LINE
  5
360
100
AcDbEntity
  8
DRAFT
100
AcDbLine
 62
7
  6
CONTINUOUS
 10
-3.8077925228
 20
25.7047323881
 11
-3.8077925228
 21
25.6325710275
  0
LINE
  5
361
100
AcDbEntity
  8
ASSI
100
AcDbLine
 62
7
  6
CONTINUOUS
 10
-3.8077925228
 20
25.7047323881
 11
-3.8077925228
 21
25.6325710275
  0
LINE
  5
362
100
AcDbEntity
  8
RACCORDO
100
AcDbLine
 62
250
  6
CONTINUOUS
 10
-3.6690286273
 20
31.6667756716
 11
-3.6690286273
 21
29.5111868459
  0
LINE
  5
363
100
AcDbEntity
  8
ASSI
100
AcDbLine
 62
250
  6
CONTINUOUS
 10
-3.6690286273
 20
31.6667756716
 11
-3.6690286273
 21
29.5111868459
  0
LINE
  5
364
100
AcDbEntity
  8
RACCORDO
100
AcDbLine
 62
7
  6
CONTINUOUS
 10
-3.5287004681
 20
31.8411367981
 11
-3.5286985275
 21
29.6848514385
  0
LINE
  5
365
100
AcDbEntity
  8
ASSI
100
AcDbLine
 62
7
  6
CONTINUOUS
 10
-3.5287004681
 20
31.841136798
 11
-3.5286985275
 21
29.6848514385
  0
LINE
  5
366
100
AcDbEntity
  8
SMUSSO
100
AcDbLine
 62
7
  6
CONTINUOUS
 10
-2.0449009284
 20
27.4119355374
 11
-2.0449009284
 21
27.9996380659
  0
LINE
  5
367
100
AcDbEntity
  8
ASSI
100
AcDbLine
 62
7
  6
CONTINUOUS
 10
-2.0449009284
 20
27.4119355374
 11
-2.0449009284
 21
27.9996380659
  0
LINE
  5
368
100
AcDbEntity
  8
0
100
AcDbLine
 62
7
  6
CONTINUOUS
 10
-1.7711978974
 20
17.8249719404
 11
-1.7711978974
 21
17.9716150094
  0
LINE
  5
369
100
AcDbEntity
  8
ASSI
100
AcDbLine
 62
7
  6
CONTINUOUS
 10
-1.7711978974
 20
17.8249719404
 11
-1.7711978974
 21
17.9716150094
  0
LINE
  5
36A
100
AcDbEntity
  8
RACCORDO
100
AcDbLine
 62
7
  6
CONTINUOUS
 10
-3.5286985275
 20
29.6848514385
 11
-3.5286985582
 21
29.6847638724
  0
LINE
  5
36B
100
AcDbEntity
  8
ASSI
100
AcDbLine
 62
7
  6
CONTINUOUS
 10
-3.5286985275
 20
29.6848514385
 11
-3.5286985567
 21
29.6847660454
  0
LWPOLYLINE
  5
36C
100
AcDbEntity
  8
RACCORDO
100
AcDbPolyline
 62
250
  6
CONTINUOUS
 90
9
 70
0
 10
-0.0845562711
 20
-3.9320011027
 10
-0.3350200023
 20
-6.9803410077
 10
-0.557982781
 20
-10.0186771382
 10
-0.7534159094
 20
-13.0466205604
 10
-0.9212945165
 20
-16.0637835201
 10
-1.0615972939
 20
-19.069779728
 10
-1.1743062159
 20
-22.0642243775
 10
-1.2594065449
 20
-25.0467341956
 10
-1.3168871104
 20
-28.0169274553
  0
LWPOLYLINE
  5
36D
100
AcDbEntity
  8
RACCORDO
100
AcDbPolyline
 62
250
  6
CONTINUOUS
 90
3
 70
0
 10
0.4987418122
 20
2.1931282212
 10
0.193376173
 20
-0.874047521
 10
-0.0845562711
 20
-3.9320011027
  0
LWPOLYLINE
  5
36E
100
AcDbEntity
  8
RACCORDO
100
AcDbPolyline
 62
250
  6
CONTINUOUS
 90
3
 70
0
 10
1.1916139614
 20
8.3535735609
 10
0.8315018515
 20
5.2691332377
 10
0.4987418122
 20
2.1931282212
  0
LINE
  5
36F
100
AcDbEntity
  8
ASSI
100
AcDbLine
 62
7
  6
CONTINUOUS
 10
17.9358057966
 20
11.0438909517
 11
17.9591238941
 21
11.0585932921
  0
LINE
  5
370
100
AcDbEntity
  8
RACCORDO
100
AcDbLine
 62
7
  6
CONTINUOUS
 10
17.9358057966
 20
11.0438909517
 11
17.9591208204
 21
11.0585916296
  0
LWPOLYLINE
  5
371
100
AcDbEntity
  8
RACCORDO
100
AcDbPolyline
 62
250
  6
CONTINUOUS
 90
6
 70
0
 10
24.3437858329
 20
15.3263112915
 10
24.3981188426
 20
15.359796133
 10
24.4401317149
 20
15.3974460773
 10
24.4685797752
 20
15.438140055
 10
24.4826225101
 20
15.4806680547
 10
24.484115438
 20
15.4996242984
  0
LWPOLYLINE
  5
372
100
AcDbEntity
  8
ASSI
100
AcDbPolyline
 62
250
  6
CONTINUOUS
 90
6
 70
0
 10
24.3437858329
 20
15.3263112915
 10
24.3981188426
 20
15.359796133
 10
24.4401317149
 20
15.3974460773
 10
24.4685797752
 20
15.438140055
 10
24.4826225101
 20
15.4806680547
 10
24.4841154379
 20
15.4996242615
  0
LWPOLYLINE
  5
373
100
AcDbEntity
  8
RACCORDO
100
AcDbPolyline
 62
250
  6
CONTINUOUS
 90
4
 70
0
 10
24.3437858329
 20
14.7036791324
 10
24.3964221164
 20
14.7359191771
 10
24.438044039
 20
14.7725233138
 10
24.4670441317
 20
14.8125742208
  0
LWPOLYLINE
  5
374
100
AcDbEntity
  8
ASSI
100
AcDbPolyline
 62
250
  6
CONTINUOUS
 90
4
 70
0
 10
24.3437858329
 20
14.7036791324
 10
24.3964221164
 20
14.7359191771
 10
24.438044039
 20
14.7725233138
 10
24.4670441317
 20
14.8125742208
  0
LWPOLYLINE
  5
375
100
AcDbEntity
  8
RACCORDO
100
AcDbPolyline
 62
250
  6
CONTINUOUS
 90
8
 70
0
 10
24.2215276768
 20
14.4373031998
 10
24.2322141527
 20
14.4435293054
 10
24.2585932354
 20
14.4634433022
 10
24.2825496983
 20
14.488975989
 10
24.3034553059
 20
14.5202813521
 10
24.3207139743
 20
14.5575251454
 10
24.3336456466
 20
14.6007007004
 10
24.3415506043
 20
14.6495532162
  0
LWPOLYLINE
  5
376
100
AcDbEntity
  8
ASSI
100
AcDbPolyline
 62
250
  6
CONTINUOUS
 90
8
 70
0
 10
24.2215276768
 20
14.4373031998
 10
24.2322141527
 20
14.4435293054
 10
24.2585932354
 20
14.4634433022
 10
24.2825496983
 20
14.488975989
 10
24.3034553059
 20
14.5202813521
 10
24.3207139743
 20
14.5575251454
 10
24.3336456466
 20
14.6007007004
 10
24.3415506043
 20
14.6495532162
  0
LWPOLYLINE
  5
377
100
AcDbEntity
  8
RACCORDO
100
AcDbPolyline
 62
250
  6
CONTINUOUS
 90
3
 70
0
 10
18.0812079097
 20
11.3248746686
 10
18.0487823527
 20
11.3063234074
 10
18.0163533187
 20
11.2852485388
  0
LWPOLYLINE
  5
378
100
AcDbEntity
  8
ASSI
100
AcDbPolyline
 62
250
  6
CONTINUOUS
 90
3
 70
0
 10
18.0812079097
 20
11.3248746686
 10
18.0487823527
 20
11.3063234074
 10
18.0163533187
 20
11.2852485388
  0
LINE
  5
379
100
AcDbEntity
  8
RACCORDO
100
AcDbLine
 62
250
  6
CONTINUOUS
 10
18.0812079097
 20
11.3248746686
 11
24.3437858329
 21
14.7036791324
  0
LINE
  5
37A
100
AcDbEntity
  8
ASSI
100
AcDbLine
 62
250
  6
CONTINUOUS
 10
18.0812079097
 20
11.3248746686
 11
24.3437858329
 21
14.7036791324
  0
LINE
  5
37B
100
AcDbEntity
  8
RACCORDO
100
AcDbLine
 62
7
  6
CONTINUOUS
 10
17.9589499196
 20
11.0584988257
 11
24.221527843
 21
14.4373032895
  0
LINE
  5
37C
100
AcDbEntity
  8
ASSI
100
AcDbLine
 62
7
  6
CONTINUOUS
 10
17.9589499196
 20
11.0584988257
 11
24.221527843
 21
14.4373032895
  0
LINE
  5
37D
100
AcDbEntity
  8
RACCORDO
100
AcDbLine
 62
250
  6
CONTINUOUS
 10
24.4789904176
 20
14.821637626
 11
24.9187533134
 21
15.0492896186
  0
LINE
  5
37E
100
AcDbEntity
  8
ASSI
100
AcDbLine
 62
250
  6
CONTINUOUS
 10
24.4789904176
 20
14.821637626
 11
24.9187533134
 21
15.0492896186
  0
LINE
  5
37F
100
AcDbEntity
  8
RACCORDO
100
AcDbLine
 62
250
  6
CONTINUOUS
 10
23.9197499231
 20
12.7133884787
 11
24.9187533134
 21
13.2306362707
  0
LINE
  5
380
100
AcDbEntity
  8
ASSI
100
AcDbLine
 62
250
  6
CONTINUOUS
 10
23.9197499231
 20
12.7133884787
 11
24.9187533134
 21
13.2306362707
  0
LINE
  5
381
100
AcDbEntity
  8
RACCORDO
100
AcDbLine
 62
250
  6
CONTINUOUS
 10
16.1339905991
 20
12.5253062359
 11
18.7644174499
 21
13.8690465211
  0
LINE
  5
382
100
AcDbEntity
  8
ASSI
100
AcDbLine
 62
250
  6
CONTINUOUS
 10
16.1339905991
 20
12.5253062359
 11
18.7644174499
 21
13.8690465211
  0
LINE
  5
383
100
AcDbEntity
  8
RACCORDO
100
AcDbLine
 62
250
  6
CONTINUOUS
 10
13.5067832858
 20
11.1830745166
 11
16.1339905991
 21
12.5253062359
  0
LINE
  5
384
100
AcDbEntity
  8
ASSI
100
AcDbLine
 62
250
  6
CONTINUOUS
 10
13.5067832858
 20
11.1830745166
 11
16.1339905991
 21
12.5253062359
  0
LWPOLYLINE
  5
385
100
AcDbEntity
  8
RACCORDO
100
AcDbPolyline
 62
250
  6
CONTINUOUS
 90
3
 70
0
 10
8.566576148
 20
8.658763185
 10
10.8827952798
 20
9.8423517108
 10
13.5067832858
 20
11.1830745166
  0
LWPOLYLINE
  5
386
100
AcDbEntity
  8
ASSI
100
AcDbPolyline
 62
250
  6
CONTINUOUS
 90
3
 70
0
 10
8.566576148
 20
8.658763185
 10
10.8827952798
 20
9.8423517108
 10
13.5067832858
 20
11.1830745166
  0
LINE
  5
387
100
AcDbEntity
  8
RACCORDO
100
AcDbLine
 62
250
  6
CONTINUOUS
 10
18.7644174499
 20
13.8690465211
 11
21.9701975627
 21
15.50650716
  0
LINE
  5
388
100
AcDbEntity
  8
ASSI
100
AcDbLine
 62
250
  6
CONTINUOUS
 10
18.7644174499
 20
13.8690465211
 11
21.9701975627
 21
15.50650716
  0
LINE
  5
389
100
AcDbEntity
  8
RACCORDO
100
AcDbLine
 62
250
  6
CONTINUOUS
 10
21.9701975627
 20
15.50650716
 11
24.03493069
 21
16.5610513964
  0
LINE
  5
38A
100
AcDbEntity
  8
ASSI
100
AcDbLine
 62
250
  6
CONTINUOUS
 10
21.9701975627
 20
15.50650716
 11
24.03493069
 21
16.5610513964
  0
LINE
  5
38B
100
AcDbEntity
  8
RACCORDO
100
AcDbLine
 62
250
  6
CONTINUOUS
 10
21.6918723364
 20
13.9734461424
 11
24.3437858329
 21
15.3263112914
  0
LINE
  5
38C
100
AcDbEntity
  8
ASSI
100
AcDbLine
 62
250
  6
CONTINUOUS
 10
21.6918723364
 20
13.9734461424
 11
24.3437858329
 21
15.3263112914
  0
LINE
  5
38D
100
AcDbEntity
  8
RACCORDO
100
AcDbLine
 62
250
  6
CONTINUOUS
 10
17.5498682778
 20
11.8603548469
 11
21.6918723364
 21
13.9734461424
  0
LINE
  5
38E
100
AcDbEntity
  8
ASSI
100
AcDbLine
 62
250
  6
CONTINUOUS
 10
17.5498682778
 20
11.8603548469
 11
21.6918723364
 21
13.9734461424
  0
LINE
  5
38F
100
AcDbEntity
  8
RACCORDO
100
AcDbLine
 62
250
  6
CONTINUOUS
 10
15.2766157391
 20
10.7006004376
 11
17.5498682778
 21
11.8603548469
  0
LINE
  5
390
100
AcDbEntity
  8
ASSI
100
AcDbLine
 62
250
  6
CONTINUOUS
 10
15.2766157391
 20
10.7006004376
 11
17.5498682778
 21
11.8603548469
  0
LINE
  5
391
100
AcDbEntity
  8
RACCORDO
100
AcDbLine
 62
250
  6
CONTINUOUS
 10
8.566576148
 20
7.2771907837
 11
15.2766157391
 21
10.7006004376
  0
LINE
  5
392
100
AcDbEntity
  8
ASSI
100
AcDbLine
 62
250
  6
CONTINUOUS
 10
8.566576148
 20
7.2771907837
 11
15.2766157391
 21
10.7006004376
  0
LWPOLYLINE
  5
393
100
AcDbEntity
  8
RACCORDO
100
AcDbPolyline
 62
250
  6
CONTINUOUS
 90
10
 70
0
 10
-15.9734518682
 20
22.8701259932
 10
-16.0056089575
 20
22.9150447858
 10
-16.0415470451
 20
22.9578569948
 10
-16.0812646467
 20
22.9977741723
 10
-16.1243636028
 20
23.0335606231
 10
-16.1703003246
 20
23.0639338557
 10
-16.2186597696
 20
23.0876901604
 10
-16.2686521616
 20
23.1033482579
 10
-16.3188732993
 20
23.109315204
 10
-16.3676829271
 20
23.1042711437
  0
LWPOLYLINE
  5
394
100
AcDbEntity
  8
DRAFT
100
AcDbPolyline
 62
7
  6
CONTINUOUS
 90
4
 70
0
 10
0.0105840956
 20
14.8465552294
 10
-0.0006946341
 20
14.9496677022
 10
-0.0238957189
 20
15.0472646787
 10
-0.057847669
 20
15.1362749191
  0
LINE
  5
395
100
AcDbEntity
  8
RACCORDO
100
AcDbLine
 62
7
  6
CONTINUOUS
 10
5.1092970156
 20
-16.1482704122
 11
5.6715125193
 21
-21.3885570098
  0
LINE
  5
396
100
AcDbEntity
  8
0
100
AcDbLine
 62
7
  6
CONTINUOUS
 10
5.9046134569
 20
-7.9681573433
 11
7.7032368968
 21
-24.7327293699
  0
LINE
  5
397
100
AcDbEntity
  8
RACCORDO
100
AcDbLine
 62
7
  6
CONTINUOUS
 10
1.1065996064
 20
19.0582554388
 11
1.1065996064
 21
19.2136850027
  0
LINE
  5
398
100
AcDbEntity
  8
0
100
AcDbLine
 62
7
  6
CONTINUOUS
 10
1.1065996064
 20
19.2136850027
 11
1.1065996064
 21
20.1667026674
  0
LINE
  5
399
100
AcDbEntity
  8
ASSI
100
AcDbLine
 62
7
  6
CONTINUOUS
 10
1.1065996064
 20
19.0582554388
 11
1.1065996064
 21
20.1667026674
  0
LINE
  5
39A
100
AcDbEntity
  8
0
100
AcDbLine
 62
7
  6
CONTINUOUS
 10
2.4501024907
 20
19.5609551689
 11
2.4501024907
 21
18.6707433176
  0
LINE
  5
39B
100
AcDbEntity
  8
ASSI
100
AcDbLine
 62
7
  6
CONTINUOUS
 10
2.4501024907
 20
19.5609551689
 11
2.4501024907
 21
18.6707433176
  0
LINE
  5
39C
100
AcDbEntity
  8
DRAFT
100
AcDbLine
 62
7
  6
CONTINUOUS
 10
2.9066364848
 20
25.5191900563
 11
2.9066364848
 21
25.3093053801
  0
LINE
  5
39D
100
AcDbEntity
  8
ASSI
100
AcDbLine
 62
7
  6
CONTINUOUS
 10
2.9066364848
 20
25.5191900563
 11
2.9066364848
 21
25.3093053801
  0
LINE
  5
39E
100
AcDbEntity
  8
DRAFT
100
AcDbLine
 62
7
  6
CONTINUOUS
 10
2.9066364848
 20
22.3229029427
 11
2.9066364848
 21
22.2346351762
  0
LINE
  5
39F
100
AcDbEntity
  8
ASSI
100
AcDbLine
 62
7
  6
CONTINUOUS
 10
2.9066364848
 20
22.3229029427
 11
2.9066364848
 21
22.2346351762
  0
LINE
  5
3A0
100
AcDbEntity
  8
0
100
AcDbLine
 62
7
  6
CONTINUOUS
 10
3.1358689729
 20
15.5180815743
 11
3.1358689729
 21
15.4314790339
  0
LINE
  5
3A1
100
AcDbEntity
  8
ASSI
100
AcDbLine
 62
7
  6
CONTINUOUS
 10
3.1358689729
 20
15.5180815743
 11
3.1358689729
 21
15.4314790339
  0
LINE
  5
3A2
100
AcDbEntity
  8
DRAFT
100
AcDbLine
 62
7
  6
CONTINUOUS
 10
4.2885801218
 20
23.0200881596
 11
4.2885801218
 21
22.8790018061
  0
LINE
  5
3A3
100
AcDbEntity
  8
ASSI
100
AcDbLine
 62
7
  6
CONTINUOUS
 10
4.2885801218
 20
23.0200881596
 11
4.2885801218
 21
22.8790018061
  0
LINE
  5
3A4
100
AcDbEntity
  8
DRAFT
100
AcDbLine
 62
7
  6
CONTINUOUS
 10
5.1168010661
 20
23.4495194803
 11
5.1168010661
 21
23.2651810426
  0
LINE
  5
3A5
100
AcDbEntity
  8
ASSI
100
AcDbLine
 62
7
  6
CONTINUOUS
 10
5.1168010661
 20
23.4495194803
 11
5.1168010661
 21
23.2651810426
  0
LWPOLYLINE
  5
3A6
100
AcDbEntity
  8
RACCORDO
100
AcDbPolyline
 62
250
  6
CONTINUOUS
 90
16
 70
0
 10
2.8382936391
 20
9.0078914744
 10
2.8393565413
 20
9.083760308
 10
2.834321247
 20
9.1619378651
 10
2.8232428608
 20
9.241567981
 10
2.8062426699
 20
9.3217785766
 10
2.7835068185
 20
9.401691199
 10
2.7552842729
 20
9.4804306424
 10
2.7218840875
 20
9.5571345557
 10
2.6836720298
 20
9.6309628613
 10
2.6410665837
 20
9.7011069493
 10
2.5945343405
 20
9.7667985819
 10
2.5445849073
 20
9.8273182704
 10
2.4917653463
 20
9.8820031419
 10
2.4366541438
 20
9.9302542495
 10
2.3798548704
 20
9.9715431243
 10
2.3219895969
 20
10.0054175357
  0
LWPOLYLINE
  5
3A7
100
AcDbEntity
  8
RACCORDO
100
AcDbPolyline
 62
250
  6
CONTINUOUS
 90
6
 70
0
 10
0.3664146498
 20
-13.1037183665
 10
0.1989708968
 20
-16.113105526
 10
0.0590467543
 20
-19.1109659421
 10
-0.0533363054
 20
-22.0969119137
 10
-0.1381997545
 20
-25.0713311417
 10
-0.1955435932
 20
-28.0342236264
  0
LWPOLYLINE
  5
3A8
100
AcDbEntity
  8
0
100
AcDbPolyline
 62
7
  6
CONTINUOUS
 90
19
 70
0
 10
3.8335050633
 20
15.7580816158
 10
3.8293602533
 20
15.7052150679
 10
3.8305016742
 20
15.651105005
 10
3.836929326
 20
15.5957514269
 10
3.8489024331
 20
15.5382711926
 10
3.866161771
 20
15.4795474432
 10
3.887929667
 20
15.4222296016
 10
3.9144146875
 20
15.366378508
 10
3.9454082659
 20
15.3119333221
 10
3.9795070296
 20
15.2613609461
 10
4.0168523988
 20
15.2148416522
 10
4.0573029533
 20
15.1721951682
 10
4.0990310604
 20
15.13534758
 10
4.1420958958
 20
15.1045643176
 10
4.1864382838
 20
15.0795799509
 10
4.2300530646
 20
15.061524276
 10
4.2722718515
 20
15.0507738916
 10
4.3137630313
 20
15.0469521991
 10
4.3545266039
 20
15.0500591984
  0
LWPOLYLINE
  5
3A9
100
AcDbEntity
  8
ASSI
100
AcDbPolyline
 62
7
  6
CONTINUOUS
 90
19
 70
0
 10
3.8335050633
 20
15.7580816158
 10
3.8293602533
 20
15.7052150679
 10
3.8305016742
 20
15.651105005
 10
3.836929326
 20
15.5957514269
 10
3.8489024331
 20
15.5382711926
 10
3.866161771
 20
15.4795474432
 10
3.887929667
 20
15.4222296016
 10
3.9144146875
 20
15.366378508
 10
3.9454082659
 20
15.3119333221
 10
3.9795070296
 20
15.2613609461
 10
4.0168523988
 20
15.2148416522
 10
4.0573029533
 20
15.1721951682
 10
4.0990310604
 20
15.13534758
 10
4.1420958958
 20
15.1045643176
 10
4.1864382838
 20
15.0795799509
 10
4.2300530646
 20
15.061524276
 10
4.2722718515
 20
15.0507738916
 10
4.3137630313
 20
15.0469521991
 10
4.3545266039
 20
15.0500591984
  0
LWPOLYLINE
  5
3AA
100
AcDbEntity
  8
RACCORDO
100
AcDbPolyline
 62
250
  6
CONTINUOUS
 90
5
 70
0
 10
1.3106771816
 20
-0.9636964347
 10
1.0334985238
 20
-4.0133683728
 10
0.7836784633
 20
-7.0538497899
 10
0.5613135965
 20
-10.0839675672
 10
0.3664146498
 20
-13.1037183665
  0
LWPOLYLINE
  5
3AB
100
AcDbEntity
  8
RACCORDO
100
AcDbPolyline
 62
250
  6
CONTINUOUS
 90
3
 70
0
 10
1.9470458915
 20
5.1624369254
 10
1.6151822379
 20
2.0947749849
 10
1.3106771816
 20
-0.9636964347
  0
LINE
  5
3AC
100
AcDbEntity
  8
RACCORDO
100
AcDbLine
 62
250
  6
CONTINUOUS
 10
2.3062681424
 20
8.2392893871
 11
1.9470458915
 21
5.1624369254
  0
LWPOLYLINE
  5
3AD
100
AcDbEntity
  8
RACCORDO
100
AcDbPolyline
 62
250
  6
CONTINUOUS
 90
11
 70
0
 10
0.2560684301
 20
-28.4315282828
 10
0.2468277858
 20
-28.5050480048
 10
0.2316016341
 20
-28.5746230151
 10
0.2105567314
 20
-28.6394913306
 10
0.1839235607
 20
-28.6989425158
 10
0.1519938075
 20
-28.7523254634
 10
0.1151171653
 20
-28.7990555253
 10
0.0736975059
 20
-28.8386209155
 10
0.0281884558
 20
-28.8705883152
 10
-0.0209115714
 20
-28.8946076187
 10
-0.0312247371
 20
-28.8984718205
  0
LWPOLYLINE
  5
3AE
100
AcDbEntity
  8
SMUSSO
100
AcDbPolyline
 62
7
  6
CONTINUOUS
 90
5
 70
0
 10
12.9849567802
 20
18.23148075
 10
13.0572676676
 20
18.3995704941
 10
13.1721025786
 20
18.5592071963
 10
13.3253105732
 20
18.7080908018
 10
13.5128416959
 20
18.8441861044
  0
LWPOLYLINE
  5
3AF
100
AcDbEntity
  8
ASSI
100
AcDbPolyline
 62
7
  6
CONTINUOUS
 90
5
 70
0
 10
12.9849567802
 20
18.23148075
 10
13.0572676676
 20
18.3995704941
 10
13.1721025786
 20
18.5592071963
 10
13.3253105732
 20
18.7080908018
 10
13.5128416959
 20
18.8441861044
  0
LWPOLYLINE
  5
3B0
100
AcDbEntity
  8
RACCORDO
100
AcDbPolyline
 62
250
  6
CONTINUOUS
 90
7
 70
0
 10
13.4566501828
 20
17.3512628967
 10
13.4662088358
 20
17.3695963225
 10
13.506220491
 20
17.4327305403
 10
13.5527182646
 20
17.4947362162
 10
13.6055809157
 20
17.5554533142
 10
13.6646597862
 20
17.6147125315
 10
13.7297525656
 20
17.6723204647
  0
LINE
  5
3B1
100
AcDbEntity
  8
RACCORDO
100
AcDbLine
 62
7
  6
CONTINUOUS
 10
17.8974658335
 20
11.0123573612
 11
17.9358057966
 21
11.0438909517
  0
LINE
  5
3B2
100
AcDbEntity
  8
ASSI
100
AcDbLine
 62
7
  6
CONTINUOUS
 10
17.8975511424
 20
11.0124365578
 11
17.9358057966
 21
11.0438909517
  0
LWPOLYLINE
  5
3B3
100
AcDbEntity
  8
RACCORDO
100
AcDbPolyline
 62
250
  6
CONTINUOUS
 90
14
 70
0
 10
17.9839208077
 20
11.2616500629
 10
17.9514678072
 20
11.2356598497
 10
17.9190113296
 20
11.2071460293
 10
17.8866024124
 20
11.1757129912
 10
17.8541343261
 20
11.1413672629
 10
17.8217138001
 20
11.104102317
 10
17.7897120601
 20
11.0635029611
 10
17.7579774187
 20
11.0194765158
 10
17.7266615632
 20
10.9721156606
 10
17.6965907811
 20
10.9212832408
 10
17.6675777423
 20
10.8666530152
 10
17.6398097768
 20
10.8085512251
 10
17.614675162
 20
10.7478194402
 10
17.5921495168
 20
10.6840150705
  0
LINE
  5
3B4
100
AcDbEntity
  8
RACCORDO
100
AcDbLine
 62
250
  6
CONTINUOUS
 10
18.0163533187
 20
11.2852485388
 11
17.9839208077
 21
11.2616500629
  0
LWPOLYLINE
  5
3B5
100
AcDbEntity
  8
ASSI
100
AcDbPolyline
 62
250
  6
CONTINUOUS
 90
15
 70
0
 10
18.0163533187
 20
11.2852485388
 10
17.9839208077
 20
11.2616500629
 10
17.9514678072
 20
11.2356598497
 10
17.9190113296
 20
11.2071460293
 10
17.8866024124
 20
11.1757129912
 10
17.8541343261
 20
11.1413672629
 10
17.8217138001
 20
11.104102317
 10
17.7897120601
 20
11.0635029611
 10
17.7579774187
 20
11.0194765158
 10
17.7266615632
 20
10.9721156606
 10
17.6965907811
 20
10.9212832408
 10
17.6675777423
 20
10.8666530152
 10
17.6398097768
 20
10.8085512251
 10
17.614675162
 20
10.7478194402
 10
17.5921495168
 20
10.6840150705
  0
LINE
  5
3B6
100
AcDbEntity
  8
ASSI
100
AcDbLine
 62
7
  6
CONTINUOUS
 10
24.2965095583
 20
14.4869596521
 11
24.2215278647
 21
14.4373033012
  0
LWPOLYLINE
  5
3B7
100
AcDbEntity
  8
RACCORDO
100
AcDbPolyline
 62
7
  6
CONTINUOUS
 90
5
 70
0
 10
24.2415992478
 20
11.774859878
 10
24.332933142
 20
11.8294667265
 10
24.5593418318
 20
12.0209595452
 10
24.7455057121
 20
12.271370823
 10
24.8856908767
 20
12.5785232555
  0
LWPOLYLINE
  5
3B8
100
AcDbEntity
  8
ASSI
100
AcDbPolyline
 62
7
  6
CONTINUOUS
 90
5
 70
0
 10
24.2415992478
 20
11.774859878
 10
24.332933142
 20
11.8294667265
 10
24.5593418318
 20
12.0209595452
 10
24.7455057121
 20
12.271370823
 10
24.8856908767
 20
12.5785232555
  0
LINE
  5
3B9
100
AcDbEntity
  8
RACCORDO
100
AcDbLine
 62
250
  6
CONTINUOUS
 10
24.2416003682
 20
11.7748604694
 11
24.2318175719
 21
11.7696278599
  0
LINE
  5
3BA
100
AcDbEntity
  8
ASSI
100
AcDbLine
 62
250
  6
CONTINUOUS
 10
24.2416003682
 20
11.7748604694
 11
24.2318175719
 21
11.7696278599
  0
LINE
  5
3BB
100
AcDbEntity
  8
DRAFT
100
AcDbLine
 62
7
  6
CONTINUOUS
 10
24.2318164283
 20
11.7696272562
 11
23.9423999216
 21
11.616841521
  0
LINE
  5
3BC
100
AcDbEntity
  8
ASSI
100
AcDbLine
 62
7
  6
CONTINUOUS
 10
24.2318164283
 20
11.7696272562
 11
23.9423999216
 21
11.616841521
  0
LINE
  5
3BD
100
AcDbEntity
  8
RACCORDO
100
AcDbLine
 62
250
  6
CONTINUOUS
 10
17.6963769675
 20
-5.4656534504
 11
17.727708367
 21
-5.4813191501
  0
LINE
  5
3BE
100
AcDbEntity
  8
ASSI
100
AcDbLine
 62
250
  6
CONTINUOUS
 10
17.6963769675
 20
-5.4656534504
 11
17.727708367
 21
-5.4813191501
  0
LWPOLYLINE
  5
3BF
100
AcDbEntity
  8
RACCORDO
100
AcDbPolyline
 62
250
  6
CONTINUOUS
 90
5
 70
0
 10
17.727708367
 20
-5.4813191501
 10
17.7900583736
 20
-5.5181147038
 10
17.8503272289
 20
-5.5670361608
 10
17.9066844025
 20
-5.6265976422
 10
17.9574181725
 20
-5.6949901028
  0
LWPOLYLINE
  5
3C0
100
AcDbEntity
  8
ASSI
100
AcDbPolyline
 62
250
  6
CONTINUOUS
 90
5
 70
0
 10
17.727708367
 20
-5.4813191501
 10
17.7900583736
 20
-5.5181147038
 10
17.8503272289
 20
-5.5670361608
 10
17.9066844025
 20
-5.6265976422
 10
17.9574181725
 20
-5.6949901028
  0
LWPOLYLINE
  5
3C1
100
AcDbEntity
  8
0
100
AcDbPolyline
 62
7
  6
CONTINUOUS
 90
11
 70
0
 10
-18.8997581052
 20
26.6772015529
 10
-18.8589945326
 20
26.6333309811
 10
-18.8175033528
 20
26.5956614938
 10
-18.7752845658
 20
26.5641930912
 10
-18.731669785
 20
26.5386339853
 10
-18.687327397
 20
26.519275964
 10
-18.6442625617
 20
26.5069943911
 10
-18.6025344546
 20
26.5021138722
 10
-18.5620839001
 20
26.5043098016
 10
-18.5247385309
 20
26.5134837264
 10
-18.504179816
 20
26.5223720604
  0
LWPOLYLINE
  5
3C2
100
AcDbEntity
  8
ASSI
100
AcDbPolyline
 62
7
  6
CONTINUOUS
 90
11
 70
0
 10
-18.8997581052
 20
26.6772015529
 10
-18.8589945326
 20
26.6333309811
 10
-18.8175033528
 20
26.5956614938
 10
-18.7752845658
 20
26.5641930912
 10
-18.731669785
 20
26.5386339853
 10
-18.687327397
 20
26.519275964
 10
-18.6442625617
 20
26.5069943911
 10
-18.6025344546
 20
26.5021138722
 10
-18.5620839001
 20
26.5043098016
 10
-18.5247385309
 20
26.5134837264
 10
-18.504179816
 20
26.5223720604
  0
LINE
  5
3C3
100
AcDbEntity
  8
0
100
AcDbLine
 62
7
  6
CONTINUOUS
 10
-12.2382429494
 20
23.9268481693
 11
-12.1841760427
 21
23.8557341401
  0
LINE
  5
3C4
100
AcDbEntity
  8
ASSI
100
AcDbLine
 62
7
  6
CONTINUOUS
 10
-12.2382429494
 20
23.9268481693
 11
-12.1841760427
 21
23.8557341401
  0
LINE
  5
3C5
100
AcDbEntity
  8
0
100
AcDbLine
 62
7
  6
CONTINUOUS
 10
-12.1841760427
 20
23.8557341401
 11
-12.130227564
 21
23.784462385
  0
LINE
  5
3C6
100
AcDbEntity
  8
ASSI
100
AcDbLine
 62
7
  6
CONTINUOUS
 10
-12.1841760427
 20
23.8557341401
 11
-12.130227564
 21
23.784462385
  0
LINE
  5
3C7
100
AcDbEntity
  8
0
100
AcDbLine
 62
7
  6
CONTINUOUS
 10
-12.130227564
 20
23.784462385
 11
-12.0763975134
 21
23.7130329041
  0
LINE
  5
3C8
100
AcDbEntity
  8
ASSI
100
AcDbLine
 62
7
  6
CONTINUOUS
 10
-12.130227564
 20
23.784462385
 11
-12.0763975134
 21
23.7130329041
  0
LWPOLYLINE
  5
3C9
100
AcDbEntity
  8
0
100
AcDbPolyline
 62
7
  6
CONTINUOUS
 90
3
 70
0
 10
-11.5553759728
 20
23.0050104868
 10
-11.4127103711
 20
22.8057076385
 10
-11.3033564955
 20
22.6510917681
  0
LWPOLYLINE
  5
3CA
100
AcDbEntity
  8
ASSI
100
AcDbPolyline
 62
7
  6
CONTINUOUS
 90
3
 70
0
 10
-11.5553759728
 20
23.0050104868
 10
-11.4127103711
 20
22.8057076385
 10
-11.3033564955
 20
22.6510917681
  0
LINE
  5
3CB
100
AcDbEntity
  8
DRAFT
100
AcDbLine
 62
250
  6
CONTINUOUS
 10
-2.5711905377
 20
24.3684061172
 11
-2.3943883805
 21
23.4886519863
  0
LINE
  5
3CC
100
AcDbEntity
  8
ASSI
100
AcDbLine
 62
250
  6
CONTINUOUS
 10
-2.5711905377
 20
24.3684061172
 11
-2.3943883805
 21
23.4886519863
  0
LINE
  5
3CD
100
AcDbEntity
  8
DRAFT
100
AcDbLine
 62
250
  6
CONTINUOUS
 10
0.6107898482
 20
22.777415796
 11
0.7875920014
 21
21.8976617641
  0
LINE
  5
3CE
100
AcDbEntity
  8
ASSI
100
AcDbLine
 62
250
  6
CONTINUOUS
 10
0.6107898482
 20
22.777415796
 11
0.7875920014
 21
21.8976617641
  0
LINE
  5
3CF
100
AcDbEntity
  8
RACCORDO
100
AcDbLine
 62
7
  6
CONTINUOUS
 10
-3.5470194072
 20
31.9745492686
 11
-3.5309204124
 21
31.8875161144
  0
LINE
  5
3D0
100
AcDbEntity
  8
DRAFT
100
AcDbLine
 62
7
  6
CONTINUOUS
 10
5.3492402936
 20
23.4495194803
 11
5.3389100588
 21
23.5499755481
  0
LINE
  5
3D1
100
AcDbEntity
  8
ASSI
100
AcDbLine
 62
7
  6
CONTINUOUS
 10
5.3492402936
 20
23.4495194803
 11
5.3389100588
 21
23.5499755481
  0
LINE
  5
3D2
100
AcDbEntity
  8
DRAFT
100
AcDbLine
 62
7
  6
CONTINUOUS
 10
5.3492402936
 20
23.3735617881
 11
5.3492402936
 21
23.4495194803
  0
LINE
  5
3D3
100
AcDbEntity
  8
ASSI
100
AcDbLine
 62
7
  6
CONTINUOUS
 10
5.3492402936
 20
23.3735617881
 11
5.3492402936
 21
23.4495194803
  0
LINE
  5
3D4
100
AcDbEntity
  8
0
100
AcDbLine
 62
7
  6
CONTINUOUS
 10
6.834164534
 20
17.3689241472
 11
6.834164534
 21
16.6424595546
  0
LINE
  5
3D5
100
AcDbEntity
  8
ASSI
100
AcDbLine
 62
7
  6
CONTINUOUS
 10
6.834164534
 20
17.3689241472
 11
6.834164534
 21
16.6424595546
  0
LINE
  5
3D6
100
AcDbEntity
  8
DRAFT
100
AcDbLine
 62
7
  6
CONTINUOUS
 10
7.4705606371
 20
21.4290979019
 11
7.4705606371
 21
21.2880115484
  0
LINE
  5
3D7
100
AcDbEntity
  8
ASSI
100
AcDbLine
 62
7
  6
CONTINUOUS
 10
7.4705606371
 20
21.4290979019
 11
7.4705606371
 21
21.2880115484
  0
LINE
  5
3D8
100
AcDbEntity
  8
0
100
AcDbLine
 62
7
  6
CONTINUOUS
 10
7.7032368968
 20
11.736350422
 11
7.7032368968
 21
10.5333251493
  0
LINE
  5
3D9
100
AcDbEntity
  8
0
100
AcDbLine
 62
7
  6
CONTINUOUS
 10
7.7032368968
 20
-24.7327293699
 11
7.7032368968
 21
-25.9357546426
  0
LINE
  5
3DA
100
AcDbEntity
  8
DRAFT
100
AcDbLine
 62
7
  6
CONTINUOUS
 10
8.2987815814
 20
21.8585292226
 11
8.2987815814
 21
21.674190785
  0
LINE
  5
3DB
100
AcDbEntity
  8
ASSI
100
AcDbLine
 62
7
  6
CONTINUOUS
 10
8.2987815814
 20
21.8585292226
 11
8.2987815814
 21
21.674190785
  0
LINE
  5
3DC
100
AcDbEntity
  8
DRAFT
100
AcDbLine
 62
7
  6
CONTINUOUS
 10
8.5312208089
 20
21.7825715305
 11
8.5312208089
 21
21.8585292226
  0
LINE
  5
3DD
100
AcDbEntity
  8
ASSI
100
AcDbLine
 62
7
  6
CONTINUOUS
 10
8.5312208089
 20
21.7825715305
 11
8.5312208089
 21
21.8585292226
  0
LINE
  5
3DE
100
AcDbEntity
  8
0
100
AcDbLine
 62
7
  6
CONTINUOUS
 10
8.566576148
 20
12.2829145527
 11
8.566576148
 21
-25.6486017496
  0
LINE
  5
3DF
100
AcDbEntity
  8
ASSI
100
AcDbLine
 62
7
  6
CONTINUOUS
 10
8.566576148
 20
-20.6428779806
 11
8.566576148
 21
7.2771907837
  0
LINE
  5
3E0
100
AcDbEntity
  8
RACCORDO
100
AcDbLine
 62
7
  6
CONTINUOUS
 10
4.363022164
 20
-26.9684333195
 11
6.9575935258
 21
10.6499920475
  0
LINE
  5
3E1
100
AcDbEntity
  8
0
100
AcDbLine
 62
7
  6
CONTINUOUS
 10
7.7032368968
 20
10.5333251493
 11
5.9046134569
 21
-7.9681573433
  0
LWPOLYLINE
  5
3E2
100
AcDbEntity
  8
RACCORDO
100
AcDbPolyline
 62
250
  6
CONTINUOUS
 90
10
 70
0
 10
13.4008580002
 20
14.4778721499
 10
13.4150011996
 20
14.5219086425
 10
13.4255452351
 20
14.5629763049
 10
13.4323470939
 20
14.6005281775
 10
13.4353132281
 20
14.6340647753
 10
13.434400322
 20
14.6631352954
 10
13.4296180468
 20
14.6873461915
 10
13.4210288082
 20
14.7063730202
 10
13.4087448973
 20
14.7199622966
 10
13.4047569403
 20
14.7227092159
  0
LWPOLYLINE
  5
3E3
100
AcDbEntity
  8
ASSI
100
AcDbPolyline
 62
250
  6
CONTINUOUS
 90
10
 70
0
 10
13.4008580002
 20
14.4778721499
 10
13.4150011996
 20
14.5219086425
 10
13.4255452351
 20
14.5629763049
 10
13.4323470939
 20
14.6005281775
 10
13.4353132281
 20
14.6340647753
 10
13.434400322
 20
14.6631352954
 10
13.4296180468
 20
14.6873461915
 10
13.4210288082
 20
14.7063730202
 10
13.4087448973
 20
14.7199622966
 10
13.4047569403
 20
14.7227092159
  0
LINE
  5
3E4
100
AcDbEntity
  8
RACCORDO
100
AcDbLine
 62
250
  6
CONTINUOUS
 10
11.3175578315
 20
15.8182281262
 11
11.3039493844
 21
15.7779330639
  0
LINE
  5
3E5
100
AcDbEntity
  8
ASSI
100
AcDbLine
 62
250
  6
CONTINUOUS
 10
11.3175578315
 20
15.8182281262
 11
11.3039493844
 21
15.7779330639
  0
LWPOLYLINE
  5
3E6
100
AcDbEntity
  8
RACCORDO
100
AcDbPolyline
 62
250
  6
CONTINUOUS
 90
50
 70
0
 10
13.5496573448
 20
17.3111571787
 10
13.5587439558
 20
17.3330361767
 10
13.5901136131
 20
17.3929144577
 10
13.6276366886
 20
17.4520825395
 10
13.6710102204
 20
17.5100605583
 10
13.7202934387
 20
17.5668412357
 10
13.7754271133
 20
17.62243185
 10
13.8359305917
 20
17.6763743723
 10
13.9018029433
 20
17.7286272718
 10
13.9730450986
 20
17.7792320793
 10
14.0491791963
 20
17.8278553578
 10
14.1301958253
 20
17.8744831003
 10
14.2161043966
 20
17.9191293139
 10
14.3064552824
 20
17.961502583
 10
14.4015055625
 20
18.001661781
 10
14.5009981571
 20
18.0395480345
 10
14.6037121974
 20
18.0746933077
 10
14.7100530662
 20
18.1070710276
 10
14.8196153808
 20
18.1367077671
 10
14.9299621251
 20
18.1632152093
 10
15.0410666421
 20
18.1864146027
 10
15.1529555888
 20
18.2064846988
 10
15.2632719209
 20
18.2235734346
 10
15.3716624108
 20
18.2375473304
 10
15.4784802861
 20
18.248539866
 10
15.5824281852
 20
18.2570994172
 10
15.6832640196
 20
18.2632019868
 10
15.7812298779
 20
18.266871572
 10
15.8757546643
 20
18.2687285408
 10
15.9666764044
 20
18.2687944097
 10
16.0541570725
 20
18.2670476621
 10
16.1381114959
 20
18.2640441168
 10
16.2184155693
 20
18.2598253161
 10
16.2951933979
 20
18.2543497176
 10
16.3687321243
 20
18.248048512
 10
16.438998658
 20
18.2409624782
 10
16.5060260896
 20
18.2330508373
 10
16.5702008337
 20
18.2246224432
 10
16.6315085806
 20
18.2157118026
 10
16.68996364
 20
18.2062844088
 10
16.7459953565
 20
18.196545595
 10
16.79959994
 20
18.1865240733
 10
16.8507811807
 20
18.1761911315
 10
16.899979793
 20
18.1656659668
 10
16.9471989379
 20
18.1549714276
 10
16.9924354545
 20
18.1440846655
 10
17.0361205743
 20
18.1330563319
 10
17.0783980414
 20
18.1219033106
 10
17.1191241118
 20
18.1106087177
 10
17.1582987856
 20
18.0991725534
  0
LINE
  5
3E7
100
AcDbEntity
  8
RACCORDO
100
AcDbLine
 62
7
  6
CONTINUOUS
 10
17.8041416482
 20
10.9008831567
 11
17.852347022
 21
10.9649115205
  0
LINE
  5
3E8
100
AcDbEntity
  8
ASSI
100
AcDbLine
 62
7
  6
CONTINUOUS
 10
17.8041880292
 20
10.9009524171
 11
17.8524185471
 21
10.9649957254
  0
LINE
  5
3E9
100
AcDbEntity
  8
RACCORDO
100
AcDbLine
 62
7
  6
CONTINUOUS
 10
17.852347022
 20
10.9649115205
 11
17.8974658335
 21
11.0123573612
  0
LINE
  5
3EA
100
AcDbEntity
  8
ASSI
100
AcDbLine
 62
7
  6
CONTINUOUS
 10
17.8524185471
 20
10.9649957254
 11
17.8975511424
 21
11.0124365578
  0
LWPOLYLINE
  5
3EB
100
AcDbEntity
  8
RACCORDO
100
AcDbPolyline
 62
7
  6
CONTINUOUS
 90
3
 70
0
 10
24.361573188
 20
14.549442166
 10
24.2965094448
 20
14.4869595612
 10
24.2215278647
 20
14.4373033012
  0
LWPOLYLINE
  5
3EC
100
AcDbEntity
  8
RACCORDO
100
AcDbPolyline
 62
250
  6
CONTINUOUS
 90
3
 70
0
 10
24.4647591735
 20
11.9375664571
 10
24.2836582759
 20
11.7989579095
 10
24.2416003682
 20
11.7748604694
  0
LWPOLYLINE
  5
3ED
100
AcDbEntity
  8
ASSI
100
AcDbPolyline
 62
250
  6
CONTINUOUS
 90
3
 70
0
 10
24.4647591735
 20
11.9375664571
 10
24.2836582759
 20
11.7989579095
 10
24.2416003682
 20
11.7748604694
  0
LWPOLYLINE
  5
3EE
100
AcDbEntity
  8
RACCORDO
100
AcDbPolyline
 62
250
  6
CONTINUOUS
 90
16
 70
0
 10
2.3062681424
 20
8.2392893871
 10
2.2445067849
 20
8.2235190288
 10
2.1774522553
 20
8.2109892051
 10
2.1058230336
 20
8.2018341714
 10
2.030386617
 20
8.1961520224
 10
1.9519512961
 20
8.1940036417
 10
1.8713574945
 20
8.1954120488
 10
1.7894687634
 20
8.2003621529
 10
1.7071625293
 20
8.2088009143
 10
1.625320692
 20
8.2206379128
 10
1.5448201753
 20
8.2357463166
 10
1.4665235311
 20
8.2539642413
 10
1.391269697
 20
8.2750964846
 10
1.3198650074
 20
8.2989166175
 10
1.2530745536
 20
8.3251694104
 10
1.1916139859
 20
8.3535735685
  0
LWPOLYLINE
  5
3EF
100
AcDbEntity
  8
RACCORDO
100
AcDbPolyline
 62
250
  6
CONTINUOUS
 90
5
 70
0
 10
24.2069684702
 20
-2.3634776524
 10
24.160810499
 20
-2.3476609234
 10
24.1062595508
 20
-2.3436431217
 10
24.0488444625
 20
-2.3530080627
 10
23.9902862899
 20
-2.3750343317
  0
LWPOLYLINE
  5
3F0
100
AcDbEntity
  8
ASSI
100
AcDbPolyline
 62
250
  6
CONTINUOUS
 90
5
 70
0
 10
24.2069684704
 20
-2.3634776524
 10
24.160810499
 20
-2.3476609234
 10
24.1062595508
 20
-2.3436431217
 10
24.0488444625
 20
-2.3530080627
 10
23.9902862899
 20
-2.3750343317
  0
LINE
  5
3F1
100
AcDbEntity
  8
RACCORDO
100
AcDbLine
 62
250
  6
CONTINUOUS
 10
1.1916139614
 20
8.3535735609
 11
-28.8434234376
 21
23.3710922605
  0
LINE
  5
3F2
100
AcDbEntity
  8
RACCORDO
100
AcDbLine
 62
250
  6
CONTINUOUS
 10
23.8020698218
 20
-2.2809260976
 11
23.9902862902
 21
-2.3750343319
  0
LINE
  5
3F3
100
AcDbEntity
  8
ASSI
100
AcDbLine
 62
250
  6
CONTINUOUS
 10
23.8020698218
 20
-2.2809260976
 11
23.9902862902
 21
-2.3750343319
  0
LINE
  5
3F4
100
AcDbEntity
  8
RACCORDO
100
AcDbLine
 62
7
  6
CONTINUOUS
 10
23.9398679981
 20
-2.2299253009
 11
24.2077227305
 21
-2.3638526671
  0
LINE
  5
3F5
100
AcDbEntity
  8
ASSI
100
AcDbLine
 62
7
  6
CONTINUOUS
 10
23.9398679981
 20
-2.2299253009
 11
24.2077227305
 21
-2.3638526671
  0
LWPOLYLINE
  5
3F6
100
AcDbEntity
  8
RACCORDO
100
AcDbPolyline
 62
250
  6
CONTINUOUS
 90
9
 70
0
 10
23.9902862902
 20
-2.3750343319
 10
24.0204630985
 20
-2.3911658624
 10
24.0513240199
 20
-2.4109145746
 10
24.0826009871
 20
-2.4344152708
 10
24.1139474836
 20
-2.461721893
 10
24.1450542218
 20
-2.4928967653
 10
24.1756351212
 20
-2.5280373583
 10
24.2052441859
 20
-2.5670713793
 10
24.2333959765
 20
-2.609841742
  0
LWPOLYLINE
  5
3F7
100
AcDbEntity
  8
ASSI
100
AcDbPolyline
 62
250
  6
CONTINUOUS
 90
9
 70
0
 10
23.9902862902
 20
-2.3750343319
 10
24.0204630985
 20
-2.3911658624
 10
24.0513240199
 20
-2.4109145746
 10
24.0826009871
 20
-2.4344152708
 10
24.1139474836
 20
-2.461721893
 10
24.1450542218
 20
-2.4928967653
 10
24.1756351212
 20
-2.5280373583
 10
24.2052441859
 20
-2.5670713793
 10
24.2333959765
 20
-2.609841742
  0
LWPOLYLINE
  5
3F8
100
AcDbEntity
  8
0
100
AcDbPolyline
 62
7
  6
CONTINUOUS
 90
4
 70
0
 10
-9.424251858
 20
25.2874394756
 10
-9.463401007
 20
25.3367043741
 10
-9.503855962
 20
25.3833012795
 10
-9.545616723
 20
25.4272301915
  0
LWPOLYLINE
  5
3F9
100
AcDbEntity
  8
ASSI
100
AcDbPolyline
 62
7
  6
CONTINUOUS
 90
4
 70
0
 10
-9.424251858
 20
25.2874394756
 10
-9.463401007
 20
25.3367043741
 10
-9.503855962
 20
25.3833012795
 10
-9.545616723
 20
25.4272301915
  0
LINE
  5
3FA
100
AcDbEntity
  8
0
100
AcDbLine
 62
7
  6
CONTINUOUS
 10
-9.424251858
 20
25.2874394756
 11
-9.3668720198
 21
25.211877934
  0
LINE
  5
3FB
100
AcDbEntity
  8
ASSI
100
AcDbLine
 62
7
  6
CONTINUOUS
 10
-9.424251858
 20
25.2874394756
 11
-9.3668720198
 21
25.211877934
  0
LINE
  5
3FC
100
AcDbEntity
  8
0
100
AcDbLine
 62
7
  6
CONTINUOUS
 10
-9.3668720198
 20
25.211877934
 11
-9.3096263103
 21
25.1361384224
  0
LINE
  5
3FD
100
AcDbEntity
  8
ASSI
100
AcDbLine
 62
7
  6
CONTINUOUS
 10
-9.3668720198
 20
25.211877934
 11
-9.3096263103
 21
25.1361384224
  0
LINE
  5
3FE
100
AcDbEntity
  8
0
100
AcDbLine
 62
7
  6
CONTINUOUS
 10
-9.3096263103
 20
25.1361384224
 11
-9.2525147295
 21
25.0602209408
  0
LINE
  5
3FF
100
AcDbEntity
  8
ASSI
100
AcDbLine
 62
7
  6
CONTINUOUS
 10
-9.3096263103
 20
25.1361384224
 11
-9.2525147295
 21
25.0602209408
  0
LINE
  5
400
100
AcDbEntity
  8
RACCORDO
100
AcDbLine
 62
7
  6
CONTINUOUS
 10
-7.6304697877
 20
22.7485067643
 11
-7.6599382222
 21
22.7887874305
  0
LINE
  5
401
100
AcDbEntity
  8
ASSI
100
AcDbLine
 62
7
  6
CONTINUOUS
 10
-7.6304697877
 20
22.7485067643
 11
-7.6599382222
 21
22.7887874305
  0
LWPOLYLINE
  5
402
100
AcDbEntity
  8
RACCORDO
100
AcDbPolyline
 62
7
  6
CONTINUOUS
 90
7
 70
0
 10
-8.7785981705
 20
24.4162100477
 10
-8.6512266025
 20
24.2387254712
 10
-8.5246177144
 20
24.0603965895
 10
-8.3987715063
 20
23.8812234025
 10
-8.2736795455
 20
23.701193556
 10
-8.1493502646
 20
23.5203194043
 10
-8.025808962
 20
23.3386380096
  0
LWPOLYLINE
  5
403
100
AcDbEntity
  8
ASSI
100
AcDbPolyline
 62
7
  6
CONTINUOUS
 90
7
 70
0
 10
-8.7785981705
 20
24.4162100477
 10
-8.6512266025
 20
24.2387254712
 10
-8.5246177144
 20
24.0603965895
 10
-8.3987715063
 20
23.8812234025
 10
-8.2736795455
 20
23.701193556
 10
-8.1493502646
 20
23.5203194043
 10
-8.025808962
 20
23.3386380096
  0
LWPOLYLINE
  5
404
100
AcDbEntity
  8
RACCORDO
100
AcDbPolyline
 62
250
  6
CONTINUOUS
 90
10
 70
0
 10
-0.4171026821
 20
15.0919514001
 10
-0.4492597714
 20
15.1368701928
 10
-0.485197859
 20
15.1796824017
 10
-0.5249154606
 20
15.2195995792
 10
-0.5680144167
 20
15.25538603
 10
-0.6139511385
 20
15.2857592627
 10
-0.6623105835
 20
15.3095155674
 10
-0.7123029755
 20
15.3251736648
 10
-0.7625241132
 20
15.3311406109
 10
-0.811333741
 20
15.3260965506
  0
LWPOLYLINE
  5
405
100
AcDbEntity
  8
RACCORDO
100
AcDbPolyline
 62
7
  6
CONTINUOUS
 90
4
 70
0
 10
-8.025808962
 20
23.3386380096
 10
-7.9030640704
 20
23.1561617261
 10
-7.7811071572
 20
22.9728781998
 10
-7.6599382222
 20
22.7887874305
  0
LWPOLYLINE
  5
406
100
AcDbEntity
  8
ASSI
100
AcDbPolyline
 62
7
  6
CONTINUOUS
 90
4
 70
0
 10
-8.025808962
 20
23.3386380096
 10
-7.9030640704
 20
23.1561617261
 10
-7.7811071572
 20
22.9728781998
 10
-7.6599382222
 20
22.7887874305
  0
LWPOLYLINE
  5
407
100
AcDbEntity
  8
RACCORDO
100
AcDbPolyline
 62
7
  6
CONTINUOUS
 90
4
 70
0
 10
-3.423285437
 20
29.2834317149
 10
-3.4701796272
 20
29.3916536697
 10
-3.5032392127
 20
29.4974268064
 10
-3.5224321881
 20
29.5958327629
  0
LWPOLYLINE
  5
408
100
AcDbEntity
  8
ASSI
100
AcDbPolyline
 62
7
  6
CONTINUOUS
 90
4
 70
0
 10
-3.4232950994
 20
29.2834511491
 10
-3.4702034906
 20
29.3917179175
 10
-3.5032650724
 20
29.4975289577
 10
-3.5224494201
 20
29.5959613456
  0
LWPOLYLINE
  5
409
100
AcDbEntity
  8
RACCORDO
100
AcDbPolyline
 62
250
  6
CONTINUOUS
 90
15
 70
0
 10
-3.6343442387
 20
29.3139500179
 10
-3.6242161059
 20
29.2847308032
 10
-3.6125332698
 20
29.2548231316
 10
-3.5992437225
 20
29.2244146923
 10
-3.5844059679
 20
29.1938446157
 10
-3.5679910766
 20
29.1632617718
 10
-3.550008557
 20
29.1328938133
 10
-3.5306512423
 20
29.1031886671
 10
-3.5099835436
 20
29.0743383399
 10
-3.4880708482
 20
29.0465384705
 10
-3.465183727
 20
29.0201888391
 10
-3.441479469
 20
28.9954820822
 10
-3.4170437615
 20
28.9725288578
 10
-3.3920818998
 20
28.951541287
 10
-3.3667593956
 20
28.9326529847
  0
LWPOLYLINE
  5
40A
100
AcDbEntity
  8
ASSI
100
AcDbPolyline
 62
250
  6
CONTINUOUS
 90
15
 70
0
 10
-3.6343442387
 20
29.3139500179
 10
-3.6242161059
 20
29.2847308032
 10
-3.6125332698
 20
29.2548231316
 10
-3.5992437225
 20
29.2244146923
 10
-3.5844059679
 20
29.1938446157
 10
-3.5679910766
 20
29.1632617718
 10
-3.550008557
 20
29.1328938133
 10
-3.5306512423
 20
29.1031886671
 10
-3.5099835436
 20
29.0743383399
 10
-3.4880708482
 20
29.0465384705
 10
-3.465183727
 20
29.0201888391
 10
-3.441479469
 20
28.9954820822
 10
-3.4170437615
 20
28.9725288578
 10
-3.3920818998
 20
28.951541287
 10
-3.3667593956
 20
28.9326529847
  0
LWPOLYLINE
  5
40B
100
AcDbEntity
  8
RACCORDO
100
AcDbPolyline
 62
250
  6
CONTINUOUS
 90
4
 70
0
 10
-3.7094302533
 20
31.8950794472
 10
-3.6921557839
 20
31.8398738219
 10
-3.679199958
 20
31.782767607
 10
-3.6712736581
 20
31.72471833
  0
LWPOLYLINE
  5
40C
100
AcDbEntity
  8
ASSI
100
AcDbPolyline
 62
250
  6
CONTINUOUS
 90
4
 70
0
 10
-3.7094302533
 20
31.8950794472
 10
-3.6921557839
 20
31.8398738219
 10
-3.679199958
 20
31.782767607
 10
-3.6712736581
 20
31.72471833
  0
LINE
  5
40D
100
AcDbEntity
  8
DRAFT
100
AcDbLine
 62
250
  6
CONTINUOUS
 10
3.7927703636
 20
21.1864255383
 11
3.9695725167
 21
20.3066715064
  0
LINE
  5
40E
100
AcDbEntity
  8
ASSI
100
AcDbLine
 62
250
  6
CONTINUOUS
 10
3.7927703636
 20
21.1864255383
 11
3.9695725167
 21
20.3066715064
  0
LINE
  5
40F
100
AcDbEntity
  8
DRAFT
100
AcDbLine
 62
7
  6
CONTINUOUS
 10
8.5312208089
 20
21.8585292226
 11
8.5208905741
 21
21.9589852904
  0
LINE
  5
410
100
AcDbEntity
  8
ASSI
100
AcDbLine
 62
7
  6
CONTINUOUS
 10
8.5312208089
 20
21.8585292226
 11
8.5208905741
 21
21.9589852904
  0
LINE
  5
411
100
AcDbEntity
  8
SMUSSO
100
AcDbLine
 62
250
  6
CONTINUOUS
 10
13.730170187
 20
18.4157779684
 11
13.730170187
 21
18.9658749643
  0
LINE
  5
412
100
AcDbEntity
  8
ASSI
100
AcDbLine
 62
250
  6
CONTINUOUS
 10
13.730170187
 20
18.4157779684
 11
13.730170187
 21
18.9658749643
  0
LINE
  5
413
100
AcDbEntity
  8
SMUSSO
100
AcDbLine
 62
7
  6
CONTINUOUS
 10
12.9583546379
 20
18.0466564032
 11
12.9849567802
 21
18.23148075
  0
LINE
  5
414
100
AcDbEntity
  8
ASSI
100
AcDbLine
 62
7
  6
CONTINUOUS
 10
12.9583546379
 20
18.0466564032
 11
12.9849567802
 21
18.23148075
  0
LWPOLYLINE
  5
415
100
AcDbEntity
  8
RACCORDO
100
AcDbPolyline
 62
250
  6
CONTINUOUS
 90
5
 70
0
 10
17.5921495168
 20
10.6840150705
 10
17.5722572222
 20
10.6175807061
 10
17.5564596987
 20
10.5506856864
 10
17.5452440863
 20
10.4840531247
 10
17.5381232449
 20
10.4169599077
  0
LWPOLYLINE
  5
416
100
AcDbEntity
  8
ASSI
100
AcDbPolyline
 62
250
  6
CONTINUOUS
 90
5
 70
0
 10
17.5921495168
 20
10.6840150705
 10
17.5722572222
 20
10.6175807061
 10
17.5564596987
 20
10.5506856864
 10
17.5452440863
 20
10.4840531247
 10
17.5381232449
 20
10.4169599077
  0
LWPOLYLINE
  5
417
100
AcDbEntity
  8
ASSI
100
AcDbPolyline
 62
7
  6
CONTINUOUS
 90
3
 70
0
 10
17.7216340601
 20
10.7418937045
 10
17.7585917743
 20
10.8237660867
 10
17.8041880292
 20
10.9009524171
  0
LWPOLYLINE
  5
418
100
AcDbEntity
  8
RACCORDO
100
AcDbPolyline
 62
7
  6
CONTINUOUS
 90
3
 70
0
 10
17.7216356617
 20
10.741897841
 10
17.7585730055
 20
10.8237298873
 10
17.8041416482
 20
10.9008831567
  0
LINE
  5
419
100
AcDbEntity
  8
RACCORDO
100
AcDbLine
 62
7
  6
CONTINUOUS
 10
24.4141791303
 20
14.6223032455
 11
24.361573188
 21
14.549442166
  0
LWPOLYLINE
  5
41A
100
AcDbEntity
  8
ASSI
100
AcDbPolyline
 62
7
  6
CONTINUOUS
 90
3
 70
0
 10
24.4141793513
 20
14.6223036183
 10
24.3615733786
 20
14.5494423855
 10
24.2965095583
 20
14.4869596521
  0
LINE
  5
41B
100
AcDbEntity
  8
RACCORDO
100
AcDbLine
 62
250
  6
CONTINUOUS
 10
24.6120174299
 20
12.1077258079
 11
24.4647591735
 21
11.9375664571
  0
LINE
  5
41C
100
AcDbEntity
  8
ASSI
100
AcDbLine
 62
250
  6
CONTINUOUS
 10
24.6120174299
 20
12.1077258079
 11
24.4647591735
 21
11.9375664571
  0
LWPOLYLINE
  5
41D
100
AcDbEntity
  8
RACCORDO
100
AcDbPolyline
 62
250
  6
CONTINUOUS
 90
6
 70
0
 10
24.9187533134
 20
1.2794856984
 10
24.9513367189
 20
1.2995644206
 10
24.9765395441
 20
1.3221427754
 10
24.993612845
 20
1.3465498716
 10
25.0020492428
 20
1.3720605085
 10
25.0029513733
 20
1.383684454
  0
LWPOLYLINE
  5
41E
100
AcDbEntity
  8
ASSI
100
AcDbPolyline
 62
250
  6
CONTINUOUS
 90
6
 70
0
 10
24.9187533134
 20
1.2794856984
 10
24.9513367189
 20
1.2995644206
 10
24.9765395441
 20
1.3221427754
 10
24.993612845
 20
1.3465498716
 10
25.0020492428
 20
1.3720605085
 10
25.0029513733
 20
1.383684454
  0
LWPOLYLINE
  5
41F
100
AcDbEntity
  8
RACCORDO
100
AcDbPolyline
 62
250
  6
CONTINUOUS
 90
5
 70
0
 10
24.9187533134
 20
-0.5391676495
 10
24.9513368524
 20
-0.5190888288
 10
24.9765396909
 20
-0.4965104094
 10
24.9936129341
 20
-0.4721033021
 10
25.0020492556
 20
-0.446592757
  0
LWPOLYLINE
  5
420
100
AcDbEntity
  8
ASSI
100
AcDbPolyline
 62
250
  6
CONTINUOUS
 90
5
 70
0
 10
24.9187533134
 20
-0.5391676495
 10
24.9513368524
 20
-0.5190888288
 10
24.9765396909
 20
-0.4965104094
 10
24.9936129341
 20
-0.4721033021
 10
25.0020492556
 20
-0.446592757
  0
LWPOLYLINE
  5
421
100
AcDbEntity
  8
RACCORDO
100
AcDbPolyline
 62
250
  6
CONTINUOUS
 90
5
 70
0
 10
17.5350968061
 20
-5.6810581716
 10
17.5894028121
 20
-5.6475933909
 10
17.6314075695
 20
-5.6099626221
 10
17.6598629411
 20
-5.5692840626
 10
17.6739234088
 20
-5.5267664766
  0
LWPOLYLINE
  5
422
100
AcDbEntity
  8
ASSI
100
AcDbPolyline
 62
250
  6
CONTINUOUS
 90
5
 70
0
 10
17.5350968061
 20
-5.6810581716
 10
17.5894028121
 20
-5.6475933909
 10
17.6314075695
 20
-5.6099626221
 10
17.6598629411
 20
-5.5692840626
 10
17.6739234088
 20
-5.5267664766
  0
LINE
  5
423
100
AcDbEntity
  8
RACCORDO
100
AcDbLine
 62
7
  6
CONTINUOUS
 10
24.2415992463
 20
-1.994944043
 11
24.3329331865
 21
-1.9403371643
  0
LINE
  5
424
100
AcDbEntity
  8
ASSI
100
AcDbLine
 62
7
  6
CONTINUOUS
 10
24.2415992463
 20
-1.994944043
 11
24.3329331865
 21
-1.9403371643
  0
LINE
  5
425
100
AcDbEntity
  8
RACCORDO
100
AcDbLine
 62
250
  6
CONTINUOUS
 10
24.2318166238
 20
-2.0001765607
 11
24.2415994395
 21
-1.9949439411
  0
LINE
  5
426
100
AcDbEntity
  8
ASSI
100
AcDbLine
 62
250
  6
CONTINUOUS
 10
24.2318166238
 20
-2.0001765607
 11
24.2415994395
 21
-1.9949439411
  0
LINE
  5
427
100
AcDbEntity
  8
DRAFT
100
AcDbLine
 62
7
  6
CONTINUOUS
 10
24.2318164283
 20
-2.000176664
 11
23.9423999216
 21
-2.1529623992
  0
LINE
  5
428
100
AcDbEntity
  8
ASSI
100
AcDbLine
 62
7
  6
CONTINUOUS
 10
24.2318164283
 20
-2.000176664
 11
23.9423999216
 21
-2.1529623992
  0
LINE
  5
429
100
AcDbEntity
  8
RACCORDO
100
AcDbLine
 62
250
  6
CONTINUOUS
 10
23.9197499231
 20
0.7622784793
 11
24.9187533134
 21
1.2794856984
  0
LINE
  5
42A
100
AcDbEntity
  8
ASSI
100
AcDbLine
 62
250
  6
CONTINUOUS
 10
23.9197499231
 20
0.7622784793
 11
24.9187533134
 21
1.2794856984
  0
LINE
  5
42B
100
AcDbEntity
  8
RACCORDO
100
AcDbLine
 62
250
  6
CONTINUOUS
 10
23.9197499231
 20
-1.0564154414
 11
24.9187533134
 21
-0.5391676495
  0
LINE
  5
42C
100
AcDbEntity
  8
ASSI
100
AcDbLine
 62
250
  6
CONTINUOUS
 10
23.9197499231
 20
-1.0564154414
 11
24.9187533134
 21
-0.5391676495
  0
LINE
  5
42D
100
AcDbEntity
  8
RACCORDO
100
AcDbLine
 62
7
  6
CONTINUOUS
 10
17.675426906
 20
-5.3197861501
 11
23.8020698218
 21
-2.2809260976
  0
LINE
  5
42E
100
AcDbEntity
  8
ASSI
100
AcDbLine
 62
7
  6
CONTINUOUS
 10
17.675426906
 20
-5.3197861501
 11
23.8020698218
 21
-2.2809260976
  0
LINE
  5
42F
100
AcDbEntity
  8
RACCORDO
100
AcDbLine
 62
250
  6
CONTINUOUS
 10
23.9902862902
 20
-2.3750343319
 11
17.727708367
 21
-5.4813191501
  0
LINE
  5
430
100
AcDbEntity
  8
ASSI
100
AcDbLine
 62
250
  6
CONTINUOUS
 10
23.9902862902
 20
-2.3750343319
 11
17.727708367
 21
-5.4813191501
  0
LINE
  5
431
100
AcDbEntity
  8
RACCORDO
100
AcDbLine
 62
250
  6
CONTINUOUS
 10
24.3437858329
 20
-2.9847308552
 11
18.0812079097
 21
-6.0910156735
  0
LINE
  5
432
100
AcDbEntity
  8
ASSI
100
AcDbLine
 62
250
  6
CONTINUOUS
 10
24.3437858329
 20
-2.9847308552
 11
18.0812079097
 21
-6.0910156735
  0
LWPOLYLINE
  5
433
100
AcDbEntity
  8
RACCORDO
100
AcDbPolyline
 62
7
  6
CONTINUOUS
 90
5
 70
0
 10
23.8020698218
 20
-2.2809260976
 10
23.8677745662
 20
-2.256760814
 10
23.9119428395
 20
-2.2385607572
 10
23.9359903735
 20
-2.2289794496
 10
23.9399412608
 20
-2.2284889599
  0
LWPOLYLINE
  5
434
100
AcDbEntity
  8
ASSI
100
AcDbPolyline
 62
7
  6
CONTINUOUS
 90
5
 70
0
 10
23.8020698218
 20
-2.2809260976
 10
23.8677745662
 20
-2.256760814
 10
23.9119428395
 20
-2.2385607572
 10
23.9359903735
 20
-2.2289794496
 10
23.9399412608
 20
-2.2284889599
  0
LINE
  5
435
100
AcDbEntity
  8
RACCORDO
100
AcDbLine
 62
250
  6
CONTINUOUS
 10
2.3219895951
 20
10.0054175349
 11
-27.7299860576
 21
25.0314053613
  0
LINE
  5
436
100
AcDbEntity
  8
DRAFT
100
AcDbLine
 62
7
  6
CONTINUOUS
 10
7.7032368968
 20
10.5333251493
 11
6.9392784336
 21
10.9153043809
  0
LINE
  5
437
100
AcDbEntity
  8
RACCORDO
100
AcDbLine
 62
7
  6
CONTINUOUS
 10
-23.7523423881
 20
26.744334043
 11
6.4412894818
 21
11.647518108
  0
LINE
  5
438
100
AcDbEntity
  8
0
100
AcDbLine
 62
7
  6
CONTINUOUS
 10
-10.1032449786
 20
20.0865431112
 11
-5.8606042915
 21
17.9652227676
  0
LINE
  5
439
100
AcDbEntity
  8
0
100
AcDbLine
 62
7
  6
CONTINUOUS
 10
7.1256699859
 20
11.5445160917
 11
-24.4993286119
 21
27.3570153906
  0
LINE
  5
43A
100
AcDbEntity
  8
0
100
AcDbLine
 62
7
  6
CONTINUOUS
 10
-24.1480517561
 20
27.5684528996
 11
6.7743931301
 21
12.1072304565
  0
LINE
  5
43B
100
AcDbEntity
  8
RACCORDO
100
AcDbLine
 62
7
  6
CONTINUOUS
 10
24.2069684702
 20
-2.3634776524
 11
24.2666280385
 21
-2.3985299233
  0
LINE
  5
43C
100
AcDbEntity
  8
ASSI
100
AcDbLine
 62
7
  6
CONTINUOUS
 10
24.2069684704
 20
-2.3634776524
 11
24.2666280337
 21
-2.3985299193
  0
LINE
  5
43D
100
AcDbEntity
  8
ASSI
100
AcDbLine
 62
7
  6
CONTINUOUS
 10
24.2666280337
 20
-2.3985299193
 11
24.33353593
 21
-2.4534272469
  0
LINE
  5
43E
100
AcDbEntity
  8
RACCORDO
100
AcDbLine
 62
7
  6
CONTINUOUS
 10
24.2666280385
 20
-2.3985299233
 11
24.333535942
 21
-2.4534272586
  0
LWPOLYLINE
  5
43F
100
AcDbEntity
  8
0
100
AcDbPolyline
 62
7
  6
CONTINUOUS
 90
6
 70
0
 10
-9.545616723
 20
25.4272301915
 10
-9.5889826878
 20
25.4687508733
 10
-9.6336544585
 20
25.5076035618
 10
-9.6787338413
 20
25.5430089681
 10
-9.7239214382
 20
25.5747073292
 10
-9.7695166471
 20
25.602958408
  0
LWPOLYLINE
  5
440
100
AcDbEntity
  8
ASSI
100
AcDbPolyline
 62
7
  6
CONTINUOUS
 90
6
 70
0
 10
-9.545616723
 20
25.4272301915
 10
-9.5889826878
 20
25.4687508733
 10
-9.6336544585
 20
25.5076035618
 10
-9.6787338413
 20
25.5430089681
 10
-9.7239214382
 20
25.5747073292
 10
-9.7695166471
 20
25.602958408
  0
LWPOLYLINE
  5
441
100
AcDbEntity
  8
0
100
AcDbPolyline
 62
7
  6
CONTINUOUS
 90
11
 70
0
 10
-2.9898555285
 20
18.7222502646
 10
-2.9490919559
 20
18.6783796927
 10
-2.9076007761
 20
18.6407102054
 10
-2.8653819891
 20
18.6092418028
 10
-2.8217672083
 20
18.5836826969
 10
-2.7774248203
 20
18.5643246756
 10
-2.734359985
 20
18.5520431027
 10
-2.6926318779
 20
18.5471625838
 10
-2.6521813234
 20
18.5493585133
 10
-2.6148359542
 20
18.558532438
 10
-2.5942772393
 20
18.567420772
  0
LWPOLYLINE
  5
442
100
AcDbEntity
  8
ASSI
100
AcDbPolyline
 62
7
  6
CONTINUOUS
 90
11
 70
0
 10
-2.9898555285
 20
18.7222502646
 10
-2.9490919559
 20
18.6783796927
 10
-2.9076007761
 20
18.6407102054
 10
-2.8653819891
 20
18.6092418028
 10
-2.8217672083
 20
18.5836826969
 10
-2.7774248203
 20
18.5643246756
 10
-2.734359985
 20
18.5520431027
 10
-2.6926318779
 20
18.5471625838
 10
-2.6521813234
 20
18.5493585133
 10
-2.6148359542
 20
18.558532438
 10
-2.5942772393
 20
18.567420772
  0
LWPOLYLINE
  5
443
100
AcDbEntity
  8
0
100
AcDbPolyline
 62
7
  6
CONTINUOUS
 90
12
 70
0
 10
-9.0360418818
 20
24.5530235555
 10
-9.0701454032
 20
24.5903503639
 10
-9.1019666606
 20
24.6305234028
 10
-9.1314322383
 20
24.6736367657
 10
-9.1586155519
 20
24.7195963591
 10
-9.1826120584
 20
24.7668815538
 10
-9.2033181817
 20
24.8155472567
 10
-9.2208374978
 20
24.8655385609
 10
-9.2345761921
 20
24.9151701164
 10
-9.2443363264
 20
24.9638801399
 10
-9.2503158388
 20
25.0122304147
 10
-9.2525147295
 20
25.0602209408
  0
LWPOLYLINE
  5
444
100
AcDbEntity
  8
ASSI
100
AcDbPolyline
 62
7
  6
CONTINUOUS
 90
12
 70
0
 10
-9.0360418818
 20
24.5530235555
 10
-9.0701454032
 20
24.5903503639
 10
-9.1019666606
 20
24.6305234028
 10
-9.1314322383
 20
24.6736367657
 10
-9.1586155519
 20
24.7195963591
 10
-9.1826120584
 20
24.7668815538
 10
-9.2033181817
 20
24.8155472567
 10
-9.2208374978
 20
24.8655385609
 10
-9.2345761921
 20
24.9151701164
 10
-9.2443363264
 20
24.9638801399
 10
-9.2503158388
 20
25.0122304147
 10
-9.2525147295
 20
25.0602209408
  0
LINE
  5
445
100
AcDbEntity
  8
0
100
AcDbLine
 62
7
  6
CONTINUOUS
 10
3.6716596273
 20
15.9718968809
 11
3.725726534
 21
15.9007828517
  0
LINE
  5
446
100
AcDbEntity
  8
ASSI
100
AcDbLine
 62
7
  6
CONTINUOUS
 10
3.6716596273
 20
15.9718968809
 11
3.725726534
 21
15.9007828517
  0
LINE
  5
447
100
AcDbEntity
  8
0
100
AcDbLine
 62
7
  6
CONTINUOUS
 10
3.725726534
 20
15.9007828517
 11
3.7796750127
 21
15.8295110966
  0
LINE
  5
448
100
AcDbEntity
  8
ASSI
100
AcDbLine
 62
7
  6
CONTINUOUS
 10
3.725726534
 20
15.9007828517
 11
3.7796750127
 21
15.8295110966
  0
LINE
  5
449
100
AcDbEntity
  8
0
100
AcDbLine
 62
7
  6
CONTINUOUS
 10
3.7796750127
 20
15.8295110966
 11
3.8335050633
 21
15.7580816158
  0
LINE
  5
44A
100
AcDbEntity
  8
ASSI
100
AcDbLine
 62
7
  6
CONTINUOUS
 10
3.7796750127
 20
15.8295110966
 11
3.8335050633
 21
15.7580816158
  0
LINE
  5
44B
100
AcDbEntity
  8
0
100
AcDbLine
 62
7
  6
CONTINUOUS
 10
4.3545266039
 20
15.0500591984
 11
4.6028909441
 21
14.6979680483
  0
LINE
  5
44C
100
AcDbEntity
  8
ASSI
100
AcDbLine
 62
7
  6
CONTINUOUS
 10
4.3545266039
 20
15.0500591984
 11
4.6028909441
 21
14.6979680483
  0
LWPOLYLINE
  5
44D
100
AcDbEntity
  8
RACCORDO
100
AcDbPolyline
 62
7
  6
CONTINUOUS
 90
3
 70
0
 10
-3.6225810526
 20
32.1321054138
 10
-3.5779787509
 20
32.0568926258
 10
-3.5470194072
 20
31.9745492686
  0
LWPOLYLINE
  5
44E
100
AcDbEntity
  8
ASSI
100
AcDbPolyline
 62
7
  6
CONTINUOUS
 90
4
 70
0
 10
-3.6225810526
 20
32.1321054138
 10
-3.5779787562
 20
32.0568926367
 10
-3.5470194095
 20
31.9745492767
 10
-3.530920413
 20
31.8875161201
  0
LINE
  5
44F
100
AcDbEntity
  8
RACCORDO
100
AcDbLine
 62
7
  6
CONTINUOUS
 10
-2.1926209419
 20
28.2544725324
 11
-2.0449009284
 21
27.9996380659
  0
LINE
  5
450
100
AcDbEntity
  8
ASSI
100
AcDbLine
 62
7
  6
CONTINUOUS
 10
-2.1926209419
 20
28.2544725324
 11
-2.0449009284
 21
27.9996380659
  0
LWPOLYLINE
  5
451
100
AcDbEntity
  8
RACCORDO
100
AcDbPolyline
 62
250
  6
CONTINUOUS
 90
3
 70
0
 10
17.9574181725
 20
-5.6949901028
 10
18.0009876154
 20
-5.7701362759
 10
18.0360694075
 20
-5.8497537661
  0
LWPOLYLINE
  5
452
100
AcDbEntity
  8
ASSI
100
AcDbPolyline
 62
250
  6
CONTINUOUS
 90
3
 70
0
 10
17.9574181725
 20
-5.6949901028
 10
18.0009876154
 20
-5.7701362759
 10
18.0360694075
 20
-5.8497537661
  0
LINE
  5
453
100
AcDbEntity
  8
ASSI
100
AcDbLine
 62
7
  6
CONTINUOUS
 10
17.6803963831
 20
-5.5613791747
 11
17.6812960055
 21
-5.5630485393
  0
LWPOLYLINE
  5
454
100
AcDbEntity
  8
RACCORDO
100
AcDbPolyline
 62
7
  6
CONTINUOUS
 90
3
 70
0
 10
17.6803963831
 20
-5.5613791747
 10
17.6812968318
 20
-5.5630505122
 10
17.6798183006
 20
-5.5562587122
  0
LWPOLYLINE
  5
455
100
AcDbEntity
  8
RACCORDO
100
AcDbPolyline
 62
250
  6
CONTINUOUS
 90
15
 70
0
 10
17.5837346545
 20
-5.9392183587
 10
17.5996672426
 20
-5.9720521879
 10
17.6185328505
 20
-6.0029447806
 10
17.6403752069
 20
-6.0320956451
 10
17.665150583
 20
-6.0593052729
 10
17.6932557237
 20
-6.0832087282
 10
17.7248981075
 20
-6.1039000288
 10
17.7598702559
 20
-6.1212851568
 10
17.7979464782
 20
-6.1337171223
 10
17.8394193243
 20
-6.1410166638
 10
17.8839962443
 20
-6.1433630427
 10
17.9305738969
 20
-6.1396470537
 10
17.9787845018
 20
-6.1294989616
 10
18.0289958394
 20
-6.1132885015
 10
18.0812079097
 20
-6.0910156735
  0
LWPOLYLINE
  5
456
100
AcDbEntity
  8
ASSI
100
AcDbPolyline
 62
250
  6
CONTINUOUS
 90
15
 70
0
 10
17.5837346545
 20
-5.9392183587
 10
17.5996672426
 20
-5.9720521879
 10
17.6185328505
 20
-6.0029447806
 10
17.6403752069
 20
-6.0320956451
 10
17.665150583
 20
-6.0593052729
 10
17.6932557237
 20
-6.0832087282
 10
17.7248981075
 20
-6.1039000288
 10
17.7598702559
 20
-6.1212851568
 10
17.7979464782
 20
-6.1337171223
 10
17.8394193243
 20
-6.1410166638
 10
17.8839962443
 20
-6.1433630427
 10
17.9305738969
 20
-6.1396470537
 10
17.9787845018
 20
-6.1294989616
 10
18.0289958394
 20
-6.1132885015
 10
18.0812079097
 20
-6.0910156735
  0
LINE
  5
457
100
AcDbEntity
  8
RACCORDO
100
AcDbLine
 62
7
  6
CONTINUOUS
 10
5.1103837405
 20
27.6244525208
 11
5.2859530342
 21
26.7342961991
  0
LINE
  5
458
100
AcDbEntity
  8
ASSI
100
AcDbLine
 62
7
  6
CONTINUOUS
 10
5.1103837405
 20
27.6244525208
 11
5.2859530342
 21
26.7342961991
  0
LINE
  5
459
100
AcDbEntity
  8
RACCORDO
100
AcDbLine
 62
7
  6
CONTINUOUS
 10
8.2923642558
 20
26.0334622632
 11
8.4679335495
 21
25.1433059415
  0
LINE
  5
45A
100
AcDbEntity
  8
ASSI
100
AcDbLine
 62
7
  6
CONTINUOUS
 10
8.2923642558
 20
26.0334622632
 11
8.4679335495
 21
25.1433059415
  0
LWPOLYLINE
  5
45B
100
AcDbEntity
  8
RACCORDO
100
AcDbPolyline
 62
7
  6
CONTINUOUS
 90
3
 70
0
 10
17.6785451684
 20
-5.5504088655
 10
17.6755609215
 20
-5.517096837
 10
17.6754267171
 20
-5.5075543293
  0
LWPOLYLINE
  5
45C
100
AcDbEntity
  8
ASSI
100
AcDbPolyline
 62
7
  6
CONTINUOUS
 90
3
 70
0
 10
17.6785441568
 20
-5.5504042173
 10
17.6755597689
 20
-5.5170557572
 10
17.6754267178
 20
-5.5075537773
  0
LWPOLYLINE
  5
45D
100
AcDbEntity
  8
RACCORDO
100
AcDbPolyline
 62
250
  6
CONTINUOUS
 90
6
 70
0
 10
17.5350968061
 20
-5.6810581715
 10
17.5358792384
 20
-5.7205096795
 10
17.5386893877
 20
-5.7591240198
 10
17.5435272539
 20
-5.7969011923
 10
17.5502670467
 20
-5.8339537499
 10
17.5590345565
 20
-5.8701691397
  0
LWPOLYLINE
  5
45E
100
AcDbEntity
  8
ASSI
100
AcDbPolyline
 62
250
  6
CONTINUOUS
 90
6
 70
0
 10
17.5350968061
 20
-5.6810581715
 10
17.5358792384
 20
-5.7205096795
 10
17.5386893877
 20
-5.7591240198
 10
17.5435272539
 20
-5.7969011923
 10
17.5502670467
 20
-5.8339537499
 10
17.5590345565
 20
-5.8701691397
  0
LINE
  5
45F
100
AcDbEntity
  8
DRAFT
100
AcDbLine
 62
7
  6
CONTINUOUS
 10
14.4709177709
 20
18.4152720198
 11
14.4709177709
 21
18.7785275099
  0
LINE
  5
460
100
AcDbEntity
  8
ASSI
100
AcDbLine
 62
7
  6
CONTINUOUS
 10
14.4709177709
 20
18.4152720198
 11
14.4709177709
 21
18.7785275099
  0
LINE
  5
461
100
AcDbEntity
  8
0
100
AcDbLine
 62
7
  6
CONTINUOUS
 10
15.1456107326
 20
17.092828527
 11
15.1456107326
 21
16.9305656895
  0
LINE
  5
462
100
AcDbEntity
  8
0
100
AcDbLine
 62
7
  6
CONTINUOUS
 10
15.3970898132
 20
17.5651882311
 11
15.3970898132
 21
16.9096129537
  0
LINE
  5
463
100
AcDbEntity
  8
0
100
AcDbLine
 62
7
  6
CONTINUOUS
 10
15.8468344745
 20
17.4434403979
 11
15.8468344745
 21
16.8971393126
  0
LINE
  5
464
100
AcDbEntity
  8
DRAFT
100
AcDbLine
 62
7
  6
CONTINUOUS
 10
15.8851313332
 20
18.295377781
 11
15.8851313332
 21
18.7656081147
  0
LINE
  5
465
100
AcDbEntity
  8
ASSI
100
AcDbLine
 62
7
  6
CONTINUOUS
 10
15.8851313332
 20
18.295377781
 11
15.8851313332
 21
18.7656081147
  0
LINE
  5
466
100
AcDbEntity
  8
0
100
AcDbLine
 62
7
  6
CONTINUOUS
 10
16.6953626119
 20
17.0191763292
 11
16.6953626119
 21
16.9561052633
  0
LINE
  5
467
100
AcDbEntity
  8
RACCORDO
100
AcDbLine
 62
250
  6
CONTINUOUS
 10
17.5350968061
 20
-15.9320508656
 11
17.5350968061
 21
-10.4755114748
  0
LINE
  5
468
100
AcDbEntity
  8
ASSI
100
AcDbLine
 62
250
  6
CONTINUOUS
 10
17.5350968061
 20
-15.9320508656
 11
17.5350968061
 21
-10.4755114748
  0
LINE
  5
469
100
AcDbEntity
  8
RACCORDO
100
AcDbLine
 62
250
  6
CONTINUOUS
 10
17.5350968061
 20
-5.6810581715
 11
17.5350971745
 21
10.3494060356
  0
LINE
  5
46A
100
AcDbEntity
  8
ASSI
100
AcDbLine
 62
250
  6
CONTINUOUS
 10
17.5350968061
 20
-5.6810581715
 11
17.5350971745
 21
10.3494060356
  0
LINE
  5
46B
100
AcDbEntity
  8
RACCORDO
100
AcDbLine
 62
7
  6
CONTINUOUS
 10
17.675426906
 20
-15.757670174
 11
17.675426906
 21
-10.4755114748
  0
LINE
  5
46C
100
AcDbEntity
  8
RACCORDO
100
AcDbLine
 62
7
  6
CONTINUOUS
 10
17.675426906
 20
-10.4755114748
 11
17.6754266742
 21
-10.3016061635
  0
LINE
  5
46D
100
AcDbEntity
  8
ASSI
100
AcDbLine
 62
7
  6
CONTINUOUS
 10
17.675426906
 20
-15.757670174
 11
17.675426906
 21
-10.4755114748
  0
LINE
  5
46E
100
AcDbEntity
  8
ASSI
100
AcDbLine
 62
7
  6
CONTINUOUS
 10
17.675426906
 20
-10.4755114748
 11
17.6754266774
 21
-10.3016078572
  0
LINE
  5
46F
100
AcDbEntity
  8
SMUSSO
100
AcDbLine
 62
7
  6
CONTINUOUS
 10
18.0015763182
 20
21.0845238946
 11
18.0015763182
 21
20.5929909081
  0
LINE
  5
470
100
AcDbEntity
  8
ASSI
100
AcDbLine
 62
7
  6
CONTINUOUS
 10
18.0015763182
 20
21.0845238946
 11
18.0015763182
 21
20.5929909081
  0
LINE
  5
471
100
AcDbEntity
  8
ASSI
100
AcDbLine
 62
7
  6
CONTINUOUS
 10
17.6754268033
 20
-5.5075537789
 11
17.675426796
 21
10.5232329735
  0
LINE
  5
472
100
AcDbEntity
  8
RACCORDO
100
AcDbLine
 62
7
  6
CONTINUOUS
 10
17.6754268026
 20
-5.5075543309
 11
17.6754267942
 21
10.5232343153
  0
LWPOLYLINE
  5
473
100
AcDbEntity
  8
RACCORDO
100
AcDbPolyline
 62
7
  6
CONTINUOUS
 90
3
 70
0
 10
17.6754266657
 20
10.5232343177
 10
17.675493277
 20
10.5301571516
 10
17.6805026507
 20
10.5891250569
  0
LWPOLYLINE
  5
474
100
AcDbEntity
  8
ASSI
100
AcDbPolyline
 62
7
  6
CONTINUOUS
 90
3
 70
0
 10
17.6754266675
 20
10.5232329759
 10
17.6754918149
 20
10.5300783625
 10
17.6804926965
 20
10.5890561197
  0
LWPOLYLINE
  5
475
100
AcDbEntity
  8
ASSI
100
AcDbPolyline
 62
7
  6
CONTINUOUS
 90
4
 70
0
 10
17.6754263178
 20
-10.3016078294
 10
17.6756638589
 20
-10.2850260901
 10
17.6835097331
 20
-10.198360608
 10
17.7043826218
 20
-10.097592676
  0
LWPOLYLINE
  5
476
100
AcDbEntity
  8
RACCORDO
100
AcDbPolyline
 62
7
  6
CONTINUOUS
 90
4
 70
0
 10
17.6754263146
 20
-10.3016061357
 10
17.6756682067
 20
-10.2848708486
 10
17.6835322083
 20
-10.1982089143
 10
17.7044170721
 20
-10.0974621393
  0
LINE
  5
477
100
AcDbEntity
  8
RACCORDO
100
AcDbLine
 62
250
  6
CONTINUOUS
 10
17.5370813599
 20
-10.4116486249
 11
17.5350968061
 21
-10.4755114748
  0
LINE
  5
478
100
AcDbEntity
  8
ASSI
100
AcDbLine
 62
250
  6
CONTINUOUS
 10
17.5370813599
 20
-10.4116486249
 11
17.5350968061
 21
-10.4755114748
  0
LINE
  5
479
100
AcDbEntity
  8
ASSI
100
AcDbLine
 62
7
  6
CONTINUOUS
 10
17.6682411353
 20
-15.9283729427
 11
17.6753676141
 21
-15.7575552672
  0
LINE
  5
47A
100
AcDbEntity
  8
RACCORDO
100
AcDbLine
 62
7
  6
CONTINUOUS
 10
17.6682410513
 20
-15.9283735626
 11
17.6753676141
 21
-15.757555271
  0
LINE
  5
47B
100
AcDbEntity
  8
RACCORDO
100
AcDbLine
 62
250
  6
CONTINUOUS
 10
17.5277127112
 20
-16.1059718703
 11
17.5350987925
 21
-15.9320496984
  0
LINE
  5
47C
100
AcDbEntity
  8
ASSI
100
AcDbLine
 62
250
  6
CONTINUOUS
 10
17.5277127112
 20
-16.1059718703
 11
17.5350987925
 21
-15.9320496984
  0
LINE
  5
47D
100
AcDbEntity
  8
RACCORDO
100
AcDbLine
 62
250
  6
CONTINUOUS
 10
17.5381232449
 20
10.4169599077
 11
17.5350971745
 21
10.3494060356
  0
LINE
  5
47E
100
AcDbEntity
  8
ASSI
100
AcDbLine
 62
250
  6
CONTINUOUS
 10
17.5381232449
 20
10.4169599077
 11
17.5350971745
 21
10.3494060356
  0
LWPOLYLINE
  5
47F
100
AcDbEntity
  8
RACCORDO
100
AcDbPolyline
 62
250
  6
CONTINUOUS
 90
6
 70
0
 10
18.0812079094
 20
11.3248746685
 10
18.0767980134
 20
11.2528904023
 10
18.0615977892
 20
11.1883673369
 10
18.0360689548
 20
11.1332652012
 10
18.0009869216
 20
11.0892575572
 10
17.9591210414
 20
11.0585912638
  0
LWPOLYLINE
  5
480
100
AcDbEntity
  8
ASSI
100
AcDbPolyline
 62
250
  6
CONTINUOUS
 90
6
 70
0
 10
18.0812079094
 20
11.3248746685
 10
18.0767980134
 20
11.2528904023
 10
18.0615977892
 20
11.1883673369
 10
18.0360689548
 20
11.1332652012
 10
18.0009869216
 20
11.0892575572
 10
17.9591241151
 20
11.0585929263
  0
LWPOLYLINE
  5
481
100
AcDbEntity
  8
RACCORDO
100
AcDbPolyline
 62
250
  6
CONTINUOUS
 90
6
 70
0
 10
18.2177356856
 20
-9.2561713443
 10
18.2133258425
 20
-9.3281552419
 10
18.1981257625
 20
-9.3926780969
 10
18.17259712
 20
-9.4477801755
 10
18.1375152946
 20
-9.4917878821
 10
18.0954776956
 20
-9.5225471872
  0
LWPOLYLINE
  5
482
100
AcDbEntity
  8
ASSI
100
AcDbPolyline
 62
250
  6
CONTINUOUS
 90
6
 70
0
 10
18.2177356856
 20
-9.2561713443
 10
18.2133258425
 20
-9.3281552419
 10
18.1981257625
 20
-9.3926780969
 10
18.17259712
 20
-9.4477801755
 10
18.1375152946
 20
-9.4917878821
 10
18.0954776956
 20
-9.5225471872
  0
LWPOLYLINE
  5
483
100
AcDbEntity
  8
RACCORDO
100
AcDbPolyline
 62
250
  6
CONTINUOUS
 90
6
 70
0
 10
17.675426906
 20
10.5230671568
 10
17.6739234062
 20
10.5036942422
 10
17.6598629273
 20
10.4611766461
 10
17.6314075479
 20
10.4204980896
 10
17.589402793
 20
10.3828673306
 10
17.5350968061
 20
10.3494025642
  0
LWPOLYLINE
  5
484
100
AcDbEntity
  8
ASSI
100
AcDbPolyline
 62
250
  6
CONTINUOUS
 90
6
 70
0
 10
17.675426906
 20
10.5230671568
 10
17.6739234062
 20
10.5036942422
 10
17.6598629273
 20
10.4611766461
 10
17.6314075479
 20
10.4204980896
 10
17.589402793
 20
10.3828673306
 10
17.5350968061
 20
10.3494025642
  0
LWPOLYLINE
  5
485
100
AcDbEntity
  8
RACCORDO
100
AcDbPolyline
 62
250
  6
CONTINUOUS
 90
6
 70
0
 10
17.675426906
 20
-10.3018468828
 10
17.6739236143
 20
-10.3212184581
 10
17.6598634882
 20
-10.3637362959
 10
17.6314082479
 20
-10.4044151722
 10
17.5894033262
 20
-10.4420463155
 10
17.5350968061
 20
-10.4755114757
  0
LWPOLYLINE
  5
486
100
AcDbEntity
  8
ASSI
100
AcDbPolyline
 62
250
  6
CONTINUOUS
 90
6
 70
0
 10
17.675426906
 20
-10.3018468828
 10
17.6739236143
 20
-10.3212184581
 10
17.6598634882
 20
-10.3637362959
 10
17.6314082479
 20
-10.4044151722
 10
17.5894033262
 20
-10.4420463155
 10
17.5350968061
 20
-10.4755114757
  0
LINE
  5
487
100
AcDbEntity
  8
ASSI
100
AcDbLine
 62
250
  6
CONTINUOUS
 10
17.6739234088
 20
-5.5267664766
 11
17.6754268033
 21
-5.5075537789
  0
LINE
  5
488
100
AcDbEntity
  8
RACCORDO
100
AcDbLine
 62
250
  6
CONTINUOUS
 10
17.6739234088
 20
-5.5267664766
 11
17.6754268026
 21
-5.5075543309
  0
LWPOLYLINE
  5
489
100
AcDbEntity
  8
RACCORDO
100
AcDbPolyline
 62
250
  6
CONTINUOUS
 90
3
 70
0
 10
17.5510700838
 20
-10.2826126769
 10
17.5424057859
 20
-10.3473490256
 10
17.5370813599
 20
-10.4116486249
  0
LWPOLYLINE
  5
48A
100
AcDbEntity
  8
ASSI
100
AcDbPolyline
 62
250
  6
CONTINUOUS
 90
3
 70
0
 10
17.5510700838
 20
-10.2826126769
 10
17.5424057859
 20
-10.3473490256
 10
17.5370813599
 20
-10.4116486249
  0
LWPOLYLINE
  5
48B
100
AcDbEntity
  8
ASSI
100
AcDbPolyline
 62
7
  6
CONTINUOUS
 90
3
 70
0
 10
17.6804926965
 20
10.5890561197
 10
17.6955616937
 20
10.6620204169
 10
17.7216340601
 20
10.7418937045
  0
LWPOLYLINE
  5
48C
100
AcDbEntity
  8
RACCORDO
100
AcDbPolyline
 62
7
  6
CONTINUOUS
 90
3
 70
0
 10
17.6805026507
 20
10.5891250569
 10
17.6955726296
 20
10.6620616248
 10
17.7216356617
 20
10.741897841
  0
LINE
  5
48D
100
AcDbEntity
  8
RACCORDO
100
AcDbLine
 62
250
  6
CONTINUOUS
 10
24.4670441317
 20
14.8125742208
 11
24.4821422082
 21
14.8551523473
  0
LINE
  5
48E
100
AcDbEntity
  8
ASSI
100
AcDbLine
 62
250
  6
CONTINUOUS
 10
24.4670441317
 20
14.8125742208
 11
24.4821422082
 21
14.8551523473
  0
LINE
  5
48F
100
AcDbEntity
  8
RACCORDO
100
AcDbLine
 62
7
  6
CONTINUOUS
 10
24.4524385309
 20
14.7022049198
 11
24.4141791303
 21
14.6223032455
  0
LINE
  5
490
100
AcDbEntity
  8
ASSI
100
AcDbLine
 62
7
  6
CONTINUOUS
 10
24.4524386644
 20
14.7022051986
 11
24.4141793513
 21
14.6223036183
  0
LWPOLYLINE
  5
491
100
AcDbEntity
  8
RACCORDO
100
AcDbPolyline
 62
250
  6
CONTINUOUS
 90
9
 70
0
 10
24.4266371027
 20
-1.866794456
 10
24.5052368093
 20
-1.7917582683
 10
24.5756467239
 20
-1.7104881758
 10
24.6381626715
 20
-1.6240453786
 10
24.6931019066
 20
-1.5334740675
 10
24.7410120132
 20
-1.43937062
 10
24.7822486046
 20
-1.3425510736
 10
24.817168743
 20
-1.243831366
 10
24.8462516005
 20
-1.1436084559
  0
LWPOLYLINE
  5
492
100
AcDbEntity
  8
ASSI
100
AcDbPolyline
 62
250
  6
CONTINUOUS
 90
9
 70
0
 10
24.4266371027
 20
-1.866794456
 10
24.5052368093
 20
-1.7917582683
 10
24.5756467239
 20
-1.7104881758
 10
24.6381626715
 20
-1.6240453786
 10
24.6931019066
 20
-1.5334740675
 10
24.7410120132
 20
-1.43937062
 10
24.7822486046
 20
-1.3425510736
 10
24.817168743
 20
-1.243831366
 10
24.8462516005
 20
-1.1436084559
  0
LWPOLYLINE
  5
493
100
AcDbEntity
  8
RACCORDO
100
AcDbPolyline
 62
7
  6
CONTINUOUS
 90
4
 70
0
 10
24.3329331865
 20
-1.9403371643
 10
24.5593418622
 20
-1.7488443425
 10
24.7455057302
 20
-1.4984330664
 10
24.8856908851
 20
-1.1912806404
  0
LWPOLYLINE
  5
494
100
AcDbEntity
  8
ASSI
100
AcDbPolyline
 62
7
  6
CONTINUOUS
 90
4
 70
0
 10
24.3329331865
 20
-1.9403371643
 10
24.5593418622
 20
-1.7488443425
 10
24.7455057302
 20
-1.4984330664
 10
24.8856908851
 20
-1.1912806404
  0
LINE
  5
495
100
AcDbEntity
  8
RACCORDO
100
AcDbLine
 62
250
  6
CONTINUOUS
 10
24.3392750198
 20
-1.9347121776
 11
24.4266371027
 21
-1.866794456
  0
LINE
  5
496
100
AcDbEntity
  8
ASSI
100
AcDbLine
 62
250
  6
CONTINUOUS
 10
24.3392750198
 20
-1.9347121776
 11
24.4266371027
 21
-1.866794456
  0
LWPOLYLINE
  5
497
100
AcDbEntity
  8
RACCORDO
100
AcDbPolyline
 62
7
  6
CONTINUOUS
 90
6
 70
0
 10
24.2215279501
 20
-6.217402533
 10
24.2931208846
 20
-6.1704320299
 10
24.3570181843
 20
-6.1104326423
 10
24.410214224
 20
-6.0389730232
 10
24.4503408476
 20
-5.958009648
 10
24.4752621371
 20
-5.8710385464
  0
LWPOLYLINE
  5
498
100
AcDbEntity
  8
ASSI
100
AcDbPolyline
 62
7
  6
CONTINUOUS
 90
6
 70
0
 10
24.2215279501
 20
-6.217402533
 10
24.2931208846
 20
-6.1704320299
 10
24.3570181843
 20
-6.1104326423
 10
24.410214224
 20
-6.0389730232
 10
24.4503408476
 20
-5.958009648
 10
24.4752621371
 20
-5.8710385464
  0
LINE
  5
499
100
AcDbEntity
  8
RACCORDO
100
AcDbLine
 62
250
  6
CONTINUOUS
 10
24.2415994395
 20
-1.9949439411
 11
24.3392750198
 21
-1.9347121776
  0
LINE
  5
49A
100
AcDbEntity
  8
ASSI
100
AcDbLine
 62
250
  6
CONTINUOUS
 10
24.2415994395
 20
-1.9949439411
 11
24.3392750198
 21
-1.9347121776
  0
LWPOLYLINE
  5
49B
100
AcDbEntity
  8
RACCORDO
100
AcDbPolyline
 62
250
  6
CONTINUOUS
 90
12
 70
0
 10
18.2177356856
 20
-9.2561713443
 10
18.1914797855
 20
-9.2707127336
 10
18.1644080243
 20
-9.2873028969
 10
18.1365204021
 20
-9.3059418342
 10
18.1077802532
 20
-9.3264817658
 10
18.0782242433
 20
-9.3490704714
 10
18.047962369
 20
-9.3741512903
 10
18.0169400481
 20
-9.4017292541
 10
17.9852118628
 20
-9.4317993312
 10
17.9530515562
 20
-9.4647897654
 10
17.9203557462
 20
-9.5007872045
 10
17.8872278149
 20
-9.5397050008
  0
LWPOLYLINE
  5
49C
100
AcDbEntity
  8
ASSI
100
AcDbPolyline
 62
250
  6
CONTINUOUS
 90
12
 70
0
 10
18.2177356856
 20
-9.2561713443
 10
18.1914797855
 20
-9.2707127336
 10
18.1644080243
 20
-9.2873028969
 10
18.1365204021
 20
-9.3059418342
 10
18.1077802532
 20
-9.3264817658
 10
18.0782242433
 20
-9.3490704714
 10
18.047962369
 20
-9.3741512903
 10
18.0169400481
 20
-9.4017292541
 10
17.9852118628
 20
-9.4317993312
 10
17.9530515562
 20
-9.4647897654
 10
17.9203557462
 20
-9.5007872045
 10
17.8872278149
 20
-9.5397050008
  0
LINE
  5
49D
100
AcDbEntity
  8
RACCORDO
100
AcDbLine
 62
250
  6
CONTINUOUS
 10
18.2177356856
 20
-9.2561713443
 11
24.3437858329
 21
-5.9510267479
  0
LINE
  5
49E
100
AcDbEntity
  8
ASSI
100
AcDbLine
 62
250
  6
CONTINUOUS
 10
18.2177356856
 20
-9.2561713443
 11
24.3437858329
 21
-5.9510267479
  0
LINE
  5
49F
100
AcDbEntity
  8
RACCORDO
100
AcDbLine
 62
7
  6
CONTINUOUS
 10
24.221527843
 20
-6.2174025908
 11
18.0950738425
 21
-9.5227644418
  0
LINE
  5
4A0
100
AcDbEntity
  8
ASSI
100
AcDbLine
 62
7
  6
CONTINUOUS
 10
24.221527843
 20
-6.2174025908
 11
18.0950761685
 21
-9.5227631941
  0
LINE
  5
4A1
100
AcDbEntity
  8
RACCORDO
100
AcDbLine
 62
7
  6
CONTINUOUS
 10
18.6709111207
 20
20.3339544082
 11
18.5662080907
 21
20.3106750218
  0
LINE
  5
4A2
100
AcDbEntity
  8
ASSI
100
AcDbLine
 62
7
  6
CONTINUOUS
 10
18.6709111207
 20
20.3339544082
 11
18.5662080907
 21
20.3106750218
  0
LINE
  5
4A3
100
AcDbEntity
  8
0
100
AcDbLine
 62
7
  6
CONTINUOUS
 10
7.1498630201
 20
17.599626887
 11
8.008451616
 21
17.7560002513
  0
LINE
  5
4A4
100
AcDbEntity
  8
ASSI
100
AcDbLine
 62
7
  6
CONTINUOUS
 10
7.1498630201
 20
17.599626887
 11
8.008451616
 21
17.7560002513
  0
LWPOLYLINE
  5
4A5
100
AcDbEntity
  8
RACCORDO
100
AcDbPolyline
 62
250
  6
CONTINUOUS
 90
6
 70
0
 10
13.8125440667
 20
14.3241065222
 10
13.8657904608
 20
14.3208031632
 10
13.9194822876
 20
14.3232154945
 10
13.9729691835
 20
14.3321798216
 10
14.0269129323
 20
14.3468664086
 10
14.0813167758
 20
14.367276768
  0
LWPOLYLINE
  5
4A6
100
AcDbEntity
  8
ASSI
100
AcDbPolyline
 62
250
  6
CONTINUOUS
 90
6
 70
0
 10
13.8125440667
 20
14.3241065222
 10
13.8657904608
 20
14.3208031632
 10
13.9194822876
 20
14.3232154945
 10
13.9729691835
 20
14.3321798216
 10
14.0269129323
 20
14.3468664086
 10
14.0813167758
 20
14.367276768
  0
LINE
  5
4A7
100
AcDbEntity
  8
SMUSSO
100
AcDbLine
 62
7
  6
CONTINUOUS
 10
15.3406736833
 20
16.911731263
 11
14.896035919
 21
16.9546635434
  0
LINE
  5
4A8
100
AcDbEntity
  8
ASSI
100
AcDbLine
 62
7
  6
CONTINUOUS
 10
15.3406736833
 20
16.911731263
 11
14.896035919
 21
16.9546635434
  0
LINE
  5
4A9
100
AcDbEntity
  8
RACCORDO
100
AcDbLine
 62
250
  6
CONTINUOUS
 10
13.7617108279
 20
14.3306262566
 11
13.8125440667
 21
14.3241065222
  0
LINE
  5
4AA
100
AcDbEntity
  8
ASSI
100
AcDbLine
 62
250
  6
CONTINUOUS
 10
13.7617108279
 20
14.3306262566
 11
13.8125440667
 21
14.3241065222
  0
LWPOLYLINE
  5
4AB
100
AcDbEntity
  8
0
100
AcDbPolyline
 62
7
  6
CONTINUOUS
 90
8
 70
0
 10
7.1313044062
 20
16.4612587593
 10
7.09455822
 20
16.4661899621
 10
7.0576983272
 20
16.4760534357
 10
7.0207247278
 20
16.4908491801
 10
6.983213695
 20
16.5108597591
 10
6.9455889557
 20
16.535802609
 10
6.9091216901
 20
16.5648300385
 10
6.8738606949
 20
16.5980722672
  0
LWPOLYLINE
  5
4AC
100
AcDbEntity
  8
ASSI
100
AcDbPolyline
 62
7
  6
CONTINUOUS
 90
8
 70
0
 10
7.1313044062
 20
16.4612587593
 10
7.09455822
 20
16.4661899621
 10
7.0576983272
 20
16.4760534357
 10
7.0207247278
 20
16.4908491801
 10
6.983213695
 20
16.5108597591
 10
6.9455889557
 20
16.535802609
 10
6.9091216901
 20
16.5648300385
 10
6.8738606949
 20
16.5980722672
  0
LWPOLYLINE
  5
4AD
100
AcDbEntity
  8
0
100
AcDbPolyline
 62
7
  6
CONTINUOUS
 90
4
 70
0
 10
-2.0978112748
 20
18.9717976194
 10
-2.0527875497
 20
18.9621180614
 10
-2.0076573682
 20
18.948633769
 10
-1.9621218867
 20
18.9313050875
  0
LWPOLYLINE
  5
4AE
100
AcDbEntity
  8
ASSI
100
AcDbPolyline
 62
7
  6
CONTINUOUS
 90
4
 70
0
 10
-2.0978112748
 20
18.9717976194
 10
-2.0527875497
 20
18.9621180614
 10
-2.0076573682
 20
18.948633769
 10
-1.9621218867
 20
18.9313050875
  0
LWPOLYLINE
  5
4AF
100
AcDbEntity
  8
0
100
AcDbPolyline
 62
7
  6
CONTINUOUS
 90
5
 70
0
 10
0.9271422163
 20
20.2564313625
 10
0.8811393954
 20
20.2776303868
 10
0.8355441864
 20
20.2949745169
 10
0.7903565896
 20
20.3084637527
 10
0.7452772068
 20
20.3181377292
  0
LWPOLYLINE
  5
4B0
100
AcDbEntity
  8
ASSI
100
AcDbPolyline
 62
7
  6
CONTINUOUS
 90
5
 70
0
 10
0.9271422163
 20
20.2564313625
 10
0.8811393954
 20
20.2776303868
 10
0.8355441864
 20
20.2949745169
 10
0.7903565896
 20
20.3084637527
 10
0.7452772068
 20
20.3181377292
  0
LINE
  5
4B1
100
AcDbEntity
  8
0
100
AcDbLine
 62
7
  6
CONTINUOUS
 10
-1.9621218867
 20
18.9313050875
 11
-1.916181105
 21
18.910132017
  0
LINE
  5
4B2
100
AcDbEntity
  8
ASSI
100
AcDbLine
 62
7
  6
CONTINUOUS
 10
-1.9621218867
 20
18.9313050875
 11
-1.916181105
 21
18.910132017
  0
LINE
  5
4B3
100
AcDbEntity
  8
0
100
AcDbLine
 62
7
  6
CONTINUOUS
 10
-17.8720244634
 20
26.8862563759
 11
-17.8260836817
 21
26.8650833053
  0
LINE
  5
4B4
100
AcDbEntity
  8
ASSI
100
AcDbLine
 62
7
  6
CONTINUOUS
 10
-17.8720244634
 20
26.8862563759
 11
-17.8260836817
 21
26.8650833053
  0
LINE
  5
4B5
100
AcDbEntity
  8
0
100
AcDbLine
 62
7
  6
CONTINUOUS
 10
-22.7585233833
 20
28.378675212
 11
-17.5610194169
 21
25.7799232288
  0
LINE
  5
4B6
100
AcDbEntity
  8
0
100
AcDbLine
 62
7
  6
CONTINUOUS
 10
-12.8941146611
 20
23.4464708508
 11
-1.6511168402
 21
17.8249719404
  0
LINE
  5
4B7
100
AcDbEntity
  8
0
100
AcDbLine
 62
7
  6
CONTINUOUS
 10
3.0157879156
 20
15.4915195625
 11
8.213291882
 21
12.8927675793
  0
LINE
  5
4B8
100
AcDbEntity
  8
0
100
AcDbLine
 62
7
  6
CONTINUOUS
 10
-17.6811004741
 20
25.9265662978
 11
-12.7740336038
 21
23.4730328626
  0
LINE
  5
4B9
100
AcDbEntity
  8
ASSI
100
AcDbLine
 62
7
  6
CONTINUOUS
 10
-17.6811004741
 20
25.9265662978
 11
-12.7740336038
 21
23.4730328626
  0
LINE
  5
4BA
100
AcDbEntity
  8
0
100
AcDbLine
 62
7
  6
CONTINUOUS
 10
-1.7711978974
 20
17.9716150094
 11
3.1358689729
 21
15.5180815743
  0
LINE
  5
4BB
100
AcDbEntity
  8
ASSI
100
AcDbLine
 62
7
  6
CONTINUOUS
 10
-1.7711978974
 20
17.9716150094
 11
3.1358689729
 21
15.5180815743
  0
LINE
  5
4BC
100
AcDbEntity
  8
0
100
AcDbLine
 62
7
  6
CONTINUOUS
 10
3.2808521804
 20
16.3116153743
 11
-1.916181105
 21
18.910132017
  0
LINE
  5
4BD
100
AcDbEntity
  8
ASSI
100
AcDbLine
 62
7
  6
CONTINUOUS
 10
3.2808521804
 20
16.3116153743
 11
-1.916181105
 21
18.910132017
  0
LINE
  5
4BE
100
AcDbEntity
  8
0
100
AcDbLine
 62
7
  6
CONTINUOUS
 10
-12.6290503963
 20
24.2665666626
 11
-17.8260836817
 21
26.8650833053
  0
LINE
  5
4BF
100
AcDbEntity
  8
ASSI
100
AcDbLine
 62
7
  6
CONTINUOUS
 10
-12.6290503963
 20
24.2665666626
 11
-17.8260836817
 21
26.8650833053
  0
LINE
  5
4C0
100
AcDbEntity
  8
RACCORDO
100
AcDbLine
 62
250
  6
CONTINUOUS
 10
8.4203218527
 20
14.7144319054
 11
8.2821405698
 21
14.7835225469
  0
LINE
  5
4C1
100
AcDbEntity
  8
ASSI
100
AcDbLine
 62
250
  6
CONTINUOUS
 10
8.4203218527
 20
14.7144319054
 11
8.2821405698
 21
14.7835225469
  0
LINE
  5
4C2
100
AcDbEntity
  8
RACCORDO
100
AcDbLine
 62
250
  6
CONTINUOUS
 10
-7.3580626973
 20
22.6036241805
 11
-7.6179844825
 21
22.7335850731
  0
LINE
  5
4C3
100
AcDbEntity
  8
ASSI
100
AcDbLine
 62
250
  6
CONTINUOUS
 10
-7.3580626973
 20
22.6036241805
 11
-7.6179844825
 21
22.7335850731
  0
LINE
  5
4C4
100
AcDbEntity
  8
0
100
AcDbLine
 62
7
  6
CONTINUOUS
 10
-16.2623077617
 20
27.3979768233
 11
-11.5058205477
 21
25.0197332163
  0
LINE
  5
4C5
100
AcDbEntity
  8
ASSI
100
AcDbLine
 62
7
  6
CONTINUOUS
 10
-16.2623077617
 20
27.3979768233
 11
-11.5058205477
 21
25.0197332163
  0
LINE
  5
4C6
100
AcDbEntity
  8
0
100
AcDbLine
 62
7
  6
CONTINUOUS
 10
-0.352405185
 20
19.4430255349
 11
4.404082029
 21
17.0647819279
  0
LINE
  5
4C7
100
AcDbEntity
  8
ASSI
100
AcDbLine
 62
7
  6
CONTINUOUS
 10
-0.352405185
 20
19.4430255349
 11
4.404082029
 21
17.0647819279
  0
LINE
  5
4C8
100
AcDbEntity
  8
0
100
AcDbLine
 62
7
  6
CONTINUOUS
 10
-15.7315206816
 20
27.4773155828
 11
-11.1880794904
 21
25.2055949872
  0
LINE
  5
4C9
100
AcDbEntity
  8
0
100
AcDbLine
 62
7
  6
CONTINUOUS
 10
0.1783818951
 20
19.5223642944
 11
4.7218230863
 21
17.2506436988
  0
LINE
  5
4CA
100
AcDbEntity
  8
0
100
AcDbLine
 62
7
  6
CONTINUOUS
 10
-13.459800086
 20
26.625694606
 11
-10.8518904686
 21
25.3217397973
  0
LINE
  5
4CB
100
AcDbEntity
  8
ASSI
100
AcDbLine
 62
7
  6
CONTINUOUS
 10
-13.459800086
 20
26.625694606
 11
-10.8518904686
 21
25.3217397973
  0
LINE
  5
4CC
100
AcDbEntity
  8
0
100
AcDbLine
 62
7
  6
CONTINUOUS
 10
2.4501024907
 20
18.6707433176
 11
5.0580121081
 21
17.3667885089
  0
LINE
  5
4CD
100
AcDbEntity
  8
ASSI
100
AcDbLine
 62
7
  6
CONTINUOUS
 10
2.4501024907
 20
18.6707433176
 11
5.0580121081
 21
17.3667885089
  0
LINE
  5
4CE
100
AcDbEntity
  8
0
100
AcDbLine
 62
7
  6
CONTINUOUS
 10
6.0943831086
 20
17.6728109163
 11
5.9149257185
 21
17.7625396114
  0
LINE
  5
4CF
100
AcDbEntity
  8
ASSI
100
AcDbLine
 62
7
  6
CONTINUOUS
 10
6.0943831086
 20
17.6728109163
 11
5.9149257185
 21
17.7625396114
  0
LINE
  5
4D0
100
AcDbEntity
  8
0
100
AcDbLine
 62
7
  6
CONTINUOUS
 10
1.1065996064
 20
20.1667026674
 11
0.9271422163
 21
20.2564313625
  0
LINE
  5
4D1
100
AcDbEntity
  8
ASSI
100
AcDbLine
 62
7
  6
CONTINUOUS
 10
1.1065996064
 20
20.1667026674
 11
0.9271422163
 21
20.2564313625
  0
LINE
  5
4D2
100
AcDbEntity
  8
0
100
AcDbLine
 62
7
  6
CONTINUOUS
 10
-9.8155194681
 20
25.6277622047
 11
-9.9949768582
 21
25.7174908997
  0
LINE
  5
4D3
100
AcDbEntity
  8
ASSI
100
AcDbLine
 62
7
  6
CONTINUOUS
 10
-9.8155194681
 20
25.6277622047
 11
-9.9949768582
 21
25.7174908997
  0
LINE
  5
4D4
100
AcDbEntity
  8
0
100
AcDbLine
 62
7
  6
CONTINUOUS
 10
-14.8033029703
 20
28.1216539557
 11
-14.9827603604
 21
28.2113826508
  0
LINE
  5
4D5
100
AcDbEntity
  8
ASSI
100
AcDbLine
 62
7
  6
CONTINUOUS
 10
-14.8033029703
 20
28.1216539557
 11
-14.9827603604
 21
28.2113826508
  0
LINE
  5
4D6
100
AcDbEntity
  8
0
100
AcDbLine
 62
7
  6
CONTINUOUS
 10
-13.459800086
 20
27.5159064572
 11
-9.0757380426
 21
25.3238754355
  0
LINE
  5
4D7
100
AcDbEntity
  8
ASSI
100
AcDbLine
 62
7
  6
CONTINUOUS
 10
-13.459800086
 20
27.5159064572
 11
-9.0757380426
 21
25.3238754355
  0
LINE
  5
4D8
100
AcDbEntity
  8
0
100
AcDbLine
 62
7
  6
CONTINUOUS
 10
2.4501024907
 20
19.5609551689
 11
6.834164534
 21
17.3689241472
  0
LINE
  5
4D9
100
AcDbEntity
  8
ASSI
100
AcDbLine
 62
7
  6
CONTINUOUS
 10
2.4501024907
 20
19.5609551689
 11
6.834164534
 21
17.3689241472
  0
LWPOLYLINE
  5
4DA
100
AcDbEntity
  8
RACCORDO
100
AcDbPolyline
 62
7
  6
CONTINUOUS
 90
6
 70
0
 10
-7.479790766
 20
22.6165285258
 10
-7.4946168261
 20
22.624506275
 10
-7.5312002336
 20
22.648560335
 10
-7.5663575561
 20
22.6777462696
 10
-7.5992862304
 20
22.7112380387
 10
-7.6304697877
 20
22.7485067643
  0
LWPOLYLINE
  5
4DB
100
AcDbEntity
  8
ASSI
100
AcDbPolyline
 62
7
  6
CONTINUOUS
 90
6
 70
0
 10
-7.479790766
 20
22.6165285258
 10
-7.4946168261
 20
22.624506275
 10
-7.5312002336
 20
22.648560335
 10
-7.5663575561
 20
22.6777462696
 10
-7.5992862304
 20
22.7112380387
 10
-7.6304697877
 20
22.7485067643
  0
LWPOLYLINE
  5
4DC
100
AcDbEntity
  8
0
100
AcDbPolyline
 62
7
  6
CONTINUOUS
 90
10
 70
0
 10
-12.6290503963
 20
24.2665666626
 10
-12.5831096146
 20
24.2417989515
 10
-12.537574133
 20
24.2135921514
 10
-12.4924439516
 20
24.1819462624
 10
-12.4474202264
 20
24.1466020952
 10
-12.4028018013
 20
24.1078188389
 10
-12.3594852079
 20
24.0663740615
 10
-12.3177692901
 20
24.022526952
 10
-12.2773552039
 20
23.9760183213
 10
-12.2382429494
 20
23.9268481693
  0
LWPOLYLINE
  5
4DD
100
AcDbEntity
  8
ASSI
100
AcDbPolyline
 62
7
  6
CONTINUOUS
 90
10
 70
0
 10
-12.6290503963
 20
24.2665666626
 10
-12.5831096146
 20
24.2417989515
 10
-12.537574133
 20
24.2135921514
 10
-12.4924439516
 20
24.1819462624
 10
-12.4474202264
 20
24.1466020952
 10
-12.4028018013
 20
24.1078188389
 10
-12.3594852079
 20
24.0663740615
 10
-12.3177692901
 20
24.022526952
 10
-12.2773552039
 20
23.9760183213
 10
-12.2382429494
 20
23.9268481693
  0
LWPOLYLINE
  5
4DE
100
AcDbEntity
  8
0
100
AcDbPolyline
 62
7
  6
CONTINUOUS
 90
10
 70
0
 10
3.2808521804
 20
16.3116153743
 10
3.3267929621
 20
16.2868476632
 10
3.3723284437
 20
16.2586408631
 10
3.4174586251
 20
16.2269949741
 10
3.4624823503
 20
16.1916508068
 10
3.5071007754
 20
16.1528675506
 10
3.5504173688
 20
16.1114227731
 10
3.5921332866
 20
16.0675756636
 10
3.6325473728
 20
16.0210670329
 10
3.6716596273
 20
15.9718968809
  0
LWPOLYLINE
  5
4DF
100
AcDbEntity
  8
ASSI
100
AcDbPolyline
 62
7
  6
CONTINUOUS
 90
10
 70
0
 10
3.2808521804
 20
16.3116153743
 10
3.3267929621
 20
16.2868476632
 10
3.3723284437
 20
16.2586408631
 10
3.4174586251
 20
16.2269949741
 10
3.4624823503
 20
16.1916508068
 10
3.5071007754
 20
16.1528675506
 10
3.5504173688
 20
16.1114227731
 10
3.5921332866
 20
16.0675756636
 10
3.6325473728
 20
16.0210670329
 10
3.6716596273
 20
15.9718968809
  0
LINE
  5
4E0
100
AcDbEntity
  8
0
100
AcDbLine
 62
7
  6
CONTINUOUS
 10
-9.7695166471
 20
25.602958408
 11
-9.8155194681
 21
25.6277622047
  0
LINE
  5
4E1
100
AcDbEntity
  8
ASSI
100
AcDbLine
 62
7
  6
CONTINUOUS
 10
-9.7695166471
 20
25.602958408
 11
-9.8155194681
 21
25.6277622047
  0
LINE
  5
4E2
100
AcDbEntity
  8
0
100
AcDbLine
 62
7
  6
CONTINUOUS
 10
6.1403859296
 20
17.6480071197
 11
6.0943831086
 21
17.6728109163
  0
LINE
  5
4E3
100
AcDbEntity
  8
ASSI
100
AcDbLine
 62
7
  6
CONTINUOUS
 10
6.1403859296
 20
17.6480071197
 11
6.0943831086
 21
17.6728109163
  0
LWPOLYLINE
  5
4E4
100
AcDbEntity
  8
RACCORDO
100
AcDbPolyline
 62
7
  6
CONTINUOUS
 90
7
 70
0
 10
8.6522775882
 20
14.4922146399
 10
8.6052975292
 20
14.5214155112
 10
8.5596037311
 20
14.5513386919
 10
8.515196144
 20
14.5819837239
 10
8.471774197
 20
14.6131280918
 10
8.4296384557
 20
14.6449935096
 10
8.4171644912
 20
14.6549710088
  0
LWPOLYLINE
  5
4E5
100
AcDbEntity
  8
ASSI
100
AcDbPolyline
 62
7
  6
CONTINUOUS
 90
7
 70
0
 10
8.6522775882
 20
14.4922146399
 10
8.6052975292
 20
14.5214155112
 10
8.5596037311
 20
14.5513386919
 10
8.515196144
 20
14.5819837239
 10
8.471774197
 20
14.6131280918
 10
8.4296384557
 20
14.6449935096
 10
8.4171600095
 20
14.6549746514
  0
LINE
  5
4E6
100
AcDbEntity
  8
ASSI
100
AcDbLine
 62
7
  6
CONTINUOUS
 10
-9.9637012373
 20
28.5890889968
 11
-9.9760450691
 21
28.5985175224
  0
LINE
  5
4E7
100
AcDbEntity
  8
RACCORDO
100
AcDbLine
 62
7
  6
CONTINUOUS
 10
-7.9014509607
 20
25.7109515397
 11
-7.5155128604
 21
25.4112285096
  0
LINE
  5
4E8
100
AcDbEntity
  8
ASSI
100
AcDbLine
 62
7
  6
CONTINUOUS
 10
-7.9014509607
 20
25.7109515397
 11
-7.5155128604
 21
25.4112285096
  0
LWPOLYLINE
  5
4E9
100
AcDbEntity
  8
ASSI
100
AcDbPolyline
 62
7
  6
CONTINUOUS
 90
4
 70
0
 10
8.4171600095
 20
14.6549746514
 10
8.3896901663
 20
14.6782453164
 10
8.3522292584
 20
14.7131043678
 10
8.3169548014
 20
14.7493476396
  0
LINE
  5
4EA
100
AcDbEntity
  8
RACCORDO
100
AcDbLine
 62
7
  6
CONTINUOUS
 10
8.4171644912
 20
14.6549710088
 11
8.3896901663
 21
14.6782453164
  0
LWPOLYLINE
  5
4EB
100
AcDbEntity
  8
RACCORDO
100
AcDbPolyline
 62
7
  6
CONTINUOUS
 90
3
 70
0
 10
8.3896901663
 20
14.6782453164
 10
8.3522292584
 20
14.7131043678
 10
8.3169548014
 20
14.7493476396
  0
LWPOLYLINE
  5
4EC
100
AcDbEntity
  8
0
100
AcDbPolyline
 62
7
  6
CONTINUOUS
 90
6
 70
0
 10
6.3642858537
 20
17.4722789032
 10
6.3209198889
 20
17.513799585
 10
6.2762481182
 20
17.5526522735
 10
6.2311687354
 20
17.5880576798
 10
6.1859811385
 20
17.6197560409
 10
6.1403859296
 20
17.6480071197
  0
LWPOLYLINE
  5
4ED
100
AcDbEntity
  8
ASSI
100
AcDbPolyline
 62
7
  6
CONTINUOUS
 90
6
 70
0
 10
6.3642858537
 20
17.4722789032
 10
6.3209198889
 20
17.513799585
 10
6.2762481182
 20
17.5526522735
 10
6.2311687354
 20
17.5880576798
 10
6.1859811385
 20
17.6197560409
 10
6.1403859296
 20
17.6480071197
  0
LWPOLYLINE
  5
4EE
100
AcDbEntity
  8
0
100
AcDbPolyline
 62
7
  6
CONTINUOUS
 90
12
 70
0
 10
6.8738606949
 20
16.5980722672
 10
6.8397571735
 20
16.6353990756
 10
6.8079359161
 20
16.6755721145
 10
6.7784703384
 20
16.7186854774
 10
6.7512870248
 20
16.7646450708
 10
6.7272905183
 20
16.8119302655
 10
6.706584395
 20
16.8605959684
 10
6.6890650789
 20
16.9105872725
 10
6.6753263846
 20
16.960218828
 10
6.6655662503
 20
17.0089288515
 10
6.6595867379
 20
17.0572791263
 10
6.6573878472
 20
17.1052696525
  0
LWPOLYLINE
  5
4EF
100
AcDbEntity
  8
ASSI
100
AcDbPolyline
 62
7
  6
CONTINUOUS
 90
12
 70
0
 10
6.8738606949
 20
16.5980722672
 10
6.8397571735
 20
16.6353990756
 10
6.8079359161
 20
16.6755721145
 10
6.7784703384
 20
16.7186854774
 10
6.7512870248
 20
16.7646450708
 10
6.7272905183
 20
16.8119302655
 10
6.706584395
 20
16.8605959684
 10
6.6890650789
 20
16.9105872725
 10
6.6753263846
 20
16.960218828
 10
6.6655662503
 20
17.0089288515
 10
6.6595867379
 20
17.0572791263
 10
6.6573878472
 20
17.1052696525
  0
LWPOLYLINE
  5
4F0
100
AcDbEntity
  8
RACCORDO
100
AcDbPolyline
 62
7
  6
CONTINUOUS
 90
4
 70
0
 10
-3.233661776
 20
29.0151402755
 10
-3.2994766469
 20
29.0885922978
 10
-3.3645876633
 20
29.1795650798
 10
-3.423285437
 20
29.2834317149
  0
LWPOLYLINE
  5
4F1
100
AcDbEntity
  8
ASSI
100
AcDbPolyline
 62
7
  6
CONTINUOUS
 90
4
 70
0
 10
-3.233590505
 20
29.0150694518
 10
-3.2994327653
 20
29.0885376427
 10
-3.3645728495
 20
29.1795418714
 10
-3.4232950994
 20
29.2834511491
  0
LINE
  5
4F2
100
AcDbEntity
  8
RACCORDO
100
AcDbLine
 62
7
  6
CONTINUOUS
 10
8.3169548014
 20
14.7493476396
 11
8.2838663421
 21
14.7869740915
  0
LINE
  5
4F3
100
AcDbEntity
  8
ASSI
100
AcDbLine
 62
7
  6
CONTINUOUS
 10
8.3169548014
 20
14.7493476396
 11
8.2838663421
 21
14.7869740915
  0
LINE
  5
4F4
100
AcDbEntity
  8
RACCORDO
100
AcDbLine
 62
7
  6
CONTINUOUS
 10
24.333535942
 20
-2.4534272586
 11
24.3902334075
 21
-2.5194011128
  0
LINE
  5
4F5
100
AcDbEntity
  8
ASSI
100
AcDbLine
 62
7
  6
CONTINUOUS
 10
24.33353593
 20
-2.4534272469
 11
24.3902334075
 21
-2.5194011128
  0
LINE
  5
4F6
100
AcDbEntity
  8
RACCORDO
100
AcDbLine
 62
7
  6
CONTINUOUS
 10
-3.6792785247
 20
32.1980792735
 11
-3.6225810526
 21
32.1321054138
  0
LINE
  5
4F7
100
AcDbEntity
  8
ASSI
100
AcDbLine
 62
7
  6
CONTINUOUS
 10
-3.6792785302
 20
32.1980792798
 11
-3.6225810526
 21
32.1321054138
  0
LWPOLYLINE
  5
4F8
100
AcDbEntity
  8
0
100
AcDbPolyline
 62
7
  6
CONTINUOUS
 90
4
 70
0
 10
6.4856507187
 20
17.3324881872
 10
6.4465015697
 20
17.3817530858
 10
6.4060466147
 20
17.4283499911
 10
6.3642858537
 20
17.4722789032
  0
LWPOLYLINE
  5
4F9
100
AcDbEntity
  8
ASSI
100
AcDbPolyline
 62
7
  6
CONTINUOUS
 90
4
 70
0
 10
6.4856507187
 20
17.3324881872
 10
6.4465015697
 20
17.3817530858
 10
6.4060466147
 20
17.4283499911
 10
6.3642858537
 20
17.4722789032
  0
LWPOLYLINE
  5
4FA
100
AcDbEntity
  8
RACCORDO
100
AcDbPolyline
 62
7
  6
CONTINUOUS
 90
7
 70
0
 10
8.2838663421
 20
14.7869740915
 10
8.2779803436
 20
14.7944669548
 10
8.272185995
 20
14.8020922404
 10
8.2664853487
 20
14.8098460172
 10
8.2608803394
 20
14.8177241642
 10
8.2553727798
 20
14.8257223717
 10
8.2499643545
 20
14.8338361421
  0
LWPOLYLINE
  5
4FB
100
AcDbEntity
  8
ASSI
100
AcDbPolyline
 62
7
  6
CONTINUOUS
 90
7
 70
0
 10
8.2838663421
 20
14.7869740915
 10
8.2779803436
 20
14.7944669548
 10
8.272185995
 20
14.8020922404
 10
8.2664853487
 20
14.8098460172
 10
8.2608803394
 20
14.8177241642
 10
8.2553727798
 20
14.8257223717
 10
8.2499643545
 20
14.8338361421
  0
LINE
  5
4FC
100
AcDbEntity
  8
0
100
AcDbLine
 62
7
  6
CONTINUOUS
 10
6.4856507187
 20
17.3324881872
 11
6.543030557
 21
17.2569266456
  0
LINE
  5
4FD
100
AcDbEntity
  8
ASSI
100
AcDbLine
 62
7
  6
CONTINUOUS
 10
6.4856507187
 20
17.3324881872
 11
6.543030557
 21
17.2569266456
  0
LINE
  5
4FE
100
AcDbEntity
  8
0
100
AcDbLine
 62
7
  6
CONTINUOUS
 10
6.543030557
 20
17.2569266456
 11
6.6002762665
 21
17.1811871341
  0
LINE
  5
4FF
100
AcDbEntity
  8
ASSI
100
AcDbLine
 62
7
  6
CONTINUOUS
 10
6.543030557
 20
17.2569266456
 11
6.6002762665
 21
17.1811871341
  0
LINE
  5
500
100
AcDbEntity
  8
0
100
AcDbLine
 62
7
  6
CONTINUOUS
 10
6.6002762665
 20
17.1811871341
 11
6.6573878472
 21
17.1052696525
  0
LINE
  5
501
100
AcDbEntity
  8
ASSI
100
AcDbLine
 62
7
  6
CONTINUOUS
 10
6.6002762665
 20
17.1811871341
 11
6.6573878472
 21
17.1052696525
  0
LWPOLYLINE
  5
502
100
AcDbEntity
  8
RACCORDO
100
AcDbPolyline
 62
7
  6
CONTINUOUS
 90
7
 70
0
 10
7.8840940946
 20
15.3836860117
 10
7.7605549556
 20
15.5653643143
 10
7.6362284885
 20
15.7462344484
 10
7.5111378812
 20
15.9262623649
 10
7.385290863
 20
16.105436714
 10
7.2586797047
 20
16.2837688455
 10
7.1313044062
 20
16.4612587593
  0
LWPOLYLINE
  5
503
100
AcDbEntity
  8
ASSI
100
AcDbPolyline
 62
7
  6
CONTINUOUS
 90
7
 70
0
 10
7.8840940946
 20
15.3836860117
 10
7.7605549556
 20
15.5653643143
 10
7.6362284885
 20
15.7462344484
 10
7.5111378812
 20
15.9262623649
 10
7.385290863
 20
16.105436714
 10
7.2586797047
 20
16.2837688455
 10
7.1313044062
 20
16.4612587593
  0
LINE
  5
504
100
AcDbEntity
  8
RACCORDO
100
AcDbLine
 62
7
  6
CONTINUOUS
 10
8.006838176
 20
15.2012108904
 11
7.8840940946
 21
15.3836860117
  0
LINE
  5
505
100
AcDbEntity
  8
ASSI
100
AcDbLine
 62
7
  6
CONTINUOUS
 10
8.006838176
 20
15.2012108904
 11
7.8840940946
 21
15.3836860117
  0
LWPOLYLINE
  5
506
100
AcDbEntity
  8
RACCORDO
100
AcDbPolyline
 62
250
  6
CONTINUOUS
 90
9
 70
0
 10
11.3039493844
 20
15.7779330639
 10
11.2821756967
 20
15.8105672341
 10
11.2590297809
 20
15.8416424889
 10
11.2346582483
 20
15.8709619622
 10
11.2092154795
 20
15.8983399126
 10
11.1828626464
 20
15.9236029018
 10
11.1557666904
 20
15.9465908922
 10
11.1280992668
 20
15.9671582601
 10
11.1000356569
 20
15.9851747185
  0
LWPOLYLINE
  5
507
100
AcDbEntity
  8
ASSI
100
AcDbPolyline
 62
250
  6
CONTINUOUS
 90
9
 70
0
 10
11.3039493844
 20
15.7779330639
 10
11.2821756967
 20
15.8105672341
 10
11.2590297809
 20
15.8416424889
 10
11.2346582483
 20
15.8709619622
 10
11.2092154795
 20
15.8983399126
 10
11.1828626464
 20
15.9236029018
 10
11.1557666904
 20
15.9465908922
 10
11.1280992668
 20
15.9671582601
 10
11.1000356569
 20
15.9851747185
  0
LINE
  5
508
100
AcDbEntity
  8
RACCORDO
100
AcDbLine
 62
7
  6
CONTINUOUS
 10
8.1287949293
 20
15.0179276005
 11
8.006838176
 21
15.2012108904
  0
LINE
  5
509
100
AcDbEntity
  8
ASSI
100
AcDbLine
 62
7
  6
CONTINUOUS
 10
8.1287949293
 20
15.0179276005
 11
8.006838176
 21
15.2012108904
  0
LWPOLYLINE
  5
50A
100
AcDbEntity
  8
RACCORDO
100
AcDbPolyline
 62
250
  6
CONTINUOUS
 90
16
 70
0
 10
8.6522775882
 20
14.4922146399
 10
8.6416743812
 20
14.5082986385
 10
8.6304106488
 20
14.5245057195
 10
8.6184733117
 20
14.5407763887
 10
8.6058606392
 20
14.5570330082
 10
8.5925580614
 20
14.5732201472
 10
8.578535894
 20
14.5893004238
 10
8.563792916
 20
14.6051898988
 10
8.5483331289
 20
14.6207992576
 10
8.5321375747
 20
14.636066196
 10
8.5152233815
 20
14.6508814153
 10
8.4976069033
 20
14.6651370179
 10
8.4792741968
 20
14.678751439
 10
8.4602452692
 20
14.6916041872
 10
8.4405768497
 20
14.7035451146
 10
8.4203218527
 20
14.7144319054
  0
LWPOLYLINE
  5
50B
100
AcDbEntity
  8
ASSI
100
AcDbPolyline
 62
250
  6
CONTINUOUS
 90
16
 70
0
 10
8.6522775882
 20
14.4922146399
 10
8.6416743812
 20
14.5082986385
 10
8.6304106488
 20
14.5245057195
 10
8.6184733117
 20
14.5407763887
 10
8.6058606392
 20
14.5570330082
 10
8.5925580614
 20
14.5732201472
 10
8.578535894
 20
14.5893004238
 10
8.563792916
 20
14.6051898988
 10
8.5483331289
 20
14.6207992576
 10
8.5321375747
 20
14.636066196
 10
8.5152233815
 20
14.6508814153
 10
8.4976069033
 20
14.6651370179
 10
8.4792741968
 20
14.678751439
 10
8.4602452692
 20
14.6916041872
 10
8.4405768497
 20
14.7035451146
 10
8.4203218527
 20
14.7144319054
  0
LINE
  5
50C
100
AcDbEntity
  8
RACCORDO
100
AcDbLine
 62
7
  6
CONTINUOUS
 10
8.2499643545
 20
14.8338361421
 11
8.1287949293
 21
15.0179276005
  0
LINE
  5
50D
100
AcDbEntity
  8
ASSI
100
AcDbLine
 62
7
  6
CONTINUOUS
 10
8.2499643545
 20
14.8338361421
 11
8.1287949293
 21
15.0179276005
  0
LINE
  5
50E
100
AcDbEntity
  8
SMUSSO
100
AcDbLine
 62
7
  6
CONTINUOUS
 10
13.0494107263
 20
17.7032301647
 11
12.9795822759
 21
17.880182983
  0
LINE
  5
50F
100
AcDbEntity
  8
ASSI
100
AcDbLine
 62
7
  6
CONTINUOUS
 10
13.0494107263
 20
17.7032301647
 11
12.9795822759
 21
17.880182983
  0
LWPOLYLINE
  5
510
100
AcDbEntity
  8
RACCORDO
100
AcDbPolyline
 62
250
  6
CONTINUOUS
 90
3
 70
0
 10
17.5590345565
 20
-5.8701691397
 10
17.5702071546
 20
-5.9052097035
 10
17.5837346545
 20
-5.9392183587
  0
LWPOLYLINE
  5
511
100
AcDbEntity
  8
ASSI
100
AcDbPolyline
 62
250
  6
CONTINUOUS
 90
3
 70
0
 10
17.5590345565
 20
-5.8701691397
 10
17.5702071546
 20
-5.9052097035
 10
17.5837346545
 20
-5.9392183587
  0
LINE
  5
512
100
AcDbEntity
  8
RACCORDO
100
AcDbLine
 62
250
  6
CONTINUOUS
 10
18.0360694075
 20
-5.8497537661
 11
18.0615980188
 21
-5.9314243722
  0
LINE
  5
513
100
AcDbEntity
  8
ASSI
100
AcDbLine
 62
250
  6
CONTINUOUS
 10
18.0360694075
 20
-5.8497537661
 11
18.0615980188
 21
-5.9314243722
  0
LINE
  5
514
100
AcDbEntity
  8
RACCORDO
100
AcDbLine
 62
7
  6
CONTINUOUS
 10
17.6798183006
 20
-5.5562587122
 11
17.6785451684
 21
-5.5504088655
  0
LINE
  5
515
100
AcDbEntity
  8
ASSI
100
AcDbLine
 62
7
  6
CONTINUOUS
 10
17.6812960055
 20
-5.5630485393
 11
17.6785451684
 21
-5.5504088655
  0
LINE
  5
516
100
AcDbEntity
  8
RACCORDO
100
AcDbLine
 62
7
  6
CONTINUOUS
 10
11.4743447712
 20
24.4424720055
 11
11.6499140649
 21
23.5523156838
  0
LINE
  5
517
100
AcDbEntity
  8
ASSI
100
AcDbLine
 62
7
  6
CONTINUOUS
 10
11.4743447712
 20
24.4424720055
 11
11.6499140649
 21
23.5523156838
  0
LWPOLYLINE
  5
518
100
AcDbEntity
  8
RACCORDO
100
AcDbPolyline
 62
250
  6
CONTINUOUS
 90
3
 70
0
 10
18.0615980188
 20
-5.9314243722
 10
18.0767980753
 20
-6.0126675338
 10
18.0812079097
 20
-6.0910156735
  0
LWPOLYLINE
  5
519
100
AcDbEntity
  8
ASSI
100
AcDbPolyline
 62
250
  6
CONTINUOUS
 90
3
 70
0
 10
18.0615980188
 20
-5.9314243722
 10
18.0767980753
 20
-6.0126675338
 10
18.0812079097
 20
-6.0910156735
  0
LINE
  5
51A
100
AcDbEntity
  8
SMUSSO
100
AcDbLine
 62
7
  6
CONTINUOUS
 10
12.9795822759
 20
17.880182983
 11
12.9583546379
 21
18.0466564032
  0
LINE
  5
51B
100
AcDbEntity
  8
ASSI
100
AcDbLine
 62
7
  6
CONTINUOUS
 10
12.9795822759
 20
17.880182983
 11
12.9583546379
 21
18.0466564032
  0
LWPOLYLINE
  5
51C
100
AcDbEntity
  8
DRAFT
100
AcDbPolyline
 62
7
  6
CONTINUOUS
 90
3
 70
0
 10
19.1585504517
 20
17.8445168904
 10
19.1527514402
 20
17.911848596
 10
19.0785486241
 20
18.1168305494
  0
LWPOLYLINE
  5
51D
100
AcDbEntity
  8
ASSI
100
AcDbPolyline
 62
7
  6
CONTINUOUS
 90
3
 70
0
 10
19.1585504517
 20
17.8445168904
 10
19.1527514402
 20
17.911848596
 10
19.0785486241
 20
18.1168305494
  0
LINE
  5
51E
100
AcDbEntity
  8
RACCORDO
100
AcDbLine
 62
250
  6
CONTINUOUS
 10
24.4821422082
 20
14.8551523473
 11
24.4841159328
 21
14.877343725
  0
LINE
  5
51F
100
AcDbEntity
  8
ASSI
100
AcDbLine
 62
250
  6
CONTINUOUS
 10
24.4821422082
 20
14.8551523473
 11
24.4841159328
 21
14.877343725
  0
LINE
  5
520
100
AcDbEntity
  8
RACCORDO
100
AcDbLine
 62
7
  6
CONTINUOUS
 10
24.4841159013
 20
14.8774323829
 11
24.4757318844
 21
14.7861668498
  0
LINE
  5
521
100
AcDbEntity
  8
ASSI
100
AcDbLine
 62
7
  6
CONTINUOUS
 10
24.4841159013
 20
14.877432365
 11
24.4757318844
 21
14.7861668498
  0
LINE
  5
522
100
AcDbEntity
  8
ASSI
100
AcDbLine
 62
7
  6
CONTINUOUS
 10
17.6442304491
 20
-16.1056404389
 11
17.6682411353
 21
-15.9283729427
  0
LINE
  5
523
100
AcDbEntity
  8
RACCORDO
100
AcDbLine
 62
7
  6
CONTINUOUS
 10
17.6442301862
 20
-16.1056415256
 11
17.6682410513
 21
-15.9283735626
  0
LINE
  5
524
100
AcDbEntity
  8
RACCORDO
100
AcDbLine
 62
250
  6
CONTINUOUS
 10
24.9080429705
 20
12.9877349096
 11
24.8741878292
 21
12.7487514244
  0
LINE
  5
525
100
AcDbEntity
  8
ASSI
100
AcDbLine
 62
250
  6
CONTINUOUS
 10
24.9080429705
 20
12.9877349096
 11
24.8741878292
 21
12.7487514244
  0
LINE
  5
526
100
AcDbEntity
  8
RACCORDO
100
AcDbLine
 62
7
  6
CONTINUOUS
 10
17.6040174777
 20
-16.271803129
 11
17.6442301862
 21
-16.1056415256
  0
LINE
  5
527
100
AcDbEntity
  8
ASSI
100
AcDbLine
 62
7
  6
CONTINUOUS
 10
17.6040174777
 20
-16.271803129
 11
17.6442304491
 21
-16.1056404389
  0
LINE
  5
528
100
AcDbEntity
  8
RACCORDO
100
AcDbLine
 62
7
  6
CONTINUOUS
 10
24.8856908767
 20
12.5785232555
 11
24.9729999973
 21
12.9353011677
  0
LINE
  5
529
100
AcDbEntity
  8
ASSI
100
AcDbLine
 62
7
  6
CONTINUOUS
 10
24.8856908767
 20
12.5785232555
 11
24.9729999973
 21
12.9353011677
  0
LWPOLYLINE
  5
52A
100
AcDbEntity
  8
RACCORDO
100
AcDbPolyline
 62
250
  6
CONTINUOUS
 90
3
 70
0
 10
17.463773886
 20
-16.4396967383
 10
17.5043972367
 20
-16.276197038
 10
17.5277127112
 20
-16.1059718703
  0
LWPOLYLINE
  5
52B
100
AcDbEntity
  8
ASSI
100
AcDbPolyline
 62
250
  6
CONTINUOUS
 90
3
 70
0
 10
17.463773886
 20
-16.4396967383
 10
17.5043972367
 20
-16.276197038
 10
17.5277127112
 20
-16.1059718703
  0
LWPOLYLINE
  5
52C
100
AcDbEntity
  8
RACCORDO
100
AcDbPolyline
 62
250
  6
CONTINUOUS
 90
4
 70
0
 10
24.8741878292
 20
12.7487514244
 10
24.8147735733
 20
12.5185606439
 10
24.72796808
 20
12.3031281407
 10
24.6120174299
 20
12.1077258079
  0
LWPOLYLINE
  5
52D
100
AcDbEntity
  8
ASSI
100
AcDbPolyline
 62
250
  6
CONTINUOUS
 90
4
 70
0
 10
24.8741878292
 20
12.7487514244
 10
24.8147735733
 20
12.5185606439
 10
24.72796808
 20
12.3031281407
 10
24.6120174299
 20
12.1077258079
  0
LINE
  5
52E
100
AcDbEntity
  8
RACCORDO
100
AcDbLine
 62
7
  6
CONTINUOUS
 10
24.4757318844
 20
14.7861668498
 11
24.4524385309
 21
14.7022049198
  0
LINE
  5
52F
100
AcDbEntity
  8
ASSI
100
AcDbLine
 62
7
  6
CONTINUOUS
 10
24.4757318844
 20
14.7861668498
 11
24.4524386644
 21
14.7022051986
  0
LINE
  5
530
100
AcDbEntity
  8
ASSI
100
AcDbLine
 62
7
  6
CONTINUOUS
 10
17.7043826218
 20
-10.097592676
 11
17.7389318899
 21
-9.9901932696
  0
LINE
  5
531
100
AcDbEntity
  8
RACCORDO
100
AcDbLine
 62
7
  6
CONTINUOUS
 10
17.7044170721
 20
-10.0974621393
 11
17.7389685938
 21
-9.9900965581
  0
LWPOLYLINE
  5
532
100
AcDbEntity
  8
RACCORDO
100
AcDbPolyline
 62
250
  6
CONTINUOUS
 90
5
 70
0
 10
25.0020492555
 20
13.3232111625
 10
24.9936129334
 20
13.2977006167
 10
24.9765396897
 20
13.2732935094
 10
24.9513368513
 20
13.2507150904
 10
24.9187533134
 20
13.2306362703
  0
LWPOLYLINE
  5
533
100
AcDbEntity
  8
ASSI
100
AcDbPolyline
 62
250
  6
CONTINUOUS
 90
5
 70
0
 10
25.0020492555
 20
13.3232111625
 10
24.9936129334
 20
13.2977006167
 10
24.9765396897
 20
13.2732935094
 10
24.9513368513
 20
13.2507150904
 10
24.9187533134
 20
13.2306362703
  0
LINE
  5
534
100
AcDbEntity
  8
ASSI
100
AcDbLine
 62
7
  6
CONTINUOUS
 10
17.5481051693
 20
-16.4263295196
 11
17.6040174777
 21
-16.271803129
  0
LINE
  5
535
100
AcDbEntity
  8
RACCORDO
100
AcDbLine
 62
7
  6
CONTINUOUS
 10
17.5481044812
 20
-16.4263308923
 11
17.6040174777
 21
-16.271803129
  0
LWPOLYLINE
  5
536
100
AcDbEntity
  8
ASSI
100
AcDbPolyline
 62
7
  6
CONTINUOUS
 90
3
 70
0
 10
17.7389318899
 20
-9.9901932696
 10
17.786850006
 20
-9.8812961853
 10
17.8459902759
 20
-9.7775110153
  0
LWPOLYLINE
  5
537
100
AcDbEntity
  8
RACCORDO
100
AcDbPolyline
 62
7
  6
CONTINUOUS
 90
3
 70
0
 10
17.7389685938
 20
-9.9900965581
 10
17.786877314
 20
-9.8812418796
 10
17.8459978469
 20
-9.7774992284
  0
LINE
  5
538
100
AcDbEntity
  8
ASSI
100
AcDbLine
 62
7
  6
CONTINUOUS
 10
17.4770700149
 20
-16.5680348707
 11
17.5481051693
 21
-16.4263295196
  0
LINE
  5
539
100
AcDbEntity
  8
RACCORDO
100
AcDbLine
 62
7
  6
CONTINUOUS
 10
17.477069156
 20
-16.5680361579
 11
17.5481044812
 21
-16.4263308923
  0
LWPOLYLINE
  5
53A
100
AcDbEntity
  8
RACCORDO
100
AcDbPolyline
 62
250
  6
CONTINUOUS
 90
9
 70
0
 10
17.7259876001
 20
-9.7806222274
 10
17.6961408407
 20
-9.83766029
 10
17.6682333271
 20
-9.8967726694
 10
17.6423005321
 20
-9.9581036845
 10
17.6183069828
 20
-10.0215090163
 10
17.5971022103
 20
-10.0857831345
 10
17.578785693
 20
-10.1509593742
 10
17.5632579524
 20
-10.2170044003
 10
17.5510700838
 20
-10.2826126769
  0
LWPOLYLINE
  5
53B
100
AcDbEntity
  8
ASSI
100
AcDbPolyline
 62
250
  6
CONTINUOUS
 90
9
 70
0
 10
17.7259876001
 20
-9.7806222274
 10
17.6961408407
 20
-9.83766029
 10
17.6682333271
 20
-9.8967726694
 10
17.6423005321
 20
-9.9581036845
 10
17.6183069828
 20
-10.0215090163
 10
17.5971022103
 20
-10.0857831345
 10
17.578785693
 20
-10.1509593742
 10
17.5632579524
 20
-10.2170044003
 10
17.5510700838
 20
-10.2826126769
  0
LWPOLYLINE
  5
53C
100
AcDbEntity
  8
RACCORDO
100
AcDbPolyline
 62
7
  6
CONTINUOUS
 90
6
 70
0
 10
17.8459978469
 20
-9.7774992284
 10
17.9107491149
 20
-9.6874300931
 10
17.9753299838
 20
-9.6155235168
 10
18.0361526331
 20
-9.5618012128
 10
18.0876708298
 20
-9.5268971397
 10
18.0950738544
 20
-9.5227644695
  0
LWPOLYLINE
  5
53D
100
AcDbEntity
  8
ASSI
100
AcDbPolyline
 62
7
  6
CONTINUOUS
 90
6
 70
0
 10
17.8459902759
 20
-9.7775110153
 10
17.9107662232
 20
-9.6874088547
 10
17.9753692915
 20
-9.6154845277
 10
18.036209088
 20
-9.5617574495
 10
18.0877335334
 20
-9.5268611243
 10
18.0950761804
 20
-9.5227632218
  0
LWPOLYLINE
  5
53E
100
AcDbEntity
  8
RACCORDO
100
AcDbPolyline
 62
250
  6
CONTINUOUS
 90
5
 70
0
 10
17.8542516513
 20
-9.581711454
 10
17.8213447089
 20
-9.626943253
 10
17.7885895342
 20
-9.6752637089
 10
17.7568176558
 20
-9.7264310552
 10
17.7259876001
 20
-9.7806222274
  0
LWPOLYLINE
  5
53F
100
AcDbEntity
  8
RACCORDO
100
AcDbPolyline
 62
250
  6
CONTINUOUS
 90
5
 70
0
 10
24.2957003006
 20
-6.1473334915
 10
24.2761541177
 20
-6.1734194452
 10
24.2529326849
 20
-6.1961547683
 10
24.225904411
 20
-6.2149657556
 10
24.2215281222
 20
-6.2174024401
  0
LWPOLYLINE
  5
540
100
AcDbEntity
  8
ASSI
100
AcDbPolyline
 62
250
  6
CONTINUOUS
 90
5
 70
0
 10
24.2957003006
 20
-6.1473334915
 10
24.2761541177
 20
-6.1734194452
 10
24.2529326849
 20
-6.1961547683
 10
24.225904411
 20
-6.2149657556
 10
24.2215281222
 20
-6.2174024401
  0
LINE
  5
541
100
AcDbEntity
  8
RACCORDO
100
AcDbLine
 62
250
  6
CONTINUOUS
 10
17.8872278149
 20
-9.5397050008
 11
17.8542516513
 21
-9.581711454
  0
LWPOLYLINE
  5
542
100
AcDbEntity
  8
ASSI
100
AcDbPolyline
 62
250
  6
CONTINUOUS
 90
6
 70
0
 10
17.8872278149
 20
-9.5397050008
 10
17.8542516513
 20
-9.581711454
 10
17.8213447089
 20
-9.626943253
 10
17.7885895342
 20
-9.6752637089
 10
17.7568176558
 20
-9.7264310552
 10
17.7259876001
 20
-9.7806222274
  0
LWPOLYLINE
  5
543
100
AcDbEntity
  8
RACCORDO
100
AcDbPolyline
 62
250
  6
CONTINUOUS
 90
6
 70
0
 10
17.5350968061
 20
-15.9313347147
 10
17.5894027075
 20
-15.8978700473
 10
17.6314074392
 20
-15.8602393693
 10
17.6598628435
 20
-15.8195608658
 10
17.6739233775
 20
-15.7770432819
 10
17.675426906
 20
-15.757670174
  0
LWPOLYLINE
  5
544
100
AcDbEntity
  8
ASSI
100
AcDbPolyline
 62
250
  6
CONTINUOUS
 90
6
 70
0
 10
17.5350968061
 20
-15.9313347147
 10
17.5894027075
 20
-15.8978700473
 10
17.6314074392
 20
-15.8602393693
 10
17.6598628435
 20
-15.8195608658
 10
17.6739233775
 20
-15.7770432819
 10
17.675426906
 20
-15.757670174
  0
LWPOLYLINE
  5
545
100
AcDbEntity
  8
RACCORDO
100
AcDbPolyline
 62
250
  6
CONTINUOUS
 90
13
 70
0
 10
14.0813203897
 20
-18.9613412055
 10
14.0549923165
 20
-18.9753655773
 10
14.0272218828
 20
-18.9904231871
 10
13.9980086117
 20
-19.0065134278
 10
13.9673586853
 20
-19.023618051
 10
13.9352641931
 20
-19.0417528038
 10
13.9017029199
 20
-19.0609671022
 10
13.8665962417
 20
-19.0813041439
 10
13.8300187418
 20
-19.1027144295
 10
13.7921771028
 20
-19.1251068205
 10
13.753076709
 20
-19.1484739967
 10
13.7127054641
 20
-19.1728124495
 10
13.6712428371
 20
-19.1980350601
  0
LWPOLYLINE
  5
546
100
AcDbEntity
  8
ASSI
100
AcDbPolyline
 62
250
  6
CONTINUOUS
 90
13
 70
0
 10
14.0813203897
 20
-18.9613412055
 10
14.0549923165
 20
-18.9753655773
 10
14.0272218828
 20
-18.9904231871
 10
13.9980086117
 20
-19.0065134278
 10
13.9673586853
 20
-19.023618051
 10
13.9352641931
 20
-19.0417528038
 10
13.9017029199
 20
-19.0609671022
 10
13.8665962417
 20
-19.0813041439
 10
13.8300187418
 20
-19.1027144295
 10
13.7921771028
 20
-19.1251068205
 10
13.753076709
 20
-19.1484739967
 10
13.7127054641
 20
-19.1728124495
 10
13.6712428371
 20
-19.1980350601
  0
LINE
  5
547
100
AcDbEntity
  8
RACCORDO
100
AcDbLine
 62
250
  6
CONTINUOUS
 10
16.0513711066
 20
-17.9190352057
 11
14.0813203897
 21
-18.9613412055
  0
LINE
  5
548
100
AcDbEntity
  8
ASSI
100
AcDbLine
 62
250
  6
CONTINUOUS
 10
16.0513711066
 20
-17.9190352057
 11
14.0813203897
 21
-18.9613412055
  0
LINE
  5
549
100
AcDbEntity
  8
RACCORDO
100
AcDbLine
 62
7
  6
CONTINUOUS
 10
16.0235016752
 20
-17.9371419165
 11
14.052989989
 21
-18.9796422822
  0
LINE
  5
54A
100
AcDbEntity
  8
ASSI
100
AcDbLine
 62
7
  6
CONTINUOUS
 10
16.0235016752
 20
-17.9371419165
 11
14.0529904969
 21
-18.9796420161
  0
LINE
  5
54B
100
AcDbEntity
  8
RACCORDO
100
AcDbLine
 62
250
  6
CONTINUOUS
 10
12.8870847659
 20
-18.3731645139
 11
16.0377666652
 21
-16.7183664519
  0
LINE
  5
54C
100
AcDbEntity
  8
ASSI
100
AcDbLine
 62
250
  6
CONTINUOUS
 10
12.8870847659
 20
-18.3731645139
 11
16.0377666652
 21
-16.7183664519
  0
LINE
  5
54D
100
AcDbEntity
  8
RACCORDO
100
AcDbLine
 62
250
  6
CONTINUOUS
 10
10.661904779
 20
-19.5420622413
 11
12.8870847659
 21
-18.3731645139
  0
LINE
  5
54E
100
AcDbEntity
  8
ASSI
100
AcDbLine
 62
250
  6
CONTINUOUS
 10
10.661904779
 20
-19.5420622413
 11
12.8870847659
 21
-18.3731645139
  0
LINE
  5
54F
100
AcDbEntity
  8
RACCORDO
100
AcDbLine
 62
250
  6
CONTINUOUS
 10
8.566576148
 20
-20.6428779806
 11
10.661904779
 21
-19.5420622413
  0
LINE
  5
550
100
AcDbEntity
  8
ASSI
100
AcDbLine
 62
250
  6
CONTINUOUS
 10
8.566576148
 20
-20.6428779806
 11
10.661904779
 21
-19.5420622413
  0
LINE
  5
551
100
AcDbEntity
  8
RACCORDO
100
AcDbLine
 62
250
  6
CONTINUOUS
 10
8.5977339201
 20
-21.3879711792
 11
15.916338342
 21
-17.5443436803
  0
LINE
  5
552
100
AcDbEntity
  8
ASSI
100
AcDbLine
 62
250
  6
CONTINUOUS
 10
8.5977339201
 20
-21.3879711792
 11
15.916338342
 21
-17.5443436803
  0
LINE
  5
553
100
AcDbEntity
  8
RACCORDO
100
AcDbLine
 62
250
  6
CONTINUOUS
 10
15.916338342
 20
-17.5443436803
 11
17.2278845731
 21
-16.8555150203
  0
LINE
  5
554
100
AcDbEntity
  8
ASSI
100
AcDbLine
 62
250
  6
CONTINUOUS
 10
15.916338342
 20
-17.5443436803
 11
17.2278845731
 21
-16.8555150203
  0
LINE
  5
555
100
AcDbEntity
  8
RACCORDO
100
AcDbLine
 62
250
  6
CONTINUOUS
 10
16.0377666652
 20
-16.7183664519
 11
17.5350968061
 21
-15.9320508656
  0
LINE
  5
556
100
AcDbEntity
  8
ASSI
100
AcDbLine
 62
250
  6
CONTINUOUS
 10
16.0377666652
 20
-16.7183664519
 11
17.5350968061
 21
-15.9320508656
  0
LINE
  5
557
100
AcDbEntity
  8
RACCORDO
100
AcDbLine
 62
250
  6
CONTINUOUS
 10
4.7174527228
 20
-21.8295808214
 11
5.6715125193
 21
-21.3885570098
  0
LINE
  5
558
100
AcDbEntity
  8
RACCORDO
100
AcDbLine
 62
7
  6
CONTINUOUS
 10
4.6874891343
 20
-22.2640198331
 11
5.4708174621
 21
-21.9022528526
  0
LINE
  5
559
100
AcDbEntity
  8
RACCORDO
100
AcDbLine
 62
250
  6
CONTINUOUS
 10
13.4111024863
 20
-19.3623454146
 11
13.4008206828
 21
-19.367089873
  0
LINE
  5
55A
100
AcDbEntity
  8
ASSI
100
AcDbLine
 62
250
  6
CONTINUOUS
 10
13.4111030013
 20
-19.3623450802
 11
13.4008206828
 21
-19.367089873
  0
LINE
  5
55B
100
AcDbEntity
  8
0
100
AcDbLine
 62
7
  6
CONTINUOUS
 10
0.5750237553
 20
20.317491993
 11
0.5358746062
 21
20.3073762435
  0
LINE
  5
55C
100
AcDbEntity
  8
ASSI
100
AcDbLine
 62
7
  6
CONTINUOUS
 10
0.5750237553
 20
20.317491993
 11
0.5358746062
 21
20.3073762435
  0
LWPOLYLINE
  5
55D
100
AcDbEntity
  8
0
100
AcDbPolyline
 62
7
  6
CONTINUOUS
 90
6
 70
0
 10
-2.3069885518
 20
18.9612209705
 10
-2.2678762973
 20
18.971278868
 10
-2.2274622112
 20
18.9773734125
 10
-2.1857462933
 20
18.9795046041
 10
-2.1424296999
 20
18.9776327882
 10
-2.0978112748
 20
18.9717976194
  0
LWPOLYLINE
  5
55E
100
AcDbEntity
  8
ASSI
100
AcDbPolyline
 62
7
  6
CONTINUOUS
 90
6
 70
0
 10
-2.3069885518
 20
18.9612209705
 10
-2.2678762973
 20
18.971278868
 10
-2.2274622112
 20
18.9773734125
 10
-2.1857462933
 20
18.9795046041
 10
-2.1424296999
 20
18.9776327882
 10
-2.0978112748
 20
18.9717976194
  0
LWPOLYLINE
  5
55F
100
AcDbEntity
  8
RACCORDO
100
AcDbPolyline
 62
250
  6
CONTINUOUS
 90
8
 70
0
 10
18.6240166991
 20
20.318486286
 10
18.8851451283
 20
20.3143284179
 10
19.163598343
 20
20.2545791145
 10
19.4493571432
 20
20.1397517211
 10
19.7349878369
 20
19.9727228617
 10
20.0152499263
 20
19.7564480269
 10
20.2829181749
 20
19.4963595862
 10
20.3462001493
 20
19.4206789926
  0
LWPOLYLINE
  5
560
100
AcDbEntity
  8
ASSI
100
AcDbPolyline
 62
250
  6
CONTINUOUS
 90
8
 70
0
 10
18.6240166991
 20
20.318486286
 10
18.8851451283
 20
20.3143284179
 10
19.163598343
 20
20.2545791145
 10
19.4493571432
 20
20.1397517211
 10
19.7349878369
 20
19.9727228617
 10
20.0152499263
 20
19.7564480269
 10
20.2829181749
 20
19.4963595862
 10
20.3462001493
 20
19.4206789926
  0
LINE
  5
561
100
AcDbEntity
  8
0
100
AcDbLine
 62
7
  6
CONTINUOUS
 10
2.9115079704
 20
19.7188044119
 11
4.1663682258
 21
19.6770419464
  0
LINE
  5
562
100
AcDbEntity
  8
ASSI
100
AcDbLine
 62
7
  6
CONTINUOUS
 10
2.9115079704
 20
19.7188044119
 11
4.1663682258
 21
19.6770419464
  0
LWPOLYLINE
  5
563
100
AcDbEntity
  8
0
100
AcDbPolyline
 62
7
  6
CONTINUOUS
 90
5
 70
0
 10
0.7452772068
 20
20.3181377292
 10
0.700605436
 20
20.3239568114
 10
0.6572394712
 20
20.3258020944
 10
0.6154787103
 20
20.3236339433
 10
0.5750237553
 20
20.317491993
  0
LWPOLYLINE
  5
564
100
AcDbEntity
  8
ASSI
100
AcDbPolyline
 62
7
  6
CONTINUOUS
 90
5
 70
0
 10
0.7452772068
 20
20.3181377292
 10
0.700605436
 20
20.3239568114
 10
0.6572394712
 20
20.3258020944
 10
0.6154787103
 20
20.3236339433
 10
0.5750237553
 20
20.317491993
  0
LWPOLYLINE
  5
565
100
AcDbEntity
  8
0
100
AcDbPolyline
 62
7
  6
CONTINUOUS
 90
8
 70
0
 10
-8.7785981705
 20
24.4162100477
 10
-8.8153443567
 20
24.4211412504
 10
-8.8522042495
 20
24.431004724
 10
-8.8891778489
 20
24.4458004685
 10
-8.9266888817
 20
24.4658110475
 10
-8.964313621
 20
24.4907538973
 10
-9.0007808866
 20
24.5197813269
 10
-9.0360418818
 20
24.5530235555
  0
LWPOLYLINE
  5
566
100
AcDbEntity
  8
ASSI
100
AcDbPolyline
 62
7
  6
CONTINUOUS
 90
8
 70
0
 10
-8.7785981705
 20
24.4162100477
 10
-8.8153443567
 20
24.4211412504
 10
-8.8522042495
 20
24.431004724
 10
-8.8891778489
 20
24.4458004685
 10
-8.9266888817
 20
24.4658110475
 10
-8.964313621
 20
24.4907538973
 10
-9.0007808866
 20
24.5197813269
 10
-9.0360418818
 20
24.5530235555
  0
LWPOLYLINE
  5
567
100
AcDbEntity
  8
SMUSSO
100
AcDbPolyline
 62
7
  6
CONTINUOUS
 90
6
 70
0
 10
14.896035919
 20
16.9546635434
 10
14.4727541436
 20
17.0242267308
 10
14.0739003056
 20
17.1227374428
 10
13.6964024566
 20
17.2478790618
 10
13.3603283781
 20
17.3927979254
 10
13.0681768615
 20
17.5582987622
  0
LWPOLYLINE
  5
568
100
AcDbEntity
  8
ASSI
100
AcDbPolyline
 62
7
  6
CONTINUOUS
 90
6
 70
0
 10
14.896035919
 20
16.9546635434
 10
14.4727541436
 20
17.0242267308
 10
14.0739003056
 20
17.1227374428
 10
13.6964024566
 20
17.2478790618
 10
13.3603283781
 20
17.3927979254
 10
13.0681768615
 20
17.5582987622
  0
LWPOLYLINE
  5
569
100
AcDbEntity
  8
0
100
AcDbPolyline
 62
7
  6
CONTINUOUS
 90
4
 70
0
 10
-18.0077138515
 20
26.9267489077
 10
-17.9626901264
 20
26.9170693498
 10
-17.9175599449
 20
26.9035850574
 10
-17.8720244634
 20
26.8862563759
  0
LWPOLYLINE
  5
56A
100
AcDbEntity
  8
ASSI
100
AcDbPolyline
 62
7
  6
CONTINUOUS
 90
4
 70
0
 10
-18.0077138515
 20
26.9267489077
 10
-17.9626901264
 20
26.9170693498
 10
-17.9175599449
 20
26.9035850574
 10
-17.8720244634
 20
26.8862563759
  0
LWPOLYLINE
  5
56B
100
AcDbEntity
  8
DRAFT
100
AcDbPolyline
 62
7
  6
CONTINUOUS
 90
8
 70
0
 10
17.8667656934
 20
18.947730987
 10
17.4949550252
 20
19.0429590304
 10
17.0895149707
 20
19.111347376
 10
16.6795510639
 20
19.1484487841
 10
16.2654569939
 20
19.1513615573
 10
15.8468390716
 20
19.1229873929
 10
15.4516217633
 20
19.0675841428
 10
15.0891132244
 20
18.9865710911
  0
LWPOLYLINE
  5
56C
100
AcDbEntity
  8
ASSI
100
AcDbPolyline
 62
7
  6
CONTINUOUS
 90
8
 70
0
 10
17.8667656934
 20
18.947730987
 10
17.4949550252
 20
19.0429590304
 10
17.0895149707
 20
19.111347376
 10
16.6795510639
 20
19.1484487841
 10
16.2654569939
 20
19.1513615573
 10
15.8468390716
 20
19.1229873929
 10
15.4516217633
 20
19.0675841428
 10
15.0891132244
 20
18.9865710911
  0
LWPOLYLINE
  5
56D
100
AcDbEntity
  8
RACCORDO
100
AcDbPolyline
 62
7
  6
CONTINUOUS
 90
9
 70
0
 10
17.2398972733
 20
18.1102876276
 10
17.2337805327
 20
18.1118871253
 10
17.2240103189
 20
18.1134199392
 10
17.2136841235
 20
18.1138353836
 10
17.2028969264
 20
18.1131336111
 10
17.1919336674
 20
18.1113150798
 10
17.1808893267
 20
18.1083799423
 10
17.1696689242
 20
18.1043280459
 10
17.15827246
 20
18.0991593906
  0
LINE
  5
56E
100
AcDbEntity
  8
0
100
AcDbLine
 62
7
  6
CONTINUOUS
 10
15.8468344745
 20
17.4434403979
 11
15.3970898132
 21
17.5651882311
  0
LWPOLYLINE
  5
56F
100
AcDbEntity
  8
RACCORDO
100
AcDbPolyline
 62
7
  6
CONTINUOUS
 90
28
 70
0
 10
17.239887137
 20
18.1102636752
 10
17.1311717904
 20
18.141549521
 10
17.0163167475
 20
18.170903198
 10
16.8990553235
 20
18.1972302682
 10
16.7796821587
 20
18.2204923599
 10
16.6584617871
 20
18.2406629127
 10
16.5356324176
 20
18.257722188
 10
16.4114836202
 20
18.2716460296
 10
16.2863001571
 20
18.2824166986
 10
16.1603196396
 20
18.2900240983
 10
16.0338332535
 20
18.294457477
 10
15.9071305305
 20
18.2957120317
 10
15.7804487851
 20
18.2937872586
 10
15.6540775153
 20
18.2886859236
 10
15.5283079247
 20
18.2804167115
 10
15.4033783254
 20
18.268988836
 10
15.2795794508
 20
18.2544190037
 10
15.1571946984
 20
18.2367289822
 10
15.0364462622
 20
18.2159348068
 10
14.9176113411
 20
18.1920632068
 10
14.8009755177
 20
18.165148155
 10
14.6867639446
 20
18.1352133877
 10
14.5752487665
 20
18.1022962838
 10
14.46670257
 20
18.066439649
 10
14.3613356785
 20
18.0276680314
 10
14.259388896
 20
17.986015223
 10
14.1611427586
 20
17.9415344485
 10
14.0668586974
 20
17.8942770591
  0
LWPOLYLINE
  5
570
100
AcDbEntity
  8
RACCORDO
100
AcDbPolyline
 62
7
  6
CONTINUOUS
 90
7
 70
0
 10
-14.1270577588
 20
28.7198317353
 10
-14.1795763065
 20
28.742435105
 10
-14.2349901082
 20
28.7590530042
 10
-14.2924296132
 20
28.7692152515
 10
-14.3507547113
 20
28.7726181076
 10
-14.4091823026
 20
28.7691819458
 10
-14.467306455
 20
28.7588224873
  0
LINE
  5
571
100
AcDbEntity
  8
ASSI
100
AcDbLine
 62
7
  6
CONTINUOUS
 10
-14.1270577588
 20
28.7198317353
 11
-14.1795761689
 21
28.7424350458
  0
LWPOLYLINE
  5
572
100
AcDbEntity
  8
RACCORDO
100
AcDbPolyline
 62
250
  6
CONTINUOUS
 90
7
 70
0
 10
-14.3444941991
 20
28.7086500705
 10
-14.3724961562
 20
28.7214657283
 10
-14.4002987771
 20
28.7313715888
 10
-14.4277607955
 20
28.7383551733
 10
-14.4547475366
 20
28.7424198375
 10
-14.4811062339
 20
28.743521322
 10
-14.5066523534
 20
28.7416178012
  0
LWPOLYLINE
  5
573
100
AcDbEntity
  8
ASSI
100
AcDbPolyline
 62
250
  6
CONTINUOUS
 90
7
 70
0
 10
-14.3444941991
 20
28.7086500705
 10
-14.3724961562
 20
28.7214657283
 10
-14.4002987771
 20
28.7313715888
 10
-14.4277607955
 20
28.7383551733
 10
-14.4547475366
 20
28.7424198375
 10
-14.4811062339
 20
28.743521322
 10
-14.5066523534
 20
28.7416178012
  0
LWPOLYLINE
  5
574
100
AcDbEntity
  8
0
100
AcDbPolyline
 62
7
  6
CONTINUOUS
 90
5
 70
0
 10
-14.9827603604
 20
28.2113826508
 10
-15.0287631813
 20
28.2325816752
 10
-15.0743583903
 20
28.2499258052
 10
-15.1195459871
 20
28.263415041
 10
-15.1646253699
 20
28.2730890175
  0
LWPOLYLINE
  5
575
100
AcDbEntity
  8
ASSI
100
AcDbPolyline
 62
7
  6
CONTINUOUS
 90
5
 70
0
 10
-14.9827603604
 20
28.2113826508
 10
-15.0287631813
 20
28.2325816752
 10
-15.0743583903
 20
28.2499258052
 10
-15.1195459871
 20
28.263415041
 10
-15.1646253699
 20
28.2730890175
  0
LWPOLYLINE
  5
576
100
AcDbEntity
  8
RACCORDO
100
AcDbPolyline
 62
250
  6
CONTINUOUS
 90
12
 70
0
 10
-4.4672561662
 20
25.717331728
 10
-4.4396606868
 20
25.7038492912
 10
-4.4098509645
 20
25.6905926249
 10
-4.3778269993
 20
25.6775617291
 10
-4.3436920143
 20
25.6646707531
 10
-4.3073427864
 20
25.6520055476
 10
-4.2684696462
 20
25.6398236645
 10
-4.2270008022
 20
25.6280822161
 10
-4.1830080459
 20
25.6168240901
 10
-4.1363970824
 20
25.6064355016
 10
-4.087041052
 20
25.5968871637
 10
-4.0350668145
 20
25.5882083632
  0
LWPOLYLINE
  5
577
100
AcDbEntity
  8
ASSI
100
AcDbPolyline
 62
250
  6
CONTINUOUS
 90
12
 70
0
 10
-4.4672561662
 20
25.717331728
 10
-4.4396606868
 20
25.7038492912
 10
-4.4098509645
 20
25.6905926249
 10
-4.3778269993
 20
25.6775617291
 10
-4.3436920143
 20
25.6646707531
 10
-4.3073427864
 20
25.6520055476
 10
-4.2684696462
 20
25.6398236645
 10
-4.2270008022
 20
25.6280822161
 10
-4.1830080459
 20
25.6168240901
 10
-4.1363970824
 20
25.6064355016
 10
-4.087041052
 20
25.5968871637
 10
-4.0350668145
 20
25.5882083632
  0
LWPOLYLINE
  5
578
100
AcDbEntity
  8
RACCORDO
100
AcDbPolyline
 62
250
  6
CONTINUOUS
 90
14
 70
0
 10
13.4649136486
 20
14.6891075479
 10
13.4704989724
 20
14.6863328889
 10
13.4971697093
 20
14.6735897559
 10
13.5243260423
 20
14.6615095224
 10
13.552308597
 20
14.6501053176
 10
13.5813583077
 20
14.6394436394
 10
13.6113139438
 20
14.6297987603
 10
13.6419631576
 20
14.6216618161
 10
13.6738281778
 20
14.6151906053
 10
13.7064680364
 20
14.6108541043
 10
13.7382168193
 20
14.609670354
 10
13.7684856576
 20
14.6121451474
 10
13.7977715306
 20
14.6183209468
 10
13.8259834915
 20
14.6284725109
  0
LWPOLYLINE
  5
579
100
AcDbEntity
  8
ASSI
100
AcDbPolyline
 62
250
  6
CONTINUOUS
 90
14
 70
0
 10
13.4649136486
 20
14.6891075479
 10
13.4704989724
 20
14.6863328889
 10
13.4971697093
 20
14.6735897559
 10
13.5243260423
 20
14.6615095224
 10
13.552308597
 20
14.6501053176
 10
13.5813583077
 20
14.6394436394
 10
13.6113139438
 20
14.6297987603
 10
13.6419631576
 20
14.6216618161
 10
13.6738281778
 20
14.6151906053
 10
13.7064680364
 20
14.6108541043
 10
13.7382168193
 20
14.609670354
 10
13.7684856576
 20
14.6121451474
 10
13.7977715306
 20
14.6183209468
 10
13.8259834915
 20
14.6284725109
  0
LINE
  5
57A
100
AcDbEntity
  8
0
100
AcDbLine
 62
7
  6
CONTINUOUS
 10
-12.9983946063
 20
27.6737557003
 11
-8.7600395566
 21
25.5545781754
  0
LINE
  5
57B
100
AcDbEntity
  8
ASSI
100
AcDbLine
 62
7
  6
CONTINUOUS
 10
-12.9983946063
 20
27.6737557003
 11
-8.7600395566
 21
25.5545781754
  0
LINE
  5
57C
100
AcDbEntity
  8
0
100
AcDbLine
 62
7
  6
CONTINUOUS
 10
2.9115079704
 20
19.7188044119
 11
7.1498630201
 21
17.599626887
  0
LINE
  5
57D
100
AcDbEntity
  8
ASSI
100
AcDbLine
 62
7
  6
CONTINUOUS
 10
2.9115079704
 20
19.7188044119
 11
7.1498630201
 21
17.599626887
  0
LINE
  5
57E
100
AcDbEntity
  8
RACCORDO
100
AcDbLine
 62
7
  6
CONTINUOUS
 10
13.4648640561
 20
14.6891323472
 11
13.4649136486
 21
14.6891075479
  0
LINE
  5
57F
100
AcDbEntity
  8
ASSI
100
AcDbLine
 62
7
  6
CONTINUOUS
 10
13.4648639686
 20
14.6891323909
 11
13.4649136486
 21
14.6891075479
  0
LINE
  5
580
100
AcDbEntity
  8
RACCORDO
100
AcDbLine
 62
250
  6
CONTINUOUS
 10
11.0717536542
 20
16.0005261439
 11
8.1962781317
 21
17.4382639051
  0
LINE
  5
581
100
AcDbEntity
  8
ASSI
100
AcDbLine
 62
250
  6
CONTINUOUS
 10
11.0717536542
 20
16.0005261439
 11
8.1962781317
 21
17.4382639051
  0
LINE
  5
582
100
AcDbEntity
  8
RACCORDO
100
AcDbLine
 62
250
  6
CONTINUOUS
 10
3.6868015433
 20
19.6930021993
 11
-7.713624445
 21
25.3932151934
  0
LINE
  5
583
100
AcDbEntity
  8
ASSI
100
AcDbLine
 62
250
  6
CONTINUOUS
 10
3.6868015433
 20
19.6930021993
 11
-7.713624445
 21
25.3932151934
  0
LINE
  5
584
100
AcDbEntity
  8
RACCORDO
100
AcDbLine
 62
250
  6
CONTINUOUS
 10
-12.2231010334
 20
27.6479534877
 11
-14.3444941965
 21
28.7086500692
  0
LINE
  5
585
100
AcDbEntity
  8
ASSI
100
AcDbLine
 62
250
  6
CONTINUOUS
 10
-12.2231010334
 20
27.6479534877
 11
-14.3444941965
 21
28.7086500692
  0
LINE
  5
586
100
AcDbEntity
  8
RACCORDO
100
AcDbLine
 62
250
  6
CONTINUOUS
 10
12.3695047046
 20
15.3567119044
 11
13.8259834704
 21
14.6284725214
  0
LINE
  5
587
100
AcDbEntity
  8
ASSI
100
AcDbLine
 62
250
  6
CONTINUOUS
 10
12.3695047046
 20
15.3567119044
 11
13.8259834704
 21
14.6284725214
  0
LINE
  5
588
100
AcDbEntity
  8
RACCORDO
100
AcDbLine
 62
7
  6
CONTINUOUS
 10
11.2891900971
 20
16.0117078074
 11
8.3729452394
 21
17.4698302362
  0
LINE
  5
589
100
AcDbEntity
  8
ASSI
100
AcDbLine
 62
7
  6
CONTINUOUS
 10
11.2891900971
 20
16.0117078074
 11
8.3729452394
 21
17.4698302362
  0
LINE
  5
58A
100
AcDbEntity
  8
RACCORDO
100
AcDbLine
 62
7
  6
CONTINUOUS
 10
3.9437008224
 20
19.6844524447
 11
-7.5369573373
 21
25.4247815245
  0
LINE
  5
58B
100
AcDbEntity
  8
ASSI
100
AcDbLine
 62
7
  6
CONTINUOUS
 10
3.9437008224
 20
19.6844524447
 11
-7.5369573373
 21
25.4247815245
  0
LINE
  5
58C
100
AcDbEntity
  8
RACCORDO
100
AcDbLine
 62
7
  6
CONTINUOUS
 10
-11.9662017543
 20
27.639403733
 11
-14.1270577588
 21
28.7198317353
  0
LINE
  5
58D
100
AcDbEntity
  8
ASSI
100
AcDbLine
 62
7
  6
CONTINUOUS
 10
-11.9662017543
 20
27.639403733
 11
-14.1270577588
 21
28.7198317353
  0
LINE
  5
58E
100
AcDbEntity
  8
0
100
AcDbLine
 62
7
  6
CONTINUOUS
 10
-11.7435343509
 20
27.6319932348
 11
-7.9014509607
 21
25.7109515397
  0
LINE
  5
58F
100
AcDbEntity
  8
ASSI
100
AcDbLine
 62
7
  6
CONTINUOUS
 10
-11.7435343509
 20
27.6319932348
 11
-7.9014509607
 21
25.7109515397
  0
LINE
  5
590
100
AcDbEntity
  8
0
100
AcDbLine
 62
7
  6
CONTINUOUS
 10
4.1663682258
 20
19.6770419464
 11
8.008451616
 21
17.7560002513
  0
LINE
  5
591
100
AcDbEntity
  8
ASSI
100
AcDbLine
 62
7
  6
CONTINUOUS
 10
4.1663682258
 20
19.6770419464
 11
8.008451616
 21
17.7560002513
  0
LINE
  5
592
100
AcDbEntity
  8
RACCORDO
100
AcDbLine
 62
250
  6
CONTINUOUS
 10
-4.4672561662
 20
25.717331728
 11
-10.1363452983
 21
28.551876294
  0
LINE
  5
593
100
AcDbEntity
  8
ASSI
100
AcDbLine
 62
250
  6
CONTINUOUS
 10
-4.4672561662
 20
25.717331728
 11
-10.1363452983
 21
28.551876294
  0
LINE
  5
594
100
AcDbEntity
  8
0
100
AcDbLine
 62
7
  6
CONTINUOUS
 10
14.9021150663
 20
17.3177008577
 11
14.1951461262
 21
17.6711853277
  0
LINE
  5
595
100
AcDbEntity
  8
0
100
AcDbLine
 62
7
  6
CONTINUOUS
 10
15.3970898132
 20
17.5651882311
 11
14.690120873
 21
17.9186727011
  0
LINE
  5
596
100
AcDbEntity
  8
DRAFT
100
AcDbLine
 62
7
  6
CONTINUOUS
 10
14.4709177709
 20
18.4152720198
 11
14.0975081397
 21
18.6019768354
  0
LINE
  5
597
100
AcDbEntity
  8
ASSI
100
AcDbLine
 62
7
  6
CONTINUOUS
 10
14.4709177709
 20
18.4152720198
 11
14.0975081397
 21
18.6019768354
  0
LINE
  5
598
100
AcDbEntity
  8
ASSI
100
AcDbLine
 62
7
  6
CONTINUOUS
 10
-9.9190305693
 20
28.5631187593
 11
-4.249014084
 21
25.7281081471
  0
LINE
  5
599
100
AcDbEntity
  8
RACCORDO
100
AcDbLine
 62
7
  6
CONTINUOUS
 10
-9.9190311479
 20
28.5631190481
 11
-4.2490148632
 21
25.7281085414
  0
LWPOLYLINE
  5
59A
100
AcDbEntity
  8
ASSI
100
AcDbPolyline
 62
7
  6
CONTINUOUS
 90
4
 70
0
 10
13.4648624127
 20
14.6891329687
 10
13.4595049244
 20
14.6918413762
 10
13.4276337615
 20
14.7091245354
 10
13.4047371957
 20
14.7227213601
  0
LWPOLYLINE
  5
59B
100
AcDbEntity
  8
RACCORDO
100
AcDbPolyline
 62
7
  6
CONTINUOUS
 90
4
 70
0
 10
13.4648625003
 20
14.6891329249
 10
13.4594995398
 20
14.6918441276
 10
13.4276575562
 20
14.7091109067
 10
13.4047371436
 20
14.7227213921
  0
LWPOLYLINE
  5
59C
100
AcDbEntity
  8
RACCORDO
100
AcDbPolyline
 62
7
  6
CONTINUOUS
 90
4
 70
0
 10
11.28917806
 20
16.0117138254
 10
11.2984625412
 20
16.0069501517
 10
11.3148943074
 20
15.9979039731
 10
11.3253013883
 20
15.9917488365
  0
LWPOLYLINE
  5
59D
100
AcDbEntity
  8
ASSI
100
AcDbPolyline
 62
7
  6
CONTINUOUS
 90
4
 70
0
 10
11.28917806
 20
16.0117138253
 10
11.2984625321
 20
16.0069501565
 10
11.314894299
 20
15.997903978
 10
11.3253013883
 20
15.9917488365
  0
LWPOLYLINE
  5
59E
100
AcDbEntity
  8
ASSI
100
AcDbPolyline
 62
7
  6
CONTINUOUS
 90
3
 70
0
 10
-9.9190311614
 20
28.5631175268
 10
-9.930436131
 20
28.5690120831
 10
-9.9637012373
 20
28.5890889968
  0
LINE
  5
59F
100
AcDbEntity
  8
RACCORDO
100
AcDbLine
 62
7
  6
CONTINUOUS
 10
-9.9190317401
 20
28.5631178156
 11
-9.9304870031
 21
28.5690392713
  0
LINE
  5
5A0
100
AcDbEntity
  8
RACCORDO
100
AcDbLine
 62
250
  6
CONTINUOUS
 10
11.1000356569
 20
15.9851747185
 11
11.0717536568
 21
16.0005261426
  0
LINE
  5
5A1
100
AcDbEntity
  8
ASSI
100
AcDbLine
 62
250
  6
CONTINUOUS
 10
11.1000356569
 20
15.9851747185
 11
11.0717536568
 21
16.0005261426
  0
LINE
  5
5A2
100
AcDbEntity
  8
RACCORDO
100
AcDbLine
 62
250
  6
CONTINUOUS
 10
13.8259834916
 20
14.6284725109
 11
13.8578483359
 21
14.6110073515
  0
LINE
  5
5A3
100
AcDbEntity
  8
ASSI
100
AcDbLine
 62
250
  6
CONTINUOUS
 10
13.8259834916
 20
14.6284725109
 11
13.8578483359
 21
14.6110073515
  0
LWPOLYLINE
  5
5A4
100
AcDbEntity
  8
RACCORDO
100
AcDbPolyline
 62
250
  6
CONTINUOUS
 90
10
 70
0
 10
-10.1485783174
 20
29.23790616
 10
-10.0862282565
 20
29.2011105684
 10
-10.0259593632
 20
29.1521890635
 10
-9.9696021699
 20
29.092627534
 10
-9.918868396
 20
29.024235031
 10
-9.8752989654
 20
28.9490888304
 10
-9.8402172014
 20
28.8694713431
 10
-9.8146886252
 20
28.7878007765
 10
-9.7994885978
 20
28.7065576844
 10
-9.7950787747
 20
28.6282096367
  0
LWPOLYLINE
  5
5A5
100
AcDbEntity
  8
ASSI
100
AcDbPolyline
 62
250
  6
CONTINUOUS
 90
10
 70
0
 10
-10.1485783174
 20
29.23790616
 10
-10.0862282565
 20
29.2011105684
 10
-10.0259593632
 20
29.1521890635
 10
-9.9696021699
 20
29.092627534
 10
-9.918868396
 20
29.024235031
 10
-9.8752989654
 20
28.9490888304
 10
-9.8402172014
 20
28.8694713431
 10
-9.8146886252
 20
28.7878007765
 10
-9.7994885978
 20
28.7065576844
 10
-9.7950787747
 20
28.6282096367
  0
LWPOLYLINE
  5
5A6
100
AcDbEntity
  8
RACCORDO
100
AcDbPolyline
 62
7
  6
CONTINUOUS
 90
3
 70
0
 10
-9.9304870031
 20
28.5690392713
 10
-9.9637152478
 20
28.5890987578
 10
-9.9760468799
 20
28.598519089
  0
LINE
  5
5A7
100
AcDbEntity
  8
RACCORDO
100
AcDbLine
 62
7
  6
CONTINUOUS
 10
11.4688261571
 20
15.904749441
 11
11.3247254655
 21
15.9921078637
  0
LINE
  5
5A8
100
AcDbEntity
  8
ASSI
100
AcDbLine
 62
7
  6
CONTINUOUS
 10
11.4688261571
 20
15.904749441
 11
11.3247254655
 21
15.9921078637
  0
LINE
  5
5A9
100
AcDbEntity
  8
RACCORDO
100
AcDbLine
 62
7
  6
CONTINUOUS
 10
11.8069981816
 20
15.6993985726
 11
11.4688261571
 21
15.904749441
  0
LINE
  5
5AA
100
AcDbEntity
  8
ASSI
100
AcDbLine
 62
7
  6
CONTINUOUS
 10
11.8069981816
 20
15.6993985726
 11
11.4688261571
 21
15.904749441
  0
LWPOLYLINE
  5
5AB
100
AcDbEntity
  8
RACCORDO
100
AcDbPolyline
 62
7
  6
CONTINUOUS
 90
4
 70
0
 10
12.8325896449
 20
15.0737058153
 10
12.488953066
 20
15.2838397278
 10
12.1470635083
 20
15.4924171911
 10
11.8069981816
 20
15.6993985726
  0
LWPOLYLINE
  5
5AC
100
AcDbEntity
  8
ASSI
100
AcDbPolyline
 62
7
  6
CONTINUOUS
 90
4
 70
0
 10
12.8325896449
 20
15.0737058153
 10
12.488953066
 20
15.2838397278
 10
12.1470635083
 20
15.4924171911
 10
11.8069981816
 20
15.6993985726
  0
LINE
  5
5AD
100
AcDbEntity
  8
RACCORDO
100
AcDbLine
 62
7
  6
CONTINUOUS
 10
13.1779003207
 20
14.8620527158
 11
12.8325896449
 21
15.0737058153
  0
LINE
  5
5AE
100
AcDbEntity
  8
ASSI
100
AcDbLine
 62
7
  6
CONTINUOUS
 10
13.1779003207
 20
14.8620527158
 11
12.8325896449
 21
15.0737058153
  0
LWPOLYLINE
  5
5AF
100
AcDbEntity
  8
RACCORDO
100
AcDbPolyline
 62
250
  6
CONTINUOUS
 90
3
 70
0
 10
11.3023868024
 20
15.7771753789
 10
11.6481940166
 20
15.5648055489
 10
11.9959066089
 20
15.3505965617
  0
LWPOLYLINE
  5
5B0
100
AcDbEntity
  8
ASSI
100
AcDbPolyline
 62
250
  6
CONTINUOUS
 90
3
 70
0
 10
11.3023868024
 20
15.7771753789
 10
11.6481940166
 20
15.5648055489
 10
11.9959066089
 20
15.3505965617
  0
LINE
  5
5B1
100
AcDbEntity
  8
RACCORDO
100
AcDbLine
 62
7
  6
CONTINUOUS
 10
13.4049020985
 20
14.7226446781
 11
13.1779003207
 21
14.8620527158
  0
LINE
  5
5B2
100
AcDbEntity
  8
ASSI
100
AcDbLine
 62
7
  6
CONTINUOUS
 10
13.4049020985
 20
14.7226446781
 11
13.1779003207
 21
14.8620527158
  0
LWPOLYLINE
  5
5B3
100
AcDbEntity
  8
RACCORDO
100
AcDbPolyline
 62
250
  6
CONTINUOUS
 90
10
 70
0
 10
13.4045084854
 20
14.4758202311
 10
13.4373863408
 20
14.4555615128
 10
13.4718552837
 20
14.4361493874
 10
13.5079153151
 20
14.4175840841
 10
13.5454179065
 20
14.3996203038
 10
13.5845114091
 20
14.3825036681
 10
13.6256419579
 20
14.3669713882
 10
13.6688366424
 20
14.3527283124
 10
13.7140696567
 20
14.3400709874
 10
13.7617108279
 20
14.3306262566
  0
LWPOLYLINE
  5
5B4
100
AcDbEntity
  8
ASSI
100
AcDbPolyline
 62
250
  6
CONTINUOUS
 90
10
 70
0
 10
13.4045084854
 20
14.4758202311
 10
13.4373863408
 20
14.4555615128
 10
13.4718552837
 20
14.4361493874
 10
13.5079153151
 20
14.4175840841
 10
13.5454179065
 20
14.3996203038
 10
13.5845114091
 20
14.3825036681
 10
13.6256419579
 20
14.3669713882
 10
13.6688366424
 20
14.3527283124
 10
13.7140696567
 20
14.3400709874
 10
13.7617108279
 20
14.3306262566
  0
LWPOLYLINE
  5
5B5
100
AcDbEntity
  8
RACCORDO
100
AcDbPolyline
 62
250
  6
CONTINUOUS
 90
3
 70
0
 10
11.9959066089
 20
15.3505965617
 10
12.3454600282
 20
15.134569678
 10
12.6967889682
 20
14.9167478794
  0
LWPOLYLINE
  5
5B6
100
AcDbEntity
  8
ASSI
100
AcDbPolyline
 62
250
  6
CONTINUOUS
 90
3
 70
0
 10
11.9959066089
 20
15.3505965617
 10
12.3454600282
 20
15.134569678
 10
12.6967889682
 20
14.9167478794
  0
LINE
  5
5B7
100
AcDbEntity
  8
RACCORDO
100
AcDbLine
 62
250
  6
CONTINUOUS
 10
12.6967889682
 20
14.9167478794
 11
13.0498273799
 21
14.6971558955
  0
LINE
  5
5B8
100
AcDbEntity
  8
ASSI
100
AcDbLine
 62
250
  6
CONTINUOUS
 10
12.6967889682
 20
14.9167478794
 11
13.0498273799
 21
14.6971558955
  0
LINE
  5
5B9
100
AcDbEntity
  8
RACCORDO
100
AcDbLine
 62
250
  6
CONTINUOUS
 10
13.0498273799
 20
14.6971558955
 11
13.4045084854
 21
14.4758202311
  0
LINE
  5
5BA
100
AcDbEntity
  8
ASSI
100
AcDbLine
 62
250
  6
CONTINUOUS
 10
13.0498273799
 20
14.6971558955
 11
13.4045084854
 21
14.4758202311
  0
LWPOLYLINE
  5
5BB
100
AcDbEntity
  8
RACCORDO
100
AcDbPolyline
 62
250
  6
CONTINUOUS
 90
3
 70
0
 10
-3.3667593956
 20
28.9326529847
 10
-3.3411938499
 20
28.9159396841
 10
-3.3155290846
 20
28.9014903226
  0
LWPOLYLINE
  5
5BC
100
AcDbEntity
  8
ASSI
100
AcDbPolyline
 62
250
  6
CONTINUOUS
 90
3
 70
0
 10
-3.3667593956
 20
28.9326529847
 10
-3.3411938499
 20
28.9159396841
 10
-3.3155290846
 20
28.9014903226
  0
LWPOLYLINE
  5
5BD
100
AcDbEntity
  8
RACCORDO
100
AcDbPolyline
 62
250
  6
CONTINUOUS
 90
9
 70
0
 10
13.8578483359
 20
14.6110073515
 10
13.8894087104
 20
14.5901794107
 10
13.9204110542
 20
14.5661556696
 10
13.9506061364
 20
14.5391289199
 10
13.9797514011
 20
14.5093159161
 10
14.0076128738
 20
14.4769555383
 10
14.0339665957
 20
14.4423073457
 10
14.0586004711
 20
14.4056495973
 10
14.0813162866
 20
14.3672766466
  0
LWPOLYLINE
  5
5BE
100
AcDbEntity
  8
ASSI
100
AcDbPolyline
 62
250
  6
CONTINUOUS
 90
9
 70
0
 10
13.8578483359
 20
14.6110073515
 10
13.8894087104
 20
14.5901794107
 10
13.9204110542
 20
14.5661556696
 10
13.9506061364
 20
14.5391289199
 10
13.9797514011
 20
14.5093159161
 10
14.0076128738
 20
14.4769555383
 10
14.0339665957
 20
14.4423073457
 10
14.0586004711
 20
14.4056495973
 10
14.0813162866
 20
14.3672766466
  0
LINE
  5
5BF
100
AcDbEntity
  8
SMUSSO
100
AcDbLine
 62
7
  6
CONTINUOUS
 10
13.0681768615
 20
17.5582987622
 11
12.9528832883
 21
17.6372978596
  0
LINE
  5
5C0
100
AcDbEntity
  8
ASSI
100
AcDbLine
 62
7
  6
CONTINUOUS
 10
13.0681768615
 20
17.5582987622
 11
12.9528832883
 21
17.6372978596
  0
LWPOLYLINE
  5
5C1
100
AcDbEntity
  8
RACCORDO
100
AcDbPolyline
 62
250
  6
CONTINUOUS
 90
9
 70
0
 10
11.3253013883
 20
15.9917488365
 10
11.3280692499
 20
15.9898417244
 10
11.3366702512
 20
15.9792542853
 10
11.3415878126
 20
15.9637843223
 10
11.3435064963
 20
15.9432405522
 10
11.3424247926
 20
15.9179207873
 10
11.3375622819
 20
15.8884696145
 10
11.3289616304
 20
15.8551985884
 10
11.3175578315
 20
15.8182281262
  0
LWPOLYLINE
  5
5C2
100
AcDbEntity
  8
ASSI
100
AcDbPolyline
 62
250
  6
CONTINUOUS
 90
9
 70
0
 10
11.3253013883
 20
15.9917488365
 10
11.3280692499
 20
15.9898417244
 10
11.3366702512
 20
15.9792542853
 10
11.3415878126
 20
15.9637843223
 10
11.3435064963
 20
15.9432405522
 10
11.3424247926
 20
15.9179207873
 10
11.3375622819
 20
15.8884696145
 10
11.3289616304
 20
15.8551985884
 10
11.3175578315
 20
15.8182281262
  0
LINE
  5
5C3
100
AcDbEntity
  8
RACCORDO
100
AcDbLine
 62
7
  6
CONTINUOUS
 10
8.008451616
 20
17.7560002513
 11
8.3943897163
 21
17.4562772212
  0
LINE
  5
5C4
100
AcDbEntity
  8
ASSI
100
AcDbLine
 62
7
  6
CONTINUOUS
 10
8.008451616
 20
17.7560002513
 11
8.3943897163
 21
17.4562772212
  0
LINE
  5
5C5
100
AcDbEntity
  8
SMUSSO
100
AcDbLine
 62
7
  6
CONTINUOUS
 10
12.9528832883
 20
17.6372978596
 11
12.8174491153
 21
17.7435768437
  0
LINE
  5
5C6
100
AcDbEntity
  8
ASSI
100
AcDbLine
 62
7
  6
CONTINUOUS
 10
12.9528832883
 20
17.6372978596
 11
12.8174491153
 21
17.7435768437
  0
LINE
  5
5C7
100
AcDbEntity
  8
RACCORDO
100
AcDbLine
 62
7
  6
CONTINUOUS
 10
-3.7461864218
 20
32.2529766035
 11
-3.6792785247
 21
32.1980792735
  0
LINE
  5
5C8
100
AcDbEntity
  8
ASSI
100
AcDbLine
 62
7
  6
CONTINUOUS
 10
-3.7461864266
 20
32.2529766075
 11
-3.6792785302
 21
32.1980792798
  0
LINE
  5
5C9
100
AcDbEntity
  8
0
100
AcDbLine
 62
7
  6
CONTINUOUS
 10
14.9021150663
 20
17.3177008577
 11
15.1456107326
 21
17.092828527
  0
LINE
  5
5CA
100
AcDbEntity
  8
SMUSSO
100
AcDbLine
 62
7
  6
CONTINUOUS
 10
12.8174491153
 20
17.7435768437
 11
12.6207165468
 21
17.9393643217
  0
LINE
  5
5CB
100
AcDbEntity
  8
ASSI
100
AcDbLine
 62
7
  6
CONTINUOUS
 10
12.8174491153
 20
17.7435768437
 11
12.6207165468
 21
17.9393643217
  0
LWPOLYLINE
  5
5CC
100
AcDbEntity
  8
SMUSSO
100
AcDbPolyline
 62
7
  6
CONTINUOUS
 90
3
 70
0
 10
13.234137727
 20
17.4642836346
 10
13.1665892432
 20
17.5319361009
 10
13.0494107263
 20
17.7032301647
  0
LWPOLYLINE
  5
5CD
100
AcDbEntity
  8
ASSI
100
AcDbPolyline
 62
7
  6
CONTINUOUS
 90
3
 70
0
 10
13.234137727
 20
17.4642836346
 10
13.1665892432
 20
17.5319361009
 10
13.0494107263
 20
17.7032301647
  0
LWPOLYLINE
  5
5CE
100
AcDbEntity
  8
SMUSSO
100
AcDbPolyline
 62
7
  6
CONTINUOUS
 90
10
 70
0
 10
12.6207165468
 20
17.9393643217
 10
12.4812973386
 20
18.14692119
 10
12.395873308
 20
18.3649874549
 10
12.3670613135
 20
18.5805152865
 10
12.3987866818
 20
18.7927252741
 10
12.4871240862
 20
19.0023968284
 10
12.622914405
 20
19.1988203516
 10
12.8031045979
 20
19.3784259776
 10
13.0307477051
 20
19.5447835725
 10
13.3058437269
 20
19.6978931361
  0
LWPOLYLINE
  5
5CF
100
AcDbEntity
  8
ASSI
100
AcDbPolyline
 62
7
  6
CONTINUOUS
 90
10
 70
0
 10
12.6207165468
 20
17.9393643217
 10
12.4812973386
 20
18.14692119
 10
12.395873308
 20
18.3649874549
 10
12.3670613135
 20
18.5805152865
 10
12.3987866818
 20
18.7927252741
 10
12.4871240862
 20
19.0023968284
 10
12.622914405
 20
19.1988203516
 10
12.8031045979
 20
19.3784259776
 10
13.0307477051
 20
19.5447835725
 10
13.3058437269
 20
19.6978931361
  0
LWPOLYLINE
  5
5D0
100
AcDbEntity
  8
ASSI
100
AcDbPolyline
 62
7
  6
CONTINUOUS
 90
3
 70
0
 10
24.3902334075
 20
-2.5194011128
 10
24.4348357039
 20
-2.5946138898
 10
24.4657950507
 20
-2.6769572496
  0
LWPOLYLINE
  5
5D1
100
AcDbEntity
  8
RACCORDO
100
AcDbPolyline
 62
7
  6
CONTINUOUS
 90
3
 70
0
 10
24.3902334075
 20
-2.5194011128
 10
24.4348357092
 20
-2.5946139007
 10
24.465795053
 20
-2.6769572578
  0
LINE
  5
5D2
100
AcDbEntity
  8
SMUSSO
100
AcDbLine
 62
250
  6
CONTINUOUS
 10
13.3058437269
 20
19.6978931361
 11
13.730170187
 21
18.9658749643
  0
LINE
  5
5D3
100
AcDbEntity
  8
ASSI
100
AcDbLine
 62
250
  6
CONTINUOUS
 10
13.3058437269
 20
19.6978931361
 11
13.730170187
 21
18.9658749643
  0
LWPOLYLINE
  5
5D4
100
AcDbEntity
  8
RACCORDO
100
AcDbPolyline
 62
250
  6
CONTINUOUS
 90
3
 70
0
 10
24.2333959765
 20
-2.609841742
 10
24.2596482353
 20
-2.6562455383
 10
24.2834221503
 20
-2.7059437462
  0
LWPOLYLINE
  5
5D5
100
AcDbEntity
  8
ASSI
100
AcDbPolyline
 62
250
  6
CONTINUOUS
 90
3
 70
0
 10
24.2333959765
 20
-2.609841742
 10
24.2596482353
 20
-2.6562455383
 10
24.2834221503
 20
-2.7059437462
  0
LWPOLYLINE
  5
5D6
100
AcDbEntity
  8
RACCORDO
100
AcDbPolyline
 62
250
  6
CONTINUOUS
 90
5
 70
0
 10
24.2834221503
 20
-2.7059437462
 10
24.3041111392
 20
-2.7584731397
 10
24.3211375697
 20
-2.8133975966
 10
24.333854933
 20
-2.8700444834
 10
24.3416051437
 20
-2.9274930472
  0
LWPOLYLINE
  5
5D7
100
AcDbEntity
  8
ASSI
100
AcDbPolyline
 62
250
  6
CONTINUOUS
 90
5
 70
0
 10
24.2834221503
 20
-2.7059437462
 10
24.3041111392
 20
-2.7584731397
 10
24.3211375697
 20
-2.8133975966
 10
24.333854933
 20
-2.8700444834
 10
24.3416051437
 20
-2.9274930472
  0
LINE
  5
5D8
100
AcDbEntity
  8
0
100
AcDbLine
 62
7
  6
CONTINUOUS
 10
14.891620231
 20
17.3229482753
 11
14.690120873
 21
17.9186727011
  0
LINE
  5
5D9
100
AcDbEntity
  8
RACCORDO
100
AcDbLine
 62
7
  6
CONTINUOUS
 10
25.0029513733
 20
1.383684454
 11
24.9753245374
 21
1.7927437386
  0
LINE
  5
5DA
100
AcDbEntity
  8
ASSI
100
AcDbLine
 62
7
  6
CONTINUOUS
 10
25.0029513733
 20
1.383684454
 11
24.9753245374
 21
1.7927437386
  0
LINE
  5
5DB
100
AcDbEntity
  8
RACCORDO
100
AcDbLine
 62
7
  6
CONTINUOUS
 10
25.0029513733
 20
15.1534883736
 11
24.9753245662
 21
15.5625474401
  0
LINE
  5
5DC
100
AcDbEntity
  8
ASSI
100
AcDbLine
 62
7
  6
CONTINUOUS
 10
25.0029513733
 20
15.1534883736
 11
24.9753245662
 21
15.5625474401
  0
LINE
  5
5DD
100
AcDbEntity
  8
RACCORDO
100
AcDbLine
 62
250
  6
CONTINUOUS
 10
24.8983275214
 20
15.4019078625
 11
24.9187533134
 21
15.0492896186
  0
LINE
  5
5DE
100
AcDbEntity
  8
ASSI
100
AcDbLine
 62
250
  6
CONTINUOUS
 10
24.8983275214
 20
15.4019078625
 11
24.9187533134
 21
15.0492896186
  0
LINE
  5
5DF
100
AcDbEntity
  8
RACCORDO
100
AcDbLine
 62
7
  6
CONTINUOUS
 10
24.4818940478
 20
-2.7639904118
 11
24.4841139862
 21
-2.8103033019
  0
LINE
  5
5E0
100
AcDbEntity
  8
ASSI
100
AcDbLine
 62
7
  6
CONTINUOUS
 10
24.4818940473
 20
-2.7639904062
 11
24.4841139862
 21
-2.8103033026
  0
LWPOLYLINE
  5
5E1
100
AcDbEntity
  8
RACCORDO
100
AcDbPolyline
 62
250
  6
CONTINUOUS
 90
3
 70
0
 10
24.3437858329
 20
15.3263112915
 10
24.3336031817
 20
15.5416349959
 10
24.3038248455
 20
15.7572737856
  0
LWPOLYLINE
  5
5E2
100
AcDbEntity
  8
ASSI
100
AcDbPolyline
 62
250
  6
CONTINUOUS
 90
3
 70
0
 10
24.3437858329
 20
15.3263112915
 10
24.3336031817
 20
15.5416349959
 10
24.3038248455
 20
15.7572737856
  0
LINE
  5
5E3
100
AcDbEntity
  8
RACCORDO
100
AcDbLine
 62
250
  6
CONTINUOUS
 10
24.9187533134
 20
1.2794856984
 11
24.9054689206
 21
1.5625251193
  0
LINE
  5
5E4
100
AcDbEntity
  8
ASSI
100
AcDbLine
 62
250
  6
CONTINUOUS
 10
24.9187533134
 20
1.2794856984
 11
24.9054689206
 21
1.5625251193
  0
LINE
  5
5E5
100
AcDbEntity
  8
RACCORDO
100
AcDbLine
 62
250
  6
CONTINUOUS
 10
24.3416051437
 20
-2.9274930472
 11
24.3437858329
 21
-2.9847308552
  0
LINE
  5
5E6
100
AcDbEntity
  8
ASSI
100
AcDbLine
 62
250
  6
CONTINUOUS
 10
24.3416051437
 20
-2.9274930472
 11
24.3437858329
 21
-2.9847308552
  0
LINE
  5
5E7
100
AcDbEntity
  8
RACCORDO
100
AcDbLine
 62
7
  6
CONTINUOUS
 10
24.4836737349
 20
15.4996260531
 11
24.4786989726
 21
15.6486426736
  0
LINE
  5
5E8
100
AcDbEntity
  8
ASSI
100
AcDbLine
 62
7
  6
CONTINUOUS
 10
24.4836737348
 20
15.4996260163
 11
24.4786988998
 21
15.6486448559
  0
LINE
  5
5E9
100
AcDbEntity
  8
RACCORDO
100
AcDbLine
 62
250
  6
CONTINUOUS
 10
23.8020698218
 20
14.2109960639
 11
23.8020698218
 21
-2.2809260976
  0
LINE
  5
5EA
100
AcDbEntity
  8
ASSI
100
AcDbLine
 62
250
  6
CONTINUOUS
 10
23.8020698218
 20
14.2109960639
 11
23.8020698218
 21
-2.2809260976
  0
LINE
  5
5EB
100
AcDbEntity
  8
RACCORDO
100
AcDbLine
 62
7
  6
CONTINUOUS
 10
23.9423999216
 20
14.2867073722
 11
23.9423999216
 21
-2.2340220391
  0
LINE
  5
5EC
100
AcDbEntity
  8
ASSI
100
AcDbLine
 62
7
  6
CONTINUOUS
 10
23.9423999216
 20
14.2867073722
 11
23.9423999216
 21
-2.2340220391
  0
LINE
  5
5ED
100
AcDbEntity
  8
RACCORDO
100
AcDbLine
 62
250
  6
CONTINUOUS
 10
24.3437858329
 20
-2.9847308552
 11
24.3437858329
 21
-5.9510267479
  0
LINE
  5
5EE
100
AcDbEntity
  8
ASSI
100
AcDbLine
 62
250
  6
CONTINUOUS
 10
24.3437858329
 20
-2.9847308552
 11
24.3437858329
 21
-5.9510267479
  0
LINE
  5
5EF
100
AcDbEntity
  8
RACCORDO
100
AcDbLine
 62
250
  6
CONTINUOUS
 10
24.3437858329
 20
14.7036791324
 11
24.3437858329
 21
15.3263112914
  0
LINE
  5
5F0
100
AcDbEntity
  8
ASSI
100
AcDbLine
 62
250
  6
CONTINUOUS
 10
24.3437858329
 20
14.7036791324
 11
24.3437858329
 21
15.3263112914
  0
LINE
  5
5F1
100
AcDbEntity
  8
RACCORDO
100
AcDbLine
 62
7
  6
CONTINUOUS
 10
24.4841139921
 20
-2.8103697286
 11
24.4841159328
 21
-5.7773621553
  0
LINE
  5
5F2
100
AcDbEntity
  8
ASSI
100
AcDbLine
 62
7
  6
CONTINUOUS
 10
24.4841139921
 20
-2.8103697288
 11
24.4841159328
 21
-5.7773621553
  0
LINE
  5
5F3
100
AcDbEntity
  8
RACCORDO
100
AcDbLine
 62
7
  6
CONTINUOUS
 10
24.4841159328
 20
14.877343725
 11
24.4841159328
 21
15.4999759834
  0
LINE
  5
5F4
100
AcDbEntity
  8
ASSI
100
AcDbLine
 62
7
  6
CONTINUOUS
 10
24.4841159328
 20
14.877343725
 11
24.4841159328
 21
15.4999759834
  0
LINE
  5
5F5
100
AcDbEntity
  8
RACCORDO
100
AcDbLine
 62
250
  6
CONTINUOUS
 10
24.9187533134
 20
15.0492896186
 11
24.9187533134
 21
13.2306362707
  0
LINE
  5
5F6
100
AcDbEntity
  8
ASSI
100
AcDbLine
 62
250
  6
CONTINUOUS
 10
24.9187533134
 20
15.0492896186
 11
24.9187533134
 21
13.2306362707
  0
LINE
  5
5F7
100
AcDbEntity
  8
RACCORDO
100
AcDbLine
 62
250
  6
CONTINUOUS
 10
24.9187533134
 20
-0.5391676495
 11
24.9187533134
 21
1.2794856984
  0
LINE
  5
5F8
100
AcDbEntity
  8
ASSI
100
AcDbLine
 62
250
  6
CONTINUOUS
 10
24.9187533134
 20
-0.5391676495
 11
24.9187533134
 21
1.2794856984
  0
LINE
  5
5F9
100
AcDbEntity
  8
RACCORDO
100
AcDbLine
 62
7
  6
CONTINUOUS
 10
25.0029513733
 20
15.1534883742
 11
25.0029513733
 21
13.3348350262
  0
LINE
  5
5FA
100
AcDbEntity
  8
ASSI
100
AcDbLine
 62
7
  6
CONTINUOUS
 10
25.0029513733
 20
15.1534883742
 11
25.0029513733
 21
13.3348350262
  0
LINE
  5
5FB
100
AcDbEntity
  8
RACCORDO
100
AcDbLine
 62
7
  6
CONTINUOUS
 10
25.0029513733
 20
-0.4349688939
 11
25.0029513733
 21
1.383684454
  0
LINE
  5
5FC
100
AcDbEntity
  8
ASSI
100
AcDbLine
 62
7
  6
CONTINUOUS
 10
25.0029513733
 20
-0.4349688939
 11
25.0029513733
 21
1.383684454
  0
LWPOLYLINE
  5
5FD
100
AcDbEntity
  8
RACCORDO
100
AcDbPolyline
 62
250
  6
CONTINUOUS
 90
7
 70
0
 10
24.3437858329
 20
-5.9510267479
 10
24.3430448304
 20
-5.9861595815
 10
24.3396715684
 20
-6.0209183399
 10
24.3334413892
 20
-6.0548879884
 10
24.3241652956
 20
-6.0875665864
 10
24.3116575317
 20
-6.1185177114
 10
24.2957003006
 20
-6.1473334915
  0
LWPOLYLINE
  5
5FE
100
AcDbEntity
  8
ASSI
100
AcDbPolyline
 62
250
  6
CONTINUOUS
 90
7
 70
0
 10
24.3437858329
 20
-5.9510267479
 10
24.3430448304
 20
-5.9861595815
 10
24.3396715684
 20
-6.0209183399
 10
24.3334413892
 20
-6.0548879884
 10
24.3241652956
 20
-6.0875665864
 10
24.3116575317
 20
-6.1185177114
 10
24.2957003006
 20
-6.1473334915
  0
LINE
  5
5FF
100
AcDbEntity
  8
RACCORDO
100
AcDbLine
 62
250
  6
CONTINUOUS
 10
24.3415506043
 20
14.6495532162
 11
24.3437858329
 21
14.7036791324
  0
LINE
  5
600
100
AcDbEntity
  8
ASSI
100
AcDbLine
 62
250
  6
CONTINUOUS
 10
24.3415506043
 20
14.6495532162
 11
24.3437858329
 21
14.7036791324
  0
LINE
  5
601
100
AcDbEntity
  8
RACCORDO
100
AcDbLine
 62
250
  6
CONTINUOUS
 10
24.9187533134
 20
13.2306362707
 11
24.9080429705
 21
12.9877349096
  0
LINE
  5
602
100
AcDbEntity
  8
ASSI
100
AcDbLine
 62
250
  6
CONTINUOUS
 10
24.9187533134
 20
13.2306362707
 11
24.9080429705
 21
12.9877349096
  0
LINE
  5
603
100
AcDbEntity
  8
RACCORDO
100
AcDbLine
 62
7
  6
CONTINUOUS
 10
24.9729999973
 20
12.9353011677
 11
25.0029513733
 21
13.3348350262
  0
LINE
  5
604
100
AcDbEntity
  8
ASSI
100
AcDbLine
 62
7
  6
CONTINUOUS
 10
24.9729999973
 20
12.9353011677
 11
25.0029513733
 21
13.3348350262
  0
LINE
  5
605
100
AcDbEntity
  8
RACCORDO
100
AcDbLine
 62
7
  6
CONTINUOUS
 10
24.9729999995
 20
-0.8345027387
 11
25.0029513733
 21
-0.4349688939
  0
LINE
  5
606
100
AcDbEntity
  8
ASSI
100
AcDbLine
 62
7
  6
CONTINUOUS
 10
24.9729999995
 20
-0.8345027387
 11
25.0029513733
 21
-0.4349688939
  0
LWPOLYLINE
  5
607
100
AcDbEntity
  8
RACCORDO
100
AcDbPolyline
 62
250
  6
CONTINUOUS
 90
6
 70
0
 10
25.0029513733
 20
15.1534883736
 10
25.0020492517
 20
15.1418644854
 10
24.9936129119
 20
15.1163539226
 10
24.9765396557
 20
15.0919468197
 10
24.9513368211
 20
15.0693684162
 10
24.9187533134
 20
15.0492896186
  0
LWPOLYLINE
  5
608
100
AcDbEntity
  8
ASSI
100
AcDbPolyline
 62
250
  6
CONTINUOUS
 90
6
 70
0
 10
25.0029513733
 20
15.1534883736
 10
25.0020492517
 20
15.1418644854
 10
24.9936129119
 20
15.1163539226
 10
24.9765396557
 20
15.0919468197
 10
24.9513368211
 20
15.0693684162
 10
24.9187533134
 20
15.0492896186
  0
LWPOLYLINE
  5
609
100
AcDbEntity
  8
RACCORDO
100
AcDbPolyline
 62
250
  6
CONTINUOUS
 90
6
 70
0
 10
24.4841159328
 20
-2.8110662626
 10
24.4821422082
 20
-2.8332576402
 10
24.4670441317
 20
-2.8758357668
 10
24.438044039
 20
-2.9158866737
 10
24.3964221164
 20
-2.9524908105
 10
24.3437858329
 20
-2.9847308552
  0
LWPOLYLINE
  5
60A
100
AcDbEntity
  8
ASSI
100
AcDbPolyline
 62
250
  6
CONTINUOUS
 90
6
 70
0
 10
24.4841159328
 20
-2.8110662626
 10
24.4821422082
 20
-2.8332576402
 10
24.4670441317
 20
-2.8758357668
 10
24.438044039
 20
-2.9158866737
 10
24.3964221164
 20
-2.9524908105
 10
24.3437858329
 20
-2.9847308552
  0
LINE
  5
60B
100
AcDbEntity
  8
RACCORDO
100
AcDbLine
 62
250
  6
CONTINUOUS
 10
24.4841159328
 20
-5.7773621553
 11
24.482142188
 21
-5.7995536466
  0
LINE
  5
60C
100
AcDbEntity
  8
ASSI
100
AcDbLine
 62
250
  6
CONTINUOUS
 10
24.4841159328
 20
-5.7773621553
 11
24.482142188
 21
-5.7995536466
  0
LINE
  5
60D
100
AcDbEntity
  8
RACCORDO
100
AcDbLine
 62
7
  6
CONTINUOUS
 10
24.4752621371
 20
-5.8710385464
 11
24.4841159062
 21
-5.7772807057
  0
LINE
  5
60E
100
AcDbEntity
  8
ASSI
100
AcDbLine
 62
7
  6
CONTINUOUS
 10
24.4752621371
 20
-5.8710385464
 11
24.4841159062
 21
-5.7772807057
  0
LWPOLYLINE
  5
60F
100
AcDbEntity
  8
RACCORDO
100
AcDbPolyline
 62
250
  6
CONTINUOUS
 90
7
 70
0
 10
24.8462516005
 20
-1.1436084559
 10
24.8698564288
 20
-1.0425191399
 10
24.8883502813
 20
-0.9411639579
 10
24.9021491773
 20
-0.8397354499
 10
24.9115990032
 20
-0.7385860842
 10
24.9170208464
 20
-0.6382651347
 10
24.9187533134
 20
-0.5391676495
  0
LWPOLYLINE
  5
610
100
AcDbEntity
  8
ASSI
100
AcDbPolyline
 62
250
  6
CONTINUOUS
 90
7
 70
0
 10
24.8462516005
 20
-1.1436084559
 10
24.8698564288
 20
-1.0425191399
 10
24.8883502813
 20
-0.9411639579
 10
24.9021491773
 20
-0.8397354499
 10
24.9115990032
 20
-0.7385860842
 10
24.9170208464
 20
-0.6382651347
 10
24.9187533134
 20
-0.5391676495
  0
LINE
  5
611
100
AcDbEntity
  8
RACCORDO
100
AcDbLine
 62
7
  6
CONTINUOUS
 10
24.8856908851
 20
-1.1912806404
 11
24.9729999995
 21
-0.8345027387
  0
LINE
  5
612
100
AcDbEntity
  8
ASSI
100
AcDbLine
 62
7
  6
CONTINUOUS
 10
24.8856908851
 20
-1.1912806404
 11
24.9729999995
 21
-0.8345027387
  0
LWPOLYLINE
  5
613
100
AcDbEntity
  8
RACCORDO
100
AcDbPolyline
 62
250
  6
CONTINUOUS
 90
5
 70
0
 10
24.482142188
 20
-5.7995536466
 10
24.4670440427
 20
-5.8421318254
 10
24.4380439055
 20
-5.8821827108
 10
24.3964220011
 20
-5.9187867869
 10
24.3437858329
 20
-5.9510267474
  0
LWPOLYLINE
  5
614
100
AcDbEntity
  8
ASSI
100
AcDbPolyline
 62
250
  6
CONTINUOUS
 90
5
 70
0
 10
24.482142188
 20
-5.7995536466
 10
24.4670440427
 20
-5.8421318254
 10
24.4380439055
 20
-5.8821827108
 10
24.3964220011
 20
-5.9187867869
 10
24.3437858329
 20
-5.9510267474
  0
LINE
  5
615
100
AcDbEntity
  8
ASSI
100
AcDbLine
 62
7
  6
CONTINUOUS
 10
17.3923269685
 20
-16.6950496251
 11
17.4770700149
 21
-16.5680348707
  0
LINE
  5
616
100
AcDbEntity
  8
RACCORDO
100
AcDbLine
 62
7
  6
CONTINUOUS
 10
17.3923260158
 20
-16.6950507372
 11
17.477069156
 21
-16.5680361579
  0
LWPOLYLINE
  5
617
100
AcDbEntity
  8
RACCORDO
100
AcDbPolyline
 62
250
  6
CONTINUOUS
 90
4
 70
0
 10
17.2278845733
 20
-16.8555150204
 10
17.326223721
 20
-16.7330059271
 10
17.4046772154
 20
-16.5931532525
 10
17.463773886
 20
-16.4396967383
  0
LWPOLYLINE
  5
618
100
AcDbEntity
  8
ASSI
100
AcDbPolyline
 62
250
  6
CONTINUOUS
 90
4
 70
0
 10
17.2278845733
 20
-16.8555150204
 10
17.326223721
 20
-16.7330059271
 10
17.4046772154
 20
-16.5931532525
 10
17.463773886
 20
-16.4396967383
  0
LINE
  5
619
100
AcDbEntity
  8
RACCORDO
100
AcDbLine
 62
7
  6
CONTINUOUS
 10
17.3056135612
 20
-16.7962769558
 11
17.3923260158
 21
-16.6950507372
  0
LINE
  5
61A
100
AcDbEntity
  8
ASSI
100
AcDbLine
 62
7
  6
CONTINUOUS
 10
17.3056135611
 20
-16.7962769559
 11
17.3923269685
 21
-16.6950496251
  0
LINE
  5
61B
100
AcDbEntity
  8
RACCORDO
100
AcDbLine
 62
7
  6
CONTINUOUS
 10
17.305494238
 20
-16.7972973251
 11
17.306064572
 21
-16.7967023298
  0
LINE
  5
61C
100
AcDbEntity
  8
ASSI
100
AcDbLine
 62
7
  6
CONTINUOUS
 10
17.305494238
 20
-16.7972973251
 11
17.3060645719
 21
-16.7967023299
  0
LINE
  5
61D
100
AcDbEntity
  8
RACCORDO
100
AcDbLine
 62
7
  6
CONTINUOUS
 10
17.1774616656
 20
-16.9284551211
 11
17.305494238
 21
-16.7972973251
  0
LINE
  5
61E
100
AcDbEntity
  8
ASSI
100
AcDbLine
 62
7
  6
CONTINUOUS
 10
17.1774616656
 20
-16.9284551211
 11
17.305494238
 21
-16.7972973251
  0
LWPOLYLINE
  5
61F
100
AcDbEntity
  8
RACCORDO
100
AcDbPolyline
 62
250
  6
CONTINUOUS
 90
3
 70
0
 10
16.8494921306
 20
-17.2313427047
 10
17.0404472931
 20
-17.0460581482
 10
17.2278845731
 20
-16.8555150203
  0
LWPOLYLINE
  5
620
100
AcDbEntity
  8
ASSI
100
AcDbPolyline
 62
250
  6
CONTINUOUS
 90
3
 70
0
 10
16.8494921306
 20
-17.2313427047
 10
17.0404472931
 20
-17.0460581482
 10
17.2278845731
 20
-16.8555150203
  0
LWPOLYLINE
  5
621
100
AcDbEntity
  8
RACCORDO
100
AcDbPolyline
 62
7
  6
CONTINUOUS
 90
4
 70
0
 10
16.7839222733
 20
-17.3072830496
 10
16.9166591641
 20
-17.1834600582
 10
17.0478447266
 20
-17.0571798927
 10
17.1774616656
 20
-16.9284551211
  0
LWPOLYLINE
  5
622
100
AcDbEntity
  8
ASSI
100
AcDbPolyline
 62
7
  6
CONTINUOUS
 90
4
 70
0
 10
16.7839222733
 20
-17.3072830496
 10
16.9166591641
 20
-17.1834600582
 10
17.0478447266
 20
-17.0571798927
 10
17.1774616656
 20
-16.9284551211
  0
LINE
  5
623
100
AcDbEntity
  8
RACCORDO
100
AcDbLine
 62
250
  6
CONTINUOUS
 10
16.6550623976
 20
-17.4113247796
 11
16.8494921306
 21
-17.2313427047
  0
LINE
  5
624
100
AcDbEntity
  8
ASSI
100
AcDbLine
 62
250
  6
CONTINUOUS
 10
16.6550623976
 20
-17.4113247796
 11
16.8494921306
 21
-17.2313427047
  0
LINE
  5
625
100
AcDbEntity
  8
RACCORDO
100
AcDbLine
 62
250
  6
CONTINUOUS
 10
16.4572022241
 20
-17.5859616716
 11
16.6550623976
 21
-17.4113247796
  0
LINE
  5
626
100
AcDbEntity
  8
ASSI
100
AcDbLine
 62
250
  6
CONTINUOUS
 10
16.4572022241
 20
-17.5859616716
 11
16.6550623976
 21
-17.4113247796
  0
LWPOLYLINE
  5
627
100
AcDbEntity
  8
RACCORDO
100
AcDbPolyline
 62
7
  6
CONTINUOUS
 90
3
 70
0
 10
16.513850705
 20
-17.5475213417
 10
16.6496487754
 20
-17.4286391791
 10
16.7839222733
 20
-17.3072830496
  0
LWPOLYLINE
  5
628
100
AcDbEntity
  8
ASSI
100
AcDbPolyline
 62
7
  6
CONTINUOUS
 90
3
 70
0
 10
16.513850705
 20
-17.5475213417
 10
16.6496487754
 20
-17.4286391791
 10
16.7839222733
 20
-17.3072830496
  0
LINE
  5
629
100
AcDbEntity
  8
RACCORDO
100
AcDbLine
 62
7
  6
CONTINUOUS
 10
16.3765429975
 20
-17.6639199708
 11
16.513850705
 21
-17.5475213417
  0
LINE
  5
62A
100
AcDbEntity
  8
ASSI
100
AcDbLine
 62
7
  6
CONTINUOUS
 10
16.3765429975
 20
-17.6639199708
 11
16.513850705
 21
-17.5475213417
  0
LINE
  5
62B
100
AcDbEntity
  8
RACCORDO
100
AcDbLine
 62
250
  6
CONTINUOUS
 10
16.2559565483
 20
-17.7552118981
 11
16.4572022241
 21
-17.5859616716
  0
LINE
  5
62C
100
AcDbEntity
  8
ASSI
100
AcDbLine
 62
250
  6
CONTINUOUS
 10
16.2559565483
 20
-17.7552118981
 11
16.4572022241
 21
-17.5859616716
  0
LINE
  5
62D
100
AcDbEntity
  8
RACCORDO
100
AcDbLine
 62
250
  6
CONTINUOUS
 10
16.0513711066
 20
-17.9190352057
 11
16.2559565483
 21
-17.7552118981
  0
LINE
  5
62E
100
AcDbEntity
  8
ASSI
100
AcDbLine
 62
250
  6
CONTINUOUS
 10
16.0513711066
 20
-17.9190352057
 11
16.2559565483
 21
-17.7552118981
  0
LWPOLYLINE
  5
62F
100
AcDbEntity
  8
RACCORDO
100
AcDbPolyline
 62
7
  6
CONTINUOUS
 90
3
 70
0
 10
16.0974692446
 20
-17.8892212476
 10
16.2377436012
 20
-17.7778233399
 10
16.3765429975
 20
-17.6639199708
  0
LWPOLYLINE
  5
630
100
AcDbEntity
  8
ASSI
100
AcDbPolyline
 62
7
  6
CONTINUOUS
 90
3
 70
0
 10
16.0974692446
 20
-17.8892212476
 10
16.2377436012
 20
-17.7778233399
 10
16.3765429975
 20
-17.6639199708
  0
LWPOLYLINE
  5
631
100
AcDbEntity
  8
RACCORDO
100
AcDbPolyline
 62
7
  6
CONTINUOUS
 90
10
 70
0
 10
16.0974730461
 20
-17.8892182782
 10
16.0929514236
 20
-17.8927088446
 10
16.0846853155
 20
-17.8988811621
 10
16.0762936155
 20
-17.9048816286
 10
16.0677823682
 20
-17.9107060344
 10
16.0591542093
 20
-17.9163527498
 10
16.0504081897
 20
-17.9218223172
 10
16.0415468759
 20
-17.92711281
 10
16.0325765196
 20
-17.9322202439
 10
16.0235016747
 20
-17.9371419167
  0
LWPOLYLINE
  5
632
100
AcDbEntity
  8
ASSI
100
AcDbPolyline
 62
7
  6
CONTINUOUS
 90
10
 70
0
 10
16.097473046
 20
-17.8892182783
 10
16.092951431
 20
-17.8927088389
 10
16.0846853281
 20
-17.8988811529
 10
16.0762936308
 20
-17.9048816179
 10
16.067782383
 20
-17.9107060245
 10
16.0591542208
 20
-17.9163527425
 10
16.0504081977
 20
-17.9218223123
 10
16.0415468813
 20
-17.9271128068
 10
16.0325765224
 20
-17.9322202424
 10
16.0235016747
 20
-17.9371419167
  0
LWPOLYLINE
  5
633
100
AcDbEntity
  8
RACCORDO
100
AcDbPolyline
 62
250
  6
CONTINUOUS
 90
3
 70
0
 10
17.2278845732
 20
-16.8555150202
 10
17.2835895978
 20
-16.8179013526
 10
17.305494238
 20
-16.7972973251
  0
LWPOLYLINE
  5
634
100
AcDbEntity
  8
ASSI
100
AcDbPolyline
 62
250
  6
CONTINUOUS
 90
3
 70
0
 10
17.2278845732
 20
-16.8555150202
 10
17.2835895978
 20
-16.8179013526
 10
17.305494238
 20
-16.7972973251
  0
LWPOLYLINE
  5
635
100
AcDbEntity
  8
RACCORDO
100
AcDbPolyline
 62
250
  6
CONTINUOUS
 90
3
 70
0
 10
14.0813156738
 20
-18.9613425562
 10
14.0586039079
 20
-18.9765753648
 10
14.0536309734
 20
-18.9793047701
  0
LWPOLYLINE
  5
636
100
AcDbEntity
  8
ASSI
100
AcDbPolyline
 62
250
  6
CONTINUOUS
 90
3
 70
0
 10
14.0813156738
 20
-18.9613425562
 10
14.0586039079
 20
-18.9765753648
 10
14.0536309734
 20
-18.9793047701
  0
LINE
  5
637
100
AcDbEntity
  8
RACCORDO
100
AcDbLine
 62
250
  6
CONTINUOUS
 10
16.0235018713
 20
-17.9371418128
 11
16.0513711067
 21
-17.9190352057
  0
LINE
  5
638
100
AcDbEntity
  8
ASSI
100
AcDbLine
 62
250
  6
CONTINUOUS
 10
16.0235018713
 20
-17.9371418128
 11
16.0513711067
 21
-17.9190352057
  0
LINE
  5
639
100
AcDbEntity
  8
RACCORDO
100
AcDbLine
 62
250
  6
CONTINUOUS
 10
16.0513711066
 20
-17.9190352057
 11
16.0974692446
 21
-17.8892212476
  0
LINE
  5
63A
100
AcDbEntity
  8
ASSI
100
AcDbLine
 62
250
  6
CONTINUOUS
 10
16.0513711066
 20
-17.9190352057
 11
16.0974692446
 21
-17.8892212476
  0
LINE
  5
63B
100
AcDbEntity
  8
RACCORDO
100
AcDbLine
 62
250
  6
CONTINUOUS
 10
13.4501483246
 20
-19.3355901734
 11
13.4040562052
 21
-19.3647921455
  0
LINE
  5
63C
100
AcDbEntity
  8
ASSI
100
AcDbLine
 62
250
  6
CONTINUOUS
 10
13.4501483246
 20
-19.3355901734
 11
13.4040562052
 21
-19.3647921455
  0
LINE
  5
63D
100
AcDbEntity
  8
RACCORDO
100
AcDbLine
 62
7
  6
CONTINUOUS
 10
13.4110864135
 20
-19.3620966013
 11
13.4344530278
 21
-19.3472930968
  0
LINE
  5
63E
100
AcDbEntity
  8
ASSI
100
AcDbLine
 62
7
  6
CONTINUOUS
 10
13.4110869259
 20
-19.362096269
 11
13.4343817254
 21
-19.3473382047
  0
LINE
  5
63F
100
AcDbEntity
  8
0
100
AcDbLine
 62
7
  6
CONTINUOUS
 10
7.7032368968
 20
-25.9357546426
 11
7.3464458069
 21
-26.1607629068
  0
LWPOLYLINE
  5
640
100
AcDbEntity
  8
RACCORDO
100
AcDbPolyline
 62
7
  6
CONTINUOUS
 90
7
 70
0
 10
13.4040562052
 20
-19.3647921455
 10
13.0497206427
 20
-19.5873875693
 10
12.6969025757
 20
-19.803873946
 10
12.345666749
 20
-20.0142882769
 10
11.9960772471
 20
-20.2186686036
 10
11.6481974805
 20
-20.4170539714
 10
11.3020901725
 20
-20.6094843909
  0
LWPOLYLINE
  5
641
100
AcDbEntity
  8
ASSI
100
AcDbPolyline
 62
7
  6
CONTINUOUS
 90
7
 70
0
 10
13.4040562052
 20
-19.3647921455
 10
13.0497206427
 20
-19.5873875693
 10
12.6969025757
 20
-19.803873946
 10
12.345666749
 20
-20.0142882769
 10
11.9960772471
 20
-20.2186686036
 10
11.6481974805
 20
-20.4170539714
 10
11.3020901725
 20
-20.6094843909
  0
LWPOLYLINE
  5
642
100
AcDbEntity
  8
RACCORDO
100
AcDbPolyline
 62
7
  6
CONTINUOUS
 90
3
 70
0
 10
13.4344530278
 20
-19.3472930968
 10
13.5596954186
 20
-19.268694045
 10
13.6831585951
 20
-19.1927041742
  0
LWPOLYLINE
  5
643
100
AcDbEntity
  8
ASSI
100
AcDbPolyline
 62
7
  6
CONTINUOUS
 90
3
 70
0
 10
13.4343817254
 20
-19.3473382047
 10
13.5596709679
 20
-19.2687092467
 10
13.6831697476
 20
-19.1926974798
  0
LWPOLYLINE
  5
644
100
AcDbEntity
  8
RACCORDO
100
AcDbPolyline
 62
250
  6
CONTINUOUS
 90
6
 70
0
 10
13.6712428371
 20
-19.1980350601
 10
13.6285814699
 20
-19.224200433
 10
13.5848189481
 20
-19.251233842
 10
13.540441649
 20
-19.2788472031
 10
13.4956080467
 20
-19.3069382964
 10
13.4501483246
 20
-19.3355901734
  0
LWPOLYLINE
  5
645
100
AcDbEntity
  8
ASSI
100
AcDbPolyline
 62
250
  6
CONTINUOUS
 90
6
 70
0
 10
13.6712428371
 20
-19.1980350601
 10
13.6285814699
 20
-19.224200433
 10
13.5848189481
 20
-19.251233842
 10
13.540441649
 20
-19.2788472031
 10
13.4956080467
 20
-19.3069382964
 10
13.4501483246
 20
-19.3355901734
  0
LINE
  5
646
100
AcDbEntity
  8
RACCORDO
100
AcDbLine
 62
7
  6
CONTINUOUS
 10
13.6831697476
 20
-19.1926974798
 11
13.8020225436
 21
-19.121355107
  0
LINE
  5
647
100
AcDbEntity
  8
ASSI
100
AcDbLine
 62
7
  6
CONTINUOUS
 10
13.6831697476
 20
-19.1926974798
 11
13.8020225436
 21
-19.121355107
  0
LINE
  5
648
100
AcDbEntity
  8
RACCORDO
100
AcDbLine
 62
7
  6
CONTINUOUS
 10
13.8020225436
 20
-19.121355107
 11
13.9121798874
 21
-19.0573185935
  0
LINE
  5
649
100
AcDbEntity
  8
ASSI
100
AcDbLine
 62
7
  6
CONTINUOUS
 10
13.8020225436
 20
-19.121355107
 11
13.9121798874
 21
-19.0573185935
  0
LINE
  5
64A
100
AcDbEntity
  8
RACCORDO
100
AcDbLine
 62
7
  6
CONTINUOUS
 10
13.9121798874
 20
-19.0573185935
 11
14.0088953339
 21
-19.0033319864
  0
LINE
  5
64B
100
AcDbEntity
  8
ASSI
100
AcDbLine
 62
7
  6
CONTINUOUS
 10
13.9121798874
 20
-19.0573185935
 11
14.0088953339
 21
-19.0033319864
  0
LINE
  5
64C
100
AcDbEntity
  8
RACCORDO
100
AcDbLine
 62
7
  6
CONTINUOUS
 10
8.566576148
 20
-22.0556668327
 11
8.6522775882
 21
-22.0088426009
  0
LINE
  5
64D
100
AcDbEntity
  8
ASSI
100
AcDbLine
 62
7
  6
CONTINUOUS
 10
8.566576148
 20
-22.0556668327
 11
8.6522775882
 21
-22.0088426009
  0
LINE
  5
64E
100
AcDbEntity
  8
RACCORDO
100
AcDbLine
 62
7
  6
CONTINUOUS
 10
14.0088953339
 20
-19.0033319864
 11
14.052989989
 21
-18.9796422822
  0
LINE
  5
64F
100
AcDbEntity
  8
ASSI
100
AcDbLine
 62
7
  6
CONTINUOUS
 10
14.0088953339
 20
-19.0033319864
 11
14.0529904969
 21
-18.9796420161
  0
LINE
  5
650
100
AcDbEntity
  8
RACCORDO
100
AcDbLine
 62
7
  6
CONTINUOUS
 10
11.3020901725
 20
-20.6094843909
 11
8.6522775882
 21
-22.0088426009
  0
LINE
  5
651
100
AcDbEntity
  8
ASSI
100
AcDbLine
 62
7
  6
CONTINUOUS
 10
11.3020901725
 20
-20.6094843909
 11
8.6522775882
 21
-22.0088426009
  0
LINE
  5
652
100
AcDbEntity
  8
0
100
AcDbLine
 62
250
  6
CONTINUOUS
 10
8.566576148
 20
-25.6486017496
 11
7.3464458069
 21
-26.1607629068
  0
LINE
  5
653
100
AcDbEntity
  8
0
100
AcDbLine
 62
7
  6
CONTINUOUS
 10
8.4253103942
 20
-25.9245330392
 11
6.9864116423
 21
-26.5285242892
  0
LWPOLYLINE
  5
654
100
AcDbEntity
  8
RACCORDO
100
AcDbPolyline
 62
250
  6
CONTINUOUS
 90
16
 70
0
 10
-0.1955435933
 20
-28.0342236264
 10
-0.2579960333
 20
-28.060020532
 10
-0.3257340566
 20
-28.0824694893
 10
-0.3980318727
 20
-28.101329965
 10
-0.4741148344
 20
-28.1163998755
 10
-0.5531677382
 20
-28.1275177517
 10
-0.6343435584
 20
-28.1345644692
 10
-0.7167725229
 20
-28.1374645249
 10
-0.799571433
 20
-28.1361868455
 10
-0.8818531255
 20
-28.1307451209
 10
-0.9627359797
 20
-28.1211976575
 10
-1.0413533625
 20
-28.1076467531
 10
-1.1168629147
 20
-28.0902376013
 10
-1.1884555766
 20
-28.0691567355
 10
-1.2553642566
 20
-28.04463003
 10
-1.3168720503
 20
-28.0169202804
  0
LINE
  5
655
100
AcDbEntity
  8
RACCORDO
100
AcDbLine
 62
250
  6
CONTINUOUS
 10
0.2560684301
 20
-28.4315282828
 11
4.363022164
 21
-26.9684333195
  0
LINE
  5
656
100
AcDbEntity
  8
RACCORDO
100
AcDbLine
 62
7
  6
CONTINUOUS
 10
4.0796420234
 20
-27.4339828485
 11
-0.031818418
 21
-28.8986826959
  0
LWPOLYLINE
  5
657
100
AcDbEntity
  8
RACCORDO
100
AcDbPolyline
 62
7
  6
CONTINUOUS
 90
5
 70
0
 10
-7.3580626973
 20
22.6036241805
 10
-7.3898356229
 20
22.5960601567
 10
-7.4235521073
 20
22.5973927036
 10
-7.4584705035
 20
22.6070475943
 10
-7.479790766
 20
22.6165285258
  0
LWPOLYLINE
  5
658
100
AcDbEntity
  8
ASSI
100
AcDbPolyline
 62
7
  6
CONTINUOUS
 90
5
 70
0
 10
-7.3580626973
 20
22.6036241805
 10
-7.3898356229
 20
22.5960601567
 10
-7.4235521073
 20
22.5973927036
 10
-7.4584705035
 20
22.6070475943
 10
-7.479790766
 20
22.6165285258
  0
LINE
  5
659
100
AcDbEntity
  8
RACCORDO
100
AcDbLine
 62
7
  6
CONTINUOUS
 10
3.1378843188
 20
28.6717206137
 11
3.2179602301
 21
28.6871262684
  0
LINE
  5
65A
100
AcDbEntity
  8
ASSI
100
AcDbLine
 62
7
  6
CONTINUOUS
 10
3.1378843188
 20
28.6717206137
 11
3.2179602301
 21
28.6871262684
  0
LWPOLYLINE
  5
65B
100
AcDbEntity
  8
ASSI
100
AcDbPolyline
 62
7
  6
CONTINUOUS
 90
3
 70
0
 10
-3.4387124805
 20
25.6628364589
 10
-3.5393704262
 20
25.6443981701
 10
-3.6536135284
 20
25.6330062521
  0
LWPOLYLINE
  5
65C
100
AcDbEntity
  8
RACCORDO
100
AcDbPolyline
 62
7
  6
CONTINUOUS
 90
3
 70
0
 10
-3.43875579
 20
25.6628265699
 10
-3.5394027014
 20
25.6443936026
 10
-3.6536285484
 20
25.6330053551
  0
LINE
  5
65D
100
AcDbEntity
  8
0
100
AcDbLine
 62
7
  6
CONTINUOUS
 10
-8.7600395566
 20
25.5545781754
 11
-7.9014509607
 21
25.7109515397
  0
LINE
  5
65E
100
AcDbEntity
  8
ASSI
100
AcDbLine
 62
7
  6
CONTINUOUS
 10
-8.7600395566
 20
25.5545781754
 11
-7.9014509607
 21
25.7109515397
  0
LWPOLYLINE
  5
65F
100
AcDbEntity
  8
DRAFT
100
AcDbPolyline
 62
7
  6
CONTINUOUS
 90
3
 70
0
 10
-3.8968911844
 20
26.1126756976
 10
-4.2856539518
 20
26.0547875683
 10
-4.6378323009
 20
25.9746992577
  0
LWPOLYLINE
  5
660
100
AcDbEntity
  8
ASSI
100
AcDbPolyline
 62
7
  6
CONTINUOUS
 90
3
 70
0
 10
-3.8968911844
 20
26.1126756976
 10
-4.2856539518
 20
26.0547875683
 10
-4.6378323009
 20
25.9746992577
  0
LWPOLYLINE
  5
661
100
AcDbEntity
  8
RACCORDO
100
AcDbPolyline
 62
250
  6
CONTINUOUS
 90
8
 70
0
 10
-3.548186374
 20
25.5753834914
 10
-3.4827671897
 20
25.582707026
 10
-3.4182926682
 20
25.5922842212
 10
-3.3547985602
 20
25.6041867195
 10
-3.292249115
 20
25.6183428785
 10
-3.2319164282
 20
25.6346489151
 10
-3.1742245319
 20
25.6530702352
 10
-3.118749394
 20
25.673641433
  0
LWPOLYLINE
  5
662
100
AcDbEntity
  8
ASSI
100
AcDbPolyline
 62
250
  6
CONTINUOUS
 90
8
 70
0
 10
-3.548186374
 20
25.5753834914
 10
-3.4827671897
 20
25.582707026
 10
-3.4182926682
 20
25.5922842212
 10
-3.3547985602
 20
25.6041867195
 10
-3.292249115
 20
25.6183428785
 10
-3.2319164282
 20
25.6346489151
 10
-3.1742245319
 20
25.6530702352
 10
-3.118749394
 20
25.673641433
  0
LINE
  5
663
100
AcDbEntity
  8
RACCORDO
100
AcDbLine
 62
7
  6
CONTINUOUS
 10
-3.6536285484
 20
25.6330053551
 11
-3.7725472154
 21
25.6305622555
  0
LINE
  5
664
100
AcDbEntity
  8
ASSI
100
AcDbLine
 62
7
  6
CONTINUOUS
 10
-3.6536135284
 20
25.6330062521
 11
-3.7725516718
 21
25.6305623366
  0
LINE
  5
665
100
AcDbEntity
  8
0
100
AcDbLine
 62
7
  6
CONTINUOUS
 10
-12.9983946063
 20
27.6737557003
 11
-11.7435343509
 21
27.6319932348
  0
LINE
  5
666
100
AcDbEntity
  8
ASSI
100
AcDbLine
 62
7
  6
CONTINUOUS
 10
-12.9983946063
 20
27.6737557003
 11
-11.7435343509
 21
27.6319932348
  0
LWPOLYLINE
  5
667
100
AcDbEntity
  8
RACCORDO
100
AcDbPolyline
 62
250
  6
CONTINUOUS
 90
6
 70
0
 10
-3.8648511974
 20
25.57024033
 10
-3.8041369179
 20
25.5674033702
 10
-3.7416888579
 20
25.5664171281
 10
-3.6776472081
 20
25.5672385424
 10
-3.6131708738
 20
25.570202473
 10
-3.548186374
 20
25.5753834914
  0
LWPOLYLINE
  5
668
100
AcDbEntity
  8
ASSI
100
AcDbPolyline
 62
250
  6
CONTINUOUS
 90
6
 70
0
 10
-3.8648511974
 20
25.57024033
 10
-3.8041369179
 20
25.5674033702
 10
-3.7416888579
 20
25.5664171281
 10
-3.6776472081
 20
25.5672385424
 10
-3.6131708738
 20
25.570202473
 10
-3.548186374
 20
25.5753834914
  0
LWPOLYLINE
  5
669
100
AcDbEntity
  8
ASSI
100
AcDbPolyline
 62
7
  6
CONTINUOUS
 90
7
 70
0
 10
-3.7725516718
 20
25.6305623366
 10
-3.8910553387
 20
25.6373169191
 10
-4.0039529496
 20
25.6527704336
 10
-4.1024498759
 20
25.6746222707
 10
-4.1821695022
 20
25.6996655408
 10
-4.2429090681
 20
25.7251181524
 10
-4.2490140954
 20
25.7281081235
  0
LWPOLYLINE
  5
66A
100
AcDbEntity
  8
RACCORDO
100
AcDbPolyline
 62
7
  6
CONTINUOUS
 90
7
 70
0
 10
-3.7725472154
 20
25.6305622555
 10
-3.8910316894
 20
25.6373146374
 10
-4.0039129561
 20
25.6527632616
 10
-4.1024003708
 20
25.6746089982
 10
-4.1821187996
 20
25.699646978
 10
-4.242864664
 20
25.7250967627
 10
-4.2490148746
 20
25.7281085178
  0
LWPOLYLINE
  5
66B
100
AcDbEntity
  8
DRAFT
100
AcDbPolyline
 62
7
  6
CONTINUOUS
 90
4
 70
0
 10
-2.6413252586
 20
26.1106993816
 10
-3.0629636478
 20
26.1463360142
 10
-3.4804358741
 20
26.1457777459
 10
-3.8968911844
 20
26.1126756976
  0
LWPOLYLINE
  5
66C
100
AcDbEntity
  8
ASSI
100
AcDbPolyline
 62
7
  6
CONTINUOUS
 90
4
 70
0
 10
-2.6413252586
 20
26.1106993816
 10
-3.0629636478
 20
26.1463360142
 10
-3.4804358741
 20
26.1457777459
 10
-3.8968911844
 20
26.1126756976
  0
LWPOLYLINE
  5
66D
100
AcDbEntity
  8
0
100
AcDbPolyline
 62
7
  6
CONTINUOUS
 90
5
 70
0
 10
-15.1646253699
 20
28.2730890175
 10
-15.2092971407
 20
28.2789080997
 10
-15.2526631055
 20
28.2807533828
 10
-15.2944238664
 20
28.2785852317
 10
-15.3348788214
 20
28.2724432813
  0
LWPOLYLINE
  5
66E
100
AcDbEntity
  8
ASSI
100
AcDbPolyline
 62
7
  6
CONTINUOUS
 90
5
 70
0
 10
-15.1646253699
 20
28.2730890175
 10
-15.2092971407
 20
28.2789080997
 10
-15.2526631055
 20
28.2807533828
 10
-15.2944238664
 20
28.2785852317
 10
-15.3348788214
 20
28.2724432813
  0
LWPOLYLINE
  5
66F
100
AcDbEntity
  8
RACCORDO
100
AcDbPolyline
 62
250
  6
CONTINUOUS
 90
4
 70
0
 10
-4.0350668145
 20
25.5882083632
 10
-3.9807606538
 20
25.580873176
 10
-3.9239718871
 20
25.5748849463
 10
-3.8648511974
 20
25.57024033
  0
LWPOLYLINE
  5
670
100
AcDbEntity
  8
ASSI
100
AcDbPolyline
 62
250
  6
CONTINUOUS
 90
4
 70
0
 10
-4.0350668145
 20
25.5882083632
 10
-3.9807606538
 20
25.580873176
 10
-3.9239718871
 20
25.5748849463
 10
-3.8648511974
 20
25.57024033
  0
LINE
  5
671
100
AcDbEntity
  8
DRAFT
100
AcDbLine
 62
7
  6
CONTINUOUS
 10
-2.479440433
 20
26.0845850183
 11
-2.6413252586
 21
26.1106993816
  0
LINE
  5
672
100
AcDbEntity
  8
ASSI
100
AcDbLine
 62
7
  6
CONTINUOUS
 10
-2.479440433
 20
26.0845850183
 11
-2.6413252586
 21
26.1106993816
  0
LWPOLYLINE
  5
673
100
AcDbEntity
  8
RACCORDO
100
AcDbPolyline
 62
250
  6
CONTINUOUS
 90
8
 70
0
 10
-14.1467529202
 20
28.728311243
 10
-14.1721095437
 20
28.7356297243
 10
-14.1987653899
 20
28.7395791868
 10
-14.2265265025
 20
28.7401308933
 10
-14.2551908827
 20
28.7372808291
 10
-14.2845499596
 20
28.7310497324
 10
-14.3143901072
 20
28.7214829425
 10
-14.3444941991
 20
28.7086500705
  0
LWPOLYLINE
  5
674
100
AcDbEntity
  8
ASSI
100
AcDbPolyline
 62
250
  6
CONTINUOUS
 90
8
 70
0
 10
-14.1467529202
 20
28.728311243
 10
-14.1721095437
 20
28.7356297243
 10
-14.1987653899
 20
28.7395791868
 10
-14.2265265025
 20
28.7401308933
 10
-14.2551908827
 20
28.7372808291
 10
-14.2845499596
 20
28.7310497324
 10
-14.3143901072
 20
28.7214829425
 10
-14.3444941991
 20
28.7086500705
  0
LWPOLYLINE
  5
675
100
AcDbEntity
  8
ASSI
100
AcDbPolyline
 62
7
  6
CONTINUOUS
 90
6
 70
0
 10
-14.1795761689
 20
28.7424350458
 10
-14.2349896204
 20
28.7590528882
 10
-14.2924290108
 20
28.7692151809
 10
-14.3507541324
 20
28.7726181077
 10
-14.4091818555
 20
28.7691819985
 10
-14.4673061463
 20
28.7588225614
  0
LWPOLYLINE
  5
676
100
AcDbEntity
  8
ASSI
100
AcDbPolyline
 62
250
  6
CONTINUOUS
 90
5
 70
0
 10
-3.0988994885
 20
28.9130729891
 10
-3.1413721551
 20
28.9280775419
 10
-3.1962783699
 20
28.9330199277
 10
-3.2549114344
 20
28.9240688618
 10
-3.3155290846
 20
28.9014903226
  0
LWPOLYLINE
  5
677
100
AcDbEntity
  8
RACCORDO
100
AcDbPolyline
 62
250
  6
CONTINUOUS
 90
5
 70
0
 10
-3.0989030191
 20
28.9130747333
 10
-3.1413721551
 20
28.9280775419
 10
-3.1962783699
 20
28.9330199277
 10
-3.2549114344
 20
28.9240688618
 10
-3.3155290846
 20
28.9014903226
  0
LWPOLYLINE
  5
678
100
AcDbEntity
  8
ASSI
100
AcDbPolyline
 62
250
  6
CONTINUOUS
 90
4
 70
0
 10
-9.9190305693
 20
28.5631187593
 10
-9.9621867769
 20
28.578463153
 10
-10.0170932733
 20
28.583405945
 10
-10.0757268774
 20
28.5744550365
  0
LWPOLYLINE
  5
679
100
AcDbEntity
  8
RACCORDO
100
AcDbPolyline
 62
250
  6
CONTINUOUS
 90
4
 70
0
 10
-9.9190311479
 20
28.5631190481
 10
-9.9621867769
 20
28.578463153
 10
-10.0170932733
 20
28.583405945
 10
-10.0757268774
 20
28.5744550365
  0
LWPOLYLINE
  5
67A
100
AcDbEntity
  8
RACCORDO
100
AcDbPolyline
 62
7
  6
CONTINUOUS
 90
3
 70
0
 10
17.251937955
 20
18.105469847
 10
17.2430897447
 20
18.1092370946
 10
17.2398972733
 20
18.1102876276
  0
LWPOLYLINE
  5
67B
100
AcDbEntity
  8
DRAFT
100
AcDbPolyline
 62
7
  6
CONTINUOUS
 90
11
 70
0
 10
18.3648617938
 20
18.3760260993
 10
18.086517875
 20
18.4951199805
 10
17.79071307
 20
18.5940673823
 10
17.4774473788
 20
18.6728683046
 10
17.1412345742
 20
18.7323407815
 10
16.7875608834
 20
18.7716667789
 10
16.4328849878
 20
18.7883921949
 10
16.0769813702
 20
18.781475005
 10
15.7200755478
 20
18.7519572337
 10
15.3793027533
 20
18.7005108524
 10
15.0603747312
 20
18.6273598515
  0
LWPOLYLINE
  5
67C
100
AcDbEntity
  8
ASSI
100
AcDbPolyline
 62
7
  6
CONTINUOUS
 90
11
 70
0
 10
18.3648617938
 20
18.3760260993
 10
18.086517875
 20
18.4951199805
 10
17.79071307
 20
18.5940673823
 10
17.4774473788
 20
18.6728683046
 10
17.1412345742
 20
18.7323407815
 10
16.7875608834
 20
18.7716667789
 10
16.4328849878
 20
18.7883921949
 10
16.0769813702
 20
18.781475005
 10
15.7200755478
 20
18.7519572337
 10
15.3793027533
 20
18.7005108524
 10
15.0603747312
 20
18.6273598515
  0
LWPOLYLINE
  5
67D
100
AcDbEntity
  8
RACCORDO
100
AcDbPolyline
 62
7
  6
CONTINUOUS
 90
4
 70
0
 10
-0.5757954043
 20
26.9637513771
 10
-0.7389931783
 20
27.0336307711
 10
-1.0633707683
 20
27.1060890906
 10
-1.3755662032
 20
27.1095977594
  0
LWPOLYLINE
  5
67E
100
AcDbEntity
  8
ASSI
100
AcDbPolyline
 62
7
  6
CONTINUOUS
 90
4
 70
0
 10
-0.5757954043
 20
26.9637513771
 10
-0.7389931783
 20
27.0336307711
 10
-1.0633707683
 20
27.1060890906
 10
-1.3755662032
 20
27.1095977594
  0
LINE
  5
67F
100
AcDbEntity
  8
RACCORDO
100
AcDbLine
 62
7
  6
CONTINUOUS
 10
-4.9221531551
 20
32.8444726123
 11
-4.8857131642
 21
32.8279622384
  0
LINE
  5
680
100
AcDbEntity
  8
ASSI
100
AcDbLine
 62
7
  6
CONTINUOUS
 10
-4.9221533621
 20
32.8444726963
 11
-4.8857131598
 21
32.8279622362
  0
LINE
  5
681
100
AcDbEntity
  8
RACCORDO
100
AcDbLine
 62
7
  6
CONTINUOUS
 10
3.463921008
 20
28.6517861006
 11
3.4956251437
 21
28.6372954195
  0
LWPOLYLINE
  5
682
100
AcDbEntity
  8
RACCORDO
100
AcDbPolyline
 62
250
  6
CONTINUOUS
 90
6
 70
0
 10
-0.640718884
 20
26.9337675627
 10
-0.7253121838
 20
26.9734002349
 10
-0.8960281402
 20
27.0342270719
 10
-1.0579044717
 20
27.0740518654
 10
-1.2111069018
 20
27.0948605205
 10
-1.355086453
 20
27.0983036731
  0
LWPOLYLINE
  5
683
100
AcDbEntity
  8
ASSI
100
AcDbPolyline
 62
250
  6
CONTINUOUS
 90
6
 70
0
 10
-0.640718884
 20
26.9337675627
 10
-0.7253121838
 20
26.9734002349
 10
-0.8960281402
 20
27.0342270719
 10
-1.0579044717
 20
27.0740518654
 10
-1.2111069018
 20
27.0948605205
 10
-1.355086453
 20
27.0983036731
  0
LINE
  5
684
100
AcDbEntity
  8
RACCORDO
100
AcDbLine
 62
250
  6
CONTINUOUS
 10
3.4956560571
 20
28.6372799663
 11
3.4956251437
 21
28.6372954195
  0
LINE
  5
685
100
AcDbEntity
  8
ASSI
100
AcDbLine
 62
250
  6
CONTINUOUS
 10
3.4956560571
 20
28.6372799663
 11
3.4956251536
 21
28.6372954145
  0
LINE
  5
686
100
AcDbEntity
  8
ASSI
100
AcDbLine
 62
7
  6
CONTINUOUS
 10
-0.8735275059
 20
26.8262488261
 11
-2.0449009284
 21
27.4119355374
  0
LINE
  5
687
100
AcDbEntity
  8
RACCORDO
100
AcDbLine
 62
250
  6
CONTINUOUS
 10
-3.3155290846
 20
28.9014903226
 11
-2.8812704905
 21
28.6843610255
  0
LINE
  5
688
100
AcDbEntity
  8
ASSI
100
AcDbLine
 62
250
  6
CONTINUOUS
 10
-3.3155290846
 20
28.9014903226
 11
-2.8812704905
 21
28.6843610255
  0
LINE
  5
689
100
AcDbEntity
  8
RACCORDO
100
AcDbLine
 62
7
  6
CONTINUOUS
 10
-3.0989030191
 20
28.9130747333
 11
-2.8333105365
 21
28.7802809335
  0
LINE
  5
68A
100
AcDbEntity
  8
ASSI
100
AcDbLine
 62
7
  6
CONTINUOUS
 10
-3.0988994885
 20
28.9130729891
 11
-2.8333105365
 21
28.7802809335
  0
LINE
  5
68B
100
AcDbEntity
  8
DRAFT
100
AcDbLine
 62
7
  6
CONTINUOUS
 10
10.8056442548
 20
22.843079739
 11
10.5382913666
 21
22.976756183
  0
LINE
  5
68C
100
AcDbEntity
  8
ASSI
100
AcDbLine
 62
7
  6
CONTINUOUS
 10
10.8056442548
 20
22.843079739
 11
10.5382913666
 21
22.976756183
  0
LINE
  5
68D
100
AcDbEntity
  8
DRAFT
100
AcDbLine
 62
7
  6
CONTINUOUS
 10
7.6236637394
 20
24.4340699966
 11
7.3563108513
 21
24.5677464407
  0
LINE
  5
68E
100
AcDbEntity
  8
ASSI
100
AcDbLine
 62
7
  6
CONTINUOUS
 10
7.6236637394
 20
24.4340699966
 11
7.3563108513
 21
24.5677464407
  0
LINE
  5
68F
100
AcDbEntity
  8
DRAFT
100
AcDbLine
 62
7
  6
CONTINUOUS
 10
4.4416832241
 20
26.0250602543
 11
4.1743303359
 21
26.1587366984
  0
LINE
  5
690
100
AcDbEntity
  8
ASSI
100
AcDbLine
 62
7
  6
CONTINUOUS
 10
4.4416832241
 20
26.0250602543
 11
4.1743303359
 21
26.1587366984
  0
LINE
  5
691
100
AcDbEntity
  8
DRAFT
100
AcDbLine
 62
7
  6
CONTINUOUS
 10
11.9765015374
 20
23.3890219475
 11
11.6499140649
 21
23.5523156838
  0
LINE
  5
692
100
AcDbEntity
  8
ASSI
100
AcDbLine
 62
7
  6
CONTINUOUS
 10
11.9765015374
 20
23.3890219475
 11
11.6499140649
 21
23.5523156838
  0
LINE
  5
693
100
AcDbEntity
  8
DRAFT
100
AcDbLine
 62
7
  6
CONTINUOUS
 10
8.7945210221
 20
24.9800122052
 11
8.4679335495
 21
25.1433059415
  0
LINE
  5
694
100
AcDbEntity
  8
ASSI
100
AcDbLine
 62
7
  6
CONTINUOUS
 10
8.7945210221
 20
24.9800122052
 11
8.4679335495
 21
25.1433059415
  0
LINE
  5
695
100
AcDbEntity
  8
DRAFT
100
AcDbLine
 62
7
  6
CONTINUOUS
 10
5.6125405067
 20
26.5710024629
 11
5.2859530342
 21
26.7342961991
  0
LINE
  5
696
100
AcDbEntity
  8
ASSI
100
AcDbLine
 62
7
  6
CONTINUOUS
 10
5.6125405067
 20
26.5710024629
 11
5.2859530342
 21
26.7342961991
  0
LINE
  5
697
100
AcDbEntity
  8
ASSI
100
AcDbLine
 62
7
  6
CONTINUOUS
 10
18.0015763182
 20
20.5929909081
 11
21.4146454678
 21
18.8864563333
  0
LINE
  5
698
100
AcDbEntity
  8
RACCORDO
100
AcDbLine
 62
250
  6
CONTINUOUS
 10
-5.1039408105
 20
32.8171785152
 11
-4.02252817
 21
32.2764721949
  0
LINE
  5
699
100
AcDbEntity
  8
ASSI
100
AcDbLine
 62
250
  6
CONTINUOUS
 10
-5.1039408105
 20
32.8171785152
 11
-4.02252817
 21
32.2764721949
  0
LINE
  5
69A
100
AcDbEntity
  8
RACCORDO
100
AcDbLine
 62
250
  6
CONTINUOUS
 10
3.2782196169
 20
28.6260983015
 11
4.6743299553
 21
27.9280431323
  0
LINE
  5
69B
100
AcDbEntity
  8
ASSI
100
AcDbLine
 62
250
  6
CONTINUOUS
 10
3.2782196169
 20
28.6260983015
 11
4.6743299553
 21
27.9280431323
  0
LINE
  5
69C
100
AcDbEntity
  8
RACCORDO
100
AcDbLine
 62
250
  6
CONTINUOUS
 10
22.6736978901
 20
18.9283591649
 11
22.1127177379
 21
19.2088492409
  0
LINE
  5
69D
100
AcDbEntity
  8
ASSI
100
AcDbLine
 62
250
  6
CONTINUOUS
 10
22.6736978901
 20
18.9283591649
 11
22.1127177379
 21
19.2088492409
  0
LINE
  5
69E
100
AcDbEntity
  8
RACCORDO
100
AcDbLine
 62
250
  6
CONTINUOUS
 10
17.2359282022
 20
21.6472440088
 11
12.8954271243
 21
23.8174945478
  0
LINE
  5
69F
100
AcDbEntity
  8
ASSI
100
AcDbLine
 62
250
  6
CONTINUOUS
 10
17.2359282022
 20
21.6472440088
 11
12.8954271243
 21
23.8174945478
  0
LINE
  5
6A0
100
AcDbEntity
  8
RACCORDO
100
AcDbLine
 62
250
  6
CONTINUOUS
 10
11.038290986
 20
24.7460626169
 11
9.7134466089
 21
25.4084848054
  0
LINE
  5
6A1
100
AcDbEntity
  8
ASSI
100
AcDbLine
 62
250
  6
CONTINUOUS
 10
11.038290986
 20
24.7460626169
 11
9.7134466089
 21
25.4084848054
  0
LINE
  5
6A2
100
AcDbEntity
  8
RACCORDO
100
AcDbLine
 62
250
  6
CONTINUOUS
 10
7.8563104706
 20
26.3370528746
 11
6.5314660936
 21
26.9994750631
  0
LINE
  5
6A3
100
AcDbEntity
  8
ASSI
100
AcDbLine
 62
250
  6
CONTINUOUS
 10
7.8563104706
 20
26.3370528746
 11
6.5314660936
 21
26.9994750631
  0
LINE
  5
6A4
100
AcDbEntity
  8
RACCORDO
100
AcDbLine
 62
7
  6
CONTINUOUS
 10
-4.8865043703
 20
32.82836018
 11
-3.8050917298
 21
32.2876538597
  0
LINE
  5
6A5
100
AcDbEntity
  8
ASSI
100
AcDbLine
 62
7
  6
CONTINUOUS
 10
-4.8865043703
 20
32.82836018
 11
-3.8050917298
 21
32.2876538597
  0
LINE
  5
6A6
100
AcDbEntity
  8
RACCORDO
100
AcDbLine
 62
7
  6
CONTINUOUS
 10
3.4956560571
 20
28.6372799663
 11
4.7222899093
 21
28.0239630402
  0
LINE
  5
6A7
100
AcDbEntity
  8
ASSI
100
AcDbLine
 62
7
  6
CONTINUOUS
 10
3.4956560571
 20
28.6372799663
 11
4.7222899093
 21
28.0239630402
  0
LINE
  5
6A8
100
AcDbEntity
  8
RACCORDO
100
AcDbLine
 62
7
  6
CONTINUOUS
 10
22.8911343304
 20
18.9395408297
 11
22.2581297529
 21
19.2560431184
  0
LINE
  5
6A9
100
AcDbEntity
  8
ASSI
100
AcDbLine
 62
7
  6
CONTINUOUS
 10
22.8911343304
 20
18.9395408297
 11
22.2581297529
 21
19.2560431184
  0
LINE
  5
6AA
100
AcDbEntity
  8
RACCORDO
100
AcDbLine
 62
7
  6
CONTINUOUS
 10
17.2838881562
 20
21.7431639168
 11
13.0953166727
 21
23.8374496585
  0
LINE
  5
6AB
100
AcDbEntity
  8
ASSI
100
AcDbLine
 62
7
  6
CONTINUOUS
 10
17.2838881562
 20
21.7431639168
 11
13.0953166727
 21
23.8374496585
  0
LINE
  5
6AC
100
AcDbEntity
  8
RACCORDO
100
AcDbLine
 62
7
  6
CONTINUOUS
 10
11.0862509399
 20
24.8419825249
 11
9.9133361574
 21
25.4284399162
  0
LINE
  5
6AD
100
AcDbEntity
  8
ASSI
100
AcDbLine
 62
7
  6
CONTINUOUS
 10
11.0862509399
 20
24.8419825249
 11
9.9133361574
 21
25.4284399162
  0
LINE
  5
6AE
100
AcDbEntity
  8
RACCORDO
100
AcDbLine
 62
7
  6
CONTINUOUS
 10
7.9042704246
 20
26.4329727826
 11
6.731355642
 21
27.0194301738
  0
LINE
  5
6AF
100
AcDbEntity
  8
ASSI
100
AcDbLine
 62
7
  6
CONTINUOUS
 10
7.9042704246
 20
26.4329727826
 11
6.731355642
 21
27.0194301738
  0
LWPOLYLINE
  5
6B0
100
AcDbEntity
  8
RACCORDO
100
AcDbPolyline
 62
7
  6
CONTINUOUS
 90
5
 70
0
 10
18.1004660924
 20
17.6812057783
 10
18.1830217162
 20
17.6398964775
 10
18.2674429704
 20
17.5974808136
 10
18.3537298551
 20
17.5539587865
 10
18.4375300129
 20
17.511525758
  0
LWPOLYLINE
  5
6B1
100
AcDbEntity
  8
RACCORDO
100
AcDbPolyline
 62
7
  6
CONTINUOUS
 90
10
 70
0
 10
18.0625220251
 20
17.6938734333
 10
17.9650449715
 20
17.743928865
 10
17.8694317696
 20
17.7929047406
 10
17.7756824197
 20
17.8408010602
 10
17.6838113384
 20
17.887619248
 10
17.593804109
 20
17.9333578797
 10
17.505617481
 20
17.9780126827
 10
17.4192370376
 20
18.0215822329
 10
17.3346771956
 20
18.0640679543
 10
17.251937955
 20
18.105469847
  0
LWPOLYLINE
  5
6B2
100
AcDbEntity
  8
RACCORDO
100
AcDbPolyline
 62
250
  6
CONTINUOUS
 90
12
 70
0
 10
-4.02252817
 20
32.2764721949
 10
-3.9926464455
 20
32.2605132616
 10
-3.9620545675
 20
32.2409827088
 10
-3.9310146064
 20
32.2177382684
 10
-3.8998757384
 20
32.1907250965
 10
-3.8689331897
 20
32.1598651245
 10
-3.8384456299
 20
32.1250227427
 10
-3.8088594282
 20
32.08625252
 10
-3.780663901
 20
32.0436956067
 10
-3.7542910662
 20
31.9974089882
 10
-3.7303383113
 20
31.9477203543
 10
-3.7094302533
 20
31.8950794472
  0
LWPOLYLINE
  5
6B3
100
AcDbEntity
  8
ASSI
100
AcDbPolyline
 62
250
  6
CONTINUOUS
 90
12
 70
0
 10
-4.02252817
 20
32.2764721949
 10
-3.9926464455
 20
32.2605132616
 10
-3.9620545675
 20
32.2409827088
 10
-3.9310146064
 20
32.2177382684
 10
-3.8998757384
 20
32.1907250965
 10
-3.8689331897
 20
32.1598651245
 10
-3.8384456299
 20
32.1250227427
 10
-3.8088594282
 20
32.08625252
 10
-3.780663901
 20
32.0436956067
 10
-3.7542910662
 20
31.9974089882
 10
-3.7303383113
 20
31.9477203543
 10
-3.7094302533
 20
31.8950794472
  0
LWPOLYLINE
  5
6B4
100
AcDbEntity
  8
ASSI
100
AcDbPolyline
 62
7
  6
CONTINUOUS
 90
4
 70
0
 10
-3.0988992912
 20
28.9130734347
 10
-3.1163159347
 20
28.9225054125
 10
-3.1707546714
 20
28.9594863488
 10
-3.233590505
 20
29.0150694518
  0
LWPOLYLINE
  5
6B5
100
AcDbEntity
  8
RACCORDO
100
AcDbPolyline
 62
7
  6
CONTINUOUS
 90
4
 70
0
 10
-3.0989028218
 20
28.9130751789
 10
-3.1164100917
 20
28.9225598056
 10
-3.1708459218
 20
28.9595572194
 10
-3.233661776
 20
29.0151402755
  0
LINE
  5
6B6
100
AcDbEntity
  8
RACCORDO
100
AcDbLine
 62
250
  6
CONTINUOUS
 10
22.7092366535
 20
18.9086535323
 11
22.6736978902
 21
18.9283591648
  0
LINE
  5
6B7
100
AcDbEntity
  8
ASSI
100
AcDbLine
 62
250
  6
CONTINUOUS
 10
22.7092366535
 20
18.9086535323
 11
22.6736978902
 21
18.9283591648
  0
LINE
  5
6B8
100
AcDbEntity
  8
RACCORDO
100
AcDbLine
 62
7
  6
CONTINUOUS
 10
22.9319024947
 20
18.9167158341
 11
22.8907427165
 21
18.9397360657
  0
LINE
  5
6B9
100
AcDbEntity
  8
ASSI
100
AcDbLine
 62
7
  6
CONTINUOUS
 10
22.9319025102
 20
18.9167158245
 11
22.8907427164
 21
18.9397360658
  0
LINE
  5
6BA
100
AcDbEntity
  8
DRAFT
100
AcDbLine
 62
7
  6
CONTINUOUS
 10
18.6021723448
 20
18.2372927456
 11
18.3648617938
 21
18.3760260993
  0
LINE
  5
6BB
100
AcDbEntity
  8
ASSI
100
AcDbLine
 62
7
  6
CONTINUOUS
 10
18.6021723448
 20
18.2372927456
 11
18.3648617938
 21
18.3760260993
  0
LINE
  5
6BC
100
AcDbEntity
  8
RACCORDO
100
AcDbLine
 62
7
  6
CONTINUOUS
 10
-3.8058459901
 20
32.2880288744
 11
-3.7461864218
 21
32.2529766035
  0
LINE
  5
6BD
100
AcDbEntity
  8
ASSI
100
AcDbLine
 62
7
  6
CONTINUOUS
 10
-3.8058459899
 20
32.2880288744
 11
-3.7461864266
 21
32.2529766075
  0
LINE
  5
6BE
100
AcDbEntity
  8
RACCORDO
100
AcDbLine
 62
7
  6
CONTINUOUS
 10
18.0702804538
 20
17.6892869612
 11
18.0625220251
 21
17.6938734333
  0
LINE
  5
6BF
100
AcDbEntity
  8
DRAFT
100
AcDbLine
 62
7
  6
CONTINUOUS
 10
18.797928304
 20
18.0904597653
 11
18.6021723448
 21
18.2372927456
  0
LINE
  5
6C0
100
AcDbEntity
  8
ASSI
100
AcDbLine
 62
7
  6
CONTINUOUS
 10
18.797928304
 20
18.0904597653
 11
18.6021723448
 21
18.2372927456
  0
LWPOLYLINE
  5
6C1
100
AcDbEntity
  8
RACCORDO
100
AcDbPolyline
 62
250
  6
CONTINUOUS
 90
11
 70
0
 10
18.1004660924
 20
17.6812057783
 10
18.1249890828
 20
17.6607013999
 10
18.1493548444
 20
17.6394231355
 10
18.1734915946
 20
17.6173608582
 10
18.1972564795
 20
17.5945725379
 10
18.2206462954
 20
17.5709840746
 10
18.2437696012
 20
17.5463824873
 10
18.2665171747
 20
17.5207557232
 10
18.2887751724
 20
17.4940933343
 10
18.3105848565
 20
17.4661750061
 10
18.3178080756
 20
17.4562341999
  0
LWPOLYLINE
  5
6C2
100
AcDbEntity
  8
RACCORDO
100
AcDbPolyline
 62
250
  6
CONTINUOUS
 90
12
 70
0
 10
18.0068294933
 20
17.6749097699
 10
18.0296899227
 20
17.6553310364
 10
18.052267461
 20
17.6349779899
 10
18.0745621082
 20
17.6138506303
 10
18.0966076065
 20
17.5920207433
 10
18.1183702137
 20
17.5694165433
 10
18.1397487031
 20
17.5458226729
 10
18.1607884061
 20
17.5212409237
 10
18.1814439912
 20
17.4956695041
 10
18.201478237
 20
17.468887682
 10
18.2209486105
 20
17.4408935277
 10
18.2355627018
 20
17.4182505607
  0
LINE
  5
6C3
100
AcDbEntity
  8
0
100
AcDbLine
 62
7
  6
CONTINUOUS
 10
16.7537946316
 20
16.9652133793
 11
16.6953626119
 21
17.0191763292
  0
LINE
  5
6C4
100
AcDbEntity
  8
DRAFT
100
AcDbLine
 62
7
  6
CONTINUOUS
 10
18.9521296713
 20
17.9355271584
 11
18.797928304
 21
18.0904597653
  0
LINE
  5
6C5
100
AcDbEntity
  8
ASSI
100
AcDbLine
 62
7
  6
CONTINUOUS
 10
18.9521296713
 20
17.9355271584
 11
18.797928304
 21
18.0904597653
  0
LINE
  5
6C6
100
AcDbEntity
  8
DRAFT
100
AcDbLine
 62
7
  6
CONTINUOUS
 10
19.0495327551
 20
17.7941689054
 11
18.9521296713
 21
17.9355271584
  0
LINE
  5
6C7
100
AcDbEntity
  8
ASSI
100
AcDbLine
 62
7
  6
CONTINUOUS
 10
19.0495327551
 20
17.7941689054
 11
18.9521296713
 21
17.9355271584
  0
LWPOLYLINE
  5
6C8
100
AcDbEntity
  8
DRAFT
100
AcDbPolyline
 62
7
  6
CONTINUOUS
 90
6
 70
0
 10
19.0785486241
 20
18.1168305494
 10
18.9417719327
 20
18.3195505766
 10
18.751315846
 20
18.5054559107
 10
18.5034618541
 20
18.6730372975
 10
18.2019284669
 20
18.8238039911
 10
17.8667656934
 20
18.947730987
  0
LWPOLYLINE
  5
6C9
100
AcDbEntity
  8
ASSI
100
AcDbPolyline
 62
7
  6
CONTINUOUS
 90
6
 70
0
 10
19.0785486241
 20
18.1168305494
 10
18.9417719327
 20
18.3195505766
 10
18.751315846
 20
18.5054559107
 10
18.5034618541
 20
18.6730372975
 10
18.2019284669
 20
18.8238039911
 10
17.8667656934
 20
18.947730987
  0
LINE
  5
6CA
100
AcDbEntity
  8
RACCORDO
100
AcDbLine
 62
7
  6
CONTINUOUS
 10
17.9245777508
 20
21.2173555157
 11
18.0015763182
 21
21.0845238946
  0
LINE
  5
6CB
100
AcDbEntity
  8
ASSI
100
AcDbLine
 62
7
  6
CONTINUOUS
 10
17.9245777508
 20
21.2173555157
 11
18.0015763182
 21
21.0845238946
  0
LINE
  5
6CC
100
AcDbEntity
  8
RACCORDO
100
AcDbLine
 62
250
  6
CONTINUOUS
 10
24.2567082861
 20
15.9697456751
 11
24.1946084525
 21
16.1760832958
  0
LINE
  5
6CD
100
AcDbEntity
  8
ASSI
100
AcDbLine
 62
250
  6
CONTINUOUS
 10
24.2567082861
 20
15.9697456751
 11
24.1946084525
 21
16.1760832958
  0
LWPOLYLINE
  5
6CE
100
AcDbEntity
  8
RACCORDO
100
AcDbPolyline
 62
250
  6
CONTINUOUS
 90
9
 70
0
 10
24.8047907909
 20
2.1353070058
 10
24.7211068921
 20
2.4184669644
 10
24.6184028857
 20
2.6937266912
 10
24.5012608144
 20
2.9537335004
 10
24.3740388642
 20
3.1944645436
 10
24.2389368555
 20
3.4165176881
 10
24.0977244315
 20
3.6204431377
 10
23.9526812769
 20
3.8057469689
 10
23.9423999216
 20
3.8174117439
  0
LWPOLYLINE
  5
6CF
100
AcDbEntity
  8
ASSI
100
AcDbPolyline
 62
250
  6
CONTINUOUS
 90
9
 70
0
 10
24.8047907909
 20
2.1353070058
 10
24.7211068921
 20
2.4184669644
 10
24.6184028857
 20
2.6937266912
 10
24.5012608144
 20
2.9537335004
 10
24.3740388642
 20
3.1944645436
 10
24.2389368555
 20
3.4165176881
 10
24.0977244315
 20
3.6204431377
 10
23.9526812769
 20
3.8057469689
 10
23.9423999216
 20
3.8174117439
  0
LINE
  5
6D0
100
AcDbEntity
  8
RACCORDO
100
AcDbLine
 62
7
  6
CONTINUOUS
 10
24.4462890039
 20
15.9101719541
 11
24.383926866
 21
16.1757220079
  0
LINE
  5
6D1
100
AcDbEntity
  8
ASSI
100
AcDbLine
 62
7
  6
CONTINUOUS
 10
24.4462888053
 20
15.9101735564
 11
24.383926866
 21
16.1757220079
  0
LINE
  5
6D2
100
AcDbEntity
  8
RACCORDO
100
AcDbLine
 62
250
  6
CONTINUOUS
 10
24.3038248455
 20
15.7572737856
 11
24.2567082861
 21
15.9697456751
  0
LINE
  5
6D3
100
AcDbEntity
  8
ASSI
100
AcDbLine
 62
250
  6
CONTINUOUS
 10
24.3038248455
 20
15.7572737856
 11
24.2567082861
 21
15.9697456751
  0
LWPOLYLINE
  5
6D4
100
AcDbEntity
  8
RACCORDO
100
AcDbPolyline
 62
7
  6
CONTINUOUS
 90
7
 70
0
 10
24.9753245374
 20
1.7927437386
 10
24.8941936136
 20
2.2116579593
 10
24.7628426239
 20
2.6297816696
 10
24.5853175107
 20
3.0367818808
 10
24.366413472
 20
3.4225369922
 10
24.1115314427
 20
3.7774184688
 10
23.9423999216
 20
3.9642253787
  0
LWPOLYLINE
  5
6D5
100
AcDbEntity
  8
ASSI
100
AcDbPolyline
 62
7
  6
CONTINUOUS
 90
7
 70
0
 10
24.9753245374
 20
1.7927437386
 10
24.8941936136
 20
2.2116579593
 10
24.7628426239
 20
2.6297816696
 10
24.5853175107
 20
3.0367818808
 10
24.366413472
 20
3.4225369922
 10
24.1115314427
 20
3.7774184688
 10
23.9423999216
 20
3.9642253787
  0
LINE
  5
6D6
100
AcDbEntity
  8
RACCORDO
100
AcDbLine
 62
7
  6
CONTINUOUS
 10
24.9753245662
 20
15.5625474401
 11
24.8941936656
 21
15.9814616751
  0
LINE
  5
6D7
100
AcDbEntity
  8
ASSI
100
AcDbLine
 62
7
  6
CONTINUOUS
 10
24.9753245662
 20
15.5625474401
 11
24.8941936656
 21
15.9814616751
  0
LINE
  5
6D8
100
AcDbEntity
  8
RACCORDO
100
AcDbLine
 62
7
  6
CONTINUOUS
 10
24.465795053
 20
-2.6769572578
 11
24.4818940478
 21
-2.7639904118
  0
LINE
  5
6D9
100
AcDbEntity
  8
ASSI
100
AcDbLine
 62
7
  6
CONTINUOUS
 10
24.4657950507
 20
-2.6769572496
 11
24.4818940473
 21
-2.7639904062
  0
LINE
  5
6DA
100
AcDbEntity
  8
RACCORDO
100
AcDbLine
 62
250
  6
CONTINUOUS
 10
24.8374397276
 20
15.7676664049
 11
24.8983275214
 21
15.4019078625
  0
LINE
  5
6DB
100
AcDbEntity
  8
ASSI
100
AcDbLine
 62
250
  6
CONTINUOUS
 10
24.8374397276
 20
15.7676664049
 11
24.8983275214
 21
15.4019078625
  0
LWPOLYLINE
  5
6DC
100
AcDbEntity
  8
RACCORDO
100
AcDbPolyline
 62
250
  6
CONTINUOUS
 90
3
 70
0
 10
24.9054689206
 20
1.5625251193
 10
24.8668148997
 20
1.8492092519
 10
24.8047907909
 20
2.1353070058
  0
LWPOLYLINE
  5
6DD
100
AcDbEntity
  8
ASSI
100
AcDbPolyline
 62
250
  6
CONTINUOUS
 90
3
 70
0
 10
24.9054689206
 20
1.5625251193
 10
24.8668148997
 20
1.8492092519
 10
24.8047907909
 20
2.1353070058
  0
LINE
  5
6DE
100
AcDbEntity
  8
RACCORDO
100
AcDbLine
 62
7
  6
CONTINUOUS
 10
24.4786989726
 20
15.6486426736
 11
24.4462890039
 21
15.9101719541
  0
LINE
  5
6DF
100
AcDbEntity
  8
ASSI
100
AcDbLine
 62
7
  6
CONTINUOUS
 10
24.4786988998
 20
15.6486448559
 11
24.4462888053
 21
15.9101735564
  0
LINE
  5
6E0
100
AcDbEntity
  8
0
100
AcDbLine
 62
7
  6
CONTINUOUS
 10
-15.3348788214
 20
28.2724432813
 11
-15.3740279705
 21
28.2623275318
  0
LINE
  5
6E1
100
AcDbEntity
  8
ASSI
100
AcDbLine
 62
7
  6
CONTINUOUS
 10
-15.3348788214
 20
28.2724432813
 11
-15.3740279705
 21
28.2623275318
  0
LWPOLYLINE
  5
6E2
100
AcDbEntity
  8
0
100
AcDbPolyline
 62
7
  6
CONTINUOUS
 90
6
 70
0
 10
-18.2168911285
 20
26.9161722588
 10
-18.177778874
 20
26.9262301563
 10
-18.1373647879
 20
26.9323247009
 10
-18.09564887
 20
26.9344558925
 10
-18.0523322766
 20
26.9325840766
 10
-18.0077138515
 20
26.9267489077
  0
LWPOLYLINE
  5
6E3
100
AcDbEntity
  8
ASSI
100
AcDbPolyline
 62
7
  6
CONTINUOUS
 90
6
 70
0
 10
-18.2168911285
 20
26.9161722588
 10
-18.177778874
 20
26.9262301563
 10
-18.1373647879
 20
26.9323247009
 10
-18.09564887
 20
26.9344558925
 10
-18.0523322766
 20
26.9325840766
 10
-18.0077138515
 20
26.9267489077
  0
LWPOLYLINE
  5
6E4
100
AcDbEntity
  8
RACCORDO
100
AcDbPolyline
 62
250
  6
CONTINUOUS
 90
4
 70
0
 10
-14.5066523534
 20
28.7416178012
 10
-14.5312081171
 20
28.7367378515
 10
-14.5546123014
 20
28.7289334773
 10
-14.5650427736
 20
28.7243268557
  0
LWPOLYLINE
  5
6E5
100
AcDbEntity
  8
ASSI
100
AcDbPolyline
 62
250
  6
CONTINUOUS
 90
4
 70
0
 10
-14.5066523534
 20
28.7416178012
 10
-14.5312081171
 20
28.7367378515
 10
-14.5546123014
 20
28.7289334773
 10
-14.5650427776
 20
28.7243268538
  0
LINE
  5
6E6
100
AcDbEntity
  8
RACCORDO
100
AcDbLine
 62
7
  6
CONTINUOUS
 10
3.2179602301
 20
28.6871262684
 11
3.3003199868
 21
28.6892663182
  0
LINE
  5
6E7
100
AcDbEntity
  8
ASSI
100
AcDbLine
 62
7
  6
CONTINUOUS
 10
3.2179602301
 20
28.6871262684
 11
3.3003199868
 21
28.6892663182
  0
LINE
  5
6E8
100
AcDbEntity
  8
RACCORDO
100
AcDbLine
 62
7
  6
CONTINUOUS
 10
3.3003199868
 20
28.6892663182
 11
3.3835951989
 21
28.6774634974
  0
LINE
  5
6E9
100
AcDbEntity
  8
ASSI
100
AcDbLine
 62
7
  6
CONTINUOUS
 10
3.3003199868
 20
28.6892663182
 11
3.3835951989
 21
28.6774634974
  0
LINE
  5
6EA
100
AcDbEntity
  8
RACCORDO
100
AcDbLine
 62
7
  6
CONTINUOUS
 10
3.3835951989
 20
28.6774634974
 11
3.463921008
 21
28.6517861006
  0
LWPOLYLINE
  5
6EB
100
AcDbEntity
  8
ASSI
100
AcDbPolyline
 62
7
  6
CONTINUOUS
 90
3
 70
0
 10
3.3835951989
 20
28.6774634974
 10
3.463918356
 20
28.6517872026
 10
3.4956251536
 20
28.6372954145
  0
LWPOLYLINE
  5
6EC
100
AcDbEntity
  8
RACCORDO
100
AcDbPolyline
 62
250
  6
CONTINUOUS
 90
5
 70
0
 10
-3.80584599
 20
32.2880288744
 10
-3.8520041427
 20
32.3038456409
 10
-3.9065550969
 20
32.3078633959
 10
-3.9639701255
 20
32.2984984294
 10
-4.0225281704
 20
32.2764721951
  0
LWPOLYLINE
  5
6ED
100
AcDbEntity
  8
ASSI
100
AcDbPolyline
 62
250
  6
CONTINUOUS
 90
5
 70
0
 10
-3.8058459899
 20
32.2880288743
 10
-3.8520041427
 20
32.3038456409
 10
-3.9065550969
 20
32.3078633959
 10
-3.9639701255
 20
32.2984984294
 10
-4.0225281704
 20
32.2764721951
  0
LWPOLYLINE
  5
6EE
100
AcDbEntity
  8
RACCORDO
100
AcDbPolyline
 62
250
  6
CONTINUOUS
 90
5
 70
0
 10
3.4956251437
 20
28.6372954195
 10
3.4487438546
 20
28.6534717039
 10
3.3941929013
 20
28.6574895128
 10
3.3367778033
 20
28.6481245743
 10
3.2782196169
 20
28.6260983015
  0
LWPOLYLINE
  5
6EF
100
AcDbEntity
  8
ASSI
100
AcDbPolyline
 62
250
  6
CONTINUOUS
 90
5
 70
0
 10
3.4956251536
 20
28.6372954145
 10
3.4487438546
 20
28.6534717039
 10
3.3941929013
 20
28.6574895128
 10
3.3367778033
 20
28.6481245743
 10
3.2782196169
 20
28.6260983015
  0
LWPOLYLINE
  5
6F0
100
AcDbEntity
  8
RACCORDO
100
AcDbPolyline
 62
250
  6
CONTINUOUS
 90
5
 70
0
 10
-4.8865043703
 20
32.82836018
 10
-4.9306206683
 20
32.843953144
 10
-4.9854472804
 20
32.8486801728
 10
-5.0437999699
 20
32.8396305714
 10
-5.1039408105
 20
32.8171785152
  0
LWPOLYLINE
  5
6F1
100
AcDbEntity
  8
ASSI
100
AcDbPolyline
 62
250
  6
CONTINUOUS
 90
5
 70
0
 10
-4.8865043703
 20
32.82836018
 10
-4.9306206683
 20
32.843953144
 10
-4.9854472804
 20
32.8486801728
 10
-5.0437999699
 20
32.8396305714
 10
-5.1039408105
 20
32.8171785152
  0
LINE
  5
6F2
100
AcDbEntity
  8
RACCORDO
100
AcDbLine
 62
7
  6
CONTINUOUS
 10
23.5146043675
 20
18.1311450577
 11
23.394150507
 21
18.2087704854
  0
LINE
  5
6F3
100
AcDbEntity
  8
ASSI
100
AcDbLine
 62
7
  6
CONTINUOUS
 10
23.5146043675
 20
18.1311450577
 11
23.394150507
 21
18.2087704854
  0
LINE
  5
6F4
100
AcDbEntity
  8
RACCORDO
100
AcDbLine
 62
250
  6
CONTINUOUS
 10
22.7434909187
 20
18.8854294446
 11
22.7092366535
 21
18.9086535323
  0
LINE
  5
6F5
100
AcDbEntity
  8
ASSI
100
AcDbLine
 62
250
  6
CONTINUOUS
 10
22.7434909187
 20
18.8854294446
 11
22.7092366535
 21
18.9086535323
  0
LINE
  5
6F6
100
AcDbEntity
  8
ASSI
100
AcDbLine
 62
7
  6
CONTINUOUS
 10
22.9721606257
 20
18.8888101198
 11
22.9319025102
 21
18.9167158245
  0
LWPOLYLINE
  5
6F7
100
AcDbEntity
  8
RACCORDO
100
AcDbPolyline
 62
7
  6
CONTINUOUS
 90
3
 70
0
 10
23.0093273719
 20
18.8572557972
 10
22.9721606041
 20
18.8888101364
 10
22.9319024947
 20
18.9167158341
  0
LINE
  5
6F8
100
AcDbEntity
  8
ASSI
100
AcDbLine
 62
7
  6
CONTINUOUS
 10
23.0093273856
 20
18.8572557831
 11
22.9721606257
 21
18.8888101198
  0
LWPOLYLINE
  5
6F9
100
AcDbEntity
  8
RACCORDO
100
AcDbPolyline
 62
250
  6
CONTINUOUS
 90
4
 70
0
 10
23.4834403053
 20
18.0456059632
 10
23.7470961465
 20
17.8035022865
 10
23.9972923518
 20
17.52091014
 10
24.2261776263
 20
17.2058387738
  0
LWPOLYLINE
  5
6FA
100
AcDbEntity
  8
ASSI
100
AcDbPolyline
 62
250
  6
CONTINUOUS
 90
4
 70
0
 10
23.4834403053
 20
18.0456059632
 10
23.7470961465
 20
17.8035022865
 10
23.9972923518
 20
17.52091014
 10
24.2261776263
 20
17.2058387738
  0
LINE
  5
6FB
100
AcDbEntity
  8
RACCORDO
100
AcDbLine
 62
7
  6
CONTINUOUS
 10
23.0430949745
 20
18.8224015983
 11
23.0093273856
 21
18.8572557831
  0
LINE
  5
6FC
100
AcDbEntity
  8
ASSI
100
AcDbLine
 62
7
  6
CONTINUOUS
 10
23.0430949745
 20
18.8224015983
 11
23.0093273856
 21
18.8572557831
  0
LINE
  5
6FD
100
AcDbEntity
  8
RACCORDO
100
AcDbLine
 62
7
  6
CONTINUOUS
 10
23.0732644936
 20
18.7845215482
 11
23.0430949745
 21
18.8224015983
  0
LINE
  5
6FE
100
AcDbEntity
  8
ASSI
100
AcDbLine
 62
7
  6
CONTINUOUS
 10
23.0732644936
 20
18.7845215482
 11
23.0430949745
 21
18.8224015983
  0
LWPOLYLINE
  5
6FF
100
AcDbEntity
  8
RACCORDO
100
AcDbPolyline
 62
7
  6
CONTINUOUS
 90
8
 70
0
 10
20.5858564718
 20
19.3008508313
 10
20.5732152359
 20
19.3184347391
 10
20.2850509961
 20
19.6357862992
 10
19.9709373726
 20
19.9049922335
 10
19.640186439
 20
20.1155281033
 10
19.3074841776
 20
20.2579873764
 10
18.9831065727
 20
20.3304457203
 10
18.6709111207
 20
20.3339544082
  0
LWPOLYLINE
  5
700
100
AcDbEntity
  8
ASSI
100
AcDbPolyline
 62
7
  6
CONTINUOUS
 90
8
 70
0
 10
20.5858564718
 20
19.3008508313
 10
20.5732152359
 20
19.3184347391
 10
20.2850509961
 20
19.6357862992
 10
19.9709373726
 20
19.9049922335
 10
19.640186439
 20
20.1155281033
 10
19.3074841776
 20
20.2579873764
 10
18.9831065727
 20
20.3304457203
 10
18.6709111207
 20
20.3339544082
  0
LWPOLYLINE
  5
701
100
AcDbEntity
  8
RACCORDO
100
AcDbPolyline
 62
7
  6
CONTINUOUS
 90
4
 70
0
 10
24.3664135595
 20
17.1923407755
 10
24.1115315317
 20
17.5472222785
 10
23.824955073
 20
17.8637479399
 10
23.5146043675
 20
18.1311450577
  0
LWPOLYLINE
  5
702
100
AcDbEntity
  8
ASSI
100
AcDbPolyline
 62
7
  6
CONTINUOUS
 90
4
 70
0
 10
24.3664135595
 20
17.1923407755
 10
24.1115315317
 20
17.5472222785
 10
23.824955073
 20
17.8637479399
 10
23.5146043675
 20
18.1311450577
  0
LINE
  5
703
100
AcDbEntity
  8
RACCORDO
100
AcDbLine
 62
250
  6
CONTINUOUS
 10
24.2261776263
 20
17.2058387738
 11
24.4283126984
 21
16.8659153072
  0
LINE
  5
704
100
AcDbEntity
  8
ASSI
100
AcDbLine
 62
250
  6
CONTINUOUS
 10
24.2261776263
 20
17.2058387738
 11
24.4283126984
 21
16.8659153072
  0
LWPOLYLINE
  5
705
100
AcDbEntity
  8
RACCORDO
100
AcDbPolyline
 62
250
  6
CONTINUOUS
 90
8
 70
0
 10
22.9298752233
 20
18.6656568671
 10
22.9097598937
 20
18.7000440655
 10
22.8873931382
 20
18.7341080771
 10
22.8627848298
 20
18.767477707
 10
22.8359805624
 20
18.7997474642
 10
22.8070673059
 20
18.8304784122
 10
22.7761775831
 20
18.8592024153
 10
22.7434909187
 20
18.8854294446
  0
LWPOLYLINE
  5
706
100
AcDbEntity
  8
ASSI
100
AcDbPolyline
 62
250
  6
CONTINUOUS
 90
8
 70
0
 10
22.9298752233
 20
18.6656568671
 10
22.9097598937
 20
18.7000440655
 10
22.8873931382
 20
18.7341080771
 10
22.8627848298
 20
18.767477707
 10
22.8359805624
 20
18.7997474642
 10
22.8070673059
 20
18.8304784122
 10
22.7761775831
 20
18.8592024153
 10
22.7434909187
 20
18.8854294446
  0
LWPOLYLINE
  5
707
100
AcDbEntity
  8
RACCORDO
100
AcDbPolyline
 62
7
  6
CONTINUOUS
 90
3
 70
0
 10
23.1039295576
 20
18.7363621825
 10
23.0995787186
 20
18.7439849406
 10
23.0732644936
 20
18.7845215482
  0
LWPOLYLINE
  5
708
100
AcDbEntity
  8
ASSI
100
AcDbPolyline
 62
7
  6
CONTINUOUS
 90
3
 70
0
 10
23.1039295576
 20
18.7363621825
 10
23.0995787411
 20
18.743984902
 10
23.0732645104
 20
18.7845215272
  0
LINE
  5
709
100
AcDbEntity
  8
RACCORDO
100
AcDbLine
 62
7
  6
CONTINUOUS
 10
24.5853175918
 20
16.8065856388
 11
24.3664135595
 21
17.1923407755
  0
LINE
  5
70A
100
AcDbEntity
  8
ASSI
100
AcDbLine
 62
7
  6
CONTINUOUS
 10
24.5853175918
 20
16.8065856388
 11
24.3664135595
 21
17.1923407755
  0
LINE
  5
70B
100
AcDbEntity
  8
RACCORDO
100
AcDbLine
 62
7
  6
CONTINUOUS
 10
23.1039161777
 20
18.7363865516
 11
23.2310999025
 21
18.5073987274
  0
LINE
  5
70C
100
AcDbEntity
  8
ASSI
100
AcDbLine
 62
7
  6
CONTINUOUS
 10
23.1039161777
 20
18.7363865516
 11
23.2310999025
 21
18.5073987274
  0
LINE
  5
70D
100
AcDbEntity
  8
RACCORDO
100
AcDbLine
 62
250
  6
CONTINUOUS
 10
23.1214541783
 20
18.3195321404
 11
22.9298752231
 21
18.6656568675
  0
LINE
  5
70E
100
AcDbEntity
  8
ASSI
100
AcDbLine
 62
250
  6
CONTINUOUS
 10
23.1214541783
 20
18.3195321404
 11
22.9298752231
 21
18.6656568675
  0
LWPOLYLINE
  5
70F
100
AcDbEntity
  8
RACCORDO
100
AcDbPolyline
 62
7
  6
CONTINUOUS
 90
3
 70
0
 10
23.2310999025
 20
18.5073987274
 10
23.3569832818
 20
18.2775805802
 10
23.4815550715
 20
18.0469527456
  0
LWPOLYLINE
  5
710
100
AcDbEntity
  8
ASSI
100
AcDbPolyline
 62
7
  6
CONTINUOUS
 90
3
 70
0
 10
23.2310999025
 20
18.5073987274
 10
23.3569832818
 20
18.2775805802
 10
23.4815550715
 20
18.0469527456
  0
LWPOLYLINE
  5
711
100
AcDbEntity
  8
RACCORDO
100
AcDbPolyline
 62
7
  6
CONTINUOUS
 90
5
 70
0
 10
23.4815550715
 20
18.0469527456
 10
23.6048040735
 20
17.815536055
 10
23.726719339
 20
17.5833511542
 10
23.8472901612
 20
17.3504184994
 10
23.9665058103
 20
17.1167588617
  0
LWPOLYLINE
  5
712
100
AcDbEntity
  8
ASSI
100
AcDbPolyline
 62
7
  6
CONTINUOUS
 90
5
 70
0
 10
23.4815550715
 20
18.0469527456
 10
23.6048040735
 20
17.815536055
 10
23.726719339
 20
17.5833511542
 10
23.8472901612
 20
17.3504184994
 10
23.9665058103
 20
17.1167588617
  0
LWPOLYLINE
  5
713
100
AcDbEntity
  8
RACCORDO
100
AcDbPolyline
 62
250
  6
CONTINUOUS
 90
4
 70
0
 10
23.6785852892
 20
17.2697312467
 10
23.4958500243
 20
17.6214987117
 10
23.310126143
 20
17.9714559617
 10
23.1214541783
 20
18.3195321404
  0
LWPOLYLINE
  5
714
100
AcDbEntity
  8
ASSI
100
AcDbPolyline
 62
250
  6
CONTINUOUS
 90
4
 70
0
 10
23.6785852892
 20
17.2697312467
 10
23.4958500243
 20
17.6214987117
 10
23.310126143
 20
17.9714559617
 10
23.1214541783
 20
18.3195321404
  0
LINE
  5
715
100
AcDbEntity
  8
RACCORDO
100
AcDbLine
 62
250
  6
CONTINUOUS
 10
23.8582919731
 20
16.9162248857
 11
23.6785852892
 21
17.2697312467
  0
LINE
  5
716
100
AcDbEntity
  8
ASSI
100
AcDbLine
 62
250
  6
CONTINUOUS
 10
23.8582919731
 20
16.9162248857
 11
23.6785852892
 21
17.2697312467
  0
LWPOLYLINE
  5
717
100
AcDbEntity
  8
RACCORDO
100
AcDbPolyline
 62
7
  6
CONTINUOUS
 90
3
 70
0
 10
23.9665058103
 20
17.1167588617
 10
24.0843555426
 20
16.8823933287
 10
24.2008287919
 20
16.647342933
  0
LWPOLYLINE
  5
718
100
AcDbEntity
  8
ASSI
100
AcDbPolyline
 62
7
  6
CONTINUOUS
 90
3
 70
0
 10
23.9665058103
 20
17.1167588617
 10
24.0843555426
 20
16.8823933287
 10
24.2008287919
 20
16.647342933
  0
LINE
  5
719
100
AcDbEntity
  8
RACCORDO
100
AcDbLine
 62
250
  6
CONTINUOUS
 10
24.03493069
 20
16.5610513964
 11
23.8582919731
 21
16.9162248857
  0
LINE
  5
71A
100
AcDbEntity
  8
ASSI
100
AcDbLine
 62
250
  6
CONTINUOUS
 10
24.03493069
 20
16.5610513964
 11
23.8582919731
 21
16.9162248857
  0
LWPOLYLINE
  5
71B
100
AcDbEntity
  8
RACCORDO
100
AcDbPolyline
 62
250
  6
CONTINUOUS
 90
3
 70
0
 10
24.4283126984
 20
16.8659153072
 10
24.5999767781
 20
16.5075570679
 10
24.7373190608
 20
16.1388035321
  0
LWPOLYLINE
  5
71C
100
AcDbEntity
  8
ASSI
100
AcDbPolyline
 62
250
  6
CONTINUOUS
 90
3
 70
0
 10
24.4283126984
 20
16.8659153072
 10
24.5999767781
 20
16.5075570679
 10
24.7373190608
 20
16.1388035321
  0
LINE
  5
71D
100
AcDbEntity
  8
RACCORDO
100
AcDbLine
 62
7
  6
CONTINUOUS
 10
24.2953224324
 20
16.4343813036
 11
24.2007814447
 21
16.6473255554
  0
LINE
  5
71E
100
AcDbEntity
  8
ASSI
100
AcDbLine
 62
7
  6
CONTINUOUS
 10
24.2953224324
 20
16.4343813036
 11
24.2007814447
 21
16.6473255553
  0
LWPOLYLINE
  5
71F
100
AcDbEntity
  8
RACCORDO
100
AcDbPolyline
 62
250
  6
CONTINUOUS
 90
3
 70
0
 10
24.1946084525
 20
16.1760832958
 10
24.1199036266
 20
16.373835333
 10
24.0349329512
 20
16.5610525549
  0
LWPOLYLINE
  5
720
100
AcDbEntity
  8
ASSI
100
AcDbPolyline
 62
250
  6
CONTINUOUS
 90
3
 70
0
 10
24.1946084525
 20
16.1760832958
 10
24.1199036266
 20
16.373835333
 10
24.0349329512
 20
16.5610525549
  0
LINE
  5
721
100
AcDbEntity
  8
RACCORDO
100
AcDbLine
 62
7
  6
CONTINUOUS
 10
24.383926866
 20
16.1757220079
 11
24.2953224324
 21
16.4343813036
  0
LINE
  5
722
100
AcDbEntity
  8
ASSI
100
AcDbLine
 62
7
  6
CONTINUOUS
 10
24.383926866
 20
16.1757220079
 11
24.2953224324
 21
16.4343813036
  0
LWPOLYLINE
  5
723
100
AcDbEntity
  8
RACCORDO
100
AcDbPolyline
 62
7
  6
CONTINUOUS
 90
3
 70
0
 10
24.8941936656
 20
15.9814616751
 10
24.7628426932
 20
16.3995854047
 10
24.5853175918
 20
16.8065856388
  0
LWPOLYLINE
  5
724
100
AcDbEntity
  8
ASSI
100
AcDbPolyline
 62
7
  6
CONTINUOUS
 90
3
 70
0
 10
24.8941936656
 20
15.9814616751
 10
24.7628426932
 20
16.3995854047
 10
24.5853175918
 20
16.8065856388
  0
LINE
  5
725
100
AcDbEntity
  8
RACCORDO
100
AcDbLine
 62
250
  6
CONTINUOUS
 10
24.7373190608
 20
16.1388035321
 11
24.8374397276
 21
15.7676664049
  0
LINE
  5
726
100
AcDbEntity
  8
ASSI
100
AcDbLine
 62
250
  6
CONTINUOUS
 10
24.7373190608
 20
16.1388035321
 11
24.8374397276
 21
15.7676664049
  0
LWPOLYLINE
  5
727
100
AcDbEntity
  8
RACCORDO
100
AcDbPolyline
 62
7
  6
CONTINUOUS
 90
7
 70
0
 10
-5.2697711338
 20
32.8549691452
 10
-5.2134492804
 20
32.8703506925
 10
-5.1552301387
 20
32.8791067018
 10
-5.0962923062
 20
32.8809555631
 10
-5.0374464791
 20
32.8758381812
 10
-4.9791155836
 20
32.8636817198
 10
-4.9221531551
 20
32.8444726123
  0
ELLIPSE
  5
728
100
AcDbEntity
  8
RACCORDO
100
AcDbEllipse
 62
7
  6
CONTINUOUS
 10
-23.8014803053
 20
26.0293036911
 30
0.0
 11
-0.2926834212
 21
0.7447931529
 31
0.0
 40
0.6534307502
 41
-0.6280814894
 42
0.0210469074
  0
ELLIPSE
  5
729
100
AcDbEntity
  8
RACCORDO
100
AcDbEllipse
 62
7
  6
CONTINUOUS
 10
6.3918069119
 20
10.9326600825
 30
0.0
 11
-0.2924385099
 21
0.7446403765
 31
0.0
 40
0.6538093804
 41
-2.1986429961
 42
-0.6281512558
  0
ELLIPSE
  5
72A
100
AcDbEntity
  8
RACCORDO
100
AcDbEllipse
 62
7
  6
CONTINUOUS
 10
3.7972655885
 20
-26.6853297598
 30
0.0
 11
-0.2926834212
 21
0.7447931529
 31
0.0
 40
0.6534307502
 41
-3.1626395637
 42
-2.1991824026
  0
ELLIPSE
  5
72B
100
AcDbEntity
  8
0
100
AcDbEllipse
 62
7
  6
CONTINUOUS
 10
8.2129689013
 20
-25.4714020747
 30
0.0
 11
-0.2234618187
 21
0.4480306886
 31
0.0
 40
0.6116748051
 41
-3.1815309152
 42
-2.2548620396
  0
ELLIPSE
  5
72C
100
AcDbEntity
  8
0
100
AcDbEllipse
 62
7
  6
CONTINUOUS
 10
8.2129689013
 20
12.4593221245
 30
0.0
 11
-0.2230998035
 21
0.4477110033
 31
0.0
 40
0.6127700112
 41
-2.2535417632
 42
-0.6836588249
  0
ELLIPSE
  5
72D
100
AcDbEntity
  8
0
100
AcDbEllipse
 62
7
  6
CONTINUOUS
 10
6.9947166061
 20
11.794242388
 30
0.0
 11
2.0843106542
 21
0.660289632
 31
0.0
 40
0.1270056767
 41
-1.5481901532
 42
-1.4415850128
  0
ELLIPSE
  5
72E
100
AcDbEntity
  8
0
100
AcDbEllipse
 62
7
  6
CONTINUOUS
 10
-22.7582004025
 20
27.9449067764
 30
0.0
 11
-0.2234618187
 21
0.4480306886
 31
0.0
 40
0.6116748051
 41
-0.6831523243
 42
0.0399382621
  0
ELLIPSE
  5
72F
100
AcDbEntity
  8
0
100
AcDbEllipse
 62
7
  6
CONTINUOUS
 10
-24.1477287753
 20
27.134684464
 30
0.0
 11
-0.2234618187
 21
0.4480306886
 31
0.0
 40
0.6116748051
 41
-0.6831523243
 42
0.7801254736
  0
ELLIPSE
  5
730
100
AcDbEntity
  8
0
100
AcDbEllipse
 62
7
  6
CONTINUOUS
 10
6.7740701493
 20
-26.0753933247
 30
0.0
 11
-0.2234618187
 21
0.4480306886
 31
0.0
 40
0.6116748051
 41
2.4584403293
 42
3.9217181271
  0
ELLIPSE
  5
731
100
AcDbEntity
  8
RACCORDO
100
AcDbEllipse
 62
7
  6
CONTINUOUS
 10
4.9642710577
 20
-21.0346983981
 30
0.0
 11
-0.542618321
 21
0.8478124368
 31
0.0
 40
0.5451249042
 41
-3.2164369079
 42
-2.3115524019
  0
ELLIPSE
  5
732
100
AcDbEntity
  8
0
100
AcDbEllipse
 62
7
  6
CONTINUOUS
 10
6.9947166061
 20
-25.9827749045
 30
0.0
 11
2.0785252686
 21
1.2769633287
 31
0.0
 40
0.1381385362
 41
4.6905436899
 42
4.7971488303
  0
ELLIPSE
  5
733
100
AcDbEntity
  8
0
100
AcDbEllipse
 62
7
  6
CONTINUOUS
 10
6.7740701493
 20
11.6737850017
 30
0.0
 11
-0.2230998035
 21
0.4477110033
 31
0.0
 40
0.6127700112
 41
-2.1469366228
 42
-0.6836588249
  0
ELLIPSE
  5
734
100
AcDbEntity
  8
DRAFT
100
AcDbEllipse
 62
7
  6
CONTINUOUS
 10
-3.2774624369
 20
24.3689643085
 30
0.0
 11
2.7499831596
 21
-0.0194567514
 31
0.0
 40
0.4946372042
 41
7.8499929215
 42
8.1560982617
  0
ELLIPSE
  5
735
100
AcDbEntity
  8
DRAFT
100
AcDbEllipse
 62
7
  6
CONTINUOUS
 10
15.7083546379
 20
17.4602599844
 30
0.0
 11
2.7499831596
 21
-0.0194567514
 31
0.0
 40
0.4946372042
 41
2.3771474383
 42
2.9291293507
  0
ELLIPSE
  5
736
100
AcDbEntity
  8
RACCORDO
100
AcDbEllipse
 62
7
  6
CONTINUOUS
 10
21.7529401502
 20
18.9496209254
 30
0.0
 11
0.5078963414
 21
0.3040339819
 31
0.0
 40
0.0955345833
 41
0.060854685
 42
0.7281223435
  0
ELLIPSE
  5
737
100
AcDbEntity
  8
RACCORDO
100
AcDbEllipse
 62
7
  6
CONTINUOUS
 10
6.4304536867
 20
26.6108641572
 30
0.0
 11
0.3222273525
 21
0.3948057984
 31
0.0
 40
0.4707956347
 41
0.1053291551
 42
0.7725857701
  0
ELLIPSE
  5
738
100
AcDbEntity
  8
RACCORDO
100
AcDbEllipse
 62
7
  6
CONTINUOUS
 10
12.7944147173
 20
23.4288836418
 30
0.0
 11
0.3222273525
 21
0.3948057984
 31
0.0
 40
0.4707956347
 41
0.1053291551
 42
0.7725857701
  0
ELLIPSE
  5
739
100
AcDbEntity
  8
RACCORDO
100
AcDbEllipse
 62
7
  6
CONTINUOUS
 10
9.612434202
 20
25.0198738995
 30
0.0
 11
0.3222273525
 21
0.3948057984
 31
0.0
 40
0.4707956347
 41
0.1053291551
 42
0.7725857701
  0
ELLIPSE
  5
73A
100
AcDbEntity
  8
RACCORDO
100
AcDbEllipse
 62
7
  6
CONTINUOUS
 10
17.583365075
 20
21.034408463
 30
0.0
 11
-0.3622213317
 21
0.604758663
 31
0.0
 40
0.5487841728
 41
4.6863149424
 42
6.2396579766
  0
ELLIPSE
  5
73B
100
AcDbEntity
  8
RACCORDO
100
AcDbEllipse
 62
7
  6
CONTINUOUS
 10
11.126962678
 20
24.2626096615
 30
0.0
 11
0.0639386272
 21
0.5110348785
 31
0.0
 40
0.6933957357
 41
5.1571816208
 42
6.710524655
  0
ELLIPSE
  5
73C
100
AcDbEntity
  8
RACCORDO
100
AcDbEllipse
 62
7
  6
CONTINUOUS
 10
7.9449821626
 20
25.8535999192
 30
0.0
 11
0.0639386272
 21
0.5110348785
 31
0.0
 40
0.6933957357
 41
5.1571816208
 42
6.710524655
  0
ELLIPSE
  5
73D
100
AcDbEntity
  8
RACCORDO
100
AcDbEllipse
 62
7
  6
CONTINUOUS
 10
4.7630016473
 20
27.4445901768
 30
0.0
 11
0.0639386272
 21
0.5110348785
 31
0.0
 40
0.6933957357
 41
5.1571816208
 42
6.710524655
  0
ELLIPSE
  5
73E
100
AcDbEntity
  8
RACCORDO
100
AcDbEllipse
 62
7
  6
CONTINUOUS
 10
-2.5338336177
 20
28.0715254797
 30
0.0
 11
-0.3622213317
 21
0.604758663
 31
0.0
 40
0.5487841728
 41
4.6863149424
 42
6.2396579766
  0
ELLIPSE
  5
73F
100
AcDbEntity
  8
DRAFT
100
AcDbEllipse
 62
7
  6
CONTINUOUS
 10
-1.7257322599
 20
23.9561154229
 30
0.0
 11
1.1806488386
 21
-0.0165835663
 31
0.0
 40
0.4892375824
 41
2.3758373852
 42
5.4918767431
  0
ELLIPSE
  5
740
100
AcDbEntity
  8
DRAFT
100
AcDbEllipse
 62
7
  6
CONTINUOUS
 10
1.4562482555
 20
22.3651251652
 30
0.0
 11
1.1806488386
 21
-0.0165835663
 31
0.0
 40
0.4892375824
 41
2.3758375423
 42
5.4918767431
  0
ELLIPSE
  5
741
100
AcDbEntity
  8
DRAFT
100
AcDbEllipse
 62
7
  6
CONTINUOUS
 10
4.6382287708
 20
20.7741349076
 30
0.0
 11
1.1806488386
 21
-0.0165835663
 31
0.0
 40
0.4892375824
 41
2.3758375423
 42
5.4918767431
  0
ELLIPSE
  5
742
100
AcDbEntity
  8
RACCORDO
100
AcDbEllipse
 62
7
  6
CONTINUOUS
 10
8.1912647163
 20
17.0016535034
 30
0.0
 11
0.1677841941
 21
0.4740861062
 31
0.0
 40
0.4918293396
 41
-0.0609724347
 42
0.6062934277
  0
ELLIPSE
  5
743
100
AcDbEntity
  8
RACCORDO
100
AcDbEllipse
 62
7
  6
CONTINUOUS
 10
-7.7186378604
 20
24.9566047917
 30
0.0
 11
0.1677841941
 21
0.4740861062
 31
0.0
 40
0.4918293396
 41
-0.0609724347
 42
0.6062934277
  0
ELLIPSE
  5
744
100
AcDbEntity
  8
ASSI
100
AcDbEllipse
 62
7
  6
CONTINUOUS
 10
-3.2774624369
 20
24.3689643085
 30
0.0
 11
2.7499831596
 21
-0.0194567514
 31
0.0
 40
0.4946372042
 41
7.8499929215
 42
8.1560982617
  0
ELLIPSE
  5
745
100
AcDbEntity
  8
ASSI
100
AcDbEllipse
 62
7
  6
CONTINUOUS
 10
15.7083546379
 20
17.4602599844
 30
0.0
 11
2.7499831596
 21
-0.0194567514
 31
0.0
 40
0.4946372042
 41
2.3771474383
 42
2.9291293507
  0
ELLIPSE
  5
746
100
AcDbEntity
  8
ASSI
100
AcDbEllipse
 62
7
  6
CONTINUOUS
 10
9.612434202
 20
25.0198738995
 30
0.0
 11
0.3222273525
 21
0.3948057984
 31
0.0
 40
0.4707956347
 41
0.1053291551
 42
0.7725857701
  0
ELLIPSE
  5
747
100
AcDbEntity
  8
ASSI
100
AcDbEllipse
 62
7
  6
CONTINUOUS
 10
12.7944147173
 20
23.4288836418
 30
0.0
 11
0.3222273525
 21
0.3948057984
 31
0.0
 40
0.4707956347
 41
0.1053291551
 42
0.7725857701
  0
ELLIPSE
  5
748
100
AcDbEntity
  8
ASSI
100
AcDbEllipse
 62
7
  6
CONTINUOUS
 10
6.4304536867
 20
26.6108641572
 30
0.0
 11
0.3222273525
 21
0.3948057984
 31
0.0
 40
0.4707956347
 41
0.1053291551
 42
0.7725857701
  0
ELLIPSE
  5
749
100
AcDbEntity
  8
ASSI
100
AcDbEllipse
 62
7
  6
CONTINUOUS
 10
21.7529401502
 20
18.9496209254
 30
0.0
 11
0.5078963414
 21
0.3040339819
 31
0.0
 40
0.0955345833
 41
0.060854685
 42
0.7281223435
  0
ELLIPSE
  5
74A
100
AcDbEntity
  8
ASSI
100
AcDbEllipse
 62
7
  6
CONTINUOUS
 10
17.583365075
 20
21.034408463
 30
0.0
 11
-0.3622213317
 21
0.604758663
 31
0.0
 40
0.5487841728
 41
4.6863149424
 42
6.2396579766
  0
ELLIPSE
  5
74B
100
AcDbEntity
  8
ASSI
100
AcDbEllipse
 62
7
  6
CONTINUOUS
 10
11.126962678
 20
24.2626096615
 30
0.0
 11
0.0639386272
 21
0.5110348785
 31
0.0
 40
0.6933957357
 41
5.1571816208
 42
6.710524655
  0
ELLIPSE
  5
74C
100
AcDbEntity
  8
ASSI
100
AcDbEllipse
 62
7
  6
CONTINUOUS
 10
7.9449821626
 20
25.8535999192
 30
0.0
 11
0.0639386272
 21
0.5110348785
 31
0.0
 40
0.6933957357
 41
5.1571816208
 42
6.710524655
  0
ELLIPSE
  5
74D
100
AcDbEntity
  8
ASSI
100
AcDbEllipse
 62
7
  6
CONTINUOUS
 10
-1.7257322599
 20
23.9561154229
 30
0.0
 11
1.1806488386
 21
-0.0165835663
 31
0.0
 40
0.4892375824
 41
2.3758373852
 42
5.4918767431
  0
ELLIPSE
  5
74E
100
AcDbEntity
  8
ASSI
100
AcDbEllipse
 62
7
  6
CONTINUOUS
 10
1.4562482555
 20
22.3651251652
 30
0.0
 11
1.1806488386
 21
-0.0165835663
 31
0.0
 40
0.4892375824
 41
2.3758375423
 42
5.4918767431
  0
ELLIPSE
  5
74F
100
AcDbEntity
  8
ASSI
100
AcDbEllipse
 62
7
  6
CONTINUOUS
 10
4.6382287708
 20
20.7741349076
 30
0.0
 11
1.1806488386
 21
-0.0165835663
 31
0.0
 40
0.4892375824
 41
2.3758375423
 42
5.4918767431
  0
ELLIPSE
  5
750
100
AcDbEntity
  8
ASSI
100
AcDbEllipse
 62
7
  6
CONTINUOUS
 10
4.7630016473
 20
27.4445901768
 30
0.0
 11
0.0639386272
 21
0.5110348785
 31
0.0
 40
0.6933957357
 41
5.1571816208
 42
6.710524655
  0
ELLIPSE
  5
751
100
AcDbEntity
  8
ASSI
100
AcDbEllipse
 62
7
  6
CONTINUOUS
 10
-2.5338336177
 20
28.0715254797
 30
0.0
 11
-0.3622213317
 21
0.604758663
 31
0.0
 40
0.5487841728
 41
4.6863149424
 42
6.2396579766
  0
ELLIPSE
  5
752
100
AcDbEntity
  8
ASSI
100
AcDbEllipse
 62
7
  6
CONTINUOUS
 10
-7.7186378604
 20
24.9566047917
 30
0.0
 11
0.1677841941
 21
0.4740861062
 31
0.0
 40
0.4918293396
 41
-0.0609724347
 42
0.6062934277
  0
ELLIPSE
  5
753
100
AcDbEntity
  8
ASSI
100
AcDbEllipse
 62
7
  6
CONTINUOUS
 10
8.1912647163
 20
17.0016535034
 30
0.0
 11
0.1677841941
 21
0.4740861062
 31
0.0
 40
0.4918293396
 41
-0.0609724347
 42
0.6062934277
  0
ENDSEC
  0
SECTION
  2
OBJECTS
  0
DICTIONARY
  5
C
100
AcDbDictionary
280
0
281
1
  3
ACAD_GROUP
350
D
  3
ACAD_MLINESTYLE
350
17
  3
ACAD_LAYOUT
350
1A
  3
ACAD_PLOTSETTINGS
350
19
  3
ACAD_PLOTSTYLENAME
350
E
  0
DICTIONARY
  5
D
102
{ACAD_REACTORS
330
C
102
}
100
AcDbDictionary
280
0
281
1
  0
ACDBDICTIONARYWDFLT
  5
E
102
{ACAD_REACTORS
330
C
102
}
100
AcDbDictionary
281
1
  3
Normal
350
F
100
AcDbDictionaryWithDefault
340
F
  0
DICTIONARY
  5
17
102
{ACAD_REACTORS
330
C
102
}
100
AcDbDictionary
280
0
281
1
  3
Standard
350
18
  0
DICTIONARY
  5
19
102
{ACAD_REACTORS
330
C
102
}
100
AcDbDictionary
281
1
  0
DICTIONARY
  5
1A
102
{ACAD_REACTORS
330
C
102
}
100
AcDbDictionary
281
1
  3
Model
350
754
  3
Layout1
350
755
  0
ACDBPLACEHOLDER
  5
F
102
{ACAD_REACTORS
330
E
102
}
  0
MLINESTYLE
  5
18
102
{ACAD_REACTORS
330
17
102
}
100
AcDbMlineStyle
  2
STANDARD
 70
0
  3

 62
256
 51
90.0
 52
90.0
 71
2
 49
0.5
 62
256
  6
BYLAYER
 49
-0.5
 62
256
  6
BYLAYER
  0
LAYOUT
  5
754
102
{ACAD_REACTORS
330
1A
102
}
100
AcDbPlotSettings
  1

  2
none_device
  4
ISO_A4_(297.00_x_210.00_MM)
  6

 40
0.0
 41
0.0
 42
0.0
 43
0.0
 44
297.0
 45
210.0
 46
0.0
 47
0.0
 48
0.0
 49
0.0
140
0.0
141
0.0
142
1.0
143
1.0
 70
1024
 72
1
 73
0
 74
0
  7

 75
0
147
1.0
148
0.0
149
0.0
100
AcDbLayout
  1
Model
 70
0
 71
0
 10
0.0
 20
0.0
 11
297.0
 21
210.0
 12
0.0
 22
0.0
 32
0.0
 14
0.0
 24
0.0
 34
0.0
 15
0.0
 25
0.0
 35
0.0
146
0.0
 13
0.0
 23
0.0
 33
0.0
 16
1.0
 26
0.0
 36
0.0
 17
0.0
 27
1.0
 37
0.0
 76
0
330
223
345
0
346
0
  0
LAYOUT
  5
755
102
{ACAD_REACTORS
330
1A
102
}
100
AcDbPlotSettings
  1

  2
none_device
  4
ISO_A4_(297.00_x_210.00_MM)
  6

 40
0.0
 41
0.0
 42
0.0
 43
0.0
 44
297.0
 45
210.0
 46
0.0
 47
0.0
 48
0.0
 49
0.0
140
0.0
141
0.0
142
1.0
143
1.0
 70
0
 72
1
 73
0
 74
0
  7

 75
0
147
1.0
148
0.0
149
0.0
100
AcDbLayout
  1
Layout1
 70
0
 71
1
 10
0.0
 20
0.0
 11
297.0
 21
210.0
 12
0.0
 22
0.0
 32
0.0
 14
0.0
 24
0.0
 34
0.0
 15
0.0
 25
0.0
 35
0.0
146
0.0
 13
0.0
 23
0.0
 33
0.0
 16
1.0
 26
0.0
 36
0.0
 17
0.0
 27
1.0
 37
0.0
 76
0
330
224
345
0
346
0
  0
ENDSEC
  0
EOF
