  0
SECTION
  2
HEADER
  9
$ACADVER
  1
AC1024
  9
$DWGCODEPAGE
  3
ANSI_1252
  9
$EXTMAX
 10
279.4
 20
215.9
 30
0.0
  9
$EXTMIN
 10
0.0
 20
0.0
 30
0.0
  9
$LIMMIN
 10
0.0
 20
0.0
  9
$LIMMAX
 10
279.4
 20
215.9
  9
$VIEWCTR
 10
139.7
 20
107.95
  9
$VIEWSIZE
 40
215.9
  9
$CLAYER
  8
0
  9
$LTSCALE
 40
15.367
  9
$CELTYPE
  6
BYLAYER
  9
$DIMSCALE
 40
1.0
  9
$DIMASZ
 40
3.0
  9
$DIMEXO
 40
0.5
  9
$DIMDLI
 40
10.6172
  9
$DIMEXE
 40
1.5
  9
$DIMCEN
 40
2.5146
  9
$DIMLFAC
 40
1.0
  9
$DIMBLK
  1
_FILLED
  9
$DIMALT
 70
0
  9
$DIMALTF
 40
0.0393700787
  9
$DIMTXT
 40
3.0
  9
$DIMTOL
 70
1
  9
$DIMLIM
 70
0
  9
$DIMTFAC
 40
1.0
  9
$DIMTP
 40
0.01
  9
$DIMTM
 40
0.01
  9
$DIMGAP
 40
0.625
  9
$DIMDSEP
 70
44
  9
$AUNITS
 70
0
  9
$PDMODE
 70
3
  9
$PDSIZE
 40
3.0
  9
$HANDSEED
  5
731
  9
$TILEMODE
 70
1
  9
$MEASUREMENT
 70
1
  9
$INSUNITS
 70
4
  0
ENDSEC
  0
SECTION
  2
CLASSES
  0
CLASS
  1
ACDBDICTIONARYWDFLT
  2
AcDbDictionaryWithDefault
  3
AutoCAD 2000
 90
0
 91
1
280
0
281
0
  0
CLASS
  1
ACDBPLACEHOLDER
  2
AcDbPlaceHolder
  3
AutoCAD 2000
 90
0
 91
1
280
0
281
0
  0
CLASS
  1
LAYOUT
  2
AcDbLayout
  3
AutoCAD 2000
 90
0
 91
0
280
0
281
0
  0
ENDSEC
  0
SECTION
  2
TABLES
  0
TABLE
  2
VPORT
  5
8
100
AcDbSymbolTable
 70
2
  0
VPORT
  5
1F4
100
AcDbSymbolTableRecord
100
AcDbViewportTableRecord
  2
*ACTIVE
 70
0
 10
0.0
 20
0.0
 11
1.0
 21
1.0
 12
139.7
 22
107.95
 13
0.0
 23
0.0
 14
1.0
 24
1.0
 15
0.0
 25
0.0
 16
0.0
 26
0.0
 36
1.0
 17
0.0
 27
0.0
 37
0.0
 40
215.9
 41
1.2941176471
 42
50.0
 43
0.0
 44
0.0
 50
0.0
 51
0.0
 71
0
 72
100
 73
1
 74
1
 75
0
 76
0
 77
0
 78
0
  0
ENDTAB
  0
TABLE
  2
LTYPE
  5
5
100
AcDbSymbolTable
 70
6
  0
LTYPE
  5
14
100
AcDbSymbolTableRecord
100
AcDbLinetypeTableRecord
  2
BYBLOCK
 70
0
  3

 72
65
 73
0
 40
0.0
  0
LTYPE
  5
15
100
AcDbSymbolTableRecord
100
AcDbLinetypeTableRecord
  2
BYLAYER
 70
0
  3

 72
65
 73
0
 40
0.0
  0
LTYPE
  5
16
100
AcDbSymbolTableRecord
100
AcDbLinetypeTableRecord
  2
CONTINUOUS
 70
64
  3
Solid line
 72
65
 73
0
 40
0.0
  0
LTYPE
  5
1F5
100
AcDbSymbolTableRecord
100
AcDbLinetypeTableRecord
  2
CENTER
 70
64
  3
____ _ ____ _ ____ _ ____ _ ____ _ ____ _ ____
 72
65
 73
4
 40
0.6
 49
0.375
 74
0
 49
-0.075
 74
0
 49
0.075
 74
0
 49
-0.075
 74
0
  0
LTYPE
  5
1F6
100
AcDbSymbolTableRecord
100
AcDbLinetypeTableRecord
  2
HIDDEN
 70
64
  3
- - - - - - - - - - - - - - - - - - - -
 72
65
 73
2
 40
0.2
 49
0.1
 74
0
 49
-0.1
 74
0
  0
LTYPE
  5
1F7
100
AcDbSymbolTableRecord
100
AcDbLinetypeTableRecord
  2
PHANTOM
 70
64
  3
_____ _ _ _____ _ _ _____ _ _ _____
 72
65
 73
6
 40
0.8
 49
0.45
 74
0
 49
-0.05
 74
0
 49
0.1
 74
0
 49
-0.05
 74
0
 49
0.1
 74
0
 49
-0.05
 74
0
  0
LTYPE
  5
1F8
100
AcDbSymbolTableRecord
100
AcDbLinetypeTableRecord
  2
DOT
 70
64
  3
. . . . . . . . . . . . . . . . . . . .
 72
65
 73
2
 40
0.2
 49
0.1
 74
0
 49
-0.1
 74
0
  0
LTYPE
  5
1F9
100
AcDbSymbolTableRecord
100
AcDbLinetypeTableRecord
  2
DASHED
 70
64
  3
- - - - - - - - - - - - - - - - - - - -
 72
65
 73
2
 40
0.2
 49
0.1
 74
0
 49
-0.1
 74
0
  0
ENDTAB
  0
TABLE
  2
LAYER
  5
2
100
AcDbSymbolTable
 70
36
  0
LAYER
  5
10
100
AcDbSymbolTableRecord
100
AcDbLayerTableRecord
  2
0
 70
0
 62
7
  6
CONTINUOUS
370
-3
390
F
  0
LAYER
  5
1FA
100
AcDbSymbolTableRecord
100
AcDbLayerTableRecord
  2
DEFAULT_1
 70
0
 62
7
  6
CENTER
370
-3
390
F
  0
LAYER
  5
1FB
100
AcDbSymbolTableRecord
100
AcDbLayerTableRecord
  2
DEFAULT_2
 70
0
 62
7
  6
HIDDEN
370
-3
390
F
  0
LAYER
  5
1FC
100
AcDbSymbolTableRecord
100
AcDbLayerTableRecord
  2
DEFAULT_3
 70
0
 62
7
  6
PHANTOM
370
-3
390
F
  0
LAYER
  5
1FD
100
AcDbSymbolTableRecord
100
AcDbLayerTableRecord
  2
ASSI
 70
0
 62
7
  6
CONTINUOUS
370
-3
390
F
  0
LAYER
  5
1FE
100
AcDbSymbolTableRecord
100
AcDbLayerTableRecord
  2
COORDINATE
 70
0
 62
7
  6
CONTINUOUS
370
-3
390
F
  0
LAYER
  5
1FF
100
AcDbSymbolTableRecord
100
AcDbLayerTableRecord
  2
COORD_ORIGINE
 70
0
 62
7
  6
CONTINUOUS
370
-3
390
F
  0
LAYER
  5
200
100
AcDbSymbolTableRecord
100
AcDbLayerTableRecord
  2
COPY-PUBBLISH
 70
0
 62
7
  6
CONTINUOUS
370
-3
390
F
  0
LAYER
  5
201
100
AcDbSymbolTableRecord
100
AcDbLayerTableRecord
  2
COPY_PUBLISH
 70
0
 62
7
  6
CONTINUOUS
370
-3
390
F
  0
LAYER
  5
202
100
AcDbSymbolTableRecord
100
AcDbLayerTableRecord
  2
COSMETIC
 70
0
 62
7
  6
CONTINUOUS
370
-3
390
F
  0
LAYER
  5
203
100
AcDbSymbolTableRecord
100
AcDbLayerTableRecord
  2
COSMETICHE
 70
0
 62
7
  6
CONTINUOUS
370
-3
390
F
  0
LAYER
  5
204
100
AcDbSymbolTableRecord
100
AcDbLayerTableRecord
  2
COSMETICI
 70
0
 62
7
  6
CONTINUOUS
370
-3
390
F
  0
LAYER
  5
205
100
AcDbSymbolTableRecord
100
AcDbLayerTableRecord
  2
CURVA_CENTRALE
 70
0
 62
7
  6
CONTINUOUS
370
-3
390
F
  0
LAYER
  5
206
100
AcDbSymbolTableRecord
100
AcDbLayerTableRecord
  2
CURVE
 70
0
 62
7
  6
CONTINUOUS
370
-3
390
F
  0
LAYER
  5
207
100
AcDbSymbolTableRecord
100
AcDbLayerTableRecord
  2
C_COMP
 70
0
 62
7
  6
CONTINUOUS
370
-3
390
F
  0
LAYER
  5
208
100
AcDbSymbolTableRecord
100
AcDbLayerTableRecord
  2
DRAFT
 70
0
 62
7
  6
CONTINUOUS
370
-3
390
F
  0
LAYER
  5
209
100
AcDbSymbolTableRecord
100
AcDbLayerTableRecord
  2
IMPORTED
 70
0
 62
7
  6
CONTINUOUS
370
-3
390
F
  0
LAYER
  5
20A
100
AcDbSymbolTableRecord
100
AcDbLayerTableRecord
  2
IMPORT_IGES
 70
0
 62
7
  6
CONTINUOUS
370
-3
390
F
  0
LAYER
  5
20B
100
AcDbSymbolTableRecord
100
AcDbLayerTableRecord
  2
INTFCLR_3
 70
0
 62
7
  6
CONTINUOUS
370
-3
390
F
  0
LAYER
  5
20C
100
AcDbSymbolTableRecord
100
AcDbLayerTableRecord
  2
INTF_1
 70
0
 62
7
  6
CONTINUOUS
370
-3
390
F
  0
LAYER
  5
20D
100
AcDbSymbolTableRecord
100
AcDbLayerTableRecord
  2
INTF_11
 70
0
 62
7
  6
CONTINUOUS
370
-3
390
F
  0
LAYER
  5
20E
100
AcDbSymbolTableRecord
100
AcDbLayerTableRecord
  2
INTF_16
 70
0
 62
7
  6
CONTINUOUS
370
-3
390
F
  0
LAYER
  5
20F
100
AcDbSymbolTableRecord
100
AcDbLayerTableRecord
  2
INTF_2
 70
0
 62
7
  6
CONTINUOUS
370
-3
390
F
  0
LAYER
  5
210
100
AcDbSymbolTableRecord
100
AcDbLayerTableRecord
  2
INTF_6
 70
0
 62
7
  6
CONTINUOUS
370
-3
390
F
  0
LAYER
  5
211
100
AcDbSymbolTableRecord
100
AcDbLayerTableRecord
  2
INTF_8
 70
0
 62
7
  6
CONTINUOUS
370
-3
390
F
  0
LAYER
  5
212
100
AcDbSymbolTableRecord
100
AcDbLayerTableRecord
  2
INTF_CYAN
 70
0
 62
7
  6
CONTINUOUS
370
-3
390
F
  0
LAYER
  5
213
100
AcDbSymbolTableRecord
100
AcDbLayerTableRecord
  2
NOTE
 70
0
 62
7
  6
CONTINUOUS
370
-3
390
F
  0
LAYER
  5
214
100
AcDbSymbolTableRecord
100
AcDbLayerTableRecord
  2
PIANI
 70
0
 62
7
  6
CONTINUOUS
370
-3
390
F
  0
LAYER
  5
215
100
AcDbSymbolTableRecord
100
AcDbLayerTableRecord
  2
PIANI_ORIGINE
 70
0
 62
7
  6
CONTINUOUS
370
-3
390
F
  0
LAYER
  5
216
100
AcDbSymbolTableRecord
100
AcDbLayerTableRecord
  2
PIANI_RIFERIMENTO
 70
0
 62
7
  6
CONTINUOUS
370
-3
390
F
  0
LAYER
  5
217
100
AcDbSymbolTableRecord
100
AcDbLayerTableRecord
  2
PUNTI
 70
0
 62
7
  6
CONTINUOUS
370
-3
390
F
  0
LAYER
  5
218
100
AcDbSymbolTableRecord
100
AcDbLayerTableRecord
  2
RACCORDO
 70
0
 62
7
  6
CONTINUOUS
370
-3
390
F
  0
LAYER
  5
219
100
AcDbSymbolTableRecord
100
AcDbLayerTableRecord
  2
RGB__255__255__255__
 70
0
 62
7
  6
CONTINUOUS
370
-3
390
F
  0
LAYER
  5
21A
100
AcDbSymbolTableRecord
100
AcDbLayerTableRecord
  2
RGB____0____0____0__
 70
0
 62
7
  6
CONTINUOUS
370
-3
390
F
  0
LAYER
  5
21B
100
AcDbSymbolTableRecord
100
AcDbLayerTableRecord
  2
SMUSSO
 70
0
 62
7
  6
CONTINUOUS
370
-3
390
F
  0
LAYER
  5
21C
100
AcDbSymbolTableRecord
100
AcDbLayerTableRecord
  2
SNAPLINE
 70
0
 62
7
  6
CONTINUOUS
370
-3
390
F
  0
LAYER
  5
21D
100
AcDbSymbolTableRecord
100
AcDbLayerTableRecord
  2
SUPERFICI
 70
0
 62
7
  6
CONTINUOUS
370
-3
390
F
  0
LAYER
  5
21E
100
AcDbSymbolTableRecord
100
AcDbLayerTableRecord
  2
TRASH
 70
0
 62
7
  6
CONTINUOUS
370
-3
390
F
  0
LAYER
  5
21F
100
AcDbSymbolTableRecord
100
AcDbLayerTableRecord
  2
WHITE
 70
0
 62
7
  6
CONTINUOUS
370
-3
390
F
  0
LAYER
  5
220
100
AcDbSymbolTableRecord
100
AcDbLayerTableRecord
  2
XSEC_DATUMS
 70
0
 62
7
  6
CONTINUOUS
370
-3
390
F
  0
ENDTAB
  0
TABLE
  2
STYLE
  5
3
100
AcDbSymbolTable
 70
1
  0
STYLE
  5
11
100
AcDbSymbolTableRecord
100
AcDbTextStyleTableRecord
  2
STANDARD
 70
0
 40
0.0
 41
0.8
 50
0.0
 71
0
 42
0.2
  3
txt
  4

  0
STYLE
  5
221
100
AcDbSymbolTableRecord
100
AcDbTextStyleTableRecord
  2
TEXTSTYLE_1
 70
0
 40
0.0
 41
0.8
 50
0.0
 71
0
 42
0.2
  3
gdt
  4

  0
ENDTAB
  0
TABLE
  2
VIEW
  5
6
100
AcDbSymbolTable
 70
0
  0
ENDTAB
  0
TABLE
  2
UCS
  5
7
100
AcDbSymbolTable
 70
0
  0
ENDTAB
  0
TABLE
  2
APPID
  5
9
100
AcDbSymbolTable
 70
1
  0
APPID
  5
222
100
AcDbSymbolTableRecord
100
AcDbRegAppTableRecord
  2
ACAD
 70
0
  0
ENDTAB
  0
TABLE
  2
BLOCK_RECORD
  5
1
100
AcDbSymbolTable
 70
0
  0
BLOCK_RECORD
  5
223
100
AcDbSymbolTableRecord
100
AcDbBlockTableRecord
  2
*Model_Space
  0
BLOCK_RECORD
  5
224
100
AcDbSymbolTableRecord
100
AcDbBlockTableRecord
  2
*Paper_Space
  0
BLOCK_RECORD
  5
225
100
AcDbSymbolTableRecord
100
AcDbBlockTableRecord
  2
_FILLED
  0
ENDTAB
  0
TABLE
  2
DIMSTYLE
  5
A
100
AcDbSymbolTable
 70
1
100
AcDbDimStyleTable
 71
0
  0
DIMSTYLE
105
226
100
AcDbSymbolTableRecord
100
AcDbDimStyleTableRecord
  2
STANDARD
 70
0
  3

  4

 40
1.0
 41
3.0
 42
0.5
 43
0.38
 44
1.5
 45
0.0
 46
0.0
 47
0.01
 48
0.01
140
3.0
141
0.09
142
0.0
143
25.4
144
1.0
145
0.0
146
1.0
147
0.625
 71
1
 72
0
 73
0
 74
0
 75
0
 76
0
 77
1
 78
8
 79
2
170
0
171
1
172
0
173
0
174
0
175
0
176
0
177
0
178
0
270
2
179
2
271
2
272
2
273
2
274
2
275
0
280
0
281
0
282
0
283
1
284
8
285
0
286
0
287
3
288
0
340
11
278
44
341
225
342
225
343
225
344
225
  0
ENDTAB
  0
ENDSEC
  0
SECTION
  2
BLOCKS
  0
BLOCK
  5
20
100
AcDbEntity
  8
0
100
AcDbBlockBegin
  2
*Model_Space
 70
0
 10
0.0
 20
0.0
 30
0.0
  3
*Model_Space
  1

  0
ENDBLK
  5
21
100
AcDbEntity
  8
0
100
AcDbBlockEnd
  0
BLOCK
  5
1C
100
AcDbEntity
  8
0
100
AcDbBlockBegin
  2
*Paper_Space
 70
0
 10
0.0
 20
0.0
 30
0.0
  3
*Paper_Space
  1

  0
ENDBLK
  5
1D
100
AcDbEntity
  8
0
100
AcDbBlockEnd
  0
BLOCK
  5
227
100
AcDbEntity
  8
0
100
AcDbBlockBegin
  2
_FILLED
 70
64
 10
0.0
 20
0.0
  3
_FILLED
  1

  0
SOLID
  5
228
100
AcDbEntity
  8
0
  6
BYBLOCK
 62
0
100
AcDbTrace
 10
0.0
 20
0.0
 11
-1.0
 21
0.3166666667
 12
-1.0
 22
-0.3166666667
 13
-1.0
 23
-0.3166666667
  0
ENDBLK
  5
229
100
AcDbEntity
  8
0
  6
BYBLOCK
 62
0
100
AcDbBlockEnd
  0
ENDSEC
  0
SECTION
  2
ENTITIES
  0
LINE
  5
22A
100
AcDbEntity
  8
0
100
AcDbLine
 62
7
  6
CONTINUOUS
 10
-10.7450155836
 20
12.6774675807
 11
-10.2601321132
 21
13.160230517
  0
LINE
  5
22B
100
AcDbEntity
  8
0
100
AcDbLine
 62
250
  6
CONTINUOUS
 10
-10.5743911091
 20
12.7116222105
 11
-10.0895076387
 21
13.1943851468
  0
LWPOLYLINE
  5
22C
100
AcDbEntity
  8
RACCORDO
100
AcDbPolyline
 62
250
  6
CONTINUOUS
 90
14
 70
0
 10
-6.8235519323
 20
13.7550693462
 10
-6.8299124997
 20
13.7495973869
 10
-6.8355923254
 20
13.7446268828
 10
-6.8405838116
 20
13.7401623284
 10
-6.8447149587
 20
13.73633757
 10
-6.8479716641
 20
13.7331598912
 10
-6.8503639203
 20
13.7306170855
 10
-6.8517552625
 20
13.7288129877
 10
-6.8521335298
 20
13.7277501402
 10
-6.8515049259
 20
13.7274186881
 10
-6.8497600995
 20
13.7279032759
 10
-6.8468602089
 20
13.7292291025
 10
-6.8428368212
 20
13.7313618165
 10
-6.8376859135
 20
13.7342963135
  0
LWPOLYLINE
  5
22D
100
AcDbEntity
  8
ASSI
100
AcDbPolyline
 62
250
  6
CONTINUOUS
 90
14
 70
0
 10
-6.8235519323
 20
13.7550693462
 10
-6.8299124997
 20
13.7495973869
 10
-6.8355923254
 20
13.7446268828
 10
-6.8405838116
 20
13.7401623284
 10
-6.8447149587
 20
13.73633757
 10
-6.8479716641
 20
13.7331598912
 10
-6.8503639203
 20
13.7306170855
 10
-6.8517552625
 20
13.7288129877
 10
-6.8521335298
 20
13.7277501402
 10
-6.8515049259
 20
13.7274186881
 10
-6.8497600995
 20
13.7279032759
 10
-6.8468602089
 20
13.7292291025
 10
-6.8428368212
 20
13.7313618165
 10
-6.8376859135
 20
13.7342963135
  0
LWPOLYLINE
  5
22E
100
AcDbEntity
  8
RACCORDO
100
AcDbPolyline
 62
7
  6
CONTINUOUS
 90
16
 70
0
 10
-11.9876816186
 20
11.2073388545
 10
-12.0170519792
 20
11.1829699273
 10
-12.0544835292
 20
11.1471187338
 10
-12.0902183041
 20
11.1071552636
 10
-12.1249747954
 20
11.0620041982
 10
-12.1580344463
 20
11.0121961667
 10
-12.187619289
 20
10.9607157547
 10
-12.2135634611
 20
10.9088394895
 10
-12.2367072636
 20
10.855715984
 10
-12.257026029
 20
10.8019286265
 10
-12.2744559966
 20
10.7482633403
 10
-12.2892878018
 20
10.6943453022
 10
-12.3017795939
 20
10.6391655652
 10
-12.3118251044
 20
10.5823914167
 10
-12.3190885517
 20
10.5244907185
 10
-12.3206712937
 20
10.5070550518
  0
LWPOLYLINE
  5
22F
100
AcDbEntity
  8
RACCORDO
100
AcDbPolyline
 62
250
  6
CONTINUOUS
 90
5
 70
0
 10
-6.7922684039
 20
13.7812685559
 10
-6.8008632063
 20
13.7741491531
 10
-6.8089255593
 20
13.7674229116
 10
-6.8165054998
 20
13.7610501103
 10
-6.8235519323
 20
13.7550693462
  0
LWPOLYLINE
  5
230
100
AcDbEntity
  8
ASSI
100
AcDbPolyline
 62
250
  6
CONTINUOUS
 90
5
 70
0
 10
-6.7922684039
 20
13.7812685559
 10
-6.8008632063
 20
13.7741491531
 10
-6.8089255593
 20
13.7674229116
 10
-6.8165054998
 20
13.7610501103
 10
-6.8235519323
 20
13.7550693462
  0
LINE
  5
231
100
AcDbEntity
  8
RACCORDO
100
AcDbLine
 62
250
  6
CONTINUOUS
 10
-6.5386333984
 20
13.8666837129
 11
-7.4920610799
 21
13.0817746498
  0
LINE
  5
232
100
AcDbEntity
  8
ASSI
100
AcDbLine
 62
250
  6
CONTINUOUS
 10
-6.5386333984
 20
13.8666837129
 11
-7.4920610799
 21
13.0817746498
  0
LINE
  5
233
100
AcDbEntity
  8
RACCORDO
100
AcDbLine
 62
250
  6
CONTINUOUS
 10
-6.3957557646
 20
13.8794503946
 11
-7.164215663
 21
13.2468458504
  0
LINE
  5
234
100
AcDbEntity
  8
ASSI
100
AcDbLine
 62
250
  6
CONTINUOUS
 10
-6.3957557646
 20
13.8794503946
 11
-7.164215663
 21
13.2468458504
  0
LINE
  5
235
100
AcDbEntity
  8
RACCORDO
100
AcDbLine
 62
250
  6
CONTINUOUS
 10
-3.5911891838
 20
16.4107701195
 11
-4.1239232141
 21
15.9731778292
  0
LINE
  5
236
100
AcDbEntity
  8
ASSI
100
AcDbLine
 62
250
  6
CONTINUOUS
 10
-3.5911891838
 20
16.4107701195
 11
-4.1239232141
 21
15.9731778292
  0
LINE
  5
237
100
AcDbEntity
  8
RACCORDO
100
AcDbLine
 62
250
  6
CONTINUOUS
 10
-4.1239232141
 20
15.9731778292
 11
-6.7922684039
 21
13.7812685559
  0
LINE
  5
238
100
AcDbEntity
  8
ASSI
100
AcDbLine
 62
250
  6
CONTINUOUS
 10
-4.1239232141
 20
15.9731778292
 11
-6.7922684039
 21
13.7812685559
  0
LINE
  5
239
100
AcDbEntity
  8
RACCORDO
100
AcDbLine
 62
250
  6
CONTINUOUS
 10
-3.4343132465
 20
16.4327907526
 11
-6.4041701241
 21
13.99327561
  0
LINE
  5
23A
100
AcDbEntity
  8
ASSI
100
AcDbLine
 62
250
  6
CONTINUOUS
 10
-3.4343132465
 20
16.4327907526
 11
-6.4041701241
 21
13.99327561
  0
LINE
  5
23B
100
AcDbEntity
  8
RACCORDO
100
AcDbLine
 62
250
  6
CONTINUOUS
 10
-6.4041701241
 20
13.99327561
 11
-6.5513361881
 21
13.8723852241
  0
LINE
  5
23C
100
AcDbEntity
  8
ASSI
100
AcDbLine
 62
250
  6
CONTINUOUS
 10
-6.4041701241
 20
13.99327561
 11
-6.5513361881
 21
13.8723852241
  0
LINE
  5
23D
100
AcDbEntity
  8
0
100
AcDbLine
 62
7
  6
CONTINUOUS
 10
-8.1864627986
 20
12.6450234214
 11
-3.8079463869
 21
16.2392024072
  0
LINE
  5
23E
100
AcDbEntity
  8
ASSI
100
AcDbLine
 62
7
  6
CONTINUOUS
 10
-8.1864627986
 20
12.6450234214
 11
-3.8079463869
 21
16.2392024072
  0
LWPOLYLINE
  5
23F
100
AcDbEntity
  8
RACCORDO
100
AcDbPolyline
 62
7
  6
CONTINUOUS
 90
3
 70
0
 10
-3.8079463885
 20
16.2392024058
 10
-3.7085382576
 20
16.3194442685
 10
-3.5911891838
 20
16.4107701195
  0
LWPOLYLINE
  5
240
100
AcDbEntity
  8
ASSI
100
AcDbPolyline
 62
7
  6
CONTINUOUS
 90
3
 70
0
 10
-3.8079463885
 20
16.2392024058
 10
-3.7085382576
 20
16.3194442685
 10
-3.5911891838
 20
16.4107701195
  0
LINE
  5
241
100
AcDbEntity
  8
RACCORDO
100
AcDbLine
 62
250
  6
CONTINUOUS
 10
-3.5880892692
 20
16.4132222416
 11
-3.5911891839
 21
16.4107701195
  0
LINE
  5
242
100
AcDbEntity
  8
ASSI
100
AcDbLine
 62
250
  6
CONTINUOUS
 10
-3.5880892692
 20
16.4132222416
 11
-3.5911891839
 21
16.4107701195
  0
LINE
  5
243
100
AcDbEntity
  8
RACCORDO
100
AcDbLine
 62
7
  6
CONTINUOUS
 10
-11.987685434
 20
11.2073437699
 11
-10.5981909432
 21
12.2872690473
  0
LINE
  5
244
100
AcDbEntity
  8
RACCORDO
100
AcDbLine
 62
250
  6
CONTINUOUS
 10
-11.7281491183
 20
11.2492582303
 11
-10.3401713759
 21
12.3280046203
  0
LWPOLYLINE
  5
245
100
AcDbEntity
  8
RACCORDO
100
AcDbPolyline
 62
250
  6
CONTINUOUS
 90
9
 70
0
 10
-11.987564375
 20
11.2074379174
 10
-11.9657821901
 20
11.2225856632
 10
-11.9364082218
 20
11.2382146915
 10
-11.9049062011
 20
11.2500477144
 10
-11.8716211372
 20
11.2579551373
 10
-11.836917567
 20
11.2618503582
 10
-11.8011755627
 20
11.2616907168
 10
-11.7647865695
 20
11.2574779615
 10
-11.7281491183
 20
11.2492582303
  0
LWPOLYLINE
  5
246
100
AcDbEntity
  8
RACCORDO
100
AcDbPolyline
 62
250
  6
CONTINUOUS
 90
10
 70
0
 10
-3.5911891839
 20
16.4107701195
 10
-3.5786208841
 20
16.4193471434
 10
-3.5647297198
 20
16.4267877967
 10
-3.549532915
 20
16.4329205862
 10
-3.5330865292
 20
16.4375692531
 10
-3.5154365507
 20
16.4405711678
 10
-3.4966137274
 20
16.4417623202
 10
-3.4767092472
 20
16.4409678444
 10
-3.4558838503
 20
16.4380249738
 10
-3.4343132467
 20
16.4327907527
  0
LWPOLYLINE
  5
247
100
AcDbEntity
  8
ASSI
100
AcDbPolyline
 62
250
  6
CONTINUOUS
 90
10
 70
0
 10
-3.5911891839
 20
16.4107701195
 10
-3.5786208841
 20
16.4193471434
 10
-3.5647297198
 20
16.4267877967
 10
-3.549532915
 20
16.4329205862
 10
-3.5330865292
 20
16.4375692531
 10
-3.5154365507
 20
16.4405711678
 10
-3.4966137274
 20
16.4417623202
 10
-3.4767092472
 20
16.4409678444
 10
-3.4558838503
 20
16.4380249738
 10
-3.4343132467
 20
16.4327907527
  0
LINE
  5
248
100
AcDbEntity
  8
RACCORDO
100
AcDbLine
 62
7
  6
CONTINUOUS
 10
-3.5881463598
 20
16.4131787048
 11
-3.5653675606
 21
16.4286512821
  0
LWPOLYLINE
  5
249
100
AcDbEntity
  8
ASSI
100
AcDbPolyline
 62
7
  6
CONTINUOUS
 90
8
 70
0
 10
-3.5881463597
 20
16.4131787048
 10
-3.5653675904
 20
16.4286512664
 10
-3.5406226662
 20
16.4417103733
 10
-3.514332764
 20
16.452001773
 10
-3.4869744419
 20
16.4592786606
 10
-3.458882547
 20
16.4634236272
 10
-3.4302273429
 20
16.4643495239
 10
-3.4013792786
 20
16.4619492144
  0
LINE
  5
24A
100
AcDbEntity
  8
RACCORDO
100
AcDbLine
 62
250
  6
CONTINUOUS
 10
-6.8123024231
 20
13.7516185481
 11
-6.8376046887
 21
13.7344506521
  0
LINE
  5
24B
100
AcDbEntity
  8
ASSI
100
AcDbLine
 62
250
  6
CONTINUOUS
 10
-6.8123012584
 20
13.7516192332
 11
-6.8376046887
 21
13.7344506521
  0
LWPOLYLINE
  5
24C
100
AcDbEntity
  8
RACCORDO
100
AcDbPolyline
 62
250
  6
CONTINUOUS
 90
8
 70
0
 10
-6.7831414173
 20
13.7887807191
 10
-6.7690294297
 20
13.7981930362
 10
-6.7537920759
 20
13.8059490416
 10
-6.7375517828
 20
13.8119864198
 10
-6.720439035
 20
13.8162566634
 10
-6.702591327
 20
13.8187254636
 10
-6.684152059
 20
13.8193729852
 10
-6.6813276511
 20
13.8191966406
  0
LWPOLYLINE
  5
24D
100
AcDbEntity
  8
ASSI
100
AcDbPolyline
 62
250
  6
CONTINUOUS
 90
8
 70
0
 10
-6.7831414173
 20
13.7887807191
 10
-6.7690294297
 20
13.7981930362
 10
-6.7537920759
 20
13.8059490416
 10
-6.7375517828
 20
13.8119864198
 10
-6.720439035
 20
13.8162566634
 10
-6.702591327
 20
13.8187254636
 10
-6.684152059
 20
13.8193729852
 10
-6.6813276511
 20
13.8191966406
  0
LWPOLYLINE
  5
24E
100
AcDbEntity
  8
RACCORDO
100
AcDbPolyline
 62
250
  6
CONTINUOUS
 90
4
 70
0
 10
-6.5379460305
 20
13.8672495804
 10
-6.515662661
 20
13.8812993703
 10
-6.4916758857
 20
13.8928007377
 10
-6.4750397121
 20
13.8989011222
  0
LWPOLYLINE
  5
24F
100
AcDbEntity
  8
ASSI
100
AcDbPolyline
 62
250
  6
CONTINUOUS
 90
4
 70
0
 10
-6.5379460305
 20
13.8672495804
 10
-6.515662661
 20
13.8812993703
 10
-6.4916758857
 20
13.8928007377
 10
-6.4750397121
 20
13.8989011222
  0
LWPOLYLINE
  5
250
100
AcDbEntity
  8
RACCORDO
100
AcDbPolyline
 62
250
  6
CONTINUOUS
 90
3
 70
0
 10
-6.8376859135
 20
13.7342963135
 10
-6.7925709413
 20
13.7595479
 10
-6.745514306
 20
13.7835077711
  0
LWPOLYLINE
  5
251
100
AcDbEntity
  8
ASSI
100
AcDbPolyline
 62
250
  6
CONTINUOUS
 90
3
 70
0
 10
-6.8376859135
 20
13.7342963135
 10
-6.7925709413
 20
13.7595479
 10
-6.745514306
 20
13.7835077711
  0
LWPOLYLINE
  5
252
100
AcDbEntity
  8
RACCORDO
100
AcDbPolyline
 62
7
  6
CONTINUOUS
 90
4
 70
0
 10
-7.3863282736
 20
13.1288791782
 10
-7.3924424564
 20
13.1255778843
 10
-7.3953887217
 20
13.1240079006
 10
-7.3982620897
 20
13.1224941544
  0
LWPOLYLINE
  5
253
100
AcDbEntity
  8
ASSI
100
AcDbPolyline
 62
7
  6
CONTINUOUS
 90
4
 70
0
 10
-7.3863282736
 20
13.1288791782
 10
-7.3924424564
 20
13.1255778843
 10
-7.3953887217
 20
13.1240079006
 10
-7.3982620897
 20
13.1224941544
  0
LINE
  5
254
100
AcDbEntity
  8
RACCORDO
100
AcDbLine
 62
7
  6
CONTINUOUS
 10
-6.7369261757
 20
13.7924922775
 11
-6.7878303679
 21
13.7655250001
  0
LINE
  5
255
100
AcDbEntity
  8
ASSI
100
AcDbLine
 62
7
  6
CONTINUOUS
 10
-6.7369261757
 20
13.7924922775
 11
-6.7878303679
 21
13.7655250001
  0
LWPOLYLINE
  5
256
100
AcDbEntity
  8
RACCORDO
100
AcDbPolyline
 62
7
  6
CONTINUOUS
 90
9
 70
0
 10
-3.5653675324
 20
16.4286513013
 10
-3.5406225625
 20
16.4417104208
 10
-3.514332633
 20
16.4520018159
 10
-3.4869743135
 20
16.4592786871
 10
-3.4588824464
 20
16.4634236362
 10
-3.4302272726
 20
16.4643495222
 10
-3.4013792321
 20
16.4619492078
 10
-3.3729154554
 20
16.4562076532
 10
-3.3669224133
 20
16.4545518664
  0
LWPOLYLINE
  5
257
100
AcDbEntity
  8
RACCORDO
100
AcDbPolyline
 62
7
  6
CONTINUOUS
 90
4
 70
0
 10
-7.1558651802
 20
13.2511622606
 10
-7.2310302724
 20
13.2123090134
 10
-7.3057132264
 20
13.1727156686
 10
-7.3863282736
 20
13.1288791782
  0
LWPOLYLINE
  5
258
100
AcDbEntity
  8
ASSI
100
AcDbPolyline
 62
7
  6
CONTINUOUS
 90
4
 70
0
 10
-7.1558651802
 20
13.2511622606
 10
-7.2310302724
 20
13.2123090134
 10
-7.3057132264
 20
13.1727156686
 10
-7.3863282736
 20
13.1288791782
  0
LINE
  5
259
100
AcDbEntity
  8
RACCORDO
100
AcDbLine
 62
250
  6
CONTINUOUS
 10
-6.524451893
 20
13.8742048719
 11
-6.5379460305
 21
13.8672495804
  0
LINE
  5
25A
100
AcDbEntity
  8
ASSI
100
AcDbLine
 62
250
  6
CONTINUOUS
 10
-6.524451893
 20
13.8742048719
 11
-6.5379460305
 21
13.8672495804
  0
LWPOLYLINE
  5
25B
100
AcDbEntity
  8
RACCORDO
100
AcDbPolyline
 62
7
  6
CONTINUOUS
 90
9
 70
0
 10
-7.3982620897
 20
13.1224941544
 10
-7.4122043697
 20
13.1153775008
 10
-7.4251577624
 20
13.1089922597
 10
-7.4371225435
 20
13.1033391424
 10
-7.4479545889
 20
13.0985319325
 10
-7.4577986317
 20
13.0944583523
 10
-7.4670879897
 20
13.0907795739
 10
-7.4759670147
 20
13.0873826304
 10
-7.4802211402
 20
13.0858241938
  0
LWPOLYLINE
  5
25C
100
AcDbEntity
  8
ASSI
100
AcDbPolyline
 62
7
  6
CONTINUOUS
 90
9
 70
0
 10
-7.3982620897
 20
13.1224941544
 10
-7.4122043697
 20
13.1153775008
 10
-7.4251577624
 20
13.1089922597
 10
-7.4371225435
 20
13.1033391424
 10
-7.4479545889
 20
13.0985319325
 10
-7.4577986317
 20
13.0944583523
 10
-7.4670879897
 20
13.0907795739
 10
-7.4759670147
 20
13.0873826304
 10
-7.4802209943
 20
13.0858242465
  0
LWPOLYLINE
  5
25D
100
AcDbEntity
  8
RACCORDO
100
AcDbPolyline
 62
7
  6
CONTINUOUS
 90
3
 70
0
 10
-7.0040791153
 20
13.3266532147
 10
-7.0802132168
 20
13.2892777864
 10
-7.1558651802
 20
13.2511622606
  0
LWPOLYLINE
  5
25E
100
AcDbEntity
  8
ASSI
100
AcDbPolyline
 62
7
  6
CONTINUOUS
 90
3
 70
0
 10
-7.0040791153
 20
13.3266532147
 10
-7.0802132168
 20
13.2892777864
 10
-7.1558651802
 20
13.2511622606
  0
LINE
  5
25F
100
AcDbEntity
  8
RACCORDO
100
AcDbLine
 62
7
  6
CONTINUOUS
 10
-6.6839755033
 20
13.8180344682
 11
-6.7369261757
 21
13.7924922775
  0
LINE
  5
260
100
AcDbEntity
  8
ASSI
100
AcDbLine
 62
7
  6
CONTINUOUS
 10
-6.6839755033
 20
13.8180344682
 11
-6.7369261757
 21
13.7924922775
  0
LWPOLYLINE
  5
261
100
AcDbEntity
  8
RACCORDO
100
AcDbPolyline
 62
250
  6
CONTINUOUS
 90
3
 70
0
 10
-6.745514306
 20
13.7835077711
 10
-6.6965543955
 20
13.8061881923
 10
-6.6457292347
 20
13.8276019891
  0
LWPOLYLINE
  5
262
100
AcDbEntity
  8
ASSI
100
AcDbPolyline
 62
250
  6
CONTINUOUS
 90
3
 70
0
 10
-6.745514306
 20
13.7835077711
 10
-6.6965543955
 20
13.8061881923
 10
-6.6457292347
 20
13.8276019891
  0
LWPOLYLINE
  5
263
100
AcDbEntity
  8
RACCORDO
100
AcDbPolyline
 62
7
  6
CONTINUOUS
 90
5
 70
0
 10
-6.6948775252
 20
13.4686755389
 10
-6.772878647
 20
13.434291391
 10
-6.8504118304
 20
13.399160017
 10
-6.9274770754
 20
13.3632814169
 10
-7.0040791153
 20
13.3266532147
  0
LWPOLYLINE
  5
264
100
AcDbEntity
  8
ASSI
100
AcDbPolyline
 62
7
  6
CONTINUOUS
 90
5
 70
0
 10
-6.6948775252
 20
13.4686755389
 10
-6.772878647
 20
13.434291391
 10
-6.8504118304
 20
13.399160017
 10
-6.9274770754
 20
13.3632814169
 10
-7.0040791153
 20
13.3266532147
  0
LINE
  5
265
100
AcDbEntity
  8
RACCORDO
100
AcDbLine
 62
7
  6
CONTINUOUS
 10
-6.6289655303
 20
13.8421789693
 11
-6.6839755033
 21
13.8180344682
  0
LINE
  5
266
100
AcDbEntity
  8
ASSI
100
AcDbLine
 62
7
  6
CONTINUOUS
 10
-6.6289655303
 20
13.8421789693
 11
-6.6839755033
 21
13.8180344682
  0
LINE
  5
267
100
AcDbEntity
  8
RACCORDO
100
AcDbLine
 62
7
  6
CONTINUOUS
 10
-6.5718541531
 20
13.8649598719
 11
-6.6289655303
 21
13.8421789693
  0
LINE
  5
268
100
AcDbEntity
  8
ASSI
100
AcDbLine
 62
7
  6
CONTINUOUS
 10
-6.5718541531
 20
13.8649598719
 11
-6.6289655303
 21
13.8421789693
  0
LWPOLYLINE
  5
269
100
AcDbEntity
  8
0
100
AcDbPolyline
 62
7
  6
CONTINUOUS
 90
6
 70
0
 10
-6.4046640877
 20
13.5884244426
 10
-6.3871875759
 20
13.5952351457
 10
-6.3696905299
 20
13.6020092917
 10
-6.3521729497
 20
13.6087468808
 10
-6.3346348353
 20
13.6154479128
 10
-6.3170761867
 20
13.6221123878
  0
LWPOLYLINE
  5
26A
100
AcDbEntity
  8
ASSI
100
AcDbPolyline
 62
7
  6
CONTINUOUS
 90
6
 70
0
 10
-6.4046640877
 20
13.5884244426
 10
-6.3871875759
 20
13.5952351457
 10
-6.3696905299
 20
13.6020092917
 10
-6.3521729497
 20
13.6087468808
 10
-6.3346348353
 20
13.6154479128
 10
-6.3170761867
 20
13.6221123878
  0
LINE
  5
26B
100
AcDbEntity
  8
RACCORDO
100
AcDbLine
 62
250
  6
CONTINUOUS
 10
-6.6457292347
 20
13.8276019891
 11
-6.5930764775
 21
13.8477625305
  0
LINE
  5
26C
100
AcDbEntity
  8
ASSI
100
AcDbLine
 62
250
  6
CONTINUOUS
 10
-6.6457292347
 20
13.8276019891
 11
-6.5930764775
 21
13.8477625305
  0
LINE
  5
26D
100
AcDbEntity
  8
0
100
AcDbLine
 62
7
  6
CONTINUOUS
 10
-6.3170761867
 20
13.6221123878
 11
-6.299497004
 21
13.6287403058
  0
LINE
  5
26E
100
AcDbEntity
  8
ASSI
100
AcDbLine
 62
7
  6
CONTINUOUS
 10
-6.3170761867
 20
13.6221123878
 11
-6.299497004
 21
13.6287403058
  0
LINE
  5
26F
100
AcDbEntity
  8
RACCORDO
100
AcDbLine
 62
7
  6
CONTINUOUS
 10
-6.512618032
 20
13.8863971372
 11
-6.5718541531
 21
13.8649598719
  0
LINE
  5
270
100
AcDbEntity
  8
ASSI
100
AcDbLine
 62
7
  6
CONTINUOUS
 10
-6.512618032
 20
13.8863971372
 11
-6.5718541531
 21
13.8649598719
  0
LWPOLYLINE
  5
271
100
AcDbEntity
  8
ASSI
100
AcDbPolyline
 62
7
  6
CONTINUOUS
 90
3
 70
0
 10
-7.4802209943
 20
13.0858242465
 10
-7.4842913666
 20
13.0843809038
 10
-7.4920610799
 20
13.0817746498
  0
LWPOLYLINE
  5
272
100
AcDbEntity
  8
RACCORDO
100
AcDbPolyline
 62
7
  6
CONTINUOUS
 90
3
 70
0
 10
-7.4802211402
 20
13.0858241938
 10
-7.4842913666
 20
13.0843809038
 10
-7.4920610799
 20
13.0817746498
  0
LINE
  5
273
100
AcDbEntity
  8
RACCORDO
100
AcDbLine
 62
250
  6
CONTINUOUS
 10
-6.5930764775
 20
13.8477625305
 11
-6.5386333984
 21
13.8666837129
  0
LINE
  5
274
100
AcDbEntity
  8
ASSI
100
AcDbLine
 62
250
  6
CONTINUOUS
 10
-6.5930764775
 20
13.8477625305
 11
-6.5386333984
 21
13.8666837129
  0
LINE
  5
275
100
AcDbEntity
  8
RACCORDO
100
AcDbLine
 62
7
  6
CONTINUOUS
 10
-6.4749844131
 20
13.8989656622
 11
-6.512618032
 21
13.8863971372
  0
LINE
  5
276
100
AcDbEntity
  8
ASSI
100
AcDbLine
 62
7
  6
CONTINUOUS
 10
-6.4749844131
 20
13.8989656622
 11
-6.512618032
 21
13.8863971372
  0
LINE
  5
277
100
AcDbEntity
  8
0
100
AcDbLine
 62
7
  6
CONTINUOUS
 10
-6.2755231442
 20
13.6366648107
 11
-6.299497004
 21
13.6287403058
  0
LINE
  5
278
100
AcDbEntity
  8
ASSI
100
AcDbLine
 62
7
  6
CONTINUOUS
 10
-6.2755231442
 20
13.6366648107
 11
-6.299497004
 21
13.6287403058
  0
LINE
  5
279
100
AcDbEntity
  8
RACCORDO
100
AcDbLine
 62
7
  6
CONTINUOUS
 10
-6.4750397121
 20
13.8989011222
 11
-6.4750130591
 21
13.8989097576
  0
LINE
  5
27A
100
AcDbEntity
  8
ASSI
100
AcDbLine
 62
7
  6
CONTINUOUS
 10
-6.4750397121
 20
13.8989011222
 11
-6.4750130591
 21
13.8989097576
  0
LWPOLYLINE
  5
27B
100
AcDbEntity
  8
RACCORDO
100
AcDbPolyline
 62
250
  6
CONTINUOUS
 90
12
 70
0
 10
-13.2065132476
 20
-7.7981436823
 10
-13.2064930396
 20
-7.8015723505
 10
-13.2038672474
 20
-7.8216758136
 10
-13.1969841844
 20
-7.8415796632
 10
-13.1859176018
 20
-7.8610706325
 10
-13.1707860765
 20
-7.8799398783
 10
-13.1517517406
 20
-7.8979852194
 10
-13.1290185443
 20
-7.9150133024
 10
-13.1028300708
 20
-7.9308416739
 10
-13.0734669258
 20
-7.9453007351
 10
-13.0412437314
 20
-7.9582355591
 10
-13.0065057545
 20
-7.9695075513
  0
LWPOLYLINE
  5
27C
100
AcDbEntity
  8
RACCORDO
100
AcDbPolyline
 62
7
  6
CONTINUOUS
 90
18
 70
0
 10
-13.2065074566
 20
-7.7979967947
 10
-13.2065586015
 20
-7.8161128679
 10
-13.2045329832
 20
-7.8707339012
 10
-13.1991430375
 20
-7.9238355928
 10
-13.1901243023
 20
-7.9761455003
 10
-13.1772872095
 20
-8.0271168877
 10
-13.1610121345
 20
-8.07499656
 10
-13.1416946538
 20
-8.1192964584
 10
-13.1193023537
 20
-8.1605875433
 10
-13.0941202686
 20
-8.1986504567
 10
-13.0666249511
 20
-8.2331738854
 10
-13.036987785
 20
-8.2643216878
 10
-13.0051266281
 20
-8.2923755697
 10
-12.9712795108
 20
-8.317214816
 10
-12.935797624
 20
-8.3386864244
 10
-12.8987106705
 20
-8.356845644
 10
-12.8602275596
 20
-8.3716069035
 10
-12.8419901841
 20
-8.3772686308
  0
LWPOLYLINE
  5
27D
100
AcDbEntity
  8
RACCORDO
100
AcDbPolyline
 62
250
  6
CONTINUOUS
 90
13
 70
0
 10
-13.0065057672
 20
-7.9695075618
 10
-12.9836727053
 20
-6.482144547
 10
-12.9515309857
 20
-4.9868962976
 10
-12.9100845579
 20
-3.4839543048
 10
-12.8593385448
 20
-1.9735110666
 10
-12.799299407
 20
-0.4557599657
 10
-12.7299749411
 20
1.0691047571
 10
-12.6513741155
 20
2.6008878943
 10
-12.5635069012
 20
4.1393932995
 10
-12.4663844337
 20
5.6844240114
 10
-12.3600191829
 20
7.2357822427
 10
-12.2444249524
 20
8.7932694043
 10
-12.119616708
 20
10.356686134
  0
LWPOLYLINE
  5
27E
100
AcDbEntity
  8
RACCORDO
100
AcDbPolyline
 62
7
  6
CONTINUOUS
 90
13
 70
0
 10
-12.3206610793
 20
10.5072125743
 10
-12.4425894356
 20
8.9810238882
 10
-12.5587720314
 20
7.4179640316
 10
-12.6656540458
 20
5.8610336143
 10
-12.7632186401
 20
4.3104572195
 10
-12.8514536874
 20
2.7664316108
 10
-12.9303483354
 20
1.2291427812
 10
-12.999891683
 20
-0.3012159535
 10
-13.0600747328
 20
-1.8244526128
 10
-13.1108891882
 20
-3.3403830832
 10
-13.1523270256
 20
-4.8488138723
 10
-13.1843824908
 20
-6.3495288378
 10
-13.2065132476
 20
-7.7981436823
  0
LWPOLYLINE
  5
27F
100
AcDbEntity
  8
RACCORDO
100
AcDbPolyline
 62
250
  6
CONTINUOUS
 90
22
 70
0
 10
-12.119616708
 20
10.356686134
 10
-12.1146332004
 20
10.406154801
 10
-12.1078471071
 20
10.4564843592
 10
-12.0992929052
 20
10.5074230711
 10
-12.0890150681
 20
10.5587148277
 10
-12.0770648496
 20
10.6101046551
 10
-12.0634994982
 20
10.6613399863
 10
-12.0483864602
 20
10.7121691413
 10
-12.0318027147
 20
10.7623336005
 10
-12.0138318
 20
10.8115739226
 10
-11.9945678499
 20
10.859638836
 10
-11.974106485
 20
10.9062947072
 10
-11.9525432161
 20
10.9513169766
 10
-11.9299846547
 20
10.9944852814
 10
-11.9065469681
 20
11.0355782881
 10
-11.882347258
 20
11.0743837146
 10
-11.8575101124
 20
11.1107058807
 10
-11.8321598263
 20
11.1443665306
 10
-11.8064181432
 20
11.17519851
 10
-11.7804132902
 20
11.2030479594
 10
-11.7542794246
 20
11.2277756714
 10
-11.7281491183
 20
11.2492582303
  0
LWPOLYLINE
  5
280
100
AcDbEntity
  8
0
100
AcDbPolyline
 62
7
  6
CONTINUOUS
 90
8
 70
0
 10
-7.4575673937
 20
12.5960342325
 10
-7.4407750439
 20
12.6131523659
 10
-7.4274449844
 20
12.632521256
 10
-7.4168758415
 20
12.6545172474
 10
-7.4095438408
 20
12.6781475215
 10
-7.405607724
 20
12.7030811386
 10
-7.4049087493
 20
12.7296490382
 10
-7.4074469167
 20
12.7578512204
  0
LWPOLYLINE
  5
281
100
AcDbEntity
  8
ASSI
100
AcDbPolyline
 62
7
  6
CONTINUOUS
 90
8
 70
0
 10
-7.4575673937
 20
12.5960342325
 10
-7.4407750439
 20
12.6131523659
 10
-7.4274449844
 20
12.632521256
 10
-7.4168758415
 20
12.6545172474
 10
-7.4095438408
 20
12.6781475215
 10
-7.405607724
 20
12.7030811386
 10
-7.4049087493
 20
12.7296490382
 10
-7.4074469167
 20
12.7578512204
  0
LWPOLYLINE
  5
282
100
AcDbEntity
  8
RACCORDO
100
AcDbPolyline
 62
250
  6
CONTINUOUS
 90
28
 70
0
 10
-4.909804415
 20
14.3799937445
 10
-4.9187786895
 20
14.3719606798
 10
-4.9272333641
 20
14.3634475041
 10
-4.9351684386
 20
14.3544542175
 10
-4.9426804886
 20
14.3449938633
 10
-4.9496729386
 20
14.3350533981
 10
-4.9558560623
 20
14.3245936923
 10
-4.9612611146
 20
14.3136016831
 10
-4.9658568405
 20
14.3020904334
 10
-4.9692597487
 20
14.290060001
 10
-4.9714904793
 20
14.2774745136
 10
-4.9725283922
 20
14.2643698437
 10
-4.9719280753
 20
14.2508536661
 10
-4.9696722572
 20
14.2368875949
 10
-4.9657782094
 20
14.222510016
 10
-4.9598523344
 20
14.2079437625
 10
-4.9518318248
 20
14.1931539223
 10
-4.9417794879
 20
14.1781754073
 10
-4.9294901486
 20
14.1633357868
 10
-4.9148696996
 20
14.1486222475
 10
-4.8980122481
 20
14.1340476028
 10
-4.8789949401
 20
14.1199778615
 10
-4.8577395591
 20
14.1064306958
 10
-4.8343243216
 20
14.0933884336
 10
-4.8090610235
 20
14.0811640679
 10
-4.7820535968
 20
14.0698619299
 10
-4.7531981094
 20
14.0593776884
 10
-4.7224945615
 20
14.0497113434
  0
LWPOLYLINE
  5
283
100
AcDbEntity
  8
ASSI
100
AcDbPolyline
 62
250
  6
CONTINUOUS
 90
28
 70
0
 10
-4.909804415
 20
14.3799937445
 10
-4.9187786895
 20
14.3719606798
 10
-4.9272333641
 20
14.3634475041
 10
-4.9351684386
 20
14.3544542175
 10
-4.9426804886
 20
14.3449938633
 10
-4.9496729386
 20
14.3350533981
 10
-4.9558560623
 20
14.3245936923
 10
-4.9612611146
 20
14.3136016831
 10
-4.9658568405
 20
14.3020904334
 10
-4.9692597487
 20
14.290060001
 10
-4.9714904793
 20
14.2774745136
 10
-4.9725283922
 20
14.2643698437
 10
-4.9719280753
 20
14.2508536661
 10
-4.9696722572
 20
14.2368875949
 10
-4.9657782094
 20
14.222510016
 10
-4.9598523344
 20
14.2079437625
 10
-4.9518318248
 20
14.1931539223
 10
-4.9417794879
 20
14.1781754073
 10
-4.9294901486
 20
14.1633357868
 10
-4.9148696996
 20
14.1486222475
 10
-4.8980122481
 20
14.1340476028
 10
-4.8789949401
 20
14.1199778615
 10
-4.8577395591
 20
14.1064306958
 10
-4.8343243216
 20
14.0933884336
 10
-4.8090610235
 20
14.0811640679
 10
-4.7820535968
 20
14.0698619299
 10
-4.7531981094
 20
14.0593776884
 10
-4.7224945615
 20
14.0497113434
  0
LINE
  5
284
100
AcDbEntity
  8
0
100
AcDbLine
 62
7
  6
CONTINUOUS
 10
-6.8698296994
 20
12.3082454545
 11
-6.9066994753
 21
12.2755875718
  0
LWPOLYLINE
  5
285
100
AcDbEntity
  8
RACCORDO
100
AcDbPolyline
 62
250
  6
CONTINUOUS
 90
4
 70
0
 10
-4.6933310391
 20
14.1010298876
 10
-4.6977401431
 20
14.0971554542
 10
-4.7019819048
 20
14.0930473475
 10
-4.7052036833
 20
14.089574573
  0
LWPOLYLINE
  5
286
100
AcDbEntity
  8
ASSI
100
AcDbPolyline
 62
250
  6
CONTINUOUS
 90
4
 70
0
 10
-4.6933310391
 20
14.1010298876
 10
-4.6977401431
 20
14.0971554542
 10
-4.7019819048
 20
14.0930473475
 10
-4.7052036833
 20
14.089574573
  0
LINE
  5
287
100
AcDbEntity
  8
0
100
AcDbLine
 62
7
  6
CONTINUOUS
 10
-5.9500007455
 20
13.6001938884
 11
-6.4591283894
 21
13.156820953
  0
LINE
  5
288
100
AcDbEntity
  8
ASSI
100
AcDbLine
 62
7
  6
CONTINUOUS
 10
-5.9500007455
 20
13.6001938884
 11
-6.4591283894
 21
13.156820953
  0
LINE
  5
289
100
AcDbEntity
  8
RACCORDO
100
AcDbLine
 62
250
  6
CONTINUOUS
 10
-4.909804415
 20
14.3799937445
 11
-2.7720859538
 21
16.2416221998
  0
LINE
  5
28A
100
AcDbEntity
  8
ASSI
100
AcDbLine
 62
250
  6
CONTINUOUS
 10
-4.909804415
 20
14.3799937445
 11
-2.7720859538
 21
16.2416221998
  0
LINE
  5
28B
100
AcDbEntity
  8
RACCORDO
100
AcDbLine
 62
250
  6
CONTINUOUS
 10
-4.6933310391
 20
14.1010298876
 11
-2.5556125778
 21
15.9626583429
  0
LINE
  5
28C
100
AcDbEntity
  8
ASSI
100
AcDbLine
 62
250
  6
CONTINUOUS
 10
-4.6933310391
 20
14.1010298876
 11
-2.5556125778
 21
15.9626583429
  0
LINE
  5
28D
100
AcDbEntity
  8
RACCORDO
100
AcDbLine
 62
250
  6
CONTINUOUS
 10
-3.7797894035
 20
13.8187916411
 11
-2.5556125778
 21
14.88486393
  0
LINE
  5
28E
100
AcDbEntity
  8
ASSI
100
AcDbLine
 62
250
  6
CONTINUOUS
 10
-3.7797894035
 20
13.8187916411
 11
-2.5556125778
 21
14.88486393
  0
LINE
  5
28F
100
AcDbEntity
  8
0
100
AcDbLine
 62
7
  6
CONTINUOUS
 10
-6.4046640877
 20
13.5884244426
 11
-6.6248951536
 21
13.4058081936
  0
LINE
  5
290
100
AcDbEntity
  8
ASSI
100
AcDbLine
 62
7
  6
CONTINUOUS
 10
-6.4046640877
 20
13.5884244426
 11
-6.6248951536
 21
13.4058081936
  0
LINE
  5
291
100
AcDbEntity
  8
0
100
AcDbLine
 62
7
  6
CONTINUOUS
 10
-6.6248951536
 20
13.4058081936
 11
-6.9580608004
 21
13.1297799656
  0
LINE
  5
292
100
AcDbEntity
  8
ASSI
100
AcDbLine
 62
7
  6
CONTINUOUS
 10
-6.6248951536
 20
13.4058081936
 11
-6.9580608004
 21
13.1297799656
  0
LINE
  5
293
100
AcDbEntity
  8
0
100
AcDbLine
 62
7
  6
CONTINUOUS
 10
-6.9580608004
 20
13.1297799656
 11
-7.1864684509
 21
12.940691468
  0
LINE
  5
294
100
AcDbEntity
  8
ASSI
100
AcDbLine
 62
7
  6
CONTINUOUS
 10
-6.9580608004
 20
13.1297799656
 11
-7.1864684509
 21
12.940691468
  0
LINE
  5
295
100
AcDbEntity
  8
0
100
AcDbLine
 62
7
  6
CONTINUOUS
 10
-7.1864684509
 20
12.940691468
 11
-7.4074469167
 21
12.7578512204
  0
LINE
  5
296
100
AcDbEntity
  8
ASSI
100
AcDbLine
 62
7
  6
CONTINUOUS
 10
-7.1864684509
 20
12.940691468
 11
-7.4074469167
 21
12.7578512204
  0
LINE
  5
297
100
AcDbEntity
  8
0
100
AcDbLine
 62
250
  6
CONTINUOUS
 10
-7.3083372325
 20
12.7956869928
 11
-6.2994970043
 21
13.6287403057
  0
LINE
  5
298
100
AcDbEntity
  8
ASSI
100
AcDbLine
 62
250
  6
CONTINUOUS
 10
-7.3083372325
 20
12.7956869928
 11
-6.2994970043
 21
13.6287403057
  0
LINE
  5
299
100
AcDbEntity
  8
0
100
AcDbLine
 62
250
  6
CONTINUOUS
 10
-7.0690175249
 20
12.7987587287
 11
-6.0598955045
 21
13.6319177727
  0
LINE
  5
29A
100
AcDbEntity
  8
ASSI
100
AcDbLine
 62
250
  6
CONTINUOUS
 10
-7.0690175249
 20
12.7987587287
 11
-6.0598955045
 21
13.6319177727
  0
LINE
  5
29B
100
AcDbEntity
  8
0
100
AcDbLine
 62
7
  6
CONTINUOUS
 10
-7.3803819217
 20
12.909082843
 11
-7.7265061466
 21
12.626199863
  0
LINE
  5
29C
100
AcDbEntity
  8
ASSI
100
AcDbLine
 62
7
  6
CONTINUOUS
 10
-7.3803819217
 20
12.909082843
 11
-7.7265061466
 21
12.626199863
  0
LINE
  5
29D
100
AcDbEntity
  8
0
100
AcDbLine
 62
7
  6
CONTINUOUS
 10
-7.036510677
 20
13.1899094714
 11
-7.3803819217
 21
12.909082843
  0
LINE
  5
29E
100
AcDbEntity
  8
ASSI
100
AcDbLine
 62
7
  6
CONTINUOUS
 10
-7.036510677
 20
13.1899094714
 11
-7.3803819217
 21
12.909082843
  0
LINE
  5
29F
100
AcDbEntity
  8
0
100
AcDbLine
 62
7
  6
CONTINUOUS
 10
-6.6948775252
 20
13.4686755389
 11
-7.036510677
 21
13.1899094714
  0
LINE
  5
2A0
100
AcDbEntity
  8
ASSI
100
AcDbLine
 62
7
  6
CONTINUOUS
 10
-6.6948775252
 20
13.4686755389
 11
-7.036510677
 21
13.1899094714
  0
LINE
  5
2A1
100
AcDbEntity
  8
0
100
AcDbLine
 62
7
  6
CONTINUOUS
 10
-6.2438966334
 20
13.2281280931
 11
-6.3664480663
 21
13.1300664483
  0
LINE
  5
2A2
100
AcDbEntity
  8
RACCORDO
100
AcDbLine
 62
250
  6
CONTINUOUS
 10
-4.7010627131
 20
14.0644066344
 11
-4.722494561
 21
14.0497113433
  0
LINE
  5
2A3
100
AcDbEntity
  8
ASSI
100
AcDbLine
 62
250
  6
CONTINUOUS
 10
-4.7010627131
 20
14.0644066344
 11
-4.722494561
 21
14.0497113433
  0
LINE
  5
2A4
100
AcDbEntity
  8
0
100
AcDbLine
 62
7
  6
CONTINUOUS
 10
-5.2381095907
 20
13.4825110584
 11
-5.4200969349
 21
13.3764205968
  0
LINE
  5
2A5
100
AcDbEntity
  8
ASSI
100
AcDbLine
 62
7
  6
CONTINUOUS
 10
-5.2381095907
 20
13.4825110584
 11
-5.4200969349
 21
13.3764205968
  0
LINE
  5
2A6
100
AcDbEntity
  8
RACCORDO
100
AcDbLine
 62
7
  6
CONTINUOUS
 10
1.5682801404
 20
14.9472641372
 11
1.5996419277
 21
14.9631262552
  0
LINE
  5
2A7
100
AcDbEntity
  8
ASSI
100
AcDbLine
 62
7
  6
CONTINUOUS
 10
1.5682801404
 20
14.9472641372
 11
1.5996419277
 21
14.9631262552
  0
LINE
  5
2A8
100
AcDbEntity
  8
0
100
AcDbLine
 62
7
  6
CONTINUOUS
 10
-7.8785976225
 20
12.5561504003
 11
-7.7265061466
 21
12.626199863
  0
LINE
  5
2A9
100
AcDbEntity
  8
ASSI
100
AcDbLine
 62
7
  6
CONTINUOUS
 10
-7.8785976225
 20
12.5561504003
 11
-7.7265061466
 21
12.626199863
  0
LWPOLYLINE
  5
2AA
100
AcDbEntity
  8
0
100
AcDbPolyline
 62
7
  6
CONTINUOUS
 90
6
 70
0
 10
-7.4074469167
 20
12.7578512204
 10
-7.3909739624
 20
12.7642380608
 10
-7.3744828775
 20
12.7705925498
 10
-7.3579736621
 20
12.7769146875
 10
-7.3414463162
 20
12.7832044738
 10
-7.3249008398
 20
12.7894619089
  0
LWPOLYLINE
  5
2AB
100
AcDbEntity
  8
ASSI
100
AcDbPolyline
 62
7
  6
CONTINUOUS
 90
6
 70
0
 10
-7.4074469167
 20
12.7578512204
 10
-7.3909739624
 20
12.7642380608
 10
-7.3744828775
 20
12.7705925498
 10
-7.3579736621
 20
12.7769146875
 10
-7.3414463162
 20
12.7832044738
 10
-7.3249008398
 20
12.7894619089
  0
LINE
  5
2AC
100
AcDbEntity
  8
0
100
AcDbLine
 62
7
  6
CONTINUOUS
 10
-7.3249008398
 20
12.7894619089
 11
-7.3083372329
 21
12.7956869927
  0
LINE
  5
2AD
100
AcDbEntity
  8
ASSI
100
AcDbLine
 62
7
  6
CONTINUOUS
 10
-7.3249008398
 20
12.7894619089
 11
-7.3083372329
 21
12.7956869927
  0
LINE
  5
2AE
100
AcDbEntity
  8
RACCORDO
100
AcDbLine
 62
7
  6
CONTINUOUS
 10
1.5996419277
 20
14.9631262552
 11
1.6334396464
 21
14.9745711423
  0
LINE
  5
2AF
100
AcDbEntity
  8
ASSI
100
AcDbLine
 62
7
  6
CONTINUOUS
 10
1.5996419277
 20
14.9631262552
 11
1.6334396464
 21
14.9745711423
  0
LWPOLYLINE
  5
2B0
100
AcDbEntity
  8
0
100
AcDbPolyline
 62
7
  6
CONTINUOUS
 90
4
 70
0
 10
-7.3083372329
 20
12.7956869927
 10
-7.2843859663
 20
12.8035798699
 10
-7.2596374939
 20
12.8095863952
 10
-7.2340918157
 20
12.8137065683
  0
LWPOLYLINE
  5
2B1
100
AcDbEntity
  8
ASSI
100
AcDbPolyline
 62
7
  6
CONTINUOUS
 90
4
 70
0
 10
-7.3083372329
 20
12.7956869927
 10
-7.2843859663
 20
12.8035798699
 10
-7.2596374939
 20
12.8095863952
 10
-7.2340918157
 20
12.8137065683
  0
LWPOLYLINE
  5
2B2
100
AcDbEntity
  8
RACCORDO
100
AcDbPolyline
 62
250
  6
CONTINUOUS
 90
15
 70
0
 10
-12.8459669441
 20
-8.3760729007
 10
-12.8669964639
 20
-8.3673937328
 10
-12.8868740013
 20
-8.355155797
 10
-12.9054971328
 20
-8.3394238967
 10
-12.922773898
 20
-8.3202770408
 10
-12.9386240877
 20
-8.2978063716
 10
-12.9529685809
 20
-8.2721205041
 10
-12.9657318685
 20
-8.2433497837
 10
-12.9768503397
 20
-8.2116411875
 10
-12.9862674304
 20
-8.1771562471
 10
-12.9939358777
 20
-8.1400660704
 10
-12.9998192529
 20
-8.1005534152
 10
-13.0038881845
 20
-8.0588147636
 10
-13.0061208974
 20
-8.0150598769
 10
-13.0065057672
 20
-7.9695075618
  0
LINE
  5
2B3
100
AcDbEntity
  8
0
100
AcDbLine
 62
7
  6
CONTINUOUS
 10
-10.5967792674
 20
12.5245471466
 11
-10.5967792674
 21
12.2872670988
  0
LWPOLYLINE
  5
2B4
100
AcDbEntity
  8
RACCORDO
100
AcDbPolyline
 62
250
  6
CONTINUOUS
 90
12
 70
0
 10
-12.3206712937
 20
10.5070550518
 10
-12.3207954068
 20
10.4999446749
 10
-12.3179630257
 20
10.4841020744
 10
-12.3108881967
 20
10.4681542208
 10
-12.2996467247
 20
10.4522719909
 10
-12.2843590587
 20
10.4366255582
 10
-12.2651890018
 20
10.42138257
 10
-12.2423419559
 20
10.4067063505
 10
-12.2160627206
 20
10.3927541516
 10
-12.1866328706
 20
10.379675467
 10
-12.1543677385
 20
10.3676104313
 10
-12.119613036
 20
10.3566883179
  0
LINE
  5
2B5
100
AcDbEntity
  8
0
100
AcDbLine
 62
7
  6
CONTINUOUS
 10
-4.0161515891
 20
11.4844595419
 11
-4.0488156428
 21
11.4505875718
  0
LINE
  5
2B6
100
AcDbEntity
  8
DRAFT
100
AcDbLine
 62
7
  6
CONTINUOUS
 10
-5.8386517154
 20
11.1064845604
 11
-5.9009374478
 21
11.0465081686
  0
LINE
  5
2B7
100
AcDbEntity
  8
0
100
AcDbLine
 62
7
  6
CONTINUOUS
 10
-3.4616184847
 20
12.424953574
 11
-3.5609870049
 21
12.3315110711
  0
LINE
  5
2B8
100
AcDbEntity
  8
DRAFT
100
AcDbLine
 62
7
  6
CONTINUOUS
 10
-2.2732598654
 20
13.3838940239
 11
-1.6509508879
 21
13.9482438782
  0
LINE
  5
2B9
100
AcDbEntity
  8
ASSI
100
AcDbLine
 62
7
  6
CONTINUOUS
 10
-2.2732598654
 20
13.3838940239
 11
-1.6509508879
 21
13.9482438782
  0
LWPOLYLINE
  5
2BA
100
AcDbEntity
  8
0
100
AcDbPolyline
 62
7
  6
CONTINUOUS
 90
10
 70
0
 10
-2.2606375929
 20
12.1886207297
 10
-2.3667906793
 20
12.0937660264
 10
-2.4733056105
 20
11.9987192578
 10
-2.5801829715
 20
11.9034784712
 10
-2.6874261173
 20
11.8080406273
 10
-2.7950326447
 20
11.7124047748
 10
-2.9029945507
 20
11.6165724411
 10
-3.0113095432
 20
11.5205432151
 10
-3.1199808842
 20
11.4243143604
 10
-3.2290089715
 20
11.3278842607
  0
LWPOLYLINE
  5
2BB
100
AcDbEntity
  8
ASSI
100
AcDbPolyline
 62
7
  6
CONTINUOUS
 90
10
 70
0
 10
-2.2606375929
 20
12.1886207297
 10
-2.3667906793
 20
12.0937660264
 10
-2.4733056105
 20
11.9987192578
 10
-2.5801829715
 20
11.9034784712
 10
-2.6874261173
 20
11.8080406273
 10
-2.7950326447
 20
11.7124047748
 10
-2.9029945507
 20
11.6165724411
 10
-3.0113095432
 20
11.5205432151
 10
-3.1199808842
 20
11.4243143604
 10
-3.2290089715
 20
11.3278842607
  0
LINE
  5
2BC
100
AcDbEntity
  8
RACCORDO
100
AcDbLine
 62
250
  6
CONTINUOUS
 10
-3.3766243468
 20
13.7024079141
 11
-2.3391392018
 21
14.6059000731
  0
LINE
  5
2BD
100
AcDbEntity
  8
ASSI
100
AcDbLine
 62
250
  6
CONTINUOUS
 10
-3.3766243468
 20
13.7024079141
 11
-2.3391392018
 21
14.6059000731
  0
LINE
  5
2BE
100
AcDbEntity
  8
RACCORDO
100
AcDbLine
 62
7
  6
CONTINUOUS
 10
-3.1106963538
 20
13.6256411149
 11
-2.0732112088
 21
14.5291332739
  0
LINE
  5
2BF
100
AcDbEntity
  8
ASSI
100
AcDbLine
 62
7
  6
CONTINUOUS
 10
-3.1106963538
 20
13.6256411149
 11
-2.0732112088
 21
14.5291332739
  0
LINE
  5
2C0
100
AcDbEntity
  8
SMUSSO
100
AcDbLine
 62
7
  6
CONTINUOUS
 10
-2.5460136603
 20
13.4626312624
 11
-1.6509508879
 21
14.2420951425
  0
LINE
  5
2C1
100
AcDbEntity
  8
ASSI
100
AcDbLine
 62
7
  6
CONTINUOUS
 10
-2.5460136603
 20
13.4626312624
 11
-1.6509508879
 21
14.2420951425
  0
LINE
  5
2C2
100
AcDbEntity
  8
0
100
AcDbLine
 62
250
  6
CONTINUOUS
 10
-2.8956196136
 20
12.7184700041
 11
-3.8864975933
 21
11.8800443591
  0
LINE
  5
2C3
100
AcDbEntity
  8
ASSI
100
AcDbLine
 62
250
  6
CONTINUOUS
 10
-2.8956196136
 20
12.7184700041
 11
-3.8864975933
 21
11.8800443591
  0
LINE
  5
2C4
100
AcDbEntity
  8
0
100
AcDbLine
 62
250
  6
CONTINUOUS
 10
-2.6560181138
 20
12.5769585466
 11
-3.6471778856
 21
11.7388013255
  0
LINE
  5
2C5
100
AcDbEntity
  8
ASSI
100
AcDbLine
 62
250
  6
CONTINUOUS
 10
-2.6560181138
 20
12.5769585466
 11
-3.6471778856
 21
11.7388013255
  0
LWPOLYLINE
  5
2C6
100
AcDbEntity
  8
0
100
AcDbPolyline
 62
7
  6
CONTINUOUS
 90
5
 70
0
 10
-3.1024800664
 20
12.0167696782
 10
-3.2135181943
 20
11.9239827236
 10
-3.3247940561
 20
11.8308846808
 10
-3.4363102277
 20
11.737472134
 10
-3.5480682014
 20
11.6437445503
  0
LWPOLYLINE
  5
2C7
100
AcDbEntity
  8
ASSI
100
AcDbPolyline
 62
7
  6
CONTINUOUS
 90
5
 70
0
 10
-3.1024800664
 20
12.0167696782
 10
-3.2135181943
 20
11.9239827236
 10
-3.3247940561
 20
11.8308846808
 10
-3.4363102277
 20
11.737472134
 10
-3.5480682014
 20
11.6437445503
  0
LWPOLYLINE
  5
2C8
100
AcDbEntity
  8
0
100
AcDbPolyline
 62
7
  6
CONTINUOUS
 90
4
 70
0
 10
-2.7707940633
 20
12.2932250426
 10
-2.8811176326
 20
12.201395912
 10
-2.9916793563
 20
12.1092433734
 10
-3.1024800664
 20
12.0167696782
  0
LWPOLYLINE
  5
2C9
100
AcDbEntity
  8
ASSI
100
AcDbPolyline
 62
7
  6
CONTINUOUS
 90
4
 70
0
 10
-2.7707940633
 20
12.2932250426
 10
-2.8811176326
 20
12.201395912
 10
-2.9916793563
 20
12.1092433734
 10
-3.1024800664
 20
12.0167696782
  0
LINE
  5
2CA
100
AcDbEntity
  8
0
100
AcDbLine
 62
7
  6
CONTINUOUS
 10
-2.6607057944
 20
12.3847343004
 11
-2.7707940633
 21
12.2932250426
  0
LINE
  5
2CB
100
AcDbEntity
  8
ASSI
100
AcDbLine
 62
7
  6
CONTINUOUS
 10
-2.6607057944
 20
12.3847343004
 11
-2.7707940633
 21
12.2932250426
  0
LINE
  5
2CC
100
AcDbEntity
  8
0
100
AcDbLine
 62
7
  6
CONTINUOUS
 10
-2.5508510304
 20
12.4759244396
 11
-2.6607057944
 21
12.3847343004
  0
LINE
  5
2CD
100
AcDbEntity
  8
ASSI
100
AcDbLine
 62
7
  6
CONTINUOUS
 10
-2.5508510304
 20
12.4759244396
 11
-2.6607057944
 21
12.3847343004
  0
LINE
  5
2CE
100
AcDbEntity
  8
0
100
AcDbLine
 62
7
  6
CONTINUOUS
 10
-3.0055143726
 20
12.7501938884
 11
-3.5463867288
 21
12.3159848621
  0
LINE
  5
2CF
100
AcDbEntity
  8
ASSI
100
AcDbLine
 62
7
  6
CONTINUOUS
 10
-3.0055143726
 20
12.7501938884
 11
-3.5463867288
 21
12.3159848621
  0
LINE
  5
2D0
100
AcDbEntity
  8
RACCORDO
100
AcDbLine
 62
7
  6
CONTINUOUS
 10
1.5400035462
 20
14.9276087039
 11
-0.7310041958
 21
13.1044575496
  0
LINE
  5
2D1
100
AcDbEntity
  8
ASSI
100
AcDbLine
 62
7
  6
CONTINUOUS
 10
1.5400035462
 20
14.9276087039
 11
-0.7310041958
 21
13.1044575496
  0
LINE
  5
2D2
100
AcDbEntity
  8
RACCORDO
100
AcDbLine
 62
250
  6
CONTINUOUS
 10
1.6986907509
 20
14.9510201328
 11
-0.5723169911
 21
13.1278689786
  0
LINE
  5
2D3
100
AcDbEntity
  8
ASSI
100
AcDbLine
 62
250
  6
CONTINUOUS
 10
1.6986907509
 20
14.9510201328
 11
-0.5723169911
 21
13.1278689786
  0
LINE
  5
2D4
100
AcDbEntity
  8
RACCORDO
100
AcDbLine
 62
250
  6
CONTINUOUS
 10
-0.5918791445
 20
13.113467838
 11
-0.5723169911
 21
13.1278689786
  0
LINE
  5
2D5
100
AcDbEntity
  8
ASSI
100
AcDbLine
 62
250
  6
CONTINUOUS
 10
-0.5918791445
 20
13.113467838
 11
-0.5723169911
 21
13.1278689786
  0
LWPOLYLINE
  5
2D6
100
AcDbEntity
  8
ASSI
100
AcDbPolyline
 62
7
  6
CONTINUOUS
 90
3
 70
0
 10
-0.7308246707
 20
13.1046014536
 10
-0.7358756381
 20
13.100905276
 10
-0.7529248308
 20
13.0910521556
  0
LINE
  5
2D7
100
AcDbEntity
  8
RACCORDO
100
AcDbLine
 62
7
  6
CONTINUOUS
 10
-0.7308247514
 20
13.1046013891
 11
-0.7358874162
 21
13.1008984692
  0
LINE
  5
2D8
100
AcDbEntity
  8
RACCORDO
100
AcDbLine
 62
7
  6
CONTINUOUS
 10
1.5400035596
 20
14.9276087146
 11
1.5682801404
 21
14.9472641372
  0
LINE
  5
2D9
100
AcDbEntity
  8
ASSI
100
AcDbLine
 62
7
  6
CONTINUOUS
 10
1.5400035596
 20
14.9276087146
 11
1.5682801404
 21
14.9472641372
  0
LWPOLYLINE
  5
2DA
100
AcDbEntity
  8
RACCORDO
100
AcDbPolyline
 62
250
  6
CONTINUOUS
 90
5
 70
0
 10
-1.2509006415
 20
13.0475485013
 10
-1.2294690606
 20
13.0622436501
 10
-1.2087391383
 20
13.0700135523
 10
-1.1893268581
 20
13.0706273285
 10
-1.1837446678
 20
13.0693780776
  0
LWPOLYLINE
  5
2DB
100
AcDbEntity
  8
ASSI
100
AcDbPolyline
 62
250
  6
CONTINUOUS
 90
5
 70
0
 10
-1.2509006415
 20
13.0475485013
 10
-1.2294690606
 20
13.0622436501
 10
-1.2087391383
 20
13.0700135523
 10
-1.1893268581
 20
13.0706273285
 10
-1.1837446678
 20
13.0693780776
  0
LWPOLYLINE
  5
2DC
100
AcDbEntity
  8
RACCORDO
100
AcDbPolyline
 62
250
  6
CONTINUOUS
 90
8
 70
0
 10
1.5400035033
 20
14.9276086695
 10
1.5576445447
 20
14.9396960728
 10
1.5764482614
 20
14.9488507686
 10
1.5973429242
 20
14.9555356655
 10
1.6202476219
 20
14.9594221302
 10
1.6449822301
 20
14.9601675557
 10
1.6712485854
 20
14.9574555729
 10
1.6986907509
 20
14.9510201328
  0
LWPOLYLINE
  5
2DD
100
AcDbEntity
  8
ASSI
100
AcDbPolyline
 62
250
  6
CONTINUOUS
 90
8
 70
0
 10
1.5400035033
 20
14.9276086695
 10
1.5576445447
 20
14.9396960728
 10
1.5764482614
 20
14.9488507686
 10
1.5973429242
 20
14.9555356655
 10
1.6202476219
 20
14.9594221302
 10
1.6449822301
 20
14.9601675557
 10
1.6712485854
 20
14.9574555729
 10
1.6986907509
 20
14.9510201328
  0
LWPOLYLINE
  5
2DE
100
AcDbEntity
  8
ASSI
100
AcDbPolyline
 62
250
  6
CONTINUOUS
 90
6
 70
0
 10
-0.7308246562
 20
13.1046014421
 10
-0.7105497094
 20
13.1181338132
 10
-0.6797367351
 20
13.1307759351
 10
-0.6457273692
 20
13.1366974808
 10
-0.6095545649
 20
13.135718588
 10
-0.5723169911
 20
13.1278689786
  0
LWPOLYLINE
  5
2DF
100
AcDbEntity
  8
RACCORDO
100
AcDbPolyline
 62
250
  6
CONTINUOUS
 90
6
 70
0
 10
-0.7308247369
 20
13.1046013776
 10
-0.7105497094
 20
13.1181338132
 10
-0.6797367351
 20
13.1307759351
 10
-0.6457273692
 20
13.1366974808
 10
-0.6095545649
 20
13.135718588
 10
-0.5723169911
 20
13.1278689786
  0
LINE
  5
2E0
100
AcDbEntity
  8
RACCORDO
100
AcDbLine
 62
7
  6
CONTINUOUS
 10
-0.7358874162
 20
13.1008984692
 11
-0.7529799821
 21
13.0910241959
  0
LINE
  5
2E1
100
AcDbEntity
  8
0
100
AcDbLine
 62
7
  6
CONTINUOUS
 10
-2.6426577855
 20
12.7332686592
 11
-2.3903822026
 21
12.8563205299
  0
LINE
  5
2E2
100
AcDbEntity
  8
ASSI
100
AcDbLine
 62
7
  6
CONTINUOUS
 10
-2.6426577855
 20
12.7332686592
 11
-2.3903822026
 21
12.8563205299
  0
LWPOLYLINE
  5
2E3
100
AcDbEntity
  8
RACCORDO
100
AcDbPolyline
 62
7
  6
CONTINUOUS
 90
4
 70
0
 10
-1.4267045632
 20
11.3839767399
 10
-1.4390940195
 20
11.3783334303
 10
-1.4531836337
 20
11.3769625225
 10
-1.4692736297
 20
11.3797790375
  0
LWPOLYLINE
  5
2E4
100
AcDbEntity
  8
ASSI
100
AcDbPolyline
 62
7
  6
CONTINUOUS
 90
4
 70
0
 10
-1.4267045632
 20
11.3839767399
 10
-1.4390940195
 20
11.3783334303
 10
-1.4531836337
 20
11.3769625225
 10
-1.4692736297
 20
11.3797790375
  0
LWPOLYLINE
  5
2E5
100
AcDbEntity
  8
ASSI
100
AcDbPolyline
 62
7
  6
CONTINUOUS
 90
5
 70
0
 10
-0.7529248308
 20
13.0910521556
 10
-0.7804130791
 20
13.0790292851
 10
-0.8186446103
 20
13.0666562821
 10
-0.8666658459
 20
13.0558154572
 10
-0.9214542108
 20
13.0482206653
  0
LWPOLYLINE
  5
2E6
100
AcDbEntity
  8
RACCORDO
100
AcDbPolyline
 62
7
  6
CONTINUOUS
 90
5
 70
0
 10
-0.7529799821
 20
13.0910241959
 10
-0.7804823906
 20
13.0790029341
 10
-0.8187168726
 20
13.0666364516
 10
-0.866729943
 20
13.0558038199
 10
-0.9215021649
 20
13.0482159638
  0
LWPOLYLINE
  5
2E7
100
AcDbEntity
  8
DRAFT
100
AcDbPolyline
 62
7
  6
CONTINUOUS
 90
3
 70
0
 10
-5.7873424401
 20
11.1361823232
 10
-5.8129878481
 20
11.1253992225
 10
-5.8386569731
 20
11.1064903154
  0
LWPOLYLINE
  5
2E8
100
AcDbEntity
  8
RACCORDO
100
AcDbPolyline
 62
7
  6
CONTINUOUS
 90
12
 70
0
 10
5.5555695985
 20
-13.688186714
 10
5.5704627094
 20
-13.6922310195
 10
5.6102079222
 20
-13.7005190382
 10
5.6506867787
 20
-13.7053671318
 10
5.6916810773
 20
-13.7067133409
 10
5.7331486151
 20
-13.7044914297
 10
5.7748376153
 20
-13.6986199197
 10
5.8163923126
 20
-13.6890635209
 10
5.8576719055
 20
-13.675764898
 10
5.8984842932
 20
-13.6586752148
 10
5.938526741
 20
-13.6378295111
 10
5.9669007826
 20
-13.6204210066
  0
LINE
  5
2E9
100
AcDbEntity
  8
RACCORDO
100
AcDbLine
 62
7
  6
CONTINUOUS
 10
5.5557794886
 20
-13.6882546644
 11
-12.8423279277
 21
-8.3771785298
  0
LINE
  5
2EA
100
AcDbEntity
  8
RACCORDO
100
AcDbLine
 62
250
  6
CONTINUOUS
 10
5.3861232411
 20
-13.2790022164
 11
-13.0065057672
 21
-7.9695075618
  0
LINE
  5
2EB
100
AcDbEntity
  8
RACCORDO
100
AcDbLine
 62
250
  6
CONTINUOUS
 10
-12.8423283752
 20
-8.3771784006
 11
-12.8459669441
 21
-8.3760729007
  0
LINE
  5
2EC
100
AcDbEntity
  8
0
100
AcDbLine
 62
7
  6
CONTINUOUS
 10
-2.6426577855
 20
12.7332686592
 11
-2.7206416106
 21
12.6224237674
  0
LINE
  5
2ED
100
AcDbEntity
  8
ASSI
100
AcDbLine
 62
7
  6
CONTINUOUS
 10
-2.6426577855
 20
12.7332686592
 11
-2.7206416106
 21
12.6224237674
  0
LINE
  5
2EE
100
AcDbEntity
  8
RACCORDO
100
AcDbLine
 62
7
  6
CONTINUOUS
 10
-2.5437671999
 20
12.4201432053
 11
-2.3351939041
 21
12.707267153
  0
LINE
  5
2EF
100
AcDbEntity
  8
ASSI
100
AcDbLine
 62
7
  6
CONTINUOUS
 10
-2.5437671999
 20
12.4201432053
 11
-2.3351939041
 21
12.707267153
  0
LINE
  5
2F0
100
AcDbEntity
  8
DRAFT
100
AcDbLine
 62
7
  6
CONTINUOUS
 10
2.8382620089
 20
14.1462135625
 11
2.4503552327
 21
13.796312388
  0
LINE
  5
2F1
100
AcDbEntity
  8
ASSI
100
AcDbLine
 62
7
  6
CONTINUOUS
 10
2.8382620089
 20
14.1462135625
 11
2.4503552327
 21
13.796312388
  0
LINE
  5
2F2
100
AcDbEntity
  8
DRAFT
100
AcDbLine
 62
7
  6
CONTINUOUS
 10
2.4503552327
 20
13.796312388
 11
0.5124529495
 21
12.0879562264
  0
LINE
  5
2F3
100
AcDbEntity
  8
ASSI
100
AcDbLine
 62
7
  6
CONTINUOUS
 10
2.4503552327
 20
13.796312388
 11
0.5124529495
 21
12.0879562264
  0
LINE
  5
2F4
100
AcDbEntity
  8
RACCORDO
100
AcDbLine
 62
7
  6
CONTINUOUS
 10
2.5536302393
 20
14.7042203609
 11
0.0162229854
 21
12.5189011349
  0
LINE
  5
2F5
100
AcDbEntity
  8
ASSI
100
AcDbLine
 62
7
  6
CONTINUOUS
 10
2.5536302393
 20
14.7042203609
 11
0.0162229854
 21
12.5189011349
  0
LINE
  5
2F6
100
AcDbEntity
  8
RACCORDO
100
AcDbLine
 62
7
  6
CONTINUOUS
 10
-1.4267045632
 20
11.3839767399
 11
-2.0337546153
 21
10.8688895585
  0
LINE
  5
2F7
100
AcDbEntity
  8
ASSI
100
AcDbLine
 62
7
  6
CONTINUOUS
 10
-1.4267045632
 20
11.3839767399
 11
-2.0337546153
 21
10.8688895585
  0
LINE
  5
2F8
100
AcDbEntity
  8
RACCORDO
100
AcDbLine
 62
7
  6
CONTINUOUS
 10
3.6908892197
 20
14.3759219717
 11
1.0386299204
 21
12.2237576233
  0
LINE
  5
2F9
100
AcDbEntity
  8
ASSI
100
AcDbLine
 62
7
  6
CONTINUOUS
 10
3.6908892197
 20
14.3759219717
 11
1.0386299204
 21
12.2237576233
  0
LINE
  5
2FA
100
AcDbEntity
  8
0
100
AcDbLine
 62
7
  6
CONTINUOUS
 10
-2.0556082758
 20
10.058923461
 11
-2.1561813295
 21
9.9870649602
  0
LWPOLYLINE
  5
2FB
100
AcDbEntity
  8
RACCORDO
100
AcDbPolyline
 62
7
  6
CONTINUOUS
 90
3
 70
0
 10
2.3212382323
 20
10.2983346663
 10
2.3117423964
 20
10.294119982
 10
2.3045709569
 20
10.2918448157
  0
LWPOLYLINE
  5
2FC
100
AcDbEntity
  8
ASSI
100
AcDbPolyline
 62
7
  6
CONTINUOUS
 90
3
 70
0
 10
2.3212382323
 20
10.2983346663
 10
2.3117423964
 20
10.294119982
 10
2.3045709569
 20
10.2918448157
  0
LWPOLYLINE
  5
2FD
100
AcDbEntity
  8
0
100
AcDbPolyline
 62
7
  6
CONTINUOUS
 90
6
 70
0
 10
3.3381217049
 20
10.7759244426
 10
3.3555982167
 20
10.7827351457
 10
3.3730952627
 20
10.7895092917
 10
3.3906128429
 20
10.7962468808
 10
3.4081509573
 20
10.8029479128
 10
3.4257096058
 20
10.8096123878
  0
LWPOLYLINE
  5
2FE
100
AcDbEntity
  8
ASSI
100
AcDbPolyline
 62
7
  6
CONTINUOUS
 90
6
 70
0
 10
3.3381217049
 20
10.7759244426
 10
3.3555982167
 20
10.7827351457
 10
3.3730952627
 20
10.7895092917
 10
3.3906128429
 20
10.7962468808
 10
3.4081509573
 20
10.8029479128
 10
3.4257096058
 20
10.8096123878
  0
LWPOLYLINE
  5
2FF
100
AcDbEntity
  8
0
100
AcDbPolyline
 62
7
  6
CONTINUOUS
 90
6
 70
0
 10
2.3353388758
 20
9.9453512204
 10
2.3518118302
 20
9.9517380608
 10
2.3683029151
 20
9.9580925498
 10
2.3848121304
 20
9.9644146875
 10
2.4013394764
 20
9.9707044739
 10
2.4178849528
 20
9.9769619089
  0
LWPOLYLINE
  5
300
100
AcDbEntity
  8
ASSI
100
AcDbPolyline
 62
7
  6
CONTINUOUS
 90
6
 70
0
 10
2.3353388758
 20
9.9453512204
 10
2.3518118302
 20
9.9517380608
 10
2.3683029151
 20
9.9580925498
 10
2.3848121304
 20
9.9644146875
 10
2.4013394764
 20
9.9707044739
 10
2.4178849528
 20
9.9769619089
  0
LINE
  5
301
100
AcDbEntity
  8
0
100
AcDbLine
 62
7
  6
CONTINUOUS
 10
3.4257096058
 20
10.8096123878
 11
3.4432887886
 21
10.8162403058
  0
LINE
  5
302
100
AcDbEntity
  8
ASSI
100
AcDbLine
 62
7
  6
CONTINUOUS
 10
3.4257096058
 20
10.8096123878
 11
3.4432887886
 21
10.8162403058
  0
LINE
  5
303
100
AcDbEntity
  8
0
100
AcDbLine
 62
7
  6
CONTINUOUS
 10
2.4178849528
 20
9.9769619089
 11
2.4344485597
 21
9.9831869927
  0
LINE
  5
304
100
AcDbEntity
  8
ASSI
100
AcDbLine
 62
7
  6
CONTINUOUS
 10
2.4178849528
 20
9.9769619089
 11
2.4344485597
 21
9.9831869927
  0
LINE
  5
305
100
AcDbEntity
  8
0
100
AcDbLine
 62
7
  6
CONTINUOUS
 10
3.4672626484
 20
10.8241648107
 11
3.4432887886
 21
10.8162403058
  0
LINE
  5
306
100
AcDbEntity
  8
ASSI
100
AcDbLine
 62
7
  6
CONTINUOUS
 10
3.4672626484
 20
10.8241648107
 11
3.4432887886
 21
10.8162403058
  0
LWPOLYLINE
  5
307
100
AcDbEntity
  8
0
100
AcDbPolyline
 62
7
  6
CONTINUOUS
 90
4
 70
0
 10
2.4344485597
 20
9.9831869927
 10
2.4583998263
 20
9.9910798699
 10
2.4831482987
 20
9.9970863952
 10
2.5086939769
 20
10.0012065683
  0
LWPOLYLINE
  5
308
100
AcDbEntity
  8
ASSI
100
AcDbPolyline
 62
7
  6
CONTINUOUS
 90
4
 70
0
 10
2.4344485597
 20
9.9831869927
 10
2.4583998263
 20
9.9910798699
 10
2.4831482987
 20
9.9970863952
 10
2.5086939769
 20
10.0012065683
  0
LINE
  5
309
100
AcDbEntity
  8
0
100
AcDbLine
 62
7
  6
CONTINUOUS
 10
7.589477616
 20
-11.8400311469
 11
8.3616617835
 21
-12.0629415153
  0
LINE
  5
30A
100
AcDbEntity
  8
0
100
AcDbLine
 62
7
  6
CONTINUOUS
 10
8.5767740473
 20
-11.9315011086
 11
7.5987147652
 21
-11.6491597137
  0
LINE
  5
30B
100
AcDbEntity
  8
0
100
AcDbLine
 62
7
  6
CONTINUOUS
 10
8.7840499418
 20
-11.7178625781
 11
7.6117670851
 21
-11.3794536667
  0
LINE
  5
30C
100
AcDbEntity
  8
0
100
AcDbLine
 62
7
  6
CONTINUOUS
 10
-6.9802338048
 20
12.2755875718
 11
-6.9802338048
 21
12.3401163745
  0
LINE
  5
30D
100
AcDbEntity
  8
ASSI
100
AcDbLine
 62
7
  6
CONTINUOUS
 10
-6.9802338048
 20
12.2755875718
 11
-6.9802338048
 21
12.3401163745
  0
LINE
  5
30E
100
AcDbEntity
  8
DRAFT
100
AcDbLine
 62
7
  6
CONTINUOUS
 10
4.7868191675
 20
13.5837135625
 11
4.3989123912
 21
13.233812388
  0
LINE
  5
30F
100
AcDbEntity
  8
ASSI
100
AcDbLine
 62
7
  6
CONTINUOUS
 10
4.7868191675
 20
13.5837135625
 11
4.3989123912
 21
13.233812388
  0
LINE
  5
310
100
AcDbEntity
  8
DRAFT
100
AcDbLine
 62
7
  6
CONTINUOUS
 10
4.3989123912
 20
13.233812388
 11
2.461010109
 21
11.5254562273
  0
LINE
  5
311
100
AcDbEntity
  8
ASSI
100
AcDbLine
 62
7
  6
CONTINUOUS
 10
4.3989123912
 20
13.233812388
 11
2.461010109
 21
11.5254562273
  0
LINE
  5
312
100
AcDbEntity
  8
RACCORDO
100
AcDbLine
 62
7
  6
CONTINUOUS
 10
4.5021873978
 20
14.1417203609
 11
1.9647800986
 21
11.9564010959
  0
LINE
  5
313
100
AcDbEntity
  8
ASSI
100
AcDbLine
 62
7
  6
CONTINUOUS
 10
4.5021873978
 20
14.1417203609
 11
1.9647800986
 21
11.9564010959
  0
LINE
  5
314
100
AcDbEntity
  8
0
100
AcDbLine
 62
7
  6
CONTINUOUS
 10
3.2281952136
 20
10.6847550093
 11
3.0072097767
 21
10.5015822046
  0
LINE
  5
315
100
AcDbEntity
  8
ASSI
100
AcDbLine
 62
7
  6
CONTINUOUS
 10
3.2281952136
 20
10.6847550093
 11
3.0072097767
 21
10.5015822046
  0
LINE
  5
316
100
AcDbEntity
  8
0
100
AcDbLine
 62
7
  6
CONTINUOUS
 10
3.0072097767
 20
10.5015822046
 11
2.6729275144
 21
10.2247122164
  0
LINE
  5
317
100
AcDbEntity
  8
ASSI
100
AcDbLine
 62
7
  6
CONTINUOUS
 10
3.0072097767
 20
10.5015822046
 11
2.6729275144
 21
10.2247122164
  0
LINE
  5
318
100
AcDbEntity
  8
0
100
AcDbLine
 62
7
  6
CONTINUOUS
 10
2.6729275144
 20
10.2247122164
 11
2.4127597436
 21
10.0094028343
  0
LINE
  5
319
100
AcDbEntity
  8
0
100
AcDbLine
 62
7
  6
CONTINUOUS
 10
2.4127597436
 20
10.0094028343
 11
2.3353388758
 21
9.9453512204
  0
LINE
  5
31A
100
AcDbEntity
  8
ASSI
100
AcDbLine
 62
7
  6
CONTINUOUS
 10
2.6729275144
 20
10.2247122164
 11
2.4127597436
 21
10.0094028343
  0
LINE
  5
31B
100
AcDbEntity
  8
ASSI
100
AcDbLine
 62
7
  6
CONTINUOUS
 10
2.4127597436
 20
10.0094028343
 11
2.3353388758
 21
9.9453512204
  0
LINE
  5
31C
100
AcDbEntity
  8
RACCORDO
100
AcDbLine
 62
7
  6
CONTINUOUS
 10
1.6914500767
 20
9.7935155926
 11
2.2990683648
 21
10.2938025759
  0
LINE
  5
31D
100
AcDbEntity
  8
ASSI
100
AcDbLine
 62
7
  6
CONTINUOUS
 10
1.6914500767
 20
9.7935155926
 11
2.2990683648
 21
10.2938025759
  0
LINE
  5
31E
100
AcDbEntity
  8
0
100
AcDbLine
 62
7
  6
CONTINUOUS
 10
2.3624038709
 20
10.096582843
 11
2.016279646
 21
9.813699863
  0
LINE
  5
31F
100
AcDbEntity
  8
ASSI
100
AcDbLine
 62
7
  6
CONTINUOUS
 10
2.3624038709
 20
10.096582843
 11
2.016279646
 21
9.813699863
  0
LINE
  5
320
100
AcDbEntity
  8
0
100
AcDbLine
 62
7
  6
CONTINUOUS
 10
2.7062751156
 20
10.3774094714
 11
2.3624038709
 21
10.096582843
  0
LINE
  5
321
100
AcDbEntity
  8
ASSI
100
AcDbLine
 62
7
  6
CONTINUOUS
 10
2.7062751156
 20
10.3774094714
 11
2.3624038709
 21
10.096582843
  0
LINE
  5
322
100
AcDbEntity
  8
0
100
AcDbLine
 62
7
  6
CONTINUOUS
 10
3.0479082674
 20
10.6561755389
 11
2.7062751156
 21
10.3774094714
  0
LINE
  5
323
100
AcDbEntity
  8
ASSI
100
AcDbLine
 62
7
  6
CONTINUOUS
 10
3.0479082674
 20
10.6561755389
 11
2.7062751156
 21
10.3774094714
  0
LINE
  5
324
100
AcDbEntity
  8
RACCORDO
100
AcDbLine
 62
7
  6
CONTINUOUS
 10
5.6394463783
 20
13.8134219717
 11
2.9871870789
 21
11.6612576233
  0
LINE
  5
325
100
AcDbEntity
  8
ASSI
100
AcDbLine
 62
7
  6
CONTINUOUS
 10
5.6394463783
 20
13.8134219717
 11
2.9871870789
 21
11.6612576233
  0
LINE
  5
326
100
AcDbEntity
  8
0
100
AcDbLine
 62
7
  6
CONTINUOUS
 10
0.5424679356
 20
9.308923461
 11
0.4418948818
 21
9.2370649602
  0
LINE
  5
327
100
AcDbEntity
  8
0
100
AcDbLine
 62
7
  6
CONTINUOUS
 10
4.5046762019
 20
10.6700110584
 11
4.3226888577
 21
10.5639205968
  0
LINE
  5
328
100
AcDbEntity
  8
ASSI
100
AcDbLine
 62
7
  6
CONTINUOUS
 10
4.5046762019
 20
10.6700110584
 11
4.3226888577
 21
10.5639205968
  0
LINE
  5
329
100
AcDbEntity
  8
RACCORDO
100
AcDbLine
 62
7
  6
CONTINUOUS
 10
2.3628717501
 20
10.3198822262
 11
2.437072266
 21
10.3602155332
  0
LINE
  5
32A
100
AcDbEntity
  8
ASSI
100
AcDbLine
 62
7
  6
CONTINUOUS
 10
2.3628717501
 20
10.3198822262
 11
2.437072266
 21
10.3602155332
  0
LINE
  5
32B
100
AcDbEntity
  8
RACCORDO
100
AcDbLine
 62
7
  6
CONTINUOUS
 10
2.437072266
 20
10.3602155332
 11
2.511755318
 21
10.399808928
  0
LINE
  5
32C
100
AcDbEntity
  8
ASSI
100
AcDbLine
 62
7
  6
CONTINUOUS
 10
2.437072266
 20
10.3602155332
 11
2.511755318
 21
10.399808928
  0
LWPOLYLINE
  5
32D
100
AcDbEntity
  8
RACCORDO
100
AcDbPolyline
 62
7
  6
CONTINUOUS
 90
3
 70
0
 10
2.511755318
 20
10.399808928
 10
2.5869209062
 20
10.4386624106
 10
2.6625741946
 20
10.476778559
  0
LWPOLYLINE
  5
32E
100
AcDbEntity
  8
ASSI
100
AcDbPolyline
 62
7
  6
CONTINUOUS
 90
3
 70
0
 10
2.511755318
 20
10.399808928
 10
2.5869209062
 20
10.4386624106
 10
2.6625741946
 20
10.476778559
  0
LWPOLYLINE
  5
32F
100
AcDbEntity
  8
RACCORDO
100
AcDbPolyline
 62
7
  6
CONTINUOUS
 90
3
 70
0
 10
2.3628717501
 20
10.3198822262
 10
2.3465691571
 20
10.3116804594
 10
2.3212382323
 20
10.2983346663
  0
LWPOLYLINE
  5
330
100
AcDbEntity
  8
ASSI
100
AcDbPolyline
 62
7
  6
CONTINUOUS
 90
3
 70
0
 10
2.3628717501
 20
10.3198822262
 10
2.3465691571
 20
10.3116804594
 10
2.3212382323
 20
10.2983346663
  0
LWPOLYLINE
  5
331
100
AcDbEntity
  8
RACCORDO
100
AcDbPolyline
 62
7
  6
CONTINUOUS
 90
6
 70
0
 10
2.6625741946
 20
10.476778559
 10
2.7387100191
 20
10.5141547953
 10
2.8153128879
 20
10.5507833849
 10
2.8923776368
 20
10.5866617496
 10
2.96990943
 20
10.6217924676
 10
3.0479082674
 20
10.6561755389
  0
LWPOLYLINE
  5
332
100
AcDbEntity
  8
ASSI
100
AcDbPolyline
 62
7
  6
CONTINUOUS
 90
6
 70
0
 10
2.6625741946
 20
10.476778559
 10
2.7387100191
 20
10.5141547953
 10
2.8153128879
 20
10.5507833849
 10
2.8923776368
 20
10.5866617496
 10
2.96990943
 20
10.6217924676
 10
3.0479082674
 20
10.6561755389
  0
LWPOLYLINE
  5
333
100
AcDbEntity
  8
0
100
AcDbPolyline
 62
7
  6
CONTINUOUS
 90
3
 70
0
 10
1.8619498648
 20
9.7442965434
 10
1.928915164
 20
9.7749347929
 10
2.016279646
 20
9.813699863
  0
LWPOLYLINE
  5
334
100
AcDbEntity
  8
ASSI
100
AcDbPolyline
 62
7
  6
CONTINUOUS
 90
3
 70
0
 10
1.8619498648
 20
9.7442965434
 10
1.928915164
 20
9.7749347929
 10
2.016279646
 20
9.813699863
  0
LWPOLYLINE
  5
335
100
AcDbEntity
  8
DRAFT
100
AcDbPolyline
 62
7
  6
CONTINUOUS
 90
3
 70
0
 10
3.7389370016
 20
8.3861823232
 10
3.7132915935
 20
8.3753992225
 10
3.6876224685
 20
8.3564903154
  0
LWPOLYLINE
  5
336
100
AcDbEntity
  8
DRAFT
100
AcDbPolyline
 62
7
  6
CONTINUOUS
 90
3
 70
0
 10
9.7569563583
 20
10.9169562596
 10
9.6231740065
 20
10.8610774511
 10
9.5029372258
 20
10.7956569802
  0
LWPOLYLINE
  5
337
100
AcDbEntity
  8
ASSI
100
AcDbPolyline
 62
7
  6
CONTINUOUS
 90
3
 70
0
 10
9.7569563583
 20
10.9169562596
 10
9.6231740065
 20
10.8610774511
 10
9.5029372258
 20
10.7956569802
  0
LWPOLYLINE
  5
338
100
AcDbEntity
  8
SMUSSO
100
AcDbPolyline
 62
7
  6
CONTINUOUS
 90
11
 70
0
 10
11.365530679
 20
10.2289070248
 10
11.192790206
 20
10.1739090527
 10
11.0030365665
 20
10.1289532038
 10
10.8024588683
 20
10.0962912826
 10
10.5884419197
 20
10.076028637
 10
10.3636009124
 20
10.068059919
 10
10.1419705289
 20
10.0743208902
 10
9.9244130395
 20
10.0961277268
 10
9.7100661738
 20
10.1321642526
 10
9.5103778038
 20
10.1804177001
 10
9.3263348602
 20
10.2414376427
  0
LWPOLYLINE
  5
339
100
AcDbEntity
  8
ASSI
100
AcDbPolyline
 62
7
  6
CONTINUOUS
 90
11
 70
0
 10
11.365530679
 20
10.2289070248
 10
11.192790206
 20
10.1739090527
 10
11.0030365665
 20
10.1289532038
 10
10.8024588683
 20
10.0962912826
 10
10.5884419197
 20
10.076028637
 10
10.3636009124
 20
10.068059919
 10
10.1419705289
 20
10.0743208902
 10
9.9244130395
 20
10.0961277268
 10
9.7100661738
 20
10.1321642526
 10
9.5103778038
 20
10.1804177001
 10
9.3263348602
 20
10.2414376427
  0
LINE
  5
33A
100
AcDbEntity
  8
DRAFT
100
AcDbLine
 62
7
  6
CONTINUOUS
 10
8.7840499418
 20
-11.1163499418
 11
7.640475984
 21
-10.7862285756
  0
LINE
  5
33B
100
AcDbEntity
  8
0
100
AcDbLine
 62
7
  6
CONTINUOUS
 10
-5.9500007455
 20
13.1432876581
 11
-5.9500007455
 21
13.6001938884
  0
LINE
  5
33C
100
AcDbEntity
  8
ASSI
100
AcDbLine
 62
7
  6
CONTINUOUS
 10
-5.9500007455
 20
13.1432876581
 11
-5.9500007455
 21
13.6001938884
  0
LINE
  5
33D
100
AcDbEntity
  8
0
100
AcDbLine
 62
7
  6
CONTINUOUS
 10
-5.4200969349
 20
13.3764205968
 11
-5.4200969349
 21
12.9903176042
  0
LINE
  5
33E
100
AcDbEntity
  8
ASSI
100
AcDbLine
 62
7
  6
CONTINUOUS
 10
-5.4200969349
 20
13.3764205968
 11
-5.4200969349
 21
12.9903176042
  0
LWPOLYLINE
  5
33F
100
AcDbEntity
  8
0
100
AcDbPolyline
 62
7
  6
CONTINUOUS
 90
19
 70
0
 10
-3.5480682014
 20
11.6437445503
 10
-3.5506063688
 20
11.6170077797
 10
-3.5499073941
 20
11.5900363269
 10
-3.5459712773
 20
11.5628301917
 10
-3.5386392766
 20
11.5349667851
 10
-3.5280701337
 20
11.5068686961
 10
-3.5147400743
 20
11.4798036926
 10
-3.4985213778
 20
11.4538174665
 10
-3.4795417647
 20
11.4288643258
 10
-3.4586606216
 20
11.406074962
 10
-3.435791347
 20
11.3855498664
 10
-3.4110205424
 20
11.3671885477
 10
-3.3854673998
 20
11.3518202235
 10
-3.3590956817
 20
11.3395819418
 10
-3.3319416255
 20
11.3303366546
 10
-3.305233136
 20
11.3245024356
 10
-3.2793795146
 20
11.3222186425
 10
-3.2539714598
 20
11.3233459175
 10
-3.2290089715
 20
11.3278842607
  0
LWPOLYLINE
  5
340
100
AcDbEntity
  8
ASSI
100
AcDbPolyline
 62
7
  6
CONTINUOUS
 90
19
 70
0
 10
-3.5480682014
 20
11.6437445503
 10
-3.5506063688
 20
11.6170077797
 10
-3.5499073941
 20
11.5900363269
 10
-3.5459712773
 20
11.5628301917
 10
-3.5386392766
 20
11.5349667851
 10
-3.5280701337
 20
11.5068686961
 10
-3.5147400743
 20
11.4798036926
 10
-3.4985213778
 20
11.4538174665
 10
-3.4795417647
 20
11.4288643258
 10
-3.4586606216
 20
11.406074962
 10
-3.435791347
 20
11.3855498664
 10
-3.4110205424
 20
11.3671885477
 10
-3.3854673998
 20
11.3518202235
 10
-3.3590956817
 20
11.3395819418
 10
-3.3319416255
 20
11.3303366546
 10
-3.305233136
 20
11.3245024356
 10
-3.2793795146
 20
11.3222186425
 10
-3.2539714598
 20
11.3233459175
 10
-3.2290089715
 20
11.3278842607
  0
LWPOLYLINE
  5
341
100
AcDbEntity
  8
RACCORDO
100
AcDbPolyline
 62
250
  6
CONTINUOUS
 90
4
 70
0
 10
-2.5242759926
 20
14.9444350928
 10
-2.5274989725
 20
14.9254320875
 10
-2.5380461601
 20
14.9045399679
 10
-2.5556125778
 20
14.88486393
  0
LWPOLYLINE
  5
342
100
AcDbEntity
  8
ASSI
100
AcDbPolyline
 62
250
  6
CONTINUOUS
 90
4
 70
0
 10
-2.5242759634
 20
14.9444368682
 10
-2.5274989725
 20
14.9254320875
 10
-2.5380461601
 20
14.9045399679
 10
-2.5556125778
 20
14.88486393
  0
LWPOLYLINE
  5
343
100
AcDbEntity
  8
RACCORDO
100
AcDbPolyline
 62
250
  6
CONTINUOUS
 90
4
 70
0
 10
-2.524267708
 20
16.0231000776
 10
-2.5279075453
 20
16.002006484
 10
-2.5385355426
 20
15.981634907
 10
-2.5556125778
 20
15.9626583429
  0
LWPOLYLINE
  5
344
100
AcDbEntity
  8
ASSI
100
AcDbPolyline
 62
250
  6
CONTINUOUS
 90
4
 70
0
 10
-2.524267708
 20
16.0231000776
 10
-2.5279075453
 20
16.002006484
 10
-2.5385355426
 20
15.981634907
 10
-2.5556125778
 20
15.9626583429
  0
LWPOLYLINE
  5
345
100
AcDbEntity
  8
0
100
AcDbPolyline
 62
7
  6
CONTINUOUS
 90
8
 70
0
 10
2.2852183989
 20
9.7835342325
 10
2.3020107487
 20
9.8006523659
 10
2.3153408082
 20
9.820021256
 10
2.325909951
 20
9.8420172474
 10
2.3332419518
 20
9.8656475215
 10
2.3371780686
 20
9.8905811386
 10
2.3378770433
 20
9.9171490382
 10
2.3353388758
 20
9.9453512204
  0
LWPOLYLINE
  5
346
100
AcDbEntity
  8
ASSI
100
AcDbPolyline
 62
7
  6
CONTINUOUS
 90
8
 70
0
 10
2.2852183989
 20
9.7835342325
 10
2.3020107487
 20
9.8006523659
 10
2.3153408082
 20
9.820021256
 10
2.325909951
 20
9.8420172474
 10
2.3332419518
 20
9.8656475215
 10
2.3371780686
 20
9.8905811386
 10
2.3378770433
 20
9.9171490382
 10
2.3353388758
 20
9.9453512204
  0
LINE
  5
347
100
AcDbEntity
  8
DRAFT
100
AcDbLine
 62
7
  6
CONTINUOUS
 10
6.735376326
 20
13.0212135625
 11
6.3474695497
 21
12.671312388
  0
LINE
  5
348
100
AcDbEntity
  8
ASSI
100
AcDbLine
 62
7
  6
CONTINUOUS
 10
6.735376326
 20
13.0212135625
 11
6.3474695497
 21
12.671312388
  0
LINE
  5
349
100
AcDbEntity
  8
0
100
AcDbLine
 62
7
  6
CONTINUOUS
 10
2.8729560932
 20
9.4957454545
 11
2.8360863173
 21
9.4630875718
  0
LINE
  5
34A
100
AcDbEntity
  8
DRAFT
100
AcDbLine
 62
7
  6
CONTINUOUS
 10
6.3474695497
 20
12.671312388
 11
4.4095672676
 21
10.9629562273
  0
LINE
  5
34B
100
AcDbEntity
  8
ASSI
100
AcDbLine
 62
7
  6
CONTINUOUS
 10
6.3474695497
 20
12.671312388
 11
4.4095672676
 21
10.9629562273
  0
LINE
  5
34C
100
AcDbEntity
  8
0
100
AcDbLine
 62
7
  6
CONTINUOUS
 10
3.7927850471
 20
10.7876938884
 11
3.2836574032
 21
10.344320953
  0
LINE
  5
34D
100
AcDbEntity
  8
ASSI
100
AcDbLine
 62
7
  6
CONTINUOUS
 10
3.7927850471
 20
10.7876938884
 11
3.2836574032
 21
10.344320953
  0
LINE
  5
34E
100
AcDbEntity
  8
RACCORDO
100
AcDbLine
 62
7
  6
CONTINUOUS
 10
6.4507445563
 20
13.5792203609
 11
3.9133372572
 21
11.3939010959
  0
LINE
  5
34F
100
AcDbEntity
  8
ASSI
100
AcDbLine
 62
7
  6
CONTINUOUS
 10
6.4507445563
 20
13.5792203609
 11
3.9133372572
 21
11.3939010959
  0
LINE
  5
350
100
AcDbEntity
  8
0
100
AcDbLine
 62
7
  6
CONTINUOUS
 10
3.3381217049
 20
10.7759244426
 11
3.2281952136
 21
10.6847550093
  0
LINE
  5
351
100
AcDbEntity
  8
ASSI
100
AcDbLine
 62
7
  6
CONTINUOUS
 10
3.3381217049
 20
10.7759244426
 11
3.2281952136
 21
10.6847550093
  0
LINE
  5
352
100
AcDbEntity
  8
0
100
AcDbLine
 62
250
  6
CONTINUOUS
 10
2.4344485601
 20
9.9831869928
 11
3.4432887883
 21
10.8162403057
  0
LINE
  5
353
100
AcDbEntity
  8
ASSI
100
AcDbLine
 62
250
  6
CONTINUOUS
 10
2.4344485601
 20
9.9831869928
 11
3.4432887883
 21
10.8162403057
  0
LINE
  5
354
100
AcDbEntity
  8
0
100
AcDbLine
 62
250
  6
CONTINUOUS
 10
2.6737682677
 20
9.9862587287
 11
3.6828902881
 21
10.8194177727
  0
LINE
  5
355
100
AcDbEntity
  8
ASSI
100
AcDbLine
 62
250
  6
CONTINUOUS
 10
2.6737682677
 20
9.9862587287
 11
3.6828902881
 21
10.8194177727
  0
LINE
  5
356
100
AcDbEntity
  8
RACCORDO
100
AcDbLine
 62
7
  6
CONTINUOUS
 10
7.5880035368
 20
13.2509219717
 11
4.9357442374
 21
11.0987576233
  0
LINE
  5
357
100
AcDbEntity
  8
ASSI
100
AcDbLine
 62
7
  6
CONTINUOUS
 10
7.5880035368
 20
13.2509219717
 11
4.9357442374
 21
11.0987576233
  0
LINE
  5
358
100
AcDbEntity
  8
0
100
AcDbLine
 62
7
  6
CONTINUOUS
 10
3.4988891591
 20
10.4156280931
 11
3.3763377263
 21
10.3175664483
  0
LINE
  5
359
100
AcDbEntity
  8
RACCORDO
100
AcDbLine
 62
250
  6
CONTINUOUS
 10
9.4719103032
 20
10.5388035897
 11
9.5124211093
 21
10.5624235407
  0
LINE
  5
35A
100
AcDbEntity
  8
DRAFT
100
AcDbLine
 62
7
  6
CONTINUOUS
 10
9.6341195936
 20
11.0423494515
 11
9.4983064051
 21
10.9682272088
  0
LINE
  5
35B
100
AcDbEntity
  8
ASSI
100
AcDbLine
 62
7
  6
CONTINUOUS
 10
9.6341195936
 20
11.0423494515
 11
9.4983064051
 21
10.9682272088
  0
LINE
  5
35C
100
AcDbEntity
  8
0
100
AcDbLine
 62
7
  6
CONTINUOUS
 10
9.0827540195
 20
10.3625458535
 11
9.4852169589
 21
10.5747725194
  0
LINE
  5
35D
100
AcDbEntity
  8
RACCORDO
100
AcDbLine
 62
250
  6
CONTINUOUS
 10
9.5124211093
 20
10.5624235407
 11
9.5553998345
 21
10.5849415391
  0
LINE
  5
35E
100
AcDbEntity
  8
0
100
AcDbLine
 62
7
  6
CONTINUOUS
 10
7.1001280071
 20
9.9207686592
 11
7.35240359
 21
10.0438205299
  0
LINE
  5
35F
100
AcDbEntity
  8
ASSI
100
AcDbLine
 62
7
  6
CONTINUOUS
 10
7.1001280071
 20
9.9207686592
 11
7.35240359
 21
10.0438205299
  0
LWPOLYLINE
  5
360
100
AcDbEntity
  8
RACCORDO
100
AcDbPolyline
 62
250
  6
CONTINUOUS
 90
33
 70
0
 10
9.5553998345
 20
10.5849415391
 10
9.6006438165
 20
10.6063441886
 10
9.6470765708
 20
10.6262862599
 10
9.6947314871
 20
10.6446796977
 10
9.7435751756
 20
10.6616125574
 10
9.7924309825
 20
10.6770037749
 10
9.8411628589
 20
10.6907660292
 10
9.8899068535
 20
10.7029866413
 10
9.9378944588
 20
10.7138465111
 10
9.9850149659
 20
10.7233183844
 10
10.0313790837
 20
10.7314295155
 10
10.076550431
 20
10.7384425663
 10
10.1204452113
 20
10.744357448
 10
10.1631472212
 20
10.7491742495
 10
10.2044714688
 20
10.7531558994
 10
10.244347264
 20
10.756314431
 10
10.2828452969
 20
10.7586378111
 10
10.3199926465
 20
10.7603528682
 10
10.3557627768
 20
10.761477156
 10
10.3901822238
 20
10.7619931208
 10
10.4233576741
 20
10.7620749305
 10
10.4552732856
 20
10.7617383247
 10
10.4859449004
 20
10.7609675638
 10
10.5155267319
 20
10.7598895967
 10
10.5440095185
 20
10.7585180452
 10
10.5714025217
 20
10.7568392875
 10
10.5978877399
 20
10.7549394077
 10
10.6234607861
 20
10.7528296455
 10
10.6481260473
 20
10.7504987611
 10
10.6720786828
 20
10.7479991202
 10
10.6953837458
 20
10.745348178
 10
10.7179761831
 20
10.7425284792
 10
10.7398559948
 20
10.7395400239
  0
LINE
  5
361
100
AcDbEntity
  8
SMUSSO
100
AcDbLine
 62
7
  6
CONTINUOUS
 10
11.5191949496
 20
10.2931965183
 11
11.365530679
 21
10.2289070248
  0
LINE
  5
362
100
AcDbEntity
  8
ASSI
100
AcDbLine
 62
7
  6
CONTINUOUS
 10
11.5191949496
 20
10.2931965183
 11
11.365530679
 21
10.2289070248
  0
LWPOLYLINE
  5
363
100
AcDbEntity
  8
RACCORDO
100
AcDbPolyline
 62
250
  6
CONTINUOUS
 90
11
 70
0
 10
-2.5556125778
 20
14.88486393
 10
-2.5552664924
 20
14.8745862772
 10
-2.5543975708
 20
14.8637731178
 10
-2.5529471528
 20
14.8524389848
 10
-2.550855873
 20
14.8406151868
 10
-2.5480663443
 20
14.8283186626
 10
-2.5445192571
 20
14.8155523661
 10
-2.5401466268
 20
14.8023387177
 10
-2.5348962117
 20
14.7887507683
 10
-2.528738112
 20
14.774879874
 10
-2.5216201543
 20
14.7607791053
  0
LWPOLYLINE
  5
364
100
AcDbEntity
  8
ASSI
100
AcDbPolyline
 62
250
  6
CONTINUOUS
 90
11
 70
0
 10
-2.5556125778
 20
14.88486393
 10
-2.5552664924
 20
14.8745862772
 10
-2.5543975708
 20
14.8637731178
 10
-2.5529471528
 20
14.8524389848
 10
-2.550855873
 20
14.8406151868
 10
-2.5480663443
 20
14.8283186626
 10
-2.5445192571
 20
14.8155523661
 10
-2.5401466268
 20
14.8023387177
 10
-2.5348962117
 20
14.7887507683
 10
-2.528738112
 20
14.774879874
 10
-2.5216201543
 20
14.7607791053
  0
LWPOLYLINE
  5
365
100
AcDbEntity
  8
ASSI
100
AcDbPolyline
 62
7
  6
CONTINUOUS
 90
5
 70
0
 10
-2.524267708
 20
16.0231000776
 10
-2.5245139903
 20
16.0343538678
 10
-2.530089381
 20
16.0768970696
 10
-2.5429494899
 20
16.1180855759
 10
-2.5628237208
 20
16.1566444136
  0
LWPOLYLINE
  5
366
100
AcDbEntity
  8
RACCORDO
100
AcDbPolyline
 62
7
  6
CONTINUOUS
 90
5
 70
0
 10
-2.524267708
 20
16.0231000776
 10
-2.5245139904
 20
16.0343538719
 10
-2.5300893825
 20
16.0768970764
 10
-2.542949493
 20
16.1180855836
 10
-2.562823725
 20
16.1566444203
  0
LINE
  5
367
100
AcDbEntity
  8
0
100
AcDbLine
 62
7
  6
CONTINUOUS
 10
-3.9752813133
 20
11.4726613096
 11
-3.9752813133
 21
11.4293600394
  0
LINE
  5
368
100
AcDbEntity
  8
ASSI
100
AcDbLine
 62
7
  6
CONTINUOUS
 10
-3.9752813133
 20
11.4726613096
 11
-3.9752813133
 21
11.4293600394
  0
LINE
  5
369
100
AcDbEntity
  8
RACCORDO
100
AcDbLine
 62
250
  6
CONTINUOUS
 10
-2.5556125778
 20
15.9626583429
 11
-2.5556125778
 21
14.88486393
  0
LINE
  5
36A
100
AcDbEntity
  8
ASSI
100
AcDbLine
 62
250
  6
CONTINUOUS
 10
-2.5556125778
 20
15.9626583429
 11
-2.5556125778
 21
14.88486393
  0
LINE
  5
36B
100
AcDbEntity
  8
RACCORDO
100
AcDbLine
 62
7
  6
CONTINUOUS
 10
-2.5242675046
 20
16.0232595454
 11
-2.5242675046
 21
14.9454651325
  0
LINE
  5
36C
100
AcDbEntity
  8
ASSI
100
AcDbLine
 62
7
  6
CONTINUOUS
 10
-2.5242675046
 20
16.0232595454
 11
-2.5242675046
 21
14.9454651325
  0
LINE
  5
36D
100
AcDbEntity
  8
DRAFT
100
AcDbLine
 62
7
  6
CONTINUOUS
 10
-2.4309790372
 20
10.0448174573
 11
-2.4309790372
 21
10.1672836661
  0
LINE
  5
36E
100
AcDbEntity
  8
DRAFT
100
AcDbLine
 62
7
  6
CONTINUOUS
 10
-2.1219091194
 20
10.011552132
 11
-2.1219091194
 21
10.078062866
  0
LINE
  5
36F
100
AcDbEntity
  8
RACCORDO
100
AcDbLine
 62
250
  6
CONTINUOUS
 10
-2.5242675046
 20
14.9454651325
 11
-2.5242759926
 21
14.9444350928
  0
LINE
  5
370
100
AcDbEntity
  8
ASSI
100
AcDbLine
 62
250
  6
CONTINUOUS
 10
-2.5242675046
 20
14.9454651325
 11
-2.5242759634
 21
14.9444368682
  0
LINE
  5
371
100
AcDbEntity
  8
DRAFT
100
AcDbLine
 62
7
  6
CONTINUOUS
 10
-2.1561813295
 20
9.9870649602
 11
-2.1598297397
 21
9.9665433974
  0
LINE
  5
372
100
AcDbEntity
  8
0
100
AcDbLine
 62
7
  6
CONTINUOUS
 10
5.7266342035
 20
8.6719595419
 11
5.6939701498
 21
8.6380875718
  0
LINE
  5
373
100
AcDbEntity
  8
DRAFT
100
AcDbLine
 62
7
  6
CONTINUOUS
 10
3.6876277263
 20
8.3564845604
 11
3.6253419938
 21
8.2965081686
  0
LINE
  5
374
100
AcDbEntity
  8
0
100
AcDbLine
 62
7
  6
CONTINUOUS
 10
6.2811673079
 20
9.612453574
 11
6.1817987877
 21
9.5190110711
  0
LWPOLYLINE
  5
375
100
AcDbEntity
  8
0
100
AcDbPolyline
 62
7
  6
CONTINUOUS
 90
10
 70
0
 10
7.4821481997
 20
9.3761207297
 10
7.3759951133
 20
9.2812660264
 10
7.2694801821
 20
9.1862192578
 10
7.1626028211
 20
9.0909784712
 10
7.0553596752
 20
8.9955406273
 10
6.9477531479
 20
8.8999047748
 10
6.8397912418
 20
8.8040724411
 10
6.7314762494
 20
8.7080432151
 10
6.6228049083
 20
8.6118143604
 10
6.5137768211
 20
8.5153842607
  0
LWPOLYLINE
  5
376
100
AcDbEntity
  8
ASSI
100
AcDbPolyline
 62
7
  6
CONTINUOUS
 90
10
 70
0
 10
7.4821481997
 20
9.3761207297
 10
7.3759951133
 20
9.2812660264
 10
7.2694801821
 20
9.1862192578
 10
7.1626028211
 20
9.0909784712
 10
7.0553596752
 20
8.9955406273
 10
6.9477531479
 20
8.8999047748
 10
6.8397912418
 20
8.8040724411
 10
6.7314762494
 20
8.7080432151
 10
6.6228049083
 20
8.6118143604
 10
6.5137768211
 20
8.5153842607
  0
LINE
  5
377
100
AcDbEntity
  8
DRAFT
100
AcDbLine
 62
7
  6
CONTINUOUS
 10
9.3885063614
 20
10.9045568376
 11
9.1344288491
 21
10.6793330616
  0
LINE
  5
378
100
AcDbEntity
  8
ASSI
100
AcDbLine
 62
7
  6
CONTINUOUS
 10
9.3885063614
 20
10.9045568376
 11
9.1344288491
 21
10.6793330616
  0
LINE
  5
379
100
AcDbEntity
  8
RACCORDO
100
AcDbLine
 62
7
  6
CONTINUOUS
 10
8.8745824374
 20
11.2893200214
 11
10.246006754
 21
12.4836225352
  0
LINE
  5
37A
100
AcDbEntity
  8
ASSI
100
AcDbLine
 62
7
  6
CONTINUOUS
 10
8.8745824374
 20
11.2893200214
 11
10.246006754
 21
12.4836225352
  0
LINE
  5
37B
100
AcDbEntity
  8
SMUSSO
100
AcDbLine
 62
7
  6
CONTINUOUS
 10
9.1344288491
 20
10.9543815596
 11
10.6249592108
 21
12.2524073685
  0
LINE
  5
37C
100
AcDbEntity
  8
ASSI
100
AcDbLine
 62
7
  6
CONTINUOUS
 10
9.1344288491
 20
10.9543815596
 11
10.6249592108
 21
12.2524073685
  0
LINE
  5
37D
100
AcDbEntity
  8
0
100
AcDbLine
 62
250
  6
CONTINUOUS
 10
6.8471661789
 20
9.9059700041
 11
5.8562881993
 21
9.0675443591
  0
LINE
  5
37E
100
AcDbEntity
  8
ASSI
100
AcDbLine
 62
250
  6
CONTINUOUS
 10
6.8471661789
 20
9.9059700041
 11
5.8562881993
 21
9.0675443591
  0
LINE
  5
37F
100
AcDbEntity
  8
0
100
AcDbLine
 62
250
  6
CONTINUOUS
 10
7.0867676788
 20
9.7644585466
 11
6.095607907
 21
8.9263013255
  0
LINE
  5
380
100
AcDbEntity
  8
ASSI
100
AcDbLine
 62
250
  6
CONTINUOUS
 10
7.0867676788
 20
9.7644585466
 11
6.095607907
 21
8.9263013255
  0
LWPOLYLINE
  5
381
100
AcDbEntity
  8
0
100
AcDbPolyline
 62
7
  6
CONTINUOUS
 90
5
 70
0
 10
6.6403057262
 20
9.2042696782
 10
6.5292675983
 20
9.1114827236
 10
6.4179917365
 20
9.0183846808
 10
6.3064755648
 20
8.924972134
 10
6.1947175912
 20
8.8312445503
  0
LWPOLYLINE
  5
382
100
AcDbEntity
  8
ASSI
100
AcDbPolyline
 62
7
  6
CONTINUOUS
 90
5
 70
0
 10
6.6403057262
 20
9.2042696782
 10
6.5292675983
 20
9.1114827236
 10
6.4179917365
 20
9.0183846808
 10
6.3064755648
 20
8.924972134
 10
6.1947175912
 20
8.8312445503
  0
LWPOLYLINE
  5
383
100
AcDbEntity
  8
0
100
AcDbPolyline
 62
7
  6
CONTINUOUS
 90
4
 70
0
 10
6.9719917293
 20
9.4807250426
 10
6.86166816
 20
9.388895912
 10
6.7511064363
 20
9.2967433734
 10
6.6403057262
 20
9.2042696782
  0
LWPOLYLINE
  5
384
100
AcDbEntity
  8
ASSI
100
AcDbPolyline
 62
7
  6
CONTINUOUS
 90
4
 70
0
 10
6.9719917293
 20
9.4807250426
 10
6.86166816
 20
9.388895912
 10
6.7511064363
 20
9.2967433734
 10
6.6403057262
 20
9.2042696782
  0
LINE
  5
385
100
AcDbEntity
  8
0
100
AcDbLine
 62
7
  6
CONTINUOUS
 10
7.0820799982
 20
9.5722343004
 11
6.9719917293
 21
9.4807250426
  0
LINE
  5
386
100
AcDbEntity
  8
ASSI
100
AcDbLine
 62
7
  6
CONTINUOUS
 10
7.0820799982
 20
9.5722343004
 11
6.9719917293
 21
9.4807250426
  0
LINE
  5
387
100
AcDbEntity
  8
0
100
AcDbLine
 62
7
  6
CONTINUOUS
 10
7.1919347621
 20
9.6634244396
 11
7.0820799982
 21
9.5722343004
  0
LINE
  5
388
100
AcDbEntity
  8
ASSI
100
AcDbLine
 62
7
  6
CONTINUOUS
 10
7.1919347621
 20
9.6634244396
 11
7.0820799982
 21
9.5722343004
  0
LINE
  5
389
100
AcDbEntity
  8
0
100
AcDbLine
 62
7
  6
CONTINUOUS
 10
6.73727142
 20
9.9376938884
 11
6.1963990638
 21
9.5034848621
  0
LINE
  5
38A
100
AcDbEntity
  8
ASSI
100
AcDbLine
 62
7
  6
CONTINUOUS
 10
6.73727142
 20
9.9376938884
 11
6.1963990638
 21
9.5034848621
  0
LWPOLYLINE
  5
38B
100
AcDbEntity
  8
RACCORDO
100
AcDbPolyline
 62
250
  6
CONTINUOUS
 90
8
 70
0
 10
9.1684538396
 20
9.3864500922
 10
9.1790901218
 20
9.3945530678
 10
9.1896356064
 20
9.4010116755
 10
9.2000135416
 20
9.4057778426
 10
9.210149053
 20
9.4088159185
 10
9.2199674103
 20
9.4101022083
 10
9.2293948334
 20
9.4096264726
 10
9.2355649794
 20
9.4082925868
  0
LWPOLYLINE
  5
38C
100
AcDbEntity
  8
ASSI
100
AcDbPolyline
 62
250
  6
CONTINUOUS
 90
8
 70
0
 10
9.1684538396
 20
9.3864500922
 10
9.1790901218
 20
9.3945530678
 10
9.1896356064
 20
9.4010116755
 10
9.2000135416
 20
9.4057778426
 10
9.210149053
 20
9.4088159185
 10
9.2199674103
 20
9.4101022083
 10
9.2293948334
 20
9.4096264726
 10
9.2355649794
 20
9.4082925868
  0
LINE
  5
38D
100
AcDbEntity
  8
DRAFT
100
AcDbLine
 62
7
  6
CONTINUOUS
 10
9.4983064051
 20
10.9682272088
 11
9.3807904875
 21
10.8825650512
  0
LINE
  5
38E
100
AcDbEntity
  8
ASSI
100
AcDbLine
 62
7
  6
CONTINUOUS
 10
9.4983064051
 20
10.9682272088
 11
9.3807904875
 21
10.8825650512
  0
LINE
  5
38F
100
AcDbEntity
  8
DRAFT
100
AcDbLine
 62
7
  6
CONTINUOUS
 10
9.5029372258
 20
10.7956569802
 11
9.3962460162
 21
10.7206948467
  0
LINE
  5
390
100
AcDbEntity
  8
ASSI
100
AcDbLine
 62
7
  6
CONTINUOUS
 10
9.5029372258
 20
10.7956569802
 11
9.3962460162
 21
10.7206948467
  0
LWPOLYLINE
  5
391
100
AcDbEntity
  8
SMUSSO
100
AcDbPolyline
 62
7
  6
CONTINUOUS
 90
3
 70
0
 10
11.7130246417
 20
10.4051152284
 10
11.6558460538
 20
10.367528135
 10
11.5191949496
 20
10.2931965183
  0
LWPOLYLINE
  5
392
100
AcDbEntity
  8
ASSI
100
AcDbPolyline
 62
7
  6
CONTINUOUS
 90
3
 70
0
 10
11.7130246417
 20
10.4051152284
 10
11.6558460538
 20
10.367528135
 10
11.5191949496
 20
10.2931965183
  0
LINE
  5
393
100
AcDbEntity
  8
RACCORDO
100
AcDbLine
 62
250
  6
CONTINUOUS
 10
9.4336647539
 20
10.5140682898
 11
9.4719103032
 21
10.5388035897
  0
LWPOLYLINE
  5
394
100
AcDbEntity
  8
DRAFT
100
AcDbPolyline
 62
7
  6
CONTINUOUS
 90
5
 70
0
 10
-5.4626974876
 20
10.9199991891
 10
-5.4741125206
 20
10.9578408965
 10
-5.495621147
 20
11.0013097823
 10
-5.526020919
 20
11.0425590056
 10
-5.5516663271
 20
11.0681484895
  0
LINE
  5
395
100
AcDbEntity
  8
RACCORDO
100
AcDbLine
 62
7
  6
CONTINUOUS
 10
-2.5195449224
 20
14.9011605767
 11
-2.524275885
 21
14.9444350927
  0
LINE
  5
396
100
AcDbEntity
  8
ASSI
100
AcDbLine
 62
7
  6
CONTINUOUS
 10
-2.5195609748
 20
14.9012397945
 11
-2.5242758558
 21
14.9444368681
  0
LINE
  5
397
100
AcDbEntity
  8
RACCORDO
100
AcDbLine
 62
250
  6
CONTINUOUS
 10
-2.5571805398
 20
15.991452568
 11
-2.5556125778
 21
15.9626583429
  0
LINE
  5
398
100
AcDbEntity
  8
ASSI
100
AcDbLine
 62
250
  6
CONTINUOUS
 10
-2.5571805398
 20
15.991452568
 11
-2.5556125778
 21
15.9626583429
  0
LINE
  5
399
100
AcDbEntity
  8
SMUSSO
100
AcDbLine
 62
7
  6
CONTINUOUS
 10
-1.6509508879
 20
13.9482438782
 11
-1.6509508879
 21
14.2420951425
  0
LINE
  5
39A
100
AcDbEntity
  8
ASSI
100
AcDbLine
 62
7
  6
CONTINUOUS
 10
-1.6509508879
 20
13.9482438782
 11
-1.6509508879
 21
14.2420951425
  0
LINE
  5
39B
100
AcDbEntity
  8
RACCORDO
100
AcDbLine
 62
7
  6
CONTINUOUS
 10
0.5594274095
 20
9.1815614738
 11
0.5652724572
 21
9.3023403627
  0
LINE
  5
39C
100
AcDbEntity
  8
DRAFT
100
AcDbLine
 62
7
  6
CONTINUOUS
 10
0.4418948818
 20
9.2370649602
 11
0.4382464716
 21
9.2165433974
  0
LINE
  5
39D
100
AcDbEntity
  8
0
100
AcDbLine
 62
7
  6
CONTINUOUS
 10
7.1001280071
 20
9.9207686592
 11
7.022144182
 21
9.8099237674
  0
LINE
  5
39E
100
AcDbEntity
  8
ASSI
100
AcDbLine
 62
7
  6
CONTINUOUS
 10
7.1001280071
 20
9.9207686592
 11
7.022144182
 21
9.8099237674
  0
LINE
  5
39F
100
AcDbEntity
  8
RACCORDO
100
AcDbLine
 62
7
  6
CONTINUOUS
 10
7.1990185927
 20
9.6076432053
 11
7.4075918885
 21
9.894767153
  0
LINE
  5
3A0
100
AcDbEntity
  8
ASSI
100
AcDbLine
 62
7
  6
CONTINUOUS
 10
7.1990185927
 20
9.6076432053
 11
7.4075918885
 21
9.894767153
  0
LINE
  5
3A1
100
AcDbEntity
  8
SMUSSO
100
AcDbLine
 62
7
  6
CONTINUOUS
 10
9.062381869
 20
10.8816415876
 11
9.1344288491
 21
10.9543815596
  0
LINE
  5
3A2
100
AcDbEntity
  8
ASSI
100
AcDbLine
 62
7
  6
CONTINUOUS
 10
9.062381869
 20
10.8816415876
 11
9.1344288491
 21
10.9543815596
  0
LWPOLYLINE
  5
3A3
100
AcDbEntity
  8
RACCORDO
100
AcDbPolyline
 62
250
  6
CONTINUOUS
 90
4
 70
0
 10
9.3355484775
 20
10.4350906719
 10
9.365483841
 20
10.4622118309
 10
9.3981529589
 20
10.4885226808
 10
9.4336647539
 20
10.5140682898
  0
LINE
  5
3A4
100
AcDbEntity
  8
DRAFT
100
AcDbLine
 62
7
  6
CONTINUOUS
 10
9.3807904875
 20
10.8825650512
 11
10.6249592108
 21
12.0066408752
  0
LINE
  5
3A5
100
AcDbEntity
  8
ASSI
100
AcDbLine
 62
7
  6
CONTINUOUS
 10
9.3807904875
 20
10.8825650512
 11
10.6249592108
 21
12.0066408752
  0
LWPOLYLINE
  5
3A6
100
AcDbEntity
  8
RACCORDO
100
AcDbPolyline
 62
250
  6
CONTINUOUS
 90
7
 70
0
 10
9.2822791711
 20
10.4332537001
 10
9.3146126172
 20
10.4620777499
 10
9.3499782971
 20
10.4900966147
 10
9.3883993803
 20
10.5172924445
 10
9.429710462
 20
10.5435145561
 10
9.473586081
 20
10.5685568813
 10
9.4852169589
 20
10.5747725194
  0
LINE
  5
3A7
100
AcDbEntity
  8
0
100
AcDbLine
 62
7
  6
CONTINUOUS
 10
9.4195343994
 20
10.3411079811
 11
9.5945343994
 21
10.4926624268
  0
LINE
  5
3A8
100
AcDbEntity
  8
RACCORDO
100
AcDbLine
 62
7
  6
CONTINUOUS
 10
10.7398559948
 20
10.7395400239
 11
10.276183341
 21
10.3379877266
  0
LINE
  5
3A9
100
AcDbEntity
  8
RACCORDO
100
AcDbLine
 62
7
  6
CONTINUOUS
 10
10.0282633095
 20
10.1232826812
 11
9.9893872729
 21
10.089615046
  0
LINE
  5
3AA
100
AcDbEntity
  8
0
100
AcDbLine
 62
7
  6
CONTINUOUS
 10
11.0776455262
 20
10.4691578267
 11
10.6280266146
 21
10.0797764273
  0
LINE
  5
3AB
100
AcDbEntity
  8
RACCORDO
100
AcDbLine
 62
7
  6
CONTINUOUS
 10
11.2594721458
 20
10.5895408109
 11
10.7957985833
 21
10.1879877266
  0
LINE
  5
3AC
100
AcDbEntity
  8
RACCORDO
100
AcDbLine
 62
250
  6
CONTINUOUS
 10
10.4650448485
 20
8.8764233125
 11
11.7609264141
 21
9.9785884756
  0
LINE
  5
3AD
100
AcDbEntity
  8
ASSI
100
AcDbLine
 62
250
  6
CONTINUOUS
 10
10.4650448485
 20
8.8764233125
 11
11.7609264141
 21
9.9785884756
  0
LINE
  5
3AE
100
AcDbEntity
  8
RACCORDO
100
AcDbLine
 62
250
  6
CONTINUOUS
 10
11.7609264141
 20
9.9785884756
 11
12.0192422061
 21
10.1982933171
  0
LINE
  5
3AF
100
AcDbEntity
  8
ASSI
100
AcDbLine
 62
250
  6
CONTINUOUS
 10
11.7609264141
 20
9.9785884756
 11
12.0192422061
 21
10.1982933171
  0
LINE
  5
3B0
100
AcDbEntity
  8
RACCORDO
100
AcDbLine
 62
250
  6
CONTINUOUS
 10
12.0192422061
 20
10.1982933171
 11
13.3070817937
 21
11.2936645492
  0
LINE
  5
3B1
100
AcDbEntity
  8
ASSI
100
AcDbLine
 62
250
  6
CONTINUOUS
 10
12.0192422061
 20
10.1982933171
 11
13.3070817937
 21
11.2936645492
  0
LINE
  5
3B2
100
AcDbEntity
  8
RACCORDO
100
AcDbLine
 62
250
  6
CONTINUOUS
 10
13.3070817937
 20
11.2936645492
 11
13.5759470225
 21
11.52235158
  0
LINE
  5
3B3
100
AcDbEntity
  8
ASSI
100
AcDbLine
 62
250
  6
CONTINUOUS
 10
13.3070817937
 20
11.2936645492
 11
13.5759470225
 21
11.52235158
  0
LINE
  5
3B4
100
AcDbEntity
  8
RACCORDO
100
AcDbLine
 62
250
  6
CONTINUOUS
 10
10.621403798
 20
8.7645217757
 11
11.9187299048
 21
9.8674457304
  0
LINE
  5
3B5
100
AcDbEntity
  8
ASSI
100
AcDbLine
 62
250
  6
CONTINUOUS
 10
10.621403798
 20
8.7645217757
 11
11.9187299048
 21
9.8674457304
  0
LINE
  5
3B6
100
AcDbEntity
  8
RACCORDO
100
AcDbLine
 62
250
  6
CONTINUOUS
 10
11.9187299048
 20
9.8674457304
 11
12.1758587458
 21
10.0860475642
  0
LINE
  5
3B7
100
AcDbEntity
  8
ASSI
100
AcDbLine
 62
250
  6
CONTINUOUS
 10
11.9187299048
 20
9.8674457304
 11
12.1758587458
 21
10.0860475642
  0
LINE
  5
3B8
100
AcDbEntity
  8
RACCORDO
100
AcDbLine
 62
250
  6
CONTINUOUS
 10
12.1758587458
 20
10.0860475642
 11
13.4283639998
 21
11.1509079597
  0
LINE
  5
3B9
100
AcDbEntity
  8
ASSI
100
AcDbLine
 62
250
  6
CONTINUOUS
 10
12.1758587458
 20
10.0860475642
 11
13.4283639998
 21
11.1509079597
  0
LINE
  5
3BA
100
AcDbEntity
  8
RACCORDO
100
AcDbLine
 62
250
  6
CONTINUOUS
 10
13.4283639998
 20
11.1509079597
 11
13.7328229599
 21
11.4097585822
  0
LINE
  5
3BB
100
AcDbEntity
  8
ASSI
100
AcDbLine
 62
250
  6
CONTINUOUS
 10
13.4283639998
 20
11.1509079597
 11
13.7328229599
 21
11.4097585822
  0
LINE
  5
3BC
100
AcDbEntity
  8
RACCORDO
100
AcDbLine
 62
250
  6
CONTINUOUS
 10
8.2355432151
 20
8.594726062
 11
9.168453838
 21
9.3864500927
  0
LINE
  5
3BD
100
AcDbEntity
  8
ASSI
100
AcDbLine
 62
250
  6
CONTINUOUS
 10
8.2355432151
 20
8.594726062
 11
9.168453838
 21
9.3864500927
  0
LINE
  5
3BE
100
AcDbEntity
  8
RACCORDO
100
AcDbLine
 62
250
  6
CONTINUOUS
 10
8.3775865138
 20
8.5006019947
 11
9.3100942744
 21
9.2916892263
  0
LINE
  5
3BF
100
AcDbEntity
  8
ASSI
100
AcDbLine
 62
250
  6
CONTINUOUS
 10
8.3775865138
 20
8.5006019947
 11
9.3100942744
 21
9.2916892263
  0
LINE
  5
3C0
100
AcDbEntity
  8
SMUSSO
100
AcDbLine
 62
7
  6
CONTINUOUS
 10
13.099102682
 20
11.538183669
 11
11.7030983496
 21
10.4174799114
  0
LINE
  5
3C1
100
AcDbEntity
  8
ASSI
100
AcDbLine
 62
7
  6
CONTINUOUS
 10
13.099102682
 20
11.538183669
 11
11.7030983496
 21
10.4174799114
  0
LINE
  5
3C2
100
AcDbEntity
  8
RACCORDO
100
AcDbLine
 62
7
  6
CONTINUOUS
 10
13.2324182404
 20
11.6215197974
 11
11.7754839915
 21
10.4519018748
  0
LINE
  5
3C3
100
AcDbEntity
  8
ASSI
100
AcDbLine
 62
7
  6
CONTINUOUS
 10
13.2324182404
 20
11.6215197974
 11
11.7754839915
 21
10.4519018748
  0
LWPOLYLINE
  5
3C4
100
AcDbEntity
  8
RACCORDO
100
AcDbPolyline
 62
7
  6
CONTINUOUS
 90
10
 70
0
 10
11.2594619296
 20
10.5895319633
 10
11.2634911881
 20
10.5927566152
 10
11.2674581995
 20
10.5954129953
 10
11.2713629636
 20
10.5975011038
 10
11.275239061
 20
10.5990263536
 10
11.2790529111
 20
10.5999833316
 10
11.2827037725
 20
10.6003557993
 10
11.2861580647
 20
10.6001383437
 10
11.2894493682
 20
10.5993363778
 10
11.291582776
 20
10.5984627377
  0
LWPOLYLINE
  5
3C5
100
AcDbEntity
  8
RACCORDO
100
AcDbPolyline
 62
250
  6
CONTINUOUS
 90
22
 70
0
 10
6.6748524095
 20
5.9367692873
 10
6.6479687211
 20
5.9155042111
 10
6.6210935244
 20
5.890990503
 10
6.5943593913
 20
5.8633515786
 10
6.5678970252
 20
5.8327276424
 10
6.5418381072
 20
5.799271557
 10
6.5163147421
 20
5.7631474853
 10
6.4914514176
 20
5.7245336278
 10
6.467372529
 20
5.6836257202
 10
6.4442049605
 20
5.6406332206
 10
6.4220655062
 20
5.5957772817
 10
6.4010601509
 20
5.549278447
 10
6.3812923089
 20
5.5013589946
 10
6.3628580748
 20
5.4522524213
 10
6.3458511085
 20
5.4022101354
 10
6.3303614287
 20
5.3514897075
 10
6.3164668116
 20
5.3003494272
 10
6.3042339066
 20
5.2490412042
 10
6.293724052
 20
5.1978164254
 10
6.2849898647
 20
5.1469296708
 10
6.2780744552
 20
5.0966374429
 10
6.2730123003
 20
5.0471914794
  0
LWPOLYLINE
  5
3C6
100
AcDbEntity
  8
RACCORDO
100
AcDbPolyline
 62
250
  6
CONTINUOUS
 90
22
 70
0
 10
7.0037813174
 20
5.4766515924
 10
6.9909985825
 20
5.4667452335
 10
6.978326046
 20
5.4554315696
 10
6.965763708
 20
5.4427106007
 10
6.9532440913
 20
5.4285010168
 10
6.940834673
 20
5.4128841278
 10
6.9287378848
 20
5.3961038634
 10
6.9169636839
 20
5.3781462254
 10
6.9055021131
 20
5.3590252119
 10
6.8945257326
 20
5.3390267465
 10
6.8840424803
 20
5.318138673
 10
6.8740444182
 20
5.2963731476
 10
6.864680293
 20
5.2740525625
 10
6.8559586704
 20
5.2511651438
 10
6.8478709847
 20
5.2277226654
 10
6.8405402857
 20
5.2040828414
 10
6.8339782929
 20
5.1802353289
 10
6.8281732867
 20
5.1561904709
 10
6.823213158
 20
5.1323370106
 10
6.8191272038
 20
5.108804529
 10
6.8158861271
 20
5.0854634452
 10
6.8134899279
 20
5.062313759
  0
LINE
  5
3C7
100
AcDbEntity
  8
SMUSSO
100
AcDbLine
 62
7
  6
CONTINUOUS
 10
11.7754839915
 20
10.4519018748
 11
11.7130246417
 21
10.4051152284
  0
LINE
  5
3C8
100
AcDbEntity
  8
ASSI
100
AcDbLine
 62
7
  6
CONTINUOUS
 10
11.7754839915
 20
10.4519018748
 11
11.7130246417
 21
10.4051152284
  0
LINE
  5
3C9
100
AcDbEntity
  8
RACCORDO
100
AcDbLine
 62
250
  6
CONTINUOUS
 10
8.1495765148
 20
6.9904741593
 11
6.6748524095
 21
5.9367692873
  0
LINE
  5
3CA
100
AcDbEntity
  8
RACCORDO
100
AcDbLine
 62
250
  6
CONTINUOUS
 10
8.4785054227
 20
6.5303564644
 11
7.0037813174
 21
5.4766515924
  0
LINE
  5
3CB
100
AcDbEntity
  8
RACCORDO
100
AcDbLine
 62
7
  6
CONTINUOUS
 10
13.099102682
 20
11.538183669
 11
13.1462544823
 21
11.5717382853
  0
LINE
  5
3CC
100
AcDbEntity
  8
ASSI
100
AcDbLine
 62
7
  6
CONTINUOUS
 10
13.099102682
 20
11.538183669
 11
13.1462544823
 21
11.5717382853
  0
LWPOLYLINE
  5
3CD
100
AcDbEntity
  8
RACCORDO
100
AcDbPolyline
 62
250
  6
CONTINUOUS
 90
5
 70
0
 10
13.5759470225
 20
11.52235158
 10
13.5972100207
 20
11.5369566945
 10
13.6178408119
 20
11.5447601121
 10
13.6372249465
 20
11.5454770977
 10
13.6430432545
 20
11.5441983594
  0
LWPOLYLINE
  5
3CE
100
AcDbEntity
  8
ASSI
100
AcDbPolyline
 62
250
  6
CONTINUOUS
 90
5
 70
0
 10
13.5759470225
 20
11.52235158
 10
13.5972100207
 20
11.5369566945
 10
13.6178408119
 20
11.5447601121
 10
13.6372249465
 20
11.5454770977
 10
13.6430432545
 20
11.5441983594
  0
LINE
  5
3CF
100
AcDbEntity
  8
0
100
AcDbLine
 62
7
  6
CONTINUOUS
 10
8.6563210187
 20
7.0382684857
 11
8.7840499418
 21
7.1181899542
  0
LWPOLYLINE
  5
3D0
100
AcDbEntity
  8
RACCORDO
100
AcDbPolyline
 62
250
  6
CONTINUOUS
 90
16
 70
0
 10
6.8134899279
 20
5.062313759
 10
6.7906061938
 20
5.0508894703
 10
6.7642937423
 20
5.0406855344
 10
6.7348345076
 20
5.0318112851
 10
6.7025441413
 20
5.0243618088
 10
6.6677686301
 20
5.0184169255
 10
6.6308805889
 20
5.0140403338
 10
6.5922752677
 20
5.0112789284
 10
6.5523663173
 20
5.0101622973
 10
6.5115813566
 20
5.010702405
 10
6.4703573906
 20
5.0128934643
 10
6.4291361284
 20
5.0167119985
 10
6.3883592501
 20
5.0221170924
 10
6.3484636743
 20
5.0290508313
 10
6.3098768765
 20
5.0374389211
 10
6.2730123089
 20
5.0471914846
  0
LINE
  5
3D1
100
AcDbEntity
  8
ASSI
100
AcDbLine
 62
7
  6
CONTINUOUS
 10
8.1401542798
 20
-2.8356474815
 11
8.0268245355
 21
-2.8029320023
  0
LINE
  5
3D2
100
AcDbEntity
  8
DRAFT
100
AcDbLine
 62
7
  6
CONTINUOUS
 10
0.6182497116
 20
9.1645809379
 11
0.6182497116
 21
9.2870471466
  0
LINE
  5
3D3
100
AcDbEntity
  8
DRAFT
100
AcDbLine
 62
7
  6
CONTINUOUS
 10
1.6740544613
 20
13.1119650824
 11
1.6740544613
 21
12.7393701214
  0
LINE
  5
3D4
100
AcDbEntity
  8
ASSI
100
AcDbLine
 62
7
  6
CONTINUOUS
 10
1.6740544613
 20
13.1119650824
 11
1.6740544613
 21
12.7393701214
  0
LINE
  5
3D5
100
AcDbEntity
  8
SMUSSO
100
AcDbLine
 62
7
  6
CONTINUOUS
 10
9.0085017929
 20
10.8038749777
 11
9.062381869
 21
10.8816415876
  0
LINE
  5
3D6
100
AcDbEntity
  8
ASSI
100
AcDbLine
 62
7
  6
CONTINUOUS
 10
9.0085017929
 20
10.8038749777
 11
9.062381869
 21
10.8816415876
  0
LWPOLYLINE
  5
3D7
100
AcDbEntity
  8
RACCORDO
100
AcDbPolyline
 62
250
  6
CONTINUOUS
 90
5
 70
0
 10
13.73282296
 20
11.4097585821
 10
13.7512176875
 20
11.4268412977
 10
13.7645235309
 20
11.4397569616
 10
13.7724017001
 20
11.4484580069
 10
13.7741301873
 20
11.4535014025
  0
LWPOLYLINE
  5
3D8
100
AcDbEntity
  8
ASSI
100
AcDbPolyline
 62
250
  6
CONTINUOUS
 90
5
 70
0
 10
13.73282296
 20
11.4097585821
 10
13.7512176875
 20
11.4268412977
 10
13.7645235309
 20
11.4397569616
 10
13.7724017001
 20
11.4484580069
 10
13.7741301873
 20
11.4535014025
  0
LWPOLYLINE
  5
3D9
100
AcDbEntity
  8
RACCORDO
100
AcDbPolyline
 62
250
  6
CONTINUOUS
 90
5
 70
0
 10
14.4092776565
 20
10.4387580149
 10
14.4276894859
 20
10.4557775229
 10
14.4404638082
 20
10.4696709278
 10
14.4472210426
 20
10.4800253932
 10
14.4476574031
 20
10.486701789
  0
LWPOLYLINE
  5
3DA
100
AcDbEntity
  8
ASSI
100
AcDbPolyline
 62
250
  6
CONTINUOUS
 90
5
 70
0
 10
14.4092776565
 20
10.4387580149
 10
14.4276894859
 20
10.4557775229
 10
14.4404638082
 20
10.4696709278
 10
14.4472210426
 20
10.4800253932
 10
14.4476574031
 20
10.486701789
  0
LINE
  5
3DB
100
AcDbEntity
  8
0
100
AcDbLine
 62
250
  6
CONTINUOUS
 10
8.3616617835
 20
7.245254593
 11
8.8767783132
 21
7.7192899969
  0
LINE
  5
3DC
100
AcDbEntity
  8
0
100
AcDbLine
 62
250
  6
CONTINUOUS
 10
8.6563210187
 20
7.0382684857
 11
9.0931198596
 21
7.440232125
  0
LINE
  5
3DD
100
AcDbEntity
  8
RACCORDO
100
AcDbLine
 62
250
  6
CONTINUOUS
 10
12.5706894884
 20
8.7978562921
 11
13.4895417588
 21
9.6176466805
  0
LINE
  5
3DE
100
AcDbEntity
  8
ASSI
100
AcDbLine
 62
250
  6
CONTINUOUS
 10
12.5706894884
 20
8.7978562921
 11
13.4895417588
 21
9.6176466805
  0
LWPOLYLINE
  5
3DF
100
AcDbEntity
  8
RACCORDO
100
AcDbPolyline
 62
250
  6
CONTINUOUS
 90
3
 70
0
 10
10.86780164
 20
7.2783481769
 10
11.6529715145
 20
7.9790006517
 10
12.5706894884
 20
8.7978562921
  0
LWPOLYLINE
  5
3E0
100
AcDbEntity
  8
ASSI
100
AcDbPolyline
 62
250
  6
CONTINUOUS
 90
3
 70
0
 10
10.86780164
 20
7.2783481769
 10
11.6529715145
 20
7.9790006517
 10
12.5706894884
 20
8.7978562921
  0
LINE
  5
3E1
100
AcDbEntity
  8
RACCORDO
100
AcDbLine
 62
250
  6
CONTINUOUS
 10
9.0931198596
 20
5.6944979562
 11
10.86780164
 21
7.2783481769
  0
LINE
  5
3E2
100
AcDbEntity
  8
ASSI
100
AcDbLine
 62
250
  6
CONTINUOUS
 10
9.0931198596
 20
5.6944979562
 11
10.86780164
 21
7.2783481769
  0
LINE
  5
3E3
100
AcDbEntity
  8
RACCORDO
100
AcDbLine
 62
250
  6
CONTINUOUS
 10
13.4895417588
 20
9.6176466805
 11
14.4095284677
 21
10.4383716599
  0
LINE
  5
3E4
100
AcDbEntity
  8
ASSI
100
AcDbLine
 62
250
  6
CONTINUOUS
 10
13.4895417588
 20
9.6176466805
 11
14.4095284677
 21
10.4383716599
  0
LINE
  5
3E5
100
AcDbEntity
  8
RACCORDO
100
AcDbLine
 62
250
  6
CONTINUOUS
 10
13.3585698311
 20
8.7385554404
 11
14.5986628439
 21
9.8436170016
  0
LINE
  5
3E6
100
AcDbEntity
  8
ASSI
100
AcDbLine
 62
250
  6
CONTINUOUS
 10
13.3585698311
 20
8.7385554404
 11
14.5986628439
 21
9.8436170016
  0
LINE
  5
3E7
100
AcDbEntity
  8
RACCORDO
100
AcDbLine
 62
250
  6
CONTINUOUS
 10
12.1255087894
 20
7.6397360584
 11
13.3585698311
 21
8.7385554404
  0
LINE
  5
3E8
100
AcDbEntity
  8
ASSI
100
AcDbLine
 62
250
  6
CONTINUOUS
 10
12.1255087894
 20
7.6397360584
 11
13.3585698311
 21
8.7385554404
  0
LINE
  5
3E9
100
AcDbEntity
  8
RACCORDO
100
AcDbLine
 62
250
  6
CONTINUOUS
 10
10.9238648263
 20
6.5688899968
 11
12.1255087894
 21
7.6397360584
  0
LINE
  5
3EA
100
AcDbEntity
  8
ASSI
100
AcDbLine
 62
250
  6
CONTINUOUS
 10
10.9238648263
 20
6.5688899968
 11
12.1255087894
 21
7.6397360584
  0
LINE
  5
3EB
100
AcDbEntity
  8
RACCORDO
100
AcDbLine
 62
250
  6
CONTINUOUS
 10
9.0931198596
 20
4.9373702405
 11
10.9238648263
 21
6.5688899968
  0
LINE
  5
3EC
100
AcDbEntity
  8
ASSI
100
AcDbLine
 62
250
  6
CONTINUOUS
 10
9.0931198596
 20
4.9373702405
 11
10.9238648263
 21
6.5688899968
  0
LINE
  5
3ED
100
AcDbEntity
  8
DRAFT
100
AcDbLine
 62
7
  6
CONTINUOUS
 10
2.5203186523
 20
11.5777396248
 11
2.5203186523
 21
11.5261094587
  0
LINE
  5
3EE
100
AcDbEntity
  8
ASSI
100
AcDbLine
 62
7
  6
CONTINUOUS
 10
2.5203186523
 20
11.5777396248
 11
2.5203186523
 21
11.5261094587
  0
LINE
  5
3EF
100
AcDbEntity
  8
DRAFT
100
AcDbLine
 62
7
  6
CONTINUOUS
 10
2.7346780062
 20
11.7667079367
 11
2.7346780062
 21
11.5520697871
  0
LINE
  5
3F0
100
AcDbEntity
  8
ASSI
100
AcDbLine
 62
7
  6
CONTINUOUS
 10
2.7346780062
 20
11.7667079367
 11
2.7346780062
 21
11.5520697871
  0
LINE
  5
3F1
100
AcDbEntity
  8
0
100
AcDbLine
 62
7
  6
CONTINUOUS
 10
2.7625519878
 20
9.4630875718
 11
2.7625519878
 21
9.5276163745
  0
LINE
  5
3F2
100
AcDbEntity
  8
ASSI
100
AcDbLine
 62
7
  6
CONTINUOUS
 10
2.7625519878
 20
9.4630875718
 11
2.7625519878
 21
9.5276163745
  0
LINE
  5
3F3
100
AcDbEntity
  8
DRAFT
100
AcDbLine
 62
7
  6
CONTINUOUS
 10
3.1698377051
 20
11.8094686847
 11
3.1698377051
 21
12.1503226108
  0
LINE
  5
3F4
100
AcDbEntity
  8
ASSI
100
AcDbLine
 62
7
  6
CONTINUOUS
 10
3.1698377051
 20
11.8094686847
 11
3.1698377051
 21
12.1503226108
  0
LINE
  5
3F5
100
AcDbEntity
  8
0
100
AcDbLine
 62
7
  6
CONTINUOUS
 10
3.7927850471
 20
10.3307876581
 11
3.7927850471
 21
10.7876938884
  0
LINE
  5
3F6
100
AcDbEntity
  8
ASSI
100
AcDbLine
 62
7
  6
CONTINUOUS
 10
3.7927850471
 20
10.3307876581
 11
3.7927850471
 21
10.7876938884
  0
LINE
  5
3F7
100
AcDbEntity
  8
0
100
AcDbLine
 62
7
  6
CONTINUOUS
 10
4.3226888577
 20
10.5639205968
 11
4.3226888577
 21
10.1778176042
  0
LINE
  5
3F8
100
AcDbEntity
  8
ASSI
100
AcDbLine
 62
7
  6
CONTINUOUS
 10
4.3226888577
 20
10.5639205968
 11
4.3226888577
 21
10.1778176042
  0
LINE
  5
3F9
100
AcDbEntity
  8
DRAFT
100
AcDbLine
 62
7
  6
CONTINUOUS
 10
4.4688758108
 20
11.0152396248
 11
4.4688758108
 21
10.9636094587
  0
LINE
  5
3FA
100
AcDbEntity
  8
ASSI
100
AcDbLine
 62
7
  6
CONTINUOUS
 10
4.4688758108
 20
11.0152396248
 11
4.4688758108
 21
10.9636094587
  0
LWPOLYLINE
  5
3FB
100
AcDbEntity
  8
SMUSSO
100
AcDbPolyline
 62
7
  6
CONTINUOUS
 90
4
 70
0
 10
8.6786747613
 20
11.004410424
 10
8.7176897234
 20
11.1027120678
 10
8.7829922821
 20
11.1976819336
 10
8.8745824374
 20
11.2893200214
  0
LWPOLYLINE
  5
3FC
100
AcDbEntity
  8
RACCORDO
100
AcDbPolyline
 62
250
  6
CONTINUOUS
 90
6
 70
0
 10
9.1806662915
 20
10.3044204569
 10
9.1839848339
 20
10.3108526491
 10
9.2037799965
 20
10.3423751693
 10
9.2267916503
 20
10.3733215361
 10
9.2529833246
 20
10.4036448209
 10
9.2822791711
 20
10.4332537001
  0
LWPOLYLINE
  5
3FD
100
AcDbEntity
  8
RACCORDO
100
AcDbPolyline
 62
250
  6
CONTINUOUS
 90
4
 70
0
 10
14.5986628439
 20
9.8436170016
 10
14.6162371902
 20
9.8633045448
 10
14.6267833453
 20
9.8842065056
 10
14.6300079171
 20
9.9042183119
  0
LWPOLYLINE
  5
3FE
100
AcDbEntity
  8
ASSI
100
AcDbPolyline
 62
250
  6
CONTINUOUS
 90
4
 70
0
 10
14.5986628439
 20
9.8436170016
 10
14.6162371902
 20
9.8633045448
 10
14.6267833453
 20
9.8842065056
 10
14.6300079171
 20
9.9042183119
  0
LWPOLYLINE
  5
3FF
100
AcDbEntity
  8
RACCORDO
100
AcDbPolyline
 62
250
  6
CONTINUOUS
 90
3
 70
0
 10
14.5986628439
 20
9.5323009221
 10
14.6157398791
 20
9.5512774862
 10
14.6263678764
 20
9.5716490632
  0
LWPOLYLINE
  5
400
100
AcDbEntity
  8
ASSI
100
AcDbPolyline
 62
250
  6
CONTINUOUS
 90
3
 70
0
 10
14.5986628439
 20
9.5323009221
 10
14.6157398791
 20
9.5512774862
 10
14.6263678764
 20
9.5716490632
  0
LINE
  5
401
100
AcDbEntity
  8
RACCORDO
100
AcDbLine
 62
7
  6
CONTINUOUS
 10
14.5716669465
 20
9.4323832467
 11
14.550574413
 21
9.4101261128
  0
LINE
  5
402
100
AcDbEntity
  8
ASSI
100
AcDbLine
 62
7
  6
CONTINUOUS
 10
14.5716669608
 20
9.4323832638
 11
14.550574413
 21
9.4101261128
  0
LINE
  5
403
100
AcDbEntity
  8
RACCORDO
100
AcDbLine
 62
250
  6
CONTINUOUS
 10
14.5505744946
 20
9.4101261889
 11
14.5605370318
 21
9.4204241987
  0
LINE
  5
404
100
AcDbEntity
  8
ASSI
100
AcDbLine
 62
250
  6
CONTINUOUS
 10
14.5505744946
 20
9.4101261889
 11
14.5605370318
 21
9.4204241987
  0
LINE
  5
405
100
AcDbEntity
  8
RACCORDO
100
AcDbLine
 62
7
  6
CONTINUOUS
 10
12.3632515138
 20
7.3688021317
 11
12.3648992951
 21
7.3704570279
  0
LINE
  5
406
100
AcDbEntity
  8
ASSI
100
AcDbLine
 62
7
  6
CONTINUOUS
 10
12.3632517487
 20
7.3688023948
 11
12.364898578
 21
7.3704563628
  0
LWPOLYLINE
  5
407
100
AcDbEntity
  8
RACCORDO
100
AcDbPolyline
 62
250
  6
CONTINUOUS
 90
7
 70
0
 10
12.413302274
 20
7.4929235954
 10
12.4019871998
 20
7.4818359095
 10
12.3906709123
 20
7.4694862256
 10
12.3793534115
 20
7.4558745438
 10
12.3680287608
 20
7.4410658483
 10
12.3567028967
 20
7.4249951548
 10
12.3453936291
 20
7.4074675104
  0
LWPOLYLINE
  5
408
100
AcDbEntity
  8
ASSI
100
AcDbPolyline
 62
250
  6
CONTINUOUS
 90
7
 70
0
 10
12.413302274
 20
7.4929235954
 10
12.4019871998
 20
7.4818359095
 10
12.3906709123
 20
7.4694862256
 10
12.3793534115
 20
7.4558745438
 10
12.3680287608
 20
7.4410658483
 10
12.3567028967
 20
7.4249951548
 10
12.3453936291
 20
7.4074675104
  0
LWPOLYLINE
  5
409
100
AcDbEntity
  8
RACCORDO
100
AcDbPolyline
 62
7
  6
CONTINUOUS
 90
4
 70
0
 10
14.2982759639
 20
8.1580985045
 10
14.3151155567
 20
8.1744900104
 10
14.4223193688
 20
8.3120258162
 10
14.5020161086
 20
8.4732705628
  0
LINE
  5
40A
100
AcDbEntity
  8
RACCORDO
100
AcDbLine
 62
250
  6
CONTINUOUS
 10
12.413302274
 20
7.4929235954
 11
14.5986628439
 21
9.5323009221
  0
LINE
  5
40B
100
AcDbEntity
  8
ASSI
100
AcDbLine
 62
250
  6
CONTINUOUS
 10
12.413302274
 20
7.4929235954
 11
14.5986628439
 21
9.5323009221
  0
LINE
  5
40C
100
AcDbEntity
  8
ASSI
100
AcDbLine
 62
7
  6
CONTINUOUS
 10
14.5505744031
 20
9.4101261036
 11
12.3648990222
 21
7.3704558979
  0
LINE
  5
40D
100
AcDbEntity
  8
RACCORDO
100
AcDbLine
 62
7
  6
CONTINUOUS
 10
14.5505744031
 20
9.4101261036
 11
12.3648997393
 21
7.370456563
  0
LINE
  5
40E
100
AcDbEntity
  8
RACCORDO
100
AcDbLine
 62
250
  6
CONTINUOUS
 10
14.2982759639
 20
8.5854698175
 11
14.5487679386
 21
8.811419073
  0
LINE
  5
40F
100
AcDbEntity
  8
ASSI
100
AcDbLine
 62
250
  6
CONTINUOUS
 10
14.2982759639
 20
8.5854698175
 11
14.5487679386
 21
8.811419073
  0
LWPOLYLINE
  5
410
100
AcDbEntity
  8
RACCORDO
100
AcDbPolyline
 62
250
  6
CONTINUOUS
 90
5
 70
0
 10
14.4493454417
 20
0.9888893615
 10
14.4424788801
 20
0.9903275998
 10
14.4231922074
 20
0.9892714892
 10
14.4028929082
 20
0.981363082
 10
14.3821894677
 20
0.9670597853
  0
LWPOLYLINE
  5
411
100
AcDbEntity
  8
ASSI
100
AcDbPolyline
 62
250
  6
CONTINUOUS
 90
5
 70
0
 10
14.4493454417
 20
0.9888893615
 10
14.4424788801
 20
0.9903275998
 10
14.4231922074
 20
0.9892714892
 10
14.4028929082
 20
0.981363082
 10
14.3821894677
 20
0.9670597853
  0
LWPOLYLINE
  5
412
100
AcDbEntity
  8
RACCORDO
100
AcDbPolyline
 62
7
  6
CONTINUOUS
 90
3
 70
0
 10
-2.479437368
 20
14.7994770083
 10
-2.5045067672
 20
14.8508616273
 10
-2.5195449224
 20
14.9011605767
  0
LWPOLYLINE
  5
413
100
AcDbEntity
  8
ASSI
100
AcDbPolyline
 62
7
  6
CONTINUOUS
 90
3
 70
0
 10
-2.4794633027
 20
14.7995212797
 10
-2.5045330059
 20
14.8509285153
 10
-2.5195609748
 20
14.9012397945
  0
LWPOLYLINE
  5
414
100
AcDbEntity
  8
RACCORDO
100
AcDbPolyline
 62
250
  6
CONTINUOUS
 90
4
 70
0
 10
-2.5809203495
 20
16.0738145712
 10
-2.5702510154
 20
16.0474826376
 10
-2.5621929669
 20
16.019886378
 10
-2.5571805398
 20
15.991452568
  0
LWPOLYLINE
  5
415
100
AcDbEntity
  8
ASSI
100
AcDbPolyline
 62
250
  6
CONTINUOUS
 90
4
 70
0
 10
-2.5809203495
 20
16.0738145712
 10
-2.5702510154
 20
16.0474826376
 10
-2.5621929669
 20
16.019886378
 10
-2.5571805398
 20
15.991452568
  0
LINE
  5
416
100
AcDbEntity
  8
DRAFT
100
AcDbLine
 62
250
  6
CONTINUOUS
 10
0.0162229854
 20
12.5189011349
 11
0.1008111223
 21
12.1828719538
  0
LINE
  5
417
100
AcDbEntity
  8
ASSI
100
AcDbLine
 62
250
  6
CONTINUOUS
 10
0.0162229854
 20
12.5189011349
 11
0.1008111223
 21
12.1828719538
  0
LWPOLYLINE
  5
418
100
AcDbEntity
  8
RACCORDO
100
AcDbPolyline
 62
250
  6
CONTINUOUS
 90
22
 70
0
 10
5.9289659061
 20
-13.2150100869
 10
5.9292087704
 20
-13.2363444443
 10
5.9303346339
 20
-13.2566868958
 10
5.9323434966
 20
-13.2760374416
 10
5.9352538337
 20
-13.2944929986
 10
5.93904717
 20
-13.3119566499
 10
5.94366808
 20
-13.3281376442
 10
5.9491292525
 20
-13.3430076221
 10
5.9554179987
 20
-13.356594943
 10
5.9624408266
 20
-13.3686939348
 10
5.9702084433
 20
-13.3792814404
 10
5.9787101418
 20
-13.3883806168
 10
5.9878203086
 20
-13.3958552631
 10
5.9975497018
 20
-13.4016811179
 10
6.0078875634
 20
-13.4058824425
 10
6.0186760061
 20
-13.4083958196
 10
6.0299263362
 20
-13.4091911693
 10
6.0416272473
 20
-13.4082985715
 10
6.0535869338
 20
-13.4057448489
 10
6.0657414604
 20
-13.4015389423
 10
6.0781547623
 20
-13.3956719107
 10
6.0908268395
 20
-13.3881437543
  0
LWPOLYLINE
  5
419
100
AcDbEntity
  8
RACCORDO
100
AcDbPolyline
 62
250
  6
CONTINUOUS
 90
16
 70
0
 10
5.3861232411
 20
-13.2790022164
 10
5.3865867478
 20
-13.3245772319
 10
5.3889487738
 20
-13.3683694481
 10
5.3931976946
 20
-13.4101600581
 10
5.3993131206
 20
-13.4497397006
 10
5.4072642949
 20
-13.4869114936
 10
5.4170106323
 20
-13.5214914793
 10
5.4285056116
 20
-13.553308764
 10
5.441691927
 20
-13.5822016021
 10
5.4564995865
 20
-13.6080211741
 10
5.472853583
 20
-13.6306372798
 10
5.4906742935
 20
-13.6499411592
 10
5.5098736211
 20
-13.665839393
 10
5.5303602705
 20
-13.6782531643
 10
5.5520311532
 20
-13.6871174777
 10
5.5555394286
 20
-13.6881851398
  0
LINE
  5
41A
100
AcDbEntity
  8
DRAFT
100
AcDbLine
 62
7
  6
CONTINUOUS
 10
4.6832351648
 20
11.2042079367
 11
4.6832351648
 21
10.9895697871
  0
LINE
  5
41B
100
AcDbEntity
  8
ASSI
100
AcDbLine
 62
7
  6
CONTINUOUS
 10
4.6832351648
 20
11.2042079367
 11
4.6832351648
 21
10.9895697871
  0
LINE
  5
41C
100
AcDbEntity
  8
DRAFT
100
AcDbLine
 62
7
  6
CONTINUOUS
 10
5.1183948636
 20
11.2469686847
 11
5.1183948636
 21
11.5878226108
  0
LINE
  5
41D
100
AcDbEntity
  8
ASSI
100
AcDbLine
 62
7
  6
CONTINUOUS
 10
5.1183948636
 20
11.2469686847
 11
5.1183948636
 21
11.5878226108
  0
LINE
  5
41E
100
AcDbEntity
  8
0
100
AcDbLine
 62
7
  6
CONTINUOUS
 10
5.7675044793
 20
8.6601613096
 11
5.7675044793
 21
8.6168600394
  0
LINE
  5
41F
100
AcDbEntity
  8
ASSI
100
AcDbLine
 62
7
  6
CONTINUOUS
 10
5.7675044793
 20
8.6601613096
 11
5.7675044793
 21
8.6168600394
  0
LWPOLYLINE
  5
420
100
AcDbEntity
  8
RACCORDO
100
AcDbPolyline
 62
250
  6
CONTINUOUS
 90
13
 70
0
 10
6.2730123003
 20
5.0471914794
 10
6.1450207261
 20
3.4846936979
 10
6.0268218621
 20
1.9279584293
 10
5.9184306742
 20
0.3771850356
 10
5.8198608547
 20
-1.1674278618
 10
5.7311249848
 20
-2.7056825077
 10
5.6522345332
 20
-4.2373820371
 10
5.5831996932
 20
-5.7623303676
 10
5.524029211
 20
-7.2803322278
 10
5.4747305498
 20
-8.7911932805
 10
5.4353100592
 20
-10.294720111
 10
5.4057729731
 20
-11.7907202534
 10
5.3861232411
 20
-13.2790022164
  0
LWPOLYLINE
  5
421
100
AcDbEntity
  8
RACCORDO
100
AcDbPolyline
 62
250
  6
CONTINUOUS
 90
13
 70
0
 10
6.8134899279
 20
5.062313759
 10
6.6858129677
 20
3.5036599062
 10
6.5679310247
 20
1.9511465401
 10
6.459844099
 20
0.4047736607
 10
6.3615407825
 20
-1.1356560626
 10
6.2730324833
 20
-2.6699452992
 10
6.1943534251
 20
-4.1975020577
 10
6.1255074483
 20
-5.718324063
 10
6.0664907124
 20
-7.2324135901
 10
6.0173259201
 20
-8.7391854728
 10
5.9780206386
 20
-10.2384446554
 10
5.9485673006
 20
-11.7303861934
 10
5.9289659061
 20
-13.2150100869
  0
LWPOLYLINE
  5
422
100
AcDbEntity
  8
0
100
AcDbPolyline
 62
7
  6
CONTINUOUS
 90
19
 70
0
 10
6.1947175912
 20
8.8312445503
 10
6.1921794238
 20
8.8045077797
 10
6.1928783985
 20
8.7775363269
 10
6.1968145153
 20
8.7503301917
 10
6.204146516
 20
8.7224667851
 10
6.2147156588
 20
8.6943686961
 10
6.2280457183
 20
8.6673036926
 10
6.2442644148
 20
8.6413174665
 10
6.2632440279
 20
8.6163643258
 10
6.2841251709
 20
8.593574962
 10
6.3069944456
 20
8.5730498664
 10
6.3317652502
 20
8.5546885477
 10
6.3573183928
 20
8.5393202235
 10
6.3836901109
 20
8.5270819418
 10
6.410844167
 20
8.5178366546
 10
6.4375526566
 20
8.5120024356
 10
6.463406278
 20
8.5097186425
 10
6.4888143328
 20
8.5108459175
 10
6.5137768211
 20
8.5153842607
  0
LWPOLYLINE
  5
423
100
AcDbEntity
  8
ASSI
100
AcDbPolyline
 62
7
  6
CONTINUOUS
 90
19
 70
0
 10
6.1947175912
 20
8.8312445503
 10
6.1921794238
 20
8.8045077797
 10
6.1928783985
 20
8.7775363269
 10
6.1968145153
 20
8.7503301917
 10
6.204146516
 20
8.7224667851
 10
6.2147156588
 20
8.6943686961
 10
6.2280457183
 20
8.6673036926
 10
6.2442644148
 20
8.6413174665
 10
6.2632440279
 20
8.6163643258
 10
6.2841251709
 20
8.593574962
 10
6.3069944456
 20
8.5730498664
 10
6.3317652502
 20
8.5546885477
 10
6.3573183928
 20
8.5393202235
 10
6.3836901109
 20
8.5270819418
 10
6.410844167
 20
8.5178366546
 10
6.4375526566
 20
8.5120024356
 10
6.463406278
 20
8.5097186425
 10
6.4888143328
 20
8.5108459175
 10
6.5137768211
 20
8.5153842607
  0
LWPOLYLINE
  5
424
100
AcDbEntity
  8
RACCORDO
100
AcDbPolyline
 62
250
  6
CONTINUOUS
 90
7
 70
0
 10
9.2270193611
 20
10.2843787499
 10
9.2294440108
 20
10.290404041
 10
9.2447035948
 20
10.3203711418
 10
9.2629934521
 20
10.3498696091
 10
9.284303283
 20
10.378919561
 10
9.3084885981
 20
10.4073290399
 10
9.3355484775
 20
10.4350906719
  0
LWPOLYLINE
  5
425
100
AcDbEntity
  8
ASSI
100
AcDbPolyline
 62
7
  6
CONTINUOUS
 90
3
 70
0
 10
12.3449095029
 20
7.3451513852
 10
12.3561011613
 20
7.3605378093
 10
12.3632517487
 20
7.3688023948
  0
LWPOLYLINE
  5
426
100
AcDbEntity
  8
RACCORDO
100
AcDbPolyline
 62
7
  6
CONTINUOUS
 90
3
 70
0
 10
12.344917728
 20
7.3451636466
 10
12.3561037595
 20
7.3605410546
 10
12.3632515138
 20
7.3688021317
  0
LINE
  5
427
100
AcDbEntity
  8
RACCORDO
100
AcDbLine
 62
7
  6
CONTINUOUS
 10
14.5898878309
 20
9.4570709937
 11
14.5716669465
 21
9.4323832467
  0
LINE
  5
428
100
AcDbEntity
  8
ASSI
100
AcDbLine
 62
7
  6
CONTINUOUS
 10
14.5898878309
 20
9.4570709937
 11
14.5716669608
 21
9.4323832638
  0
LWPOLYLINE
  5
429
100
AcDbEntity
  8
RACCORDO
100
AcDbPolyline
 62
250
  6
CONTINUOUS
 90
6
 70
0
 10
14.5605370318
 20
9.4204241987
 10
14.5733981636
 20
9.4376115492
 10
14.5840577075
 20
9.4575031603
 10
14.5921010734
 20
9.4800460241
 10
14.5971006304
 20
9.505061561
 10
14.5986628439
 20
9.5323009221
  0
LWPOLYLINE
  5
42A
100
AcDbEntity
  8
ASSI
100
AcDbPolyline
 62
250
  6
CONTINUOUS
 90
6
 70
0
 10
14.5605370318
 20
9.4204241987
 10
14.5733981636
 20
9.4376115492
 10
14.5840577075
 20
9.4575031603
 10
14.5921010734
 20
9.4800460241
 10
14.5971006304
 20
9.505061561
 10
14.5986628439
 20
9.5323009221
  0
LINE
  5
42B
100
AcDbEntity
  8
ASSI
100
AcDbLine
 62
7
  6
CONTINUOUS
 10
14.3151155567
 20
8.1744900104
 11
14.4223193688
 21
8.3120258162
  0
LINE
  5
42C
100
AcDbEntity
  8
RACCORDO
100
AcDbLine
 62
250
  6
CONTINUOUS
 10
14.3609312657
 20
8.2275036217
 11
14.2982759639
 21
8.1602379878
  0
LINE
  5
42D
100
AcDbEntity
  8
ASSI
100
AcDbLine
 62
250
  6
CONTINUOUS
 10
14.3609312657
 20
8.2275036217
 11
14.2982759639
 21
8.1602379878
  0
LINE
  5
42E
100
AcDbEntity
  8
RACCORDO
100
AcDbLine
 62
250
  6
CONTINUOUS
 10
14.2669308907
 20
1.0003320705
 11
14.3821894679
 21
0.9670597852
  0
LINE
  5
42F
100
AcDbEntity
  8
ASSI
100
AcDbLine
 62
250
  6
CONTINUOUS
 10
14.2669308907
 20
1.0003320705
 11
14.3821894679
 21
0.9670597852
  0
LINE
  5
430
100
AcDbEntity
  8
RACCORDO
100
AcDbLine
 62
250
  6
CONTINUOUS
 10
6.2730123003
 20
5.0471914794
 11
-12.119616708
 21
10.356686134
  0
LINE
  5
431
100
AcDbEntity
  8
RACCORDO
100
AcDbLine
 62
7
  6
CONTINUOUS
 10
14.4494987828
 20
0.9888448127
 11
14.2977576615
 21
1.0326489844
  0
LINE
  5
432
100
AcDbEntity
  8
ASSI
100
AcDbLine
 62
7
  6
CONTINUOUS
 10
14.4494987828
 20
0.9888448127
 11
14.2977576615
 21
1.0326489844
  0
LWPOLYLINE
  5
433
100
AcDbEntity
  8
RACCORDO
100
AcDbPolyline
 62
250
  6
CONTINUOUS
 90
7
 70
0
 10
14.3821894679
 20
0.9670597852
 10
14.4005403655
 20
0.9611952038
 10
14.4193189596
 20
0.9535727014
 10
14.4383632279
 20
0.9441053888
 10
14.4574633238
 20
0.9327410765
 10
14.4764319574
 20
0.9194260943
 10
14.4950959914
 20
0.9040908941
  0
LWPOLYLINE
  5
434
100
AcDbEntity
  8
ASSI
100
AcDbPolyline
 62
250
  6
CONTINUOUS
 90
7
 70
0
 10
14.3821894679
 20
0.9670597852
 10
14.4005403655
 20
0.9611952038
 10
14.4193189596
 20
0.9535727014
 10
14.4383632279
 20
0.9441053888
 10
14.4574633238
 20
0.9327410765
 10
14.4764319574
 20
0.9194260943
 10
14.4950959914
 20
0.9040908941
  0
LWPOLYLINE
  5
435
100
AcDbEntity
  8
RACCORDO
100
AcDbPolyline
 62
250
  6
CONTINUOUS
 90
4
 70
0
 10
12.2540789124
 20
-0.960465061
 10
12.2714676431
 20
-0.9699672656
 10
12.3058446465
 20
-0.9956302065
 10
12.3368442831
 20
-1.0261160401
  0
LWPOLYLINE
  5
436
100
AcDbEntity
  8
ASSI
100
AcDbPolyline
 62
250
  6
CONTINUOUS
 90
4
 70
0
 10
12.2540789124
 20
-0.960465061
 10
12.2714676431
 20
-0.9699672656
 10
12.3058446465
 20
-0.9956302065
 10
12.3368442831
 20
-1.0261160401
  0
LWPOLYLINE
  5
437
100
AcDbEntity
  8
0
100
AcDbPolyline
 62
7
  6
CONTINUOUS
 90
12
 70
0
 10
-7.7265061466
 20
12.626199863
 10
-7.7015436584
 20
12.6072494206
 10
-7.6761356035
 20
12.5914527983
 10
-7.6502819821
 20
12.578809996
 10
-7.6235734926
 20
12.5692240615
 10
-7.5964194365
 20
12.562791947
 10
-7.5700477183
 20
12.5598045101
 10
-7.5444945757
 20
12.5604197206
 10
-7.5197237711
 20
12.5644796086
 10
-7.4968544965
 20
12.5718011223
 10
-7.4759733535
 20
12.5825347526
 10
-7.4575673937
 20
12.5960342325
  0
LWPOLYLINE
  5
438
100
AcDbEntity
  8
ASSI
100
AcDbPolyline
 62
7
  6
CONTINUOUS
 90
12
 70
0
 10
-7.7265061466
 20
12.626199863
 10
-7.7015436584
 20
12.6072494206
 10
-7.6761356035
 20
12.5914527983
 10
-7.6502819821
 20
12.578809996
 10
-7.6235734926
 20
12.5692240615
 10
-7.5964194365
 20
12.562791947
 10
-7.5700477183
 20
12.5598045101
 10
-7.5444945757
 20
12.5604197206
 10
-7.5197237711
 20
12.5644796086
 10
-7.4968544965
 20
12.5718011223
 10
-7.4759733535
 20
12.5825347526
 10
-7.4575673937
 20
12.5960342325
  0
LWPOLYLINE
  5
439
100
AcDbEntity
  8
RACCORDO
100
AcDbPolyline
 62
250
  6
CONTINUOUS
 90
10
 70
0
 10
-5.659072662
 20
10.976687819
 10
-5.6808413352
 20
10.995258681
 10
-5.705163291
 20
11.0123090162
 10
-5.7315558868
 20
11.0270463948
 10
-5.7596862449
 20
11.0388693741
 10
-5.7893002027
 20
11.0472064902
 10
-5.8199141497
 20
11.0513749319
 10
-5.8506681651
 20
11.0506810489
 10
-5.8805577189
 20
11.0445850242
 10
-5.8861111528
 20
11.0422281859
  0
LINE
  5
43A
100
AcDbEntity
  8
0
100
AcDbLine
 62
7
  6
CONTINUOUS
 10
-3.6471778853
 20
11.7388013252
 11
-3.6140688019
 21
11.7072032682
  0
LINE
  5
43B
100
AcDbEntity
  8
ASSI
100
AcDbLine
 62
7
  6
CONTINUOUS
 10
-3.6471778853
 20
11.7388013252
 11
-3.6140688019
 21
11.7072032682
  0
LINE
  5
43C
100
AcDbEntity
  8
0
100
AcDbLine
 62
7
  6
CONTINUOUS
 10
-3.6140688019
 20
11.7072032682
 11
-3.5810322406
 21
11.6755176766
  0
LINE
  5
43D
100
AcDbEntity
  8
ASSI
100
AcDbLine
 62
7
  6
CONTINUOUS
 10
-3.6140688019
 20
11.7072032682
 11
-3.5810322406
 21
11.6755176766
  0
LINE
  5
43E
100
AcDbEntity
  8
0
100
AcDbLine
 62
7
  6
CONTINUOUS
 10
-3.5810322406
 20
11.6755176766
 11
-3.5480682014
 21
11.6437445503
  0
LINE
  5
43F
100
AcDbEntity
  8
ASSI
100
AcDbLine
 62
7
  6
CONTINUOUS
 10
-3.5810322406
 20
11.6755176766
 11
-3.5480682014
 21
11.6437445503
  0
LWPOLYLINE
  5
440
100
AcDbEntity
  8
0
100
AcDbPolyline
 62
7
  6
CONTINUOUS
 90
3
 70
0
 10
-3.2290089715
 20
11.3278842607
 10
-3.1416444895
 20
11.2386792834
 10
-3.0746791904
 20
11.1693786003
  0
LWPOLYLINE
  5
441
100
AcDbEntity
  8
ASSI
100
AcDbPolyline
 62
7
  6
CONTINUOUS
 90
3
 70
0
 10
-3.2290089715
 20
11.3278842607
 10
-3.1416444895
 20
11.2386792834
 10
-3.0746791904
 20
11.1693786003
  0
LWPOLYLINE
  5
442
100
AcDbEntity
  8
RACCORDO
100
AcDbPolyline
 62
7
  6
CONTINUOUS
 90
4
 70
0
 10
-1.7996502317
 20
11.7049564242
 10
-1.7244846435
 20
11.6227060691
 10
-1.6498015915
 20
11.5399943941
 10
-1.5756010757
 20
11.4568213993
  0
LWPOLYLINE
  5
443
100
AcDbEntity
  8
ASSI
100
AcDbPolyline
 62
7
  6
CONTINUOUS
 90
4
 70
0
 10
-1.7996502317
 20
11.7049564242
 10
-1.7244846435
 20
11.6227060691
 10
-1.6498015915
 20
11.5399943941
 10
-1.5756010757
 20
11.4568213993
  0
LINE
  5
444
100
AcDbEntity
  8
RACCORDO
100
AcDbLine
 62
7
  6
CONTINUOUS
 10
-2.3903822026
 20
12.8563205299
 11
-2.2869011078
 21
12.7379687614
  0
LINE
  5
445
100
AcDbEntity
  8
ASSI
100
AcDbLine
 62
7
  6
CONTINUOUS
 10
-2.3903822026
 20
12.8563205299
 11
-2.2869011078
 21
12.7379687614
  0
LWPOLYLINE
  5
446
100
AcDbEntity
  8
RACCORDO
100
AcDbPolyline
 62
250
  6
CONTINUOUS
 90
15
 70
0
 10
-2.5216201543
 20
14.7607791053
 10
-2.513511623
 20
14.7465460404
 10
-2.5044440684
 20
14.7323462421
 10
-2.4943997552
 20
14.7182562649
 10
-2.4833859918
 20
14.7043891413
 10
-2.4715183389
 20
14.690954881
 10
-2.4588354553
 20
14.6780448226
 10
-2.4453787528
 20
14.6657519074
 10
-2.4313139686
 20
14.6542562104
 10
-2.4167364202
 20
14.6436425984
 10
-2.4016991682
 20
14.6339600876
 10
-2.3863298697
 20
14.6252995783
 10
-2.3707301525
 20
14.6177157408
 10
-2.354970762
 20
14.611237914
 10
-2.3391392018
 20
14.6059000731
  0
LWPOLYLINE
  5
447
100
AcDbEntity
  8
ASSI
100
AcDbPolyline
 62
250
  6
CONTINUOUS
 90
15
 70
0
 10
-2.5216201543
 20
14.7607791053
 10
-2.513511623
 20
14.7465460404
 10
-2.5044440684
 20
14.7323462421
 10
-2.4943997552
 20
14.7182562649
 10
-2.4833859918
 20
14.7043891413
 10
-2.4715183389
 20
14.690954881
 10
-2.4588354553
 20
14.6780448226
 10
-2.4453787528
 20
14.6657519074
 10
-2.4313139686
 20
14.6542562104
 10
-2.4167364202
 20
14.6436425984
 10
-2.4016991682
 20
14.6339600876
 10
-2.3863298697
 20
14.6252995783
 10
-2.3707301525
 20
14.6177157408
 10
-2.354970762
 20
14.611237914
 10
-2.3391392018
 20
14.6059000731
  0
LWPOLYLINE
  5
448
100
AcDbEntity
  8
DRAFT
100
AcDbPolyline
 62
7
  6
CONTINUOUS
 90
5
 70
0
 10
4.063581954
 20
8.1699991891
 10
4.052166921
 20
8.2078408965
 10
4.0306582946
 20
8.2513097823
 10
4.0002585226
 20
8.2925590056
 10
3.9746131145
 20
8.3181484895
  0
LINE
  5
449
100
AcDbEntity
  8
DRAFT
100
AcDbLine
 62
250
  6
CONTINUOUS
 10
1.9647800986
 20
11.9564010959
 11
2.0493682238
 21
11.6203719802
  0
LINE
  5
44A
100
AcDbEntity
  8
ASSI
100
AcDbLine
 62
250
  6
CONTINUOUS
 10
1.9647800986
 20
11.9564010959
 11
2.0493682238
 21
11.6203719802
  0
LINE
  5
44B
100
AcDbEntity
  8
DRAFT
100
AcDbLine
 62
250
  6
CONTINUOUS
 10
3.9133372572
 20
11.3939010959
 11
3.9979253824
 21
11.0578719802
  0
LINE
  5
44C
100
AcDbEntity
  8
ASSI
100
AcDbLine
 62
250
  6
CONTINUOUS
 10
3.9133372572
 20
11.3939010959
 11
3.9979253824
 21
11.0578719802
  0
LINE
  5
44D
100
AcDbEntity
  8
RACCORDO
100
AcDbLine
 62
7
  6
CONTINUOUS
 10
2.7307482129
 20
14.5784359595
 11
2.8382620089
 21
14.1462135625
  0
LINE
  5
44E
100
AcDbEntity
  8
ASSI
100
AcDbLine
 62
7
  6
CONTINUOUS
 10
2.7307482129
 20
14.5784359595
 11
2.8382620089
 21
14.1462135625
  0
LINE
  5
44F
100
AcDbEntity
  8
0
100
AcDbLine
 62
7
  6
CONTINUOUS
 10
8.1401542798
 20
-2.8356474815
 11
8.7840499418
 21
-11.1163499418
  0
LWPOLYLINE
  5
450
100
AcDbEntity
  8
RACCORDO
100
AcDbPolyline
 62
250
  6
CONTINUOUS
 90
16
 70
0
 10
7.0037813174
 20
5.4766515924
 10
7.0033508558
 20
5.5145926569
 10
6.9991699895
 20
5.5532404975
 10
6.9912844815
 20
5.5921718577
 10
6.979780667
 20
5.6309603732
 10
6.96478451
 20
5.6691812357
 10
6.9464602261
 20
5.7064158464
 10
6.9250084791
 20
5.7422564105
 10
6.9006641895
 20
5.7763103919
 10
6.873693968
 20
5.808204809
 10
6.8443931781
 20
5.8375903427
 10
6.8130827141
 20
5.8641451447
 10
6.7801054989
 20
5.8875783572
 10
6.7458227034
 20
5.9076333214
 10
6.7106097887
 20
5.9240903831
 10
6.6748524102
 20
5.9367692878
  0
LINE
  5
451
100
AcDbEntity
  8
0
100
AcDbLine
 62
7
  6
CONTINUOUS
 10
8.7840499418
 20
7.1181899542
 11
8.7840499418
 21
6.5166773179
  0
LINE
  5
452
100
AcDbEntity
  8
0
100
AcDbLine
 62
7
  6
CONTINUOUS
 10
8.7840499418
 20
-11.1163499418
 11
8.7840499418
 21
-11.7178625781
  0
LINE
  5
453
100
AcDbEntity
  8
RACCORDO
100
AcDbLine
 62
7
  6
CONTINUOUS
 10
7.5611859206
 20
-12.4246353709
 11
8.4785054227
 21
6.5303564644
  0
LINE
  5
454
100
AcDbEntity
  8
0
100
AcDbLine
 62
7
  6
CONTINUOUS
 10
8.7840499418
 20
6.5166773179
 11
8.1401542798
 21
-2.8356474815
  0
LWPOLYLINE
  5
455
100
AcDbEntity
  8
RACCORDO
100
AcDbPolyline
 62
250
  6
CONTINUOUS
 90
9
 70
0
 10
6.0908268395
 20
-13.3881437543
 10
6.0867535012
 20
-13.4254758864
 10
6.0789695622
 20
-13.4612769193
 10
6.0675602718
 20
-13.4951547613
 10
6.0526505842
 20
-13.5267383836
 10
6.0344037897
 20
-13.5556818833
 10
6.0130197267
 20
-13.5816682725
 10
5.9887325925
 20
-13.6044129489
 10
5.967184152
 20
-13.6202413115
  0
LWPOLYLINE
  5
456
100
AcDbEntity
  8
ASSI
100
AcDbPolyline
 62
7
  6
CONTINUOUS
 90
5
 70
0
 10
8.6654256542
 20
10.9008572397
 10
8.6786747613
 20
11.004410424
 10
8.7176897234
 20
11.1027120678
 10
8.7829922821
 20
11.1976819336
 10
8.8745824374
 20
11.2893200214
  0
LWPOLYLINE
  5
457
100
AcDbEntity
  8
SMUSSO
100
AcDbPolyline
 62
7
  6
CONTINUOUS
 90
3
 70
0
 10
8.9620309464
 20
10.6329510726
 10
8.9745555892
 20
10.72215607
 10
9.0085017929
 20
10.8038749777
  0
LWPOLYLINE
  5
458
100
AcDbEntity
  8
ASSI
100
AcDbPolyline
 62
7
  6
CONTINUOUS
 90
3
 70
0
 10
8.9620309464
 20
10.6329510726
 10
8.9745555892
 20
10.72215607
 10
9.0085017929
 20
10.8038749777
  0
LINE
  5
459
100
AcDbEntity
  8
RACCORDO
100
AcDbLine
 62
7
  6
CONTINUOUS
 10
14.6049103269
 20
9.4837283868
 11
14.5898878309
 21
9.4570709937
  0
LINE
  5
45A
100
AcDbEntity
  8
ASSI
100
AcDbLine
 62
7
  6
CONTINUOUS
 10
14.6049103269
 20
9.4837283868
 11
14.5898878309
 21
9.4570709937
  0
LWPOLYLINE
  5
45B
100
AcDbEntity
  8
RACCORDO
100
AcDbPolyline
 62
250
  6
CONTINUOUS
 90
10
 70
0
 10
12.3453936291
 20
7.4074675104
 10
12.3340637141
 20
7.3884802143
 10
12.3227503955
 20
7.3680359672
 10
12.3115832146
 20
7.3459479183
 10
12.3005092391
 20
7.3221612513
 10
12.2895814013
 20
7.2967307824
 10
12.2790880386
 20
7.2696341104
 10
12.2689637812
 20
7.240697646
 10
12.2592739989
 20
7.2100949784
 10
12.2505031386
 20
7.1783244744
  0
LWPOLYLINE
  5
45C
100
AcDbEntity
  8
ASSI
100
AcDbPolyline
 62
250
  6
CONTINUOUS
 90
10
 70
0
 10
12.3453936291
 20
7.4074675104
 10
12.3340637141
 20
7.3884802143
 10
12.3227503955
 20
7.3680359672
 10
12.3115832146
 20
7.3459479183
 10
12.3005092391
 20
7.3221612513
 10
12.2895814013
 20
7.2967307824
 10
12.2790880386
 20
7.2696341104
 10
12.2689637812
 20
7.240697646
 10
12.2592739989
 20
7.2100949784
 10
12.2505031386
 20
7.1783244744
  0
LINE
  5
45D
100
AcDbEntity
  8
RACCORDO
100
AcDbLine
 62
250
  6
CONTINUOUS
 10
14.4319363041
 20
8.3336950817
 11
14.3609312657
 21
8.2275036217
  0
LINE
  5
45E
100
AcDbEntity
  8
ASSI
100
AcDbLine
 62
250
  6
CONTINUOUS
 10
14.4319363041
 20
8.3336950817
 11
14.3609312657
 21
8.2275036217
  0
LINE
  5
45F
100
AcDbEntity
  8
RACCORDO
100
AcDbLine
 62
250
  6
CONTINUOUS
 10
14.2982759639
 20
2.6099091082
 11
14.5487679386
 21
2.8358437869
  0
LINE
  5
460
100
AcDbEntity
  8
ASSI
100
AcDbLine
 62
250
  6
CONTINUOUS
 10
14.2982759639
 20
2.6099091082
 11
14.5487679386
 21
2.8358437869
  0
LINE
  5
461
100
AcDbEntity
  8
RACCORDO
100
AcDbLine
 62
250
  6
CONTINUOUS
 10
14.2982759639
 20
1.7005678574
 11
14.5487679386
 21
1.9265171129
  0
LINE
  5
462
100
AcDbEntity
  8
ASSI
100
AcDbLine
 62
250
  6
CONTINUOUS
 10
14.2982759639
 20
1.7005678574
 11
14.5487679386
 21
1.9265171129
  0
LINE
  5
463
100
AcDbEntity
  8
RACCORDO
100
AcDbLine
 62
7
  6
CONTINUOUS
 10
12.2540789124
 20
-0.7525566223
 11
14.2669308907
 21
1.0003320705
  0
LINE
  5
464
100
AcDbEntity
  8
ASSI
100
AcDbLine
 62
7
  6
CONTINUOUS
 10
12.2540789124
 20
-0.7525566223
 11
14.2669308907
 21
1.0003320705
  0
LINE
  5
465
100
AcDbEntity
  8
RACCORDO
100
AcDbLine
 62
250
  6
CONTINUOUS
 10
14.3821894679
 20
0.9670597852
 11
12.2540789124
 21
-0.8862016419
  0
LINE
  5
466
100
AcDbEntity
  8
ASSI
100
AcDbLine
 62
250
  6
CONTINUOUS
 10
14.3821894679
 20
0.9670597852
 11
12.2540789124
 21
-0.8862016419
  0
LWPOLYLINE
  5
467
100
AcDbEntity
  8
RACCORDO
100
AcDbPolyline
 62
7
  6
CONTINUOUS
 90
4
 70
0
 10
14.2669308907
 20
1.0003320705
 10
14.287723135
 20
1.0159459362
 10
14.2972856859
 20
1.0271291474
 10
14.298275145
 20
1.0303635607
  0
LWPOLYLINE
  5
468
100
AcDbEntity
  8
ASSI
100
AcDbPolyline
 62
7
  6
CONTINUOUS
 90
4
 70
0
 10
14.2669308907
 20
1.0003320705
 10
14.287723135
 20
1.0159459362
 10
14.2972856859
 20
1.0271291474
 10
14.298275145
 20
1.0303635607
  0
LWPOLYLINE
  5
469
100
AcDbEntity
  8
RACCORDO
100
AcDbPolyline
 62
250
  6
CONTINUOUS
 90
6
 70
0
 10
10.5168167079
 20
8.7272059274
 10
10.5389072738
 20
8.7287608922
 10
10.5605168938
 20
8.7331567038
 10
10.5812858193
 20
8.7407664287
 10
10.6015807923
 20
8.7512211214
 10
10.621403798
 20
8.7645217757
  0
LWPOLYLINE
  5
46A
100
AcDbEntity
  8
ASSI
100
AcDbPolyline
 62
250
  6
CONTINUOUS
 90
6
 70
0
 10
10.5168167079
 20
8.7272059274
 10
10.5389072738
 20
8.7287608922
 10
10.5605168938
 20
8.7331567038
 10
10.5812858193
 20
8.7407664287
 10
10.6015807923
 20
8.7512211214
 10
10.621403798
 20
8.7645217757
  0
LINE
  5
46B
100
AcDbEntity
  8
RACCORDO
100
AcDbLine
 62
250
  6
CONTINUOUS
 10
6.6748524095
 20
5.9367692873
 11
-11.7281491183
 21
11.2492582303
  0
LINE
  5
46C
100
AcDbEntity
  8
DRAFT
100
AcDbLine
 62
7
  6
CONTINUOUS
 10
8.7840499418
 20
6.5166773179
 11
8.4745056501
 21
6.6060350579
  0
LINE
  5
46D
100
AcDbEntity
  8
0
100
AcDbLine
 62
7
  6
CONTINUOUS
 10
-6.6723751736
 20
13.4554587244
 11
-6.6948775252
 21
13.4686755389
  0
LINE
  5
46E
100
AcDbEntity
  8
ASSI
100
AcDbLine
 62
7
  6
CONTINUOUS
 10
-6.6723751736
 20
13.4554587244
 11
-6.6948775252
 21
13.4686755389
  0
LWPOLYLINE
  5
46F
100
AcDbEntity
  8
RACCORDO
100
AcDbPolyline
 62
250
  6
CONTINUOUS
 90
10
 70
0
 10
3.8672067796
 20
8.226687819
 10
3.8454381064
 20
8.245258681
 10
3.8211161507
 20
8.2623090162
 10
3.7947235548
 20
8.2770463948
 10
3.7665931967
 20
8.2888693741
 10
3.736979239
 20
8.2972064902
 10
3.7063652919
 20
8.3013749319
 10
3.6756112766
 20
8.3006810489
 10
3.6457217227
 20
8.2945850242
 10
3.6401682888
 20
8.2922281859
  0
LINE
  5
470
100
AcDbEntity
  8
0
100
AcDbLine
 62
7
  6
CONTINUOUS
 10
-3.4616184847
 20
12.424953574
 11
-3.4541000475
 21
12.4181629642
  0
LWPOLYLINE
  5
471
100
AcDbEntity
  8
0
100
AcDbPolyline
 62
7
  6
CONTINUOUS
 90
4
 70
0
 10
-2.6560181141
 20
12.5769585469
 10
-2.6799919739
 20
12.5987243661
 10
-2.7047654732
 20
12.6190605733
 10
-2.7303386121
 20
12.6379671684
  0
LWPOLYLINE
  5
472
100
AcDbEntity
  8
ASSI
100
AcDbPolyline
 62
7
  6
CONTINUOUS
 90
4
 70
0
 10
-2.6560181141
 20
12.5769585469
 10
-2.6799919739
 20
12.5987243661
 10
-2.7047654732
 20
12.6190605733
 10
-2.7303386121
 20
12.6379671684
  0
LINE
  5
473
100
AcDbEntity
  8
0
100
AcDbLine
 62
7
  6
CONTINUOUS
 10
-2.6560181141
 20
12.5769585469
 11
-2.6208802828
 21
12.5433793175
  0
LINE
  5
474
100
AcDbEntity
  8
ASSI
100
AcDbLine
 62
7
  6
CONTINUOUS
 10
-2.6560181141
 20
12.5769585469
 11
-2.6208802828
 21
12.5433793175
  0
LINE
  5
475
100
AcDbEntity
  8
0
100
AcDbLine
 62
7
  6
CONTINUOUS
 10
-2.6208802828
 20
12.5433793175
 11
-2.5858245883
 21
12.5097012818
  0
LINE
  5
476
100
AcDbEntity
  8
ASSI
100
AcDbLine
 62
7
  6
CONTINUOUS
 10
-2.6208802828
 20
12.5433793175
 11
-2.5858245883
 21
12.5097012818
  0
LINE
  5
477
100
AcDbEntity
  8
0
100
AcDbLine
 62
7
  6
CONTINUOUS
 10
-2.5858245883
 20
12.5097012818
 11
-2.5508510304
 21
12.4759244396
  0
LINE
  5
478
100
AcDbEntity
  8
ASSI
100
AcDbLine
 62
7
  6
CONTINUOUS
 10
-2.5858245883
 20
12.5097012818
 11
-2.5508510304
 21
12.4759244396
  0
LWPOLYLINE
  5
479
100
AcDbEntity
  8
RACCORDO
100
AcDbPolyline
 62
7
  6
CONTINUOUS
 90
7
 70
0
 10
-2.2606375929
 20
12.1886207297
 10
-2.1826387555
 20
12.1092050086
 10
-2.1051069624
 20
12.0293112889
 10
-2.0280422134
 20
11.9489395706
 10
-1.9514393447
 20
11.8680842942
 10
-1.8753035201
 20
11.7867510191
 10
-1.7996502317
 20
11.7049564242
  0
LWPOLYLINE
  5
47A
100
AcDbEntity
  8
ASSI
100
AcDbPolyline
 62
7
  6
CONTINUOUS
 90
7
 70
0
 10
-2.2606375929
 20
12.1886207297
 10
-2.1826387555
 20
12.1092050086
 10
-2.1051069624
 20
12.0293112889
 10
-2.0280422134
 20
11.9489395706
 10
-1.9514393447
 20
11.8680842942
 10
-1.8753035201
 20
11.7867510191
 10
-1.7996502317
 20
11.7049564242
  0
LINE
  5
47B
100
AcDbEntity
  8
RACCORDO
100
AcDbLine
 62
7
  6
CONTINUOUS
 10
-1.558013486
 20
11.4388086895
 11
-1.5756010757
 21
11.4568213993
  0
LINE
  5
47C
100
AcDbEntity
  8
ASSI
100
AcDbLine
 62
7
  6
CONTINUOUS
 10
-1.558013486
 20
11.4388086895
 11
-1.5756010757
 21
11.4568213993
  0
LINE
  5
47D
100
AcDbEntity
  8
RACCORDO
100
AcDbLine
 62
7
  6
CONTINUOUS
 10
-1.7414105523
 20
14.3586958282
 11
-1.6509508879
 21
14.2420951425
  0
LINE
  5
47E
100
AcDbEntity
  8
ASSI
100
AcDbLine
 62
7
  6
CONTINUOUS
 10
-1.7414105523
 20
14.3586958282
 11
-1.6509508879
 21
14.2420951425
  0
LWPOLYLINE
  5
47F
100
AcDbEntity
  8
ASSI
100
AcDbPolyline
 62
7
  6
CONTINUOUS
 90
6
 70
0
 10
-2.5628237208
 20
16.1566444136
 10
-2.5892222518
 20
16.1913614468
 10
-2.6214547451
 20
16.2211187391
 10
-2.6586229454
 20
16.2449039997
 10
-2.6996296798
 20
16.2618576904
 10
-2.7047766389
 20
16.2634072272
  0
LWPOLYLINE
  5
480
100
AcDbEntity
  8
RACCORDO
100
AcDbPolyline
 62
7
  6
CONTINUOUS
 90
6
 70
0
 10
-2.562823725
 20
16.1566444203
 10
-2.5892222558
 20
16.1913614513
 10
-2.6214547484
 20
16.2211187417
 10
-2.6586229479
 20
16.244904001
 10
-2.6996296811
 20
16.2618576908
 10
-2.7047766389
 20
16.2634072272
  0
LINE
  5
481
100
AcDbEntity
  8
RACCORDO
100
AcDbLine
 62
7
  6
CONTINUOUS
 10
4.6793053714
 20
14.0159359595
 11
4.7868191675
 21
13.5837135625
  0
LINE
  5
482
100
AcDbEntity
  8
ASSI
100
AcDbLine
 62
7
  6
CONTINUOUS
 10
4.6793053714
 20
14.0159359595
 11
4.7868191675
 21
13.5837135625
  0
LINE
  5
483
100
AcDbEntity
  8
0
100
AcDbLine
 62
7
  6
CONTINUOUS
 10
9.0931198596
 20
7.440232125
 11
9.0931198596
 21
-11.5255260261
  0
LINE
  5
484
100
AcDbEntity
  8
ASSI
100
AcDbLine
 62
7
  6
CONTINUOUS
 10
9.0931198596
 20
-9.0226641416
 11
9.0931198596
 21
4.9373702405
  0
LINE
  5
485
100
AcDbEntity
  8
SMUSSO
100
AcDbLine
 62
250
  6
CONTINUOUS
 10
9.1344288491
 20
10.6793330616
 11
9.1344288491
 21
10.9543815596
  0
LINE
  5
486
100
AcDbEntity
  8
ASSI
100
AcDbLine
 62
250
  6
CONTINUOUS
 10
9.1344288491
 20
10.6793330616
 11
9.1344288491
 21
10.9543815596
  0
LINE
  5
487
100
AcDbEntity
  8
DRAFT
100
AcDbLine
 62
7
  6
CONTINUOUS
 10
9.3962460162
 20
10.7206948467
 11
9.3962460162
 21
10.9023225917
  0
LINE
  5
488
100
AcDbEntity
  8
ASSI
100
AcDbLine
 62
7
  6
CONTINUOUS
 10
9.3962460162
 20
10.7206948467
 11
9.3962460162
 21
10.9023225917
  0
LINE
  5
489
100
AcDbEntity
  8
DRAFT
100
AcDbLine
 62
7
  6
CONTINUOUS
 10
9.6217269633
 20
10.6370137568
 11
9.6217269633
 21
10.8602901193
  0
LINE
  5
48A
100
AcDbEntity
  8
ASSI
100
AcDbLine
 62
7
  6
CONTINUOUS
 10
9.6217269633
 20
10.6370137568
 11
9.6217269633
 21
10.8602901193
  0
LINE
  5
48B
100
AcDbEntity
  8
0
100
AcDbLine
 62
7
  6
CONTINUOUS
 10
10.0274626912
 20
10.3676867938
 11
10.0274626912
 21
10.1232826812
  0
LINE
  5
48C
100
AcDbEntity
  8
0
100
AcDbLine
 62
7
  6
CONTINUOUS
 10
10.0282633095
 20
10.1232826812
 11
10.0282633095
 21
10.0857183133
  0
LINE
  5
48D
100
AcDbEntity
  8
0
100
AcDbLine
 62
7
  6
CONTINUOUS
 10
10.276183341
 20
10.3379877266
 11
10.276183341
 21
10.0705294311
  0
LINE
  5
48E
100
AcDbEntity
  8
SMUSSO
100
AcDbLine
 62
7
  6
CONTINUOUS
 10
10.6249592108
 20
12.2524073685
 11
10.6249592108
 21
12.0066408752
  0
LINE
  5
48F
100
AcDbEntity
  8
ASSI
100
AcDbLine
 62
7
  6
CONTINUOUS
 10
10.6249592108
 20
12.2524073685
 11
10.6249592108
 21
12.0066408752
  0
LINE
  5
490
100
AcDbEntity
  8
0
100
AcDbLine
 62
7
  6
CONTINUOUS
 10
10.7957985833
 20
10.1879877266
 11
10.7957985833
 21
10.0956607018
  0
LINE
  5
491
100
AcDbEntity
  8
RACCORDO
100
AcDbLine
 62
250
  6
CONTINUOUS
 10
9.3107144136
 20
9.3127557474
 11
9.3106441029
 21
9.2921556914
  0
LINE
  5
492
100
AcDbEntity
  8
ASSI
100
AcDbLine
 62
250
  6
CONTINUOUS
 10
9.3107144136
 20
9.3127557474
 11
9.3106441029
 21
9.2921556914
  0
LWPOLYLINE
  5
493
100
AcDbEntity
  8
RACCORDO
100
AcDbPolyline
 62
250
  6
CONTINUOUS
 90
9
 70
0
 10
10.3309252392
 20
8.7783023285
 10
10.3310724858
 20
8.8007957643
 10
10.3291470367
 20
8.8215498876
 10
10.3251725227
 20
8.840288067
 10
10.3191994123
 20
8.8567608032
 10
10.3113053111
 20
8.8707463776
 10
10.3015949911
 20
8.8820552321
 10
10.2901972675
 20
8.8905356783
 10
10.2873690551
 20
8.8920650449
  0
LWPOLYLINE
  5
494
100
AcDbEntity
  8
ASSI
100
AcDbPolyline
 62
250
  6
CONTINUOUS
 90
9
 70
0
 10
10.3309252392
 20
8.7783023285
 10
10.3310724858
 20
8.8007957643
 10
10.3291470367
 20
8.8215498876
 10
10.3251725227
 20
8.840288067
 10
10.3191994123
 20
8.8567608032
 10
10.3113053111
 20
8.8707463776
 10
10.3015949911
 20
8.8820552321
 10
10.2901972675
 20
8.8905356783
 10
10.2873690551
 20
8.8920650449
  0
LWPOLYLINE
  5
495
100
AcDbEntity
  8
ASSI
100
AcDbPolyline
 62
250
  6
CONTINUOUS
 90
4
 70
0
 10
12.254078788
 20
7.0351454173
 10
12.2508474796
 20
7.0152371809
 10
12.2403002979
 20
6.9943450123
 10
12.2227338392
 20
6.9746689153
  0
LWPOLYLINE
  5
496
100
AcDbEntity
  8
RACCORDO
100
AcDbPolyline
 62
250
  6
CONTINUOUS
 90
4
 70
0
 10
12.2540787887
 20
7.0351457678
 10
12.2508474796
 20
7.0152371809
 10
12.2403002979
 20
6.9943450123
 10
12.2227338392
 20
6.9746689153
  0
LINE
  5
497
100
AcDbEntity
  8
ASSI
100
AcDbLine
 62
7
  6
CONTINUOUS
 10
12.2617271928
 20
7.1193944144
 11
12.2708179946
 21
7.1640166811
  0
LINE
  5
498
100
AcDbEntity
  8
RACCORDO
100
AcDbLine
 62
7
  6
CONTINUOUS
 10
12.2617449722
 20
7.1195002427
 11
12.270841713
 21
7.164115832
  0
LWPOLYLINE
  5
499
100
AcDbEntity
  8
RACCORDO
100
AcDbPolyline
 62
250
  6
CONTINUOUS
 90
6
 70
0
 10
12.2505031386
 20
7.1783244744
 10
12.2426426924
 20
7.1451634765
 10
12.2357011682
 20
7.1108346422
 10
12.2301885366
 20
7.0765043107
 10
12.2262747877
 20
7.0425612616
 10
12.2237899315
 20
7.0086167152
  0
LWPOLYLINE
  5
49A
100
AcDbEntity
  8
ASSI
100
AcDbPolyline
 62
250
  6
CONTINUOUS
 90
6
 70
0
 10
12.2505031386
 20
7.1783244744
 10
12.2426426924
 20
7.1451634765
 10
12.2357011682
 20
7.1108346422
 10
12.2301885366
 20
7.0765043107
 10
12.2262747877
 20
7.0425612616
 10
12.2237899315
 20
7.0086167152
  0
LWPOLYLINE
  5
49B
100
AcDbEntity
  8
ASSI
100
AcDbPolyline
 62
7
  6
CONTINUOUS
 90
6
 70
0
 10
12.2708179946
 20
7.1640166811
 10
12.2836360124
 20
7.2104959067
 10
12.2987251491
 20
7.2535603136
 10
12.3146817696
 20
7.2908089861
 10
12.3306234357
 20
7.3218188389
 10
12.3449095029
 20
7.3451513852
  0
LWPOLYLINE
  5
49C
100
AcDbEntity
  8
RACCORDO
100
AcDbPolyline
 62
7
  6
CONTINUOUS
 90
6
 70
0
 10
12.270841713
 20
7.164115832
 10
12.283663208
 20
7.210582772
 10
12.2987522592
 20
7.2536298677
 10
12.3147046216
 20
7.290857526
 10
12.3306391252
 20
7.3218467059
 10
12.344917728
 20
7.3451636466
  0
LINE
  5
49D
100
AcDbEntity
  8
RACCORDO
100
AcDbLine
 62
7
  6
CONTINUOUS
 10
14.6164455973
 20
9.51167886
 11
14.6049103269
 21
9.4837283868
  0
LINE
  5
49E
100
AcDbEntity
  8
ASSI
100
AcDbLine
 62
7
  6
CONTINUOUS
 10
14.6164455973
 20
9.51167886
 11
14.6049103269
 21
9.4837283868
  0
LINE
  5
49F
100
AcDbEntity
  8
ASSI
100
AcDbLine
 62
7
  6
CONTINUOUS
 10
14.4223193688
 20
8.3120258162
 11
14.5020161086
 21
8.4732705628
  0
LINE
  5
4A0
100
AcDbEntity
  8
ASSI
100
AcDbLine
 62
7
  6
CONTINUOUS
 10
14.3151155744
 20
1.2895880687
 11
14.4223193791
 21
1.4271238725
  0
LWPOLYLINE
  5
4A1
100
AcDbEntity
  8
RACCORDO
100
AcDbPolyline
 62
250
  6
CONTINUOUS
 90
4
 70
0
 10
14.5487679386
 20
2.8358437869
 10
14.5593077594
 20
2.8476493665
 10
14.565636081
 20
2.8601846173
 10
14.5675749825
 20
2.8722045084
  0
LWPOLYLINE
  5
4A2
100
AcDbEntity
  8
ASSI
100
AcDbPolyline
 62
250
  6
CONTINUOUS
 90
4
 70
0
 10
14.5487679386
 20
2.8358437869
 10
14.5593077594
 20
2.8476493665
 10
14.565636081
 20
2.8601846173
 10
14.5675749825
 20
2.8722045084
  0
LWPOLYLINE
  5
4A3
100
AcDbEntity
  8
RACCORDO
100
AcDbPolyline
 62
250
  6
CONTINUOUS
 90
4
 70
0
 10
14.5487679386
 20
1.9265171129
 10
14.5593077983
 20
1.9383227487
 10
14.5656361097
 20
1.9508580316
 10
14.5675749825
 20
1.9628778344
  0
LWPOLYLINE
  5
4A4
100
AcDbEntity
  8
ASSI
100
AcDbPolyline
 62
250
  6
CONTINUOUS
 90
4
 70
0
 10
14.5487679386
 20
1.9265171129
 10
14.5593077983
 20
1.9383227487
 10
14.5656361097
 20
1.9508580316
 10
14.5675749825
 20
1.9628778344
  0
LWPOLYLINE
  5
4A5
100
AcDbEntity
  8
RACCORDO
100
AcDbPolyline
 62
250
  6
CONTINUOUS
 90
3
 70
0
 10
12.2227338392
 20
-1.0405614526
 10
12.2403003035
 20
-1.0208853475
 10
12.2508474838
 20
-0.9999931739
  0
LWPOLYLINE
  5
4A6
100
AcDbEntity
  8
ASSI
100
AcDbPolyline
 62
250
  6
CONTINUOUS
 90
3
 70
0
 10
12.2227338392
 20
-1.0405614526
 10
12.2403003035
 20
-1.0208853475
 10
12.2508474838
 20
-0.9999931739
  0
LWPOLYLINE
  5
4A7
100
AcDbEntity
  8
RACCORDO
100
AcDbPolyline
 62
250
  6
CONTINUOUS
 90
3
 70
0
 10
14.30222648
 20
1.2770419415
 10
14.3386588933
 20
1.3157334496
 10
14.3769419403
 20
1.3635324727
  0
LWPOLYLINE
  5
4A8
100
AcDbEntity
  8
ASSI
100
AcDbPolyline
 62
250
  6
CONTINUOUS
 90
3
 70
0
 10
14.30222648
 20
1.2770419415
 10
14.3386588933
 20
1.3157334496
 10
14.3769419403
 20
1.3635324727
  0
LINE
  5
4A9
100
AcDbEntity
  8
RACCORDO
100
AcDbLine
 62
7
  6
CONTINUOUS
 10
12.4014540883
 20
-2.9241503364
 11
12.4122519638
 21
-2.9127048323
  0
LINE
  5
4AA
100
AcDbEntity
  8
ASSI
100
AcDbLine
 62
7
  6
CONTINUOUS
 10
12.4014568447
 20
-2.9241474146
 11
12.4122510045
 21
-2.9127057171
  0
LWPOLYLINE
  5
4AB
100
AcDbEntity
  8
RACCORDO
100
AcDbPolyline
 62
7
  6
CONTINUOUS
 90
4
 70
0
 10
14.2982759639
 20
1.2731965451
 10
14.3151155744
 20
1.2895880687
 10
14.4223193791
 20
1.4271238725
 10
14.5020161133
 20
1.5883686152
  0
LWPOLYLINE
  5
4AC
100
AcDbEntity
  8
RACCORDO
100
AcDbPolyline
 62
250
  6
CONTINUOUS
 90
14
 70
0
 10
12.4609443827
 20
-2.7899697541
 10
12.4517822438
 20
-2.7987077217
 10
12.4423354057
 20
-2.8085156695
 10
12.4326038685
 20
-2.8193935975
 10
12.4225748375
 20
-2.8312696649
 10
12.4122611074
 20
-2.8442157125
 10
12.4017010621
 20
-2.8584472629
 10
12.3908756547
 20
-2.8739698823
 10
12.3798039322
 20
-2.8907780045
 10
12.3685814186
 20
-2.9090704538
 10
12.3571720382
 20
-2.9288963313
 10
12.3456118667
 20
-2.9502065359
 10
12.3341046553
 20
-2.9730525876
 10
12.3226215991
 20
-2.9975074439
  0
LWPOLYLINE
  5
4AD
100
AcDbEntity
  8
ASSI
100
AcDbPolyline
 62
250
  6
CONTINUOUS
 90
14
 70
0
 10
12.4609443827
 20
-2.7899697541
 10
12.4517822438
 20
-2.7987077217
 10
12.4423354057
 20
-2.8085156695
 10
12.4326038685
 20
-2.8193935975
 10
12.4225748375
 20
-2.8312696649
 10
12.4122611074
 20
-2.8442157125
 10
12.4017010621
 20
-2.8584472629
 10
12.3908756547
 20
-2.8739698823
 10
12.3798039322
 20
-2.8907780045
 10
12.3685814186
 20
-2.9090704538
 10
12.3571720382
 20
-2.9288963313
 10
12.3456118667
 20
-2.9502065359
 10
12.3341046553
 20
-2.9730525876
 10
12.3226215991
 20
-2.9975074439
  0
LINE
  5
4AE
100
AcDbEntity
  8
RACCORDO
100
AcDbLine
 62
250
  6
CONTINUOUS
 10
12.4609443827
 20
-2.7899697541
 11
14.5986628439
 21
-0.7950520181
  0
LINE
  5
4AF
100
AcDbEntity
  8
ASSI
100
AcDbLine
 62
250
  6
CONTINUOUS
 10
12.4609443827
 20
-2.7899697541
 11
14.5986628439
 21
-0.7950520181
  0
LINE
  5
4B0
100
AcDbEntity
  8
RACCORDO
100
AcDbLine
 62
7
  6
CONTINUOUS
 10
12.4128559419
 20
-2.9121445726
 11
14.5505744031
 21
-0.9172268365
  0
LINE
  5
4B1
100
AcDbEntity
  8
ASSI
100
AcDbLine
 62
7
  6
CONTINUOUS
 10
12.4128559419
 20
-2.9121445726
 11
14.5505744031
 21
-0.9172268365
  0
LINE
  5
4B2
100
AcDbEntity
  8
RACCORDO
100
AcDbLine
 62
250
  6
CONTINUOUS
 10
14.5986628439
 20
0.6880959283
 11
12.413302274
 21
-1.2150215757
  0
LINE
  5
4B3
100
AcDbEntity
  8
ASSI
100
AcDbLine
 62
250
  6
CONTINUOUS
 10
14.5986628439
 20
0.6880959283
 11
12.413302274
 21
-1.2150215757
  0
LINE
  5
4B4
100
AcDbEntity
  8
0
100
AcDbLine
 62
7
  6
CONTINUOUS
 10
3.4920361477
 20
10.8301980313
 11
3.4672626484
 21
10.8241648107
  0
LINE
  5
4B5
100
AcDbEntity
  8
ASSI
100
AcDbLine
 62
7
  6
CONTINUOUS
 10
3.4920361477
 20
10.8301980313
 11
3.4672626484
 21
10.8241648107
  0
LINE
  5
4B6
100
AcDbEntity
  8
RACCORDO
100
AcDbLine
 62
7
  6
CONTINUOUS
 10
2.3045709569
 20
10.2918448157
 11
2.3010666825
 21
10.2913755401
  0
LINE
  5
4B7
100
AcDbEntity
  8
ASSI
100
AcDbLine
 62
7
  6
CONTINUOUS
 10
2.3045709569
 20
10.2918448157
 11
2.3010666825
 21
10.2913755401
  0
LINE
  5
4B8
100
AcDbEntity
  8
0
100
AcDbLine
 62
7
  6
CONTINUOUS
 10
4.5046762019
 20
10.6700110584
 11
4.9996176262
 21
10.7230113347
  0
LINE
  5
4B9
100
AcDbEntity
  8
ASSI
100
AcDbLine
 62
7
  6
CONTINUOUS
 10
4.5046762019
 20
10.6700110584
 11
4.9996176262
 21
10.7230113347
  0
LWPOLYLINE
  5
4BA
100
AcDbEntity
  8
0
100
AcDbPolyline
 62
7
  6
CONTINUOUS
 90
6
 70
0
 10
2.5086939769
 20
10.0012065683
 10
2.5352198647
 20
10.0034424445
 10
2.5625429583
 20
10.0037919686
 10
2.5901142466
 20
10.0022489756
 10
2.6177507257
 20
9.9988114104
 10
2.6456353995
 20
9.9934813281
  0
LWPOLYLINE
  5
4BB
100
AcDbEntity
  8
ASSI
100
AcDbPolyline
 62
7
  6
CONTINUOUS
 90
6
 70
0
 10
2.5086939769
 20
10.0012065683
 10
2.5352198647
 20
10.0034424445
 10
2.5625429583
 20
10.0037919686
 10
2.5901142466
 20
10.0022489756
 10
2.6177507257
 20
9.9988114104
 10
2.6456353995
 20
9.9934813281
  0
LWPOLYLINE
  5
4BC
100
AcDbEntity
  8
0
100
AcDbPolyline
 62
7
  6
CONTINUOUS
 90
19
 70
0
 10
7.4821481997
 20
9.3761207297
 10
7.4596458481
 20
9.3758956538
 10
7.4370738658
 20
9.3781283875
 10
7.4144322526
 20
9.3828189306
 10
7.3914615302
 20
9.3900775383
 10
7.3684211769
 20
9.3997939555
 10
7.3460896287
 20
9.4116374165
 10
7.3244967671
 20
9.4256766043
 10
7.3036127106
 20
9.4418428359
 10
7.2841262497
 20
9.4595992978
 10
7.2660823422
 20
9.4789984122
 10
7.2494360302
 20
9.4999877569
 10
7.2347412311
 20
9.5218732507
 10
7.2220613719
 20
9.5446899314
 10
7.2113330256
 20
9.5684027612
 10
7.2029198279
 20
9.5922125464
 10
7.1969429907
 20
9.6158528888
 10
7.1932813021
 20
9.6395901866
 10
7.1919347621
 20
9.6634244396
  0
LWPOLYLINE
  5
4BD
100
AcDbEntity
  8
ASSI
100
AcDbPolyline
 62
7
  6
CONTINUOUS
 90
19
 70
0
 10
7.4821481997
 20
9.3761207297
 10
7.4596458481
 20
9.3758956538
 10
7.4370738658
 20
9.3781283875
 10
7.4144322526
 20
9.3828189306
 10
7.3914615302
 20
9.3900775383
 10
7.3684211769
 20
9.3997939555
 10
7.3460896287
 20
9.4116374165
 10
7.3244967671
 20
9.4256766043
 10
7.3036127106
 20
9.4418428359
 10
7.2841262497
 20
9.4595992978
 10
7.2660823422
 20
9.4789984122
 10
7.2494360302
 20
9.4999877569
 10
7.2347412311
 20
9.5218732507
 10
7.2220613719
 20
9.5446899314
 10
7.2113330256
 20
9.5684027612
 10
7.2029198279
 20
9.5922125464
 10
7.1969429907
 20
9.6158528888
 10
7.1932813021
 20
9.6395901866
 10
7.1919347621
 20
9.6634244396
  0
LWPOLYLINE
  5
4BE
100
AcDbEntity
  8
0
100
AcDbPolyline
 62
7
  6
CONTINUOUS
 90
5
 70
0
 10
3.5991265406
 20
10.8354180722
 10
3.5715211691
 20
10.8369541991
 10
3.5441654081
 20
10.8365927255
 10
3.5176092866
 20
10.8343399678
 10
3.4920361477
 20
10.8301980313
  0
LWPOLYLINE
  5
4BF
100
AcDbEntity
  8
ASSI
100
AcDbPolyline
 62
7
  6
CONTINUOUS
 90
5
 70
0
 10
3.5991265406
 20
10.8354180722
 10
3.5715211691
 20
10.8369541991
 10
3.5441654081
 20
10.8365927255
 10
3.5176092866
 20
10.8343399678
 10
3.4920361477
 20
10.8301980313
  0
LWPOLYLINE
  5
4C0
100
AcDbEntity
  8
RACCORDO
100
AcDbPolyline
 62
250
  6
CONTINUOUS
 90
3
 70
0
 10
10.4748116609
 20
8.7291820248
 10
10.4953346265
 20
8.7273786291
 10
10.5168167079
 20
8.7272059274
  0
LWPOLYLINE
  5
4C1
100
AcDbEntity
  8
ASSI
100
AcDbPolyline
 62
250
  6
CONTINUOUS
 90
3
 70
0
 10
10.4748116609
 20
8.7291820248
 10
10.4953346265
 20
8.7273786291
 10
10.5168167079
 20
8.7272059274
  0
LWPOLYLINE
  5
4C2
100
AcDbEntity
  8
0
100
AcDbPolyline
 62
7
  6
CONTINUOUS
 90
5
 70
0
 10
3.1616352901
 20
10.6141884375
 10
3.1385949369
 20
10.6177743745
 10
3.1156242144
 20
10.6237779196
 10
3.0929826013
 20
10.6321595179
 10
3.0704106189
 20
10.6429587244
  0
LWPOLYLINE
  5
4C3
100
AcDbEntity
  8
ASSI
100
AcDbPolyline
 62
7
  6
CONTINUOUS
 90
5
 70
0
 10
3.1460100696
 20
10.6166203037
 10
3.1385949369
 20
10.6177743745
 10
3.1156242144
 20
10.6237779196
 10
3.0929826013
 20
10.6321595179
 10
3.0704106189
 20
10.6429587244
  0
LINE
  5
4C4
100
AcDbEntity
  8
0
100
AcDbLine
 62
7
  6
CONTINUOUS
 10
2.6456353995
 20
9.9934813281
 11
2.6737682678
 21
9.9862587287
  0
LINE
  5
4C5
100
AcDbEntity
  8
ASSI
100
AcDbLine
 62
7
  6
CONTINUOUS
 10
2.6456353995
 20
9.9934813281
 11
2.6737682678
 21
9.9862587287
  0
LINE
  5
4C6
100
AcDbEntity
  8
0
100
AcDbLine
 62
7
  6
CONTINUOUS
 10
-7.0971503931
 20
12.8059813281
 11
-7.0690175247
 21
12.7987587287
  0
LINE
  5
4C7
100
AcDbEntity
  8
ASSI
100
AcDbLine
 62
7
  6
CONTINUOUS
 10
-7.0971503931
 20
12.8059813281
 11
-7.0690175247
 21
12.7987587287
  0
LINE
  5
4C8
100
AcDbEntity
  8
RACCORDO
100
AcDbLine
 62
7
  6
CONTINUOUS
 10
-10.3401713759
 20
12.3280046203
 11
8.1495765148
 21
6.9904741593
  0
LINE
  5
4C9
100
AcDbEntity
  8
0
100
AcDbLine
 62
7
  6
CONTINUOUS
 10
-2.1561813295
 20
9.9870649602
 11
0.4418948818
 21
9.2370649602
  0
LINE
  5
4CA
100
AcDbEntity
  8
0
100
AcDbLine
 62
7
  6
CONTINUOUS
 10
8.5767740473
 20
6.9896190628
 11
-10.7895033729
 21
12.5801818037
  0
LINE
  5
4CB
100
AcDbEntity
  8
0
100
AcDbLine
 62
7
  6
CONTINUOUS
 10
-10.5743911091
 20
12.7116222105
 11
8.3616617835
 21
7.245254593
  0
LINE
  5
4CC
100
AcDbEntity
  8
0
100
AcDbLine
 62
7
  6
CONTINUOUS
 10
-10.0895076387
 20
13.1943851468
 11
-6.9066994753
 21
12.2755875718
  0
LINE
  5
4CD
100
AcDbEntity
  8
0
100
AcDbLine
 62
7
  6
CONTINUOUS
 10
-4.0488156428
 20
11.4505875718
 11
2.8360863173
 21
9.4630875718
  0
LINE
  5
4CE
100
AcDbEntity
  8
0
100
AcDbLine
 62
7
  6
CONTINUOUS
 10
5.6939701498
 20
8.6380875718
 11
8.8767783132
 21
7.7192899969
  0
LINE
  5
4CF
100
AcDbEntity
  8
0
100
AcDbLine
 62
7
  6
CONTINUOUS
 10
-6.9802338048
 20
12.3401163745
 11
-3.9752813133
 21
11.4726613096
  0
LINE
  5
4D0
100
AcDbEntity
  8
ASSI
100
AcDbLine
 62
7
  6
CONTINUOUS
 10
-6.9802338048
 20
12.3401163745
 11
-3.9752813133
 21
11.4726613096
  0
LINE
  5
4D1
100
AcDbEntity
  8
0
100
AcDbLine
 62
7
  6
CONTINUOUS
 10
2.7625519878
 20
9.5276163745
 11
5.7675044793
 21
8.6601613096
  0
LINE
  5
4D2
100
AcDbEntity
  8
ASSI
100
AcDbLine
 62
7
  6
CONTINUOUS
 10
2.7625519878
 20
9.5276163745
 11
5.7675044793
 21
8.6601613096
  0
LINE
  5
4D3
100
AcDbEntity
  8
0
100
AcDbLine
 62
7
  6
CONTINUOUS
 10
5.8562881992
 20
9.0675443591
 11
2.6737682678
 21
9.9862587287
  0
LINE
  5
4D4
100
AcDbEntity
  8
ASSI
100
AcDbLine
 62
7
  6
CONTINUOUS
 10
5.8562881992
 20
9.0675443591
 11
2.6737682678
 21
9.9862587287
  0
LINE
  5
4D5
100
AcDbEntity
  8
0
100
AcDbLine
 62
7
  6
CONTINUOUS
 10
-3.8864975934
 20
11.8800443591
 11
-7.0690175247
 21
12.7987587287
  0
LINE
  5
4D6
100
AcDbEntity
  8
ASSI
100
AcDbLine
 62
7
  6
CONTINUOUS
 10
-3.8864975934
 20
11.8800443591
 11
-7.0690175247
 21
12.7987587287
  0
LINE
  5
4D7
100
AcDbEntity
  8
RACCORDO
100
AcDbLine
 62
250
  6
CONTINUOUS
 10
-1.4267045632
 20
11.3839767399
 11
-1.4648805271
 21
11.3949971914
  0
LINE
  5
4D8
100
AcDbEntity
  8
ASSI
100
AcDbLine
 62
250
  6
CONTINUOUS
 10
-1.4267045632
 20
11.3839767399
 11
-1.4648805271
 21
11.3949971914
  0
LINE
  5
4D9
100
AcDbEntity
  8
0
100
AcDbLine
 62
7
  6
CONTINUOUS
 10
-6.4591283894
 20
13.156820953
 11
-3.5463867288
 21
12.3159848621
  0
LINE
  5
4DA
100
AcDbEntity
  8
ASSI
100
AcDbLine
 62
7
  6
CONTINUOUS
 10
-6.4591283894
 20
13.156820953
 11
-3.5463867288
 21
12.3159848621
  0
LINE
  5
4DB
100
AcDbEntity
  8
0
100
AcDbLine
 62
7
  6
CONTINUOUS
 10
3.2836574032
 20
10.344320953
 11
6.1963990638
 21
9.5034848621
  0
LINE
  5
4DC
100
AcDbEntity
  8
ASSI
100
AcDbLine
 62
7
  6
CONTINUOUS
 10
3.2836574032
 20
10.344320953
 11
6.1963990638
 21
9.5034848621
  0
LINE
  5
4DD
100
AcDbEntity
  8
0
100
AcDbLine
 62
7
  6
CONTINUOUS
 10
-6.2438966334
 20
13.2281280931
 11
-3.4616184847
 21
12.424953574
  0
LINE
  5
4DE
100
AcDbEntity
  8
0
100
AcDbLine
 62
7
  6
CONTINUOUS
 10
3.4988891591
 20
10.4156280931
 11
6.2811673079
 21
9.612453574
  0
LWPOLYLINE
  5
4DF
100
AcDbEntity
  8
0
100
AcDbPolyline
 62
7
  6
CONTINUOUS
 90
10
 70
0
 10
-3.8864975934
 20
11.8800443591
 10
-3.858364725
 20
11.8710244394
 10
-3.8304800512
 20
11.8602552979
 10
-3.8028435721
 20
11.8477369344
 10
-3.7752722839
 20
11.8333616367
 10
-3.7479491902
 20
11.8172371171
 10
-3.7214233024
 20
11.7996865125
 10
-3.6958776242
 20
11.7808175351
 10
-3.6711291518
 20
11.7605224727
 10
-3.6471778853
 20
11.7388013252
  0
LWPOLYLINE
  5
4E0
100
AcDbEntity
  8
ASSI
100
AcDbPolyline
 62
7
  6
CONTINUOUS
 90
10
 70
0
 10
-3.8864975934
 20
11.8800443591
 10
-3.858364725
 20
11.8710244394
 10
-3.8304800512
 20
11.8602552979
 10
-3.8028435721
 20
11.8477369344
 10
-3.7752722839
 20
11.8333616367
 10
-3.7479491902
 20
11.8172371171
 10
-3.7214233024
 20
11.7996865125
 10
-3.6958776242
 20
11.7808175351
 10
-3.6711291518
 20
11.7605224727
 10
-3.6471778853
 20
11.7388013252
  0
LWPOLYLINE
  5
4E1
100
AcDbEntity
  8
0
100
AcDbPolyline
 62
7
  6
CONTINUOUS
 90
10
 70
0
 10
5.8562881992
 20
9.0675443591
 10
5.8844210676
 20
9.0585244394
 10
5.9123057413
 20
9.0477552979
 10
5.9399422205
 20
9.0352369344
 10
5.9675135087
 20
9.0208616367
 10
5.9948366024
 20
9.0047371171
 10
6.0213624902
 20
8.9871865125
 10
6.0469081684
 20
8.9683175351
 10
6.0716566408
 20
8.9480224727
 10
6.0956079073
 20
8.9263013252
  0
LWPOLYLINE
  5
4E2
100
AcDbEntity
  8
ASSI
100
AcDbPolyline
 62
7
  6
CONTINUOUS
 90
10
 70
0
 10
5.8562881992
 20
9.0675443591
 10
5.8844210676
 20
9.0585244394
 10
5.9123057413
 20
9.0477552979
 10
5.9399422205
 20
9.0352369344
 10
5.9675135087
 20
9.0208616367
 10
5.9948366024
 20
9.0047371171
 10
6.0213624902
 20
8.9871865125
 10
6.0469081684
 20
8.9683175351
 10
6.0716566408
 20
8.9480224727
 10
6.0956079073
 20
8.9263013252
  0
LWPOLYLINE
  5
4E3
100
AcDbEntity
  8
RACCORDO
100
AcDbPolyline
 62
7
  6
CONTINUOUS
 90
6
 70
0
 10
-1.4692736297
 20
11.3797790375
 10
-1.4858601606
 20
11.386029373
 10
-1.5041766661
 20
11.395646622
 10
-1.522479192
 20
11.4078776653
 10
-1.5403097262
 20
11.4223660471
 10
-1.558013486
 20
11.4388086895
  0
LWPOLYLINE
  5
4E4
100
AcDbEntity
  8
ASSI
100
AcDbPolyline
 62
7
  6
CONTINUOUS
 90
6
 70
0
 10
-1.4692736297
 20
11.3797790375
 10
-1.4858601606
 20
11.386029373
 10
-1.5041766661
 20
11.395646622
 10
-1.522479192
 20
11.4078776653
 10
-1.5403097262
 20
11.4223660471
 10
-1.558013486
 20
11.4388086895
  0
LWPOLYLINE
  5
4E5
100
AcDbEntity
  8
0
100
AcDbPolyline
 62
7
  6
CONTINUOUS
 90
3
 70
0
 10
-2.8395275049
 20
12.6986496767
 10
-2.867448754
 20
12.7094365843
 10
-2.8956196135
 20
12.718470004
  0
LWPOLYLINE
  5
4E6
100
AcDbEntity
  8
ASSI
100
AcDbPolyline
 62
7
  6
CONTINUOUS
 90
3
 70
0
 10
-2.8395275049
 20
12.6986496767
 10
-2.867448754
 20
12.7094365843
 10
-2.8956196135
 20
12.718470004
  0
LINE
  5
4E7
100
AcDbEntity
  8
RACCORDO
100
AcDbLine
 62
7
  6
CONTINUOUS
 10
-4.6970843746
 20
14.085835939
 11
-4.722935922
 21
14.0977362414
  0
LINE
  5
4E8
100
AcDbEntity
  8
ASSI
100
AcDbLine
 62
7
  6
CONTINUOUS
 10
-4.6970489224
 20
14.0858215709
 11
-4.7229225007
 21
14.0977291666
  0
LWPOLYLINE
  5
4E9
100
AcDbEntity
  8
0
100
AcDbPolyline
 62
7
  6
CONTINUOUS
 90
3
 70
0
 10
-2.7842504947
 20
12.6717074396
 10
-2.8118558661
 20
12.6861092814
 10
-2.8395275049
 20
12.6986496767
  0
LWPOLYLINE
  5
4EA
100
AcDbEntity
  8
ASSI
100
AcDbPolyline
 62
7
  6
CONTINUOUS
 90
3
 70
0
 10
-2.7842504947
 20
12.6717074396
 10
-2.8118558661
 20
12.6861092814
 10
-2.8395275049
 20
12.6986496767
  0
LINE
  5
4EB
100
AcDbEntity
  8
0
100
AcDbLine
 62
7
  6
CONTINUOUS
 10
3.0704106189
 20
10.6429587244
 11
3.0479082674
 21
10.6561755389
  0
LINE
  5
4EC
100
AcDbEntity
  8
ASSI
100
AcDbLine
 62
7
  6
CONTINUOUS
 10
3.0704106189
 20
10.6429587244
 11
3.0479082674
 21
10.6561755389
  0
LWPOLYLINE
  5
4ED
100
AcDbEntity
  8
0
100
AcDbPolyline
 62
7
  6
CONTINUOUS
 90
3
 70
0
 10
-2.7303386121
 20
12.6379671684
 10
-2.7568947336
 20
12.65555211
 10
-2.7842504947
 20
12.6717074396
  0
LWPOLYLINE
  5
4EE
100
AcDbEntity
  8
ASSI
100
AcDbPolyline
 62
7
  6
CONTINUOUS
 90
3
 70
0
 10
-2.7303386121
 20
12.6379671684
 10
-2.7568947336
 20
12.65555211
 10
-2.7842504947
 20
12.6717074396
  0
LWPOLYLINE
  5
4EF
100
AcDbEntity
  8
0
100
AcDbPolyline
 62
7
  6
CONTINUOUS
 90
12
 70
0
 10
2.016279646
 20
9.813699863
 10
2.0412421342
 20
9.7947494206
 10
2.066650189
 20
9.7789527983
 10
2.0925038105
 20
9.766309996
 10
2.1192123
 20
9.7567240615
 10
2.1463663561
 20
9.750291947
 10
2.1727380743
 20
9.7473045101
 10
2.1982912168
 20
9.7479197206
 10
2.2230620214
 20
9.7519796086
 10
2.2459312961
 20
9.7593011223
 10
2.2668124391
 20
9.7700347526
 10
2.2852183989
 20
9.7835342325
  0
LWPOLYLINE
  5
4F0
100
AcDbEntity
  8
ASSI
100
AcDbPolyline
 62
7
  6
CONTINUOUS
 90
12
 70
0
 10
2.016279646
 20
9.813699863
 10
2.0412421342
 20
9.7947494206
 10
2.066650189
 20
9.7789527983
 10
2.0925038105
 20
9.766309996
 10
2.1192123
 20
9.7567240615
 10
2.1463663561
 20
9.750291947
 10
2.1727380743
 20
9.7473045101
 10
2.1982912168
 20
9.7479197206
 10
2.2230620214
 20
9.7519796086
 10
2.2459312961
 20
9.7593011223
 10
2.2668124391
 20
9.7700347526
 10
2.2852183989
 20
9.7835342325
  0
LINE
  5
4F1
100
AcDbEntity
  8
0
100
AcDbLine
 62
7
  6
CONTINUOUS
 10
6.0956079073
 20
8.9263013252
 11
6.1287169907
 21
8.8947032682
  0
LINE
  5
4F2
100
AcDbEntity
  8
ASSI
100
AcDbLine
 62
7
  6
CONTINUOUS
 10
6.0956079073
 20
8.9263013252
 11
6.1287169907
 21
8.8947032682
  0
LWPOLYLINE
  5
4F3
100
AcDbEntity
  8
RACCORDO
100
AcDbPolyline
 62
250
  6
CONTINUOUS
 90
6
 70
0
 10
14.4950959914
 20
0.9040908941
 10
14.5131848014
 20
0.8867391289
 10
14.53040355
 20
0.8674139566
 10
14.546483709
 20
0.8461345988
 10
14.5610731005
 20
0.8230283336
 10
14.573802441
 20
0.7982825008
  0
LWPOLYLINE
  5
4F4
100
AcDbEntity
  8
ASSI
100
AcDbPolyline
 62
250
  6
CONTINUOUS
 90
6
 70
0
 10
14.4950959914
 20
0.9040908941
 10
14.5131848014
 20
0.8867391289
 10
14.53040355
 20
0.8674139566
 10
14.546483709
 20
0.8461345988
 10
14.5610731005
 20
0.8230283336
 10
14.573802441
 20
0.7982825008
  0
LINE
  5
4F5
100
AcDbEntity
  8
0
100
AcDbLine
 62
7
  6
CONTINUOUS
 10
6.1287169907
 20
8.8947032682
 11
6.161753552
 21
8.8630176766
  0
LINE
  5
4F6
100
AcDbEntity
  8
ASSI
100
AcDbLine
 62
7
  6
CONTINUOUS
 10
6.1287169907
 20
8.8947032682
 11
6.161753552
 21
8.8630176766
  0
LINE
  5
4F7
100
AcDbEntity
  8
0
100
AcDbLine
 62
7
  6
CONTINUOUS
 10
6.161753552
 20
8.8630176766
 11
6.1947175912
 21
8.8312445503
  0
LINE
  5
4F8
100
AcDbEntity
  8
ASSI
100
AcDbLine
 62
7
  6
CONTINUOUS
 10
6.161753552
 20
8.8630176766
 11
6.1947175912
 21
8.8312445503
  0
LINE
  5
4F9
100
AcDbEntity
  8
0
100
AcDbLine
 62
7
  6
CONTINUOUS
 10
6.5137768211
 20
8.5153842607
 11
6.665868297
 21
8.3575247434
  0
LINE
  5
4FA
100
AcDbEntity
  8
ASSI
100
AcDbLine
 62
7
  6
CONTINUOUS
 10
6.5137768211
 20
8.5153842607
 11
6.665868297
 21
8.3575247434
  0
LWPOLYLINE
  5
4FB
100
AcDbEntity
  8
RACCORDO
100
AcDbPolyline
 62
250
  6
CONTINUOUS
 90
5
 70
0
 10
12.3368442831
 20
-1.0261160401
 10
12.3635250089
 20
-1.060498828
 10
12.3850764572
 20
-1.0977342708
 10
12.4008440513
 20
-1.1366914259
 10
12.4103488862
 20
-1.1761870577
  0
LWPOLYLINE
  5
4FC
100
AcDbEntity
  8
ASSI
100
AcDbPolyline
 62
250
  6
CONTINUOUS
 90
5
 70
0
 10
12.3368442831
 20
-1.0261160401
 10
12.3635250089
 20
-1.060498828
 10
12.3850764572
 20
-1.0977342708
 10
12.4008440513
 20
-1.1366914259
 10
12.4103488862
 20
-1.1761870577
  0
LWPOLYLINE
  5
4FD
100
AcDbEntity
  8
ASSI
100
AcDbPolyline
 62
7
  6
CONTINUOUS
 90
3
 70
0
 10
12.2583027434
 20
-1.0278545581
 10
12.2587816915
 20
-1.0289975882
 10
12.2571769836
 20
-1.0218757963
  0
LWPOLYLINE
  5
4FE
100
AcDbEntity
  8
RACCORDO
100
AcDbPolyline
 62
7
  6
CONTINUOUS
 90
4
 70
0
 10
12.2583027434
 20
-1.0278545581
 10
12.2587818159
 20
-1.0289980006
 10
12.2571774677
 20
-1.0218796794
 10
12.2571769836
 20
-1.0218757963
  0
LINE
  5
4FF
100
AcDbEntity
  8
RACCORDO
100
AcDbLine
 62
7
  6
CONTINUOUS
 10
6.62786253
 20
13.4534359595
 11
6.735376326
 21
13.0212135625
  0
LINE
  5
500
100
AcDbEntity
  8
ASSI
100
AcDbLine
 62
7
  6
CONTINUOUS
 10
6.62786253
 20
13.4534359595
 11
6.735376326
 21
13.0212135625
  0
LINE
  5
501
100
AcDbEntity
  8
SMUSSO
100
AcDbLine
 62
7
  6
CONTINUOUS
 10
8.97235056
 20
10.5519881451
 11
8.9620309464
 21
10.6329510726
  0
LINE
  5
502
100
AcDbEntity
  8
ASSI
100
AcDbLine
 62
7
  6
CONTINUOUS
 10
8.97235056
 20
10.5519881451
 11
8.9620309464
 21
10.6329510726
  0
LINE
  5
503
100
AcDbEntity
  8
RACCORDO
100
AcDbLine
 62
250
  6
CONTINUOUS
 10
12.4103488862
 20
-1.1761870577
 11
12.413302274
 21
-1.2150215757
  0
LINE
  5
504
100
AcDbEntity
  8
ASSI
100
AcDbLine
 62
250
  6
CONTINUOUS
 10
12.4103488862
 20
-1.1761870577
 11
12.413302274
 21
-1.2150215757
  0
LINE
  5
505
100
AcDbEntity
  8
RACCORDO
100
AcDbLine
 62
7
  6
CONTINUOUS
 10
12.2549845189
 20
-1.004279759
 11
12.2540787931
 21
-0.979925177
  0
LINE
  5
506
100
AcDbEntity
  8
ASSI
100
AcDbLine
 62
7
  6
CONTINUOUS
 10
12.2549827894
 20
-1.0042658749
 11
12.2540787927
 21
-0.9799245218
  0
LWPOLYLINE
  5
507
100
AcDbEntity
  8
RACCORDO
100
AcDbPolyline
 62
7
  6
CONTINUOUS
 90
13
 70
0
 10
11.0776455262
 20
10.5370275744
 10
11.0775155613
 20
10.5431780497
 10
11.0771223986
 20
10.5490308861
 10
11.0764660382
 20
10.5545860835
 10
11.0755406275
 20
10.5598792191
 10
11.0743520191
 20
10.5648747157
 10
11.0729177702
 20
10.5694658424
 10
11.0712304647
 20
10.5736396897
 10
11.0692975187
 20
10.5774091672
 10
11.0671587374
 20
10.5807062719
 10
11.0648273892
 20
10.5835083365
 10
11.0622902058
 20
10.5858380284
 10
11.059547187
 20
10.5876953477
  0
LWPOLYLINE
  5
508
100
AcDbEntity
  8
RACCORDO
100
AcDbPolyline
 62
250
  6
CONTINUOUS
 90
6
 70
0
 10
12.2227338392
 20
-1.0405614526
 10
12.2230068732
 20
-1.0602434815
 10
12.22398749
 20
-1.0793936105
 10
12.2256756897
 20
-1.0980118396
 10
12.228027577
 20
-1.1161614748
 10
12.2310870472
 20
-1.1337792102
  0
LWPOLYLINE
  5
509
100
AcDbEntity
  8
ASSI
100
AcDbPolyline
 62
250
  6
CONTINUOUS
 90
6
 70
0
 10
12.2227338392
 20
-1.0405614526
 10
12.2230068732
 20
-1.0602434815
 10
12.22398749
 20
-1.0793936105
 10
12.2256756897
 20
-1.0980118396
 10
12.228027577
 20
-1.1161614748
 10
12.2310870472
 20
-1.1337792102
  0
LINE
  5
50A
100
AcDbEntity
  8
RACCORDO
100
AcDbLine
 62
7
  6
CONTINUOUS
 10
11.0776455262
 20
10.5370275744
 11
11.0776455262
 21
10.4691578267
  0
LINE
  5
50B
100
AcDbEntity
  8
RACCORDO
100
AcDbLine
 62
250
  6
CONTINUOUS
 10
12.2227338392
 20
-6.1660577996
 11
12.2227338392
 21
-3.4377881042
  0
LINE
  5
50C
100
AcDbEntity
  8
ASSI
100
AcDbLine
 62
250
  6
CONTINUOUS
 10
12.2227338392
 20
-6.1660577996
 11
12.2227338392
 21
-3.4377881042
  0
LINE
  5
50D
100
AcDbEntity
  8
RACCORDO
100
AcDbLine
 62
250
  6
CONTINUOUS
 10
12.2227338392
 20
-1.0405614526
 11
12.2227339678
 21
6.9746706716
  0
LINE
  5
50E
100
AcDbEntity
  8
ASSI
100
AcDbLine
 62
250
  6
CONTINUOUS
 10
12.2227338392
 20
-1.0405614526
 11
12.2227339678
 21
6.9746706716
  0
LINE
  5
50F
100
AcDbEntity
  8
RACCORDO
100
AcDbLine
 62
7
  6
CONTINUOUS
 10
12.2540789124
 20
-6.1050985561
 11
12.2540789124
 21
-3.3771869021
  0
LINE
  5
510
100
AcDbEntity
  8
ASSI
100
AcDbLine
 62
7
  6
CONTINUOUS
 10
12.2540789124
 20
-6.1050985561
 11
12.2540789124
 21
-3.3771869021
  0
LINE
  5
511
100
AcDbEntity
  8
RACCORDO
100
AcDbLine
 62
7
  6
CONTINUOUS
 10
12.2540789124
 20
-0.97996025
 11
12.2540789124
 21
7.0352701178
  0
LINE
  5
512
100
AcDbEntity
  8
ASSI
100
AcDbLine
 62
7
  6
CONTINUOUS
 10
12.2540789124
 20
-0.97996025
 11
12.2540789124
 21
7.0352701178
  0
LINE
  5
513
100
AcDbEntity
  8
RACCORDO
100
AcDbLine
 62
7
  6
CONTINUOUS
 10
12.2540789124
 20
-3.3771869021
 11
12.2540788461
 21
-3.3772779619
  0
LINE
  5
514
100
AcDbEntity
  8
ASSI
100
AcDbLine
 62
7
  6
CONTINUOUS
 10
12.2540789124
 20
-3.3771869021
 11
12.2540788447
 21
-3.3772789368
  0
LINE
  5
515
100
AcDbEntity
  8
ASSI
100
AcDbLine
 62
7
  6
CONTINUOUS
 10
12.2540789124
 20
7.0352701178
 11
12.254078788
 21
7.0351454173
  0
LINE
  5
516
100
AcDbEntity
  8
RACCORDO
100
AcDbLine
 62
7
  6
CONTINUOUS
 10
12.2540789124
 20
7.0352701178
 11
12.2540787887
 21
7.0351457678
  0
LWPOLYLINE
  5
517
100
AcDbEntity
  8
RACCORDO
100
AcDbPolyline
 62
7
  6
CONTINUOUS
 90
4
 70
0
 10
12.2540786167
 20
7.0351457679
 10
12.2541988863
 20
7.0449848688
 10
12.256376331
 20
7.0795244522
 10
12.2617449722
 20
7.1195002427
  0
LWPOLYLINE
  5
518
100
AcDbEntity
  8
ASSI
100
AcDbPolyline
 62
7
  6
CONTINUOUS
 90
4
 70
0
 10
12.254078616
 20
7.0351454173
 10
12.2541964235
 20
7.0448841522
 10
12.2563658035
 20
7.0794175074
 10
12.2617271928
 20
7.1193944144
  0
LINE
  5
519
100
AcDbEntity
  8
RACCORDO
100
AcDbLine
 62
7
  6
CONTINUOUS
 10
12.2534917524
 20
-6.1370968361
 11
12.2540411936
 21
-6.1050553231
  0
LINE
  5
51A
100
AcDbEntity
  8
ASSI
100
AcDbLine
 62
7
  6
CONTINUOUS
 10
12.2534917524
 20
-6.1370968361
 11
12.2540411936
 21
-6.1050553231
  0
LINE
  5
51B
100
AcDbEntity
  8
RACCORDO
100
AcDbLine
 62
250
  6
CONTINUOUS
 10
12.22342636
 20
-3.4057457753
 11
12.2227338392
 21
-3.4377881042
  0
LINE
  5
51C
100
AcDbEntity
  8
ASSI
100
AcDbLine
 62
250
  6
CONTINUOUS
 10
12.22342636
 20
-3.4057457753
 11
12.2227338392
 21
-3.4377881042
  0
LWPOLYLINE
  5
51D
100
AcDbEntity
  8
ASSI
100
AcDbPolyline
 62
7
  6
CONTINUOUS
 90
3
 70
0
 10
12.2540773327
 20
-3.3772789367
 10
12.2548999003
 20
-3.3468085158
 10
12.2595311443
 20
-3.2954832654
  0
LWPOLYLINE
  5
51E
100
AcDbEntity
  8
RACCORDO
100
AcDbPolyline
 62
7
  6
CONTINUOUS
 90
3
 70
0
 10
12.2540773341
 20
-3.3772779618
 10
12.2549071873
 20
-3.3466702842
 10
12.2595490328
 20
-3.2953408564
  0
LINE
  5
51F
100
AcDbEntity
  8
RACCORDO
100
AcDbLine
 62
250
  6
CONTINUOUS
 10
12.2237899315
 20
7.0086167152
 11
12.2227339678
 21
6.9746706716
  0
LINE
  5
520
100
AcDbEntity
  8
ASSI
100
AcDbLine
 62
250
  6
CONTINUOUS
 10
12.2237899315
 20
7.0086167152
 11
12.2227339678
 21
6.9746706716
  0
LWPOLYLINE
  5
521
100
AcDbEntity
  8
RACCORDO
100
AcDbPolyline
 62
250
  6
CONTINUOUS
 90
5
 70
0
 10
12.4133022739
 20
7.4929235953
 10
12.4103488469
 20
7.4565919057
 10
12.4008439089
 20
7.4232044117
 10
12.3850761785
 20
7.3937751796
 10
12.3652138331
 20
7.3707487769
  0
LWPOLYLINE
  5
522
100
AcDbEntity
  8
ASSI
100
AcDbPolyline
 62
250
  6
CONTINUOUS
 90
5
 70
0
 10
12.4133022739
 20
7.4929235953
 10
12.4103488469
 20
7.4565919057
 10
12.4008439089
 20
7.4232044117
 10
12.3850761785
 20
7.3937751796
 10
12.3652138331
 20
7.3707487769
  0
LWPOLYLINE
  5
523
100
AcDbEntity
  8
RACCORDO
100
AcDbPolyline
 62
250
  6
CONTINUOUS
 90
5
 70
0
 10
12.4609443827
 20
-2.7899697541
 10
12.4579909894
 20
-2.8263012554
 10
12.44848614
 20
-2.8596886336
 10
12.4327185268
 20
-2.8891178231
 10
12.4128559419
 20
-2.9121445726
  0
LWPOLYLINE
  5
524
100
AcDbEntity
  8
ASSI
100
AcDbPolyline
 62
250
  6
CONTINUOUS
 90
5
 70
0
 10
12.4609443827
 20
-2.7899697541
 10
12.4579909894
 20
-2.8263012554
 10
12.44848614
 20
-2.8596886336
 10
12.4327185268
 20
-2.8891178231
 10
12.4128559419
 20
-2.9121445726
  0
LINE
  5
525
100
AcDbEntity
  8
RACCORDO
100
AcDbLine
 62
7
  6
CONTINUOUS
 10
14.6289717743
 20
9.5701645786
 11
14.6244534779
 21
9.5404970721
  0
LINE
  5
526
100
AcDbEntity
  8
ASSI
100
AcDbLine
 62
7
  6
CONTINUOUS
 10
14.6289717743
 20
9.5701645786
 11
14.6244534779
 21
9.5404970721
  0
LWPOLYLINE
  5
527
100
AcDbEntity
  8
RACCORDO
100
AcDbPolyline
 62
250
  6
CONTINUOUS
 90
5
 70
0
 10
12.2379793135
 20
-3.2730705637
 10
12.2325608241
 20
-3.3069608221
 10
12.2283078012
 20
-3.3404460618
 10
12.2252843474
 20
-3.3732984279
 10
12.22342636
 20
-3.4057457753
  0
LWPOLYLINE
  5
528
100
AcDbEntity
  8
ASSI
100
AcDbPolyline
 62
250
  6
CONTINUOUS
 90
5
 70
0
 10
12.2379793135
 20
-3.2730705637
 10
12.2325608241
 20
-3.3069608221
 10
12.2283078012
 20
-3.3404460618
 10
12.2252843474
 20
-3.3732984279
 10
12.22342636
 20
-3.4057457753
  0
LWPOLYLINE
  5
529
100
AcDbEntity
  8
ASSI
100
AcDbPolyline
 62
7
  6
CONTINUOUS
 90
4
 70
0
 10
12.2595311443
 20
-3.2954832654
 10
12.268634421
 20
-3.2389490833
 10
12.2825449087
 20
-3.1786512628
 10
12.3009785969
 20
-3.1177604606
  0
LWPOLYLINE
  5
52A
100
AcDbEntity
  8
RACCORDO
100
AcDbPolyline
 62
7
  6
CONTINUOUS
 90
4
 70
0
 10
12.2595490328
 20
-3.2953408564
 10
12.2686608223
 20
-3.2388139766
 10
12.2825755168
 20
-3.1785362672
 10
12.3010080527
 20
-3.1176739736
  0
LINE
  5
52B
100
AcDbEntity
  8
RACCORDO
100
AcDbLine
 62
250
  6
CONTINUOUS
 10
12.2508474838
 20
-0.9999931739
 11
12.2540789124
 21
-0.97996025
  0
LINE
  5
52C
100
AcDbEntity
  8
ASSI
100
AcDbLine
 62
250
  6
CONTINUOUS
 10
12.2508474838
 20
-0.9999931739
 11
12.2540789124
 21
-0.97996025
  0
LWPOLYLINE
  5
52D
100
AcDbEntity
  8
RACCORDO
100
AcDbPolyline
 62
250
  6
CONTINUOUS
 90
4
 70
0
 10
14.5675749825
 20
8.8477797945
 10
14.5656361094
 20
8.835759991
 10
14.559307798
 20
8.8232247083
 10
14.5487679386
 20
8.8114190728
  0
LWPOLYLINE
  5
52E
100
AcDbEntity
  8
ASSI
100
AcDbPolyline
 62
250
  6
CONTINUOUS
 90
4
 70
0
 10
14.5675749825
 20
8.8477797945
 10
14.5656361094
 20
8.835759991
 10
14.559307798
 20
8.8232247083
 10
14.5487679386
 20
8.8114190728
  0
LWPOLYLINE
  5
52F
100
AcDbEntity
  8
RACCORDO
100
AcDbPolyline
 62
250
  6
CONTINUOUS
 90
4
 70
0
 10
12.2540788461
 20
-3.3772779619
 10
12.2508476163
 20
-3.397219418
 10
12.2403004535
 20
-3.418111783
 10
12.2227338392
 20
-3.4377881046
  0
LWPOLYLINE
  5
530
100
AcDbEntity
  8
ASSI
100
AcDbPolyline
 62
250
  6
CONTINUOUS
 90
4
 70
0
 10
12.2540788447
 20
-3.3772789368
 10
12.2508476163
 20
-3.397219418
 10
12.2403004535
 20
-3.418111783
 10
12.2227338392
 20
-3.4377881046
  0
LINE
  5
531
100
AcDbEntity
  8
RACCORDO
100
AcDbLine
 62
250
  6
CONTINUOUS
 10
14.5422092476
 20
8.6891841476
 11
14.5214772984
 21
8.5672134201
  0
LINE
  5
532
100
AcDbEntity
  8
ASSI
100
AcDbLine
 62
250
  6
CONTINUOUS
 10
14.5422092476
 20
8.6891841476
 11
14.5214772984
 21
8.5672134201
  0
LINE
  5
533
100
AcDbEntity
  8
RACCORDO
100
AcDbLine
 62
250
  6
CONTINUOUS
 10
14.6263678764
 20
9.5716490632
 11
14.6300079171
 21
9.5929021246
  0
LINE
  5
534
100
AcDbEntity
  8
ASSI
100
AcDbLine
 62
250
  6
CONTINUOUS
 10
14.6263678764
 20
9.5716490632
 11
14.6300079171
 21
9.5929021246
  0
LINE
  5
535
100
AcDbEntity
  8
RACCORDO
100
AcDbLine
 62
7
  6
CONTINUOUS
 10
14.5020161086
 20
8.4732705628
 11
14.5510147242
 21
8.6534627839
  0
LINE
  5
536
100
AcDbEntity
  8
ASSI
100
AcDbLine
 62
7
  6
CONTINUOUS
 10
14.5020161086
 20
8.4732705628
 11
14.5510147242
 21
8.6534627839
  0
LINE
  5
537
100
AcDbEntity
  8
RACCORDO
100
AcDbLine
 62
7
  6
CONTINUOUS
 10
14.6244534779
 20
9.5404970721
 11
14.6164455973
 21
9.51167886
  0
LINE
  5
538
100
AcDbEntity
  8
ASSI
100
AcDbLine
 62
7
  6
CONTINUOUS
 10
14.6244534779
 20
9.5404970721
 11
14.6164455973
 21
9.51167886
  0
LWPOLYLINE
  5
539
100
AcDbEntity
  8
RACCORDO
100
AcDbPolyline
 62
250
  6
CONTINUOUS
 90
3
 70
0
 10
14.5214772984
 20
8.5672134201
 10
14.4850936302
 20
8.4477675206
 10
14.4319363041
 20
8.3336950817
  0
LWPOLYLINE
  5
53A
100
AcDbEntity
  8
ASSI
100
AcDbPolyline
 62
250
  6
CONTINUOUS
 90
3
 70
0
 10
14.5214772984
 20
8.5672134201
 10
14.4850936302
 20
8.4477675206
 10
14.4319363041
 20
8.3336950817
  0
LWPOLYLINE
  5
53B
100
AcDbEntity
  8
RACCORDO
100
AcDbPolyline
 62
250
  6
CONTINUOUS
 90
7
 70
0
 10
12.2893462182
 20
-3.079675825
 10
12.2789310295
 20
-3.1098627993
 10
12.2691925511
 20
-3.1409785599
 10
12.2601431615
 20
-3.1730932841
 10
12.2517704822
 20
-3.2061367948
 10
12.2443709617
 20
-3.2394588519
 10
12.2379793135
 20
-3.2730705637
  0
LWPOLYLINE
  5
53C
100
AcDbEntity
  8
ASSI
100
AcDbPolyline
 62
250
  6
CONTINUOUS
 90
7
 70
0
 10
12.2893462182
 20
-3.079675825
 10
12.2789310295
 20
-3.1098627993
 10
12.2691925511
 20
-3.1409785599
 10
12.2601431615
 20
-3.1730932841
 10
12.2517704822
 20
-3.2061367948
 10
12.2443709617
 20
-3.2394588519
 10
12.2379793135
 20
-3.2730705637
  0
LINE
  5
53D
100
AcDbEntity
  8
RACCORDO
100
AcDbLine
 62
7
  6
CONTINUOUS
 10
12.3010080527
 20
-3.1176739736
 11
12.3220604689
 21
-3.0620562066
  0
LINE
  5
53E
100
AcDbEntity
  8
ASSI
100
AcDbLine
 62
7
  6
CONTINUOUS
 10
12.3009785969
 20
-3.1177604606
 11
12.3220362558
 21
-3.0621140384
  0
LWPOLYLINE
  5
53F
100
AcDbEntity
  8
RACCORDO
100
AcDbPolyline
 62
250
  6
CONTINUOUS
 90
4
 70
0
 10
12.3226215991
 20
-2.9975074439
 10
12.311191503
 20
-3.0234981474
 10
12.3001045336
 20
-3.0508573459
 10
12.2893462182
 20
-3.079675825
  0
LWPOLYLINE
  5
540
100
AcDbEntity
  8
ASSI
100
AcDbPolyline
 62
250
  6
CONTINUOUS
 90
4
 70
0
 10
12.3226215991
 20
-2.9975074439
 10
12.311191503
 20
-3.0234981474
 10
12.3001045336
 20
-3.0508573459
 10
12.2893462182
 20
-3.079675825
  0
LWPOLYLINE
  5
541
100
AcDbEntity
  8
ASSI
100
AcDbPolyline
 62
7
  6
CONTINUOUS
 90
5
 70
0
 10
12.3220362558
 20
-3.0621140384
 10
12.3440048046
 20
-3.0142619295
 10
12.3658275397
 20
-2.9745397237
 10
12.3855654981
 20
-2.944427084
 10
12.4014568447
 20
-2.9241474146
  0
LWPOLYLINE
  5
542
100
AcDbEntity
  8
RACCORDO
100
AcDbPolyline
 62
7
  6
CONTINUOUS
 90
5
 70
0
 10
12.3220604689
 20
-3.0620562066
 10
12.3440214496
 20
-3.0142288702
 10
12.3658353032
 20
-2.9745268256
 10
12.3855653147
 20
-2.9444273389
 10
12.4014540883
 20
-2.9241503364
  0
LINE
  5
543
100
AcDbEntity
  8
ASSI
100
AcDbLine
 62
7
  6
CONTINUOUS
 10
14.4223193791
 20
1.4271238725
 11
14.5020161133
 21
1.5883686152
  0
LINE
  5
544
100
AcDbEntity
  8
RACCORDO
100
AcDbLine
 62
7
  6
CONTINUOUS
 10
14.5889196235
 20
-0.871766024
 11
14.604059394
 21
-0.8453603791
  0
LINE
  5
545
100
AcDbEntity
  8
ASSI
100
AcDbLine
 62
7
  6
CONTINUOUS
 10
14.5889196235
 20
-0.871766024
 11
14.604059394
 21
-0.8453603791
  0
LWPOLYLINE
  5
546
100
AcDbEntity
  8
RACCORDO
100
AcDbPolyline
 62
250
  6
CONTINUOUS
 90
6
 70
0
 10
14.3769419403
 20
1.3635324727
 10
14.4105852166
 20
1.4128409608
 10
14.4399240481
 20
1.4634008211
 10
14.465176203
 20
1.514830074
 10
14.486560336
 20
1.5667468959
 10
14.5043698784
 20
1.618987894
  0
LWPOLYLINE
  5
547
100
AcDbEntity
  8
ASSI
100
AcDbPolyline
 62
250
  6
CONTINUOUS
 90
6
 70
0
 10
14.3769419403
 20
1.3635324727
 10
14.4105852166
 20
1.4128409608
 10
14.4399240481
 20
1.4634008211
 10
14.465176203
 20
1.514830074
 10
14.486560336
 20
1.5667468959
 10
14.5043698784
 20
1.618987894
  0
LINE
  5
548
100
AcDbEntity
  8
RACCORDO
100
AcDbLine
 62
7
  6
CONTINUOUS
 10
14.5709395885
 20
-0.8958337475
 11
14.5889196235
 21
-0.871766024
  0
LINE
  5
549
100
AcDbEntity
  8
ASSI
100
AcDbLine
 62
7
  6
CONTINUOUS
 10
14.5709395885
 20
-0.8958337475
 11
14.5889196235
 21
-0.871766024
  0
LINE
  5
54A
100
AcDbEntity
  8
RACCORDO
100
AcDbLine
 62
7
  6
CONTINUOUS
 10
14.5505744543
 20
-0.9172267888
 11
14.5709395885
 21
-0.8958337475
  0
LINE
  5
54B
100
AcDbEntity
  8
ASSI
100
AcDbLine
 62
7
  6
CONTINUOUS
 10
14.5505744543
 20
-0.9172267888
 11
14.5709395885
 21
-0.8958337475
  0
LINE
  5
54C
100
AcDbEntity
  8
RACCORDO
100
AcDbLine
 62
250
  6
CONTINUOUS
 10
12.0346055358
 20
-6.6502849718
 11
12.0369768397
 21
-6.6480535655
  0
LINE
  5
54D
100
AcDbEntity
  8
ASSI
100
AcDbLine
 62
250
  6
CONTINUOUS
 10
12.0346055358
 20
-6.6502849718
 11
12.0369768397
 21
-6.6480535655
  0
LWPOLYLINE
  5
54E
100
AcDbEntity
  8
RACCORDO
100
AcDbPolyline
 62
7
  6
CONTINUOUS
 90
3
 70
0
 10
11.8662646608
 20
-6.8086567184
 10
11.9198241129
 20
-6.7592813129
 10
12.0346055358
 20
-6.6502849719
  0
LWPOLYLINE
  5
54F
100
AcDbEntity
  8
ASSI
100
AcDbPolyline
 62
7
  6
CONTINUOUS
 90
3
 70
0
 10
11.8662646608
 20
-6.8086567184
 10
11.9198241129
 20
-6.7592813129
 10
12.0346055358
 20
-6.6502849719
  0
LINE
  5
550
100
AcDbEntity
  8
0
100
AcDbLine
 62
7
  6
CONTINUOUS
 10
11.8662646622
 20
-6.8086567171
 11
9.0931198596
 21
-9.3413608977
  0
LINE
  5
551
100
AcDbEntity
  8
ASSI
100
AcDbLine
 62
7
  6
CONTINUOUS
 10
11.8662646622
 20
-6.8086567171
 11
9.0931198596
 21
-9.3413608977
  0
LINE
  5
552
100
AcDbEntity
  8
RACCORDO
100
AcDbLine
 62
250
  6
CONTINUOUS
 10
9.0931198596
 20
-9.0226641416
 11
10.2248457756
 21
-7.9895192049
  0
LINE
  5
553
100
AcDbEntity
  8
ASSI
100
AcDbLine
 62
250
  6
CONTINUOUS
 10
9.0931198596
 20
-9.0226641416
 11
10.2248457756
 21
-7.9895192049
  0
LINE
  5
554
100
AcDbEntity
  8
RACCORDO
100
AcDbLine
 62
250
  6
CONTINUOUS
 10
9.0931198596
 20
-9.3354229568
 11
12.0346055358
 21
-6.6502849719
  0
LINE
  5
555
100
AcDbEntity
  8
ASSI
100
AcDbLine
 62
250
  6
CONTINUOUS
 10
9.0931198596
 20
-9.3354229568
 11
12.0346055358
 21
-6.6502849719
  0
LINE
  5
556
100
AcDbEntity
  8
RACCORDO
100
AcDbLine
 62
250
  6
CONTINUOUS
 10
11.7002323566
 20
-6.6428917185
 11
12.2227338392
 21
-6.1660577996
  0
LINE
  5
557
100
AcDbEntity
  8
ASSI
100
AcDbLine
 62
250
  6
CONTINUOUS
 10
11.7002323566
 20
-6.6428917185
 11
12.2227338392
 21
-6.1660577996
  0
LINE
  5
558
100
AcDbEntity
  8
RACCORDO
100
AcDbLine
 62
250
  6
CONTINUOUS
 10
10.2248457756
 20
-7.9895192049
 11
11.7002323566
 21
-6.6428917185
  0
LINE
  5
559
100
AcDbEntity
  8
ASSI
100
AcDbLine
 62
250
  6
CONTINUOUS
 10
10.2248457756
 20
-7.9895192049
 11
11.7002323566
 21
-6.6428917185
  0
LWPOLYLINE
  5
55A
100
AcDbEntity
  8
RACCORDO
100
AcDbPolyline
 62
250
  6
CONTINUOUS
 90
9
 70
0
 10
-0.8019118705
 20
13.0316497358
 10
-0.7720807144
 20
13.0383427611
 10
-0.7426074882
 20
13.04609779
 10
-0.7141838609
 20
13.0548794663
 10
-0.6868459451
 20
13.0647200574
 10
-0.6605576282
 20
13.0755872958
 10
-0.6359022412
 20
13.087349023
 10
-0.6130742279
 20
13.0999611861
 10
-0.5918791445
 20
13.113467838
  0
LWPOLYLINE
  5
55B
100
AcDbEntity
  8
ASSI
100
AcDbPolyline
 62
250
  6
CONTINUOUS
 90
9
 70
0
 10
-0.8019118705
 20
13.0316497358
 10
-0.7720807144
 20
13.0383427611
 10
-0.7426074882
 20
13.04609779
 10
-0.7141838609
 20
13.0548794663
 10
-0.6868459451
 20
13.0647200574
 10
-0.6605576282
 20
13.0755872958
 10
-0.6359022412
 20
13.087349023
 10
-0.6130742279
 20
13.0999611861
 10
-0.5918791445
 20
13.113467838
  0
LINE
  5
55C
100
AcDbEntity
  8
RACCORDO
100
AcDbLine
 62
250
  6
CONTINUOUS
 10
-0.8320853978
 20
13.0260594428
 11
-0.8019118705
 21
13.0316497358
  0
LWPOLYLINE
  5
55D
100
AcDbEntity
  8
RACCORDO
100
AcDbPolyline
 62
7
  6
CONTINUOUS
 90
5
 70
0
 10
-0.9215021649
 20
13.0482159638
 10
-0.9808389433
 20
13.0447845952
 10
-1.0422778321
 20
13.0460724774
 10
-1.1017942972
 20
13.0520950307
 10
-1.1561027147
 20
13.0621992546
  0
LWPOLYLINE
  5
55E
100
AcDbEntity
  8
ASSI
100
AcDbPolyline
 62
7
  6
CONTINUOUS
 90
5
 70
0
 10
-0.9214542108
 20
13.0482206653
 10
-0.980812528
 20
13.0447850886
 10
-1.0422759722
 20
13.0460723629
 10
-1.101816073
 20
13.0520981482
 10
-1.1561283712
 20
13.0622059026
  0
LWPOLYLINE
  5
55F
100
AcDbEntity
  8
0
100
AcDbPolyline
 62
7
  6
CONTINUOUS
 90
19
 70
0
 10
-2.2606375929
 20
12.1886207297
 10
-2.2831399445
 20
12.1883956538
 10
-2.3057119268
 20
12.1906283875
 10
-2.3283535399
 20
12.1953189306
 10
-2.3513242624
 20
12.2025775383
 10
-2.3743646157
 20
12.2122939555
 10
-2.3966961639
 20
12.2241374165
 10
-2.4182890254
 20
12.2381766043
 10
-2.4391730819
 20
12.2543428359
 10
-2.4586595428
 20
12.2720992978
 10
-2.4767034504
 20
12.2914984122
 10
-2.4933497624
 20
12.3124877569
 10
-2.5080445615
 20
12.3343732507
 10
-2.5207244206
 20
12.3571899314
 10
-2.5314527669
 20
12.3809027612
 10
-2.5398659646
 20
12.4047125464
 10
-2.5458428018
 20
12.4283528888
 10
-2.5495044904
 20
12.4520901866
 10
-2.5508510304
 20
12.4759244396
  0
LWPOLYLINE
  5
560
100
AcDbEntity
  8
ASSI
100
AcDbPolyline
 62
7
  6
CONTINUOUS
 90
19
 70
0
 10
-2.2606375929
 20
12.1886207297
 10
-2.2831399445
 20
12.1883956538
 10
-2.3057119268
 20
12.1906283875
 10
-2.3283535399
 20
12.1953189306
 10
-2.3513242624
 20
12.2025775383
 10
-2.3743646157
 20
12.2122939555
 10
-2.3966961639
 20
12.2241374165
 10
-2.4182890254
 20
12.2381766043
 10
-2.4391730819
 20
12.2543428359
 10
-2.4586595428
 20
12.2720992978
 10
-2.4767034504
 20
12.2914984122
 10
-2.4933497624
 20
12.3124877569
 10
-2.5080445615
 20
12.3343732507
 10
-2.5207244206
 20
12.3571899314
 10
-2.5314527669
 20
12.3809027612
 10
-2.5398659646
 20
12.4047125464
 10
-2.5458428018
 20
12.4283528888
 10
-2.5495044904
 20
12.4520901866
 10
-2.5508510304
 20
12.4759244396
  0
LWPOLYLINE
  5
561
100
AcDbEntity
  8
RACCORDO
100
AcDbPolyline
 62
250
  6
CONTINUOUS
 90
7
 70
0
 10
-1.0092413545
 20
13.0131190451
 10
-0.9812270553
 20
13.0130829132
 10
-0.9523770014
 20
13.0138569849
 10
-0.9227626568
 20
13.0154299246
 10
-0.8928612487
 20
13.0179780389
 10
-0.862616855
 20
13.0215311535
 10
-0.8320853978
 20
13.0260594428
  0
LWPOLYLINE
  5
562
100
AcDbEntity
  8
ASSI
100
AcDbPolyline
 62
250
  6
CONTINUOUS
 90
8
 70
0
 10
-1.0092413545
 20
13.0131190451
 10
-0.9812270553
 20
13.0130829132
 10
-0.9523770014
 20
13.0138569849
 10
-0.9227626568
 20
13.0154299246
 10
-0.8928612487
 20
13.0179780389
 10
-0.862616855
 20
13.0215311535
 10
-0.8320853978
 20
13.0260594428
 10
-0.8019118705
 20
13.0316497358
  0
LWPOLYLINE
  5
563
100
AcDbEntity
  8
RACCORDO
100
AcDbPolyline
 62
250
  6
CONTINUOUS
 90
5
 70
0
 10
10.9786990858
 20
11.9045249692
 10
11.0244683374
 20
11.9019789411
 10
11.1994589901
 20
11.8654894375
 10
11.374371638
 20
11.8028898499
 10
11.4311073567
 20
11.7739259507
  0
LWPOLYLINE
  5
564
100
AcDbEntity
  8
ASSI
100
AcDbPolyline
 62
250
  6
CONTINUOUS
 90
5
 70
0
 10
10.9786990858
 20
11.9045249692
 10
11.0244683374
 20
11.9019789411
 10
11.1994589901
 20
11.8654894375
 10
11.374371638
 20
11.8028898499
 10
11.4311073567
 20
11.7739259507
  0
LWPOLYLINE
  5
565
100
AcDbEntity
  8
RACCORDO
100
AcDbPolyline
 62
7
  6
CONTINUOUS
 90
8
 70
0
 10
10.766411693
 20
10.750157701
 10
10.7630885302
 20
10.7503557993
 10
10.7594376688
 20
10.7499833316
 10
10.7556238187
 20
10.7490263536
 10
10.7517477213
 20
10.7475011038
 10
10.7478429572
 20
10.7454129953
 10
10.7438759459
 20
10.7427566152
 10
10.7398466873
 20
10.7395319633
  0
LWPOLYLINE
  5
566
100
AcDbEntity
  8
RACCORDO
100
AcDbPolyline
 62
250
  6
CONTINUOUS
 90
4
 70
0
 10
-1.0878413456
 20
13.0173837579
 10
-1.0627142452
 20
13.0153775988
 10
-1.036491363
 20
13.013954045
 10
-1.0092413545
 20
13.0131190451
  0
LWPOLYLINE
  5
567
100
AcDbEntity
  8
DRAFT
100
AcDbPolyline
 62
7
  6
CONTINUOUS
 90
8
 70
0
 10
10.9856752804
 20
11.2033184616
 10
10.7814576857
 20
11.2252521543
 10
10.5679449696
 20
11.232047287
 10
10.3603450558
 20
11.2234392744
 10
10.1595990963
 20
11.1980521779
 10
9.9647659392
 20
11.1572619361
 10
9.7882300529
 20
11.1049317794
 10
9.6341195936
 20
11.0423494515
  0
LWPOLYLINE
  5
568
100
AcDbEntity
  8
ASSI
100
AcDbPolyline
 62
7
  6
CONTINUOUS
 90
8
 70
0
 10
10.9856752804
 20
11.2033184616
 10
10.7814576857
 20
11.2252521543
 10
10.5679449696
 20
11.232047287
 10
10.3603450558
 20
11.2234392744
 10
10.1595990963
 20
11.1980521779
 10
9.9647659392
 20
11.1572619361
 10
9.7882300529
 20
11.1049317794
 10
9.6341195936
 20
11.0423494515
  0
LINE
  5
569
100
AcDbEntity
  8
RACCORDO
100
AcDbLine
 62
250
  6
CONTINUOUS
 10
-1.1119413198
 20
13.0199784709
 11
-1.0878413456
 21
13.0173837579
  0
LWPOLYLINE
  5
56A
100
AcDbEntity
  8
ASSI
100
AcDbPolyline
 62
250
  6
CONTINUOUS
 90
5
 70
0
 10
-1.1119413198
 20
13.0199784709
 10
-1.0878413456
 20
13.0173837579
 10
-1.0627142452
 20
13.0153775988
 10
-1.036491363
 20
13.013954045
 10
-1.0092413545
 20
13.0131190451
  0
LINE
  5
56B
100
AcDbEntity
  8
0
100
AcDbLine
 62
7
  6
CONTINUOUS
 10
10.276183341
 20
10.3379877266
 11
10.0274626912
 21
10.3676867938
  0
LWPOLYLINE
  5
56C
100
AcDbEntity
  8
RACCORDO
100
AcDbPolyline
 62
7
  6
CONTINUOUS
 90
22
 70
0
 10
10.7664086242
 20
10.7501459295
 10
10.7054799041
 20
10.7582235868
 10
10.6408851378
 20
10.7650473544
 10
10.5757475139
 20
10.7701713011
 10
10.510237146
 20
10.7735868856
 10
10.444507988
 20
10.7752900087
 10
10.3786978898
 20
10.7752788536
 10
10.3129710349
 20
10.7735534497
 10
10.2474887302
 20
10.7701172059
 10
10.1823840755
 20
10.7649742322
 10
10.117819262
 20
10.7581324363
 10
10.0539545674
 20
10.7496029452
 10
9.9909175324
 20
10.7393945322
 10
9.9288665739
 20
10.7275220302
 10
9.8679592791
 20
10.7140034471
 10
9.8083168818
 20
10.6988504468
 10
9.7500882987
 20
10.6820818868
 10
9.693431645
 20
10.6637222222
 10
9.6384729055
 20
10.6437877119
 10
9.585349277
 20
10.6222985014
 10
9.534215229
 20
10.5992837302
 10
9.4852169589
 20
10.5747725194
  0
LWPOLYLINE
  5
56D
100
AcDbEntity
  8
0
100
AcDbPolyline
 62
7
  6
CONTINUOUS
 90
5
 70
0
 10
-6.5811505024
 20
13.4266884375
 10
-6.6041908557
 20
13.4302743745
 10
-6.6271615782
 20
13.4362779196
 10
-6.6498031913
 20
13.4446595179
 10
-6.6723751736
 20
13.4554587244
  0
LWPOLYLINE
  5
56E
100
AcDbEntity
  8
ASSI
100
AcDbPolyline
 62
7
  6
CONTINUOUS
 90
5
 70
0
 10
-6.5967757229
 20
13.4291203037
 10
-6.6041908557
 20
13.4302743745
 10
-6.6271615782
 20
13.4362779196
 10
-6.6498031913
 20
13.4446595179
 10
-6.6723751736
 20
13.4554587244
  0
LINE
  5
56F
100
AcDbEntity
  8
0
100
AcDbLine
 62
7
  6
CONTINUOUS
 10
11.0776455262
 20
10.4691578267
 11
11.1124245578
 21
10.462193864
  0
LWPOLYLINE
  5
570
100
AcDbEntity
  8
DRAFT
100
AcDbPolyline
 62
7
  6
CONTINUOUS
 90
3
 70
0
 10
-0.9658885981
 20
13.2130693429
 10
-1.1680298296
 20
13.253596373
 10
-1.3804437938
 20
13.2756227797
  0
LWPOLYLINE
  5
571
100
AcDbEntity
  8
ASSI
100
AcDbPolyline
 62
7
  6
CONTINUOUS
 90
3
 70
0
 10
-0.9658885981
 20
13.2130693429
 10
-1.1680298296
 20
13.253596373
 10
-1.3804437938
 20
13.2756227797
  0
LWPOLYLINE
  5
572
100
AcDbEntity
  8
RACCORDO
100
AcDbPolyline
 62
7
  6
CONTINUOUS
 90
4
 70
0
 10
-6.3285997924
 20
13.9012799713
 10
-6.3645332239
 20
13.9088450828
 10
-6.4015995466
 20
13.9110603052
 10
-6.438852133
 20
13.9077169721
  0
LWPOLYLINE
  5
573
100
AcDbEntity
  8
ASSI
100
AcDbPolyline
 62
7
  6
CONTINUOUS
 90
4
 70
0
 10
-6.3285997924
 20
13.9012799713
 10
-6.3645332239
 20
13.9088450828
 10
-6.4015995466
 20
13.9110603052
 10
-6.438852133
 20
13.9077169721
  0
LWPOLYLINE
  5
574
100
AcDbEntity
  8
RACCORDO
100
AcDbPolyline
 62
250
  6
CONTINUOUS
 90
8
 70
0
 10
-6.3285997924
 20
13.9012799713
 10
-6.3348085868
 20
13.9026258637
 10
-6.3442328516
 20
13.9031029038
 10
-6.354047887
 20
13.9018189651
 10
-6.3641822759
 20
13.8987833899
 10
-6.374562277
 20
13.8940182661
 10
-6.3851123624
 20
13.8875582661
 10
-6.3957557662
 20
13.879450395
  0
LWPOLYLINE
  5
575
100
AcDbEntity
  8
ASSI
100
AcDbPolyline
 62
250
  6
CONTINUOUS
 90
8
 70
0
 10
-6.3285997924
 20
13.9012799713
 10
-6.3348085868
 20
13.9026258637
 10
-6.3442328516
 20
13.9031029038
 10
-6.354047887
 20
13.9018189651
 10
-6.3641822759
 20
13.8987833899
 10
-6.374562277
 20
13.8940182661
 10
-6.3851123624
 20
13.8875582661
 10
-6.3957557662
 20
13.879450395
  0
LWPOLYLINE
  5
576
100
AcDbEntity
  8
RACCORDO
100
AcDbPolyline
 62
250
  6
CONTINUOUS
 90
4
 70
0
 10
-4.655373681
 20
14.0715510355
 10
-4.6609202256
 20
14.0727900815
 10
-4.6803326035
 20
14.0721764892
 10
-4.7010627131
 20
14.0644066344
  0
LWPOLYLINE
  5
577
100
AcDbEntity
  8
ASSI
100
AcDbPolyline
 62
250
  6
CONTINUOUS
 90
4
 70
0
 10
-4.6553733599
 20
14.071550943
 10
-4.6609202256
 20
14.0727900815
 10
-4.6803326035
 20
14.0721764892
 10
-4.7010627131
 20
14.0644066344
  0
LWPOLYLINE
  5
578
100
AcDbEntity
  8
RACCORDO
100
AcDbPolyline
 62
250
  6
CONTINUOUS
 90
9
 70
0
 10
-6.3957557662
 20
13.879450395
 10
-6.4129548727
 20
13.8838044394
 10
-6.4300110777
 20
13.8867195525
 10
-6.4468426014
 20
13.8881995279
 10
-6.463379847
 20
13.8882550571
 10
-6.4795263056
 20
13.8868753915
 10
-6.4951536169
 20
13.8840541412
 10
-6.5101557726
 20
13.8798184238
 10
-6.524451893
 20
13.8742048719
  0
LWPOLYLINE
  5
579
100
AcDbEntity
  8
ASSI
100
AcDbPolyline
 62
250
  6
CONTINUOUS
 90
9
 70
0
 10
-6.3957557662
 20
13.879450395
 10
-6.4129548727
 20
13.8838044394
 10
-6.4300110777
 20
13.8867195525
 10
-6.4468426014
 20
13.8881995279
 10
-6.463379847
 20
13.8882550571
 10
-6.4795263056
 20
13.8868753915
 10
-6.4951536169
 20
13.8840541412
 10
-6.5101557726
 20
13.8798184238
 10
-6.524451893
 20
13.8742048719
  0
LWPOLYLINE
  5
57A
100
AcDbEntity
  8
0
100
AcDbPolyline
 62
7
  6
CONTINUOUS
 90
4
 70
0
 10
3.682890288
 20
10.8194177728
 10
3.6547194285
 20
10.8266488064
 10
3.6267981793
 20
10.8319822395
 10
3.5991265406
 20
10.8354180722
  0
LWPOLYLINE
  5
57B
100
AcDbEntity
  8
ASSI
100
AcDbPolyline
 62
7
  6
CONTINUOUS
 90
4
 70
0
 10
3.682890288
 20
10.8194177728
 10
3.6547194285
 20
10.8266488064
 10
3.6267981793
 20
10.8319822395
 10
3.5991265406
 20
10.8354180722
  0
LWPOLYLINE
  5
57C
100
AcDbEntity
  8
0
100
AcDbPolyline
 62
7
  6
CONTINUOUS
 90
4
 70
0
 10
-6.0598955046
 20
13.6319177728
 10
-6.0880663641
 20
13.6391488064
 10
-6.1159876132
 20
13.6444822395
 10
-6.143659252
 20
13.6479180722
  0
LWPOLYLINE
  5
57D
100
AcDbEntity
  8
ASSI
100
AcDbPolyline
 62
7
  6
CONTINUOUS
 90
4
 70
0
 10
-6.0598955046
 20
13.6319177728
 10
-6.0880663641
 20
13.6391488064
 10
-6.1159876132
 20
13.6444822395
 10
-6.143659252
 20
13.6479180722
  0
LINE
  5
57E
100
AcDbEntity
  8
RACCORDO
100
AcDbLine
 62
7
  6
CONTINUOUS
 10
-1.1561027147
 20
13.0621992546
 11
-1.183278532
 21
13.0692408715
  0
LINE
  5
57F
100
AcDbEntity
  8
ASSI
100
AcDbLine
 62
7
  6
CONTINUOUS
 10
-1.1561283712
 20
13.0622059026
 11
-1.1832778248
 21
13.0692406593
  0
LWPOLYLINE
  5
580
100
AcDbEntity
  8
RACCORDO
100
AcDbPolyline
 62
250
  6
CONTINUOUS
 90
11
 70
0
 10
10.333412969
 20
8.8732063323
 10
10.3440771372
 20
8.8702693647
 10
10.3582783793
 20
8.8668294569
 10
10.3727225481
 20
8.8639437564
 10
10.3871696701
 20
8.8618350455
 10
10.401876616
 20
8.8606163205
 10
10.4166152451
 20
8.8604925384
 10
10.4304149652
 20
8.8618539987
 10
10.4429403789
 20
8.8649121385
 10
10.4544943959
 20
8.8697244854
 10
10.4650448614
 20
8.8764233088
  0
LWPOLYLINE
  5
581
100
AcDbEntity
  8
ASSI
100
AcDbPolyline
 62
250
  6
CONTINUOUS
 90
11
 70
0
 10
10.333412969
 20
8.8732063323
 10
10.3440771372
 20
8.8702693647
 10
10.3582783793
 20
8.8668294569
 10
10.3727225481
 20
8.8639437564
 10
10.3871696701
 20
8.8618350455
 10
10.401876616
 20
8.8606163205
 10
10.4166152451
 20
8.8604925384
 10
10.4304149652
 20
8.8618539987
 10
10.4429403789
 20
8.8649121385
 10
10.4544943959
 20
8.8697244854
 10
10.4650448614
 20
8.8764233088
  0
LWPOLYLINE
  5
582
100
AcDbEntity
  8
RACCORDO
100
AcDbPolyline
 62
250
  6
CONTINUOUS
 90
8
 70
0
 10
-1.2509006415
 20
13.0475485013
 10
-1.2340853196
 20
13.0428224259
 10
-1.2162665703
 20
13.0383481653
 10
-1.1974443936
 20
13.0341257194
 10
-1.1776456453
 20
13.0301069978
 10
-1.1568434696
 20
13.0263400909
 10
-1.1349572985
 20
13.0229692704
 10
-1.1119413198
 20
13.0199784709
  0
LWPOLYLINE
  5
583
100
AcDbEntity
  8
ASSI
100
AcDbPolyline
 62
250
  6
CONTINUOUS
 90
8
 70
0
 10
-1.2509006415
 20
13.0475485013
 10
-1.2340853196
 20
13.0428224259
 10
-1.2162665703
 20
13.0383481653
 10
-1.1974443936
 20
13.0341257194
 10
-1.1776456453
 20
13.0301069978
 10
-1.1568434696
 20
13.0263400909
 10
-1.1349572985
 20
13.0229692704
 10
-1.1119413198
 20
13.0199784709
  0
LINE
  5
584
100
AcDbEntity
  8
0
100
AcDbLine
 62
7
  6
CONTINUOUS
 10
-5.4200969349
 20
13.3764205968
 11
-3.0703840444
 21
12.6981169118
  0
LINE
  5
585
100
AcDbEntity
  8
ASSI
100
AcDbLine
 62
7
  6
CONTINUOUS
 10
-5.4200969349
 20
13.3764205968
 11
-3.0703840444
 21
12.6981169118
  0
LINE
  5
586
100
AcDbEntity
  8
0
100
AcDbLine
 62
7
  6
CONTINUOUS
 10
4.3226888577
 20
10.5639205968
 11
6.6724017482
 21
9.8856169118
  0
LINE
  5
587
100
AcDbEntity
  8
ASSI
100
AcDbLine
 62
7
  6
CONTINUOUS
 10
4.3226888577
 20
10.5639205968
 11
6.6724017482
 21
9.8856169118
  0
LINE
  5
588
100
AcDbEntity
  8
0
100
AcDbLine
 62
7
  6
CONTINUOUS
 10
6.847166179
 20
9.905970004
 11
6.73727142
 21
9.9376938884
  0
LINE
  5
589
100
AcDbEntity
  8
ASSI
100
AcDbLine
 62
7
  6
CONTINUOUS
 10
6.847166179
 20
9.905970004
 11
6.73727142
 21
9.9376938884
  0
LINE
  5
58A
100
AcDbEntity
  8
0
100
AcDbLine
 62
7
  6
CONTINUOUS
 10
3.7927850471
 20
10.7876938884
 11
3.682890288
 21
10.8194177728
  0
LINE
  5
58B
100
AcDbEntity
  8
ASSI
100
AcDbLine
 62
7
  6
CONTINUOUS
 10
3.7927850471
 20
10.7876938884
 11
3.682890288
 21
10.8194177728
  0
LINE
  5
58C
100
AcDbEntity
  8
0
100
AcDbLine
 62
7
  6
CONTINUOUS
 10
-2.8956196135
 20
12.718470004
 11
-3.0055143726
 21
12.7501938884
  0
LINE
  5
58D
100
AcDbEntity
  8
ASSI
100
AcDbLine
 62
7
  6
CONTINUOUS
 10
-2.8956196135
 20
12.718470004
 11
-3.0055143726
 21
12.7501938884
  0
LINE
  5
58E
100
AcDbEntity
  8
0
100
AcDbLine
 62
7
  6
CONTINUOUS
 10
-5.9500007455
 20
13.6001938884
 11
-6.0598955046
 21
13.6319177728
  0
LINE
  5
58F
100
AcDbEntity
  8
ASSI
100
AcDbLine
 62
7
  6
CONTINUOUS
 10
-5.9500007455
 20
13.6001938884
 11
-6.0598955046
 21
13.6319177728
  0
LINE
  5
590
100
AcDbEntity
  8
RACCORDO
100
AcDbLine
 62
250
  6
CONTINUOUS
 10
10.1213494101
 20
8.9756396394
 11
10.4650448485
 21
8.8764233125
  0
LINE
  5
591
100
AcDbEntity
  8
ASSI
100
AcDbLine
 62
250
  6
CONTINUOUS
 10
10.1213494101
 20
8.9756396394
 11
10.4650448485
 21
8.8764233125
  0
LINE
  5
592
100
AcDbEntity
  8
0
100
AcDbLine
 62
7
  6
CONTINUOUS
 10
-5.2381095907
 20
13.4825110584
 11
-2.6426577855
 21
12.7332686592
  0
LINE
  5
593
100
AcDbEntity
  8
ASSI
100
AcDbLine
 62
7
  6
CONTINUOUS
 10
-5.2381095907
 20
13.4825110584
 11
-2.6426577855
 21
12.7332686592
  0
LINE
  5
594
100
AcDbEntity
  8
0
100
AcDbLine
 62
7
  6
CONTINUOUS
 10
4.5046762019
 20
10.6700110584
 11
7.1001280071
 21
9.9207686592
  0
LINE
  5
595
100
AcDbEntity
  8
ASSI
100
AcDbLine
 62
7
  6
CONTINUOUS
 10
4.5046762019
 20
10.6700110584
 11
7.1001280071
 21
9.9207686592
  0
LINE
  5
596
100
AcDbEntity
  8
RACCORDO
100
AcDbLine
 62
250
  6
CONTINUOUS
 10
9.168453838
 20
9.3864500927
 11
7.4075918885
 21
9.894767153
  0
LINE
  5
597
100
AcDbEntity
  8
ASSI
100
AcDbLine
 62
250
  6
CONTINUOUS
 10
9.168453838
 20
9.3864500927
 11
7.4075918885
 21
9.894767153
  0
LINE
  5
598
100
AcDbEntity
  8
RACCORDO
100
AcDbLine
 62
250
  6
CONTINUOUS
 10
4.6632465938
 20
10.6869914003
 11
-2.3351939041
 21
12.707267153
  0
LINE
  5
599
100
AcDbEntity
  8
ASSI
100
AcDbLine
 62
250
  6
CONTINUOUS
 10
4.6632465938
 20
10.6869914003
 11
-2.3351939041
 21
12.707267153
  0
LINE
  5
59A
100
AcDbEntity
  8
RACCORDO
100
AcDbLine
 62
250
  6
CONTINUOUS
 10
-5.0795391987
 20
13.4994914003
 11
-6.3957557646
 21
13.8794503946
  0
LINE
  5
59B
100
AcDbEntity
  8
ASSI
100
AcDbLine
 62
250
  6
CONTINUOUS
 10
-5.0795391987
 20
13.4994914003
 11
-6.3957557646
 21
13.8794503946
  0
LINE
  5
59C
100
AcDbEntity
  8
RACCORDO
100
AcDbLine
 62
7
  6
CONTINUOUS
 10
9.2356098133
 20
9.4082796685
 11
7.45293832
 21
9.9228926018
  0
LINE
  5
59D
100
AcDbEntity
  8
ASSI
100
AcDbLine
 62
7
  6
CONTINUOUS
 10
9.2356098133
 20
9.4082796685
 11
7.45293832
 21
9.9228926018
  0
LINE
  5
59E
100
AcDbEntity
  8
RACCORDO
100
AcDbLine
 62
7
  6
CONTINUOUS
 10
4.7673903495
 20
10.6981435236
 11
-2.2898474726
 21
12.7353926018
  0
LINE
  5
59F
100
AcDbEntity
  8
ASSI
100
AcDbLine
 62
7
  6
CONTINUOUS
 10
4.7673903495
 20
10.6981435236
 11
-2.2898474726
 21
12.7353926018
  0
LINE
  5
5A0
100
AcDbEntity
  8
RACCORDO
100
AcDbLine
 62
7
  6
CONTINUOUS
 10
-4.975395443
 20
13.5106435236
 11
-6.3285997924
 21
13.9012799713
  0
LINE
  5
5A1
100
AcDbEntity
  8
ASSI
100
AcDbLine
 62
7
  6
CONTINUOUS
 10
-4.975395443
 20
13.5106435236
 11
-6.3285997924
 21
13.9012799713
  0
LINE
  5
5A2
100
AcDbEntity
  8
0
100
AcDbLine
 62
7
  6
CONTINUOUS
 10
-4.7431681664
 20
13.5355113347
 11
-2.3903822026
 21
12.8563205299
  0
LINE
  5
5A3
100
AcDbEntity
  8
ASSI
100
AcDbLine
 62
7
  6
CONTINUOUS
 10
-4.7431681664
 20
13.5355113347
 11
-2.3903822026
 21
12.8563205299
  0
LINE
  5
5A4
100
AcDbEntity
  8
0
100
AcDbLine
 62
7
  6
CONTINUOUS
 10
4.9996176262
 20
10.7230113347
 11
7.35240359
 21
10.0438205299
  0
LINE
  5
5A5
100
AcDbEntity
  8
ASSI
100
AcDbLine
 62
7
  6
CONTINUOUS
 10
4.9996176262
 20
10.7230113347
 11
7.35240359
 21
10.0438205299
  0
LINE
  5
5A6
100
AcDbEntity
  8
RACCORDO
100
AcDbLine
 62
250
  6
CONTINUOUS
 10
-1.2509006415
 20
13.0475485013
 11
-4.7224945615
 21
14.0497113434
  0
LINE
  5
5A7
100
AcDbEntity
  8
ASSI
100
AcDbLine
 62
250
  6
CONTINUOUS
 10
-1.2509006415
 20
13.0475485013
 11
-4.7224945615
 21
14.0497113434
  0
LINE
  5
5A8
100
AcDbEntity
  8
RACCORDO
100
AcDbLine
 62
7
  6
CONTINUOUS
 10
-1.1837446678
 20
13.0693780776
 11
-4.655373681
 21
14.0715510355
  0
LINE
  5
5A9
100
AcDbEntity
  8
ASSI
100
AcDbLine
 62
7
  6
CONTINUOUS
 10
-1.1837446678
 20
13.0693780776
 11
-4.6553733599
 21
14.071550943
  0
LINE
  5
5AA
100
AcDbEntity
  8
0
100
AcDbLine
 62
7
  6
CONTINUOUS
 10
9.8524626912
 20
10.2161323482
 11
9.4195343994
 21
10.3411079811
  0
LINE
  5
5AB
100
AcDbEntity
  8
0
100
AcDbLine
 62
7
  6
CONTINUOUS
 10
10.0274626912
 20
10.3676867938
 11
9.5945343994
 21
10.4926624268
  0
LINE
  5
5AC
100
AcDbEntity
  8
DRAFT
100
AcDbLine
 62
7
  6
CONTINUOUS
 10
9.3962460162
 20
10.7206948467
 11
9.2339443428
 21
10.7675473041
  0
LINE
  5
5AD
100
AcDbEntity
  8
ASSI
100
AcDbLine
 62
7
  6
CONTINUOUS
 10
9.3962460162
 20
10.7206948467
 11
9.2339443428
 21
10.7675473041
  0
LINE
  5
5AE
100
AcDbEntity
  8
ASSI
100
AcDbLine
 62
7
  6
CONTINUOUS
 10
-0.2012405681
 20
13.5297485566
 11
-1.6509508879
 21
13.9482438782
  0
LINE
  5
5AF
100
AcDbEntity
  8
RACCORDO
100
AcDbLine
 62
7
  6
CONTINUOUS
 10
10.3331312631
 20
8.8732877944
 11
10.333412969
 21
8.8732063323
  0
LINE
  5
5B0
100
AcDbEntity
  8
ASSI
100
AcDbLine
 62
7
  6
CONTINUOUS
 10
10.3331306193
 20
8.8732879807
 11
10.333412969
 21
8.8732063323
  0
LINE
  5
5B1
100
AcDbEntity
  8
DRAFT
100
AcDbLine
 62
7
  6
CONTINUOUS
 10
-0.7731066292
 20
13.1560967061
 11
-0.9658885981
 21
13.2130693429
  0
LINE
  5
5B2
100
AcDbEntity
  8
ASSI
100
AcDbLine
 62
7
  6
CONTINUOUS
 10
-0.7731066292
 20
13.1560967061
 11
-0.9658885981
 21
13.2130693429
  0
LINE
  5
5B3
100
AcDbEntity
  8
RACCORDO
100
AcDbLine
 62
7
  6
CONTINUOUS
 10
-4.6553740052
 20
14.0715499041
 11
-4.6619575881
 21
14.0735001806
  0
LINE
  5
5B4
100
AcDbEntity
  8
ASSI
100
AcDbLine
 62
7
  6
CONTINUOUS
 10
-4.6553736841
 20
14.0715498117
 11
-4.6618914741
 21
14.0734800926
  0
LWPOLYLINE
  5
5B5
100
AcDbEntity
  8
RACCORDO
100
AcDbPolyline
 62
7
  6
CONTINUOUS
 90
4
 70
0
 10
9.2355649794
 20
9.4082925868
 10
9.2397522072
 20
9.4070449448
 10
9.2589739145
 20
9.400264959
 10
9.2757101762
 20
9.3928614326
  0
LWPOLYLINE
  5
5B6
100
AcDbEntity
  8
ASSI
100
AcDbPolyline
 62
7
  6
CONTINUOUS
 90
4
 70
0
 10
9.2355649794
 20
9.4082925868
 10
9.2397522041
 20
9.4070449458
 10
9.2589739096
 20
9.4002649609
 10
9.2757101762
 20
9.3928614326
  0
LINE
  5
5B7
100
AcDbEntity
  8
RACCORDO
100
AcDbLine
 62
250
  6
CONTINUOUS
 10
9.1857302895
 20
9.3808424731
 11
9.1684538396
 21
9.3864500922
  0
LINE
  5
5B8
100
AcDbEntity
  8
ASSI
100
AcDbLine
 62
250
  6
CONTINUOUS
 10
9.1857302895
 20
9.3808424731
 11
9.1684538396
 21
9.3864500922
  0
LWPOLYLINE
  5
5B9
100
AcDbEntity
  8
RACCORDO
100
AcDbPolyline
 62
250
  6
CONTINUOUS
 90
4
 70
0
 10
10.4650448615
 20
8.8764233088
 10
10.4845033833
 20
8.8700203821
 10
10.5037887211
 20
8.8619146437
 10
10.5227459347
 20
8.8521710395
  0
LWPOLYLINE
  5
5BA
100
AcDbEntity
  8
ASSI
100
AcDbPolyline
 62
250
  6
CONTINUOUS
 90
4
 70
0
 10
10.4650448615
 20
8.8764233088
 10
10.4845033833
 20
8.8700203821
 10
10.5037887211
 20
8.8619146437
 10
10.5227459347
 20
8.8521710395
  0
LINE
  5
5BB
100
AcDbEntity
  8
RACCORDO
100
AcDbLine
 62
7
  6
CONTINUOUS
 10
10.3331098388
 20
8.8732937121
 11
10.3204668756
 21
8.8774773912
  0
LINE
  5
5BC
100
AcDbEntity
  8
ASSI
100
AcDbLine
 62
7
  6
CONTINUOUS
 10
10.3331091951
 20
8.8732938984
 11
10.3204668756
 21
8.8774773912
  0
LINE
  5
5BD
100
AcDbEntity
  8
RACCORDO
100
AcDbLine
 62
7
  6
CONTINUOUS
 10
-4.6619575881
 20
14.0735001806
 11
-4.6970843746
 21
14.085835939
  0
LINE
  5
5BE
100
AcDbEntity
  8
ASSI
100
AcDbLine
 62
7
  6
CONTINUOUS
 10
-4.6618914741
 20
14.0734800926
 11
-4.6970489224
 21
14.0858215709
  0
LWPOLYLINE
  5
5BF
100
AcDbEntity
  8
RACCORDO
100
AcDbPolyline
 62
250
  6
CONTINUOUS
 90
10
 70
0
 10
-4.909804415
 20
14.3799937445
 10
-4.8718758834
 20
14.366144777
 10
-4.8351656137
 20
14.3460841615
 10
-4.8007885981
 20
14.320421198
 10
-4.769788959
 20
14.2899353434
 10
-4.7431082406
 20
14.2555525409
 10
-4.7215568094
 20
14.2183170975
 10
-4.7057892367
 20
14.1793599596
 10
-4.6962844197
 20
14.1398643604
 10
-4.6933310391
 20
14.1010298876
  0
LWPOLYLINE
  5
5C0
100
AcDbEntity
  8
ASSI
100
AcDbPolyline
 62
250
  6
CONTINUOUS
 90
10
 70
0
 10
-4.909804415
 20
14.3799937445
 10
-4.8718758834
 20
14.366144777
 10
-4.8351656137
 20
14.3460841615
 10
-4.8007885981
 20
14.320421198
 10
-4.769788959
 20
14.2899353434
 10
-4.7431082406
 20
14.2555525409
 10
-4.7215568094
 20
14.2183170975
 10
-4.7057892367
 20
14.1793599596
 10
-4.6962844197
 20
14.1398643604
 10
-4.6933310391
 20
14.1010298876
  0
LINE
  5
5C1
100
AcDbEntity
  8
ASSI
100
AcDbLine
 62
7
  6
CONTINUOUS
 10
-2.2725393373
 20
14.6278870033
 11
-2.3138941699
 21
14.6438290553
  0
LINE
  5
5C2
100
AcDbEntity
  8
RACCORDO
100
AcDbLine
 62
7
  6
CONTINUOUS
 10
-2.2725388775
 20
14.6278868766
 11
-2.3138941699
 21
14.6438290553
  0
LWPOLYLINE
  5
5C3
100
AcDbEntity
  8
0
100
AcDbPolyline
 62
7
  6
CONTINUOUS
 90
3
 70
0
 10
6.9032582877
 20
9.8861496767
 10
6.8753370386
 20
9.8969365843
 10
6.847166179
 20
9.905970004
  0
LWPOLYLINE
  5
5C4
100
AcDbEntity
  8
ASSI
100
AcDbPolyline
 62
7
  6
CONTINUOUS
 90
3
 70
0
 10
6.9032582877
 20
9.8861496767
 10
6.8753370386
 20
9.8969365843
 10
6.847166179
 20
9.905970004
  0
LINE
  5
5C5
100
AcDbEntity
  8
RACCORDO
100
AcDbLine
 62
7
  6
CONTINUOUS
 10
10.3204668756
 20
8.8774773912
 11
10.3062294018
 21
8.8831927152
  0
LINE
  5
5C6
100
AcDbEntity
  8
ASSI
100
AcDbLine
 62
7
  6
CONTINUOUS
 10
10.3204668756
 20
8.8774773912
 11
10.3062294018
 21
8.8831927152
  0
LINE
  5
5C7
100
AcDbEntity
  8
DRAFT
100
AcDbLine
 62
7
  6
CONTINUOUS
 10
-0.7023851989
 20
13.1274327057
 11
-0.7731066292
 21
13.1560967061
  0
LINE
  5
5C8
100
AcDbEntity
  8
ASSI
100
AcDbLine
 62
7
  6
CONTINUOUS
 10
-0.7023851989
 20
13.1274327057
 11
-0.7731066292
 21
13.1560967061
  0
LWPOLYLINE
  5
5C9
100
AcDbEntity
  8
SMUSSO
100
AcDbPolyline
 62
7
  6
CONTINUOUS
 90
3
 70
0
 10
9.3263348602
 20
10.2414376427
 10
9.1569504123
 20
10.3146745071
 10
9.0107115398
 20
10.3964668062
  0
LWPOLYLINE
  5
5CA
100
AcDbEntity
  8
ASSI
100
AcDbPolyline
 62
7
  6
CONTINUOUS
 90
3
 70
0
 10
9.3263348602
 20
10.2414376427
 10
9.1569504123
 20
10.3146745071
 10
9.0107115398
 20
10.3964668062
  0
LINE
  5
5CB
100
AcDbEntity
  8
RACCORDO
100
AcDbLine
 62
7
  6
CONTINUOUS
 10
10.3062294018
 20
8.8831927152
 11
10.2898896428
 21
8.8908028252
  0
LINE
  5
5CC
100
AcDbEntity
  8
ASSI
100
AcDbLine
 62
7
  6
CONTINUOUS
 10
10.3062219554
 20
8.8831957045
 11
10.2898606939
 21
8.8908171949
  0
LINE
  5
5CD
100
AcDbEntity
  8
RACCORDO
100
AcDbLine
 62
7
  6
CONTINUOUS
 10
9.3461590555
 20
9.3586646161
 11
9.2753766309
 21
9.3930343553
  0
LINE
  5
5CE
100
AcDbEntity
  8
ASSI
100
AcDbLine
 62
7
  6
CONTINUOUS
 10
9.3461590555
 20
9.3586646161
 11
9.2753766309
 21
9.3930343553
  0
LWPOLYLINE
  5
5CF
100
AcDbEntity
  8
RACCORDO
100
AcDbPolyline
 62
7
  6
CONTINUOUS
 90
3
 70
0
 10
9.6779485306
 20
9.1962346846
 10
9.5118662148
 20
9.2778153235
 10
9.3461590555
 20
9.3586646161
  0
LWPOLYLINE
  5
5D0
100
AcDbEntity
  8
ASSI
100
AcDbPolyline
 62
7
  6
CONTINUOUS
 90
3
 70
0
 10
9.6779485306
 20
9.1962346846
 10
9.5118662148
 20
9.2778153235
 10
9.3461590555
 20
9.3586646161
  0
LWPOLYLINE
  5
5D1
100
AcDbEntity
  8
RACCORDO
100
AcDbPolyline
 62
250
  6
CONTINUOUS
 90
3
 70
0
 10
9.3100942744
 20
9.2916892263
 10
9.4797079444
 20
9.2080509388
 10
9.6497001245
 20
9.1235807006
  0
LWPOLYLINE
  5
5D2
100
AcDbEntity
  8
ASSI
100
AcDbPolyline
 62
250
  6
CONTINUOUS
 90
3
 70
0
 10
9.3100942744
 20
9.2916892263
 10
9.4797079444
 20
9.2080509388
 10
9.6497001245
 20
9.1235807006
  0
LWPOLYLINE
  5
5D3
100
AcDbEntity
  8
RACCORDO
100
AcDbPolyline
 62
7
  6
CONTINUOUS
 90
3
 70
0
 10
10.0110655398
 20
9.0309297698
 10
9.8443636548
 20
9.1139347749
 10
9.6779485306
 20
9.1962346846
  0
LWPOLYLINE
  5
5D4
100
AcDbEntity
  8
ASSI
100
AcDbPolyline
 62
7
  6
CONTINUOUS
 90
3
 70
0
 10
10.0110655398
 20
9.0309297698
 10
9.8443636548
 20
9.1139347749
 10
9.6779485306
 20
9.1962346846
  0
LWPOLYLINE
  5
5D5
100
AcDbEntity
  8
RACCORDO
100
AcDbPolyline
 62
7
  6
CONTINUOUS
 90
6
 70
0
 10
8.3775865138
 20
8.5006019947
 10
8.3544437102
 20
8.5121327659
 10
8.3317290304
 20
8.5240952085
 10
8.309442444
 20
8.5364890896
 10
8.2874879427
 20
8.5491869392
 10
8.2776318449
 20
8.5550788581
  0
LWPOLYLINE
  5
5D6
100
AcDbEntity
  8
ASSI
100
AcDbPolyline
 62
7
  6
CONTINUOUS
 90
6
 70
0
 10
8.3775865138
 20
8.5006019947
 10
8.3544437102
 20
8.5121327659
 10
8.3317290304
 20
8.5240952085
 10
8.309442444
 20
8.5364890896
 10
8.2874879427
 20
8.5491869392
 10
8.277631797
 20
8.5550788872
  0
LWPOLYLINE
  5
5D7
100
AcDbEntity
  8
RACCORDO
100
AcDbPolyline
 62
250
  6
CONTINUOUS
 90
3
 70
0
 10
9.6497001245
 20
9.1235807006
 10
9.8200312853
 20
9.0382844153
 10
9.9906614351
 20
8.9521687917
  0
LWPOLYLINE
  5
5D8
100
AcDbEntity
  8
ASSI
100
AcDbPolyline
 62
250
  6
CONTINUOUS
 90
3
 70
0
 10
9.6497001245
 20
9.1235807006
 10
9.8200312853
 20
9.0382844153
 10
9.9906614351
 20
8.9521687917
  0
LINE
  5
5D9
100
AcDbEntity
  8
RACCORDO
100
AcDbLine
 62
7
  6
CONTINUOUS
 10
10.1780105327
 20
8.9472329391
 11
10.0110655398
 21
9.0309297698
  0
LINE
  5
5DA
100
AcDbEntity
  8
ASSI
100
AcDbLine
 62
7
  6
CONTINUOUS
 10
10.1780105327
 20
8.9472329391
 11
10.0110655398
 21
9.0309297698
  0
LINE
  5
5DB
100
AcDbEntity
  8
RACCORDO
100
AcDbLine
 62
7
  6
CONTINUOUS
 10
10.2898896428
 20
8.8908028252
 11
10.1780105327
 21
8.9472329391
  0
LINE
  5
5DC
100
AcDbEntity
  8
ASSI
100
AcDbLine
 62
7
  6
CONTINUOUS
 10
10.2898606939
 20
8.8908171949
 11
10.1780105327
 21
8.9472329391
  0
LWPOLYLINE
  5
5DD
100
AcDbEntity
  8
RACCORDO
100
AcDbPolyline
 62
250
  6
CONTINUOUS
 90
9
 70
0
 10
10.332656469
 20
8.7775104783
 10
10.3484536714
 20
8.7695031026
 10
10.3647961632
 20
8.7620072855
 10
10.3816839449
 20
8.7550231415
 10
10.3990849634
 20
8.7484210225
 10
10.4170311633
 20
8.742330725
 10
10.4356190404
 20
8.7371418902
 10
10.4548941191
 20
8.7327108304
 10
10.4748116609
 20
8.7291820248
  0
LWPOLYLINE
  5
5DE
100
AcDbEntity
  8
ASSI
100
AcDbPolyline
 62
250
  6
CONTINUOUS
 90
9
 70
0
 10
10.332656469
 20
8.7775104783
 10
10.3484536714
 20
8.7695031026
 10
10.3647961632
 20
8.7620072855
 10
10.3816839449
 20
8.7550231415
 10
10.3990849634
 20
8.7484210225
 10
10.4170311633
 20
8.742330725
 10
10.4356190404
 20
8.7371418902
 10
10.4548941191
 20
8.7327108304
 10
10.4748116609
 20
8.7291820248
  0
LINE
  5
5DF
100
AcDbEntity
  8
RACCORDO
100
AcDbLine
 62
250
  6
CONTINUOUS
 10
9.9906614351
 20
8.9521687917
 11
10.1615501274
 21
8.8652413585
  0
LINE
  5
5E0
100
AcDbEntity
  8
ASSI
100
AcDbLine
 62
250
  6
CONTINUOUS
 10
9.9906614351
 20
8.9521687917
 11
10.1615501274
 21
8.8652413585
  0
LINE
  5
5E1
100
AcDbEntity
  8
RACCORDO
100
AcDbLine
 62
250
  6
CONTINUOUS
 10
10.1615501274
 20
8.8652413585
 11
10.332656469
 21
8.7775104783
  0
LINE
  5
5E2
100
AcDbEntity
  8
ASSI
100
AcDbLine
 62
250
  6
CONTINUOUS
 10
10.1615501274
 20
8.8652413585
 11
10.332656469
 21
8.7775104783
  0
LWPOLYLINE
  5
5E3
100
AcDbEntity
  8
0
100
AcDbPolyline
 62
7
  6
CONTINUOUS
 90
3
 70
0
 10
6.9585352979
 20
9.8592074396
 10
6.9309299265
 20
9.8736092814
 10
6.9032582877
 20
9.8861496767
  0
LWPOLYLINE
  5
5E4
100
AcDbEntity
  8
ASSI
100
AcDbPolyline
 62
7
  6
CONTINUOUS
 90
3
 70
0
 10
6.9585352979
 20
9.8592074396
 10
6.9309299265
 20
9.8736092814
 10
6.9032582877
 20
9.8861496767
  0
LWPOLYLINE
  5
5E5
100
AcDbEntity
  8
RACCORDO
100
AcDbPolyline
 62
250
  6
CONTINUOUS
 90
8
 70
0
 10
9.2757101762
 20
9.3928614326
 10
9.2778665461
 20
9.3917356245
 10
9.2871797167
 20
9.3847755464
 10
9.2951790618
 20
9.3750933781
 10
9.301776242
 20
9.362832161
 10
9.3065419559
 20
9.3482602432
 10
9.3094107218
 20
9.331530496
 10
9.3107144136
 20
9.3127557474
  0
LWPOLYLINE
  5
5E6
100
AcDbEntity
  8
ASSI
100
AcDbPolyline
 62
250
  6
CONTINUOUS
 90
8
 70
0
 10
9.2757101762
 20
9.3928614326
 10
9.2778665461
 20
9.3917356245
 10
9.2871797167
 20
9.3847755464
 10
9.2951790618
 20
9.3750933781
 10
9.301776242
 20
9.362832161
 10
9.3065419559
 20
9.3482602432
 10
9.3094107218
 20
9.331530496
 10
9.3107144136
 20
9.3127557474
  0
LWPOLYLINE
  5
5E7
100
AcDbEntity
  8
RACCORDO
100
AcDbPolyline
 62
7
  6
CONTINUOUS
 90
5
 70
0
 10
-2.3139138725
 20
14.6438366506
 10
-2.3601472199
 20
14.6706924374
 10
-2.4047025813
 20
14.7064880343
 10
-2.4454304098
 20
14.7502477567
 10
-2.479437368
 20
14.7994770083
  0
LWPOLYLINE
  5
5E8
100
AcDbEntity
  8
ASSI
100
AcDbPolyline
 62
7
  6
CONTINUOUS
 90
5
 70
0
 10
-2.3138941699
 20
14.6438290553
 10
-2.3601297834
 20
14.6706804382
 10
-2.4047035878
 20
14.7064889649
 10
-2.4454466236
 20
14.7502679095
 10
-2.4794633027
 20
14.7995212797
  0
LWPOLYLINE
  5
5E9
100
AcDbEntity
  8
RACCORDO
100
AcDbPolyline
 62
7
  6
CONTINUOUS
 90
5
 70
0
 10
-0.7793046024
 20
13.6966212694
 10
-0.7879953843
 20
13.7017490165
 10
-0.9839671466
 20
13.7825972926
 10
-1.1813935312
 20
13.8307517916
 10
-1.2660270304
 20
13.8371259319
  0
LWPOLYLINE
  5
5EA
100
AcDbEntity
  8
ASSI
100
AcDbPolyline
 62
7
  6
CONTINUOUS
 90
5
 70
0
 10
-0.7793046024
 20
13.6966212694
 10
-0.7879953843
 20
13.7017490165
 10
-0.9839671466
 20
13.7825972926
 10
-1.1813935312
 20
13.8307517916
 10
-1.2660270304
 20
13.8371259319
  0
LWPOLYLINE
  5
5EB
100
AcDbEntity
  8
RACCORDO
100
AcDbPolyline
 62
250
  6
CONTINUOUS
 90
7
 70
0
 10
10.5227459347
 20
8.8521710395
 10
10.5412226262
 20
8.8408677304
 10
10.5590703744
 20
8.8280953405
 10
10.5761459028
 20
8.8139561777
 10
10.5923119554
 20
8.7985636153
 10
10.607438429
 20
8.782041238
 10
10.6214036127
 20
8.7645216867
  0
LWPOLYLINE
  5
5EC
100
AcDbEntity
  8
ASSI
100
AcDbPolyline
 62
250
  6
CONTINUOUS
 90
7
 70
0
 10
10.5227459347
 20
8.8521710395
 10
10.5412226262
 20
8.8408677304
 10
10.5590703744
 20
8.8280953405
 10
10.5761459028
 20
8.8139561777
 10
10.5923119554
 20
8.7985636153
 10
10.607438429
 20
8.782041238
 10
10.6214036127
 20
8.7645216867
  0
LWPOLYLINE
  5
5ED
100
AcDbEntity
  8
RACCORDO
100
AcDbPolyline
 62
7
  6
CONTINUOUS
 90
3
 70
0
 10
8.2776318449
 20
8.5550788581
 10
8.2659615316
 20
8.5623158263
 10
8.2451509493
 20
8.5762570241
  0
LWPOLYLINE
  5
5EE
100
AcDbEntity
  8
ASSI
100
AcDbPolyline
 62
7
  6
CONTINUOUS
 90
5
 70
0
 10
8.277631797
 20
8.5550788872
 10
8.2659615316
 20
8.5623158263
 10
8.2451509493
 20
8.5762570241
 10
8.2251518116
 20
8.5911371261
 10
8.2058678899
 20
8.6068283811
  0
LWPOLYLINE
  5
5EF
100
AcDbEntity
  8
0
100
AcDbPolyline
 62
7
  6
CONTINUOUS
 90
3
 70
0
 10
7.0124471805
 20
9.8254671684
 10
6.985891059
 20
9.84305211
 10
6.9585352979
 20
9.8592074396
  0
LWPOLYLINE
  5
5F0
100
AcDbEntity
  8
ASSI
100
AcDbPolyline
 62
7
  6
CONTINUOUS
 90
3
 70
0
 10
7.0124471805
 20
9.8254671684
 10
6.985891059
 20
9.84305211
 10
6.9585352979
 20
9.8592074396
  0
LWPOLYLINE
  5
5F1
100
AcDbEntity
  8
RACCORDO
100
AcDbPolyline
 62
7
  6
CONTINUOUS
 90
3
 70
0
 10
8.2451509493
 20
8.5762570241
 10
8.2251518116
 20
8.5911371261
 10
8.2058678899
 20
8.6068283811
  0
LINE
  5
5F2
100
AcDbEntity
  8
RACCORDO
100
AcDbLine
 62
7
  6
CONTINUOUS
 10
8.2058678899
 20
8.6068283811
 11
8.1872989066
 21
8.623330236
  0
LINE
  5
5F3
100
AcDbEntity
  8
ASSI
100
AcDbLine
 62
7
  6
CONTINUOUS
 10
8.2058678899
 20
8.6068283811
 11
8.1872989066
 21
8.623330236
  0
LINE
  5
5F4
100
AcDbEntity
  8
0
100
AcDbLine
 62
7
  6
CONTINUOUS
 10
6.2811673079
 20
9.612453574
 11
6.2886857451
 21
9.6056629642
  0
LWPOLYLINE
  5
5F5
100
AcDbEntity
  8
0
100
AcDbPolyline
 62
7
  6
CONTINUOUS
 90
4
 70
0
 10
7.0867676785
 20
9.7644585469
 10
7.0627938187
 20
9.7862243661
 10
7.0380203193
 20
9.8065605733
 10
7.0124471805
 20
9.8254671684
  0
LWPOLYLINE
  5
5F6
100
AcDbEntity
  8
ASSI
100
AcDbPolyline
 62
7
  6
CONTINUOUS
 90
4
 70
0
 10
7.0867676785
 20
9.7644585469
 10
7.0627938187
 20
9.7862243661
 10
7.0380203193
 20
9.8065605733
 10
7.0124471805
 20
9.8254671684
  0
LINE
  5
5F7
100
AcDbEntity
  8
0
100
AcDbLine
 62
7
  6
CONTINUOUS
 10
7.0867676785
 20
9.7644585469
 11
7.1219055098
 21
9.7308793175
  0
LINE
  5
5F8
100
AcDbEntity
  8
ASSI
100
AcDbLine
 62
7
  6
CONTINUOUS
 10
7.0867676785
 20
9.7644585469
 11
7.1219055098
 21
9.7308793175
  0
LINE
  5
5F9
100
AcDbEntity
  8
0
100
AcDbLine
 62
7
  6
CONTINUOUS
 10
7.1219055098
 20
9.7308793175
 11
7.1569612043
 21
9.6972012817
  0
LINE
  5
5FA
100
AcDbEntity
  8
ASSI
100
AcDbLine
 62
7
  6
CONTINUOUS
 10
7.1219055098
 20
9.7308793175
 11
7.1569612043
 21
9.6972012817
  0
LINE
  5
5FB
100
AcDbEntity
  8
0
100
AcDbLine
 62
7
  6
CONTINUOUS
 10
7.1569612043
 20
9.6972012817
 11
7.1919347621
 21
9.6634244396
  0
LINE
  5
5FC
100
AcDbEntity
  8
ASSI
100
AcDbLine
 62
7
  6
CONTINUOUS
 10
7.1569612043
 20
9.6972012817
 11
7.1919347621
 21
9.6634244396
  0
LWPOLYLINE
  5
5FD
100
AcDbEntity
  8
RACCORDO
100
AcDbPolyline
 62
7
  6
CONTINUOUS
 90
6
 70
0
 10
8.1872989066
 20
8.623330236
 10
8.1838900262
 20
8.6266585472
 10
8.1805028267
 20
8.6300575133
 10
8.1771380337
 20
8.6335252839
 10
8.1737963314
 20
8.6370599073
 10
8.1704783606
 20
8.6406593305
  0
LWPOLYLINE
  5
5FE
100
AcDbEntity
  8
ASSI
100
AcDbPolyline
 62
7
  6
CONTINUOUS
 90
6
 70
0
 10
8.1872989066
 20
8.623330236
 10
8.1838900262
 20
8.6266585472
 10
8.1805028267
 20
8.6300575133
 10
8.1771380337
 20
8.6335252839
 10
8.1737963314
 20
8.6370599073
 10
8.1704783606
 20
8.6406593305
  0
LWPOLYLINE
  5
5FF
100
AcDbEntity
  8
RACCORDO
100
AcDbPolyline
 62
7
  6
CONTINUOUS
 90
6
 70
0
 10
7.8674838913
 20
8.9742493119
 10
7.7913497898
 20
9.0555807841
 10
7.7147477499
 20
9.1364351947
 10
7.6376825049
 20
9.2168074347
 10
7.5601493214
 20
9.296702613
 10
7.4821481997
 20
9.3761207297
  0
LWPOLYLINE
  5
600
100
AcDbEntity
  8
ASSI
100
AcDbPolyline
 62
7
  6
CONTINUOUS
 90
6
 70
0
 10
7.8674838913
 20
8.9742493119
 10
7.7913497898
 20
9.0555807841
 10
7.7147477499
 20
9.1364351947
 10
7.6376825049
 20
9.2168074347
 10
7.5601493214
 20
9.296702613
 10
7.4821481997
 20
9.3761207297
  0
LWPOLYLINE
  5
601
100
AcDbEntity
  8
RACCORDO
100
AcDbPolyline
 62
7
  6
CONTINUOUS
 90
3
 70
0
 10
8.0183009468
 20
8.8102062712
 10
7.9431358547
 20
8.8924561046
 10
7.8674838913
 20
8.9742493119
  0
LWPOLYLINE
  5
602
100
AcDbEntity
  8
ASSI
100
AcDbPolyline
 62
7
  6
CONTINUOUS
 90
3
 70
0
 10
8.0183009468
 20
8.8102062712
 10
7.9431358547
 20
8.8924561046
 10
7.8674838913
 20
8.9742493119
  0
LWPOLYLINE
  5
603
100
AcDbEntity
  8
RACCORDO
100
AcDbPolyline
 62
250
  6
CONTINUOUS
 90
9
 70
0
 10
9.3106441029
 20
9.2921556914
 10
9.2972678292
 20
9.3068756265
 10
9.2830616641
 20
9.320716311
 10
9.2681155966
 20
9.3335900607
 10
9.252524305
 20
9.3454153187
 10
9.2363865563
 20
9.3561171718
 10
9.2198045812
 20
9.3656278252
 10
9.2028834263
 20
9.3738870316
 10
9.1857302895
 20
9.3808424731
  0
LWPOLYLINE
  5
604
100
AcDbEntity
  8
ASSI
100
AcDbPolyline
 62
250
  6
CONTINUOUS
 90
9
 70
0
 10
9.3106441029
 20
9.2921556914
 10
9.2972678292
 20
9.3068756265
 10
9.2830616641
 20
9.320716311
 10
9.2681155966
 20
9.3335900607
 10
9.252524305
 20
9.3454153187
 10
9.2363865563
 20
9.3561171718
 10
9.2198045812
 20
9.3656278252
 10
9.2028834263
 20
9.3738870316
 10
9.1857302895
 20
9.3808424731
  0
LINE
  5
605
100
AcDbEntity
  8
RACCORDO
100
AcDbLine
 62
7
  6
CONTINUOUS
 10
8.0929839009
 20
8.7274947028
 11
8.0183009468
 21
8.8102062712
  0
LINE
  5
606
100
AcDbEntity
  8
ASSI
100
AcDbLine
 62
7
  6
CONTINUOUS
 10
8.0929839009
 20
8.7274947028
 11
8.0183009468
 21
8.8102062712
  0
LWPOLYLINE
  5
607
100
AcDbEntity
  8
RACCORDO
100
AcDbPolyline
 62
250
  6
CONTINUOUS
 90
16
 70
0
 10
8.3775865138
 20
8.5006019947
 10
8.371102842
 20
8.5078682136
 10
8.3642131735
 20
8.5151475084
 10
8.3569097594
 20
8.5224091916
 10
8.3491922106
 20
8.5296143616
 10
8.3410514714
 20
8.5367342274
 10
8.3324684486
 20
8.5437478642
 10
8.3234427575
 20
8.5506132368
 10
8.3139771018
 20
8.5572859977
 10
8.3040588439
 20
8.5637335389
 10
8.2936988523
 20
8.5699024902
 10
8.2829074306
 20
8.5757401193
 10
8.2716749315
 20
8.58120455
 10
8.2600134886
 20
8.5862369936
 10
8.2479586716
 20
8.5907665848
 10
8.2355432151
 20
8.594726062
  0
LWPOLYLINE
  5
608
100
AcDbEntity
  8
ASSI
100
AcDbPolyline
 62
250
  6
CONTINUOUS
 90
16
 70
0
 10
8.3775865138
 20
8.5006019947
 10
8.371102842
 20
8.5078682136
 10
8.3642131735
 20
8.5151475084
 10
8.3569097594
 20
8.5224091916
 10
8.3491922106
 20
8.5296143616
 10
8.3410514714
 20
8.5367342274
 10
8.3324684486
 20
8.5437478642
 10
8.3234427575
 20
8.5506132368
 10
8.3139771018
 20
8.5572859977
 10
8.3040588439
 20
8.5637335389
 10
8.2936988523
 20
8.5699024902
 10
8.2829074306
 20
8.5757401193
 10
8.2716749315
 20
8.58120455
 10
8.2600134886
 20
8.5862369936
 10
8.2479586716
 20
8.5907665848
 10
8.2355432151
 20
8.594726062
  0
LINE
  5
609
100
AcDbEntity
  8
RACCORDO
100
AcDbLine
 62
7
  6
CONTINUOUS
 10
8.1704783606
 20
8.6406593305
 11
8.0929839009
 21
8.7274947028
  0
LINE
  5
60A
100
AcDbEntity
  8
ASSI
100
AcDbLine
 62
7
  6
CONTINUOUS
 10
8.1704783606
 20
8.6406593305
 11
8.0929839009
 21
8.7274947028
  0
LINE
  5
60B
100
AcDbEntity
  8
RACCORDO
100
AcDbLine
 62
7
  6
CONTINUOUS
 10
7.35240359
 20
10.0438205299
 11
7.4558846847
 21
9.9254687614
  0
LINE
  5
60C
100
AcDbEntity
  8
ASSI
100
AcDbLine
 62
7
  6
CONTINUOUS
 10
7.35240359
 20
10.0438205299
 11
7.4558846847
 21
9.9254687614
  0
LWPOLYLINE
  5
60D
100
AcDbEntity
  8
RACCORDO
100
AcDbPolyline
 62
7
  6
CONTINUOUS
 90
6
 70
0
 10
14.5914516966
 20
0.8820820059
 10
14.5650531658
 20
0.9167990368
 10
14.5328206733
 20
0.9465563271
 10
14.4956524738
 20
0.9703415865
 10
14.4546457407
 20
0.9872952763
 10
14.4494987828
 20
0.9888448127
  0
LWPOLYLINE
  5
60E
100
AcDbEntity
  8
ASSI
100
AcDbPolyline
 62
7
  6
CONTINUOUS
 90
6
 70
0
 10
14.5914517008
 20
0.8820819992
 10
14.5650531699
 20
0.9167990324
 10
14.5328206766
 20
0.9465563246
 10
14.4956524763
 20
0.9703415852
 10
14.454645742
 20
0.9872952758
 10
14.4494987828
 20
0.9888448127
  0
LINE
  5
60F
100
AcDbEntity
  8
0
100
AcDbLine
 62
7
  6
CONTINUOUS
 10
9.6952840784
 20
10.2615059054
 11
9.5945343994
 21
10.4926624268
  0
LWPOLYLINE
  5
610
100
AcDbEntity
  8
RACCORDO
100
AcDbPolyline
 62
250
  6
CONTINUOUS
 90
15
 70
0
 10
12.2397062805
 20
-1.1669234905
 10
12.2452660436
 20
-1.1824500355
 10
12.2518492999
 20
-1.1968420546
 10
12.2594713088
 20
-1.2101968584
 10
12.2681168108
 20
-1.2224171364
 10
12.2779242522
 20
-1.2327982489
 10
12.2889660339
 20
-1.2413756104
 10
12.301169755
 20
-1.2481138066
 10
12.3144566594
 20
-1.2522019548
 10
12.3289288343
 20
-1.2535340756
 10
12.3444841925
 20
-1.2522161485
 10
12.3607377173
 20
-1.2477552294
 10
12.3775610697
 20
-1.2399870035
 10
12.3950825886
 20
-1.2290757856
 10
12.413302274
 20
-1.2150215757
  0
LWPOLYLINE
  5
611
100
AcDbEntity
  8
ASSI
100
AcDbPolyline
 62
250
  6
CONTINUOUS
 90
15
 70
0
 10
12.2397062805
 20
-1.1669234905
 10
12.2452660436
 20
-1.1824500355
 10
12.2518492999
 20
-1.1968420546
 10
12.2594713088
 20
-1.2101968584
 10
12.2681168108
 20
-1.2224171364
 10
12.2779242522
 20
-1.2327982489
 10
12.2889660339
 20
-1.2413756104
 10
12.301169755
 20
-1.2481138066
 10
12.3144566594
 20
-1.2522019548
 10
12.3289288343
 20
-1.2535340756
 10
12.3444841925
 20
-1.2522161485
 10
12.3607377173
 20
-1.2477552294
 10
12.3775610697
 20
-1.2399870035
 10
12.3950825886
 20
-1.2290757856
 10
12.413302274
 20
-1.2150215757
  0
LWPOLYLINE
  5
612
100
AcDbEntity
  8
RACCORDO
100
AcDbPolyline
 62
250
  6
CONTINUOUS
 90
3
 70
0
 10
12.2310870472
 20
-1.1337792102
 10
12.234985786
 20
-1.1506751276
 10
12.2397062805
 20
-1.1669234905
  0
LWPOLYLINE
  5
613
100
AcDbEntity
  8
ASSI
100
AcDbPolyline
 62
250
  6
CONTINUOUS
 90
3
 70
0
 10
12.2310870472
 20
-1.1337792102
 10
12.234985786
 20
-1.1506751276
 10
12.2397062805
 20
-1.1669234905
  0
LINE
  5
614
100
AcDbEntity
  8
RACCORDO
100
AcDbLine
 62
7
  6
CONTINUOUS
 10
12.2571769836
 20
-1.0218757963
 11
12.2549845189
 21
-1.004279759
  0
LINE
  5
615
100
AcDbEntity
  8
ASSI
100
AcDbLine
 62
7
  6
CONTINUOUS
 10
12.2571769836
 20
-1.0218757963
 11
12.2549827894
 21
-1.0042658749
  0
LINE
  5
616
100
AcDbEntity
  8
RACCORDO
100
AcDbLine
 62
7
  6
CONTINUOUS
 10
14.5675749825
 20
2.8722045084
 11
14.5512604526
 21
3.0733835167
  0
LINE
  5
617
100
AcDbEntity
  8
ASSI
100
AcDbLine
 62
7
  6
CONTINUOUS
 10
14.5675749825
 20
2.8722045084
 11
14.5512604526
 21
3.0733835167
  0
LWPOLYLINE
  5
618
100
AcDbEntity
  8
RACCORDO
100
AcDbPolyline
 62
250
  6
CONTINUOUS
 90
3
 70
0
 10
14.5986628439
 20
9.8436170016
 10
14.5923615045
 20
9.9505289174
 10
14.5740969015
 20
10.0561659239
  0
LWPOLYLINE
  5
619
100
AcDbEntity
  8
ASSI
100
AcDbPolyline
 62
250
  6
CONTINUOUS
 90
3
 70
0
 10
14.5986628439
 20
9.8436170016
 10
14.5923615045
 20
9.9505289174
 10
14.5740969015
 20
10.0561659239
  0
LINE
  5
61A
100
AcDbEntity
  8
RACCORDO
100
AcDbLine
 62
250
  6
CONTINUOUS
 10
14.5487679386
 20
2.8358437869
 11
14.5406328303
 21
2.9763907628
  0
LINE
  5
61B
100
AcDbEntity
  8
ASSI
100
AcDbLine
 62
250
  6
CONTINUOUS
 10
14.5487679386
 20
2.8358437869
 11
14.5406328303
 21
2.9763907628
  0
LINE
  5
61C
100
AcDbEntity
  8
RACCORDO
100
AcDbLine
 62
250
  6
CONTINUOUS
 10
14.597135943
 20
0.7165425488
 11
14.5986628439
 21
0.6880959283
  0
LINE
  5
61D
100
AcDbEntity
  8
ASSI
100
AcDbLine
 62
250
  6
CONTINUOUS
 10
14.597135943
 20
0.7165425488
 11
14.5986628439
 21
0.6880959283
  0
LINE
  5
61E
100
AcDbEntity
  8
RACCORDO
100
AcDbLine
 62
7
  6
CONTINUOUS
 10
14.6297278223
 20
9.9042234463
 11
14.6274249996
 21
9.9702771641
  0
LINE
  5
61F
100
AcDbEntity
  8
ASSI
100
AcDbLine
 62
7
  6
CONTINUOUS
 10
14.6297278223
 20
9.9042234463
 11
14.6274249996
 21
9.9702771641
  0
LWPOLYLINE
  5
620
100
AcDbEntity
  8
RACCORDO
100
AcDbPolyline
 62
7
  6
CONTINUOUS
 90
5
 70
0
 10
14.6300077137
 20
0.748537663
 10
14.6297614313
 20
0.7597914578
 10
14.6241860392
 20
0.8023346621
 10
14.6113259286
 20
0.8435231692
 10
14.5914516966
 20
0.8820820059
  0
LWPOLYLINE
  5
621
100
AcDbEntity
  8
ASSI
100
AcDbPolyline
 62
7
  6
CONTINUOUS
 90
5
 70
0
 10
14.6300077137
 20
0.748537663
 10
14.6297614315
 20
0.7597914536
 10
14.6241860407
 20
0.8023346554
 10
14.6113259318
 20
0.8435231615
 10
14.5914517008
 20
0.8820819992
  0
LINE
  5
622
100
AcDbEntity
  8
RACCORDO
100
AcDbLine
 62
250
  6
CONTINUOUS
 10
14.2669308907
 20
9.145430128
 11
14.2669308907
 21
1.0003320705
  0
LINE
  5
623
100
AcDbEntity
  8
ASSI
100
AcDbLine
 62
250
  6
CONTINUOUS
 10
14.2669308907
 20
9.145430128
 11
14.2669308907
 21
1.0003320705
  0
LINE
  5
624
100
AcDbEntity
  8
RACCORDO
100
AcDbLine
 62
7
  6
CONTINUOUS
 10
14.2982759639
 20
9.1746813337
 11
14.2982759639
 21
1.0319598971
  0
LINE
  5
625
100
AcDbEntity
  8
ASSI
100
AcDbLine
 62
7
  6
CONTINUOUS
 10
14.2982759639
 20
9.1746813337
 11
14.2982759639
 21
1.0319598971
  0
LINE
  5
626
100
AcDbEntity
  8
RACCORDO
100
AcDbLine
 62
250
  6
CONTINUOUS
 10
14.5487679386
 20
9.4101261128
 11
14.5487679386
 21
8.811419073
  0
LINE
  5
627
100
AcDbEntity
  8
ASSI
100
AcDbLine
 62
250
  6
CONTINUOUS
 10
14.5487679386
 20
9.4101261128
 11
14.5487679386
 21
8.811419073
  0
LINE
  5
628
100
AcDbEntity
  8
RACCORDO
100
AcDbLine
 62
250
  6
CONTINUOUS
 10
14.5487679386
 20
1.9265171129
 11
14.5487679386
 21
2.8358437869
  0
LINE
  5
629
100
AcDbEntity
  8
ASSI
100
AcDbLine
 62
250
  6
CONTINUOUS
 10
14.5487679386
 20
1.9265171129
 11
14.5487679386
 21
2.8358437869
  0
LINE
  5
62A
100
AcDbEntity
  8
RACCORDO
100
AcDbLine
 62
7
  6
CONTINUOUS
 10
14.5675749825
 20
9.4280653512
 11
14.5675749825
 21
8.8477797945
  0
LINE
  5
62B
100
AcDbEntity
  8
ASSI
100
AcDbLine
 62
7
  6
CONTINUOUS
 10
14.5675749825
 20
9.4280653512
 11
14.5675749825
 21
8.8477797945
  0
LINE
  5
62C
100
AcDbEntity
  8
RACCORDO
100
AcDbLine
 62
7
  6
CONTINUOUS
 10
14.5675749825
 20
1.9628778344
 11
14.5675749825
 21
2.8722045084
  0
LINE
  5
62D
100
AcDbEntity
  8
ASSI
100
AcDbLine
 62
7
  6
CONTINUOUS
 10
14.5675749825
 20
1.9628778344
 11
14.5675749825
 21
2.8722045084
  0
LINE
  5
62E
100
AcDbEntity
  8
RACCORDO
100
AcDbLine
 62
250
  6
CONTINUOUS
 10
14.5986628439
 20
0.6880959283
 11
14.5986628439
 21
-0.7950520181
  0
LINE
  5
62F
100
AcDbEntity
  8
ASSI
100
AcDbLine
 62
250
  6
CONTINUOUS
 10
14.5986628439
 20
0.6880959283
 11
14.5986628439
 21
-0.7950520181
  0
LINE
  5
630
100
AcDbEntity
  8
RACCORDO
100
AcDbLine
 62
250
  6
CONTINUOUS
 10
14.5986628439
 20
9.5323009221
 11
14.5986628439
 21
9.8436170016
  0
LINE
  5
631
100
AcDbEntity
  8
ASSI
100
AcDbLine
 62
250
  6
CONTINUOUS
 10
14.5986628439
 20
9.5323009221
 11
14.5986628439
 21
9.8436170016
  0
LINE
  5
632
100
AcDbEntity
  8
RACCORDO
100
AcDbLine
 62
7
  6
CONTINUOUS
 10
14.6300079171
 20
0.7486971308
 11
14.6300079171
 21
-0.7344508155
  0
LINE
  5
633
100
AcDbEntity
  8
ASSI
100
AcDbLine
 62
7
  6
CONTINUOUS
 10
14.6300079171
 20
0.7486971308
 11
14.6300079171
 21
-0.7344508155
  0
LINE
  5
634
100
AcDbEntity
  8
RACCORDO
100
AcDbLine
 62
7
  6
CONTINUOUS
 10
14.6300079171
 20
9.5929021246
 11
14.6300079171
 21
9.9042183119
  0
LINE
  5
635
100
AcDbEntity
  8
ASSI
100
AcDbLine
 62
7
  6
CONTINUOUS
 10
14.6300079171
 20
9.5929021246
 11
14.6300079171
 21
9.9042183119
  0
LWPOLYLINE
  5
636
100
AcDbEntity
  8
RACCORDO
100
AcDbPolyline
 62
250
  6
CONTINUOUS
 90
9
 70
0
 10
14.5986628439
 20
-0.7950520181
 10
14.5980817843
 20
-0.8126810726
 10
14.5958972125
 20
-0.8303152785
 10
14.5919736789
 20
-0.8477634289
 10
14.5861977979
 20
-0.8647882377
 10
14.5784579157
 20
-0.8811849572
 10
14.5686227337
 20
-0.8967654627
 10
14.556609389
 20
-0.9112425589
 10
14.5505746513
 20
-0.9172266049
  0
LWPOLYLINE
  5
637
100
AcDbEntity
  8
ASSI
100
AcDbPolyline
 62
250
  6
CONTINUOUS
 90
9
 70
0
 10
14.5986628439
 20
-0.7950520181
 10
14.5980817843
 20
-0.8126810726
 10
14.5958972125
 20
-0.8303152785
 10
14.5919736789
 20
-0.8477634289
 10
14.5861977979
 20
-0.8647882377
 10
14.5784579157
 20
-0.8811849572
 10
14.5686227337
 20
-0.8967654627
 10
14.556609389
 20
-0.9112425589
 10
14.5505746513
 20
-0.9172266049
  0
LINE
  5
638
100
AcDbEntity
  8
RACCORDO
100
AcDbLine
 62
7
  6
CONTINUOUS
 10
14.6289942208
 20
-0.7569409939
 11
14.6300071794
 21
-0.7341471522
  0
LINE
  5
639
100
AcDbEntity
  8
ASSI
100
AcDbLine
 62
7
  6
CONTINUOUS
 10
14.6289942821
 20
-0.7569405924
 11
14.6300071797
 21
-0.734147204
  0
LINE
  5
63A
100
AcDbEntity
  8
RACCORDO
100
AcDbLine
 62
7
  6
CONTINUOUS
 10
14.6300069587
 20
9.593248255
 11
14.6289717743
 21
9.5701645786
  0
LINE
  5
63B
100
AcDbEntity
  8
ASSI
100
AcDbLine
 62
7
  6
CONTINUOUS
 10
14.6300069587
 20
9.5932482489
 11
14.6289717743
 21
9.5701645786
  0
LINE
  5
63C
100
AcDbEntity
  8
RACCORDO
100
AcDbLine
 62
250
  6
CONTINUOUS
 10
14.5487679386
 20
8.811419073
 11
14.5422092476
 21
8.6891841476
  0
LINE
  5
63D
100
AcDbEntity
  8
ASSI
100
AcDbLine
 62
250
  6
CONTINUOUS
 10
14.5487679386
 20
8.811419073
 11
14.5422092476
 21
8.6891841476
  0
LINE
  5
63E
100
AcDbEntity
  8
RACCORDO
100
AcDbLine
 62
7
  6
CONTINUOUS
 10
14.5510147242
 20
8.6534627839
 11
14.5675749825
 21
8.8477797945
  0
LINE
  5
63F
100
AcDbEntity
  8
ASSI
100
AcDbLine
 62
7
  6
CONTINUOUS
 10
14.5510147242
 20
8.6534627839
 11
14.5675749825
 21
8.8477797945
  0
LINE
  5
640
100
AcDbEntity
  8
RACCORDO
100
AcDbLine
 62
7
  6
CONTINUOUS
 10
14.5510147254
 20
1.7685608306
 11
14.5675749825
 21
1.9628778344
  0
LINE
  5
641
100
AcDbEntity
  8
ASSI
100
AcDbLine
 62
7
  6
CONTINUOUS
 10
14.5510147254
 20
1.7685608306
 11
14.5675749825
 21
1.9628778344
  0
LINE
  5
642
100
AcDbEntity
  8
RACCORDO
100
AcDbLine
 62
7
  6
CONTINUOUS
 10
14.624365911
 20
-0.7872630084
 11
14.6289942208
 21
-0.7569409939
  0
LINE
  5
643
100
AcDbEntity
  8
ASSI
100
AcDbLine
 62
7
  6
CONTINUOUS
 10
14.624365911
 20
-0.7872630084
 11
14.6289942821
 21
-0.7569405924
  0
LWPOLYLINE
  5
644
100
AcDbEntity
  8
RACCORDO
100
AcDbPolyline
 62
250
  6
CONTINUOUS
 90
4
 70
0
 10
14.6300079171
 20
-0.7344508155
 10
14.6263678493
 20
-0.7557039553
 10
14.6157398452
 20
-0.7760755019
 10
14.5986628439
 20
-0.7950520178
  0
LWPOLYLINE
  5
645
100
AcDbEntity
  8
ASSI
100
AcDbPolyline
 62
250
  6
CONTINUOUS
 90
4
 70
0
 10
14.6300079171
 20
-0.7344508155
 10
14.6263678493
 20
-0.7557039553
 10
14.6157398452
 20
-0.7760755019
 10
14.5986628439
 20
-0.7950520178
  0
LWPOLYLINE
  5
646
100
AcDbEntity
  8
RACCORDO
100
AcDbPolyline
 62
250
  6
CONTINUOUS
 90
4
 70
0
 10
14.6300077137
 20
0.748537663
 10
14.6263678764
 20
0.7274440694
 10
14.6157398791
 20
0.7070724924
 10
14.5986628439
 20
0.6880959283
  0
LWPOLYLINE
  5
647
100
AcDbEntity
  8
ASSI
100
AcDbPolyline
 62
250
  6
CONTINUOUS
 90
4
 70
0
 10
14.6300077137
 20
0.748537663
 10
14.6263678764
 20
0.7274440694
 10
14.6157398791
 20
0.7070724924
 10
14.5986628439
 20
0.6880959283
  0
LINE
  5
648
100
AcDbEntity
  8
RACCORDO
100
AcDbLine
 62
7
  6
CONTINUOUS
 10
14.5020161133
 20
1.5883686152
 11
14.5510147254
 21
1.7685608306
  0
LINE
  5
649
100
AcDbEntity
  8
ASSI
100
AcDbLine
 62
7
  6
CONTINUOUS
 10
14.5020161133
 20
1.5883686152
 11
14.5510147254
 21
1.7685608306
  0
LWPOLYLINE
  5
64A
100
AcDbEntity
  8
RACCORDO
100
AcDbPolyline
 62
250
  6
CONTINUOUS
 90
7
 70
0
 10
14.5043698784
 20
1.618987894
 10
14.5188248255
 20
1.6712609757
 10
14.5301499514
 20
1.7232927477
 10
14.538600016
 20
1.7750174025
 10
14.5443868308
 20
1.826284033
 10
14.5477070205
 20
1.8768415131
 10
14.5487679386
 20
1.9265171129
  0
LWPOLYLINE
  5
64B
100
AcDbEntity
  8
ASSI
100
AcDbPolyline
 62
250
  6
CONTINUOUS
 90
7
 70
0
 10
14.5043698784
 20
1.618987894
 10
14.5188248255
 20
1.6712609757
 10
14.5301499514
 20
1.7232927477
 10
14.538600016
 20
1.7750174025
 10
14.5443868308
 20
1.826284033
 10
14.5477070205
 20
1.8768415131
 10
14.5487679386
 20
1.9265171129
  0
LINE
  5
64C
100
AcDbEntity
  8
RACCORDO
100
AcDbLine
 62
7
  6
CONTINUOUS
 10
14.6159911406
 20
-0.8169850084
 11
14.624365911
 21
-0.7872630084
  0
LINE
  5
64D
100
AcDbEntity
  8
ASSI
100
AcDbLine
 62
7
  6
CONTINUOUS
 10
14.6159911406
 20
-0.8169850084
 11
14.624365911
 21
-0.7872630084
  0
LWPOLYLINE
  5
64E
100
AcDbEntity
  8
RACCORDO
100
AcDbPolyline
 62
250
  6
CONTINUOUS
 90
4
 70
0
 10
12.1789637925
 20
-6.4251094141
 10
12.2038619212
 20
-6.3403835721
 10
12.2181738175
 20
-6.2535615047
 10
12.2227345005
 20
-6.1660571071
  0
LWPOLYLINE
  5
64F
100
AcDbEntity
  8
ASSI
100
AcDbPolyline
 62
250
  6
CONTINUOUS
 90
4
 70
0
 10
12.1789637925
 20
-6.4251094141
 10
12.2038619212
 20
-6.3403835721
 10
12.2181738175
 20
-6.2535615047
 10
12.2227345005
 20
-6.1660571071
  0
LINE
  5
650
100
AcDbEntity
  8
RACCORDO
100
AcDbLine
 62
7
  6
CONTINUOUS
 10
14.604059394
 20
-0.8453603791
 11
14.6159911406
 21
-0.8169850084
  0
LINE
  5
651
100
AcDbEntity
  8
ASSI
100
AcDbLine
 62
7
  6
CONTINUOUS
 10
14.604059394
 20
-0.8453603791
 11
14.6159911406
 21
-0.8169850084
  0
LINE
  5
652
100
AcDbEntity
  8
RACCORDO
100
AcDbLine
 62
250
  6
CONTINUOUS
 10
12.1427744245
 20
-6.5061649376
 11
12.1789637925
 21
-6.4251094141
  0
LINE
  5
653
100
AcDbEntity
  8
ASSI
100
AcDbLine
 62
250
  6
CONTINUOUS
 10
12.1427744245
 20
-6.5061649376
 11
12.1789637925
 21
-6.4251094141
  0
LWPOLYLINE
  5
654
100
AcDbEntity
  8
RACCORDO
100
AcDbPolyline
 62
7
  6
CONTINUOUS
 90
5
 70
0
 10
12.1468937963
 20
-6.5094386683
 10
12.1903457128
 20
-6.4248944205
 10
12.222848338
 20
-6.3338070561
 10
12.2439988918
 20
-6.2374405853
 10
12.2534917524
 20
-6.1370968361
  0
LWPOLYLINE
  5
655
100
AcDbEntity
  8
ASSI
100
AcDbPolyline
 62
7
  6
CONTINUOUS
 90
5
 70
0
 10
12.1468937963
 20
-6.5094386683
 10
12.1903457128
 20
-6.4248944205
 10
12.222848338
 20
-6.3338070561
 10
12.2439988918
 20
-6.2374405853
 10
12.2534917524
 20
-6.1370968361
  0
LWPOLYLINE
  5
656
100
AcDbEntity
  8
RACCORDO
100
AcDbPolyline
 62
250
  6
CONTINUOUS
 90
3
 70
0
 10
12.0346055359
 20
-6.650284972
 10
12.0947606926
 20
-6.5818339884
 10
12.1427744245
 20
-6.5061649376
  0
LWPOLYLINE
  5
657
100
AcDbEntity
  8
ASSI
100
AcDbPolyline
 62
250
  6
CONTINUOUS
 90
3
 70
0
 10
12.0346055359
 20
-6.650284972
 10
12.0947606926
 20
-6.5818339884
 10
12.1427744245
 20
-6.5061649376
  0
LWPOLYLINE
  5
658
100
AcDbEntity
  8
RACCORDO
100
AcDbPolyline
 62
250
  6
CONTINUOUS
 90
4
 70
0
 10
12.2227338392
 20
-6.1656997242
 10
12.240300273
 20
-6.1460236812
 10
12.2508474584
 20
-6.1251315535
 10
12.2540789124
 20
-6.1050985561
  0
LWPOLYLINE
  5
659
100
AcDbEntity
  8
ASSI
100
AcDbPolyline
 62
250
  6
CONTINUOUS
 90
4
 70
0
 10
12.2227338392
 20
-6.1656997242
 10
12.240300273
 20
-6.1460236812
 10
12.2508474584
 20
-6.1251315535
 10
12.2540789124
 20
-6.1050985561
  0
LWPOLYLINE
  5
65A
100
AcDbEntity
  8
RACCORDO
100
AcDbPolyline
 62
7
  6
CONTINUOUS
 90
3
 70
0
 10
12.0367511991
 20
-6.647821136
 10
12.0930036641
 20
-6.5863304897
 10
12.1468937963
 20
-6.5094386683
  0
LWPOLYLINE
  5
65B
100
AcDbEntity
  8
ASSI
100
AcDbPolyline
 62
7
  6
CONTINUOUS
 90
3
 70
0
 10
12.0367511991
 20
-6.647821136
 10
12.0930036641
 20
-6.5863304897
 10
12.1468937963
 20
-6.5094386683
  0
LINE
  5
65C
100
AcDbEntity
  8
0
100
AcDbLine
 62
7
  6
CONTINUOUS
 10
8.7840499418
 20
-11.7178625781
 11
8.6563210187
 21
-11.8505177356
  0
LINE
  5
65D
100
AcDbEntity
  8
0
100
AcDbLine
 62
250
  6
CONTINUOUS
 10
9.0931198596
 20
-11.5255260261
 11
8.6563210187
 21
-11.8505177356
  0
LINE
  5
65E
100
AcDbEntity
  8
0
100
AcDbLine
 62
7
  6
CONTINUOUS
 10
9.032115321
 20
-11.658702712
 11
8.5169987914
 21
-12.0419651794
  0
LWPOLYLINE
  5
65F
100
AcDbEntity
  8
RACCORDO
100
AcDbPolyline
 62
250
  6
CONTINUOUS
 90
16
 70
0
 10
5.9289659061
 20
-13.2150100869
 10
5.905837639
 20
-13.2314864917
 10
5.8792833679
 20
-13.2466884084
 10
5.8495876132
 20
-13.2604529534
 10
5.8170685549
 20
-13.2726326443
 10
5.7820746239
 20
-13.2830969796
 10
5.7449807687
 20
-13.2917338376
 10
5.7061844375
 20
-13.2984506771
 10
5.6661013202
 20
-13.3031755295
 10
5.625160894
 20
-13.3058577695
 10
5.5838018221
 20
-13.3064686578
 10
5.5424672531
 20
-13.3050016489
 10
5.5016000733
 20
-13.3014724614
 10
5.461638161
 20
-13.2959189095
 10
5.4230096947
 20
-13.2884004975
 10
5.3861285656
 20
-13.2789977828
  0
LINE
  5
660
100
AcDbEntity
  8
RACCORDO
100
AcDbLine
 62
250
  6
CONTINUOUS
 10
6.0908268395
 20
-13.3881437543
 11
7.5611859206
 21
-12.4246353709
  0
LINE
  5
661
100
AcDbEntity
  8
RACCORDO
100
AcDbLine
 62
7
  6
CONTINUOUS
 10
7.4390216566
 20
-12.6557641351
 11
5.9669033987
 21
-13.6204250165
  0
LINE
  5
662
100
AcDbEntity
  8
RACCORDO
100
AcDbLine
 62
7
  6
CONTINUOUS
 10
-6.438852133
 20
13.9077169721
 11
-6.4750130591
 21
13.8989097576
  0
LINE
  5
663
100
AcDbEntity
  8
ASSI
100
AcDbLine
 62
7
  6
CONTINUOUS
 10
-6.438852133
 20
13.9077169721
 11
-6.4750130591
 21
13.8989097576
  0
LINE
  5
664
100
AcDbEntity
  8
0
100
AcDbLine
 62
7
  6
CONTINUOUS
 10
-6.2507496449
 20
13.6426980313
 11
-6.2755231442
 21
13.6366648107
  0
LINE
  5
665
100
AcDbEntity
  8
ASSI
100
AcDbLine
 62
7
  6
CONTINUOUS
 10
-6.2507496449
 20
13.6426980313
 11
-6.2755231442
 21
13.6366648107
  0
LWPOLYLINE
  5
666
100
AcDbEntity
  8
RACCORDO
100
AcDbPolyline
 62
250
  6
CONTINUOUS
 90
6
 70
0
 10
-7.4475253792
 20
13.0987224137
 10
-7.4530281236
 20
13.0975173968
 10
-7.4629262653
 20
13.0946846438
 10
-7.472773217
 20
13.0911427178
 10
-7.4825051123
 20
13.0868521886
 10
-7.4920610799
 20
13.0817746498
  0
LWPOLYLINE
  5
667
100
AcDbEntity
  8
ASSI
100
AcDbPolyline
 62
250
  6
CONTINUOUS
 90
6
 70
0
 10
-7.4475253792
 20
13.0987224137
 10
-7.4530281236
 20
13.0975173968
 10
-7.4629262653
 20
13.0946846438
 10
-7.472773217
 20
13.0911427178
 10
-7.4825051123
 20
13.0868521886
 10
-7.4920610799
 20
13.0817746498
  0
LINE
  5
668
100
AcDbEntity
  8
RACCORDO
100
AcDbLine
 62
7
  6
CONTINUOUS
 10
1.6334396464
 20
14.9745711423
 11
1.6688793217
 21
14.9811258857
  0
LINE
  5
669
100
AcDbEntity
  8
ASSI
100
AcDbLine
 62
7
  6
CONTINUOUS
 10
1.6334396464
 20
14.9745711423
 11
1.6688793217
 21
14.9811258857
  0
LINE
  5
66A
100
AcDbEntity
  8
0
100
AcDbLine
 62
7
  6
CONTINUOUS
 10
-5.2381095907
 20
13.4825110584
 11
-4.7431681664
 21
13.5355113347
  0
LINE
  5
66B
100
AcDbEntity
  8
ASSI
100
AcDbLine
 62
7
  6
CONTINUOUS
 10
-5.2381095907
 20
13.4825110584
 11
-4.7431681664
 21
13.5355113347
  0
LWPOLYLINE
  5
66C
100
AcDbEntity
  8
0
100
AcDbPolyline
 62
7
  6
CONTINUOUS
 90
6
 70
0
 10
-7.2340918157
 20
12.8137065683
 10
-7.2075659279
 20
12.8159424445
 10
-7.1802428343
 20
12.8162919686
 10
-7.152671546
 20
12.8147489756
 10
-7.1250350669
 20
12.8113114104
 10
-7.0971503931
 20
12.8059813281
  0
LWPOLYLINE
  5
66D
100
AcDbEntity
  8
ASSI
100
AcDbPolyline
 62
7
  6
CONTINUOUS
 90
6
 70
0
 10
-7.2340918157
 20
12.8137065683
 10
-7.2075659279
 20
12.8159424445
 10
-7.1802428343
 20
12.8162919686
 10
-7.152671546
 20
12.8147489756
 10
-7.1250350669
 20
12.8113114104
 10
-7.0971503931
 20
12.8059813281
  0
LINE
  5
66E
100
AcDbEntity
  8
RACCORDO
100
AcDbLine
 62
7
  6
CONTINUOUS
 10
1.6688793217
 20
14.9811258857
 11
1.7049909645
 21
14.9825132428
  0
LINE
  5
66F
100
AcDbEntity
  8
ASSI
100
AcDbLine
 62
7
  6
CONTINUOUS
 10
1.6688793217
 20
14.9811258857
 11
1.7049909645
 21
14.9825132428
  0
LWPOLYLINE
  5
670
100
AcDbEntity
  8
DRAFT
100
AcDbPolyline
 62
7
  6
CONTINUOUS
 90
4
 70
0
 10
-1.3804437938
 20
13.2756227797
 10
-1.6022170206
 20
13.2812035798
 10
-1.8150761645
 20
13.2711327404
 10
-1.8610693091
 20
13.2649048596
  0
LWPOLYLINE
  5
671
100
AcDbEntity
  8
ASSI
100
AcDbPolyline
 62
7
  6
CONTINUOUS
 90
4
 70
0
 10
-1.3804437938
 20
13.2756227797
 10
-1.6022170206
 20
13.2812035798
 10
-1.8150761645
 20
13.2711327404
 10
-1.8610693091
 20
13.2649048596
  0
LWPOLYLINE
  5
672
100
AcDbEntity
  8
0
100
AcDbPolyline
 62
7
  6
CONTINUOUS
 90
5
 70
0
 10
-6.143659252
 20
13.6479180722
 10
-6.1712646234
 20
13.6494541991
 10
-6.1986203845
 20
13.6490927255
 10
-6.225176506
 20
13.6468399678
 10
-6.2507496449
 20
13.6426980313
  0
LWPOLYLINE
  5
673
100
AcDbEntity
  8
ASSI
100
AcDbPolyline
 62
7
  6
CONTINUOUS
 90
5
 70
0
 10
-6.143659252
 20
13.6479180722
 10
-6.1712646234
 20
13.6494541991
 10
-6.1986203845
 20
13.6490927255
 10
-6.225176506
 20
13.6468399678
 10
-6.2507496449
 20
13.6426980313
  0
LINE
  5
674
100
AcDbEntity
  8
RACCORDO
100
AcDbLine
 62
7
  6
CONTINUOUS
 10
1.7049909645
 20
14.9825132428
 11
1.7408437968
 21
14.9786949238
  0
LINE
  5
675
100
AcDbEntity
  8
ASSI
100
AcDbLine
 62
7
  6
CONTINUOUS
 10
1.7049909645
 20
14.9825132428
 11
1.7408443216
 21
14.9786948679
  0
LWPOLYLINE
  5
676
100
AcDbEntity
  8
RACCORDO
100
AcDbPolyline
 62
250
  6
CONTINUOUS
 90
5
 70
0
 10
1.7658467246
 20
14.9728497091
 10
1.7589801733
 20
14.974287946
 10
1.7396934988
 20
14.9732318387
 10
1.7193941962
 20
14.9653234323
 10
1.6986907509
 20
14.9510201328
  0
LWPOLYLINE
  5
677
100
AcDbEntity
  8
ASSI
100
AcDbPolyline
 62
250
  6
CONTINUOUS
 90
5
 70
0
 10
1.7658467246
 20
14.9728497091
 10
1.7589801733
 20
14.974287946
 10
1.7396934988
 20
14.9732318387
 10
1.7193941962
 20
14.9653234323
 10
1.6986907509
 20
14.9510201328
  0
LWPOLYLINE
  5
678
100
AcDbEntity
  8
ASSI
100
AcDbPolyline
 62
250
  6
CONTINUOUS
 90
5
 70
0
 10
-2.2725394732
 20
14.6278865153
 10
-2.2775654289
 20
14.6289789019
 10
-2.2969777073
 20
14.6283651223
 10
-2.3177076261
 20
14.6205952192
 10
-2.3391392018
 20
14.6059000731
  0
LWPOLYLINE
  5
679
100
AcDbEntity
  8
RACCORDO
100
AcDbPolyline
 62
250
  6
CONTINUOUS
 90
5
 70
0
 10
-2.2725390134
 20
14.6278863887
 10
-2.2775654289
 20
14.6289789019
 10
-2.2969777073
 20
14.6283651223
 10
-2.3177076261
 20
14.6205952192
 10
-2.3391392018
 20
14.6059000731
  0
LWPOLYLINE
  5
67A
100
AcDbEntity
  8
RACCORDO
100
AcDbPolyline
 62
250
  6
CONTINUOUS
 90
5
 70
0
 10
-3.3671572727
 20
16.454620329
 10
-3.3730353225
 20
16.4559162703
 10
-3.3924194571
 20
16.4551992847
 10
-3.4130502483
 20
16.4473958671
 10
-3.4343132465
 20
16.4327907526
  0
LWPOLYLINE
  5
67B
100
AcDbEntity
  8
ASSI
100
AcDbPolyline
 62
250
  6
CONTINUOUS
 90
5
 70
0
 10
-3.3671572727
 20
16.454620329
 10
-3.3730353225
 20
16.4559162703
 10
-3.3924194571
 20
16.4551992847
 10
-3.4130502483
 20
16.4473958671
 10
-3.4343132465
 20
16.4327907526
  0
LINE
  5
67C
100
AcDbEntity
  8
ASSI
100
AcDbLine
 62
7
  6
CONTINUOUS
 10
1.7408443216
 20
14.9786948679
 11
1.7662443002
 21
14.972733033
  0
LINE
  5
67D
100
AcDbEntity
  8
RACCORDO
100
AcDbLine
 62
7
  6
CONTINUOUS
 10
1.7408437968
 20
14.9786949238
 11
1.7662443503
 21
14.972733018
  0
LWPOLYLINE
  5
67E
100
AcDbEntity
  8
DRAFT
100
AcDbPolyline
 62
7
  6
CONTINUOUS
 90
10
 70
0
 10
11.2762480585
 20
10.9529872326
 10
11.1111080235
 20
10.9925024562
 10
10.9429125879
 20
11.0211686221
 10
10.7716617518
 20
11.0389857305
 10
10.5945050323
 20
11.0459945928
 10
10.4142929122
 20
11.0421543974
 10
10.2395768399
 20
11.0273427099
 10
10.0705241238
 20
11.0010421088
 10
9.9069674555
 20
10.9637700154
 10
9.7569563583
 20
10.9169562596
  0
LWPOLYLINE
  5
67F
100
AcDbEntity
  8
ASSI
100
AcDbPolyline
 62
7
  6
CONTINUOUS
 90
10
 70
0
 10
11.2762480585
 20
10.9529872326
 10
11.1111080235
 20
10.9925024562
 10
10.9429125879
 20
11.0211686221
 10
10.7716617518
 20
11.0389857305
 10
10.5945050323
 20
11.0459945928
 10
10.4142929122
 20
11.0421543974
 10
10.2395768399
 20
11.0273427099
 10
10.0705241238
 20
11.0010421088
 10
9.9069674555
 20
10.9637700154
 10
9.7569563583
 20
10.9169562596
  0
LINE
  5
680
100
AcDbEntity
  8
RACCORDO
100
AcDbLine
 62
250
  6
CONTINUOUS
 10
-2.2719832281
 20
14.6277296494
 11
-2.2725390134
 21
14.6278863887
  0
LINE
  5
681
100
AcDbEntity
  8
ASSI
100
AcDbLine
 62
250
  6
CONTINUOUS
 10
-2.2719832281
 20
14.6277296494
 11
-2.2725394732
 21
14.6278865153
  0
LINE
  5
682
100
AcDbEntity
  8
RACCORDO
100
AcDbLine
 62
250
  6
CONTINUOUS
 10
-2.3391392018
 20
14.6059000731
 11
-2.0732112088
 21
14.5291332739
  0
LINE
  5
683
100
AcDbEntity
  8
ASSI
100
AcDbLine
 62
250
  6
CONTINUOUS
 10
-2.3391392018
 20
14.6059000731
 11
-2.0732112088
 21
14.5291332739
  0
LINE
  5
684
100
AcDbEntity
  8
RACCORDO
100
AcDbLine
 62
7
  6
CONTINUOUS
 10
-2.2719832281
 20
14.6277296494
 11
-1.9737971418
 21
14.5416507408
  0
LINE
  5
685
100
AcDbEntity
  8
ASSI
100
AcDbLine
 62
7
  6
CONTINUOUS
 10
-2.2719832281
 20
14.6277296494
 11
-1.9737971418
 21
14.5416507408
  0
LINE
  5
686
100
AcDbEntity
  8
DRAFT
100
AcDbLine
 62
7
  6
CONTINUOUS
 10
11.6229503061
 20
10.8074711713
 11
10.8487400176
 21
11.0309664306
  0
LINE
  5
687
100
AcDbEntity
  8
ASSI
100
AcDbLine
 62
7
  6
CONTINUOUS
 10
11.6229503061
 20
10.8074711713
 11
10.8487400176
 21
11.0309664306
  0
LINE
  5
688
100
AcDbEntity
  8
DRAFT
100
AcDbLine
 62
7
  6
CONTINUOUS
 10
6.7356236094
 20
12.5592619626
 11
6.3474695497
 21
12.671312388
  0
LINE
  5
689
100
AcDbEntity
  8
ASSI
100
AcDbLine
 62
7
  6
CONTINUOUS
 10
6.7356236094
 20
12.5592619626
 11
6.3474695497
 21
12.671312388
  0
LINE
  5
68A
100
AcDbEntity
  8
DRAFT
100
AcDbLine
 62
7
  6
CONTINUOUS
 10
4.7870664509
 20
13.1217619626
 11
4.3989123912
 21
13.233812388
  0
LINE
  5
68B
100
AcDbEntity
  8
ASSI
100
AcDbLine
 62
7
  6
CONTINUOUS
 10
4.7870664509
 20
13.1217619626
 11
4.3989123912
 21
13.233812388
  0
LINE
  5
68C
100
AcDbEntity
  8
DRAFT
100
AcDbLine
 62
7
  6
CONTINUOUS
 10
2.8385092923
 20
13.6842619626
 11
2.4503552327
 21
13.796312388
  0
LINE
  5
68D
100
AcDbEntity
  8
ASSI
100
AcDbLine
 62
7
  6
CONTINUOUS
 10
2.8385092923
 20
13.6842619626
 11
2.4503552327
 21
13.796312388
  0
LINE
  5
68E
100
AcDbEntity
  8
DRAFT
100
AcDbLine
 62
7
  6
CONTINUOUS
 10
7.1554686024
 20
12.8999433681
 11
6.735376326
 21
13.0212135625
  0
LINE
  5
68F
100
AcDbEntity
  8
ASSI
100
AcDbLine
 62
7
  6
CONTINUOUS
 10
7.1554686024
 20
12.8999433681
 11
6.735376326
 21
13.0212135625
  0
LINE
  5
690
100
AcDbEntity
  8
DRAFT
100
AcDbLine
 62
7
  6
CONTINUOUS
 10
5.2069114439
 20
13.4624433681
 11
4.7868191675
 21
13.5837135625
  0
LINE
  5
691
100
AcDbEntity
  8
ASSI
100
AcDbLine
 62
7
  6
CONTINUOUS
 10
5.2069114439
 20
13.4624433681
 11
4.7868191675
 21
13.5837135625
  0
LINE
  5
692
100
AcDbEntity
  8
DRAFT
100
AcDbLine
 62
7
  6
CONTINUOUS
 10
3.2583542854
 20
14.0249433681
 11
2.8382620089
 21
14.1462135625
  0
LINE
  5
693
100
AcDbEntity
  8
ASSI
100
AcDbLine
 62
7
  6
CONTINUOUS
 10
3.2583542854
 20
14.0249433681
 11
2.8382620089
 21
14.1462135625
  0
LINE
  5
694
100
AcDbEntity
  8
ASSI
100
AcDbLine
 62
7
  6
CONTINUOUS
 10
10.6249592108
 20
12.0066408752
 11
12.8739323049
 21
11.3574182646
  0
LINE
  5
695
100
AcDbEntity
  8
RACCORDO
100
AcDbLine
 62
250
  6
CONTINUOUS
 10
-3.4343132465
 20
16.4327907526
 11
-2.7720859538
 21
16.2416221998
  0
LINE
  5
696
100
AcDbEntity
  8
ASSI
100
AcDbLine
 62
250
  6
CONTINUOUS
 10
-3.4343132465
 20
16.4327907526
 11
-2.7720859538
 21
16.2416221998
  0
LINE
  5
697
100
AcDbEntity
  8
RACCORDO
100
AcDbLine
 62
250
  6
CONTINUOUS
 10
13.5759470225
 20
11.52235158
 11
13.2324182404
 21
11.6215197974
  0
LINE
  5
698
100
AcDbEntity
  8
ASSI
100
AcDbLine
 62
250
  6
CONTINUOUS
 10
13.5759470225
 20
11.52235158
 11
13.2324182404
 21
11.6215197974
  0
LINE
  5
699
100
AcDbEntity
  8
RACCORDO
100
AcDbLine
 62
250
  6
CONTINUOUS
 10
1.6986907509
 20
14.9510201328
 11
2.5536302393
 21
14.7042203609
  0
LINE
  5
69A
100
AcDbEntity
  8
ASSI
100
AcDbLine
 62
250
  6
CONTINUOUS
 10
1.6986907509
 20
14.9510201328
 11
2.5536302393
 21
14.7042203609
  0
LINE
  5
69B
100
AcDbEntity
  8
RACCORDO
100
AcDbLine
 62
250
  6
CONTINUOUS
 10
10.246006754
 20
12.4836225352
 11
7.5880035368
 21
13.2509219717
  0
LINE
  5
69C
100
AcDbEntity
  8
ASSI
100
AcDbLine
 62
250
  6
CONTINUOUS
 10
10.246006754
 20
12.4836225352
 11
7.5880035368
 21
13.2509219717
  0
LINE
  5
69D
100
AcDbEntity
  8
RACCORDO
100
AcDbLine
 62
250
  6
CONTINUOUS
 10
6.4507445563
 20
13.5792203609
 11
5.6394463783
 21
13.8134219717
  0
LINE
  5
69E
100
AcDbEntity
  8
ASSI
100
AcDbLine
 62
250
  6
CONTINUOUS
 10
6.4507445563
 20
13.5792203609
 11
5.6394463783
 21
13.8134219717
  0
LINE
  5
69F
100
AcDbEntity
  8
RACCORDO
100
AcDbLine
 62
250
  6
CONTINUOUS
 10
4.5021873978
 20
14.1417203609
 11
3.6908892197
 21
14.3759219717
  0
LINE
  5
6A0
100
AcDbEntity
  8
ASSI
100
AcDbLine
 62
250
  6
CONTINUOUS
 10
4.5021873978
 20
14.1417203609
 11
3.6908892197
 21
14.3759219717
  0
LINE
  5
6A1
100
AcDbEntity
  8
RACCORDO
100
AcDbLine
 62
7
  6
CONTINUOUS
 10
13.6431029963
 20
11.5441811563
 11
13.2673161208
 21
11.6526614832
  0
LINE
  5
6A2
100
AcDbEntity
  8
ASSI
100
AcDbLine
 62
7
  6
CONTINUOUS
 10
13.6431029963
 20
11.5441811563
 11
13.2673161208
 21
11.6526614832
  0
LINE
  5
6A3
100
AcDbEntity
  8
RACCORDO
100
AcDbLine
 62
7
  6
CONTINUOUS
 10
1.7658467246
 20
14.9728497091
 11
2.5646129965
 21
14.7422657481
  0
LINE
  5
6A4
100
AcDbEntity
  8
ASSI
100
AcDbLine
 62
7
  6
CONTINUOUS
 10
1.7658467246
 20
14.9728497091
 11
2.5646129965
 21
14.7422657481
  0
LINE
  5
6A5
100
AcDbEntity
  8
RACCORDO
100
AcDbLine
 62
7
  6
CONTINUOUS
 10
10.345420821
 20
12.4961400021
 11
7.6474539776
 21
13.2749759437
  0
LINE
  5
6A6
100
AcDbEntity
  8
ASSI
100
AcDbLine
 62
7
  6
CONTINUOUS
 10
10.345420821
 20
12.4961400021
 11
7.6474539776
 21
13.2749759437
  0
LINE
  5
6A7
100
AcDbEntity
  8
RACCORDO
100
AcDbLine
 62
7
  6
CONTINUOUS
 10
6.4617273136
 20
13.6172657481
 11
5.6988968191
 21
13.8374759437
  0
LINE
  5
6A8
100
AcDbEntity
  8
ASSI
100
AcDbLine
 62
7
  6
CONTINUOUS
 10
6.4617273136
 20
13.6172657481
 11
5.6988968191
 21
13.8374759437
  0
LINE
  5
6A9
100
AcDbEntity
  8
RACCORDO
100
AcDbLine
 62
7
  6
CONTINUOUS
 10
4.5131701551
 20
14.1797657481
 11
3.7503396606
 21
14.3999759437
  0
LINE
  5
6AA
100
AcDbEntity
  8
ASSI
100
AcDbLine
 62
7
  6
CONTINUOUS
 10
4.5131701551
 20
14.1797657481
 11
3.7503396606
 21
14.3999759437
  0
LINE
  5
6AB
100
AcDbEntity
  8
RACCORDO
100
AcDbLine
 62
7
  6
CONTINUOUS
 10
-2.7047766389
 20
16.2634072272
 11
-3.3671572727
 21
16.454620329
  0
LINE
  5
6AC
100
AcDbEntity
  8
ASSI
100
AcDbLine
 62
7
  6
CONTINUOUS
 10
-2.7047766389
 20
16.2634072272
 11
-3.3671572727
 21
16.454620329
  0
LWPOLYLINE
  5
6AD
100
AcDbEntity
  8
RACCORDO
100
AcDbPolyline
 62
250
  6
CONTINUOUS
 90
12
 70
0
 10
-2.7720859538
 20
16.2416221998
 10
-2.7539144994
 20
16.2358223927
 10
-2.7352997557
 20
16.2282893294
 10
-2.7164000828
 20
16.2189328258
 10
-2.6974269553
 20
16.2077000472
 10
-2.6785590637
 20
16.1945304796
 10
-2.659952736
 20
16.1793375143
 10
-2.6418787627
 20
16.1621159192
 10
-2.6246342711
 20
16.1429006056
 10
-2.6084813505
 20
16.1216885949
 10
-2.5937832816
 20
16.0986001567
 10
-2.5809203495
 20
16.0738145712
  0
LWPOLYLINE
  5
6AE
100
AcDbEntity
  8
ASSI
100
AcDbPolyline
 62
250
  6
CONTINUOUS
 90
12
 70
0
 10
-2.7720859538
 20
16.2416221998
 10
-2.7539144994
 20
16.2358223927
 10
-2.7352997557
 20
16.2282893294
 10
-2.7164000828
 20
16.2189328258
 10
-2.6974269553
 20
16.2077000472
 10
-2.6785590637
 20
16.1945304796
 10
-2.659952736
 20
16.1793375143
 10
-2.6418787627
 20
16.1621159192
 10
-2.6246342711
 20
16.1429006056
 10
-2.6084813505
 20
16.1216885949
 10
-2.5937832816
 20
16.0986001567
 10
-2.5809203495
 20
16.0738145712
  0
LINE
  5
6AF
100
AcDbEntity
  8
RACCORDO
100
AcDbLine
 62
250
  6
CONTINUOUS
 10
13.5976495389
 20
11.5150970507
 11
13.5759470226
 21
11.52235158
  0
LINE
  5
6B0
100
AcDbEntity
  8
ASSI
100
AcDbLine
 62
250
  6
CONTINUOUS
 10
13.5976495389
 20
11.5150970507
 11
13.5759470226
 21
11.52235158
  0
LWPOLYLINE
  5
6B1
100
AcDbEntity
  8
DRAFT
100
AcDbPolyline
 62
7
  6
CONTINUOUS
 90
4
 70
0
 10
11.5273494118
 20
11.0469506088
 10
11.3642718714
 20
11.1118488701
 10
11.1796211366
 20
11.1651529459
 10
10.9856752804
 20
11.2033184616
  0
LWPOLYLINE
  5
6B2
100
AcDbEntity
  8
ASSI
100
AcDbPolyline
 62
7
  6
CONTINUOUS
 90
4
 70
0
 10
11.5273494118
 20
11.0469506088
 10
11.3642718714
 20
11.1118488701
 10
11.1796211366
 20
11.1651529459
 10
10.9856752804
 20
11.2033184616
  0
LWPOLYLINE
  5
6B3
100
AcDbEntity
  8
RACCORDO
100
AcDbPolyline
 62
7
  6
CONTINUOUS
 90
3
 70
0
 10
10.7729624406
 20
10.7479499014
 10
10.7698341259
 20
10.7493363778
 10
10.766411693
 20
10.750157701
  0
LWPOLYLINE
  5
6B4
100
AcDbEntity
  8
RACCORDO
100
AcDbPolyline
 62
250
  6
CONTINUOUS
 90
13
 70
0
 10
11.2594721458
 20
10.5895408109
 10
11.2755802345
 20
10.5815641873
 10
11.2917521042
 20
10.5731952949
 10
11.307987755
 20
10.5644341336
 10
11.3242849036
 20
10.5553175565
 10
11.3406458333
 20
10.5458087105
 10
11.3570773938
 20
10.5357970362
 10
11.3736010149
 20
10.525286332
 10
11.3901952668
 20
10.5142727994
 10
11.4068027102
 20
10.5026344836
 10
11.4234515988
 20
10.4903741712
 10
11.4401136788
 20
10.4774890756
 10
11.456646749
 20
10.4638488828
  0
LWPOLYLINE
  5
6B5
100
AcDbEntity
  8
RACCORDO
100
AcDbPolyline
 62
7
  6
CONTINUOUS
 90
9
 70
0
 10
11.3388449338
 20
10.5747725194
 10
11.3336583984
 20
10.5774919211
 10
11.3284455326
 20
10.580194123
 10
11.3232065097
 20
10.5828790905
 10
11.317941478
 20
10.5855468018
 10
11.3126506352
 20
10.5881972101
 10
11.3073342317
 20
10.5908302435
 10
11.3019924696
 20
10.5934458555
 10
11.2915815719
 20
10.5984590123
  0
LINE
  5
6B6
100
AcDbEntity
  8
0
100
AcDbLine
 62
7
  6
CONTINUOUS
 10
11.6769461331
 20
10.3964850717
 11
11.3388449338
 21
10.5747725194
  0
LINE
  5
6B7
100
AcDbEntity
  8
0
100
AcDbLine
 62
7
  6
CONTINUOUS
 10
9.8524626912
 20
10.2161323482
 11
10.0282633095
 21
10.1232826812
  0
LINE
  5
6B8
100
AcDbEntity
  8
0
100
AcDbLine
 62
7
  6
CONTINUOUS
 10
10.9300706644
 20
10.1170714913
 11
10.7957985833
 21
10.1879877266
  0
LWPOLYLINE
  5
6B9
100
AcDbEntity
  8
RACCORDO
100
AcDbPolyline
 62
250
  6
CONTINUOUS
 90
12
 70
0
 10
11.3388449338
 20
10.5747725194
 10
11.3443705734
 20
10.5718402705
 10
11.3617461828
 20
10.5623720582
 10
11.3791477399
 20
10.5524931377
 10
11.3966827984
 20
10.5421076714
 10
11.4143017274
 20
10.531202771
 10
11.4319522488
 20
10.5197660245
 10
11.4497113125
 20
10.5076936977
 10
11.467508092
 20
10.4949697315
 10
11.4852671936
 20
10.4815792559
 10
11.5030263207
 20
10.4674121928
 10
11.5206862964
 20
10.4524511438
  0
LWPOLYLINE
  5
6BA
100
AcDbEntity
  8
DRAFT
100
AcDbPolyline
 62
7
  6
CONTINUOUS
 90
4
 70
0
 10
11.6747165391
 20
10.7782962682
 10
11.559703434
 20
10.8431164416
 10
11.4268806071
 20
10.9013467631
 10
11.2762480585
 20
10.9529872326
  0
LWPOLYLINE
  5
6BB
100
AcDbEntity
  8
ASSI
100
AcDbPolyline
 62
7
  6
CONTINUOUS
 90
4
 70
0
 10
11.6747165391
 20
10.7782962682
 10
11.559703434
 20
10.8431164416
 10
11.4268806071
 20
10.9013467631
 10
11.2762480585
 20
10.9529872326
  0
LWPOLYLINE
  5
6BC
100
AcDbEntity
  8
RACCORDO
100
AcDbPolyline
 62
7
  6
CONTINUOUS
 90
10
 70
0
 10
11.059547187
 20
10.5876953477
 10
11.0250838442
 20
10.6072461966
 10
10.9912794725
 20
10.6263619902
 10
10.9581340719
 20
10.6450427286
 10
10.9256527397
 20
10.6632899339
 10
10.8938303785
 20
10.681102084
 10
10.8626516972
 20
10.6984746124
 10
10.8321115985
 20
10.7154059971
 10
10.8022151797
 20
10.7318977601
 10
10.7729624406
 20
10.7479499014
  0
LINE
  5
6BD
100
AcDbEntity
  8
SMUSSO
100
AcDbLine
 62
7
  6
CONTINUOUS
 10
9.0107115398
 20
10.3964668062
 11
8.9539931518
 21
10.4355486293
  0
LINE
  5
6BE
100
AcDbEntity
  8
ASSI
100
AcDbLine
 62
7
  6
CONTINUOUS
 10
9.0107115398
 20
10.3964668062
 11
8.9539931518
 21
10.4355486293
  0
LWPOLYLINE
  5
6BF
100
AcDbEntity
  8
SMUSSO
100
AcDbPolyline
 62
7
  6
CONTINUOUS
 90
3
 70
0
 10
8.9539931518
 20
10.4355486293
 10
8.8888781873
 20
10.4876366861
 10
8.7901904103
 20
10.5873620006
  0
LWPOLYLINE
  5
6C0
100
AcDbEntity
  8
ASSI
100
AcDbPolyline
 62
7
  6
CONTINUOUS
 90
3
 70
0
 10
8.9539931518
 20
10.4355486293
 10
8.8888781873
 20
10.4876366861
 10
8.7901904103
 20
10.5873620006
  0
LWPOLYLINE
  5
6C1
100
AcDbEntity
  8
SMUSSO
100
AcDbPolyline
 62
7
  6
CONTINUOUS
 90
4
 70
0
 10
9.0970241298
 20
10.3481916448
 10
9.0632676143
 20
10.3821470985
 10
9.0060239047
 20
10.46637896
 10
8.97235056
 20
10.5519881451
  0
LWPOLYLINE
  5
6C2
100
AcDbEntity
  8
ASSI
100
AcDbPolyline
 62
7
  6
CONTINUOUS
 90
4
 70
0
 10
9.0970241298
 20
10.3481916448
 10
9.0632676143
 20
10.3821470985
 10
9.0060239047
 20
10.46637896
 10
8.97235056
 20
10.5519881451
  0
LINE
  5
6C3
100
AcDbEntity
  8
SMUSSO
100
AcDbLine
 62
250
  6
CONTINUOUS
 10
8.8745824374
 20
11.2893200214
 11
9.1344288491
 21
10.9543815596
  0
LINE
  5
6C4
100
AcDbEntity
  8
ASSI
100
AcDbLine
 62
250
  6
CONTINUOUS
 10
8.8745824374
 20
11.2893200214
 11
9.1344288491
 21
10.9543815596
  0
LWPOLYLINE
  5
6C5
100
AcDbEntity
  8
SMUSSO
100
AcDbPolyline
 62
7
  6
CONTINUOUS
 90
5
 70
0
 10
8.7901904103
 20
10.5873620006
 10
8.7193554546
 20
10.6895148242
 10
8.6784641438
 20
10.7939722774
 10
8.6654256542
 20
10.9008572397
 10
8.6786747613
 20
11.004410424
  0
LWPOLYLINE
  5
6C6
100
AcDbEntity
  8
ASSI
100
AcDbPolyline
 62
7
  6
CONTINUOUS
 90
4
 70
0
 10
8.7901904103
 20
10.5873620006
 10
8.7193554546
 20
10.6895148242
 10
8.6784641438
 20
10.7939722774
 10
8.6654256542
 20
10.9008572397
  0
LWPOLYLINE
  5
6C7
100
AcDbEntity
  8
RACCORDO
100
AcDbPolyline
 62
250
  6
CONTINUOUS
 90
4
 70
0
 10
14.573802441
 20
0.7982825008
 10
14.5843202052
 20
0.7720730104
 10
14.592232137
 20
0.7446889479
 10
14.597135943
 20
0.7165425488
  0
LWPOLYLINE
  5
6C8
100
AcDbEntity
  8
ASSI
100
AcDbPolyline
 62
250
  6
CONTINUOUS
 90
4
 70
0
 10
14.573802441
 20
0.7982825008
 10
14.5843202052
 20
0.7720730104
 10
14.592232137
 20
0.7446889479
 10
14.597135943
 20
0.7165425488
  0
LWPOLYLINE
  5
6C9
100
AcDbEntity
  8
RACCORDO
100
AcDbPolyline
 62
250
  6
CONTINUOUS
 90
5
 70
0
 10
14.5169620858
 20
3.1169024482
 10
14.4789801686
 20
3.2554097108
 10
14.427734419
 20
3.390862076
 10
14.3648413046
 20
3.5209716119
 10
14.2982759639
 20
3.6336474843
  0
LWPOLYLINE
  5
6CA
100
AcDbEntity
  8
ASSI
100
AcDbPolyline
 62
250
  6
CONTINUOUS
 90
5
 70
0
 10
14.5169620858
 20
3.1169024482
 10
14.4789801686
 20
3.2554097108
 10
14.427734419
 20
3.390862076
 10
14.3648413046
 20
3.5209716119
 10
14.2982759639
 20
3.6336474843
  0
LINE
  5
6CB
100
AcDbEntity
  8
DRAFT
100
AcDbLine
 62
7
  6
CONTINUOUS
 10
11.9494913669
 20
10.6152827219
 11
11.931266033
 21
10.6866159865
  0
LINE
  5
6CC
100
AcDbEntity
  8
ASSI
100
AcDbLine
 62
7
  6
CONTINUOUS
 10
11.9494913669
 20
10.6152827219
 11
11.931266033
 21
10.6866159865
  0
LWPOLYLINE
  5
6CD
100
AcDbEntity
  8
RACCORDO
100
AcDbPolyline
 62
7
  6
CONTINUOUS
 90
5
 70
0
 10
14.5512604526
 20
3.0733835167
 10
14.5031185716
 20
3.2763201459
 10
14.4248052092
 20
3.4759723648
 10
14.318332383
 20
3.6677527157
 10
14.2982759639
 20
3.6949658547
  0
LWPOLYLINE
  5
6CE
100
AcDbEntity
  8
ASSI
100
AcDbPolyline
 62
7
  6
CONTINUOUS
 90
5
 70
0
 10
14.5512604526
 20
3.0733835167
 10
14.5031185716
 20
3.2763201459
 10
14.4248052092
 20
3.4759723648
 10
14.318332383
 20
3.6677527157
 10
14.2982759639
 20
3.6949658547
  0
LINE
  5
6CF
100
AcDbEntity
  8
RACCORDO
100
AcDbLine
 62
250
  6
CONTINUOUS
 10
14.5406328303
 20
2.9763907628
 11
14.5169620858
 21
3.1169024482
  0
LINE
  5
6D0
100
AcDbEntity
  8
ASSI
100
AcDbLine
 62
250
  6
CONTINUOUS
 10
14.5406328303
 20
2.9763907628
 11
14.5169620858
 21
3.1169024482
  0
LWPOLYLINE
  5
6D1
100
AcDbEntity
  8
ASSI
100
AcDbPolyline
 62
7
  6
CONTINUOUS
 90
3
 70
0
 10
-3.4013792556
 20
16.4619492098
 10
-3.372915478
 20
16.4562076591
 10
-3.3669224128
 20
16.4545518663
  0
LWPOLYLINE
  5
6D2
100
AcDbEntity
  8
RACCORDO
100
AcDbPolyline
 62
250
  6
CONTINUOUS
 90
5
 70
0
 10
-2.7049299801
 20
16.2634517761
 10
-2.7117966058
 20
16.2648900229
 10
-2.7310832806
 20
16.2638338886
 10
-2.7513825587
 20
16.2559254721
 10
-2.7720859541
 20
16.2416221999
  0
LWPOLYLINE
  5
6D3
100
AcDbEntity
  8
ASSI
100
AcDbPolyline
 62
250
  6
CONTINUOUS
 90
5
 70
0
 10
-2.7049299801
 20
16.2634517761
 10
-2.7117966058
 20
16.2648900229
 10
-2.7310832806
 20
16.2638338886
 10
-2.7513825587
 20
16.2559254721
 10
-2.7720859541
 20
16.2416221999
  0
LWPOLYLINE
  5
6D4
100
AcDbEntity
  8
RACCORDO
100
AcDbPolyline
 62
7
  6
CONTINUOUS
 90
5
 70
0
 10
11.568451874
 20
11.7342780037
 10
11.4879147921
 20
11.7817966098
 10
11.2919430246
 20
11.8626449009
 10
11.0945166327
 20
11.9107994133
 10
10.9010419266
 20
11.9253708986
  0
LWPOLYLINE
  5
6D5
100
AcDbEntity
  8
ASSI
100
AcDbPolyline
 62
7
  6
CONTINUOUS
 90
5
 70
0
 10
11.568451874
 20
11.7342780037
 10
11.4879147921
 20
11.7817966098
 10
11.2919430246
 20
11.8626449009
 10
11.0945166327
 20
11.9107994133
 10
10.9010419266
 20
11.9253708986
  0
LINE
  5
6D6
100
AcDbEntity
  8
DRAFT
100
AcDbLine
 62
7
  6
CONTINUOUS
 10
11.7733794322
 20
10.7056828667
 11
11.6747165391
 21
10.7782962682
  0
LINE
  5
6D7
100
AcDbEntity
  8
ASSI
100
AcDbLine
 62
7
  6
CONTINUOUS
 10
11.7733794322
 20
10.7056828667
 11
11.6747165391
 21
10.7782962682
  0
LWPOLYLINE
  5
6D8
100
AcDbEntity
  8
RACCORDO
100
AcDbPolyline
 62
250
  6
CONTINUOUS
 90
4
 70
0
 10
11.456646749
 20
10.4638488828
 10
11.4730859468
 20
10.4494546621
 10
11.4893961349
 20
10.4343053442
 10
11.5053296999
 20
10.4182674078
  0
LWPOLYLINE
  5
6D9
100
AcDbEntity
  8
RACCORDO
100
AcDbPolyline
 62
250
  6
CONTINUOUS
 90
3
 70
0
 10
11.5206862964
 20
10.4524511438
 10
11.5381424022
 20
10.4366800435
 10
11.555384518
 20
10.4199837946
  0
LINE
  5
6DA
100
AcDbEntity
  8
DRAFT
100
AcDbLine
 62
7
  6
CONTINUOUS
 10
11.8542326035
 20
10.6264796132
 11
11.7733794322
 21
10.7056828667
  0
LINE
  5
6DB
100
AcDbEntity
  8
ASSI
100
AcDbLine
 62
7
  6
CONTINUOUS
 10
11.8542326035
 20
10.6264796132
 11
11.7733794322
 21
10.7056828667
  0
LWPOLYLINE
  5
6DC
100
AcDbEntity
  8
RACCORDO
100
AcDbPolyline
 62
250
  6
CONTINUOUS
 90
5
 70
0
 10
11.555384518
 20
10.4199837946
 10
11.5722772381
 20
10.4023463136
 10
11.5886783021
 20
10.3837534043
 10
11.6045191556
 20
10.3640878907
 10
11.6163464687
 20
10.3478360309
  0
LWPOLYLINE
  5
6DD
100
AcDbEntity
  8
RACCORDO
100
AcDbPolyline
 62
250
  6
CONTINUOUS
 90
6
 70
0
 10
11.5053296999
 20
10.4182674078
 10
11.5209302158
 20
10.4013384253
 10
11.5361541086
 20
10.3835208242
 10
11.550623044
 20
10.3646883657
 10
11.5643937708
 20
10.344815544
 10
11.576974596
 20
10.3246258621
  0
LINE
  5
6DE
100
AcDbEntity
  8
RACCORDO
100
AcDbLine
 62
7
  6
CONTINUOUS
 10
10.5778074105
 20
12.3131850895
 11
10.6249592108
 21
12.2524073685
  0
LINE
  5
6DF
100
AcDbEntity
  8
ASSI
100
AcDbLine
 62
7
  6
CONTINUOUS
 10
10.5778074105
 20
12.3131850895
 11
10.6249592108
 21
12.2524073685
  0
LINE
  5
6E0
100
AcDbEntity
  8
DRAFT
100
AcDbLine
 62
7
  6
CONTINUOUS
 10
11.8940160447
 20
10.5707474718
 11
11.8542326035
 21
10.6264796132
  0
LINE
  5
6E1
100
AcDbEntity
  8
ASSI
100
AcDbLine
 62
7
  6
CONTINUOUS
 10
11.8940160447
 20
10.5707474718
 11
11.8542326035
 21
10.6264796132
  0
LWPOLYLINE
  5
6E2
100
AcDbEntity
  8
DRAFT
100
AcDbPolyline
 62
7
  6
CONTINUOUS
 90
5
 70
0
 10
11.931266033
 20
10.6866159865
 10
11.8748647942
 20
10.7862350851
 10
11.7859743525
 20
10.8804324909
 10
11.6674484794
 20
10.9694886427
 10
11.5273494118
 20
11.0469506088
  0
LWPOLYLINE
  5
6E3
100
AcDbEntity
  8
ASSI
100
AcDbPolyline
 62
7
  6
CONTINUOUS
 90
5
 70
0
 10
11.931266033
 20
10.6866159865
 10
11.8748647942
 20
10.7862350851
 10
11.7859743525
 20
10.8804324909
 10
11.6674484794
 20
10.9694886427
 10
11.5273494118
 20
11.0469506088
  0
LINE
  5
6E4
100
AcDbEntity
  8
RACCORDO
100
AcDbLine
 62
250
  6
CONTINUOUS
 10
14.5452444424
 20
10.1589518663
 11
14.5072380903
 21
10.2575749615
  0
LINE
  5
6E5
100
AcDbEntity
  8
ASSI
100
AcDbLine
 62
250
  6
CONTINUOUS
 10
14.5452444424
 20
10.1589518663
 11
14.5072380903
 21
10.2575749615
  0
LINE
  5
6E6
100
AcDbEntity
  8
RACCORDO
100
AcDbLine
 62
250
  6
CONTINUOUS
 10
14.5740969015
 20
10.0561659239
 11
14.5452444424
 21
10.1589518663
  0
LINE
  5
6E7
100
AcDbEntity
  8
ASSI
100
AcDbLine
 62
250
  6
CONTINUOUS
 10
14.5740969015
 20
10.0561659239
 11
14.5452444424
 21
10.1589518663
  0
LWPOLYLINE
  5
6E8
100
AcDbEntity
  8
RACCORDO
100
AcDbPolyline
 62
7
  6
CONTINUOUS
 90
3
 70
0
 10
14.6092012525
 20
10.1010959364
 10
14.5728063716
 20
10.2322030332
 10
14.5189368193
 20
10.3611746751
  0
LWPOLYLINE
  5
6E9
100
AcDbEntity
  8
ASSI
100
AcDbPolyline
 62
7
  6
CONTINUOUS
 90
3
 70
0
 10
14.6092012525
 20
10.1010959364
 10
14.5728063716
 20
10.2322030332
 10
14.5189368193
 20
10.3611746751
  0
LINE
  5
6EA
100
AcDbEntity
  8
RACCORDO
100
AcDbLine
 62
7
  6
CONTINUOUS
 10
14.6274249996
 20
9.9702771641
 11
14.6092012525
 21
10.1010959364
  0
LINE
  5
6EB
100
AcDbEntity
  8
ASSI
100
AcDbLine
 62
7
  6
CONTINUOUS
 10
14.6274249996
 20
9.9702771641
 11
14.6092012525
 21
10.1010959364
  0
LWPOLYLINE
  5
6EC
100
AcDbEntity
  8
RACCORDO
100
AcDbPolyline
 62
7
  6
CONTINUOUS
 90
9
 70
0
 10
13.774137428
 20
11.4534916312
 10
13.7622038856
 20
11.4682781591
 10
13.7463559259
 20
11.4848549952
 10
13.7290313908
 20
11.4999289513
 10
13.7103706688
 20
11.5133666209
 10
13.6905120021
 20
11.5250550868
 10
13.6696172834
 20
11.5348837446
 10
13.6478752218
 20
11.5427518301
 10
13.6430432545
 20
11.5441983594
  0
LWPOLYLINE
  5
6ED
100
AcDbEntity
  8
ASSI
100
AcDbPolyline
 62
7
  6
CONTINUOUS
 90
9
 70
0
 10
13.774137428
 20
11.4534916312
 10
13.7622038889
 20
11.4682781553
 10
13.7463559302
 20
11.4848549911
 10
13.7290313953
 20
11.4999289478
 10
13.7103706725
 20
11.5133666185
 10
13.6905120048
 20
11.5250550854
 10
13.6696172853
 20
11.5348837438
 10
13.6478752228
 20
11.5427518298
 10
13.6430432545
 20
11.5441983594
  0
LWPOLYLINE
  5
6EE
100
AcDbEntity
  8
RACCORDO
100
AcDbPolyline
 62
250
  6
CONTINUOUS
 90
9
 70
0
 10
13.73282296
 20
11.4097585821
 10
13.7204551875
 20
11.4254759988
 10
13.7067182122
 20
11.4408675913
 10
13.6916193843
 20
11.4557485707
 10
13.6751879221
 20
11.4699196156
 10
13.6574783445
 20
11.4831677089
 10
13.6385729987
 20
11.4952685652
 10
13.6185829232
 20
11.5059903879
 10
13.5976495389
 20
11.5150970507
  0
LWPOLYLINE
  5
6EF
100
AcDbEntity
  8
ASSI
100
AcDbPolyline
 62
250
  6
CONTINUOUS
 90
9
 70
0
 10
13.73282296
 20
11.4097585821
 10
13.7204551875
 20
11.4254759988
 10
13.7067182122
 20
11.4408675913
 10
13.6916193843
 20
11.4557485707
 10
13.6751879221
 20
11.4699196156
 10
13.6574783445
 20
11.4831677089
 10
13.6385729987
 20
11.4952685652
 10
13.6185829232
 20
11.5059903879
 10
13.5976495389
 20
11.5150970507
  0
LINE
  5
6F0
100
AcDbEntity
  8
RACCORDO
100
AcDbLine
 62
7
  6
CONTINUOUS
 10
13.7741429003
 20
11.4534843641
 11
13.8522255856
 21
11.3480346761
  0
LINE
  5
6F1
100
AcDbEntity
  8
ASSI
100
AcDbLine
 62
7
  6
CONTINUOUS
 10
13.7741429003
 20
11.4534843641
 11
13.8522255856
 21
11.3480346761
  0
LINE
  5
6F2
100
AcDbEntity
  8
RACCORDO
100
AcDbLine
 62
7
  6
CONTINUOUS
 10
13.8522255856
 20
11.3480346761
 11
13.9295123682
 21
11.2420699767
  0
LINE
  5
6F3
100
AcDbEntity
  8
ASSI
100
AcDbLine
 62
7
  6
CONTINUOUS
 10
13.8522255856
 20
11.3480346761
 11
13.9295123682
 21
11.2420699767
  0
LWPOLYLINE
  5
6F4
100
AcDbEntity
  8
RACCORDO
100
AcDbPolyline
 62
250
  6
CONTINUOUS
 90
3
 70
0
 10
13.9656781431
 20
11.0905013584
 10
13.8501406321
 20
11.2507242629
 10
13.7328229599
 20
11.4097585822
  0
LWPOLYLINE
  5
6F5
100
AcDbEntity
  8
ASSI
100
AcDbPolyline
 62
250
  6
CONTINUOUS
 90
3
 70
0
 10
13.9656781431
 20
11.0905013584
 10
13.8501406321
 20
11.2507242629
 10
13.7328229599
 20
11.4097585822
  0
LINE
  5
6F6
100
AcDbEntity
  8
RACCORDO
100
AcDbLine
 62
7
  6
CONTINUOUS
 10
13.9295123682
 20
11.2420699767
 11
14.0059962741
 21
11.1355997819
  0
LWPOLYLINE
  5
6F7
100
AcDbEntity
  8
ASSI
100
AcDbPolyline
 62
7
  6
CONTINUOUS
 90
3
 70
0
 10
13.9295123682
 20
11.2420699767
 10
14.0059962741
 20
11.1355997819
 10
14.0816704051
 20
11.0286336421
  0
LWPOLYLINE
  5
6F8
100
AcDbEntity
  8
RACCORDO
100
AcDbPolyline
 62
7
  6
CONTINUOUS
 90
4
 70
0
 10
14.0059962741
 20
11.1355997819
 10
14.0816704051
 20
11.0286336421
 10
14.1565279196
 20
10.9211811699
 10
14.2305620343
 20
10.8132520388
  0
LWPOLYLINE
  5
6F9
100
AcDbEntity
  8
ASSI
100
AcDbPolyline
 62
7
  6
CONTINUOUS
 90
3
 70
0
 10
14.0816704051
 20
11.0286336421
 10
14.1565279196
 20
10.9211811699
 10
14.2305620343
 20
10.8132520388
  0
LWPOLYLINE
  5
6FA
100
AcDbEntity
  8
RACCORDO
100
AcDbPolyline
 62
250
  6
CONTINUOUS
 90
3
 70
0
 10
14.1913123679
 20
10.7666187972
 10
14.0794103288
 20
10.9291220497
 10
13.9656781431
 20
11.0905013584
  0
LWPOLYLINE
  5
6FB
100
AcDbEntity
  8
ASSI
100
AcDbPolyline
 62
250
  6
CONTINUOUS
 90
3
 70
0
 10
14.1913123679
 20
10.7666187972
 10
14.0794103288
 20
10.9291220497
 10
13.9656781431
 20
11.0905013584
  0
LWPOLYLINE
  5
6FC
100
AcDbEntity
  8
RACCORDO
100
AcDbPolyline
 62
7
  6
CONTINUOUS
 90
4
 70
0
 10
14.2305620343
 20
10.8132520388
 10
14.3037660515
 20
10.7048559444
 10
14.3761333574
 20
10.5960026048
 10
14.4476574031
 20
10.486701789
  0
LWPOLYLINE
  5
6FD
100
AcDbEntity
  8
ASSI
100
AcDbPolyline
 62
7
  6
CONTINUOUS
 90
4
 70
0
 10
14.2305620343
 20
10.8132520388
 10
14.3037660515
 20
10.7048559444
 10
14.3761333574
 20
10.5960026048
 10
14.4476574031
 20
10.486701789
  0
LINE
  5
6FE
100
AcDbEntity
  8
RACCORDO
100
AcDbLine
 62
250
  6
CONTINUOUS
 10
14.3013597872
 20
10.603024334
 11
14.1913123679
 21
10.7666187972
  0
LINE
  5
6FF
100
AcDbEntity
  8
ASSI
100
AcDbLine
 62
250
  6
CONTINUOUS
 10
14.3013597872
 20
10.603024334
 11
14.1913123679
 21
10.7666187972
  0
LINE
  5
700
100
AcDbEntity
  8
RACCORDO
100
AcDbLine
 62
250
  6
CONTINUOUS
 10
14.4095284677
 20
10.4383716599
 11
14.3013597872
 21
10.603024334
  0
LINE
  5
701
100
AcDbEntity
  8
ASSI
100
AcDbLine
 62
250
  6
CONTINUOUS
 10
14.4095284677
 20
10.4383716599
 11
14.3013597872
 21
10.603024334
  0
LINE
  5
702
100
AcDbEntity
  8
RACCORDO
100
AcDbLine
 62
7
  6
CONTINUOUS
 10
14.5189368193
 20
10.3611746751
 11
14.4476243016
 21
10.4866942566
  0
LINE
  5
703
100
AcDbEntity
  8
ASSI
100
AcDbLine
 62
7
  6
CONTINUOUS
 10
14.5189368193
 20
10.3611746751
 11
14.4476243016
 21
10.4866942566
  0
LWPOLYLINE
  5
704
100
AcDbEntity
  8
RACCORDO
100
AcDbPolyline
 62
250
  6
CONTINUOUS
 90
3
 70
0
 10
14.5072380903
 20
10.2575749615
 10
14.4615253265
 20
10.3509831111
 10
14.4095292277
 20
10.4383723635
  0
LWPOLYLINE
  5
705
100
AcDbEntity
  8
ASSI
100
AcDbPolyline
 62
250
  6
CONTINUOUS
 90
3
 70
0
 10
14.5072380903
 20
10.2575749615
 10
14.4615253265
 20
10.3509831111
 10
14.4095292277
 20
10.4383723635
  0
ELLIPSE
  5
706
100
AcDbEntity
  8
0
100
AcDbEllipse
 62
7
  6
CONTINUOUS
 10
8.8765805287
 20
-11.4628184799
 30
0.0
 11
-0.1634152074
 21
0.1895696476
 31
0.0
 40
0.7494504149
 41
-3.1954200739
 42
-2.4259436054
  0
ELLIPSE
  5
707
100
AcDbEntity
  8
0
100
AcDbEllipse
 62
7
  6
CONTINUOUS
 10
8.8765805287
 20
7.5025436198
 30
0.0
 11
-0.1633496887
 21
0.1893273243
 31
0.0
 40
0.7508075094
 41
-2.4254825658
 42
-0.8555996275
  0
ELLIPSE
  5
708
100
AcDbEntity
  8
0
100
AcDbEllipse
 62
7
  6
CONTINUOUS
 10
8.4404540162
 20
7.1011986899
 30
0.0
 11
0.7625837833
 21
0.4423094366
 31
0.0
 40
0.1875320677
 41
-1.5004801437
 42
-1.3938750032
  0
ELLIPSE
  5
709
100
AcDbEntity
  8
0
100
AcDbEllipse
 62
7
  6
CONTINUOUS
 10
-10.0893098542
 20
12.9775245788
 30
0.0
 11
-0.1634152074
 21
0.1895696476
 31
0.0
 40
0.7494504149
 41
-0.8542338901
 42
0.0538274293
  0
ELLIPSE
  5
70A
100
AcDbEntity
  8
0
100
AcDbEllipse
 62
7
  6
CONTINUOUS
 10
-10.5741933246
 20
12.4947616424
 30
0.0
 11
-0.1634152074
 21
0.1895696476
 31
0.0
 40
0.7494504149
 41
-0.8542338901
 42
0.6090439078
  0
ELLIPSE
  5
70B
100
AcDbEntity
  8
0
100
AcDbEllipse
 62
7
  6
CONTINUOUS
 10
8.361463999
 20
-11.8460809473
 30
0.0
 11
-0.1634152074
 21
0.1895696476
 31
0.0
 40
0.7494504149
 41
2.2873587635
 42
3.7506365614
  0
ELLIPSE
  5
70C
100
AcDbEntity
  8
0
100
AcDbEllipse
 62
7
  6
CONTINUOUS
 10
8.4404540162
 20
-11.7873099564
 30
0.0
 11
0.7541499643
 21
0.7541471984
 31
0.0
 40
0.1859812668
 41
4.7071707498
 42
4.8137758902
  0
ELLIPSE
  5
70D
100
AcDbEntity
  8
0
100
AcDbEllipse
 62
7
  6
CONTINUOUS
 10
8.361463999
 20
7.0285082159
 30
0.0
 11
-0.1633496887
 21
0.1893273243
 31
0.0
 40
0.7508075094
 41
-2.3188774254
 42
-0.8555996275
  0
ELLIPSE
  5
70E
100
AcDbEntity
  8
RACCORDO
100
AcDbEllipse
 62
7
  6
CONTINUOUS
 10
-10.3574996517
 20
11.9677315065
 30
0.0
 11
-0.2326104039
 21
0.3255608965
 31
0.0
 40
0.7904830878
 41
-0.7849203837
 42
0.0318645534
  0
ELLIPSE
  5
70F
100
AcDbEntity
  8
RACCORDO
100
AcDbEllipse
 62
7
  6
CONTINUOUS
 10
8.1320371831
 20
6.6302619721
 30
0.0
 11
-0.232539292
 21
0.325461945
 31
0.0
 40
0.7909647754
 41
-2.3557158495
 42
-0.7852241092
  0
ELLIPSE
  5
710
100
AcDbEntity
  8
RACCORDO
100
AcDbEllipse
 62
7
  6
CONTINUOUS
 10
7.2147283012
 20
-12.324510413
 30
0.0
 11
-0.2326104039
 21
0.3255608965
 31
0.0
 40
0.7904830878
 41
-3.1734572038
 42
-2.356021297
  0
ELLIPSE
  5
711
100
AcDbEntity
  8
DRAFT
100
AcDbEllipse
 62
7
  6
CONTINUOUS
 10
10.3370309464
 20
10.3458450854
 30
0.0
 11
1.3749958232
 21
-0.0068682724
 31
0.0
 40
0.493445535
 41
2.6379119864
 42
2.9296951259
  0
ELLIPSE
  5
712
100
AcDbEntity
  8
RACCORDO
100
AcDbEllipse
 62
7
  6
CONTINUOUS
 10
3.6306290121
 20
14.1743251814
 30
0.0
 11
0.1245753367
 21
0.223632383
 31
0.0
 40
0.2976755099
 41
0.0687183318
 42
0.6392635965
  0
ELLIPSE
  5
713
100
AcDbEntity
  8
RACCORDO
100
AcDbEllipse
 62
7
  6
CONTINUOUS
 10
7.5277433291
 20
13.0493251814
 30
0.0
 11
0.1245753367
 21
0.223632383
 31
0.0
 40
0.2976755099
 41
0.0687183318
 42
0.6392635965
  0
ELLIPSE
  5
714
100
AcDbEntity
  8
RACCORDO
100
AcDbEllipse
 62
7
  6
CONTINUOUS
 10
5.5791861706
 20
13.6118251814
 30
0.0
 11
0.1245753367
 21
0.223632383
 31
0.0
 40
0.2976755099
 41
0.0687183318
 42
0.6392635965
  0
ELLIPSE
  5
715
100
AcDbEntity
  8
RACCORDO
100
AcDbEllipse
 62
7
  6
CONTINUOUS
 10
10.4603645241
 20
12.2027503632
 30
0.0
 11
-0.209733968
 21
0.2845796577
 31
0.0
 40
0.4534354967
 41
4.7667928715
 42
6.3201359058
  0
ELLIPSE
  5
716
100
AcDbEntity
  8
RACCORDO
100
AcDbEllipse
 62
7
  6
CONTINUOUS
 10
6.5066416624
 20
13.3440918425
 30
0.0
 11
-0.0014882736
 21
0.2576116596
 31
0.0
 40
0.521649411
 41
5.1477311921
 42
6.7010742263
  0
ELLIPSE
  5
717
100
AcDbEntity
  8
RACCORDO
100
AcDbEllipse
 62
7
  6
CONTINUOUS
 10
4.5580845039
 20
13.9065918425
 30
0.0
 11
-0.0014882736
 21
0.2576116596
 31
0.0
 40
0.521649411
 41
5.1477311921
 42
6.7010742263
  0
ELLIPSE
  5
718
100
AcDbEntity
  8
RACCORDO
100
AcDbEllipse
 62
7
  6
CONTINUOUS
 10
2.6095273453
 20
14.4690918425
 30
0.0
 11
-0.0014882736
 21
0.2576116596
 31
0.0
 40
0.521649411
 41
5.1477311921
 42
6.7010742263
  0
ELLIPSE
  5
719
100
AcDbEntity
  8
RACCORDO
100
AcDbEllipse
 62
7
  6
CONTINUOUS
 10
-1.8588534388
 20
14.2482611019
 30
0.0
 11
-0.209733968
 21
0.2845796577
 31
0.0
 40
0.4534354967
 41
4.7667928715
 42
6.3201359058
  0
ELLIPSE
  5
71A
100
AcDbEntity
  8
DRAFT
100
AcDbEllipse
 62
7
  6
CONTINUOUS
 10
0.5311976441
 20
12.3744813112
 30
0.0
 11
0.5903298848
 21
-0.0058447268
 31
0.0
 40
0.4868749522
 41
2.635586116
 42
5.7516254739
  0
ELLIPSE
  5
71B
100
AcDbEntity
  8
DRAFT
100
AcDbEllipse
 62
7
  6
CONTINUOUS
 10
2.4797548026
 20
11.8119813112
 30
0.0
 11
0.5903298848
 21
-0.0058447268
 31
0.0
 40
0.4868749522
 41
2.6355862731
 42
5.7516254739
  0
ELLIPSE
  5
71C
100
AcDbEntity
  8
DRAFT
100
AcDbEllipse
 62
7
  6
CONTINUOUS
 10
4.4283119611
 20
11.2494813112
 30
0.0
 11
0.5903298848
 21
-0.0058447268
 31
0.0
 40
0.4868749522
 41
2.6355862731
 42
5.7516254739
  0
ELLIPSE
  5
71D
100
AcDbEntity
  8
RACCORDO
100
AcDbEllipse
 62
7
  6
CONTINUOUS
 10
7.4061188171
 20
9.6761999782
 30
0.0
 11
0.0447166684
 21
0.2471852622
 31
0.0
 40
0.2896068539
 41
-0.029653685
 42
0.5408956279
  0
ELLIPSE
  5
71E
100
AcDbEntity
  8
RACCORDO
100
AcDbEllipse
 62
7
  6
CONTINUOUS
 10
-2.3366669755
 20
12.4886999782
 30
0.0
 11
0.0447166684
 21
0.2471852622
 31
0.0
 40
0.2896068539
 41
-0.029653685
 42
0.5408956279
  0
ELLIPSE
  5
71F
100
AcDbEntity
  8
RACCORDO
100
AcDbEllipse
 62
7
  6
CONTINUOUS
 10
13.0136973687
 20
11.4656666606
 30
0.0
 11
0.2537616433
 21
0.1869033636
 31
0.0
 40
0.0255821862
 41
-0.550904138
 42
0.0196421602
  0
ELLIPSE
  5
720
100
AcDbEntity
  8
ASSI
100
AcDbEllipse
 62
7
  6
CONTINUOUS
 10
5.5791861706
 20
13.6118251814
 30
0.0
 11
0.1245753367
 21
0.223632383
 31
0.0
 40
0.2976755099
 41
0.0687183318
 42
0.6392635965
  0
ELLIPSE
  5
721
100
AcDbEntity
  8
ASSI
100
AcDbEllipse
 62
7
  6
CONTINUOUS
 10
7.5277433291
 20
13.0493251814
 30
0.0
 11
0.1245753367
 21
0.223632383
 31
0.0
 40
0.2976755099
 41
0.0687183318
 42
0.6392635965
  0
ELLIPSE
  5
722
100
AcDbEntity
  8
ASSI
100
AcDbEllipse
 62
7
  6
CONTINUOUS
 10
3.6306290121
 20
14.1743251814
 30
0.0
 11
0.1245753367
 21
0.223632383
 31
0.0
 40
0.2976755099
 41
0.0687183318
 42
0.6392635965
  0
ELLIPSE
  5
723
100
AcDbEntity
  8
ASSI
100
AcDbEllipse
 62
7
  6
CONTINUOUS
 10
10.3370309464
 20
10.3458450854
 30
0.0
 11
1.3749958232
 21
-0.0068682724
 31
0.0
 40
0.493445535
 41
2.6379119864
 42
2.9296951259
  0
ELLIPSE
  5
724
100
AcDbEntity
  8
ASSI
100
AcDbEllipse
 62
7
  6
CONTINUOUS
 10
0.5311976441
 20
12.3744813112
 30
0.0
 11
0.5903298848
 21
-0.0058447268
 31
0.0
 40
0.4868749522
 41
2.635586116
 42
5.7516254739
  0
ELLIPSE
  5
725
100
AcDbEntity
  8
ASSI
100
AcDbEllipse
 62
7
  6
CONTINUOUS
 10
2.4797548026
 20
11.8119813112
 30
0.0
 11
0.5903298848
 21
-0.0058447268
 31
0.0
 40
0.4868749522
 41
2.6355862731
 42
5.7516254739
  0
ELLIPSE
  5
726
100
AcDbEntity
  8
ASSI
100
AcDbEllipse
 62
7
  6
CONTINUOUS
 10
4.4283119611
 20
11.2494813112
 30
0.0
 11
0.5903298848
 21
-0.0058447268
 31
0.0
 40
0.4868749522
 41
2.6355862731
 42
5.7516254739
  0
ELLIPSE
  5
727
100
AcDbEntity
  8
ASSI
100
AcDbEllipse
 62
7
  6
CONTINUOUS
 10
13.0136973687
 20
11.4656666606
 30
0.0
 11
0.2537616433
 21
0.1869033636
 31
0.0
 40
0.0255821862
 41
-0.550904138
 42
0.0196421602
  0
ELLIPSE
  5
728
100
AcDbEntity
  8
ASSI
100
AcDbEllipse
 62
7
  6
CONTINUOUS
 10
-2.3366669755
 20
12.4886999782
 30
0.0
 11
0.0447166684
 21
0.2471852622
 31
0.0
 40
0.2896068539
 41
-0.029653685
 42
0.5408956279
  0
ELLIPSE
  5
729
100
AcDbEntity
  8
ASSI
100
AcDbEllipse
 62
7
  6
CONTINUOUS
 10
7.4061188171
 20
9.6761999782
 30
0.0
 11
0.0447166684
 21
0.2471852622
 31
0.0
 40
0.2896068539
 41
-0.029653685
 42
0.5408956279
  0
ELLIPSE
  5
72A
100
AcDbEntity
  8
ASSI
100
AcDbEllipse
 62
7
  6
CONTINUOUS
 10
10.4603645241
 20
12.2027503632
 30
0.0
 11
-0.209733968
 21
0.2845796577
 31
0.0
 40
0.4534354967
 41
4.7667928715
 42
6.3201359058
  0
ELLIPSE
  5
72B
100
AcDbEntity
  8
ASSI
100
AcDbEllipse
 62
7
  6
CONTINUOUS
 10
6.5066416624
 20
13.3440918425
 30
0.0
 11
-0.0014882736
 21
0.2576116596
 31
0.0
 40
0.521649411
 41
5.1477311921
 42
6.7010742263
  0
ELLIPSE
  5
72C
100
AcDbEntity
  8
ASSI
100
AcDbEllipse
 62
7
  6
CONTINUOUS
 10
4.5580845039
 20
13.9065918425
 30
0.0
 11
-0.0014882736
 21
0.2576116596
 31
0.0
 40
0.521649411
 41
5.1477311921
 42
6.7010742263
  0
ELLIPSE
  5
72D
100
AcDbEntity
  8
ASSI
100
AcDbEllipse
 62
7
  6
CONTINUOUS
 10
2.6095273453
 20
14.4690918425
 30
0.0
 11
-0.0014882736
 21
0.2576116596
 31
0.0
 40
0.521649411
 41
5.1477311921
 42
6.7010742263
  0
ELLIPSE
  5
72E
100
AcDbEntity
  8
ASSI
100
AcDbEllipse
 62
7
  6
CONTINUOUS
 10
-1.8588534388
 20
14.2482611019
 30
0.0
 11
-0.209733968
 21
0.2845796577
 31
0.0
 40
0.4534354967
 41
4.7667928715
 42
6.3201359058
  0
ENDSEC
  0
SECTION
  2
OBJECTS
  0
DICTIONARY
  5
C
100
AcDbDictionary
280
0
281
1
  3
ACAD_GROUP
350
D
  3
ACAD_MLINESTYLE
350
17
  3
ACAD_LAYOUT
350
1A
  3
ACAD_PLOTSETTINGS
350
19
  3
ACAD_PLOTSTYLENAME
350
E
  0
DICTIONARY
  5
D
102
{ACAD_REACTORS
330
C
102
}
100
AcDbDictionary
280
0
281
1
  0
ACDBDICTIONARYWDFLT
  5
E
102
{ACAD_REACTORS
330
C
102
}
100
AcDbDictionary
281
1
  3
Normal
350
F
100
AcDbDictionaryWithDefault
340
F
  0
DICTIONARY
  5
17
102
{ACAD_REACTORS
330
C
102
}
100
AcDbDictionary
280
0
281
1
  3
Standard
350
18
  0
DICTIONARY
  5
19
102
{ACAD_REACTORS
330
C
102
}
100
AcDbDictionary
281
1
  0
DICTIONARY
  5
1A
102
{ACAD_REACTORS
330
C
102
}
100
AcDbDictionary
281
1
  3
Model
350
72F
  3
Layout1
350
730
  0
ACDBPLACEHOLDER
  5
F
102
{ACAD_REACTORS
330
E
102
}
  0
MLINESTYLE
  5
18
102
{ACAD_REACTORS
330
17
102
}
100
AcDbMlineStyle
  2
STANDARD
 70
0
  3

 62
256
 51
90.0
 52
90.0
 71
2
 49
0.5
 62
256
  6
BYLAYER
 49
-0.5
 62
256
  6
BYLAYER
  0
LAYOUT
  5
72F
102
{ACAD_REACTORS
330
1A
102
}
100
AcDbPlotSettings
  1

  2
none_device
  4
ANSI_A_(11.00_x_8.50_Inches)
  6

 40
0.0
 41
0.0
 42
0.0
 43
0.0
 44
279.4
 45
215.9
 46
0.0
 47
0.0
 48
0.0
 49
0.0
140
0.0
141
0.0
142
1.0
143
1.0
 70
1024
 72
1
 73
0
 74
0
  7

 75
0
147
1.0
148
0.0
149
0.0
100
AcDbLayout
  1
Model
 70
0
 71
0
 10
0.0
 20
0.0
 11
279.4
 21
215.9
 12
0.0
 22
0.0
 32
0.0
 14
0.0
 24
0.0
 34
0.0
 15
0.0
 25
0.0
 35
0.0
146
0.0
 13
0.0
 23
0.0
 33
0.0
 16
1.0
 26
0.0
 36
0.0
 17
0.0
 27
1.0
 37
0.0
 76
0
330
223
345
0
346
0
  0
LAYOUT
  5
730
102
{ACAD_REACTORS
330
1A
102
}
100
AcDbPlotSettings
  1

  2
none_device
  4
ANSI_A_(11.00_x_8.50_Inches)
  6

 40
0.0
 41
0.0
 42
0.0
 43
0.0
 44
279.4
 45
215.9
 46
0.0
 47
0.0
 48
0.0
 49
0.0
140
0.0
141
0.0
142
1.0
143
1.0
 70
0
 72
1
 73
0
 74
0
  7

 75
0
147
1.0
148
0.0
149
0.0
100
AcDbLayout
  1
Layout1
 70
0
 71
1
 10
0.0
 20
0.0
 11
279.4
 21
215.9
 12
0.0
 22
0.0
 32
0.0
 14
0.0
 24
0.0
 34
0.0
 15
0.0
 25
0.0
 35
0.0
146
0.0
 13
0.0
 23
0.0
 33
0.0
 16
1.0
 26
0.0
 36
0.0
 17
0.0
 27
1.0
 37
0.0
 76
0
330
224
345
0
346
0
  0
ENDSEC
  0
EOF
